  0
SECTION
  2
HEADER
  9
$ACADVER
  1
AC1015
  9
$ACADMAINTVER
 70
    20
  9
$DWGCODEPAGE
  3
ANSI_1250
  9
$INSBASE
 10
0.0
 20
0.0
 30
0.0
  9
$EXTMIN
 10
238.8665004761905
 20
187.038002
 30
0.0
  9
$EXTMAX
 10
349.642549
 20
282.5566635238095
 30
0.0
  9
$LIMMIN
 10
-0.5
 20
-0.5
  9
$LIMMAX
 10
5.0
 20
5.0
  9
$ORTHOMODE
 70
     0
  9
$REGENMODE
 70
     1
  9
$FILLMODE
 70
     1
  9
$QTEXTMODE
 70
     0
  9
$MIRRTEXT
 70
     1
  9
$LTSCALE
 40
1.0
  9
$ATTMODE
 70
     1
  9
$TEXTSIZE
 40
0.2
  9
$TRACEWID
 40
0.05
  9
$TEXTSTYLE
  7
Standard
  9
$CLAYER
  8
0
  9
$CELTYPE
  6
BYLAYER
  9
$CECOLOR
 62
   256
  9
$CELTSCALE
 40
1.0
  9
$DISPSILH
 70
     0
  9
$DIMSCALE
 40
1.0
  9
$DIMASZ
 40
0.18
  9
$DIMEXO
 40
0.0625
  9
$DIMDLI
 40
0.38
  9
$DIMRND
 40
0.0
  9
$DIMDLE
 40
0.0
  9
$DIMEXE
 40
0.18
  9
$DIMTP
 40
0.0
  9
$DIMTM
 40
0.0
  9
$DIMTXT
 40
0.18
  9
$DIMCEN
 40
0.09
  9
$DIMTSZ
 40
0.0
  9
$DIMTOL
 70
     0
  9
$DIMLIM
 70
     0
  9
$DIMTIH
 70
     1
  9
$DIMTOH
 70
     1
  9
$DIMSE1
 70
     0
  9
$DIMSE2
 70
     0
  9
$DIMTAD
 70
     0
  9
$DIMZIN
 70
     0
  9
$DIMBLK
  1

  9
$DIMASO
 70
     1
  9
$DIMSHO
 70
     1
  9
$DIMPOST
  1

  9
$DIMAPOST
  1

  9
$DIMALT
 70
     0
  9
$DIMALTD
 70
     2
  9
$DIMALTF
 40
25.4
  9
$DIMLFAC
 40
1.0
  9
$DIMTOFL
 70
     0
  9
$DIMTVP
 40
0.0
  9
$DIMTIX
 70
     0
  9
$DIMSOXD
 70
     0
  9
$DIMSAH
 70
     0
  9
$DIMBLK1
  1

  9
$DIMBLK2
  1

  9
$DIMSTYLE
  2
Standard
  9
$DIMCLRD
 70
     0
  9
$DIMCLRE
 70
     0
  9
$DIMCLRT
 70
     0
  9
$DIMTFAC
 40
1.0
  9
$DIMGAP
 40
0.09
  9
$DIMJUST
 70
     0
  9
$DIMSD1
 70
     0
  9
$DIMSD2
 70
     0
  9
$DIMTOLJ
 70
     1
  9
$DIMTZIN
 70
     0
  9
$DIMALTZ
 70
     0
  9
$DIMALTTZ
 70
     0
  9
$DIMUPT
 70
     0
  9
$DIMDEC
 70
     4
  9
$DIMTDEC
 70
     4
  9
$DIMALTU
 70
     2
  9
$DIMALTTD
 70
     2
  9
$DIMTXSTY
  7
Standard
  9
$DIMAUNIT
 70
     0
  9
$DIMADEC
 70
     0
  9
$DIMALTRND
 40
0.0
  9
$DIMAZIN
 70
     0
  9
$DIMDSEP
 70
    46
  9
$DIMATFIT
 70
     3
  9
$DIMFRAC
 70
     0
  9
$DIMLDRBLK
  1

  9
$DIMLUNIT
 70
     2
  9
$DIMLWD
 70
    -2
  9
$DIMLWE
 70
    -2
  9
$DIMTMOVE
 70
     0
  9
$LUNITS
 70
     2
  9
$LUPREC
 70
     4
  9
$SKETCHINC
 40
0.1
  9
$FILLETRAD
 40
0.5
  9
$AUNITS
 70
     0
  9
$AUPREC
 70
     0
  9
$MENU
  1
.
  9
$ELEVATION
 40
0.0
  9
$PELEVATION
 40
0.0
  9
$THICKNESS
 40
0.0
  9
$LIMCHECK
 70
     0
  9
$CHAMFERA
 40
0.0
  9
$CHAMFERB
 40
0.0
  9
$CHAMFERC
 40
0.0
  9
$CHAMFERD
 40
0.0
  9
$SKPOLY
 70
     0
  9
$TDCREATE
 40
2458527.428456933
  9
$TDUCREATE
 40
2458527.386790266
  9
$TDUPDATE
 40
2458527.429434005
  9
$TDUUPDATE
 40
2458527.387767338
  9
$TDINDWG
 40
0.0006262500
  9
$TDUSRTIMER
 40
0.0006262384
  9
$USRTIMER
 70
     1
  9
$ANGBASE
 50
0.0
  9
$ANGDIR
 70
     0
  9
$PDMODE
 70
     0
  9
$PDSIZE
 40
0.0
  9
$PLINEWID
 40
0.0
  9
$SPLFRAME
 70
     0
  9
$SPLINETYPE
 70
     6
  9
$SPLINESEGS
 70
     8
  9
$HANDSEED
  5
2D5
  9
$SURFTAB1
 70
     6
  9
$SURFTAB2
 70
     6
  9
$SURFTYPE
 70
     6
  9
$SURFU
 70
     6
  9
$SURFV
 70
     6
  9
$UCSBASE
  2

  9
$UCSNAME
  2

  9
$UCSORG
 10
292.239932
 20
216.863954
 30
0.0
  9
$UCSXDIR
 10
1.0
 20
0.0
 30
0.0
  9
$UCSYDIR
 10
0.0
 20
1.0
 30
0.0
  9
$UCSORTHOREF
  2

  9
$UCSORTHOVIEW
 70
     0
  9
$UCSORGTOP
 10
0.0
 20
0.0
 30
0.0
  9
$UCSORGBOTTOM
 10
0.0
 20
0.0
 30
0.0
  9
$UCSORGLEFT
 10
0.0
 20
0.0
 30
0.0
  9
$UCSORGRIGHT
 10
0.0
 20
0.0
 30
0.0
  9
$UCSORGFRONT
 10
0.0
 20
0.0
 30
0.0
  9
$UCSORGBACK
 10
0.0
 20
0.0
 30
0.0
  9
$PUCSBASE
  2

  9
$PUCSNAME
  2

  9
$PUCSORG
 10
0.0
 20
0.0
 30
0.0
  9
$PUCSXDIR
 10
1.0
 20
0.0
 30
0.0
  9
$PUCSYDIR
 10
0.0
 20
1.0
 30
0.0
  9
$PUCSORTHOREF
  2

  9
$PUCSORTHOVIEW
 70
     0
  9
$PUCSORGTOP
 10
0.0
 20
0.0
 30
0.0
  9
$PUCSORGBOTTOM
 10
0.0
 20
0.0
 30
0.0
  9
$PUCSORGLEFT
 10
0.0
 20
0.0
 30
0.0
  9
$PUCSORGRIGHT
 10
0.0
 20
0.0
 30
0.0
  9
$PUCSORGFRONT
 10
0.0
 20
0.0
 30
0.0
  9
$PUCSORGBACK
 10
0.0
 20
0.0
 30
0.0
  9
$USERI1
 70
     0
  9
$USERI2
 70
     0
  9
$USERI3
 70
     0
  9
$USERI4
 70
     0
  9
$USERI5
 70
     0
  9
$USERR1
 40
0.0
  9
$USERR2
 40
0.0
  9
$USERR3
 40
0.0
  9
$USERR4
 40
0.0
  9
$USERR5
 40
0.0
  9
$WORLDVIEW
 70
     1
  9
$SHADEDGE
 70
     3
  9
$SHADEDIF
 70
    70
  9
$TILEMODE
 70
     1
  9
$MAXACTVP
 70
    64
  9
$PINSBASE
 10
0.0
 20
0.0
 30
0.0
  9
$PLIMCHECK
 70
     0
  9
$PEXTMIN
 10
-0.5
 20
-0.5
 30
-0.5
  9
$PEXTMAX
 10
5.0
 20
5.0
 30
5.0
  9
$PLIMMIN
 10
-0.5
 20
-0.5
  9
$PLIMMAX
 10
5.0
 20
5.0
  9
$UNITMODE
 70
     0
  9
$VISRETAIN
 70
     1
  9
$PLINEGEN
 70
     0
  9
$PSLTSCALE
 70
     1
  9
$TREEDEPTH
 70
  3020
  9
$CMLSTYLE
  2
Standard
  9
$CMLJUST
 70
     0
  9
$CMLSCALE
 40
1.0
  9
$PROXYGRAPHICS
 70
     1
  9
$MEASUREMENT
 70
     1
  9
$CELWEIGHT
370
    13
  9
$ENDCAPS
280
     0
  9
$JOINSTYLE
280
     0
  9
$LWDISPLAY
290
     0
  9
$INSUNITS
 70
     4
  9
$HYPERLINKBASE
  1

  9
$STYLESHEET
  1

  9
$XEDIT
290
     1
  9
$CEPSNTYPE
380
     0
  9
$PSTYLEMODE
290
     1
  9
$FINGERPRINTGUID
  2
{8945CA88-E250-4D98-A551-C86BC45312ED}
  9
$VERSIONGUID
  2
{2CA6E70A-E65B-46A7-B54C-B37E4EEB1914}
  9
$EXTNAMES
290
     1
  9
$PSVPSCALE
 40
0.0
  9
$OLESTARTUP
290
     0
  0
ENDSEC
  0
SECTION
  2
CLASSES
  0
CLASS
  1
ACDBDICTIONARYWDFLT
  2
AcDbDictionaryWithDefault
  3
ObjectDBX Classes
 90
        0
280
     0
281
     0
  0
CLASS
  1
VISUALSTYLE
  2
AcDbVisualStyle
  3
ObjectDBX Classes
 90
     4095
280
     0
281
     0
  0
CLASS
  1
MATERIAL
  2
AcDbMaterial
  3
ObjectDBX Classes
 90
     1153
280
     0
281
     0
  0
CLASS
  1
SCALE
  2
AcDbScale
  3
ObjectDBX Classes
 90
     1153
280
     0
281
     0
  0
CLASS
  1
SUN
  2
AcDbSun
  3
SCENEOE
 90
    33921
280
     0
281
     0
  0
CLASS
  1
DICTIONARYVAR
  2
AcDbDictionaryVar
  3
ObjectDBX Classes
 90
        0
280
     0
281
     0
  0
CLASS
  1
ACDBPLACEHOLDER
  2
AcDbPlaceHolder
  3
ObjectDBX Classes
 90
        0
280
     0
281
     0
  0
CLASS
  1
LAYOUT
  2
AcDbLayout
  3
ObjectDBX Classes
 90
        0
280
     0
281
     0
  0
CLASS
  1
TABLESTYLE
  2
AcDbTableStyle
  3
ObjectDBX Classes
 90
     4095
280
     0
281
     0
  0
CLASS
  1
MLEADERSTYLE
  2
AcDbMLeaderStyle
  3
ACDB_MLEADERSTYLE_CLASS
 90
     4095
280
     0
281
     0
  0
CLASS
  1
ACDBSECTIONVIEWSTYLE
  2
AcDbSectionViewStyle
  3
ObjectDBX Classes
 90
     1025
280
     0
281
     0
  0
CLASS
  1
ACDBDETAILVIEWSTYLE
  2
AcDbDetailViewStyle
  3
ObjectDBX Classes
 90
     1025
280
     0
281
     0
  0
CLASS
  1
SORTENTSTABLE
  2
AcDbSortentsTable
  3
ObjectDBX Classes
 90
        0
280
     0
281
     0
  0
CLASS
  1
CELLSTYLEMAP
  2
AcDbCellStyleMap
  3
ObjectDBX Classes
 90
     1152
280
     0
281
     0
  0
ENDSEC
  0
SECTION
  2
TABLES
  0
TABLE
  2
VPORT
  5
8
330
0
100
AcDbSymbolTable
 70
    17
  0
VPORT
  5
29
330
8
100
AcDbSymbolTableRecord
100
AcDbViewportTableRecord
  2
DUMMY
 70
     0
 10
0.0
 20
0.0
 11
1.0
 21
1.0
 12
10.429907
 22
4.5
 13
0.0
 23
0.0
 14
0.5
 24
0.5
 15
0.5
 25
0.5
 16
0.0
 26
0.0
 36
1.0
 17
0.0
 27
0.0
 37
0.0
 40
9.0
 41
1.972972999999999
 42
50.0
 43
0.0
 44
0.0
 50
0.0
 51
0.0
 71
     0
 72
   100
 73
     1
 74
     3
 75
     0
 76
     0
 77
     0
 78
     0
281
     0
 65
     1
110
0.0
120
0.0
130
0.0
111
1.0
121
0.0
131
0.0
112
0.0
122
1.0
132
0.0
 79
     0
146
0.0
  0
VPORT
  5
1CE
330
8
100
AcDbSymbolTableRecord
100
AcDbViewportTableRecord
  2
*ACTIVE
 70
     0
 10
0.0
 20
0.0
 11
1.0
 21
1.0
 12
360.2507631909712
 22
236.4509726882269
 13
0.0
 23
0.0
 14
0.5
 24
0.5
 15
0.5
 25
0.5
 16
0.0
 26
0.0
 36
1.0
 17
0.0
 27
0.0
 37
0.0
 40
194.7352043160121
 41
1.98448810754912
 42
50.0
 43
198.272751
 44
-198.272751
 50
0.0
 51
0.0
 71
     0
 72
   100
 73
     1
 74
     3
 75
     0
 76
     0
 77
     0
 78
     0
281
     0
 65
     1
110
292.239932
120
216.863954
130
0.0
111
1.0
121
0.0
131
0.0
112
0.0
122
1.0
132
0.0
 79
     0
146
0.0
1001
ACAD_NAV_VCDISPLAY
1070
     3
  0
VPORT
  5
1D0
330
8
100
AcDbSymbolTableRecord
100
AcDbViewportTableRecord
  2
L1
 70
     0
 10
0.0
 20
0.0
 11
1.0
 21
1.0
 12
294.412263
 22
234.202091
 13
0.0
 23
0.0
 14
0.5
 24
0.5
 15
0.5
 25
0.5
 16
0.0
 26
0.0
 36
1.0
 17
0.0
 27
0.0
 37
0.0
 40
264.583333
 41
0.067112
 42
50.0
 43
198.272751
 44
-198.272751
 50
0.0
 51
0.0
 71
     0
 72
   100
 73
     1
 74
     3
 75
     0
 76
     0
 77
     0
 78
     0
281
     0
 65
     1
110
0.0
120
0.0
130
0.0
111
1.0
121
0.0
131
0.0
112
0.0
122
1.0
132
0.0
 79
     0
146
0.0
  0
VPORT
  5
1D1
330
8
100
AcDbSymbolTableRecord
100
AcDbViewportTableRecord
  2
L2
 70
     0
 10
0.0
 20
0.0
 11
0.5
 21
1.0
 12
0.0
 22
0.0
 13
0.0
 23
0.0
 14
0.5
 24
0.5
 15
0.5
 25
0.5
 16
0.0
 26
-1.0
 36
0.0
 17
0.0
 27
0.0
 37
0.0
 40
1555.719424
 41
0.011414
 42
50.0
 43
798.3063869999999
 44
-798.3063869999999
 50
0.0
 51
0.0
 71
     0
 72
   100
 73
     1
 74
     3
 75
     0
 76
     0
 77
     0
 78
     0
281
     0
 65
     1
110
0.0
120
0.0
130
0.0
111
1.0
121
0.0
131
0.0
112
0.0
122
1.0
132
0.0
 79
     0
146
0.0
  0
VPORT
  5
1D2
330
8
100
AcDbSymbolTableRecord
100
AcDbViewportTableRecord
  2
L2
 70
     0
 10
0.5
 20
0.0
 11
1.0
 21
1.0
 12
0.0
 22
0.0
 13
0.0
 23
0.0
 14
0.5
 24
0.5
 15
0.5
 25
0.5
 16
1.0
 26
0.0
 36
0.0
 17
0.0
 27
0.0
 37
0.0
 40
1555.719424
 41
0.011414
 42
50.0
 43
789.029034
 44
-789.029034
 50
0.0
 51
0.0
 71
     0
 72
   100
 73
     1
 74
     3
 75
     0
 76
     0
 77
     0
 78
     0
281
     0
 65
     1
110
0.0
120
0.0
130
0.0
111
1.0
121
0.0
131
0.0
112
0.0
122
1.0
132
0.0
 79
     0
146
0.0
  0
VPORT
  5
1D3
330
8
100
AcDbSymbolTableRecord
100
AcDbViewportTableRecord
  2
L3
 70
     0
 10
0.0
 20
0.5
 11
1.0
 21
1.0
 12
294.412263
 22
234.202091
 13
0.0
 23
0.0
 14
0.5
 24
0.5
 15
0.5
 25
0.5
 16
0.0
 26
0.0
 36
1.0
 17
0.0
 27
0.0
 37
0.0
 40
264.583333
 41
0.067112
 42
50.0
 43
198.272751
 44
-198.272751
 50
0.0
 51
0.0
 71
     0
 72
   100
 73
     1
 74
     3
 75
     0
 76
     0
 77
     0
 78
     0
281
     0
 65
     1
110
0.0
120
0.0
130
0.0
111
1.0
121
0.0
131
0.0
112
0.0
122
1.0
132
0.0
 79
     0
146
0.0
  0
VPORT
  5
1D4
330
8
100
AcDbSymbolTableRecord
100
AcDbViewportTableRecord
  2
L3
 70
     0
 10
0.0
 20
0.0
 11
1.0
 21
0.5
 12
0.0
 22
0.0
 13
0.0
 23
0.0
 14
0.5
 24
0.5
 15
0.5
 25
0.5
 16
0.0
 26
-1.0
 36
0.0
 17
0.0
 27
0.0
 37
0.0
 40
1555.719424
 41
0.011414
 42
50.0
 43
798.3063869999999
 44
-798.3063869999999
 50
0.0
 51
0.0
 71
     0
 72
   100
 73
     1
 74
     3
 75
     0
 76
     0
 77
     0
 78
     0
281
     0
 65
     1
110
0.0
120
0.0
130
0.0
111
1.0
121
0.0
131
0.0
112
0.0
122
1.0
132
0.0
 79
     0
146
0.0
  0
VPORT
  5
1D5
330
8
100
AcDbSymbolTableRecord
100
AcDbViewportTableRecord
  2
L4
 70
     0
 10
0.0
 20
0.5
 11
0.5
 21
1.0
 12
294.412263
 22
234.202091
 13
0.0
 23
0.0
 14
0.5
 24
0.5
 15
0.5
 25
0.5
 16
0.0
 26
0.0
 36
1.0
 17
0.0
 27
0.0
 37
0.0
 40
264.583333
 41
0.067112
 42
50.0
 43
198.272751
 44
-198.272751
 50
0.0
 51
0.0
 71
     0
 72
   100
 73
     1
 74
     3
 75
     0
 76
     0
 77
     0
 78
     0
281
     0
 65
     1
110
0.0
120
0.0
130
0.0
111
1.0
121
0.0
131
0.0
112
0.0
122
1.0
132
0.0
 79
     0
146
0.0
  0
VPORT
  5
1D6
330
8
100
AcDbSymbolTableRecord
100
AcDbViewportTableRecord
  2
L4
 70
     0
 10
0.0
 20
0.0
 11
0.5
 21
0.5
 12
0.0
 22
0.0
 13
0.0
 23
0.0
 14
0.5
 24
0.5
 15
0.5
 25
0.5
 16
0.0
 26
-1.0
 36
0.0
 17
0.0
 27
0.0
 37
0.0
 40
1555.719424
 41
0.011414
 42
50.0
 43
798.3063869999999
 44
-798.3063869999999
 50
0.0
 51
0.0
 71
     0
 72
   100
 73
     1
 74
     3
 75
     0
 76
     0
 77
     0
 78
     0
281
     0
 65
     1
110
0.0
120
0.0
130
0.0
111
1.0
121
0.0
131
0.0
112
0.0
122
1.0
132
0.0
 79
     0
146
0.0
  0
VPORT
  5
1D7
330
8
100
AcDbSymbolTableRecord
100
AcDbViewportTableRecord
  2
L4
 70
     0
 10
0.5
 20
0.0
 11
1.0
 21
0.5
 12
0.0
 22
0.0
 13
0.0
 23
0.0
 14
0.5
 24
0.5
 15
0.5
 25
0.5
 16
1.0
 26
0.0
 36
0.0
 17
0.0
 27
0.0
 37
0.0
 40
1555.719424
 41
0.011414
 42
50.0
 43
789.029034
 44
-789.029034
 50
0.0
 51
0.0
 71
     0
 72
   100
 73
     1
 74
     3
 75
     0
 76
     0
 77
     0
 78
     0
281
     0
 65
     1
110
0.0
120
0.0
130
0.0
111
1.0
121
0.0
131
0.0
112
0.0
122
1.0
132
0.0
 79
     0
146
0.0
  0
VPORT
  5
1D8
330
8
100
AcDbSymbolTableRecord
100
AcDbViewportTableRecord
  2
L4
 70
     0
 10
0.5
 20
0.5
 11
1.0
 21
1.0
 12
0.0
 22
0.0
 13
0.0
 23
0.0
 14
0.5
 24
0.5
 15
0.5
 25
0.5
 16
0.5773502691896259
 26
-0.5773502691896259
 36
0.5773502691896259
 17
0.0
 27
0.0
 37
0.0
 40
1524.83258
 41
0.011645
 42
50.0
 43
793.6572259999999
 44
-793.6572259999999
 50
0.0
 51
0.0
 71
     0
 72
   100
 73
     1
 74
     3
 75
     0
 76
     0
 77
     0
 78
     0
281
     0
 65
     1
110
0.0
120
0.0
130
0.0
111
1.0
121
0.0
131
0.0
112
0.0
122
1.0
132
0.0
 79
     0
146
0.0
  0
VPORT
  5
1D9
330
8
100
AcDbSymbolTableRecord
100
AcDbViewportTableRecord
  2
L6
 70
     0
 10
0.0
 20
0.5
 11
0.333333
 21
1.0
 12
0.0
 22
0.0
 13
0.0
 23
0.0
 14
0.5
 24
0.5
 15
0.5
 25
0.5
 16
0.7188730927569434
 26
-0.5850486126764433
 36
0.3754192287502549
 17
0.0
 27
0.0
 37
0.0
 40
1609.169312
 41
0.011035
 42
50.0
 43
833.0539749999999
 44
-833.0539749999999
 50
0.0
 51
0.0
 71
     0
 72
   100
 73
     1
 74
     3
 75
     0
 76
     0
 77
     0
 78
     0
281
     0
 65
     1
110
0.0
120
0.0
130
0.0
111
1.0
121
0.0
131
0.0
112
0.0
122
1.0
132
0.0
 79
     0
146
0.0
  0
VPORT
  5
1DA
330
8
100
AcDbSymbolTableRecord
100
AcDbViewportTableRecord
  2
L6
 70
     0
 10
0.0
 20
0.0
 11
0.333333
 21
0.5
 12
0.0
 22
0.0
 13
0.0
 23
0.0
 14
0.5
 24
0.5
 15
0.5
 25
0.5
 16
-1.0
 26
0.0
 36
0.0
 17
0.0
 27
0.0
 37
0.0
 40
1555.719424
 41
0.011414
 42
50.0
 43
789.029034
 44
-789.029034
 50
0.0
 51
0.0
 71
     0
 72
   100
 73
     1
 74
     3
 75
     0
 76
     0
 77
     0
 78
     0
281
     0
 65
     1
110
0.0
120
0.0
130
0.0
111
1.0
121
0.0
131
0.0
112
0.0
122
1.0
132
0.0
 79
     0
146
0.0
  0
VPORT
  5
1DB
330
8
100
AcDbSymbolTableRecord
100
AcDbViewportTableRecord
  2
L6
 70
     0
 10
0.333333
 20
0.5
 11
0.666667
 21
1.0
 12
294.412263
 22
234.202091
 13
0.0
 23
0.0
 14
0.5
 24
0.5
 15
0.5
 25
0.5
 16
0.0
 26
0.0
 36
1.0
 17
0.0
 27
0.0
 37
0.0
 40
264.583333
 41
0.067112
 42
50.0
 43
198.272751
 44
-198.272751
 50
0.0
 51
0.0
 71
     0
 72
   100
 73
     1
 74
     3
 75
     0
 76
     0
 77
     0
 78
     0
281
     0
 65
     1
110
0.0
120
0.0
130
0.0
111
1.0
121
0.0
131
0.0
112
0.0
122
1.0
132
0.0
 79
     0
146
0.0
  0
VPORT
  5
1DC
330
8
100
AcDbSymbolTableRecord
100
AcDbViewportTableRecord
  2
L6
 70
     0
 10
0.333333
 20
0.0
 11
0.666667
 21
0.5
 12
0.0
 22
0.0
 13
0.0
 23
0.0
 14
0.5
 24
0.5
 15
0.5
 25
0.5
 16
0.0
 26
-1.0
 36
0.0
 17
0.0
 27
0.0
 37
0.0
 40
1555.719424
 41
0.011414
 42
50.0
 43
798.3063869999999
 44
-798.3063869999999
 50
0.0
 51
0.0
 71
     0
 72
   100
 73
     1
 74
     3
 75
     0
 76
     0
 77
     0
 78
     0
281
     0
 65
     1
110
0.0
120
0.0
130
0.0
111
1.0
121
0.0
131
0.0
112
0.0
122
1.0
132
0.0
 79
     0
146
0.0
  0
VPORT
  5
1DD
330
8
100
AcDbSymbolTableRecord
100
AcDbViewportTableRecord
  2
L6
 70
     0
 10
0.666667
 20
0.5
 11
1.0
 21
1.0
 12
0.0
 22
0.0
 13
0.0
 23
0.0
 14
0.5
 24
0.5
 15
0.5
 25
0.5
 16
0.5773502691896259
 26
-0.5773502691896259
 36
0.5773502691896259
 17
0.0
 27
0.0
 37
0.0
 40
1524.83258
 41
0.011645
 42
50.0
 43
793.6572259999999
 44
-793.6572259999999
 50
0.0
 51
0.0
 71
     0
 72
   100
 73
     1
 74
     3
 75
     0
 76
     0
 77
     0
 78
     0
281
     0
 65
     1
110
0.0
120
0.0
130
0.0
111
1.0
121
0.0
131
0.0
112
0.0
122
1.0
132
0.0
 79
     0
146
0.0
  0
VPORT
  5
1DE
330
8
100
AcDbSymbolTableRecord
100
AcDbViewportTableRecord
  2
L6
 70
     0
 10
0.666667
 20
0.0
 11
1.0
 21
0.5
 12
0.0
 22
0.0
 13
0.0
 23
0.0
 14
0.5
 24
0.5
 15
0.5
 25
0.5
 16
1.0
 26
0.0
 36
0.0
 17
0.0
 27
0.0
 37
0.0
 40
1555.719424
 41
0.011414
 42
50.0
 43
789.029034
 44
-789.029034
 50
0.0
 51
0.0
 71
     0
 72
   100
 73
     1
 74
     3
 75
     0
 76
     0
 77
     0
 78
     0
281
     0
 65
     1
110
0.0
120
0.0
130
0.0
111
1.0
121
0.0
131
0.0
112
0.0
122
1.0
132
0.0
 79
     0
146
0.0
  0
ENDTAB
  0
TABLE
  2
LTYPE
  5
5
330
0
100
AcDbSymbolTable
 70
     6
  0
LTYPE
  5
14
330
5
100
AcDbSymbolTableRecord
100
AcDbLinetypeTableRecord
  2
BYBLOCK
 70
     0
  3

 72
    65
 73
     0
 40
0.0
  0
LTYPE
  5
15
330
5
100
AcDbSymbolTableRecord
100
AcDbLinetypeTableRecord
  2
BYLAYER
 70
     0
  3

 72
    65
 73
     0
 40
0.0
  0
LTYPE
  5
16
330
5
100
AcDbSymbolTableRecord
100
AcDbLinetypeTableRecord
  2
CONTINUOUS
 70
     0
  3
Solid line
 72
    65
 73
     0
 40
0.0
  0
LTYPE
  5
6A
330
5
100
AcDbSymbolTableRecord
100
AcDbLinetypeTableRecord
  2
CENTER2
 70
     0
  3
Center (.5x) ___ _ ___ _ ___ _ ___ _ ___ _ ___
 72
    65
 73
     4
 40
28.575
 49
19.05
 74
     4
 75
     0
340
0
 46
0.0
 50
0.0
 44
0.0
 45
0.0
 49
-3.174999999999999
 74
     4
 75
     0
340
0
 46
0.0
 50
0.0
 44
0.0
 45
0.0
 49
3.174999999999999
 74
     4
 75
     0
340
0
 46
0.0
 50
0.0
 44
0.0
 45
0.0
 49
-3.174999999999999
 74
     4
 75
     0
340
0
 46
0.0
 50
0.0
 44
0.0
 45
0.0
  0
LTYPE
  5
6B
330
5
100
AcDbSymbolTableRecord
100
AcDbLinetypeTableRecord
  2
DASHDOT
 70
     0
  3
_._._._._._._._._._._._._._._._.
 72
    65
 73
     4
 40
70.0
 49
31.0
 74
     4
 75
     0
340
0
 46
0.0
 50
0.0
 44
0.0
 45
0.0
 49
-13.0
 74
     4
 75
     0
340
0
 46
0.0
 50
0.0
 44
0.0
 45
0.0
 49
13.0
 74
     4
 75
     0
340
0
 46
0.0
 50
0.0
 44
0.0
 45
0.0
 49
-13.0
 74
     4
 75
     0
340
0
 46
0.0
 50
0.0
 44
0.0
 45
0.0
  0
LTYPE
  5
6C
330
5
100
AcDbSymbolTableRecord
100
AcDbLinetypeTableRecord
  2
DASHED
 70
     0
  3
__ __ __ __ __ __ __ __ __
 72
    65
 73
     2
 40
25.72
 49
12.86
 74
     4
 75
     0
340
0
 46
0.0
 50
0.0
 44
0.0
 45
0.0
 49
-12.86
 74
     4
 75
     0
340
0
 46
0.0
 50
0.0
 44
0.0
 45
0.0
  0
LTYPE
  5
6D
330
5
100
AcDbSymbolTableRecord
100
AcDbLinetypeTableRecord
  2
DOT
 70
     0
  3
.........................
 72
    65
 73
     2
 40
10.0
 49
0.0
 74
     4
 75
     0
340
0
 46
0.0
 50
0.0
 44
0.0
 45
0.0
 49
-10.0
 74
     4
 75
     0
340
0
 46
0.0
 50
0.0
 44
0.0
 45
0.0
  0
LTYPE
  5
6E
330
5
100
AcDbSymbolTableRecord
100
AcDbLinetypeTableRecord
  2
PHANTOM
 70
     0
  3
____ _ _ ____ _ _ _____ _ _ ____
 72
    65
 73
     6
 40
50.5
 49
18.0
 74
     4
 75
     0
340
0
 46
0.0
 50
0.0
 44
0.0
 45
0.0
 49
-6.5
 74
     4
 75
     0
340
0
 46
0.0
 50
0.0
 44
0.0
 45
0.0
 49
6.5
 74
     4
 75
     0
340
0
 46
0.0
 50
0.0
 44
0.0
 45
0.0
 49
-6.5
 74
     4
 75
     0
340
0
 46
0.0
 50
0.0
 44
0.0
 45
0.0
 49
6.5
 74
     4
 75
     0
340
0
 46
0.0
 50
0.0
 44
0.0
 45
0.0
 49
-6.5
 74
     4
 75
     0
340
0
 46
0.0
 50
0.0
 44
0.0
 45
0.0
  0
ENDTAB
  0
TABLE
  2
LAYER
  5
2
330
0
100
AcDbSymbolTable
 70
    15
  0
LAYER
  5
10
102
{ACAD_XDICTIONARY
360
275
102
}
330
2
100
AcDbSymbolTableRecord
100
AcDbLayerTableRecord
  2
0
 70
     0
 62
     7
  6
CONTINUOUS
370
    -3
390
F
  0
LAYER
  5
70
102
{ACAD_XDICTIONARY
360
277
102
}
330
2
100
AcDbSymbolTableRecord
100
AcDbLayerTableRecord
  2
1
 70
     0
 62
     4
  6
CONTINUOUS
370
    -3
390
F
  0
LAYER
  5
108
102
{ACAD_XDICTIONARY
360
279
102
}
330
2
100
AcDbSymbolTableRecord
100
AcDbLayerTableRecord
  2
2
 70
     0
 62
     7
  6
CONTINUOUS
370
    -3
390
F
  0
LAYER
  5
26A
102
{ACAD_XDICTIONARY
360
27B
102
}
330
2
100
AcDbSymbolTableRecord
100
AcDbLayerTableRecord
  2
4
 70
     0
 62
     2
  6
CENTER2
370
    -3
390
F
  0
LAYER
  5
26B
102
{ACAD_XDICTIONARY
360
27D
102
}
330
2
100
AcDbSymbolTableRecord
100
AcDbLayerTableRecord
  2
SK1
 70
     0
 62
     4
  6
CONTINUOUS
370
    -3
390
F
  0
LAYER
  5
26C
102
{ACAD_XDICTIONARY
360
27F
102
}
330
2
100
AcDbSymbolTableRecord
100
AcDbLayerTableRecord
  2
SK2
 70
     0
 62
     7
  6
CONTINUOUS
370
    -3
390
F
  0
LAYER
  5
26E
102
{ACAD_XDICTIONARY
360
281
102
}
330
2
100
AcDbSymbolTableRecord
100
AcDbLayerTableRecord
  2
SK4
 70
     0
 62
     2
  6
CENTER2
370
    -3
390
F
  0
LAYER
  5
26F
102
{ACAD_XDICTIONARY
360
283
102
}
330
2
100
AcDbSymbolTableRecord
100
AcDbLayerTableRecord
  2
SK6
 70
     0
 62
     5
  6
CONTINUOUS
370
    -3
390
F
  0
LAYER
  5
270
102
{ACAD_XDICTIONARY
360
285
102
}
330
2
100
AcDbSymbolTableRecord
100
AcDbLayerTableRecord
  2
CUT
 70
     0
 62
     1
  6
CONTINUOUS
370
    -3
390
F
  0
LAYER
  5
271
102
{ACAD_XDICTIONARY
360
287
102
}
330
2
100
AcDbSymbolTableRecord
100
AcDbLayerTableRecord
  2
NOCUT
 70
     0
 62
     7
  6
CONTINUOUS
370
    -3
390
F
  0
LAYER
  5
272
102
{ACAD_XDICTIONARY
360
289
102
}
330
2
100
AcDbSymbolTableRecord
100
AcDbLayerTableRecord
  2
80
 70
     0
 62
     6
  6
CONTINUOUS
370
    -3
390
F
  0
LAYER
  5
273
102
{ACAD_XDICTIONARY
360
28B
102
}
330
2
100
AcDbSymbolTableRecord
100
AcDbLayerTableRecord
  2
81
 70
     0
 62
     3
  6
CONTINUOUS
370
    -3
390
F
  0
ENDTAB
  0
TABLE
  2
STYLE
  5
3
330
0
100
AcDbSymbolTable
 70
     2
  0
STYLE
  5
11
330
3
100
AcDbSymbolTableRecord
100
AcDbTextStyleTableRecord
  2
Standard
 70
     0
 40
0.0
 41
1.0
 50
0.0
 71
     0
 42
0.2
  3
txt
  4

  0
STYLE
  5
18A
330
3
100
AcDbSymbolTableRecord
100
AcDbTextStyleTableRecord
  2
cesky
 70
     0
 40
0.0
 41
1.0
 50
0.0
 71
     0
 42
0.2
  3
Monospac821 BT
  4

1001
ACAD
1000
Monospac821 BT
1071
        0
  0
ENDTAB
  0
TABLE
  2
VIEW
  5
6
330
0
100
AcDbSymbolTable
 70
     0
  0
ENDTAB
  0
TABLE
  2
UCS
  5
7
330
0
100
AcDbSymbolTable
 70
     0
  0
ENDTAB
  0
TABLE
  2
APPID
  5
9
330
0
100
AcDbSymbolTable
 70
     3
  0
APPID
  5
12
330
9
100
AcDbSymbolTableRecord
100
AcDbRegAppTableRecord
  2
ACAD
 70
     0
  0
APPID
  5
294
330
9
100
AcDbSymbolTableRecord
100
AcDbRegAppTableRecord
  2
ACAD_NAV_VCDISPLAY
 70
     0
  0
APPID
  5
2D0
330
9
100
AcDbSymbolTableRecord
100
AcDbRegAppTableRecord
  2
ACAD_MLEADERVER
 70
     0
  0
ENDTAB
  0
TABLE
  2
DIMSTYLE
  5
A
330
0
100
AcDbSymbolTable
 70
     1
100
AcDbDimStyleTable
 71
     0
  0
DIMSTYLE
105
27
330
A
100
AcDbSymbolTableRecord
100
AcDbDimStyleTableRecord
  2
Standard
 70
     0
340
11
  0
ENDTAB
  0
TABLE
  2
BLOCK_RECORD
  5
1
330
0
100
AcDbSymbolTable
 70
     6
  0
BLOCK_RECORD
  5
1F
102
{ACAD_XDICTIONARY
360
238
102
}
330
1
100
AcDbSymbolTableRecord
100
AcDbBlockTableRecord
  2
*Model_Space
340
22
  0
BLOCK_RECORD
  5
1B
330
1
100
AcDbSymbolTableRecord
100
AcDbBlockTableRecord
  2
*Paper_Space
340
1E
  0
BLOCK_RECORD
  5
23
330
1
100
AcDbSymbolTableRecord
100
AcDbBlockTableRecord
  2
*Paper_Space0
340
26
  0
BLOCK_RECORD
  5
18D
330
1
100
AcDbSymbolTableRecord
100
AcDbBlockTableRecord
  2
DimnDraft3D1
340
0
  0
BLOCK_RECORD
  5
19C
330
1
100
AcDbSymbolTableRecord
100
AcDbBlockTableRecord
  2
_CLOSED
340
0
  0
BLOCK_RECORD
  5
1A3
330
1
100
AcDbSymbolTableRecord
100
AcDbBlockTableRecord
  2
DimnDraft3D2
340
0
  0
BLOCK_RECORD
  5
1B1
330
1
100
AcDbSymbolTableRecord
100
AcDbBlockTableRecord
  2
DimnDraft3D3
340
0
  0
BLOCK_RECORD
  5
1BF
330
1
100
AcDbSymbolTableRecord
100
AcDbBlockTableRecord
  2
DimnDraft3D4
340
0
  0
ENDTAB
  0
ENDSEC
  0
SECTION
  2
BLOCKS
  0
BLOCK
  5
20
330
1F
100
AcDbEntity
  8
0
100
AcDbBlockBegin
  2
*Model_Space
 70
     0
 10
0.0
 20
0.0
 30
0.0
  3
*Model_Space
  1
*Model_Space
  0
ENDBLK
  5
21
330
1F
100
AcDbEntity
  8
0
100
AcDbBlockEnd
  0
BLOCK
  5
1C
330
1B
100
AcDbEntity
 67
     1
  8
0
100
AcDbBlockBegin
  2
*Paper_Space
 70
     0
 10
0.0
 20
0.0
 30
0.0
  3
*Paper_Space
  1
*Paper_Space
  0
ENDBLK
  5
1D
330
1B
100
AcDbEntity
 67
     1
  8
0
100
AcDbBlockEnd
  0
BLOCK
  5
24
330
23
100
AcDbEntity
 67
     1
  8
0
100
AcDbBlockBegin
  2
*Paper_Space0
 70
     0
 10
0.0
 20
0.0
 30
0.0
  3
*Paper_Space0
  1
*Paper_Space0
  0
ENDBLK
  5
25
330
23
100
AcDbEntity
 67
     1
  8
0
100
AcDbBlockEnd
  0
BLOCK
  5
199
330
18D
100
AcDbEntity
  8
0
100
AcDbBlockBegin
  2
DimnDraft3D1
 70
     0
 10
0.0
 20
0.0
 30
0.0
  3
DimnDraft3D1
  1
DimnDraft3D1
  0
MTEXT
  5
18E
330
18D
100
AcDbEntity
  8
1
  6
Continuous
 62
    95
370
    18
100
AcDbMText
 10
244.89031
 20
253.427288
 30
0.0
 40
3.5
 41
0.0
 71
     8
 72
     5
  1
\fMonospac821 BT|b1|i0;\W1.0000;17,8
  7
cesky
 11
0.0000000000000001
 21
1.0
 31
0.0
 73
     2
 44
1.084337
1001
ACAD
1000
MTEXTBEGIN
1070
    73
1070
     2
1070
    44
1040
1.084337
1070
    74
1070
     0
1000
MTEXTEND
  0
MTEXT
  5
18F
330
18D
100
AcDbEntity
  8
1
  6
Continuous
 62
    95
370
    18
100
AcDbMText
 10
244.89031
 20
239.518954
 30
0.0
 40
3.5
 41
0.0
 71
     8
 72
     5
  1
\fMonospac821 BT|b1|i0;%%c
  7
cesky
 11
0.0000000000000001
 21
1.0
 31
0.0
 73
     2
 44
1.084337
1001
ACAD
1000
MTEXTBEGIN
1070
    73
1070
     2
1070
    44
1040
1.084337
1070
    74
1070
     0
1000
MTEXTEND
  0
LINE
  5
190
330
18D
100
AcDbEntity
  8
1
  6
Continuous
 62
    95
370
    13
100
AcDbLine
 10
290.739932
 20
225.763954
 30
0.0
 11
244.181977
 21
225.763954
 31
0.0
  0
LINE
  5
191
330
18D
100
AcDbEntity
  8
1
  6
Continuous
 62
    95
370
    13
100
AcDbLine
 10
290.739932
 20
207.963954
 30
0.0
 11
244.181977
 21
207.963954
 31
0.0
  0
LINE
  5
192
330
18D
100
AcDbEntity
  8
1
  6
Continuous
 62
    95
370
    13
100
AcDbLine
 10
246.181977
 20
207.963954
 30
0.0
 11
246.181977
 21
260.335621
 31
0.0
  0
LINE
  5
193
330
18D
100
AcDbEntity
  8
1
  6
Continuous
 62
    95
370
    13
100
AcDbLine
 10
246.181977
 20
225.763954
 30
0.0
 11
247.032716
 21
222.588957
 31
0.0
  0
LINE
  5
194
330
18D
100
AcDbEntity
  8
1
  6
Continuous
 62
    95
370
    13
100
AcDbLine
 10
246.181977
 20
225.763954
 30
0.0
 11
245.331238
 21
222.588951
 31
0.0
  0
LINE
  5
195
330
18D
100
AcDbEntity
  8
1
  6
Continuous
 62
    95
370
    13
100
AcDbLine
 10
247.032716
 20
222.588957
 30
0.0
 11
245.331238
 21
222.588951
 31
0.0
  0
LINE
  5
196
330
18D
100
AcDbEntity
  8
1
  6
Continuous
 62
    95
370
    13
100
AcDbLine
 10
246.181977
 20
207.963954
 30
0.0
 11
245.331238
 21
211.138951
 31
0.0
  0
LINE
  5
197
330
18D
100
AcDbEntity
  8
1
  6
Continuous
 62
    95
370
    13
100
AcDbLine
 10
246.181977
 20
207.963954
 30
0.0
 11
247.032716
 21
211.138957
 31
0.0
  0
LINE
  5
198
330
18D
100
AcDbEntity
  8
1
  6
Continuous
 62
    95
370
    13
100
AcDbLine
 10
245.331238
 20
211.138951
 30
0.0
 11
247.032716
 21
211.138957
 31
0.0
  0
ENDBLK
  5
19A
330
18D
100
AcDbEntity
  8
0
100
AcDbBlockEnd
  0
BLOCK
  5
19D
330
19C
100
AcDbEntity
  8
0
100
AcDbBlockBegin
  2
_CLOSED
 70
     0
 10
0.0
 20
0.0
 30
0.0
  3
_CLOSED
  1
_CLOSED
  0
LINE
  5
19F
330
19C
100
AcDbEntity
  8
0
  6
ByBlock
 62
     0
370
    -2
100
AcDbLine
 10
-1.0
 20
0.166667
 30
0.0
 11
0.0
 21
0.0
 31
0.0
  0
LINE
  5
1A0
330
19C
100
AcDbEntity
  8
0
  6
ByBlock
 62
     0
370
    -2
100
AcDbLine
 10
0.0
 20
0.0
 30
0.0
 11
-1.0
 21
-0.166667
 31
0.0
  0
LINE
  5
1A1
330
19C
100
AcDbEntity
  8
0
  6
ByBlock
 62
     0
370
    -2
100
AcDbLine
 10
-1.0
 20
0.166667
 30
0.0
 11
-1.0
 21
-0.166667
 31
0.0
  0
LINE
  5
1A2
330
19C
100
AcDbEntity
  8
0
  6
ByBlock
 62
     0
370
    -2
100
AcDbLine
 10
0.0
 20
0.0
 30
0.0
 11
-1.0
 21
0.0
 31
0.0
  0
ENDBLK
  5
19E
330
19C
100
AcDbEntity
  8
0
100
AcDbBlockEnd
  0
BLOCK
  5
1AE
330
1A3
100
AcDbEntity
  8
0
100
AcDbBlockBegin
  2
DimnDraft3D2
 70
     0
 10
0.0
 20
0.0
 30
0.0
  3
DimnDraft3D2
  1
DimnDraft3D2
  0
MTEXT
  5
1A4
330
1A3
100
AcDbEntity
  8
1
  6
Continuous
 62
   254
370
    18
100
AcDbMText
 10
312.239932
 20
252.15542
 30
0.0
 40
3.5
 41
0.0
 71
     8
 72
     5
  1
\fMonospac821 BT|b1|i0;\W1.0000;40
  7
cesky
 73
     2
 44
1.084337
1001
ACAD
1000
MTEXTBEGIN
1070
    73
1070
     2
1070
    44
1040
1.084337
1070
    74
1070
     0
1000
MTEXTEND
  0
LINE
  5
1A5
330
1A3
100
AcDbEntity
  8
1
  6
Continuous
 62
   254
370
    13
100
AcDbLine
 10
332.239932
 20
229.863954
 30
0.0
 11
332.239932
 21
253.738753
 31
0.0
  0
LINE
  5
1A6
330
1A3
100
AcDbEntity
  8
1
  6
Continuous
 62
   254
370
    13
100
AcDbLine
 10
292.239932
 20
227.263954
 30
0.0
 11
292.239932
 21
253.738753
 31
0.0
  0
LINE
  5
1A7
330
1A3
100
AcDbEntity
  8
1
  6
Continuous
 62
   254
370
    13
100
AcDbLine
 10
332.239932
 20
251.738753
 30
0.0
 11
292.239932
 21
251.738753
 31
0.0
  0
LINE
  5
1A8
330
1A3
100
AcDbEntity
  8
1
  6
Continuous
 62
   254
370
    13
100
AcDbLine
 10
332.239932
 20
251.738753
 30
0.0
 11
329.064935
 21
250.888015
 31
0.0
  0
LINE
  5
1A9
330
1A3
100
AcDbEntity
  8
1
  6
Continuous
 62
   254
370
    13
100
AcDbLine
 10
332.239932
 20
251.738753
 30
0.0
 11
329.064929
 21
252.589492
 31
0.0
  0
LINE
  5
1AA
330
1A3
100
AcDbEntity
  8
1
  6
Continuous
 62
   254
370
    13
100
AcDbLine
 10
329.064935
 20
250.888015
 30
0.0
 11
329.064929
 21
252.589492
 31
0.0
  0
LINE
  5
1AB
330
1A3
100
AcDbEntity
  8
1
  6
Continuous
 62
   254
370
    13
100
AcDbLine
 10
292.239932
 20
251.738753
 30
0.0
 11
295.414929
 21
252.589492
 31
0.0
  0
LINE
  5
1AC
330
1A3
100
AcDbEntity
  8
1
  6
Continuous
 62
   254
370
    13
100
AcDbLine
 10
292.239932
 20
251.738753
 30
0.0
 11
295.414935
 21
250.888015
 31
0.0
  0
LINE
  5
1AD
330
1A3
100
AcDbEntity
  8
1
  6
Continuous
 62
   254
370
    13
100
AcDbLine
 10
295.414929
 20
252.589492
 30
0.0
 11
295.414935
 21
250.888015
 31
0.0
  0
ENDBLK
  5
1AF
330
1A3
100
AcDbEntity
  8
0
100
AcDbBlockEnd
  0
BLOCK
  5
1BC
330
1B1
100
AcDbEntity
  8
0
100
AcDbBlockBegin
  2
DimnDraft3D3
 70
     0
 10
0.0
 20
0.0
 30
0.0
  3
DimnDraft3D3
  1
DimnDraft3D3
  0
MTEXT
  5
1B2
330
1B1
100
AcDbEntity
  8
1
  6
Continuous
 62
   254
370
    18
100
AcDbMText
 10
327.044386
 20
239.195297
 30
0.0
 40
3.5
 41
0.0
 71
     8
 72
     5
  1
\fMonospac821 BT|b1|i0;\W1.0000;10
  7
cesky
 73
     2
 44
1.084337
1001
ACAD
1000
MTEXTBEGIN
1070
    73
1070
     2
1070
    44
1040
1.084337
1070
    74
1070
     0
1000
MTEXTEND
  0
LINE
  5
1B3
330
1B1
100
AcDbEntity
  8
1
  6
Continuous
 62
   254
370
    13
100
AcDbLine
 10
332.239932
 20
229.863954
 30
0.0
 11
332.239932
 21
240.77863
 31
0.0
  0
LINE
  5
1B4
330
1B1
100
AcDbEntity
  8
1
  6
Continuous
 62
   254
370
    13
100
AcDbLine
 10
321.848839
 20
228.762539
 30
0.0
 11
321.848839
 21
240.77863
 31
0.0
  0
LINE
  5
1B5
330
1B1
100
AcDbEntity
  8
1
  6
Continuous
 62
   254
370
    13
100
AcDbLine
 10
340.989932
 20
238.77863
 30
0.0
 11
313.098839
 21
238.77863
 31
0.0
  0
LINE
  5
1B6
330
1B1
100
AcDbEntity
  8
1
  6
Continuous
 62
   254
370
    13
100
AcDbLine
 10
332.239932
 20
238.77863
 30
0.0
 11
335.414929
 21
239.629369
 31
0.0
  0
LINE
  5
1B7
330
1B1
100
AcDbEntity
  8
1
  6
Continuous
 62
   254
370
    13
100
AcDbLine
 10
332.239932
 20
238.77863
 30
0.0
 11
335.414935
 21
237.927892
 31
0.0
  0
LINE
  5
1B8
330
1B1
100
AcDbEntity
  8
1
  6
Continuous
 62
   254
370
    13
100
AcDbLine
 10
335.414929
 20
239.629369
 30
0.0
 11
335.414935
 21
237.927892
 31
0.0
  0
LINE
  5
1B9
330
1B1
100
AcDbEntity
  8
1
  6
Continuous
 62
   254
370
    13
100
AcDbLine
 10
321.848839
 20
238.77863
 30
0.0
 11
318.6738430000001
 21
237.927892
 31
0.0
  0
LINE
  5
1BA
330
1B1
100
AcDbEntity
  8
1
  6
Continuous
 62
   254
370
    13
100
AcDbLine
 10
321.848839
 20
238.77863
 30
0.0
 11
318.673836
 21
239.629369
 31
0.0
  0
LINE
  5
1BB
330
1B1
100
AcDbEntity
  8
1
  6
Continuous
 62
   254
370
    13
100
AcDbLine
 10
318.6738430000001
 20
237.927892
 30
0.0
 11
318.673836
 21
239.629369
 31
0.0
  0
ENDBLK
  5
1BD
330
1B1
100
AcDbEntity
  8
0
100
AcDbBlockEnd
  0
BLOCK
  5
1CA
330
1BF
100
AcDbEntity
  8
0
100
AcDbBlockBegin
  2
DimnDraft3D4
 70
     0
 10
0.0
 20
0.0
 30
0.0
  3
DimnDraft3D4
  1
DimnDraft3D4
  0
MTEXT
  5
1C0
330
1BF
100
AcDbEntity
  8
1
  6
Continuous
 62
    95
370
    18
100
AcDbMText
 10
263.290255
 20
237.168954
 30
0.0
 40
3.5
 41
0.0
 71
     8
 72
     5
  1
\fMonospac821 BT|b1|i0;\W1.0000;M10
  7
cesky
 11
0.0000000000000001
 21
1.0
 31
0.0
 73
     2
 44
1.084337
1001
ACAD
1000
MTEXTBEGIN
1070
    73
1070
     2
1070
    44
1040
1.084337
1070
    74
1070
     0
1000
MTEXTEND
  0
LINE
  5
1C1
330
1BF
100
AcDbEntity
  8
1
  6
Continuous
 62
    95
370
    13
100
AcDbLine
 10
274.182383
 20
221.863954
 30
0.0
 11
261.706922
 21
221.863954
 31
0.0
  0
LINE
  5
1C2
330
1BF
100
AcDbEntity
  8
1
  6
Continuous
 62
    95
370
    13
100
AcDbLine
 10
274.182383
 20
211.863954
 30
0.0
 11
261.706922
 21
211.863954
 31
0.0
  0
LINE
  5
1C3
330
1BF
100
AcDbEntity
  8
1
  6
Continuous
 62
    95
370
    13
100
AcDbLine
 10
263.706922
 20
211.863954
 30
0.0
 11
263.706922
 21
242.218954
 31
0.0
  0
LINE
  5
1C4
330
1BF
100
AcDbEntity
  8
1
  6
Continuous
 62
    95
370
    13
100
AcDbLine
 10
263.706922
 20
221.863954
 30
0.0
 11
264.55766
 21
218.688957
 31
0.0
  0
LINE
  5
1C5
330
1BF
100
AcDbEntity
  8
1
  6
Continuous
 62
    95
370
    13
100
AcDbLine
 10
263.706922
 20
221.863954
 30
0.0
 11
262.856183
 21
218.688951
 31
0.0
  0
LINE
  5
1C6
330
1BF
100
AcDbEntity
  8
1
  6
Continuous
 62
    95
370
    13
100
AcDbLine
 10
264.55766
 20
218.688957
 30
0.0
 11
262.856183
 21
218.688951
 31
0.0
  0
LINE
  5
1C7
330
1BF
100
AcDbEntity
  8
1
  6
Continuous
 62
    95
370
    13
100
AcDbLine
 10
263.706922
 20
211.863954
 30
0.0
 11
262.856183
 21
215.038951
 31
0.0
  0
LINE
  5
1C8
330
1BF
100
AcDbEntity
  8
1
  6
Continuous
 62
    95
370
    13
100
AcDbLine
 10
263.706922
 20
211.863954
 30
0.0
 11
264.55766
 21
215.038957
 31
0.0
  0
LINE
  5
1C9
330
1BF
100
AcDbEntity
  8
1
  6
Continuous
 62
    95
370
    13
100
AcDbLine
 10
262.856183
 20
215.038951
 30
0.0
 11
264.55766
 21
215.038957
 31
0.0
  0
ENDBLK
  5
1CB
330
1BF
100
AcDbEntity
  8
0
100
AcDbBlockEnd
  0
ENDSEC
  0
SECTION
  2
ENTITIES
  0
POINT
  5
6F
102
{ACAD_REACTORS
330
274
102
}
330
1F
100
AcDbEntity
  8
80
100
AcDbPoint
 10
292.239932
 20
216.863954
 30
0.0
  0
POINT
  5
71
330
1F
100
AcDbEntity
  8
1
 60
     1
100
AcDbPoint
 10
309.935335
 20
178.115644
 30
0.0
  0
POINT
  5
72
330
1F
100
AcDbEntity
  8
4
 60
     1
100
AcDbPoint
 10
330.209937
 20
216.863954
 30
0.0
  0
POINT
  5
73
330
1F
100
AcDbEntity
  8
SK4
 60
     1
100
AcDbPoint
 10
322.239932
 20
216.863954
 30
0.0
  0
POINT
  5
74
330
1F
100
AcDbEntity
  8
SK6
 60
     1
100
AcDbPoint
 10
292.739932
 20
225.763954
 30
0.0
  0
POINT
  5
75
330
1F
100
AcDbEntity
  8
SK6
 60
     1
100
AcDbPoint
 10
292.739932
 20
207.963954
 30
0.0
  0
LINE
  5
86
330
1F
100
AcDbEntity
  8
SK1
100
AcDbLine
 10
290.239932
 20
211.613954
 30
0.0
 11
290.239932
 21
216.863954
 31
0.0
  0
LINE
  5
87
330
1F
100
AcDbEntity
  8
SK1
100
AcDbLine
 10
290.239932
 20
216.863954
 30
0.0
 11
290.239932
 21
222.113954
 31
0.0
  0
LINE
  5
88
330
1F
100
AcDbEntity
  8
SK1
100
AcDbLine
 10
287.039932
 20
211.613954
 30
0.0
 11
287.039932
 21
216.863954
 31
0.0
  0
LINE
  5
89
330
1F
100
AcDbEntity
  8
SK1
100
AcDbLine
 10
287.039932
 20
216.863954
 30
0.0
 11
287.039932
 21
222.113954
 31
0.0
  0
LINE
  5
8A
330
1F
100
AcDbEntity
  8
1
100
AcDbLine
 10
320.739932
 20
225.188954
 30
0.0
 11
317.239932
 21
225.188954
 31
0.0
  0
LINE
  5
8B
330
1F
100
AcDbEntity
  8
1
100
AcDbLine
 10
320.739932
 20
209.001379
 30
0.0
 11
317.239932
 21
209.001379
 31
0.0
  0
LINE
  5
8C
330
1F
100
AcDbEntity
  8
SK1
100
AcDbLine
 10
286.239932
 20
211.828314
 30
0.0
 11
286.239932
 21
216.863954
 31
0.0
  0
LINE
  5
8D
330
1F
100
AcDbEntity
  8
SK1
100
AcDbLine
 10
286.239932
 20
216.863954
 30
0.0
 11
286.239932
 21
221.899595
 31
0.0
  0
LINE
  5
8E
330
1F
100
AcDbEntity
  8
SK1
100
AcDbLine
 10
290.986342
 20
211.813954
 30
0.0
 11
290.986342
 21
216.863954
 31
0.0
  0
LINE
  5
8F
330
1F
100
AcDbEntity
  8
SK1
100
AcDbLine
 10
290.986342
 20
216.863954
 30
0.0
 11
290.986342
 21
221.913954
 31
0.0
  0
LINE
  5
90
330
1F
100
AcDbEntity
  8
1
100
AcDbLine
 10
319.554765
 20
225.799292
 30
0.0
 11
314.84601
 21
225.799292
 31
0.0
  0
LINE
  5
91
330
1F
100
AcDbEntity
  8
1
100
AcDbLine
 10
319.554765
 20
225.799292
 30
0.0
 11
319.186622
 21
225.188954
 31
0.0
  0
LINE
  5
92
330
1F
100
AcDbEntity
  8
1
100
AcDbLine
 10
321.848839
 20
226.762539
 30
0.0
 11
320.082422
 21
226.669642
 31
0.0
  0
LINE
  5
94
330
1F
100
AcDbEntity
  8
1
100
AcDbLine
 10
321.986033
 20
225.177575
 30
0.0
 11
320.924548
 21
225.121752
 31
0.0
  0
LINE
  5
95
330
1F
100
AcDbEntity
  8
1
100
AcDbLine
 10
317.524775
 20
212.788779
 30
0.0
 11
317.38734
 21
213.003989
 31
0.0
  0
LINE
  5
96
330
1F
100
AcDbEntity
  8
1
100
AcDbLine
 10
317.7869
 20
211.288937
 30
0.0
 11
317.518069
 21
211.709901
 31
0.0
  0
LINE
  5
97
330
1F
100
AcDbEntity
  8
1
100
AcDbLine
 10
327.332218
 20
220.253192
 30
0.0
 11
327.054804
 21
221.292543
 31
0.0
  0
LINE
  5
98
330
1F
100
AcDbEntity
  8
1
100
AcDbLine
 10
319.720224
 20
226.282965
 30
0.0
 11
319.430688
 21
225.799274
 31
0.0
  0
LINE
  5
99
330
1F
100
AcDbEntity
  8
1
100
AcDbLine
 10
331.468928
 20
216.727687
 30
0.0
 11
332.239732
 21
216.917008
 31
0.0
  0
LINE
  5
9A
330
1F
100
AcDbEntity
  8
1
100
AcDbLine
 10
331.573555
 20
214.759431
 30
0.0
 11
331.411705
 21
214.814433
 31
0.0
  0
LINE
  5
9B
330
1F
100
AcDbEntity
  8
1
100
AcDbLine
 10
331.915379
 20
215.668576
 30
0.0
 11
331.933597
 21
215.662385
 31
0.0
  0
LINE
  5
9C
330
1F
100
AcDbEntity
  8
1
100
AcDbLine
 10
320.082422
 20
226.669642
 30
0.0
 11
319.196096
 21
225.188972
 31
0.0
  0
LINE
  5
9D
330
1F
100
AcDbEntity
  8
1
100
AcDbLine
 10
325.089684
 20
223.334657
 30
0.0
 11
327.107569
 21
223.334621
 31
0.0
  0
LINE
  5
9E
330
1F
100
AcDbEntity
  8
1
100
AcDbLine
 10
331.029941
 20
213.88615
 30
0.0
 11
330.623503
 21
214.024272
 31
0.0
  0
LINE
  5
9F
330
1F
100
AcDbEntity
  8
1
100
AcDbLine
 10
331.029941
 20
216.962795
 30
0.0
 11
330.209927
 21
217.117203
 31
0.0
  0
LINE
  5
A0
330
1F
100
AcDbEntity
  8
1
100
AcDbLine
 10
327.393841
 20
220.219875
 30
0.0
 11
327.107534
 21
221.292543
 31
0.0
  0
LINE
  5
A1
330
1F
100
AcDbEntity
  8
1
100
AcDbLine
 10
321.93156
 20
225.177575
 30
0.0
 11
320.917646
 21
225.124253
 31
0.0
  0
LINE
  5
A2
330
1F
100
AcDbEntity
  8
1
100
AcDbLine
 10
317.527856
 20
213.697605
 30
0.0
 11
317.845514
 21
213.200182
 31
0.0
  0
LINE
  5
A3
330
1F
100
AcDbEntity
  8
1
100
AcDbLine
 10
319.48821
 20
213.072574
 30
0.0
 11
317.845514
 21
213.200182
 31
0.0
  0
LINE
  5
A4
330
1F
100
AcDbEntity
  8
1
100
AcDbLine
 10
317.680194
 20
212.934031
 30
0.0
 11
317.845514
 21
213.200182
 31
0.0
  0
LINE
  5
A5
330
1F
100
AcDbEntity
  8
1
100
AcDbLine
 10
317.524775
 20
212.788779
 30
0.0
 11
317.680194
 21
212.934031
 31
0.0
  0
LINE
  5
A6
330
1F
100
AcDbEntity
  8
1
100
AcDbLine
 10
319.454326
 20
212.796213
 30
0.0
 11
317.680194
 21
212.934031
 31
0.0
  0
LINE
  5
A7
330
1F
100
AcDbEntity
  8
1
100
AcDbLine
 10
317.7869
 20
211.288937
 30
0.0
 11
317.524775
 21
212.788779
 31
0.0
  0
LINE
  5
A8
330
1F
100
AcDbEntity
  8
1
100
AcDbLine
 10
319.47845
 20
211.157534
 30
0.0
 11
317.7869
 21
211.288937
 31
0.0
  0
LINE
  5
A9
330
1F
100
AcDbEntity
  8
1
100
AcDbLine
 10
327.107534
 20
221.292543
 30
0.0
 11
327.054804
 21
221.292543
 31
0.0
  0
LINE
  5
AA
330
1F
100
AcDbEntity
  8
1
100
AcDbLine
 10
327.107569
 20
223.334621
 30
0.0
 11
327.107534
 21
221.292543
 31
0.0
  0
LINE
  5
AB
330
1F
100
AcDbEntity
  8
1
100
AcDbLine
 10
327.05481
 20
221.634952
 30
0.0
 11
327.054804
 21
221.292543
 31
0.0
  0
LINE
  5
AC
330
1F
100
AcDbEntity
  8
1
100
AcDbLine
 10
320.082422
 20
226.669642
 30
0.0
 11
319.720224
 21
226.282965
 31
0.0
  0
LINE
  5
AD
330
1F
100
AcDbEntity
  8
1
100
AcDbLine
 10
330.209937
 20
211.961023
 30
0.0
 11
330.209937
 21
211.991332
 31
0.0
  0
LINE
  5
AE
330
1F
100
AcDbEntity
  8
1
100
AcDbLine
 10
322.179691
 20
211.146476
 30
0.0
 11
322.948588
 21
208.321373
 31
0.0
  0
LINE
  5
AF
330
1F
100
AcDbEntity
  8
1
100
AcDbLine
 10
319.232881
 20
209.651277
 30
0.0
 11
319.102667
 21
209.641411
 31
0.0
  0
LINE
  5
B0
330
1F
100
AcDbEntity
  8
1
100
AcDbLine
 10
314.84601
 20
211.50166
 30
0.0
 11
314.84601
 21
209.99013
 31
0.0
  0
LINE
  5
B1
330
1F
100
AcDbEntity
  8
1
100
AcDbLine
 10
306.409937
 20
209.99013
 30
0.0
 11
306.409937
 21
214.802441
 31
0.0
  0
LINE
  5
B2
330
1F
100
AcDbEntity
  8
1
100
AcDbLine
 10
320.609937
 20
214.802441
 30
0.0
 11
320.609937
 21
213.458524
 31
0.0
  0
LINE
  5
B3
330
1F
100
AcDbEntity
  8
1
100
AcDbLine
 10
306.409937
 20
225.799292
 30
0.0
 11
306.409937
 21
226.221288
 31
0.0
  0
LINE
  5
B4
330
1F
100
AcDbEntity
  8
1
100
AcDbLine
 10
302.239932
 20
207.50662
 30
0.0
 11
302.239932
 21
226.221288
 31
0.0
  0
LINE
  5
B5
330
1F
100
AcDbEntity
  8
1
100
AcDbLine
 10
292.239932
 20
208.463954
 30
0.0
 11
292.239932
 21
216.863954
 31
0.0
  0
LINE
  5
B6
330
1F
100
AcDbEntity
  8
1
100
AcDbLine
 10
292.239932
 20
216.863954
 30
0.0
 11
292.239932
 21
225.263954
 31
0.0
  0
LINE
  5
B7
330
1F
100
AcDbEntity
  8
1
100
AcDbLine
 10
292.739932
 20
207.963954
 30
0.0
 11
292.739932
 21
216.863954
 31
0.0
  0
LINE
  5
B8
330
1F
100
AcDbEntity
  8
1
100
AcDbLine
 10
292.739932
 20
216.863954
 30
0.0
 11
292.739932
 21
225.763954
 31
0.0
  0
LINE
  5
B9
330
1F
100
AcDbEntity
  8
1
100
AcDbLine
 10
320.739932
 20
225.188954
 30
0.0
 11
322.239932
 21
224.642999
 31
0.0
  0
LINE
  5
BA
330
1F
100
AcDbEntity
  8
1
100
AcDbLine
 10
320.739932
 20
209.001379
 30
0.0
 11
320.739932
 21
211.104153
 31
0.0
  0
LINE
  5
BB
330
1F
100
AcDbEntity
  8
1
100
AcDbLine
 10
322.239932
 20
224.642999
 30
0.0
 11
324.957239
 21
223.65398
 31
0.0
  0
LINE
  5
BC
330
1F
100
AcDbEntity
  8
SK1
100
AcDbLine
 10
272.739932
 20
213.851454
 30
0.0
 11
272.739932
 21
216.863954
 31
0.0
  0
LINE
  5
BD
330
1F
100
AcDbEntity
  8
SK1
100
AcDbLine
 10
272.739932
 20
216.863954
 30
0.0
 11
272.739932
 21
219.876454
 31
0.0
  0
LINE
  5
BE
330
1F
100
AcDbEntity
  8
SK1
100
AcDbLine
 10
282.439932
 20
211.863954
 30
0.0
 11
282.439932
 21
216.863954
 31
0.0
  0
LINE
  5
BF
330
1F
100
AcDbEntity
  8
SK1
100
AcDbLine
 10
282.439932
 20
216.863954
 30
0.0
 11
282.439932
 21
221.863954
 31
0.0
  0
LINE
  5
C0
330
1F
100
AcDbEntity
  8
SK1
100
AcDbLine
 10
276.182383
 20
211.863954
 30
0.0
 11
276.182383
 21
216.863954
 31
0.0
  0
LINE
  5
C1
330
1F
100
AcDbEntity
  8
SK1
100
AcDbLine
 10
276.182383
 20
216.863954
 30
0.0
 11
276.182383
 21
221.863954
 31
0.0
  0
LINE
  5
C2
330
1F
100
AcDbEntity
  8
1
100
AcDbLine
 10
306.409937
 20
209.99013
 30
0.0
 11
314.84601
 21
209.99013
 31
0.0
  0
LINE
  5
C3
330
1F
100
AcDbEntity
  8
1
100
AcDbLine
 10
317.444208
 20
211.50166
 30
0.0
 11
314.84601
 21
211.50166
 31
0.0
  0
LINE
  5
C4
330
1F
100
AcDbEntity
  8
1
100
AcDbLine
 10
317.352921
 20
210.856304
 30
0.0
 11
317.287726
 21
211.501651
 31
0.0
  0
LINE
  5
C5
330
1F
100
AcDbEntity
  8
1
100
AcDbLine
 10
320.609937
 20
214.802441
 30
0.0
 11
306.409937
 21
214.802441
 31
0.0
  0
LINE
  5
C6
330
1F
100
AcDbEntity
  8
1
100
AcDbLine
 10
330.209937
 20
212.470858
 30
0.0
 11
330.209937
 21
213.700003
 31
0.0
  0
LINE
  5
C7
330
1F
100
AcDbEntity
  8
1
100
AcDbLine
 10
330.209937
 20
212.470858
 30
0.0
 11
330.209937
 21
211.991332
 31
0.0
  0
LINE
  5
C8
330
1F
100
AcDbEntity
  8
1
100
AcDbLine
 10
318.9159029999999
 20
209.933864
 30
0.0
 11
319.034987
 21
209.96116
 31
0.0
  0
LINE
  5
C9
330
1F
100
AcDbEntity
  8
1
100
AcDbLine
 10
319.855407
 20
213.900721
 30
0.0
 11
320.141207
 21
213.966231
 31
0.0
  0
LINE
  5
CA
330
1F
100
AcDbEntity
  8
1
100
AcDbLine
 10
324.039863
 20
208.881386
 30
0.0
 11
324.048835
 21
207.840872
 31
0.0
  0
LINE
  5
CB
330
1F
100
AcDbEntity
  8
1
100
AcDbLine
 10
324.71573
 20
211.259923
 30
0.0
 11
324.642208
 21
210.164928
 31
0.0
  0
LINE
  5
CC
330
1F
100
AcDbEntity
  8
1
100
AcDbLine
 10
320.609937
 20
213.395044
 30
0.0
 11
320.609937
 21
213.458524
 31
0.0
  0
LINE
  5
CD
330
1F
100
AcDbEntity
  8
1
100
AcDbLine
 10
327.875523
 20
211.103915
 30
0.0
 11
326.992161
 21
210.048904
 31
0.0
  0
LINE
  5
CE
330
1F
100
AcDbEntity
  8
1
100
AcDbLine
 10
317.303489
 20
212.89459
 30
0.0
 11
317.444208
 21
211.50166
 31
0.0
  0
LINE
  5
CF
330
1F
100
AcDbEntity
  8
1
100
AcDbLine
 10
318.889757
 20
210.192683
 30
0.0
 11
319.00884
 21
210.219979
 31
0.0
  0
LINE
  5
D0
330
1F
100
AcDbEntity
  8
1
100
AcDbLine
 10
318.913266
 20
214.364026
 30
0.0
 11
318.783052
 21
214.35416
 31
0.0
  0
LINE
  5
D1
330
1F
100
AcDbEntity
  8
1
100
AcDbLine
 10
318.264559
 20
211.251831
 30
0.0
 11
318.219912
 21
211.241598
 31
0.0
  0
LINE
  5
D2
330
1F
100
AcDbEntity
  8
1
100
AcDbLine
 10
317.58998
 20
210.998137
 30
0.0
 11
317.354659
 21
213.327508
 31
0.0
  0
LINE
  5
D3
330
1F
100
AcDbEntity
  8
1
100
AcDbLine
 10
318.526431
 20
210.975386
 30
0.0
 11
318.525711
 21
210.975421
 31
0.0
  0
LINE
  5
D4
330
1F
100
AcDbEntity
  8
1
100
AcDbLine
 10
319.606109
 20
214.291097
 30
0.0
 11
319.855407
 21
213.900721
 31
0.0
  0
LINE
  5
D5
330
1F
100
AcDbEntity
  8
1
100
AcDbLine
 10
318.525711
 20
210.975421
 30
0.0
 11
318.52601
 21
210.976045
 31
0.0
  0
LINE
  5
D6
330
1F
100
AcDbEntity
  8
1
100
AcDbLine
 10
330.209937
 20
218.316905
 30
0.0
 11
330.209937
 21
216.041604
 31
0.0
  0
LINE
  5
D7
330
1F
100
AcDbEntity
  8
1
100
AcDbLine
 10
320.141207
 20
213.966231
 30
0.0
 11
320.778924
 21
212.967626
 31
0.0
  0
LINE
  5
D8
330
1F
100
AcDbEntity
  8
1
100
AcDbLine
 10
306.409937
 20
225.799292
 30
0.0
 11
314.84601
 21
225.799292
 31
0.0
  0
LINE
  5
D9
330
1F
100
AcDbEntity
  8
1
100
AcDbLine
 10
301.239932
 20
209.657476
 30
0.0
 11
301.239932
 21
219.027346
 31
0.0
  0
LINE
  5
DA
330
1F
100
AcDbEntity
  8
1
100
AcDbLine
 10
294.639932
 20
209.281585
 30
0.0
 11
300.839932
 21
209.281585
 31
0.0
  0
LINE
  5
DB
330
1F
100
AcDbEntity
  8
1
100
AcDbLine
 10
294.239932
 20
209.657476
 30
0.0
 11
294.239932
 21
219.027346
 31
0.0
  0
LINE
  5
DC
330
1F
100
AcDbEntity
  8
1
100
AcDbLine
 10
300.839932
 20
219.6768529999999
 30
0.0
 11
294.639932
 21
219.6768529999999
 31
0.0
  0
LINE
  5
DD
330
1F
100
AcDbEntity
  8
80
100
AcDbLine
 10
291.239932
 20
216.863954
 30
0.0
 11
293.239932
 21
216.863954
 31
0.0
  0
LINE
  5
DF
330
1F
100
AcDbEntity
  8
80
100
AcDbLine
 10
292.239932
 20
215.863954
 30
0.0
 11
292.239932
 21
217.863954
 31
0.0
  0
LINE
  5
E0
330
1F
100
AcDbEntity
  8
81
100
AcDbLine
 10
332.239932
 20
225.863954
 30
0.0
 11
332.239932
 21
227.863954
 31
0.0
  0
LINE
  5
E1
330
1F
100
AcDbEntity
  8
81
100
AcDbLine
 10
331.239932
 20
226.863954
 30
0.0
 11
333.239932
 21
226.863954
 31
0.0
  0
LINE
  5
EE
330
1F
100
AcDbEntity
  8
SK1
100
AcDbLine
 10
290.986342
 20
221.913954
 30
0.0
 11
290.239932
 21
222.113954
 31
0.0
  0
LINE
  5
EF
330
1F
100
AcDbEntity
  8
SK1
100
AcDbLine
 10
290.239932
 20
211.613954
 30
0.0
 11
290.986342
 21
211.813954
 31
0.0
  0
LINE
  5
F0
330
1F
100
AcDbEntity
  8
SK1
100
AcDbLine
 10
291.939932
 20
221.913954
 30
0.0
 11
290.986342
 21
221.913954
 31
0.0
  0
LINE
  5
F1
330
1F
100
AcDbEntity
  8
SK1
100
AcDbLine
 10
284.29256
 20
220.794339
 30
0.0
 11
282.439932
 21
221.863954
 31
0.0
  0
LINE
  5
F2
330
1F
100
AcDbEntity
  8
SK1
100
AcDbLine
 10
290.986342
 20
211.813954
 30
0.0
 11
291.939932
 21
211.813954
 31
0.0
  0
LINE
  5
F3
330
1F
100
AcDbEntity
  8
SK1
100
AcDbLine
 10
290.239932
 20
222.113954
 30
0.0
 11
287.039932
 21
222.113954
 31
0.0
  0
LINE
  5
F4
330
1F
100
AcDbEntity
  8
SK1
100
AcDbLine
 10
287.039932
 20
211.613954
 30
0.0
 11
290.239932
 21
211.613954
 31
0.0
  0
LINE
  5
F5
330
1F
100
AcDbEntity
  8
SK1
100
AcDbLine
 10
286.239932
 20
211.828314
 30
0.0
 11
287.039932
 21
211.613954
 31
0.0
  0
LINE
  5
F6
330
1F
100
AcDbEntity
  8
SK1
100
AcDbLine
 10
282.439932
 20
211.863954
 30
0.0
 11
284.29256
 21
212.933569
 31
0.0
  0
LINE
  5
F7
330
1F
100
AcDbEntity
  8
SK1
100
AcDbLine
 10
276.182383
 20
211.863954
 30
0.0
 11
282.439932
 21
211.863954
 31
0.0
  0
LINE
  5
F8
330
1F
100
AcDbEntity
  8
SK1
100
AcDbLine
 10
282.439932
 20
221.863954
 30
0.0
 11
276.182383
 21
221.863954
 31
0.0
  0
LINE
  5
F9
330
1F
100
AcDbEntity
  8
1
100
AcDbLine
 10
302.239932
 20
207.50662
 30
0.0
 11
322.239932
 21
207.50662
 31
0.0
  0
LINE
  5
FA
330
1F
100
AcDbEntity
  8
1
100
AcDbLine
 10
292.739932
 20
207.963954
 30
0.0
 11
302.239932
 21
207.963954
 31
0.0
  0
LINE
  5
FB
330
1F
100
AcDbEntity
  8
1
100
AcDbLine
 10
302.239932
 20
225.763954
 30
0.0
 11
292.739932
 21
225.763954
 31
0.0
  0
LINE
  5
FC
330
1F
100
AcDbEntity
  8
1
100
AcDbLine
 10
306.409937
 20
226.221288
 30
0.0
 11
305.86165
 21
226.221288
 31
0.0
  0
LINE
  5
FD
330
1F
100
AcDbEntity
  8
1
100
AcDbLine
 10
303.958288
 20
226.221288
 30
0.0
 11
302.239932
 21
226.221288
 31
0.0
  0
LINE
  5
FE
330
1F
100
AcDbEntity
  8
1
100
AcDbLine
 10
292.739932
 20
225.763954
 30
0.0
 11
292.239932
 21
225.263954
 31
0.0
  0
LINE
  5
FF
330
1F
100
AcDbEntity
  8
SK1
100
AcDbLine
 10
272.739932
 20
213.851454
 30
0.0
 11
276.182383
 21
211.863954
 31
0.0
  0
LINE
  5
100
330
1F
100
AcDbEntity
  8
1
100
AcDbLine
 10
322.419927
 20
225.188977
 30
0.0
 11
322.365455
 21
225.188977
 31
0.0
  0
LINE
  5
101
330
1F
100
AcDbEntity
  8
SK1
100
AcDbLine
 10
287.039932
 20
222.113954
 30
0.0
 11
286.239932
 21
221.899595
 31
0.0
  0
LINE
  5
102
330
1F
100
AcDbEntity
  8
SK1
100
AcDbLine
 10
276.182383
 20
221.863954
 30
0.0
 11
272.739932
 21
219.876454
 31
0.0
  0
LINE
  5
103
330
1F
100
AcDbEntity
  8
1
100
AcDbLine
 10
292.239932
 20
208.463954
 30
0.0
 11
292.739932
 21
207.963954
 31
0.0
  0
LINE
  5
104
330
1F
100
AcDbEntity
  8
SK1
100
AcDbLine
 10
285.639932
 20
220.713954
 30
0.0
 11
284.59256
 21
220.713954
 31
0.0
  0
LINE
  5
105
330
1F
100
AcDbEntity
  8
SK1
100
AcDbLine
 10
284.59256
 20
213.013954
 30
0.0
 11
285.639932
 21
213.013954
 31
0.0
  0
LINE
  5
106
330
1F
100
AcDbEntity
  8
1
100
AcDbLine
 10
330.209935
 20
213.029583
 30
0.0
 11
330.271661
 21
213.075075
 31
0.0
  0
LINE
  5
107
330
1F
100
AcDbEntity
  8
NOCUT
100
AcDbLine
 10
302.239932
 20
226.221288
 30
0.0
 11
302.239932
 21
225.763954
 31
0.0
  0
LINE
  5
109
330
1F
100
AcDbEntity
  8
NOCUT
100
AcDbLine
 10
292.739932
 20
225.763954
 30
0.0
 11
302.239932
 21
225.763954
 31
0.0
  0
LINE
  5
10A
330
1F
100
AcDbEntity
  8
NOCUT
100
AcDbLine
 10
331.239932
 20
214.302762
 30
0.0
 11
331.239932
 21
219.425146
 31
0.0
  0
LINE
  5
10B
330
1F
100
AcDbEntity
  8
NOCUT
100
AcDbLine
 10
276.639932
 20
217.863954
 30
0.0
 11
274.688489
 21
217.863954
 31
0.0
  0
LINE
  5
10C
330
1F
100
AcDbEntity
  8
NOCUT
100
AcDbLine
 10
292.189932
 20
225.213954
 30
0.0
 11
292.739932
 21
225.763954
 31
0.0
  0
LINE
  5
10D
330
1F
100
AcDbEntity
  8
NOCUT
100
AcDbLine
 10
292.189932
 20
223.40923
 30
0.0
 11
292.189932
 21
225.213954
 31
0.0
  0
LINE
  5
10E
330
1F
100
AcDbEntity
  8
NOCUT
100
AcDbLine
 10
302.239932
 20
226.221288
 30
0.0
 11
322.239932
 21
226.221288
 31
0.0
  0
LINE
  5
10F
330
1F
100
AcDbEntity
  8
NOCUT
100
AcDbLine
 10
290.986342
 20
211.813954
 30
0.0
 11
289.913378
 21
211.526454
 31
0.0
  0
LINE
  5
110
330
1F
100
AcDbEntity
  8
NOCUT
100
AcDbLine
 10
274.688489
 20
215.863954
 30
0.0
 11
276.639932
 21
215.863954
 31
0.0
  0
LINE
  5
111
330
1F
100
AcDbEntity
  8
NOCUT
100
AcDbLine
 10
276.639932
 20
215.863954
 30
0.0
 11
277.240793
 21
216.863954
 31
0.0
  0
LINE
  5
112
330
1F
100
AcDbEntity
  8
NOCUT
100
AcDbLine
 10
277.240793
 20
216.863954
 30
0.0
 11
276.639932
 21
217.863954
 31
0.0
  0
LINE
  5
113
330
1F
100
AcDbEntity
  8
NOCUT
100
AcDbLine
 10
292.336039
 20
222.369623
 30
0.0
 11
292.189932
 21
223.40923
 31
0.0
  0
LINE
  5
114
330
1F
100
AcDbEntity
  8
NOCUT
100
AcDbLine
 10
302.239932
 20
207.963954
 30
0.0
 11
302.239932
 21
207.50662
 31
0.0
  0
LINE
  5
115
330
1F
100
AcDbEntity
  8
NOCUT
100
AcDbLine
 10
292.739932
 20
207.963954
 30
0.0
 11
292.189932
 21
208.513954
 31
0.0
  0
LINE
  5
116
330
1F
100
AcDbEntity
  8
NOCUT
100
AcDbLine
 10
292.189932
 20
208.513954
 30
0.0
 11
292.189932
 21
210.318678
 31
0.0
  0
LINE
  5
117
330
1F
100
AcDbEntity
  8
NOCUT
100
AcDbLine
 10
292.189932
 20
210.318678
 30
0.0
 11
292.336039
 21
211.358285
 31
0.0
  0
LINE
  5
118
330
1F
100
AcDbEntity
  8
NOCUT
100
AcDbLine
 10
302.239932
 20
207.963954
 30
0.0
 11
292.739932
 21
207.963954
 31
0.0
  0
LINE
  5
119
330
1F
100
AcDbEntity
  8
NOCUT
100
AcDbLine
 10
291.939932
 20
211.813954
 30
0.0
 11
290.986342
 21
211.813954
 31
0.0
  0
LINE
  5
11A
330
1F
100
AcDbEntity
  8
NOCUT
100
AcDbLine
 10
322.239932
 20
207.50662
 30
0.0
 11
302.239932
 21
207.50662
 31
0.0
  0
LINE
  5
11B
330
1F
100
AcDbEntity
  8
NOCUT
100
AcDbLine
 10
272.739932
 20
213.851454
 30
0.0
 11
272.739932
 21
214.738954
 31
0.0
  0
LINE
  5
11C
330
1F
100
AcDbEntity
  8
NOCUT
100
AcDbLine
 10
272.739932
 20
214.738954
 30
0.0
 11
274.688489
 21
215.863954
 31
0.0
  0
LINE
  5
11D
330
1F
100
AcDbEntity
  8
NOCUT
100
AcDbLine
 10
282.439932
 20
211.863954
 30
0.0
 11
276.182383
 21
211.863954
 31
0.0
  0
LINE
  5
11E
330
1F
100
AcDbEntity
  8
NOCUT
100
AcDbLine
 10
276.182383
 20
211.863954
 30
0.0
 11
272.739932
 21
213.851454
 31
0.0
  0
LINE
  5
11F
330
1F
100
AcDbEntity
  8
NOCUT
100
AcDbLine
 10
287.366486
 20
211.526454
 30
0.0
 11
286.239932
 21
211.828314
 31
0.0
  0
LINE
  5
120
330
1F
100
AcDbEntity
  8
NOCUT
100
AcDbLine
 10
284.29256
 20
212.933569
 30
0.0
 11
282.439932
 21
211.863954
 31
0.0
  0
LINE
  5
121
330
1F
100
AcDbEntity
  8
NOCUT
100
AcDbLine
 10
289.913378
 20
211.526454
 30
0.0
 11
287.366486
 21
211.526454
 31
0.0
  0
LINE
  5
122
330
1F
100
AcDbEntity
  8
NOCUT
100
AcDbLine
 10
285.639932
 20
213.013954
 30
0.0
 11
284.59256
 21
213.013954
 31
0.0
  0
LINE
  5
123
330
1F
100
AcDbEntity
  8
NOCUT
100
AcDbLine
 10
286.239932
 20
211.828314
 30
0.0
 11
286.239932
 21
212.413954
 31
0.0
  0
LINE
  5
124
330
1F
100
AcDbEntity
  8
NOCUT
100
AcDbLine
 10
290.986342
 20
221.913954
 30
0.0
 11
291.939932
 21
221.913954
 31
0.0
  0
LINE
  5
125
330
1F
100
AcDbEntity
  8
NOCUT
100
AcDbLine
 10
287.366486
 20
222.201454
 30
0.0
 11
289.913378
 21
222.201454
 31
0.0
  0
LINE
  5
126
330
1F
100
AcDbEntity
  8
NOCUT
100
AcDbLine
 10
289.913378
 20
222.201454
 30
0.0
 11
290.986342
 21
221.913954
 31
0.0
  0
LINE
  5
127
330
1F
100
AcDbEntity
  8
NOCUT
100
AcDbLine
 10
272.739932
 20
218.988954
 30
0.0
 11
272.739932
 21
219.876454
 31
0.0
  0
LINE
  5
128
330
1F
100
AcDbEntity
  8
NOCUT
100
AcDbLine
 10
282.439932
 20
221.863954
 30
0.0
 11
284.29256
 21
220.794339
 31
0.0
  0
LINE
  5
129
330
1F
100
AcDbEntity
  8
NOCUT
100
AcDbLine
 10
272.739932
 20
219.876454
 30
0.0
 11
276.182383
 21
221.863954
 31
0.0
  0
LINE
  5
12A
330
1F
100
AcDbEntity
  8
NOCUT
100
AcDbLine
 10
286.239932
 20
221.899595
 30
0.0
 11
287.366486
 21
222.201454
 31
0.0
  0
LINE
  5
12B
330
1F
100
AcDbEntity
  8
NOCUT
100
AcDbLine
 10
286.239932
 20
221.313954
 30
0.0
 11
286.239932
 21
221.899595
 31
0.0
  0
LINE
  5
12C
330
1F
100
AcDbEntity
  8
NOCUT
100
AcDbLine
 10
274.688489
 20
217.863954
 30
0.0
 11
272.739932
 21
218.988954
 31
0.0
  0
LINE
  5
12D
330
1F
100
AcDbEntity
  8
NOCUT
100
AcDbLine
 10
284.59256
 20
220.713954
 30
0.0
 11
285.639932
 21
220.713954
 31
0.0
  0
LINE
  5
12E
330
1F
100
AcDbEntity
  8
NOCUT
100
AcDbLine
 10
276.182383
 20
221.863954
 30
0.0
 11
282.439932
 21
221.863954
 31
0.0
  0
LINE
  5
12F
102
{ACAD_REACTORS
330
1CD
102
}
330
1F
100
AcDbEntity
  8
2
100
AcDbLine
 10
347.642549
 20
226.863954
 30
0.0
 11
347.642549
 21
205.931567
 31
0.0
  0
LINE
  5
130
102
{ACAD_REACTORS
330
1CD
102
}
330
1F
100
AcDbEntity
  8
2
100
AcDbLine
 10
335.239932
 20
226.863954
 30
0.0
 11
349.642549
 21
226.863954
 31
0.0
  0
LINE
  5
131
102
{ACAD_REACTORS
330
1CD
102
}
330
1F
100
AcDbEntity
  8
2
100
AcDbLine
 10
347.642549
 20
226.863954
 30
0.0
 11
348.493288
 21
223.688957
 31
0.0
  0
LINE
  5
132
102
{ACAD_REACTORS
330
1CD
102
}
330
1F
100
AcDbEntity
  8
2
100
AcDbLine
 10
347.642549
 20
226.863954
 30
0.0
 11
346.79181
 21
223.688951
 31
0.0
  0
LINE
  5
133
102
{ACAD_REACTORS
330
1CD
102
}
330
1F
100
AcDbEntity
  8
2
100
AcDbLine
 10
348.493288
 20
223.688957
 30
0.0
 11
346.79181
 21
223.688951
 31
0.0
  0
ARC
  5
134
330
1F
100
AcDbEntity
  8
1
100
AcDbCircle
 10
322.239932
 20
216.863954
 30
0.0
 40
9.357334264801703
100
AcDbArc
 50
270.0
 51
328.401296
  0
ARC
  5
135
330
1F
100
AcDbEntity
  8
SK1
100
AcDbCircle
 10
-291.939932
 20
222.313954
 30
0.0
 40
0.4000000000000001
210
0.0
220
0.0
230
-1.0
100
AcDbArc
 50
221.409884
 51
270.0
  0
ARC
  5
136
330
1F
100
AcDbEntity
  8
SK1
100
AcDbCircle
 10
-291.939932
 20
211.413954
 30
0.0
 40
0.4000000000000001
210
0.0
220
0.0
230
-1.0
100
AcDbArc
 50
90.0
 51
138.590116
  0
ARC
  5
137
330
1F
100
AcDbEntity
  8
SK1
100
AcDbCircle
 10
-285.639932
 20
221.313954
 30
0.0
 40
0.5999999999999997
210
0.0
220
0.0
230
-1.0
100
AcDbArc
 50
180.0
 51
270.0
  0
ARC
  5
138
330
1F
100
AcDbEntity
  8
SK1
100
AcDbCircle
 10
-285.639932
 20
212.413954
 30
0.0
 40
0.5999999999999997
210
0.0
220
0.0
230
-1.0
100
AcDbArc
 50
90.0
 51
180.0
  0
ARC
  5
139
330
1F
100
AcDbEntity
  8
SK1
100
AcDbCircle
 10
-284.59256
 20
221.313954
 30
0.0
 40
0.5999999999999997
210
0.0
220
0.0
230
-1.0
100
AcDbArc
 50
270.0
 51
300.0
  0
ARC
  5
13A
330
1F
100
AcDbEntity
  8
SK1
100
AcDbCircle
 10
-284.59256
 20
212.413954
 30
0.0
 40
0.5999999999999997
210
0.0
220
0.0
230
-1.0
100
AcDbArc
 50
60.0
 51
90.0
  0
ARC
  5
13B
330
1F
100
AcDbEntity
  8
NOCUT
100
AcDbCircle
 10
-322.239932
 20
216.863954
 30
0.0
 40
9.357334264801703
210
0.0
220
0.0
230
-1.0
100
AcDbArc
 50
90.0
 51
164.114872
  0
ARC
  5
13C
330
1F
100
AcDbEntity
  8
NOCUT
100
AcDbCircle
 10
-322.239932
 20
216.863954
 30
0.0
 40
9.357334264801703
210
0.0
220
0.0
230
-1.0
100
AcDbArc
 50
195.885128
 51
270.0
  0
ARC
  5
13D
330
1F
100
AcDbEntity
  8
NOCUT
100
AcDbCircle
 10
291.939932
 20
211.413954
 30
0.0
 40
0.4000000000000001
100
AcDbArc
 50
352.0
 51
90.0
  0
ARC
  5
13E
330
1F
100
AcDbEntity
  8
NOCUT
100
AcDbCircle
 10
284.59256
 20
212.413954
 30
0.0
 40
0.5999999999999997
100
AcDbArc
 50
90.0
 51
120.0
  0
ARC
  5
13F
330
1F
100
AcDbEntity
  8
NOCUT
100
AcDbCircle
 10
285.639932
 20
212.413954
 30
0.0
 40
0.5999999999999997
100
AcDbArc
 50
360.0
 51
90.0
  0
ARC
  5
140
330
1F
100
AcDbEntity
  8
NOCUT
100
AcDbCircle
 10
285.639932
 20
221.313954
 30
0.0
 40
0.5999999999999997
100
AcDbArc
 50
270.0
 51
0.0
  0
ARC
  5
141
330
1F
100
AcDbEntity
  8
NOCUT
100
AcDbCircle
 10
291.939932
 20
222.313954
 30
0.0
 40
0.4000000000000001
100
AcDbArc
 50
270.0
 51
8.0
  0
ARC
  5
142
330
1F
100
AcDbEntity
  8
NOCUT
100
AcDbCircle
 10
284.59256
 20
221.313954
 30
0.0
 40
0.5999999999999997
100
AcDbArc
 50
240.0
 51
270.0
  0
ELLIPSE
  5
143
330
1F
100
AcDbEntity
  8
1
100
AcDbEllipse
 10
324.837281
 20
216.863909
 30
0.0
 11
0.0001574476772606
 21
8.986759416978056
 31
0.0
210
0.0
220
0.0
230
1.0
 40
0.087156
 41
5.354524783842072
 42
5.374077794507575
  0
ELLIPSE
  5
144
330
1F
100
AcDbEntity
  8
1
100
AcDbEllipse
 10
322.365455
 20
216.863977
 30
0.0
 11
0.0000000000000012
 21
-9.912137246012964
 31
0.0
210
0.0
220
0.0
230
0.9999999999999998
 40
0.9961950000000001
 41
1.576146445098188
 42
3.193935077857108
  0
ELLIPSE
  5
145
330
1F
100
AcDbEntity
  8
1
100
AcDbEllipse
 10
322.202034
 20
217.733405
 30
0.0
 11
-9.270370637731703
 21
-0.936522570747782
 31
0.0
210
0.0
220
0.0
230
0.9999999999999998
 40
0.4980970000000001
 41
1.223813368270592
 42
1.362816569220764
  0
ELLIPSE
  5
146
330
1F
100
AcDbEntity
  8
1
100
AcDbEllipse
 10
322.202034
 20
217.733405
 30
0.0
 11
-9.270370637731703
 21
-0.936522570747782
 31
0.0
210
0.0
220
0.0
230
0.9999999999999998
 40
0.4980970000000001
 41
1.4736891352394
 42
2.777193281262798
  0
ELLIPSE
  5
147
330
1F
100
AcDbEntity
  8
1
100
AcDbEllipse
 10
322.419927
 20
216.863977
 30
0.0
 11
-0.000000000000001
 21
8.324999999999999
 31
0.0
210
0.0
220
0.0
230
1.0
 40
0.9961949999999999
 41
4.731481911279745
 42
6.335527731446897
  0
ELLIPSE
  5
148
330
1F
100
AcDbEntity
  8
1
100
AcDbEllipse
 10
322.202034
 20
215.994496
 30
0.0
 11
9.270370637731703
 21
-0.9365225707477794
 31
0.0
210
0.0
220
0.0
230
0.9999999999999998
 40
0.4980970000000001
 41
5.803298810136657
 42
6.019339906223115
  0
ELLIPSE
  5
149
330
1F
100
AcDbEntity
  8
1
100
AcDbEllipse
 10
322.365455
 20
216.863977
 30
0.0
 11
-0.000000000000001
 21
8.324999999999999
 31
0.0
210
0.0
220
0.0
230
1.0
 40
0.9961949999999999
 41
6.2831755445627
 42
6.335527731446897
  0
ELLIPSE
  5
14A
330
1F
100
AcDbEntity
  8
1
100
AcDbEllipse
 10
322.220815
 20
216.180408
 30
0.0
 11
9.450274718669275
 21
-0.9546970579340754
 31
0.0
210
0.0
220
0.0
230
1.0
 40
0.4980970000000001
 41
5.780239241085474
 42
6.039122919478862
  0
ELLIPSE
  5
14B
330
1F
100
AcDbEntity
  8
1
100
AcDbEllipse
 10
322.3654509999999
 20
216.115787
 30
0.0
 11
-9.861941044301671
 21
-0.9962849103121016
 31
0.0
210
0.0
220
0.0
230
0.9999999999999998
 40
0.4980970000000001
 41
1.223813368270592
 42
2.841602001029513
  0
ELLIPSE
  5
14C
330
1F
100
AcDbEntity
  8
1
100
AcDbEllipse
 10
322.220815
 20
217.547493
 30
0.0
 11
-9.450274718669275
 21
-0.9546970579340785
 31
0.0
210
0.0
220
0.0
230
1.0
 40
0.4980970000000001
 41
1.223813368270592
 42
2.796976294518544
  0
ELLIPSE
  5
14D
330
1F
100
AcDbEntity
  8
1
100
AcDbEllipse
 10
327.289259
 20
221.634952
 30
0.0
 11
-0.0000471286958061
 21
-2.689999999587276
 31
0.0
210
0.0
220
0.0
230
0.9999999999999996
 40
0.087156
 41
4.028456349742738
 42
4.712390507349939
  0
ELLIPSE
  5
14E
330
1F
100
AcDbEntity
  8
1
100
AcDbEllipse
 10
323.390341
 20
217.68906
 30
0.0
 11
-6.047070935846594
 21
-11.95119333668672
 31
0.0
210
0.0
220
0.0
230
1.0
 40
0.6460080000000001
 41
1.598614561070168
 42
1.651553355721055
  0
ELLIPSE
  5
14F
330
1F
100
AcDbEntity
  8
1
100
AcDbEllipse
 10
334.553384
 20
243.420454
 30
0.0
 11
-15.32084211682127
 21
-34.13580029191804
 31
0.0
210
0.0
220
0.0
230
1.0
 40
0.364266
 41
0.7094881393346834
 42
0.7221536384099229
  0
ELLIPSE
  5
150
330
1F
100
AcDbEntity
  8
1
100
AcDbEllipse
 10
323.39034
 20
218.168377
 30
0.0
 11
9.780216798225337
 21
-3.477945499515912
 31
0.0
210
0.0
220
0.0
230
0.9999999999999998
 40
0.2076420000000001
 41
0.6573878313628756
 42
0.7103266249856496
  0
ELLIPSE
  5
151
330
1F
100
AcDbEntity
  8
1
100
AcDbEllipse
 10
334.55338
 20
210.366548
 30
0.0
 11
19.62838947595018
 21
-9.908543143586726
 31
0.0
210
0.0
220
0.0
230
0.9999999999999998
 40
0.203638
 41
1.84009788569585
 42
1.852763391143645
  0
ELLIPSE
  5
152
330
1F
100
AcDbEntity
  8
1
100
AcDbEllipse
 10
324.758699
 20
216.739596
 30
0.0
 11
0.4431827565754732
 21
8.976254616231098
 31
0.0
210
0.0
220
0.0
230
1.0
 40
0.251794
 41
3.02191292627354
 42
3.039522272391423
  0
ELLIPSE
  5
153
330
1F
100
AcDbEntity
  8
1
100
AcDbEllipse
 10
319.097789
 20
210.988508
 30
0.0
 11
-1.620061562231164
 21
-0.0332568362993222
 31
0.0
210
0.0
220
0.0
230
1.0
 40
0.8286129999999999
 41
1.637259513703033
 42
3.203221077728294
  0
ELLIPSE
  5
154
330
1F
100
AcDbEntity
  8
1
100
AcDbEllipse
 10
318.967575
 20
210.978642
 30
0.0
 11
-1.620061562231199
 21
-0.0332568362992537
 31
0.0
210
0.0
220
0.0
230
1.0
 40
0.8286129999999999
 41
0.0664631869083651
 42
1.637259513703088
  0
ELLIPSE
  5
155
330
1F
100
AcDbEntity
  8
1
100
AcDbEllipse
 10
324.740069
 20
213.42942
 30
0.0
 11
4.722854878424453
 21
3.437957193010851
 31
0.0
210
0.0
220
0.0
230
1.0
 40
0.8137979999999998
 41
3.704699837361429
 42
3.84513406630295
  0
ELLIPSE
  5
156
330
1F
100
AcDbEntity
  8
1
100
AcDbEllipse
 10
343.612682
 20
216.863954
 30
0.0
 11
-25.66105032691033
 21
-5.164965415920449
 31
0.0
210
0.0
220
0.0
230
0.9999999999999998
 40
0.30407
 41
0.4130344401101558
 42
0.5281717611690384
  0
ELLIPSE
  5
157
330
1F
100
AcDbEntity
  8
1
100
AcDbEllipse
 10
324.053396
 20
211.485835
 30
0.0
 11
-0.3374682475831973
 21
-2.639535872542421
 31
0.0
210
0.0
220
0.0
230
1.0
 40
0.502208
 41
4.889790136984764
 42
6.522575084956429
  0
ELLIPSE
  5
158
330
1F
100
AcDbEntity
  8
1
100
AcDbEllipse
 10
318.899895
 20
211.298392
 30
0.0
 11
1.306345685383409
 21
0.8342427406217836
 31
0.0
210
0.0
220
0.0
230
0.9999999999999996
 40
0.840925
 41
4.310796864075388
 42
5.498318999724775
  0
ELLIPSE
  5
159
330
1F
100
AcDbEntity
  8
1
100
AcDbEllipse
 10
318.899895
 20
211.298392
 30
0.0
 11
-1.053504584986695
 21
-0.6727764037272938
 31
0.0
210
0.0
220
0.0
230
1.0
 40
0.840925
 41
1.169204210485663
 42
2.333802261919642
  0
ELLIPSE
  5
15A
330
1F
100
AcDbEntity
  8
1
100
AcDbEllipse
 10
319.689627
 20
210.602662
 30
0.0
 11
-7.628583456425379
 21
-0.266370173296823
 31
0.0
210
0.0
220
0.0
230
1.0
 40
0.351551
 41
2.57718713749111
 42
2.835645879502261
  0
ELLIPSE
  5
15B
330
1F
100
AcDbEntity
  8
1
100
AcDbEllipse
 10
319.048358
 20
213.026794
 30
0.0
 11
-1.620061562231189
 21
-0.03325683629923
 31
0.0
210
0.0
220
0.0
230
0.9999999999999998
 40
0.8286129999999999
 41
3.394619682688274
 42
4.778852167292896
  0
ELLIPSE
  5
15C
330
1F
100
AcDbEntity
  8
1
100
AcDbEllipse
 10
318.780812
 20
211.271096
 30
0.0
 11
1.306345685383411
 21
0.8342427406217851
 31
0.0
210
0.0
220
0.0
230
1.0
 40
0.840925
 41
3.182670241590921
 42
4.310796864075388
  0
ELLIPSE
  5
15D
330
1F
100
AcDbEntity
  8
1
100
AcDbEllipse
 10
318.664575
 20
213.627762
 30
0.0
 11
-1.053504584986975
 21
-0.6727764037274723
 31
0.0
210
0.0
220
0.0
230
1.0
 40
0.840925
 41
2.740000537280673
 42
3.075316089774606
  0
ELLIPSE
  5
15E
330
1F
100
AcDbEntity
  8
1
100
AcDbEllipse
 10
318.780812
 20
211.271096
 30
0.0
 11
-1.053504584986267
 21
-0.6727764037270202
 31
0.0
210
0.0
220
0.0
230
0.9999999999999998
 40
0.840925
 41
5.881593190870289
 42
7.452389517665159
  0
ELLIPSE
  5
15F
330
1F
100
AcDbEntity
  8
1
100
AcDbEllipse
 10
318.664575
 20
213.627762
 30
0.0
 11
1.306345685383411
 21
0.8342427406217847
 31
0.0
210
0.0
220
0.0
230
0.9999999999999998
 40
0.840925
 41
5.881593190870843
 42
5.930705102064595
  0
ELLIPSE
  5
160
330
1F
100
AcDbEntity
  8
1
100
AcDbEllipse
 10
318.918144
 20
213.016928
 30
0.0
 11
-1.620061562231208
 21
-0.0332568362992298
 31
0.0
210
0.0
220
0.0
230
1.0
 40
0.8286129999999999
 41
4.778852167292894
 42
6.349648494087957
  0
ELLIPSE
  5
161
330
1F
100
AcDbEntity
  8
1
100
AcDbEllipse
 10
323.961838
 20
210.391731
 30
0.0
 11
0.1356099935896812
 21
2.746654315642687
 31
0.0
210
0.0
220
0.0
230
1.0
 40
0.251794
 41
3.514521976617433
 42
4.642157987556207
  0
ELLIPSE
  5
162
330
1F
100
AcDbEntity
  8
1
100
AcDbEllipse
 10
318.545492
 20
213.600467
 30
0.0
 11
-1.053504584986642
 21
-0.6727764037272597
 31
0.0
210
0.0
220
0.0
230
0.9999999999999998
 40
0.840925
 41
5.858448312540318
 42
5.881593190870289
  0
ELLIPSE
  5
163
330
1F
100
AcDbEntity
  8
1
100
AcDbEllipse
 10
319.202343
 20
211.725345
 30
0.0
 11
-0.0862972686479581
 21
-1.747870928135818
 31
0.0
210
0.0
220
0.0
230
1.0
 40
0.251794
 41
5.021896998691449
 42
5.163857830216577
  0
ELLIPSE
  5
164
330
1F
100
AcDbEntity
  8
1
100
AcDbEllipse
 10
320.572989
 20
211.657673
 30
0.0
 11
-7.628583456414172
 21
-0.2663701732991311
 31
0.0
210
0.0
220
0.0
230
1.0
 40
0.351551
 41
2.835645879501971
 42
3.352094087625102
  0
ELLIPSE
  5
165
330
1F
100
AcDbEntity
  8
1
100
AcDbEllipse
 10
324.035361
 20
211.486726
 30
0.0
 11
0.1356099935896773
 21
2.746654315642607
 31
0.0
210
0.0
220
0.0
230
1.0
 40
0.251794
 41
4.642157987556207
 42
4.72338788984508
  0
ELLIPSE
  5
166
330
1F
100
AcDbEntity
  8
1
100
AcDbEllipse
 10
318.110967
 20
212.32001
 30
0.0
 11
1.053504584986268
 21
0.6727764037270199
 31
0.0
210
0.0
220
0.0
230
1.0
 40
0.840925
 41
3.743665773331506
 42
4.310796864075368
  0
ELLIPSE
  5
167
330
1F
100
AcDbEntity
  8
1
100
AcDbEllipse
 10
324.035361
 20
211.486726
 30
0.0
 11
0.1309252847202111
 21
2.651769893829404
 31
0.0
210
0.0
220
0.0
230
1.0
 40
0.251794
 41
3.341837130989443
 42
4.721475333461983
  0
ELLIPSE
  5
168
330
1F
100
AcDbEntity
  8
1
100
AcDbEllipse
 10
318.417065
 20
212.054458
 30
0.0
 11
-0.3967360495757821
 21
-1.626038323175908
 31
0.0
210
0.0
220
0.0
230
1.0
 40
0.272678
 41
0.9140762728587759
 42
1.101926437214072
  0
ELLIPSE
  5
169
330
1F
100
AcDbEntity
  8
1
100
AcDbEllipse
 10
323.896576
 20
210.394953
 30
0.0
 11
-0.3495433895779329
 21
-2.73398249762979
 31
0.0
210
0.0
220
0.0
230
0.9999999999999998
 40
0.502208
 41
0.4231898143263705
 42
0.4790954156882205
  0
ELLIPSE
  5
16A
330
1F
100
AcDbEntity
  8
1
100
AcDbEllipse
 10
325.107636
 20
216.52999
 30
0.0
 11
-1.012595990416482
 21
-8.695024272203426
 31
0.0
210
0.0
220
0.0
230
0.9999999999999998
 40
0.487298
 41
0.0110052127159811
 42
0.0293623299436574
  0
ELLIPSE
  5
16B
330
1F
100
AcDbEntity
  8
1
100
AcDbEllipse
 10
331.767189
 20
213.868459
 30
0.0
 11
-1.235574161516385
 21
-1.697027962693375
 31
0.0
210
0.0
220
0.0
230
0.9999999999999998
 40
0.9332019999999999
 41
5.535888993136136
 42
6.058583575745946
  0
ELLIPSE
  5
16C
330
1F
100
AcDbEntity
  8
1
100
AcDbEllipse
 10
322.500803
 20
216.34067
 30
0.0
 11
-8.086636484469458
 21
-4.031407173465639
 31
0.0
210
0.0
220
0.0
230
1.0
 40
0.9706639999999998
 41
1.543752924098055
 42
2.151720265391497
  0
ELLIPSE
  5
16D
330
1F
100
AcDbEntity
  8
1
100
AcDbEllipse
 10
322.152476
 20
217.729654
 30
0.0
 11
-9.256262771498919
 21
-0.9350973488587763
 31
0.0
210
0.0
220
0.0
230
1.0
 40
0.4980970000000001
 41
1.529955824298379
 42
2.574480673195619
  0
ELLIPSE
  5
16E
330
1F
100
AcDbEntity
  8
1
100
AcDbEllipse
 10
310.726737
 20
216.863948
 30
0.0
 11
-106.9541517768447
 21
-8.119086828937263
 31
0.0
210
0.0
220
0.0
230
1.0
 40
0.043494
 41
1.661618969823501
 42
1.675349096866794
  0
ELLIPSE
  5
16F
330
1F
100
AcDbEntity
  8
1
100
AcDbEllipse
 10
325.107636
 20
216.52999
 30
0.0
 11
-1.012595990416482
 21
-8.695024272203426
 31
0.0
210
0.0
220
0.0
230
0.9999999999999998
 40
0.487298
 41
5.999238704527832
 42
6.27226586186717
  0
ELLIPSE
  5
170
330
1F
100
AcDbEntity
  8
1
100
AcDbEllipse
 10
323.050723
 20
219.033097
 30
0.0
 11
8.461036905279046
 21
-3.162600592911029
 31
0.0
210
0.0
220
0.0
230
0.9999999999999998
 40
0.31863
 41
0.6916826659982802
 42
1.186351176261429
  0
ELLIPSE
  5
171
330
1F
100
AcDbEntity
  8
1
100
AcDbEllipse
 10
325.402483
 20
217.678805
 30
0.0
 11
2.183718341771307
 21
-8.475322286497446
 31
0.0
210
0.0
220
0.0
230
0.9999999999999998
 40
0.163861
 41
2.116824770686893
 42
2.310152357111274
  0
ELLIPSE
  5
172
330
1F
100
AcDbEntity
  8
1
100
AcDbEllipse
 10
325.402483
 20
217.678805
 30
0.0
 11
2.183718341771307
 21
-8.475322286497446
 31
0.0
210
0.0
220
0.0
230
0.9999999999999998
 40
0.163861
 41
2.076522310806537
 42
2.0925310142069
  0
SPLINE
  5
176
330
1F
100
AcDbEntity
  8
1
100
AcDbSpline
210
0.0
220
0.0
230
1.0
 70
     8
 71
     3
 72
    26
 73
    22
 74
     0
 42
0.000000001
 43
0.0000000001
 40
0.0
 40
0.0
 40
0.0
 40
0.0
 40
0.2500000000000004
 40
0.2500000000000004
 40
0.3125000000000002
 40
0.3125000000000002
 40
0.3749999999999999
 40
0.3749999999999999
 40
0.4999999999999993
 40
0.4999999999999993
 40
0.5624999999999992
 40
0.5624999999999992
 40
0.624999999999999
 40
0.624999999999999
 40
0.7499999999999992
 40
0.7499999999999992
 40
0.8749999999999996
 40
0.8749999999999996
 40
0.9374999999999998
 40
0.9374999999999998
 40
1.0
 40
1.0
 40
1.0
 40
1.0
 10
314.8460095212851
 20
209.9901300418943
 30
0.0
 10
314.966446055024
 20
209.8400399846566
 30
0.0
 10
315.1055626503872
 20
209.7037593031402
 30
0.0
 10
315.3097291784362
 20
209.5510075192932
 30
0.0
 10
315.3521843667345
 20
209.5212985196327
 30
0.0
 10
315.4392786399015
 20
209.4644030611393
 30
0.0
 10
315.4840298969015
 20
209.437124877514
 30
0.0
 10
315.6220326762713
 20
209.3587458644414
 30
0.0
 10
315.7190175327786
 20
209.311088703555
 30
0.0
 10
315.8727495759229
 20
209.2464690608991
 30
0.0
 10
315.9253728855601
 20
209.2260762388289
 30
0.0
 10
316.0335633876763
 20
209.1876210950793
 30
0.0
 10
316.0892539554657
 20
209.1695371255273
 30
0.0
 10
316.2579867890169
 20
209.1197176808339
 30
0.0
 10
316.373567398409
 20
209.0920458937765
 30
0.0
 10
316.611090299388
 20
209.0473521401202
 30
0.0
 10
316.7330285832079
 20
209.0303238825083
 30
0.0
 10
316.9210919223471
 20
209.013027542183
 30
0.0
 10
316.9847803762257
 20
209.0086470836267
 30
0.0
 10
317.1120940757163
 20
209.0028353237564
 30
0.0
 10
317.1759251393082
 20
209.0013785858204
 30
0.0
 10
317.239932030674
 20
209.0013785858204
 30
0.0
  0
SPLINE
  5
177
330
1F
100
AcDbEntity
  8
1
100
AcDbSpline
210
0.0
220
0.0
230
1.0
 70
     8
 71
     3
 72
    26
 73
    22
 74
     0
 42
0.000000001
 43
0.0000000001
 40
0.0
 40
0.0
 40
0.0
 40
0.0
 40
0.2500000000000017
 40
0.2500000000000017
 40
0.3125000000000017
 40
0.3125000000000017
 40
0.3750000000000018
 40
0.3750000000000018
 40
0.5000000000000022
 40
0.5000000000000022
 40
0.5625000000000023
 40
0.5625000000000023
 40
0.6250000000000025
 40
0.6250000000000025
 40
0.7500000000000022
 40
0.7500000000000022
 40
0.8750000000000014
 40
0.8750000000000014
 40
0.9375000000000007
 40
0.9375000000000007
 40
1.0
 40
1.0
 40
1.0
 40
1.0
 10
314.8460095212852
 20
225.7992919245665
 30
0.0
 10
314.9664460550241
 20
225.7336113072361
 30
0.0
 10
315.1055626503874
 20
225.6639068591287
 30
0.0
 10
315.3097291784363
 20
225.5763311984094
 30
0.0
 10
315.3521843667347
 20
225.5587702310737
 30
0.0
 10
315.4392786399016
 20
225.5242095988334
 30
0.0
 10
315.4840298969016
 20
225.5071592557879
 30
0.0
 10
315.6220326762714
 20
225.4569369879599
 30
0.0
 10
315.7190175327787
 20
225.4246869899105
 30
0.0
 10
315.872749575923
 20
225.3792070371282
 30
0.0
 10
315.9253728855602
 20
225.3645310220638
 30
0.0
 10
316.0335633876764
 20
225.3363467110113
 30
0.0
 10
316.0892539554658
 20
225.3228199605317
 30
0.0
 10
316.2579867890169
 20
225.284968694338
 30
0.0
 10
316.3735673984092
 20
225.2631203623786
 30
0.0
 10
316.6110902993882
 20
225.227202014748
 30
0.0
 10
316.7330285832079
 20
225.2131266464179
 30
0.0
 10
316.9210919223472
 20
225.1987344038165
 30
0.0
 10
316.9847803762257
 20
225.1950623673539
 30
0.0
 10
317.1120940757163
 20
225.1901828049402
 30
0.0
 10
317.1759251393082
 20
225.1889542144291
 30
0.0
 10
317.239932030674
 20
225.1889542144291
 30
0.0
  0
SPLINE
  5
178
330
1F
100
AcDbEntity
  8
1
100
AcDbSpline
210
0.0
220
0.0
230
1.0
 70
     8
 71
     3
 72
    30
 73
    26
 74
     0
 42
0.000000001
 43
0.0000000001
 40
0.0
 40
0.0
 40
0.0
 40
0.0
 40
0.0625000000000005
 40
0.0625000000000005
 40
0.125000000000001
 40
0.125000000000001
 40
0.2500000000000018
 40
0.2500000000000018
 40
0.3750000000000026
 40
0.3750000000000026
 40
0.4375000000000026
 40
0.4375000000000026
 40
0.5000000000000026
 40
0.5000000000000026
 40
0.6250000000000019
 40
0.6250000000000019
 40
0.6875000000000015
 40
0.6875000000000015
 40
0.7500000000000011
 40
0.7500000000000011
 40
0.8750000000000003
 40
0.8750000000000003
 40
0.9375
 40
0.9375
 40
1.0
 40
1.0
 40
1.0
 40
1.0
 10
325.5595322538545
 20
222.0976480631606
 30
0.0
 10
325.5748692638115
 20
222.0546555252995
 30
0.0
 10
325.5916515055216
 20
222.0113706724849
 30
0.0
 10
325.62826161589
 20
221.9241980486086
 30
0.0
 10
325.6481731627868
 20
221.8801590883706
 30
0.0
 10
325.7115712182539
 20
221.7494550906196
 30
0.0
 10
325.7589371892917
 20
221.66356268303
 30
0.0
 10
325.8637968679827
 20
221.4942797847925
 30
0.0
 10
325.9212894800514
 20
221.4108889932002
 30
0.0
 10
326.0153970716456
 20
221.2877500168639
 30
0.0
 10
326.0482213082142
 20
221.2468728429105
 30
0.0
 10
326.1154961628116
 20
221.1670494236753
 30
0.0
 10
326.1500161848429
 20
221.1279954652814
 30
0.0
 10
326.2561332789118
 20
221.0133183240769
 30
0.0
 10
326.3302790515419
 20
220.9401718248476
 30
0.0
 10
326.4464057523387
 20
220.835219362692
 30
0.0
 10
326.4859348331356
 20
220.8010318583792
 30
0.0
 10
326.5666257228902
 20
220.7342422568643
 30
0.0
 10
326.6075501831473
 20
220.7018433372905
 30
0.0
 10
326.7310785922735
 20
220.6081888118314
 30
0.0
 10
326.8148068625273
 20
220.5501532430932
 30
0.0
 10
326.9422345412388
 20
220.4691594473632
 30
0.0
 10
326.985017240301
 20
220.4431745932159
 30
0.0
 10
327.0711674562883
 20
220.3931735335645
 30
0.0
 10
327.1146445767918
 20
220.3691003583172
 30
0.0
 10
327.1581342844193
 20
220.3461316058606
 30
0.0
  0
SPLINE
  5
179
330
1F
100
AcDbEntity
  8
1
100
AcDbSpline
210
0.0
220
0.0
230
1.0
 70
     8
 71
     3
 72
     8
 73
     4
 74
     0
 42
0.000000001
 43
0.0000000001
 40
0.0
 40
0.0
 40
0.0
 40
0.0
 40
1.0
 40
1.0
 40
1.0
 40
1.0
 10
325.518161000569
 20
222.21299687986
 30
0.0
 10
325.5003310180393
 20
222.2240723990396
 30
0.0
 10
325.4824824089389
 20
222.2351179409692
 30
0.0
 10
325.4646146137497
 20
222.2461326109826
 30
0.0
  0
SPLINE
  5
17A
330
1F
100
AcDbEntity
  8
1
100
AcDbSpline
210
0.0
220
0.0
230
1.0
 70
     8
 71
     3
 72
     8
 73
     4
 74
     0
 42
0.000000001
 43
0.0000000001
 40
0.0
 40
0.0
 40
0.0
 40
0.0
 40
1.0
 40
1.0
 40
1.0
 40
1.0
 10
331.9335967306355
 20
215.662384605484
 30
0.0
 10
331.9307310957977
 20
215.6551928288567
 30
0.0
 10
331.9278654236886
 20
215.6480010748127
 30
0.0
 10
331.9249997142219
 20
215.640809343405
 30
0.0
  0
SPLINE
  5
17B
330
1F
100
AcDbEntity
  8
1
100
AcDbSpline
210
0.0
220
0.0
230
1.0
 70
     8
 71
     3
 72
     8
 73
     4
 74
     0
 42
0.000000001
 43
0.0000000001
 40
0.0
 40
0.0
 40
0.0
 40
0.0
 40
1.0
 40
1.0
 40
1.0
 40
1.0
 10
331.8551703603012
 20
215.4655900653777
 30
0.0
 10
331.7613403110089
 20
215.2301783808465
 30
0.0
 10
331.6674694765907
 20
214.9947914154944
 30
0.0
 10
331.5735548237053
 20
214.7594310316122
 30
0.0
  0
SPLINE
  5
17C
330
1F
100
AcDbEntity
  8
1
100
AcDbSpline
210
0.0
220
0.0
230
1.0
 70
     8
 71
     3
 72
     8
 73
     4
 74
     0
 42
0.000000001
 43
0.0000000001
 40
0.0
 40
0.0
 40
0.0
 40
0.0
 40
1.0
 40
1.0
 40
1.0
 40
1.0
 10
331.9335967306355
 20
215.6159641439
 30
0.0
 10
331.8136501744477
 20
215.9627071053438
 30
0.0
 10
331.6936383192028
 20
216.3094458839628
 30
0.0
 10
331.5735548237053
 20
216.6561800253081
 30
0.0
  0
SPLINE
  5
17D
330
1F
100
AcDbEntity
  8
1
100
AcDbSpline
210
0.0
220
0.0
230
1.0
 70
     8
 71
     3
 72
    12
 73
     8
 74
     0
 42
0.000000001
 43
0.0000000001
 40
0.0
 40
0.0
 40
0.0
 40
0.0
 40
0.5000000000000017
 40
0.5000000000000017
 40
0.7500000000000008
 40
0.7500000000000008
 40
1.0
 40
1.0
 40
1.0
 40
1.0
 10
320.6099365958539
 20
213.4585235764835
 30
0.0
 10
320.6538831364697
 20
213.3822676461055
 30
0.0
 10
320.6905038188303
 20
213.3029810498528
 30
0.0
 10
320.7334675543373
 20
213.1792256789935
 30
0.0
 10
320.7457613447789
 20
213.1371401075809
 30
0.0
 10
320.7657305168321
 20
213.0527892271014
 30
0.0
 10
320.7734759335543
 20
213.0103439130863
 30
0.0
 10
320.7789235733961
 20
212.9676263029194
 30
0.0
  0
SPLINE
  5
17E
330
1F
100
AcDbEntity
  8
1
100
AcDbSpline
210
0.0
220
0.0
230
1.0
 70
     8
 71
     3
 72
    26
 73
    22
 74
     0
 42
0.000000001
 43
0.0000000001
 40
0.0
 40
0.0
 40
0.0
 40
0.0
 40
0.2500000000000023
 40
0.2500000000000023
 40
0.3125000000000026
 40
0.3125000000000026
 40
0.3750000000000029
 40
0.3750000000000029
 40
0.5000000000000032
 40
0.5000000000000032
 40
0.5625000000000034
 40
0.5625000000000034
 40
0.6250000000000035
 40
0.6250000000000035
 40
0.7500000000000031
 40
0.7500000000000031
 40
0.8125000000000026
 40
0.8125000000000026
 40
0.8750000000000021
 40
0.8750000000000021
 40
1.0
 40
1.0
 40
1.0
 40
1.0
 10
324.2198691027705
 20
207.8242274275654
 30
0.0
 10
324.322598342229
 20
207.8184958927296
 30
0.0
 10
324.4455035941319
 20
207.8269254358244
 30
0.0
 10
324.6256554553988
 20
207.8554301482075
 30
0.0
 10
324.6631950364935
 20
207.862079317898
 30
0.0
 10
324.7399595400441
 20
207.8770484734292
 30
0.0
 10
324.779222217243
 20
207.8853677121212
 30
0.0
 10
324.899587033731
 20
207.9127700846929
 30
0.0
 10
324.9832571581713
 20
207.9342869396028
 30
0.0
 10
325.1138154287608
 20
207.9714071739513
 30
0.0
 10
325.1581792773347
 20
207.9845908472977
 30
0.0
 10
325.2486079662879
 20
208.0126075439227
 30
0.0
 10
325.2945551287873
 20
208.0274088798737
 30
0.0
 10
325.4327887759899
 20
208.0735825633123
 30
0.0
 10
325.5261225509292
 20
208.1069172554787
 30
0.0
 10
325.6677310061633
 20
208.1606252275341
 30
0.0
 10
325.7152025635793
 20
208.1791477080388
 30
0.0
 10
325.8106645848283
 20
208.2174358517785
 30
0.0
 10
325.8587594023396
 20
208.2372459389015
 30
0.0
 10
326.0030507134031
 20
208.2982493750455
 30
0.0
 10
326.0987192518408
 20
208.3407734817629
 30
0.0
 10
326.1938519265834
 20
208.3851213530795
 30
0.0
  0
SPLINE
  5
17F
330
1F
100
AcDbEntity
  8
1
100
AcDbSpline
210
0.0
220
0.0
230
1.0
 70
     8
 71
     3
 72
     8
 73
     4
 74
     0
 42
0.000000001
 43
0.0000000001
 40
0.0
 40
0.0
 40
0.0
 40
0.0
 40
1.0
 40
1.0
 40
1.0
 40
1.0
 10
324.141730514413
 20
207.8300621396266
 30
0.0
 10
324.1236728681363
 20
207.8271261340082
 30
0.0
 10
324.105605036016
 20
207.824248728347
 30
0.0
 10
324.0875267881291
 20
207.821429755749
 30
0.0
  0
SPLINE
  5
180
330
1F
100
AcDbEntity
  8
1
100
AcDbSpline
210
0.0
220
0.0
230
1.0
 70
     9
 71
     3
 72
    99
 73
    95
 74
     0
 42
0.000000001
 43
0.0000000001
 40
0.0
 40
0.0
 40
0.0
 40
0.0
 40
0.0312499999999993
 40
0.0312499999999993
 40
0.046874999999999
 40
0.046874999999999
 40
0.0624999999999987
 40
0.0624999999999987
 40
0.0937499999999981
 40
0.0937499999999981
 40
0.1093749999999982
 40
0.1093749999999982
 40
0.1249999999999983
 40
0.1249999999999983
 40
0.1562499999999996
 40
0.1562499999999996
 40
0.1718749999999997
 40
0.1718749999999997
 40
0.1874999999999997
 40
0.2031249999999997
 40
0.2031249999999997
 40
0.2187499999999997
 40
0.2187499999999997
 40
0.2499999999999998
 40
0.2499999999999998
 40
0.2656249999999998
 40
0.2656249999999998
 40
0.2812499999999998
 40
0.2812499999999998
 40
0.3124999999999982
 40
0.3124999999999982
 40
0.3281249999999974
 40
0.3281249999999974
 40
0.3437499999999966
 40
0.3437499999999966
 40
0.3749999999999949
 40
0.3749999999999949
 40
0.4062499999999933
 40
0.4062499999999933
 40
0.4218749999999926
 40
0.4218749999999926
 40
0.4374999999999917
 40
0.4374999999999917
 40
0.4687499999999908
 40
0.4687499999999908
 40
0.4843749999999905
 40
0.4843749999999905
 40
0.4999999999999901
 40
0.4999999999999901
 40
0.5312499999999893
 40
0.5312499999999893
 40
0.546874999999989
 40
0.546874999999989
 40
0.5624999999999888
 40
0.5781249999999885
 40
0.5781249999999885
 40
0.5937499999999883
 40
0.5937499999999883
 40
0.6249999999999876
 40
0.6249999999999876
 40
0.6406249999999878
 40
0.6406249999999878
 40
0.656249999999988
 40
0.656249999999988
 40
0.6874999999999872
 40
0.6874999999999872
 40
0.7031249999999867
 40
0.7031249999999867
 40
0.7187499999999862
 40
0.7187499999999862
 40
0.7499999999999868
 40
0.7499999999999868
 40
0.7812499999999876
 40
0.7812499999999876
 40
0.7968749999999878
 40
0.7968749999999878
 40
0.812499999999988
 40
0.812499999999988
 40
0.8437499999999904
 40
0.8437499999999904
 40
0.8593749999999914
 40
0.8593749999999914
 40
0.8749999999999925
 40
0.8749999999999925
 40
0.9062499999999948
 40
0.9062499999999948
 40
0.9218749999999955
 40
0.9218749999999955
 40
0.9374999999999966
 40
0.9531249999999975
 40
0.9531249999999975
 40
0.9687499999999985
 40
0.9687499999999985
 40
1.0
 40
1.0
 40
1.0
 40
1.0
 10
303.9137418977623
 20
226.2129996662802
 30
0.0
 10
303.9079832140951
 20
226.2157719981134
 30
0.0
 10
303.9087783686036
 20
226.2178266774194
 30
0.0
 10
303.9194193848907
 20
226.2198825655244
 30
0.0
 10
303.9245527729377
 20
226.2203967506191
 30
0.0
 10
303.9380681179296
 20
226.2210907617898
 30
0.0
 10
303.9464930130745
 20
226.2212687714825
 30
0.0
 10
303.976128571264
 20
226.2213231756835
 30
0.0
 10
304.0017663497319
 20
226.220731991478
 30
0.0
 10
304.0489766429828
 20
226.2191278304884
 30
0.0
 10
304.0662620852659
 20
226.2184700639967
 30
0.0
 10
304.1035218542521
 20
226.2169668690235
 30
0.0
 10
304.1233516124237
 20
226.2161279385764
 30
0.0
 10
304.1863327253123
 20
226.213429165812
 30
0.0
 10
304.232942443493
 20
226.2113875447324
 30
0.0
 10
304.3099792756346
 20
226.2082572282939
 30
0.0
 10
304.3367925740223
 20
226.207205645906
 30
0.0
 10
304.3916430055327
 20
226.2051738981291
 30
0.0
 10
304.4479874137276
 20
226.203202532364
 30
0.0
 10
304.507281955842
 20
226.2014365865397
 30
0.0
 10
304.5680755622328
 20
226.1998134543618
 30
0.0
 10
304.5994018047645
 20
226.1990699154515
 30
0.0
 10
304.694190716678
 20
226.1971417641197
 30
0.0
 10
304.7583227305441
 20
226.1962586575142
 30
0.0
 10
304.8558985254523
 20
226.1956321038923
 30
0.0
 10
304.8886550519122
 20
226.1955391780561
 30
0.0
 10
304.9546456950144
 20
226.1955966141919
 30
0.0
 10
304.9875759298893
 20
226.1957476043794
 30
0.0
 10
305.0850963573287
 20
226.1965435547374
 30
0.0
 10
305.1488835742622
 20
226.1975332472144
 30
0.0
 10
305.2427101691399
 20
226.1995891337841
 30
0.0
 10
305.2738218158125
 20
226.2003740559216
 30
0.0
 10
305.3341853147397
 20
226.2020717307013
 30
0.0
 10
305.3635445564629
 20
226.2029858403115
 30
0.0
 10
305.4492110258661
 20
226.2058604840192
 30
0.0
 10
305.5031663065662
 20
226.2079570889358
 30
0.0
 10
305.6042837577947
 20
226.2121314269499
 30
0.0
 10
305.6498356963039
 20
226.214138554733
 30
0.0
 10
305.7109540818077
 20
226.2167374185841
 30
0.0
 10
305.7301163217484
 20
226.2175350934703
 30
0.0
 10
305.7659625589123
 20
226.21894159737
 30
0.0
 10
305.7826677174652
 20
226.2195502569712
 30
0.0
 10
305.8279394048965
 20
226.2209839092579
 30
0.0
 10
305.8521209393258
 20
226.2214346951577
 30
0.0
 10
305.879460286902
 20
226.2211524232983
 30
0.0
 10
305.8870970068882
 20
226.2208966673954
 30
0.0
 10
305.8991435182532
 20
226.2200371925861
 30
0.0
 10
305.9035197893432
 20
226.2194382375434
 30
0.0
 10
305.9118616443809
 20
226.2171293196884
 30
0.0
 10
305.9110856680578
 20
226.2149074528866
 30
0.0
 10
305.9001876526162
 20
226.2105317116984
 30
0.0
 10
305.8949083682945
 20
226.2089006606548
 30
0.0
 10
305.8813188630945
 20
226.2053783194321
 30
0.0
 10
305.8646658694097
 20
226.2015807247546
 30
0.0
 10
305.8419774346793
 20
226.1972883483089
 30
0.0
 10
305.8162289508771
 20
226.1927774906393
 30
0.0
 10
305.8017318845327
 20
226.1903989362395
 30
0.0
 10
305.7542422451102
 20
226.1831015240466
 30
0.0
 10
305.7174116695531
 20
226.1780317839479
 30
0.0
 10
305.6545820942205
 20
226.1704018530035
 30
0.0
 10
305.6323658033926
 20
226.1678543759807
 30
0.0
 10
305.5853019723347
 20
226.1628020268633
 30
0.0
 10
305.5606662554116
 20
226.1603213832775
 30
0.0
 10
305.4843035630128
 20
226.1531654294519
 30
0.0
 10
305.4298340905375
 20
226.1487404976954
 30
0.0
 10
305.3427109651403
 20
226.1429066541252
 30
0.0
 10
305.3125947889431
 20
226.1410887210928
 30
0.0
 10
305.2516765938006
 20
226.137836727735
 30
0.0
 10
305.220802887835
 20
226.1363955991894
 30
0.0
 10
305.1269632577306
 20
226.1326620145663
 30
0.0
 10
305.0627907666357
 20
226.1309573288426
 30
0.0
 10
304.9310716636288
 20
226.1293400893789
 30
0.0
 10
304.8656832951777
 20
226.1294559569517
 30
0.0
 10
304.7684556833792
 20
226.1309533787812
 30
0.0
 10
304.7361798109487
 20
226.131673409892
 30
0.0
 10
304.6719004680813
 20
226.1335487330223
 30
0.0
 10
304.639812043622
 20
226.1347100706109
 30
0.0
 10
304.5460508584894
 20
226.1387376603409
 30
0.0
 10
304.4861812548959
 20
226.1421604133401
 30
0.0
 10
304.4002805669705
 20
226.1481688021912
 30
0.0
 10
304.3721886604555
 20
226.1503273869434
 30
0.0
 10
304.3178957896
 20
226.154856140315
 30
0.0
 10
304.2918732050695
 20
226.1572094195298
 30
0.0
 10
304.2170689420864
 20
226.1644552972653
 30
0.0
 10
304.1715194567612
 20
226.1695335359971
 30
0.0
 10
304.1098251153414
 20
226.1772275563453
 30
0.0
 10
304.0904482248279
 20
226.179797449484
 30
0.0
 10
304.0547519600864
 20
226.1848041573492
 30
0.0
 10
304.0218903011361
 20
226.1897049101341
 30
0.0
 10
303.9946215005514
 20
226.1943116151782
 30
0.0
 10
303.9701929814451
 20
226.1987312143807
 30
0.0
 10
303.9593591508677
 20
226.2008564714943
 30
0.0
 10
303.9316517185091
 20
226.2068153399584
 30
0.0
 10
303.9195005814296
 20
226.2102273344469
 30
0.0
 10
303.9137418977623
 20
226.2129996662802
 30
0.0
  0
SPLINE
  5
181
330
1F
100
AcDbEntity
  8
1
100
AcDbSpline
210
0.0
220
0.0
230
1.0
 70
     8
 71
     3
 72
    24
 73
    20
 74
     0
 42
0.000000001
 43
0.0000000001
 40
0.0
 40
0.0
 40
0.0
 40
0.0
 40
0.125
 40
0.125
 40
0.2500000000000001
 40
0.2500000000000001
 40
0.5000000000000001
 40
0.5000000000000001
 40
0.5624999999999999
 40
0.5624999999999999
 40
0.6249999999999996
 40
0.6249999999999996
 40
0.7499999999999992
 40
0.7499999999999992
 40
0.8124999999999992
 40
0.8124999999999992
 40
0.8749999999999996
 40
0.8749999999999996
 40
1.0
 40
1.0
 40
1.0
 40
1.0
 10
326.1851596161248
 20
209.3931693675106
 30
0.0
 10
326.0860850638811
 20
209.3335394866185
 30
0.0
 10
325.9895424145678
 20
209.2701169817553
 30
0.0
 10
325.7994041092594
 20
209.138992030996
 30
0.0
 10
325.7067758799638
 20
209.0719105953312
 30
0.0
 10
325.4344364499867
 20
208.8690836065991
 30
0.0
 10
325.2600227551156
 20
208.7317585228047
 30
0.0
 10
325.0487458352465
 20
208.5624158252405
 30
0.0
 10
325.0067129263894
 20
208.5285484222556
 30
0.0
 10
324.9240792134806
 20
208.4617176379693
 30
0.0
 10
324.8835027677711
 20
208.4287751280133
 30
0.0
 10
324.7640002709978
 20
208.3315191981863
 30
0.0
 10
324.6872874559877
 20
208.2687702110205
 30
0.0
 10
324.5769100081395
 20
208.1784671213229
 30
0.0
 10
324.5409027409376
 20
208.1490042291813
 30
0.0
 10
324.4705467856365
 20
208.0914971671507
 30
0.0
 10
324.4360635861293
 20
208.0633434431282
 30
0.0
 10
324.3364119473972
 20
207.9821815764236
 30
0.0
 10
324.2751404508309
 20
207.932553176838
 30
0.0
 10
324.2193203862718
 20
207.8878621285525
 30
0.0
  0
SPLINE
  5
182
330
1F
100
AcDbEntity
  8
1
100
AcDbSpline
210
0.0
220
0.0
230
1.0
 70
     8
 71
     3
 72
    16
 73
    12
 74
     0
 42
0.000000001
 43
0.0000000001
 40
0.0
 40
0.0
 40
0.0
 40
0.0
 40
0.2686715700800033
 40
0.2686715700800033
 40
0.5373431401600067
 40
0.5373431401600067
 40
0.6716789252000086
 40
0.6716789252000086
 40
0.8060147102400101
 40
0.8060147102400101
 40
1.0
 40
1.0
 40
1.0
 40
1.0
 10
318.5264314693193
 20
210.9753855624435
 30
0.0
 10
318.6007523491381
 20
210.9717161330659
 30
0.0
 10
318.6750461572447
 20
210.9732114197428
 30
0.0
 10
318.8204227211882
 20
210.9870733050366
 30
0.0
 10
318.891684896348
 20
210.9993662718632
 30
0.0
 10
318.9963237936556
 20
211.0268857718457
 30
0.0
 10
319.0308260228909
 20
211.0375832042181
 30
0.0
 10
319.0990282558333
 20
211.0623856603808
 30
0.0
 10
319.1326053842979
 20
211.0764680054851
 30
0.0
 10
319.2119592500715
 20
211.1147457232627
 30
0.0
 10
319.2568851909202
 20
211.1407200263614
 30
0.0
 10
319.2996217928788
 20
211.1706618332565
 30
0.0
  0
SPLINE
  5
183
330
1F
100
AcDbEntity
  8
1
100
AcDbSpline
210
0.0
220
0.0
230
1.0
 70
     8
 71
     3
 72
    22
 73
    18
 74
     0
 42
0.000000001
 43
0.0000000001
 40
0.0
 40
0.0
 40
0.0
 40
0.0
 40
0.2499999999999989
 40
0.2499999999999989
 40
0.3749999999999991
 40
0.3749999999999991
 40
0.4999999999999993
 40
0.4999999999999993
 40
0.6249999999999996
 40
0.6249999999999996
 40
0.7499999999999997
 40
0.7499999999999997
 40
0.8124999999999998
 40
0.8124999999999998
 40
0.8749999999999998
 40
0.8749999999999998
 40
1.0
 40
1.0
 40
1.0
 40
1.0
 10
294.239932030674
 20
219.0273456673677
 30
0.0
 10
294.239932030674
 20
219.097256802603
 30
0.0
 10
294.2458983029967
 20
219.1659111797235
 30
0.0
 10
294.2652158588056
 20
219.266797277304
 30
0.0
 10
294.2734057028235
 20
219.3000728746676
 30
0.0
 10
294.2939955970028
 20
219.3658033171271
 30
0.0
 10
294.3065076216521
 20
219.3985110190167
 30
0.0
 10
294.3364096168579
 20
219.4614705626187
 30
0.0
 10
294.3537093753405
 20
219.4916778984251
 30
0.0
 10
294.3945409697249
 20
219.5487802148795
 30
0.0
 10
294.4177963892147
 20
219.5752169546654
 30
0.0
 10
294.4574261379797
 20
219.6096673873456
 30
0.0
 10
294.4714686577965
 20
219.6203240736784
 30
0.0
 10
294.5016138083897
 20
219.6396021516847
 30
0.0
 10
294.5175778933242
 20
219.64809799923
 30
0.0
 10
294.5671137385619
 20
219.6689327063012
 30
0.0
 10
294.6033041179879
 20
219.6768525616427
 30
0.0
 10
294.639932030674
 20
219.6768525616427
 30
0.0
  0
SPLINE
  5
184
330
1F
100
AcDbEntity
  8
1
100
AcDbSpline
210
0.0
220
0.0
230
1.0
 70
     8
 71
     3
 72
    22
 73
    18
 74
     0
 42
0.000000001
 43
0.0000000001
 40
0.0
 40
0.0
 40
0.0
 40
0.0
 40
0.2500000000000008
 40
0.2500000000000008
 40
0.3750000000000012
 40
0.3750000000000012
 40
0.5000000000000017
 40
0.5000000000000017
 40
0.6250000000000022
 40
0.6250000000000022
 40
0.7500000000000025
 40
0.7500000000000025
 40
0.8125000000000021
 40
0.8125000000000021
 40
0.8750000000000017
 40
0.8750000000000017
 40
1.0
 40
1.0
 40
1.0
 40
1.0
 10
301.239932030674
 20
209.6574757481535
 30
0.0
 10
301.239932030674
 20
209.6151818983602
 30
0.0
 10
301.2339657583514
 20
209.5742291473592
 30
0.0
 10
301.2146482025425
 20
209.5148550080102
 30
0.0
 10
301.2064583585245
 20
209.4954083789821
 30
0.0
 10
301.1858684643452
 20
209.4572557099061
 30
0.0
 10
301.1733564396959
 20
209.4384055727534
 30
0.0
 10
301.1434544444901
 20
209.4023613798194
 30
0.0
 10
301.1261546860075
 20
209.3851907918736
 30
0.0
 10
301.0853230916232
 20
209.3529258054532
 30
0.0
 10
301.0620676721334
 20
209.338091803742
 30
0.0
 10
301.0224379233684
 20
209.3188500665462
 30
0.0
 10
301.0083954035515
 20
209.3129145961778
 30
0.0
 10
300.9782502529583
 20
209.302198569715
 30
0.0
 10
300.9622861680238
 20
209.297487824444
 30
0.0
 10
300.9127503227862
 20
209.2859505353248
 30
0.0
 10
300.8765599433601
 20
209.2815849685391
 30
0.0
 10
300.839932030674
 20
209.2815849685391
 30
0.0
  0
SPLINE
  5
185
330
1F
100
AcDbEntity
  8
1
100
AcDbSpline
210
0.0
220
0.0
230
1.0
 70
     8
 71
     3
 72
    24
 73
    20
 74
     0
 42
0.000000001
 43
0.0000000001
 40
0.0
 40
0.0
 40
0.0
 40
0.0
 40
0.0624999999999969
 40
0.0624999999999969
 40
0.1249999999999938
 40
0.1249999999999938
 40
0.1874999999999907
 40
0.1874999999999907
 40
0.2499999999999876
 40
0.2499999999999876
 40
0.3749999999999891
 40
0.3749999999999891
 40
0.4999999999999905
 40
0.4999999999999905
 40
0.624999999999992
 40
0.624999999999992
 40
0.7499999999999934
 40
0.7499999999999934
 40
1.0
 40
1.0
 40
1.0
 40
1.0
 10
300.839932030674
 20
219.6768525616427
 30
0.0
 10
300.8581870290123
 20
219.6768525616427
 30
0.0
 10
300.8760472938718
 20
219.6749568174069
 30
0.0
 10
300.9110511877175
 20
219.6677213384024
 30
0.0
 10
300.9283336208283
 20
219.6623176031042
 30
0.0
 10
300.9615550088267
 20
219.6484633495417
 30
0.0
 10
300.9772820410871
 20
219.6401400060671
 30
0.0
 10
301.0072478271316
 20
219.6211337339742
 30
0.0
 10
301.0215800587307
 20
219.6103550226949
 30
0.0
 10
301.0616546746865
 20
219.5756876885762
 30
0.0
 10
301.0846949841828
 20
219.549526697779
 30
0.0
 10
301.1254787899214
 20
219.4927508875354
 30
0.0
 10
301.1429266795106
 20
219.4624058713797
 30
0.0
 10
301.1726516371493
 20
219.4001637596297
 30
0.0
 10
301.1850763777825
 20
219.3680168400111
 30
0.0
 10
301.2059438334622
 20
219.3020113351311
 30
0.0
 10
301.2143564080759
 20
219.2681275386798
 30
0.0
 10
301.23397768907
 20
219.1662277857008
 30
0.0
 10
301.239932030674
 20
219.0972486606225
 30
0.0
 10
301.239932030674
 20
219.0273456673677
 30
0.0
  0
SPLINE
  5
186
330
1F
100
AcDbEntity
  8
1
100
AcDbSpline
210
0.0
220
0.0
230
1.0
 70
     8
 71
     3
 72
    24
 73
    20
 74
     0
 42
0.000000001
 43
0.0000000001
 40
0.0
 40
0.0
 40
0.0
 40
0.0
 40
0.0624999999999955
 40
0.0624999999999955
 40
0.124999999999991
 40
0.124999999999991
 40
0.1874999999999865
 40
0.1874999999999865
 40
0.249999999999982
 40
0.249999999999982
 40
0.3749999999999846
 40
0.3749999999999846
 40
0.4999999999999872
 40
0.4999999999999872
 40
0.6249999999999899
 40
0.6249999999999899
 40
0.7499999999999925
 40
0.7499999999999925
 40
1.0
 40
1.0
 40
1.0
 40
1.0
 10
294.639932030674
 20
209.2815849685391
 30
0.0
 10
294.6216770323356
 20
209.2815849685391
 30
0.0
 10
294.6038167674762
 20
209.2826308498288
 30
0.0
 10
294.5688128736305
 20
209.2866275645868
 30
0.0
 10
294.5515304405197
 20
209.2896138791752
 30
0.0
 10
294.5183090525214
 20
209.2972853124665
 30
0.0
 10
294.502582020261
 20
209.3019001524515
 30
0.0
 10
294.4726162342164
 20
209.312464014145
 30
0.0
 10
294.4582840026174
 20
209.3184666106225
 30
0.0
 10
294.4182093866615
 20
209.3378277068893
 30
0.0
 10
294.3951690771653
 20
209.3525061940103
 30
0.0
 10
294.3543852714266
 20
209.384582400999
 30
0.0
 10
294.3369373818375
 20
209.401829299747
 30
0.0
 10
294.3072124241988
 20
209.4374561383104
 30
0.0
 10
294.2947876835654
 20
209.4559766455477
 30
0.0
 10
294.2739202278858
 20
209.4942778113908
 30
0.0
 10
294.2655076532722
 20
209.514074872048
 30
0.0
 10
294.2458863722782
 20
209.5740374193368
 30
0.0
 10
294.239932030674
 20
209.6151868239805
 30
0.0
 10
294.239932030674
 20
209.6574757481535
 30
0.0
  0
SPLINE
  5
187
330
1F
100
AcDbEntity
  8
SK4
100
AcDbSpline
210
0.0
220
0.0
230
1.0
 70
    24
 71
     1
 72
     4
 73
     2
 74
     0
 42
0.000000001
 43
0.0000000001
 40
0.0
 40
0.0
 40
1.0
 40
1.0
 10
295.739932030674
 20
216.8639542144291
 30
0.0
 10
268.239932023574
 20
216.8639542144291
 30
0.0
  0
LINE
  5
188
330
1F
100
AcDbEntity
  8
4
100
AcDbLine
 10
291.239932
 20
216.863954
 30
0.0
 11
333.209937
 21
216.863954
 31
0.0
  0
MTEXT
  5
189
330
1F
100
AcDbEntity
  8
SK6
100
AcDbMText
 10
300.311211
 20
276.532854
 30
0.0
 40
3.5
 41
0.0
 71
     8
 72
     5
  1
\fMonospac821 BT|b1|i0;\W1.0000;20K3R040M10-CXP20
  7
cesky
 73
     2
 44
1.084337
1001
ACAD
1000
MTEXTBEGIN
1070
    73
1070
     2
1070
    44
1040
1.084337
1070
    74
1070
     0
1000
MTEXTEND
  0
MTEXT
  5
22E
330
1F
100
AcDbEntity
  8
2
100
AcDbMText
 10
327.044386
 20
239.195297
 30
0.0
 40
3.5
 41
0.0
 71
     8
 72
     5
  1
\fMonospac821 BT|b1|i0;\W1.0000;10
  7
cesky
 73
     2
 44
1.084337
1001
ACAD
1000
MTEXTBEGIN
1070
    73
1070
     2
1070
    44
1040
1.084337
1070
    74
1070
     0
1000
MTEXTEND
  0
LINE
  5
22F
330
1F
100
AcDbEntity
  8
2
100
AcDbLine
 10
332.239932
 20
229.863954
 30
0.0
 11
332.239932
 21
240.77863
 31
0.0
  0
LINE
  5
230
330
1F
100
AcDbEntity
  8
2
100
AcDbLine
 10
321.848839
 20
228.762539
 30
0.0
 11
321.848839
 21
240.77863
 31
0.0
  0
LINE
  5
231
330
1F
100
AcDbEntity
  8
2
100
AcDbLine
 10
340.989932
 20
238.77863
 30
0.0
 11
313.098839
 21
238.77863
 31
0.0
  0
LINE
  5
232
330
1F
100
AcDbEntity
  8
2
100
AcDbLine
 10
332.239932
 20
238.77863
 30
0.0
 11
335.414929
 21
239.629369
 31
0.0
  0
LINE
  5
233
330
1F
100
AcDbEntity
  8
2
100
AcDbLine
 10
332.239932
 20
238.77863
 30
0.0
 11
335.414935
 21
237.927892
 31
0.0
  0
LINE
  5
234
330
1F
100
AcDbEntity
  8
2
100
AcDbLine
 10
335.414929
 20
239.629369
 30
0.0
 11
335.414935
 21
237.927892
 31
0.0
  0
LINE
  5
235
330
1F
100
AcDbEntity
  8
2
100
AcDbLine
 10
321.848839
 20
238.77863
 30
0.0
 11
318.6738430000001
 21
237.927892
 31
0.0
  0
LINE
  5
236
330
1F
100
AcDbEntity
  8
2
100
AcDbLine
 10
321.848839
 20
238.77863
 30
0.0
 11
318.673836
 21
239.629369
 31
0.0
  0
LINE
  5
237
330
1F
100
AcDbEntity
  8
2
100
AcDbLine
 10
318.6738430000001
 20
237.927892
 30
0.0
 11
318.673836
 21
239.629369
 31
0.0
  0
MTEXT
  5
23A
330
1F
100
AcDbEntity
  8
2
100
AcDbMText
 10
312.239932
 20
252.15542
 30
0.0
 40
3.5
 41
0.0
 71
     8
 72
     5
  1
\fMonospac821 BT|b1|i0;\W1.0000;40
  7
cesky
 73
     2
 44
1.084337
1001
ACAD
1000
MTEXTBEGIN
1070
    73
1070
     2
1070
    44
1040
1.084337
1070
    74
1070
     0
1000
MTEXTEND
  0
LINE
  5
23B
330
1F
100
AcDbEntity
  8
2
100
AcDbLine
 10
332.239932
 20
229.863954
 30
0.0
 11
332.239932
 21
253.738753
 31
0.0
  0
LINE
  5
23C
330
1F
100
AcDbEntity
  8
2
100
AcDbLine
 10
292.239932
 20
227.263954
 30
0.0
 11
292.239932
 21
253.738753
 31
0.0
  0
LINE
  5
23D
330
1F
100
AcDbEntity
  8
2
100
AcDbLine
 10
332.239932
 20
251.738753
 30
0.0
 11
292.239932
 21
251.738753
 31
0.0
  0
LINE
  5
23E
330
1F
100
AcDbEntity
  8
2
100
AcDbLine
 10
332.239932
 20
251.738753
 30
0.0
 11
329.064935
 21
250.888015
 31
0.0
  0
LINE
  5
23F
330
1F
100
AcDbEntity
  8
2
100
AcDbLine
 10
332.239932
 20
251.738753
 30
0.0
 11
329.064929
 21
252.589492
 31
0.0
  0
LINE
  5
240
330
1F
100
AcDbEntity
  8
2
100
AcDbLine
 10
329.064935
 20
250.888015
 30
0.0
 11
329.064929
 21
252.589492
 31
0.0
  0
LINE
  5
241
330
1F
100
AcDbEntity
  8
2
100
AcDbLine
 10
292.239932
 20
251.738753
 30
0.0
 11
295.414929
 21
252.589492
 31
0.0
  0
LINE
  5
242
330
1F
100
AcDbEntity
  8
2
100
AcDbLine
 10
292.239932
 20
251.738753
 30
0.0
 11
295.414935
 21
250.888015
 31
0.0
  0
LINE
  5
243
330
1F
100
AcDbEntity
  8
2
100
AcDbLine
 10
295.414929
 20
252.589492
 30
0.0
 11
295.414935
 21
250.888015
 31
0.0
  0
TEXT
  5
244
330
1F
100
AcDbEntity
  8
2
100
AcDbText
 10
345.1842153333333
 20
217.0750399064039
 30
0.0
 40
3.5
  1
20
 50
89.99999999999991
  7
cesky
100
AcDbText
  0
TEXT
  5
245
330
1F
100
AcDbEntity
  8
2
100
AcDbText
 10
345.2747333333333
 20
208.5223346453202
 30
0.0
 40
3.5
  1
\U+00D8
 50
89.99999999999991
  7
cesky
100
AcDbText
  0
MTEXT
  5
246
330
1F
100
AcDbEntity
  8
SK2
100
AcDbMText
 10
263.290255
 20
237.168954
 30
0.0
 40
3.5
 41
0.0
 71
     8
 72
     5
  1
\fMonospac821 BT|b1|i0;\W1.0000;M10
  7
cesky
 11
0.0000000000000001
 21
1.0
 31
0.0
 73
     2
 44
1.084337
1001
ACAD
1000
MTEXTBEGIN
1070
    73
1070
     2
1070
    44
1040
1.084337
1070
    74
1070
     0
1000
MTEXTEND
  0
LINE
  5
247
330
1F
100
AcDbEntity
  8
SK2
100
AcDbLine
 10
274.182383
 20
221.863954
 30
0.0
 11
261.706922
 21
221.863954
 31
0.0
  0
LINE
  5
248
330
1F
100
AcDbEntity
  8
SK2
100
AcDbLine
 10
274.182383
 20
211.863954
 30
0.0
 11
261.706922
 21
211.863954
 31
0.0
  0
LINE
  5
249
330
1F
100
AcDbEntity
  8
SK2
100
AcDbLine
 10
263.706922
 20
211.863954
 30
0.0
 11
263.706922
 21
242.218954
 31
0.0
  0
LINE
  5
24A
330
1F
100
AcDbEntity
  8
SK2
100
AcDbLine
 10
263.706922
 20
221.863954
 30
0.0
 11
264.55766
 21
218.688957
 31
0.0
  0
LINE
  5
24B
330
1F
100
AcDbEntity
  8
SK2
100
AcDbLine
 10
263.706922
 20
221.863954
 30
0.0
 11
262.856183
 21
218.688951
 31
0.0
  0
LINE
  5
24C
330
1F
100
AcDbEntity
  8
SK2
100
AcDbLine
 10
264.55766
 20
218.688957
 30
0.0
 11
262.856183
 21
218.688951
 31
0.0
  0
LINE
  5
24D
330
1F
100
AcDbEntity
  8
SK2
100
AcDbLine
 10
263.706922
 20
211.863954
 30
0.0
 11
262.856183
 21
215.038951
 31
0.0
  0
LINE
  5
24E
330
1F
100
AcDbEntity
  8
SK2
100
AcDbLine
 10
263.706922
 20
211.863954
 30
0.0
 11
264.55766
 21
215.038957
 31
0.0
  0
LINE
  5
24F
330
1F
100
AcDbEntity
  8
SK2
100
AcDbLine
 10
262.856183
 20
215.038951
 30
0.0
 11
264.55766
 21
215.038957
 31
0.0
  0
MTEXT
  5
250
330
1F
100
AcDbEntity
  8
SK2
100
AcDbMText
 10
244.89031
 20
253.427288
 30
0.0
 40
3.5
 41
0.0
 71
     8
 72
     5
  1
\fMonospac821 BT|b1|i0;\W1.0000;17,8
  7
cesky
 11
0.0000000000000001
 21
1.0
 31
0.0
 73
     2
 44
1.084337
1001
ACAD
1000
MTEXTBEGIN
1070
    73
1070
     2
1070
    44
1040
1.084337
1070
    74
1070
     0
1000
MTEXTEND
  0
MTEXT
  5
251
330
1F
100
AcDbEntity
  8
SK2
100
AcDbMText
 10
244.89031
 20
239.518954
 30
0.0
 40
3.5
 41
0.0
 71
     8
 72
     5
  1
\fMonospac821 BT|b1|i0;%%c
  7
cesky
 11
0.0000000000000001
 21
1.0
 31
0.0
 73
     2
 44
1.084337
1001
ACAD
1000
MTEXTBEGIN
1070
    73
1070
     2
1070
    44
1040
1.084337
1070
    74
1070
     0
1000
MTEXTEND
  0
LINE
  5
252
330
1F
100
AcDbEntity
  8
SK2
100
AcDbLine
 10
290.739932
 20
225.763954
 30
0.0
 11
244.181977
 21
225.763954
 31
0.0
  0
LINE
  5
253
330
1F
100
AcDbEntity
  8
SK2
100
AcDbLine
 10
290.739932
 20
207.963954
 30
0.0
 11
244.181977
 21
207.963954
 31
0.0
  0
LINE
  5
254
330
1F
100
AcDbEntity
  8
SK2
100
AcDbLine
 10
246.181977
 20
207.963954
 30
0.0
 11
246.181977
 21
260.335621
 31
0.0
  0
LINE
  5
255
330
1F
100
AcDbEntity
  8
SK2
100
AcDbLine
 10
246.181977
 20
225.763954
 30
0.0
 11
247.032716
 21
222.588957
 31
0.0
  0
LINE
  5
256
330
1F
100
AcDbEntity
  8
SK2
100
AcDbLine
 10
246.181977
 20
225.763954
 30
0.0
 11
245.331238
 21
222.588951
 31
0.0
  0
LINE
  5
257
330
1F
100
AcDbEntity
  8
SK2
100
AcDbLine
 10
247.032716
 20
222.588957
 30
0.0
 11
245.331238
 21
222.588951
 31
0.0
  0
LINE
  5
258
330
1F
100
AcDbEntity
  8
SK2
100
AcDbLine
 10
246.181977
 20
207.963954
 30
0.0
 11
245.331238
 21
211.138951
 31
0.0
  0
LINE
  5
259
330
1F
100
AcDbEntity
  8
SK2
100
AcDbLine
 10
246.181977
 20
207.963954
 30
0.0
 11
247.032716
 21
211.138957
 31
0.0
  0
LINE
  5
25A
330
1F
100
AcDbEntity
  8
SK2
100
AcDbLine
 10
245.331238
 20
211.138951
 30
0.0
 11
247.032716
 21
211.138957
 31
0.0
  0
ELLIPSE
  5
25B
330
1F
100
AcDbEntity
  8
CUT
100
AcDbEllipse
 10
326.17545
 20
218.127232
 30
0.0
 11
0.0
 21
0.2000000000000002
 31
0.0
210
0.0
220
0.0
230
1.0
 40
0.9961949999999999
 41
4.345852384173356
 42
5.916648710968256
  0
ELLIPSE
  5
25C
330
1F
100
AcDbEntity
  8
CUT
100
AcDbEllipse
 10
321.89735
 20
219.775799
 30
0.0
 11
0.0
 21
0.2000000000000002
 31
0.0
210
0.0
220
0.0
230
1.0
 40
0.9961949999999999
 41
5.916648710968256
 42
7.48744503776315
  0
ELLIPSE
  5
25D
330
1F
100
AcDbEntity
  8
CUT
100
AcDbEllipse
 10
322.365455
 20
216.863977
 30
0.0
 11
0.0000000000000012
 21
-9.912137246012964
 31
0.0
210
0.0
220
0.0
230
1.0
 40
0.9961950000000001
 41
1.576146445098188
 42
3.193935077857109
  0
LINE
  5
25E
330
1F
100
AcDbEntity
  8
CUT
100
AcDbLine
 10
326.246854
 20
218.313947
 30
0.0
 11
321.968754
 21
219.962514
 31
0.0
  0
LINE
  5
25F
330
1F
100
AcDbEntity
  8
CUT
100
AcDbLine
 10
330.369252
 20
216.457591
 30
0.0
 11
326.343603
 21
218.008876
 31
0.0
  0
LINE
  5
260
330
1F
100
AcDbEntity
  8
CUT
100
AcDbLine
 10
320.082422
 20
226.669642
 30
0.0
 11
321.848839
 21
226.762539
 31
0.0
  0
LINE
  5
261
330
1F
100
AcDbEntity
  8
CUT
100
AcDbLine
 10
321.6934950000001
 20
219.800797
 30
0.0
 11
319.368441
 21
220.696758
 31
0.0
  0
LINE
  5
262
330
1F
100
AcDbEntity
  8
CUT
100
AcDbLine
 10
319.368441
 20
220.696758
 30
0.0
 11
320.318352
 21
223.180685
 31
0.0
  0
LINE
  5
263
330
1F
100
AcDbEntity
  8
CUT
100
AcDbLine
 10
320.318352
 20
223.180685
 30
0.0
 11
318.610559
 21
224.210791
 31
0.0
  0
LINE
  5
264
330
1F
100
AcDbEntity
  8
CUT
100
AcDbLine
 10
318.610559
 20
224.210791
 30
0.0
 11
319.100139
 21
225.02867
 31
0.0
  0
LINE
  5
265
330
1F
100
AcDbEntity
  8
CUT
100
AcDbLine
 10
319.100139
 20
225.02867
 30
0.0
 11
320.082422
 21
226.669642
 31
0.0
  0
LINE
  5
266
330
1F
100
AcDbEntity
  8
CUT
100
AcDbLine
 10
326.343603
 20
218.008876
 30
0.0
 11
326.361454
 21
218.055555
 31
0.0
  0
LINE
  5
267
330
1F
100
AcDbEntity
  8
CUT
100
AcDbLine
 10
321.711346
 20
219.847476
 30
0.0
 11
321.6934950000001
 21
219.800797
 31
0.0
  0
LINE
  5
268
330
1F
100
AcDbEntity
  8
CUT
100
AcDbLine
 10
332.239732
 20
216.917008
 30
0.0
 11
330.65198
 21
216.527033
 31
0.0
  0
LINE
  5
269
330
1F
100
AcDbEntity
  8
CUT
100
AcDbLine
 10
330.65198
 20
216.527033
 30
0.0
 11
330.369252
 21
216.457591
 31
0.0
  0
ENDSEC
  0
SECTION
  2
OBJECTS
  0
DICTIONARY
  5
C
330
0
100
AcDbDictionary
281
     1
  3
ACAD_CIP_PREVIOUS_PRODUCT_INFO
350
22B
  3
ACAD_COLOR
350
220
  3
ACAD_DETAILVIEWSTYLE
350
226
  3
ACAD_GROUP
350
D
  3
ACAD_LAYOUT
350
1A
  3
ACAD_MATERIAL
350
43
  3
ACAD_MLEADERSTYLE
350
1E1
  3
ACAD_MLINESTYLE
350
17
  3
ACAD_PLOTSETTINGS
350
19
  3
ACAD_PLOTSTYLENAME
350
E
  3
ACAD_SCALELIST
350
47
  3
ACAD_SECTIONVIEWSTYLE
350
224
  3
ACAD_TABLESTYLE
350
221
  3
ACAD_VISUALSTYLE
350
2A
  3
ACDB_RECOMPOSE_DATA
350
297
  3
AcDbVariableDictionary
350
1DF
  3
DWGPROPS
350
298
  0
DICTIONARY
  5
275
330
10
100
AcDbDictionary
280
     1
281
     1
  3
ADSK_XREC_LAYER_RECONCILED
360
276
  0
DICTIONARY
  5
277
330
70
100
AcDbDictionary
280
     1
281
     1
  3
ADSK_XREC_LAYER_RECONCILED
360
278
  0
DICTIONARY
  5
279
330
108
100
AcDbDictionary
280
     1
281
     1
  3
ADSK_XREC_LAYER_RECONCILED
360
27A
  0
DICTIONARY
  5
27B
330
26A
100
AcDbDictionary
280
     1
281
     1
  3
ADSK_XREC_LAYER_RECONCILED
360
27C
  0
DICTIONARY
  5
27D
330
26B
100
AcDbDictionary
280
     1
281
     1
  3
ADSK_XREC_LAYER_RECONCILED
360
27E
  0
DICTIONARY
  5
27F
330
26C
100
AcDbDictionary
280
     1
281
     1
  3
ADSK_XREC_LAYER_RECONCILED
360
280
  0
DICTIONARY
  5
281
330
26E
100
AcDbDictionary
280
     1
281
     1
  3
ADSK_XREC_LAYER_RECONCILED
360
282
  0
DICTIONARY
  5
283
330
26F
100
AcDbDictionary
280
     1
281
     1
  3
ADSK_XREC_LAYER_RECONCILED
360
284
  0
DICTIONARY
  5
285
330
270
100
AcDbDictionary
280
     1
281
     1
  3
ADSK_XREC_LAYER_RECONCILED
360
286
  0
DICTIONARY
  5
287
330
271
100
AcDbDictionary
280
     1
281
     1
  3
ADSK_XREC_LAYER_RECONCILED
360
288
  0
DICTIONARY
  5
289
330
272
100
AcDbDictionary
280
     1
281
     1
  3
ADSK_XREC_LAYER_RECONCILED
360
28A
  0
DICTIONARY
  5
28B
330
273
100
AcDbDictionary
280
     1
281
     1
  3
ADSK_XREC_LAYER_RECONCILED
360
28C
  0
DICTIONARY
  5
238
330
1F
100
AcDbDictionary
280
     1
281
     1
  3
ACAD_SORTENTS
360
239
  0
XRECORD
  5
22B
102
{ACAD_REACTORS
330
C
102
}
330
C
100
AcDbXrecord
280
     1
300
AMECH_PP
300
2015
300
86279AMECH_PP_2015_0F
  0
DICTIONARY
  5
220
102
{ACAD_REACTORS
330
C
102
}
330
C
100
AcDbDictionary
281
     1
  0
DICTIONARY
  5
226
102
{ACAD_REACTORS
330
C
102
}
330
C
100
AcDbDictionary
281
     1
  3
Metric50
350
227
  0
DICTIONARY
  5
D
102
{ACAD_REACTORS
330
C
102
}
330
C
100
AcDbDictionary
281
     1
  3
DIMENSION
350
1CD
  3
NULOVY_BOD
350
274
  0
DICTIONARY
  5
1A
102
{ACAD_REACTORS
330
C
102
}
330
C
100
AcDbDictionary
281
     1
  3
Layout1
350
1E
  3
Layout2
350
26
  3
Model
350
22
  0
DICTIONARY
  5
43
102
{ACAD_REACTORS
330
C
102
}
330
C
100
AcDbDictionary
281
     1
  3
ByBlock
350
45
  3
ByLayer
350
44
  3
Global
350
46
  0
DICTIONARY
  5
1E1
102
{ACAD_REACTORS
330
C
102
}
330
C
100
AcDbDictionary
281
     1
  3
Standard
350
223
  0
DICTIONARY
  5
17
102
{ACAD_REACTORS
330
C
102
}
330
C
100
AcDbDictionary
281
     1
  3
Standard
350
18
  0
DICTIONARY
  5
19
102
{ACAD_REACTORS
330
C
102
}
330
C
100
AcDbDictionary
281
     1
  0
ACDBDICTIONARYWDFLT
  5
E
102
{ACAD_REACTORS
330
C
102
}
330
C
100
AcDbDictionary
281
     1
  3
Normal
350
F
100
AcDbDictionaryWithDefault
340
F
  0
DICTIONARY
  5
47
102
{ACAD_REACTORS
330
C
102
}
330
C
100
AcDbDictionary
281
     1
  3
A0
350
48
  3
A1
350
49
  3
A2
350
4A
  3
A3
350
4B
  3
A4
350
4C
  3
A5
350
4D
  3
A6
350
4E
  3
A7
350
4F
  3
A8
350
50
  3
A9
350
51
  3
B0
350
52
  3
B1
350
53
  3
B2
350
54
  3
B3
350
55
  3
B4
350
56
  3
B5
350
57
  3
B6
350
58
  3
B7
350
59
  3
B8
350
5A
  3
B9
350
5B
  3
C0
350
5C
  3
C1
350
5D
  3
C2
350
5E
  3
C3
350
5F
  3
C4
350
60
  3
C5
350
61
  3
C6
350
62
  3
C7
350
63
  3
C8
350
64
  3
C9
350
65
  3
D0
350
66
  3
D1
350
67
  3
D2
350
68
  0
DICTIONARY
  5
224
102
{ACAD_REACTORS
330
C
102
}
330
C
100
AcDbDictionary
281
     1
  3
Metric50
350
225
  0
DICTIONARY
  5
221
102
{ACAD_REACTORS
330
C
102
}
330
C
100
AcDbDictionary
281
     1
  3
Standard
350
222
  0
DICTIONARY
  5
2A
102
{ACAD_REACTORS
330
C
102
}
330
C
100
AcDbDictionary
281
     1
  3
2dWireframe
350
2F
  3
Basic
350
32
  3
Brighten
350
36
  3
ColorChange
350
3A
  3
Conceptual
350
34
  3
Dim
350
35
  3
EdgeColorOff
350
3D
  3
Facepattern
350
39
  3
Flat
350
2B
  3
FlatWithEdges
350
2C
  3
Gouraud
350
2D
  3
GouraudWithEdges
350
2E
  3
Hidden
350
31
  3
JitterOff
350
3B
  3
Linepattern
350
38
  3
OverhangOff
350
3C
  3
Realistic
350
33
  3
Shaded
350
42
  3
Shaded with edges
350
41
  3
Shades of Gray
350
3E
  3
Sketchy
350
3F
  3
Thicken
350
37
  3
Wireframe
350
30
  3
X-Ray
350
40
  0
XRECORD
  5
297
102
{ACAD_REACTORS
330
C
102
}
330
C
100
AcDbXrecord
280
     1
 90
        1
330
222
  0
DICTIONARY
  5
1DF
102
{ACAD_REACTORS
330
C
102
}
330
C
100
AcDbDictionary
281
     1
  3
CANNOSCALE
350
1E6
  3
CMLEADERSTYLE
350
28E
  3
CTABLESTYLE
350
28D
  3
CVIEWDETAILSTYLE
350
28F
  3
CVIEWSECTIONSTYLE
350
290
  3
DIMASSOC
350
1E4
  3
HIDETEXT
350
1E5
  3
INDEXCTL
350
292
  3
MSLTSCALE
350
1E7
  3
SORTENTS
350
291
  3
XCLIPFRAME
350
293
  0
XRECORD
  5
298
102
{ACAD_REACTORS
330
C
102
}
330
C
100
AcDbXrecord
280
     1
  1
DWGPROPS COOKIE
  2

  3

  4

  6

  7

  8
hm1535
  9

300
=
301
=
302
=
303
=
304
=
305
=
306
=
307
=
308
=
309
=
 40
0.0006255671296296
 41
2458527.428456933
 42
2458527.429434005
  1

 90
        0
  0
XRECORD
  5
276
102
{ACAD_REACTORS
330
275
102
}
330
275
100
AcDbXrecord
280
     1
290
     1
  0
XRECORD
  5
278
102
{ACAD_REACTORS
330
277
102
}
330
277
100
AcDbXrecord
280
     1
290
     1
  0
XRECORD
  5
27A
102
{ACAD_REACTORS
330
279
102
}
330
279
100
AcDbXrecord
280
     1
290
     1
  0
XRECORD
  5
27C
102
{ACAD_REACTORS
330
27B
102
}
330
27B
100
AcDbXrecord
280
     1
290
     1
  0
XRECORD
  5
27E
102
{ACAD_REACTORS
330
27D
102
}
330
27D
100
AcDbXrecord
280
     1
290
     1
  0
XRECORD
  5
280
102
{ACAD_REACTORS
330
27F
102
}
330
27F
100
AcDbXrecord
280
     1
290
     1
  0
XRECORD
  5
282
102
{ACAD_REACTORS
330
281
102
}
330
281
100
AcDbXrecord
280
     1
290
     1
  0
XRECORD
  5
284
102
{ACAD_REACTORS
330
283
102
}
330
283
100
AcDbXrecord
280
     1
290
     1
  0
XRECORD
  5
286
102
{ACAD_REACTORS
330
285
102
}
330
285
100
AcDbXrecord
280
     1
290
     1
  0
XRECORD
  5
288
102
{ACAD_REACTORS
330
287
102
}
330
287
100
AcDbXrecord
280
     1
290
     1
  0
XRECORD
  5
28A
102
{ACAD_REACTORS
330
289
102
}
330
289
100
AcDbXrecord
280
     1
290
     1
  0
XRECORD
  5
28C
102
{ACAD_REACTORS
330
28B
102
}
330
28B
100
AcDbXrecord
280
     1
290
     1
  0
SORTENTSTABLE
  5
239
102
{ACAD_REACTORS
330
238
102
}
330
238
100
AcDbSortentsTable
330
1F
331
246
  5
251
331
235
  5
24E
331
17A
  5
17A
331
169
  5
169
331
158
  5
158
331
257
  5
236
331
C7
  5
C7
331
E0
  5
E0
331
13D
  5
13D
331
12C
  5
12C
331
11B
  5
11B
331
102
  5
102
331
F1
  5
F1
331
B1
  5
B1
331
A0
  5
A0
331
87
  5
87
331
148
  5
148
331
247
  5
252
331
236
  5
24F
331
17B
  5
17B
331
16A
  5
16A
331
159
  5
159
331
109
  5
109
331
90
  5
90
331
C8
  5
C8
331
E1
  5
E1
331
13E
  5
13E
331
12D
  5
12D
331
11C
  5
11C
331
103
  5
103
331
F2
  5
F2
331
B2
  5
B2
331
A1
  5
A1
331
88
  5
88
331
149
  5
149
331
248
  5
253
331
237
  5
250
331
17C
  5
17C
331
16B
  5
16B
331
15A
  5
15A
331
10A
  5
10A
331
91
  5
91
331
C9
  5
C9
331
13F
  5
13F
331
12E
  5
12E
331
11D
  5
11D
331
104
  5
104
331
F3
  5
F3
331
B3
  5
B3
331
A2
  5
A2
331
89
  5
89
331
140
  5
140
331
14A
  5
14A
331
249
  5
254
331
17D
  5
17D
331
16C
  5
16C
331
15B
  5
15B
331
10B
  5
10B
331
92
  5
92
331
CA
  5
CA
331
12F
  5
12F
331
11E
  5
11E
331
105
  5
105
331
F4
  5
F4
331
B4
  5
B4
331
A3
  5
A3
331
8A
  5
8A
331
14B
  5
14B
331
141
  5
141
331
130
  5
130
331
24A
  5
255
331
17E
  5
17E
331
16D
  5
16D
331
15C
  5
15C
331
10C
  5
10C
331
CB
  5
CB
331
11F
  5
11F
331
106
  5
106
331
F5
  5
F5
331
B5
  5
B5
331
A4
  5
A4
331
8B
  5
8B
331
142
  5
142
331
131
  5
131
331
120
  5
120
331
14C
  5
14C
331
24B
  5
256
331
23A
  5
23C
331
17F
  5
17F
331
16E
  5
16E
331
15D
  5
15D
331
10D
  5
10D
331
94
  5
94
331
CC
  5
CC
331
107
  5
107
331
F6
  5
F6
331
B6
  5
B6
331
A5
  5
A5
331
8C
  5
8C
331
258
  5
237
331
143
  5
143
331
132
  5
132
331
121
  5
121
331
110
  5
110
331
14D
  5
14D
331
24C
  5
257
331
23B
  5
23D
331
180
  5
180
331
16F
  5
16F
331
15E
  5
15E
331
10E
  5
10E
331
95
  5
95
331
CD
  5
CD
331
F7
  5
F7
331
B7
  5
B7
331
A6
  5
A6
331
8D
  5
8D
331
259
  5
23A
331
144
  5
144
331
133
  5
133
331
122
  5
122
331
111
  5
111
331
F8
  5
F8
331
B8
  5
B8
331
14E
  5
14E
331
24D
  5
258
331
23C
  5
23E
331
181
  5
181
331
170
  5
170
331
15F
  5
15F
331
10F
  5
10F
331
96
  5
96
331
CE
  5
CE
331
A7
  5
A7
331
8E
  5
8E
331
25A
  5
23B
331
145
  5
145
331
134
  5
134
331
123
  5
123
331
112
  5
112
331
F9
  5
F9
331
B9
  5
B9
331
A8
  5
A8
331
188
  5
188
331
24E
  5
259
331
23D
  5
23F
331
182
  5
182
331
171
  5
171
331
160
  5
160
331
14F
  5
14F
331
97
  5
97
331
CF
  5
CF
331
8F
  5
8F
331
D0
  5
D0
331
146
  5
146
331
135
  5
135
331
124
  5
124
331
113
  5
113
331
FA
  5
FA
331
BA
  5
BA
331
A9
  5
A9
331
98
  5
98
331
189
  5
189
331
24F
  5
25A
331
23E
  5
240
331
183
  5
183
331
172
  5
172
331
161
  5
161
331
150
  5
150
331
D8
  5
D8
331
6F
  5
6F
331
250
  5
22F
331
C0
  5
C0
331
D1
  5
D1
331
147
  5
147
331
136
  5
136
331
125
  5
125
331
114
  5
114
331
FB
  5
FB
331
22E
  5
247
331
23F
  5
241
331
184
  5
184
331
162
  5
162
331
151
  5
151
331
D9
  5
D9
331
BB
  5
BB
331
AA
  5
AA
331
99
  5
99
331
240
  5
242
331
251
  5
230
331
C1
  5
C1
331
D2
  5
D2
331
137
  5
137
331
126
  5
126
331
115
  5
115
331
FC
  5
FC
331
BC
  5
BC
331
AB
  5
AB
331
9A
  5
9A
331
22F
  5
248
331
185
  5
185
331
163
  5
163
331
152
  5
152
331
DA
  5
DA
331
71
  5
71
331
230
  5
249
331
241
  5
243
331
252
  5
231
331
C2
  5
C2
331
D3
  5
D3
331
138
  5
138
331
127
  5
127
331
116
  5
116
331
FD
  5
FD
331
BD
  5
BD
331
AC
  5
AC
331
9B
  5
9B
331
186
  5
186
331
164
  5
164
331
153
  5
153
331
DB
  5
DB
331
72
  5
72
331
231
  5
24A
331
242
  5
244
331
253
  5
232
331
C3
  5
C3
331
D4
  5
D4
331
139
  5
139
331
128
  5
128
331
117
  5
117
331
FE
  5
FE
331
BE
  5
BE
331
AD
  5
AD
331
9C
  5
9C
331
187
  5
187
331
176
  5
176
331
165
  5
165
331
154
  5
154
331
DC
  5
DC
331
73
  5
73
331
232
  5
24B
331
243
  5
246
331
254
  5
233
331
C4
  5
C4
331
D5
  5
D5
331
EE
  5
EE
331
13A
  5
13A
331
129
  5
129
331
118
  5
118
331
FF
  5
FF
331
BF
  5
BF
331
AE
  5
AE
331
9D
  5
9D
331
177
  5
177
331
166
  5
166
331
155
  5
155
331
DD
  5
DD
331
74
  5
74
331
233
  5
24C
331
244
  5
1CC
331
178
  5
178
331
255
  5
234
331
C5
  5
C5
331
D6
  5
D6
331
13B
  5
13B
331
12A
  5
12A
331
119
  5
119
331
100
  5
100
331
EF
  5
EF
331
AF
  5
AF
331
9E
  5
9E
331
167
  5
167
331
156
  5
156
331
75
  5
75
331
234
  5
24D
331
245
  5
19B
331
179
  5
179
331
168
  5
168
331
256
  5
235
331
C6
  5
C6
331
D7
  5
D7
331
13C
  5
13C
331
12B
  5
12B
331
11A
  5
11A
331
101
  5
101
331
F0
  5
F0
331
157
  5
157
331
DF
  5
DF
331
B0
  5
B0
331
9F
  5
9F
331
86
  5
86
  0
ACDBDETAILVIEWSTYLE
  5
227
102
{ACAD_XDICTIONARY
360
2D3
102
}
102
{ACAD_REACTORS
330
226
102
}
330
226
100
AcDbModelDocViewStyle
 70
     0
  3
Metric50
290
     0
100
AcDbDetailViewStyle
 70
     0
 71
     0
 90
        3
 71
     1
340
11
 40
5.0
340
0
 40
5.0
300

 40
0.0
280
     1
 71
     2
340
16
 90
       25
 71
     3
340
11
 40
5.0
 90
        0
 40
15.0
 90
        1
300
%<\AcVar ViewDetailId>% (%<\AcVar ViewScale \f "%sn">%)
 71
     4
340
16
 90
       25
340
16
 90
       25
280
     0
  0
GROUP
  5
1CD
102
{ACAD_REACTORS
330
D
102
}
330
D
100
AcDbGroup
300

 70
     0
 71
     1
340
12F
340
130
340
131
340
132
340
133
  0
GROUP
  5
274
102
{ACAD_REACTORS
330
D
102
}
330
D
100
AcDbGroup
300

 70
     0
 71
     1
340
6F
  0
LAYOUT
  5
1E
102
{ACAD_XDICTIONARY
360
299
102
}
102
{ACAD_REACTORS
330
1A
102
}
330
1A
100
AcDbPlotSettings
  1

  2
none_device
  4

  6

 40
0.0
 41
0.0
 42
0.0
 43
0.0
 44
0.0
 45
0.0
 46
0.0
 47
0.0
 48
0.0
 49
0.0
140
0.0
141
0.0
142
1.0
143
1.0
 70
   688
 72
     0
 73
     0
 74
     5
  7

 75
    16
147
1.0
148
0.0
149
0.0
100
AcDbLayout
  1
Layout1
 70
     1
 71
     1
 10
-0.5
 20
-0.5
 11
5.0
 21
5.0
 12
0.0
 22
0.0
 32
0.0
 14
-0.5
 24
-0.5
 34
-0.5
 15
5.0
 25
5.0
 35
5.0
146
0.0
 13
0.0
 23
0.0
 33
0.0
 16
1.0
 26
0.0
 36
0.0
 17
0.0
 27
1.0
 37
0.0
 76
     0
330
1B
  0
LAYOUT
  5
26
102
{ACAD_XDICTIONARY
360
29D
102
}
102
{ACAD_REACTORS
330
1A
102
}
330
1A
100
AcDbPlotSettings
  1

  2
none_device
  4

  6

 40
0.0
 41
0.0
 42
0.0
 43
0.0
 44
0.0
 45
0.0
 46
0.0
 47
0.0
 48
0.0
 49
0.0
140
0.0
141
0.0
142
1.0
143
1.0
 70
   688
 72
     0
 73
     0
 74
     5
  7

 75
    16
147
1.0
148
0.0
149
0.0
100
AcDbLayout
  1
Layout2
 70
     1
 71
     2
 10
0.0
 20
0.0
 11
0.0
 21
0.0
 12
0.0
 22
0.0
 32
0.0
 14
0.0
 24
0.0
 34
0.0
 15
0.0
 25
0.0
 35
0.0
146
0.0
 13
0.0
 23
0.0
 33
0.0
 16
1.0
 26
0.0
 36
0.0
 17
0.0
 27
1.0
 37
0.0
 76
     0
330
23
  0
LAYOUT
  5
22
102
{ACAD_XDICTIONARY
360
29B
102
}
102
{ACAD_REACTORS
330
1A
102
}
330
1A
100
AcDbPlotSettings
  1

  2
none_device
  4
Letter_(8.50_x_11.00_Inches)
  6

 40
6.349999999999999
 41
6.349999999999999
 42
6.350005
 43
6.350005
 44
215.9
 45
279.4
 46
0.0
 47
0.0
 48
0.0
 49
0.0
140
0.0
141
0.0
142
1.0
143
1.0
 70
  1712
 72
     0
 73
     0
 74
     0
  7

 75
     0
147
1.0
148
0.0
149
0.0
100
AcDbLayout
  1
Model
 70
     1
 71
     0
 10
-0.5
 20
-0.5
 11
5.0
 21
5.0
 12
0.0
 22
0.0
 32
0.0
 14
-0.5
 24
-0.5
 34
-0.5
 15
5.0
 25
5.0
 35
5.0
146
0.0
 13
0.0
 23
0.0
 33
0.0
 16
1.0
 26
0.0
 36
0.0
 17
0.0
 27
1.0
 37
0.0
 76
     0
330
1F
331
1CE
  0
MATERIAL
  5
45
102
{ACAD_XDICTIONARY
360
21A
102
}
102
{ACAD_REACTORS
330
43
102
}
330
43
100
AcDbMaterial
  1
ByBlock
  0
MATERIAL
  5
44
102
{ACAD_XDICTIONARY
360
218
102
}
102
{ACAD_REACTORS
330
43
102
}
330
43
100
AcDbMaterial
  1
ByLayer
  0
MATERIAL
  5
46
102
{ACAD_XDICTIONARY
360
21C
102
}
102
{ACAD_REACTORS
330
43
102
}
330
43
100
AcDbMaterial
  1
Global
  0
MLEADERSTYLE
  5
223
102
{ACAD_REACTORS
330
1E1
102
}
330
1E1
100
AcDbMLeaderStyle
170
     2
171
     1
172
     0
 90
        2
 40
0.0
 41
0.0
173
     1
 91
-1056964608
340
14
 92
       -2
290
     1
 42
2.0
291
     1
 43
0.36
  3
Standard
 44
4.0
300

342
11
174
     1
178
     6
175
     1
176
     0
 93
-1056964608
 45
4.0
292
     0
297
     0
 46
4.0
 94
-1056964608
 47
1.0
 49
1.0
140
1.0
293
     1
141
0.0
294
     1
177
     0
142
1.0
295
     0
296
     0
143
0.125
1001
ACAD_MLEADERVER
1070
     2
  0
MLINESTYLE
  5
18
102
{ACAD_REACTORS
330
17
102
}
330
17
100
AcDbMlineStyle
  2
STANDARD
 70
     0
  3

 62
   256
 51
90.0
 52
90.0
 71
     2
 49
0.5
 62
   256
  6
BYLAYER
 49
-0.5
 62
   256
  6
BYLAYER
  0
ACDBPLACEHOLDER
  5
F
102
{ACAD_REACTORS
330
E
102
}
330
E
  0
SCALE
  5
48
102
{ACAD_REACTORS
330
47
102
}
330
47
100
AcDbScale
 70
     0
300
1:1
140
1.0
141
1.0
290
     1
  0
SCALE
  5
49
102
{ACAD_REACTORS
330
47
102
}
330
47
100
AcDbScale
 70
     0
300
1:2
140
1.0
141
2.0
290
     0
  0
SCALE
  5
4A
102
{ACAD_REACTORS
330
47
102
}
330
47
100
AcDbScale
 70
     0
300
1:4
140
1.0
141
4.0
290
     0
  0
SCALE
  5
4B
102
{ACAD_REACTORS
330
47
102
}
330
47
100
AcDbScale
 70
     0
300
1:5
140
1.0
141
5.0
290
     0
  0
SCALE
  5
4C
102
{ACAD_REACTORS
330
47
102
}
330
47
100
AcDbScale
 70
     0
300
1:8
140
1.0
141
8.0
290
     0
  0
SCALE
  5
4D
102
{ACAD_REACTORS
330
47
102
}
330
47
100
AcDbScale
 70
     0
300
1:10
140
1.0
141
10.0
290
     0
  0
SCALE
  5
4E
102
{ACAD_REACTORS
330
47
102
}
330
47
100
AcDbScale
 70
     0
300
1:16
140
1.0
141
16.0
290
     0
  0
SCALE
  5
4F
102
{ACAD_REACTORS
330
47
102
}
330
47
100
AcDbScale
 70
     0
300
1:20
140
1.0
141
20.0
290
     0
  0
SCALE
  5
50
102
{ACAD_REACTORS
330
47
102
}
330
47
100
AcDbScale
 70
     0
300
1:30
140
1.0
141
30.0
290
     0
  0
SCALE
  5
51
102
{ACAD_REACTORS
330
47
102
}
330
47
100
AcDbScale
 70
     0
300
1:40
140
1.0
141
40.0
290
     0
  0
SCALE
  5
52
102
{ACAD_REACTORS
330
47
102
}
330
47
100
AcDbScale
 70
     0
300
1:50
140
1.0
141
50.0
290
     0
  0
SCALE
  5
53
102
{ACAD_REACTORS
330
47
102
}
330
47
100
AcDbScale
 70
     0
300
1:100
140
1.0
141
100.0
290
     0
  0
SCALE
  5
54
102
{ACAD_REACTORS
330
47
102
}
330
47
100
AcDbScale
 70
     0
300
2:1
140
2.0
141
1.0
290
     0
  0
SCALE
  5
55
102
{ACAD_REACTORS
330
47
102
}
330
47
100
AcDbScale
 70
     0
300
4:1
140
4.0
141
1.0
290
     0
  0
SCALE
  5
56
102
{ACAD_REACTORS
330
47
102
}
330
47
100
AcDbScale
 70
     0
300
8:1
140
8.0
141
1.0
290
     0
  0
SCALE
  5
57
102
{ACAD_REACTORS
330
47
102
}
330
47
100
AcDbScale
 70
     0
300
10:1
140
10.0
141
1.0
290
     0
  0
SCALE
  5
58
102
{ACAD_REACTORS
330
47
102
}
330
47
100
AcDbScale
 70
     0
300
100:1
140
100.0
141
1.0
290
     0
  0
SCALE
  5
59
102
{ACAD_REACTORS
330
47
102
}
330
47
100
AcDbScale
 70
     0
300
1/128" = 1'-0"
140
0.007812
141
12.0
290
     0
  0
SCALE
  5
5A
102
{ACAD_REACTORS
330
47
102
}
330
47
100
AcDbScale
 70
     0
300
1/64" = 1'-0"
140
0.015625
141
12.0
290
     0
  0
SCALE
  5
5B
102
{ACAD_REACTORS
330
47
102
}
330
47
100
AcDbScale
 70
     0
300
1/32" = 1'-0"
140
0.03125
141
12.0
290
     0
  0
SCALE
  5
5C
102
{ACAD_REACTORS
330
47
102
}
330
47
100
AcDbScale
 70
     0
300
1/16" = 1'-0"
140
0.0625
141
12.0
290
     0
  0
SCALE
  5
5D
102
{ACAD_REACTORS
330
47
102
}
330
47
100
AcDbScale
 70
     0
300
3/32" = 1'-0"
140
0.09375
141
12.0
290
     0
  0
SCALE
  5
5E
102
{ACAD_REACTORS
330
47
102
}
330
47
100
AcDbScale
 70
     0
300
1/8" = 1'-0"
140
0.125
141
12.0
290
     0
  0
SCALE
  5
5F
102
{ACAD_REACTORS
330
47
102
}
330
47
100
AcDbScale
 70
     0
300
3/16" = 1'-0"
140
0.1875
141
12.0
290
     0
  0
SCALE
  5
60
102
{ACAD_REACTORS
330
47
102
}
330
47
100
AcDbScale
 70
     0
300
1/4" = 1'-0"
140
0.25
141
12.0
290
     0
  0
SCALE
  5
61
102
{ACAD_REACTORS
330
47
102
}
330
47
100
AcDbScale
 70
     0
300
3/8" = 1'-0"
140
0.375
141
12.0
290
     0
  0
SCALE
  5
62
102
{ACAD_REACTORS
330
47
102
}
330
47
100
AcDbScale
 70
     0
300
1/2" = 1'-0"
140
0.5
141
12.0
290
     0
  0
SCALE
  5
63
102
{ACAD_REACTORS
330
47
102
}
330
47
100
AcDbScale
 70
     0
300
3/4" = 1'-0"
140
0.75
141
12.0
290
     0
  0
SCALE
  5
64
102
{ACAD_REACTORS
330
47
102
}
330
47
100
AcDbScale
 70
     0
300
1" = 1'-0"
140
1.0
141
12.0
290
     0
  0
SCALE
  5
65
102
{ACAD_REACTORS
330
47
102
}
330
47
100
AcDbScale
 70
     0
300
1-1/2" = 1'-0"
140
1.5
141
12.0
290
     0
  0
SCALE
  5
66
102
{ACAD_REACTORS
330
47
102
}
330
47
100
AcDbScale
 70
     0
300
3" = 1'-0"
140
3.0
141
12.0
290
     0
  0
SCALE
  5
67
102
{ACAD_REACTORS
330
47
102
}
330
47
100
AcDbScale
 70
     0
300
6" = 1'-0"
140
6.0
141
12.0
290
     0
  0
SCALE
  5
68
102
{ACAD_REACTORS
330
47
102
}
330
47
100
AcDbScale
 70
     0
300
1'-0" = 1'-0"
140
12.0
141
12.0
290
     0
  0
ACDBSECTIONVIEWSTYLE
  5
225
102
{ACAD_XDICTIONARY
360
2D1
102
}
102
{ACAD_REACTORS
330
224
102
}
330
224
100
AcDbModelDocViewStyle
 70
     0
  3
Metric50
290
     0
100
AcDbSectionViewStyle
 70
     0
 71
     0
 90
      102
 71
     1
340
11
 40
5.0
340
0
340
0
 40
5.0
300
I, O, Q, S, X, Z
 40
10.0
 90
        0
 40
2.5
 90
        0
 71
     2
340
16
 90
       25
340
16
 90
       50
 40
5.0
 40
2.5
 40
5.0
 71
     3
340
11
 40
5.0
 90
        0
 40
15.0
 90
        1
300
%<\AcVar ViewSectionStartId>%-%<\AcVar ViewSectionEndId>% (%<\AcVar ViewScale \f "%sn">%)
 71
     4
300
ANSI31
 40
1.0
 90
        0
290
     0
290
     0
 90
        6
 40
0.0
 40
1.570796326794896
 40
0.2617993877991494
 40
1.308996938995747
 40
-0.2617993877991494
 40
1.832595714594046
  0
TABLESTYLE
  5
222
102
{ACAD_XDICTIONARY
360
295
102
}
102
{ACAD_REACTORS
330
221
102
}
330
221
100
AcDbTableStyle
  3
Standard
 70
     0
 71
     0
 40
1.5
 41
1.5
280
     0
281
     0
  7
Standard
140
4.5
170
     2
 62
     0
 63
     7
283
     0
274
    -2
284
     1
 64
     0
275
    -2
285
     1
 65
     0
276
    -2
286
     1
 66
     0
277
    -2
287
     1
 67
     0
278
    -2
288
     1
 68
     0
279
    -2
289
     1
 69
     0
  7
Standard
140
6.0
170
     5
 62
     0
 63
     7
283
     0
274
    -2
284
     1
 64
     0
275
    -2
285
     1
 65
     0
276
    -2
286
     1
 66
     0
277
    -2
287
     1
 67
     0
278
    -2
288
     1
 68
     0
279
    -2
289
     1
 69
     0
  7
Standard
140
4.5
170
     5
 62
     0
 63
     7
283
     0
274
    -2
284
     1
 64
     0
275
    -2
285
     1
 65
     0
276
    -2
286
     1
 66
     0
277
    -2
287
     1
 67
     0
278
    -2
288
     1
 68
     0
279
    -2
289
     1
 69
     0
  0
VISUALSTYLE
  5
2F
102
{ACAD_XDICTIONARY
360
2A7
102
}
102
{ACAD_REACTORS
330
2A
102
}
330
2A
100
AcDbVisualStyle
  2

 70
     4
 71
     0
 72
     2
 73
     0
 90
        0
 40
-0.6
 41
-30.0
 62
     5
 63
     7
 74
     1
 91
        4
 64
     7
 65
   257
 75
     1
175
     1
 42
1.0
 92
        0
 66
   257
 43
1.0
 76
     1
 77
     6
 78
     2
 67
     7
 79
     5
170
     0
171
     0
290
     0
174
     0
 93
        1
 44
0.0
173
     0
291
     0
 45
0.0
1001
ACAD
1000
AcDbSavedByObjectVersion
1070
     0
  0
VISUALSTYLE
  5
32
102
{ACAD_XDICTIONARY
360
2AD
102
}
102
{ACAD_REACTORS
330
2A
102
}
330
2A
100
AcDbVisualStyle
  2

 70
     7
 71
     1
 72
     0
 73
     1
 90
        0
 40
-0.6
 41
-30.0
 62
     5
 63
     7
 74
     0
 91
        4
 64
     7
 65
   257
 75
     1
175
     1
 42
1.0
 92
        8
 66
     7
 43
1.0
 76
     1
 77
     6
 78
     2
 67
     7
 79
     5
170
     0
171
     0
290
     0
174
     0
 93
        1
 44
0.0
173
     0
291
     1
 45
0.0
1001
ACAD
1000
AcDbSavedByObjectVersion
1070
     0
  0
VISUALSTYLE
  5
36
102
{ACAD_XDICTIONARY
360
2B5
102
}
102
{ACAD_REACTORS
330
2A
102
}
330
2A
100
AcDbVisualStyle
  2

 70
    12
 71
     2
 72
     2
 73
     0
 90
        0
 40
-0.6
 41
-30.0
 62
     5
 63
     7
 74
     1
 91
        4
 64
     7
 65
   257
 75
     1
175
     1
 42
1.0
 92
        8
 66
     7
 43
1.0
 76
     1
 77
     6
 78
     2
 67
     7
 79
     5
170
     0
171
     0
290
     0
174
     0
 93
        1
 44
50.0
173
     0
291
     1
 45
0.0
1001
ACAD
1000
AcDbSavedByObjectVersion
1070
     0
  0
VISUALSTYLE
  5
3A
102
{ACAD_XDICTIONARY
360
2BD
102
}
102
{ACAD_REACTORS
330
2A
102
}
330
2A
100
AcDbVisualStyle
  2

 70
    16
 71
     2
 72
     2
 73
     3
 90
        0
 40
-0.6
 41
-30.0
 62
     5
 63
     8
 74
     1
 91
        4
 64
     7
 65
   257
 75
     1
175
     1
 42
1.0
 92
        8
 66
     8
 43
1.0
 76
     1
 77
     6
 78
     2
 67
     7
 79
     5
170
     0
171
     0
290
     0
174
     0
 93
        1
 44
0.0
173
     0
291
     1
 45
0.0
1001
ACAD
1000
AcDbSavedByObjectVersion
1070
     0
  0
VISUALSTYLE
  5
34
102
{ACAD_XDICTIONARY
360
2B1
102
}
102
{ACAD_REACTORS
330
2A
102
}
330
2A
100
AcDbVisualStyle
  2

 70
     9
 71
     3
 72
     2
 73
     0
 90
        0
 40
-0.6
 41
-30.0
 62
     5
 63
     7
 74
     2
 91
        2
 64
     7
 65
   257
 75
     1
175
     1
 42
179.0
 92
        8
 66
     7
 43
1.0
 76
     1
 77
     6
 78
     2
 67
     7
 79
     3
170
     0
171
     0
290
     0
174
     0
 93
        1
 44
0.0
173
     0
291
     0
 45
0.0
1001
ACAD
1000
AcDbSavedByObjectVersion
1070
     0
  0
VISUALSTYLE
  5
35
102
{ACAD_XDICTIONARY
360
2B3
102
}
102
{ACAD_REACTORS
330
2A
102
}
330
2A
100
AcDbVisualStyle
  2

 70
    11
 71
     2
 72
     2
 73
     0
 90
        0
 40
-0.6
 41
-30.0
 62
     5
 63
     7
 74
     1
 91
        4
 64
     7
 65
   257
 75
     1
175
     1
 42
1.0
 92
        8
 66
     7
 43
1.0
 76
     1
 77
     6
 78
     2
 67
     7
 79
     5
170
     0
171
     0
290
     0
174
     0
 93
        1
 44
-50.0
173
     0
291
     1
 45
0.0
1001
ACAD
1000
AcDbSavedByObjectVersion
1070
     0
  0
VISUALSTYLE
  5
3D
102
{ACAD_XDICTIONARY
360
2C3
102
}
102
{ACAD_REACTORS
330
2A
102
}
330
2A
100
AcDbVisualStyle
  2

 70
    22
 71
     2
 72
     2
 73
     0
 90
        0
 40
-0.6
 41
-30.0
 62
     5
 63
     7
 74
     1
 91
        4
 64
     7
 65
   257
 75
     1
175
     1
 42
1.0
 92
        8
 66
     7
 43
1.0
 76
     1
 77
     6
 78
     2
 67
     7
 79
     5
170
     0
171
     0
290
     0
174
     0
 93
        1
 44
0.0
173
     0
291
     1
 45
0.0
1001
ACAD
1000
AcDbSavedByObjectVersion
1070
     0
  0
VISUALSTYLE
  5
39
102
{ACAD_XDICTIONARY
360
2BB
102
}
102
{ACAD_REACTORS
330
2A
102
}
330
2A
100
AcDbVisualStyle
  2

 70
    15
 71
     2
 72
     2
 73
     0
 90
        0
 40
-0.6
 41
-30.0
 62
     5
 63
     7
 74
     1
 91
        4
 64
     7
 65
   257
 75
     1
175
     1
 42
1.0
 92
        8
 66
     7
 43
1.0
 76
     1
 77
     6
 78
     2
 67
     7
 79
     5
170
     0
171
     0
290
     0
174
     0
 93
        1
 44
0.0
173
     0
291
     1
 45
0.0
1001
ACAD
1000
AcDbSavedByObjectVersion
1070
     0
  0
VISUALSTYLE
  5
2B
102
{ACAD_XDICTIONARY
360
29F
102
}
102
{ACAD_REACTORS
330
2A
102
}
330
2A
100
AcDbVisualStyle
  2

 70
     0
 71
     2
 72
     1
 73
     1
 90
        2
 40
-0.6
 41
30.0
 62
     5
 63
     7
 74
     0
 91
        0
 64
     7
 65
   257
 75
     1
175
     1
 42
1.0
 92
        8
 66
     7
 43
1.0
 76
     1
 77
     6
 78
     2
 67
     7
 79
     5
170
     0
171
     0
290
     0
174
     0
 93
       13
 44
0.0
173
     0
291
     1
 45
0.0
1001
ACAD
1000
AcDbSavedByObjectVersion
1070
     0
  0
VISUALSTYLE
  5
2C
102
{ACAD_XDICTIONARY
360
2A1
102
}
102
{ACAD_REACTORS
330
2A
102
}
330
2A
100
AcDbVisualStyle
  2

 70
     1
 71
     2
 72
     1
 73
     1
 90
        2
 40
-0.6
 41
30.0
 62
     5
 63
     7
 74
     1
 91
        0
 64
     7
 65
   257
 75
     1
175
     1
 42
1.0
 92
        0
 66
   257
 43
1.0
 76
     1
 77
     6
 78
     2
 67
     7
 79
     5
170
     0
171
     0
290
     0
174
     0
 93
       13
 44
0.0
173
     0
291
     1
 45
0.0
1001
ACAD
1000
AcDbSavedByObjectVersion
1070
     0
  0
VISUALSTYLE
  5
2D
102
{ACAD_XDICTIONARY
360
2A3
102
}
102
{ACAD_REACTORS
330
2A
102
}
330
2A
100
AcDbVisualStyle
  2

 70
     2
 71
     2
 72
     2
 73
     1
 90
        2
 40
-0.6
 41
30.0
 62
     5
 63
     7
 74
     0
 91
        0
 64
     7
 65
   257
 75
     1
175
     1
 42
1.0
 92
        0
 66
     7
 43
1.0
 76
     1
 77
     6
 78
     2
 67
     7
 79
     5
170
     0
171
     0
290
     0
174
     0
 93
       13
 44
0.0
173
     0
291
     1
 45
0.0
1001
ACAD
1000
AcDbSavedByObjectVersion
1070
     0
  0
VISUALSTYLE
  5
2E
102
{ACAD_XDICTIONARY
360
2A5
102
}
102
{ACAD_REACTORS
330
2A
102
}
330
2A
100
AcDbVisualStyle
  2

 70
     3
 71
     2
 72
     2
 73
     1
 90
        2
 40
-0.6
 41
30.0
 62
     5
 63
     7
 74
     1
 91
        0
 64
     7
 65
   257
 75
     1
175
     1
 42
1.0
 92
        0
 66
   257
 43
1.0
 76
     1
 77
     6
 78
     2
 67
     7
 79
     5
170
     0
171
     0
290
     0
174
     0
 93
       13
 44
0.0
173
     0
291
     1
 45
0.0
1001
ACAD
1000
AcDbSavedByObjectVersion
1070
     0
  0
VISUALSTYLE
  5
31
102
{ACAD_XDICTIONARY
360
2AB
102
}
102
{ACAD_REACTORS
330
2A
102
}
330
2A
100
AcDbVisualStyle
  2

 70
     6
 71
     1
 72
     2
 73
     2
 90
        0
 40
-0.6
 41
-30.0
 62
     5
 63
     7
 74
     2
 91
        2
 64
     7
 65
   257
 75
     2
175
     1
 42
40.0
 92
        0
 66
   257
 43
1.0
 76
     1
 77
     6
 78
     2
 67
     7
 79
     3
170
     0
171
     0
290
     0
174
     0
 93
        1
 44
0.0
173
     0
291
     0
 45
0.0
1001
ACAD
1000
AcDbSavedByObjectVersion
1070
     0
  0
VISUALSTYLE
  5
3B
102
{ACAD_XDICTIONARY
360
2BF
102
}
102
{ACAD_REACTORS
330
2A
102
}
330
2A
100
AcDbVisualStyle
  2

 70
    20
 71
     2
 72
     2
 73
     0
 90
        0
 40
-0.6
 41
-30.0
 62
     5
 63
     7
 74
     1
 91
        4
 64
     7
 65
   257
 75
     1
175
     1
 42
1.0
 92
       10
 66
     7
 43
1.0
 76
     1
 77
     6
 78
     2
 67
     7
 79
     5
170
     0
171
     0
290
     0
174
     0
 93
        1
 44
0.0
173
     0
291
     1
 45
0.0
1001
ACAD
1000
AcDbSavedByObjectVersion
1070
     0
  0
VISUALSTYLE
  5
38
102
{ACAD_XDICTIONARY
360
2B9
102
}
102
{ACAD_REACTORS
330
2A
102
}
330
2A
100
AcDbVisualStyle
  2

 70
    14
 71
     2
 72
     2
 73
     0
 90
        0
 40
-0.6
 41
-30.0
 62
     5
 63
     7
 74
     1
 91
        4
 64
     7
 65
   257
 75
     7
175
     7
 42
1.0
 92
        8
 66
     7
 43
1.0
 76
     1
 77
     6
 78
     2
 67
     7
 79
     5
170
     0
171
     0
290
     0
174
     0
 93
        1
 44
0.0
173
     0
291
     1
 45
0.0
1001
ACAD
1000
AcDbSavedByObjectVersion
1070
     0
  0
VISUALSTYLE
  5
3C
102
{ACAD_XDICTIONARY
360
2C1
102
}
102
{ACAD_REACTORS
330
2A
102
}
330
2A
100
AcDbVisualStyle
  2

 70
    21
 71
     2
 72
     2
 73
     0
 90
        0
 40
-0.6
 41
-30.0
 62
     5
 63
     7
 74
     1
 91
        4
 64
     7
 65
   257
 75
     1
175
     1
 42
1.0
 92
        9
 66
     7
 43
1.0
 76
     1
 77
     6
 78
     2
 67
     7
 79
     5
170
     0
171
     0
290
     0
174
     0
 93
        1
 44
0.0
173
     0
291
     1
 45
0.0
1001
ACAD
1000
AcDbSavedByObjectVersion
1070
     0
  0
VISUALSTYLE
  5
33
102
{ACAD_XDICTIONARY
360
2AF
102
}
102
{ACAD_REACTORS
330
2A
102
}
330
2A
100
AcDbVisualStyle
  2

 70
     8
 71
     2
 72
     3
 73
     0
 90
        2
 40
-0.6
 41
30.0
 62
     5
 63
     7
 74
     0
 91
        0
 64
     7
 65
   257
 75
     1
175
     1
 42
1.0
 92
        8
 66
   257
 43
1.0
 76
     1
 77
     6
 78
     2
 67
     7
 79
     3
170
     0
171
     0
290
     0
174
     0
 93
       13
 44
0.0
173
     0
291
     0
 45
0.0
1001
ACAD
1000
AcDbSavedByObjectVersion
1070
     0
  0
VISUALSTYLE
  5
42
102
{ACAD_XDICTIONARY
360
2CD
102
}
102
{ACAD_REACTORS
330
2A
102
}
330
2A
100
AcDbVisualStyle
  2

 70
    27
 71
     2
 72
     2
 73
     1
 90
        2
 40
-0.6
 41
30.0
 62
     5
 63
     7
 74
     0
 91
        4
 64
     7
 65
   257
 75
     1
175
     1
 42
1.0
 92
        8
 66
   257
 43
1.0
 76
     1
 77
     6
 78
     2
 67
     8
 79
     3
170
     0
171
     0
290
     0
174
     0
 93
        5
 44
0.0
173
     0
291
     0
 45
0.0
1001
ACAD
1000
AcDbSavedByObjectVersion
1070
     0
  0
VISUALSTYLE
  5
41
102
{ACAD_XDICTIONARY
360
2CB
102
}
102
{ACAD_REACTORS
330
2A
102
}
330
2A
100
AcDbVisualStyle
  2

 70
    26
 71
     2
 72
     2
 73
     1
 90
        2
 40
-0.6
 41
30.0
 62
     5
 63
     7
 74
     1
 91
       10
 64
     7
 65
   257
 75
     2
175
     1
 42
1.0
 92
        8
 66
   257
 43
1.0
 76
     1
 77
     6
 78
     2
 67
     7
 79
     3
170
     0
171
     0
290
     0
174
     0
 93
        5
 44
0.0
173
     0
291
     0
 45
0.0
1001
ACAD
1000
AcDbSavedByObjectVersion
1070
     0
  0
VISUALSTYLE
  5
3E
102
{ACAD_XDICTIONARY
360
2C5
102
}
102
{ACAD_REACTORS
330
2A
102
}
330
2A
100
AcDbVisualStyle
  2

 70
    23
 71
     2
 72
     2
 73
     3
 90
        0
 40
-0.6
 41
-30.0
 62
     5
 63
     7
 74
     2
 91
        2
 64
     7
 65
     7
 75
     1
175
     1
 42
40.0
 92
        8
 66
     7
 43
1.0
 76
     1
 77
     6
 78
     2
 67
     7
 79
     3
170
     0
171
     0
290
     0
174
     0
 93
        1
 44
0.0
173
     0
291
     0
 45
0.0
1001
ACAD
1000
AcDbSavedByObjectVersion
1070
     0
  0
VISUALSTYLE
  5
3F
102
{ACAD_XDICTIONARY
360
2C7
102
}
102
{ACAD_REACTORS
330
2A
102
}
330
2A
100
AcDbVisualStyle
  2

 70
    24
 71
     1
 72
     2
 73
     2
 90
        0
 40
-0.6
 41
-30.0
 62
     5
 63
     7
 74
     2
 91
        2
 64
     7
 65
     7
 75
     1
175
     1
 42
40.0
 92
       11
 66
     7
 43
1.0
 76
     1
 77
     6
 78
     2
 67
     7
 79
     6
170
     0
171
     0
290
     0
174
     0
 93
        1
 44
0.0
173
     0
291
     0
 45
0.0
1001
ACAD
1000
AcDbSavedByObjectVersion
1070
     0
  0
VISUALSTYLE
  5
37
102
{ACAD_XDICTIONARY
360
2B7
102
}
102
{ACAD_REACTORS
330
2A
102
}
330
2A
100
AcDbVisualStyle
  2

 70
    13
 71
     2
 72
     2
 73
     0
 90
        0
 40
-0.6
 41
-30.0
 62
     5
 63
     7
 74
     1
 91
        4
 64
     7
 65
   257
 75
     1
175
     1
 42
1.0
 92
       12
 66
     7
 43
1.0
 76
     1
 77
     6
 78
     2
 67
     7
 79
     5
170
     0
171
     0
290
     0
174
     0
 93
        1
 44
0.0
173
     0
291
     1
 45
0.0
1001
ACAD
1000
AcDbSavedByObjectVersion
1070
     0
  0
VISUALSTYLE
  5
30
102
{ACAD_XDICTIONARY
360
2A9
102
}
102
{ACAD_REACTORS
330
2A
102
}
330
2A
100
AcDbVisualStyle
  2

 70
     5
 71
     0
 72
     2
 73
     0
 90
        0
 40
-0.6
 41
-30.0
 62
     5
 63
     7
 74
     1
 91
        4
 64
     7
 65
   257
 75
     1
175
     1
 42
1.0
 92
        0
 66
   257
 43
1.0
 76
     1
 77
     6
 78
     2
 67
     7
 79
     3
170
     0
171
     0
290
     0
174
     0
 93
        1
 44
0.0
173
     0
291
     0
 45
0.0
1001
ACAD
1000
AcDbSavedByObjectVersion
1070
     0
  0
VISUALSTYLE
  5
40
102
{ACAD_XDICTIONARY
360
2C9
102
}
102
{ACAD_REACTORS
330
2A
102
}
330
2A
100
AcDbVisualStyle
  2

 70
    25
 71
     2
 72
     2
 73
     1
 90
        1
 40
0.5
 41
-30.0
 62
     5
 63
     7
 74
     1
 91
        0
 64
     7
 65
   257
 75
     1
175
     1
 42
1.0
 92
        8
 66
     7
 43
1.0
 76
     1
 77
     6
 78
     2
 67
     7
 79
     3
170
     0
171
     0
290
     0
174
     0
 93
       13
 44
0.0
173
     0
291
     0
 45
0.0
1001
ACAD
1000
AcDbSavedByObjectVersion
1070
     0
  0
DICTIONARYVAR
  5
1E6
102
{ACAD_REACTORS
330
1DF
102
}
330
1DF
100
DictionaryVariables
280
     0
  1
1:1
  0
DICTIONARYVAR
  5
28E
102
{ACAD_REACTORS
330
1DF
102
}
330
1DF
100
DictionaryVariables
280
     0
  1
STANDARD
  0
DICTIONARYVAR
  5
28D
102
{ACAD_REACTORS
330
1DF
102
}
330
1DF
100
DictionaryVariables
280
     0
  1
STANDARD
  0
DICTIONARYVAR
  5
28F
102
{ACAD_REACTORS
330
1DF
102
}
330
1DF
100
DictionaryVariables
280
     0
  1
Metric50
  0
DICTIONARYVAR
  5
290
102
{ACAD_REACTORS
330
1DF
102
}
330
1DF
100
DictionaryVariables
280
     0
  1
Metric50
  0
DICTIONARYVAR
  5
1E4
102
{ACAD_REACTORS
330
1DF
102
}
330
1DF
100
DictionaryVariables
280
     0
  1
2
  0
DICTIONARYVAR
  5
1E5
102
{ACAD_REACTORS
330
1DF
102
}
330
1DF
100
DictionaryVariables
280
     0
  1
1
  0
DICTIONARYVAR
  5
292
102
{ACAD_REACTORS
330
1DF
102
}
330
1DF
100
DictionaryVariables
280
     0
  1
0
  0
DICTIONARYVAR
  5
1E7
102
{ACAD_REACTORS
330
1DF
102
}
330
1DF
100
DictionaryVariables
280
     0
  1
1
  0
DICTIONARYVAR
  5
291
102
{ACAD_REACTORS
330
1DF
102
}
330
1DF
100
DictionaryVariables
280
     0
  1
127
  0
DICTIONARYVAR
  5
293
102
{ACAD_REACTORS
330
1DF
102
}
330
1DF
100
DictionaryVariables
280
     0
  1
2
  0
DICTIONARY
  5
2D3
330
227
100
AcDbDictionary
280
     1
281
     1
  3
ACAD_XREC_ROUNDTRIP
360
2D4
  0
DICTIONARY
  5
299
330
1E
100
AcDbDictionary
280
     1
281
     1
  3
ACAD_XREC_ROUNDTRIP
360
29A
  0
DICTIONARY
  5
29D
330
26
100
AcDbDictionary
280
     1
281
     1
  3
ACAD_XREC_ROUNDTRIP
360
29E
  0
DICTIONARY
  5
29B
330
22
100
AcDbDictionary
280
     1
281
     1
  3
ACAD_XREC_ROUNDTRIP
360
29C
  0
DICTIONARY
  5
21A
330
45
100
AcDbDictionary
280
     1
281
     1
  3
ACAD_XREC_ROUNDTRIP
360
21B
  0
DICTIONARY
  5
218
330
44
100
AcDbDictionary
280
     1
281
     1
  3
ACAD_XREC_ROUNDTRIP
360
219
  0
DICTIONARY
  5
21C
330
46
100
AcDbDictionary
280
     1
281
     1
  3
ACAD_XREC_ROUNDTRIP
360
21D
  0
DICTIONARY
  5
2D1
330
225
100
AcDbDictionary
280
     1
281
     1
  3
ACAD_XREC_ROUNDTRIP
360
2D2
  0
DICTIONARY
  5
295
330
222
100
AcDbDictionary
280
     1
281
     1
  3
ACAD_ROUNDTRIP_2008_TABLESTYLE_CELLSTYLEMAP
360
296
  3
ACAD_XREC_ROUNDTRIP
360
2CF
  0
DICTIONARY
  5
2A7
330
2F
100
AcDbDictionary
280
     1
281
     1
  3
ACAD_XREC_ROUNDTRIP
360
2A8
  0
DICTIONARY
  5
2AD
330
32
100
AcDbDictionary
280
     1
281
     1
  3
ACAD_XREC_ROUNDTRIP
360
2AE
  0
DICTIONARY
  5
2B5
330
36
100
AcDbDictionary
280
     1
281
     1
  3
ACAD_XREC_ROUNDTRIP
360
2B6
  0
DICTIONARY
  5
2BD
330
3A
100
AcDbDictionary
280
     1
281
     1
  3
ACAD_XREC_ROUNDTRIP
360
2BE
  0
DICTIONARY
  5
2B1
330
34
100
AcDbDictionary
280
     1
281
     1
  3
ACAD_XREC_ROUNDTRIP
360
2B2
  0
DICTIONARY
  5
2B3
330
35
100
AcDbDictionary
280
     1
281
     1
  3
ACAD_XREC_ROUNDTRIP
360
2B4
  0
DICTIONARY
  5
2C3
330
3D
100
AcDbDictionary
280
     1
281
     1
  3
ACAD_XREC_ROUNDTRIP
360
2C4
  0
DICTIONARY
  5
2BB
330
39
100
AcDbDictionary
280
     1
281
     1
  3
ACAD_XREC_ROUNDTRIP
360
2BC
  0
DICTIONARY
  5
29F
330
2B
100
AcDbDictionary
280
     1
281
     1
  3
ACAD_XREC_ROUNDTRIP
360
2A0
  0
DICTIONARY
  5
2A1
330
2C
100
AcDbDictionary
280
     1
281
     1
  3
ACAD_XREC_ROUNDTRIP
360
2A2
  0
DICTIONARY
  5
2A3
330
2D
100
AcDbDictionary
280
     1
281
     1
  3
ACAD_XREC_ROUNDTRIP
360
2A4
  0
DICTIONARY
  5
2A5
330
2E
100
AcDbDictionary
280
     1
281
     1
  3
ACAD_XREC_ROUNDTRIP
360
2A6
  0
DICTIONARY
  5
2AB
330
31
100
AcDbDictionary
280
     1
281
     1
  3
ACAD_XREC_ROUNDTRIP
360
2AC
  0
DICTIONARY
  5
2BF
330
3B
100
AcDbDictionary
280
     1
281
     1
  3
ACAD_XREC_ROUNDTRIP
360
2C0
  0
DICTIONARY
  5
2B9
330
38
100
AcDbDictionary
280
     1
281
     1
  3
ACAD_XREC_ROUNDTRIP
360
2BA
  0
DICTIONARY
  5
2C1
330
3C
100
AcDbDictionary
280
     1
281
     1
  3
ACAD_XREC_ROUNDTRIP
360
2C2
  0
DICTIONARY
  5
2AF
330
33
100
AcDbDictionary
280
     1
281
     1
  3
ACAD_XREC_ROUNDTRIP
360
2B0
  0
DICTIONARY
  5
2CD
330
42
100
AcDbDictionary
280
     1
281
     1
  3
ACAD_XREC_ROUNDTRIP
360
2CE
  0
DICTIONARY
  5
2CB
330
41
100
AcDbDictionary
280
     1
281
     1
  3
ACAD_XREC_ROUNDTRIP
360
2CC
  0
DICTIONARY
  5
2C5
330
3E
100
AcDbDictionary
280
     1
281
     1
  3
ACAD_XREC_ROUNDTRIP
360
2C6
  0
DICTIONARY
  5
2C7
330
3F
100
AcDbDictionary
280
     1
281
     1
  3
ACAD_XREC_ROUNDTRIP
360
2C8
  0
DICTIONARY
  5
2B7
330
37
100
AcDbDictionary
280
     1
281
     1
  3
ACAD_XREC_ROUNDTRIP
360
2B8
  0
DICTIONARY
  5
2A9
330
30
100
AcDbDictionary
280
     1
281
     1
  3
ACAD_XREC_ROUNDTRIP
360
2AA
  0
DICTIONARY
  5
2C9
330
40
100
AcDbDictionary
280
     1
281
     1
  3
ACAD_XREC_ROUNDTRIP
360
2CA
  0
XRECORD
  5
2D4
102
{ACAD_REACTORS
330
2D3
102
}
330
2D3
100
AcDbXrecord
280
     1
102
DISPLAYNAME
  1
Metric50
102
FLAGS
 90
        0
  0
XRECORD
  5
29A
102
{ACAD_REACTORS
330
299
102
}
330
299
100
AcDbXrecord
280
     1
102
SHADEPLOT
 70
     0
102
SHADEPLOTRESLEVEL
 70
     2
102
SHADEPLOTCUSTOMDPI
 70
   300
  0
XRECORD
  5
29E
102
{ACAD_REACTORS
330
29D
102
}
330
29D
100
AcDbXrecord
280
     1
102
SHADEPLOT
 70
     0
102
SHADEPLOTRESLEVEL
 70
     2
102
SHADEPLOTCUSTOMDPI
 70
   300
  0
XRECORD
  5
29C
102
{ACAD_REACTORS
330
29B
102
}
330
29B
100
AcDbXrecord
280
     1
102
SHADEPLOT
 70
     0
102
SHADEPLOTRESLEVEL
 70
     2
102
SHADEPLOTCUSTOMDPI
 70
   300
  0
XRECORD
  5
21B
102
{ACAD_REACTORS
330
21A
102
}
330
21A
100
AcDbXrecord
280
     1
102
MATERIAL
148
0.0
149
0.0
149
0.0
 93
        0
 94
      127
282
     0
 72
     1
 77
     1
171
     1
175
     1
179
     1
273
     0
  0
XRECORD
  5
219
102
{ACAD_REACTORS
330
218
102
}
330
218
100
AcDbXrecord
280
     1
102
MATERIAL
148
0.0
149
0.0
149
0.0
 93
        0
 94
      127
282
     0
 72
     1
 77
     1
171
     1
175
     1
179
     1
273
     0
  0
XRECORD
  5
21D
102
{ACAD_REACTORS
330
21C
102
}
330
21C
100
AcDbXrecord
280
     1
102
MATERIAL
148
0.0
149
0.0
149
0.0
 93
        0
 94
      127
282
     0
 72
     1
 77
     1
171
     1
175
     1
179
     1
273
     0
  0
XRECORD
  5
2D2
102
{ACAD_REACTORS
330
2D1
102
}
330
2D1
100
AcDbXrecord
280
     1
102
DISPLAYNAME
  1
Metric50
102
FLAGS
 90
        0
  0
CELLSTYLEMAP
  5
296
102
{ACAD_REACTORS
330
295
102
}
330
295
100
AcDbCellStyleMap
 90
        3
300
CELLSTYLE
  1
TABLEFORMAT_BEGIN
 90
        5
170
     1
 91
        0
 92
    32768
 62
   257
 93
        1
300
CONTENTFORMAT
  1
CONTENTFORMAT_BEGIN
 90
        0
 91
        0
 92
      512
 93
        0
300

 40
0.0
140
1.0
 94
        5
 62
     0
340
11
144
6.0
309
CONTENTFORMAT_END
171
     1
301
MARGIN
  1
CELLMARGIN_BEGIN
 40
1.5
 40
1.5
 40
1.5
 40
1.5
 40
4.5
 40
4.5
309
CELLMARGIN_END
 94
        6
 95
        1
302
GRIDFORMAT
  1
GRIDFORMAT_BEGIN
 90
        0
 91
        1
 62
     0
 92
       -2
340
0
 93
        0
 40
1.125
309
GRIDFORMAT_END
 95
        2
302
GRIDFORMAT
  1
GRIDFORMAT_BEGIN
 90
        0
 91
        1
 62
     0
 92
       -2
340
0
 93
        0
 40
1.125
309
GRIDFORMAT_END
 95
        4
302
GRIDFORMAT
  1
GRIDFORMAT_BEGIN
 90
        0
 91
        1
 62
     0
 92
       -2
340
0
 93
        0
 40
1.125
309
GRIDFORMAT_END
 95
        8
302
GRIDFORMAT
  1
GRIDFORMAT_BEGIN
 90
        0
 91
        1
 62
     0
 92
       -2
340
0
 93
        0
 40
1.125
309
GRIDFORMAT_END
 95
       16
302
GRIDFORMAT
  1
GRIDFORMAT_BEGIN
 90
        0
 91
        1
 62
     0
 92
       -2
340
0
 93
        0
 40
1.125
309
GRIDFORMAT_END
 95
       32
302
GRIDFORMAT
  1
GRIDFORMAT_BEGIN
 90
        0
 91
        1
 62
     0
 92
       -2
340
0
 93
        0
 40
1.125
309
GRIDFORMAT_END
309
TABLEFORMAT_END
  1
CELLSTYLE_BEGIN
 90
        1
 91
        1
300
_TITLE
309
CELLSTYLE_END
300
CELLSTYLE
  1
TABLEFORMAT_BEGIN
 90
        5
170
     1
 91
        0
 92
        0
 62
   257
 93
        1
300
CONTENTFORMAT
  1
CONTENTFORMAT_BEGIN
 90
        0
 91
        0
 92
      512
 93
        0
300

 40
0.0
140
1.0
 94
        5
 62
     0
340
11
144
4.5
309
CONTENTFORMAT_END
171
     1
301
MARGIN
  1
CELLMARGIN_BEGIN
 40
1.5
 40
1.5
 40
1.5
 40
1.5
 40
4.5
 40
4.5
309
CELLMARGIN_END
 94
        6
 95
        1
302
GRIDFORMAT
  1
GRIDFORMAT_BEGIN
 90
        0
 91
        1
 62
     0
 92
       -2
340
0
 93
        0
 40
1.125
309
GRIDFORMAT_END
 95
        2
302
GRIDFORMAT
  1
GRIDFORMAT_BEGIN
 90
        0
 91
        1
 62
     0
 92
       -2
340
0
 93
        0
 40
1.125
309
GRIDFORMAT_END
 95
        4
302
GRIDFORMAT
  1
GRIDFORMAT_BEGIN
 90
        0
 91
        1
 62
     0
 92
       -2
340
0
 93
        0
 40
1.125
309
GRIDFORMAT_END
 95
        8
302
GRIDFORMAT
  1
GRIDFORMAT_BEGIN
 90
        0
 91
        1
 62
     0
 92
       -2
340
0
 93
        0
 40
1.125
309
GRIDFORMAT_END
 95
       16
302
GRIDFORMAT
  1
GRIDFORMAT_BEGIN
 90
        0
 91
        1
 62
     0
 92
       -2
340
0
 93
        0
 40
1.125
309
GRIDFORMAT_END
 95
       32
302
GRIDFORMAT
  1
GRIDFORMAT_BEGIN
 90
        0
 91
        1
 62
     0
 92
       -2
340
0
 93
        0
 40
1.125
309
GRIDFORMAT_END
309
TABLEFORMAT_END
  1
CELLSTYLE_BEGIN
 90
        2
 91
        1
300
_HEADER
309
CELLSTYLE_END
300
CELLSTYLE
  1
TABLEFORMAT_BEGIN
 90
        5
170
     1
 91
        0
 92
        0
 62
   257
 93
        1
300
CONTENTFORMAT
  1
CONTENTFORMAT_BEGIN
 90
        0
 91
        0
 92
      512
 93
        0
300

 40
0.0
140
1.0
 94
        2
 62
     0
340
11
144
4.5
309
CONTENTFORMAT_END
171
     1
301
MARGIN
  1
CELLMARGIN_BEGIN
 40
1.5
 40
1.5
 40
1.5
 40
1.5
 40
4.5
 40
4.5
309
CELLMARGIN_END
 94
        6
 95
        1
302
GRIDFORMAT
  1
GRIDFORMAT_BEGIN
 90
        0
 91
        1
 62
     0
 92
       -2
340
0
 93
        0
 40
1.125
309
GRIDFORMAT_END
 95
        2
302
GRIDFORMAT
  1
GRIDFORMAT_BEGIN
 90
        0
 91
        1
 62
     0
 92
       -2
340
0
 93
        0
 40
1.125
309
GRIDFORMAT_END
 95
        4
302
GRIDFORMAT
  1
GRIDFORMAT_BEGIN
 90
        0
 91
        1
 62
     0
 92
       -2
340
0
 93
        0
 40
1.125
309
GRIDFORMAT_END
 95
        8
302
GRIDFORMAT
  1
GRIDFORMAT_BEGIN
 90
        0
 91
        1
 62
     0
 92
       -2
340
0
 93
        0
 40
1.125
309
GRIDFORMAT_END
 95
       16
302
GRIDFORMAT
  1
GRIDFORMAT_BEGIN
 90
        0
 91
        1
 62
     0
 92
       -2
340
0
 93
        0
 40
1.125
309
GRIDFORMAT_END
 95
       32
302
GRIDFORMAT
  1
GRIDFORMAT_BEGIN
 90
        0
 91
        1
 62
     0
 92
       -2
340
0
 93
        0
 40
1.125
309
GRIDFORMAT_END
309
TABLEFORMAT_END
  1
CELLSTYLE_BEGIN
 90
        3
 91
        2
300
_DATA
309
CELLSTYLE_END
  0
XRECORD
  5
2CF
102
{ACAD_REACTORS
330
295
102
}
330
295
100
AcDbXrecord
280
     1
102
ACAD_ROUNDTRIP_PRE2007_TABLESTYLE
 90
      512
 91
        0
  1

 92
      512
 93
        0
  2

 94
      512
 95
        0
  3

  0
XRECORD
  5
2A8
102
{ACAD_REACTORS
330
2A7
102
}
330
2A7
100
AcDbXrecord
280
     1
102
RTVSPost2010Prop28
280
     1
102
RTVSPost2010PropOp28
 70
     1
102
RTVSPost2010Prop29
280
     1
102
RTVSPost2010PropOp29
 70
     1
102
RTVSPost2010Prop30
280
     0
102
RTVSPost2010PropOp30
 70
     1
102
RTVSPost2010Prop31
280
     0
102
RTVSPost2010PropOp31
 70
     1
102
RTVSPost2010Prop32
280
     0
102
RTVSPost2010PropOp32
 70
     1
102
RTVSPost2010Prop33
280
     0
102
RTVSPost2010PropOp33
 70
     1
102
RTVSPost2010Prop34
280
     0
102
RTVSPost2010PropOp34
 70
     1
102
RTVSPost2010Prop35
280
     0
102
RTVSPost2010PropOp35
 70
     1
102
RTVSPost2010Prop36
280
     0
102
RTVSPost2010PropOp36
 70
     1
102
RTVSPost2010Prop37
 90
       50
102
RTVSPost2010PropOp37
 70
     1
102
RTVSPost2010Prop38
140
0.0
102
RTVSPost2010PropOp38
 70
     1
102
RTVSPost2010Prop39
140
1.0
102
RTVSPost2010PropOp39
 70
     1
102
RTVSPost2010Prop40
 90
        0
102
RTVSPost2010PropOp40
 70
     1
102
RTVSPost2010Prop41ColorIndex
 90
       18
102
RTVSPost2010Prop41ColorRGB
 90
        0
102
RTVSPost2010PropOp41
 70
     1
102
RTVSPost2010Prop42
 90
       50
102
RTVSPost2010PropOp42
 70
     1
102
RTVSPost2010Prop43
 90
        3
102
RTVSPost2010PropOp43
 70
     1
102
RTVSPost2010Prop44ColorIndex
 90
        5
102
RTVSPost2010Prop44ColorRGB
 90
      255
102
RTVSPost2010PropOp44
 70
     1
102
RTVSPost2010Prop45
280
     0
102
RTVSPost2010PropOp45
 70
     1
102
RTVSPost2010Prop46
 90
       50
102
RTVSPost2010PropOp46
 70
     1
102
RTVSPost2010Prop47
 90
       50
102
RTVSPost2010PropOp47
 70
     1
102
RTVSPost2010Prop48
 90
       50
102
RTVSPost2010PropOp48
 70
     1
102
RTVSPost2010Prop49
280
     0
102
RTVSPost2010PropOp49
 70
     1
102
RTVSPost2010Prop50
 90
       50
102
RTVSPost2010PropOp50
 70
     1
102
RTVSPost2010Prop51ColorIndex
 90
      256
102
RTVSPost2010Prop51ColorRGB
 90
-16777216
102
RTVSPost2010PropOp51
 70
     0
102
RTVSPost2010Prop52
140
1.0
102
RTVSPost2010PropOp52
 70
     0
102
RTVSPost2010Prop53
 90
        2
102
RTVSPost2010PropOp53
 70
     1
102
RTVSPost2010Prop54
  1
strokes_ogs.tif
102
RTVSPost2010PropOp54
 70
     1
102
RTVSPost2010Prop55
280
     0
102
RTVSPost2010PropOp55
 70
     1
102
RTVSPost2010Prop56
140
1.0
102
RTVSPost2010PropOp56
 70
     1
102
RTVSPost2010Prop57
140
1.0
102
RTVSPost2010PropOp57
 70
     1
102
RTVSPropertyOp0
 70
     1
102
RTVSPropertyOp1
 70
     1
102
RTVSPropertyOp2
 70
     1
102
RTVSPropertyOp3
 70
     1
102
RTVSPropertyOp4
 70
     1
102
RTVSPropertyOp5
 70
     1
102
RTVSPropertyOp6
 70
     1
102
RTVSPropertyOp7
 70
     1
102
RTVSPropertyOp8
 70
     1
102
RTVSPropertyOp9
 70
     1
102
RTVSPropertyOp10
 70
     1
102
RTVSPropertyOp11
 70
     1
102
RTVSPropertyOp12
 70
     1
102
RTVSPropertyOp13
 70
     1
102
RTVSPropertyOp14
 70
     1
102
RTVSPropertyOp15
 70
     1
102
RTVSPropertyOp16
 70
     1
102
RTVSPropertyOp17
 70
     1
102
RTVSPropertyOp18
 70
     1
102
RTVSPropertyOp19
 70
     1
102
RTVSPropertyOp20
 70
     1
102
RTVSPropertyOp21
 70
     1
102
RTVSPropertyOp22
 70
     1
102
RTVSPropertyOp23
 70
     1
102
RTVSPropertyOp24
 70
     1
102
RTVSPropertyOp25
 70
     1
102
RTVSPropertyOp26
 70
     1
102
RTVSPropertyOp27
 70
     1
102
RTVSPropertyOp28
 70
     1
102
RTVSPropertyOp29
 70
     1
102
RTVSPropertyOp30
 70
     1
102
RTVSPropertyOp31
 70
     1
102
RTVSPropertyOp32
 70
     1
102
RTVSPropertyOp33
 70
     1
102
RTVSPropertyOp34
 70
     1
102
RTVSPropertyOp35
 70
     1
102
RTVSPropertyOp36
 70
     1
102
RTVSPropertyOp37
 70
     1
102
RTVSPropertyOp38
 70
     1
102
RTVSPropertyOp39
 70
     1
102
RTVSPropertyOp40
 70
     1
102
RTVSPropertyOp41
 70
     1
102
RTVSPropertyOp42
 70
     1
102
RTVSPropertyOp43
 70
     1
102
RTVSPropertyOp44
 70
     1
102
RTVSPropertyOp45
 70
     1
102
RTVSPropertyOp46
 70
     1
102
RTVSPropertyOp47
 70
     1
102
RTVSPropertyOp48
 70
     1
102
RTVSPropertyOp49
 70
     1
102
RTVSPropertyOp50
 70
     1
102
RTVSPropertyOp51
 70
     0
102
RTVSPropertyOp52
 70
     0
102
RTVSPropertyOp53
 70
     1
102
RTVSPropertyOp54
 70
     1
102
RTVSPropertyOp55
 70
     1
102
RTVSPropertyOp56
 70
     1
102
RTVSPropertyOp57
 70
     1
102
RTVSPropertyOp58
 70
     1
102
RTVSPropertyOp59
 70
     1
102
RTVSPropertyOp60
 70
     1
102
RTVSPropertyOp61
 70
     1
102
RTVSPropertyOp62
 70
     1
  0
XRECORD
  5
2AE
102
{ACAD_REACTORS
330
2AD
102
}
330
2AD
100
AcDbXrecord
280
     1
102
RTVSPost2010Prop28
280
     0
102
RTVSPost2010PropOp28
 70
     1
102
RTVSPost2010Prop29
280
     1
102
RTVSPost2010PropOp29
 70
     1
102
RTVSPost2010Prop30
280
     1
102
RTVSPost2010PropOp30
 70
     1
102
RTVSPost2010Prop31
280
     0
102
RTVSPost2010PropOp31
 70
     1
102
RTVSPost2010Prop32
280
     0
102
RTVSPost2010PropOp32
 70
     1
102
RTVSPost2010Prop33
280
     0
102
RTVSPost2010PropOp33
 70
     1
102
RTVSPost2010Prop34
280
     0
102
RTVSPost2010PropOp34
 70
     1
102
RTVSPost2010Prop35
280
     0
102
RTVSPost2010PropOp35
 70
     1
102
RTVSPost2010Prop36
280
     0
102
RTVSPost2010PropOp36
 70
     1
102
RTVSPost2010Prop37
 90
       50
102
RTVSPost2010PropOp37
 70
     1
102
RTVSPost2010Prop38
140
0.0
102
RTVSPost2010PropOp38
 70
     1
102
RTVSPost2010Prop39
140
1.0
102
RTVSPost2010PropOp39
 70
     1
102
RTVSPost2010Prop40
 90
        0
102
RTVSPost2010PropOp40
 70
     1
102
RTVSPost2010Prop41ColorIndex
 90
       18
102
RTVSPost2010Prop41ColorRGB
 90
        0
102
RTVSPost2010PropOp41
 70
     1
102
RTVSPost2010Prop42
 90
       50
102
RTVSPost2010PropOp42
 70
     1
102
RTVSPost2010Prop43
 90
        3
102
RTVSPost2010PropOp43
 70
     1
102
RTVSPost2010Prop44ColorIndex
 90
        5
102
RTVSPost2010Prop44ColorRGB
 90
      255
102
RTVSPost2010PropOp44
 70
     1
102
RTVSPost2010Prop45
280
     0
102
RTVSPost2010PropOp45
 70
     1
102
RTVSPost2010Prop46
 90
       50
102
RTVSPost2010PropOp46
 70
     1
102
RTVSPost2010Prop47
 90
       50
102
RTVSPost2010PropOp47
 70
     1
102
RTVSPost2010Prop48
 90
       50
102
RTVSPost2010PropOp48
 70
     1
102
RTVSPost2010Prop49
280
     0
102
RTVSPost2010PropOp49
 70
     1
102
RTVSPost2010Prop50
 90
       50
102
RTVSPost2010PropOp50
 70
     1
102
RTVSPost2010Prop51ColorIndex
 90
      256
102
RTVSPost2010Prop51ColorRGB
 90
-16777216
102
RTVSPost2010PropOp51
 70
     0
102
RTVSPost2010Prop52
140
1.0
102
RTVSPost2010PropOp52
 70
     0
102
RTVSPost2010Prop53
 90
        2
102
RTVSPost2010PropOp53
 70
     1
102
RTVSPost2010Prop54
  1
strokes_ogs.tif
102
RTVSPost2010PropOp54
 70
     1
102
RTVSPost2010Prop55
280
     0
102
RTVSPost2010PropOp55
 70
     1
102
RTVSPost2010Prop56
140
1.0
102
RTVSPost2010PropOp56
 70
     1
102
RTVSPost2010Prop57
140
1.0
102
RTVSPost2010PropOp57
 70
     1
102
RTVSPropertyOp0
 70
     1
102
RTVSPropertyOp1
 70
     1
102
RTVSPropertyOp2
 70
     1
102
RTVSPropertyOp3
 70
     1
102
RTVSPropertyOp4
 70
     1
102
RTVSPropertyOp5
 70
     1
102
RTVSPropertyOp6
 70
     1
102
RTVSPropertyOp7
 70
     1
102
RTVSPropertyOp8
 70
     1
102
RTVSPropertyOp9
 70
     1
102
RTVSPropertyOp10
 70
     1
102
RTVSPropertyOp11
 70
     1
102
RTVSPropertyOp12
 70
     1
102
RTVSPropertyOp13
 70
     1
102
RTVSPropertyOp14
 70
     1
102
RTVSPropertyOp15
 70
     1
102
RTVSPropertyOp16
 70
     1
102
RTVSPropertyOp17
 70
     1
102
RTVSPropertyOp18
 70
     1
102
RTVSPropertyOp19
 70
     1
102
RTVSPropertyOp20
 70
     1
102
RTVSPropertyOp21
 70
     1
102
RTVSPropertyOp22
 70
     1
102
RTVSPropertyOp23
 70
     1
102
RTVSPropertyOp24
 70
     1
102
RTVSPropertyOp25
 70
     1
102
RTVSPropertyOp26
 70
     1
102
RTVSPropertyOp27
 70
     1
102
RTVSPropertyOp28
 70
     1
102
RTVSPropertyOp29
 70
     1
102
RTVSPropertyOp30
 70
     1
102
RTVSPropertyOp31
 70
     1
102
RTVSPropertyOp32
 70
     1
102
RTVSPropertyOp33
 70
     1
102
RTVSPropertyOp34
 70
     1
102
RTVSPropertyOp35
 70
     1
102
RTVSPropertyOp36
 70
     1
102
RTVSPropertyOp37
 70
     1
102
RTVSPropertyOp38
 70
     1
102
RTVSPropertyOp39
 70
     1
102
RTVSPropertyOp40
 70
     1
102
RTVSPropertyOp41
 70
     1
102
RTVSPropertyOp42
 70
     1
102
RTVSPropertyOp43
 70
     1
102
RTVSPropertyOp44
 70
     1
102
RTVSPropertyOp45
 70
     1
102
RTVSPropertyOp46
 70
     1
102
RTVSPropertyOp47
 70
     1
102
RTVSPropertyOp48
 70
     1
102
RTVSPropertyOp49
 70
     1
102
RTVSPropertyOp50
 70
     1
102
RTVSPropertyOp51
 70
     0
102
RTVSPropertyOp52
 70
     0
102
RTVSPropertyOp53
 70
     1
102
RTVSPropertyOp54
 70
     1
102
RTVSPropertyOp55
 70
     1
102
RTVSPropertyOp56
 70
     1
102
RTVSPropertyOp57
 70
     1
102
RTVSPropertyOp58
 70
     1
102
RTVSPropertyOp59
 70
     1
102
RTVSPropertyOp60
 70
     1
102
RTVSPropertyOp61
 70
     1
102
RTVSPropertyOp62
 70
     1
  0
XRECORD
  5
2B6
102
{ACAD_REACTORS
330
2B5
102
}
330
2B5
100
AcDbXrecord
280
     1
102
RTVSPost2010Prop28
280
     0
102
RTVSPost2010PropOp28
 70
     1
102
RTVSPost2010Prop29
280
     1
102
RTVSPost2010PropOp29
 70
     1
102
RTVSPost2010Prop30
280
     1
102
RTVSPost2010PropOp30
 70
     1
102
RTVSPost2010Prop31
280
     0
102
RTVSPost2010PropOp31
 70
     1
102
RTVSPost2010Prop32
280
     0
102
RTVSPost2010PropOp32
 70
     1
102
RTVSPost2010Prop33
280
     0
102
RTVSPost2010PropOp33
 70
     1
102
RTVSPost2010Prop34
280
     0
102
RTVSPost2010PropOp34
 70
     1
102
RTVSPost2010Prop35
280
     0
102
RTVSPost2010PropOp35
 70
     1
102
RTVSPost2010Prop36
280
     0
102
RTVSPost2010PropOp36
 70
     1
102
RTVSPost2010Prop37
 90
       50
102
RTVSPost2010PropOp37
 70
     1
102
RTVSPost2010Prop38
140
0.0
102
RTVSPost2010PropOp38
 70
     1
102
RTVSPost2010Prop39
140
1.0
102
RTVSPost2010PropOp39
 70
     1
102
RTVSPost2010Prop40
 90
        0
102
RTVSPost2010PropOp40
 70
     1
102
RTVSPost2010Prop41ColorIndex
 90
       18
102
RTVSPost2010Prop41ColorRGB
 90
        0
102
RTVSPost2010PropOp41
 70
     1
102
RTVSPost2010Prop42
 90
       50
102
RTVSPost2010PropOp42
 70
     1
102
RTVSPost2010Prop43
 90
        3
102
RTVSPost2010PropOp43
 70
     1
102
RTVSPost2010Prop44ColorIndex
 90
        5
102
RTVSPost2010Prop44ColorRGB
 90
      255
102
RTVSPost2010PropOp44
 70
     1
102
RTVSPost2010Prop45
280
     0
102
RTVSPost2010PropOp45
 70
     1
102
RTVSPost2010Prop46
 90
       50
102
RTVSPost2010PropOp46
 70
     1
102
RTVSPost2010Prop47
 90
       50
102
RTVSPost2010PropOp47
 70
     1
102
RTVSPost2010Prop48
 90
       50
102
RTVSPost2010PropOp48
 70
     1
102
RTVSPost2010Prop49
280
     0
102
RTVSPost2010PropOp49
 70
     1
102
RTVSPost2010Prop50
 90
       50
102
RTVSPost2010PropOp50
 70
     1
102
RTVSPost2010Prop51ColorIndex
 90
      256
102
RTVSPost2010Prop51ColorRGB
 90
-16777216
102
RTVSPost2010PropOp51
 70
     0
102
RTVSPost2010Prop52
140
1.0
102
RTVSPost2010PropOp52
 70
     0
102
RTVSPost2010Prop53
 90
        2
102
RTVSPost2010PropOp53
 70
     1
102
RTVSPost2010Prop54
  1
strokes_ogs.tif
102
RTVSPost2010PropOp54
 70
     1
102
RTVSPost2010Prop55
280
     0
102
RTVSPost2010PropOp55
 70
     1
102
RTVSPost2010Prop56
140
1.0
102
RTVSPost2010PropOp56
 70
     1
102
RTVSPost2010Prop57
140
1.0
102
RTVSPost2010PropOp57
 70
     1
102
RTVSPropertyOp0
 70
     1
102
RTVSPropertyOp1
 70
     1
102
RTVSPropertyOp2
 70
     1
102
RTVSPropertyOp3
 70
     1
102
RTVSPropertyOp4
 70
     1
102
RTVSPropertyOp5
 70
     1
102
RTVSPropertyOp6
 70
     1
102
RTVSPropertyOp7
 70
     1
102
RTVSPropertyOp8
 70
     1
102
RTVSPropertyOp9
 70
     1
102
RTVSPropertyOp10
 70
     1
102
RTVSPropertyOp11
 70
     1
102
RTVSPropertyOp12
 70
     1
102
RTVSPropertyOp13
 70
     1
102
RTVSPropertyOp14
 70
     1
102
RTVSPropertyOp15
 70
     1
102
RTVSPropertyOp16
 70
     1
102
RTVSPropertyOp17
 70
     1
102
RTVSPropertyOp18
 70
     1
102
RTVSPropertyOp19
 70
     1
102
RTVSPropertyOp20
 70
     1
102
RTVSPropertyOp21
 70
     1
102
RTVSPropertyOp22
 70
     1
102
RTVSPropertyOp23
 70
     1
102
RTVSPropertyOp24
 70
     1
102
RTVSPropertyOp25
 70
     1
102
RTVSPropertyOp26
 70
     1
102
RTVSPropertyOp27
 70
     1
102
RTVSPropertyOp28
 70
     1
102
RTVSPropertyOp29
 70
     1
102
RTVSPropertyOp30
 70
     1
102
RTVSPropertyOp31
 70
     1
102
RTVSPropertyOp32
 70
     1
102
RTVSPropertyOp33
 70
     1
102
RTVSPropertyOp34
 70
     1
102
RTVSPropertyOp35
 70
     1
102
RTVSPropertyOp36
 70
     1
102
RTVSPropertyOp37
 70
     1
102
RTVSPropertyOp38
 70
     1
102
RTVSPropertyOp39
 70
     1
102
RTVSPropertyOp40
 70
     1
102
RTVSPropertyOp41
 70
     1
102
RTVSPropertyOp42
 70
     1
102
RTVSPropertyOp43
 70
     1
102
RTVSPropertyOp44
 70
     1
102
RTVSPropertyOp45
 70
     1
102
RTVSPropertyOp46
 70
     1
102
RTVSPropertyOp47
 70
     1
102
RTVSPropertyOp48
 70
     1
102
RTVSPropertyOp49
 70
     1
102
RTVSPropertyOp50
 70
     1
102
RTVSPropertyOp51
 70
     0
102
RTVSPropertyOp52
 70
     0
102
RTVSPropertyOp53
 70
     1
102
RTVSPropertyOp54
 70
     1
102
RTVSPropertyOp55
 70
     1
102
RTVSPropertyOp56
 70
     1
102
RTVSPropertyOp57
 70
     1
102
RTVSPropertyOp58
 70
     1
102
RTVSPropertyOp59
 70
     1
102
RTVSPropertyOp60
 70
     1
102
RTVSPropertyOp61
 70
     1
102
RTVSPropertyOp62
 70
     1
  0
XRECORD
  5
2BE
102
{ACAD_REACTORS
330
2BD
102
}
330
2BD
100
AcDbXrecord
280
     1
102
RTVSPost2010Prop28
280
     0
102
RTVSPost2010PropOp28
 70
     1
102
RTVSPost2010Prop29
280
     1
102
RTVSPost2010PropOp29
 70
     1
102
RTVSPost2010Prop30
280
     1
102
RTVSPost2010PropOp30
 70
     1
102
RTVSPost2010Prop31
280
     0
102
RTVSPost2010PropOp31
 70
     1
102
RTVSPost2010Prop32
280
     0
102
RTVSPost2010PropOp32
 70
     1
102
RTVSPost2010Prop33
280
     0
102
RTVSPost2010PropOp33
 70
     1
102
RTVSPost2010Prop34
280
     0
102
RTVSPost2010PropOp34
 70
     1
102
RTVSPost2010Prop35
280
     0
102
RTVSPost2010PropOp35
 70
     1
102
RTVSPost2010Prop36
280
     0
102
RTVSPost2010PropOp36
 70
     1
102
RTVSPost2010Prop37
 90
       50
102
RTVSPost2010PropOp37
 70
     1
102
RTVSPost2010Prop38
140
0.0
102
RTVSPost2010PropOp38
 70
     1
102
RTVSPost2010Prop39
140
1.0
102
RTVSPost2010PropOp39
 70
     1
102
RTVSPost2010Prop40
 90
        0
102
RTVSPost2010PropOp40
 70
     1
102
RTVSPost2010Prop41ColorIndex
 90
       18
102
RTVSPost2010Prop41ColorRGB
 90
        0
102
RTVSPost2010PropOp41
 70
     1
102
RTVSPost2010Prop42
 90
       50
102
RTVSPost2010PropOp42
 70
     1
102
RTVSPost2010Prop43
 90
        3
102
RTVSPost2010PropOp43
 70
     1
102
RTVSPost2010Prop44ColorIndex
 90
        5
102
RTVSPost2010Prop44ColorRGB
 90
      255
102
RTVSPost2010PropOp44
 70
     1
102
RTVSPost2010Prop45
280
     0
102
RTVSPost2010PropOp45
 70
     1
102
RTVSPost2010Prop46
 90
       50
102
RTVSPost2010PropOp46
 70
     1
102
RTVSPost2010Prop47
 90
       50
102
RTVSPost2010PropOp47
 70
     1
102
RTVSPost2010Prop48
 90
       50
102
RTVSPost2010PropOp48
 70
     1
102
RTVSPost2010Prop49
280
     0
102
RTVSPost2010PropOp49
 70
     1
102
RTVSPost2010Prop50
 90
       50
102
RTVSPost2010PropOp50
 70
     1
102
RTVSPost2010Prop51ColorIndex
 90
      256
102
RTVSPost2010Prop51ColorRGB
 90
-16777216
102
RTVSPost2010PropOp51
 70
     0
102
RTVSPost2010Prop52
140
1.0
102
RTVSPost2010PropOp52
 70
     0
102
RTVSPost2010Prop53
 90
        2
102
RTVSPost2010PropOp53
 70
     1
102
RTVSPost2010Prop54
  1
strokes_ogs.tif
102
RTVSPost2010PropOp54
 70
     1
102
RTVSPost2010Prop55
280
     0
102
RTVSPost2010PropOp55
 70
     1
102
RTVSPost2010Prop56
140
1.0
102
RTVSPost2010PropOp56
 70
     1
102
RTVSPost2010Prop57
140
1.0
102
RTVSPost2010PropOp57
 70
     1
102
RTVSPropertyOp0
 70
     1
102
RTVSPropertyOp1
 70
     1
102
RTVSPropertyOp2
 70
     1
102
RTVSPropertyOp3
 70
     1
102
RTVSPropertyOp4
 70
     1
102
RTVSPropertyOp5
 70
     1
102
RTVSPropertyOp6
 70
     1
102
RTVSPropertyOp7
 70
     1
102
RTVSPropertyOp8
 70
     1
102
RTVSPropertyOp9
 70
     1
102
RTVSPropertyOp10
 70
     1
102
RTVSPropertyOp11
 70
     1
102
RTVSPropertyOp12
 70
     1
102
RTVSPropertyOp13
 70
     1
102
RTVSPropertyOp14
 70
     1
102
RTVSPropertyOp15
 70
     1
102
RTVSPropertyOp16
 70
     1
102
RTVSPropertyOp17
 70
     1
102
RTVSPropertyOp18
 70
     1
102
RTVSPropertyOp19
 70
     1
102
RTVSPropertyOp20
 70
     1
102
RTVSPropertyOp21
 70
     1
102
RTVSPropertyOp22
 70
     1
102
RTVSPropertyOp23
 70
     1
102
RTVSPropertyOp24
 70
     1
102
RTVSPropertyOp25
 70
     1
102
RTVSPropertyOp26
 70
     1
102
RTVSPropertyOp27
 70
     1
102
RTVSPropertyOp28
 70
     1
102
RTVSPropertyOp29
 70
     1
102
RTVSPropertyOp30
 70
     1
102
RTVSPropertyOp31
 70
     1
102
RTVSPropertyOp32
 70
     1
102
RTVSPropertyOp33
 70
     1
102
RTVSPropertyOp34
 70
     1
102
RTVSPropertyOp35
 70
     1
102
RTVSPropertyOp36
 70
     1
102
RTVSPropertyOp37
 70
     1
102
RTVSPropertyOp38
 70
     1
102
RTVSPropertyOp39
 70
     1
102
RTVSPropertyOp40
 70
     1
102
RTVSPropertyOp41
 70
     1
102
RTVSPropertyOp42
 70
     1
102
RTVSPropertyOp43
 70
     1
102
RTVSPropertyOp44
 70
     1
102
RTVSPropertyOp45
 70
     1
102
RTVSPropertyOp46
 70
     1
102
RTVSPropertyOp47
 70
     1
102
RTVSPropertyOp48
 70
     1
102
RTVSPropertyOp49
 70
     1
102
RTVSPropertyOp50
 70
     1
102
RTVSPropertyOp51
 70
     0
102
RTVSPropertyOp52
 70
     0
102
RTVSPropertyOp53
 70
     1
102
RTVSPropertyOp54
 70
     1
102
RTVSPropertyOp55
 70
     1
102
RTVSPropertyOp56
 70
     1
102
RTVSPropertyOp57
 70
     1
102
RTVSPropertyOp58
 70
     1
102
RTVSPropertyOp59
 70
     1
102
RTVSPropertyOp60
 70
     1
102
RTVSPropertyOp61
 70
     1
102
RTVSPropertyOp62
 70
     1
  0
XRECORD
  5
2B2
102
{ACAD_REACTORS
330
2B1
102
}
330
2B1
100
AcDbXrecord
280
     1
102
RTVSPost2010Prop28
280
     0
102
RTVSPost2010PropOp28
 70
     1
102
RTVSPost2010Prop29
280
     1
102
RTVSPost2010PropOp29
 70
     1
102
RTVSPost2010Prop30
280
     1
102
RTVSPost2010PropOp30
 70
     1
102
RTVSPost2010Prop31
280
     0
102
RTVSPost2010PropOp31
 70
     1
102
RTVSPost2010Prop32
280
     0
102
RTVSPost2010PropOp32
 70
     1
102
RTVSPost2010Prop33
280
     0
102
RTVSPost2010PropOp33
 70
     1
102
RTVSPost2010Prop34
280
     0
102
RTVSPost2010PropOp34
 70
     1
102
RTVSPost2010Prop35
280
     0
102
RTVSPost2010PropOp35
 70
     1
102
RTVSPost2010Prop36
280
     0
102
RTVSPost2010PropOp36
 70
     1
102
RTVSPost2010Prop37
 90
       50
102
RTVSPost2010PropOp37
 70
     1
102
RTVSPost2010Prop38
140
0.0
102
RTVSPost2010PropOp38
 70
     1
102
RTVSPost2010Prop39
140
1.0
102
RTVSPost2010PropOp39
 70
     1
102
RTVSPost2010Prop40
 90
        0
102
RTVSPost2010PropOp40
 70
     1
102
RTVSPost2010Prop41ColorIndex
 90
       18
102
RTVSPost2010Prop41ColorRGB
 90
        0
102
RTVSPost2010PropOp41
 70
     1
102
RTVSPost2010Prop42
 90
       50
102
RTVSPost2010PropOp42
 70
     1
102
RTVSPost2010Prop43
 90
        3
102
RTVSPost2010PropOp43
 70
     1
102
RTVSPost2010Prop44ColorIndex
 90
        5
102
RTVSPost2010Prop44ColorRGB
 90
      255
102
RTVSPost2010PropOp44
 70
     1
102
RTVSPost2010Prop45
280
     0
102
RTVSPost2010PropOp45
 70
     1
102
RTVSPost2010Prop46
 90
       50
102
RTVSPost2010PropOp46
 70
     1
102
RTVSPost2010Prop47
 90
       50
102
RTVSPost2010PropOp47
 70
     1
102
RTVSPost2010Prop48
 90
       50
102
RTVSPost2010PropOp48
 70
     1
102
RTVSPost2010Prop49
280
     0
102
RTVSPost2010PropOp49
 70
     1
102
RTVSPost2010Prop50
 90
       50
102
RTVSPost2010PropOp50
 70
     1
102
RTVSPost2010Prop51ColorIndex
 90
      256
102
RTVSPost2010Prop51ColorRGB
 90
-16777216
102
RTVSPost2010PropOp51
 70
     0
102
RTVSPost2010Prop52
140
1.0
102
RTVSPost2010PropOp52
 70
     0
102
RTVSPost2010Prop53
 90
        2
102
RTVSPost2010PropOp53
 70
     1
102
RTVSPost2010Prop54
  1
strokes_ogs.tif
102
RTVSPost2010PropOp54
 70
     1
102
RTVSPost2010Prop55
280
     0
102
RTVSPost2010PropOp55
 70
     1
102
RTVSPost2010Prop56
140
1.0
102
RTVSPost2010PropOp56
 70
     1
102
RTVSPost2010Prop57
140
1.0
102
RTVSPost2010PropOp57
 70
     1
102
RTVSPropertyOp0
 70
     1
102
RTVSPropertyOp1
 70
     1
102
RTVSPropertyOp2
 70
     1
102
RTVSPropertyOp3
 70
     1
102
RTVSPropertyOp4
 70
     1
102
RTVSPropertyOp5
 70
     1
102
RTVSPropertyOp6
 70
     1
102
RTVSPropertyOp7
 70
     1
102
RTVSPropertyOp8
 70
     1
102
RTVSPropertyOp9
 70
     1
102
RTVSPropertyOp10
 70
     1
102
RTVSPropertyOp11
 70
     1
102
RTVSPropertyOp12
 70
     1
102
RTVSPropertyOp13
 70
     1
102
RTVSPropertyOp14
 70
     1
102
RTVSPropertyOp15
 70
     1
102
RTVSPropertyOp16
 70
     1
102
RTVSPropertyOp17
 70
     1
102
RTVSPropertyOp18
 70
     1
102
RTVSPropertyOp19
 70
     1
102
RTVSPropertyOp20
 70
     1
102
RTVSPropertyOp21
 70
     1
102
RTVSPropertyOp22
 70
     1
102
RTVSPropertyOp23
 70
     1
102
RTVSPropertyOp24
 70
     1
102
RTVSPropertyOp25
 70
     1
102
RTVSPropertyOp26
 70
     1
102
RTVSPropertyOp27
 70
     1
102
RTVSPropertyOp28
 70
     1
102
RTVSPropertyOp29
 70
     1
102
RTVSPropertyOp30
 70
     1
102
RTVSPropertyOp31
 70
     1
102
RTVSPropertyOp32
 70
     1
102
RTVSPropertyOp33
 70
     1
102
RTVSPropertyOp34
 70
     1
102
RTVSPropertyOp35
 70
     1
102
RTVSPropertyOp36
 70
     1
102
RTVSPropertyOp37
 70
     1
102
RTVSPropertyOp38
 70
     1
102
RTVSPropertyOp39
 70
     1
102
RTVSPropertyOp40
 70
     1
102
RTVSPropertyOp41
 70
     1
102
RTVSPropertyOp42
 70
     1
102
RTVSPropertyOp43
 70
     1
102
RTVSPropertyOp44
 70
     1
102
RTVSPropertyOp45
 70
     1
102
RTVSPropertyOp46
 70
     1
102
RTVSPropertyOp47
 70
     1
102
RTVSPropertyOp48
 70
     1
102
RTVSPropertyOp49
 70
     1
102
RTVSPropertyOp50
 70
     1
102
RTVSPropertyOp51
 70
     0
102
RTVSPropertyOp52
 70
     0
102
RTVSPropertyOp53
 70
     1
102
RTVSPropertyOp54
 70
     1
102
RTVSPropertyOp55
 70
     1
102
RTVSPropertyOp56
 70
     1
102
RTVSPropertyOp57
 70
     1
102
RTVSPropertyOp58
 70
     1
102
RTVSPropertyOp59
 70
     1
102
RTVSPropertyOp60
 70
     1
102
RTVSPropertyOp61
 70
     1
102
RTVSPropertyOp62
 70
     1
  0
XRECORD
  5
2B4
102
{ACAD_REACTORS
330
2B3
102
}
330
2B3
100
AcDbXrecord
280
     1
102
RTVSPost2010Prop28
280
     0
102
RTVSPost2010PropOp28
 70
     1
102
RTVSPost2010Prop29
280
     1
102
RTVSPost2010PropOp29
 70
     1
102
RTVSPost2010Prop30
280
     1
102
RTVSPost2010PropOp30
 70
     1
102
RTVSPost2010Prop31
280
     0
102
RTVSPost2010PropOp31
 70
     1
102
RTVSPost2010Prop32
280
     0
102
RTVSPost2010PropOp32
 70
     1
102
RTVSPost2010Prop33
280
     0
102
RTVSPost2010PropOp33
 70
     1
102
RTVSPost2010Prop34
280
     0
102
RTVSPost2010PropOp34
 70
     1
102
RTVSPost2010Prop35
280
     0
102
RTVSPost2010PropOp35
 70
     1
102
RTVSPost2010Prop36
280
     0
102
RTVSPost2010PropOp36
 70
     1
102
RTVSPost2010Prop37
 90
       50
102
RTVSPost2010PropOp37
 70
     1
102
RTVSPost2010Prop38
140
0.0
102
RTVSPost2010PropOp38
 70
     1
102
RTVSPost2010Prop39
140
1.0
102
RTVSPost2010PropOp39
 70
     1
102
RTVSPost2010Prop40
 90
        0
102
RTVSPost2010PropOp40
 70
     1
102
RTVSPost2010Prop41ColorIndex
 90
       18
102
RTVSPost2010Prop41ColorRGB
 90
        0
102
RTVSPost2010PropOp41
 70
     1
102
RTVSPost2010Prop42
 90
       50
102
RTVSPost2010PropOp42
 70
     1
102
RTVSPost2010Prop43
 90
        3
102
RTVSPost2010PropOp43
 70
     1
102
RTVSPost2010Prop44ColorIndex
 90
        5
102
RTVSPost2010Prop44ColorRGB
 90
      255
102
RTVSPost2010PropOp44
 70
     1
102
RTVSPost2010Prop45
280
     0
102
RTVSPost2010PropOp45
 70
     1
102
RTVSPost2010Prop46
 90
       50
102
RTVSPost2010PropOp46
 70
     1
102
RTVSPost2010Prop47
 90
       50
102
RTVSPost2010PropOp47
 70
     1
102
RTVSPost2010Prop48
 90
       50
102
RTVSPost2010PropOp48
 70
     1
102
RTVSPost2010Prop49
280
     0
102
RTVSPost2010PropOp49
 70
     1
102
RTVSPost2010Prop50
 90
       50
102
RTVSPost2010PropOp50
 70
     1
102
RTVSPost2010Prop51ColorIndex
 90
      256
102
RTVSPost2010Prop51ColorRGB
 90
-16777216
102
RTVSPost2010PropOp51
 70
     0
102
RTVSPost2010Prop52
140
1.0
102
RTVSPost2010PropOp52
 70
     0
102
RTVSPost2010Prop53
 90
        2
102
RTVSPost2010PropOp53
 70
     1
102
RTVSPost2010Prop54
  1
strokes_ogs.tif
102
RTVSPost2010PropOp54
 70
     1
102
RTVSPost2010Prop55
280
     0
102
RTVSPost2010PropOp55
 70
     1
102
RTVSPost2010Prop56
140
1.0
102
RTVSPost2010PropOp56
 70
     1
102
RTVSPost2010Prop57
140
1.0
102
RTVSPost2010PropOp57
 70
     1
102
RTVSPropertyOp0
 70
     1
102
RTVSPropertyOp1
 70
     1
102
RTVSPropertyOp2
 70
     1
102
RTVSPropertyOp3
 70
     1
102
RTVSPropertyOp4
 70
     1
102
RTVSPropertyOp5
 70
     1
102
RTVSPropertyOp6
 70
     1
102
RTVSPropertyOp7
 70
     1
102
RTVSPropertyOp8
 70
     1
102
RTVSPropertyOp9
 70
     1
102
RTVSPropertyOp10
 70
     1
102
RTVSPropertyOp11
 70
     1
102
RTVSPropertyOp12
 70
     1
102
RTVSPropertyOp13
 70
     1
102
RTVSPropertyOp14
 70
     1
102
RTVSPropertyOp15
 70
     1
102
RTVSPropertyOp16
 70
     1
102
RTVSPropertyOp17
 70
     1
102
RTVSPropertyOp18
 70
     1
102
RTVSPropertyOp19
 70
     1
102
RTVSPropertyOp20
 70
     1
102
RTVSPropertyOp21
 70
     1
102
RTVSPropertyOp22
 70
     1
102
RTVSPropertyOp23
 70
     1
102
RTVSPropertyOp24
 70
     1
102
RTVSPropertyOp25
 70
     1
102
RTVSPropertyOp26
 70
     1
102
RTVSPropertyOp27
 70
     1
102
RTVSPropertyOp28
 70
     1
102
RTVSPropertyOp29
 70
     1
102
RTVSPropertyOp30
 70
     1
102
RTVSPropertyOp31
 70
     1
102
RTVSPropertyOp32
 70
     1
102
RTVSPropertyOp33
 70
     1
102
RTVSPropertyOp34
 70
     1
102
RTVSPropertyOp35
 70
     1
102
RTVSPropertyOp36
 70
     1
102
RTVSPropertyOp37
 70
     1
102
RTVSPropertyOp38
 70
     1
102
RTVSPropertyOp39
 70
     1
102
RTVSPropertyOp40
 70
     1
102
RTVSPropertyOp41
 70
     1
102
RTVSPropertyOp42
 70
     1
102
RTVSPropertyOp43
 70
     1
102
RTVSPropertyOp44
 70
     1
102
RTVSPropertyOp45
 70
     1
102
RTVSPropertyOp46
 70
     1
102
RTVSPropertyOp47
 70
     1
102
RTVSPropertyOp48
 70
     1
102
RTVSPropertyOp49
 70
     1
102
RTVSPropertyOp50
 70
     1
102
RTVSPropertyOp51
 70
     0
102
RTVSPropertyOp52
 70
     0
102
RTVSPropertyOp53
 70
     1
102
RTVSPropertyOp54
 70
     1
102
RTVSPropertyOp55
 70
     1
102
RTVSPropertyOp56
 70
     1
102
RTVSPropertyOp57
 70
     1
102
RTVSPropertyOp58
 70
     1
102
RTVSPropertyOp59
 70
     1
102
RTVSPropertyOp60
 70
     1
102
RTVSPropertyOp61
 70
     1
102
RTVSPropertyOp62
 70
     1
  0
XRECORD
  5
2C4
102
{ACAD_REACTORS
330
2C3
102
}
330
2C3
100
AcDbXrecord
280
     1
102
RTVSPost2010Prop28
280
     0
102
RTVSPost2010PropOp28
 70
     0
102
RTVSPost2010Prop29
280
     1
102
RTVSPost2010PropOp29
 70
     0
102
RTVSPost2010Prop30
280
     1
102
RTVSPost2010PropOp30
 70
     0
102
RTVSPost2010Prop31
280
     0
102
RTVSPost2010PropOp31
 70
     0
102
RTVSPost2010Prop32
280
     0
102
RTVSPost2010PropOp32
 70
     0
102
RTVSPost2010Prop33
280
     0
102
RTVSPost2010PropOp33
 70
     0
102
RTVSPost2010Prop34
280
     0
102
RTVSPost2010PropOp34
 70
     0
102
RTVSPost2010Prop35
280
     0
102
RTVSPost2010PropOp35
 70
     0
102
RTVSPost2010Prop36
280
     0
102
RTVSPost2010PropOp36
 70
     0
102
RTVSPost2010Prop37
 90
       50
102
RTVSPost2010PropOp37
 70
     0
102
RTVSPost2010Prop38
140
0.0
102
RTVSPost2010PropOp38
 70
     0
102
RTVSPost2010Prop39
140
1.0
102
RTVSPost2010PropOp39
 70
     0
102
RTVSPost2010Prop40
 90
        0
102
RTVSPost2010PropOp40
 70
     0
102
RTVSPost2010Prop41ColorIndex
 90
       18
102
RTVSPost2010Prop41ColorRGB
 90
        0
102
RTVSPost2010PropOp41
 70
     0
102
RTVSPost2010Prop42
 90
       50
102
RTVSPost2010PropOp42
 70
     0
102
RTVSPost2010Prop43
 90
        3
102
RTVSPost2010PropOp43
 70
     0
102
RTVSPost2010Prop44ColorIndex
 90
        5
102
RTVSPost2010Prop44ColorRGB
 90
      255
102
RTVSPost2010PropOp44
 70
     0
102
RTVSPost2010Prop45
280
     0
102
RTVSPost2010PropOp45
 70
     0
102
RTVSPost2010Prop46
 90
       50
102
RTVSPost2010PropOp46
 70
     0
102
RTVSPost2010Prop47
 90
       50
102
RTVSPost2010PropOp47
 70
     0
102
RTVSPost2010Prop48
 90
       50
102
RTVSPost2010PropOp48
 70
     0
102
RTVSPost2010Prop49
280
     0
102
RTVSPost2010PropOp49
 70
     0
102
RTVSPost2010Prop50
 90
       50
102
RTVSPost2010PropOp50
 70
     0
102
RTVSPost2010Prop51ColorIndex
 90
      256
102
RTVSPost2010Prop51ColorRGB
 90
-16777216
102
RTVSPost2010PropOp51
 70
     0
102
RTVSPost2010Prop52
140
1.0
102
RTVSPost2010PropOp52
 70
     0
102
RTVSPost2010Prop53
 90
        2
102
RTVSPost2010PropOp53
 70
     0
102
RTVSPost2010Prop54
  1
strokes_ogs.tif
102
RTVSPost2010PropOp54
 70
     0
102
RTVSPost2010Prop55
280
     0
102
RTVSPost2010PropOp55
 70
     0
102
RTVSPost2010Prop56
140
1.0
102
RTVSPost2010PropOp56
 70
     0
102
RTVSPost2010Prop57
140
1.0
102
RTVSPost2010PropOp57
 70
     0
102
RTVSPropertyOp0
 70
     0
102
RTVSPropertyOp1
 70
     0
102
RTVSPropertyOp2
 70
     0
102
RTVSPropertyOp3
 70
     0
102
RTVSPropertyOp4
 70
     0
102
RTVSPropertyOp5
 70
     0
102
RTVSPropertyOp6
 70
     0
102
RTVSPropertyOp7
 70
     0
102
RTVSPropertyOp8
 70
     0
102
RTVSPropertyOp9
 70
     0
102
RTVSPropertyOp10
 70
     0
102
RTVSPropertyOp11
 70
     0
102
RTVSPropertyOp12
 70
     0
102
RTVSPropertyOp13
 70
     0
102
RTVSPropertyOp14
 70
     2
102
RTVSPropertyOp15
 70
     0
102
RTVSPropertyOp16
 70
     0
102
RTVSPropertyOp17
 70
     0
102
RTVSPropertyOp18
 70
     0
102
RTVSPropertyOp19
 70
     0
102
RTVSPropertyOp20
 70
     0
102
RTVSPropertyOp21
 70
     0
102
RTVSPropertyOp22
 70
     0
102
RTVSPropertyOp23
 70
     0
102
RTVSPropertyOp24
 70
     0
102
RTVSPropertyOp25
 70
     0
102
RTVSPropertyOp26
 70
     0
102
RTVSPropertyOp27
 70
     0
102
RTVSPropertyOp28
 70
     0
102
RTVSPropertyOp29
 70
     0
102
RTVSPropertyOp30
 70
     0
102
RTVSPropertyOp31
 70
     0
102
RTVSPropertyOp32
 70
     0
102
RTVSPropertyOp33
 70
     0
102
RTVSPropertyOp34
 70
     0
102
RTVSPropertyOp35
 70
     0
102
RTVSPropertyOp36
 70
     0
102
RTVSPropertyOp37
 70
     0
102
RTVSPropertyOp38
 70
     0
102
RTVSPropertyOp39
 70
     0
102
RTVSPropertyOp40
 70
     0
102
RTVSPropertyOp41
 70
     0
102
RTVSPropertyOp42
 70
     0
102
RTVSPropertyOp43
 70
     0
102
RTVSPropertyOp44
 70
     0
102
RTVSPropertyOp45
 70
     0
102
RTVSPropertyOp46
 70
     0
102
RTVSPropertyOp47
 70
     0
102
RTVSPropertyOp48
 70
     0
102
RTVSPropertyOp49
 70
     0
102
RTVSPropertyOp50
 70
     0
102
RTVSPropertyOp51
 70
     0
102
RTVSPropertyOp52
 70
     0
102
RTVSPropertyOp53
 70
     0
102
RTVSPropertyOp54
 70
     0
102
RTVSPropertyOp55
 70
     0
102
RTVSPropertyOp56
 70
     0
102
RTVSPropertyOp57
 70
     0
102
RTVSPropertyOp58
 70
     1
102
RTVSPropertyOp59
 70
     1
102
RTVSPropertyOp60
 70
     1
102
RTVSPropertyOp61
 70
     1
102
RTVSPropertyOp62
 70
     1
  0
XRECORD
  5
2BC
102
{ACAD_REACTORS
330
2BB
102
}
330
2BB
100
AcDbXrecord
280
     1
102
RTVSPost2010Prop28
280
     0
102
RTVSPost2010PropOp28
 70
     1
102
RTVSPost2010Prop29
280
     1
102
RTVSPost2010PropOp29
 70
     1
102
RTVSPost2010Prop30
280
     1
102
RTVSPost2010PropOp30
 70
     1
102
RTVSPost2010Prop31
280
     0
102
RTVSPost2010PropOp31
 70
     1
102
RTVSPost2010Prop32
280
     0
102
RTVSPost2010PropOp32
 70
     1
102
RTVSPost2010Prop33
280
     0
102
RTVSPost2010PropOp33
 70
     1
102
RTVSPost2010Prop34
280
     0
102
RTVSPost2010PropOp34
 70
     1
102
RTVSPost2010Prop35
280
     0
102
RTVSPost2010PropOp35
 70
     1
102
RTVSPost2010Prop36
280
     0
102
RTVSPost2010PropOp36
 70
     1
102
RTVSPost2010Prop37
 90
       50
102
RTVSPost2010PropOp37
 70
     1
102
RTVSPost2010Prop38
140
0.0
102
RTVSPost2010PropOp38
 70
     1
102
RTVSPost2010Prop39
140
1.0
102
RTVSPost2010PropOp39
 70
     1
102
RTVSPost2010Prop40
 90
        0
102
RTVSPost2010PropOp40
 70
     1
102
RTVSPost2010Prop41ColorIndex
 90
       18
102
RTVSPost2010Prop41ColorRGB
 90
        0
102
RTVSPost2010PropOp41
 70
     1
102
RTVSPost2010Prop42
 90
       50
102
RTVSPost2010PropOp42
 70
     1
102
RTVSPost2010Prop43
 90
        3
102
RTVSPost2010PropOp43
 70
     1
102
RTVSPost2010Prop44ColorIndex
 90
        5
102
RTVSPost2010Prop44ColorRGB
 90
      255
102
RTVSPost2010PropOp44
 70
     1
102
RTVSPost2010Prop45
280
     0
102
RTVSPost2010PropOp45
 70
     1
102
RTVSPost2010Prop46
 90
       50
102
RTVSPost2010PropOp46
 70
     1
102
RTVSPost2010Prop47
 90
       50
102
RTVSPost2010PropOp47
 70
     1
102
RTVSPost2010Prop48
 90
       50
102
RTVSPost2010PropOp48
 70
     1
102
RTVSPost2010Prop49
280
     0
102
RTVSPost2010PropOp49
 70
     1
102
RTVSPost2010Prop50
 90
       50
102
RTVSPost2010PropOp50
 70
     1
102
RTVSPost2010Prop51ColorIndex
 90
      256
102
RTVSPost2010Prop51ColorRGB
 90
-16777216
102
RTVSPost2010PropOp51
 70
     0
102
RTVSPost2010Prop52
140
1.0
102
RTVSPost2010PropOp52
 70
     0
102
RTVSPost2010Prop53
 90
        2
102
RTVSPost2010PropOp53
 70
     1
102
RTVSPost2010Prop54
  1
strokes_ogs.tif
102
RTVSPost2010PropOp54
 70
     1
102
RTVSPost2010Prop55
280
     0
102
RTVSPost2010PropOp55
 70
     1
102
RTVSPost2010Prop56
140
1.0
102
RTVSPost2010PropOp56
 70
     1
102
RTVSPost2010Prop57
140
1.0
102
RTVSPost2010PropOp57
 70
     1
102
RTVSPropertyOp0
 70
     1
102
RTVSPropertyOp1
 70
     1
102
RTVSPropertyOp2
 70
     1
102
RTVSPropertyOp3
 70
     1
102
RTVSPropertyOp4
 70
     1
102
RTVSPropertyOp5
 70
     1
102
RTVSPropertyOp6
 70
     1
102
RTVSPropertyOp7
 70
     1
102
RTVSPropertyOp8
 70
     1
102
RTVSPropertyOp9
 70
     1
102
RTVSPropertyOp10
 70
     1
102
RTVSPropertyOp11
 70
     1
102
RTVSPropertyOp12
 70
     1
102
RTVSPropertyOp13
 70
     1
102
RTVSPropertyOp14
 70
     1
102
RTVSPropertyOp15
 70
     1
102
RTVSPropertyOp16
 70
     1
102
RTVSPropertyOp17
 70
     1
102
RTVSPropertyOp18
 70
     1
102
RTVSPropertyOp19
 70
     1
102
RTVSPropertyOp20
 70
     1
102
RTVSPropertyOp21
 70
     1
102
RTVSPropertyOp22
 70
     1
102
RTVSPropertyOp23
 70
     1
102
RTVSPropertyOp24
 70
     1
102
RTVSPropertyOp25
 70
     1
102
RTVSPropertyOp26
 70
     1
102
RTVSPropertyOp27
 70
     1
102
RTVSPropertyOp28
 70
     1
102
RTVSPropertyOp29
 70
     1
102
RTVSPropertyOp30
 70
     1
102
RTVSPropertyOp31
 70
     1
102
RTVSPropertyOp32
 70
     1
102
RTVSPropertyOp33
 70
     1
102
RTVSPropertyOp34
 70
     1
102
RTVSPropertyOp35
 70
     1
102
RTVSPropertyOp36
 70
     1
102
RTVSPropertyOp37
 70
     1
102
RTVSPropertyOp38
 70
     1
102
RTVSPropertyOp39
 70
     1
102
RTVSPropertyOp40
 70
     1
102
RTVSPropertyOp41
 70
     1
102
RTVSPropertyOp42
 70
     1
102
RTVSPropertyOp43
 70
     1
102
RTVSPropertyOp44
 70
     1
102
RTVSPropertyOp45
 70
     1
102
RTVSPropertyOp46
 70
     1
102
RTVSPropertyOp47
 70
     1
102
RTVSPropertyOp48
 70
     1
102
RTVSPropertyOp49
 70
     1
102
RTVSPropertyOp50
 70
     1
102
RTVSPropertyOp51
 70
     0
102
RTVSPropertyOp52
 70
     0
102
RTVSPropertyOp53
 70
     1
102
RTVSPropertyOp54
 70
     1
102
RTVSPropertyOp55
 70
     1
102
RTVSPropertyOp56
 70
     1
102
RTVSPropertyOp57
 70
     1
102
RTVSPropertyOp58
 70
     1
102
RTVSPropertyOp59
 70
     1
102
RTVSPropertyOp60
 70
     1
102
RTVSPropertyOp61
 70
     1
102
RTVSPropertyOp62
 70
     1
  0
XRECORD
  5
2A0
102
{ACAD_REACTORS
330
29F
102
}
330
29F
100
AcDbXrecord
280
     1
102
RTVSPost2010Prop28
280
     0
102
RTVSPost2010PropOp28
 70
     1
102
RTVSPost2010Prop29
280
     1
102
RTVSPost2010PropOp29
 70
     1
102
RTVSPost2010Prop30
280
     1
102
RTVSPost2010PropOp30
 70
     1
102
RTVSPost2010Prop31
280
     0
102
RTVSPost2010PropOp31
 70
     1
102
RTVSPost2010Prop32
280
     0
102
RTVSPost2010PropOp32
 70
     1
102
RTVSPost2010Prop33
280
     0
102
RTVSPost2010PropOp33
 70
     1
102
RTVSPost2010Prop34
280
     0
102
RTVSPost2010PropOp34
 70
     1
102
RTVSPost2010Prop35
280
     0
102
RTVSPost2010PropOp35
 70
     1
102
RTVSPost2010Prop36
280
     0
102
RTVSPost2010PropOp36
 70
     1
102
RTVSPost2010Prop37
 90
       50
102
RTVSPost2010PropOp37
 70
     1
102
RTVSPost2010Prop38
140
0.0
102
RTVSPost2010PropOp38
 70
     1
102
RTVSPost2010Prop39
140
1.0
102
RTVSPost2010PropOp39
 70
     1
102
RTVSPost2010Prop40
 90
        0
102
RTVSPost2010PropOp40
 70
     1
102
RTVSPost2010Prop41ColorIndex
 90
       18
102
RTVSPost2010Prop41ColorRGB
 90
        0
102
RTVSPost2010PropOp41
 70
     1
102
RTVSPost2010Prop42
 90
       50
102
RTVSPost2010PropOp42
 70
     1
102
RTVSPost2010Prop43
 90
        3
102
RTVSPost2010PropOp43
 70
     1
102
RTVSPost2010Prop44ColorIndex
 90
        5
102
RTVSPost2010Prop44ColorRGB
 90
      255
102
RTVSPost2010PropOp44
 70
     1
102
RTVSPost2010Prop45
280
     0
102
RTVSPost2010PropOp45
 70
     1
102
RTVSPost2010Prop46
 90
       50
102
RTVSPost2010PropOp46
 70
     1
102
RTVSPost2010Prop47
 90
       50
102
RTVSPost2010PropOp47
 70
     1
102
RTVSPost2010Prop48
 90
       50
102
RTVSPost2010PropOp48
 70
     1
102
RTVSPost2010Prop49
280
     0
102
RTVSPost2010PropOp49
 70
     1
102
RTVSPost2010Prop50
 90
       50
102
RTVSPost2010PropOp50
 70
     1
102
RTVSPost2010Prop51ColorIndex
 90
      256
102
RTVSPost2010Prop51ColorRGB
 90
-16777216
102
RTVSPost2010PropOp51
 70
     0
102
RTVSPost2010Prop52
140
1.0
102
RTVSPost2010PropOp52
 70
     0
102
RTVSPost2010Prop53
 90
        2
102
RTVSPost2010PropOp53
 70
     1
102
RTVSPost2010Prop54
  1
strokes_ogs.tif
102
RTVSPost2010PropOp54
 70
     1
102
RTVSPost2010Prop55
280
     0
102
RTVSPost2010PropOp55
 70
     1
102
RTVSPost2010Prop56
140
1.0
102
RTVSPost2010PropOp56
 70
     1
102
RTVSPost2010Prop57
140
1.0
102
RTVSPost2010PropOp57
 70
     1
102
RTVSPropertyOp0
 70
     1
102
RTVSPropertyOp1
 70
     1
102
RTVSPropertyOp2
 70
     1
102
RTVSPropertyOp3
 70
     1
102
RTVSPropertyOp4
 70
     1
102
RTVSPropertyOp5
 70
     1
102
RTVSPropertyOp6
 70
     1
102
RTVSPropertyOp7
 70
     1
102
RTVSPropertyOp8
 70
     1
102
RTVSPropertyOp9
 70
     1
102
RTVSPropertyOp10
 70
     1
102
RTVSPropertyOp11
 70
     1
102
RTVSPropertyOp12
 70
     1
102
RTVSPropertyOp13
 70
     1
102
RTVSPropertyOp14
 70
     1
102
RTVSPropertyOp15
 70
     1
102
RTVSPropertyOp16
 70
     1
102
RTVSPropertyOp17
 70
     1
102
RTVSPropertyOp18
 70
     1
102
RTVSPropertyOp19
 70
     1
102
RTVSPropertyOp20
 70
     1
102
RTVSPropertyOp21
 70
     1
102
RTVSPropertyOp22
 70
     1
102
RTVSPropertyOp23
 70
     1
102
RTVSPropertyOp24
 70
     1
102
RTVSPropertyOp25
 70
     1
102
RTVSPropertyOp26
 70
     1
102
RTVSPropertyOp27
 70
     1
102
RTVSPropertyOp28
 70
     1
102
RTVSPropertyOp29
 70
     1
102
RTVSPropertyOp30
 70
     1
102
RTVSPropertyOp31
 70
     1
102
RTVSPropertyOp32
 70
     1
102
RTVSPropertyOp33
 70
     1
102
RTVSPropertyOp34
 70
     1
102
RTVSPropertyOp35
 70
     1
102
RTVSPropertyOp36
 70
     1
102
RTVSPropertyOp37
 70
     1
102
RTVSPropertyOp38
 70
     1
102
RTVSPropertyOp39
 70
     1
102
RTVSPropertyOp40
 70
     1
102
RTVSPropertyOp41
 70
     1
102
RTVSPropertyOp42
 70
     1
102
RTVSPropertyOp43
 70
     1
102
RTVSPropertyOp44
 70
     1
102
RTVSPropertyOp45
 70
     1
102
RTVSPropertyOp46
 70
     1
102
RTVSPropertyOp47
 70
     1
102
RTVSPropertyOp48
 70
     1
102
RTVSPropertyOp49
 70
     1
102
RTVSPropertyOp50
 70
     1
102
RTVSPropertyOp51
 70
     0
102
RTVSPropertyOp52
 70
     0
102
RTVSPropertyOp53
 70
     1
102
RTVSPropertyOp54
 70
     1
102
RTVSPropertyOp55
 70
     1
102
RTVSPropertyOp56
 70
     1
102
RTVSPropertyOp57
 70
     1
102
RTVSPropertyOp58
 70
     1
102
RTVSPropertyOp59
 70
     1
102
RTVSPropertyOp60
 70
     1
102
RTVSPropertyOp61
 70
     1
102
RTVSPropertyOp62
 70
     1
  0
XRECORD
  5
2A2
102
{ACAD_REACTORS
330
2A1
102
}
330
2A1
100
AcDbXrecord
280
     1
102
RTVSPost2010Prop28
280
     0
102
RTVSPost2010PropOp28
 70
     1
102
RTVSPost2010Prop29
280
     1
102
RTVSPost2010PropOp29
 70
     1
102
RTVSPost2010Prop30
280
     1
102
RTVSPost2010PropOp30
 70
     1
102
RTVSPost2010Prop31
280
     0
102
RTVSPost2010PropOp31
 70
     1
102
RTVSPost2010Prop32
280
     0
102
RTVSPost2010PropOp32
 70
     1
102
RTVSPost2010Prop33
280
     0
102
RTVSPost2010PropOp33
 70
     1
102
RTVSPost2010Prop34
280
     0
102
RTVSPost2010PropOp34
 70
     1
102
RTVSPost2010Prop35
280
     0
102
RTVSPost2010PropOp35
 70
     1
102
RTVSPost2010Prop36
280
     0
102
RTVSPost2010PropOp36
 70
     1
102
RTVSPost2010Prop37
 90
       50
102
RTVSPost2010PropOp37
 70
     1
102
RTVSPost2010Prop38
140
0.0
102
RTVSPost2010PropOp38
 70
     1
102
RTVSPost2010Prop39
140
1.0
102
RTVSPost2010PropOp39
 70
     1
102
RTVSPost2010Prop40
 90
        0
102
RTVSPost2010PropOp40
 70
     1
102
RTVSPost2010Prop41ColorIndex
 90
       18
102
RTVSPost2010Prop41ColorRGB
 90
        0
102
RTVSPost2010PropOp41
 70
     1
102
RTVSPost2010Prop42
 90
       50
102
RTVSPost2010PropOp42
 70
     1
102
RTVSPost2010Prop43
 90
        3
102
RTVSPost2010PropOp43
 70
     1
102
RTVSPost2010Prop44ColorIndex
 90
        5
102
RTVSPost2010Prop44ColorRGB
 90
      255
102
RTVSPost2010PropOp44
 70
     1
102
RTVSPost2010Prop45
280
     0
102
RTVSPost2010PropOp45
 70
     1
102
RTVSPost2010Prop46
 90
       50
102
RTVSPost2010PropOp46
 70
     1
102
RTVSPost2010Prop47
 90
       50
102
RTVSPost2010PropOp47
 70
     1
102
RTVSPost2010Prop48
 90
       50
102
RTVSPost2010PropOp48
 70
     1
102
RTVSPost2010Prop49
280
     0
102
RTVSPost2010PropOp49
 70
     1
102
RTVSPost2010Prop50
 90
       50
102
RTVSPost2010PropOp50
 70
     1
102
RTVSPost2010Prop51ColorIndex
 90
      256
102
RTVSPost2010Prop51ColorRGB
 90
-16777216
102
RTVSPost2010PropOp51
 70
     0
102
RTVSPost2010Prop52
140
1.0
102
RTVSPost2010PropOp52
 70
     0
102
RTVSPost2010Prop53
 90
        2
102
RTVSPost2010PropOp53
 70
     1
102
RTVSPost2010Prop54
  1
strokes_ogs.tif
102
RTVSPost2010PropOp54
 70
     1
102
RTVSPost2010Prop55
280
     0
102
RTVSPost2010PropOp55
 70
     1
102
RTVSPost2010Prop56
140
1.0
102
RTVSPost2010PropOp56
 70
     1
102
RTVSPost2010Prop57
140
1.0
102
RTVSPost2010PropOp57
 70
     1
102
RTVSPropertyOp0
 70
     1
102
RTVSPropertyOp1
 70
     1
102
RTVSPropertyOp2
 70
     1
102
RTVSPropertyOp3
 70
     1
102
RTVSPropertyOp4
 70
     1
102
RTVSPropertyOp5
 70
     1
102
RTVSPropertyOp6
 70
     1
102
RTVSPropertyOp7
 70
     1
102
RTVSPropertyOp8
 70
     1
102
RTVSPropertyOp9
 70
     1
102
RTVSPropertyOp10
 70
     1
102
RTVSPropertyOp11
 70
     1
102
RTVSPropertyOp12
 70
     1
102
RTVSPropertyOp13
 70
     1
102
RTVSPropertyOp14
 70
     1
102
RTVSPropertyOp15
 70
     1
102
RTVSPropertyOp16
 70
     1
102
RTVSPropertyOp17
 70
     1
102
RTVSPropertyOp18
 70
     1
102
RTVSPropertyOp19
 70
     1
102
RTVSPropertyOp20
 70
     1
102
RTVSPropertyOp21
 70
     1
102
RTVSPropertyOp22
 70
     1
102
RTVSPropertyOp23
 70
     1
102
RTVSPropertyOp24
 70
     1
102
RTVSPropertyOp25
 70
     1
102
RTVSPropertyOp26
 70
     1
102
RTVSPropertyOp27
 70
     1
102
RTVSPropertyOp28
 70
     1
102
RTVSPropertyOp29
 70
     1
102
RTVSPropertyOp30
 70
     1
102
RTVSPropertyOp31
 70
     1
102
RTVSPropertyOp32
 70
     1
102
RTVSPropertyOp33
 70
     1
102
RTVSPropertyOp34
 70
     1
102
RTVSPropertyOp35
 70
     1
102
RTVSPropertyOp36
 70
     1
102
RTVSPropertyOp37
 70
     1
102
RTVSPropertyOp38
 70
     1
102
RTVSPropertyOp39
 70
     1
102
RTVSPropertyOp40
 70
     1
102
RTVSPropertyOp41
 70
     1
102
RTVSPropertyOp42
 70
     1
102
RTVSPropertyOp43
 70
     1
102
RTVSPropertyOp44
 70
     1
102
RTVSPropertyOp45
 70
     1
102
RTVSPropertyOp46
 70
     1
102
RTVSPropertyOp47
 70
     1
102
RTVSPropertyOp48
 70
     1
102
RTVSPropertyOp49
 70
     1
102
RTVSPropertyOp50
 70
     1
102
RTVSPropertyOp51
 70
     0
102
RTVSPropertyOp52
 70
     0
102
RTVSPropertyOp53
 70
     1
102
RTVSPropertyOp54
 70
     1
102
RTVSPropertyOp55
 70
     1
102
RTVSPropertyOp56
 70
     1
102
RTVSPropertyOp57
 70
     1
102
RTVSPropertyOp58
 70
     1
102
RTVSPropertyOp59
 70
     1
102
RTVSPropertyOp60
 70
     1
102
RTVSPropertyOp61
 70
     1
102
RTVSPropertyOp62
 70
     1
  0
XRECORD
  5
2A4
102
{ACAD_REACTORS
330
2A3
102
}
330
2A3
100
AcDbXrecord
280
     1
102
RTVSPost2010Prop28
280
     0
102
RTVSPost2010PropOp28
 70
     1
102
RTVSPost2010Prop29
280
     1
102
RTVSPost2010PropOp29
 70
     1
102
RTVSPost2010Prop30
280
     1
102
RTVSPost2010PropOp30
 70
     1
102
RTVSPost2010Prop31
280
     0
102
RTVSPost2010PropOp31
 70
     1
102
RTVSPost2010Prop32
280
     0
102
RTVSPost2010PropOp32
 70
     1
102
RTVSPost2010Prop33
280
     0
102
RTVSPost2010PropOp33
 70
     1
102
RTVSPost2010Prop34
280
     0
102
RTVSPost2010PropOp34
 70
     1
102
RTVSPost2010Prop35
280
     0
102
RTVSPost2010PropOp35
 70
     1
102
RTVSPost2010Prop36
280
     0
102
RTVSPost2010PropOp36
 70
     1
102
RTVSPost2010Prop37
 90
       50
102
RTVSPost2010PropOp37
 70
     1
102
RTVSPost2010Prop38
140
0.0
102
RTVSPost2010PropOp38
 70
     1
102
RTVSPost2010Prop39
140
1.0
102
RTVSPost2010PropOp39
 70
     1
102
RTVSPost2010Prop40
 90
        0
102
RTVSPost2010PropOp40
 70
     1
102
RTVSPost2010Prop41ColorIndex
 90
       18
102
RTVSPost2010Prop41ColorRGB
 90
        0
102
RTVSPost2010PropOp41
 70
     1
102
RTVSPost2010Prop42
 90
       50
102
RTVSPost2010PropOp42
 70
     1
102
RTVSPost2010Prop43
 90
        3
102
RTVSPost2010PropOp43
 70
     1
102
RTVSPost2010Prop44ColorIndex
 90
        5
102
RTVSPost2010Prop44ColorRGB
 90
      255
102
RTVSPost2010PropOp44
 70
     1
102
RTVSPost2010Prop45
280
     0
102
RTVSPost2010PropOp45
 70
     1
102
RTVSPost2010Prop46
 90
       50
102
RTVSPost2010PropOp46
 70
     1
102
RTVSPost2010Prop47
 90
       50
102
RTVSPost2010PropOp47
 70
     1
102
RTVSPost2010Prop48
 90
       50
102
RTVSPost2010PropOp48
 70
     1
102
RTVSPost2010Prop49
280
     0
102
RTVSPost2010PropOp49
 70
     1
102
RTVSPost2010Prop50
 90
       50
102
RTVSPost2010PropOp50
 70
     1
102
RTVSPost2010Prop51ColorIndex
 90
      256
102
RTVSPost2010Prop51ColorRGB
 90
-16777216
102
RTVSPost2010PropOp51
 70
     0
102
RTVSPost2010Prop52
140
1.0
102
RTVSPost2010PropOp52
 70
     0
102
RTVSPost2010Prop53
 90
        2
102
RTVSPost2010PropOp53
 70
     1
102
RTVSPost2010Prop54
  1
strokes_ogs.tif
102
RTVSPost2010PropOp54
 70
     1
102
RTVSPost2010Prop55
280
     0
102
RTVSPost2010PropOp55
 70
     1
102
RTVSPost2010Prop56
140
1.0
102
RTVSPost2010PropOp56
 70
     1
102
RTVSPost2010Prop57
140
1.0
102
RTVSPost2010PropOp57
 70
     1
102
RTVSPropertyOp0
 70
     1
102
RTVSPropertyOp1
 70
     1
102
RTVSPropertyOp2
 70
     1
102
RTVSPropertyOp3
 70
     1
102
RTVSPropertyOp4
 70
     1
102
RTVSPropertyOp5
 70
     1
102
RTVSPropertyOp6
 70
     1
102
RTVSPropertyOp7
 70
     1
102
RTVSPropertyOp8
 70
     1
102
RTVSPropertyOp9
 70
     1
102
RTVSPropertyOp10
 70
     1
102
RTVSPropertyOp11
 70
     1
102
RTVSPropertyOp12
 70
     1
102
RTVSPropertyOp13
 70
     1
102
RTVSPropertyOp14
 70
     1
102
RTVSPropertyOp15
 70
     1
102
RTVSPropertyOp16
 70
     1
102
RTVSPropertyOp17
 70
     1
102
RTVSPropertyOp18
 70
     1
102
RTVSPropertyOp19
 70
     1
102
RTVSPropertyOp20
 70
     1
102
RTVSPropertyOp21
 70
     1
102
RTVSPropertyOp22
 70
     1
102
RTVSPropertyOp23
 70
     1
102
RTVSPropertyOp24
 70
     1
102
RTVSPropertyOp25
 70
     1
102
RTVSPropertyOp26
 70
     1
102
RTVSPropertyOp27
 70
     1
102
RTVSPropertyOp28
 70
     1
102
RTVSPropertyOp29
 70
     1
102
RTVSPropertyOp30
 70
     1
102
RTVSPropertyOp31
 70
     1
102
RTVSPropertyOp32
 70
     1
102
RTVSPropertyOp33
 70
     1
102
RTVSPropertyOp34
 70
     1
102
RTVSPropertyOp35
 70
     1
102
RTVSPropertyOp36
 70
     1
102
RTVSPropertyOp37
 70
     1
102
RTVSPropertyOp38
 70
     1
102
RTVSPropertyOp39
 70
     1
102
RTVSPropertyOp40
 70
     1
102
RTVSPropertyOp41
 70
     1
102
RTVSPropertyOp42
 70
     1
102
RTVSPropertyOp43
 70
     1
102
RTVSPropertyOp44
 70
     1
102
RTVSPropertyOp45
 70
     1
102
RTVSPropertyOp46
 70
     1
102
RTVSPropertyOp47
 70
     1
102
RTVSPropertyOp48
 70
     1
102
RTVSPropertyOp49
 70
     1
102
RTVSPropertyOp50
 70
     1
102
RTVSPropertyOp51
 70
     0
102
RTVSPropertyOp52
 70
     0
102
RTVSPropertyOp53
 70
     1
102
RTVSPropertyOp54
 70
     1
102
RTVSPropertyOp55
 70
     1
102
RTVSPropertyOp56
 70
     1
102
RTVSPropertyOp57
 70
     1
102
RTVSPropertyOp58
 70
     1
102
RTVSPropertyOp59
 70
     1
102
RTVSPropertyOp60
 70
     1
102
RTVSPropertyOp61
 70
     1
102
RTVSPropertyOp62
 70
     1
  0
XRECORD
  5
2A6
102
{ACAD_REACTORS
330
2A5
102
}
330
2A5
100
AcDbXrecord
280
     1
102
RTVSPost2010Prop28
280
     0
102
RTVSPost2010PropOp28
 70
     1
102
RTVSPost2010Prop29
280
     1
102
RTVSPost2010PropOp29
 70
     1
102
RTVSPost2010Prop30
280
     1
102
RTVSPost2010PropOp30
 70
     1
102
RTVSPost2010Prop31
280
     0
102
RTVSPost2010PropOp31
 70
     1
102
RTVSPost2010Prop32
280
     0
102
RTVSPost2010PropOp32
 70
     1
102
RTVSPost2010Prop33
280
     0
102
RTVSPost2010PropOp33
 70
     1
102
RTVSPost2010Prop34
280
     0
102
RTVSPost2010PropOp34
 70
     1
102
RTVSPost2010Prop35
280
     0
102
RTVSPost2010PropOp35
 70
     1
102
RTVSPost2010Prop36
280
     0
102
RTVSPost2010PropOp36
 70
     1
102
RTVSPost2010Prop37
 90
       50
102
RTVSPost2010PropOp37
 70
     1
102
RTVSPost2010Prop38
140
0.0
102
RTVSPost2010PropOp38
 70
     1
102
RTVSPost2010Prop39
140
1.0
102
RTVSPost2010PropOp39
 70
     1
102
RTVSPost2010Prop40
 90
        0
102
RTVSPost2010PropOp40
 70
     1
102
RTVSPost2010Prop41ColorIndex
 90
       18
102
RTVSPost2010Prop41ColorRGB
 90
        0
102
RTVSPost2010PropOp41
 70
     1
102
RTVSPost2010Prop42
 90
       50
102
RTVSPost2010PropOp42
 70
     1
102
RTVSPost2010Prop43
 90
        3
102
RTVSPost2010PropOp43
 70
     1
102
RTVSPost2010Prop44ColorIndex
 90
        5
102
RTVSPost2010Prop44ColorRGB
 90
      255
102
RTVSPost2010PropOp44
 70
     1
102
RTVSPost2010Prop45
280
     0
102
RTVSPost2010PropOp45
 70
     1
102
RTVSPost2010Prop46
 90
       50
102
RTVSPost2010PropOp46
 70
     1
102
RTVSPost2010Prop47
 90
       50
102
RTVSPost2010PropOp47
 70
     1
102
RTVSPost2010Prop48
 90
       50
102
RTVSPost2010PropOp48
 70
     1
102
RTVSPost2010Prop49
280
     0
102
RTVSPost2010PropOp49
 70
     1
102
RTVSPost2010Prop50
 90
       50
102
RTVSPost2010PropOp50
 70
     1
102
RTVSPost2010Prop51ColorIndex
 90
      256
102
RTVSPost2010Prop51ColorRGB
 90
-16777216
102
RTVSPost2010PropOp51
 70
     0
102
RTVSPost2010Prop52
140
1.0
102
RTVSPost2010PropOp52
 70
     0
102
RTVSPost2010Prop53
 90
        2
102
RTVSPost2010PropOp53
 70
     1
102
RTVSPost2010Prop54
  1
strokes_ogs.tif
102
RTVSPost2010PropOp54
 70
     1
102
RTVSPost2010Prop55
280
     0
102
RTVSPost2010PropOp55
 70
     1
102
RTVSPost2010Prop56
140
1.0
102
RTVSPost2010PropOp56
 70
     1
102
RTVSPost2010Prop57
140
1.0
102
RTVSPost2010PropOp57
 70
     1
102
RTVSPropertyOp0
 70
     1
102
RTVSPropertyOp1
 70
     1
102
RTVSPropertyOp2
 70
     1
102
RTVSPropertyOp3
 70
     1
102
RTVSPropertyOp4
 70
     1
102
RTVSPropertyOp5
 70
     1
102
RTVSPropertyOp6
 70
     1
102
RTVSPropertyOp7
 70
     1
102
RTVSPropertyOp8
 70
     1
102
RTVSPropertyOp9
 70
     1
102
RTVSPropertyOp10
 70
     1
102
RTVSPropertyOp11
 70
     1
102
RTVSPropertyOp12
 70
     1
102
RTVSPropertyOp13
 70
     1
102
RTVSPropertyOp14
 70
     1
102
RTVSPropertyOp15
 70
     1
102
RTVSPropertyOp16
 70
     1
102
RTVSPropertyOp17
 70
     1
102
RTVSPropertyOp18
 70
     1
102
RTVSPropertyOp19
 70
     1
102
RTVSPropertyOp20
 70
     1
102
RTVSPropertyOp21
 70
     1
102
RTVSPropertyOp22
 70
     1
102
RTVSPropertyOp23
 70
     1
102
RTVSPropertyOp24
 70
     1
102
RTVSPropertyOp25
 70
     1
102
RTVSPropertyOp26
 70
     1
102
RTVSPropertyOp27
 70
     1
102
RTVSPropertyOp28
 70
     1
102
RTVSPropertyOp29
 70
     1
102
RTVSPropertyOp30
 70
     1
102
RTVSPropertyOp31
 70
     1
102
RTVSPropertyOp32
 70
     1
102
RTVSPropertyOp33
 70
     1
102
RTVSPropertyOp34
 70
     1
102
RTVSPropertyOp35
 70
     1
102
RTVSPropertyOp36
 70
     1
102
RTVSPropertyOp37
 70
     1
102
RTVSPropertyOp38
 70
     1
102
RTVSPropertyOp39
 70
     1
102
RTVSPropertyOp40
 70
     1
102
RTVSPropertyOp41
 70
     1
102
RTVSPropertyOp42
 70
     1
102
RTVSPropertyOp43
 70
     1
102
RTVSPropertyOp44
 70
     1
102
RTVSPropertyOp45
 70
     1
102
RTVSPropertyOp46
 70
     1
102
RTVSPropertyOp47
 70
     1
102
RTVSPropertyOp48
 70
     1
102
RTVSPropertyOp49
 70
     1
102
RTVSPropertyOp50
 70
     1
102
RTVSPropertyOp51
 70
     0
102
RTVSPropertyOp52
 70
     0
102
RTVSPropertyOp53
 70
     1
102
RTVSPropertyOp54
 70
     1
102
RTVSPropertyOp55
 70
     1
102
RTVSPropertyOp56
 70
     1
102
RTVSPropertyOp57
 70
     1
102
RTVSPropertyOp58
 70
     1
102
RTVSPropertyOp59
 70
     1
102
RTVSPropertyOp60
 70
     1
102
RTVSPropertyOp61
 70
     1
102
RTVSPropertyOp62
 70
     1
  0
XRECORD
  5
2AC
102
{ACAD_REACTORS
330
2AB
102
}
330
2AB
100
AcDbXrecord
280
     1
102
RTVSPost2010Prop28
280
     0
102
RTVSPost2010PropOp28
 70
     1
102
RTVSPost2010Prop29
280
     1
102
RTVSPost2010PropOp29
 70
     1
102
RTVSPost2010Prop30
280
     1
102
RTVSPost2010PropOp30
 70
     1
102
RTVSPost2010Prop31
280
     0
102
RTVSPost2010PropOp31
 70
     1
102
RTVSPost2010Prop32
280
     0
102
RTVSPost2010PropOp32
 70
     1
102
RTVSPost2010Prop33
280
     0
102
RTVSPost2010PropOp33
 70
     1
102
RTVSPost2010Prop34
280
     0
102
RTVSPost2010PropOp34
 70
     1
102
RTVSPost2010Prop35
280
     0
102
RTVSPost2010PropOp35
 70
     1
102
RTVSPost2010Prop36
280
     0
102
RTVSPost2010PropOp36
 70
     1
102
RTVSPost2010Prop37
 90
       50
102
RTVSPost2010PropOp37
 70
     1
102
RTVSPost2010Prop38
140
0.0
102
RTVSPost2010PropOp38
 70
     1
102
RTVSPost2010Prop39
140
1.0
102
RTVSPost2010PropOp39
 70
     1
102
RTVSPost2010Prop40
 90
        0
102
RTVSPost2010PropOp40
 70
     1
102
RTVSPost2010Prop41ColorIndex
 90
       18
102
RTVSPost2010Prop41ColorRGB
 90
        0
102
RTVSPost2010PropOp41
 70
     1
102
RTVSPost2010Prop42
 90
       50
102
RTVSPost2010PropOp42
 70
     1
102
RTVSPost2010Prop43
 90
        3
102
RTVSPost2010PropOp43
 70
     1
102
RTVSPost2010Prop44ColorIndex
 90
        5
102
RTVSPost2010Prop44ColorRGB
 90
      255
102
RTVSPost2010PropOp44
 70
     1
102
RTVSPost2010Prop45
280
     0
102
RTVSPost2010PropOp45
 70
     1
102
RTVSPost2010Prop46
 90
       50
102
RTVSPost2010PropOp46
 70
     1
102
RTVSPost2010Prop47
 90
       50
102
RTVSPost2010PropOp47
 70
     1
102
RTVSPost2010Prop48
 90
       50
102
RTVSPost2010PropOp48
 70
     1
102
RTVSPost2010Prop49
280
     0
102
RTVSPost2010PropOp49
 70
     1
102
RTVSPost2010Prop50
 90
       50
102
RTVSPost2010PropOp50
 70
     1
102
RTVSPost2010Prop51ColorIndex
 90
      256
102
RTVSPost2010Prop51ColorRGB
 90
-16777216
102
RTVSPost2010PropOp51
 70
     0
102
RTVSPost2010Prop52
140
1.0
102
RTVSPost2010PropOp52
 70
     0
102
RTVSPost2010Prop53
 90
        2
102
RTVSPost2010PropOp53
 70
     1
102
RTVSPost2010Prop54
  1
strokes_ogs.tif
102
RTVSPost2010PropOp54
 70
     1
102
RTVSPost2010Prop55
280
     0
102
RTVSPost2010PropOp55
 70
     1
102
RTVSPost2010Prop56
140
1.0
102
RTVSPost2010PropOp56
 70
     1
102
RTVSPost2010Prop57
140
1.0
102
RTVSPost2010PropOp57
 70
     1
102
RTVSPropertyOp0
 70
     1
102
RTVSPropertyOp1
 70
     1
102
RTVSPropertyOp2
 70
     1
102
RTVSPropertyOp3
 70
     1
102
RTVSPropertyOp4
 70
     1
102
RTVSPropertyOp5
 70
     1
102
RTVSPropertyOp6
 70
     1
102
RTVSPropertyOp7
 70
     1
102
RTVSPropertyOp8
 70
     1
102
RTVSPropertyOp9
 70
     1
102
RTVSPropertyOp10
 70
     1
102
RTVSPropertyOp11
 70
     1
102
RTVSPropertyOp12
 70
     1
102
RTVSPropertyOp13
 70
     1
102
RTVSPropertyOp14
 70
     1
102
RTVSPropertyOp15
 70
     1
102
RTVSPropertyOp16
 70
     1
102
RTVSPropertyOp17
 70
     1
102
RTVSPropertyOp18
 70
     1
102
RTVSPropertyOp19
 70
     1
102
RTVSPropertyOp20
 70
     1
102
RTVSPropertyOp21
 70
     1
102
RTVSPropertyOp22
 70
     1
102
RTVSPropertyOp23
 70
     1
102
RTVSPropertyOp24
 70
     1
102
RTVSPropertyOp25
 70
     1
102
RTVSPropertyOp26
 70
     1
102
RTVSPropertyOp27
 70
     1
102
RTVSPropertyOp28
 70
     1
102
RTVSPropertyOp29
 70
     1
102
RTVSPropertyOp30
 70
     1
102
RTVSPropertyOp31
 70
     1
102
RTVSPropertyOp32
 70
     1
102
RTVSPropertyOp33
 70
     1
102
RTVSPropertyOp34
 70
     1
102
RTVSPropertyOp35
 70
     1
102
RTVSPropertyOp36
 70
     1
102
RTVSPropertyOp37
 70
     1
102
RTVSPropertyOp38
 70
     1
102
RTVSPropertyOp39
 70
     1
102
RTVSPropertyOp40
 70
     1
102
RTVSPropertyOp41
 70
     1
102
RTVSPropertyOp42
 70
     1
102
RTVSPropertyOp43
 70
     1
102
RTVSPropertyOp44
 70
     1
102
RTVSPropertyOp45
 70
     1
102
RTVSPropertyOp46
 70
     1
102
RTVSPropertyOp47
 70
     1
102
RTVSPropertyOp48
 70
     1
102
RTVSPropertyOp49
 70
     1
102
RTVSPropertyOp50
 70
     1
102
RTVSPropertyOp51
 70
     0
102
RTVSPropertyOp52
 70
     0
102
RTVSPropertyOp53
 70
     1
102
RTVSPropertyOp54
 70
     1
102
RTVSPropertyOp55
 70
     1
102
RTVSPropertyOp56
 70
     1
102
RTVSPropertyOp57
 70
     1
102
RTVSPropertyOp58
 70
     1
102
RTVSPropertyOp59
 70
     1
102
RTVSPropertyOp60
 70
     1
102
RTVSPropertyOp61
 70
     1
102
RTVSPropertyOp62
 70
     1
  0
XRECORD
  5
2C0
102
{ACAD_REACTORS
330
2BF
102
}
330
2BF
100
AcDbXrecord
280
     1
102
RTVSPost2010Prop28
280
     0
102
RTVSPost2010PropOp28
 70
     0
102
RTVSPost2010Prop29
280
     1
102
RTVSPost2010PropOp29
 70
     0
102
RTVSPost2010Prop30
280
     1
102
RTVSPost2010PropOp30
 70
     0
102
RTVSPost2010Prop31
280
     0
102
RTVSPost2010PropOp31
 70
     0
102
RTVSPost2010Prop32
280
     0
102
RTVSPost2010PropOp32
 70
     0
102
RTVSPost2010Prop33
280
     0
102
RTVSPost2010PropOp33
 70
     0
102
RTVSPost2010Prop34
280
     0
102
RTVSPost2010PropOp34
 70
     0
102
RTVSPost2010Prop35
280
     0
102
RTVSPost2010PropOp35
 70
     0
102
RTVSPost2010Prop36
280
     0
102
RTVSPost2010PropOp36
 70
     0
102
RTVSPost2010Prop37
 90
       50
102
RTVSPost2010PropOp37
 70
     0
102
RTVSPost2010Prop38
140
0.0
102
RTVSPost2010PropOp38
 70
     0
102
RTVSPost2010Prop39
140
1.0
102
RTVSPost2010PropOp39
 70
     0
102
RTVSPost2010Prop40
 90
        0
102
RTVSPost2010PropOp40
 70
     0
102
RTVSPost2010Prop41ColorIndex
 90
       18
102
RTVSPost2010Prop41ColorRGB
 90
        0
102
RTVSPost2010PropOp41
 70
     0
102
RTVSPost2010Prop42
 90
       50
102
RTVSPost2010PropOp42
 70
     0
102
RTVSPost2010Prop43
 90
        3
102
RTVSPost2010PropOp43
 70
     0
102
RTVSPost2010Prop44ColorIndex
 90
        5
102
RTVSPost2010Prop44ColorRGB
 90
      255
102
RTVSPost2010PropOp44
 70
     0
102
RTVSPost2010Prop45
280
     0
102
RTVSPost2010PropOp45
 70
     0
102
RTVSPost2010Prop46
 90
       50
102
RTVSPost2010PropOp46
 70
     0
102
RTVSPost2010Prop47
 90
       50
102
RTVSPost2010PropOp47
 70
     0
102
RTVSPost2010Prop48
 90
       50
102
RTVSPost2010PropOp48
 70
     0
102
RTVSPost2010Prop49
280
     0
102
RTVSPost2010PropOp49
 70
     0
102
RTVSPost2010Prop50
 90
       50
102
RTVSPost2010PropOp50
 70
     0
102
RTVSPost2010Prop51ColorIndex
 90
      256
102
RTVSPost2010Prop51ColorRGB
 90
-16777216
102
RTVSPost2010PropOp51
 70
     0
102
RTVSPost2010Prop52
140
1.0
102
RTVSPost2010PropOp52
 70
     0
102
RTVSPost2010Prop53
 90
        2
102
RTVSPost2010PropOp53
 70
     0
102
RTVSPost2010Prop54
  1
strokes_ogs.tif
102
RTVSPost2010PropOp54
 70
     0
102
RTVSPost2010Prop55
280
     0
102
RTVSPost2010PropOp55
 70
     0
102
RTVSPost2010Prop56
140
1.0
102
RTVSPost2010PropOp56
 70
     0
102
RTVSPost2010Prop57
140
1.0
102
RTVSPost2010PropOp57
 70
     0
102
RTVSPropertyOp0
 70
     0
102
RTVSPropertyOp1
 70
     0
102
RTVSPropertyOp2
 70
     0
102
RTVSPropertyOp3
 70
     0
102
RTVSPropertyOp4
 70
     0
102
RTVSPropertyOp5
 70
     0
102
RTVSPropertyOp6
 70
     0
102
RTVSPropertyOp7
 70
     0
102
RTVSPropertyOp8
 70
     0
102
RTVSPropertyOp9
 70
     0
102
RTVSPropertyOp10
 70
     0
102
RTVSPropertyOp11
 70
     0
102
RTVSPropertyOp12
 70
     0
102
RTVSPropertyOp13
 70
     0
102
RTVSPropertyOp14
 70
     2
102
RTVSPropertyOp15
 70
     0
102
RTVSPropertyOp16
 70
     0
102
RTVSPropertyOp17
 70
     0
102
RTVSPropertyOp18
 70
     0
102
RTVSPropertyOp19
 70
     0
102
RTVSPropertyOp20
 70
     0
102
RTVSPropertyOp21
 70
     0
102
RTVSPropertyOp22
 70
     0
102
RTVSPropertyOp23
 70
     0
102
RTVSPropertyOp24
 70
     0
102
RTVSPropertyOp25
 70
     0
102
RTVSPropertyOp26
 70
     0
102
RTVSPropertyOp27
 70
     0
102
RTVSPropertyOp28
 70
     0
102
RTVSPropertyOp29
 70
     0
102
RTVSPropertyOp30
 70
     0
102
RTVSPropertyOp31
 70
     0
102
RTVSPropertyOp32
 70
     0
102
RTVSPropertyOp33
 70
     0
102
RTVSPropertyOp34
 70
     0
102
RTVSPropertyOp35
 70
     0
102
RTVSPropertyOp36
 70
     0
102
RTVSPropertyOp37
 70
     0
102
RTVSPropertyOp38
 70
     0
102
RTVSPropertyOp39
 70
     0
102
RTVSPropertyOp40
 70
     0
102
RTVSPropertyOp41
 70
     0
102
RTVSPropertyOp42
 70
     0
102
RTVSPropertyOp43
 70
     0
102
RTVSPropertyOp44
 70
     0
102
RTVSPropertyOp45
 70
     0
102
RTVSPropertyOp46
 70
     0
102
RTVSPropertyOp47
 70
     0
102
RTVSPropertyOp48
 70
     0
102
RTVSPropertyOp49
 70
     0
102
RTVSPropertyOp50
 70
     0
102
RTVSPropertyOp51
 70
     0
102
RTVSPropertyOp52
 70
     0
102
RTVSPropertyOp53
 70
     0
102
RTVSPropertyOp54
 70
     0
102
RTVSPropertyOp55
 70
     0
102
RTVSPropertyOp56
 70
     0
102
RTVSPropertyOp57
 70
     0
102
RTVSPropertyOp58
 70
     1
102
RTVSPropertyOp59
 70
     1
102
RTVSPropertyOp60
 70
     1
102
RTVSPropertyOp61
 70
     1
102
RTVSPropertyOp62
 70
     1
  0
XRECORD
  5
2BA
102
{ACAD_REACTORS
330
2B9
102
}
330
2B9
100
AcDbXrecord
280
     1
102
RTVSPost2010Prop28
280
     0
102
RTVSPost2010PropOp28
 70
     1
102
RTVSPost2010Prop29
280
     1
102
RTVSPost2010PropOp29
 70
     1
102
RTVSPost2010Prop30
280
     1
102
RTVSPost2010PropOp30
 70
     1
102
RTVSPost2010Prop31
280
     0
102
RTVSPost2010PropOp31
 70
     1
102
RTVSPost2010Prop32
280
     0
102
RTVSPost2010PropOp32
 70
     1
102
RTVSPost2010Prop33
280
     0
102
RTVSPost2010PropOp33
 70
     1
102
RTVSPost2010Prop34
280
     0
102
RTVSPost2010PropOp34
 70
     1
102
RTVSPost2010Prop35
280
     0
102
RTVSPost2010PropOp35
 70
     1
102
RTVSPost2010Prop36
280
     0
102
RTVSPost2010PropOp36
 70
     1
102
RTVSPost2010Prop37
 90
       50
102
RTVSPost2010PropOp37
 70
     1
102
RTVSPost2010Prop38
140
0.0
102
RTVSPost2010PropOp38
 70
     1
102
RTVSPost2010Prop39
140
1.0
102
RTVSPost2010PropOp39
 70
     1
102
RTVSPost2010Prop40
 90
        0
102
RTVSPost2010PropOp40
 70
     1
102
RTVSPost2010Prop41ColorIndex
 90
       18
102
RTVSPost2010Prop41ColorRGB
 90
        0
102
RTVSPost2010PropOp41
 70
     1
102
RTVSPost2010Prop42
 90
       50
102
RTVSPost2010PropOp42
 70
     1
102
RTVSPost2010Prop43
 90
        3
102
RTVSPost2010PropOp43
 70
     1
102
RTVSPost2010Prop44ColorIndex
 90
        5
102
RTVSPost2010Prop44ColorRGB
 90
      255
102
RTVSPost2010PropOp44
 70
     1
102
RTVSPost2010Prop45
280
     0
102
RTVSPost2010PropOp45
 70
     1
102
RTVSPost2010Prop46
 90
       50
102
RTVSPost2010PropOp46
 70
     1
102
RTVSPost2010Prop47
 90
       50
102
RTVSPost2010PropOp47
 70
     1
102
RTVSPost2010Prop48
 90
       50
102
RTVSPost2010PropOp48
 70
     1
102
RTVSPost2010Prop49
280
     0
102
RTVSPost2010PropOp49
 70
     1
102
RTVSPost2010Prop50
 90
       50
102
RTVSPost2010PropOp50
 70
     1
102
RTVSPost2010Prop51ColorIndex
 90
      256
102
RTVSPost2010Prop51ColorRGB
 90
-16777216
102
RTVSPost2010PropOp51
 70
     0
102
RTVSPost2010Prop52
140
1.0
102
RTVSPost2010PropOp52
 70
     0
102
RTVSPost2010Prop53
 90
        2
102
RTVSPost2010PropOp53
 70
     1
102
RTVSPost2010Prop54
  1
strokes_ogs.tif
102
RTVSPost2010PropOp54
 70
     1
102
RTVSPost2010Prop55
280
     0
102
RTVSPost2010PropOp55
 70
     1
102
RTVSPost2010Prop56
140
1.0
102
RTVSPost2010PropOp56
 70
     1
102
RTVSPost2010Prop57
140
1.0
102
RTVSPost2010PropOp57
 70
     1
102
RTVSPropertyOp0
 70
     1
102
RTVSPropertyOp1
 70
     1
102
RTVSPropertyOp2
 70
     1
102
RTVSPropertyOp3
 70
     1
102
RTVSPropertyOp4
 70
     1
102
RTVSPropertyOp5
 70
     1
102
RTVSPropertyOp6
 70
     1
102
RTVSPropertyOp7
 70
     1
102
RTVSPropertyOp8
 70
     1
102
RTVSPropertyOp9
 70
     1
102
RTVSPropertyOp10
 70
     1
102
RTVSPropertyOp11
 70
     1
102
RTVSPropertyOp12
 70
     1
102
RTVSPropertyOp13
 70
     1
102
RTVSPropertyOp14
 70
     1
102
RTVSPropertyOp15
 70
     1
102
RTVSPropertyOp16
 70
     1
102
RTVSPropertyOp17
 70
     1
102
RTVSPropertyOp18
 70
     1
102
RTVSPropertyOp19
 70
     1
102
RTVSPropertyOp20
 70
     1
102
RTVSPropertyOp21
 70
     1
102
RTVSPropertyOp22
 70
     1
102
RTVSPropertyOp23
 70
     1
102
RTVSPropertyOp24
 70
     1
102
RTVSPropertyOp25
 70
     1
102
RTVSPropertyOp26
 70
     1
102
RTVSPropertyOp27
 70
     1
102
RTVSPropertyOp28
 70
     1
102
RTVSPropertyOp29
 70
     1
102
RTVSPropertyOp30
 70
     1
102
RTVSPropertyOp31
 70
     1
102
RTVSPropertyOp32
 70
     1
102
RTVSPropertyOp33
 70
     1
102
RTVSPropertyOp34
 70
     1
102
RTVSPropertyOp35
 70
     1
102
RTVSPropertyOp36
 70
     1
102
RTVSPropertyOp37
 70
     1
102
RTVSPropertyOp38
 70
     1
102
RTVSPropertyOp39
 70
     1
102
RTVSPropertyOp40
 70
     1
102
RTVSPropertyOp41
 70
     1
102
RTVSPropertyOp42
 70
     1
102
RTVSPropertyOp43
 70
     1
102
RTVSPropertyOp44
 70
     1
102
RTVSPropertyOp45
 70
     1
102
RTVSPropertyOp46
 70
     1
102
RTVSPropertyOp47
 70
     1
102
RTVSPropertyOp48
 70
     1
102
RTVSPropertyOp49
 70
     1
102
RTVSPropertyOp50
 70
     1
102
RTVSPropertyOp51
 70
     0
102
RTVSPropertyOp52
 70
     0
102
RTVSPropertyOp53
 70
     1
102
RTVSPropertyOp54
 70
     1
102
RTVSPropertyOp55
 70
     1
102
RTVSPropertyOp56
 70
     1
102
RTVSPropertyOp57
 70
     1
102
RTVSPropertyOp58
 70
     1
102
RTVSPropertyOp59
 70
     1
102
RTVSPropertyOp60
 70
     1
102
RTVSPropertyOp61
 70
     1
102
RTVSPropertyOp62
 70
     1
  0
XRECORD
  5
2C2
102
{ACAD_REACTORS
330
2C1
102
}
330
2C1
100
AcDbXrecord
280
     1
102
RTVSPost2010Prop28
280
     0
102
RTVSPost2010PropOp28
 70
     0
102
RTVSPost2010Prop29
280
     1
102
RTVSPost2010PropOp29
 70
     0
102
RTVSPost2010Prop30
280
     1
102
RTVSPost2010PropOp30
 70
     0
102
RTVSPost2010Prop31
280
     0
102
RTVSPost2010PropOp31
 70
     0
102
RTVSPost2010Prop32
280
     0
102
RTVSPost2010PropOp32
 70
     0
102
RTVSPost2010Prop33
280
     0
102
RTVSPost2010PropOp33
 70
     0
102
RTVSPost2010Prop34
280
     0
102
RTVSPost2010PropOp34
 70
     0
102
RTVSPost2010Prop35
280
     0
102
RTVSPost2010PropOp35
 70
     0
102
RTVSPost2010Prop36
280
     0
102
RTVSPost2010PropOp36
 70
     0
102
RTVSPost2010Prop37
 90
       50
102
RTVSPost2010PropOp37
 70
     0
102
RTVSPost2010Prop38
140
0.0
102
RTVSPost2010PropOp38
 70
     0
102
RTVSPost2010Prop39
140
1.0
102
RTVSPost2010PropOp39
 70
     0
102
RTVSPost2010Prop40
 90
        0
102
RTVSPost2010PropOp40
 70
     0
102
RTVSPost2010Prop41ColorIndex
 90
       18
102
RTVSPost2010Prop41ColorRGB
 90
        0
102
RTVSPost2010PropOp41
 70
     0
102
RTVSPost2010Prop42
 90
       50
102
RTVSPost2010PropOp42
 70
     0
102
RTVSPost2010Prop43
 90
        3
102
RTVSPost2010PropOp43
 70
     0
102
RTVSPost2010Prop44ColorIndex
 90
        5
102
RTVSPost2010Prop44ColorRGB
 90
      255
102
RTVSPost2010PropOp44
 70
     0
102
RTVSPost2010Prop45
280
     0
102
RTVSPost2010PropOp45
 70
     0
102
RTVSPost2010Prop46
 90
       50
102
RTVSPost2010PropOp46
 70
     0
102
RTVSPost2010Prop47
 90
       50
102
RTVSPost2010PropOp47
 70
     0
102
RTVSPost2010Prop48
 90
       50
102
RTVSPost2010PropOp48
 70
     0
102
RTVSPost2010Prop49
280
     0
102
RTVSPost2010PropOp49
 70
     0
102
RTVSPost2010Prop50
 90
       50
102
RTVSPost2010PropOp50
 70
     0
102
RTVSPost2010Prop51ColorIndex
 90
      256
102
RTVSPost2010Prop51ColorRGB
 90
-16777216
102
RTVSPost2010PropOp51
 70
     0
102
RTVSPost2010Prop52
140
1.0
102
RTVSPost2010PropOp52
 70
     0
102
RTVSPost2010Prop53
 90
        2
102
RTVSPost2010PropOp53
 70
     0
102
RTVSPost2010Prop54
  1
strokes_ogs.tif
102
RTVSPost2010PropOp54
 70
     0
102
RTVSPost2010Prop55
280
     0
102
RTVSPost2010PropOp55
 70
     0
102
RTVSPost2010Prop56
140
1.0
102
RTVSPost2010PropOp56
 70
     0
102
RTVSPost2010Prop57
140
1.0
102
RTVSPost2010PropOp57
 70
     0
102
RTVSPropertyOp0
 70
     0
102
RTVSPropertyOp1
 70
     0
102
RTVSPropertyOp2
 70
     0
102
RTVSPropertyOp3
 70
     0
102
RTVSPropertyOp4
 70
     0
102
RTVSPropertyOp5
 70
     0
102
RTVSPropertyOp6
 70
     0
102
RTVSPropertyOp7
 70
     0
102
RTVSPropertyOp8
 70
     0
102
RTVSPropertyOp9
 70
     0
102
RTVSPropertyOp10
 70
     0
102
RTVSPropertyOp11
 70
     0
102
RTVSPropertyOp12
 70
     0
102
RTVSPropertyOp13
 70
     0
102
RTVSPropertyOp14
 70
     2
102
RTVSPropertyOp15
 70
     0
102
RTVSPropertyOp16
 70
     0
102
RTVSPropertyOp17
 70
     0
102
RTVSPropertyOp18
 70
     0
102
RTVSPropertyOp19
 70
     0
102
RTVSPropertyOp20
 70
     0
102
RTVSPropertyOp21
 70
     0
102
RTVSPropertyOp22
 70
     0
102
RTVSPropertyOp23
 70
     0
102
RTVSPropertyOp24
 70
     0
102
RTVSPropertyOp25
 70
     0
102
RTVSPropertyOp26
 70
     0
102
RTVSPropertyOp27
 70
     0
102
RTVSPropertyOp28
 70
     0
102
RTVSPropertyOp29
 70
     0
102
RTVSPropertyOp30
 70
     0
102
RTVSPropertyOp31
 70
     0
102
RTVSPropertyOp32
 70
     0
102
RTVSPropertyOp33
 70
     0
102
RTVSPropertyOp34
 70
     0
102
RTVSPropertyOp35
 70
     0
102
RTVSPropertyOp36
 70
     0
102
RTVSPropertyOp37
 70
     0
102
RTVSPropertyOp38
 70
     0
102
RTVSPropertyOp39
 70
     0
102
RTVSPropertyOp40
 70
     0
102
RTVSPropertyOp41
 70
     0
102
RTVSPropertyOp42
 70
     0
102
RTVSPropertyOp43
 70
     0
102
RTVSPropertyOp44
 70
     0
102
RTVSPropertyOp45
 70
     0
102
RTVSPropertyOp46
 70
     0
102
RTVSPropertyOp47
 70
     0
102
RTVSPropertyOp48
 70
     0
102
RTVSPropertyOp49
 70
     0
102
RTVSPropertyOp50
 70
     0
102
RTVSPropertyOp51
 70
     0
102
RTVSPropertyOp52
 70
     0
102
RTVSPropertyOp53
 70
     0
102
RTVSPropertyOp54
 70
     0
102
RTVSPropertyOp55
 70
     0
102
RTVSPropertyOp56
 70
     0
102
RTVSPropertyOp57
 70
     0
102
RTVSPropertyOp58
 70
     1
102
RTVSPropertyOp59
 70
     1
102
RTVSPropertyOp60
 70
     1
102
RTVSPropertyOp61
 70
     1
102
RTVSPropertyOp62
 70
     1
  0
XRECORD
  5
2B0
102
{ACAD_REACTORS
330
2AF
102
}
330
2AF
100
AcDbXrecord
280
     1
102
RTVSPost2010Prop28
280
     0
102
RTVSPost2010PropOp28
 70
     1
102
RTVSPost2010Prop29
280
     1
102
RTVSPost2010PropOp29
 70
     1
102
RTVSPost2010Prop30
280
     1
102
RTVSPost2010PropOp30
 70
     1
102
RTVSPost2010Prop31
280
     0
102
RTVSPost2010PropOp31
 70
     1
102
RTVSPost2010Prop32
280
     0
102
RTVSPost2010PropOp32
 70
     1
102
RTVSPost2010Prop33
280
     0
102
RTVSPost2010PropOp33
 70
     1
102
RTVSPost2010Prop34
280
     0
102
RTVSPost2010PropOp34
 70
     1
102
RTVSPost2010Prop35
280
     0
102
RTVSPost2010PropOp35
 70
     1
102
RTVSPost2010Prop36
280
     0
102
RTVSPost2010PropOp36
 70
     1
102
RTVSPost2010Prop37
 90
       50
102
RTVSPost2010PropOp37
 70
     1
102
RTVSPost2010Prop38
140
0.0
102
RTVSPost2010PropOp38
 70
     1
102
RTVSPost2010Prop39
140
1.0
102
RTVSPost2010PropOp39
 70
     1
102
RTVSPost2010Prop40
 90
        0
102
RTVSPost2010PropOp40
 70
     1
102
RTVSPost2010Prop41ColorIndex
 90
       18
102
RTVSPost2010Prop41ColorRGB
 90
        0
102
RTVSPost2010PropOp41
 70
     1
102
RTVSPost2010Prop42
 90
       50
102
RTVSPost2010PropOp42
 70
     1
102
RTVSPost2010Prop43
 90
        3
102
RTVSPost2010PropOp43
 70
     1
102
RTVSPost2010Prop44ColorIndex
 90
        5
102
RTVSPost2010Prop44ColorRGB
 90
      255
102
RTVSPost2010PropOp44
 70
     1
102
RTVSPost2010Prop45
280
     0
102
RTVSPost2010PropOp45
 70
     1
102
RTVSPost2010Prop46
 90
       50
102
RTVSPost2010PropOp46
 70
     1
102
RTVSPost2010Prop47
 90
       50
102
RTVSPost2010PropOp47
 70
     1
102
RTVSPost2010Prop48
 90
       50
102
RTVSPost2010PropOp48
 70
     1
102
RTVSPost2010Prop49
280
     0
102
RTVSPost2010PropOp49
 70
     1
102
RTVSPost2010Prop50
 90
       50
102
RTVSPost2010PropOp50
 70
     1
102
RTVSPost2010Prop51ColorIndex
 90
      256
102
RTVSPost2010Prop51ColorRGB
 90
-16777216
102
RTVSPost2010PropOp51
 70
     0
102
RTVSPost2010Prop52
140
1.0
102
RTVSPost2010PropOp52
 70
     0
102
RTVSPost2010Prop53
 90
        2
102
RTVSPost2010PropOp53
 70
     1
102
RTVSPost2010Prop54
  1
strokes_ogs.tif
102
RTVSPost2010PropOp54
 70
     1
102
RTVSPost2010Prop55
280
     0
102
RTVSPost2010PropOp55
 70
     1
102
RTVSPost2010Prop56
140
1.0
102
RTVSPost2010PropOp56
 70
     1
102
RTVSPost2010Prop57
140
1.0
102
RTVSPost2010PropOp57
 70
     1
102
RTVSPropertyOp0
 70
     1
102
RTVSPropertyOp1
 70
     1
102
RTVSPropertyOp2
 70
     1
102
RTVSPropertyOp3
 70
     1
102
RTVSPropertyOp4
 70
     1
102
RTVSPropertyOp5
 70
     1
102
RTVSPropertyOp6
 70
     1
102
RTVSPropertyOp7
 70
     1
102
RTVSPropertyOp8
 70
     1
102
RTVSPropertyOp9
 70
     1
102
RTVSPropertyOp10
 70
     1
102
RTVSPropertyOp11
 70
     1
102
RTVSPropertyOp12
 70
     1
102
RTVSPropertyOp13
 70
     1
102
RTVSPropertyOp14
 70
     1
102
RTVSPropertyOp15
 70
     1
102
RTVSPropertyOp16
 70
     1
102
RTVSPropertyOp17
 70
     1
102
RTVSPropertyOp18
 70
     1
102
RTVSPropertyOp19
 70
     1
102
RTVSPropertyOp20
 70
     1
102
RTVSPropertyOp21
 70
     1
102
RTVSPropertyOp22
 70
     1
102
RTVSPropertyOp23
 70
     1
102
RTVSPropertyOp24
 70
     1
102
RTVSPropertyOp25
 70
     1
102
RTVSPropertyOp26
 70
     1
102
RTVSPropertyOp27
 70
     1
102
RTVSPropertyOp28
 70
     1
102
RTVSPropertyOp29
 70
     1
102
RTVSPropertyOp30
 70
     1
102
RTVSPropertyOp31
 70
     1
102
RTVSPropertyOp32
 70
     1
102
RTVSPropertyOp33
 70
     1
102
RTVSPropertyOp34
 70
     1
102
RTVSPropertyOp35
 70
     1
102
RTVSPropertyOp36
 70
     1
102
RTVSPropertyOp37
 70
     1
102
RTVSPropertyOp38
 70
     1
102
RTVSPropertyOp39
 70
     1
102
RTVSPropertyOp40
 70
     1
102
RTVSPropertyOp41
 70
     1
102
RTVSPropertyOp42
 70
     1
102
RTVSPropertyOp43
 70
     1
102
RTVSPropertyOp44
 70
     1
102
RTVSPropertyOp45
 70
     1
102
RTVSPropertyOp46
 70
     1
102
RTVSPropertyOp47
 70
     1
102
RTVSPropertyOp48
 70
     1
102
RTVSPropertyOp49
 70
     1
102
RTVSPropertyOp50
 70
     1
102
RTVSPropertyOp51
 70
     0
102
RTVSPropertyOp52
 70
     0
102
RTVSPropertyOp53
 70
     1
102
RTVSPropertyOp54
 70
     1
102
RTVSPropertyOp55
 70
     1
102
RTVSPropertyOp56
 70
     1
102
RTVSPropertyOp57
 70
     1
102
RTVSPropertyOp58
 70
     1
102
RTVSPropertyOp59
 70
     1
102
RTVSPropertyOp60
 70
     1
102
RTVSPropertyOp61
 70
     1
102
RTVSPropertyOp62
 70
     1
  0
XRECORD
  5
2CE
102
{ACAD_REACTORS
330
2CD
102
}
330
2CD
100
AcDbXrecord
280
     1
102
RTVSPost2010Prop28
280
     0
102
RTVSPost2010PropOp28
 70
     1
102
RTVSPost2010Prop29
280
     1
102
RTVSPost2010PropOp29
 70
     1
102
RTVSPost2010Prop30
280
     1
102
RTVSPost2010PropOp30
 70
     1
102
RTVSPost2010Prop31
280
     0
102
RTVSPost2010PropOp31
 70
     1
102
RTVSPost2010Prop32
280
     0
102
RTVSPost2010PropOp32
 70
     1
102
RTVSPost2010Prop33
280
     0
102
RTVSPost2010PropOp33
 70
     1
102
RTVSPost2010Prop34
280
     0
102
RTVSPost2010PropOp34
 70
     1
102
RTVSPost2010Prop35
280
     0
102
RTVSPost2010PropOp35
 70
     1
102
RTVSPost2010Prop36
280
     0
102
RTVSPost2010PropOp36
 70
     1
102
RTVSPost2010Prop37
 90
       50
102
RTVSPost2010PropOp37
 70
     1
102
RTVSPost2010Prop38
140
0.0
102
RTVSPost2010PropOp38
 70
     1
102
RTVSPost2010Prop39
140
1.0
102
RTVSPost2010PropOp39
 70
     1
102
RTVSPost2010Prop40
 90
        0
102
RTVSPost2010PropOp40
 70
     1
102
RTVSPost2010Prop41ColorIndex
 90
       18
102
RTVSPost2010Prop41ColorRGB
 90
        0
102
RTVSPost2010PropOp41
 70
     1
102
RTVSPost2010Prop42
 90
       50
102
RTVSPost2010PropOp42
 70
     1
102
RTVSPost2010Prop43
 90
        3
102
RTVSPost2010PropOp43
 70
     1
102
RTVSPost2010Prop44ColorIndex
 90
        5
102
RTVSPost2010Prop44ColorRGB
 90
      255
102
RTVSPost2010PropOp44
 70
     1
102
RTVSPost2010Prop45
280
     0
102
RTVSPost2010PropOp45
 70
     1
102
RTVSPost2010Prop46
 90
       50
102
RTVSPost2010PropOp46
 70
     1
102
RTVSPost2010Prop47
 90
       50
102
RTVSPost2010PropOp47
 70
     1
102
RTVSPost2010Prop48
 90
       50
102
RTVSPost2010PropOp48
 70
     1
102
RTVSPost2010Prop49
280
     0
102
RTVSPost2010PropOp49
 70
     1
102
RTVSPost2010Prop50
 90
       50
102
RTVSPost2010PropOp50
 70
     1
102
RTVSPost2010Prop51ColorIndex
 90
      256
102
RTVSPost2010Prop51ColorRGB
 90
-16777216
102
RTVSPost2010PropOp51
 70
     0
102
RTVSPost2010Prop52
140
1.0
102
RTVSPost2010PropOp52
 70
     0
102
RTVSPost2010Prop53
 90
        2
102
RTVSPost2010PropOp53
 70
     1
102
RTVSPost2010Prop54
  1
strokes_ogs.tif
102
RTVSPost2010PropOp54
 70
     1
102
RTVSPost2010Prop55
280
     0
102
RTVSPost2010PropOp55
 70
     1
102
RTVSPost2010Prop56
140
1.0
102
RTVSPost2010PropOp56
 70
     1
102
RTVSPost2010Prop57
140
1.0
102
RTVSPost2010PropOp57
 70
     1
102
RTVSPropertyOp0
 70
     1
102
RTVSPropertyOp1
 70
     1
102
RTVSPropertyOp2
 70
     1
102
RTVSPropertyOp3
 70
     1
102
RTVSPropertyOp4
 70
     1
102
RTVSPropertyOp5
 70
     1
102
RTVSPropertyOp6
 70
     1
102
RTVSPropertyOp7
 70
     1
102
RTVSPropertyOp8
 70
     1
102
RTVSPropertyOp9
 70
     1
102
RTVSPropertyOp10
 70
     1
102
RTVSPropertyOp11
 70
     1
102
RTVSPropertyOp12
 70
     1
102
RTVSPropertyOp13
 70
     1
102
RTVSPropertyOp14
 70
     1
102
RTVSPropertyOp15
 70
     1
102
RTVSPropertyOp16
 70
     1
102
RTVSPropertyOp17
 70
     1
102
RTVSPropertyOp18
 70
     1
102
RTVSPropertyOp19
 70
     1
102
RTVSPropertyOp20
 70
     1
102
RTVSPropertyOp21
 70
     1
102
RTVSPropertyOp22
 70
     1
102
RTVSPropertyOp23
 70
     1
102
RTVSPropertyOp24
 70
     1
102
RTVSPropertyOp25
 70
     1
102
RTVSPropertyOp26
 70
     1
102
RTVSPropertyOp27
 70
     1
102
RTVSPropertyOp28
 70
     1
102
RTVSPropertyOp29
 70
     1
102
RTVSPropertyOp30
 70
     1
102
RTVSPropertyOp31
 70
     1
102
RTVSPropertyOp32
 70
     1
102
RTVSPropertyOp33
 70
     1
102
RTVSPropertyOp34
 70
     1
102
RTVSPropertyOp35
 70
     1
102
RTVSPropertyOp36
 70
     1
102
RTVSPropertyOp37
 70
     1
102
RTVSPropertyOp38
 70
     1
102
RTVSPropertyOp39
 70
     1
102
RTVSPropertyOp40
 70
     1
102
RTVSPropertyOp41
 70
     1
102
RTVSPropertyOp42
 70
     1
102
RTVSPropertyOp43
 70
     1
102
RTVSPropertyOp44
 70
     1
102
RTVSPropertyOp45
 70
     1
102
RTVSPropertyOp46
 70
     1
102
RTVSPropertyOp47
 70
     1
102
RTVSPropertyOp48
 70
     1
102
RTVSPropertyOp49
 70
     1
102
RTVSPropertyOp50
 70
     1
102
RTVSPropertyOp51
 70
     0
102
RTVSPropertyOp52
 70
     0
102
RTVSPropertyOp53
 70
     1
102
RTVSPropertyOp54
 70
     1
102
RTVSPropertyOp55
 70
     1
102
RTVSPropertyOp56
 70
     1
102
RTVSPropertyOp57
 70
     1
102
RTVSPropertyOp58
 70
     1
102
RTVSPropertyOp59
 70
     1
102
RTVSPropertyOp60
 70
     1
102
RTVSPropertyOp61
 70
     1
102
RTVSPropertyOp62
 70
     1
  0
XRECORD
  5
2CC
102
{ACAD_REACTORS
330
2CB
102
}
330
2CB
100
AcDbXrecord
280
     1
102
RTVSPost2010Prop28
280
     0
102
RTVSPost2010PropOp28
 70
     1
102
RTVSPost2010Prop29
280
     1
102
RTVSPost2010PropOp29
 70
     1
102
RTVSPost2010Prop30
280
     1
102
RTVSPost2010PropOp30
 70
     1
102
RTVSPost2010Prop31
280
     0
102
RTVSPost2010PropOp31
 70
     1
102
RTVSPost2010Prop32
280
     0
102
RTVSPost2010PropOp32
 70
     1
102
RTVSPost2010Prop33
280
     0
102
RTVSPost2010PropOp33
 70
     1
102
RTVSPost2010Prop34
280
     0
102
RTVSPost2010PropOp34
 70
     1
102
RTVSPost2010Prop35
280
     0
102
RTVSPost2010PropOp35
 70
     1
102
RTVSPost2010Prop36
280
     0
102
RTVSPost2010PropOp36
 70
     1
102
RTVSPost2010Prop37
 90
       50
102
RTVSPost2010PropOp37
 70
     1
102
RTVSPost2010Prop38
140
0.0
102
RTVSPost2010PropOp38
 70
     1
102
RTVSPost2010Prop39
140
1.0
102
RTVSPost2010PropOp39
 70
     1
102
RTVSPost2010Prop40
 90
        0
102
RTVSPost2010PropOp40
 70
     1
102
RTVSPost2010Prop41ColorIndex
 90
       18
102
RTVSPost2010Prop41ColorRGB
 90
        0
102
RTVSPost2010PropOp41
 70
     1
102
RTVSPost2010Prop42
 90
       50
102
RTVSPost2010PropOp42
 70
     1
102
RTVSPost2010Prop43
 90
        3
102
RTVSPost2010PropOp43
 70
     1
102
RTVSPost2010Prop44ColorIndex
 90
        5
102
RTVSPost2010Prop44ColorRGB
 90
      255
102
RTVSPost2010PropOp44
 70
     1
102
RTVSPost2010Prop45
280
     0
102
RTVSPost2010PropOp45
 70
     1
102
RTVSPost2010Prop46
 90
       50
102
RTVSPost2010PropOp46
 70
     1
102
RTVSPost2010Prop47
 90
       50
102
RTVSPost2010PropOp47
 70
     1
102
RTVSPost2010Prop48
 90
       50
102
RTVSPost2010PropOp48
 70
     1
102
RTVSPost2010Prop49
280
     0
102
RTVSPost2010PropOp49
 70
     1
102
RTVSPost2010Prop50
 90
       50
102
RTVSPost2010PropOp50
 70
     1
102
RTVSPost2010Prop51ColorIndex
 90
      256
102
RTVSPost2010Prop51ColorRGB
 90
-16777216
102
RTVSPost2010PropOp51
 70
     0
102
RTVSPost2010Prop52
140
1.0
102
RTVSPost2010PropOp52
 70
     0
102
RTVSPost2010Prop53
 90
        2
102
RTVSPost2010PropOp53
 70
     1
102
RTVSPost2010Prop54
  1
strokes_ogs.tif
102
RTVSPost2010PropOp54
 70
     1
102
RTVSPost2010Prop55
280
     0
102
RTVSPost2010PropOp55
 70
     1
102
RTVSPost2010Prop56
140
1.0
102
RTVSPost2010PropOp56
 70
     1
102
RTVSPost2010Prop57
140
1.0
102
RTVSPost2010PropOp57
 70
     1
102
RTVSPropertyOp0
 70
     1
102
RTVSPropertyOp1
 70
     1
102
RTVSPropertyOp2
 70
     1
102
RTVSPropertyOp3
 70
     1
102
RTVSPropertyOp4
 70
     1
102
RTVSPropertyOp5
 70
     1
102
RTVSPropertyOp6
 70
     1
102
RTVSPropertyOp7
 70
     1
102
RTVSPropertyOp8
 70
     1
102
RTVSPropertyOp9
 70
     1
102
RTVSPropertyOp10
 70
     1
102
RTVSPropertyOp11
 70
     1
102
RTVSPropertyOp12
 70
     1
102
RTVSPropertyOp13
 70
     1
102
RTVSPropertyOp14
 70
     1
102
RTVSPropertyOp15
 70
     1
102
RTVSPropertyOp16
 70
     1
102
RTVSPropertyOp17
 70
     1
102
RTVSPropertyOp18
 70
     1
102
RTVSPropertyOp19
 70
     1
102
RTVSPropertyOp20
 70
     1
102
RTVSPropertyOp21
 70
     1
102
RTVSPropertyOp22
 70
     1
102
RTVSPropertyOp23
 70
     1
102
RTVSPropertyOp24
 70
     1
102
RTVSPropertyOp25
 70
     1
102
RTVSPropertyOp26
 70
     1
102
RTVSPropertyOp27
 70
     1
102
RTVSPropertyOp28
 70
     1
102
RTVSPropertyOp29
 70
     1
102
RTVSPropertyOp30
 70
     1
102
RTVSPropertyOp31
 70
     1
102
RTVSPropertyOp32
 70
     1
102
RTVSPropertyOp33
 70
     1
102
RTVSPropertyOp34
 70
     1
102
RTVSPropertyOp35
 70
     1
102
RTVSPropertyOp36
 70
     1
102
RTVSPropertyOp37
 70
     1
102
RTVSPropertyOp38
 70
     1
102
RTVSPropertyOp39
 70
     1
102
RTVSPropertyOp40
 70
     1
102
RTVSPropertyOp41
 70
     1
102
RTVSPropertyOp42
 70
     1
102
RTVSPropertyOp43
 70
     1
102
RTVSPropertyOp44
 70
     1
102
RTVSPropertyOp45
 70
     1
102
RTVSPropertyOp46
 70
     1
102
RTVSPropertyOp47
 70
     1
102
RTVSPropertyOp48
 70
     1
102
RTVSPropertyOp49
 70
     1
102
RTVSPropertyOp50
 70
     1
102
RTVSPropertyOp51
 70
     0
102
RTVSPropertyOp52
 70
     0
102
RTVSPropertyOp53
 70
     1
102
RTVSPropertyOp54
 70
     1
102
RTVSPropertyOp55
 70
     1
102
RTVSPropertyOp56
 70
     1
102
RTVSPropertyOp57
 70
     1
102
RTVSPropertyOp58
 70
     1
102
RTVSPropertyOp59
 70
     1
102
RTVSPropertyOp60
 70
     1
102
RTVSPropertyOp61
 70
     1
102
RTVSPropertyOp62
 70
     1
  0
XRECORD
  5
2C6
102
{ACAD_REACTORS
330
2C5
102
}
330
2C5
100
AcDbXrecord
280
     1
102
RTVSPost2010Prop28
280
     0
102
RTVSPost2010PropOp28
 70
     1
102
RTVSPost2010Prop29
280
     1
102
RTVSPost2010PropOp29
 70
     1
102
RTVSPost2010Prop30
280
     1
102
RTVSPost2010PropOp30
 70
     1
102
RTVSPost2010Prop31
280
     0
102
RTVSPost2010PropOp31
 70
     1
102
RTVSPost2010Prop32
280
     0
102
RTVSPost2010PropOp32
 70
     1
102
RTVSPost2010Prop33
280
     0
102
RTVSPost2010PropOp33
 70
     1
102
RTVSPost2010Prop34
280
     0
102
RTVSPost2010PropOp34
 70
     1
102
RTVSPost2010Prop35
280
     0
102
RTVSPost2010PropOp35
 70
     1
102
RTVSPost2010Prop36
280
     0
102
RTVSPost2010PropOp36
 70
     1
102
RTVSPost2010Prop37
 90
       50
102
RTVSPost2010PropOp37
 70
     1
102
RTVSPost2010Prop38
140
0.0
102
RTVSPost2010PropOp38
 70
     1
102
RTVSPost2010Prop39
140
1.0
102
RTVSPost2010PropOp39
 70
     1
102
RTVSPost2010Prop40
 90
        0
102
RTVSPost2010PropOp40
 70
     1
102
RTVSPost2010Prop41ColorIndex
 90
       18
102
RTVSPost2010Prop41ColorRGB
 90
        0
102
RTVSPost2010PropOp41
 70
     1
102
RTVSPost2010Prop42
 90
       50
102
RTVSPost2010PropOp42
 70
     1
102
RTVSPost2010Prop43
 90
        3
102
RTVSPost2010PropOp43
 70
     1
102
RTVSPost2010Prop44ColorIndex
 90
        5
102
RTVSPost2010Prop44ColorRGB
 90
      255
102
RTVSPost2010PropOp44
 70
     1
102
RTVSPost2010Prop45
280
     0
102
RTVSPost2010PropOp45
 70
     1
102
RTVSPost2010Prop46
 90
       50
102
RTVSPost2010PropOp46
 70
     1
102
RTVSPost2010Prop47
 90
       50
102
RTVSPost2010PropOp47
 70
     1
102
RTVSPost2010Prop48
 90
       50
102
RTVSPost2010PropOp48
 70
     1
102
RTVSPost2010Prop49
280
     0
102
RTVSPost2010PropOp49
 70
     1
102
RTVSPost2010Prop50
 90
       50
102
RTVSPost2010PropOp50
 70
     1
102
RTVSPost2010Prop51ColorIndex
 90
      256
102
RTVSPost2010Prop51ColorRGB
 90
-16777216
102
RTVSPost2010PropOp51
 70
     0
102
RTVSPost2010Prop52
140
1.0
102
RTVSPost2010PropOp52
 70
     0
102
RTVSPost2010Prop53
 90
        2
102
RTVSPost2010PropOp53
 70
     1
102
RTVSPost2010Prop54
  1
strokes_ogs.tif
102
RTVSPost2010PropOp54
 70
     1
102
RTVSPost2010Prop55
280
     0
102
RTVSPost2010PropOp55
 70
     1
102
RTVSPost2010Prop56
140
1.0
102
RTVSPost2010PropOp56
 70
     1
102
RTVSPost2010Prop57
140
1.0
102
RTVSPost2010PropOp57
 70
     1
102
RTVSPropertyOp0
 70
     1
102
RTVSPropertyOp1
 70
     1
102
RTVSPropertyOp2
 70
     1
102
RTVSPropertyOp3
 70
     1
102
RTVSPropertyOp4
 70
     1
102
RTVSPropertyOp5
 70
     1
102
RTVSPropertyOp6
 70
     1
102
RTVSPropertyOp7
 70
     1
102
RTVSPropertyOp8
 70
     1
102
RTVSPropertyOp9
 70
     1
102
RTVSPropertyOp10
 70
     1
102
RTVSPropertyOp11
 70
     1
102
RTVSPropertyOp12
 70
     1
102
RTVSPropertyOp13
 70
     1
102
RTVSPropertyOp14
 70
     1
102
RTVSPropertyOp15
 70
     1
102
RTVSPropertyOp16
 70
     1
102
RTVSPropertyOp17
 70
     1
102
RTVSPropertyOp18
 70
     1
102
RTVSPropertyOp19
 70
     1
102
RTVSPropertyOp20
 70
     1
102
RTVSPropertyOp21
 70
     1
102
RTVSPropertyOp22
 70
     1
102
RTVSPropertyOp23
 70
     1
102
RTVSPropertyOp24
 70
     1
102
RTVSPropertyOp25
 70
     1
102
RTVSPropertyOp26
 70
     1
102
RTVSPropertyOp27
 70
     1
102
RTVSPropertyOp28
 70
     1
102
RTVSPropertyOp29
 70
     1
102
RTVSPropertyOp30
 70
     1
102
RTVSPropertyOp31
 70
     1
102
RTVSPropertyOp32
 70
     1
102
RTVSPropertyOp33
 70
     1
102
RTVSPropertyOp34
 70
     1
102
RTVSPropertyOp35
 70
     1
102
RTVSPropertyOp36
 70
     1
102
RTVSPropertyOp37
 70
     1
102
RTVSPropertyOp38
 70
     1
102
RTVSPropertyOp39
 70
     1
102
RTVSPropertyOp40
 70
     1
102
RTVSPropertyOp41
 70
     1
102
RTVSPropertyOp42
 70
     1
102
RTVSPropertyOp43
 70
     1
102
RTVSPropertyOp44
 70
     1
102
RTVSPropertyOp45
 70
     1
102
RTVSPropertyOp46
 70
     1
102
RTVSPropertyOp47
 70
     1
102
RTVSPropertyOp48
 70
     1
102
RTVSPropertyOp49
 70
     1
102
RTVSPropertyOp50
 70
     1
102
RTVSPropertyOp51
 70
     0
102
RTVSPropertyOp52
 70
     0
102
RTVSPropertyOp53
 70
     1
102
RTVSPropertyOp54
 70
     1
102
RTVSPropertyOp55
 70
     1
102
RTVSPropertyOp56
 70
     1
102
RTVSPropertyOp57
 70
     1
102
RTVSPropertyOp58
 70
     1
102
RTVSPropertyOp59
 70
     1
102
RTVSPropertyOp60
 70
     1
102
RTVSPropertyOp61
 70
     1
102
RTVSPropertyOp62
 70
     1
  0
XRECORD
  5
2C8
102
{ACAD_REACTORS
330
2C7
102
}
330
2C7
100
AcDbXrecord
280
     1
102
RTVSPost2010Prop28
280
     0
102
RTVSPost2010PropOp28
 70
     1
102
RTVSPost2010Prop29
280
     1
102
RTVSPost2010PropOp29
 70
     1
102
RTVSPost2010Prop30
280
     1
102
RTVSPost2010PropOp30
 70
     1
102
RTVSPost2010Prop31
280
     0
102
RTVSPost2010PropOp31
 70
     1
102
RTVSPost2010Prop32
280
     0
102
RTVSPost2010PropOp32
 70
     1
102
RTVSPost2010Prop33
280
     0
102
RTVSPost2010PropOp33
 70
     1
102
RTVSPost2010Prop34
280
     0
102
RTVSPost2010PropOp34
 70
     1
102
RTVSPost2010Prop35
280
     0
102
RTVSPost2010PropOp35
 70
     1
102
RTVSPost2010Prop36
280
     0
102
RTVSPost2010PropOp36
 70
     1
102
RTVSPost2010Prop37
 90
       50
102
RTVSPost2010PropOp37
 70
     1
102
RTVSPost2010Prop38
140
0.0
102
RTVSPost2010PropOp38
 70
     1
102
RTVSPost2010Prop39
140
1.0
102
RTVSPost2010PropOp39
 70
     1
102
RTVSPost2010Prop40
 90
        0
102
RTVSPost2010PropOp40
 70
     1
102
RTVSPost2010Prop41ColorIndex
 90
       18
102
RTVSPost2010Prop41ColorRGB
 90
        0
102
RTVSPost2010PropOp41
 70
     1
102
RTVSPost2010Prop42
 90
       50
102
RTVSPost2010PropOp42
 70
     1
102
RTVSPost2010Prop43
 90
        3
102
RTVSPost2010PropOp43
 70
     1
102
RTVSPost2010Prop44ColorIndex
 90
        5
102
RTVSPost2010Prop44ColorRGB
 90
      255
102
RTVSPost2010PropOp44
 70
     1
102
RTVSPost2010Prop45
280
     0
102
RTVSPost2010PropOp45
 70
     1
102
RTVSPost2010Prop46
 90
       50
102
RTVSPost2010PropOp46
 70
     1
102
RTVSPost2010Prop47
 90
       50
102
RTVSPost2010PropOp47
 70
     1
102
RTVSPost2010Prop48
 90
       50
102
RTVSPost2010PropOp48
 70
     1
102
RTVSPost2010Prop49
280
     0
102
RTVSPost2010PropOp49
 70
     1
102
RTVSPost2010Prop50
 90
       50
102
RTVSPost2010PropOp50
 70
     1
102
RTVSPost2010Prop51ColorIndex
 90
      256
102
RTVSPost2010Prop51ColorRGB
 90
-16777216
102
RTVSPost2010PropOp51
 70
     0
102
RTVSPost2010Prop52
140
1.0
102
RTVSPost2010PropOp52
 70
     0
102
RTVSPost2010Prop53
 90
        2
102
RTVSPost2010PropOp53
 70
     1
102
RTVSPost2010Prop54
  1
strokes_ogs.tif
102
RTVSPost2010PropOp54
 70
     1
102
RTVSPost2010Prop55
280
     0
102
RTVSPost2010PropOp55
 70
     1
102
RTVSPost2010Prop56
140
1.0
102
RTVSPost2010PropOp56
 70
     1
102
RTVSPost2010Prop57
140
1.0
102
RTVSPost2010PropOp57
 70
     1
102
RTVSPropertyOp0
 70
     1
102
RTVSPropertyOp1
 70
     1
102
RTVSPropertyOp2
 70
     1
102
RTVSPropertyOp3
 70
     1
102
RTVSPropertyOp4
 70
     1
102
RTVSPropertyOp5
 70
     1
102
RTVSPropertyOp6
 70
     1
102
RTVSPropertyOp7
 70
     1
102
RTVSPropertyOp8
 70
     1
102
RTVSPropertyOp9
 70
     1
102
RTVSPropertyOp10
 70
     1
102
RTVSPropertyOp11
 70
     1
102
RTVSPropertyOp12
 70
     1
102
RTVSPropertyOp13
 70
     1
102
RTVSPropertyOp14
 70
     1
102
RTVSPropertyOp15
 70
     1
102
RTVSPropertyOp16
 70
     1
102
RTVSPropertyOp17
 70
     1
102
RTVSPropertyOp18
 70
     1
102
RTVSPropertyOp19
 70
     1
102
RTVSPropertyOp20
 70
     1
102
RTVSPropertyOp21
 70
     1
102
RTVSPropertyOp22
 70
     1
102
RTVSPropertyOp23
 70
     1
102
RTVSPropertyOp24
 70
     1
102
RTVSPropertyOp25
 70
     1
102
RTVSPropertyOp26
 70
     1
102
RTVSPropertyOp27
 70
     1
102
RTVSPropertyOp28
 70
     1
102
RTVSPropertyOp29
 70
     1
102
RTVSPropertyOp30
 70
     1
102
RTVSPropertyOp31
 70
     1
102
RTVSPropertyOp32
 70
     1
102
RTVSPropertyOp33
 70
     1
102
RTVSPropertyOp34
 70
     1
102
RTVSPropertyOp35
 70
     1
102
RTVSPropertyOp36
 70
     1
102
RTVSPropertyOp37
 70
     1
102
RTVSPropertyOp38
 70
     1
102
RTVSPropertyOp39
 70
     1
102
RTVSPropertyOp40
 70
     1
102
RTVSPropertyOp41
 70
     1
102
RTVSPropertyOp42
 70
     1
102
RTVSPropertyOp43
 70
     1
102
RTVSPropertyOp44
 70
     1
102
RTVSPropertyOp45
 70
     1
102
RTVSPropertyOp46
 70
     1
102
RTVSPropertyOp47
 70
     1
102
RTVSPropertyOp48
 70
     1
102
RTVSPropertyOp49
 70
     1
102
RTVSPropertyOp50
 70
     1
102
RTVSPropertyOp51
 70
     0
102
RTVSPropertyOp52
 70
     0
102
RTVSPropertyOp53
 70
     1
102
RTVSPropertyOp54
 70
     1
102
RTVSPropertyOp55
 70
     1
102
RTVSPropertyOp56
 70
     1
102
RTVSPropertyOp57
 70
     1
102
RTVSPropertyOp58
 70
     1
102
RTVSPropertyOp59
 70
     1
102
RTVSPropertyOp60
 70
     1
102
RTVSPropertyOp61
 70
     1
102
RTVSPropertyOp62
 70
     1
  0
XRECORD
  5
2B8
102
{ACAD_REACTORS
330
2B7
102
}
330
2B7
100
AcDbXrecord
280
     1
102
RTVSPost2010Prop28
280
     0
102
RTVSPost2010PropOp28
 70
     1
102
RTVSPost2010Prop29
280
     1
102
RTVSPost2010PropOp29
 70
     1
102
RTVSPost2010Prop30
280
     1
102
RTVSPost2010PropOp30
 70
     1
102
RTVSPost2010Prop31
280
     0
102
RTVSPost2010PropOp31
 70
     1
102
RTVSPost2010Prop32
280
     0
102
RTVSPost2010PropOp32
 70
     1
102
RTVSPost2010Prop33
280
     0
102
RTVSPost2010PropOp33
 70
     1
102
RTVSPost2010Prop34
280
     0
102
RTVSPost2010PropOp34
 70
     1
102
RTVSPost2010Prop35
280
     0
102
RTVSPost2010PropOp35
 70
     1
102
RTVSPost2010Prop36
280
     0
102
RTVSPost2010PropOp36
 70
     1
102
RTVSPost2010Prop37
 90
       50
102
RTVSPost2010PropOp37
 70
     1
102
RTVSPost2010Prop38
140
0.0
102
RTVSPost2010PropOp38
 70
     1
102
RTVSPost2010Prop39
140
1.0
102
RTVSPost2010PropOp39
 70
     1
102
RTVSPost2010Prop40
 90
        0
102
RTVSPost2010PropOp40
 70
     1
102
RTVSPost2010Prop41ColorIndex
 90
       18
102
RTVSPost2010Prop41ColorRGB
 90
        0
102
RTVSPost2010PropOp41
 70
     1
102
RTVSPost2010Prop42
 90
       50
102
RTVSPost2010PropOp42
 70
     1
102
RTVSPost2010Prop43
 90
        3
102
RTVSPost2010PropOp43
 70
     1
102
RTVSPost2010Prop44ColorIndex
 90
        5
102
RTVSPost2010Prop44ColorRGB
 90
      255
102
RTVSPost2010PropOp44
 70
     1
102
RTVSPost2010Prop45
280
     0
102
RTVSPost2010PropOp45
 70
     1
102
RTVSPost2010Prop46
 90
       50
102
RTVSPost2010PropOp46
 70
     1
102
RTVSPost2010Prop47
 90
       50
102
RTVSPost2010PropOp47
 70
     1
102
RTVSPost2010Prop48
 90
       50
102
RTVSPost2010PropOp48
 70
     1
102
RTVSPost2010Prop49
280
     0
102
RTVSPost2010PropOp49
 70
     1
102
RTVSPost2010Prop50
 90
       50
102
RTVSPost2010PropOp50
 70
     1
102
RTVSPost2010Prop51ColorIndex
 90
      256
102
RTVSPost2010Prop51ColorRGB
 90
-16777216
102
RTVSPost2010PropOp51
 70
     0
102
RTVSPost2010Prop52
140
1.0
102
RTVSPost2010PropOp52
 70
     0
102
RTVSPost2010Prop53
 90
        2
102
RTVSPost2010PropOp53
 70
     1
102
RTVSPost2010Prop54
  1
strokes_ogs.tif
102
RTVSPost2010PropOp54
 70
     1
102
RTVSPost2010Prop55
280
     0
102
RTVSPost2010PropOp55
 70
     1
102
RTVSPost2010Prop56
140
1.0
102
RTVSPost2010PropOp56
 70
     1
102
RTVSPost2010Prop57
140
1.0
102
RTVSPost2010PropOp57
 70
     1
102
RTVSPropertyOp0
 70
     1
102
RTVSPropertyOp1
 70
     1
102
RTVSPropertyOp2
 70
     1
102
RTVSPropertyOp3
 70
     1
102
RTVSPropertyOp4
 70
     1
102
RTVSPropertyOp5
 70
     1
102
RTVSPropertyOp6
 70
     1
102
RTVSPropertyOp7
 70
     1
102
RTVSPropertyOp8
 70
     1
102
RTVSPropertyOp9
 70
     1
102
RTVSPropertyOp10
 70
     1
102
RTVSPropertyOp11
 70
     1
102
RTVSPropertyOp12
 70
     1
102
RTVSPropertyOp13
 70
     1
102
RTVSPropertyOp14
 70
     1
102
RTVSPropertyOp15
 70
     1
102
RTVSPropertyOp16
 70
     1
102
RTVSPropertyOp17
 70
     1
102
RTVSPropertyOp18
 70
     1
102
RTVSPropertyOp19
 70
     1
102
RTVSPropertyOp20
 70
     1
102
RTVSPropertyOp21
 70
     1
102
RTVSPropertyOp22
 70
     1
102
RTVSPropertyOp23
 70
     1
102
RTVSPropertyOp24
 70
     1
102
RTVSPropertyOp25
 70
     1
102
RTVSPropertyOp26
 70
     1
102
RTVSPropertyOp27
 70
     1
102
RTVSPropertyOp28
 70
     1
102
RTVSPropertyOp29
 70
     1
102
RTVSPropertyOp30
 70
     1
102
RTVSPropertyOp31
 70
     1
102
RTVSPropertyOp32
 70
     1
102
RTVSPropertyOp33
 70
     1
102
RTVSPropertyOp34
 70
     1
102
RTVSPropertyOp35
 70
     1
102
RTVSPropertyOp36
 70
     1
102
RTVSPropertyOp37
 70
     1
102
RTVSPropertyOp38
 70
     1
102
RTVSPropertyOp39
 70
     1
102
RTVSPropertyOp40
 70
     1
102
RTVSPropertyOp41
 70
     1
102
RTVSPropertyOp42
 70
     1
102
RTVSPropertyOp43
 70
     1
102
RTVSPropertyOp44
 70
     1
102
RTVSPropertyOp45
 70
     1
102
RTVSPropertyOp46
 70
     1
102
RTVSPropertyOp47
 70
     1
102
RTVSPropertyOp48
 70
     1
102
RTVSPropertyOp49
 70
     1
102
RTVSPropertyOp50
 70
     1
102
RTVSPropertyOp51
 70
     0
102
RTVSPropertyOp52
 70
     0
102
RTVSPropertyOp53
 70
     1
102
RTVSPropertyOp54
 70
     1
102
RTVSPropertyOp55
 70
     1
102
RTVSPropertyOp56
 70
     1
102
RTVSPropertyOp57
 70
     1
102
RTVSPropertyOp58
 70
     1
102
RTVSPropertyOp59
 70
     1
102
RTVSPropertyOp60
 70
     1
102
RTVSPropertyOp61
 70
     1
102
RTVSPropertyOp62
 70
     1
  0
XRECORD
  5
2AA
102
{ACAD_REACTORS
330
2A9
102
}
330
2A9
100
AcDbXrecord
280
     1
102
RTVSPost2010Prop28
280
     0
102
RTVSPost2010PropOp28
 70
     1
102
RTVSPost2010Prop29
280
     1
102
RTVSPost2010PropOp29
 70
     1
102
RTVSPost2010Prop30
280
     1
102
RTVSPost2010PropOp30
 70
     1
102
RTVSPost2010Prop31
280
     0
102
RTVSPost2010PropOp31
 70
     1
102
RTVSPost2010Prop32
280
     0
102
RTVSPost2010PropOp32
 70
     1
102
RTVSPost2010Prop33
280
     0
102
RTVSPost2010PropOp33
 70
     1
102
RTVSPost2010Prop34
280
     0
102
RTVSPost2010PropOp34
 70
     1
102
RTVSPost2010Prop35
280
     0
102
RTVSPost2010PropOp35
 70
     1
102
RTVSPost2010Prop36
280
     0
102
RTVSPost2010PropOp36
 70
     1
102
RTVSPost2010Prop37
 90
       50
102
RTVSPost2010PropOp37
 70
     1
102
RTVSPost2010Prop38
140
0.0
102
RTVSPost2010PropOp38
 70
     1
102
RTVSPost2010Prop39
140
1.0
102
RTVSPost2010PropOp39
 70
     1
102
RTVSPost2010Prop40
 90
        0
102
RTVSPost2010PropOp40
 70
     1
102
RTVSPost2010Prop41ColorIndex
 90
       18
102
RTVSPost2010Prop41ColorRGB
 90
        0
102
RTVSPost2010PropOp41
 70
     1
102
RTVSPost2010Prop42
 90
       50
102
RTVSPost2010PropOp42
 70
     1
102
RTVSPost2010Prop43
 90
        3
102
RTVSPost2010PropOp43
 70
     1
102
RTVSPost2010Prop44ColorIndex
 90
        5
102
RTVSPost2010Prop44ColorRGB
 90
      255
102
RTVSPost2010PropOp44
 70
     1
102
RTVSPost2010Prop45
280
     0
102
RTVSPost2010PropOp45
 70
     1
102
RTVSPost2010Prop46
 90
       50
102
RTVSPost2010PropOp46
 70
     1
102
RTVSPost2010Prop47
 90
       50
102
RTVSPost2010PropOp47
 70
     1
102
RTVSPost2010Prop48
 90
       50
102
RTVSPost2010PropOp48
 70
     1
102
RTVSPost2010Prop49
280
     0
102
RTVSPost2010PropOp49
 70
     1
102
RTVSPost2010Prop50
 90
       50
102
RTVSPost2010PropOp50
 70
     1
102
RTVSPost2010Prop51ColorIndex
 90
      256
102
RTVSPost2010Prop51ColorRGB
 90
-16777216
102
RTVSPost2010PropOp51
 70
     0
102
RTVSPost2010Prop52
140
1.0
102
RTVSPost2010PropOp52
 70
     0
102
RTVSPost2010Prop53
 90
        2
102
RTVSPost2010PropOp53
 70
     1
102
RTVSPost2010Prop54
  1
strokes_ogs.tif
102
RTVSPost2010PropOp54
 70
     1
102
RTVSPost2010Prop55
280
     0
102
RTVSPost2010PropOp55
 70
     1
102
RTVSPost2010Prop56
140
1.0
102
RTVSPost2010PropOp56
 70
     1
102
RTVSPost2010Prop57
140
1.0
102
RTVSPost2010PropOp57
 70
     1
102
RTVSPropertyOp0
 70
     1
102
RTVSPropertyOp1
 70
     1
102
RTVSPropertyOp2
 70
     1
102
RTVSPropertyOp3
 70
     1
102
RTVSPropertyOp4
 70
     1
102
RTVSPropertyOp5
 70
     1
102
RTVSPropertyOp6
 70
     1
102
RTVSPropertyOp7
 70
     1
102
RTVSPropertyOp8
 70
     1
102
RTVSPropertyOp9
 70
     1
102
RTVSPropertyOp10
 70
     1
102
RTVSPropertyOp11
 70
     1
102
RTVSPropertyOp12
 70
     1
102
RTVSPropertyOp13
 70
     1
102
RTVSPropertyOp14
 70
     1
102
RTVSPropertyOp15
 70
     1
102
RTVSPropertyOp16
 70
     1
102
RTVSPropertyOp17
 70
     1
102
RTVSPropertyOp18
 70
     1
102
RTVSPropertyOp19
 70
     1
102
RTVSPropertyOp20
 70
     1
102
RTVSPropertyOp21
 70
     1
102
RTVSPropertyOp22
 70
     1
102
RTVSPropertyOp23
 70
     1
102
RTVSPropertyOp24
 70
     1
102
RTVSPropertyOp25
 70
     1
102
RTVSPropertyOp26
 70
     1
102
RTVSPropertyOp27
 70
     1
102
RTVSPropertyOp28
 70
     1
102
RTVSPropertyOp29
 70
     1
102
RTVSPropertyOp30
 70
     1
102
RTVSPropertyOp31
 70
     1
102
RTVSPropertyOp32
 70
     1
102
RTVSPropertyOp33
 70
     1
102
RTVSPropertyOp34
 70
     1
102
RTVSPropertyOp35
 70
     1
102
RTVSPropertyOp36
 70
     1
102
RTVSPropertyOp37
 70
     1
102
RTVSPropertyOp38
 70
     1
102
RTVSPropertyOp39
 70
     1
102
RTVSPropertyOp40
 70
     1
102
RTVSPropertyOp41
 70
     1
102
RTVSPropertyOp42
 70
     1
102
RTVSPropertyOp43
 70
     1
102
RTVSPropertyOp44
 70
     1
102
RTVSPropertyOp45
 70
     1
102
RTVSPropertyOp46
 70
     1
102
RTVSPropertyOp47
 70
     1
102
RTVSPropertyOp48
 70
     1
102
RTVSPropertyOp49
 70
     1
102
RTVSPropertyOp50
 70
     1
102
RTVSPropertyOp51
 70
     0
102
RTVSPropertyOp52
 70
     0
102
RTVSPropertyOp53
 70
     1
102
RTVSPropertyOp54
 70
     1
102
RTVSPropertyOp55
 70
     1
102
RTVSPropertyOp56
 70
     1
102
RTVSPropertyOp57
 70
     1
102
RTVSPropertyOp58
 70
     1
102
RTVSPropertyOp59
 70
     1
102
RTVSPropertyOp60
 70
     1
102
RTVSPropertyOp61
 70
     1
102
RTVSPropertyOp62
 70
     1
  0
XRECORD
  5
2CA
102
{ACAD_REACTORS
330
2C9
102
}
330
2C9
100
AcDbXrecord
280
     1
102
RTVSPost2010Prop28
280
     0
102
RTVSPost2010PropOp28
 70
     1
102
RTVSPost2010Prop29
280
     1
102
RTVSPost2010PropOp29
 70
     1
102
RTVSPost2010Prop30
280
     1
102
RTVSPost2010PropOp30
 70
     1
102
RTVSPost2010Prop31
280
     0
102
RTVSPost2010PropOp31
 70
     1
102
RTVSPost2010Prop32
280
     0
102
RTVSPost2010PropOp32
 70
     1
102
RTVSPost2010Prop33
280
     0
102
RTVSPost2010PropOp33
 70
     1
102
RTVSPost2010Prop34
280
     0
102
RTVSPost2010PropOp34
 70
     1
102
RTVSPost2010Prop35
280
     0
102
RTVSPost2010PropOp35
 70
     1
102
RTVSPost2010Prop36
280
     0
102
RTVSPost2010PropOp36
 70
     1
102
RTVSPost2010Prop37
 90
       50
102
RTVSPost2010PropOp37
 70
     1
102
RTVSPost2010Prop38
140
0.0
102
RTVSPost2010PropOp38
 70
     1
102
RTVSPost2010Prop39
140
1.0
102
RTVSPost2010PropOp39
 70
     1
102
RTVSPost2010Prop40
 90
        0
102
RTVSPost2010PropOp40
 70
     1
102
RTVSPost2010Prop41ColorIndex
 90
       18
102
RTVSPost2010Prop41ColorRGB
 90
        0
102
RTVSPost2010PropOp41
 70
     1
102
RTVSPost2010Prop42
 90
       50
102
RTVSPost2010PropOp42
 70
     1
102
RTVSPost2010Prop43
 90
        3
102
RTVSPost2010PropOp43
 70
     1
102
RTVSPost2010Prop44ColorIndex
 90
        5
102
RTVSPost2010Prop44ColorRGB
 90
      255
102
RTVSPost2010PropOp44
 70
     1
102
RTVSPost2010Prop45
280
     0
102
RTVSPost2010PropOp45
 70
     1
102
RTVSPost2010Prop46
 90
       50
102
RTVSPost2010PropOp46
 70
     1
102
RTVSPost2010Prop47
 90
       50
102
RTVSPost2010PropOp47
 70
     1
102
RTVSPost2010Prop48
 90
       50
102
RTVSPost2010PropOp48
 70
     1
102
RTVSPost2010Prop49
280
     0
102
RTVSPost2010PropOp49
 70
     1
102
RTVSPost2010Prop50
 90
       50
102
RTVSPost2010PropOp50
 70
     1
102
RTVSPost2010Prop51ColorIndex
 90
      256
102
RTVSPost2010Prop51ColorRGB
 90
-16777216
102
RTVSPost2010PropOp51
 70
     0
102
RTVSPost2010Prop52
140
1.0
102
RTVSPost2010PropOp52
 70
     0
102
RTVSPost2010Prop53
 90
        2
102
RTVSPost2010PropOp53
 70
     1
102
RTVSPost2010Prop54
  1
strokes_ogs.tif
102
RTVSPost2010PropOp54
 70
     1
102
RTVSPost2010Prop55
280
     0
102
RTVSPost2010PropOp55
 70
     1
102
RTVSPost2010Prop56
140
1.0
102
RTVSPost2010PropOp56
 70
     1
102
RTVSPost2010Prop57
140
1.0
102
RTVSPost2010PropOp57
 70
     1
102
RTVSPropertyOp0
 70
     1
102
RTVSPropertyOp1
 70
     1
102
RTVSPropertyOp2
 70
     1
102
RTVSPropertyOp3
 70
     1
102
RTVSPropertyOp4
 70
     1
102
RTVSPropertyOp5
 70
     1
102
RTVSPropertyOp6
 70
     1
102
RTVSPropertyOp7
 70
     1
102
RTVSPropertyOp8
 70
     1
102
RTVSPropertyOp9
 70
     1
102
RTVSPropertyOp10
 70
     1
102
RTVSPropertyOp11
 70
     1
102
RTVSPropertyOp12
 70
     1
102
RTVSPropertyOp13
 70
     1
102
RTVSPropertyOp14
 70
     1
102
RTVSPropertyOp15
 70
     1
102
RTVSPropertyOp16
 70
     1
102
RTVSPropertyOp17
 70
     1
102
RTVSPropertyOp18
 70
     1
102
RTVSPropertyOp19
 70
     1
102
RTVSPropertyOp20
 70
     1
102
RTVSPropertyOp21
 70
     1
102
RTVSPropertyOp22
 70
     1
102
RTVSPropertyOp23
 70
     1
102
RTVSPropertyOp24
 70
     1
102
RTVSPropertyOp25
 70
     1
102
RTVSPropertyOp26
 70
     1
102
RTVSPropertyOp27
 70
     1
102
RTVSPropertyOp28
 70
     1
102
RTVSPropertyOp29
 70
     1
102
RTVSPropertyOp30
 70
     1
102
RTVSPropertyOp31
 70
     1
102
RTVSPropertyOp32
 70
     1
102
RTVSPropertyOp33
 70
     1
102
RTVSPropertyOp34
 70
     1
102
RTVSPropertyOp35
 70
     1
102
RTVSPropertyOp36
 70
     1
102
RTVSPropertyOp37
 70
     1
102
RTVSPropertyOp38
 70
     1
102
RTVSPropertyOp39
 70
     1
102
RTVSPropertyOp40
 70
     1
102
RTVSPropertyOp41
 70
     1
102
RTVSPropertyOp42
 70
     1
102
RTVSPropertyOp43
 70
     1
102
RTVSPropertyOp44
 70
     1
102
RTVSPropertyOp45
 70
     1
102
RTVSPropertyOp46
 70
     1
102
RTVSPropertyOp47
 70
     1
102
RTVSPropertyOp48
 70
     1
102
RTVSPropertyOp49
 70
     1
102
RTVSPropertyOp50
 70
     1
102
RTVSPropertyOp51
 70
     0
102
RTVSPropertyOp52
 70
     0
102
RTVSPropertyOp53
 70
     1
102
RTVSPropertyOp54
 70
     1
102
RTVSPropertyOp55
 70
     1
102
RTVSPropertyOp56
 70
     1
102
RTVSPropertyOp57
 70
     1
102
RTVSPropertyOp58
 70
     1
102
RTVSPropertyOp59
 70
     1
102
RTVSPropertyOp60
 70
     1
102
RTVSPropertyOp61
 70
     1
102
RTVSPropertyOp62
 70
     1
  0
ENDSEC
  0
EOF
