  0
SECTION
  2
HEADER
  9
$ACADVER
  1
AC1018
  9
$ACADMAINTVER
 70
   104
  9
$DWGCODEPAGE
  3
ANSI_1250
  9
$LASTSAVEDBY
  1
hc7230
  9
$INSBASE
 10
0.0
 20
0.0
 30
0.0
  9
$EXTMIN
 10
142.5190733333333
 20
213.1691216666665
 30
0.0
  9
$EXTMAX
 10
291.499321
 20
303.7261226666668
 30
0.0
  9
$LIMMIN
 10
-0.5
 20
-0.5
  9
$LIMMAX
 10
5.0
 20
5.0
  9
$ORTHOMODE
 70
     0
  9
$REGENMODE
 70
     1
  9
$FILLMODE
 70
     1
  9
$QTEXTMODE
 70
     0
  9
$MIRRTEXT
 70
     1
  9
$LTSCALE
 40
1.0
  9
$ATTMODE
 70
     1
  9
$TEXTSIZE
 40
0.2
  9
$TRACEWID
 40
0.05
  9
$TEXTSTYLE
  7
Standard
  9
$CLAYER
  8
0
  9
$CELTYPE
  6
ByLayer
  9
$CECOLOR
 62
   256
  9
$CELTSCALE
 40
1.0
  9
$DISPSILH
 70
     0
  9
$DIMSCALE
 40
1.0
  9
$DIMASZ
 40
0.18
  9
$DIMEXO
 40
0.0625
  9
$DIMDLI
 40
0.38
  9
$DIMRND
 40
0.0
  9
$DIMDLE
 40
0.0
  9
$DIMEXE
 40
0.18
  9
$DIMTP
 40
0.0
  9
$DIMTM
 40
0.0
  9
$DIMTXT
 40
0.18
  9
$DIMCEN
 40
0.09
  9
$DIMTSZ
 40
0.0
  9
$DIMTOL
 70
     0
  9
$DIMLIM
 70
     0
  9
$DIMTIH
 70
     1
  9
$DIMTOH
 70
     1
  9
$DIMSE1
 70
     0
  9
$DIMSE2
 70
     0
  9
$DIMTAD
 70
     0
  9
$DIMZIN
 70
     0
  9
$DIMBLK
  1

  9
$DIMASO
 70
     1
  9
$DIMSHO
 70
     1
  9
$DIMPOST
  1

  9
$DIMAPOST
  1

  9
$DIMALT
 70
     0
  9
$DIMALTD
 70
     2
  9
$DIMALTF
 40
25.4
  9
$DIMLFAC
 40
1.0
  9
$DIMTOFL
 70
     0
  9
$DIMTVP
 40
0.0
  9
$DIMTIX
 70
     0
  9
$DIMSOXD
 70
     0
  9
$DIMSAH
 70
     0
  9
$DIMBLK1
  1

  9
$DIMBLK2
  1

  9
$DIMSTYLE
  2
Standard
  9
$DIMCLRD
 70
     0
  9
$DIMCLRE
 70
     0
  9
$DIMCLRT
 70
     0
  9
$DIMTFAC
 40
1.0
  9
$DIMGAP
 40
0.09
  9
$DIMJUST
 70
     0
  9
$DIMSD1
 70
     0
  9
$DIMSD2
 70
     0
  9
$DIMTOLJ
 70
     1
  9
$DIMTZIN
 70
     0
  9
$DIMALTZ
 70
     0
  9
$DIMALTTZ
 70
     0
  9
$DIMUPT
 70
     0
  9
$DIMDEC
 70
     4
  9
$DIMTDEC
 70
     4
  9
$DIMALTU
 70
     2
  9
$DIMALTTD
 70
     2
  9
$DIMTXSTY
  7
Standard
  9
$DIMAUNIT
 70
     0
  9
$DIMADEC
 70
     0
  9
$DIMALTRND
 40
0.0
  9
$DIMAZIN
 70
     0
  9
$DIMDSEP
 70
    46
  9
$DIMATFIT
 70
     3
  9
$DIMFRAC
 70
     0
  9
$DIMLDRBLK
  1

  9
$DIMLUNIT
 70
     2
  9
$DIMLWD
 70
    -2
  9
$DIMLWE
 70
    -2
  9
$DIMTMOVE
 70
     0
  9
$LUNITS
 70
     2
  9
$LUPREC
 70
     4
  9
$SKETCHINC
 40
0.1
  9
$FILLETRAD
 40
0.5
  9
$AUNITS
 70
     0
  9
$AUPREC
 70
     0
  9
$MENU
  1
.
  9
$ELEVATION
 40
0.0
  9
$PELEVATION
 40
0.0
  9
$THICKNESS
 40
0.0
  9
$LIMCHECK
 70
     0
  9
$CHAMFERA
 40
0.0
  9
$CHAMFERB
 40
0.0
  9
$CHAMFERC
 40
0.0
  9
$CHAMFERD
 40
0.0
  9
$SKPOLY
 70
     0
  9
$TDCREATE
 40
2458835.433449074
  9
$TDUCREATE
 40
2458835.391788657
  9
$TDUPDATE
 40
2458835.434814815
  9
$TDUUPDATE
 40
2458835.393148148
  9
$TDINDWG
 40
0.0004976968
  9
$TDUSRTIMER
 40
0.0004976968
  9
$USRTIMER
 70
     1
  9
$ANGBASE
 50
0.0
  9
$ANGDIR
 70
     0
  9
$PDMODE
 70
     0
  9
$PDSIZE
 40
0.0
  9
$PLINEWID
 40
0.0
  9
$SPLFRAME
 70
     0
  9
$SPLINETYPE
 70
     6
  9
$SPLINESEGS
 70
     8
  9
$HANDSEED
  5
394
  9
$SURFTAB1
 70
     6
  9
$SURFTAB2
 70
     6
  9
$SURFTYPE
 70
     6
  9
$SURFU
 70
     6
  9
$SURFV
 70
     6
  9
$UCSBASE
  2

  9
$UCSNAME
  2

  9
$UCSORG
 10
207.144248
 20
243.731161
 30
0.0
  9
$UCSXDIR
 10
1.0
 20
0.0
 30
0.0
  9
$UCSYDIR
 10
0.0
 20
1.0
 30
0.0
  9
$UCSORTHOREF
  2

  9
$UCSORTHOVIEW
 70
     0
  9
$UCSORGTOP
 10
0.0
 20
0.0
 30
0.0
  9
$UCSORGBOTTOM
 10
0.0
 20
0.0
 30
0.0
  9
$UCSORGLEFT
 10
0.0
 20
0.0
 30
0.0
  9
$UCSORGRIGHT
 10
0.0
 20
0.0
 30
0.0
  9
$UCSORGFRONT
 10
0.0
 20
0.0
 30
0.0
  9
$UCSORGBACK
 10
0.0
 20
0.0
 30
0.0
  9
$PUCSBASE
  2

  9
$PUCSNAME
  2

  9
$PUCSORG
 10
0.0
 20
0.0
 30
0.0
  9
$PUCSXDIR
 10
1.0
 20
0.0
 30
0.0
  9
$PUCSYDIR
 10
0.0
 20
1.0
 30
0.0
  9
$PUCSORTHOREF
  2

  9
$PUCSORTHOVIEW
 70
     0
  9
$PUCSORGTOP
 10
0.0
 20
0.0
 30
0.0
  9
$PUCSORGBOTTOM
 10
0.0
 20
0.0
 30
0.0
  9
$PUCSORGLEFT
 10
0.0
 20
0.0
 30
0.0
  9
$PUCSORGRIGHT
 10
0.0
 20
0.0
 30
0.0
  9
$PUCSORGFRONT
 10
0.0
 20
0.0
 30
0.0
  9
$PUCSORGBACK
 10
0.0
 20
0.0
 30
0.0
  9
$USERI1
 70
     0
  9
$USERI2
 70
     0
  9
$USERI3
 70
     0
  9
$USERI4
 70
     0
  9
$USERI5
 70
     0
  9
$USERR1
 40
0.0
  9
$USERR2
 40
0.0
  9
$USERR3
 40
0.0
  9
$USERR4
 40
0.0
  9
$USERR5
 40
0.0
  9
$WORLDVIEW
 70
     1
  9
$SHADEDGE
 70
     3
  9
$SHADEDIF
 70
    70
  9
$TILEMODE
 70
     1
  9
$MAXACTVP
 70
    64
  9
$PINSBASE
 10
0.0
 20
0.0
 30
0.0
  9
$PLIMCHECK
 70
     0
  9
$PEXTMIN
 10
-0.5
 20
-0.5
 30
-0.5
  9
$PEXTMAX
 10
5.0
 20
5.0
 30
5.0
  9
$PLIMMIN
 10
-0.5
 20
-0.5
  9
$PLIMMAX
 10
5.0
 20
5.0
  9
$UNITMODE
 70
     0
  9
$VISRETAIN
 70
     1
  9
$PLINEGEN
 70
     0
  9
$PSLTSCALE
 70
     1
  9
$TREEDEPTH
 70
  3020
  9
$CMLSTYLE
  2
Standard
  9
$CMLJUST
 70
     0
  9
$CMLSCALE
 40
1.0
  9
$PROXYGRAPHICS
 70
     1
  9
$MEASUREMENT
 70
     1
  9
$CELWEIGHT
370
    13
  9
$ENDCAPS
280
     0
  9
$JOINSTYLE
280
     0
  9
$LWDISPLAY
290
     0
  9
$INSUNITS
 70
     4
  9
$HYPERLINKBASE
  1

  9
$STYLESHEET
  1

  9
$XEDIT
290
     1
  9
$CEPSNTYPE
380
     0
  9
$PSTYLEMODE
290
     1
  9
$FINGERPRINTGUID
  2
{B73247AE-C178-41EF-BE14-DA42D62CBF11}
  9
$VERSIONGUID
  2
{7D5205C1-E875-4D48-A665-BBAAC3733D36}
  9
$EXTNAMES
290
     1
  9
$PSVPSCALE
 40
0.0
  9
$OLESTARTUP
290
     0
  9
$SORTENTS
280
   127
  9
$INDEXCTL
280
     0
  9
$HIDETEXT
280
     1
  9
$XCLIPFRAME
290
     0
  9
$HALOGAP
280
     0
  9
$OBSCOLOR
 70
   257
  9
$OBSLTYPE
280
     0
  9
$INTERSECTIONDISPLAY
280
     0
  9
$INTERSECTIONCOLOR
 70
   257
  9
$DIMASSOC
280
     2
  9
$PROJECTNAME
  1

  0
ENDSEC
  0
SECTION
  2
CLASSES
  0
CLASS
  1
ACDBDICTIONARYWDFLT
  2
AcDbDictionaryWithDefault
  3
ObjectDBX Classes
 90
        0
 91
        1
280
     0
281
     0
  0
CLASS
  1
VISUALSTYLE
  2
AcDbVisualStyle
  3
ObjectDBX Classes
 90
     4095
 91
       24
280
     0
281
     0
  0
CLASS
  1
MATERIAL
  2
AcDbMaterial
  3
ObjectDBX Classes
 90
     1153
 91
        3
280
     0
281
     0
  0
CLASS
  1
SCALE
  2
AcDbScale
  3
ObjectDBX Classes
 90
     1153
 91
       33
280
     0
281
     0
  0
CLASS
  1
TABLESTYLE
  2
AcDbTableStyle
  3
ObjectDBX Classes
 90
     4095
 91
        1
280
     0
281
     0
  0
CLASS
  1
MLEADERSTYLE
  2
AcDbMLeaderStyle
  3
ACDB_MLEADERSTYLE_CLASS
 90
     4095
 91
        1
280
     0
281
     0
  0
CLASS
  1
SUN
  2
AcDbSun
  3
SCENEOE
 90
     1153
 91
        0
280
     0
281
     0
  0
CLASS
  1
DIMASSOC
  2
AcDbDimAssoc
  3
"AcDbDimAssoc|Product Desc:     AcDim ARX App For Dimension|Company:          Autodesk, Inc.|WEB Address:      www.autodesk.com"
 90
        0
 91
        6
280
     0
281
     0
  0
CLASS
  1
DICTIONARYVAR
  2
AcDbDictionaryVar
  3
ObjectDBX Classes
 90
        0
 91
        8
280
     0
281
     0
  0
CLASS
  1
CELLSTYLEMAP
  2
AcDbCellStyleMap
  3
ObjectDBX Classes
 90
     1152
 91
        2
280
     0
281
     0
  0
CLASS
  1
ACDBSECTIONVIEWSTYLE
  2
AcDbSectionViewStyle
  3
ObjectDBX Classes
 90
     1025
 91
        1
280
     0
281
     0
  0
CLASS
  1
ACDBDETAILVIEWSTYLE
  2
AcDbDetailViewStyle
  3
ObjectDBX Classes
 90
     1025
 91
        1
280
     0
281
     0
  0
CLASS
  1
SORTENTSTABLE
  2
AcDbSortentsTable
  3
ObjectDBX Classes
 90
        0
 91
        1
280
     0
281
     0
  0
ENDSEC
  0
SECTION
  2
TABLES
  0
TABLE
  2
VPORT
  5
8
330
0
100
AcDbSymbolTable
 70
    16
  0
VPORT
  5
29
330
8
100
AcDbSymbolTableRecord
100
AcDbViewportTableRecord
  2
*Active
 70
     0
 10
0.0
 20
0.0
 11
1.0
 21
1.0
 12
244.858162913541
 22
253.597849651719
 13
0.0
 23
0.0
 14
0.5
 24
0.5
 15
0.5
 25
0.5
 16
0.0
 26
0.0
 36
1.0
 17
0.0
 27
0.0
 37
0.0
 40
207.6472592889258
 41
2.283154121863799
 42
50.0
 43
260.850661
 44
-260.850661
 50
0.0
 51
0.0
 71
     0
 72
   100
 73
     1
 74
     3
 75
     0
 76
     0
 77
     0
 78
     0
281
     0
 65
     1
110
207.144248
120
243.731161
130
0.0
111
1.0
121
0.0
131
0.0
112
0.0
122
1.0
132
0.0
 79
     0
146
0.0
1001
ACAD_NAV_VCDISPLAY
1070
     3
  0
VPORT
  5
262
330
8
100
AcDbSymbolTableRecord
100
AcDbViewportTableRecord
  2
L1
 70
     0
 10
0.0
 20
0.0
 11
1.0
 21
1.0
 12
216.50499
 22
258.456787
 13
0.0
 23
0.0
 14
0.5
 24
0.5
 15
0.5
 25
0.5
 16
0.0
 26
0.0
 36
1.0
 17
0.0
 27
0.0
 37
0.0
 40
209.020833
 41
0.084952
 42
50.0
 43
260.850661
 44
-260.850661
 50
0.0
 51
0.0
 71
     0
 72
   100
 73
     1
 74
     3
 75
     0
 76
     0
 77
     0
 78
     0
281
     0
 65
     1
110
0.0
120
0.0
130
0.0
111
1.0
121
0.0
131
0.0
112
0.0
122
1.0
132
0.0
 79
     0
146
0.0
  0
VPORT
  5
263
330
8
100
AcDbSymbolTableRecord
100
AcDbViewportTableRecord
  2
L2
 70
     0
 10
0.0
 20
0.0
 11
0.5
 21
1.0
 12
0.0
 22
0.0
 13
0.0
 23
0.0
 14
0.5
 24
0.5
 15
0.5
 25
0.5
 16
0.0
 26
-1.0
 36
0.0
 17
0.0
 27
0.0
 37
0.0
 40
1485.861838
 41
0.01195
 42
50.0
 43
769.0441269999999
 44
-769.0441269999999
 50
0.0
 51
0.0
 71
     0
 72
   100
 73
     1
 74
     3
 75
     0
 76
     0
 77
     0
 78
     0
281
     0
 65
     1
110
0.0
120
0.0
130
0.0
111
1.0
121
0.0
131
0.0
112
0.0
122
1.0
132
0.0
 79
     0
146
0.0
  0
VPORT
  5
264
330
8
100
AcDbSymbolTableRecord
100
AcDbViewportTableRecord
  2
L2
 70
     0
 10
0.5
 20
0.0
 11
1.0
 21
1.0
 12
0.0
 22
0.0
 13
0.0
 23
0.0
 14
0.5
 24
0.5
 15
0.5
 25
0.5
 16
1.0
 26
0.0
 36
0.0
 17
0.0
 27
0.0
 37
0.0
 40
1485.861838
 41
0.01195
 42
50.0
 43
750.245812
 44
-750.245812
 50
0.0
 51
0.0
 71
     0
 72
   100
 73
     1
 74
     3
 75
     0
 76
     0
 77
     0
 78
     0
281
     0
 65
     1
110
0.0
120
0.0
130
0.0
111
1.0
121
0.0
131
0.0
112
0.0
122
1.0
132
0.0
 79
     0
146
0.0
  0
VPORT
  5
265
330
8
100
AcDbSymbolTableRecord
100
AcDbViewportTableRecord
  2
L3
 70
     0
 10
0.0
 20
0.5
 11
1.0
 21
1.0
 12
216.50499
 22
258.456787
 13
0.0
 23
0.0
 14
0.5
 24
0.5
 15
0.5
 25
0.5
 16
0.0
 26
0.0
 36
1.0
 17
0.0
 27
0.0
 37
0.0
 40
209.020833
 41
0.084952
 42
50.0
 43
260.850661
 44
-260.850661
 50
0.0
 51
0.0
 71
     0
 72
   100
 73
     1
 74
     3
 75
     0
 76
     0
 77
     0
 78
     0
281
     0
 65
     1
110
0.0
120
0.0
130
0.0
111
1.0
121
0.0
131
0.0
112
0.0
122
1.0
132
0.0
 79
     0
146
0.0
  0
VPORT
  5
266
330
8
100
AcDbSymbolTableRecord
100
AcDbViewportTableRecord
  2
L3
 70
     0
 10
0.0
 20
0.0
 11
1.0
 21
0.5
 12
0.0
 22
0.0
 13
0.0
 23
0.0
 14
0.5
 24
0.5
 15
0.5
 25
0.5
 16
0.0
 26
-1.0
 36
0.0
 17
0.0
 27
0.0
 37
0.0
 40
1485.861838
 41
0.01195
 42
50.0
 43
769.0441269999999
 44
-769.0441269999999
 50
0.0
 51
0.0
 71
     0
 72
   100
 73
     1
 74
     3
 75
     0
 76
     0
 77
     0
 78
     0
281
     0
 65
     1
110
0.0
120
0.0
130
0.0
111
1.0
121
0.0
131
0.0
112
0.0
122
1.0
132
0.0
 79
     0
146
0.0
  0
VPORT
  5
267
330
8
100
AcDbSymbolTableRecord
100
AcDbViewportTableRecord
  2
L4
 70
     0
 10
0.0
 20
0.5
 11
0.5
 21
1.0
 12
216.50499
 22
258.456787
 13
0.0
 23
0.0
 14
0.5
 24
0.5
 15
0.5
 25
0.5
 16
0.0
 26
0.0
 36
1.0
 17
0.0
 27
0.0
 37
0.0
 40
209.020833
 41
0.084952
 42
50.0
 43
260.850661
 44
-260.850661
 50
0.0
 51
0.0
 71
     0
 72
   100
 73
     1
 74
     3
 75
     0
 76
     0
 77
     0
 78
     0
281
     0
 65
     1
110
0.0
120
0.0
130
0.0
111
1.0
121
0.0
131
0.0
112
0.0
122
1.0
132
0.0
 79
     0
146
0.0
  0
VPORT
  5
268
330
8
100
AcDbSymbolTableRecord
100
AcDbViewportTableRecord
  2
L4
 70
     0
 10
0.0
 20
0.0
 11
0.5
 21
0.5
 12
0.0
 22
0.0
 13
0.0
 23
0.0
 14
0.5
 24
0.5
 15
0.5
 25
0.5
 16
0.0
 26
-1.0
 36
0.0
 17
0.0
 27
0.0
 37
0.0
 40
1485.861838
 41
0.01195
 42
50.0
 43
769.0441269999999
 44
-769.0441269999999
 50
0.0
 51
0.0
 71
     0
 72
   100
 73
     1
 74
     3
 75
     0
 76
     0
 77
     0
 78
     0
281
     0
 65
     1
110
0.0
120
0.0
130
0.0
111
1.0
121
0.0
131
0.0
112
0.0
122
1.0
132
0.0
 79
     0
146
0.0
  0
VPORT
  5
269
330
8
100
AcDbSymbolTableRecord
100
AcDbViewportTableRecord
  2
L4
 70
     0
 10
0.5
 20
0.0
 11
1.0
 21
0.5
 12
0.0
 22
0.0
 13
0.0
 23
0.0
 14
0.5
 24
0.5
 15
0.5
 25
0.5
 16
1.0
 26
0.0
 36
0.0
 17
0.0
 27
0.0
 37
0.0
 40
1485.861838
 41
0.01195
 42
50.0
 43
750.245812
 44
-750.245812
 50
0.0
 51
0.0
 71
     0
 72
   100
 73
     1
 74
     3
 75
     0
 76
     0
 77
     0
 78
     0
281
     0
 65
     1
110
0.0
120
0.0
130
0.0
111
1.0
121
0.0
131
0.0
112
0.0
122
1.0
132
0.0
 79
     0
146
0.0
  0
VPORT
  5
26A
330
8
100
AcDbSymbolTableRecord
100
AcDbViewportTableRecord
  2
L4
 70
     0
 10
0.5
 20
0.5
 11
1.0
 21
1.0
 12
0.0
 22
0.0
 13
0.0
 23
0.0
 14
0.5
 24
0.5
 15
0.5
 25
0.5
 16
0.5773502691896259
 26
-0.5773502691896259
 36
0.5773502691896259
 17
0.0
 27
0.0
 37
0.0
 40
1460.77308
 41
0.012156
 42
50.0
 43
761.2052339999999
 44
-761.2052339999999
 50
0.0
 51
0.0
 71
     0
 72
   100
 73
     1
 74
     3
 75
     0
 76
     0
 77
     0
 78
     0
281
     0
 65
     1
110
0.0
120
0.0
130
0.0
111
1.0
121
0.0
131
0.0
112
0.0
122
1.0
132
0.0
 79
     0
146
0.0
  0
VPORT
  5
26B
330
8
100
AcDbSymbolTableRecord
100
AcDbViewportTableRecord
  2
L6
 70
     0
 10
0.0
 20
0.5
 11
0.333333
 21
1.0
 12
0.0
 22
0.0
 13
0.0
 23
0.0
 14
0.5
 24
0.5
 15
0.5
 25
0.5
 16
0.7188730927569434
 26
-0.5850486126764433
 36
0.3754192287502549
 17
0.0
 27
0.0
 37
0.0
 40
1542.425587
 41
0.011512
 42
50.0
 43
798.3761809999999
 44
-798.3761809999999
 50
0.0
 51
0.0
 71
     0
 72
   100
 73
     1
 74
     3
 75
     0
 76
     0
 77
     0
 78
     0
281
     0
 65
     1
110
0.0
120
0.0
130
0.0
111
1.0
121
0.0
131
0.0
112
0.0
122
1.0
132
0.0
 79
     0
146
0.0
  0
VPORT
  5
26C
330
8
100
AcDbSymbolTableRecord
100
AcDbViewportTableRecord
  2
L6
 70
     0
 10
0.0
 20
0.0
 11
0.333333
 21
0.5
 12
0.0
 22
0.0
 13
0.0
 23
0.0
 14
0.5
 24
0.5
 15
0.5
 25
0.5
 16
-1.0
 26
0.0
 36
0.0
 17
0.0
 27
0.0
 37
0.0
 40
1485.861838
 41
0.01195
 42
50.0
 43
750.245812
 44
-750.245812
 50
0.0
 51
0.0
 71
     0
 72
   100
 73
     1
 74
     3
 75
     0
 76
     0
 77
     0
 78
     0
281
     0
 65
     1
110
0.0
120
0.0
130
0.0
111
1.0
121
0.0
131
0.0
112
0.0
122
1.0
132
0.0
 79
     0
146
0.0
  0
VPORT
  5
26D
330
8
100
AcDbSymbolTableRecord
100
AcDbViewportTableRecord
  2
L6
 70
     0
 10
0.333333
 20
0.5
 11
0.666667
 21
1.0
 12
216.50499
 22
258.456787
 13
0.0
 23
0.0
 14
0.5
 24
0.5
 15
0.5
 25
0.5
 16
0.0
 26
0.0
 36
1.0
 17
0.0
 27
0.0
 37
0.0
 40
209.020833
 41
0.084952
 42
50.0
 43
260.850661
 44
-260.850661
 50
0.0
 51
0.0
 71
     0
 72
   100
 73
     1
 74
     3
 75
     0
 76
     0
 77
     0
 78
     0
281
     0
 65
     1
110
0.0
120
0.0
130
0.0
111
1.0
121
0.0
131
0.0
112
0.0
122
1.0
132
0.0
 79
     0
146
0.0
  0
VPORT
  5
26E
330
8
100
AcDbSymbolTableRecord
100
AcDbViewportTableRecord
  2
L6
 70
     0
 10
0.333333
 20
0.0
 11
0.666667
 21
0.5
 12
0.0
 22
0.0
 13
0.0
 23
0.0
 14
0.5
 24
0.5
 15
0.5
 25
0.5
 16
0.0
 26
-1.0
 36
0.0
 17
0.0
 27
0.0
 37
0.0
 40
1485.861838
 41
0.01195
 42
50.0
 43
769.0441269999999
 44
-769.0441269999999
 50
0.0
 51
0.0
 71
     0
 72
   100
 73
     1
 74
     3
 75
     0
 76
     0
 77
     0
 78
     0
281
     0
 65
     1
110
0.0
120
0.0
130
0.0
111
1.0
121
0.0
131
0.0
112
0.0
122
1.0
132
0.0
 79
     0
146
0.0
  0
VPORT
  5
26F
330
8
100
AcDbSymbolTableRecord
100
AcDbViewportTableRecord
  2
L6
 70
     0
 10
0.666667
 20
0.5
 11
1.0
 21
1.0
 12
0.0
 22
0.0
 13
0.0
 23
0.0
 14
0.5
 24
0.5
 15
0.5
 25
0.5
 16
0.5773502691896259
 26
-0.5773502691896259
 36
0.5773502691896259
 17
0.0
 27
0.0
 37
0.0
 40
1460.77308
 41
0.012156
 42
50.0
 43
761.2052339999999
 44
-761.2052339999999
 50
0.0
 51
0.0
 71
     0
 72
   100
 73
     1
 74
     3
 75
     0
 76
     0
 77
     0
 78
     0
281
     0
 65
     1
110
0.0
120
0.0
130
0.0
111
1.0
121
0.0
131
0.0
112
0.0
122
1.0
132
0.0
 79
     0
146
0.0
  0
VPORT
  5
270
330
8
100
AcDbSymbolTableRecord
100
AcDbViewportTableRecord
  2
L6
 70
     0
 10
0.666667
 20
0.0
 11
1.0
 21
0.5
 12
0.0
 22
0.0
 13
0.0
 23
0.0
 14
0.5
 24
0.5
 15
0.5
 25
0.5
 16
1.0
 26
0.0
 36
0.0
 17
0.0
 27
0.0
 37
0.0
 40
1485.861838
 41
0.01195
 42
50.0
 43
750.245812
 44
-750.245812
 50
0.0
 51
0.0
 71
     0
 72
   100
 73
     1
 74
     3
 75
     0
 76
     0
 77
     0
 78
     0
281
     0
 65
     1
110
0.0
120
0.0
130
0.0
111
1.0
121
0.0
131
0.0
112
0.0
122
1.0
132
0.0
 79
     0
146
0.0
  0
ENDTAB
  0
TABLE
  2
LTYPE
  5
5
330
0
100
AcDbSymbolTable
 70
     7
  0
LTYPE
  5
14
330
5
100
AcDbSymbolTableRecord
100
AcDbLinetypeTableRecord
  2
ByBlock
 70
     0
  3

 72
    65
 73
     0
 40
0.0
  0
LTYPE
  5
15
330
5
100
AcDbSymbolTableRecord
100
AcDbLinetypeTableRecord
  2
ByLayer
 70
     0
  3

 72
    65
 73
     0
 40
0.0
  0
LTYPE
  5
16
330
5
100
AcDbSymbolTableRecord
100
AcDbLinetypeTableRecord
  2
Continuous
 70
     0
  3
Solid line
 72
    65
 73
     0
 40
0.0
  0
LTYPE
  5
6E
330
5
100
AcDbSymbolTableRecord
100
AcDbLinetypeTableRecord
  2
CENTER
 70
     0
  3
____ _ ____ _ ____ _ ____
 72
    65
 73
     4
 40
47.4
 49
22.0
 74
     4
 75
     0
340
0
 46
0.0
 50
0.0
 44
0.0
 45
0.0
 49
-8.5
 74
     4
 75
     0
340
0
 46
0.0
 50
0.0
 44
0.0
 45
0.0
 49
8.5
 74
     4
 75
     0
340
0
 46
0.0
 50
0.0
 44
0.0
 45
0.0
 49
-8.5
 74
     4
 75
     0
340
0
 46
0.0
 50
0.0
 44
0.0
 45
0.0
  0
LTYPE
  5
6F
330
5
100
AcDbSymbolTableRecord
100
AcDbLinetypeTableRecord
  2
DASHDOT
 70
     0
  3
_._._._._._._._._._._._._._._._.
 72
    65
 73
     4
 40
70.0
 49
31.0
 74
     4
 75
     0
340
0
 46
0.0
 50
0.0
 44
0.0
 45
0.0
 49
-13.0
 74
     4
 75
     0
340
0
 46
0.0
 50
0.0
 44
0.0
 45
0.0
 49
13.0
 74
     4
 75
     0
340
0
 46
0.0
 50
0.0
 44
0.0
 45
0.0
 49
-13.0
 74
     4
 75
     0
340
0
 46
0.0
 50
0.0
 44
0.0
 45
0.0
  0
LTYPE
  5
70
330
5
100
AcDbSymbolTableRecord
100
AcDbLinetypeTableRecord
  2
DASHED
 70
     0
  3
__ __ __ __ __ __ __ __ __
 72
    65
 73
     2
 40
25.72
 49
12.86
 74
     4
 75
     0
340
0
 46
0.0
 50
0.0
 44
0.0
 45
0.0
 49
-12.86
 74
     4
 75
     0
340
0
 46
0.0
 50
0.0
 44
0.0
 45
0.0
  0
LTYPE
  5
71
330
5
100
AcDbSymbolTableRecord
100
AcDbLinetypeTableRecord
  2
DOT
 70
     0
  3
.........................
 72
    65
 73
     2
 40
10.0
 49
0.0
 74
     4
 75
     0
340
0
 46
0.0
 50
0.0
 44
0.0
 45
0.0
 49
-10.0
 74
     4
 75
     0
340
0
 46
0.0
 50
0.0
 44
0.0
 45
0.0
  0
LTYPE
  5
72
330
5
100
AcDbSymbolTableRecord
100
AcDbLinetypeTableRecord
  2
PHANTOM
 70
     0
  3
____ _ _ ____ _ _ _____ _ _ ____
 72
    65
 73
     6
 40
50.5
 49
18.0
 74
     4
 75
     0
340
0
 46
0.0
 50
0.0
 44
0.0
 45
0.0
 49
-6.5
 74
     4
 75
     0
340
0
 46
0.0
 50
0.0
 44
0.0
 45
0.0
 49
6.5
 74
     4
 75
     0
340
0
 46
0.0
 50
0.0
 44
0.0
 45
0.0
 49
-6.5
 74
     4
 75
     0
340
0
 46
0.0
 50
0.0
 44
0.0
 45
0.0
 49
6.5
 74
     4
 75
     0
340
0
 46
0.0
 50
0.0
 44
0.0
 45
0.0
 49
-6.5
 74
     4
 75
     0
340
0
 46
0.0
 50
0.0
 44
0.0
 45
0.0
  0
LTYPE
  5
336
330
5
100
AcDbSymbolTableRecord
100
AcDbLinetypeTableRecord
  2
CENTER2
 70
     0
  3
Center (.5x) ___ _ ___ _ ___ _ ___ _ ___ _ ___
 72
    65
 73
     4
 40
1.125
 49
0.75
 74
     0
 49
-0.125
 74
     0
 49
0.125
 74
     0
 49
-0.125
 74
     0
  0
ENDTAB
  0
TABLE
  2
LAYER
  5
2
330
0
100
AcDbSymbolTable
 70
    21
  0
LAYER
  5
10
102
{ACAD_XDICTIONARY
360
341
102
}
330
2
100
AcDbSymbolTableRecord
100
AcDbLayerTableRecord
  2
0
 70
     0
 62
     7
  6
Continuous
370
    -3
390
F
  0
LAYER
  5
1D3
330
2
100
AcDbSymbolTableRecord
100
AcDbLayerTableRecord
  2
Defpoints
 70
     0
 62
     7
  6
Continuous
290
     0
370
    -3
390
F
  0
LAYER
  5
333
102
{ACAD_XDICTIONARY
360
343
102
}
330
2
100
AcDbSymbolTableRecord
100
AcDbLayerTableRecord
  2
1
 70
     0
 62
     4
  6
Continuous
370
    -3
390
F
  0
LAYER
  5
334
102
{ACAD_XDICTIONARY
360
345
102
}
330
2
100
AcDbSymbolTableRecord
100
AcDbLayerTableRecord
  2
2
 70
     0
 62
     7
  6
Continuous
370
    -3
390
F
  0
LAYER
  5
335
102
{ACAD_XDICTIONARY
360
347
102
}
330
2
100
AcDbSymbolTableRecord
100
AcDbLayerTableRecord
  2
4
 70
     0
 62
     2
  6
CENTER2
370
    -3
390
F
  0
LAYER
  5
337
102
{ACAD_XDICTIONARY
360
349
102
}
330
2
100
AcDbSymbolTableRecord
100
AcDbLayerTableRecord
  2
SK1
 70
     0
 62
     4
  6
Continuous
370
    -3
390
F
  0
LAYER
  5
338
102
{ACAD_XDICTIONARY
360
34B
102
}
330
2
100
AcDbSymbolTableRecord
100
AcDbLayerTableRecord
  2
SK2
 70
     0
 62
     7
  6
Continuous
370
    -3
390
F
  0
LAYER
  5
33A
102
{ACAD_XDICTIONARY
360
34D
102
}
330
2
100
AcDbSymbolTableRecord
100
AcDbLayerTableRecord
  2
SK4
 70
     0
 62
     2
  6
CENTER2
370
    -3
390
F
  0
LAYER
  5
33B
102
{ACAD_XDICTIONARY
360
34F
102
}
330
2
100
AcDbSymbolTableRecord
100
AcDbLayerTableRecord
  2
SK6
 70
     0
 62
     5
  6
Continuous
370
    -3
390
F
  0
LAYER
  5
33C
102
{ACAD_XDICTIONARY
360
351
102
}
330
2
100
AcDbSymbolTableRecord
100
AcDbLayerTableRecord
  2
CUT
 70
     0
 62
     1
  6
Continuous
370
    -3
390
F
  0
LAYER
  5
33D
102
{ACAD_XDICTIONARY
360
353
102
}
330
2
100
AcDbSymbolTableRecord
100
AcDbLayerTableRecord
  2
NOCUT
 70
     0
 62
     7
  6
Continuous
370
    -3
390
F
  0
LAYER
  5
33E
102
{ACAD_XDICTIONARY
360
355
102
}
330
2
100
AcDbSymbolTableRecord
100
AcDbLayerTableRecord
  2
80
 70
     0
 62
     6
  6
Continuous
370
    -3
390
F
  0
LAYER
  5
33F
102
{ACAD_XDICTIONARY
360
357
102
}
330
2
100
AcDbSymbolTableRecord
100
AcDbLayerTableRecord
  2
81
 70
     0
 62
     3
  6
Continuous
370
    -3
390
F
  0
ENDTAB
  0
TABLE
  2
STYLE
  5
3
330
0
100
AcDbSymbolTable
 70
     3
  0
STYLE
  5
11
330
3
100
AcDbSymbolTableRecord
100
AcDbTextStyleTableRecord
  2
Standard
 70
     0
 40
0.0
 41
1.0
 50
0.0
 71
     0
 42
0.2
  3
txt
  4

  0
STYLE
  5
1CD
330
3
100
AcDbSymbolTableRecord
100
AcDbTextStyleTableRecord
  2
cesky
 70
     0
 40
0.0
 41
1.0
 50
0.0
 71
     0
 42
0.2
  3
simplex.shx
  4

  0
STYLE
  5
1CE
330
3
100
AcDbSymbolTableRecord
100
AcDbTextStyleTableRecord
  2
DWGDirectTextStyle
 70
     0
 40
0.0
 41
1.0
 50
0.0
 71
     0
 42
0.2
  3
simplex
  4

  0
ENDTAB
  0
TABLE
  2
VIEW
  5
6
330
0
100
AcDbSymbolTable
 70
     0
  0
ENDTAB
  0
TABLE
  2
UCS
  5
7
330
0
100
AcDbSymbolTable
 70
     0
  0
ENDTAB
  0
TABLE
  2
APPID
  5
9
330
0
100
AcDbSymbolTable
 70
     7
  0
APPID
  5
12
330
9
100
AcDbSymbolTableRecord
100
AcDbRegAppTableRecord
  2
ACAD
 70
     0
  0
APPID
  5
1CF
330
9
100
AcDbSymbolTableRecord
100
AcDbRegAppTableRecord
  2
ACAD_DSTYLE_DIMBREAK
 70
     0
  0
APPID
  5
271
330
9
100
AcDbSymbolTableRecord
100
AcDbRegAppTableRecord
  2
ACAD_DSTYLE_DIM_LINETYPE
 70
     0
  0
APPID
  5
272
330
9
100
AcDbSymbolTableRecord
100
AcDbRegAppTableRecord
  2
ACAD_DSTYLE_DIM_EXT1_LINETYPE
 70
     0
  0
APPID
  5
273
330
9
100
AcDbSymbolTableRecord
100
AcDbRegAppTableRecord
  2
ACAD_DSTYLE_DIM_EXT2_LINETYPE
 70
     0
  0
APPID
  5
2B3
330
9
100
AcDbSymbolTableRecord
100
AcDbRegAppTableRecord
  2
ACAD_MLEADERVER
 70
     0
  0
APPID
  5
35C
330
9
100
AcDbSymbolTableRecord
100
AcDbRegAppTableRecord
  2
ACAD_NAV_VCDISPLAY
 70
     0
  0
ENDTAB
  0
TABLE
  2
DIMSTYLE
  5
A
330
0
100
AcDbSymbolTable
 70
     1
100
AcDbDimStyleTable
 71
     0
  0
DIMSTYLE
105
27
330
A
100
AcDbSymbolTableRecord
100
AcDbDimStyleTableRecord
  2
Standard
 70
     0
340
11
1001
ACAD_DSTYLE_DIMBREAK
1070
   391
1040
6.349999999999999
  0
ENDTAB
  0
TABLE
  2
BLOCK_RECORD
  5
1
330
0
100
AcDbSymbolTable
 70
    13
  0
BLOCK_RECORD
  5
1F
102
{ACAD_XDICTIONARY
360
2C3
102
}
330
1
100
AcDbSymbolTableRecord
100
AcDbBlockTableRecord
  2
*Model_Space
340
22
  0
BLOCK_RECORD
  5
1B
330
1
100
AcDbSymbolTableRecord
100
AcDbBlockTableRecord
  2
*Paper_Space
340
1E
  0
BLOCK_RECORD
  5
23
330
1
100
AcDbSymbolTableRecord
100
AcDbBlockTableRecord
  2
*Paper_Space0
340
26
  0
BLOCK_RECORD
  5
1D4
330
1
100
AcDbSymbolTableRecord
100
AcDbBlockTableRecord
  2
*D1
340
0
  0
BLOCK_RECORD
  5
1E0
330
1
100
AcDbSymbolTableRecord
100
AcDbBlockTableRecord
  2
_U0
340
0
  0
BLOCK_RECORD
  5
1EC
330
1
100
AcDbSymbolTableRecord
100
AcDbBlockTableRecord
  2
*D3
340
0
  0
BLOCK_RECORD
  5
1F8
330
1
100
AcDbSymbolTableRecord
100
AcDbBlockTableRecord
  2
_U1
340
0
  0
BLOCK_RECORD
  5
204
330
1
100
AcDbSymbolTableRecord
100
AcDbBlockTableRecord
  2
*D5
340
0
  0
BLOCK_RECORD
  5
210
330
1
100
AcDbSymbolTableRecord
100
AcDbBlockTableRecord
  2
_U2
340
0
  0
BLOCK_RECORD
  5
21C
330
1
100
AcDbSymbolTableRecord
100
AcDbBlockTableRecord
  2
*D7
340
0
  0
BLOCK_RECORD
  5
22A
330
1
100
AcDbSymbolTableRecord
100
AcDbBlockTableRecord
  2
_U3
340
0
  0
BLOCK_RECORD
  5
236
330
1
100
AcDbSymbolTableRecord
100
AcDbBlockTableRecord
  2
*D9
340
0
  0
BLOCK_RECORD
  5
241
330
1
100
AcDbSymbolTableRecord
100
AcDbBlockTableRecord
  2
_U4
340
0
  0
BLOCK_RECORD
  5
24C
330
1
100
AcDbSymbolTableRecord
100
AcDbBlockTableRecord
  2
*D11
340
0
  0
BLOCK_RECORD
  5
258
330
1
100
AcDbSymbolTableRecord
100
AcDbBlockTableRecord
  2
_U5
340
0
  0
ENDTAB
  0
ENDSEC
  0
SECTION
  2
BLOCKS
  0
BLOCK
  5
20
330
1F
100
AcDbEntity
  8
0
100
AcDbBlockBegin
  2
*Model_Space
 70
     0
 10
0.0
 20
0.0
 30
0.0
  3
*Model_Space
  1

  0
ENDBLK
  5
21
330
1F
100
AcDbEntity
  8
0
100
AcDbBlockEnd
  0
BLOCK
  5
1C
330
1B
100
AcDbEntity
 67
     1
  8
0
100
AcDbBlockBegin
  2
*Paper_Space
 70
     0
 10
0.0
 20
0.0
 30
0.0
  3
*Paper_Space
  1

  0
ENDBLK
  5
1D
330
1B
100
AcDbEntity
 67
     1
  8
0
100
AcDbBlockEnd
  0
BLOCK
  5
24
330
23
100
AcDbEntity
 67
     1
  8
0
100
AcDbBlockBegin
  2
*Paper_Space0
 70
     0
 10
0.0
 20
0.0
 30
0.0
  3
*Paper_Space0
  1

  0
ENDBLK
  5
25
330
23
100
AcDbEntity
 67
     1
  8
0
100
AcDbBlockEnd
  0
BLOCK
  5
1D5
330
1D4
100
AcDbEntity
  8
0
100
AcDbBlockBegin
  2
*D1
 70
     1
 10
0.0
 20
0.0
 30
0.0
  3
*D1
  1

  0
LINE
  5
1D7
330
1D4
100
AcDbEntity
  8
0
 62
   254
370
    -2
100
AcDbLine
 10
237.144248
 20
243.731161
 30
0.0
 11
237.144248
 21
277.644584
 31
0.0
  0
LINE
  5
1D8
330
1D4
100
AcDbEntity
  8
0
 62
   254
370
    -2
100
AcDbLine
 10
277.144248
 20
255.731161
 30
0.0
 11
277.144248
 21
277.644584
 31
0.0
  0
LINE
  5
1D9
330
1D4
100
AcDbEntity
  8
0
 62
   254
370
    -2
100
AcDbLine
 10
240.644248
 20
276.644584
 30
0.0
 11
273.644248
 21
276.644584
 31
0.0
  0
SOLID
  5
1DA
330
1D4
100
AcDbEntity
  8
0
 62
   254
100
AcDbTrace
 10
240.644248
 20
277.227918
 30
0.0
 11
240.644248
 21
276.061251
 31
0.0
 12
237.144248
 22
276.644584
 32
0.0
 13
237.144248
 23
276.644584
 33
0.0
  0
SOLID
  5
1DB
330
1D4
100
AcDbEntity
  8
0
 62
   254
100
AcDbTrace
 10
273.644248
 20
276.061251
 30
0.0
 11
273.644248
 21
277.227918
 31
0.0
 12
277.144248
 22
276.644584
 32
0.0
 13
277.144248
 23
276.644584
 33
0.0
  0
MTEXT
  5
1DC
330
1D4
100
AcDbEntity
  8
0
 62
   254
370
    13
100
AcDbMText
 10
257.144248
 20
281.894584
 30
0.0
 40
3.5
 41
0.0
 71
     5
 72
     1
  1
\A1;40
  7
cesky
 73
     1
 44
1.0
  0
POINT
  5
1DD
330
1D4
100
AcDbEntity
  8
Defpoints
 62
     0
100
AcDbPoint
 10
237.144248
 20
243.731161
 30
0.0
  0
POINT
  5
1DE
330
1D4
100
AcDbEntity
  8
Defpoints
 62
     0
100
AcDbPoint
 10
277.144248
 20
255.731161
 30
0.0
  0
POINT
  5
1DF
330
1D4
100
AcDbEntity
  8
Defpoints
 62
     0
100
AcDbPoint
 10
277.144248
 20
276.644584
 30
0.0
  0
ENDBLK
  5
1D6
330
1D4
100
AcDbEntity
  8
0
100
AcDbBlockEnd
  0
BLOCK
  5
1E7
330
1E0
100
AcDbEntity
  8
0
100
AcDbBlockBegin
  2
_U0
 70
     0
 10
0.0
 20
0.0
 30
0.0
  3
_U0
  1

  0
ENDBLK
  5
1E8
330
1E0
100
AcDbEntity
  8
0
100
AcDbBlockEnd
  0
BLOCK
  5
1ED
330
1EC
100
AcDbEntity
  8
0
100
AcDbBlockBegin
  2
*D3
 70
     1
 10
0.0
 20
0.0
 30
0.0
  3
*D3
  1

  0
LINE
  5
1EF
330
1EC
100
AcDbEntity
  8
0
 62
    95
370
    -2
100
AcDbLine
 10
157.144248
 20
252.731161
 30
0.0
 11
157.144248
 21
300.185289
 31
0.0
  0
LINE
  5
1F0
330
1EC
100
AcDbEntity
  8
0
 62
    95
370
    -2
100
AcDbLine
 10
277.144248
 20
253.731161
 30
0.0
 11
277.144248
 21
300.185289
 31
0.0
  0
LINE
  5
1F1
330
1EC
100
AcDbEntity
  8
0
 62
    95
370
    -2
100
AcDbLine
 10
160.644248
 20
299.185289
 30
0.0
 11
273.644248
 21
299.185289
 31
0.0
  0
SOLID
  5
1F2
330
1EC
100
AcDbEntity
  8
0
 62
    95
100
AcDbTrace
 10
160.644248
 20
299.768623
 30
0.0
 11
160.644248
 21
298.601956
 31
0.0
 12
157.144248
 22
299.185289
 32
0.0
 13
157.144248
 23
299.185289
 33
0.0
  0
SOLID
  5
1F3
330
1EC
100
AcDbEntity
  8
0
 62
    95
100
AcDbTrace
 10
273.644248
 20
298.601956
 30
0.0
 11
273.644248
 21
299.768623
 31
0.0
 12
277.144248
 22
299.185289
 32
0.0
 13
277.144248
 23
299.185289
 33
0.0
  0
MTEXT
  5
1F4
330
1EC
100
AcDbEntity
  8
0
 62
    95
370
    13
100
AcDbMText
 10
217.144248
 20
304.435289
 30
0.0
 40
3.5
 41
0.0
 71
     5
 72
     1
  1
\A1;120
  7
cesky
 73
     1
 44
1.0
  0
POINT
  5
1F5
330
1EC
100
AcDbEntity
  8
Defpoints
 62
     0
100
AcDbPoint
 10
157.144248
 20
252.731161
 30
0.0
  0
POINT
  5
1F6
330
1EC
100
AcDbEntity
  8
Defpoints
 62
     0
100
AcDbPoint
 10
277.144248
 20
253.731161
 30
0.0
  0
POINT
  5
1F7
330
1EC
100
AcDbEntity
  8
Defpoints
 62
     0
100
AcDbPoint
 10
277.144248
 20
299.185289
 30
0.0
  0
ENDBLK
  5
1EE
330
1EC
100
AcDbEntity
  8
0
100
AcDbBlockEnd
  0
BLOCK
  5
1FF
330
1F8
100
AcDbEntity
  8
0
100
AcDbBlockBegin
  2
_U1
 70
     0
 10
0.0
 20
0.0
 30
0.0
  3
_U1
  1

  0
ENDBLK
  5
200
330
1F8
100
AcDbEntity
  8
0
100
AcDbBlockEnd
  0
BLOCK
  5
205
330
204
100
AcDbEntity
  8
0
100
AcDbBlockBegin
  2
*D5
 70
     1
 10
0.0
 20
0.0
 30
0.0
  3
*D5
  1

  0
LINE
  5
207
330
204
100
AcDbEntity
  8
0
 62
    95
370
    -2
100
AcDbLine
 10
277.144248
 20
255.731161
 30
0.0
 11
277.144248
 21
286.792925
 31
0.0
  0
LINE
  5
208
330
204
100
AcDbEntity
  8
0
 62
    95
370
    -2
100
AcDbLine
 10
207.144248
 20
242.731588
 30
0.0
 11
207.144248
 21
286.792925
 31
0.0
  0
LINE
  5
209
330
204
100
AcDbEntity
  8
0
 62
    95
370
    -2
100
AcDbLine
 10
273.644248
 20
285.792925
 30
0.0
 11
210.644248
 21
285.792925
 31
0.0
  0
SOLID
  5
20A
330
204
100
AcDbEntity
  8
0
 62
    95
100
AcDbTrace
 10
273.644248
 20
285.209591
 30
0.0
 11
273.644248
 21
286.376258
 31
0.0
 12
277.144248
 22
285.792925
 32
0.0
 13
277.144248
 23
285.792925
 33
0.0
  0
SOLID
  5
20B
330
204
100
AcDbEntity
  8
0
 62
    95
100
AcDbTrace
 10
210.644248
 20
286.376258
 30
0.0
 11
210.644248
 21
285.209591
 31
0.0
 12
207.144248
 22
285.792925
 32
0.0
 13
207.144248
 23
285.792925
 33
0.0
  0
MTEXT
  5
20C
330
204
100
AcDbEntity
  8
0
 62
    95
370
    13
100
AcDbMText
 10
242.144248
 20
291.042925
 30
0.0
 40
3.5
 41
0.0
 71
     5
 72
     1
  1
\A1;70
  7
cesky
 73
     1
 44
1.0
  0
POINT
  5
20D
330
204
100
AcDbEntity
  8
Defpoints
 62
     0
100
AcDbPoint
 10
277.144248
 20
255.731161
 30
0.0
  0
POINT
  5
20E
330
204
100
AcDbEntity
  8
Defpoints
 62
     0
100
AcDbPoint
 10
207.144248
 20
242.731588
 30
0.0
  0
POINT
  5
20F
330
204
100
AcDbEntity
  8
Defpoints
 62
     0
100
AcDbPoint
 10
207.144248
 20
285.792925
 30
0.0
  0
ENDBLK
  5
206
330
204
100
AcDbEntity
  8
0
100
AcDbBlockEnd
  0
BLOCK
  5
217
330
210
100
AcDbEntity
  8
0
100
AcDbBlockBegin
  2
_U2
 70
     0
 10
0.0
 20
0.0
 30
0.0
  3
_U2
  1

  0
ENDBLK
  5
218
330
210
100
AcDbEntity
  8
0
100
AcDbBlockEnd
  0
BLOCK
  5
21D
330
21C
100
AcDbEntity
  8
0
100
AcDbBlockBegin
  2
*D7
 70
     1
 10
0.0
 20
0.0
 30
0.0
  3
*D7
  1

  0
LINE
  5
21F
330
21C
100
AcDbEntity
  8
0
 62
   254
370
    -2
100
AcDbLine
 10
277.144248
 20
251.731161
 30
0.0
 11
277.144248
 21
261.208648
 31
0.0
  0
LINE
  5
220
330
21C
100
AcDbEntity
  8
0
 62
   254
370
    -2
100
AcDbLine
 10
276.129089
 20
253.443182
 30
0.0
 11
276.129089
 21
261.208648
 31
0.0
  0
LINE
  5
221
330
21C
100
AcDbEntity
  8
0
 62
   254
370
    -2
100
AcDbLine
 10
276.129089
 20
260.208648
 30
0.0
 11
261.295756
 21
260.208648
 31
0.0
  0
LINE
  5
222
330
21C
100
AcDbEntity
  8
0
 62
   254
370
    -2
100
AcDbLine
 10
280.644248
 20
260.208648
 30
0.0
 11
284.144248
 21
260.208648
 31
0.0
  0
LINE
  5
223
330
21C
100
AcDbEntity
  8
0
 62
   254
370
    -2
100
AcDbLine
 10
272.629089
 20
260.208648
 30
0.0
 11
269.129089
 21
260.208648
 31
0.0
  0
SOLID
  5
224
330
21C
100
AcDbEntity
  8
0
 62
   254
100
AcDbTrace
 10
280.644248
 20
260.791981
 30
0.0
 11
280.644248
 21
259.625315
 31
0.0
 12
277.144248
 22
260.208648
 32
0.0
 13
277.144248
 23
260.208648
 33
0.0
  0
SOLID
  5
225
330
21C
100
AcDbEntity
  8
0
 62
   254
100
AcDbTrace
 10
272.629089
 20
259.625315
 30
0.0
 11
272.629089
 21
260.791981
 31
0.0
 12
276.129089
 22
260.208648
 32
0.0
 13
276.129089
 23
260.208648
 33
0.0
  0
MTEXT
  5
226
330
21C
100
AcDbEntity
  8
0
 62
   254
370
    13
100
AcDbMText
 10
265.212423
 20
265.458648
 30
0.0
 40
3.5
 41
0.0
 71
     5
 72
     1
  1
\A1;1
  7
cesky
 73
     1
 44
1.0
  0
POINT
  5
227
330
21C
100
AcDbEntity
  8
Defpoints
 62
     0
100
AcDbPoint
 10
277.144248
 20
251.731161
 30
0.0
  0
POINT
  5
228
330
21C
100
AcDbEntity
  8
Defpoints
 62
     0
100
AcDbPoint
 10
276.129089
 20
253.443182
 30
0.0
  0
POINT
  5
229
330
21C
100
AcDbEntity
  8
Defpoints
 62
     0
100
AcDbPoint
 10
276.129089
 20
260.208648
 30
0.0
  0
ENDBLK
  5
21E
330
21C
100
AcDbEntity
  8
0
100
AcDbBlockEnd
  0
BLOCK
  5
231
330
22A
100
AcDbEntity
  8
0
100
AcDbBlockBegin
  2
_U3
 70
     0
 10
0.0
 20
0.0
 30
0.0
  3
_U3
  1

  0
ENDBLK
  5
232
330
22A
100
AcDbEntity
  8
0
100
AcDbBlockEnd
  0
BLOCK
  5
237
330
236
100
AcDbEntity
  8
0
100
AcDbBlockBegin
  2
*D9
 70
     1
 10
0.0
 20
0.0
 30
0.0
  3
*D9
  1

  0
LINE
  5
239
330
236
100
AcDbEntity
  8
0
 62
   254
370
    -2
100
AcDbLine
 10
158.144248
 20
243.731161
 30
0.0
 11
291.499321
 21
243.731161
 31
0.0
  0
LINE
  5
23A
330
236
100
AcDbEntity
  8
0
 62
   254
370
    -2
100
AcDbLine
 10
279.144248
 20
253.731161
 30
0.0
 11
291.499321
 21
253.731161
 31
0.0
  0
LINE
  5
23B
330
236
100
AcDbEntity
  8
0
 62
   254
370
    -2
100
AcDbLine
 10
290.499321
 20
257.231161
 30
0.0
 11
290.499321
 21
260.731161
 31
0.0
  0
SOLID
  5
23C
330
236
100
AcDbEntity
  8
0
 62
   254
100
AcDbTrace
 10
289.915988
 20
257.231161
 30
0.0
 11
291.082655
 21
257.231161
 31
0.0
 12
290.499321
 22
253.731161
 32
0.0
 13
290.499321
 23
253.731161
 33
0.0
  0
MTEXT
  5
23D
330
236
100
AcDbEntity
  8
0
 62
   254
370
    13
100
AcDbMText
 10
285.249321
 20
230.397828
 30
0.0
 40
3.5
 41
0.0
 71
     5
 72
     1
  1
\A1;20
  7
cesky
 11
0.0
 21
1.0
 31
0.0
 73
     1
 44
1.0
  0
POINT
  5
23E
330
236
100
AcDbEntity
  8
Defpoints
 62
     0
100
AcDbPoint
 10
158.144248
 20
243.731161
 30
0.0
  0
POINT
  5
23F
330
236
100
AcDbEntity
  8
Defpoints
 62
     0
100
AcDbPoint
 10
279.144248
 20
253.731161
 30
0.0
  0
POINT
  5
240
330
236
100
AcDbEntity
  8
Defpoints
 62
     0
100
AcDbPoint
 10
290.499321
 20
253.731161
 30
0.0
  0
ENDBLK
  5
238
330
236
100
AcDbEntity
  8
0
100
AcDbBlockEnd
  0
BLOCK
  5
247
330
241
100
AcDbEntity
  8
0
100
AcDbBlockBegin
  2
_U4
 70
     0
 10
0.0
 20
0.0
 30
0.0
  3
_U4
  1

  0
ENDBLK
  5
248
330
241
100
AcDbEntity
  8
0
100
AcDbBlockEnd
  0
BLOCK
  5
24D
330
24C
100
AcDbEntity
  8
0
100
AcDbBlockBegin
  2
*D11
 70
     1
 10
0.0
 20
0.0
 30
0.0
  3
*D11
  1

  0
LINE
  5
24F
330
24C
100
AcDbEntity
  8
0
 62
    95
370
    -2
100
AcDbLine
 10
179.4985669999999
 20
253.731161
 30
0.0
 11
146.373157
 21
253.731161
 31
0.0
  0
LINE
  5
250
330
24C
100
AcDbEntity
  8
0
 62
    95
370
    -2
100
AcDbLine
 10
181.161452
 20
233.731161
 30
0.0
 11
146.373157
 21
233.731161
 31
0.0
  0
LINE
  5
251
330
24C
100
AcDbEntity
  8
0
 62
    95
370
    -2
100
AcDbLine
 10
147.373157
 20
250.231161
 30
0.0
 11
147.373157
 21
237.231161
 31
0.0
  0
SOLID
  5
252
330
24C
100
AcDbEntity
  8
0
 62
    95
100
AcDbTrace
 10
147.95649
 20
250.231161
 30
0.0
 11
146.789824
 21
250.231161
 31
0.0
 12
147.373157
 22
253.731161
 32
0.0
 13
147.373157
 23
253.731161
 33
0.0
  0
SOLID
  5
253
330
24C
100
AcDbEntity
  8
0
 62
    95
100
AcDbTrace
 10
146.789824
 20
237.231161
 30
0.0
 11
147.95649
 21
237.231161
 31
0.0
 12
147.373157
 22
233.731161
 32
0.0
 13
147.373157
 23
233.731161
 33
0.0
  0
MTEXT
  5
254
330
24C
100
AcDbEntity
  8
0
 62
    95
370
    13
100
AcDbMText
 10
142.123157
 20
243.731161
 30
0.0
 40
3.5
 41
0.0
 71
     5
 72
     1
  1
\A1;20
  7
cesky
 11
0.0
 21
1.0
 31
0.0
 73
     1
 44
1.0
  0
POINT
  5
255
330
24C
100
AcDbEntity
  8
Defpoints
 62
     0
100
AcDbPoint
 10
179.4985669999999
 20
253.731161
 30
0.0
  0
POINT
  5
256
330
24C
100
AcDbEntity
  8
Defpoints
 62
     0
100
AcDbPoint
 10
181.161452
 20
233.731161
 30
0.0
  0
POINT
  5
257
330
24C
100
AcDbEntity
  8
Defpoints
 62
     0
100
AcDbPoint
 10
147.373157
 20
233.731161
 30
0.0
  0
ENDBLK
  5
24E
330
24C
100
AcDbEntity
  8
0
100
AcDbBlockEnd
  0
BLOCK
  5
260
330
258
100
AcDbEntity
  8
0
100
AcDbBlockBegin
  2
_U5
 70
     0
 10
0.0
 20
0.0
 30
0.0
  3
_U5
  1

  0
ENDBLK
  5
261
330
258
100
AcDbEntity
  8
0
100
AcDbBlockEnd
  0
ENDSEC
  0
SECTION
  2
ENTITIES
  0
POINT
  5
73
102
{ACAD_REACTORS
330
340
102
}
330
1F
100
AcDbEntity
  8
80
100
AcDbPoint
 10
207.144248
 20
243.731161
 30
0.0
  0
POINT
  5
75
330
1F
100
AcDbEntity
  8
SK6
 60
     1
100
AcDbPoint
 10
158.144248
 20
243.731161
 30
0.0
  0
POINT
  5
77
330
1F
100
AcDbEntity
  8
SK6
 60
     1
100
AcDbPoint
 10
158.144248
 20
243.731161
 30
0.0
  0
POINT
  5
78
330
1F
100
AcDbEntity
  8
SK6
 60
     1
100
AcDbPoint
 10
237.144248
 20
243.731161
 30
0.0
  0
POINT
  5
79
330
1F
100
AcDbEntity
  8
SK6
 60
     1
100
AcDbPoint
 10
237.144248
 20
243.731161
 30
0.0
  0
LINE
  5
7A
330
1F
100
AcDbEntity
  8
SK1
100
AcDbLine
 10
237.144248
 20
233.731161
 30
0.0
 11
237.144248
 21
253.731161
 31
0.0
  0
LINE
  5
7C
330
1F
100
AcDbEntity
  8
SK1
100
AcDbLine
 10
158.144248
 20
233.731161
 30
0.0
 11
158.144248
 21
253.731161
 31
0.0
  0
LINE
  5
7D
330
1F
100
AcDbEntity
  8
1
100
AcDbLine
 10
277.07932
 20
240.476934
 30
0.0
 11
277.029438
 21
240.857956
 31
0.0
  0
LINE
  5
7F
330
1F
100
AcDbEntity
  8
1
100
AcDbLine
 10
272.893105
 20
249.826351
 30
0.0
 11
272.746033
 21
249.917905
 31
0.0
  0
LINE
  5
81
330
1F
100
AcDbEntity
  8
1
100
AcDbLine
 10
273.485164
 20
250.933279
 30
0.0
 11
273.632623
 21
250.841484
 31
0.0
  0
LINE
  5
82
330
1F
100
AcDbEntity
  8
1
100
AcDbLine
 10
274.436124
 20
250.249959
 30
0.0
 11
274.583196
 21
250.158405
 31
0.0
  0
LINE
  5
83
330
1F
100
AcDbEntity
  8
1
100
AcDbLine
 10
277.1186
 20
241.184454
 30
0.0
 11
277.122746
 21
241.211769
 31
0.0
  0
LINE
  5
84
330
1F
100
AcDbEntity
  8
1
100
AcDbLine
 10
271.560328
 20
234.93141
 30
0.0
 11
269.0595990000001
 21
234.93141
 31
0.0
  0
LINE
  5
85
330
1F
100
AcDbEntity
  8
1
100
AcDbLine
 10
270.292123
 20
241.121138
 30
0.0
 11
269.90502
 21
241.155649
 31
0.0
  0
LINE
  5
86
330
1F
100
AcDbEntity
  8
1
100
AcDbLine
 10
276.312508
 20
247.471488
 30
0.0
 11
276.312508
 21
247.538044
 31
0.0
  0
LINE
  5
87
330
1F
100
AcDbEntity
  8
1
100
AcDbLine
 10
276.493356
 20
244.038736
 30
0.0
 11
276.493356
 21
247.133269
 31
0.0
  0
LINE
  5
88
330
1F
100
AcDbEntity
  8
1
100
AcDbLine
 10
269.956995
 20
241.256664
 30
0.0
 11
269.829029
 21
241.008005
 31
0.0
  0
LINE
  5
89
330
1F
100
AcDbEntity
  8
1
100
AcDbLine
 10
271.05323
 20
242.20913
 30
0.0
 11
271.385412
 21
243.074802
 31
0.0
  0
LINE
  5
8A
330
1F
100
AcDbEntity
  8
1
100
AcDbLine
 10
271.206631
 20
242.930627
 30
0.0
 11
271.164418
 21
242.820619
 31
0.0
  0
LINE
  5
8B
330
1F
100
AcDbEntity
  8
1
100
AcDbLine
 10
266.683884
 20
248.308442
 30
0.0
 11
266.683884
 21
241.286024
 31
0.0
  0
LINE
  5
8C
330
1F
100
AcDbEntity
  8
1
100
AcDbLine
 10
271.560328
 20
243.082827
 30
0.0
 11
271.560328
 21
248.13982
 31
0.0
  0
LINE
  5
8D
330
1F
100
AcDbEntity
  8
1
100
AcDbLine
 10
276.481045
 20
243.976516
 30
0.0
 11
276.481045
 21
247.176117
 31
0.0
  0
LINE
  5
8E
330
1F
100
AcDbEntity
  8
1
100
AcDbLine
 10
276.493356
 20
247.133259
 30
0.0
 11
276.493356
 21
247.596992
 31
0.0
  0
LINE
  5
8F
330
1F
100
AcDbEntity
  8
1
100
AcDbLine
 10
272.126344
 20
234.899263
 30
0.0
 11
272.148671
 21
234.896719
 31
0.0
  0
LINE
  5
90
330
1F
100
AcDbEntity
  8
1
100
AcDbLine
 10
266.683884
 20
234.931404
 30
0.0
 11
269.054721
 21
234.931404
 31
0.0
  0
LINE
  5
91
330
1F
100
AcDbEntity
  8
1
100
AcDbLine
 10
269.054721
 20
234.931404
 30
0.0
 11
271.560328
 21
234.931404
 31
0.0
  0
LINE
  5
92
330
1F
100
AcDbEntity
  8
1
100
AcDbLine
 10
275.910543
 20
234.894227
 30
0.0
 11
276.481045
 21
238.496235
 31
0.0
  0
LINE
  5
93
330
1F
100
AcDbEntity
  8
1
100
AcDbLine
 10
276.481045
 20
238.496235
 30
0.0
 11
276.481045
 21
238.595101
 31
0.0
  0
LINE
  5
94
330
1F
100
AcDbEntity
  8
1
100
AcDbLine
 10
276.493356
 20
238.6526700000001
 30
0.0
 11
276.493356
 21
238.765332
 31
0.0
  0
LINE
  5
95
330
1F
100
AcDbEntity
  8
1
100
AcDbLine
 10
276.493356
 20
238.765334
 30
0.0
 11
276.493356
 21
239.187194
 31
0.0
  0
LINE
  5
96
330
1F
100
AcDbEntity
  8
1
100
AcDbLine
 10
276.616481
 20
243.966679
 30
0.0
 11
275.9385180000001
 21
242.226048
 31
0.0
  0
LINE
  5
97
330
1F
100
AcDbEntity
  8
1
100
AcDbLine
 10
276.488317
 20
244.00697
 30
0.0
 11
276.550518
 21
243.994873
 31
0.0
  0
LINE
  5
98
330
1F
100
AcDbEntity
  8
1
100
AcDbLine
 10
271.545613
 20
243.064448
 30
0.0
 11
271.553187
 21
243.083894
 31
0.0
  0
LINE
  5
99
330
1F
100
AcDbEntity
  8
1
100
AcDbLine
 10
275.892094
 20
242.203788
 30
0.0
 11
271.611576
 21
243.036253
 31
0.0
  0
LINE
  5
9A
330
1F
100
AcDbEntity
  8
1
100
AcDbLine
 10
275.131695
 20
239.016701
 30
0.0
 11
275.304831
 21
240.278873
 31
0.0
  0
LINE
  5
9B
330
1F
100
AcDbEntity
  8
1
100
AcDbLine
 10
274.14301
 20
239.172446
 30
0.0
 11
274.214045
 21
239.576708
 31
0.0
  0
LINE
  5
9C
330
1F
100
AcDbEntity
  8
1
100
AcDbLine
 10
269.6434700000001
 20
241.024331
 30
0.0
 11
269.0595990000001
 21
234.93141
 31
0.0
  0
LINE
  5
9D
330
1F
100
AcDbEntity
  8
1
100
AcDbLine
 10
272.126344
 20
248.148276
 30
0.0
 11
272.126344
 21
242.984013
 31
0.0
  0
LINE
  5
9E
330
1F
100
AcDbEntity
  8
1
100
AcDbLine
 10
275.558907
 20
242.308121
 30
0.0
 11
275.558907
 21
248.25099
 31
0.0
  0
LINE
  5
9F
330
1F
100
AcDbEntity
  8
1
100
AcDbLine
 10
275.889174
 20
248.185069
 30
0.0
 11
275.889174
 21
242.371062
 31
0.0
  0
LINE
  5
A0
330
1F
100
AcDbEntity
  8
1
100
AcDbLine
 10
266.404667
 20
241.3098
 30
0.0
 11
266.404667
 21
248.351651
 31
0.0
  0
LINE
  5
A1
330
1F
100
AcDbEntity
  8
1
100
AcDbLine
 10
257.269672
 20
252.789981
 30
0.0
 11
238.304522
 21
253.319726
 31
0.0
  0
LINE
  5
A2
330
1F
100
AcDbEntity
  8
1
100
AcDbLine
 10
238.304522
 20
234.142597
 30
0.0
 11
266.404667
 21
234.927505
 31
0.0
  0
LINE
  5
A3
330
1F
100
AcDbEntity
  8
1
100
AcDbLine
 10
277.14162
 20
241.015888
 30
0.0
 11
276.920852
 21
242.632558
 31
0.0
  0
LINE
  5
A4
330
1F
100
AcDbEntity
  8
1
100
AcDbLine
 10
277.150304
 20
240.889839
 30
0.0
 11
276.992086
 21
242.052654
 31
0.0
  0
LINE
  5
A5
330
1F
100
AcDbEntity
  8
1
100
AcDbLine
 10
270.213048
 20
240.924154
 30
0.0
 11
270.345439
 21
241.203935
 31
0.0
  0
LINE
  5
A6
330
1F
100
AcDbEntity
  8
1
100
AcDbLine
 10
270.142064
 20
240.51125
 30
0.0
 11
270.458829
 21
241.188571
 31
0.0
  0
LINE
  5
A7
330
1F
100
AcDbEntity
  8
1
100
AcDbLine
 10
272.638017
 20
250.369012
 30
0.0
 11
272.778067
 21
250.281829
 31
0.0
  0
LINE
  5
A8
330
1F
100
AcDbEntity
  8
1
100
AcDbLine
 10
272.737921
 20
250.402954
 30
0.0
 11
272.882241
 21
250.313113
 31
0.0
  0
LINE
  5
A9
330
1F
100
AcDbEntity
  8
1
100
AcDbLine
 10
272.597517
 20
249.980907
 30
0.0
 11
272.68207
 21
249.928271
 31
0.0
  0
LINE
  5
AA
330
1F
100
AcDbEntity
  8
1
100
AcDbLine
 10
273.0159700000001
 20
250.791312
 30
0.0
 11
273.16029
 21
250.70147
 31
0.0
  0
LINE
  5
AB
330
1F
100
AcDbEntity
  8
1
100
AcDbLine
 10
272.8057740000001
 20
250.407403
 30
0.0
 11
272.953234
 21
250.315607
 31
0.0
  0
LINE
  5
AC
330
1F
100
AcDbEntity
  8
1
100
AcDbLine
 10
273.033515
 20
250.725493
 30
0.0
 11
273.180975
 21
250.633697
 31
0.0
  0
LINE
  5
AD
330
1F
100
AcDbEntity
  8
1
100
AcDbLine
 10
273.016037
 20
250.897
 30
0.0
 11
273.156087
 21
250.809817
 31
0.0
  0
LINE
  5
AE
330
1F
100
AcDbEntity
  8
1
100
AcDbLine
 10
272.754096
 20
249.912183
 30
0.0
 11
272.901556
 21
249.820388
 31
0.0
  0
LINE
  5
AF
330
1F
100
AcDbEntity
  8
1
100
AcDbLine
 10
273.369996
 20
251.059843
 30
0.0
 11
273.439093
 21
251.016829
 31
0.0
  0
LINE
  5
B0
330
1F
100
AcDbEntity
  8
1
100
AcDbLine
 10
272.911689
 20
249.558055
 30
0.0
 11
273.059148
 21
249.46626
 31
0.0
  0
LINE
  5
B1
330
1F
100
AcDbEntity
  8
1
100
AcDbLine
 10
272.880879
 20
249.496759
 30
0.0
 11
273.0251990000001
 21
249.406917
 31
0.0
  0
LINE
  5
B2
330
1F
100
AcDbEntity
  8
1
100
AcDbLine
 10
274.612977
 20
251.509167
 30
0.0
 11
274.612894
 21
251.509219
 31
0.0
  0
LINE
  5
B3
330
1F
100
AcDbEntity
  8
1
100
AcDbLine
 10
272.8591
 20
249.393101
 30
0.0
 11
272.9991490000001
 21
249.305918
 31
0.0
  0
LINE
  5
B4
330
1F
100
AcDbEntity
  8
1
100
AcDbLine
 10
273.870497
 20
250.897242
 30
0.0
 11
274.017957
 21
250.805446
 31
0.0
  0
LINE
  5
B5
330
1F
100
AcDbEntity
  8
1
100
AcDbLine
 10
273.918575
 20
250.946129
 30
0.0
 11
274.062895
 21
250.856288
 31
0.0
  0
LINE
  5
B6
330
1F
100
AcDbEntity
  8
1
100
AcDbLine
 10
274.009598
 20
251.000025
 30
0.0
 11
274.149648
 21
250.912843
 31
0.0
  0
LINE
  5
B7
330
1F
100
AcDbEntity
  8
1
100
AcDbLine
 10
273.696993
 20
249.234585
 30
0.0
 11
273.844453
 21
249.142789
 31
0.0
  0
LINE
  5
B8
330
1F
100
AcDbEntity
  8
1
100
AcDbLine
 10
273.734037
 20
249.177737
 30
0.0
 11
273.845993
 21
249.108042
 31
0.0
  0
LINE
  5
B9
330
1F
100
AcDbEntity
  8
1
100
AcDbLine
 10
274.493683
 20
250.23875
 30
0.0
 11
274.586984
 21
250.180669
 31
0.0
  0
LINE
  5
BA
330
1F
100
AcDbEntity
  8
1
100
AcDbLine
 10
266.404667
 20
234.931188
 30
0.0
 11
266.404667
 21
234.927505
 31
0.0
  0
LINE
  5
BB
330
1F
100
AcDbEntity
  8
SK1
100
AcDbLine
 10
157.144248
 20
234.731161
 30
0.0
 11
157.144248
 21
252.731161
 31
0.0
  0
LINE
  5
BC
330
1F
100
AcDbEntity
  8
1
100
AcDbLine
 10
238.304522
 20
234.142597
 30
0.0
 11
238.304522
 21
253.319726
 31
0.0
  0
LINE
  5
BD
330
1F
100
AcDbEntity
  8
1
100
AcDbLine
 10
274.612977
 20
251.509167
 30
0.0
 11
274.553992
 21
251.545886
 31
0.0
  0
LINE
  5
BE
330
1F
100
AcDbEntity
  8
1
100
AcDbLine
 10
272.70431
 20
248.574577
 30
0.0
 11
272.763295
 21
248.537858
 31
0.0
  0
LINE
  5
BF
330
1F
100
AcDbEntity
  8
SK1
100
AcDbLine
 10
157.144248
 20
234.731161
 30
0.0
 11
158.144248
 21
233.731161
 31
0.0
  0
LINE
  5
C0
330
1F
100
AcDbEntity
  8
SK1
100
AcDbLine
 10
158.144248
 20
253.731161
 30
0.0
 11
157.144248
 21
252.731161
 31
0.0
  0
LINE
  5
C1
330
1F
100
AcDbEntity
  8
SK1
100
AcDbLine
 10
237.144248
 20
253.731161
 30
0.0
 11
158.144248
 21
253.731161
 31
0.0
  0
LINE
  5
C2
330
1F
100
AcDbEntity
  8
1
100
AcDbLine
 10
276.616481
 20
239.105394
 30
0.0
 11
276.493282
 21
238.640759
 31
0.0
  0
LINE
  5
C3
330
1F
100
AcDbEntity
  8
1
100
AcDbLine
 10
276.493333
 20
239.123422
 30
0.0
 11
276.550518
 21
239.124734
 31
0.0
  0
LINE
  5
C4
330
1F
100
AcDbEntity
  8
1
100
AcDbLine
 10
270.425197
 20
248.726121
 30
0.0
 11
269.87265
 21
252.278887
 31
0.0
  0
LINE
  5
C5
330
1F
100
AcDbEntity
  8
1
100
AcDbLine
 10
270.394622
 20
248.13984
 30
0.0
 11
269.829029
 21
252.339471
 31
0.0
  0
LINE
  5
C6
330
1F
100
AcDbEntity
  8
1
100
AcDbLine
 10
270.589307
 20
248.753901
 30
0.0
 11
270.425197
 21
248.726121
 31
0.0
  0
LINE
  5
C7
330
1F
100
AcDbEntity
  8
1
100
AcDbLine
 10
271.560328
 20
248.13982
 30
0.0
 11
269.0595990000001
 21
248.13982
 31
0.0
  0
LINE
  5
C8
330
1F
100
AcDbEntity
  8
1
100
AcDbLine
 10
266.683884
 20
234.931404
 30
0.0
 11
266.683884
 21
234.933821
 31
0.0
  0
LINE
  5
C9
330
1F
100
AcDbEntity
  8
80
100
AcDbLine
 10
206.144675
 20
243.731161
 30
0.0
 11
208.143822
 21
243.731161
 31
0.0
  0
LINE
  5
CA
330
1F
100
AcDbEntity
  8
80
100
AcDbLine
 10
207.144248
 20
242.731588
 30
0.0
 11
207.144248
 21
244.730735
 31
0.0
  0
LINE
  5
CB
330
1F
100
AcDbEntity
  8
SK1
100
AcDbLine
 10
158.144248
 20
233.731161
 30
0.0
 11
237.144248
 21
233.731161
 31
0.0
  0
LINE
  5
CC
330
1F
100
AcDbEntity
  8
81
100
AcDbLine
 10
275.144248
 20
253.731161
 30
0.0
 11
279.144248
 21
253.731161
 31
0.0
  0
LINE
  5
CD
330
1F
100
AcDbEntity
  8
81
100
AcDbLine
 10
277.144248
 20
251.731161
 30
0.0
 11
277.144248
 21
255.731161
 31
0.0
  0
LINE
  5
CE
330
1F
100
AcDbEntity
  8
1
100
AcDbLine
 10
270.30219
 20
252.318341
 30
0.0
 11
270.190677
 21
252.330219
 31
0.0
  0
LINE
  5
CF
330
1F
100
AcDbEntity
  8
1
100
AcDbLine
 10
270.254849
 20
251.639656
 30
0.0
 11
270.142064
 21
251.634436
 31
0.0
  0
LINE
  5
D0
330
1F
100
AcDbEntity
  8
1
100
AcDbLine
 10
270.324614
 20
250.663055
 30
0.0
 11
270.213048
 21
250.640773
 31
0.0
  0
LINE
  5
D1
330
1F
100
AcDbEntity
  8
1
100
AcDbLine
 10
270.472474
 20
252.533836
 30
0.0
 11
270.436504
 21
252.641321
 31
0.0
  0
LINE
  5
D2
330
1F
100
AcDbEntity
  8
1
100
AcDbLine
 10
274.153931
 20
253.528053
 30
0.0
 11
274.14301
 21
253.642393
 31
0.0
  0
LINE
  5
D3
330
1F
100
AcDbEntity
  8
1
100
AcDbLine
 10
275.125639
 20
253.610088
 30
0.0
 11
275.131695
 21
253.725861
 31
0.0
  0
LINE
  5
D4
330
1F
100
AcDbEntity
  8
1
100
AcDbLine
 10
275.79976
 20
253.570676
 30
0.0
 11
275.822794
 21
253.685373
 31
0.0
  0
LINE
  5
D5
330
1F
100
AcDbEntity
  8
1
100
AcDbLine
 10
276.011932
 20
253.401976
 30
0.0
 11
276.129089
 21
253.441837
 31
0.0
  0
LINE
  5
D6
330
1F
100
AcDbEntity
  8
1
100
AcDbLine
 10
276.955642
 20
249.710288
 30
0.0
 11
277.07932
 21
249.725031
 31
0.0
  0
LINE
  5
D7
330
1F
100
AcDbEntity
  8
1
100
AcDbLine
 10
277.150304
 20
248.731368
 30
0.0
 11
277.025407
 21
248.733688
 31
0.0
  0
LINE
  5
D8
330
1F
100
AcDbEntity
  8
1
100
AcDbLine
 10
276.978066
 20
248.055003
 30
0.0
 11
277.101686
 21
248.035588
 31
0.0
  0
LINE
  5
D9
330
1F
100
AcDbEntity
  8
1
100
AcDbLine
 10
276.807783
 20
247.839507
 30
0.0
 11
276.855859
 21
247.724486
 31
0.0
  0
LINE
  5
DA
330
1F
100
AcDbEntity
  8
1
100
AcDbLine
 10
277.150304
 20
241.572276
 30
0.0
 11
277.105909
 21
241.277375
 31
0.0
  0
LINE
  5
DB
330
1F
100
AcDbEntity
  8
NOCUT
100
AcDbLine
 10
157.144248
 20
247.097187
 30
0.0
 11
157.144248
 21
252.731161
 31
0.0
  0
LINE
  5
DD
330
1F
100
AcDbEntity
  8
NOCUT
100
AcDbLine
 10
157.144248
 20
252.731161
 30
0.0
 11
158.144248
 21
253.731161
 31
0.0
  0
LINE
  5
DE
330
1F
100
AcDbEntity
  8
NOCUT
100
AcDbLine
 10
158.144248
 20
253.731161
 30
0.0
 11
237.144248
 21
253.731161
 31
0.0
  0
LINE
  5
DF
330
1F
100
AcDbEntity
  8
NOCUT
100
AcDbLine
 10
238.304522
 20
253.319726
 30
0.0
 11
266.404667
 21
252.534818
 31
0.0
  0
LINE
  5
E0
330
1F
100
AcDbEntity
  8
NOCUT
100
AcDbLine
 10
272.126344
 20
252.56306
 30
0.0
 11
275.558907
 21
252.954151
 31
0.0
  0
LINE
  5
E1
330
1F
100
AcDbEntity
  8
NOCUT
100
AcDbLine
 10
275.889174
 20
252.70301
 30
0.0
 11
276.481045
 21
248.966087
 31
0.0
  0
LINE
  5
E2
330
1F
100
AcDbEntity
  8
NOCUT
100
AcDbLine
 10
276.312508
 20
248.236076
 30
0.0
 11
275.225096
 21
246.683091
 31
0.0
  0
LINE
  5
E3
330
1F
100
AcDbEntity
  8
NOCUT
100
AcDbLine
 10
248.587624
 20
243.731161
 30
0.0
 11
275.044248
 21
243.731161
 31
0.0
  0
LINE
  5
E4
330
1F
100
AcDbEntity
  8
NOCUT
100
AcDbLine
 10
266.683884
 20
252.530919
 30
0.0
 11
271.560328
 21
252.530919
 31
0.0
  0
LINE
  5
E5
330
1F
100
AcDbEntity
  8
NOCUT
100
AcDbLine
 10
275.044248
 20
246.109514
 30
0.0
 11
275.044248
 21
243.731161
 31
0.0
  0
LINE
  5
E6
330
1F
100
AcDbEntity
  8
NOCUT
100
AcDbLine
 10
248.587624
 20
243.731161
 30
0.0
 11
247.144248
 21
246.231161
 31
0.0
  0
LINE
  5
E7
330
1F
100
AcDbEntity
  8
NOCUT
100
AcDbLine
 10
247.144248
 20
246.231161
 30
0.0
 11
158.644248
 21
246.231161
 31
0.0
  0
LINE
  5
E8
330
1F
100
AcDbEntity
  8
NOCUT
100
AcDbLine
 10
158.644248
 20
246.231161
 30
0.0
 11
157.144248
 21
247.097187
 31
0.0
  0
ARC
  5
E9
330
1F
100
AcDbEntity
  8
1
100
AcDbCircle
 10
266.683884
 20
224.931404
 30
0.0
 40
10.0
100
AcDbArc
 50
90.0
 51
91.6
  0
ARC
  5
EA
330
1F
100
AcDbEntity
  8
1
100
AcDbCircle
 10
275.493356
 20
238.6526700000001
 30
0.0
 40
1.0
100
AcDbArc
 50
351.0
 51
0.0
  0
ARC
  5
EB
330
1F
100
AcDbEntity
  8
1
100
AcDbCircle
 10
238.360365
 20
232.143377
 30
0.0
 40
2.000000000000002
100
AcDbArc
 50
91.6
 51
127.449236
  0
ARC
  5
EC
330
1F
100
AcDbEntity
  8
1
100
AcDbCircle
 10
238.360365
 20
255.318946
 30
0.0
 40
2.000000000000002
100
AcDbArc
 50
232.550764
 51
268.4
  0
ARC
  5
ED
330
1F
100
AcDbEntity
  8
NOCUT
100
AcDbCircle
 10
238.360365
 20
255.318946
 30
0.0
 40
2.000000000000002
100
AcDbArc
 50
232.550764
 51
268.4
  0
ARC
  5
EE
330
1F
100
AcDbEntity
  8
NOCUT
100
AcDbCircle
 10
266.683884
 20
262.530919
 30
0.0
 40
10.0
100
AcDbArc
 50
268.4
 51
270.0
  0
ARC
  5
EF
330
1F
100
AcDbEntity
  8
NOCUT
100
AcDbCircle
 10
271.560328
 20
257.530919
 30
0.0
 40
5.0
100
AcDbArc
 50
270.0
 51
276.5
  0
ARC
  5
F0
330
1F
100
AcDbEntity
  8
NOCUT
100
AcDbCircle
 10
275.592868
 20
252.656079
 30
0.0
 40
0.3
100
AcDbArc
 50
9.0
 51
96.5
  0
ARC
  5
F1
330
1F
100
AcDbEntity
  8
NOCUT
100
AcDbCircle
 10
275.493356
 20
248.8096529999999
 30
0.0
 40
1.0
100
AcDbArc
 50
325.0
 51
9.0
  0
ARC
  5
F2
330
1F
100
AcDbEntity
  8
NOCUT
100
AcDbCircle
 10
276.044248
 20
246.109514
 30
0.0
 40
1.0
100
AcDbArc
 50
145.0
 51
180.0
  0
ELLIPSE
  5
F3
330
1F
100
AcDbEntity
  8
1
100
AcDbEllipse
 10
274.325943
 20
245.575258
 30
0.0
 11
0.6917942005694458
 21
-0.1068680684698794
 31
0.0
210
0.0
220
0.0
230
1.0
 40
0.418536
 41
1.08509275390259
 42
2.324549643034761
  0
ELLIPSE
  5
F4
330
1F
100
AcDbEntity
  8
1
100
AcDbEllipse
 10
265.304345
 20
243.731161
 30
0.0
 11
-95.20410875429563
 21
8.492763518547716
 31
0.0
210
0.0
220
0.0
230
1.0
 40
0.024201
 41
1.587446017378644
 42
1.620499153593313
  0
ELLIPSE
  5
F5
330
1F
100
AcDbEntity
  8
1
100
AcDbEllipse
 10
271.0566589999999
 20
243.731159
 30
0.0
 11
-1.71433061713696
 21
-8.79866554054468
 31
0.0
210
0.0
220
0.0
230
1.0
 40
0.080688
 41
5.011797121398778
 42
5.042731800208862
  0
ELLIPSE
  5
F6
330
1F
100
AcDbEntity
  8
1
100
AcDbEllipse
 10
279.429618
 20
243.731188
 30
0.0
 11
-62.85132126437463
 21
8.002679802453004
 31
0.0
210
0.0
220
0.0
230
1.0
 40
0.058229
 41
1.42556562408454
 42
1.435208507136291
  0
ELLIPSE
  5
F7
330
1F
100
AcDbEntity
  8
1
100
AcDbEllipse
 10
271.253908
 20
243.731161
 30
0.0
 11
-4.865550384782534
 21
-8.795477717067759
 31
0.0
210
0.0
220
0.0
230
1.0
 40
0.0564
 41
1.308654761065866
 42
1.428149086144223
  0
ELLIPSE
  5
F8
330
1F
100
AcDbEntity
  8
1
100
AcDbEllipse
 10
272.073479
 20
243.731161
 30
0.0
 11
-1.714331787086575
 21
-8.798670410515059
 31
0.0
210
0.0
220
0.0
230
0.9999999999999998
 40
0.080688
 41
4.83176794214725
 42
4.90194589000162
  0
ELLIPSE
  5
F9
330
1F
100
AcDbEntity
  8
1
100
AcDbEllipse
 10
269.658163
 20
237.218928
 30
0.0
 11
14.93159861224165
 21
-1.430860888732284
 31
0.0
210
0.0
220
0.0
230
0.9999999999999998
 40
0.262795
 41
1.88623703211577
 42
1.970695795881355
  0
ELLIPSE
  5
FA
330
1F
100
AcDbEntity
  8
1
100
AcDbEllipse
 10
269.658163
 20
237.218928
 30
0.0
 11
14.93159861224165
 21
-1.430860888732284
 31
0.0
210
0.0
220
0.0
230
0.9999999999999998
 40
0.262795
 41
2.157325753638684
 42
2.579366252125564
  0
ELLIPSE
  5
FB
330
1F
100
AcDbEntity
  8
1
100
AcDbEllipse
 10
274.648943
 20
251.343273
 30
0.0
 11
-2.321575861521655
 21
10.5824826046062
 31
0.0
210
0.0
220
0.0
230
0.9999999999999998
 40
0.058805
 41
3.264916756555988
 42
3.628131801017981
  0
ELLIPSE
  5
FC
330
1F
100
AcDbEntity
  8
1
100
AcDbEllipse
 10
275.353254
 20
248.55066
 30
0.0
 11
-1.62374693405505
 21
7.401555971345425
 31
0.0
210
0.0
220
0.0
230
1.0
 40
0.058805
 41
3.628131800756394
 42
3.794124489736766
  0
ELLIPSE
  5
FD
330
1F
100
AcDbEntity
  8
1
100
AcDbEllipse
 10
276.244527
 20
250.939722
 30
0.0
 11
-2.119657270204873
 21
-11.35295233816125
 31
0.0
210
0.0
220
0.0
230
0.9999999999999998
 40
0.231468
 41
0.0334885652708603
 42
0.3967036097232444
  0
ELLIPSE
  5
FE
330
1F
100
AcDbEntity
  8
1
100
AcDbEllipse
 10
275.9620700000001
 20
247.73524
 30
0.0
 11
-1.482521870706028
 21
-7.94043469981585
 31
0.0
210
0.0
220
0.0
230
0.9999999999999998
 40
0.231468
 41
0.3967036096896221
 42
0.5626948040248856
  0
ELLIPSE
  5
FF
330
1F
100
AcDbEntity
  8
1
100
AcDbEllipse
 10
279.490705
 20
269.106025
 30
0.0
 11
-5.508400270283118
 21
-29.50316855799149
 31
0.0
210
0.0
220
0.0
230
1.0
 40
0.231468
 41
5.848819772876969
 42
6.316673872450493
  0
ELLIPSE
  5
100
330
1F
100
AcDbEntity
  8
1
100
AcDbEllipse
 10
270.8431930000001
 20
268.106382
 30
0.0
 11
-6.033130583688877
 21
27.50093180720196
 31
0.0
210
0.0
220
0.0
230
1.0
 40
0.058805
 41
2.797065391088195
 42
3.264916756553043
  0
ELLIPSE
  5
101
330
1F
100
AcDbEntity
  8
1
100
AcDbEllipse
 10
488.45353
 20
219.0387
 30
0.0
 11
-239.1251100792625
 21
30.37759054971913
 31
0.0
210
0.0
220
0.0
230
1.0
 40
0.033841
 41
0.4445312032812411
 42
0.4770957530021391
  0
ELLIPSE
  5
102
330
1F
100
AcDbEntity
  8
1
100
AcDbEllipse
 10
233.517266
 20
246.565081
 30
0.0
 11
-105.1849065204576
 21
9.382602921839861
 31
0.0
210
0.0
220
0.0
230
1.0
 40
0.02307
 41
1.821167504349444
 42
1.890848498812936
  0
ELLIPSE
  5
103
330
1F
100
AcDbEntity
  8
1
100
AcDbEllipse
 10
273.688136
 20
250.023512
 30
0.0
 11
0.9248409774026475
 21
1.485654457307254
 31
0.0
210
0.0
220
0.0
230
0.9999999999999998
 40
0.9865719999999999
 41
3.141551192626915
 42
6.217759483576105
  0
ELLIPSE
  5
104
330
1F
100
AcDbEntity
  8
1
100
AcDbEllipse
 10
273.688136
 20
250.023512
 30
0.0
 11
0.9248409774026475
 21
1.485654457307254
 31
0.0
210
0.0
220
0.0
230
0.9999999999999998
 40
0.9865719999999999
 41
6.217759483576107
 42
6.283185307179585
  0
ELLIPSE
  5
105
330
1F
100
AcDbEntity
  8
1
100
AcDbEllipse
 10
273.629151
 20
250.060231
 30
0.0
 11
-0.9248409774026507
 21
-1.485654457307253
 31
0.0
210
0.0
220
0.0
230
1.0
 40
0.9865719999999999
 41
0.0
 42
6.283185307179585
  0
ELLIPSE
  5
106
330
1F
100
AcDbEntity
  8
1
100
AcDbEllipse
 10
273.840704
 20
250.975247
 30
0.0
 11
0.04451082625773
 21
0.0715017057461495
 31
0.0
210
0.0
220
0.0
230
1.0
 40
0.9865719999999999
 41
4.069734524138908
 42
4.908762716316665
  0
ELLIPSE
  5
107
330
1F
100
AcDbEntity
  8
1
100
AcDbEllipse
 10
273.996446
 20
250.917011
 30
0.0
 11
0.0445108262577301
 21
0.0715017057461496
 31
0.0
210
0.0
220
0.0
230
1.0
 40
0.9865719999999999
 41
0.4045430949509254
 42
1.767170062726921
  0
ELLIPSE
  5
108
330
1F
100
AcDbEntity
  8
1
100
AcDbEllipse
 10
273.942141
 20
250.574268
 30
0.0
 11
0.2282833275757411
 21
0.3667118471483733
 31
0.0
210
0.0
220
0.0
230
0.9999999999999998
 40
0.9865719999999999
 41
5.747790908494375
 42
6.687728402130467
  0
ELLIPSE
  5
109
330
1F
100
AcDbEntity
  8
1
100
AcDbEllipse
 10
274.248786
 20
250.735671
 30
0.0
 11
0.04451082625773
 21
0.0715017057461494
 31
0.0
210
0.0
220
0.0
230
1.0
 40
0.9865719999999999
 41
4.385163940718397
 42
5.747790908494402
  0
ELLIPSE
  5
10A
330
1F
100
AcDbEntity
  8
1
100
AcDbEllipse
 10
233.517266
 20
242.985723
 30
0.0
 11
-105.184916275403
 21
-2.484727881278048
 31
0.0
210
0.0
220
0.0
230
0.9999999999999998
 40
0.085178
 41
4.392382528677334
 42
4.462063523160375
  0
ELLIPSE
  5
10B
330
1F
100
AcDbEntity
  8
1
100
AcDbEllipse
 10
270.8431930000001
 20
217.340984
 30
0.0
 11
-6.246118821636432
 21
-23.54682595904995
 31
0.0
210
0.0
220
0.0
230
1.0
 40
0.000018
 41
2.701113899662395
 42
2.859072251332116
  0
ELLIPSE
  5
10C
330
1F
100
AcDbEntity
  8
1
100
AcDbEllipse
 10
275.756986
 20
212.896144
 30
0.0
 11
-2.424953408027037
 21
28.97430659251228
 31
0.0
210
0.0
220
0.0
230
1.0
 40
0.234198
 41
5.836359100789165
 42
5.838946915290081
  0
ELLIPSE
  5
10D
330
1F
100
AcDbEntity
  8
1
100
AcDbEllipse
 10
279.429477
 20
243.731199
 30
0.0
 11
-62.85246744840811
 21
-0.7821650725299884
 31
0.0
210
0.0
220
0.0
230
1.0
 40
0.139452
 41
4.858255103300164
 42
4.863297156627356
  0
ELLIPSE
  5
10E
330
1F
100
AcDbEntity
  8
1
100
AcDbEllipse
 10
265.304345
 20
243.731162
 30
0.0
 11
-95.20411834775595
 21
-2.250610769807523
 31
0.0
210
0.0
220
0.0
230
0.9999999999999998
 40
0.089356
 41
4.66273268018505
 42
4.695785816353516
  0
ELLIPSE
  5
10F
330
1F
100
AcDbEntity
  8
1
100
AcDbEllipse
 10
271.05666
 20
243.731161
 30
0.0
 11
-1.512476523771725
 21
8.797817788600607
 31
0.0
210
0.0
220
0.0
230
1.0
 40
0.122176
 41
6.02227419484791
 42
6.053208857063431
  0
ELLIPSE
  5
110
330
1F
100
AcDbEntity
  8
1
100
AcDbEllipse
 10
270.217217
 20
248.855592
 30
0.0
 11
-0.2503497900247404
 21
1.478960777922988
 31
0.0
210
0.0
220
0.0
230
1.0
 40
0.123026
 41
4.186495611988205
 42
4.60393194513888
  0
ELLIPSE
  5
111
330
1F
100
AcDbEntity
  8
1
100
AcDbEllipse
 10
269.805424
 20
260.6017589999999
 30
0.0
 11
-12.5905202071067
 21
-4.586807268071988
 31
0.0
210
0.0
220
0.0
230
0.9999999999999998
 40
0.9631729999999999
 41
0.3351537069133584
 42
0.7036019389494374
  0
ELLIPSE
  5
112
330
1F
100
AcDbEntity
  8
1
100
AcDbEllipse
 10
274.35377
 20
250.606541
 30
0.0
 11
0.04451082625773
 21
0.0715017057461494
 31
0.0
210
0.0
220
0.0
230
0.9999999999999998
 40
0.9865719999999999
 41
1.243571287128539
 42
2.082599479306218
  0
ELLIPSE
  5
113
330
1F
100
AcDbEntity
  8
1
100
AcDbEllipse
 10
274.697699
 20
250.593047
 30
0.0
 11
0.2282833275757409
 21
0.3667118471483731
 31
0.0
210
0.0
220
0.0
230
0.9999999999999998
 40
0.9865719999999999
 41
2.082599479306272
 42
3.022536972942381
  0
ELLIPSE
  5
114
330
1F
100
AcDbEntity
  8
1
100
AcDbEllipse
 10
274.480635
 20
250.321461
 30
0.0
 11
0.04451082625773
 21
0.0715017057461495
 31
0.0
210
0.0
220
0.0
230
1.0
 40
0.9865719999999999
 41
3.022536972942417
 42
3.861565165120116
  0
ELLIPSE
  5
115
330
1F
100
AcDbEntity
  8
1
100
AcDbEllipse
 10
274.506731
 20
250.156038
 30
0.0
 11
0.0445108262577301
 21
0.0715017057461496
 31
0.0
210
0.0
220
0.0
230
1.0
 40
0.9865719999999999
 41
5.640530850933918
 42
7.003157818709877
  0
ELLIPSE
  5
116
330
1F
100
AcDbEntity
  8
1
100
AcDbEllipse
 10
274.18507
 20
250.02838
 30
0.0
 11
0.2282833275757411
 21
0.3667118471483733
 31
0.0
210
0.0
220
0.0
230
0.9999999999999998
 40
0.9865719999999999
 41
4.700593357297771
 42
5.640530850933869
  0
ELLIPSE
  5
117
330
1F
100
AcDbEntity
  8
1
100
AcDbEllipse
 10
274.474128
 20
249.843606
 30
0.0
 11
0.04451082625773
 21
0.0715017057461494
 31
0.0
210
0.0
220
0.0
230
1.0
 40
0.9865719999999999
 41
3.337966389521863
 42
4.700593357297698
  0
ELLIPSE
  5
118
330
1F
100
AcDbEntity
  8
1
100
AcDbEllipse
 10
274.414344
 20
249.686215
 30
0.0
 11
0.04451082625773
 21
0.0715017057461494
 31
0.0
210
0.0
220
0.0
230
0.9999999999999998
 40
0.9865719999999999
 41
0.196373735931894
 42
1.035401928109646
  0
ELLIPSE
  5
119
330
1F
100
AcDbEntity
  8
1
100
AcDbEllipse
 10
274.571079
 20
249.37967
 30
0.0
 11
0.2282833275757409
 21
0.3667118471483731
 31
0.0
210
0.0
220
0.0
230
0.9999999999999998
 40
0.9865719999999999
 41
1.035401928109682
 42
1.975339421745774
  0
ELLIPSE
  5
11A
330
1F
100
AcDbEntity
  8
1
100
AcDbEllipse
 10
274.231009
 20
249.430146
 30
0.0
 11
0.04451082625773
 21
0.0715017057461495
 31
0.0
210
0.0
220
0.0
230
1.0
 40
0.9865719999999999
 41
1.975339421745801
 42
2.8143676139235
  0
ELLIPSE
  5
11B
330
1F
100
AcDbEntity
  8
1
100
AcDbEllipse
 10
274.101364
 20
249.322959
 30
0.0
 11
0.0445108262577301
 21
0.0715017057461496
 31
0.0
210
0.0
220
0.0
230
1.0
 40
0.9865719999999999
 41
4.593333299737286
 42
5.955960267513293
  0
ELLIPSE
  5
11C
330
1F
100
AcDbEntity
  8
1
100
AcDbEllipse
 10
273.834007
 20
249.538044
 30
0.0
 11
0.2282833275757411
 21
0.3667118471483733
 31
0.0
210
0.0
220
0.0
230
0.9999999999999998
 40
0.9865719999999999
 41
3.653395806101183
 42
4.593333299737271
  0
ELLIPSE
  5
11D
330
1F
100
AcDbEntity
  8
1
100
AcDbEllipse
 10
273.816421
 20
249.191868
 30
0.0
 11
0.04451082625773
 21
0.0715017057461494
 31
0.0
210
0.0
220
0.0
230
1.0
 40
0.9865719999999999
 41
2.290768838325142
 42
3.653395806101151
  0
ELLIPSE
  5
11E
330
1F
100
AcDbEntity
  8
1
100
AcDbEllipse
 10
273.6516529999999
 20
249.163606
 30
0.0
 11
0.04451082625773
 21
0.0715017057461494
 31
0.0
210
0.0
220
0.0
230
0.9999999999999998
 40
0.9865719999999999
 41
5.432361491914962
 42
6.271389684092674
  0
ELLIPSE
  5
11F
330
1F
100
AcDbEntity
  8
1
100
AcDbEllipse
 10
273.464458
 20
248.870555
 30
0.0
 11
0.2282833275757409
 21
0.3667118471483731
 31
0.0
210
0.0
220
0.0
230
0.9999999999999998
 40
0.9865719999999999
 41
6.271389684092667
 42
7.211327177728768
  0
ELLIPSE
  5
120
330
1F
100
AcDbEntity
  8
1
100
AcDbEllipse
 10
273.341452
 20
249.192617
 30
0.0
 11
0.04451082625773
 21
0.0715017057461495
 31
0.0
210
0.0
220
0.0
230
1.0
 40
0.9865719999999999
 41
0.9281418705492685
 42
1.767170062726906
  0
ELLIPSE
  5
121
330
1F
100
AcDbEntity
  8
1
100
AcDbEllipse
 10
273.1857109999999
 20
249.250853
 30
0.0
 11
0.0445108262577301
 21
0.0715017057461496
 31
0.0
210
0.0
220
0.0
230
1.0
 40
0.9865719999999999
 41
3.546135748540685
 42
4.908762716316648
  0
ELLIPSE
  5
122
330
1F
100
AcDbEntity
  8
1
100
AcDbEllipse
 10
273.240016
 20
249.593596
 30
0.0
 11
0.2282833275757411
 21
0.3667118471483733
 31
0.0
210
0.0
220
0.0
230
0.9999999999999998
 40
0.9865719999999999
 41
2.606198254904556
 42
3.546135748540665
  0
ELLIPSE
  5
123
330
1F
100
AcDbEntity
  8
1
100
AcDbEllipse
 10
272.933371
 20
249.432194
 30
0.0
 11
0.04451082625773
 21
0.0715017057461494
 31
0.0
210
0.0
220
0.0
230
1.0
 40
0.9865719999999999
 41
1.243571287128564
 42
2.606198254904595
  0
ELLIPSE
  5
124
330
1F
100
AcDbEntity
  8
1
100
AcDbEllipse
 10
272.828387
 20
249.561324
 30
0.0
 11
0.04451082625773
 21
0.0715017057461494
 31
0.0
210
0.0
220
0.0
230
0.9999999999999998
 40
0.9865719999999999
 41
4.385163940718291
 42
5.224192132896127
  0
ELLIPSE
  5
125
330
1F
100
AcDbEntity
  8
1
100
AcDbEllipse
 10
272.484458
 20
249.574817
 30
0.0
 11
0.2282833275757409
 21
0.3667118471483731
 31
0.0
210
0.0
220
0.0
230
0.9999999999999998
 40
0.9865719999999999
 41
5.224192132896067
 42
6.164129626532174
  0
ELLIPSE
  5
126
330
1F
100
AcDbEntity
  8
1
100
AcDbEllipse
 10
272.701522
 20
249.846403
 30
0.0
 11
0.04451082625773
 21
0.0715017057461495
 31
0.0
210
0.0
220
0.0
230
1.0
 40
0.9865719999999999
 41
6.164129626532214
 42
7.003157818709908
  0
ELLIPSE
  5
127
330
1F
100
AcDbEntity
  8
1
100
AcDbEllipse
 10
272.6754259999999
 20
250.011826
 30
0.0
 11
0.0445108262577301
 21
0.0715017057461496
 31
0.0
210
0.0
220
0.0
230
1.0
 40
0.9865719999999999
 41
2.49893819734416
 42
3.861565165120208
  0
ELLIPSE
  5
128
330
1F
100
AcDbEntity
  8
1
100
AcDbEllipse
 10
272.997087
 20
250.139484
 30
0.0
 11
0.2282833275757411
 21
0.3667118471483733
 31
0.0
210
0.0
220
0.0
230
0.9999999999999998
 40
0.9865719999999999
 41
1.559000703707978
 42
2.498938197344078
  0
ELLIPSE
  5
129
330
1F
100
AcDbEntity
  8
1
100
AcDbEllipse
 10
272.708029
 20
250.324258
 30
0.0
 11
0.04451082625773
 21
0.0715017057461494
 31
0.0
210
0.0
220
0.0
230
1.0
 40
0.9865719999999999
 41
0.1963737359320444
 42
1.559000703707989
  0
ELLIPSE
  5
12A
330
1F
100
AcDbEntity
  8
1
100
AcDbEllipse
 10
272.767812
 20
250.48165
 30
0.0
 11
0.04451082625773
 21
0.0715017057461494
 31
0.0
210
0.0
220
0.0
230
0.9999999999999998
 40
0.9865719999999999
 41
3.337966389521694
 42
4.176994581699416
  0
ELLIPSE
  5
12B
330
1F
100
AcDbEntity
  8
1
100
AcDbEllipse
 10
272.6110779999999
 20
250.788194
 30
0.0
 11
0.2282833275757409
 21
0.3667118471483731
 31
0.0
210
0.0
220
0.0
230
0.9999999999999998
 40
0.9865719999999999
 41
4.176994581699458
 42
5.116932075335574
  0
ELLIPSE
  5
12C
330
1F
100
AcDbEntity
  8
1
100
AcDbEllipse
 10
272.951148
 20
250.737718
 30
0.0
 11
0.04451082625773
 21
0.0715017057461495
 31
0.0
210
0.0
220
0.0
230
1.0
 40
0.9865719999999999
 41
5.116932075335516
 42
5.955960267513293
  0
ELLIPSE
  5
12D
330
1F
100
AcDbEntity
  8
1
100
AcDbEllipse
 10
273.080793
 20
250.844905
 30
0.0
 11
0.0445108262577301
 21
0.0715017057461496
 31
0.0
210
0.0
220
0.0
230
1.0
 40
0.9865719999999999
 41
1.451740646147551
 42
2.814367613923432
  0
ELLIPSE
  5
12E
330
1F
100
AcDbEntity
  8
1
100
AcDbEllipse
 10
273.34815
 20
250.62982
 30
0.0
 11
0.2282833275757411
 21
0.3667118471483733
 31
0.0
210
0.0
220
0.0
230
0.9999999999999998
 40
0.9865719999999999
 41
0.5118031525113716
 42
1.451740646147471
  0
ELLIPSE
  5
12F
330
1F
100
AcDbEntity
  8
1
100
AcDbEllipse
 10
273.365736
 20
250.975997
 30
0.0
 11
0.04451082625773
 21
0.0715017057461494
 31
0.0
210
0.0
220
0.0
230
1.0
 40
0.9865719999999999
 41
5.432361491914938
 42
6.794988459690962
  0
ELLIPSE
  5
130
330
1F
100
AcDbEntity
  8
1
100
AcDbEllipse
 10
273.530504
 20
251.004258
 30
0.0
 11
0.04451082625773
 21
0.0715017057461494
 31
0.0
210
0.0
220
0.0
230
0.9999999999999998
 40
0.9865719999999999
 41
2.290768838325173
 42
3.129797030502881
  0
ELLIPSE
  5
131
330
1F
100
AcDbEntity
  8
1
100
AcDbEllipse
 10
273.717699
 20
251.297309
 30
0.0
 11
0.2282833275757409
 21
0.3667118471483731
 31
0.0
210
0.0
220
0.0
230
0.9999999999999998
 40
0.9865719999999999
 41
3.129797030502874
 42
4.069734524138973
  0
ELLIPSE
  5
132
330
1F
100
AcDbEntity
  8
1
100
AcDbEllipse
 10
273.591078
 20
250.083932
 30
0.0
 11
-0.6077526422931705
 21
-0.9762872148019088
 31
0.0
210
0.0
220
0.0
230
1.0
 40
0.9865719999999999
 41
0.0
 42
6.283185307179585
  0
ELLIPSE
  5
133
330
1F
100
AcDbEntity
  8
1
100
AcDbEllipse
 10
273.786078
 20
250.095816
 30
0.0
 11
-0.9691332332603986
 21
-1.556805053947184
 31
0.0
210
0.0
220
0.0
230
0.9999999999999998
 40
0.9865719999999999
 41
0.5628927058949276
 42
0.7143766487466793
  0
ELLIPSE
  5
134
330
1F
100
AcDbEntity
  8
1
100
AcDbEllipse
 10
273.786078
 20
250.095816
 30
0.0
 11
-0.9691332332603986
 21
-1.556805053947184
 31
0.0
210
0.0
220
0.0
230
0.9999999999999998
 40
0.9865719999999999
 41
2.427329752737799
 42
4.496559132609608
  0
ELLIPSE
  5
135
330
1F
100
AcDbEntity
  8
1
100
AcDbEllipse
 10
273.786078
 20
250.095816
 30
0.0
 11
-0.9691332332603986
 21
-1.556805053947184
 31
0.0
210
0.0
220
0.0
230
0.9999999999999998
 40
0.9865719999999999
 41
0.4060094078603436
 42
0.5628927058949282
  0
ELLIPSE
  5
136
330
1F
100
AcDbEntity
  8
1
100
AcDbEllipse
 10
273.766317
 20
250.108117
 30
0.0
 11
-1.00660284803519
 21
-1.616995834377451
 31
0.0
210
0.0
220
0.0
230
0.9999999999999998
 40
0.9865719999999999
 41
2.856844315332443
 42
3.401714068400389
  0
ELLIPSE
  5
137
330
1F
100
AcDbEntity
  8
1
100
AcDbEllipse
 10
273.766317
 20
250.108117
 30
0.0
 11
-1.00660284803519
 21
-1.616995834377451
 31
0.0
210
0.0
220
0.0
230
0.9999999999999998
 40
0.9865719999999999
 41
3.401714600078266
 42
5.982042096662691
  0
ELLIPSE
  5
138
330
1F
100
AcDbEntity
  8
1
100
AcDbEllipse
 10
273.766317
 20
250.108117
 30
0.0
 11
-1.00660284803519
 21
-1.616995834377451
 31
0.0
210
0.0
220
0.0
230
0.9999999999999998
 40
0.9865719999999999
 41
5.982042096662701
 42
6.283185307179585
  0
ELLIPSE
  5
139
330
1F
100
AcDbEntity
  8
1
100
AcDbEllipse
 10
273.766317
 20
250.108117
 30
0.0
 11
-1.00660284803519
 21
-1.616995834377451
 31
0.0
210
0.0
220
0.0
230
0.9999999999999998
 40
0.9865719999999999
 41
0.0
 42
0.284763955325096
  0
ELLIPSE
  5
13A
330
1F
100
AcDbEntity
  8
1
100
AcDbEllipse
 10
273.640128
 20
250.186672
 30
0.0
 11
1.031809553646092
 21
1.657487611298976
 31
0.0
210
0.0
220
0.0
230
0.9999999999999998
 40
0.9865719999999997
 41
0.0
 42
6.283185307179585
  0
SPLINE
  5
13D
330
1F
100
AcDbEntity
  8
1
100
AcDbSpline
210
0.0
220
0.0
230
1.0
 70
     8
 71
     3
 72
     8
 73
     4
 74
     0
 42
0.000000001
 43
0.0000000001
 40
0.0
 40
0.0
 40
0.0
 40
0.0
 40
1.0
 40
1.0
 40
1.0
 40
1.0
 10
274.1496478978188
 20
250.9128425391692
 30
0.0
 10
274.1748589393484
 20
250.9092700944
 30
0.0
 10
274.1994893272571
 20
250.9033884699324
 30
0.0
 10
274.2235365816093
 20
250.895208890498
 30
0.0
  0
SPLINE
  5
13E
330
1F
100
AcDbEntity
  8
1
100
AcDbSpline
210
0.0
220
0.0
230
1.0
 70
     8
 71
     3
 72
     8
 73
     4
 74
     0
 42
0.000000001
 43
0.0000000001
 40
0.0
 40
0.0
 40
0.0
 40
0.0
 40
1.0
 40
1.0
 40
1.0
 40
1.0
 10
275.5589068451595
 20
234.508775253372
 30
0.0
 10
274.4146953779875
 20
234.6387434141356
 30
0.0
 10
273.270506559991
 20
234.7688968045276
 30
0.0
 10
272.1263437781938
 20
234.8992631243288
 30
0.0
  0
SPLINE
  5
13F
330
1F
100
AcDbEntity
  8
1
100
AcDbSpline
210
0.0
220
0.0
230
1.0
 70
     8
 71
     3
 72
    27
 73
    23
 74
     0
 42
0.000000001
 43
0.0000000001
 40
0.0
 40
0.0
 40
0.0
 40
0.0
 40
0.125000000000027
 40
0.125000000000027
 40
0.18750000000004
 40
0.18750000000004
 40
0.2500000000000531
 40
0.2500000000000531
 40
0.375000000000036
 40
0.375000000000036
 40
0.4375000000000301
 40
0.4375000000000301
 40
0.5000000000000239
 40
0.5625000000000178
 40
0.5625000000000178
 40
0.6250000000000118
 40
0.6250000000000118
 40
0.7500000000000079
 40
0.7500000000000079
 40
0.8750000000000039
 40
0.8750000000000039
 40
1.0
 40
1.0
 40
1.0
 40
1.0
 10
275.5589068451595
 20
234.508775253372
 30
0.0
 10
275.5781716909221
 20
234.5065870070181
 30
0.0
 10
275.5974491298238
 20
234.5062659499081
 30
0.0
 10
275.6263840661454
 20
234.5085685804092
 30
0.0
 10
275.6360783370113
 20
234.5098122026173
 30
0.0
 10
275.6552490847296
 20
234.5132290826207
 30
0.0
 10
275.664674273031
 20
234.5153879405411
 30
0.0
 10
275.6924851428157
 20
234.5231711677329
 30
0.0
 10
275.7104103436526
 20
234.5300903399647
 30
0.0
 10
275.7363590228574
 20
234.5431097695774
 30
0.0
 10
275.7447940407995
 20
234.5478691624182
 30
0.0
 10
275.7610090311013
 20
234.5580676675755
 30
0.0
 10
275.7766444547188
 20
234.5689829491662
 30
0.0
 10
275.7911430188024
 20
234.581304236562
 30
0.0
 10
275.8050686829659
 20
234.5943340553012
 30
0.0
 10
275.811774355818
 20
234.6012401921067
 30
0.0
 10
275.8306665594436
 20
234.6226569274227
 30
0.0
 10
275.8417210791887
 20
234.6379103074096
 30
0.0
 10
275.8608568853802
 20
234.6703002002351
 30
0.0
 10
275.8689725006223
 20
234.6876002732975
 30
0.0
 10
275.8816206447844
 20
234.7228568049788
 30
0.0
 10
275.8862443798832
 20
234.7409108596909
 30
0.0
 10
275.8891743114685
 20
234.7593890671997
 30
0.0
  0
SPLINE
  5
140
330
1F
100
AcDbEntity
  8
1
100
AcDbSpline
210
0.0
220
0.0
230
1.0
 70
     8
 71
     3
 72
    12
 73
     8
 74
     0
 42
0.000000001
 43
0.0000000001
 40
0.0
 40
0.0
 40
0.0
 40
0.0
 40
0.2500000000000003
 40
0.2500000000000003
 40
0.5000000000000007
 40
0.5000000000000007
 40
1.0
 40
1.0
 40
1.0
 40
1.0
 10
276.4810446584916
 20
238.5951007572195
 30
0.0
 10
276.4340071837272
 20
238.2751412089946
 30
0.0
 10
276.386018509446
 20
237.9553135798122
 30
0.0
 10
276.2888753574384
 20
237.3158200032729
 30
0.0
 10
276.2397134742706
 20
236.9961550829548
 30
0.0
 10
276.0910758552174
 20
236.0373200852438
 30
0.0
 10
275.9904817725681
 20
235.39830510805
 30
0.0
 10
275.8891743114685
 20
234.7593890671997
 30
0.0
  0
SPLINE
  5
141
330
1F
100
AcDbEntity
  8
1
100
AcDbSpline
210
0.0
220
0.0
230
1.0
 70
     8
 71
     3
 72
    18
 73
    14
 74
     0
 42
0.000000001
 43
0.0000000001
 40
0.0
 40
0.0
 40
0.0
 40
0.0
 40
0.2940799307221326
 40
0.2940799307221326
 40
0.4411198960831988
 40
0.4411198960831988
 40
0.5881598614442652
 40
0.5881598614442652
 40
0.8822397921663942
 40
0.8822397921663942
 40
0.9557597748469353
 40
0.9557597748469353
 40
1.0
 40
1.0
 40
1.0
 40
1.0
 10
276.4810446584916
 20
238.5951007572195
 30
0.0
 10
276.4911563534287
 20
238.6638827945221
 30
0.0
 10
276.4949822303902
 20
238.7329997808958
 30
0.0
 10
276.4916187346326
 20
238.837160290518
 30
0.0
 10
276.4889659586001
 20
238.8719989371595
 30
0.0
 10
276.480557169594
 20
238.941689446684
 30
0.0
 10
276.4748550016969
 20
238.9761247292699
 30
0.0
 10
276.4534108359847
 20
239.078243267421
 30
0.0
 10
276.4333711474681
 20
239.1447501543733
 30
0.0
 10
276.4010450168943
 20
239.2258920260471
 30
0.0
 10
276.3942127411543
 20
239.2420199311559
 30
0.0
 10
276.3826683892254
 20
239.2676882601468
 30
0.0
 10
276.378190322449
 20
239.2773044158332
 30
0.0
 10
276.3735800903869
 20
239.2868707918034
 30
0.0
  0
SPLINE
  5
142
330
1F
100
AcDbEntity
  8
1
100
AcDbSpline
210
0.0
220
0.0
230
1.0
 70
     8
 71
     3
 72
     8
 73
     4
 74
     0
 42
0.000000001
 43
0.0000000001
 40
0.0
 40
0.0
 40
0.0
 40
0.0
 40
1.0
 40
1.0
 40
1.0
 40
1.0
 10
276.4810446584916
 20
243.9765155880956
 30
0.0
 10
276.4859756329062
 20
243.9905954130079
 30
0.0
 10
276.4893706236613
 20
244.0048578877045
 30
0.0
 10
276.4913304727507
 20
244.0192910206723
 30
0.0
  0
SPLINE
  5
143
330
1F
100
AcDbEntity
  8
1
100
AcDbSpline
210
0.0
220
0.0
230
1.0
 70
     8
 71
     3
 72
     8
 73
     4
 74
     0
 42
0.000000001
 43
0.0000000001
 40
0.0
 40
0.0
 40
0.0
 40
0.0
 40
1.0
 40
1.0
 40
1.0
 40
1.0
 10
276.4810446584916
 20
247.1761172588392
 30
0.0
 10
276.4895401433222
 20
247.1609165607357
 30
0.0
 10
276.493606077859
 20
247.1456400130363
 30
0.0
 10
276.4933484816175
 20
247.1302894311708
 30
0.0
  0
SPLINE
  5
144
330
1F
100
AcDbEntity
  8
1
100
AcDbSpline
210
0.0
220
0.0
230
1.0
 70
     8
 71
     3
 72
    12
 73
     8
 74
     0
 42
0.000000001
 43
0.0000000001
 40
0.0
 40
0.0
 40
0.0
 40
0.0
 40
0.2302616538702126
 40
0.2302616538702126
 40
0.6151308269351059
 40
0.6151308269351059
 40
1.0
 40
1.0
 40
1.0
 40
1.0
 10
276.4933203182764
 20
244.0423933474766
 30
0.0
 10
276.4933689734696
 20
244.0413308384127
 30
0.0
 10
276.4933680588244
 20
244.0401045464548
 30
0.0
 10
276.4932382283922
 20
244.0363902259024
 30
0.0
 10
276.4930226732391
 20
244.0335961581776
 30
0.0
 10
276.4923448336635
 20
244.0270769273922
 30
0.0
 10
276.491887291114
 20
244.0233916596025
 30
0.0
 10
276.4913304727509
 20
244.0192910206722
 30
0.0
  0
SPLINE
  5
145
330
1F
100
AcDbEntity
  8
1
100
AcDbSpline
210
0.0
220
0.0
230
1.0
 70
    12
 71
     2
 72
     6
 73
     3
 74
     0
 42
0.000000001
 43
0.0000000001
 40
0.0
 40
0.0
 40
0.0
 40
1.0
 40
1.0
 40
1.0
 10
271.5603277093543
 20
243.0828271003861
 30
0.0
 41
0.5000000089096244
 10
271.540615745084
 20
243.0857707875865
 30
0.0
 41
0.4999999910903756
 10
271.5209088018815
 20
243.0887146200242
 30
0.0
 41
0.5000000089096244
  0
SPLINE
  5
146
330
1F
100
AcDbEntity
  8
1
100
AcDbSpline
210
0.0
220
0.0
230
1.0
 70
     8
 71
     3
 72
    30
 73
    26
 74
     0
 42
0.000000001
 43
0.0000000001
 40
0.0
 40
0.0
 40
0.0
 40
0.0
 40
0.124999999999984
 40
0.124999999999984
 40
0.1874999999999763
 40
0.1874999999999763
 40
0.2499999999999686
 40
0.2499999999999686
 40
0.3749999999999736
 40
0.3749999999999736
 40
0.4374999999999626
 40
0.4374999999999626
 40
0.4999999999999516
 40
0.4999999999999516
 40
0.6249999999999635
 40
0.6249999999999635
 40
0.6874999999999697
 40
0.6874999999999697
 40
0.7499999999999756
 40
0.7499999999999756
 40
0.8749999999999877
 40
0.8749999999999877
 40
0.9374999999999939
 40
0.9374999999999939
 40
1.0
 40
1.0
 40
1.0
 40
1.0
 10
271.1644180263839
 20
242.8206191963202
 30
0.0
 10
271.1681650080177
 20
242.8408936522628
 30
0.0
 10
271.173739427998
 20
242.8605083139481
 30
0.0
 10
271.1846729936155
 20
242.8890004543168
 30
0.0
 10
271.1887494685536
 20
242.8983416591933
 30
0.0
 10
271.1977757120148
 20
242.9167079931397
 30
0.0
 10
271.202753573841
 20
242.9257771301016
 30
0.0
 10
271.2188194538049
 20
242.9521266210008
 30
0.0
 10
271.2309758705193
 20
242.9685144440614
 30
0.0
 10
271.2513394188744
 20
242.9913584465841
 30
0.0
 10
271.258484575819
 20
242.998681461513
 30
0.0
 10
271.2735140744982
 20
243.0127236820917
 30
0.0
 10
271.2814235614543
 20
243.0194560107719
 30
0.0
 10
271.3057864689697
 20
243.0383028505881
 30
0.0
 10
271.323010709468
 20
243.049228557781
 30
0.0
 10
271.3503518872071
 20
243.0631042555131
 30
0.0
 10
271.3597181311629
 20
243.0673078183392
 30
0.0
 10
271.3789844519039
 20
243.0748231900584
 30
0.0
 10
271.3888025081234
 20
243.0780978192868
 30
0.0
 10
271.4184123820652
 20
243.0863490809479
 30
0.0
 10
271.4385167196054
 20
243.0898326225825
 30
0.0
 10
271.4692455399425
 20
243.091888981547
 30
0.0
 10
271.4796328777504
 20
243.0920391501328
 30
0.0
 10
271.5003359101314
 20
243.0912152679007
 30
0.0
 10
271.5106443209941
 20
243.0902479330035
 30
0.0
 10
271.5209088018815
 20
243.0887146200242
 30
0.0
  0
SPLINE
  5
147
330
1F
100
AcDbEntity
  8
1
100
AcDbSpline
210
0.0
220
0.0
230
1.0
 70
     8
 71
     3
 72
     8
 73
     4
 74
     0
 42
0.000000001
 43
0.0000000001
 40
0.0
 40
0.0
 40
0.0
 40
0.0
 40
1.0
 40
1.0
 40
1.0
 40
1.0
 10
266.4046673122484
 20
241.3097997106426
 30
0.0
 10
266.4977200851873
 20
241.3022159980503
 30
0.0
 10
266.5907922131807
 20
241.2942909234736
 30
0.0
 10
266.6838836994841
 20
241.2860244295008
 30
0.0
  0
SPLINE
  5
148
330
1F
100
AcDbEntity
  8
1
100
AcDbSpline
210
0.0
220
0.0
230
1.0
 70
     8
 71
     3
 72
     8
 73
     4
 74
     0
 42
0.000000001
 43
0.0000000001
 40
0.0
 40
0.0
 40
0.0
 40
0.0
 40
1.0
 40
1.0
 40
1.0
 40
1.0
 10
272.1263437781938
 20
242.9840127599466
 30
0.0
 10
271.9388987305284
 20
243.0214804498832
 30
0.0
 10
271.7502397147129
 20
243.0544665812773
 30
0.0
 10
271.5603277093543
 20
243.0828271003862
 30
0.0
  0
SPLINE
  5
149
330
1F
100
AcDbEntity
  8
1
100
AcDbSpline
210
0.0
220
0.0
230
1.0
 70
     8
 71
     3
 72
    12
 73
     8
 74
     0
 42
0.000000001
 43
0.0000000001
 40
0.0
 40
0.0
 40
0.0
 40
0.0
 40
0.2500000000000002
 40
0.2500000000000002
 40
0.5000000000000005
 40
0.5000000000000005
 40
1.0
 40
1.0
 40
1.0
 40
1.0
 10
276.4810446584916
 20
243.9765155880956
 30
0.0
 10
276.4340353274727
 20
243.842285901559
 30
0.0
 10
276.3860594982096
 20
243.7082408392893
 30
0.0
 10
276.2889287479002
 20
243.4403759494647
 30
0.0
 10
276.2397661366615
 20
243.3065575909202
 30
0.0
 10
276.0911169653978
 20
242.905324358518
 30
0.0
 10
275.9905031995154
 20
242.6381248079227
 30
0.0
 10
275.8891743114685
 20
242.3710618627546
 30
0.0
  0
SPLINE
  5
14A
330
1F
100
AcDbEntity
  8
1
100
AcDbSpline
210
0.0
220
0.0
230
1.0
 70
     8
 71
     3
 72
    20
 73
    16
 74
     0
 42
0.000000001
 43
0.0000000001
 40
0.0
 40
0.0
 40
0.0
 40
0.0
 40
0.1383796288636096
 40
0.1383796288636096
 40
0.2075694432954144
 40
0.2075694432954144
 40
0.2767592577272192
 40
0.2767592577272192
 40
0.5535185154544626
 40
0.5535185154544626
 40
0.8302777731817059
 40
0.8302777731817059
 40
0.968657402045328
 40
0.968657402045328
 40
1.0
 40
1.0
 40
1.0
 40
1.0
 10
261.7070908930011
 20
241.2789996224135
 30
0.0
 10
261.7272034002007
 20
241.3034920951765
 30
0.0
 10
261.7486211172681
 20
241.3267013530782
 30
0.0
 10
261.7823560148258
 20
241.3599234095245
 30
0.0
 10
261.7938705930776
 20
241.370730620988
 30
0.0
 10
261.8173958092667
 20
241.3918523692885
 30
0.0
 10
261.8294301362944
 20
241.4021851748502
 30
0.0
 10
261.890263873411
 20
241.4523112153312
 30
0.0
 10
261.9412600530833
 20
241.4878356615249
 30
0.0
 10
262.0464378794551
 20
241.5524127322935
 30
0.0
 10
262.1006403761933
 20
241.5814267330386
 30
0.0
 10
262.1837956765422
 20
241.6210321835817
 30
0.0
 10
262.2118910274823
 20
241.6336005566775
 30
0.0
 10
262.2464564494622
 20
241.6481707539982
 30
0.0
 10
262.2528442050146
 20
241.6508263744837
 30
0.0
 10
262.2592363325638
 20
241.6534476789191
 30
0.0
  0
SPLINE
  5
14B
330
1F
100
AcDbEntity
  8
1
100
AcDbSpline
210
0.0
220
0.0
230
1.0
 70
     8
 71
     3
 72
     8
 73
     4
 74
     0
 42
0.000000001
 43
0.0000000001
 40
0.0
 40
0.0
 40
0.0
 40
0.0
 40
1.0
 40
1.0
 40
1.0
 40
1.0
 10
264.0956277715791
 20
241.4997656894093
 30
0.0
 10
264.1292273918999
 20
241.4659306824436
 30
0.0
 10
264.1610444350312
 20
241.4294968045982
 30
0.0
 10
264.1912621941613
 20
241.3903507424224
 30
0.0
  0
SPLINE
  5
14C
330
1F
100
AcDbEntity
  8
1
100
AcDbSpline
210
0.0
220
0.0
230
1.0
 70
     8
 71
     3
 72
    95
 73
    91
 74
     0
 42
0.000000001
 43
0.0000000001
 40
0.0
 40
0.0
 40
0.0
 40
0.0
 40
0.0312499999999957
 40
0.0312499999999957
 40
0.0390624999999952
 40
0.0390624999999952
 40
0.0468749999999946
 40
0.0468749999999946
 40
0.0624999999999943
 40
0.0781249999999939
 40
0.0781249999999939
 40
0.0859374999999938
 40
0.0859374999999938
 40
0.0937499999999936
 40
0.1093749999999933
 40
0.1093749999999933
 40
0.1171874999999933
 40
0.1171874999999933
 40
0.1249999999999933
 40
0.1249999999999933
 40
0.1562499999999933
 40
0.1562499999999933
 40
0.1718749999999933
 40
0.1718749999999933
 40
0.1874999999999933
 40
0.1874999999999933
 40
0.2187499999999946
 40
0.2187499999999946
 40
0.2343749999999946
 40
0.2343749999999946
 40
0.2499999999999945
 40
0.2499999999999945
 40
0.2812499999999942
 40
0.2812499999999942
 40
0.3124999999999939
 40
0.3124999999999939
 40
0.3437499999999937
 40
0.3437499999999937
 40
0.3593749999999935
 40
0.3593749999999935
 40
0.3749999999999933
 40
0.3749999999999933
 40
0.4374999999999944
 40
0.4374999999999944
 40
0.4999999999999957
 40
0.4999999999999957
 40
0.515624999999996
 40
0.515624999999996
 40
0.5312499999999964
 40
0.5312499999999964
 40
0.5624999999999972
 40
0.5624999999999972
 40
0.6249999999999987
 40
0.6249999999999987
 40
0.6406249999999982
 40
0.6406249999999982
 40
0.6562499999999977
 40
0.6562499999999977
 40
0.6874999999999984
 40
0.6874999999999984
 40
0.7187499999999992
 40
0.7187499999999992
 40
0.7343749999999995
 40
0.7343749999999995
 40
0.7499999999999997
 40
0.7499999999999997
 40
0.7812500000000006
 40
0.7812500000000006
 40
0.7968750000000006
 40
0.7968750000000006
 40
0.8125000000000003
 40
0.8281250000000003
 40
0.8281250000000003
 40
0.8359375000000003
 40
0.8359375000000003
 40
0.8437500000000005
 40
0.8437500000000005
 40
0.8750000000000005
 40
0.8750000000000005
 40
0.8906250000000007
 40
0.8906250000000007
 40
0.9062500000000007
 40
0.9062500000000007
 40
0.9375000000000007
 40
0.9375000000000007
 40
0.9687500000000012
 40
0.9687500000000012
 40
0.9843750000000003
 40
0.9843750000000003
 40
1.0
 40
1.0
 40
1.0
 40
1.0
 10
264.1912621941614
 20
241.3903507424226
 30
0.0
 10
264.2212908539384
 20
241.3514496519205
 30
0.0
 10
264.247290716314
 20
241.3097780679077
 30
0.0
 10
264.2732500517808
 20
241.2532780398153
 30
0.0
 10
264.2781109259626
 20
241.2417548630374
 30
0.0
 10
264.2871138877826
 20
241.2182256926653
 30
0.0
 10
264.2912355542519
 20
241.2062646742125
 30
0.0
 10
264.302299738929
 20
241.1701177637017
 30
0.0
 10
264.3136902393755
 20
241.120956651722
 30
0.0
 10
264.3179238687756
 20
241.0697562096044
 30
0.0
 10
264.3181877753721
 20
241.0305298046194
 30
0.0
 10
264.3177830594582
 20
241.0172845725635
 30
0.0
 10
264.3160055220076
 20
240.9910016719459
 30
0.0
 10
264.3118948790876
 20
240.9517175846024
 30
0.0
 10
264.3035979696184
 20
240.9128401842938
 30
0.0
 10
264.292653118427
 20
240.8742186513148
 30
0.0
 10
264.2885629520296
 20
240.8613874889538
 30
0.0
 10
264.2795164241725
 20
240.8358083982883
 30
0.0
 10
264.2745779908009
 20
240.8231188025293
 30
0.0
 10
264.2481958529619
 20
240.7607561643835
 30
0.0
 10
264.2215338795423
 20
240.7136718948745
 30
0.0
 10
264.1751792231219
 20
240.6462461773171
 30
0.0
 10
264.1585940181944
 20
240.6242520350486
 30
0.0
 10
264.124151442211
 20
240.5820068611824
 30
0.0
 10
264.1062296694477
 20
240.5616511374551
 30
0.0
 10
264.0506741963909
 20
240.5025481942759
 30
0.0
 10
264.0112669810932
 20
240.4657471188776
 30
0.0
 10
263.9493819723968
 20
240.4136057504704
 30
0.0
 10
263.9282508386075
 20
240.396713989072
 30
0.0
 10
263.8852949558016
 20
240.3639903437345
 30
0.0
 10
263.8635724442792
 20
240.3482329674123
 30
0.0
 10
263.7977621912347
 20
240.3025688255998
 30
0.0
 10
263.7530365075
 20
240.2742590006758
 30
0.0
 10
263.6622032617971
 20
240.2211862364643
 30
0.0
 10
263.616093330892
 20
240.1964287399534
 30
0.0
 10
263.5226782067899
 20
240.1500562626765
 30
0.0
 10
263.4753719180407
 20
240.1284437750384
 30
0.0
 10
263.403596996096
 20
240.0982163095355
 30
0.0
 10
263.3795071109082
 20
240.088497118298
 30
0.0
 10
263.3313859379696
 20
240.0698969366524
 30
0.0
 10
263.3073196919056
 20
240.0610002665962
 30
0.0
 10
263.1869691839161
 20
240.0184539432896
 30
0.0
 10
263.0906329490112
 20
239.9905436924302
 30
0.0
 10
262.8979723265579
 20
239.9462162322153
 30
0.0
 10
262.8016470869304
 20
239.92980372264
 30
0.0
 10
262.6812449940942
 20
239.9170285787949
 30
0.0
 10
262.6571645041734
 20
239.9148646541035
 30
0.0
 10
262.6090020868424
 20
239.9113504632459
 30
0.0
 10
262.5849749757398
 20
239.9100054807291
 30
0.0
 10
262.5133812609661
 20
239.9072508938266
 30
0.0
 10
262.4661721854477
 20
239.9071079527465
 30
0.0
 10
262.3261525680707
 20
239.9120424050593
 30
0.0
 10
262.2349296854004
 20
239.9223863516589
 30
0.0
 10
262.1239491285166
 20
239.946210632634
 30
0.0
 10
262.1019070121895
 20
239.9515279240961
 30
0.0
 10
262.0581483836331
 20
239.9633570475397
 30
0.0
 10
262.036485321662
 20
239.9698576868559
 30
0.0
 10
261.9726300022556
 20
239.9910765786881
 30
0.0
 10
261.9313895720154
 20
240.0075487233689
 30
0.0
 10
261.8518249778851
 20
240.0457556237431
 30
0.0
 10
261.8134973585711
 20
240.0674830913274
 30
0.0
 10
261.7585226470255
 20
240.1047648284735
 30
0.0
 10
261.7405649721866
 20
240.1180264782421
 30
0.0
 10
261.7060213304813
 20
240.1459278239416
 30
0.0
 10
261.6893959436624
 20
240.1605869355045
 30
0.0
 10
261.6415587327018
 20
240.2068286618764
 30
0.0
 10
261.6123666522757
 20
240.2406528953914
 30
0.0
 10
261.5732967148066
 20
240.2967596969056
 30
0.0
 10
261.5610153025886
 20
240.3164650485066
 30
0.0
 10
261.5386091400163
 20
240.3571365790673
 30
0.0
 10
261.5182770672808
 20
240.3991467368248
 30
0.0
 10
261.5022536013873
 20
240.4439660121054
 30
0.0
 10
261.4919510597599
 20
240.4787083013805
 30
0.0
 10
261.4888031605661
 20
240.4904773170389
 30
0.0
 10
261.4831026338815
 20
240.5144082110349
 30
0.0
 10
261.4805438155706
 20
240.5266103328983
 30
0.0
 10
261.4694238148186
 20
240.5879459771484
 30
0.0
 10
261.4657552732935
 20
240.6382695087453
 30
0.0
 10
261.4680755134132
 20
240.7156556614713
 30
0.0
 10
261.4701599006609
 20
240.7417693056844
 30
0.0
 10
261.4770396978558
 20
240.7946551140166
 30
0.0
 10
261.4817837079392
 20
240.8209947829761
 30
0.0
 10
261.4996236340623
 20
240.8992546053734
 30
0.0
 10
261.5163367723047
 20
240.9506485784636
 30
0.0
 10
261.5588118849483
 20
241.0518456564809
 30
0.0
 10
261.5839193273964
 20
241.1001199916028
 30
0.0
 10
261.6265652887341
 20
241.1695431591605
 30
0.0
 10
261.6416181354307
 20
241.1921821248716
 30
0.0
 10
261.6733256477979
 20
241.2365008493444
 30
0.0
 10
261.6898935099776
 20
241.2580571098174
 30
0.0
 10
261.7070908930045
 20
241.278999622414
 30
0.0
  0
SPLINE
  5
14D
330
1F
100
AcDbEntity
  8
1
100
AcDbSpline
210
0.0
220
0.0
230
1.0
 70
     8
 71
     3
 72
    18
 73
    14
 74
     0
 42
0.000000001
 43
0.0000000001
 40
0.0
 40
0.0
 40
0.0
 40
0.0
 40
0.023589500504201
 40
0.023589500504201
 40
0.2882707079566356
 40
0.2882707079566356
 40
0.5529519154090702
 40
0.5529519154090702
 40
0.6852925191352889
 40
0.6852925191352889
 40
0.8176331228615078
 40
0.8176331228615078
 40
1.0
 40
1.0
 40
1.0
 40
1.0
 10
276.4674923664518
 20
239.3985736773664
 30
0.0
 10
276.4678484145832
 20
239.3968472709441
 30
0.0
 10
276.4682022218505
 20
239.3951209767155
 30
0.0
 10
276.4724972415546
 20
239.3740262330997
 30
0.0
 10
276.4761489605627
 20
239.3546495015983
 30
0.0
 10
276.4825952102658
 20
239.3159465795612
 30
0.0
 10
276.4852928881347
 20
239.2972003078922
 30
0.0
 10
276.4885022743095
 20
239.2699446644336
 30
0.0
 10
276.4894326117162
 20
239.2610046975985
 30
0.0
 10
276.491006003313
 20
239.2434230409115
 30
0.0
 10
276.4916495231446
 20
239.2347516822306
 30
0.0
 10
276.4928084817561
 20
239.2149314020129
 30
0.0
 10
276.4931930845571
 20
239.2039994244111
 30
0.0
 10
276.4933142640974
 20
239.1936225523429
 30
0.0
  0
SPLINE
  5
14E
330
1F
100
AcDbEntity
  8
1
100
AcDbSpline
210
0.0
220
0.0
230
1.0
 70
     8
 71
     3
 72
     8
 73
     4
 74
     0
 42
0.000000001
 43
0.0000000001
 40
0.0
 40
0.0
 40
0.0
 40
0.0
 40
1.0
 40
1.0
 40
1.0
 40
1.0
 10
272.1263437781938
 20
234.8992631243289
 30
0.0
 10
271.9383254024321
 20
234.9206860058393
 30
0.0
 10
271.7496538735911
 20
234.9314095875072
 30
0.0
 10
271.5603277093543
 20
234.9314095875072
 30
0.0
  0
SPLINE
  5
14F
330
1F
100
AcDbEntity
  8
1
100
AcDbSpline
210
0.0
220
0.0
230
1.0
 70
     8
 71
     3
 72
     8
 73
     4
 74
     0
 42
0.000000001
 43
0.0000000001
 40
0.0
 40
0.0
 40
0.0
 40
0.0
 40
1.0
 40
1.0
 40
1.0
 40
1.0
 10
270.1906765997154
 20
240.2101413967571
 30
0.0
 10
270.190292572318
 20
240.2112496628658
 30
0.0
 10
270.1899286316306
 20
240.2123503024966
 30
0.0
 10
270.1895849218675
 20
240.2134430210173
 30
0.0
  0
SPLINE
  5
150
330
1F
100
AcDbEntity
  8
1
100
AcDbSpline
210
0.0
220
0.0
230
1.0
 70
     8
 71
     3
 72
    19
 73
    15
 74
     0
 42
0.000000001
 43
0.0000000001
 40
0.0
 40
0.0
 40
0.0
 40
0.0
 40
0.2500000000000485
 40
0.2500000000000485
 40
0.3750000000000557
 40
0.3750000000000557
 40
0.5000000000000631
 40
0.6250000000000703
 40
0.6250000000000703
 40
0.6875000000000686
 40
0.6875000000000686
 40
0.7500000000000671
 40
0.7500000000000671
 40
1.0
 40
1.0
 40
1.0
 40
1.0
 10
270.4365036723001
 20
240.048242836917
 30
0.0
 10
270.4042886539673
 20
240.0576174272531
 30
0.0
 10
270.3744026827868
 20
240.0683277139393
 30
0.0
 10
270.3329822728386
 20
240.086397998025
 30
0.0
 10
270.3196656182898
 20
240.0928080438323
 30
0.0
 10
270.2948701183511
 20
240.1060169699187
 30
0.0
 10
270.2718115438385
 20
240.1196402861317
 30
0.0
 10
270.2521819470045
 20
240.134136650234
 30
0.0
 10
270.2387764082581
 20
240.1453240462804
 30
0.0
 10
270.2345249661181
 20
240.1491111942877
 30
0.0
 10
270.226591809579
 20
240.1566739295222
 30
0.0
 10
270.2228923443267
 20
240.1604634947173
 30
0.0
 10
270.205700455803
 20
240.1794484907226
 30
0.0
 10
270.1960595175674
 20
240.1947566017161
 30
0.0
 10
270.1906765997154
 20
240.210141396757
 30
0.0
  0
SPLINE
  5
151
330
1F
100
AcDbEntity
  8
1
100
AcDbSpline
210
0.0
220
0.0
230
1.0
 70
     8
 71
     3
 72
     8
 73
     4
 74
     0
 42
0.000000001
 43
0.0000000001
 40
0.0
 40
0.0
 40
0.0
 40
0.0
 40
1.0
 40
1.0
 40
1.0
 40
1.0
 10
275.1316953080145
 20
239.016701163598
 30
0.0
 10
274.8009392203034
 20
239.058670327016
 30
0.0
 10
274.4703737267091
 20
239.1107433589993
 30
0.0
 10
274.1430100994845
 20
239.1724459024234
 30
0.0
  0
SPLINE
  5
152
330
1F
100
AcDbEntity
  8
1
100
AcDbSpline
210
0.0
220
0.0
230
1.0
 70
     8
 71
     3
 72
    24
 73
    20
 74
     0
 42
0.000000001
 43
0.0000000001
 40
0.0
 40
0.0
 40
0.0
 40
0.0
 40
0.0312499999999999
 40
0.0312499999999999
 40
0.0624999999999997
 40
0.0624999999999997
 40
0.1249999999999998
 40
0.1249999999999998
 40
0.1874999999999999
 40
0.1874999999999999
 40
0.2500000000000001
 40
0.2500000000000001
 40
0.3750000000000002
 40
0.3750000000000002
 40
0.5000000000000006
 40
0.5000000000000006
 40
0.7500000000000004
 40
0.7500000000000004
 40
1.0
 40
1.0
 40
1.0
 40
1.0
 10
276.9080659463593
 20
242.7265605325519
 30
0.0
 10
276.9060075440341
 20
242.741203520779
 30
0.0
 10
276.90375116923
 20
242.755593864461
 30
0.0
 10
276.8990225166217
 20
242.7840990416867
 30
0.0
 10
276.8965462047519
 20
242.7982087218496
 30
0.0
 10
276.8888968656951
 20
242.8402564982766
 30
0.0
 10
276.8835076925414
 20
242.8679187635904
 30
0.0
 10
276.8724098338828
 20
242.9228355540359
 30
0.0
 10
276.8666965799194
 20
242.9500735769458
 30
0.0
 10
276.8551308399942
 20
243.0039068435224
 30
0.0
 10
276.8492646760387
 20
243.0305600189147
 30
0.0
 10
276.8314868957689
 20
243.1099524580781
 30
0.0
 10
276.8193991834907
 20
243.1621347324504
 30
0.0
 10
276.7949340105513
 20
243.2655828105743
 30
0.0
 10
276.7825532576699
 20
243.316838201073
 30
0.0
 10
276.7450966127327
 20
243.4696099725579
 30
0.0
 10
276.7197117688161
 20
243.5701491425602
 30
0.0
 10
276.6684330386095
 20
243.7696173877241
 30
0.0
 10
276.6425320748135
 20
243.8685287059265
 30
0.0
 10
276.6164755743218
 20
243.9667296719449
 30
0.0
  0
SPLINE
  5
153
330
1F
100
AcDbEntity
  8
1
100
AcDbSpline
210
0.0
220
0.0
230
1.0
 70
     8
 71
     2
 72
     7
 73
     4
 74
     0
 42
0.000000001
 43
0.0000000001
 40
0.0
 40
0.0
 40
0.0
 40
0.376016849189758
 40
1.0
 40
1.0
 40
1.0
 10
276.6164710821466
 20
243.9666836768256
 30
0.0
 10
276.6048498794758
 20
243.9724571517064
 30
0.0
 10
276.5724691144247
 20
243.9868629872976
 30
0.0
 10
276.5505244682926
 20
243.9948710288641
 30
0.0
  0
SPLINE
  5
154
330
1F
100
AcDbEntity
  8
1
100
AcDbSpline
210
0.0
220
0.0
230
1.0
 70
     8
 71
     2
 72
     7
 73
     4
 74
     0
 42
0.000000001
 43
0.0000000001
 40
0.0
 40
0.0
 40
0.0
 40
0.3760168491812106
 40
1.0
 40
1.0
 40
1.0
 10
271.5456225270443
 20
243.0644428612109
 30
0.0
 10
271.5572437297148
 20
243.0586693863303
 30
0.0
 10
271.5896244947657
 20
243.044263550739
 30
0.0
 10
271.6115691408981
 20
243.0362555091724
 30
0.0
  0
SPLINE
  5
155
330
1F
100
AcDbEntity
  8
1
100
AcDbSpline
210
0.0
220
0.0
230
1.0
 70
     8
 71
     3
 72
    12
 73
     8
 74
     0
 42
0.000000001
 43
0.0000000001
 40
0.0
 40
0.0
 40
0.0
 40
0.0
 40
0.4999999999999969
 40
0.4999999999999969
 40
0.7499999999999984
 40
0.7499999999999984
 40
1.0
 40
1.0
 40
1.0
 40
1.0
 10
271.6115680321376
 20
243.0362812492434
 30
0.0
 10
271.6097383924143
 20
243.0099850856235
 30
0.0
 10
271.6087968886671
 20
242.9837171102546
 30
0.0
 10
271.6099901442126
 20
242.9443978426494
 30
0.0
 10
271.6108278650217
 20
242.9313053841421
 30
0.0
 10
271.6139512344089
 20
242.9051664224232
 30
0.0
 10
271.616188321985
 20
242.8921183779501
 30
0.0
 10
271.6198987849448
 20
242.879117096446
 30
0.0
  0
SPLINE
  5
156
330
1F
100
AcDbEntity
  8
1
100
AcDbSpline
210
0.0
220
0.0
230
1.0
 70
     8
 71
     3
 72
    12
 73
     8
 74
     0
 42
0.000000001
 43
0.0000000001
 40
0.0
 40
0.0
 40
0.0
 40
0.0
 40
0.4999999999999862
 40
0.4999999999999862
 40
0.7499999999999931
 40
0.7499999999999931
 40
1.0
 40
1.0
 40
1.0
 40
1.0
 10
275.9385174733631
 20
242.2260564224206
 30
0.0
 10
275.9443519775389
 20
242.2034219644086
 30
0.0
 10
275.9502809777295
 20
242.1813139515947
 30
0.0
 10
275.9594516571715
 20
242.1496961206172
 30
0.0
 10
275.9625553551212
 20
242.1394175970892
 30
0.0
 10
275.9689167679965
 20
242.1197185914813
 30
0.0
 10
275.9721693206521
 20
242.1102693499629
 30
0.0
 10
275.9755785705872
 20
242.1016930820848
 30
0.0
  0
SPLINE
  5
157
330
1F
100
AcDbEntity
  8
1
100
AcDbSpline
210
0.0
220
0.0
230
1.0
 70
     8
 71
     2
 72
     8
 73
     5
 74
     0
 42
0.000000001
 43
0.0000000001
 40
0.0
 40
0.0
 40
0.0
 40
0.3809847559250121
 40
0.9925842274251884
 40
1.0
 40
1.0
 40
1.0
 10
275.8920935900052
 20
242.2037884434129
 30
0.0
 10
275.9019456539547
 20
242.2073936190697
 30
0.0
 10
275.9254025411507
 20
242.2178505101022
 30
0.0
 10
275.9383848736917
 20
242.2259645281947
 30
0.0
 10
275.9385182195704
 20
242.2260482945401
 30
0.0
  0
SPLINE
  5
158
330
1F
100
AcDbEntity
  8
1
100
AcDbSpline
210
0.0
220
0.0
230
1.0
 70
     8
 71
     3
 72
    24
 73
    20
 74
     0
 42
0.000000001
 43
0.0000000001
 40
0.0
 40
0.0
 40
0.0
 40
0.0
 40
0.031249999999999
 40
0.031249999999999
 40
0.0624999999999981
 40
0.0624999999999981
 40
0.1249999999999965
 40
0.1249999999999965
 40
0.1874999999999949
 40
0.1874999999999949
 40
0.2499999999999934
 40
0.2499999999999934
 40
0.3749999999999943
 40
0.3749999999999943
 40
0.4999999999999952
 40
0.4999999999999952
 40
0.7499999999999976
 40
0.7499999999999976
 40
1.0
 40
1.0
 40
1.0
 40
1.0
 10
275.6886684382778
 20
240.8360447734323
 30
0.0
 10
275.6961779349255
 20
240.8486764875404
 30
0.0
 10
275.7026923021901
 20
240.8616854997671
 30
0.0
 10
275.7146392172911
 20
240.8881136901388
 30
0.0
 10
275.7200512892788
 20
240.9015406316836
 30
0.0
 10
275.7351843384575
 20
240.9422397161538
 30
0.0
 10
275.743823445567
 20
240.9699220443833
 30
0.0
 10
275.7595050219034
 20
241.0258920576278
 30
0.0
 10
275.7665133198223
 20
241.0541825581386
 30
0.0
 10
275.7793554451011
 20
241.1107898723373
 30
0.0
 10
275.7851986040746
 20
241.1391710914451
 30
0.0
 10
275.80148486459
 20
241.2244816041978
 30
0.0
 10
275.8107069087316
 20
241.2815747792486
 30
0.0
 10
275.827143216908
 20
241.396030598932
 30
0.0
 10
275.8343345906209
 20
241.4533963157365
 30
0.0
 10
275.8537308257689
 20
241.6257857661029
 30
0.0
 10
275.8637954801308
 20
241.7410967426273
 30
0.0
 10
275.8803993708821
 20
241.9721918515293
 30
0.0
 10
275.8868939775676
 20
242.0879805923862
 30
0.0
 10
275.8920867545301
 20
242.2038019979767
 30
0.0
  0
SPLINE
  5
159
330
1F
100
AcDbEntity
  8
1
100
AcDbSpline
210
0.0
220
0.0
230
1.0
 70
     8
 71
     3
 72
     8
 73
     4
 74
     0
 42
0.000000001
 43
0.0000000001
 40
0.0
 40
0.0
 40
0.0
 40
0.0
 40
1.0
 40
1.0
 40
1.0
 40
1.0
 10
275.8227935963426
 20
238.9497439224536
 30
0.0
 10
275.82034364123
 20
238.9499032656746
 30
0.0
 10
275.8178892292897
 20
238.9500656151426
 30
0.0
 10
275.8154309564135
 20
238.9502309373292
 30
0.0
  0
SPLINE
  5
15A
330
1F
100
AcDbEntity
  8
1
100
AcDbSpline
210
0.0
220
0.0
230
1.0
 70
     8
 71
     3
 72
    19
 73
    15
 74
     0
 42
0.000000001
 43
0.0000000001
 40
0.0
 40
0.0
 40
0.0
 40
0.0
 40
0.2499999999999761
 40
0.2499999999999761
 40
0.3749999999999487
 40
0.3749999999999487
 40
0.4999999999999212
 40
0.6249999999998938
 40
0.6249999999998938
 40
0.6874999999999011
 40
0.6874999999999011
 40
0.7499999999999085
 40
0.7499999999999085
 40
1.0
 40
1.0
 40
1.0
 40
1.0
 10
276.1290892853903
 20
239.0157811018116
 30
0.0
 10
276.1164039118868
 20
239.0035331483284
 30
0.0
 10
276.0998645712269
 20
238.9926729354482
 30
0.0
 10
276.0694095360115
 20
238.9787000940263
 30
0.0
 10
276.0582128688436
 20
238.9744062430204
 30
0.0
 10
276.0344266657099
 20
238.9668099303861
 30
0.0
 10
276.0092144921195
 20
238.9601639624256
 30
0.0
 10
275.9812072543538
 20
238.955372773478
 30
0.0
 10
275.9591212954664
 20
238.9524930476155
 30
0.0
 10
275.9515688726444
 20
238.9516528545878
 30
0.0
 10
275.9363322363551
 20
238.9502378152423
 30
0.0
 10
275.928620395925
 20
238.9496588868506
 30
0.0
 10
275.8896037792995
 20
238.9473961535259
 30
0.0
 10
275.8569510661599
 20
238.9475955597909
 30
0.0
 10
275.8227935963426
 20
238.9497439224536
 30
0.0
  0
SPLINE
  5
15B
330
1F
100
AcDbEntity
  8
1
100
AcDbSpline
210
0.0
220
0.0
230
1.0
 70
     8
 71
     3
 72
     8
 73
     4
 74
     0
 42
0.000000001
 43
0.0000000001
 40
0.0
 40
0.0
 40
0.0
 40
0.0
 40
1.0
 40
1.0
 40
1.0
 40
1.0
 10
276.131602156208
 20
239.0182736331708
 30
0.0
 10
276.1307831018521
 20
239.017443766036
 30
0.0
 10
276.1299454000973
 20
239.0166128603755
 30
0.0
 10
276.1290892853903
 20
239.0157811018116
 30
0.0
  0
SPLINE
  5
15C
330
1F
100
AcDbEntity
  8
1
100
AcDbSpline
210
0.0
220
0.0
230
1.0
 70
     8
 71
     3
 72
    10
 73
     6
 74
     0
 42
0.000000001
 43
0.0000000001
 40
0.0
 40
0.0
 40
0.0
 40
0.0
 40
0.5
 40
0.5
 40
1.0
 40
1.0
 40
1.0
 40
1.0
 10
275.8154301560368
 20
238.9502313161236
 30
0.0
 10
275.7021842569195
 20
238.9578473958869
 30
0.0
 10
275.5885155135751
 20
238.9671985940221
 30
0.0
 10
275.3603656087916
 20
238.9893774534133
 30
0.0
 10
275.2460476281519
 20
239.002191162454
 30
0.0
 10
275.1316953080145
 20
239.016701163598
 30
0.0
  0
SPLINE
  5
15D
330
1F
100
AcDbEntity
  8
1
100
AcDbSpline
210
0.0
220
0.0
230
1.0
 70
     8
 71
     3
 72
    16
 73
    12
 74
     0
 42
0.000000001
 43
0.0000000001
 40
0.0
 40
0.0
 40
0.0
 40
0.0
 40
0.1163944876925933
 40
0.2314680280303265
 40
0.3452206391271644
 40
0.457652355540903
 40
0.5687632292165229
 40
0.6785533304659585
 40
0.7870227489876504
 40
0.8941715949296135
 40
1.0
 40
1.0
 40
1.0
 40
1.0
 10
275.8154301560385
 20
238.9502313160971
 30
0.0
 10
275.8105704967345
 20
239.0233223898738
 30
0.0
 10
275.8009063298287
 20
239.1686750354253
 30
0.0
 10
275.786436153986
 20
239.3855239194419
 30
0.0
 10
275.7720921455718
 20
239.5999314490078
 30
0.0
 10
275.7578718399469
 20
239.8119019184421
 30
0.0
 10
275.743777539795
 20
240.0214340932349
 30
0.0
 10
275.729810275836
 20
240.2285277166623
 30
0.0
 10
275.7159697766505
 20
240.4331838718605
 30
0.0
 10
275.7022604022999
 20
240.6353972984871
 30
0.0
 10
275.6931421788111
 20
240.7694207925632
 30
0.0
 10
275.6886113331723
 20
240.8360170724599
 30
0.0
  0
SPLINE
  5
15E
330
1F
100
AcDbEntity
  8
1
100
AcDbSpline
210
0.0
220
0.0
230
1.0
 70
     8
 71
     3
 72
    24
 73
    20
 74
     0
 42
0.000000001
 43
0.0000000001
 40
0.0
 40
0.0
 40
0.0
 40
0.0
 40
0.0549546209746054
 40
0.1103919402387086
 40
0.1663121591638606
 40
0.2227154734200519
 40
0.2796020731704865
 40
0.3369721432583681
 40
0.3948258633860079
 40
0.4531634082867128
 40
0.5119849478897173
 40
0.5712906474785355
 40
0.6310806678430386
 40
0.6913551654255476
 40
0.7521142924612025
 40
0.8133581971129114
 40
0.8750870236010854
 40
0.9373009123284305
 40
1.0
 40
1.0
 40
1.0
 40
1.0
 10
271.6199161984591
 20
242.8791457539313
 30
0.0
 10
271.5977661318884
 20
242.8275012050053
 30
0.0
 10
271.5532714418734
 20
242.7237584831452
 30
0.0
 10
271.4865372886487
 20
242.5673364660935
 30
0.0
 10
271.4194365197419
 20
242.4094612312715
 30
0.0
 10
271.3519902024575
 20
242.2501235187896
 30
0.0
 10
271.284191243342
 20
242.0893260685483
 30
0.0
 10
271.2160402139899
 20
241.9270683593029
 30
0.0
 10
271.1475356268675
 20
241.7633507508593
 30
0.0
 10
271.0786765738527
 20
241.5981733600503
 30
0.0
 10
271.0094620124938
 20
241.4315363647736
 30
0.0
 10
270.9398909508585
 20
241.2634399249676
 30
0.0
 10
270.8699624305718
 20
241.0938841906379
 30
0.0
 10
270.7996754058797
 20
240.9228693500754
 30
0.0
 10
270.7290292505195
 20
240.7503954261344
 30
0.0
 10
270.6580218294968
 20
240.5764630512913
 30
0.0
 10
270.5866567850788
 20
240.4010705386566
 30
0.0
 10
270.514916020768
 20
240.2242249432524
 30
0.0
 10
270.4670669701347
 20
240.1058019175985
 30
0.0
 10
270.4430495148859
 20
240.0463604097434
 30
0.0
  0
SPLINE
  5
15F
330
1F
100
AcDbEntity
  8
1
100
AcDbSpline
210
0.0
220
0.0
230
1.0
 70
     8
 71
     3
 72
    16
 73
    12
 74
     0
 42
0.000000001
 43
0.0000000001
 40
0.0
 40
0.0
 40
0.0
 40
0.0
 40
0.125
 40
0.125
 40
0.2500000000000001
 40
0.2500000000000001
 40
0.5000000000000001
 40
0.5000000000000001
 40
0.7500000000000002
 40
0.7500000000000002
 40
1.0
 40
1.0
 40
1.0
 40
1.0
 10
274.1430100994845
 20
239.1724459024234
 30
0.0
 10
273.9850978724663
 20
239.2022097040021
 30
0.0
 10
273.827530407159
 20
239.2328320326149
 30
0.0
 10
273.5130848417836
 20
239.295793682575
 30
0.0
 10
273.3562014639825
 20
239.328134688035
 30
0.0
 10
272.8870457295031
 20
239.427637819531
 30
0.0
 10
272.5761130123826
 20
239.4973084343944
 30
0.0
 10
271.9579279004953
 20
239.6433296626373
 30
0.0
 10
271.651306819318
 20
239.7195324963106
 30
0.0
 10
271.0433159248448
 20
239.8782145045544
 30
0.0
 10
270.7418919066793
 20
239.9607064579896
 30
0.0
 10
270.4430495149074
 20
240.0463604097968
 30
0.0
  0
SPLINE
  5
160
330
1F
100
AcDbEntity
  8
1
100
AcDbSpline
210
0.0
220
0.0
230
1.0
 70
     8
 71
     3
 72
    24
 73
    20
 74
     0
 42
0.000000001
 43
0.0000000001
 40
0.0
 40
0.0
 40
0.0
 40
0.0
 40
0.0549531386250683
 40
0.1103891671077043
 40
0.1663082854430207
 40
0.2227106879624669
 40
0.2795965635273159
 40
0.336966095714161
 40
0.3948194629928362
 40
0.4531568388971012
 40
0.5119783921884659
 40
0.571284287013436
 40
0.6310746830545501
 40
0.6913497356754456
 40
0.7521095960602623
 40
0.8133544113476324
 40
0.8750843247595151
 40
0.9372994757250971
 40
1.0
 40
1.0
 40
1.0
 40
1.0
 10
275.9755765130915
 20
242.101700977908
 30
0.0
 10
275.9783585230229
 20
242.0450995919194
 30
0.0
 10
275.9839469892487
 20
241.9313994464365
 30
0.0
 10
275.9924050268475
 20
241.7601618752518
 30
0.0
 10
276.0009644137588
 20
241.5874746886448
 30
0.0
 10
276.0096278997512
 20
241.4133417596479
 30
0.0
 10
276.0183946002555
 20
241.237761462534
 30
0.0
 10
276.0272646201247
 20
241.0607336727426
 30
0.0
 10
276.0362377987547
 20
240.8822578668608
 30
0.0
 10
276.0453140507349
 20
240.702333638134
 30
0.0
 10
276.0544932738458
 20
240.5209605570381
 30
0.0
 10
276.0637753730457
 20
240.3381382071828
 30
0.0
 10
276.0731602583476
 20
240.1538661827081
 30
0.0
 10
276.0826478295111
 20
239.9681440618728
 30
0.0
 10
276.0922380408726
 20
239.7809715165021
 30
0.0
 10
276.1019306552437
 20
239.5923478958138
 30
0.0
 10
276.1117261743779
 20
239.402273798812
 30
0.0
 10
276.1216223255173
 20
239.2107451359426
 30
0.0
 10
276.1282665065064
 20
239.0825967718316
 30
0.0
 10
276.1316015053413
 20
239.0182736226411
 30
0.0
  0
SPLINE
  5
161
330
1F
100
AcDbEntity
  8
1
100
AcDbSpline
210
0.0
220
0.0
230
1.0
 70
     8
 71
     3
 72
    16
 73
    12
 74
     0
 42
0.000000001
 43
0.0000000001
 40
0.0
 40
0.0
 40
0.0
 40
0.0
 40
0.125
 40
0.125
 40
0.25
 40
0.25
 40
0.5
 40
0.5
 40
0.75
 40
0.75
 40
1.0
 40
1.0
 40
1.0
 40
1.0
 10
277.0793197793576
 20
240.4769344933953
 30
0.0
 10
277.0565272076078
 20
240.41243939904
 30
0.0
 10
277.0316192649063
 20
240.3483594499697
 30
0.0
 10
276.977574203979
 20
240.2210300917903
 30
0.0
 10
276.9484347081805
 20
240.1577787315665
 30
0.0
 10
276.8547605636044
 20
239.9694562902837
 30
0.0
 10
276.7839499771081
 20
239.8457534525735
 30
0.0
 10
276.6255858775706
 20
239.6020445922258
 30
0.0
 10
276.5381909378545
 20
239.4822878421435
 30
0.0
 10
276.3471339944106
 20
239.2470800636891
 30
0.0
 10
276.2434581600506
 20
239.1316076543315
 30
0.0
 10
276.1316015053413
 20
239.0182736226424
 30
0.0
  0
SPLINE
  5
162
330
1F
100
AcDbEntity
  8
1
100
AcDbSpline
210
0.0
220
0.0
230
1.0
 70
     8
 71
     3
 72
     8
 73
     4
 74
     0
 42
0.000000001
 43
0.0000000001
 40
0.0
 40
0.0
 40
0.0
 40
0.0
 40
1.0
 40
1.0
 40
1.0
 40
1.0
 10
266.4046673122484
 20
234.9311875738058
 30
0.0
 10
266.497630669411
 20
234.9333026103403
 30
0.0
 10
266.5907028237204
 20
234.9341858166641
 30
0.0
 10
266.6838836994841
 20
234.9338209332666
 30
0.0
  0
SPLINE
  5
163
330
1F
100
AcDbEntity
  8
1
100
AcDbSpline
210
0.0
220
0.0
230
1.0
 70
     8
 71
     3
 72
    10
 73
     6
 74
     0
 42
0.000000001
 43
0.0000000001
 40
0.0
 40
0.0
 40
0.0
 40
0.0
 40
0.5
 40
0.5
 40
1.0
 40
1.0
 40
1.0
 40
1.0
 10
266.6838836994841
 20
234.9338209332666
 30
0.0
 10
267.0771113137451
 20
234.9322811084182
 30
0.0
 10
267.4717249273011
 20
234.9318206699173
 30
0.0
 10
268.263643413604
 20
234.9313830723074
 30
0.0
 10
268.6609485090364
 20
234.9314095875072
 30
0.0
 10
269.0595993105189
 20
234.9314095875072
 30
0.0
  0
SPLINE
  5
164
330
1F
100
AcDbEntity
  8
1
100
AcDbSpline
210
0.0
220
0.0
230
1.0
 70
     9
 71
     3
 72
   134
 73
   130
 74
     0
 42
0.000000001
 43
0.0000000001
 40
0.0
 40
0.0
 40
0.0
 40
0.0
 40
0.0156249999999968
 40
0.0156249999999968
 40
0.0234374999999951
 40
0.0234374999999951
 40
0.0312499999999935
 40
0.0312499999999935
 40
0.0468749999999931
 40
0.0468749999999931
 40
0.054687499999993
 40
0.054687499999993
 40
0.0624999999999929
 40
0.0624999999999929
 40
0.0781249999999926
 40
0.0781249999999926
 40
0.0937499999999923
 40
0.0937499999999923
 40
0.1093749999999921
 40
0.1093749999999921
 40
0.1249999999999918
 40
0.1249999999999918
 40
0.1406249999999915
 40
0.1406249999999915
 40
0.1562499999999913
 40
0.1562499999999913
 40
0.1874999999999925
 40
0.1874999999999925
 40
0.2187499999999938
 40
0.2187499999999938
 40
0.2343749999999951
 40
0.2343749999999951
 40
0.2499999999999964
 40
0.2499999999999964
 40
0.2812499999999993
 40
0.2812499999999993
 40
0.3125000000000022
 40
0.3125000000000022
 40
0.343750000000005
 40
0.343750000000005
 40
0.3593750000000063
 40
0.3593750000000063
 40
0.3750000000000077
 40
0.3750000000000077
 40
0.3906250000000089
 40
0.3906250000000089
 40
0.4062500000000104
 40
0.4062500000000104
 40
0.4218750000000119
 40
0.4218750000000119
 40
0.4375000000000135
 40
0.4375000000000135
 40
0.4453125000000142
 40
0.4453125000000142
 40
0.4531250000000149
 40
0.4531250000000149
 40
0.4687500000000146
 40
0.4687500000000146
 40
0.4765625000000146
 40
0.4765625000000146
 40
0.4843750000000146
 40
0.4843750000000146
 40
0.500000000000012
 40
0.500000000000012
 40
0.5078125000000095
 40
0.5078125000000095
 40
0.5156250000000068
 40
0.5156250000000068
 40
0.5312500000000045
 40
0.5312500000000045
 40
0.5390625000000048
 40
0.5390625000000048
 40
0.546875000000005
 40
0.546875000000005
 40
0.5625000000000055
 40
0.5625000000000055
 40
0.5781250000000062
 40
0.5781250000000062
 40
0.5859375000000079
 40
0.5859375000000079
 40
0.5937500000000097
 40
0.5937500000000097
 40
0.6093750000000105
 40
0.6093750000000105
 40
0.6171875000000108
 40
0.6171875000000108
 40
0.6250000000000112
 40
0.6250000000000112
 40
0.6562500000000127
 40
0.6562500000000127
 40
0.6718750000000123
 40
0.6718750000000123
 40
0.6875000000000117
 40
0.6875000000000117
 40
0.7187500000000108
 40
0.7187500000000108
 40
0.7500000000000099
 40
0.7500000000000099
 40
0.7656250000000098
 40
0.7656250000000098
 40
0.7812500000000096
 40
0.7812500000000096
 40
0.8125000000000092
 40
0.8125000000000092
 40
0.828125000000009
 40
0.828125000000009
 40
0.835937500000009
 40
0.835937500000009
 40
0.843750000000009
 40
0.843750000000009
 40
0.8750000000000092
 40
0.8750000000000092
 40
0.9062500000000094
 40
0.9062500000000094
 40
0.9140625000000095
 40
0.9140625000000095
 40
0.9218750000000099
 40
0.9218750000000099
 40
0.9375000000000099
 40
0.9375000000000099
 40
0.9453125000000094
 40
0.9453125000000094
 40
0.9531250000000087
 40
0.9531250000000087
 40
0.968750000000006
 40
0.968750000000006
 40
0.9843750000000028
 40
0.9843750000000028
 40
1.0
 40
1.0
 40
1.0
 40
1.0
 10
274.0857093733921
 20
245.6995301453893
 30
0.0
 10
274.1182031326029
 20
245.684756378821
 30
0.0
 10
274.1516792856278
 20
245.6734945837109
 30
0.0
 10
274.2033643771748
 20
245.66190090987
 30
0.0
 10
274.2208384758493
 20
245.6589214066668
 30
0.0
 10
274.2562848277835
 20
245.6547605218729
 30
0.0
 10
274.2743671802103
 20
245.6535828321591
 30
0.0
 10
274.3282426325551
 20
245.6527975113025
 30
0.0
 10
274.3638162559176
 20
245.6558538410414
 30
0.0
 10
274.4167313756677
 20
245.6650910709274
 30
0.0
 10
274.4342952240178
 20
245.668949129749
 30
0.0
 10
274.4692824479137
 20
245.6781388215803
 30
0.0
 10
274.4866222994785
 20
245.6834539014904
 30
0.0
 10
274.5376027964687
 20
245.7011445561158
 30
0.0
 10
274.5704796278816
 20
245.7153212345765
 30
0.0
 10
274.6344252256288
 20
245.7475571109682
 30
0.0
 10
274.6654912426236
 20
245.7656222104747
 30
0.0
 10
274.7260698551083
 20
245.8050899752502
 30
0.0
 10
274.7551455937339
 20
245.8262088743934
 30
0.0
 10
274.8111292751805
 20
245.8705793399201
 30
0.0
 10
274.8380687394339
 20
245.893856703085
 30
0.0
 10
274.8901406728343
 20
245.9422782451567
 30
0.0
 10
274.9152715902579
 20
245.9674240585771
 30
0.0
 10
274.9639154789405
 20
246.0193792816219
 30
0.0
 10
274.9874488299464
 20
246.0462153199455
 30
0.0
 10
275.0556687541474
 20
246.1288625550652
 30
0.0
 10
275.0972897416424
 20
246.1859039233671
 30
0.0
 10
275.1740385321489
 20
246.3031709390731
 30
0.0
 10
275.2091516886483
 20
246.3634046756956
 30
0.0
 10
275.257209270486
 20
246.4559705558933
 30
0.0
 10
275.2724545261248
 20
246.4871978434925
 30
0.0
 10
275.3013854659827
 20
246.5503961369973
 30
0.0
 10
275.3150833766611
 20
246.5823977902151
 30
0.0
 10
275.3536874431932
 20
246.6793544531508
 30
0.0
 10
275.3757601170016
 20
246.7443278849294
 30
0.0
 10
275.4124291304928
 20
246.8749381637166
 30
0.0
 10
275.4270299873617
 20
246.9405744959483
 30
0.0
 10
275.4479323603956
 20
247.0726022598515
 30
0.0
 10
275.4542525742237
 20
247.1389911175065
 30
0.0
 10
275.4561554492931
 20
247.2393143839613
 30
0.0
 10
275.4555047645609
 20
247.2725656431786
 30
0.0
 10
275.4514557339694
 20
247.3383499626499
 30
0.0
 10
275.448059366809
 20
247.3709339200647
 30
0.0
 10
275.4382662097859
 20
247.4354490811187
 30
0.0
 10
275.4318710118844
 20
247.4673805310026
 30
0.0
 10
275.4157047083514
 20
247.5305356090939
 30
0.0
 10
275.4058673964911
 20
247.5619024091312
 30
0.0
 10
275.3827808170453
 20
247.6226189397705
 30
0.0
 10
275.3695220592361
 20
247.6520773114538
 30
0.0
 10
275.3392548636585
 20
247.7090701042607
 30
0.0
 10
275.3222491677158
 20
247.7366057571681
 30
0.0
 10
275.2935548893899
 20
247.7763115251639
 30
0.0
 10
275.2834170586134
 20
247.7893240510426
 30
0.0
 10
275.2622734415363
 20
247.8144518302661
 30
0.0
 10
275.2512567087272
 20
247.8265901987124
 30
0.0
 10
275.2168418413482
 20
247.861711339183
 30
0.0
 10
275.1920848896805
 20
247.8834055276964
 30
0.0
 10
275.1520175066166
 20
247.9132121444245
 30
0.0
 10
275.1381717084279
 20
247.9226906639866
 30
0.0
 10
275.1094449224661
 20
247.940689599773
 30
0.0
 10
275.0946714672296
 20
247.9491374738091
 30
0.0
 10
275.049532602942
 20
247.9726166982086
 30
0.0
 10
275.0181887406801
 20
247.9858946600002
 30
0.0
 10
274.9692924621718
 20
248.0022850763772
 30
0.0
 10
274.9526794067128
 20
248.0071590167133
 30
0.0
 10
274.9188129601837
 20
248.0157115418742
 30
0.0
 10
274.901477336241
 20
248.0194027083152
 30
0.0
 10
274.8491894235725
 20
248.0285215078916
 30
0.0
 10
274.8140080858981
 20
248.0320273707617
 30
0.0
 10
274.7607816703431
 20
248.0336954341943
 30
0.0
 10
274.7429635443131
 20
248.0336506417173
 30
0.0
 10
274.7071775418354
 20
248.0323788524605
 30
0.0
 10
274.6891740226276
 20
248.0311481001835
 30
0.0
 10
274.63517339338
 20
248.0257133878315
 30
0.0
 10
274.5996817409582
 20
248.0198365358031
 30
0.0
 10
274.5296177707511
 20
248.0040111522262
 30
0.0
 10
274.4950461017388
 20
247.9940597504528
 30
0.0
 10
274.443844171526
 20
247.9762302500509
 30
0.0
 10
274.4269028335026
 20
247.9698039792946
 30
0.0
 10
274.3936145634371
 20
247.9561635435763
 30
0.0
 10
274.3772177713747
 20
247.9489326671119
 30
0.0
 10
274.3287317021457
 20
247.9260677474374
 30
0.0
 10
274.2973444527826
 20
247.9092652362797
 30
0.0
 10
274.2515683972483
 20
247.8818769174971
 30
0.0
 10
274.2365278014333
 20
247.8723823483052
 30
0.0
 10
274.2068725053606
 20
247.8526778366312
 30
0.0
 10
274.1922598942625
 20
247.8424660122463
 30
0.0
 10
274.1209472555899
 20
247.7901894883402
 30
0.0
 10
274.0688223418425
 20
247.7441192740007
 30
0.0
 10
273.9968966619626
 20
247.6694794225498
 30
0.0
 10
273.9739757868796
 20
247.6436680496864
 30
0.0
 10
273.930154667052
 20
247.5902381592191
 30
0.0
 10
273.9092044927084
 20
247.5625323706563
 30
0.0
 10
273.8502143345321
 20
247.4780924928148
 30
0.0
 10
273.8156783309
 20
247.4196945529603
 30
0.0
 10
273.7550774484519
 20
247.299034205047
 30
0.0
 10
273.7290216816305
 20
247.2367685632112
 30
0.0
 10
273.6960272484749
 20
247.1405079034375
 30
0.0
 10
273.686048300156
 20
247.1079094320354
 30
0.0
 10
273.668336738979
 20
247.0425819942782
 30
0.0
 10
273.6605662994251
 20
247.0097520617026
 30
0.0
 10
273.6404079868196
 20
246.9107676975443
 30
0.0
 10
273.6311519966583
 20
246.8441206589744
 30
0.0
 10
273.6235171253442
 20
246.7431453145606
 30
0.0
 10
273.6220188341593
 20
246.7093189311493
 30
0.0
 10
273.6213902665522
 20
246.6583202337786
 30
0.0
 10
273.6214516810595
 20
246.6412513578276
 30
0.0
 10
273.622124617939
 20
246.6071701481857
 30
0.0
 10
273.6227349553938
 20
246.5901650825523
 30
0.0
 10
273.6271599955361
 20
246.5053195040469
 30
0.0
 10
273.6350535354395
 20
246.4380101936589
 30
0.0
 10
273.660265210998
 20
246.304697817536
 30
0.0
 10
273.6775496535949
 20
246.2386879300922
 30
0.0
 10
273.7063933080029
 20
246.1572769854371
 30
0.0
 10
273.7125186803906
 20
246.1410860986912
 30
0.0
 10
273.7254458560782
 20
246.1090917096338
 30
0.0
 10
273.7322572272808
 20
246.0932605183985
 30
0.0
 10
273.7537909212012
 20
246.0462969772855
 30
0.0
 10
273.7696058157728
 20
246.0156909356363
 30
0.0
 10
273.7958461333155
 20
245.9710198313157
 30
0.0
 10
273.80501413293
 20
245.9563366204076
 30
0.0
 10
273.8242721909594
 20
245.9274282350866
 30
0.0
 10
273.8343828731396
 20
245.9131757240517
 30
0.0
 10
273.8661121327605
 20
245.8713726293512
 30
0.0
 10
273.8889037821404
 20
245.8450412023629
 30
0.0
 10
273.9382692211285
 20
245.7959736954234
 30
0.0
 10
273.9648366120742
 20
245.7732313353083
 30
0.0
 10
274.0225892742042
 20
245.7321869013015
 30
0.0
 10
274.0532156141814
 20
245.7143039119576
 30
0.0
 10
274.0857093733921
 20
245.6995301453893
 30
0.0
  0
SPLINE
  5
165
330
1F
100
AcDbEntity
  8
1
100
AcDbSpline
210
0.0
220
0.0
230
1.0
 70
     8
 71
     3
 72
    29
 73
    25
 74
     0
 42
0.000000001
 43
0.0000000001
 40
0.0
 40
0.0
 40
0.0
 40
0.0
 40
0.1250000000000062
 40
0.1250000000000062
 40
0.1875000000000092
 40
0.1875000000000092
 40
0.2500000000000123
 40
0.2500000000000123
 40
0.3750000000000154
 40
0.3750000000000154
 40
0.4375000000000145
 40
0.4375000000000145
 40
0.5000000000000137
 40
0.5625000000000129
 40
0.5625000000000129
 40
0.6250000000000119
 40
0.6250000000000119
 40
0.7500000000000182
 40
0.7500000000000182
 40
0.8125000000000099
 40
0.8125000000000099
 40
0.8750000000000014
 40
0.8750000000000014
 40
1.0
 40
1.0
 40
1.0
 40
1.0
 10
275.5589068451595
 20
242.3081206208467
 30
0.0
 10
275.5777991690894
 20
242.3044533004306
 30
0.0
 10
275.5967796108224
 20
242.3015628534275
 30
0.0
 10
275.6253846857798
 20
242.2984122032392
 30
0.0
 10
275.6349865331897
 20
242.297558044019
 30
0.0
 10
275.6540262691379
 20
242.2962810544497
 30
0.0
 10
275.663405468963
 20
242.2958600225207
 30
0.0
 10
275.6911311640826
 20
242.2952337012835
 30
0.0
 10
275.7090696200503
 20
242.2956592114691
 30
0.0
 10
275.7351298307821
 20
242.2976076094787
 30
0.0
 10
275.7436336830112
 20
242.2984767551869
 30
0.0
 10
275.7599763170551
 20
242.300614091965
 30
0.0
 10
275.7757464700915
 20
242.3031566807467
 30
0.0
 10
275.7903898230743
 20
242.3064969169147
 30
0.0
 10
275.8044631472182
 20
242.3102406692275
 30
0.0
 10
275.8112458302232
 20
242.3123271329298
 30
0.0
 10
275.8303395122281
 20
242.3190758571442
 30
0.0
 10
275.8415011944168
 20
242.3242359523811
 30
0.0
 10
275.8559792167474
 20
242.332930972691
 30
0.0
 10
275.8604344915894
 20
242.3359970587539
 30
0.0
 10
275.8685281722283
 20
242.342424719008
 30
0.0
 10
275.8721249381477
 20
242.3457508511859
 30
0.0
 10
275.8816242591306
 20
242.3560513707721
 30
0.0
 10
275.8862464698871
 20
242.3633452282314
 30
0.0
 10
275.8891743114685
 20
242.3710618627546
 30
0.0
  0
SPLINE
  5
166
330
1F
100
AcDbEntity
  8
1
100
AcDbSpline
210
0.0
220
0.0
230
1.0
 70
     8
 71
     3
 72
    60
 73
    56
 74
     0
 42
0.000000001
 43
0.0000000001
 40
0.0
 40
0.0
 40
0.0
 40
0.0
 40
0.0624999999999987
 40
0.0624999999999987
 40
0.0937499999999982
 40
0.0937499999999982
 40
0.1015624999999981
 40
0.1015624999999981
 40
0.1093749999999981
 40
0.1249999999999979
 40
0.1249999999999979
 40
0.1874999999999981
 40
0.1874999999999981
 40
0.2499999999999983
 40
0.2499999999999983
 40
0.2578124999999983
 40
0.2578124999999983
 40
0.2656249999999984
 40
0.2812499999999982
 40
0.3124999999999979
 40
0.3124999999999979
 40
0.3749999999999972
 40
0.3749999999999972
 40
0.3906249999999968
 40
0.3984374999999967
 40
0.3984374999999967
 40
0.4062499999999966
 40
0.4062499999999966
 40
0.437499999999996
 40
0.437499999999996
 40
0.4999999999999948
 40
0.4999999999999948
 40
0.5312499999999944
 40
0.5312499999999944
 40
0.5468749999999943
 40
0.5468749999999943
 40
0.5624999999999942
 40
0.5624999999999942
 40
0.6249999999999937
 40
0.6249999999999937
 40
0.6874999999999933
 40
0.6874999999999933
 40
0.7499999999999928
 40
0.7499999999999928
 40
0.7656249999999931
 40
0.7656249999999931
 40
0.7812499999999935
 40
0.7812499999999935
 40
0.8124999999999941
 40
0.8124999999999941
 40
0.874999999999996
 40
0.874999999999996
 40
0.9374999999999978
 40
0.9374999999999978
 40
1.0
 40
1.0
 40
1.0
 40
1.0
 10
257.225426779474
 20
240.5212823656946
 30
0.0
 10
257.2160910635038
 20
240.2210367831422
 30
0.0
 10
257.218562657683
 20
239.927368244953
 30
0.0
 10
257.2414784415377
 20
239.4968242750171
 30
0.0
 10
257.2523353523968
 20
239.3549730840465
 30
0.0
 10
257.2702268097047
 20
239.1797770891787
 30
0.0
 10
257.2740209458064
 20
239.1448549993997
 30
0.0
 10
257.2820172970475
 20
239.0754939301741
 30
0.0
 10
257.2946340667251
 20
238.9720758667506
 30
0.0
 10
257.3091257960732
 20
238.87051290281
 30
0.0
 10
257.3616521249654
 20
238.5360339471348
 30
0.0
 10
257.4171081587144
 20
238.2814188250309
 30
0.0
 10
257.5574211578329
 20
237.7972801469936
 30
0.0
 10
257.6422721121379
 20
237.5677627026854
 30
0.0
 10
257.7567407722776
 20
237.3236749339078
 30
0.0
 10
257.7697160068024
 20
237.296771225153
 30
0.0
 10
257.7960976582067
 20
237.2435695744786
 30
0.0
 10
257.83635241799
 20
237.1645994883254
 30
0.0
 10
257.9350759806848
 20
236.9860825022278
 30
0.0
 10
258.0279944445242
 20
236.8426577360973
 30
0.0
 10
258.2251779246498
 20
236.5679939996054
 30
0.0
 10
258.371739396236
 20
236.4011131197404
 30
0.0
 10
258.5751439603451
 20
236.2111938861693
 30
0.0
 10
258.6376832713094
 20
236.155621642593
 30
0.0
 10
258.702544696493
 20
236.1021159064571
 30
0.0
 10
258.7463070192216
 20
236.0669005264255
 30
0.0
 10
258.7684677046704
 20
236.0495063593854
 30
0.0
 10
258.8802377279544
 20
235.9639272644083
 30
0.0
 10
258.972886675638
 20
235.8997875558784
 30
0.0
 10
259.260436492799
 20
235.7192125878484
 30
0.0
 10
259.464929989077
 20
235.614590277519
 30
0.0
 10
259.7907023255578
 20
235.4775207336955
 30
0.0
 10
259.9024678995287
 20
235.4351502395936
 30
0.0
 10
260.0748811138224
 20
235.3761655131606
 30
0.0
 10
260.1331464703176
 20
235.357266145287
 30
0.0
 10
260.2512678627281
 20
235.320927857131
 30
0.0
 10
260.3111820161006
 20
235.3034752026834
 30
0.0
 10
260.613016909313
 20
235.2201608540405
 30
0.0
 10
260.8628813885798
 20
235.1656943575385
 30
0.0
 10
261.378394426041
 20
235.0755002681103
 30
0.0
 10
261.6440455874346
 20
235.039790187466
 30
0.0
 10
262.1904521242623
 20
234.9827811393262
 30
0.0
 10
262.4712085981824
 20
234.9614923008531
 30
0.0
 10
262.8313361826894
 20
234.9417131064156
 30
0.0
 10
262.9038214213946
 20
234.9381005849737
 30
0.0
 10
263.0497073256229
 20
234.9315139692226
 30
0.0
 10
263.1230738029751
 20
234.9285422006796
 30
0.0
 10
263.3435960996806
 20
234.9205434359519
 30
0.0
 10
263.4914784371971
 20
234.9164167127073
 30
0.0
 10
263.937651256951
 20
234.9070309633563
 30
0.0
 10
264.2384632457116
 20
234.9047432249953
 30
0.0
 10
264.8465194870099
 20
234.9054392380138
 30
0.0
 10
265.1537643543446
 20
234.908429157931
 30
0.0
 10
265.7745241263997
 20
234.9176998313077
 30
0.0
 10
266.0880392514109
 20
234.9239838761665
 30
0.0
 10
266.4046673122484
 20
234.9311875738058
 30
0.0
  0
SPLINE
  5
167
330
1F
100
AcDbEntity
  8
1
100
AcDbSpline
210
0.0
220
0.0
230
1.0
 70
     8
 71
     3
 72
    47
 73
    43
 74
     0
 42
0.000000001
 43
0.0000000001
 40
0.0
 40
0.0
 40
0.0
 40
0.0
 40
0.1249999999999952
 40
0.1249999999999952
 40
0.1562499999999949
 40
0.1562499999999949
 40
0.1874999999999946
 40
0.2499999999999976
 40
0.2499999999999976
 40
0.3749999999999999
 40
0.3749999999999999
 40
0.4374999999999993
 40
0.4374999999999993
 40
0.468749999999999
 40
0.468749999999999
 40
0.4999999999999988
 40
0.4999999999999988
 40
0.5625000000000014
 40
0.5625000000000014
 40
0.6250000000000041
 40
0.6250000000000041
 40
0.6562500000000041
 40
0.6562500000000041
 40
0.671875000000004
 40
0.671875000000004
 40
0.6875000000000038
 40
0.7500000000000061
 40
0.7500000000000061
 40
0.8125000000000078
 40
0.8125000000000078
 40
0.8281250000000076
 40
0.8281250000000076
 40
0.8437500000000072
 40
0.8750000000000056
 40
0.8750000000000056
 40
0.9375000000000024
 40
0.9375000000000024
 40
0.968750000000001
 40
0.968750000000001
 40
0.9843750000000003
 40
0.9843750000000003
 40
1.0
 40
1.0
 40
1.0
 40
1.0
 10
259.3685502067907
 20
241.8894853949317
 30
0.0
 10
259.2505276340304
 20
241.8993116511308
 30
0.0
 10
259.1317922367209
 20
241.901599703565
 30
0.0
 10
258.9824227765714
 20
241.8943963147339
 30
0.0
 10
258.9524728638756
 20
241.8924467554266
 30
0.0
 10
258.8925952227144
 20
241.8875139922229
 30
0.0
 10
258.8032005284667
 20
241.8785978211627
 30
0.0
 10
258.7150655938079
 20
241.8651518286359
 30
0.0
 10
258.5404961244699
 20
241.8321519183981
 30
0.0
 10
258.426366735751
 20
241.8020675868879
 30
0.0
 10
258.2588940697551
 20
241.7436171075308
 30
0.0
 10
258.2036938108185
 20
241.721899857063
 30
0.0
 10
258.1219191764154
 20
241.6856601887904
 30
0.0
 10
258.0948323170088
 20
241.6729682873328
 30
0.0
 10
258.0410220796734
 20
241.646287875667
 30
0.0
 10
258.0144034641836
 20
241.6323478555865
 30
0.0
 10
257.935947961086
 20
241.5889566801608
 30
0.0
 10
257.8852977039919
 20
241.5578366665365
 30
0.0
 10
257.787512876875
 20
241.4909624466406
 30
0.0
 10
257.740376593281
 20
241.4552104092344
 30
0.0
 10
257.6725745284341
 20
241.3977802610527
 30
0.0
 10
257.6504588642763
 20
241.378001536218
 30
0.0
 10
257.618060967177
 20
241.3473206415541
 30
0.0
 10
257.6073754238872
 20
241.3369084951327
 30
0.0
 10
257.586391691986
 20
241.3158559213778
 30
0.0
 10
257.53485882695
 20
241.2626148450401
 30
0.0
 10
257.4879754347126
 20
241.2063223377365
 30
0.0
 10
257.4192900981929
 20
241.1121448737688
 30
0.0
 10
257.3881079012792
 20
241.0630036388899
 30
0.0
 10
257.3535077911889
 20
240.9987612346061
 30
0.0
 10
257.3467941064901
 20
240.9857428726481
 30
0.0
 10
257.333912986683
 20
240.9596058565445
 30
0.0
 10
257.3153944211604
 20
240.920227327854
 30
0.0
 10
257.2992730050319
 20
240.8803356724353
 30
0.0
 10
257.2702223879339
 20
240.7998768649746
 30
0.0
 10
257.2551011426103
 20
240.7453394850409
 30
0.0
 10
257.2389566498911
 20
240.6621762371334
 30
0.0
 10
257.2346672639619
 20
240.6342283473367
 30
0.0
 10
257.2299173261331
 20
240.5919591863595
 30
0.0
 10
257.2286128986464
 20
240.5777799693556
 30
0.0
 10
257.2265866042044
 20
240.5494699666829
 30
0.0
 10
257.2258643797256
 20
240.5353560096328
 30
0.0
 10
257.225426779474
 20
240.5212823656946
 30
0.0
  0
SPLINE
  5
168
330
1F
100
AcDbEntity
  8
1
100
AcDbSpline
210
0.0
220
0.0
230
1.0
 70
     8
 71
     3
 72
     8
 73
     4
 74
     0
 42
0.000000001
 43
0.0000000001
 40
0.0
 40
0.0
 40
0.0
 40
0.0
 40
1.0
 40
1.0
 40
1.0
 40
1.0
 10
277.1416402483475
 20
241.0157382911708
 30
0.0
 10
277.1474147640209
 20
240.9734532718942
 30
0.0
 10
277.1503041836044
 20
240.9314689382603
 30
0.0
 10
277.1503041836044
 20
240.8898390851533
 30
0.0
  0
SPLINE
  5
169
330
1F
100
AcDbEntity
  8
1
100
AcDbSpline
210
0.0
220
0.0
230
1.0
 70
     8
 71
     3
 72
     8
 73
     4
 74
     0
 42
0.000000001
 43
0.0000000001
 40
0.0
 40
0.0
 40
0.0
 40
0.0
 40
1.0
 40
1.0
 40
1.0
 40
1.0
 10
277.1503041836045
 20
240.8898390851533
 30
0.0
 10
277.1503041836045
 20
240.7486921738555
 30
0.0
 10
277.1265706489328
 20
240.6106381107441
 30
0.0
 10
277.0793197793576
 20
240.4769344933953
 30
0.0
  0
SPLINE
  5
16A
330
1F
100
AcDbEntity
  8
1
100
AcDbSpline
210
0.0
220
0.0
230
1.0
 70
     8
 71
     3
 72
    10
 73
     6
 74
     0
 42
0.000000001
 43
0.0000000001
 40
0.0
 40
0.0
 40
0.0
 40
0.0
 40
0.6788287781990566
 40
0.6788287781990566
 40
1.0
 40
1.0
 40
1.0
 40
1.0
 10
270.2130480584167
 20
240.9241544350321
 30
0.0
 10
270.235840725111
 20
240.9886497980477
 30
0.0
 10
270.2607486528856
 20
241.0527291870169
 30
0.0
 10
270.3005561714774
 20
241.1465140014058
 30
0.0
 10
270.3138150728706
 20
241.1765423997077
 30
0.0
 10
270.3275444904887
 20
241.2064714874823
 30
0.0
  0
SPLINE
  5
16B
330
1F
100
AcDbEntity
  8
1
100
AcDbSpline
210
0.0
220
0.0
230
1.0
 70
     8
 71
     3
 72
     8
 73
     4
 74
     0
 42
0.000000001
 43
0.0000000001
 40
0.0
 40
0.0
 40
0.0
 40
0.0
 40
1.0
 40
1.0
 40
1.0
 40
1.0
 10
270.1420636541699
 20
240.5112498432742
 30
0.0
 10
270.1420636541699
 20
240.6523967545719
 30
0.0
 10
270.1657971888415
 20
240.7904508176832
 30
0.0
 10
270.2130480584167
 20
240.9241544350321
 30
0.0
  0
SPLINE
  5
16C
330
1F
100
AcDbEntity
  8
1
100
AcDbSpline
210
0.0
220
0.0
230
1.0
 70
     8
 71
     3
 72
    10
 73
     6
 74
     0
 42
0.000000001
 43
0.0000000001
 40
0.0
 40
0.0
 40
0.0
 40
0.0
 40
0.5
 40
0.5
 40
1.0
 40
1.0
 40
1.0
 40
1.0
 10
270.1896060091367
 20
240.2134340544129
 30
0.0
 10
270.1737810213114
 20
240.2637712323119
 30
0.0
 10
270.1618998415362
 20
240.3137852163224
 30
0.0
 10
270.146033246175
 20
240.4131609618318
 30
0.0
 10
270.1420636541699
 20
240.4624510871217
 30
0.0
 10
270.1420636541699
 20
240.5112498432742
 30
0.0
  0
SPLINE
  5
16D
330
1F
100
AcDbEntity
  8
1
100
AcDbSpline
210
0.0
220
0.0
230
1.0
 70
     8
 71
     3
 72
     8
 73
     4
 74
     0
 42
0.000000001
 43
0.0000000001
 40
0.0
 40
0.0
 40
0.0
 40
0.0
 40
1.0
 40
1.0
 40
1.0
 40
1.0
 10
270.4430479081552
 20
240.0463603613406
 30
0.0
 10
270.4408607472401
 20
240.0469872479668
 30
0.0
 10
270.4386791807768
 20
240.0476147861885
 30
0.0
 10
270.4365036723001
 20
240.048242836917
 30
0.0
  0
SPLINE
  5
16E
330
1F
100
AcDbEntity
  8
1
100
AcDbSpline
210
0.0
220
0.0
230
1.0
 70
     8
 71
     3
 72
    14
 73
    10
 74
     0
 42
0.000000001
 43
0.0000000001
 40
0.0
 40
0.0
 40
0.0
 40
0.0
 40
0.1208596791465454
 40
0.1208596791465454
 40
0.2966877433172363
 40
0.2966877433172363
 40
0.6483438716586181
 40
0.6483438716586181
 40
1.0
 40
1.0
 40
1.0
 40
1.0
 10
271.0727971787949
 20
242.2601176830537
 30
0.0
 10
271.0914487971025
 20
242.2914230692989
 30
0.0
 10
271.1101878015325
 20
242.3229697211617
 30
0.0
 10
271.156338361778
 20
242.4008244890147
 30
0.0
 10
271.1838209997885
 20
242.4473288568743
 30
0.0
 10
271.2665492506606
 20
242.5876159465108
 30
0.0
 10
271.3220703545042
 20
242.6821592753568
 30
0.0
 10
271.4335664729816
 20
242.8724991419641
 30
0.0
 10
271.4895486404349
 20
242.9683139242144
 30
0.0
 10
271.5456297830564
 20
243.0644729161969
 30
0.0
  0
SPLINE
  5
16F
330
1F
100
AcDbEntity
  8
1
100
AcDbSpline
210
0.0
220
0.0
230
1.0
 70
     8
 71
     3
 72
    16
 73
    12
 74
     0
 42
0.000000001
 43
0.0000000001
 40
0.0
 40
0.0
 40
0.0
 40
0.0
 40
0.1260104195214966
 40
0.2505892966798232
 40
0.3737366530268711
 40
0.4954525279873161
 40
0.6157369798803967
 40
0.7345900869814002
 40
0.8520119486265297
 40
0.9680026863651539
 40
1.0
 40
1.0
 40
1.0
 40
1.0
 10
270.1896060086411
 20
240.2134340531593
 30
0.0
 10
270.2165293532563
 20
240.2814772004625
 30
0.0
 10
270.2700701796181
 20
240.4167904903583
 30
0.0
 10
270.3502334361733
 20
240.6184994161221
 30
0.0
 10
270.4297084848377
 20
240.8178134819603
 30
0.0
 10
270.5085168487398
 20
241.0147250856106
 30
0.0
 10
270.5866533568519
 20
241.2092353512695
 30
0.0
 10
270.6641174289232
 20
241.4013440604518
 30
0.0
 10
270.740915349666
 20
241.5910486812468
 30
0.0
 10
270.7989637631086
 20
241.7339155548138
 30
0.0
 10
270.8314245470405
 20
241.8135433879125
 30
0.0
 10
270.838446238583
 20
241.8307590729339
 30
0.0
  0
SPLINE
  5
171
330
1F
100
AcDbEntity
  8
1
100
AcDbSpline
210
0.0
220
0.0
230
1.0
 70
     8
 71
     3
 72
    18
 73
    14
 74
     0
 42
0.000000001
 43
0.0000000001
 40
0.0
 40
0.0
 40
0.0
 40
0.0
 40
0.1250000000000002
 40
0.1250000000000002
 40
0.2500000000000004
 40
0.2500000000000004
 40
0.3750000000000007
 40
0.3750000000000007
 40
0.5000000000000009
 40
0.5000000000000009
 40
0.7500000000000005
 40
0.7500000000000005
 40
1.0
 40
1.0
 40
1.0
 40
1.0
 10
272.7780667146994
 20
250.2818291939165
 30
0.0
 10
272.780822319071
 20
250.2859936122428
 30
0.0
 10
272.7839172318808
 20
250.2898418937213
 30
0.0
 10
272.7907505634428
 20
250.2969382771533
 30
0.0
 10
272.7945310779947
 20
250.3002130081217
 30
0.0
 10
272.8025138511526
 20
250.3059729372501
 30
0.0
 10
272.8067097336256
 20
250.308467748547
 30
0.0
 10
272.8154910589631
 20
250.3127218250919
 30
0.0
 10
272.8201222015995
 20
250.3144924404302
 30
0.0
 10
272.834263979798
 20
250.3185612835095
 30
0.0
 10
272.8439736064142
 20
250.3196564812868
 30
0.0
 10
272.8635755487011
 20
250.3186876865858
 30
0.0
 10
272.8730636320234
 20
250.3166624068557
 30
0.0
 10
272.8822407176372
 20
250.313112738296
 30
0.0
  0
SPLINE
  5
172
330
1F
100
AcDbEntity
  8
1
100
AcDbSpline
210
0.0
220
0.0
230
1.0
 70
     8
 71
     3
 72
    19
 73
    15
 74
     0
 42
0.000000001
 43
0.0000000001
 40
0.0
 40
0.0
 40
0.0
 40
0.0
 40
0.2044019405569968
 40
0.2044019405569968
 40
0.3370016171308243
 40
0.3370016171308243
 40
0.469601293704652
 40
0.6022009702784795
 40
0.6022009702784795
 40
0.6685008085653964
 40
0.6685008085653964
 40
0.7348006468523135
 40
0.7348006468523135
 40
1.0
 40
1.0
 40
1.0
 40
1.0
 10
272.7295945999816
 20
249.9157374370878
 30
0.0
 10
272.7213598073682
 20
249.9405703861698
 30
0.0
 10
272.7154743623035
 20
249.9659511511999
 30
0.0
 10
272.7096249118393
 20
250.0086974026392
 30
0.0
 10
272.7083320389421
 20
250.0257735481603
 30
0.0
 10
272.7078080370462
 20
250.0595469158157
 30
0.0
 10
272.7093067323254
 20
250.0931532685803
 30
0.0
 10
272.7148053541291
 20
250.1264296348438
 30
0.0
 10
272.7204754636952
 20
250.1512592432503
 30
0.0
 10
272.7226278707566
 20
250.1595206546283
 30
0.0
 10
272.7273919834267
 20
250.1757766285054
 30
0.0
 10
272.7300094166587
 20
250.1837995664283
 30
0.0
 10
272.7442506013219
 20
250.2233989975297
 30
0.0
 10
272.7592889291118
 20
250.2534511889912
 30
0.0
 10
272.7780667146994
 20
250.2818291939165
 30
0.0
  0
SPLINE
  5
173
330
1F
100
AcDbEntity
  8
1
100
AcDbSpline
210
0.0
220
0.0
230
1.0
 70
     8
 71
     3
 72
    14
 73
    10
 74
     0
 42
0.000000001
 43
0.0000000001
 40
0.0
 40
0.0
 40
0.0
 40
0.0
 40
0.25
 40
0.25
 40
0.5
 40
0.5
 40
0.75
 40
0.75
 40
1.0
 40
1.0
 40
1.0
 40
1.0
 10
272.9532338051164
 20
250.3156069407348
 30
0.0
 10
272.9476757730091
 20
250.3129083308297
 30
0.0
 10
272.9418254077097
 20
250.3108313723346
 30
0.0
 10
272.9299998010469
 20
250.3079759754773
 30
0.0
 10
272.9240037996667
 20
250.3071766120257
 30
0.0
 10
272.911848065115
 20
250.3067990525547
 30
0.0
 10
272.9057027709944
 20
250.3072389356903
 30
0.0
 10
272.8937914783372
 20
250.3092933027189
 30
0.0
 10
272.8879548032365
 20
250.3109025475173
 30
0.0
 10
272.8822407176372
 20
250.313112738296
 30
0.0
  0
SPLINE
  5
174
330
1F
100
AcDbEntity
  8
1
100
AcDbSpline
210
0.0
220
0.0
230
1.0
 70
     8
 71
     3
 72
    20
 73
    16
 74
     0
 42
0.000000001
 43
0.0000000001
 40
0.0
 40
0.0
 40
0.0
 40
0.0
 40
0.250000000000047
 40
0.250000000000047
 40
0.3750000000000391
 40
0.3750000000000391
 40
0.5000000000000313
 40
0.5000000000000313
 40
0.6250000000000236
 40
0.6250000000000236
 40
0.7500000000000157
 40
0.7500000000000157
 40
0.8750000000000078
 40
0.8750000000000078
 40
1.0
 40
1.0
 40
1.0
 40
1.0
 10
273.160290478406
 20
250.7014703608929
 30
0.0
 10
273.1539496060707
 20
250.7089810561219
 30
0.0
 10
273.1489638058601
 20
250.7172626078263
 30
0.0
 10
273.1435157948013
 20
250.7308375547048
 30
0.0
 10
273.1420590886769
 20
250.7355475461373
 30
0.0
 10
273.1399644062005
 20
250.7450315124238
 30
0.0
 10
273.1393084183297
 20
250.7498456511009
 30
0.0
 10
273.1388155418899
 20
250.7596238869989
 30
0.0
 10
273.1389883117978
 20
250.7645584506031
 30
0.0
 10
273.1401686007016
 20
250.7742311958465
 30
0.0
 10
273.1411726132184
 20
250.779010328531
 30
0.0
 10
273.1440571960424
 20
250.7884463126148
 30
0.0
 10
273.1459192938083
 20
250.7930233182828
 30
0.0
 10
273.1504062511671
 20
250.8017240492722
 30
0.0
 10
273.1530391433218
 20
250.8058762045141
 30
0.0
 10
273.1560865744815
 20
250.8098170390901
 30
0.0
  0
SPLINE
  5
175
330
1F
100
AcDbEntity
  8
1
100
AcDbSpline
210
0.0
220
0.0
230
1.0
 70
     8
 71
     3
 72
    14
 73
    10
 74
     0
 42
0.000000001
 43
0.0000000001
 40
0.0
 40
0.0
 40
0.0
 40
0.0
 40
0.25
 40
0.25
 40
0.5
 40
0.5
 40
0.75
 40
0.75
 40
1.0
 40
1.0
 40
1.0
 40
1.0
 10
273.160290478406
 20
250.7014703608929
 30
0.0
 10
273.1642367798096
 20
250.696796009233
 30
0.0
 10
273.1677096712334
 20
250.6917307075515
 30
0.0
 10
273.173543560662
 20
250.6810832532055
 30
0.0
 10
273.1759004866035
 20
250.6755302166944
 30
0.0
 10
273.1794781222256
 20
250.6639573077053
 30
0.0
 10
273.1806858547011
 20
250.6579129608347
 30
0.0
 10
273.1817963239425
 20
250.6458694541099
 30
0.0
 10
273.1817259128786
 20
250.6398064423161
 30
0.0
 10
273.1809747061608
 20
250.6336971798817
 30
0.0
  0
SPLINE
  5
176
330
1F
100
AcDbEntity
  8
1
100
AcDbSpline
210
0.0
220
0.0
230
1.0
 70
     8
 71
     3
 72
    20
 73
    16
 74
     0
 42
0.000000001
 43
0.0000000001
 40
0.0
 40
0.0
 40
0.0
 40
0.0
 40
0.125000000000006
 40
0.125000000000006
 40
0.2500000000000121
 40
0.3125000000000091
 40
0.3125000000000091
 40
0.3750000000000061
 40
0.3750000000000061
 40
0.5000000000000057
 40
0.6250000000000054
 40
0.6250000000000054
 40
0.7500000000000049
 40
0.7500000000000049
 40
1.0
 40
1.0
 40
1.0
 40
1.0
 10
273.1809747061612
 20
250.633697179882
 30
0.0
 10
273.1788996959069
 20
250.6168219551301
 30
0.0
 10
273.1758026123422
 20
250.6000583644756
 30
0.0
 10
273.1676387144181
 20
250.5672349427787
 30
0.0
 10
273.1600306943515
 20
250.5430514741029
 30
0.0
 10
273.1501291850294
 20
250.5195289272506
 30
0.0
 10
273.1430006715246
 20
250.5039984260248
 30
0.0
 10
273.1391566943671
 20
250.4962798575036
 30
0.0
 10
273.1269548067249
 20
250.4736332081868
 30
0.0
 10
273.1089064871776
 20
250.4447485002804
 30
0.0
 10
273.0873913736518
 20
250.4184178131292
 30
0.0
 10
273.0641203473024
 20
250.3933808418047
 30
0.0
 10
273.0515508368354
 20
250.3814841119286
 30
0.0
 10
273.0123416076742
 20
250.3487708041295
 30
0.0
 10
272.9839042698669
 20
250.330498473992
 30
0.0
 10
272.9532338051164
 20
250.3156069407348
 30
0.0
  0
SPLINE
  5
177
330
1F
100
AcDbEntity
  8
1
100
AcDbSpline
210
0.0
220
0.0
230
1.0
 70
     8
 71
     3
 72
     8
 73
     4
 74
     0
 42
0.000000001
 43
0.0000000001
 40
0.0
 40
0.0
 40
0.0
 40
0.0
 40
1.0
 40
1.0
 40
1.0
 40
1.0
 10
272.8931302774081
 20
249.826336546903
 30
0.0
 10
272.896031426892
 20
249.8245315648166
 30
0.0
 10
272.8988413370093
 20
249.8225512918413
 30
0.0
 10
272.9015558836863
 20
249.8203875013786
 30
0.0
  0
SPLINE
  5
178
330
1F
100
AcDbEntity
  8
1
100
AcDbSpline
210
0.0
220
0.0
230
1.0
 70
     8
 71
     3
 72
    19
 73
    15
 74
     0
 42
0.000000001
 43
0.0000000001
 40
0.0
 40
0.0
 40
0.0
 40
0.0
 40
0.2876974211048731
 40
0.2876974211048731
 40
0.4315461316573095
 40
0.4315461316573095
 40
0.5753948422097463
 40
0.7192435527621828
 40
0.7192435527621828
 40
0.7911679080384021
 40
0.7911679080384021
 40
0.8630922633146216
 40
0.8630922633146216
 40
1.0
 40
1.0
 40
1.0
 40
1.0
 10
273.1560865744815
 20
250.8098170390901
 30
0.0
 10
273.176856273026
 20
250.8366757085304
 30
0.0
 10
273.2004842000559
 20
250.8606220609606
 30
0.0
 10
273.2401777115284
 20
250.8921978031945
 30
0.0
 10
273.2541540243525
 20
250.9019917651671
 30
0.0
 10
273.2828528799466
 20
250.919624071207
 30
0.0
 10
273.3124593442641
 20
250.9354419329735
 30
0.0
 10
273.3438602290834
 20
250.947671637654
 30
0.0
 10
273.3681046221201
 20
250.9554570501984
 30
0.0
 10
273.3763096415253
 20
250.957820241807
 30
0.0
 10
273.3927295659802
 20
250.9620182093373
 30
0.0
 10
273.4009717533691
 20
250.9638625211443
 30
0.0
 10
273.4249947386309
 20
250.9684924504094
 30
0.0
 10
273.4408569884277
 20
250.9706346259275
 30
0.0
 10
273.4568340267685
 20
250.9718728652698
 30
0.0
  0
SPLINE
  5
179
330
1F
100
AcDbEntity
  8
1
100
AcDbSpline
210
0.0
220
0.0
230
1.0
 70
     8
 71
     3
 72
    20
 73
    16
 74
     0
 42
0.000000001
 43
0.0000000001
 40
0.0
 40
0.0
 40
0.0
 40
0.0
 40
0.1249999999999996
 40
0.1249999999999996
 40
0.249999999999999
 40
0.3125000000000013
 40
0.3125000000000013
 40
0.3750000000000036
 40
0.3750000000000036
 40
0.5000000000000029
 40
0.6250000000000023
 40
0.6250000000000023
 40
0.7500000000000015
 40
0.7500000000000015
 40
1.0
 40
1.0
 40
1.0
 40
1.0
 10
272.9015558836863
 20
249.8203875013789
 30
0.0
 10
272.9149997812464
 20
249.8096712453032
 30
0.0
 10
272.9278281732807
 20
249.7981791748721
 30
0.0
 10
272.9518793430698
 20
249.7739741489047
 30
0.0
 10
272.9687900691182
 20
249.7548482707261
 30
0.0
 10
272.983967993254
 20
249.7342292402326
 30
0.0
 10
272.9936888097952
 20
249.7201404918205
 30
0.0
 10
272.998367055575
 20
249.7128963669172
 30
0.0
 10
273.0116244129379
 20
249.6909005087484
 30
0.0
 10
273.0272712781052
 20
249.6608518599117
 30
0.0
 10
273.0389640826822
 20
249.6294044830374
 30
0.0
 10
273.0486538202076
 20
249.5972456565374
 30
0.0
 10
273.0524903385051
 20
249.5807518242824
 30
0.0
 10
273.0606801465167
 20
249.5316580215126
 30
0.0
 10
273.0619345648612
 20
249.4989754640543
 30
0.0
 10
273.0591484214722
 20
249.4662596604746
 30
0.0
  0
SPLINE
  5
17A
330
1F
100
AcDbEntity
  8
1
100
AcDbSpline
210
0.0
220
0.0
230
1.0
 70
     8
 71
     3
 72
    14
 73
    10
 74
     0
 42
0.000000001
 43
0.0000000001
 40
0.0
 40
0.0
 40
0.0
 40
0.0
 40
0.25
 40
0.25
 40
0.5
 40
0.5
 40
0.75
 40
0.75
 40
1.0
 40
1.0
 40
1.0
 40
1.0
 10
273.0591484214722
 20
249.4662596604746
 30
0.0
 10
273.0586435252909
 20
249.4603310049876
 30
0.0
 10
273.0574554150604
 20
249.4544832216386
 30
0.0
 10
273.0538989289449
 20
249.4433513054566
 30
0.0
 10
273.0515379988784
 20
249.4380394605222
 30
0.0
 10
273.0456825801324
 20
249.4279060826074
 30
0.0
 10
273.0421798801846
 20
249.4231055868674
 30
0.0
 10
273.0343570095009
 20
249.4144139656001
 30
0.0
 10
273.0300054122309
 20
249.4104623762867
 30
0.0
 10
273.0251992416393
 20
249.4069173935461
 30
0.0
  0
SPLINE
  5
17B
330
1F
100
AcDbEntity
  8
1
100
AcDbSpline
210
0.0
220
0.0
230
1.0
 70
     8
 71
     3
 72
    18
 73
    14
 74
     0
 42
0.000000001
 43
0.0000000001
 40
0.0
 40
0.0
 40
0.0
 40
0.0
 40
0.1249999999999843
 40
0.1249999999999843
 40
0.2499999999999686
 40
0.2499999999999686
 40
0.3749999999999529
 40
0.3749999999999529
 40
0.4999999999999372
 40
0.4999999999999372
 40
0.7499999999999686
 40
0.7499999999999686
 40
1.0
 40
1.0
 40
1.0
 40
1.0
 10
272.999149366684
 20
249.3059183932276
 30
0.0
 10
272.9969677326864
 20
249.3102763487338
 30
0.0
 10
272.9952305665905
 20
249.3147532292337
 30
0.0
 10
272.9925997530533
 20
249.3239316007203
 30
0.0
 10
272.9917045971778
 20
249.3286810349996
 30
0.0
 10
272.9908079939769
 20
249.3381263679127
 30
0.0
 10
272.9907950305531
 20
249.3428218831084
 30
0.0
 10
272.9915999557257
 20
249.3521593443216
 30
0.0
 10
272.9924313142184
 20
249.3568444210049
 30
0.0
 10
272.9961209606486
 20
249.370472317464
 30
0.0
 10
273.0001153203275
 20
249.3789675652044
 30
0.0
 10
273.0109143921246
 20
249.3944987934903
 30
0.0
 10
273.0174802798493
 20
249.401223965525
 30
0.0
 10
273.0251992416393
 20
249.4069173935461
 30
0.0
  0
SPLINE
  5
17C
330
1F
100
AcDbEntity
  8
1
100
AcDbSpline
210
0.0
220
0.0
230
1.0
 70
     8
 71
     3
 72
    12
 73
     8
 74
     0
 42
0.000000001
 43
0.0000000001
 40
0.0
 40
0.0
 40
0.0
 40
0.0
 40
0.0307287861214032
 40
0.0307287861214032
 40
0.2245830288971196
 40
0.2245830288971196
 40
1.0
 40
1.0
 40
1.0
 40
1.0
 10
273.0731888997008
 20
249.2023799087994
 30
0.0
 10
273.072260785194
 20
249.2033245585284
 30
0.0
 10
273.0713381550083
 20
249.2042727259738
 30
0.0
 10
273.0646376258973
 20
249.2112256704031
 30
0.0
 10
273.059064186456
 20
249.2173724297086
 30
0.0
 10
273.0322281411254
 20
249.2488174317585
 30
0.0
 10
273.0140163496717
 20
249.2762206297898
 30
0.0
 10
272.999149366684
 20
249.3059183932276
 30
0.0
  0
SPLINE
  5
17D
330
1F
100
AcDbEntity
  8
1
100
AcDbSpline
210
0.0
220
0.0
230
1.0
 70
     8
 71
     3
 72
    20
 73
    16
 74
     0
 42
0.000000001
 43
0.0000000001
 40
0.0
 40
0.0
 40
0.0
 40
0.0
 40
0.1250000000000429
 40
0.1250000000000429
 40
0.2500000000000857
 40
0.3125000000000824
 40
0.3125000000000824
 40
0.3750000000000792
 40
0.3750000000000792
 40
0.5000000000000725
 40
0.6250000000000659
 40
0.6250000000000659
 40
0.7500000000000591
 40
0.7500000000000591
 40
1.0
 40
1.0
 40
1.0
 40
1.0
 10
274.0179567094775
 20
250.8054462371004
 30
0.0
 10
274.0029828093438
 20
250.79894800701
 30
0.0
 10
273.9875519462641
 20
250.7933686788742
 30
0.0
 10
273.9561991510527
 20
250.784213570803
 30
0.0
 10
273.9322350777585
 20
250.7788106626613
 30
0.0
 10
273.9075574898311
 20
250.7756569172837
 30
0.0
 10
273.8909399836944
 20
250.7740707980067
 30
0.0
 10
273.8825159193994
 20
250.7735352310461
 30
0.0
 10
273.857291732347
 20
250.772738177671
 30
0.0
 10
273.8237519034584
 20
250.773805307441
 30
0.0
 10
273.7903868253721
 20
250.779019855702
 30
0.0
 10
273.7571130029843
 20
250.7863365889473
 30
0.0
 10
273.7404706868873
 20
250.7910807812614
 30
0.0
 10
273.6921625779071
 20
250.8080270776083
 30
0.0
 10
273.6615975006192
 20
250.8229808889524
 30
0.0
 10
273.6326232706465
 20
250.8414838388576
 30
0.0
  0
SPLINE
  5
17E
330
1F
100
AcDbEntity
  8
1
100
AcDbSpline
210
0.0
220
0.0
230
1.0
 70
     8
 71
     3
 72
    14
 73
    10
 74
     0
 42
0.000000001
 43
0.0000000001
 40
0.0
 40
0.0
 40
0.0
 40
0.0
 40
0.25
 40
0.25
 40
0.5
 40
0.5
 40
0.75
 40
0.75
 40
1.0
 40
1.0
 40
1.0
 40
1.0
 10
274.0628950758608
 20
250.8562877725842
 30
0.0
 10
274.0611117868714
 20
250.8506306610248
 30
0.0
 10
274.0587602457303
 20
250.8451865313534
 30
0.0
 10
274.053051709716
 20
250.8349941386081
 30
0.0
 10
274.0497166664803
 20
250.8302639001078
 30
0.0
 10
274.0420688477253
 20
250.8215444663641
 30
0.0
 10
274.0377289486174
 20
250.8175541498911
 30
0.0
 10
274.028402477136
 20
250.8107083414043
 30
0.0
 10
274.0233774912783
 20
250.807798696186
 30
0.0
 10
274.0179567094768
 20
250.8054462371005
 30
0.0
  0
SPLINE
  5
17F
330
1F
100
AcDbEntity
  8
1
100
AcDbSpline
210
0.0
220
0.0
230
1.0
 70
     8
 71
     3
 72
    20
 73
    16
 74
     0
 42
0.000000001
 43
0.0000000001
 40
0.0
 40
0.0
 40
0.0
 40
0.0
 40
0.2499999999999987
 40
0.2499999999999987
 40
0.3749999999999989
 40
0.3749999999999989
 40
0.4999999999999992
 40
0.4999999999999992
 40
0.6249999999999993
 40
0.6249999999999993
 40
0.7499999999999996
 40
0.7499999999999996
 40
0.8749999999999998
 40
0.8749999999999998
 40
1.0
 40
1.0
 40
1.0
 40
1.0
 10
274.0628950758608
 20
250.8562877725842
 30
0.0
 10
274.0657604605516
 20
250.8653776065671
 30
0.0
 10
274.0699665573308
 20
250.8736875824252
 30
0.0
 10
274.0782808290136
 20
250.8849818771835
 30
0.0
 10
274.0813918041983
 20
250.8885306571528
 30
0.0
 10
274.0880921537623
 20
250.8949595039259
 30
0.0
 10
274.0917051871506
 20
250.8978747014079
 30
0.0
 10
274.0994796800903
 20
250.9030779688293
 30
0.0
 10
274.1036224049339
 20
250.9053436245966
 30
0.0
 10
274.1121789204507
 20
250.9090643796079
 30
0.0
 10
274.1166246320555
 20
250.9105425978172
 30
0.0
 10
274.1258689367994
 20
250.9126887803929
 30
0.0
 10
274.1305931432746
 20
250.9133336105974
 30
0.0
 10
274.1400622981427
 20
250.9137479284728
 30
0.0
 10
274.1448350586868
 20
250.9135245261455
 30
0.0
 10
274.1496478978188
 20
250.9128425391692
 30
0.0
  0
SPLINE
  5
180
330
1F
100
AcDbEntity
  8
1
100
AcDbSpline
210
0.0
220
0.0
230
1.0
 70
     8
 71
     3
 72
    12
 73
     8
 74
     0
 42
0.000000001
 43
0.0000000001
 40
0.0
 40
0.0
 40
0.0
 40
0.0
 40
0.3849026020290958
 40
0.3849026020290958
 40
0.7698052040581916
 40
0.7698052040581916
 40
1.0
 40
1.0
 40
1.0
 40
1.0
 10
273.8444525033581
 20
249.1427892783373
 30
0.0
 10
273.8493082597554
 20
249.1396820382269
 30
0.0
 10
273.8537467498215
 20
249.136050524152
 30
0.0
 10
273.8615377845433
 20
249.1280712766296
 30
0.0
 10
273.8649173877487
 20
249.1237176869789
 30
0.0
 10
273.8695193741974
 20
249.1161918867794
 30
0.0
 10
273.87105513015
 20
249.1132486177394
 30
0.0
 10
273.8723874970304
 20
249.1102263393284
 30
0.0
  0
SPLINE
  5
18A
330
1F
100
AcDbEntity
  8
1
100
AcDbSpline
210
0.0
220
0.0
230
1.0
 70
     8
 71
     3
 72
     8
 73
     4
 74
     0
 42
0.000000001
 43
0.0000000001
 40
0.0
 40
0.0
 40
0.0
 40
0.0
 40
1.0
 40
1.0
 40
1.0
 40
1.0
 10
272.1263437781938
 20
248.1482759692128
 30
0.0
 10
271.9383254024321
 20
248.1426408621192
 30
0.0
 10
271.7496538735911
 20
248.1398201150084
 30
0.0
 10
271.5603277093543
 20
248.1398201150084
 30
0.0
  0
SPLINE
  5
18B
330
1F
100
AcDbEntity
  8
1
100
AcDbSpline
210
0.0
220
0.0
230
1.0
 70
     8
 71
     3
 72
    12
 73
     8
 74
     0
 42
0.000000001
 43
0.0000000001
 40
0.0
 40
0.0
 40
0.0
 40
0.0
 40
0.5
 40
0.5
 40
0.75
 40
0.75
 40
1.0
 40
1.0
 40
1.0
 40
1.0
 10
275.8891743114685
 20
248.1850686523607
 30
0.0
 10
275.9904825729799
 20
248.0170058846138
 30
0.0
 10
276.0910772269708
 20
247.8489174477602
 30
0.0
 10
276.239715019462
 20
247.596703707285
 30
0.0
 10
276.2888768440174
 20
247.5126186438106
 30
0.0
 10
276.386019542299
 20
247.3444060369944
 30
0.0
 10
276.434007821637
 20
247.2602787600393
 30
0.0
 10
276.4810446584916
 20
247.1761172588392
 30
0.0
  0
SPLINE
  5
18C
330
1F
100
AcDbEntity
  8
1
100
AcDbSpline
210
0.0
220
0.0
230
1.0
 70
     8
 71
     3
 72
     8
 73
     4
 74
     0
 42
0.000000001
 43
0.0000000001
 40
0.0
 40
0.0
 40
0.0
 40
0.0
 40
1.0
 40
1.0
 40
1.0
 40
1.0
 10
272.1263437781938
 20
248.1482759692128
 30
0.0
 10
273.2705065599164
 20
248.1825677227784
 30
0.0
 10
274.4146953779164
 20
248.2168034670732
 30
0.0
 10
275.5589068451595
 20
248.2509904882889
 30
0.0
  0
SPLINE
  5
18D
330
1F
100
AcDbEntity
  8
1
100
AcDbSpline
210
0.0
220
0.0
230
1.0
 70
     8
 71
     3
 72
    29
 73
    25
 74
     0
 42
0.000000001
 43
0.0000000001
 40
0.0
 40
0.0
 40
0.0
 40
0.0
 40
0.1250000000000094
 40
0.1250000000000094
 40
0.1875000000000112
 40
0.1875000000000112
 40
0.2500000000000131
 40
0.312500000000015
 40
0.312500000000015
 40
0.3750000000000169
 40
0.3750000000000169
 40
0.5000000000000286
 40
0.5000000000000286
 40
0.5625000000000351
 40
0.5625000000000351
 40
0.6250000000000413
 40
0.6250000000000413
 40
0.7500000000000143
 40
0.7500000000000143
 40
0.8124999999999992
 40
0.8124999999999992
 40
0.8749999999999841
 40
0.8749999999999841
 40
1.0
 40
1.0
 40
1.0
 40
1.0
 10
275.8891743114685
 20
248.1850686523607
 30
0.0
 10
275.8862245479448
 20
248.1899620876501
 30
0.0
 10
275.8815583499004
 20
248.1947421625193
 30
0.0
 10
275.8719744009294
 20
248.2017415737433
 30
0.0
 10
275.8683443728342
 20
248.2040437154792
 30
0.0
 10
275.8603356721928
 20
248.2085148290174
 30
0.0
 10
275.8515534866035
 20
248.212872393186
 30
0.0
 10
275.8412339731874
 20
248.2170042740936
 30
0.0
 10
275.8301301313995
 20
248.2210210137921
 30
0.0
 10
275.8241591355932
 20
248.2229796724424
 30
0.0
 10
275.8052051269663
 20
248.2286183469335
 30
0.0
 10
275.7913467967896
 20
248.232023314537
 30
0.0
 10
275.7687436306268
 20
248.236604704679
 30
0.0
 10
275.7609046357772
 20
248.2380435800294
 30
0.0
 10
275.7445949357519
 20
248.2407383028848
 30
0.0
 10
275.7361521406005
 20
248.2419878452787
 30
0.0
 10
275.7104057330894
 20
248.2453813962503
 30
0.0
 10
275.6925279944766
 20
248.2472009768636
 30
0.0
 10
275.664622693196
 20
248.2492546907686
 30
0.0
 10
275.6550840210421
 20
248.2498278187838
 30
0.0
 10
275.6359825178918
 20
248.2507210704943
 30
0.0
 10
275.6264066533544
 20
248.2510438082707
 30
0.0
 10
275.5976053521022
 20
248.2516484046829
 30
0.0
 10
275.5783069135167
 20
248.251570128126
 30
0.0
 10
275.5589068451595
 20
248.2509904882889
 30
0.0
  0
SPLINE
  5
18E
330
1F
100
AcDbEntity
  8
1
100
AcDbSpline
210
0.0
220
0.0
230
1.0
 70
     8
 71
     3
 72
    54
 73
    50
 74
     0
 42
0.000000001
 43
0.0000000001
 40
0.0
 40
0.0
 40
0.0
 40
0.0
 40
0.0334494493483963
 40
0.0334494493483963
 40
0.1024887743949404
 40
0.1024887743949404
 40
0.1370084369182125
 40
0.1370084369182125
 40
0.1542682681798486
 40
0.1628981838106668
 40
0.1628981838106668
 40
0.1715280994414849
 40
0.1715280994414849
 40
0.2405674244880288
 40
0.2405674244880288
 40
0.3096067495345728
 40
0.3096067495345728
 40
0.3268665807962087
 40
0.3268665807962087
 40
0.3441264120578446
 40
0.3441264120578446
 40
0.3786460745811169
 40
0.3786460745811169
 40
0.4476853996276616
 40
0.4476853996276616
 40
0.4822050621509338
 40
0.4822050621509338
 40
0.4994648934125698
 40
0.4994648934125698
 40
0.5080948090433882
 40
0.5080948090433882
 40
0.5167247246742067
 40
0.5167247246742067
 40
0.5857640497207499
 40
0.5857640497207499
 40
0.6548033747672932
 40
0.6548033747672932
 40
0.7238426998138367
 40
0.7238426998138367
 40
0.7411025310754722
 40
0.7411025310754722
 40
0.7583623623371078
 40
0.7928820248603784
 40
0.7928820248603784
 40
0.8619213499069187
 40
0.8619213499069187
 40
0.9309606749534594
 40
0.9309606749534594
 40
1.0
 40
1.0
 40
1.0
 40
1.0
 10
257.2680161166664
 20
252.7900275092744
 30
0.0
 10
257.2820717894855
 20
252.7896311524411
 30
0.0
 10
257.2992180974252
 20
252.7850882169003
 30
0.0
 10
257.3614465956146
 20
252.758945657213
 30
0.0
 10
257.4167845533971
 20
252.7243696107093
 30
0.0
 10
257.5219232899288
 20
252.6484934428917
 30
0.0
 10
257.5606723226759
 20
252.6191915109053
 30
0.0
 10
257.624733080306
 20
252.5693434363513
 30
0.0
 10
257.6582491889693
 20
252.5429450660909
 30
0.0
 10
257.6940791871635
 20
252.5143531692337
 30
0.0
 10
257.7184905103605
 20
252.4948061755634
 30
0.0
 10
257.7309697857593
 20
252.4847806659654
 30
0.0
 10
257.8452542498229
 20
252.3927264415007
 30
0.0
 10
257.961313083381
 20
252.2975693589223
 30
0.0
 10
258.2237874263463
 20
252.0851950203142
 30
0.0
 10
258.3702087085678
 20
251.9679606551775
 30
0.0
 10
258.573630350881
 20
251.810110571029
 30
0.0
 10
258.6153363178053
 20
251.7779743930746
 30
0.0
 10
258.7008343268735
 20
251.7126298394174
 30
0.0
 10
258.7446787909813
 20
251.6793829814459
 30
0.0
 10
258.8784576018558
 20
251.5788339803053
 30
0.0
 10
258.9708953744744
 20
251.5105250085574
 30
0.0
 10
259.2578849776655
 20
251.3026936057217
 30
0.0
 10
259.4621029124733
 20
251.1602853116004
 30
0.0
 10
259.7876694887399
 20
250.9441403937184
 30
0.0
 10
259.899401020868
 20
250.8716647258496
 30
0.0
 10
260.071822272629
 20
250.7626789745898
 30
0.0
 10
260.1301001570473
 20
250.7263048110825
 30
0.0
 10
260.2187256695116
 20
250.6717197035435
 30
0.0
 10
260.2484567494355
 20
250.6535284099937
 30
0.0
 10
260.3081459574219
 20
250.6172511331871
 30
0.0
 10
260.3381247685471
 20
250.5991523769688
 30
0.0
 10
260.609131361836
 20
250.4366480252133
 30
0.0
 10
260.8585249684266
 20
250.2949580351408
 30
0.0
 10
261.373325936195
 20
250.0196333415225
 30
0.0
 10
261.6387357673968
 20
249.8859902748647
 30
0.0
 10
262.1849097600342
 20
249.628851860762
 30
0.0
 10
262.4656749197496
 20
249.5053510895379
 30
0.0
 10
262.8259818995039
 20
249.3584872196343
 30
0.0
 10
262.8985733524763
 20
249.3294655751885
 30
0.0
 10
263.0443914951741
 20
249.2723171346082
 30
0.0
 10
263.2638361239055
 20
249.1880257766751
 30
0.0
 10
263.485398111364
 20
249.1080669760699
 30
0.0
 10
263.9312679218084
 20
248.9540271253311
 30
0.0
 10
264.2321709935688
 20
248.8591697850594
 30
0.0
 10
264.8409986820401
 20
248.6856730442543
 30
0.0
 10
265.1489238504577
 20
248.6070322516973
 30
0.0
 10
265.7716462577667
 20
248.4665628060971
 30
0.0
 10
266.0864436284579
 20
248.4047330042408
 30
0.0
 10
266.4046673122484
 20
248.3516507919283
 30
0.0
  0
SPLINE
  5
18F
330
1F
100
AcDbEntity
  8
1
100
AcDbSpline
210
0.0
220
0.0
230
1.0
 70
     8
 71
     3
 72
    24
 73
    20
 74
     0
 42
0.000000001
 43
0.0000000001
 40
0.0
 40
0.0
 40
0.0
 40
0.0
 40
0.2136752219972464
 40
0.2136752219972464
 40
0.4273504439944928
 40
0.4273504439944928
 40
0.4807692494938042
 40
0.4807692494938042
 40
0.5341880549931157
 40
0.5341880549931157
 40
0.6410256659917328
 40
0.6410256659917328
 40
0.7478632769903497
 40
0.7478632769903497
 40
0.8547008879889666
 40
0.8547008879889666
 40
0.9615384989875838
 40
0.9615384989875838
 40
1.0
 40
1.0
 40
1.0
 40
1.0
 10
259.3685502067909
 20
252.2814669683897
 30
0.0
 10
259.2500208616424
 20
252.2812485916295
 30
0.0
 10
259.1316030764207
 20
252.2834680292533
 30
0.0
 10
258.8949968784553
 20
252.292934844749
 30
0.0
 10
258.776808268788
 20
252.3001787086219
 30
0.0
 10
258.6292283508099
 20
252.3126016158928
 30
0.0
 10
258.5997764699266
 20
252.3152512907228
 30
0.0
 10
258.5413652505816
 20
252.3208467540018
 30
0.0
 10
258.5123533605433
 20
252.3237968754304
 30
0.0
 10
258.4259058420956
 20
252.3330994522085
 30
0.0
 10
258.3690569234884
 20
252.3399036657273
 30
0.0
 10
258.2569937970949
 20
252.3547010555555
 30
0.0
 10
258.2017791073708
 20
252.3626941206577
 30
0.0
 10
258.0931047658433
 20
252.3798688918916
 30
0.0
 10
258.0396442009441
 20
252.3890503658332
 30
0.0
 10
257.9346700826294
 20
252.4086223313915
 30
0.0
 10
257.8838645148166
 20
252.418882708597
 30
0.0
 10
257.8173876878056
 20
252.4333866125912
 30
0.0
 10
257.8000336444592
 20
252.4372795046687
 30
0.0
 10
257.782929881802
 20
252.4412243578879
 30
0.0
  0
SPLINE
  5
19D
330
1F
100
AcDbEntity
  8
1
100
AcDbSpline
210
0.0
220
0.0
230
1.0
 70
     8
 71
     3
 72
     9
 73
     5
 74
     0
 42
0.000000001
 43
0.0000000001
 40
0.0
 40
0.0
 40
0.0
 40
0.0
 40
0.7328823783098113
 40
1.0
 40
1.0
 40
1.0
 40
1.0
 10
276.5022630794811
 20
239.2712717806515
 30
0.0
 10
276.5092520131198
 20
239.3232963300847
 30
0.0
 10
276.5187882413682
 20
239.3942825496649
 30
0.0
 10
276.5282263349856
 20
239.4652851612517
 30
0.0
 10
276.530741164538
 20
239.4842522509463
 30
0.0
  0
SPLINE
  5
19E
330
1F
100
AcDbEntity
  8
1
100
AcDbSpline
210
0.0
220
0.0
230
1.0
 70
     8
 71
     3
 72
    14
 73
    10
 74
     0
 42
0.000000001
 43
0.0000000001
 40
0.0
 40
0.0
 40
0.0
 40
0.0
 40
0.1572207642941083
 40
0.1572207642941083
 40
0.3257766114352861
 40
0.3257766114352861
 40
0.662888305717643
 40
0.662888305717643
 40
1.0
 40
1.0
 40
1.0
 40
1.0
 10
276.8409445284501
 20
239.9515961299348
 30
0.0
 10
276.8298604860224
 20
239.9098116780659
 30
0.0
 10
276.8185765636681
 20
239.8672733659785
 30
0.0
 10
276.7949340105513
 20
239.7781448318558
 30
0.0
 10
276.7825532576699
 20
239.731471174801
 30
0.0
 10
276.7450966127328
 20
239.5902644751749
 30
0.0
 10
276.7197117688161
 20
239.4945662004397
 30
0.0
 10
276.6684330386095
 20
239.3012497643471
 30
0.0
 10
276.6425320748135
 20
239.2036049107959
 30
0.0
 10
276.6164755743218
 20
239.1053733893033
 30
0.0
  0
SPLINE
  5
19F
330
1F
100
AcDbEntity
  8
1
100
AcDbSpline
210
0.0
220
0.0
230
1.0
 70
     8
 71
     3
 72
    12
 73
     8
 74
     0
 42
0.000000001
 43
0.0000000001
 40
0.0
 40
0.0
 40
0.0
 40
0.0
 40
0.5
 40
0.5
 40
0.75
 40
0.75
 40
1.0
 40
1.0
 40
1.0
 40
1.0
 10
276.550532412852
 20
239.1247095136053
 30
0.0
 10
276.545520350565
 20
239.1499026459898
 30
0.0
 10
276.5396717271283
 20
239.1748857946845
 30
0.0
 10
276.5284445851001
 20
239.2117444917318
 30
0.0
 10
276.5242877848427
 20
239.2239267013771
 30
0.0
 10
276.5146103389801
 20
239.2479487843321
 30
0.0
 10
276.5091354343975
 20
239.2598001390126
 30
0.0
 10
276.5022727146177
 20
239.2713031407295
 30
0.0
  0
SPLINE
  5
1A0
330
1F
100
AcDbEntity
  8
1
100
AcDbSpline
210
0.0
220
0.0
230
1.0
 70
     8
 71
     2
 72
     7
 73
     4
 74
     0
 42
0.000000001
 43
0.0000000001
 40
0.0
 40
0.0
 40
0.0
 40
0.376016849189758
 40
1.0
 40
1.0
 40
1.0
 10
276.6164710821466
 20
239.1053973371657
 30
0.0
 10
276.6048498794758
 20
239.1098989705429
 30
0.0
 10
276.5724691144247
 20
239.1201605230969
 30
0.0
 10
276.5505244682926
 20
239.1247331184946
 30
0.0
  0
SPLINE
  5
1A1
330
1F
100
AcDbEntity
  8
1
100
AcDbSpline
210
0.0
220
0.0
230
1.0
 70
     8
 71
     3
 72
     8
 73
     4
 74
     0
 42
0.000000001
 43
0.0000000001
 40
0.0
 40
0.0
 40
0.0
 40
0.0
 40
1.0
 40
1.0
 40
1.0
 40
1.0
 10
266.4046673122484
 20
252.2719874513998
 30
0.0
 10
266.4977200851873
 20
252.2715591968285
 30
0.0
 10
266.5907922131807
 20
252.2723762014379
 30
0.0
 10
266.6838836994841
 20
252.2744386746615
 30
0.0
  0
SPLINE
  5
1A2
330
1F
100
AcDbEntity
  8
1
100
AcDbSpline
210
0.0
220
0.0
230
1.0
 70
     8
 71
     3
 72
     8
 73
     4
 74
     0
 42
0.000000001
 43
0.0000000001
 40
0.0
 40
0.0
 40
0.0
 40
0.0
 40
1.0
 40
1.0
 40
1.0
 40
1.0
 10
270.7581156311745
 20
248.1503740801508
 30
0.0
 10
270.7568625755226
 20
248.1463067811696
 30
0.0
 10
270.7556195182517
 20
248.1422461072794
 30
0.0
 10
270.7543861869792
 20
248.1381921805265
 30
0.0
  0
SPLINE
  5
1A3
330
1F
100
AcDbEntity
  8
1
100
AcDbSpline
210
0.0
220
0.0
230
1.0
 70
     8
 71
     3
 72
    10
 73
     6
 74
     0
 42
0.000000001
 43
0.0000000001
 40
0.0
 40
0.0
 40
0.0
 40
0.0
 40
0.5
 40
0.5
 40
1.0
 40
1.0
 40
1.0
 40
1.0
 10
266.6838836994841
 20
248.3084418151389
 30
0.0
 10
267.0771113137451
 20
248.2523293890518
 30
0.0
 10
267.4717249273011
 20
248.2102073363945
 30
0.0
 10
268.263643413604
 20
248.1539524693344
 30
0.0
 10
268.6609485090364
 20
248.1398201150084
 30
0.0
 10
269.0595993105189
 20
248.1398201150084
 30
0.0
  0
SPLINE
  5
1A4
330
1F
100
AcDbEntity
  8
1
100
AcDbSpline
210
0.0
220
0.0
230
1.0
 70
     8
 71
     3
 72
     8
 73
     4
 74
     0
 42
0.000000001
 43
0.0000000001
 40
0.0
 40
0.0
 40
0.0
 40
0.0
 40
1.0
 40
1.0
 40
1.0
 40
1.0
 10
266.4046673122484
 20
248.3516507919283
 30
0.0
 10
266.497630669411
 20
248.336143773081
 30
0.0
 10
266.5907028237204
 20
248.3217384525426
 30
0.0
 10
266.6838836994841
 20
248.3084418151388
 30
0.0
  0
SPLINE
  5
1A5
330
1F
100
AcDbEntity
  8
1
100
AcDbSpline
210
0.0
220
0.0
230
1.0
 70
     8
 71
     3
 72
    19
 73
    15
 74
     0
 42
0.000000001
 43
0.0000000001
 40
0.0
 40
0.0
 40
0.0
 40
0.0
 40
0.2499999999999599
 40
0.2499999999999599
 40
0.3749999999999599
 40
0.3749999999999599
 40
0.49999999999996
 40
0.62499999999996
 40
0.62499999999996
 40
0.68749999999996
 40
0.68749999999996
 40
0.74999999999996
 40
0.74999999999996
 40
1.0
 40
1.0
 40
1.0
 40
1.0
 10
270.4365036723001
 20
252.6413214087297
 30
0.0
 10
270.4042886539673
 20
252.628196893643
 30
0.0
 10
270.3744026827868
 20
252.6112189284689
 30
0.0
 10
270.3329822728386
 20
252.5801207601924
 30
0.0
 10
270.3196656182898
 20
252.568711216838
 30
0.0
 10
270.2948701183511
 20
252.5445060516916
 30
0.0
 10
270.2718116211342
 20
252.5188825992584
 30
0.0
 10
270.2521819470045
 20
252.4904611497849
 30
0.0
 10
270.2387764082581
 20
252.4680699753995
 30
0.0
 10
270.2345249661181
 20
252.4604151591303
 30
0.0
 10
270.226591809579
 20
252.4449783565677
 30
0.0
 10
270.2228923443267
 20
252.437168663891
 30
0.0
 10
270.2057004558031
 20
252.397674153596
 30
0.0
 10
270.1960595175674
 20
252.3646732277478
 30
0.0
 10
270.1906765997154
 20
252.3302191519802
 30
0.0
  0
SPLINE
  5
1A6
330
1F
100
AcDbEntity
  8
1
100
AcDbSpline
210
0.0
220
0.0
230
1.0
 70
     8
 71
     3
 72
     8
 73
     4
 74
     0
 42
0.000000001
 43
0.0000000001
 40
0.0
 40
0.0
 40
0.0
 40
0.0
 40
1.0
 40
1.0
 40
1.0
 40
1.0
 10
270.1906765997154
 20
252.3302191519802
 30
0.0
 10
270.190292572318
 20
252.3277469142741
 30
0.0
 10
270.1899286316306
 20
252.3252720671863
 30
0.0
 10
270.1895849218675
 20
252.3227952168129
 30
0.0
  0
SPLINE
  5
1A7
330
1F
100
AcDbEntity
  8
1
100
AcDbSpline
210
0.0
220
0.0
230
1.0
 70
     8
 71
     3
 72
    10
 73
     6
 74
     0
 42
0.000000001
 43
0.0000000001
 40
0.0
 40
0.0
 40
0.0
 40
0.0
 40
0.5
 40
0.5
 40
1.0
 40
1.0
 40
1.0
 40
1.0
 10
270.1896060091367
 20
252.3227932521871
 30
0.0
 10
270.1737810213114
 20
252.2086844560238
 30
0.0
 10
270.1618998415364
 20
252.0941990718256
 30
0.0
 10
270.146033246175
 20
251.8645066243715
 30
0.0
 10
270.1420636541699
 20
251.7494638820764
 30
0.0
 10
270.1420636541699
 20
251.6344355774492
 30
0.0
  0
SPLINE
  5
1A8
330
1F
100
AcDbEntity
  8
1
100
AcDbSpline
210
0.0
220
0.0
230
1.0
 70
     8
 71
     3
 72
     8
 73
     4
 74
     0
 42
0.000000001
 43
0.0000000001
 40
0.0
 40
0.0
 40
0.0
 40
0.0
 40
1.0
 40
1.0
 40
1.0
 40
1.0
 10
270.1420636541699
 20
251.6344355774492
 30
0.0
 10
270.1420636541699
 20
251.3017244349924
 30
0.0
 10
270.1657971888415
 20
250.9694946176489
 30
0.0
 10
270.2130480584167
 20
250.6407725587557
 30
0.0
  0
SPLINE
  5
1A9
330
1F
100
AcDbEntity
  8
1
100
AcDbSpline
210
0.0
220
0.0
230
1.0
 70
     8
 71
     3
 72
    14
 73
    10
 74
     0
 42
0.000000001
 43
0.0000000001
 40
0.0
 40
0.0
 40
0.0
 40
0.0
 40
0.1872177155867382
 40
0.1872177155867382
 40
0.3744354311734765
 40
0.3744354311734765
 40
0.7488708623469526
 40
0.7488708623469526
 40
1.0
 40
1.0
 40
1.0
 40
1.0
 10
270.2130480584167
 20
250.6407725587557
 30
0.0
 10
270.2358407251111
 20
250.4822050574424
 30
0.0
 10
270.2607486528856
 20
250.3240102713773
 30
0.0
 10
270.3147936313033
 20
250.0083658164943
 30
0.0
 10
270.3439330593007
 20
249.8509108677793
 30
0.0
 10
270.4376071021805
 20
249.3801255477654
 30
0.0
 10
270.5084177800574
 20
249.0682192571098
 30
0.0
 10
270.6407069925854
 20
248.5503841141185
 30
0.0
 10
270.6975081964569
 20
248.3436655750318
 30
0.0
 10
270.7579799018091
 20
248.1381568382517
 30
0.0
  0
SPLINE
  5
1AA
330
1F
100
AcDbEntity
  8
1
100
AcDbSpline
210
0.0
220
0.0
230
1.0
 70
     8
 71
     3
 72
     8
 73
     4
 74
     0
 42
0.000000001
 43
0.0000000001
 40
0.0
 40
0.0
 40
0.0
 40
0.0
 40
1.0
 40
1.0
 40
1.0
 40
1.0
 10
270.4430479081552
 20
252.643923260314
 30
0.0
 10
270.4408607472401
 20
252.6430730325366
 30
0.0
 10
270.4386791807768
 20
252.6422056697529
 30
0.0
 10
270.4365036723001
 20
252.6413214087297
 30
0.0
  0
SPLINE
  5
1AB
330
1F
100
AcDbEntity
  8
1
100
AcDbSpline
210
0.0
220
0.0
230
1.0
 70
     8
 71
     3
 72
    16
 73
    12
 74
     0
 42
0.000000001
 43
0.0000000001
 40
0.0
 40
0.0
 40
0.0
 40
0.0
 40
0.125
 40
0.125
 40
0.25
 40
0.25
 40
0.5
 40
0.5
 40
0.75
 40
0.75
 40
1.0
 40
1.0
 40
1.0
 40
1.0
 10
274.1430100994845
 20
253.64239306358
 30
0.0
 10
273.9850978724663
 20
253.6175387754066
 30
0.0
 10
273.827530407159
 20
253.5905609063633
 30
0.0
 10
273.5130848417836
 20
253.5323594431785
 30
0.0
 10
273.3562014639826
 20
253.5011333932249
 30
0.0
 10
272.8870457295031
 20
253.4011807519109
 30
0.0
 10
272.5761130123826
 20
253.3261573608759
 30
0.0
 10
271.9579279004953
 20
253.1593129759456
 30
0.0
 10
271.651306819318
 20
253.067659205108
 30
0.0
 10
271.0433159248449
 20
252.8680521992787
 30
0.0
 10
270.7418919066793
 20
252.7600843931419
 30
0.0
 10
270.4430495149074
 20
252.6439192036901
 30
0.0
  0
SPLINE
  5
1AC
330
1F
100
AcDbEntity
  8
1
100
AcDbSpline
210
0.0
220
0.0
230
1.0
 70
     8
 71
     3
 72
     8
 73
     4
 74
     0
 42
0.000000001
 43
0.0000000001
 40
0.0
 40
0.0
 40
0.0
 40
0.0
 40
1.0
 40
1.0
 40
1.0
 40
1.0
 10
275.1316953080145
 20
253.725861310191
 30
0.0
 10
274.8009392203034
 20
253.7218253152867
 30
0.0
 10
274.4703737267092
 20
253.693917825672
 30
0.0
 10
274.1430100994845
 20
253.64239306358
 30
0.0
  0
SPLINE
  5
1AD
330
1F
100
AcDbEntity
  8
1
100
AcDbSpline
210
0.0
220
0.0
230
1.0
 70
     8
 71
     3
 72
     8
 73
     4
 74
     0
 42
0.000000001
 43
0.0000000001
 40
0.0
 40
0.0
 40
0.0
 40
0.0
 40
1.0
 40
1.0
 40
1.0
 40
1.0
 10
275.8227935963427
 20
253.6853731367005
 30
0.0
 10
275.82034364123
 20
253.6857301481512
 30
0.0
 10
275.8178892292897
 20
253.6860665265422
 30
0.0
 10
275.8154309564135
 20
253.6863821330896
 30
0.0
  0
SPLINE
  5
1AE
330
1F
100
AcDbEntity
  8
1
100
AcDbSpline
210
0.0
220
0.0
230
1.0
 70
     8
 71
     3
 72
    10
 73
     6
 74
     0
 42
0.000000001
 43
0.0000000001
 40
0.0
 40
0.0
 40
0.0
 40
0.0
 40
0.5
 40
0.5
 40
1.0
 40
1.0
 40
1.0
 40
1.0
 10
275.8154301560368
 20
253.6863789374989
 30
0.0
 10
275.7021842569196
 20
253.700916664289
 30
0.0
 10
275.5885155135751
 20
253.711481477938
 30
0.0
 10
275.3603656087917
 20
253.7246584470846
 30
0.0
 10
275.2460476281519
 20
253.727256674928
 30
0.0
 10
275.1316953080145
 20
253.725861310191
 30
0.0
  0
SPLINE
  5
1AF
330
1F
100
AcDbEntity
  8
1
100
AcDbSpline
210
0.0
220
0.0
230
1.0
 70
     8
 71
     3
 72
    19
 73
    15
 74
     0
 42
0.000000001
 43
0.0000000001
 40
0.0
 40
0.0
 40
0.0
 40
0.0
 40
0.2499999999999336
 40
0.2499999999999336
 40
0.3749999999999151
 40
0.3749999999999151
 40
0.4999999999998967
 40
0.6249999999998783
 40
0.6249999999998783
 40
0.6874999999998901
 40
0.6874999999998901
 40
0.7499999999999019
 40
0.7499999999999019
 40
1.0
 40
1.0
 40
1.0
 40
1.0
 10
276.1290892853904
 20
253.4418372201274
 30
0.0
 10
276.1164039118868
 20
253.4740800795308
 30
0.0
 10
276.0998645712269
 20
253.5039529348863
 30
0.0
 10
276.0694095360116
 20
253.5452400483595
 30
0.0
 10
276.0582128688436
 20
253.5584922588102
 30
0.0
 10
276.0344266657099
 20
253.5831279692257
 30
0.0
 10
276.0092144921195
 20
253.6059989945851
 30
0.0
 10
275.9812072543538
 20
253.6254131237368
 30
0.0
 10
275.9591212954664
 20
253.6386382127511
 30
0.0
 10
275.9515688726444
 20
253.6428254347727
 30
0.0
 10
275.9363322363551
 20
253.6506245630883
 30
0.0
 10
275.928620395925
 20
253.6542541296252
 30
0.0
 10
275.8896037792995
 20
253.6710800582638
 30
0.0
 10
275.8569510661599
 20
253.6803713559651
 30
0.0
 10
275.8227935963427
 20
253.6853731367005
 30
0.0
  0
SPLINE
  5
1B0
330
1F
100
AcDbEntity
  8
1
100
AcDbSpline
210
0.0
220
0.0
230
1.0
 70
     8
 71
     3
 72
     8
 73
     4
 74
     0
 42
0.000000001
 43
0.0000000001
 40
0.0
 40
0.0
 40
0.0
 40
0.0
 40
1.0
 40
1.0
 40
1.0
 40
1.0
 10
277.1503041836045
 20
248.7313683462513
 30
0.0
 10
277.1503041836045
 20
249.0640794887081
 30
0.0
 10
277.1265706489329
 20
249.3963093060516
 30
0.0
 10
277.0793197793576
 20
249.7250313649448
 30
0.0
  0
SPLINE
  5
1B1
330
1F
100
AcDbEntity
  8
1
100
AcDbSpline
210
0.0
220
0.0
230
1.0
 70
     8
 71
     3
 72
     8
 73
     4
 74
     0
 42
0.000000001
 43
0.0000000001
 40
0.0
 40
0.0
 40
0.0
 40
0.0
 40
1.0
 40
1.0
 40
1.0
 40
1.0
 10
276.131602156208
 20
253.4352828682374
 30
0.0
 10
276.1307831018521
 20
253.4374740143589
 30
0.0
 10
276.1299454000973
 20
253.439658952654
 30
0.0
 10
276.1290892853904
 20
253.4418372201274
 30
0.0
  0
SPLINE
  5
1B2
330
1F
100
AcDbEntity
  8
1
100
AcDbSpline
210
0.0
220
0.0
230
1.0
 70
     8
 71
     3
 72
    16
 73
    12
 74
     0
 42
0.000000001
 43
0.0000000001
 40
0.0
 40
0.0
 40
0.0
 40
0.0
 40
0.1249999999999997
 40
0.1249999999999997
 40
0.2499999999999994
 40
0.2499999999999994
 40
0.4999999999999988
 40
0.4999999999999988
 40
0.7499999999999993
 40
0.7499999999999993
 40
1.0
 40
1.0
 40
1.0
 40
1.0
 10
277.0793197793576
 20
249.7250313649448
 30
0.0
 10
277.0565272076079
 20
249.8835982057333
 30
0.0
 10
277.0316192649063
 20
250.0417924137439
 30
0.0
 10
276.977574203979
 20
250.3574357734609
 30
0.0
 10
276.9484347081805
 20
250.5148902062502
 30
0.0
 10
276.8547605636044
 20
250.9856739609671
 30
0.0
 10
276.7839499771081
 20
251.2975791685419
 30
0.0
 10
276.6255858775706
 20
251.9174833440439
 30
0.0
 10
276.5381909378545
 20
252.2248492331859
 30
0.0
 10
276.3471339944106
 20
252.8341002775803
 30
0.0
 10
276.2434581600506
 20
253.136039799865
 30
0.0
 10
276.1316015053413
 20
253.4352825542964
 30
0.0
  0
SPLINE
  5
1B3
330
1F
100
AcDbEntity
  8
1
100
AcDbSpline
210
0.0
220
0.0
230
1.0
 70
     8
 71
     3
 72
     8
 73
     4
 74
     0
 42
0.000000001
 43
0.0000000001
 40
0.0
 40
0.0
 40
0.0
 40
0.0
 40
1.0
 40
1.0
 40
1.0
 40
1.0
 10
277.1016856781939
 20
248.0355882328154
 30
0.0
 10
277.1020737244309
 20
248.0380579687368
 30
0.0
 10
277.1024396973203
 20
248.04053155075
 30
0.0
 10
277.1027834463443
 20
248.0430083766828
 30
0.0
  0
SPLINE
  5
1B4
330
1F
100
AcDbEntity
  8
1
100
AcDbSpline
210
0.0
220
0.0
230
1.0
 70
     8
 71
     3
 72
    10
 73
     6
 74
     0
 42
0.000000001
 43
0.0000000001
 40
0.0
 40
0.0
 40
0.0
 40
0.0
 40
0.5
 40
0.5
 40
1.0
 40
1.0
 40
1.0
 40
1.0
 10
277.1027600739617
 20
248.043011763822
 30
0.0
 10
277.1185858254455
 20
248.1571200845975
 30
0.0
 10
277.1304668381189
 20
248.2716055728193
 30
0.0
 10
277.1463339289863
 20
248.5012977118145
 30
0.0
 10
277.1503041836045
 20
248.6163400416238
 30
0.0
 10
277.1503041836045
 20
248.7313683462513
 30
0.0
  0
SPLINE
  5
1B5
330
1F
100
AcDbEntity
  8
1
100
AcDbSpline
210
0.0
220
0.0
230
1.0
 70
     8
 71
     3
 72
    19
 73
    15
 74
     0
 42
0.000000001
 43
0.0000000001
 40
0.0
 40
0.0
 40
0.0
 40
0.0
 40
0.2500000000000011
 40
0.2500000000000011
 40
0.3750000000000017
 40
0.3750000000000017
 40
0.5000000000000023
 40
0.6250000000000028
 40
0.6250000000000028
 40
0.6875000000000004
 40
0.6875000000000004
 40
0.7499999999999979
 40
0.7499999999999979
 40
1.0
 40
1.0
 40
1.0
 40
1.0
 10
276.8558589992381
 20
247.7244857310281
 30
0.0
 10
276.8880379381304
 20
247.7376327060783
 30
0.0
 10
276.9178829048903
 20
247.754636197086
 30
0.0
 10
276.9592515279162
 20
247.7857666034562
 30
0.0
 10
276.9725520553468
 20
247.7971861861705
 30
0.0
 10
276.9973230401879
 20
247.8214066123127
 30
0.0
 10
277.0203646526255
 20
247.8470405757604
 30
0.0
 10
277.0400100778957
 20
247.8754522199253
 30
0.0
 10
277.0534335336459
 20
247.8978322407214
 30
0.0
 10
277.0576920123696
 20
247.9054826766175
 30
0.0
 10
277.065640452701
 20
247.9209099648024
 30
0.0
 10
277.0693481852305
 20
247.9287145109816
 30
0.0
 10
277.0865835677061
 20
247.9681819456743
 30
0.0
 10
277.0962670350888
 20
248.0011563965249
 30
0.0
 10
277.1016856781939
 20
248.0355882328154
 30
0.0
  0
SPLINE
  5
1B6
330
1F
100
AcDbEntity
  8
1
100
AcDbSpline
210
0.0
220
0.0
230
1.0
 70
     8
 71
     3
 72
     8
 73
     4
 74
     0
 42
0.000000001
 43
0.0000000001
 40
0.0
 40
0.0
 40
0.0
 40
0.0
 40
1.0
 40
1.0
 40
1.0
 40
1.0
 10
276.2823967396942
 20
247.5124224384652
 30
0.0
 10
276.4723901865783
 20
247.5790060532095
 30
0.0
 10
276.6613649385027
 20
247.6488240423017
 30
0.0
 10
276.8493183215069
 20
247.7218847208595
 30
0.0
  0
SPLINE
  5
1B7
330
1F
100
AcDbEntity
  8
1
100
AcDbSpline
210
0.0
220
0.0
230
1.0
 70
     8
 71
     3
 72
     8
 73
     4
 74
     0
 42
0.000000001
 43
0.0000000001
 40
0.0
 40
0.0
 40
0.0
 40
0.0
 40
1.0
 40
1.0
 40
1.0
 40
1.0
 10
276.8493203948338
 20
247.7218803737861
 30
0.0
 10
276.8515075521812
 20
247.7227306037844
 30
0.0
 10
276.8536872396227
 20
247.7235991362857
 30
0.0
 10
276.8558589992381
 20
247.7244857310281
 30
0.0
  0
SPLINE
  5
1B8
330
1F
100
AcDbEntity
  8
1
100
AcDbSpline
210
0.0
220
0.0
230
1.0
 70
     8
 71
     3
 72
    11
 73
     7
 74
     0
 42
0.000000001
 43
0.0000000001
 40
0.0
 40
0.0
 40
0.0
 40
0.0
 40
0.25
 40
0.5
 40
0.7499999999999999
 40
1.0
 40
1.0
 40
1.0
 40
1.0
 10
276.807782512168
 20
247.83950737956
 30
0.0
 10
276.8325748770186
 20
247.849328682906
 30
0.0
 10
276.8728941860899
 20
247.8716682638146
 30
0.0
 10
276.9250712372948
 20
247.9217247586179
 30
0.0
 10
276.9617274822343
 20
247.9840377601391
 30
0.0
 10
276.9741857276347
 20
248.028525474588
 30
0.0
 10
276.9780655889039
 20
248.055002957137
 30
0.0
  0
SPLINE
  5
1B9
330
1F
100
AcDbEntity
  8
1
100
AcDbSpline
210
0.0
220
0.0
230
1.0
 70
    12
 71
     3
 72
     8
 73
     4
 74
     0
 42
0.000000001
 43
0.0000000001
 40
0.0
 40
0.0
 40
0.0
 40
0.0
 40
1.0
 40
1.0
 40
1.0
 40
1.0
 10
276.9780655889039
 20
248.055002957137
 30
0.0
 41
1.0
 10
277.009789165133
 20
248.281375662311
 30
0.0
 41
0.9983588147778226
 10
277.0254073738622
 20
248.5050511948167
 30
0.0
 41
0.9983588147778226
 10
277.0254073738622
 20
248.7336880930502
 30
0.0
 41
1.0
  0
SPLINE
  5
1BA
330
1F
100
AcDbEntity
  8
1
100
AcDbSpline
210
0.0
220
0.0
230
1.0
 70
    12
 71
     3
 72
     8
 73
     4
 74
     0
 42
0.000000001
 43
0.0000000001
 40
0.0
 40
0.0
 40
0.0
 40
0.0
 40
1.0
 40
1.0
 40
1.0
 40
1.0
 10
277.0254073738622
 20
248.7336880930502
 30
0.0
 41
1.0
 10
277.0254073738622
 20
249.0624746874511
 30
0.0
 41
0.9982883558074163
 10
277.0023353973796
 20
249.3854437965416
 30
0.0
 41
0.9982883558074162
 10
276.9556418829767
 20
249.7102883619308
 30
0.0
 41
1.0
  0
SPLINE
  5
1BB
330
1F
100
AcDbEntity
  8
1
100
AcDbSpline
210
0.0
220
0.0
230
1.0
 70
    12
 71
     3
 72
     8
 73
     4
 74
     0
 42
0.000000001
 43
0.0000000001
 40
0.0
 40
0.0
 40
0.0
 40
0.0
 40
1.0
 40
1.0
 40
1.0
 40
1.0
 10
276.9556418829767
 20
249.7102883619308
 30
0.0
 41
1.0
 10
276.7736116331988
 20
250.9766641773547
 30
0.0
 41
0.9961442649237252
 10
276.4589376320365
 20
252.2075752706992
 30
0.0
 41
0.9961442649237252
 10
276.0119316783122
 20
253.4019758620476
 30
0.0
 41
1.0
  0
SPLINE
  5
1BC
330
1F
100
AcDbEntity
  8
1
100
AcDbSpline
210
0.0
220
0.0
230
1.0
 70
     8
 71
     3
 72
    13
 73
     9
 74
     0
 42
0.000000001
 43
0.0000000001
 40
0.0
 40
0.0
 40
0.0
 40
0.0
 40
0.1249999999999969
 40
0.2500000000000001
 40
0.5
 40
0.75
 40
0.8750000000000031
 40
1.0
 40
1.0
 40
1.0
 40
1.0
 10
276.0119316783122
 20
253.4019758620476
 30
0.0
 10
276.0071638290858
 20
253.4144807020809
 30
0.0
 10
275.9976929468928
 20
253.4354251682174
 30
0.0
 10
275.9719102551984
 20
253.4768498607059
 30
0.0
 10
275.9316578234689
 20
253.5187713535322
 30
0.0
 10
275.8814855695675
 20
253.5485196515889
 30
0.0
 10
275.8352369724871
 20
253.5644176034498
 30
0.0
 10
275.812903922122
 20
253.5688845622588
 30
0.0
 10
275.7997599967892
 20
253.5706756650174
 30
0.0
  0
SPLINE
  5
1BD
330
1F
100
AcDbEntity
  8
1
100
AcDbSpline
210
0.0
220
0.0
230
1.0
 70
    12
 71
     3
 72
     8
 73
     4
 74
     0
 42
0.000000001
 43
0.0000000001
 40
0.0
 40
0.0
 40
0.0
 40
0.0
 40
1.0
 40
1.0
 40
1.0
 40
1.0
 10
275.7997599967892
 20
253.5706756650174
 30
0.0
 41
1.0
 10
275.5751002283662
 20
253.5998620772494
 30
0.0
 41
0.9983588124248203
 10
275.3529329702108
 20
253.6128613402411
 30
0.0
 41
0.9983588124248205
 10
275.1256394094024
 20
253.6100878292241
 30
0.0
 41
1.0
  0
SPLINE
  5
1BE
330
1F
100
AcDbEntity
  8
1
100
AcDbSpline
210
0.0
220
0.0
230
1.0
 70
    12
 71
     3
 72
     8
 73
     4
 74
     0
 42
0.000000001
 43
0.0000000001
 40
0.0
 40
0.0
 40
0.0
 40
0.0
 40
1.0
 40
1.0
 40
1.0
 40
1.0
 10
275.1256394094024
 20
253.6100878292241
 30
0.0
 41
1.0
 10
274.7987848085829
 20
253.60609944155
 30
0.0
 41
0.9982883558074162
 10
274.4774336312092
 20
253.5789698566323
 30
0.0
 41
0.9982883558074162
 10
274.1539314738909
 20
253.528052863094
 30
0.0
 41
1.0
  0
SPLINE
  5
1BF
330
1F
100
AcDbEntity
  8
1
100
AcDbSpline
210
0.0
220
0.0
230
1.0
 70
    12
 71
     3
 72
     8
 73
     4
 74
     0
 42
0.000000001
 43
0.0000000001
 40
0.0
 40
0.0
 40
0.0
 40
0.0
 40
1.0
 40
1.0
 40
1.0
 40
1.0
 10
274.1539314738909
 20
253.528052863094
 30
0.0
 41
1.0
 10
272.8927848247687
 20
253.3295571364612
 30
0.0
 41
0.996144240068283
 10
271.665285668571
 20
252.9980433360676
 30
0.0
 41
0.996144240068283
 10
270.4724735283839
 20
252.5338363097495
 30
0.0
 41
1.0
  0
SPLINE
  5
1C0
330
1F
100
AcDbEntity
  8
1
100
AcDbSpline
210
0.0
220
0.0
230
1.0
 70
     8
 71
     3
 72
    11
 73
     7
 74
     0
 42
0.000000001
 43
0.0000000001
 40
0.0
 40
0.0
 40
0.0
 40
0.0
 40
0.2499999999999969
 40
0.5
 40
0.7500000000000031
 40
1.0
 40
1.0
 40
1.0
 40
1.0
 10
270.4724735283839
 20
252.5338363097495
 30
0.0
 10
270.4476811635329
 20
252.5240150064034
 30
0.0
 10
270.407361854461
 20
252.5016754254948
 30
0.0
 10
270.3551848032555
 20
252.4516189306914
 30
0.0
 10
270.3185285583157
 20
252.3893059291703
 30
0.0
 10
270.3060703129154
 20
252.3448182147214
 30
0.0
 10
270.3021904516463
 20
252.3183407321721
 30
0.0
  0
SPLINE
  5
1C1
330
1F
100
AcDbEntity
  8
1
100
AcDbSpline
210
0.0
220
0.0
230
1.0
 70
    12
 71
     3
 72
     8
 73
     4
 74
     0
 42
0.000000001
 43
0.0000000001
 40
0.0
 40
0.0
 40
0.0
 40
0.0
 40
1.0
 40
1.0
 40
1.0
 40
1.0
 10
270.3021904516463
 20
252.3183407321721
 30
0.0
 41
1.0
 10
270.2704668754171
 20
252.0919680269979
 30
0.0
 41
0.9983588147778219
 10
270.254848666688
 20
251.8682924944921
 30
0.0
 41
0.9983588147778219
 10
270.254848666688
 20
251.6396555962586
 30
0.0
 41
1.0
  0
SPLINE
  5
1C2
330
1F
100
AcDbEntity
  8
1
100
AcDbSpline
210
0.0
220
0.0
230
1.0
 70
    12
 71
     3
 72
     8
 73
     4
 74
     0
 42
0.000000001
 43
0.0000000001
 40
0.0
 40
0.0
 40
0.0
 40
0.0
 40
1.0
 40
1.0
 40
1.0
 40
1.0
 10
270.254848666688
 20
251.6396555962586
 30
0.0
 41
1.0
 10
270.254848666688
 20
251.3108690018577
 30
0.0
 41
0.9982883558074163
 10
270.2779206431705
 20
250.9878998927672
 30
0.0
 41
0.9982883558074158
 10
270.3246141575733
 20
250.6630553273779
 30
0.0
 41
1.0
  0
SPLINE
  5
1C3
330
1F
100
AcDbEntity
  8
1
100
AcDbSpline
210
0.0
220
0.0
230
1.0
 70
    12
 71
     3
 72
     8
 73
     4
 74
     0
 42
0.000000001
 43
0.0000000001
 40
0.0
 40
0.0
 40
0.0
 40
0.0
 40
1.0
 40
1.0
 40
1.0
 40
1.0
 10
270.3246141575733
 20
250.6630553273779
 30
0.0
 41
1.0
 10
270.4477350195748
 20
249.8065093290996
 30
0.0
 41
0.9973888072942539
 10
270.631873775271
 20
248.9647730192648
 30
0.0
 41
0.9965459631027535
 10
270.8772425242239
 20
248.138251637382
 30
0.0
 41
0.9974714674254984
  0
SPLINE
  5
1C4
330
1F
100
AcDbEntity
  8
1
100
AcDbSpline
210
0.0
220
0.0
230
1.0
 70
    12
 71
     3
 72
     8
 73
     4
 74
     0
 42
0.000000001
 43
0.0000000001
 40
0.0
 40
0.0
 40
0.0
 40
0.0
 40
1.0
 40
1.0
 40
1.0
 40
1.0
 10
276.2182177502694
 20
247.6218897968685
 30
0.0
 41
0.9984115298029399
 10
276.4158798503871
 20
247.6909276146039
 30
0.0
 41
0.9988368998720076
 10
276.6124018311655
 20
247.7634710265815
 30
0.0
 41
0.9993663899376942
 10
276.807782512168
 20
247.83950737956
 30
0.0
 41
1.0
  0
SPLINE
  5
1C5
330
1F
100
AcDbEntity
  8
1
100
AcDbSpline
210
0.0
220
0.0
230
1.0
 70
     8
 71
     3
 72
     8
 73
     4
 74
     0
 42
0.000000001
 43
0.0000000001
 40
0.0
 40
0.0
 40
0.0
 40
0.0
 40
1.0
 40
1.0
 40
1.0
 40
1.0
 10
277.1503041836045
 20
241.5722764991683
 30
0.0
 10
277.1503041836045
 20
241.4530337638618
 30
0.0
 10
277.1411082158272
 20
241.3327791488516
 30
0.0
 10
277.1227684246817
 20
241.2119392729834
 30
0.0
  0
SPLINE
  5
1C6
330
1F
100
AcDbEntity
  8
1
100
AcDbSpline
210
0.0
220
0.0
230
1.0
 70
     8
 71
     3
 72
    10
 73
     6
 74
     0
 42
0.000000001
 43
0.0000000001
 40
0.0
 40
0.0
 40
0.0
 40
0.0
 40
0.5
 40
0.5
 40
1.0
 40
1.0
 40
1.0
 40
1.0
 10
277.1027600739617
 20
241.9628286513617
 30
0.0
 10
277.1185858254454
 20
241.8990525650597
 30
0.0
 10
277.1304668381189
 20
241.8345821425559
 30
0.0
 10
277.1463339289863
 20
241.7042625414877
 30
0.0
 10
277.1503041836045
 20
241.6385060476433
 30
0.0
 10
277.1503041836045
 20
241.5722764991683
 30
0.0
  0
SPLINE
  5
1C7
330
1F
100
AcDbEntity
  8
1
100
AcDbSpline
210
0.0
220
0.0
230
1.0
 70
     8
 71
     3
 72
     9
 73
     5
 74
     0
 42
0.000000001
 43
0.0000000001
 40
0.0
 40
0.0
 40
0.0
 40
0.0
 40
0.5529695515532472
 40
1.0
 40
1.0
 40
1.0
 40
1.0
 10
277.1027600740935
 20
241.9628286526191
 30
0.0
 10
277.0955852877117
 20
241.8945681187778
 30
0.0
 10
277.0826102760468
 20
241.7711245518589
 30
0.0
 10
277.069449344202
 20
241.6476860505535
 30
0.0
 10
277.0635359362399
 20
241.5925062273821
 30
0.0
  0
SPLINE
  5
1C8
330
1F
100
AcDbEntity
  8
1
100
AcDbSpline
210
0.0
220
0.0
230
1.0
 70
     8
 71
     3
 72
     8
 73
     4
 74
     0
 42
0.000000001
 43
0.0000000001
 40
0.0
 40
0.0
 40
0.0
 40
0.0
 40
1.0
 40
1.0
 40
1.0
 40
1.0
 10
277.1016856781939
 20
241.9669841570292
 30
0.0
 10
277.1020737244309
 20
241.9655966718692
 30
0.0
 10
277.1024396973203
 20
241.9642105743357
 30
0.0
 10
277.1027834463443
 20
241.9628262127735
 30
0.0
  0
SPLINE
  5
1C9
330
1F
100
AcDbEntity
  8
1
100
AcDbSpline
210
0.0
220
0.0
230
1.0
 70
     8
 71
     3
 72
    15
 73
    11
 74
     0
 42
0.000000001
 43
0.0000000001
 40
0.0
 40
0.0
 40
0.0
 40
0.0
 40
0.1227096930572223
 40
0.3420322697929138
 40
0.3420322697929138
 40
0.4516935581607601
 40
0.4516935581607601
 40
0.5613548465286062
 40
0.5613548465286062
 40
1.0
 40
1.0
 40
1.0
 40
1.0
 10
277.000803165933
 20
242.0760858430744
 30
0.0
 10
277.0073082522005
 20
242.0727908727385
 30
0.0
 10
277.0246916152544
 20
242.0631474601176
 30
0.0
 10
277.0400100778957
 20
242.05221753038
 30
0.0
 10
277.0534335336459
 20
242.0409089226274
 30
0.0
 10
277.0576920123696
 20
242.0370000844839
 30
0.0
 10
277.0656404527009
 20
242.029036594226
 30
0.0
 10
277.0693481852305
 20
242.024968096279
 30
0.0
 10
277.0865835677061
 20
242.0042041061025
 30
0.0
 10
277.0962670350888
 20
241.9862624602753
 30
0.0
 10
277.1016856781939
 20
241.9669841570292
 30
0.0
  0
LINE
  5
1CA
330
1F
100
AcDbEntity
  8
4
100
AcDbLine
 10
279.143822
 20
243.731161
 30
0.0
 11
201.343865
 21
243.731161
 31
0.0
  0
LINE
  5
1CB
330
1F
100
AcDbEntity
  8
SK4
100
AcDbLine
 10
155.144248
 20
243.731161
 30
0.0
 11
240.144248
 21
243.731161
 31
0.0
  0
MTEXT
  5
1CC
330
1F
100
AcDbEntity
  8
SK6
100
AcDbMText
 10
192.513213
 20
212.002455
 30
0.0
 40
3.5
 41
0.0
 71
     7
 72
     5
  1
\W0.7318;20E3R040A20-SZD07
  7
cesky
 73
     2
 44
0.8433729999999998
  0
MTEXT
  5
2C5
330
1F
100
AcDbEntity
  8
2
100
AcDbMText
 10
255.329748
 20
276.518751
 30
0.0
 40
3.5
 41
0.0
 71
     7
 72
     5
  1
\W0.7045;40
  7
cesky
 73
     2
 44
0.8433729999999998
  0
LINE
  5
2C6
330
1F
100
AcDbEntity
  8
2
100
AcDbLine
 10
237.144248
 20
243.731161
 30
0.0
 11
237.144248
 21
277.644584
 31
0.0
  0
LINE
  5
2C7
330
1F
100
AcDbEntity
  8
2
100
AcDbLine
 10
277.144248
 20
255.731161
 30
0.0
 11
277.144248
 21
277.644584
 31
0.0
  0
LINE
  5
2C8
330
1F
100
AcDbEntity
  8
2
100
AcDbLine
 10
237.144248
 20
276.644584
 30
0.0
 11
277.144248
 21
276.644584
 31
0.0
  0
SOLID
  5
2C9
330
1F
100
AcDbEntity
  8
2
100
AcDbTrace
 10
237.144248
 20
276.644584
 30
0.0
 11
240.644246
 21
277.261729
 31
0.0
 12
240.644251
 22
276.02744
 32
0.0
 13
240.644251
 23
276.02744
 33
0.0
  0
SOLID
  5
2CA
330
1F
100
AcDbEntity
  8
2
100
AcDbTrace
 10
277.144248
 20
276.644584
 30
0.0
 11
273.644251
 21
276.02744
 31
0.0
 12
273.644246
 22
277.261729
 32
0.0
 13
273.644246
 23
277.261729
 33
0.0
  0
MTEXT
  5
2CB
330
1F
100
AcDbEntity
  8
2
100
AcDbMText
 10
268.339589
 20
260.082815
 30
0.0
 40
3.5
 41
0.0
 71
     7
 72
     5
  1
\W1.7063;1
  7
cesky
 73
     2
 44
0.8433729999999998
  0
LINE
  5
2CC
330
1F
100
AcDbEntity
  8
2
100
AcDbLine
 10
277.144248
 20
255.731161
 30
0.0
 11
277.144248
 21
261.208648
 31
0.0
  0
LINE
  5
2CD
330
1F
100
AcDbEntity
  8
2
100
AcDbLine
 10
276.129089
 20
253.443182
 30
0.0
 11
276.129089
 21
261.208648
 31
0.0
  0
LINE
  5
2CE
330
1F
100
AcDbEntity
  8
2
100
AcDbLine
 10
268.154089
 20
260.208648
 30
0.0
 11
285.894248
 21
260.208648
 31
0.0
  0
SOLID
  5
2CF
330
1F
100
AcDbEntity
  8
2
100
AcDbTrace
 10
277.144248
 20
260.208648
 30
0.0
 11
280.644246
 21
260.825792
 31
0.0
 12
280.644251
 22
259.591504
 32
0.0
 13
280.644251
 23
259.591504
 33
0.0
  0
SOLID
  5
2D0
330
1F
100
AcDbEntity
  8
2
100
AcDbTrace
 10
276.129089
 20
260.208648
 30
0.0
 11
272.629092
 21
259.591504
 31
0.0
 12
272.629087
 22
260.825792
 32
0.0
 13
272.629087
 23
260.825792
 33
0.0
  0
MTEXT
  5
2D1
330
1F
100
AcDbEntity
  8
2
100
AcDbMText
 10
290.311905
 20
242.061857
 30
0.0
 40
3.5
 41
0.0
 71
     7
 72
     5
  1
\W0.7045;20
  7
cesky
 11
0.0000000000000001
 21
1.0
 31
0.0
 73
     2
 44
0.8433729999999998
  0
MTEXT
  5
2D2
330
1F
100
AcDbEntity
  8
2
100
AcDbMText
 10
290.311905
 20
235.324357
 30
0.0
 40
3.5
 41
0.0
 71
     7
 72
     5
  1
\W3.0115;\H2.63;%%c\H3.50;
  7
cesky
 11
0.0000000000000001
 21
1.0
 31
0.0
 73
     2
 44
0.8433729999999998
  0
LINE
  5
2D3
330
1F
100
AcDbEntity
  8
2
100
AcDbLine
 10
279.144248
 20
253.731161
 30
0.0
 11
291.499321
 21
253.731161
 31
0.0
  0
LINE
  5
2D4
330
1F
100
AcDbEntity
  8
2
100
AcDbLine
 10
290.499321
 20
253.731161
 30
0.0
 11
290.499321
 21
235.166857
 31
0.0
  0
SOLID
  5
2D5
330
1F
100
AcDbEntity
  8
2
100
AcDbTrace
 10
290.499321
 20
253.731161
 30
0.0
 11
291.116466
 21
250.231164
 31
0.0
 12
289.882177
 22
250.231159
 32
0.0
 13
289.882177
 23
250.231159
 33
0.0
  0
MTEXT
  5
2D6
330
1F
100
AcDbEntity
  8
SK2
100
AcDbMText
 10
214.067248
 20
299.059456
 30
0.0
 40
3.5
 41
0.0
 71
     7
 72
     5
  1
\W0.7809;120
  7
cesky
 73
     2
 44
0.8433729999999998
  0
LINE
  5
2D7
330
1F
100
AcDbEntity
  8
SK2
100
AcDbLine
 10
157.144248
 20
252.731161
 30
0.0
 11
157.144248
 21
300.185289
 31
0.0
  0
LINE
  5
2D8
330
1F
100
AcDbEntity
  8
SK2
100
AcDbLine
 10
277.144248
 20
255.731161
 30
0.0
 11
277.144248
 21
300.185289
 31
0.0
  0
LINE
  5
2D9
330
1F
100
AcDbEntity
  8
SK2
100
AcDbLine
 10
157.144248
 20
299.185289
 30
0.0
 11
277.144248
 21
299.185289
 31
0.0
  0
SOLID
  5
2DA
330
1F
100
AcDbEntity
  8
SK2
100
AcDbTrace
 10
157.144248
 20
299.185289
 30
0.0
 11
160.644246
 21
299.802434
 31
0.0
 12
160.644251
 22
298.568145
 32
0.0
 13
160.644251
 23
298.568145
 33
0.0
  0
SOLID
  5
2DB
330
1F
100
AcDbEntity
  8
SK2
100
AcDbTrace
 10
277.144248
 20
299.185289
 30
0.0
 11
273.644251
 21
298.568145
 31
0.0
 12
273.644246
 22
299.802434
 32
0.0
 13
273.644246
 23
299.802434
 33
0.0
  0
MTEXT
  5
2DC
330
1F
100
AcDbEntity
  8
SK2
100
AcDbMText
 10
240.329748
 20
285.667092
 30
0.0
 40
3.5
 41
0.0
 71
     7
 72
     5
  1
\W0.7045;70
  7
cesky
 73
     2
 44
0.8433729999999998
  0
LINE
  5
2DD
330
1F
100
AcDbEntity
  8
SK2
100
AcDbLine
 10
277.144248
 20
255.731161
 30
0.0
 11
277.144248
 21
286.792925
 31
0.0
  0
LINE
  5
2DE
330
1F
100
AcDbEntity
  8
SK2
100
AcDbLine
 10
207.144248
 20
244.730735
 30
0.0
 11
207.144248
 21
286.792925
 31
0.0
  0
LINE
  5
2DF
330
1F
100
AcDbEntity
  8
SK2
100
AcDbLine
 10
277.144248
 20
285.792925
 30
0.0
 11
207.144248
 21
285.792925
 31
0.0
  0
SOLID
  5
2E0
330
1F
100
AcDbEntity
  8
SK2
100
AcDbTrace
 10
277.144248
 20
285.792925
 30
0.0
 11
273.644251
 21
285.17578
 31
0.0
 12
273.644246
 22
286.410069
 32
0.0
 13
273.644246
 23
286.410069
 33
0.0
  0
SOLID
  5
2E1
330
1F
100
AcDbEntity
  8
SK2
100
AcDbTrace
 10
207.144248
 20
285.792925
 30
0.0
 11
210.644246
 21
286.410069
 31
0.0
 12
210.644251
 22
285.17578
 32
0.0
 13
210.644251
 23
285.17578
 33
0.0
  0
MTEXT
  5
2E2
330
1F
100
AcDbEntity
  8
SK2
100
AcDbMText
 10
147.18574
 20
245.257411
 30
0.0
 40
3.5
 41
0.0
 71
     7
 72
     5
  1
\W0.7045;20
  7
cesky
 11
0.0000000000000001
 21
1.0
 31
0.0
 73
     2
 44
0.8433729999999998
  0
MTEXT
  5
2E3
330
1F
100
AcDbEntity
  8
SK2
100
AcDbMText
 10
147.18574
 20
238.519911
 30
0.0
 40
3.5
 41
0.0
 71
     7
 72
     5
  1
\W3.0115;\H2.63;%%c\H3.50;
  7
cesky
 11
0.0000000000000001
 21
1.0
 31
0.0
 73
     2
 44
0.8433729999999998
  0
LINE
  5
2E4
330
1F
100
AcDbEntity
  8
SK2
100
AcDbLine
 10
158.144248
 20
253.731161
 30
0.0
 11
146.373157
 21
253.731161
 31
0.0
  0
LINE
  5
2E5
330
1F
100
AcDbEntity
  8
SK2
100
AcDbLine
 10
158.144248
 20
233.731161
 30
0.0
 11
146.373157
 21
233.731161
 31
0.0
  0
LINE
  5
2E6
330
1F
100
AcDbEntity
  8
SK2
100
AcDbLine
 10
147.373157
 20
253.731161
 30
0.0
 11
147.373157
 21
233.731161
 31
0.0
  0
SOLID
  5
2E7
330
1F
100
AcDbEntity
  8
SK2
100
AcDbTrace
 10
147.373157
 20
253.731161
 30
0.0
 11
147.990302
 21
250.231164
 31
0.0
 12
146.756013
 22
250.231159
 32
0.0
 13
146.756013
 23
250.231159
 33
0.0
  0
SOLID
  5
2E8
330
1F
100
AcDbEntity
  8
SK2
100
AcDbTrace
 10
147.373157
 20
233.731161
 30
0.0
 11
146.756013
 21
237.231159
 31
0.0
 12
147.990302
 22
237.231164
 32
0.0
 13
147.990302
 23
237.231164
 33
0.0
  0
LINE
  5
301
330
1F
100
AcDbEntity
  8
CUT
100
AcDbLine
 10
276.1316015053413
 20
253.4366131077408
 30
0.0
 11
276.1316015053413
 21
253.4366131077408
 31
0.0
  0
ARC
  5
302
330
1F
100
AcDbEntity
  8
CUT
100
AcDbCircle
 10
259.3021385547237
 20
247.1574803921317
 30
0.0
 40
17.9626927509893
100
AcDbArc
 50
8.241605777015788
 51
20.46072458614696
  0
ARC
  5
303
330
1F
100
AcDbEntity
  8
CUT
100
AcDbCircle
 10
270.3904305344078
 20
263.8999696327772
 30
0.0
 40
17.39728994932988
100
AcDbArc
 50
279.9165792256155
 51
291.7932390601904
  0
ARC
  5
304
330
1F
100
AcDbEntity
  8
CUT
100
AcDbCircle
 10
270.5854055243806
 20
262.9772573495135
 30
0.0
 40
16.4548193730368
100
AcDbArc
 50
278.964223611165
 51
279.8011232638664
  0
LINE
  5
305
330
1F
100
AcDbEntity
  8
CUT
100
AcDbLine
 10
272.1606725297598
 20
246.64259576637
 30
0.0
 11
272.1606725297598
 21
246.64259576637
 31
0.0
  0
ARC
  5
306
330
1F
100
AcDbEntity
  8
CUT
100
AcDbCircle
 10
272.131079276819
 20
251.3774371179131
 30
0.0
 40
4.734933831100641
100
AcDbArc
 50
262.0590522304151
 51
270.3580999429022
  0
LINE
  5
307
330
1F
100
AcDbEntity
  8
CUT
100
AcDbLine
 10
270.1906765997154
 20
252.3770792756839
 30
0.0
 11
270.1906765997154
 21
252.3770792756839
 31
0.0
  0
ARC
  5
308
330
1F
100
AcDbEntity
  8
CUT
100
AcDbCircle
 10
270.5854412917433
 20
252.3149962168469
 30
0.0
 40
0.3996166516380757
100
AcDbArc
 50
111.8823061782324
 51
171.0625252334785
  0
LINE
  5
309
330
1F
100
AcDbEntity
  8
CUT
100
AcDbLine
 10
271.1632740819508
 20
246.9370339418301
 30
0.0
 11
271.1632740819508
 21
246.9370339418301
 31
0.0
  0
ARC
  5
30A
330
1F
100
AcDbEntity
  8
CUT
100
AcDbCircle
 10
271.5949584855844
 20
247.1045730851717
 30
0.0
 40
0.4630559241518371
100
AcDbArc
 50
200.3372319563986
 51
201.2115127220048
  0
LINE
  5
30B
330
1F
100
AcDbEntity
  8
CUT
100
AcDbLine
 10
277.0793197793576
 20
249.7323898221829
 30
0.0
 11
277.0793197793576
 21
249.7323898221829
 31
0.0
  0
ARC
  5
30C
330
1F
100
AcDbEntity
  8
CUT
100
AcDbCircle
 10
270.2644657971056
 20
248.7462174699153
 30
0.0
 40
6.885838417200378
100
AcDbArc
 50
0.0054105176253116
 51
8.234070381387969
  0
LINE
  5
30D
330
1F
100
AcDbEntity
  8
CUT
100
AcDbLine
 10
270.4365036723001
 20
252.6858210458174
 30
0.0
 11
270.4365036723001
 21
252.6858210458174
 31
0.0
  0
ARC
  5
30E
330
1F
100
AcDbEntity
  8
CUT
100
AcDbCircle
 10
270.5973098609827
 20
252.2783206507197
 30
0.0
 40
0.438081273650728
100
AcDbArc
 50
110.6177059405452
 51
111.5349868808667
  0
LINE
  5
30F
330
1F
100
AcDbEntity
  8
CUT
100
AcDbLine
 10
273.1493577382898
 20
246.7234199674041
 30
0.0
 11
273.1493577382898
 21
246.7234199674041
 31
0.0
  0
ARC
  5
310
330
1F
100
AcDbEntity
  8
CUT
100
AcDbCircle
 10
272.1174807246172
 20
253.2584186084416
 30
0.0
 40
6.615963830743593
100
AcDbArc
 50
270.3740536959799
 51
278.9729270658837
  0
ARC
  5
311
330
1F
100
AcDbEntity
  8
CUT
100
AcDbCircle
 10
271.9886523135179
 20
248.7518555279886
 30
0.0
 40
5.161654280006316
100
AcDbArc
 50
354.7324642652818
 51
359.9446338303269
  0
ARC
  5
312
330
1F
100
AcDbEntity
  8
CUT
100
AcDbCircle
 10
273.239196578444
 20
248.6477159236071
 30
0.0
 40
3.906846329062925
100
AcDbArc
 50
352.0660450677804
 51
354.5695578256367
  0
ARC
  5
313
330
1F
100
AcDbEntity
  8
CUT
100
AcDbCircle
 10
270.040487035288
 20
249.0710740140137
 30
0.0
 40
7.133408660273753
100
AcDbArc
 50
351.9016912165923
 51
352.2444939520747
  0
LINE
  5
314
330
1F
100
AcDbEntity
  8
CUT
100
AcDbLine
 10
276.1290892853904
 20
253.4431819129763
 30
0.0
 11
276.1290892853904
 21
253.4431819129763
 31
0.0
  0
ARC
  5
315
330
1F
100
AcDbEntity
  8
CUT
100
AcDbCircle
 10
275.7380497324485
 20
253.2898191240911
 30
0.0
 40
0.4200381851447387
100
AcDbArc
 50
20.45541911133062
 51
21.41474030506938
  0
LINE
  5
316
330
1F
100
AcDbEntity
  8
CUT
100
AcDbLine
 10
276.8558589992381
 20
247.7487334617122
 30
0.0
 11
276.8558589992381
 21
247.7487334617122
 31
0.0
  0
ARC
  5
317
330
1F
100
AcDbEntity
  8
CUT
100
AcDbCircle
 10
276.6961378758895
 20
248.1308711698838
 30
0.0
 40
0.4141739553018584
100
AcDbArc
 50
291.7064086199264
 51
292.683339934063
  0
LINE
  5
318
330
1F
100
AcDbEntity
  8
CUT
100
AcDbLine
 10
271.1607719101091
 20
246.9436421474276
 30
0.0
 11
271.1607719101091
 21
246.9436421474276
 31
0.0
  0
ARC
  5
319
330
1F
100
AcDbEntity
  8
CUT
100
AcDbCircle
 10
288.167993867134
 20
253.2450976406405
 30
0.0
 40
18.13708741855907
100
AcDbArc
 50
188.1268559806091
 51
200.3304965745484
  0
LINE
  5
31A
330
1F
100
AcDbEntity
  8
CUT
100
AcDbLine
 10
277.1016856781939
 20
248.0588459144728
 30
0.0
 11
277.1016856781939
 21
248.0588459144728
 31
0.0
  0
ARC
  5
31B
330
1F
100
AcDbEntity
  8
CUT
100
AcDbCircle
 10
276.6978030722504
 20
248.1265145127458
 30
0.0
 40
0.4095121470432297
100
AcDbArc
 50
292.70344500992
 51
350.4887081002529
  0
LINE
  5
31C
330
1F
100
AcDbEntity
  8
CUT
100
AcDbLine
 10
274.1430100994845
 20
253.6529834636918
 30
0.0
 11
274.1430100994845
 21
253.6529834636918
 31
0.0
  0
ARC
  5
31D
330
1F
100
AcDbEntity
  8
CUT
100
AcDbCircle
 10
275.185118428718
 20
246.7679420010604
 30
0.0
 40
6.963460756837221
100
AcDbArc
 50
90.43957300531863
 51
98.60686401740622
  0
LINE
  5
31E
330
1F
100
AcDbEntity
  8
CUT
100
AcDbLine
 10
275.8154309564135
 20
253.6889722652208
 30
0.0
 11
275.8154309564135
 21
253.6889722652208
 31
0.0
  0
ARC
  5
31F
330
1F
100
AcDbEntity
  8
CUT
100
AcDbCircle
 10
275.7587568623297
 20
253.2590165758015
 30
0.0
 40
0.4336748180425518
100
AcDbArc
 50
81.50861414383502
 51
82.49091558941039
  0
LINE
  5
320
330
1F
100
AcDbEntity
  8
CUT
100
AcDbLine
 10
270.2130480584167
 20
250.6811434611594
 30
0.0
 11
270.2130480584167
 21
250.6811434611594
 31
0.0
  0
ARC
  5
321
330
1F
100
AcDbEntity
  8
CUT
100
AcDbCircle
 10
277.2006626433868
 20
251.6796734522573
 30
0.0
 40
7.058598992095269
100
AcDbArc
 50
180.0016362805503
 51
188.1325076929724
  0
LINE
  5
322
330
1F
100
AcDbEntity
  8
CUT
100
AcDbLine
 10
270.4430495149074
 20
252.6883388889238
 30
0.0
 11
270.4430495149074
 21
252.6883388889238
 31
0.0
  0
ARC
  5
323
330
1F
100
AcDbEntity
  8
CUT
100
AcDbCircle
 10
276.8763298687247
 20
235.5910986944233
 30
0.0
 40
18.26753180862853
100
AcDbArc
 50
98.60532330284563
 51
110.6201118992383
  0
ARC
  5
324
330
1F
100
AcDbEntity
  8
CUT
100
AcDbCircle
 10
276.7706939578652
 20
248.1123113879729
 30
0.0
 40
0.3352792797819754
100
AcDbArc
 50
351.1407380449325
 51
352.090343655373
  0
ARC
  5
325
330
1F
100
AcDbEntity
  8
CUT
100
AcDbCircle
 10
276.6244254201023
 20
248.1347831637969
 30
0.0
 40
0.4832637166067819
100
AcDbArc
 50
350.9594070902282
 51
351.1790128731316
  0
ARC
  5
326
330
1F
100
AcDbEntity
  8
CUT
100
AcDbCircle
 10
275.4492078354974
 20
251.6743710756565
 30
0.0
 40
5.307146632560116
100
AcDbArc
 50
174.8055247704431
 51
179.9449319912178
  0
ARC
  5
327
330
1F
100
AcDbEntity
  8
CUT
100
AcDbCircle
 10
274.1602784509376
 20
251.780210854534
 30
0.0
 40
4.013944218655096
100
AcDbArc
 50
172.1739246870567
 51
174.6443674158005
  0
ARC
  5
328
330
1F
100
AcDbEntity
  8
CUT
100
AcDbCircle
 10
277.4706977487874
 20
251.3481032860793
 30
0.0
 40
7.352403733245355
100
AcDbArc
 50
172.0135101772136
 51
172.3507055428485
  0
LINE
  5
329
330
1F
100
AcDbEntity
  8
CUT
100
AcDbLine
 10
271.4695661513775
 20
246.6889780980349
 30
0.0
 11
271.4695661513775
 21
246.6889780980349
 31
0.0
  0
ARC
  5
32A
330
1F
100
AcDbEntity
  8
CUT
100
AcDbCircle
 10
271.5337489291247
 20
247.0813572536552
 30
0.0
 40
0.3975938011647811
100
AcDbArc
 50
201.2840502356942
 51
260.7102070153699
  0
ARC
  5
32B
330
1F
100
AcDbEntity
  8
CUT
100
AcDbCircle
 10
270.5655076338009
 20
252.3181009563742
 30
0.0
 40
0.3794401267034419
100
AcDbArc
 50
171.3416410668222
 51
172.192483647292
  0
ARC
  5
32C
330
1F
100
AcDbEntity
  8
CUT
100
AcDbCircle
 10
270.7314805923413
 20
252.2931588909698
 30
0.0
 40
0.5472765200615586
100
AcDbArc
 50
171.1793593507227
 51
171.3759956976957
  0
LINE
  5
32D
330
1F
100
AcDbEntity
  8
CUT
100
AcDbLine
 10
271.4769336767714
 20
246.6878842931854
 30
0.0
 11
271.4769336767714
 21
246.6878842931854
 31
0.0
  0
ARC
  5
32E
330
1F
100
AcDbEntity
  8
CUT
100
AcDbCircle
 10
271.5361271294664
 20
247.1119523395472
 30
0.0
 40
0.4281793698755516
100
AcDbArc
 50
261.0570372402964
 51
262.0537229354445
  0
LINE
  5
32F
330
1F
100
AcDbEntity
  8
CUT
100
AcDbLine
 10
275.1316953080146
 20
253.7311978259017
 30
0.0
 11
275.1316953080146
 21
253.7311978259017
 31
0.0
  0
ARC
  5
330
330
1F
100
AcDbEntity
  8
CUT
100
AcDbCircle
 10
275.1694791647574
 20
248.786604834937
 30
0.0
 40
4.94473735057057
100
AcDbArc
 50
82.49376771125218
 51
90.43781427388514
  0
LINE
  5
331
330
1F
100
AcDbEntity
  8
CUT
100
AcDbLine
 10
275.8227935963427
 20
253.6879374828475
 30
0.0
 11
275.8227935963427
 21
253.6879374828475
 31
0.0
  0
ARC
  5
332
330
1F
100
AcDbEntity
  8
CUT
100
AcDbCircle
 10
275.7627818614433
 20
253.2988043374888
 30
0.0
 40
0.3937334290384919
100
AcDbArc
 50
21.5115414813806
 51
81.23296883824504
  0
ENDSEC
  0
SECTION
  2
OBJECTS
  0
DICTIONARY
  5
C
330
0
100
AcDbDictionary
281
     1
  3
ACAD_CIP_PREVIOUS_PRODUCT_INFO
350
2C2
  3
ACAD_COLOR
350
2BD
  3
ACAD_DETAILVIEWSTYLE
350
2B9
  3
ACAD_GROUP
350
D
  3
ACAD_LAYOUT
350
1A
  3
ACAD_MATERIAL
350
43
  3
ACAD_MLEADERSTYLE
350
6B
  3
ACAD_MLINESTYLE
350
17
  3
ACAD_PLOTSETTINGS
350
19
  3
ACAD_PLOTSTYLENAME
350
E
  3
ACAD_SCALELIST
350
47
  3
ACAD_SECTIONVIEWSTYLE
350
2BA
  3
ACAD_TABLESTYLE
350
69
  3
ACAD_VISUALSTYLE
350
2A
  3
ACDB_RECOMPOSE_DATA
350
35E
  3
AcDbVariableDictionary
350
276
  0
DICTIONARY
  5
341
330
10
100
AcDbDictionary
280
     1
281
     1
  3
ADSK_XREC_LAYER_RECONCILED
360
342
  0
DICTIONARY
  5
343
330
333
100
AcDbDictionary
280
     1
281
     1
  3
ADSK_XREC_LAYER_RECONCILED
360
344
  0
DICTIONARY
  5
345
330
334
100
AcDbDictionary
280
     1
281
     1
  3
ADSK_XREC_LAYER_RECONCILED
360
346
  0
DICTIONARY
  5
347
330
335
100
AcDbDictionary
280
     1
281
     1
  3
ADSK_XREC_LAYER_RECONCILED
360
348
  0
DICTIONARY
  5
349
330
337
100
AcDbDictionary
280
     1
281
     1
  3
ADSK_XREC_LAYER_RECONCILED
360
34A
  0
DICTIONARY
  5
34B
330
338
100
AcDbDictionary
280
     1
281
     1
  3
ADSK_XREC_LAYER_RECONCILED
360
34C
  0
DICTIONARY
  5
34D
330
33A
100
AcDbDictionary
280
     1
281
     1
  3
ADSK_XREC_LAYER_RECONCILED
360
34E
  0
DICTIONARY
  5
34F
330
33B
100
AcDbDictionary
280
     1
281
     1
  3
ADSK_XREC_LAYER_RECONCILED
360
350
  0
DICTIONARY
  5
351
330
33C
100
AcDbDictionary
280
     1
281
     1
  3
ADSK_XREC_LAYER_RECONCILED
360
352
  0
DICTIONARY
  5
353
330
33D
100
AcDbDictionary
280
     1
281
     1
  3
ADSK_XREC_LAYER_RECONCILED
360
354
  0
DICTIONARY
  5
355
330
33E
100
AcDbDictionary
280
     1
281
     1
  3
ADSK_XREC_LAYER_RECONCILED
360
356
  0
DICTIONARY
  5
357
330
33F
100
AcDbDictionary
280
     1
281
     1
  3
ADSK_XREC_LAYER_RECONCILED
360
358
  0
DICTIONARY
  5
2C3
330
1F
100
AcDbDictionary
280
     1
281
     1
  3
ACAD_SORTENTS
360
2C4
  0
XRECORD
  5
2C2
102
{ACAD_REACTORS
330
C
102
}
330
C
100
AcDbXrecord
280
     1
300
ACD
300
2019
300
87084ACD_2019_0F
  0
DICTIONARY
  5
2BD
102
{ACAD_REACTORS
330
C
102
}
330
C
100
AcDbDictionary
281
     1
  0
DICTIONARY
  5
2B9
102
{ACAD_REACTORS
330
C
102
}
330
C
100
AcDbDictionary
281
     1
  3
Metric50
350
2BF
  0
DICTIONARY
  5
D
102
{ACAD_REACTORS
330
C
102
}
330
C
100
AcDbDictionary
281
     1
  3
NULOVY_BOD
350
340
  0
DICTIONARY
  5
1A
102
{ACAD_REACTORS
330
C
102
}
330
C
100
AcDbDictionary
281
     1
  3
Layout1
350
1E
  3
Layout2
350
26
  3
Model
350
22
  0
DICTIONARY
  5
43
102
{ACAD_REACTORS
330
C
102
}
330
C
100
AcDbDictionary
281
     1
  3
ByBlock
350
45
  3
ByLayer
350
44
  3
Global
350
46
  0
DICTIONARY
  5
6B
102
{ACAD_REACTORS
330
C
102
}
330
C
100
AcDbDictionary
281
     1
  3
Standard
350
6C
  0
DICTIONARY
  5
17
102
{ACAD_REACTORS
330
C
102
}
330
C
100
AcDbDictionary
281
     1
  3
Standard
350
18
  0
DICTIONARY
  5
19
102
{ACAD_REACTORS
330
C
102
}
330
C
100
AcDbDictionary
281
     1
  0
ACDBDICTIONARYWDFLT
  5
E
102
{ACAD_REACTORS
330
C
102
}
330
C
100
AcDbDictionary
281
     1
  3
Normal
350
F
100
AcDbDictionaryWithDefault
340
F
  0
DICTIONARY
  5
47
102
{ACAD_REACTORS
330
C
102
}
330
C
100
AcDbDictionary
281
     1
  3
A0
350
48
  3
A1
350
49
  3
A2
350
4A
  3
A3
350
4B
  3
A4
350
4C
  3
A5
350
4D
  3
A6
350
4E
  3
A7
350
4F
  3
A8
350
50
  3
A9
350
51
  3
B0
350
52
  3
B1
350
53
  3
B2
350
54
  3
B3
350
55
  3
B4
350
56
  3
B5
350
57
  3
B6
350
58
  3
B7
350
59
  3
B8
350
5A
  3
B9
350
5B
  3
C0
350
5C
  3
C1
350
5D
  3
C2
350
5E
  3
C3
350
5F
  3
C4
350
60
  3
C5
350
61
  3
C6
350
62
  3
C7
350
63
  3
C8
350
64
  3
C9
350
65
  3
D0
350
66
  3
D1
350
67
  3
D2
350
68
  0
DICTIONARY
  5
2BA
102
{ACAD_REACTORS
330
C
102
}
330
C
100
AcDbDictionary
281
     1
  3
Metric50
350
2BE
  0
DICTIONARY
  5
69
102
{ACAD_REACTORS
330
C
102
}
330
C
100
AcDbDictionary
281
     1
  3
Standard
350
6A
  0
DICTIONARY
  5
2A
102
{ACAD_REACTORS
330
C
102
}
330
C
100
AcDbDictionary
281
     1
  3
2dWireframe
350
2F
  3
Basic
350
32
  3
Brighten
350
36
  3
ColorChange
350
3A
  3
Conceptual
350
34
  3
Dim
350
35
  3
EdgeColorOff
350
3D
  3
Facepattern
350
39
  3
Flat
350
2B
  3
FlatWithEdges
350
2C
  3
Gouraud
350
2D
  3
GouraudWithEdges
350
2E
  3
Hidden
350
31
  3
JitterOff
350
3B
  3
Linepattern
350
38
  3
OverhangOff
350
3C
  3
Realistic
350
33
  3
Shaded
350
42
  3
Shaded with edges
350
41
  3
Shades of Gray
350
3E
  3
Sketchy
350
3F
  3
Thicken
350
37
  3
Wireframe
350
30
  3
X-Ray
350
40
  0
XRECORD
  5
35E
102
{ACAD_REACTORS
330
C
102
}
330
C
100
AcDbXrecord
280
     1
 90
        1
330
6A
  0
DICTIONARY
  5
276
102
{ACAD_REACTORS
330
C
102
}
330
C
100
AcDbDictionary
281
     1
  3
CANNOSCALE
350
277
  3
CMLEADERSTYLE
350
2B8
  3
CTABLESTYLE
350
2B7
  3
CVIEWDETAILSTYLE
350
359
  3
CVIEWSECTIONSTYLE
350
35A
  3
MSLTSCALE
350
278
  3
XCLIPFRAME
350
35B
  0
XRECORD
  5
342
102
{ACAD_REACTORS
330
341
102
}
330
341
100
AcDbXrecord
280
     1
290
     1
  0
XRECORD
  5
344
102
{ACAD_REACTORS
330
343
102
}
330
343
100
AcDbXrecord
280
     1
290
     1
  0
XRECORD
  5
346
102
{ACAD_REACTORS
330
345
102
}
330
345
100
AcDbXrecord
280
     1
290
     1
  0
XRECORD
  5
348
102
{ACAD_REACTORS
330
347
102
}
330
347
100
AcDbXrecord
280
     1
290
     1
  0
XRECORD
  5
34A
102
{ACAD_REACTORS
330
349
102
}
330
349
100
AcDbXrecord
280
     1
290
     1
  0
XRECORD
  5
34C
102
{ACAD_REACTORS
330
34B
102
}
330
34B
100
AcDbXrecord
280
     1
290
     1
  0
XRECORD
  5
34E
102
{ACAD_REACTORS
330
34D
102
}
330
34D
100
AcDbXrecord
280
     1
290
     1
  0
XRECORD
  5
350
102
{ACAD_REACTORS
330
34F
102
}
330
34F
100
AcDbXrecord
280
     1
290
     1
  0
XRECORD
  5
352
102
{ACAD_REACTORS
330
351
102
}
330
351
100
AcDbXrecord
280
     1
290
     1
  0
XRECORD
  5
354
102
{ACAD_REACTORS
330
353
102
}
330
353
100
AcDbXrecord
280
     1
290
     1
  0
XRECORD
  5
356
102
{ACAD_REACTORS
330
355
102
}
330
355
100
AcDbXrecord
280
     1
290
     1
  0
XRECORD
  5
358
102
{ACAD_REACTORS
330
357
102
}
330
357
100
AcDbXrecord
280
     1
290
     1
  0
SORTENTSTABLE
  5
2C4
102
{ACAD_REACTORS
330
2C3
102
}
330
2C3
100
AcDbSortentsTable
330
1F
331
2C5
  5
1E9
331
2C6
  5
201
331
2C7
  5
249
331
2C8
  5
2C5
331
2C9
  5
2C6
331
2CA
  5
2C7
331
2CB
  5
2D7
331
2CC
  5
2D8
331
2CD
  5
2D9
331
2CE
  5
2DA
331
2CF
  5
2DB
331
2D0
  5
2DC
331
2D1
  5
2DD
331
2D2
  5
2DE
331
2D3
  5
2DF
331
2D4
  5
2E0
331
2D5
  5
2E1
331
2D6
  5
2CA
331
2D7
  5
2CB
331
2D8
  5
2CC
331
2D9
  5
2CD
331
2DA
  5
2CE
331
2DB
  5
2CF
331
2DC
  5
2D0
331
2DD
  5
2D1
331
2DE
  5
2D2
331
2DF
  5
2D3
331
2E0
  5
2D4
331
2E1
  5
2D6
  0
ACDBDETAILVIEWSTYLE
  5
2BF
102
{ACAD_XDICTIONARY
360
392
102
}
102
{ACAD_REACTORS
330
2B9
102
}
330
2B9
100
AcDbModelDocViewStyle
 70
     0
  3
Metric50
290
     0
100
AcDbDetailViewStyle
 70
     0
 71
     0
 90
        3
 71
     1
340
11
 62
   256
 40
5.0
340
0
 62
   256
 40
5.0
300

 40
0.0
280
     1
 71
     2
340
16
 90
       25
 62
   256
 71
     3
340
11
 62
   256
 40
5.0
 90
        0
 40
15.0
 90
        1
300
%<\AcVar ViewDetailId>% (%<\AcVar ViewScale \f "%sn">%)
 71
     4
340
16
 90
       25
 62
   256
340
16
 90
       25
 62
   256
280
     0
  0
GROUP
  5
340
102
{ACAD_REACTORS
330
D
102
}
330
D
100
AcDbGroup
300

 70
     0
 71
     1
340
73
  0
LAYOUT
  5
1E
102
{ACAD_REACTORS
330
1A
102
}
330
1A
100
AcDbPlotSettings
  1

  2
none_device
  4

  6

 40
0.0
 41
0.0
 42
0.0
 43
0.0
 44
0.0
 45
0.0
 46
0.0
 47
0.0
 48
0.0
 49
0.0
140
0.0
141
0.0
142
1.0
143
1.0
 70
   688
 72
     0
 73
     0
 74
     5
  7

 75
    16
147
1.0
 76
     0
 77
     2
 78
   300
148
0.0
149
0.0
100
AcDbLayout
  1
Layout1
 70
     1
 71
     1
 10
-0.5
 20
-0.5
 11
5.0
 21
5.0
 12
0.0
 22
0.0
 32
0.0
 14
-0.5
 24
-0.5
 34
-0.5
 15
5.0
 25
5.0
 35
5.0
146
0.0
 13
0.0
 23
0.0
 33
0.0
 16
1.0
 26
0.0
 36
0.0
 17
0.0
 27
1.0
 37
0.0
 76
     0
330
1B
  0
LAYOUT
  5
26
102
{ACAD_REACTORS
330
1A
102
}
330
1A
100
AcDbPlotSettings
  1

  2
none_device
  4

  6

 40
0.0
 41
0.0
 42
0.0
 43
0.0
 44
0.0
 45
0.0
 46
0.0
 47
0.0
 48
0.0
 49
0.0
140
0.0
141
0.0
142
1.0
143
1.0
 70
   688
 72
     0
 73
     0
 74
     5
  7

 75
    16
147
1.0
 76
     0
 77
     2
 78
   300
148
0.0
149
0.0
100
AcDbLayout
  1
Layout2
 70
     1
 71
     2
 10
0.0
 20
0.0
 11
0.0
 21
0.0
 12
0.0
 22
0.0
 32
0.0
 14
0.0
 24
0.0
 34
0.0
 15
0.0
 25
0.0
 35
0.0
146
0.0
 13
0.0
 23
0.0
 33
0.0
 16
1.0
 26
0.0
 36
0.0
 17
0.0
 27
1.0
 37
0.0
 76
     0
330
23
  0
LAYOUT
  5
22
102
{ACAD_REACTORS
330
1A
102
}
330
1A
100
AcDbPlotSettings
  1

  2
none_device
  4
Letter_(8.50_x_11.00_Inches)
  6

 40
6.349999999999999
 41
6.349999999999999
 42
6.350005
 43
6.350005
 44
215.9
 45
279.4
 46
0.0
 47
0.0
 48
0.0
 49
0.0
140
0.0
141
0.0
142
1.0
143
1.0
 70
  1712
 72
     0
 73
     0
 74
     0
  7

 75
     0
147
1.0
 76
     0
 77
     2
 78
   300
148
0.0
149
0.0
100
AcDbLayout
  1
Model
 70
     1
 71
     0
 10
-0.5
 20
-0.5
 11
5.0
 21
5.0
 12
0.0
 22
0.0
 32
0.0
 14
-0.5
 24
-0.5
 34
-0.5
 15
5.0
 25
5.0
 35
5.0
146
0.0
 13
0.0
 23
0.0
 33
0.0
 16
1.0
 26
0.0
 36
0.0
 17
0.0
 27
1.0
 37
0.0
 76
     0
330
1F
331
29
  0
MATERIAL
  5
45
102
{ACAD_XDICTIONARY
360
2AC
102
}
102
{ACAD_REACTORS
330
43
102
}
330
43
100
AcDbMaterial
  1
ByBlock
  0
MATERIAL
  5
44
102
{ACAD_XDICTIONARY
360
2AA
102
}
102
{ACAD_REACTORS
330
43
102
}
330
43
100
AcDbMaterial
  1
ByLayer
  0
MATERIAL
  5
46
102
{ACAD_XDICTIONARY
360
2AE
102
}
102
{ACAD_REACTORS
330
43
102
}
330
43
100
AcDbMaterial
  1
Global
  0
MLEADERSTYLE
  5
6C
102
{ACAD_REACTORS
330
6B
102
}
330
6B
100
AcDbMLeaderStyle
170
     2
171
     1
172
     0
 90
        2
 40
0.0
 41
0.0
173
     1
 91
-1056964608
340
14
 92
       -2
290
     1
 42
0.09
291
     1
 43
0.36
  3
Standard
 44
0.18
300

342
11
174
     1
178
     6
175
     1
176
     0
 93
-1056964608
 45
0.18
292
     0
297
     0
 46
0.18
 94
-1056964608
 47
1.0
 49
1.0
140
1.0
293
     1
141
0.0
294
     1
177
     0
142
1.0
295
     0
296
     0
143
0.125
1001
ACAD_MLEADERVER
1070
     2
  0
MLINESTYLE
  5
18
102
{ACAD_REACTORS
330
17
102
}
330
17
100
AcDbMlineStyle
  2
STANDARD
 70
     0
  3

 62
   256
 51
90.0
 52
90.0
 71
     2
 49
0.5
 62
   256
  6
BYLAYER
 49
-0.5
 62
   256
  6
BYLAYER
  0
ACDBPLACEHOLDER
  5
F
102
{ACAD_REACTORS
330
E
102
}
330
E
  0
SCALE
  5
48
102
{ACAD_REACTORS
330
47
102
}
330
47
100
AcDbScale
 70
     0
300
1:1
140
1.0
141
1.0
290
     1
  0
SCALE
  5
49
102
{ACAD_REACTORS
330
47
102
}
330
47
100
AcDbScale
 70
     0
300
1:2
140
1.0
141
2.0
290
     0
  0
SCALE
  5
4A
102
{ACAD_REACTORS
330
47
102
}
330
47
100
AcDbScale
 70
     0
300
1:4
140
1.0
141
4.0
290
     0
  0
SCALE
  5
4B
102
{ACAD_REACTORS
330
47
102
}
330
47
100
AcDbScale
 70
     0
300
1:5
140
1.0
141
5.0
290
     0
  0
SCALE
  5
4C
102
{ACAD_REACTORS
330
47
102
}
330
47
100
AcDbScale
 70
     0
300
1:8
140
1.0
141
8.0
290
     0
  0
SCALE
  5
4D
102
{ACAD_REACTORS
330
47
102
}
330
47
100
AcDbScale
 70
     0
300
1:10
140
1.0
141
10.0
290
     0
  0
SCALE
  5
4E
102
{ACAD_REACTORS
330
47
102
}
330
47
100
AcDbScale
 70
     0
300
1:16
140
1.0
141
16.0
290
     0
  0
SCALE
  5
4F
102
{ACAD_REACTORS
330
47
102
}
330
47
100
AcDbScale
 70
     0
300
1:20
140
1.0
141
20.0
290
     0
  0
SCALE
  5
50
102
{ACAD_REACTORS
330
47
102
}
330
47
100
AcDbScale
 70
     0
300
1:30
140
1.0
141
30.0
290
     0
  0
SCALE
  5
51
102
{ACAD_REACTORS
330
47
102
}
330
47
100
AcDbScale
 70
     0
300
1:40
140
1.0
141
40.0
290
     0
  0
SCALE
  5
52
102
{ACAD_REACTORS
330
47
102
}
330
47
100
AcDbScale
 70
     0
300
1:50
140
1.0
141
50.0
290
     0
  0
SCALE
  5
53
102
{ACAD_REACTORS
330
47
102
}
330
47
100
AcDbScale
 70
     0
300
1:100
140
1.0
141
100.0
290
     0
  0
SCALE
  5
54
102
{ACAD_REACTORS
330
47
102
}
330
47
100
AcDbScale
 70
     0
300
2:1
140
2.0
141
1.0
290
     0
  0
SCALE
  5
55
102
{ACAD_REACTORS
330
47
102
}
330
47
100
AcDbScale
 70
     0
300
4:1
140
4.0
141
1.0
290
     0
  0
SCALE
  5
56
102
{ACAD_REACTORS
330
47
102
}
330
47
100
AcDbScale
 70
     0
300
8:1
140
8.0
141
1.0
290
     0
  0
SCALE
  5
57
102
{ACAD_REACTORS
330
47
102
}
330
47
100
AcDbScale
 70
     0
300
10:1
140
10.0
141
1.0
290
     0
  0
SCALE
  5
58
102
{ACAD_REACTORS
330
47
102
}
330
47
100
AcDbScale
 70
     0
300
100:1
140
100.0
141
1.0
290
     0
  0
SCALE
  5
59
102
{ACAD_REACTORS
330
47
102
}
330
47
100
AcDbScale
 70
     0
300
1/128" = 1'-0"
140
0.007812
141
12.0
290
     0
  0
SCALE
  5
5A
102
{ACAD_REACTORS
330
47
102
}
330
47
100
AcDbScale
 70
     0
300
1/64" = 1'-0"
140
0.015625
141
12.0
290
     0
  0
SCALE
  5
5B
102
{ACAD_REACTORS
330
47
102
}
330
47
100
AcDbScale
 70
     0
300
1/32" = 1'-0"
140
0.03125
141
12.0
290
     0
  0
SCALE
  5
5C
102
{ACAD_REACTORS
330
47
102
}
330
47
100
AcDbScale
 70
     0
300
1/16" = 1'-0"
140
0.0625
141
12.0
290
     0
  0
SCALE
  5
5D
102
{ACAD_REACTORS
330
47
102
}
330
47
100
AcDbScale
 70
     0
300
3/32" = 1'-0"
140
0.09375
141
12.0
290
     0
  0
SCALE
  5
5E
102
{ACAD_REACTORS
330
47
102
}
330
47
100
AcDbScale
 70
     0
300
1/8" = 1'-0"
140
0.125
141
12.0
290
     0
  0
SCALE
  5
5F
102
{ACAD_REACTORS
330
47
102
}
330
47
100
AcDbScale
 70
     0
300
3/16" = 1'-0"
140
0.1875
141
12.0
290
     0
  0
SCALE
  5
60
102
{ACAD_REACTORS
330
47
102
}
330
47
100
AcDbScale
 70
     0
300
1/4" = 1'-0"
140
0.25
141
12.0
290
     0
  0
SCALE
  5
61
102
{ACAD_REACTORS
330
47
102
}
330
47
100
AcDbScale
 70
     0
300
3/8" = 1'-0"
140
0.375
141
12.0
290
     0
  0
SCALE
  5
62
102
{ACAD_REACTORS
330
47
102
}
330
47
100
AcDbScale
 70
     0
300
1/2" = 1'-0"
140
0.5
141
12.0
290
     0
  0
SCALE
  5
63
102
{ACAD_REACTORS
330
47
102
}
330
47
100
AcDbScale
 70
     0
300
3/4" = 1'-0"
140
0.75
141
12.0
290
     0
  0
SCALE
  5
64
102
{ACAD_REACTORS
330
47
102
}
330
47
100
AcDbScale
 70
     0
300
1" = 1'-0"
140
1.0
141
12.0
290
     0
  0
SCALE
  5
65
102
{ACAD_REACTORS
330
47
102
}
330
47
100
AcDbScale
 70
     0
300
1-1/2" = 1'-0"
140
1.5
141
12.0
290
     0
  0
SCALE
  5
66
102
{ACAD_REACTORS
330
47
102
}
330
47
100
AcDbScale
 70
     0
300
3" = 1'-0"
140
3.0
141
12.0
290
     0
  0
SCALE
  5
67
102
{ACAD_REACTORS
330
47
102
}
330
47
100
AcDbScale
 70
     0
300
6" = 1'-0"
140
6.0
141
12.0
290
     0
  0
SCALE
  5
68
102
{ACAD_REACTORS
330
47
102
}
330
47
100
AcDbScale
 70
     0
300
1'-0" = 1'-0"
140
12.0
141
12.0
290
     0
  0
ACDBSECTIONVIEWSTYLE
  5
2BE
102
{ACAD_XDICTIONARY
360
390
102
}
102
{ACAD_REACTORS
330
2BA
102
}
330
2BA
100
AcDbModelDocViewStyle
 70
     0
  3
Metric50
290
     0
100
AcDbSectionViewStyle
 70
     0
 71
     0
 90
      102
 71
     1
340
11
 62
   256
 40
5.0
340
0
340
0
 62
   256
 40
5.0
300
I, O, Q, S, X, Z
 40
10.0
 90
        0
 40
2.5
 90
        0
 71
     2
340
16
 90
       25
 62
   256
340
16
 90
       50
 62
   256
 40
5.0
 40
2.5
 40
5.0
 71
     3
340
11
 62
   256
 40
5.0
 90
        0
 40
15.0
 90
        1
300
%<\AcVar ViewSectionStartId>%-%<\AcVar ViewSectionEndId>% (%<\AcVar ViewScale \f "%sn">%)
 71
     4
 62
   256
 62
   257
300
ANSI31
 40
1.0
 90
        0
290
     0
290
     0
 90
        6
 40
0.0
 40
1.570796326794896
 40
0.2617993877991494
 40
1.308996938995747
 40
-0.2617993877991494
 40
1.832595714594046
  0
TABLESTYLE
  5
6A
102
{ACAD_XDICTIONARY
360
2B0
102
}
102
{ACAD_REACTORS
330
69
102
}
330
69
100
AcDbTableStyle
  3
Standard
 70
     0
 71
     0
 40
0.06
 41
0.06
280
     0
281
     0
  7
Standard
140
0.18
170
     2
 62
     0
 63
     7
283
     0
274
    -2
284
     1
 64
     0
275
    -2
285
     1
 65
     0
276
    -2
286
     1
 66
     0
277
    -2
287
     1
 67
     0
278
    -2
288
     1
 68
     0
279
    -2
289
     1
 69
     0
  7
Standard
140
0.25
170
     5
 62
     0
 63
     7
283
     0
274
    -2
284
     1
 64
     0
275
    -2
285
     1
 65
     0
276
    -2
286
     1
 66
     0
277
    -2
287
     1
 67
     0
278
    -2
288
     1
 68
     0
279
    -2
289
     1
 69
     0
  7
Standard
140
0.18
170
     5
 62
     0
 63
     7
283
     0
274
    -2
284
     1
 64
     0
275
    -2
285
     1
 65
     0
276
    -2
286
     1
 66
     0
277
    -2
287
     1
 67
     0
278
    -2
288
     1
 68
     0
279
    -2
289
     1
 69
     0
  0
VISUALSTYLE
  5
2F
102
{ACAD_XDICTIONARY
360
367
102
}
102
{ACAD_REACTORS
330
2A
102
}
330
2A
100
AcDbVisualStyle
  2

 70
     4
 71
     0
 72
     2
 73
     0
 90
        0
 40
-0.6
 41
-30.0
 62
     5
 63
     7
421
 16777215
 74
     1
 91
        4
 64
     7
 65
   257
 75
     1
175
     1
 42
1.0
 92
        0
 66
   257
 43
1.0
 76
     1
 77
     6
 78
     2
 67
     7
 79
     5
170
     0
171
     0
290
     0
174
     0
 93
        1
 44
0.0
173
     0
291
     0
 45
0.0
1001
ACAD
1000
AcDbSavedByObjectVersion
1070
     0
  0
VISUALSTYLE
  5
32
102
{ACAD_XDICTIONARY
360
36D
102
}
102
{ACAD_REACTORS
330
2A
102
}
330
2A
100
AcDbVisualStyle
  2

 70
     7
 71
     1
 72
     0
 73
     1
 90
        0
 40
-0.6
 41
-30.0
 62
     5
 63
     7
421
 16777215
 74
     0
 91
        4
 64
     7
 65
   257
 75
     1
175
     1
 42
1.0
 92
        8
 66
     7
 43
1.0
 76
     1
 77
     6
 78
     2
 67
     7
 79
     5
170
     0
171
     0
290
     0
174
     0
 93
        1
 44
0.0
173
     0
291
     1
 45
0.0
1001
ACAD
1000
AcDbSavedByObjectVersion
1070
     0
  0
VISUALSTYLE
  5
36
102
{ACAD_XDICTIONARY
360
375
102
}
102
{ACAD_REACTORS
330
2A
102
}
330
2A
100
AcDbVisualStyle
  2

 70
    12
 71
     2
 72
     2
 73
     0
 90
        0
 40
-0.6
 41
-30.0
 62
     5
 63
     7
421
 16777215
 74
     1
 91
        4
 64
     7
 65
   257
 75
     1
175
     1
 42
1.0
 92
        8
 66
     7
 43
1.0
 76
     1
 77
     6
 78
     2
 67
     7
 79
     5
170
     0
171
     0
290
     0
174
     0
 93
        1
 44
50.0
173
     0
291
     1
 45
0.0
1001
ACAD
1000
AcDbSavedByObjectVersion
1070
     0
  0
VISUALSTYLE
  5
3A
102
{ACAD_XDICTIONARY
360
37D
102
}
102
{ACAD_REACTORS
330
2A
102
}
330
2A
100
AcDbVisualStyle
  2

 70
    16
 71
     2
 72
     2
 73
     3
 90
        0
 40
-0.6
 41
-30.0
 62
     5
 63
     8
421
  8421504
 74
     1
 91
        4
 64
     7
 65
   257
 75
     1
175
     1
 42
1.0
 92
        8
 66
     8
424
  8421504
 43
1.0
 76
     1
 77
     6
 78
     2
 67
     7
 79
     5
170
     0
171
     0
290
     0
174
     0
 93
        1
 44
0.0
173
     0
291
     1
 45
0.0
1001
ACAD
1000
AcDbSavedByObjectVersion
1070
     0
  0
VISUALSTYLE
  5
34
102
{ACAD_XDICTIONARY
360
371
102
}
102
{ACAD_REACTORS
330
2A
102
}
330
2A
100
AcDbVisualStyle
  2

 70
     9
 71
     3
 72
     2
 73
     0
 90
        0
 40
-0.6
 41
-30.0
 62
     5
 63
     7
421
 16777215
 74
     2
 91
        2
 64
     7
 65
   257
 75
     1
175
     1
 42
179.0
 92
        8
 66
     7
 43
1.0
 76
     1
 77
     6
 78
     2
 67
     7
 79
     3
170
     0
171
     0
290
     0
174
     0
 93
        1
 44
0.0
173
     0
291
     0
 45
0.0
1001
ACAD
1000
AcDbSavedByObjectVersion
1070
     0
  0
VISUALSTYLE
  5
35
102
{ACAD_XDICTIONARY
360
373
102
}
102
{ACAD_REACTORS
330
2A
102
}
330
2A
100
AcDbVisualStyle
  2

 70
    11
 71
     2
 72
     2
 73
     0
 90
        0
 40
-0.6
 41
-30.0
 62
     5
 63
     7
421
 16777215
 74
     1
 91
        4
 64
     7
 65
   257
 75
     1
175
     1
 42
1.0
 92
        8
 66
     7
 43
1.0
 76
     1
 77
     6
 78
     2
 67
     7
 79
     5
170
     0
171
     0
290
     0
174
     0
 93
        1
 44
-50.0
173
     0
291
     1
 45
0.0
1001
ACAD
1000
AcDbSavedByObjectVersion
1070
     0
  0
VISUALSTYLE
  5
3D
102
{ACAD_XDICTIONARY
360
383
102
}
102
{ACAD_REACTORS
330
2A
102
}
330
2A
100
AcDbVisualStyle
  2

 70
    22
 71
     2
 72
     2
 73
     0
 90
        0
 40
-0.6
 41
-30.0
 62
     5
 63
     7
421
 16777215
 74
     1
 91
        4
 64
     7
 65
   257
 75
     1
175
     1
 42
1.0
 92
        8
 66
     7
 43
1.0
 76
     1
 77
     6
 78
     2
 67
     7
 79
     5
170
     0
171
     0
290
     0
174
     0
 93
        1
 44
0.0
173
     0
291
     1
 45
0.0
1001
ACAD
1000
AcDbSavedByObjectVersion
1070
     0
  0
VISUALSTYLE
  5
39
102
{ACAD_XDICTIONARY
360
37B
102
}
102
{ACAD_REACTORS
330
2A
102
}
330
2A
100
AcDbVisualStyle
  2

 70
    15
 71
     2
 72
     2
 73
     0
 90
        0
 40
-0.6
 41
-30.0
 62
     5
 63
     7
421
 16777215
 74
     1
 91
        4
 64
     7
 65
   257
 75
     1
175
     1
 42
1.0
 92
        8
 66
     7
 43
1.0
 76
     1
 77
     6
 78
     2
 67
     7
 79
     5
170
     0
171
     0
290
     0
174
     0
 93
        1
 44
0.0
173
     0
291
     1
 45
0.0
1001
ACAD
1000
AcDbSavedByObjectVersion
1070
     0
  0
VISUALSTYLE
  5
2B
102
{ACAD_XDICTIONARY
360
35F
102
}
102
{ACAD_REACTORS
330
2A
102
}
330
2A
100
AcDbVisualStyle
  2

 70
     0
 71
     2
 72
     1
 73
     1
 90
        2
 40
-0.6
 41
30.0
 62
     5
 63
     7
421
 16777215
 74
     0
 91
        0
 64
     7
 65
   257
 75
     1
175
     1
 42
1.0
 92
        8
 66
     7
 43
1.0
 76
     1
 77
     6
 78
     2
 67
     7
 79
     5
170
     0
171
     0
290
     0
174
     0
 93
       13
 44
0.0
173
     0
291
     1
 45
0.0
1001
ACAD
1000
AcDbSavedByObjectVersion
1070
     0
  0
VISUALSTYLE
  5
2C
102
{ACAD_XDICTIONARY
360
361
102
}
102
{ACAD_REACTORS
330
2A
102
}
330
2A
100
AcDbVisualStyle
  2

 70
     1
 71
     2
 72
     1
 73
     1
 90
        2
 40
-0.6
 41
30.0
 62
     5
 63
     7
421
 16777215
 74
     1
 91
        0
 64
     7
 65
   257
 75
     1
175
     1
 42
1.0
 92
        0
 66
   257
 43
1.0
 76
     1
 77
     6
 78
     2
 67
     7
 79
     5
170
     0
171
     0
290
     0
174
     0
 93
       13
 44
0.0
173
     0
291
     1
 45
0.0
1001
ACAD
1000
AcDbSavedByObjectVersion
1070
     0
  0
VISUALSTYLE
  5
2D
102
{ACAD_XDICTIONARY
360
363
102
}
102
{ACAD_REACTORS
330
2A
102
}
330
2A
100
AcDbVisualStyle
  2

 70
     2
 71
     2
 72
     2
 73
     1
 90
        2
 40
-0.6
 41
30.0
 62
     5
 63
     7
421
 16777215
 74
     0
 91
        0
 64
     7
 65
   257
 75
     1
175
     1
 42
1.0
 92
        0
 66
     7
 43
1.0
 76
     1
 77
     6
 78
     2
 67
     7
 79
     5
170
     0
171
     0
290
     0
174
     0
 93
       13
 44
0.0
173
     0
291
     1
 45
0.0
1001
ACAD
1000
AcDbSavedByObjectVersion
1070
     0
  0
VISUALSTYLE
  5
2E
102
{ACAD_XDICTIONARY
360
365
102
}
102
{ACAD_REACTORS
330
2A
102
}
330
2A
100
AcDbVisualStyle
  2

 70
     3
 71
     2
 72
     2
 73
     1
 90
        2
 40
-0.6
 41
30.0
 62
     5
 63
     7
421
 16777215
 74
     1
 91
        0
 64
     7
 65
   257
 75
     1
175
     1
 42
1.0
 92
        0
 66
   257
 43
1.0
 76
     1
 77
     6
 78
     2
 67
     7
 79
     5
170
     0
171
     0
290
     0
174
     0
 93
       13
 44
0.0
173
     0
291
     1
 45
0.0
1001
ACAD
1000
AcDbSavedByObjectVersion
1070
     0
  0
VISUALSTYLE
  5
31
102
{ACAD_XDICTIONARY
360
36B
102
}
102
{ACAD_REACTORS
330
2A
102
}
330
2A
100
AcDbVisualStyle
  2

 70
     6
 71
     1
 72
     2
 73
     2
 90
        0
 40
-0.6
 41
-30.0
 62
     5
 63
     7
421
 16777215
 74
     2
 91
        2
 64
     7
 65
   257
 75
     2
175
     1
 42
40.0
 92
        0
 66
   257
 43
1.0
 76
     1
 77
     6
 78
     2
 67
     7
 79
     3
170
     0
171
     0
290
     0
174
     0
 93
        1
 44
0.0
173
     0
291
     0
 45
0.0
1001
ACAD
1000
AcDbSavedByObjectVersion
1070
     0
  0
VISUALSTYLE
  5
3B
102
{ACAD_XDICTIONARY
360
37F
102
}
102
{ACAD_REACTORS
330
2A
102
}
330
2A
100
AcDbVisualStyle
  2

 70
    20
 71
     2
 72
     2
 73
     0
 90
        0
 40
-0.6
 41
-30.0
 62
     5
 63
     7
421
 16777215
 74
     1
 91
        4
 64
     7
 65
   257
 75
     1
175
     1
 42
1.0
 92
       10
 66
     7
 43
1.0
 76
     1
 77
     6
 78
     2
 67
     7
 79
     5
170
     0
171
     0
290
     0
174
     0
 93
        1
 44
0.0
173
     0
291
     1
 45
0.0
1001
ACAD
1000
AcDbSavedByObjectVersion
1070
     0
  0
VISUALSTYLE
  5
38
102
{ACAD_XDICTIONARY
360
379
102
}
102
{ACAD_REACTORS
330
2A
102
}
330
2A
100
AcDbVisualStyle
  2

 70
    14
 71
     2
 72
     2
 73
     0
 90
        0
 40
-0.6
 41
-30.0
 62
     5
 63
     7
421
 16777215
 74
     1
 91
        4
 64
     7
 65
   257
 75
     7
175
     7
 42
1.0
 92
        8
 66
     7
 43
1.0
 76
     1
 77
     6
 78
     2
 67
     7
 79
     5
170
     0
171
     0
290
     0
174
     0
 93
        1
 44
0.0
173
     0
291
     1
 45
0.0
1001
ACAD
1000
AcDbSavedByObjectVersion
1070
     0
  0
VISUALSTYLE
  5
3C
102
{ACAD_XDICTIONARY
360
381
102
}
102
{ACAD_REACTORS
330
2A
102
}
330
2A
100
AcDbVisualStyle
  2

 70
    21
 71
     2
 72
     2
 73
     0
 90
        0
 40
-0.6
 41
-30.0
 62
     5
 63
     7
421
 16777215
 74
     1
 91
        4
 64
     7
 65
   257
 75
     1
175
     1
 42
1.0
 92
        9
 66
     7
 43
1.0
 76
     1
 77
     6
 78
     2
 67
     7
 79
     5
170
     0
171
     0
290
     0
174
     0
 93
        1
 44
0.0
173
     0
291
     1
 45
0.0
1001
ACAD
1000
AcDbSavedByObjectVersion
1070
     0
  0
VISUALSTYLE
  5
33
102
{ACAD_XDICTIONARY
360
36F
102
}
102
{ACAD_REACTORS
330
2A
102
}
330
2A
100
AcDbVisualStyle
  2

 70
     8
 71
     2
 72
     3
 73
     0
 90
        2
 40
-0.6
 41
30.0
 62
     5
 63
     7
421
 16777215
 74
     0
 91
        0
 64
     7
 65
   257
 75
     1
175
     1
 42
1.0
 92
        8
 66
   257
 43
1.0
 76
     1
 77
     6
 78
     2
 67
     7
 79
     3
170
     0
171
     0
290
     0
174
     0
 93
       13
 44
0.0
173
     0
291
     0
 45
0.0
1001
ACAD
1000
AcDbSavedByObjectVersion
1070
     0
  0
VISUALSTYLE
  5
42
102
{ACAD_XDICTIONARY
360
38D
102
}
102
{ACAD_REACTORS
330
2A
102
}
330
2A
100
AcDbVisualStyle
  2

 70
    27
 71
     2
 72
     2
 73
     1
 90
        2
 40
-0.6
 41
30.0
 62
     5
 63
     7
421
 16777215
 74
     0
 91
        4
 64
     7
 65
   257
 75
     1
175
     1
 42
1.0
 92
        8
 66
   257
 43
1.0
 76
     1
 77
     6
 78
     2
 67
     8
425
  7895160
 79
     3
170
     0
171
     0
290
     0
174
     0
 93
        5
 44
0.0
173
     0
291
     0
 45
0.0
1001
ACAD
1000
AcDbSavedByObjectVersion
1070
     0
  0
VISUALSTYLE
  5
41
102
{ACAD_XDICTIONARY
360
38B
102
}
102
{ACAD_REACTORS
330
2A
102
}
330
2A
100
AcDbVisualStyle
  2

 70
    26
 71
     2
 72
     2
 73
     1
 90
        2
 40
-0.6
 41
30.0
 62
     5
 63
     7
421
 16777215
 74
     1
 91
       10
 64
     7
 65
   257
 75
     2
175
     1
 42
1.0
 92
        8
 66
   257
 43
1.0
 76
     1
 77
     6
 78
     2
 67
     7
 79
     3
170
     0
171
     0
290
     0
174
     0
 93
        5
 44
0.0
173
     0
291
     0
 45
0.0
1001
ACAD
1000
AcDbSavedByObjectVersion
1070
     0
  0
VISUALSTYLE
  5
3E
102
{ACAD_XDICTIONARY
360
385
102
}
102
{ACAD_REACTORS
330
2A
102
}
330
2A
100
AcDbVisualStyle
  2

 70
    23
 71
     2
 72
     2
 73
     3
 90
        0
 40
-0.6
 41
-30.0
 62
     5
 63
     7
421
 16777215
 74
     2
 91
        2
 64
     7
 65
     7
 75
     1
175
     1
 42
40.0
 92
        8
 66
     7
 43
1.0
 76
     1
 77
     6
 78
     2
 67
     7
 79
     3
170
     0
171
     0
290
     0
174
     0
 93
        1
 44
0.0
173
     0
291
     0
 45
0.0
1001
ACAD
1000
AcDbSavedByObjectVersion
1070
     0
  0
VISUALSTYLE
  5
3F
102
{ACAD_XDICTIONARY
360
387
102
}
102
{ACAD_REACTORS
330
2A
102
}
330
2A
100
AcDbVisualStyle
  2

 70
    24
 71
     1
 72
     2
 73
     2
 90
        0
 40
-0.6
 41
-30.0
 62
     5
 63
     7
421
 16777215
 74
     2
 91
        2
 64
     7
 65
     7
 75
     1
175
     1
 42
40.0
 92
       11
 66
     7
 43
1.0
 76
     1
 77
     6
 78
     2
 67
     7
 79
     6
170
     0
171
     0
290
     0
174
     0
 93
        1
 44
0.0
173
     0
291
     0
 45
0.0
1001
ACAD
1000
AcDbSavedByObjectVersion
1070
     0
  0
VISUALSTYLE
  5
37
102
{ACAD_XDICTIONARY
360
377
102
}
102
{ACAD_REACTORS
330
2A
102
}
330
2A
100
AcDbVisualStyle
  2

 70
    13
 71
     2
 72
     2
 73
     0
 90
        0
 40
-0.6
 41
-30.0
 62
     5
 63
     7
421
 16777215
 74
     1
 91
        4
 64
     7
 65
   257
 75
     1
175
     1
 42
1.0
 92
       12
 66
     7
 43
1.0
 76
     1
 77
     6
 78
     2
 67
     7
 79
     5
170
     0
171
     0
290
     0
174
     0
 93
        1
 44
0.0
173
     0
291
     1
 45
0.0
1001
ACAD
1000
AcDbSavedByObjectVersion
1070
     0
  0
VISUALSTYLE
  5
30
102
{ACAD_XDICTIONARY
360
369
102
}
102
{ACAD_REACTORS
330
2A
102
}
330
2A
100
AcDbVisualStyle
  2

 70
     5
 71
     0
 72
     2
 73
     0
 90
        0
 40
-0.6
 41
-30.0
 62
     5
 63
     7
421
 16777215
 74
     1
 91
        4
 64
     7
 65
   257
 75
     1
175
     1
 42
1.0
 92
        0
 66
   257
 43
1.0
 76
     1
 77
     6
 78
     2
 67
     7
 79
     3
170
     0
171
     0
290
     0
174
     0
 93
        1
 44
0.0
173
     0
291
     0
 45
0.0
1001
ACAD
1000
AcDbSavedByObjectVersion
1070
     0
  0
VISUALSTYLE
  5
40
102
{ACAD_XDICTIONARY
360
389
102
}
102
{ACAD_REACTORS
330
2A
102
}
330
2A
100
AcDbVisualStyle
  2

 70
    25
 71
     2
 72
     2
 73
     1
 90
        1
 40
0.5
 41
-30.0
 62
     5
 63
     7
421
 16777215
 74
     1
 91
        0
 64
     7
 65
   257
 75
     1
175
     1
 42
1.0
 92
        8
 66
     7
 43
1.0
 76
     1
 77
     6
 78
     2
 67
     7
 79
     3
170
     0
171
     0
290
     0
174
     0
 93
       13
 44
0.0
173
     0
291
     0
 45
0.0
1001
ACAD
1000
AcDbSavedByObjectVersion
1070
     0
  0
DICTIONARYVAR
  5
277
102
{ACAD_REACTORS
330
276
102
}
330
276
100
DictionaryVariables
280
     0
  1
1:1
  0
DICTIONARYVAR
  5
2B8
102
{ACAD_REACTORS
330
276
102
}
330
276
100
DictionaryVariables
280
     0
  1
STANDARD
  0
DICTIONARYVAR
  5
2B7
102
{ACAD_REACTORS
330
276
102
}
330
276
100
DictionaryVariables
280
     0
  1
STANDARD
  0
DICTIONARYVAR
  5
359
102
{ACAD_REACTORS
330
276
102
}
330
276
100
DictionaryVariables
280
     0
  1
Metric50
  0
DICTIONARYVAR
  5
35A
102
{ACAD_REACTORS
330
276
102
}
330
276
100
DictionaryVariables
280
     0
  1
Metric50
  0
DICTIONARYVAR
  5
278
102
{ACAD_REACTORS
330
276
102
}
330
276
100
DictionaryVariables
280
     0
  1
1
  0
DICTIONARYVAR
  5
35B
102
{ACAD_REACTORS
330
276
102
}
330
276
100
DictionaryVariables
280
     0
  1
2
  0
DICTIONARY
  5
392
330
2BF
100
AcDbDictionary
280
     1
281
     1
  3
ACAD_XREC_ROUNDTRIP
360
393
  0
DICTIONARY
  5
2AC
330
45
100
AcDbDictionary
280
     1
281
     1
  3
ACAD_XREC_ROUNDTRIP
360
2AD
  0
DICTIONARY
  5
2AA
330
44
100
AcDbDictionary
280
     1
281
     1
  3
ACAD_XREC_ROUNDTRIP
360
2AB
  0
DICTIONARY
  5
2AE
330
46
100
AcDbDictionary
280
     1
281
     1
  3
ACAD_XREC_ROUNDTRIP
360
2AF
  0
DICTIONARY
  5
390
330
2BE
100
AcDbDictionary
280
     1
281
     1
  3
ACAD_XREC_ROUNDTRIP
360
391
  0
DICTIONARY
  5
2B0
330
6A
100
AcDbDictionary
280
     1
281
     1
  3
ACAD_ROUNDTRIP_2008_TABLESTYLE_CELLSTYLEMAP
360
35D
  3
ACAD_XREC_ROUNDTRIP
360
38F
  0
DICTIONARY
  5
367
330
2F
100
AcDbDictionary
280
     1
281
     1
  3
ACAD_XREC_ROUNDTRIP
360
368
  0
DICTIONARY
  5
36D
330
32
100
AcDbDictionary
280
     1
281
     1
  3
ACAD_XREC_ROUNDTRIP
360
36E
  0
DICTIONARY
  5
375
330
36
100
AcDbDictionary
280
     1
281
     1
  3
ACAD_XREC_ROUNDTRIP
360
376
  0
DICTIONARY
  5
37D
330
3A
100
AcDbDictionary
280
     1
281
     1
  3
ACAD_XREC_ROUNDTRIP
360
37E
  0
DICTIONARY
  5
371
330
34
100
AcDbDictionary
280
     1
281
     1
  3
ACAD_XREC_ROUNDTRIP
360
372
  0
DICTIONARY
  5
373
330
35
100
AcDbDictionary
280
     1
281
     1
  3
ACAD_XREC_ROUNDTRIP
360
374
  0
DICTIONARY
  5
383
330
3D
100
AcDbDictionary
280
     1
281
     1
  3
ACAD_XREC_ROUNDTRIP
360
384
  0
DICTIONARY
  5
37B
330
39
100
AcDbDictionary
280
     1
281
     1
  3
ACAD_XREC_ROUNDTRIP
360
37C
  0
DICTIONARY
  5
35F
330
2B
100
AcDbDictionary
280
     1
281
     1
  3
ACAD_XREC_ROUNDTRIP
360
360
  0
DICTIONARY
  5
361
330
2C
100
AcDbDictionary
280
     1
281
     1
  3
ACAD_XREC_ROUNDTRIP
360
362
  0
DICTIONARY
  5
363
330
2D
100
AcDbDictionary
280
     1
281
     1
  3
ACAD_XREC_ROUNDTRIP
360
364
  0
DICTIONARY
  5
365
330
2E
100
AcDbDictionary
280
     1
281
     1
  3
ACAD_XREC_ROUNDTRIP
360
366
  0
DICTIONARY
  5
36B
330
31
100
AcDbDictionary
280
     1
281
     1
  3
ACAD_XREC_ROUNDTRIP
360
36C
  0
DICTIONARY
  5
37F
330
3B
100
AcDbDictionary
280
     1
281
     1
  3
ACAD_XREC_ROUNDTRIP
360
380
  0
DICTIONARY
  5
379
330
38
100
AcDbDictionary
280
     1
281
     1
  3
ACAD_XREC_ROUNDTRIP
360
37A
  0
DICTIONARY
  5
381
330
3C
100
AcDbDictionary
280
     1
281
     1
  3
ACAD_XREC_ROUNDTRIP
360
382
  0
DICTIONARY
  5
36F
330
33
100
AcDbDictionary
280
     1
281
     1
  3
ACAD_XREC_ROUNDTRIP
360
370
  0
DICTIONARY
  5
38D
330
42
100
AcDbDictionary
280
     1
281
     1
  3
ACAD_XREC_ROUNDTRIP
360
38E
  0
DICTIONARY
  5
38B
330
41
100
AcDbDictionary
280
     1
281
     1
  3
ACAD_XREC_ROUNDTRIP
360
38C
  0
DICTIONARY
  5
385
330
3E
100
AcDbDictionary
280
     1
281
     1
  3
ACAD_XREC_ROUNDTRIP
360
386
  0
DICTIONARY
  5
387
330
3F
100
AcDbDictionary
280
     1
281
     1
  3
ACAD_XREC_ROUNDTRIP
360
388
  0
DICTIONARY
  5
377
330
37
100
AcDbDictionary
280
     1
281
     1
  3
ACAD_XREC_ROUNDTRIP
360
378
  0
DICTIONARY
  5
369
330
30
100
AcDbDictionary
280
     1
281
     1
  3
ACAD_XREC_ROUNDTRIP
360
36A
  0
DICTIONARY
  5
389
330
40
100
AcDbDictionary
280
     1
281
     1
  3
ACAD_XREC_ROUNDTRIP
360
38A
  0
XRECORD
  5
393
102
{ACAD_REACTORS
330
392
102
}
330
392
100
AcDbXrecord
280
     1
102
DISPLAYNAME
  1
Metric50
102
FLAGS
 90
        0
  0
XRECORD
  5
2AD
102
{ACAD_REACTORS
330
2AC
102
}
330
2AC
100
AcDbXrecord
280
     1
102
MATERIAL
148
0.0
149
0.0
149
0.0
 93
        0
 94
      127
282
     0
 72
     1
 77
     1
171
     1
175
     1
179
     1
273
     0
  0
XRECORD
  5
2AB
102
{ACAD_REACTORS
330
2AA
102
}
330
2AA
100
AcDbXrecord
280
     1
102
MATERIAL
148
0.0
149
0.0
149
0.0
 93
        0
 94
      127
282
     0
 72
     1
 77
     1
171
     1
175
     1
179
     1
273
     0
  0
XRECORD
  5
2AF
102
{ACAD_REACTORS
330
2AE
102
}
330
2AE
100
AcDbXrecord
280
     1
102
MATERIAL
148
0.0
149
0.0
149
0.0
 93
        0
 94
      127
282
     0
 72
     1
 77
     1
171
     1
175
     1
179
     1
273
     0
  0
XRECORD
  5
391
102
{ACAD_REACTORS
330
390
102
}
330
390
100
AcDbXrecord
280
     1
102
DISPLAYNAME
  1
Metric50
102
FLAGS
 90
        0
  0
CELLSTYLEMAP
  5
35D
102
{ACAD_REACTORS
330
2B0
102
}
330
2B0
100
AcDbCellStyleMap
 90
        3
300
CELLSTYLE
  1
TABLEFORMAT_BEGIN
 90
        5
170
     1
 91
        0
 92
    32768
 62
   257
 93
        1
300
CONTENTFORMAT
  1
CONTENTFORMAT_BEGIN
 90
        0
 91
        0
 92
        4
 93
        0
300

 40
0.0
140
1.0
 94
        5
 62
     0
340
11
144
0.25
309
CONTENTFORMAT_END
171
     1
301
MARGIN
  1
CELLMARGIN_BEGIN
 40
0.06
 40
0.06
 40
0.06
 40
0.06
 40
0.18
 40
0.18
309
CELLMARGIN_END
 94
        6
 95
        1
302
GRIDFORMAT
  1
GRIDFORMAT_BEGIN
 90
        0
 91
        1
 62
     0
 92
       -2
340
14
 93
        0
 40
0.045
309
GRIDFORMAT_END
 95
        2
302
GRIDFORMAT
  1
GRIDFORMAT_BEGIN
 90
        0
 91
        1
 62
     0
 92
       -2
340
14
 93
        0
 40
0.045
309
GRIDFORMAT_END
 95
        4
302
GRIDFORMAT
  1
GRIDFORMAT_BEGIN
 90
        0
 91
        1
 62
     0
 92
       -2
340
14
 93
        0
 40
0.045
309
GRIDFORMAT_END
 95
        8
302
GRIDFORMAT
  1
GRIDFORMAT_BEGIN
 90
        0
 91
        1
 62
     0
 92
       -2
340
14
 93
        0
 40
0.045
309
GRIDFORMAT_END
 95
       16
302
GRIDFORMAT
  1
GRIDFORMAT_BEGIN
 90
        0
 91
        1
 62
     0
 92
       -2
340
14
 93
        0
 40
0.045
309
GRIDFORMAT_END
 95
       32
302
GRIDFORMAT
  1
GRIDFORMAT_BEGIN
 90
        0
 91
        1
 62
     0
 92
       -2
340
14
 93
        0
 40
0.045
309
GRIDFORMAT_END
309
TABLEFORMAT_END
  1
CELLSTYLE_BEGIN
 90
        1
 91
        1
300
_TITLE
309
CELLSTYLE_END
300
CELLSTYLE
  1
TABLEFORMAT_BEGIN
 90
        5
170
     1
 91
        0
 92
        0
 62
   257
 93
        1
300
CONTENTFORMAT
  1
CONTENTFORMAT_BEGIN
 90
        0
 91
        0
 92
        4
 93
        0
300

 40
0.0
140
1.0
 94
        5
 62
     0
340
11
144
0.18
309
CONTENTFORMAT_END
171
     1
301
MARGIN
  1
CELLMARGIN_BEGIN
 40
0.06
 40
0.06
 40
0.06
 40
0.06
 40
0.18
 40
0.18
309
CELLMARGIN_END
 94
        6
 95
        1
302
GRIDFORMAT
  1
GRIDFORMAT_BEGIN
 90
        0
 91
        1
 62
     0
 92
       -2
340
14
 93
        0
 40
0.045
309
GRIDFORMAT_END
 95
        2
302
GRIDFORMAT
  1
GRIDFORMAT_BEGIN
 90
        0
 91
        1
 62
     0
 92
       -2
340
14
 93
        0
 40
0.045
309
GRIDFORMAT_END
 95
        4
302
GRIDFORMAT
  1
GRIDFORMAT_BEGIN
 90
        0
 91
        1
 62
     0
 92
       -2
340
14
 93
        0
 40
0.045
309
GRIDFORMAT_END
 95
        8
302
GRIDFORMAT
  1
GRIDFORMAT_BEGIN
 90
        0
 91
        1
 62
     0
 92
       -2
340
14
 93
        0
 40
0.045
309
GRIDFORMAT_END
 95
       16
302
GRIDFORMAT
  1
GRIDFORMAT_BEGIN
 90
        0
 91
        1
 62
     0
 92
       -2
340
14
 93
        0
 40
0.045
309
GRIDFORMAT_END
 95
       32
302
GRIDFORMAT
  1
GRIDFORMAT_BEGIN
 90
        0
 91
        1
 62
     0
 92
       -2
340
14
 93
        0
 40
0.045
309
GRIDFORMAT_END
309
TABLEFORMAT_END
  1
CELLSTYLE_BEGIN
 90
        2
 91
        1
300
_HEADER
309
CELLSTYLE_END
300
CELLSTYLE
  1
TABLEFORMAT_BEGIN
 90
        5
170
     1
 91
        0
 92
        0
 62
   257
 93
        1
300
CONTENTFORMAT
  1
CONTENTFORMAT_BEGIN
 90
        0
 91
        0
 92
        4
 93
        0
300

 40
0.0
140
1.0
 94
        2
 62
     0
340
11
144
0.18
309
CONTENTFORMAT_END
171
     1
301
MARGIN
  1
CELLMARGIN_BEGIN
 40
0.06
 40
0.06
 40
0.06
 40
0.06
 40
0.18
 40
0.18
309
CELLMARGIN_END
 94
        6
 95
        1
302
GRIDFORMAT
  1
GRIDFORMAT_BEGIN
 90
        0
 91
        1
 62
     0
 92
       -2
340
14
 93
        0
 40
0.045
309
GRIDFORMAT_END
 95
        2
302
GRIDFORMAT
  1
GRIDFORMAT_BEGIN
 90
        0
 91
        1
 62
     0
 92
       -2
340
14
 93
        0
 40
0.045
309
GRIDFORMAT_END
 95
        4
302
GRIDFORMAT
  1
GRIDFORMAT_BEGIN
 90
        0
 91
        1
 62
     0
 92
       -2
340
14
 93
        0
 40
0.045
309
GRIDFORMAT_END
 95
        8
302
GRIDFORMAT
  1
GRIDFORMAT_BEGIN
 90
        0
 91
        1
 62
     0
 92
       -2
340
14
 93
        0
 40
0.045
309
GRIDFORMAT_END
 95
       16
302
GRIDFORMAT
  1
GRIDFORMAT_BEGIN
 90
        0
 91
        1
 62
     0
 92
       -2
340
14
 93
        0
 40
0.045
309
GRIDFORMAT_END
 95
       32
302
GRIDFORMAT
  1
GRIDFORMAT_BEGIN
 90
        0
 91
        1
 62
     0
 92
       -2
340
14
 93
        0
 40
0.045
309
GRIDFORMAT_END
309
TABLEFORMAT_END
  1
CELLSTYLE_BEGIN
 90
        3
 91
        2
300
_DATA
309
CELLSTYLE_END
  0
XRECORD
  5
38F
102
{ACAD_REACTORS
330
2B0
102
}
330
2B0
100
AcDbXrecord
280
     1
102
ACAD_ROUNDTRIP_PRE2007_TABLESTYLE
 90
        4
 91
        0
  1

 92
        4
 93
        0
  2

 94
        4
 95
        0
  3

  0
XRECORD
  5
368
102
{ACAD_REACTORS
330
367
102
}
330
367
100
AcDbXrecord
280
     1
102
RTVSPost2010Prop28
280
     1
102
RTVSPost2010PropOp28
 70
     1
102
RTVSPost2010Prop29
280
     1
102
RTVSPost2010PropOp29
 70
     1
102
RTVSPost2010Prop30
280
     0
102
RTVSPost2010PropOp30
 70
     1
102
RTVSPost2010Prop31
280
     0
102
RTVSPost2010PropOp31
 70
     1
102
RTVSPost2010Prop32
280
     0
102
RTVSPost2010PropOp32
 70
     1
102
RTVSPost2010Prop33
280
     0
102
RTVSPost2010PropOp33
 70
     1
102
RTVSPost2010Prop34
280
     0
102
RTVSPost2010PropOp34
 70
     1
102
RTVSPost2010Prop35
280
     0
102
RTVSPost2010PropOp35
 70
     1
102
RTVSPost2010Prop36
280
     0
102
RTVSPost2010PropOp36
 70
     1
102
RTVSPost2010Prop37
 90
       50
102
RTVSPost2010PropOp37
 70
     1
102
RTVSPost2010Prop38
140
0.0
102
RTVSPost2010PropOp38
 70
     1
102
RTVSPost2010Prop39
140
1.0
102
RTVSPost2010PropOp39
 70
     1
102
RTVSPost2010Prop40
 90
        0
102
RTVSPost2010PropOp40
 70
     1
102
RTVSPost2010Prop41ColorIndex
 90
       18
102
RTVSPost2010Prop41ColorRGB
 90
        0
102
RTVSPost2010PropOp41
 70
     1
102
RTVSPost2010Prop42
 90
       50
102
RTVSPost2010PropOp42
 70
     1
102
RTVSPost2010Prop43
 90
        3
102
RTVSPost2010PropOp43
 70
     1
102
RTVSPost2010Prop44ColorIndex
 90
        5
102
RTVSPost2010Prop44ColorRGB
 90
      255
102
RTVSPost2010PropOp44
 70
     1
102
RTVSPost2010Prop45
280
     0
102
RTVSPost2010PropOp45
 70
     1
102
RTVSPost2010Prop46
 90
       50
102
RTVSPost2010PropOp46
 70
     1
102
RTVSPost2010Prop47
 90
       50
102
RTVSPost2010PropOp47
 70
     1
102
RTVSPost2010Prop48
 90
       50
102
RTVSPost2010PropOp48
 70
     1
102
RTVSPost2010Prop49
280
     0
102
RTVSPost2010PropOp49
 70
     1
102
RTVSPost2010Prop50
 90
       50
102
RTVSPost2010PropOp50
 70
     1
102
RTVSPost2010Prop51ColorIndex
 90
      256
102
RTVSPost2010Prop51ColorRGB
 90
-16777216
102
RTVSPost2010PropOp51
 70
     0
102
RTVSPost2010Prop52
140
1.0
102
RTVSPost2010PropOp52
 70
     0
102
RTVSPost2010Prop53
 90
        2
102
RTVSPost2010PropOp53
 70
     1
102
RTVSPost2010Prop54
  1
strokes_ogs.tif
102
RTVSPost2010PropOp54
 70
     1
102
RTVSPost2010Prop55
280
     0
102
RTVSPost2010PropOp55
 70
     1
102
RTVSPost2010Prop56
140
1.0
102
RTVSPost2010PropOp56
 70
     1
102
RTVSPost2010Prop57
140
1.0
102
RTVSPost2010PropOp57
 70
     1
102
RTVSPropertyOp0
 70
     1
102
RTVSPropertyOp1
 70
     1
102
RTVSPropertyOp2
 70
     1
102
RTVSPropertyOp3
 70
     1
102
RTVSPropertyOp4
 70
     1
102
RTVSPropertyOp5
 70
     1
102
RTVSPropertyOp6
 70
     1
102
RTVSPropertyOp7
 70
     1
102
RTVSPropertyOp8
 70
     1
102
RTVSPropertyOp9
 70
     1
102
RTVSPropertyOp10
 70
     1
102
RTVSPropertyOp11
 70
     1
102
RTVSPropertyOp12
 70
     1
102
RTVSPropertyOp13
 70
     1
102
RTVSPropertyOp14
 70
     1
102
RTVSPropertyOp15
 70
     1
102
RTVSPropertyOp16
 70
     1
102
RTVSPropertyOp17
 70
     1
102
RTVSPropertyOp18
 70
     1
102
RTVSPropertyOp19
 70
     1
102
RTVSPropertyOp20
 70
     1
102
RTVSPropertyOp21
 70
     1
102
RTVSPropertyOp22
 70
     1
102
RTVSPropertyOp23
 70
     1
102
RTVSPropertyOp24
 70
     1
102
RTVSPropertyOp25
 70
     1
102
RTVSPropertyOp26
 70
     1
102
RTVSPropertyOp27
 70
     1
102
RTVSPropertyOp28
 70
     1
102
RTVSPropertyOp29
 70
     1
102
RTVSPropertyOp30
 70
     1
102
RTVSPropertyOp31
 70
     1
102
RTVSPropertyOp32
 70
     1
102
RTVSPropertyOp33
 70
     1
102
RTVSPropertyOp34
 70
     1
102
RTVSPropertyOp35
 70
     1
102
RTVSPropertyOp36
 70
     1
102
RTVSPropertyOp37
 70
     1
102
RTVSPropertyOp38
 70
     1
102
RTVSPropertyOp39
 70
     1
102
RTVSPropertyOp40
 70
     1
102
RTVSPropertyOp41
 70
     1
102
RTVSPropertyOp42
 70
     1
102
RTVSPropertyOp43
 70
     1
102
RTVSPropertyOp44
 70
     1
102
RTVSPropertyOp45
 70
     1
102
RTVSPropertyOp46
 70
     1
102
RTVSPropertyOp47
 70
     1
102
RTVSPropertyOp48
 70
     1
102
RTVSPropertyOp49
 70
     1
102
RTVSPropertyOp50
 70
     1
102
RTVSPropertyOp51
 70
     0
102
RTVSPropertyOp52
 70
     0
102
RTVSPropertyOp53
 70
     1
102
RTVSPropertyOp54
 70
     1
102
RTVSPropertyOp55
 70
     1
102
RTVSPropertyOp56
 70
     1
102
RTVSPropertyOp57
 70
     1
102
RTVSPropertyOp58
 70
     1
102
RTVSPropertyOp59
 70
     1
102
RTVSPropertyOp60
 70
     1
102
RTVSPropertyOp61
 70
     1
102
RTVSPropertyOp62
 70
     1
  0
XRECORD
  5
36E
102
{ACAD_REACTORS
330
36D
102
}
330
36D
100
AcDbXrecord
280
     1
102
RTVSPost2010Prop28
280
     0
102
RTVSPost2010PropOp28
 70
     1
102
RTVSPost2010Prop29
280
     1
102
RTVSPost2010PropOp29
 70
     1
102
RTVSPost2010Prop30
280
     1
102
RTVSPost2010PropOp30
 70
     1
102
RTVSPost2010Prop31
280
     0
102
RTVSPost2010PropOp31
 70
     1
102
RTVSPost2010Prop32
280
     0
102
RTVSPost2010PropOp32
 70
     1
102
RTVSPost2010Prop33
280
     0
102
RTVSPost2010PropOp33
 70
     1
102
RTVSPost2010Prop34
280
     0
102
RTVSPost2010PropOp34
 70
     1
102
RTVSPost2010Prop35
280
     0
102
RTVSPost2010PropOp35
 70
     1
102
RTVSPost2010Prop36
280
     0
102
RTVSPost2010PropOp36
 70
     1
102
RTVSPost2010Prop37
 90
       50
102
RTVSPost2010PropOp37
 70
     1
102
RTVSPost2010Prop38
140
0.0
102
RTVSPost2010PropOp38
 70
     1
102
RTVSPost2010Prop39
140
1.0
102
RTVSPost2010PropOp39
 70
     1
102
RTVSPost2010Prop40
 90
        0
102
RTVSPost2010PropOp40
 70
     1
102
RTVSPost2010Prop41ColorIndex
 90
       18
102
RTVSPost2010Prop41ColorRGB
 90
        0
102
RTVSPost2010PropOp41
 70
     1
102
RTVSPost2010Prop42
 90
       50
102
RTVSPost2010PropOp42
 70
     1
102
RTVSPost2010Prop43
 90
        3
102
RTVSPost2010PropOp43
 70
     1
102
RTVSPost2010Prop44ColorIndex
 90
        5
102
RTVSPost2010Prop44ColorRGB
 90
      255
102
RTVSPost2010PropOp44
 70
     1
102
RTVSPost2010Prop45
280
     0
102
RTVSPost2010PropOp45
 70
     1
102
RTVSPost2010Prop46
 90
       50
102
RTVSPost2010PropOp46
 70
     1
102
RTVSPost2010Prop47
 90
       50
102
RTVSPost2010PropOp47
 70
     1
102
RTVSPost2010Prop48
 90
       50
102
RTVSPost2010PropOp48
 70
     1
102
RTVSPost2010Prop49
280
     0
102
RTVSPost2010PropOp49
 70
     1
102
RTVSPost2010Prop50
 90
       50
102
RTVSPost2010PropOp50
 70
     1
102
RTVSPost2010Prop51ColorIndex
 90
      256
102
RTVSPost2010Prop51ColorRGB
 90
-16777216
102
RTVSPost2010PropOp51
 70
     0
102
RTVSPost2010Prop52
140
1.0
102
RTVSPost2010PropOp52
 70
     0
102
RTVSPost2010Prop53
 90
        2
102
RTVSPost2010PropOp53
 70
     1
102
RTVSPost2010Prop54
  1
strokes_ogs.tif
102
RTVSPost2010PropOp54
 70
     1
102
RTVSPost2010Prop55
280
     0
102
RTVSPost2010PropOp55
 70
     1
102
RTVSPost2010Prop56
140
1.0
102
RTVSPost2010PropOp56
 70
     1
102
RTVSPost2010Prop57
140
1.0
102
RTVSPost2010PropOp57
 70
     1
102
RTVSPropertyOp0
 70
     1
102
RTVSPropertyOp1
 70
     1
102
RTVSPropertyOp2
 70
     1
102
RTVSPropertyOp3
 70
     1
102
RTVSPropertyOp4
 70
     1
102
RTVSPropertyOp5
 70
     1
102
RTVSPropertyOp6
 70
     1
102
RTVSPropertyOp7
 70
     1
102
RTVSPropertyOp8
 70
     1
102
RTVSPropertyOp9
 70
     1
102
RTVSPropertyOp10
 70
     1
102
RTVSPropertyOp11
 70
     1
102
RTVSPropertyOp12
 70
     1
102
RTVSPropertyOp13
 70
     1
102
RTVSPropertyOp14
 70
     1
102
RTVSPropertyOp15
 70
     1
102
RTVSPropertyOp16
 70
     1
102
RTVSPropertyOp17
 70
     1
102
RTVSPropertyOp18
 70
     1
102
RTVSPropertyOp19
 70
     1
102
RTVSPropertyOp20
 70
     1
102
RTVSPropertyOp21
 70
     1
102
RTVSPropertyOp22
 70
     1
102
RTVSPropertyOp23
 70
     1
102
RTVSPropertyOp24
 70
     1
102
RTVSPropertyOp25
 70
     1
102
RTVSPropertyOp26
 70
     1
102
RTVSPropertyOp27
 70
     1
102
RTVSPropertyOp28
 70
     1
102
RTVSPropertyOp29
 70
     1
102
RTVSPropertyOp30
 70
     1
102
RTVSPropertyOp31
 70
     1
102
RTVSPropertyOp32
 70
     1
102
RTVSPropertyOp33
 70
     1
102
RTVSPropertyOp34
 70
     1
102
RTVSPropertyOp35
 70
     1
102
RTVSPropertyOp36
 70
     1
102
RTVSPropertyOp37
 70
     1
102
RTVSPropertyOp38
 70
     1
102
RTVSPropertyOp39
 70
     1
102
RTVSPropertyOp40
 70
     1
102
RTVSPropertyOp41
 70
     1
102
RTVSPropertyOp42
 70
     1
102
RTVSPropertyOp43
 70
     1
102
RTVSPropertyOp44
 70
     1
102
RTVSPropertyOp45
 70
     1
102
RTVSPropertyOp46
 70
     1
102
RTVSPropertyOp47
 70
     1
102
RTVSPropertyOp48
 70
     1
102
RTVSPropertyOp49
 70
     1
102
RTVSPropertyOp50
 70
     1
102
RTVSPropertyOp51
 70
     0
102
RTVSPropertyOp52
 70
     0
102
RTVSPropertyOp53
 70
     1
102
RTVSPropertyOp54
 70
     1
102
RTVSPropertyOp55
 70
     1
102
RTVSPropertyOp56
 70
     1
102
RTVSPropertyOp57
 70
     1
102
RTVSPropertyOp58
 70
     1
102
RTVSPropertyOp59
 70
     1
102
RTVSPropertyOp60
 70
     1
102
RTVSPropertyOp61
 70
     1
102
RTVSPropertyOp62
 70
     1
  0
XRECORD
  5
376
102
{ACAD_REACTORS
330
375
102
}
330
375
100
AcDbXrecord
280
     1
102
RTVSPost2010Prop28
280
     0
102
RTVSPost2010PropOp28
 70
     1
102
RTVSPost2010Prop29
280
     1
102
RTVSPost2010PropOp29
 70
     1
102
RTVSPost2010Prop30
280
     1
102
RTVSPost2010PropOp30
 70
     1
102
RTVSPost2010Prop31
280
     0
102
RTVSPost2010PropOp31
 70
     1
102
RTVSPost2010Prop32
280
     0
102
RTVSPost2010PropOp32
 70
     1
102
RTVSPost2010Prop33
280
     0
102
RTVSPost2010PropOp33
 70
     1
102
RTVSPost2010Prop34
280
     0
102
RTVSPost2010PropOp34
 70
     1
102
RTVSPost2010Prop35
280
     0
102
RTVSPost2010PropOp35
 70
     1
102
RTVSPost2010Prop36
280
     0
102
RTVSPost2010PropOp36
 70
     1
102
RTVSPost2010Prop37
 90
       50
102
RTVSPost2010PropOp37
 70
     1
102
RTVSPost2010Prop38
140
0.0
102
RTVSPost2010PropOp38
 70
     1
102
RTVSPost2010Prop39
140
1.0
102
RTVSPost2010PropOp39
 70
     1
102
RTVSPost2010Prop40
 90
        0
102
RTVSPost2010PropOp40
 70
     1
102
RTVSPost2010Prop41ColorIndex
 90
       18
102
RTVSPost2010Prop41ColorRGB
 90
        0
102
RTVSPost2010PropOp41
 70
     1
102
RTVSPost2010Prop42
 90
       50
102
RTVSPost2010PropOp42
 70
     1
102
RTVSPost2010Prop43
 90
        3
102
RTVSPost2010PropOp43
 70
     1
102
RTVSPost2010Prop44ColorIndex
 90
        5
102
RTVSPost2010Prop44ColorRGB
 90
      255
102
RTVSPost2010PropOp44
 70
     1
102
RTVSPost2010Prop45
280
     0
102
RTVSPost2010PropOp45
 70
     1
102
RTVSPost2010Prop46
 90
       50
102
RTVSPost2010PropOp46
 70
     1
102
RTVSPost2010Prop47
 90
       50
102
RTVSPost2010PropOp47
 70
     1
102
RTVSPost2010Prop48
 90
       50
102
RTVSPost2010PropOp48
 70
     1
102
RTVSPost2010Prop49
280
     0
102
RTVSPost2010PropOp49
 70
     1
102
RTVSPost2010Prop50
 90
       50
102
RTVSPost2010PropOp50
 70
     1
102
RTVSPost2010Prop51ColorIndex
 90
      256
102
RTVSPost2010Prop51ColorRGB
 90
-16777216
102
RTVSPost2010PropOp51
 70
     0
102
RTVSPost2010Prop52
140
1.0
102
RTVSPost2010PropOp52
 70
     0
102
RTVSPost2010Prop53
 90
        2
102
RTVSPost2010PropOp53
 70
     1
102
RTVSPost2010Prop54
  1
strokes_ogs.tif
102
RTVSPost2010PropOp54
 70
     1
102
RTVSPost2010Prop55
280
     0
102
RTVSPost2010PropOp55
 70
     1
102
RTVSPost2010Prop56
140
1.0
102
RTVSPost2010PropOp56
 70
     1
102
RTVSPost2010Prop57
140
1.0
102
RTVSPost2010PropOp57
 70
     1
102
RTVSPropertyOp0
 70
     1
102
RTVSPropertyOp1
 70
     1
102
RTVSPropertyOp2
 70
     1
102
RTVSPropertyOp3
 70
     1
102
RTVSPropertyOp4
 70
     1
102
RTVSPropertyOp5
 70
     1
102
RTVSPropertyOp6
 70
     1
102
RTVSPropertyOp7
 70
     1
102
RTVSPropertyOp8
 70
     1
102
RTVSPropertyOp9
 70
     1
102
RTVSPropertyOp10
 70
     1
102
RTVSPropertyOp11
 70
     1
102
RTVSPropertyOp12
 70
     1
102
RTVSPropertyOp13
 70
     1
102
RTVSPropertyOp14
 70
     1
102
RTVSPropertyOp15
 70
     1
102
RTVSPropertyOp16
 70
     1
102
RTVSPropertyOp17
 70
     1
102
RTVSPropertyOp18
 70
     1
102
RTVSPropertyOp19
 70
     1
102
RTVSPropertyOp20
 70
     1
102
RTVSPropertyOp21
 70
     1
102
RTVSPropertyOp22
 70
     1
102
RTVSPropertyOp23
 70
     1
102
RTVSPropertyOp24
 70
     1
102
RTVSPropertyOp25
 70
     1
102
RTVSPropertyOp26
 70
     1
102
RTVSPropertyOp27
 70
     1
102
RTVSPropertyOp28
 70
     1
102
RTVSPropertyOp29
 70
     1
102
RTVSPropertyOp30
 70
     1
102
RTVSPropertyOp31
 70
     1
102
RTVSPropertyOp32
 70
     1
102
RTVSPropertyOp33
 70
     1
102
RTVSPropertyOp34
 70
     1
102
RTVSPropertyOp35
 70
     1
102
RTVSPropertyOp36
 70
     1
102
RTVSPropertyOp37
 70
     1
102
RTVSPropertyOp38
 70
     1
102
RTVSPropertyOp39
 70
     1
102
RTVSPropertyOp40
 70
     1
102
RTVSPropertyOp41
 70
     1
102
RTVSPropertyOp42
 70
     1
102
RTVSPropertyOp43
 70
     1
102
RTVSPropertyOp44
 70
     1
102
RTVSPropertyOp45
 70
     1
102
RTVSPropertyOp46
 70
     1
102
RTVSPropertyOp47
 70
     1
102
RTVSPropertyOp48
 70
     1
102
RTVSPropertyOp49
 70
     1
102
RTVSPropertyOp50
 70
     1
102
RTVSPropertyOp51
 70
     0
102
RTVSPropertyOp52
 70
     0
102
RTVSPropertyOp53
 70
     1
102
RTVSPropertyOp54
 70
     1
102
RTVSPropertyOp55
 70
     1
102
RTVSPropertyOp56
 70
     1
102
RTVSPropertyOp57
 70
     1
102
RTVSPropertyOp58
 70
     1
102
RTVSPropertyOp59
 70
     1
102
RTVSPropertyOp60
 70
     1
102
RTVSPropertyOp61
 70
     1
102
RTVSPropertyOp62
 70
     1
  0
XRECORD
  5
37E
102
{ACAD_REACTORS
330
37D
102
}
330
37D
100
AcDbXrecord
280
     1
102
RTVSPost2010Prop28
280
     0
102
RTVSPost2010PropOp28
 70
     1
102
RTVSPost2010Prop29
280
     1
102
RTVSPost2010PropOp29
 70
     1
102
RTVSPost2010Prop30
280
     1
102
RTVSPost2010PropOp30
 70
     1
102
RTVSPost2010Prop31
280
     0
102
RTVSPost2010PropOp31
 70
     1
102
RTVSPost2010Prop32
280
     0
102
RTVSPost2010PropOp32
 70
     1
102
RTVSPost2010Prop33
280
     0
102
RTVSPost2010PropOp33
 70
     1
102
RTVSPost2010Prop34
280
     0
102
RTVSPost2010PropOp34
 70
     1
102
RTVSPost2010Prop35
280
     0
102
RTVSPost2010PropOp35
 70
     1
102
RTVSPost2010Prop36
280
     0
102
RTVSPost2010PropOp36
 70
     1
102
RTVSPost2010Prop37
 90
       50
102
RTVSPost2010PropOp37
 70
     1
102
RTVSPost2010Prop38
140
0.0
102
RTVSPost2010PropOp38
 70
     1
102
RTVSPost2010Prop39
140
1.0
102
RTVSPost2010PropOp39
 70
     1
102
RTVSPost2010Prop40
 90
        0
102
RTVSPost2010PropOp40
 70
     1
102
RTVSPost2010Prop41ColorIndex
 90
       18
102
RTVSPost2010Prop41ColorRGB
 90
        0
102
RTVSPost2010PropOp41
 70
     1
102
RTVSPost2010Prop42
 90
       50
102
RTVSPost2010PropOp42
 70
     1
102
RTVSPost2010Prop43
 90
        3
102
RTVSPost2010PropOp43
 70
     1
102
RTVSPost2010Prop44ColorIndex
 90
        5
102
RTVSPost2010Prop44ColorRGB
 90
      255
102
RTVSPost2010PropOp44
 70
     1
102
RTVSPost2010Prop45
280
     0
102
RTVSPost2010PropOp45
 70
     1
102
RTVSPost2010Prop46
 90
       50
102
RTVSPost2010PropOp46
 70
     1
102
RTVSPost2010Prop47
 90
       50
102
RTVSPost2010PropOp47
 70
     1
102
RTVSPost2010Prop48
 90
       50
102
RTVSPost2010PropOp48
 70
     1
102
RTVSPost2010Prop49
280
     0
102
RTVSPost2010PropOp49
 70
     1
102
RTVSPost2010Prop50
 90
       50
102
RTVSPost2010PropOp50
 70
     1
102
RTVSPost2010Prop51ColorIndex
 90
      256
102
RTVSPost2010Prop51ColorRGB
 90
-16777216
102
RTVSPost2010PropOp51
 70
     0
102
RTVSPost2010Prop52
140
1.0
102
RTVSPost2010PropOp52
 70
     0
102
RTVSPost2010Prop53
 90
        2
102
RTVSPost2010PropOp53
 70
     1
102
RTVSPost2010Prop54
  1
strokes_ogs.tif
102
RTVSPost2010PropOp54
 70
     1
102
RTVSPost2010Prop55
280
     0
102
RTVSPost2010PropOp55
 70
     1
102
RTVSPost2010Prop56
140
1.0
102
RTVSPost2010PropOp56
 70
     1
102
RTVSPost2010Prop57
140
1.0
102
RTVSPost2010PropOp57
 70
     1
102
RTVSPropertyOp0
 70
     1
102
RTVSPropertyOp1
 70
     1
102
RTVSPropertyOp2
 70
     1
102
RTVSPropertyOp3
 70
     1
102
RTVSPropertyOp4
 70
     1
102
RTVSPropertyOp5
 70
     1
102
RTVSPropertyOp6
 70
     1
102
RTVSPropertyOp7
 70
     1
102
RTVSPropertyOp8
 70
     1
102
RTVSPropertyOp9
 70
     1
102
RTVSPropertyOp10
 70
     1
102
RTVSPropertyOp11
 70
     1
102
RTVSPropertyOp12
 70
     1
102
RTVSPropertyOp13
 70
     1
102
RTVSPropertyOp14
 70
     1
102
RTVSPropertyOp15
 70
     1
102
RTVSPropertyOp16
 70
     1
102
RTVSPropertyOp17
 70
     1
102
RTVSPropertyOp18
 70
     1
102
RTVSPropertyOp19
 70
     1
102
RTVSPropertyOp20
 70
     1
102
RTVSPropertyOp21
 70
     1
102
RTVSPropertyOp22
 70
     1
102
RTVSPropertyOp23
 70
     1
102
RTVSPropertyOp24
 70
     1
102
RTVSPropertyOp25
 70
     1
102
RTVSPropertyOp26
 70
     1
102
RTVSPropertyOp27
 70
     1
102
RTVSPropertyOp28
 70
     1
102
RTVSPropertyOp29
 70
     1
102
RTVSPropertyOp30
 70
     1
102
RTVSPropertyOp31
 70
     1
102
RTVSPropertyOp32
 70
     1
102
RTVSPropertyOp33
 70
     1
102
RTVSPropertyOp34
 70
     1
102
RTVSPropertyOp35
 70
     1
102
RTVSPropertyOp36
 70
     1
102
RTVSPropertyOp37
 70
     1
102
RTVSPropertyOp38
 70
     1
102
RTVSPropertyOp39
 70
     1
102
RTVSPropertyOp40
 70
     1
102
RTVSPropertyOp41
 70
     1
102
RTVSPropertyOp42
 70
     1
102
RTVSPropertyOp43
 70
     1
102
RTVSPropertyOp44
 70
     1
102
RTVSPropertyOp45
 70
     1
102
RTVSPropertyOp46
 70
     1
102
RTVSPropertyOp47
 70
     1
102
RTVSPropertyOp48
 70
     1
102
RTVSPropertyOp49
 70
     1
102
RTVSPropertyOp50
 70
     1
102
RTVSPropertyOp51
 70
     0
102
RTVSPropertyOp52
 70
     0
102
RTVSPropertyOp53
 70
     1
102
RTVSPropertyOp54
 70
     1
102
RTVSPropertyOp55
 70
     1
102
RTVSPropertyOp56
 70
     1
102
RTVSPropertyOp57
 70
     1
102
RTVSPropertyOp58
 70
     1
102
RTVSPropertyOp59
 70
     1
102
RTVSPropertyOp60
 70
     1
102
RTVSPropertyOp61
 70
     1
102
RTVSPropertyOp62
 70
     1
  0
XRECORD
  5
372
102
{ACAD_REACTORS
330
371
102
}
330
371
100
AcDbXrecord
280
     1
102
RTVSPost2010Prop28
280
     0
102
RTVSPost2010PropOp28
 70
     1
102
RTVSPost2010Prop29
280
     1
102
RTVSPost2010PropOp29
 70
     1
102
RTVSPost2010Prop30
280
     1
102
RTVSPost2010PropOp30
 70
     1
102
RTVSPost2010Prop31
280
     0
102
RTVSPost2010PropOp31
 70
     1
102
RTVSPost2010Prop32
280
     0
102
RTVSPost2010PropOp32
 70
     1
102
RTVSPost2010Prop33
280
     0
102
RTVSPost2010PropOp33
 70
     1
102
RTVSPost2010Prop34
280
     0
102
RTVSPost2010PropOp34
 70
     1
102
RTVSPost2010Prop35
280
     0
102
RTVSPost2010PropOp35
 70
     1
102
RTVSPost2010Prop36
280
     0
102
RTVSPost2010PropOp36
 70
     1
102
RTVSPost2010Prop37
 90
       50
102
RTVSPost2010PropOp37
 70
     1
102
RTVSPost2010Prop38
140
0.0
102
RTVSPost2010PropOp38
 70
     1
102
RTVSPost2010Prop39
140
1.0
102
RTVSPost2010PropOp39
 70
     1
102
RTVSPost2010Prop40
 90
        0
102
RTVSPost2010PropOp40
 70
     1
102
RTVSPost2010Prop41ColorIndex
 90
       18
102
RTVSPost2010Prop41ColorRGB
 90
        0
102
RTVSPost2010PropOp41
 70
     1
102
RTVSPost2010Prop42
 90
       50
102
RTVSPost2010PropOp42
 70
     1
102
RTVSPost2010Prop43
 90
        3
102
RTVSPost2010PropOp43
 70
     1
102
RTVSPost2010Prop44ColorIndex
 90
        5
102
RTVSPost2010Prop44ColorRGB
 90
      255
102
RTVSPost2010PropOp44
 70
     1
102
RTVSPost2010Prop45
280
     0
102
RTVSPost2010PropOp45
 70
     1
102
RTVSPost2010Prop46
 90
       50
102
RTVSPost2010PropOp46
 70
     1
102
RTVSPost2010Prop47
 90
       50
102
RTVSPost2010PropOp47
 70
     1
102
RTVSPost2010Prop48
 90
       50
102
RTVSPost2010PropOp48
 70
     1
102
RTVSPost2010Prop49
280
     0
102
RTVSPost2010PropOp49
 70
     1
102
RTVSPost2010Prop50
 90
       50
102
RTVSPost2010PropOp50
 70
     1
102
RTVSPost2010Prop51ColorIndex
 90
      256
102
RTVSPost2010Prop51ColorRGB
 90
-16777216
102
RTVSPost2010PropOp51
 70
     0
102
RTVSPost2010Prop52
140
1.0
102
RTVSPost2010PropOp52
 70
     0
102
RTVSPost2010Prop53
 90
        2
102
RTVSPost2010PropOp53
 70
     1
102
RTVSPost2010Prop54
  1
strokes_ogs.tif
102
RTVSPost2010PropOp54
 70
     1
102
RTVSPost2010Prop55
280
     0
102
RTVSPost2010PropOp55
 70
     1
102
RTVSPost2010Prop56
140
1.0
102
RTVSPost2010PropOp56
 70
     1
102
RTVSPost2010Prop57
140
1.0
102
RTVSPost2010PropOp57
 70
     1
102
RTVSPropertyOp0
 70
     1
102
RTVSPropertyOp1
 70
     1
102
RTVSPropertyOp2
 70
     1
102
RTVSPropertyOp3
 70
     1
102
RTVSPropertyOp4
 70
     1
102
RTVSPropertyOp5
 70
     1
102
RTVSPropertyOp6
 70
     1
102
RTVSPropertyOp7
 70
     1
102
RTVSPropertyOp8
 70
     1
102
RTVSPropertyOp9
 70
     1
102
RTVSPropertyOp10
 70
     1
102
RTVSPropertyOp11
 70
     1
102
RTVSPropertyOp12
 70
     1
102
RTVSPropertyOp13
 70
     1
102
RTVSPropertyOp14
 70
     1
102
RTVSPropertyOp15
 70
     1
102
RTVSPropertyOp16
 70
     1
102
RTVSPropertyOp17
 70
     1
102
RTVSPropertyOp18
 70
     1
102
RTVSPropertyOp19
 70
     1
102
RTVSPropertyOp20
 70
     1
102
RTVSPropertyOp21
 70
     1
102
RTVSPropertyOp22
 70
     1
102
RTVSPropertyOp23
 70
     1
102
RTVSPropertyOp24
 70
     1
102
RTVSPropertyOp25
 70
     1
102
RTVSPropertyOp26
 70
     1
102
RTVSPropertyOp27
 70
     1
102
RTVSPropertyOp28
 70
     1
102
RTVSPropertyOp29
 70
     1
102
RTVSPropertyOp30
 70
     1
102
RTVSPropertyOp31
 70
     1
102
RTVSPropertyOp32
 70
     1
102
RTVSPropertyOp33
 70
     1
102
RTVSPropertyOp34
 70
     1
102
RTVSPropertyOp35
 70
     1
102
RTVSPropertyOp36
 70
     1
102
RTVSPropertyOp37
 70
     1
102
RTVSPropertyOp38
 70
     1
102
RTVSPropertyOp39
 70
     1
102
RTVSPropertyOp40
 70
     1
102
RTVSPropertyOp41
 70
     1
102
RTVSPropertyOp42
 70
     1
102
RTVSPropertyOp43
 70
     1
102
RTVSPropertyOp44
 70
     1
102
RTVSPropertyOp45
 70
     1
102
RTVSPropertyOp46
 70
     1
102
RTVSPropertyOp47
 70
     1
102
RTVSPropertyOp48
 70
     1
102
RTVSPropertyOp49
 70
     1
102
RTVSPropertyOp50
 70
     1
102
RTVSPropertyOp51
 70
     0
102
RTVSPropertyOp52
 70
     0
102
RTVSPropertyOp53
 70
     1
102
RTVSPropertyOp54
 70
     1
102
RTVSPropertyOp55
 70
     1
102
RTVSPropertyOp56
 70
     1
102
RTVSPropertyOp57
 70
     1
102
RTVSPropertyOp58
 70
     1
102
RTVSPropertyOp59
 70
     1
102
RTVSPropertyOp60
 70
     1
102
RTVSPropertyOp61
 70
     1
102
RTVSPropertyOp62
 70
     1
  0
XRECORD
  5
374
102
{ACAD_REACTORS
330
373
102
}
330
373
100
AcDbXrecord
280
     1
102
RTVSPost2010Prop28
280
     0
102
RTVSPost2010PropOp28
 70
     1
102
RTVSPost2010Prop29
280
     1
102
RTVSPost2010PropOp29
 70
     1
102
RTVSPost2010Prop30
280
     1
102
RTVSPost2010PropOp30
 70
     1
102
RTVSPost2010Prop31
280
     0
102
RTVSPost2010PropOp31
 70
     1
102
RTVSPost2010Prop32
280
     0
102
RTVSPost2010PropOp32
 70
     1
102
RTVSPost2010Prop33
280
     0
102
RTVSPost2010PropOp33
 70
     1
102
RTVSPost2010Prop34
280
     0
102
RTVSPost2010PropOp34
 70
     1
102
RTVSPost2010Prop35
280
     0
102
RTVSPost2010PropOp35
 70
     1
102
RTVSPost2010Prop36
280
     0
102
RTVSPost2010PropOp36
 70
     1
102
RTVSPost2010Prop37
 90
       50
102
RTVSPost2010PropOp37
 70
     1
102
RTVSPost2010Prop38
140
0.0
102
RTVSPost2010PropOp38
 70
     1
102
RTVSPost2010Prop39
140
1.0
102
RTVSPost2010PropOp39
 70
     1
102
RTVSPost2010Prop40
 90
        0
102
RTVSPost2010PropOp40
 70
     1
102
RTVSPost2010Prop41ColorIndex
 90
       18
102
RTVSPost2010Prop41ColorRGB
 90
        0
102
RTVSPost2010PropOp41
 70
     1
102
RTVSPost2010Prop42
 90
       50
102
RTVSPost2010PropOp42
 70
     1
102
RTVSPost2010Prop43
 90
        3
102
RTVSPost2010PropOp43
 70
     1
102
RTVSPost2010Prop44ColorIndex
 90
        5
102
RTVSPost2010Prop44ColorRGB
 90
      255
102
RTVSPost2010PropOp44
 70
     1
102
RTVSPost2010Prop45
280
     0
102
RTVSPost2010PropOp45
 70
     1
102
RTVSPost2010Prop46
 90
       50
102
RTVSPost2010PropOp46
 70
     1
102
RTVSPost2010Prop47
 90
       50
102
RTVSPost2010PropOp47
 70
     1
102
RTVSPost2010Prop48
 90
       50
102
RTVSPost2010PropOp48
 70
     1
102
RTVSPost2010Prop49
280
     0
102
RTVSPost2010PropOp49
 70
     1
102
RTVSPost2010Prop50
 90
       50
102
RTVSPost2010PropOp50
 70
     1
102
RTVSPost2010Prop51ColorIndex
 90
      256
102
RTVSPost2010Prop51ColorRGB
 90
-16777216
102
RTVSPost2010PropOp51
 70
     0
102
RTVSPost2010Prop52
140
1.0
102
RTVSPost2010PropOp52
 70
     0
102
RTVSPost2010Prop53
 90
        2
102
RTVSPost2010PropOp53
 70
     1
102
RTVSPost2010Prop54
  1
strokes_ogs.tif
102
RTVSPost2010PropOp54
 70
     1
102
RTVSPost2010Prop55
280
     0
102
RTVSPost2010PropOp55
 70
     1
102
RTVSPost2010Prop56
140
1.0
102
RTVSPost2010PropOp56
 70
     1
102
RTVSPost2010Prop57
140
1.0
102
RTVSPost2010PropOp57
 70
     1
102
RTVSPropertyOp0
 70
     1
102
RTVSPropertyOp1
 70
     1
102
RTVSPropertyOp2
 70
     1
102
RTVSPropertyOp3
 70
     1
102
RTVSPropertyOp4
 70
     1
102
RTVSPropertyOp5
 70
     1
102
RTVSPropertyOp6
 70
     1
102
RTVSPropertyOp7
 70
     1
102
RTVSPropertyOp8
 70
     1
102
RTVSPropertyOp9
 70
     1
102
RTVSPropertyOp10
 70
     1
102
RTVSPropertyOp11
 70
     1
102
RTVSPropertyOp12
 70
     1
102
RTVSPropertyOp13
 70
     1
102
RTVSPropertyOp14
 70
     1
102
RTVSPropertyOp15
 70
     1
102
RTVSPropertyOp16
 70
     1
102
RTVSPropertyOp17
 70
     1
102
RTVSPropertyOp18
 70
     1
102
RTVSPropertyOp19
 70
     1
102
RTVSPropertyOp20
 70
     1
102
RTVSPropertyOp21
 70
     1
102
RTVSPropertyOp22
 70
     1
102
RTVSPropertyOp23
 70
     1
102
RTVSPropertyOp24
 70
     1
102
RTVSPropertyOp25
 70
     1
102
RTVSPropertyOp26
 70
     1
102
RTVSPropertyOp27
 70
     1
102
RTVSPropertyOp28
 70
     1
102
RTVSPropertyOp29
 70
     1
102
RTVSPropertyOp30
 70
     1
102
RTVSPropertyOp31
 70
     1
102
RTVSPropertyOp32
 70
     1
102
RTVSPropertyOp33
 70
     1
102
RTVSPropertyOp34
 70
     1
102
RTVSPropertyOp35
 70
     1
102
RTVSPropertyOp36
 70
     1
102
RTVSPropertyOp37
 70
     1
102
RTVSPropertyOp38
 70
     1
102
RTVSPropertyOp39
 70
     1
102
RTVSPropertyOp40
 70
     1
102
RTVSPropertyOp41
 70
     1
102
RTVSPropertyOp42
 70
     1
102
RTVSPropertyOp43
 70
     1
102
RTVSPropertyOp44
 70
     1
102
RTVSPropertyOp45
 70
     1
102
RTVSPropertyOp46
 70
     1
102
RTVSPropertyOp47
 70
     1
102
RTVSPropertyOp48
 70
     1
102
RTVSPropertyOp49
 70
     1
102
RTVSPropertyOp50
 70
     1
102
RTVSPropertyOp51
 70
     0
102
RTVSPropertyOp52
 70
     0
102
RTVSPropertyOp53
 70
     1
102
RTVSPropertyOp54
 70
     1
102
RTVSPropertyOp55
 70
     1
102
RTVSPropertyOp56
 70
     1
102
RTVSPropertyOp57
 70
     1
102
RTVSPropertyOp58
 70
     1
102
RTVSPropertyOp59
 70
     1
102
RTVSPropertyOp60
 70
     1
102
RTVSPropertyOp61
 70
     1
102
RTVSPropertyOp62
 70
     1
  0
XRECORD
  5
384
102
{ACAD_REACTORS
330
383
102
}
330
383
100
AcDbXrecord
280
     1
102
RTVSPost2010Prop28
280
     0
102
RTVSPost2010PropOp28
 70
     0
102
RTVSPost2010Prop29
280
     1
102
RTVSPost2010PropOp29
 70
     0
102
RTVSPost2010Prop30
280
     1
102
RTVSPost2010PropOp30
 70
     0
102
RTVSPost2010Prop31
280
     0
102
RTVSPost2010PropOp31
 70
     0
102
RTVSPost2010Prop32
280
     0
102
RTVSPost2010PropOp32
 70
     0
102
RTVSPost2010Prop33
280
     0
102
RTVSPost2010PropOp33
 70
     0
102
RTVSPost2010Prop34
280
     0
102
RTVSPost2010PropOp34
 70
     0
102
RTVSPost2010Prop35
280
     0
102
RTVSPost2010PropOp35
 70
     0
102
RTVSPost2010Prop36
280
     0
102
RTVSPost2010PropOp36
 70
     0
102
RTVSPost2010Prop37
 90
       50
102
RTVSPost2010PropOp37
 70
     0
102
RTVSPost2010Prop38
140
0.0
102
RTVSPost2010PropOp38
 70
     0
102
RTVSPost2010Prop39
140
1.0
102
RTVSPost2010PropOp39
 70
     0
102
RTVSPost2010Prop40
 90
        0
102
RTVSPost2010PropOp40
 70
     0
102
RTVSPost2010Prop41ColorIndex
 90
       18
102
RTVSPost2010Prop41ColorRGB
 90
        0
102
RTVSPost2010PropOp41
 70
     0
102
RTVSPost2010Prop42
 90
       50
102
RTVSPost2010PropOp42
 70
     0
102
RTVSPost2010Prop43
 90
        3
102
RTVSPost2010PropOp43
 70
     0
102
RTVSPost2010Prop44ColorIndex
 90
        5
102
RTVSPost2010Prop44ColorRGB
 90
      255
102
RTVSPost2010PropOp44
 70
     0
102
RTVSPost2010Prop45
280
     0
102
RTVSPost2010PropOp45
 70
     0
102
RTVSPost2010Prop46
 90
       50
102
RTVSPost2010PropOp46
 70
     0
102
RTVSPost2010Prop47
 90
       50
102
RTVSPost2010PropOp47
 70
     0
102
RTVSPost2010Prop48
 90
       50
102
RTVSPost2010PropOp48
 70
     0
102
RTVSPost2010Prop49
280
     0
102
RTVSPost2010PropOp49
 70
     0
102
RTVSPost2010Prop50
 90
       50
102
RTVSPost2010PropOp50
 70
     0
102
RTVSPost2010Prop51ColorIndex
 90
      256
102
RTVSPost2010Prop51ColorRGB
 90
-16777216
102
RTVSPost2010PropOp51
 70
     0
102
RTVSPost2010Prop52
140
1.0
102
RTVSPost2010PropOp52
 70
     0
102
RTVSPost2010Prop53
 90
        2
102
RTVSPost2010PropOp53
 70
     0
102
RTVSPost2010Prop54
  1
strokes_ogs.tif
102
RTVSPost2010PropOp54
 70
     0
102
RTVSPost2010Prop55
280
     0
102
RTVSPost2010PropOp55
 70
     0
102
RTVSPost2010Prop56
140
1.0
102
RTVSPost2010PropOp56
 70
     0
102
RTVSPost2010Prop57
140
1.0
102
RTVSPost2010PropOp57
 70
     0
102
RTVSPropertyOp0
 70
     0
102
RTVSPropertyOp1
 70
     0
102
RTVSPropertyOp2
 70
     0
102
RTVSPropertyOp3
 70
     0
102
RTVSPropertyOp4
 70
     0
102
RTVSPropertyOp5
 70
     0
102
RTVSPropertyOp6
 70
     0
102
RTVSPropertyOp7
 70
     0
102
RTVSPropertyOp8
 70
     0
102
RTVSPropertyOp9
 70
     0
102
RTVSPropertyOp10
 70
     0
102
RTVSPropertyOp11
 70
     0
102
RTVSPropertyOp12
 70
     0
102
RTVSPropertyOp13
 70
     0
102
RTVSPropertyOp14
 70
     2
102
RTVSPropertyOp15
 70
     0
102
RTVSPropertyOp16
 70
     0
102
RTVSPropertyOp17
 70
     0
102
RTVSPropertyOp18
 70
     0
102
RTVSPropertyOp19
 70
     0
102
RTVSPropertyOp20
 70
     0
102
RTVSPropertyOp21
 70
     0
102
RTVSPropertyOp22
 70
     0
102
RTVSPropertyOp23
 70
     0
102
RTVSPropertyOp24
 70
     0
102
RTVSPropertyOp25
 70
     0
102
RTVSPropertyOp26
 70
     0
102
RTVSPropertyOp27
 70
     0
102
RTVSPropertyOp28
 70
     0
102
RTVSPropertyOp29
 70
     0
102
RTVSPropertyOp30
 70
     0
102
RTVSPropertyOp31
 70
     0
102
RTVSPropertyOp32
 70
     0
102
RTVSPropertyOp33
 70
     0
102
RTVSPropertyOp34
 70
     0
102
RTVSPropertyOp35
 70
     0
102
RTVSPropertyOp36
 70
     0
102
RTVSPropertyOp37
 70
     0
102
RTVSPropertyOp38
 70
     0
102
RTVSPropertyOp39
 70
     0
102
RTVSPropertyOp40
 70
     0
102
RTVSPropertyOp41
 70
     0
102
RTVSPropertyOp42
 70
     0
102
RTVSPropertyOp43
 70
     0
102
RTVSPropertyOp44
 70
     0
102
RTVSPropertyOp45
 70
     0
102
RTVSPropertyOp46
 70
     0
102
RTVSPropertyOp47
 70
     0
102
RTVSPropertyOp48
 70
     0
102
RTVSPropertyOp49
 70
     0
102
RTVSPropertyOp50
 70
     0
102
RTVSPropertyOp51
 70
     0
102
RTVSPropertyOp52
 70
     0
102
RTVSPropertyOp53
 70
     0
102
RTVSPropertyOp54
 70
     0
102
RTVSPropertyOp55
 70
     0
102
RTVSPropertyOp56
 70
     0
102
RTVSPropertyOp57
 70
     0
102
RTVSPropertyOp58
 70
     1
102
RTVSPropertyOp59
 70
     1
102
RTVSPropertyOp60
 70
     1
102
RTVSPropertyOp61
 70
     1
102
RTVSPropertyOp62
 70
     1
  0
XRECORD
  5
37C
102
{ACAD_REACTORS
330
37B
102
}
330
37B
100
AcDbXrecord
280
     1
102
RTVSPost2010Prop28
280
     0
102
RTVSPost2010PropOp28
 70
     1
102
RTVSPost2010Prop29
280
     1
102
RTVSPost2010PropOp29
 70
     1
102
RTVSPost2010Prop30
280
     1
102
RTVSPost2010PropOp30
 70
     1
102
RTVSPost2010Prop31
280
     0
102
RTVSPost2010PropOp31
 70
     1
102
RTVSPost2010Prop32
280
     0
102
RTVSPost2010PropOp32
 70
     1
102
RTVSPost2010Prop33
280
     0
102
RTVSPost2010PropOp33
 70
     1
102
RTVSPost2010Prop34
280
     0
102
RTVSPost2010PropOp34
 70
     1
102
RTVSPost2010Prop35
280
     0
102
RTVSPost2010PropOp35
 70
     1
102
RTVSPost2010Prop36
280
     0
102
RTVSPost2010PropOp36
 70
     1
102
RTVSPost2010Prop37
 90
       50
102
RTVSPost2010PropOp37
 70
     1
102
RTVSPost2010Prop38
140
0.0
102
RTVSPost2010PropOp38
 70
     1
102
RTVSPost2010Prop39
140
1.0
102
RTVSPost2010PropOp39
 70
     1
102
RTVSPost2010Prop40
 90
        0
102
RTVSPost2010PropOp40
 70
     1
102
RTVSPost2010Prop41ColorIndex
 90
       18
102
RTVSPost2010Prop41ColorRGB
 90
        0
102
RTVSPost2010PropOp41
 70
     1
102
RTVSPost2010Prop42
 90
       50
102
RTVSPost2010PropOp42
 70
     1
102
RTVSPost2010Prop43
 90
        3
102
RTVSPost2010PropOp43
 70
     1
102
RTVSPost2010Prop44ColorIndex
 90
        5
102
RTVSPost2010Prop44ColorRGB
 90
      255
102
RTVSPost2010PropOp44
 70
     1
102
RTVSPost2010Prop45
280
     0
102
RTVSPost2010PropOp45
 70
     1
102
RTVSPost2010Prop46
 90
       50
102
RTVSPost2010PropOp46
 70
     1
102
RTVSPost2010Prop47
 90
       50
102
RTVSPost2010PropOp47
 70
     1
102
RTVSPost2010Prop48
 90
       50
102
RTVSPost2010PropOp48
 70
     1
102
RTVSPost2010Prop49
280
     0
102
RTVSPost2010PropOp49
 70
     1
102
RTVSPost2010Prop50
 90
       50
102
RTVSPost2010PropOp50
 70
     1
102
RTVSPost2010Prop51ColorIndex
 90
      256
102
RTVSPost2010Prop51ColorRGB
 90
-16777216
102
RTVSPost2010PropOp51
 70
     0
102
RTVSPost2010Prop52
140
1.0
102
RTVSPost2010PropOp52
 70
     0
102
RTVSPost2010Prop53
 90
        2
102
RTVSPost2010PropOp53
 70
     1
102
RTVSPost2010Prop54
  1
strokes_ogs.tif
102
RTVSPost2010PropOp54
 70
     1
102
RTVSPost2010Prop55
280
     0
102
RTVSPost2010PropOp55
 70
     1
102
RTVSPost2010Prop56
140
1.0
102
RTVSPost2010PropOp56
 70
     1
102
RTVSPost2010Prop57
140
1.0
102
RTVSPost2010PropOp57
 70
     1
102
RTVSPropertyOp0
 70
     1
102
RTVSPropertyOp1
 70
     1
102
RTVSPropertyOp2
 70
     1
102
RTVSPropertyOp3
 70
     1
102
RTVSPropertyOp4
 70
     1
102
RTVSPropertyOp5
 70
     1
102
RTVSPropertyOp6
 70
     1
102
RTVSPropertyOp7
 70
     1
102
RTVSPropertyOp8
 70
     1
102
RTVSPropertyOp9
 70
     1
102
RTVSPropertyOp10
 70
     1
102
RTVSPropertyOp11
 70
     1
102
RTVSPropertyOp12
 70
     1
102
RTVSPropertyOp13
 70
     1
102
RTVSPropertyOp14
 70
     1
102
RTVSPropertyOp15
 70
     1
102
RTVSPropertyOp16
 70
     1
102
RTVSPropertyOp17
 70
     1
102
RTVSPropertyOp18
 70
     1
102
RTVSPropertyOp19
 70
     1
102
RTVSPropertyOp20
 70
     1
102
RTVSPropertyOp21
 70
     1
102
RTVSPropertyOp22
 70
     1
102
RTVSPropertyOp23
 70
     1
102
RTVSPropertyOp24
 70
     1
102
RTVSPropertyOp25
 70
     1
102
RTVSPropertyOp26
 70
     1
102
RTVSPropertyOp27
 70
     1
102
RTVSPropertyOp28
 70
     1
102
RTVSPropertyOp29
 70
     1
102
RTVSPropertyOp30
 70
     1
102
RTVSPropertyOp31
 70
     1
102
RTVSPropertyOp32
 70
     1
102
RTVSPropertyOp33
 70
     1
102
RTVSPropertyOp34
 70
     1
102
RTVSPropertyOp35
 70
     1
102
RTVSPropertyOp36
 70
     1
102
RTVSPropertyOp37
 70
     1
102
RTVSPropertyOp38
 70
     1
102
RTVSPropertyOp39
 70
     1
102
RTVSPropertyOp40
 70
     1
102
RTVSPropertyOp41
 70
     1
102
RTVSPropertyOp42
 70
     1
102
RTVSPropertyOp43
 70
     1
102
RTVSPropertyOp44
 70
     1
102
RTVSPropertyOp45
 70
     1
102
RTVSPropertyOp46
 70
     1
102
RTVSPropertyOp47
 70
     1
102
RTVSPropertyOp48
 70
     1
102
RTVSPropertyOp49
 70
     1
102
RTVSPropertyOp50
 70
     1
102
RTVSPropertyOp51
 70
     0
102
RTVSPropertyOp52
 70
     0
102
RTVSPropertyOp53
 70
     1
102
RTVSPropertyOp54
 70
     1
102
RTVSPropertyOp55
 70
     1
102
RTVSPropertyOp56
 70
     1
102
RTVSPropertyOp57
 70
     1
102
RTVSPropertyOp58
 70
     1
102
RTVSPropertyOp59
 70
     1
102
RTVSPropertyOp60
 70
     1
102
RTVSPropertyOp61
 70
     1
102
RTVSPropertyOp62
 70
     1
  0
XRECORD
  5
360
102
{ACAD_REACTORS
330
35F
102
}
330
35F
100
AcDbXrecord
280
     1
102
RTVSPost2010Prop28
280
     0
102
RTVSPost2010PropOp28
 70
     1
102
RTVSPost2010Prop29
280
     1
102
RTVSPost2010PropOp29
 70
     1
102
RTVSPost2010Prop30
280
     1
102
RTVSPost2010PropOp30
 70
     1
102
RTVSPost2010Prop31
280
     0
102
RTVSPost2010PropOp31
 70
     1
102
RTVSPost2010Prop32
280
     0
102
RTVSPost2010PropOp32
 70
     1
102
RTVSPost2010Prop33
280
     0
102
RTVSPost2010PropOp33
 70
     1
102
RTVSPost2010Prop34
280
     0
102
RTVSPost2010PropOp34
 70
     1
102
RTVSPost2010Prop35
280
     0
102
RTVSPost2010PropOp35
 70
     1
102
RTVSPost2010Prop36
280
     0
102
RTVSPost2010PropOp36
 70
     1
102
RTVSPost2010Prop37
 90
       50
102
RTVSPost2010PropOp37
 70
     1
102
RTVSPost2010Prop38
140
0.0
102
RTVSPost2010PropOp38
 70
     1
102
RTVSPost2010Prop39
140
1.0
102
RTVSPost2010PropOp39
 70
     1
102
RTVSPost2010Prop40
 90
        0
102
RTVSPost2010PropOp40
 70
     1
102
RTVSPost2010Prop41ColorIndex
 90
       18
102
RTVSPost2010Prop41ColorRGB
 90
        0
102
RTVSPost2010PropOp41
 70
     1
102
RTVSPost2010Prop42
 90
       50
102
RTVSPost2010PropOp42
 70
     1
102
RTVSPost2010Prop43
 90
        3
102
RTVSPost2010PropOp43
 70
     1
102
RTVSPost2010Prop44ColorIndex
 90
        5
102
RTVSPost2010Prop44ColorRGB
 90
      255
102
RTVSPost2010PropOp44
 70
     1
102
RTVSPost2010Prop45
280
     0
102
RTVSPost2010PropOp45
 70
     1
102
RTVSPost2010Prop46
 90
       50
102
RTVSPost2010PropOp46
 70
     1
102
RTVSPost2010Prop47
 90
       50
102
RTVSPost2010PropOp47
 70
     1
102
RTVSPost2010Prop48
 90
       50
102
RTVSPost2010PropOp48
 70
     1
102
RTVSPost2010Prop49
280
     0
102
RTVSPost2010PropOp49
 70
     1
102
RTVSPost2010Prop50
 90
       50
102
RTVSPost2010PropOp50
 70
     1
102
RTVSPost2010Prop51ColorIndex
 90
      256
102
RTVSPost2010Prop51ColorRGB
 90
-16777216
102
RTVSPost2010PropOp51
 70
     0
102
RTVSPost2010Prop52
140
1.0
102
RTVSPost2010PropOp52
 70
     0
102
RTVSPost2010Prop53
 90
        2
102
RTVSPost2010PropOp53
 70
     1
102
RTVSPost2010Prop54
  1
strokes_ogs.tif
102
RTVSPost2010PropOp54
 70
     1
102
RTVSPost2010Prop55
280
     0
102
RTVSPost2010PropOp55
 70
     1
102
RTVSPost2010Prop56
140
1.0
102
RTVSPost2010PropOp56
 70
     1
102
RTVSPost2010Prop57
140
1.0
102
RTVSPost2010PropOp57
 70
     1
102
RTVSPropertyOp0
 70
     1
102
RTVSPropertyOp1
 70
     1
102
RTVSPropertyOp2
 70
     1
102
RTVSPropertyOp3
 70
     1
102
RTVSPropertyOp4
 70
     1
102
RTVSPropertyOp5
 70
     1
102
RTVSPropertyOp6
 70
     1
102
RTVSPropertyOp7
 70
     1
102
RTVSPropertyOp8
 70
     1
102
RTVSPropertyOp9
 70
     1
102
RTVSPropertyOp10
 70
     1
102
RTVSPropertyOp11
 70
     1
102
RTVSPropertyOp12
 70
     1
102
RTVSPropertyOp13
 70
     1
102
RTVSPropertyOp14
 70
     1
102
RTVSPropertyOp15
 70
     1
102
RTVSPropertyOp16
 70
     1
102
RTVSPropertyOp17
 70
     1
102
RTVSPropertyOp18
 70
     1
102
RTVSPropertyOp19
 70
     1
102
RTVSPropertyOp20
 70
     1
102
RTVSPropertyOp21
 70
     1
102
RTVSPropertyOp22
 70
     1
102
RTVSPropertyOp23
 70
     1
102
RTVSPropertyOp24
 70
     1
102
RTVSPropertyOp25
 70
     1
102
RTVSPropertyOp26
 70
     1
102
RTVSPropertyOp27
 70
     1
102
RTVSPropertyOp28
 70
     1
102
RTVSPropertyOp29
 70
     1
102
RTVSPropertyOp30
 70
     1
102
RTVSPropertyOp31
 70
     1
102
RTVSPropertyOp32
 70
     1
102
RTVSPropertyOp33
 70
     1
102
RTVSPropertyOp34
 70
     1
102
RTVSPropertyOp35
 70
     1
102
RTVSPropertyOp36
 70
     1
102
RTVSPropertyOp37
 70
     1
102
RTVSPropertyOp38
 70
     1
102
RTVSPropertyOp39
 70
     1
102
RTVSPropertyOp40
 70
     1
102
RTVSPropertyOp41
 70
     1
102
RTVSPropertyOp42
 70
     1
102
RTVSPropertyOp43
 70
     1
102
RTVSPropertyOp44
 70
     1
102
RTVSPropertyOp45
 70
     1
102
RTVSPropertyOp46
 70
     1
102
RTVSPropertyOp47
 70
     1
102
RTVSPropertyOp48
 70
     1
102
RTVSPropertyOp49
 70
     1
102
RTVSPropertyOp50
 70
     1
102
RTVSPropertyOp51
 70
     0
102
RTVSPropertyOp52
 70
     0
102
RTVSPropertyOp53
 70
     1
102
RTVSPropertyOp54
 70
     1
102
RTVSPropertyOp55
 70
     1
102
RTVSPropertyOp56
 70
     1
102
RTVSPropertyOp57
 70
     1
102
RTVSPropertyOp58
 70
     1
102
RTVSPropertyOp59
 70
     1
102
RTVSPropertyOp60
 70
     1
102
RTVSPropertyOp61
 70
     1
102
RTVSPropertyOp62
 70
     1
  0
XRECORD
  5
362
102
{ACAD_REACTORS
330
361
102
}
330
361
100
AcDbXrecord
280
     1
102
RTVSPost2010Prop28
280
     0
102
RTVSPost2010PropOp28
 70
     1
102
RTVSPost2010Prop29
280
     1
102
RTVSPost2010PropOp29
 70
     1
102
RTVSPost2010Prop30
280
     1
102
RTVSPost2010PropOp30
 70
     1
102
RTVSPost2010Prop31
280
     0
102
RTVSPost2010PropOp31
 70
     1
102
RTVSPost2010Prop32
280
     0
102
RTVSPost2010PropOp32
 70
     1
102
RTVSPost2010Prop33
280
     0
102
RTVSPost2010PropOp33
 70
     1
102
RTVSPost2010Prop34
280
     0
102
RTVSPost2010PropOp34
 70
     1
102
RTVSPost2010Prop35
280
     0
102
RTVSPost2010PropOp35
 70
     1
102
RTVSPost2010Prop36
280
     0
102
RTVSPost2010PropOp36
 70
     1
102
RTVSPost2010Prop37
 90
       50
102
RTVSPost2010PropOp37
 70
     1
102
RTVSPost2010Prop38
140
0.0
102
RTVSPost2010PropOp38
 70
     1
102
RTVSPost2010Prop39
140
1.0
102
RTVSPost2010PropOp39
 70
     1
102
RTVSPost2010Prop40
 90
        0
102
RTVSPost2010PropOp40
 70
     1
102
RTVSPost2010Prop41ColorIndex
 90
       18
102
RTVSPost2010Prop41ColorRGB
 90
        0
102
RTVSPost2010PropOp41
 70
     1
102
RTVSPost2010Prop42
 90
       50
102
RTVSPost2010PropOp42
 70
     1
102
RTVSPost2010Prop43
 90
        3
102
RTVSPost2010PropOp43
 70
     1
102
RTVSPost2010Prop44ColorIndex
 90
        5
102
RTVSPost2010Prop44ColorRGB
 90
      255
102
RTVSPost2010PropOp44
 70
     1
102
RTVSPost2010Prop45
280
     0
102
RTVSPost2010PropOp45
 70
     1
102
RTVSPost2010Prop46
 90
       50
102
RTVSPost2010PropOp46
 70
     1
102
RTVSPost2010Prop47
 90
       50
102
RTVSPost2010PropOp47
 70
     1
102
RTVSPost2010Prop48
 90
       50
102
RTVSPost2010PropOp48
 70
     1
102
RTVSPost2010Prop49
280
     0
102
RTVSPost2010PropOp49
 70
     1
102
RTVSPost2010Prop50
 90
       50
102
RTVSPost2010PropOp50
 70
     1
102
RTVSPost2010Prop51ColorIndex
 90
      256
102
RTVSPost2010Prop51ColorRGB
 90
-16777216
102
RTVSPost2010PropOp51
 70
     0
102
RTVSPost2010Prop52
140
1.0
102
RTVSPost2010PropOp52
 70
     0
102
RTVSPost2010Prop53
 90
        2
102
RTVSPost2010PropOp53
 70
     1
102
RTVSPost2010Prop54
  1
strokes_ogs.tif
102
RTVSPost2010PropOp54
 70
     1
102
RTVSPost2010Prop55
280
     0
102
RTVSPost2010PropOp55
 70
     1
102
RTVSPost2010Prop56
140
1.0
102
RTVSPost2010PropOp56
 70
     1
102
RTVSPost2010Prop57
140
1.0
102
RTVSPost2010PropOp57
 70
     1
102
RTVSPropertyOp0
 70
     1
102
RTVSPropertyOp1
 70
     1
102
RTVSPropertyOp2
 70
     1
102
RTVSPropertyOp3
 70
     1
102
RTVSPropertyOp4
 70
     1
102
RTVSPropertyOp5
 70
     1
102
RTVSPropertyOp6
 70
     1
102
RTVSPropertyOp7
 70
     1
102
RTVSPropertyOp8
 70
     1
102
RTVSPropertyOp9
 70
     1
102
RTVSPropertyOp10
 70
     1
102
RTVSPropertyOp11
 70
     1
102
RTVSPropertyOp12
 70
     1
102
RTVSPropertyOp13
 70
     1
102
RTVSPropertyOp14
 70
     1
102
RTVSPropertyOp15
 70
     1
102
RTVSPropertyOp16
 70
     1
102
RTVSPropertyOp17
 70
     1
102
RTVSPropertyOp18
 70
     1
102
RTVSPropertyOp19
 70
     1
102
RTVSPropertyOp20
 70
     1
102
RTVSPropertyOp21
 70
     1
102
RTVSPropertyOp22
 70
     1
102
RTVSPropertyOp23
 70
     1
102
RTVSPropertyOp24
 70
     1
102
RTVSPropertyOp25
 70
     1
102
RTVSPropertyOp26
 70
     1
102
RTVSPropertyOp27
 70
     1
102
RTVSPropertyOp28
 70
     1
102
RTVSPropertyOp29
 70
     1
102
RTVSPropertyOp30
 70
     1
102
RTVSPropertyOp31
 70
     1
102
RTVSPropertyOp32
 70
     1
102
RTVSPropertyOp33
 70
     1
102
RTVSPropertyOp34
 70
     1
102
RTVSPropertyOp35
 70
     1
102
RTVSPropertyOp36
 70
     1
102
RTVSPropertyOp37
 70
     1
102
RTVSPropertyOp38
 70
     1
102
RTVSPropertyOp39
 70
     1
102
RTVSPropertyOp40
 70
     1
102
RTVSPropertyOp41
 70
     1
102
RTVSPropertyOp42
 70
     1
102
RTVSPropertyOp43
 70
     1
102
RTVSPropertyOp44
 70
     1
102
RTVSPropertyOp45
 70
     1
102
RTVSPropertyOp46
 70
     1
102
RTVSPropertyOp47
 70
     1
102
RTVSPropertyOp48
 70
     1
102
RTVSPropertyOp49
 70
     1
102
RTVSPropertyOp50
 70
     1
102
RTVSPropertyOp51
 70
     0
102
RTVSPropertyOp52
 70
     0
102
RTVSPropertyOp53
 70
     1
102
RTVSPropertyOp54
 70
     1
102
RTVSPropertyOp55
 70
     1
102
RTVSPropertyOp56
 70
     1
102
RTVSPropertyOp57
 70
     1
102
RTVSPropertyOp58
 70
     1
102
RTVSPropertyOp59
 70
     1
102
RTVSPropertyOp60
 70
     1
102
RTVSPropertyOp61
 70
     1
102
RTVSPropertyOp62
 70
     1
  0
XRECORD
  5
364
102
{ACAD_REACTORS
330
363
102
}
330
363
100
AcDbXrecord
280
     1
102
RTVSPost2010Prop28
280
     0
102
RTVSPost2010PropOp28
 70
     1
102
RTVSPost2010Prop29
280
     1
102
RTVSPost2010PropOp29
 70
     1
102
RTVSPost2010Prop30
280
     1
102
RTVSPost2010PropOp30
 70
     1
102
RTVSPost2010Prop31
280
     0
102
RTVSPost2010PropOp31
 70
     1
102
RTVSPost2010Prop32
280
     0
102
RTVSPost2010PropOp32
 70
     1
102
RTVSPost2010Prop33
280
     0
102
RTVSPost2010PropOp33
 70
     1
102
RTVSPost2010Prop34
280
     0
102
RTVSPost2010PropOp34
 70
     1
102
RTVSPost2010Prop35
280
     0
102
RTVSPost2010PropOp35
 70
     1
102
RTVSPost2010Prop36
280
     0
102
RTVSPost2010PropOp36
 70
     1
102
RTVSPost2010Prop37
 90
       50
102
RTVSPost2010PropOp37
 70
     1
102
RTVSPost2010Prop38
140
0.0
102
RTVSPost2010PropOp38
 70
     1
102
RTVSPost2010Prop39
140
1.0
102
RTVSPost2010PropOp39
 70
     1
102
RTVSPost2010Prop40
 90
        0
102
RTVSPost2010PropOp40
 70
     1
102
RTVSPost2010Prop41ColorIndex
 90
       18
102
RTVSPost2010Prop41ColorRGB
 90
        0
102
RTVSPost2010PropOp41
 70
     1
102
RTVSPost2010Prop42
 90
       50
102
RTVSPost2010PropOp42
 70
     1
102
RTVSPost2010Prop43
 90
        3
102
RTVSPost2010PropOp43
 70
     1
102
RTVSPost2010Prop44ColorIndex
 90
        5
102
RTVSPost2010Prop44ColorRGB
 90
      255
102
RTVSPost2010PropOp44
 70
     1
102
RTVSPost2010Prop45
280
     0
102
RTVSPost2010PropOp45
 70
     1
102
RTVSPost2010Prop46
 90
       50
102
RTVSPost2010PropOp46
 70
     1
102
RTVSPost2010Prop47
 90
       50
102
RTVSPost2010PropOp47
 70
     1
102
RTVSPost2010Prop48
 90
       50
102
RTVSPost2010PropOp48
 70
     1
102
RTVSPost2010Prop49
280
     0
102
RTVSPost2010PropOp49
 70
     1
102
RTVSPost2010Prop50
 90
       50
102
RTVSPost2010PropOp50
 70
     1
102
RTVSPost2010Prop51ColorIndex
 90
      256
102
RTVSPost2010Prop51ColorRGB
 90
-16777216
102
RTVSPost2010PropOp51
 70
     0
102
RTVSPost2010Prop52
140
1.0
102
RTVSPost2010PropOp52
 70
     0
102
RTVSPost2010Prop53
 90
        2
102
RTVSPost2010PropOp53
 70
     1
102
RTVSPost2010Prop54
  1
strokes_ogs.tif
102
RTVSPost2010PropOp54
 70
     1
102
RTVSPost2010Prop55
280
     0
102
RTVSPost2010PropOp55
 70
     1
102
RTVSPost2010Prop56
140
1.0
102
RTVSPost2010PropOp56
 70
     1
102
RTVSPost2010Prop57
140
1.0
102
RTVSPost2010PropOp57
 70
     1
102
RTVSPropertyOp0
 70
     1
102
RTVSPropertyOp1
 70
     1
102
RTVSPropertyOp2
 70
     1
102
RTVSPropertyOp3
 70
     1
102
RTVSPropertyOp4
 70
     1
102
RTVSPropertyOp5
 70
     1
102
RTVSPropertyOp6
 70
     1
102
RTVSPropertyOp7
 70
     1
102
RTVSPropertyOp8
 70
     1
102
RTVSPropertyOp9
 70
     1
102
RTVSPropertyOp10
 70
     1
102
RTVSPropertyOp11
 70
     1
102
RTVSPropertyOp12
 70
     1
102
RTVSPropertyOp13
 70
     1
102
RTVSPropertyOp14
 70
     1
102
RTVSPropertyOp15
 70
     1
102
RTVSPropertyOp16
 70
     1
102
RTVSPropertyOp17
 70
     1
102
RTVSPropertyOp18
 70
     1
102
RTVSPropertyOp19
 70
     1
102
RTVSPropertyOp20
 70
     1
102
RTVSPropertyOp21
 70
     1
102
RTVSPropertyOp22
 70
     1
102
RTVSPropertyOp23
 70
     1
102
RTVSPropertyOp24
 70
     1
102
RTVSPropertyOp25
 70
     1
102
RTVSPropertyOp26
 70
     1
102
RTVSPropertyOp27
 70
     1
102
RTVSPropertyOp28
 70
     1
102
RTVSPropertyOp29
 70
     1
102
RTVSPropertyOp30
 70
     1
102
RTVSPropertyOp31
 70
     1
102
RTVSPropertyOp32
 70
     1
102
RTVSPropertyOp33
 70
     1
102
RTVSPropertyOp34
 70
     1
102
RTVSPropertyOp35
 70
     1
102
RTVSPropertyOp36
 70
     1
102
RTVSPropertyOp37
 70
     1
102
RTVSPropertyOp38
 70
     1
102
RTVSPropertyOp39
 70
     1
102
RTVSPropertyOp40
 70
     1
102
RTVSPropertyOp41
 70
     1
102
RTVSPropertyOp42
 70
     1
102
RTVSPropertyOp43
 70
     1
102
RTVSPropertyOp44
 70
     1
102
RTVSPropertyOp45
 70
     1
102
RTVSPropertyOp46
 70
     1
102
RTVSPropertyOp47
 70
     1
102
RTVSPropertyOp48
 70
     1
102
RTVSPropertyOp49
 70
     1
102
RTVSPropertyOp50
 70
     1
102
RTVSPropertyOp51
 70
     0
102
RTVSPropertyOp52
 70
     0
102
RTVSPropertyOp53
 70
     1
102
RTVSPropertyOp54
 70
     1
102
RTVSPropertyOp55
 70
     1
102
RTVSPropertyOp56
 70
     1
102
RTVSPropertyOp57
 70
     1
102
RTVSPropertyOp58
 70
     1
102
RTVSPropertyOp59
 70
     1
102
RTVSPropertyOp60
 70
     1
102
RTVSPropertyOp61
 70
     1
102
RTVSPropertyOp62
 70
     1
  0
XRECORD
  5
366
102
{ACAD_REACTORS
330
365
102
}
330
365
100
AcDbXrecord
280
     1
102
RTVSPost2010Prop28
280
     0
102
RTVSPost2010PropOp28
 70
     1
102
RTVSPost2010Prop29
280
     1
102
RTVSPost2010PropOp29
 70
     1
102
RTVSPost2010Prop30
280
     1
102
RTVSPost2010PropOp30
 70
     1
102
RTVSPost2010Prop31
280
     0
102
RTVSPost2010PropOp31
 70
     1
102
RTVSPost2010Prop32
280
     0
102
RTVSPost2010PropOp32
 70
     1
102
RTVSPost2010Prop33
280
     0
102
RTVSPost2010PropOp33
 70
     1
102
RTVSPost2010Prop34
280
     0
102
RTVSPost2010PropOp34
 70
     1
102
RTVSPost2010Prop35
280
     0
102
RTVSPost2010PropOp35
 70
     1
102
RTVSPost2010Prop36
280
     0
102
RTVSPost2010PropOp36
 70
     1
102
RTVSPost2010Prop37
 90
       50
102
RTVSPost2010PropOp37
 70
     1
102
RTVSPost2010Prop38
140
0.0
102
RTVSPost2010PropOp38
 70
     1
102
RTVSPost2010Prop39
140
1.0
102
RTVSPost2010PropOp39
 70
     1
102
RTVSPost2010Prop40
 90
        0
102
RTVSPost2010PropOp40
 70
     1
102
RTVSPost2010Prop41ColorIndex
 90
       18
102
RTVSPost2010Prop41ColorRGB
 90
        0
102
RTVSPost2010PropOp41
 70
     1
102
RTVSPost2010Prop42
 90
       50
102
RTVSPost2010PropOp42
 70
     1
102
RTVSPost2010Prop43
 90
        3
102
RTVSPost2010PropOp43
 70
     1
102
RTVSPost2010Prop44ColorIndex
 90
        5
102
RTVSPost2010Prop44ColorRGB
 90
      255
102
RTVSPost2010PropOp44
 70
     1
102
RTVSPost2010Prop45
280
     0
102
RTVSPost2010PropOp45
 70
     1
102
RTVSPost2010Prop46
 90
       50
102
RTVSPost2010PropOp46
 70
     1
102
RTVSPost2010Prop47
 90
       50
102
RTVSPost2010PropOp47
 70
     1
102
RTVSPost2010Prop48
 90
       50
102
RTVSPost2010PropOp48
 70
     1
102
RTVSPost2010Prop49
280
     0
102
RTVSPost2010PropOp49
 70
     1
102
RTVSPost2010Prop50
 90
       50
102
RTVSPost2010PropOp50
 70
     1
102
RTVSPost2010Prop51ColorIndex
 90
      256
102
RTVSPost2010Prop51ColorRGB
 90
-16777216
102
RTVSPost2010PropOp51
 70
     0
102
RTVSPost2010Prop52
140
1.0
102
RTVSPost2010PropOp52
 70
     0
102
RTVSPost2010Prop53
 90
        2
102
RTVSPost2010PropOp53
 70
     1
102
RTVSPost2010Prop54
  1
strokes_ogs.tif
102
RTVSPost2010PropOp54
 70
     1
102
RTVSPost2010Prop55
280
     0
102
RTVSPost2010PropOp55
 70
     1
102
RTVSPost2010Prop56
140
1.0
102
RTVSPost2010PropOp56
 70
     1
102
RTVSPost2010Prop57
140
1.0
102
RTVSPost2010PropOp57
 70
     1
102
RTVSPropertyOp0
 70
     1
102
RTVSPropertyOp1
 70
     1
102
RTVSPropertyOp2
 70
     1
102
RTVSPropertyOp3
 70
     1
102
RTVSPropertyOp4
 70
     1
102
RTVSPropertyOp5
 70
     1
102
RTVSPropertyOp6
 70
     1
102
RTVSPropertyOp7
 70
     1
102
RTVSPropertyOp8
 70
     1
102
RTVSPropertyOp9
 70
     1
102
RTVSPropertyOp10
 70
     1
102
RTVSPropertyOp11
 70
     1
102
RTVSPropertyOp12
 70
     1
102
RTVSPropertyOp13
 70
     1
102
RTVSPropertyOp14
 70
     1
102
RTVSPropertyOp15
 70
     1
102
RTVSPropertyOp16
 70
     1
102
RTVSPropertyOp17
 70
     1
102
RTVSPropertyOp18
 70
     1
102
RTVSPropertyOp19
 70
     1
102
RTVSPropertyOp20
 70
     1
102
RTVSPropertyOp21
 70
     1
102
RTVSPropertyOp22
 70
     1
102
RTVSPropertyOp23
 70
     1
102
RTVSPropertyOp24
 70
     1
102
RTVSPropertyOp25
 70
     1
102
RTVSPropertyOp26
 70
     1
102
RTVSPropertyOp27
 70
     1
102
RTVSPropertyOp28
 70
     1
102
RTVSPropertyOp29
 70
     1
102
RTVSPropertyOp30
 70
     1
102
RTVSPropertyOp31
 70
     1
102
RTVSPropertyOp32
 70
     1
102
RTVSPropertyOp33
 70
     1
102
RTVSPropertyOp34
 70
     1
102
RTVSPropertyOp35
 70
     1
102
RTVSPropertyOp36
 70
     1
102
RTVSPropertyOp37
 70
     1
102
RTVSPropertyOp38
 70
     1
102
RTVSPropertyOp39
 70
     1
102
RTVSPropertyOp40
 70
     1
102
RTVSPropertyOp41
 70
     1
102
RTVSPropertyOp42
 70
     1
102
RTVSPropertyOp43
 70
     1
102
RTVSPropertyOp44
 70
     1
102
RTVSPropertyOp45
 70
     1
102
RTVSPropertyOp46
 70
     1
102
RTVSPropertyOp47
 70
     1
102
RTVSPropertyOp48
 70
     1
102
RTVSPropertyOp49
 70
     1
102
RTVSPropertyOp50
 70
     1
102
RTVSPropertyOp51
 70
     0
102
RTVSPropertyOp52
 70
     0
102
RTVSPropertyOp53
 70
     1
102
RTVSPropertyOp54
 70
     1
102
RTVSPropertyOp55
 70
     1
102
RTVSPropertyOp56
 70
     1
102
RTVSPropertyOp57
 70
     1
102
RTVSPropertyOp58
 70
     1
102
RTVSPropertyOp59
 70
     1
102
RTVSPropertyOp60
 70
     1
102
RTVSPropertyOp61
 70
     1
102
RTVSPropertyOp62
 70
     1
  0
XRECORD
  5
36C
102
{ACAD_REACTORS
330
36B
102
}
330
36B
100
AcDbXrecord
280
     1
102
RTVSPost2010Prop28
280
     0
102
RTVSPost2010PropOp28
 70
     1
102
RTVSPost2010Prop29
280
     1
102
RTVSPost2010PropOp29
 70
     1
102
RTVSPost2010Prop30
280
     1
102
RTVSPost2010PropOp30
 70
     1
102
RTVSPost2010Prop31
280
     0
102
RTVSPost2010PropOp31
 70
     1
102
RTVSPost2010Prop32
280
     0
102
RTVSPost2010PropOp32
 70
     1
102
RTVSPost2010Prop33
280
     0
102
RTVSPost2010PropOp33
 70
     1
102
RTVSPost2010Prop34
280
     0
102
RTVSPost2010PropOp34
 70
     1
102
RTVSPost2010Prop35
280
     0
102
RTVSPost2010PropOp35
 70
     1
102
RTVSPost2010Prop36
280
     0
102
RTVSPost2010PropOp36
 70
     1
102
RTVSPost2010Prop37
 90
       50
102
RTVSPost2010PropOp37
 70
     1
102
RTVSPost2010Prop38
140
0.0
102
RTVSPost2010PropOp38
 70
     1
102
RTVSPost2010Prop39
140
1.0
102
RTVSPost2010PropOp39
 70
     1
102
RTVSPost2010Prop40
 90
        0
102
RTVSPost2010PropOp40
 70
     1
102
RTVSPost2010Prop41ColorIndex
 90
       18
102
RTVSPost2010Prop41ColorRGB
 90
        0
102
RTVSPost2010PropOp41
 70
     1
102
RTVSPost2010Prop42
 90
       50
102
RTVSPost2010PropOp42
 70
     1
102
RTVSPost2010Prop43
 90
        3
102
RTVSPost2010PropOp43
 70
     1
102
RTVSPost2010Prop44ColorIndex
 90
        5
102
RTVSPost2010Prop44ColorRGB
 90
      255
102
RTVSPost2010PropOp44
 70
     1
102
RTVSPost2010Prop45
280
     0
102
RTVSPost2010PropOp45
 70
     1
102
RTVSPost2010Prop46
 90
       50
102
RTVSPost2010PropOp46
 70
     1
102
RTVSPost2010Prop47
 90
       50
102
RTVSPost2010PropOp47
 70
     1
102
RTVSPost2010Prop48
 90
       50
102
RTVSPost2010PropOp48
 70
     1
102
RTVSPost2010Prop49
280
     0
102
RTVSPost2010PropOp49
 70
     1
102
RTVSPost2010Prop50
 90
       50
102
RTVSPost2010PropOp50
 70
     1
102
RTVSPost2010Prop51ColorIndex
 90
      256
102
RTVSPost2010Prop51ColorRGB
 90
-16777216
102
RTVSPost2010PropOp51
 70
     0
102
RTVSPost2010Prop52
140
1.0
102
RTVSPost2010PropOp52
 70
     0
102
RTVSPost2010Prop53
 90
        2
102
RTVSPost2010PropOp53
 70
     1
102
RTVSPost2010Prop54
  1
strokes_ogs.tif
102
RTVSPost2010PropOp54
 70
     1
102
RTVSPost2010Prop55
280
     0
102
RTVSPost2010PropOp55
 70
     1
102
RTVSPost2010Prop56
140
1.0
102
RTVSPost2010PropOp56
 70
     1
102
RTVSPost2010Prop57
140
1.0
102
RTVSPost2010PropOp57
 70
     1
102
RTVSPropertyOp0
 70
     1
102
RTVSPropertyOp1
 70
     1
102
RTVSPropertyOp2
 70
     1
102
RTVSPropertyOp3
 70
     1
102
RTVSPropertyOp4
 70
     1
102
RTVSPropertyOp5
 70
     1
102
RTVSPropertyOp6
 70
     1
102
RTVSPropertyOp7
 70
     1
102
RTVSPropertyOp8
 70
     1
102
RTVSPropertyOp9
 70
     1
102
RTVSPropertyOp10
 70
     1
102
RTVSPropertyOp11
 70
     1
102
RTVSPropertyOp12
 70
     1
102
RTVSPropertyOp13
 70
     1
102
RTVSPropertyOp14
 70
     1
102
RTVSPropertyOp15
 70
     1
102
RTVSPropertyOp16
 70
     1
102
RTVSPropertyOp17
 70
     1
102
RTVSPropertyOp18
 70
     1
102
RTVSPropertyOp19
 70
     1
102
RTVSPropertyOp20
 70
     1
102
RTVSPropertyOp21
 70
     1
102
RTVSPropertyOp22
 70
     1
102
RTVSPropertyOp23
 70
     1
102
RTVSPropertyOp24
 70
     1
102
RTVSPropertyOp25
 70
     1
102
RTVSPropertyOp26
 70
     1
102
RTVSPropertyOp27
 70
     1
102
RTVSPropertyOp28
 70
     1
102
RTVSPropertyOp29
 70
     1
102
RTVSPropertyOp30
 70
     1
102
RTVSPropertyOp31
 70
     1
102
RTVSPropertyOp32
 70
     1
102
RTVSPropertyOp33
 70
     1
102
RTVSPropertyOp34
 70
     1
102
RTVSPropertyOp35
 70
     1
102
RTVSPropertyOp36
 70
     1
102
RTVSPropertyOp37
 70
     1
102
RTVSPropertyOp38
 70
     1
102
RTVSPropertyOp39
 70
     1
102
RTVSPropertyOp40
 70
     1
102
RTVSPropertyOp41
 70
     1
102
RTVSPropertyOp42
 70
     1
102
RTVSPropertyOp43
 70
     1
102
RTVSPropertyOp44
 70
     1
102
RTVSPropertyOp45
 70
     1
102
RTVSPropertyOp46
 70
     1
102
RTVSPropertyOp47
 70
     1
102
RTVSPropertyOp48
 70
     1
102
RTVSPropertyOp49
 70
     1
102
RTVSPropertyOp50
 70
     1
102
RTVSPropertyOp51
 70
     0
102
RTVSPropertyOp52
 70
     0
102
RTVSPropertyOp53
 70
     1
102
RTVSPropertyOp54
 70
     1
102
RTVSPropertyOp55
 70
     1
102
RTVSPropertyOp56
 70
     1
102
RTVSPropertyOp57
 70
     1
102
RTVSPropertyOp58
 70
     1
102
RTVSPropertyOp59
 70
     1
102
RTVSPropertyOp60
 70
     1
102
RTVSPropertyOp61
 70
     1
102
RTVSPropertyOp62
 70
     1
  0
XRECORD
  5
380
102
{ACAD_REACTORS
330
37F
102
}
330
37F
100
AcDbXrecord
280
     1
102
RTVSPost2010Prop28
280
     0
102
RTVSPost2010PropOp28
 70
     0
102
RTVSPost2010Prop29
280
     1
102
RTVSPost2010PropOp29
 70
     0
102
RTVSPost2010Prop30
280
     1
102
RTVSPost2010PropOp30
 70
     0
102
RTVSPost2010Prop31
280
     0
102
RTVSPost2010PropOp31
 70
     0
102
RTVSPost2010Prop32
280
     0
102
RTVSPost2010PropOp32
 70
     0
102
RTVSPost2010Prop33
280
     0
102
RTVSPost2010PropOp33
 70
     0
102
RTVSPost2010Prop34
280
     0
102
RTVSPost2010PropOp34
 70
     0
102
RTVSPost2010Prop35
280
     0
102
RTVSPost2010PropOp35
 70
     0
102
RTVSPost2010Prop36
280
     0
102
RTVSPost2010PropOp36
 70
     0
102
RTVSPost2010Prop37
 90
       50
102
RTVSPost2010PropOp37
 70
     0
102
RTVSPost2010Prop38
140
0.0
102
RTVSPost2010PropOp38
 70
     0
102
RTVSPost2010Prop39
140
1.0
102
RTVSPost2010PropOp39
 70
     0
102
RTVSPost2010Prop40
 90
        0
102
RTVSPost2010PropOp40
 70
     0
102
RTVSPost2010Prop41ColorIndex
 90
       18
102
RTVSPost2010Prop41ColorRGB
 90
        0
102
RTVSPost2010PropOp41
 70
     0
102
RTVSPost2010Prop42
 90
       50
102
RTVSPost2010PropOp42
 70
     0
102
RTVSPost2010Prop43
 90
        3
102
RTVSPost2010PropOp43
 70
     0
102
RTVSPost2010Prop44ColorIndex
 90
        5
102
RTVSPost2010Prop44ColorRGB
 90
      255
102
RTVSPost2010PropOp44
 70
     0
102
RTVSPost2010Prop45
280
     0
102
RTVSPost2010PropOp45
 70
     0
102
RTVSPost2010Prop46
 90
       50
102
RTVSPost2010PropOp46
 70
     0
102
RTVSPost2010Prop47
 90
       50
102
RTVSPost2010PropOp47
 70
     0
102
RTVSPost2010Prop48
 90
       50
102
RTVSPost2010PropOp48
 70
     0
102
RTVSPost2010Prop49
280
     0
102
RTVSPost2010PropOp49
 70
     0
102
RTVSPost2010Prop50
 90
       50
102
RTVSPost2010PropOp50
 70
     0
102
RTVSPost2010Prop51ColorIndex
 90
      256
102
RTVSPost2010Prop51ColorRGB
 90
-16777216
102
RTVSPost2010PropOp51
 70
     0
102
RTVSPost2010Prop52
140
1.0
102
RTVSPost2010PropOp52
 70
     0
102
RTVSPost2010Prop53
 90
        2
102
RTVSPost2010PropOp53
 70
     0
102
RTVSPost2010Prop54
  1
strokes_ogs.tif
102
RTVSPost2010PropOp54
 70
     0
102
RTVSPost2010Prop55
280
     0
102
RTVSPost2010PropOp55
 70
     0
102
RTVSPost2010Prop56
140
1.0
102
RTVSPost2010PropOp56
 70
     0
102
RTVSPost2010Prop57
140
1.0
102
RTVSPost2010PropOp57
 70
     0
102
RTVSPropertyOp0
 70
     0
102
RTVSPropertyOp1
 70
     0
102
RTVSPropertyOp2
 70
     0
102
RTVSPropertyOp3
 70
     0
102
RTVSPropertyOp4
 70
     0
102
RTVSPropertyOp5
 70
     0
102
RTVSPropertyOp6
 70
     0
102
RTVSPropertyOp7
 70
     0
102
RTVSPropertyOp8
 70
     0
102
RTVSPropertyOp9
 70
     0
102
RTVSPropertyOp10
 70
     0
102
RTVSPropertyOp11
 70
     0
102
RTVSPropertyOp12
 70
     0
102
RTVSPropertyOp13
 70
     0
102
RTVSPropertyOp14
 70
     2
102
RTVSPropertyOp15
 70
     0
102
RTVSPropertyOp16
 70
     0
102
RTVSPropertyOp17
 70
     0
102
RTVSPropertyOp18
 70
     0
102
RTVSPropertyOp19
 70
     0
102
RTVSPropertyOp20
 70
     0
102
RTVSPropertyOp21
 70
     0
102
RTVSPropertyOp22
 70
     0
102
RTVSPropertyOp23
 70
     0
102
RTVSPropertyOp24
 70
     0
102
RTVSPropertyOp25
 70
     0
102
RTVSPropertyOp26
 70
     0
102
RTVSPropertyOp27
 70
     0
102
RTVSPropertyOp28
 70
     0
102
RTVSPropertyOp29
 70
     0
102
RTVSPropertyOp30
 70
     0
102
RTVSPropertyOp31
 70
     0
102
RTVSPropertyOp32
 70
     0
102
RTVSPropertyOp33
 70
     0
102
RTVSPropertyOp34
 70
     0
102
RTVSPropertyOp35
 70
     0
102
RTVSPropertyOp36
 70
     0
102
RTVSPropertyOp37
 70
     0
102
RTVSPropertyOp38
 70
     0
102
RTVSPropertyOp39
 70
     0
102
RTVSPropertyOp40
 70
     0
102
RTVSPropertyOp41
 70
     0
102
RTVSPropertyOp42
 70
     0
102
RTVSPropertyOp43
 70
     0
102
RTVSPropertyOp44
 70
     0
102
RTVSPropertyOp45
 70
     0
102
RTVSPropertyOp46
 70
     0
102
RTVSPropertyOp47
 70
     0
102
RTVSPropertyOp48
 70
     0
102
RTVSPropertyOp49
 70
     0
102
RTVSPropertyOp50
 70
     0
102
RTVSPropertyOp51
 70
     0
102
RTVSPropertyOp52
 70
     0
102
RTVSPropertyOp53
 70
     0
102
RTVSPropertyOp54
 70
     0
102
RTVSPropertyOp55
 70
     0
102
RTVSPropertyOp56
 70
     0
102
RTVSPropertyOp57
 70
     0
102
RTVSPropertyOp58
 70
     1
102
RTVSPropertyOp59
 70
     1
102
RTVSPropertyOp60
 70
     1
102
RTVSPropertyOp61
 70
     1
102
RTVSPropertyOp62
 70
     1
  0
XRECORD
  5
37A
102
{ACAD_REACTORS
330
379
102
}
330
379
100
AcDbXrecord
280
     1
102
RTVSPost2010Prop28
280
     0
102
RTVSPost2010PropOp28
 70
     1
102
RTVSPost2010Prop29
280
     1
102
RTVSPost2010PropOp29
 70
     1
102
RTVSPost2010Prop30
280
     1
102
RTVSPost2010PropOp30
 70
     1
102
RTVSPost2010Prop31
280
     0
102
RTVSPost2010PropOp31
 70
     1
102
RTVSPost2010Prop32
280
     0
102
RTVSPost2010PropOp32
 70
     1
102
RTVSPost2010Prop33
280
     0
102
RTVSPost2010PropOp33
 70
     1
102
RTVSPost2010Prop34
280
     0
102
RTVSPost2010PropOp34
 70
     1
102
RTVSPost2010Prop35
280
     0
102
RTVSPost2010PropOp35
 70
     1
102
RTVSPost2010Prop36
280
     0
102
RTVSPost2010PropOp36
 70
     1
102
RTVSPost2010Prop37
 90
       50
102
RTVSPost2010PropOp37
 70
     1
102
RTVSPost2010Prop38
140
0.0
102
RTVSPost2010PropOp38
 70
     1
102
RTVSPost2010Prop39
140
1.0
102
RTVSPost2010PropOp39
 70
     1
102
RTVSPost2010Prop40
 90
        0
102
RTVSPost2010PropOp40
 70
     1
102
RTVSPost2010Prop41ColorIndex
 90
       18
102
RTVSPost2010Prop41ColorRGB
 90
        0
102
RTVSPost2010PropOp41
 70
     1
102
RTVSPost2010Prop42
 90
       50
102
RTVSPost2010PropOp42
 70
     1
102
RTVSPost2010Prop43
 90
        3
102
RTVSPost2010PropOp43
 70
     1
102
RTVSPost2010Prop44ColorIndex
 90
        5
102
RTVSPost2010Prop44ColorRGB
 90
      255
102
RTVSPost2010PropOp44
 70
     1
102
RTVSPost2010Prop45
280
     0
102
RTVSPost2010PropOp45
 70
     1
102
RTVSPost2010Prop46
 90
       50
102
RTVSPost2010PropOp46
 70
     1
102
RTVSPost2010Prop47
 90
       50
102
RTVSPost2010PropOp47
 70
     1
102
RTVSPost2010Prop48
 90
       50
102
RTVSPost2010PropOp48
 70
     1
102
RTVSPost2010Prop49
280
     0
102
RTVSPost2010PropOp49
 70
     1
102
RTVSPost2010Prop50
 90
       50
102
RTVSPost2010PropOp50
 70
     1
102
RTVSPost2010Prop51ColorIndex
 90
      256
102
RTVSPost2010Prop51ColorRGB
 90
-16777216
102
RTVSPost2010PropOp51
 70
     0
102
RTVSPost2010Prop52
140
1.0
102
RTVSPost2010PropOp52
 70
     0
102
RTVSPost2010Prop53
 90
        2
102
RTVSPost2010PropOp53
 70
     1
102
RTVSPost2010Prop54
  1
strokes_ogs.tif
102
RTVSPost2010PropOp54
 70
     1
102
RTVSPost2010Prop55
280
     0
102
RTVSPost2010PropOp55
 70
     1
102
RTVSPost2010Prop56
140
1.0
102
RTVSPost2010PropOp56
 70
     1
102
RTVSPost2010Prop57
140
1.0
102
RTVSPost2010PropOp57
 70
     1
102
RTVSPropertyOp0
 70
     1
102
RTVSPropertyOp1
 70
     1
102
RTVSPropertyOp2
 70
     1
102
RTVSPropertyOp3
 70
     1
102
RTVSPropertyOp4
 70
     1
102
RTVSPropertyOp5
 70
     1
102
RTVSPropertyOp6
 70
     1
102
RTVSPropertyOp7
 70
     1
102
RTVSPropertyOp8
 70
     1
102
RTVSPropertyOp9
 70
     1
102
RTVSPropertyOp10
 70
     1
102
RTVSPropertyOp11
 70
     1
102
RTVSPropertyOp12
 70
     1
102
RTVSPropertyOp13
 70
     1
102
RTVSPropertyOp14
 70
     1
102
RTVSPropertyOp15
 70
     1
102
RTVSPropertyOp16
 70
     1
102
RTVSPropertyOp17
 70
     1
102
RTVSPropertyOp18
 70
     1
102
RTVSPropertyOp19
 70
     1
102
RTVSPropertyOp20
 70
     1
102
RTVSPropertyOp21
 70
     1
102
RTVSPropertyOp22
 70
     1
102
RTVSPropertyOp23
 70
     1
102
RTVSPropertyOp24
 70
     1
102
RTVSPropertyOp25
 70
     1
102
RTVSPropertyOp26
 70
     1
102
RTVSPropertyOp27
 70
     1
102
RTVSPropertyOp28
 70
     1
102
RTVSPropertyOp29
 70
     1
102
RTVSPropertyOp30
 70
     1
102
RTVSPropertyOp31
 70
     1
102
RTVSPropertyOp32
 70
     1
102
RTVSPropertyOp33
 70
     1
102
RTVSPropertyOp34
 70
     1
102
RTVSPropertyOp35
 70
     1
102
RTVSPropertyOp36
 70
     1
102
RTVSPropertyOp37
 70
     1
102
RTVSPropertyOp38
 70
     1
102
RTVSPropertyOp39
 70
     1
102
RTVSPropertyOp40
 70
     1
102
RTVSPropertyOp41
 70
     1
102
RTVSPropertyOp42
 70
     1
102
RTVSPropertyOp43
 70
     1
102
RTVSPropertyOp44
 70
     1
102
RTVSPropertyOp45
 70
     1
102
RTVSPropertyOp46
 70
     1
102
RTVSPropertyOp47
 70
     1
102
RTVSPropertyOp48
 70
     1
102
RTVSPropertyOp49
 70
     1
102
RTVSPropertyOp50
 70
     1
102
RTVSPropertyOp51
 70
     0
102
RTVSPropertyOp52
 70
     0
102
RTVSPropertyOp53
 70
     1
102
RTVSPropertyOp54
 70
     1
102
RTVSPropertyOp55
 70
     1
102
RTVSPropertyOp56
 70
     1
102
RTVSPropertyOp57
 70
     1
102
RTVSPropertyOp58
 70
     1
102
RTVSPropertyOp59
 70
     1
102
RTVSPropertyOp60
 70
     1
102
RTVSPropertyOp61
 70
     1
102
RTVSPropertyOp62
 70
     1
  0
XRECORD
  5
382
102
{ACAD_REACTORS
330
381
102
}
330
381
100
AcDbXrecord
280
     1
102
RTVSPost2010Prop28
280
     0
102
RTVSPost2010PropOp28
 70
     0
102
RTVSPost2010Prop29
280
     1
102
RTVSPost2010PropOp29
 70
     0
102
RTVSPost2010Prop30
280
     1
102
RTVSPost2010PropOp30
 70
     0
102
RTVSPost2010Prop31
280
     0
102
RTVSPost2010PropOp31
 70
     0
102
RTVSPost2010Prop32
280
     0
102
RTVSPost2010PropOp32
 70
     0
102
RTVSPost2010Prop33
280
     0
102
RTVSPost2010PropOp33
 70
     0
102
RTVSPost2010Prop34
280
     0
102
RTVSPost2010PropOp34
 70
     0
102
RTVSPost2010Prop35
280
     0
102
RTVSPost2010PropOp35
 70
     0
102
RTVSPost2010Prop36
280
     0
102
RTVSPost2010PropOp36
 70
     0
102
RTVSPost2010Prop37
 90
       50
102
RTVSPost2010PropOp37
 70
     0
102
RTVSPost2010Prop38
140
0.0
102
RTVSPost2010PropOp38
 70
     0
102
RTVSPost2010Prop39
140
1.0
102
RTVSPost2010PropOp39
 70
     0
102
RTVSPost2010Prop40
 90
        0
102
RTVSPost2010PropOp40
 70
     0
102
RTVSPost2010Prop41ColorIndex
 90
       18
102
RTVSPost2010Prop41ColorRGB
 90
        0
102
RTVSPost2010PropOp41
 70
     0
102
RTVSPost2010Prop42
 90
       50
102
RTVSPost2010PropOp42
 70
     0
102
RTVSPost2010Prop43
 90
        3
102
RTVSPost2010PropOp43
 70
     0
102
RTVSPost2010Prop44ColorIndex
 90
        5
102
RTVSPost2010Prop44ColorRGB
 90
      255
102
RTVSPost2010PropOp44
 70
     0
102
RTVSPost2010Prop45
280
     0
102
RTVSPost2010PropOp45
 70
     0
102
RTVSPost2010Prop46
 90
       50
102
RTVSPost2010PropOp46
 70
     0
102
RTVSPost2010Prop47
 90
       50
102
RTVSPost2010PropOp47
 70
     0
102
RTVSPost2010Prop48
 90
       50
102
RTVSPost2010PropOp48
 70
     0
102
RTVSPost2010Prop49
280
     0
102
RTVSPost2010PropOp49
 70
     0
102
RTVSPost2010Prop50
 90
       50
102
RTVSPost2010PropOp50
 70
     0
102
RTVSPost2010Prop51ColorIndex
 90
      256
102
RTVSPost2010Prop51ColorRGB
 90
-16777216
102
RTVSPost2010PropOp51
 70
     0
102
RTVSPost2010Prop52
140
1.0
102
RTVSPost2010PropOp52
 70
     0
102
RTVSPost2010Prop53
 90
        2
102
RTVSPost2010PropOp53
 70
     0
102
RTVSPost2010Prop54
  1
strokes_ogs.tif
102
RTVSPost2010PropOp54
 70
     0
102
RTVSPost2010Prop55
280
     0
102
RTVSPost2010PropOp55
 70
     0
102
RTVSPost2010Prop56
140
1.0
102
RTVSPost2010PropOp56
 70
     0
102
RTVSPost2010Prop57
140
1.0
102
RTVSPost2010PropOp57
 70
     0
102
RTVSPropertyOp0
 70
     0
102
RTVSPropertyOp1
 70
     0
102
RTVSPropertyOp2
 70
     0
102
RTVSPropertyOp3
 70
     0
102
RTVSPropertyOp4
 70
     0
102
RTVSPropertyOp5
 70
     0
102
RTVSPropertyOp6
 70
     0
102
RTVSPropertyOp7
 70
     0
102
RTVSPropertyOp8
 70
     0
102
RTVSPropertyOp9
 70
     0
102
RTVSPropertyOp10
 70
     0
102
RTVSPropertyOp11
 70
     0
102
RTVSPropertyOp12
 70
     0
102
RTVSPropertyOp13
 70
     0
102
RTVSPropertyOp14
 70
     2
102
RTVSPropertyOp15
 70
     0
102
RTVSPropertyOp16
 70
     0
102
RTVSPropertyOp17
 70
     0
102
RTVSPropertyOp18
 70
     0
102
RTVSPropertyOp19
 70
     0
102
RTVSPropertyOp20
 70
     0
102
RTVSPropertyOp21
 70
     0
102
RTVSPropertyOp22
 70
     0
102
RTVSPropertyOp23
 70
     0
102
RTVSPropertyOp24
 70
     0
102
RTVSPropertyOp25
 70
     0
102
RTVSPropertyOp26
 70
     0
102
RTVSPropertyOp27
 70
     0
102
RTVSPropertyOp28
 70
     0
102
RTVSPropertyOp29
 70
     0
102
RTVSPropertyOp30
 70
     0
102
RTVSPropertyOp31
 70
     0
102
RTVSPropertyOp32
 70
     0
102
RTVSPropertyOp33
 70
     0
102
RTVSPropertyOp34
 70
     0
102
RTVSPropertyOp35
 70
     0
102
RTVSPropertyOp36
 70
     0
102
RTVSPropertyOp37
 70
     0
102
RTVSPropertyOp38
 70
     0
102
RTVSPropertyOp39
 70
     0
102
RTVSPropertyOp40
 70
     0
102
RTVSPropertyOp41
 70
     0
102
RTVSPropertyOp42
 70
     0
102
RTVSPropertyOp43
 70
     0
102
RTVSPropertyOp44
 70
     0
102
RTVSPropertyOp45
 70
     0
102
RTVSPropertyOp46
 70
     0
102
RTVSPropertyOp47
 70
     0
102
RTVSPropertyOp48
 70
     0
102
RTVSPropertyOp49
 70
     0
102
RTVSPropertyOp50
 70
     0
102
RTVSPropertyOp51
 70
     0
102
RTVSPropertyOp52
 70
     0
102
RTVSPropertyOp53
 70
     0
102
RTVSPropertyOp54
 70
     0
102
RTVSPropertyOp55
 70
     0
102
RTVSPropertyOp56
 70
     0
102
RTVSPropertyOp57
 70
     0
102
RTVSPropertyOp58
 70
     1
102
RTVSPropertyOp59
 70
     1
102
RTVSPropertyOp60
 70
     1
102
RTVSPropertyOp61
 70
     1
102
RTVSPropertyOp62
 70
     1
  0
XRECORD
  5
370
102
{ACAD_REACTORS
330
36F
102
}
330
36F
100
AcDbXrecord
280
     1
102
RTVSPost2010Prop28
280
     0
102
RTVSPost2010PropOp28
 70
     1
102
RTVSPost2010Prop29
280
     1
102
RTVSPost2010PropOp29
 70
     1
102
RTVSPost2010Prop30
280
     1
102
RTVSPost2010PropOp30
 70
     1
102
RTVSPost2010Prop31
280
     0
102
RTVSPost2010PropOp31
 70
     1
102
RTVSPost2010Prop32
280
     0
102
RTVSPost2010PropOp32
 70
     1
102
RTVSPost2010Prop33
280
     0
102
RTVSPost2010PropOp33
 70
     1
102
RTVSPost2010Prop34
280
     0
102
RTVSPost2010PropOp34
 70
     1
102
RTVSPost2010Prop35
280
     0
102
RTVSPost2010PropOp35
 70
     1
102
RTVSPost2010Prop36
280
     0
102
RTVSPost2010PropOp36
 70
     1
102
RTVSPost2010Prop37
 90
       50
102
RTVSPost2010PropOp37
 70
     1
102
RTVSPost2010Prop38
140
0.0
102
RTVSPost2010PropOp38
 70
     1
102
RTVSPost2010Prop39
140
1.0
102
RTVSPost2010PropOp39
 70
     1
102
RTVSPost2010Prop40
 90
        0
102
RTVSPost2010PropOp40
 70
     1
102
RTVSPost2010Prop41ColorIndex
 90
       18
102
RTVSPost2010Prop41ColorRGB
 90
        0
102
RTVSPost2010PropOp41
 70
     1
102
RTVSPost2010Prop42
 90
       50
102
RTVSPost2010PropOp42
 70
     1
102
RTVSPost2010Prop43
 90
        3
102
RTVSPost2010PropOp43
 70
     1
102
RTVSPost2010Prop44ColorIndex
 90
        5
102
RTVSPost2010Prop44ColorRGB
 90
      255
102
RTVSPost2010PropOp44
 70
     1
102
RTVSPost2010Prop45
280
     0
102
RTVSPost2010PropOp45
 70
     1
102
RTVSPost2010Prop46
 90
       50
102
RTVSPost2010PropOp46
 70
     1
102
RTVSPost2010Prop47
 90
       50
102
RTVSPost2010PropOp47
 70
     1
102
RTVSPost2010Prop48
 90
       50
102
RTVSPost2010PropOp48
 70
     1
102
RTVSPost2010Prop49
280
     0
102
RTVSPost2010PropOp49
 70
     1
102
RTVSPost2010Prop50
 90
       50
102
RTVSPost2010PropOp50
 70
     1
102
RTVSPost2010Prop51ColorIndex
 90
      256
102
RTVSPost2010Prop51ColorRGB
 90
-16777216
102
RTVSPost2010PropOp51
 70
     0
102
RTVSPost2010Prop52
140
1.0
102
RTVSPost2010PropOp52
 70
     0
102
RTVSPost2010Prop53
 90
        2
102
RTVSPost2010PropOp53
 70
     1
102
RTVSPost2010Prop54
  1
strokes_ogs.tif
102
RTVSPost2010PropOp54
 70
     1
102
RTVSPost2010Prop55
280
     0
102
RTVSPost2010PropOp55
 70
     1
102
RTVSPost2010Prop56
140
1.0
102
RTVSPost2010PropOp56
 70
     1
102
RTVSPost2010Prop57
140
1.0
102
RTVSPost2010PropOp57
 70
     1
102
RTVSPropertyOp0
 70
     1
102
RTVSPropertyOp1
 70
     1
102
RTVSPropertyOp2
 70
     1
102
RTVSPropertyOp3
 70
     1
102
RTVSPropertyOp4
 70
     1
102
RTVSPropertyOp5
 70
     1
102
RTVSPropertyOp6
 70
     1
102
RTVSPropertyOp7
 70
     1
102
RTVSPropertyOp8
 70
     1
102
RTVSPropertyOp9
 70
     1
102
RTVSPropertyOp10
 70
     1
102
RTVSPropertyOp11
 70
     1
102
RTVSPropertyOp12
 70
     1
102
RTVSPropertyOp13
 70
     1
102
RTVSPropertyOp14
 70
     1
102
RTVSPropertyOp15
 70
     1
102
RTVSPropertyOp16
 70
     1
102
RTVSPropertyOp17
 70
     1
102
RTVSPropertyOp18
 70
     1
102
RTVSPropertyOp19
 70
     1
102
RTVSPropertyOp20
 70
     1
102
RTVSPropertyOp21
 70
     1
102
RTVSPropertyOp22
 70
     1
102
RTVSPropertyOp23
 70
     1
102
RTVSPropertyOp24
 70
     1
102
RTVSPropertyOp25
 70
     1
102
RTVSPropertyOp26
 70
     1
102
RTVSPropertyOp27
 70
     1
102
RTVSPropertyOp28
 70
     1
102
RTVSPropertyOp29
 70
     1
102
RTVSPropertyOp30
 70
     1
102
RTVSPropertyOp31
 70
     1
102
RTVSPropertyOp32
 70
     1
102
RTVSPropertyOp33
 70
     1
102
RTVSPropertyOp34
 70
     1
102
RTVSPropertyOp35
 70
     1
102
RTVSPropertyOp36
 70
     1
102
RTVSPropertyOp37
 70
     1
102
RTVSPropertyOp38
 70
     1
102
RTVSPropertyOp39
 70
     1
102
RTVSPropertyOp40
 70
     1
102
RTVSPropertyOp41
 70
     1
102
RTVSPropertyOp42
 70
     1
102
RTVSPropertyOp43
 70
     1
102
RTVSPropertyOp44
 70
     1
102
RTVSPropertyOp45
 70
     1
102
RTVSPropertyOp46
 70
     1
102
RTVSPropertyOp47
 70
     1
102
RTVSPropertyOp48
 70
     1
102
RTVSPropertyOp49
 70
     1
102
RTVSPropertyOp50
 70
     1
102
RTVSPropertyOp51
 70
     0
102
RTVSPropertyOp52
 70
     0
102
RTVSPropertyOp53
 70
     1
102
RTVSPropertyOp54
 70
     1
102
RTVSPropertyOp55
 70
     1
102
RTVSPropertyOp56
 70
     1
102
RTVSPropertyOp57
 70
     1
102
RTVSPropertyOp58
 70
     1
102
RTVSPropertyOp59
 70
     1
102
RTVSPropertyOp60
 70
     1
102
RTVSPropertyOp61
 70
     1
102
RTVSPropertyOp62
 70
     1
  0
XRECORD
  5
38E
102
{ACAD_REACTORS
330
38D
102
}
330
38D
100
AcDbXrecord
280
     1
102
RTVSPost2010Prop28
280
     0
102
RTVSPost2010PropOp28
 70
     1
102
RTVSPost2010Prop29
280
     1
102
RTVSPost2010PropOp29
 70
     1
102
RTVSPost2010Prop30
280
     1
102
RTVSPost2010PropOp30
 70
     1
102
RTVSPost2010Prop31
280
     0
102
RTVSPost2010PropOp31
 70
     1
102
RTVSPost2010Prop32
280
     0
102
RTVSPost2010PropOp32
 70
     1
102
RTVSPost2010Prop33
280
     0
102
RTVSPost2010PropOp33
 70
     1
102
RTVSPost2010Prop34
280
     0
102
RTVSPost2010PropOp34
 70
     1
102
RTVSPost2010Prop35
280
     0
102
RTVSPost2010PropOp35
 70
     1
102
RTVSPost2010Prop36
280
     0
102
RTVSPost2010PropOp36
 70
     1
102
RTVSPost2010Prop37
 90
       50
102
RTVSPost2010PropOp37
 70
     1
102
RTVSPost2010Prop38
140
0.0
102
RTVSPost2010PropOp38
 70
     1
102
RTVSPost2010Prop39
140
1.0
102
RTVSPost2010PropOp39
 70
     1
102
RTVSPost2010Prop40
 90
        0
102
RTVSPost2010PropOp40
 70
     1
102
RTVSPost2010Prop41ColorIndex
 90
       18
102
RTVSPost2010Prop41ColorRGB
 90
        0
102
RTVSPost2010PropOp41
 70
     1
102
RTVSPost2010Prop42
 90
       50
102
RTVSPost2010PropOp42
 70
     1
102
RTVSPost2010Prop43
 90
        3
102
RTVSPost2010PropOp43
 70
     1
102
RTVSPost2010Prop44ColorIndex
 90
        5
102
RTVSPost2010Prop44ColorRGB
 90
      255
102
RTVSPost2010PropOp44
 70
     1
102
RTVSPost2010Prop45
280
     0
102
RTVSPost2010PropOp45
 70
     1
102
RTVSPost2010Prop46
 90
       50
102
RTVSPost2010PropOp46
 70
     1
102
RTVSPost2010Prop47
 90
       50
102
RTVSPost2010PropOp47
 70
     1
102
RTVSPost2010Prop48
 90
       50
102
RTVSPost2010PropOp48
 70
     1
102
RTVSPost2010Prop49
280
     0
102
RTVSPost2010PropOp49
 70
     1
102
RTVSPost2010Prop50
 90
       50
102
RTVSPost2010PropOp50
 70
     1
102
RTVSPost2010Prop51ColorIndex
 90
      256
102
RTVSPost2010Prop51ColorRGB
 90
-16777216
102
RTVSPost2010PropOp51
 70
     0
102
RTVSPost2010Prop52
140
1.0
102
RTVSPost2010PropOp52
 70
     0
102
RTVSPost2010Prop53
 90
        2
102
RTVSPost2010PropOp53
 70
     1
102
RTVSPost2010Prop54
  1
strokes_ogs.tif
102
RTVSPost2010PropOp54
 70
     1
102
RTVSPost2010Prop55
280
     0
102
RTVSPost2010PropOp55
 70
     1
102
RTVSPost2010Prop56
140
1.0
102
RTVSPost2010PropOp56
 70
     1
102
RTVSPost2010Prop57
140
1.0
102
RTVSPost2010PropOp57
 70
     1
102
RTVSPropertyOp0
 70
     1
102
RTVSPropertyOp1
 70
     1
102
RTVSPropertyOp2
 70
     1
102
RTVSPropertyOp3
 70
     1
102
RTVSPropertyOp4
 70
     1
102
RTVSPropertyOp5
 70
     1
102
RTVSPropertyOp6
 70
     1
102
RTVSPropertyOp7
 70
     1
102
RTVSPropertyOp8
 70
     1
102
RTVSPropertyOp9
 70
     1
102
RTVSPropertyOp10
 70
     1
102
RTVSPropertyOp11
 70
     1
102
RTVSPropertyOp12
 70
     1
102
RTVSPropertyOp13
 70
     1
102
RTVSPropertyOp14
 70
     1
102
RTVSPropertyOp15
 70
     1
102
RTVSPropertyOp16
 70
     1
102
RTVSPropertyOp17
 70
     1
102
RTVSPropertyOp18
 70
     1
102
RTVSPropertyOp19
 70
     1
102
RTVSPropertyOp20
 70
     1
102
RTVSPropertyOp21
 70
     1
102
RTVSPropertyOp22
 70
     1
102
RTVSPropertyOp23
 70
     1
102
RTVSPropertyOp24
 70
     1
102
RTVSPropertyOp25
 70
     1
102
RTVSPropertyOp26
 70
     1
102
RTVSPropertyOp27
 70
     1
102
RTVSPropertyOp28
 70
     1
102
RTVSPropertyOp29
 70
     1
102
RTVSPropertyOp30
 70
     1
102
RTVSPropertyOp31
 70
     1
102
RTVSPropertyOp32
 70
     1
102
RTVSPropertyOp33
 70
     1
102
RTVSPropertyOp34
 70
     1
102
RTVSPropertyOp35
 70
     1
102
RTVSPropertyOp36
 70
     1
102
RTVSPropertyOp37
 70
     1
102
RTVSPropertyOp38
 70
     1
102
RTVSPropertyOp39
 70
     1
102
RTVSPropertyOp40
 70
     1
102
RTVSPropertyOp41
 70
     1
102
RTVSPropertyOp42
 70
     1
102
RTVSPropertyOp43
 70
     1
102
RTVSPropertyOp44
 70
     1
102
RTVSPropertyOp45
 70
     1
102
RTVSPropertyOp46
 70
     1
102
RTVSPropertyOp47
 70
     1
102
RTVSPropertyOp48
 70
     1
102
RTVSPropertyOp49
 70
     1
102
RTVSPropertyOp50
 70
     1
102
RTVSPropertyOp51
 70
     0
102
RTVSPropertyOp52
 70
     0
102
RTVSPropertyOp53
 70
     1
102
RTVSPropertyOp54
 70
     1
102
RTVSPropertyOp55
 70
     1
102
RTVSPropertyOp56
 70
     1
102
RTVSPropertyOp57
 70
     1
102
RTVSPropertyOp58
 70
     1
102
RTVSPropertyOp59
 70
     1
102
RTVSPropertyOp60
 70
     1
102
RTVSPropertyOp61
 70
     1
102
RTVSPropertyOp62
 70
     1
  0
XRECORD
  5
38C
102
{ACAD_REACTORS
330
38B
102
}
330
38B
100
AcDbXrecord
280
     1
102
RTVSPost2010Prop28
280
     0
102
RTVSPost2010PropOp28
 70
     1
102
RTVSPost2010Prop29
280
     1
102
RTVSPost2010PropOp29
 70
     1
102
RTVSPost2010Prop30
280
     1
102
RTVSPost2010PropOp30
 70
     1
102
RTVSPost2010Prop31
280
     0
102
RTVSPost2010PropOp31
 70
     1
102
RTVSPost2010Prop32
280
     0
102
RTVSPost2010PropOp32
 70
     1
102
RTVSPost2010Prop33
280
     0
102
RTVSPost2010PropOp33
 70
     1
102
RTVSPost2010Prop34
280
     0
102
RTVSPost2010PropOp34
 70
     1
102
RTVSPost2010Prop35
280
     0
102
RTVSPost2010PropOp35
 70
     1
102
RTVSPost2010Prop36
280
     0
102
RTVSPost2010PropOp36
 70
     1
102
RTVSPost2010Prop37
 90
       50
102
RTVSPost2010PropOp37
 70
     1
102
RTVSPost2010Prop38
140
0.0
102
RTVSPost2010PropOp38
 70
     1
102
RTVSPost2010Prop39
140
1.0
102
RTVSPost2010PropOp39
 70
     1
102
RTVSPost2010Prop40
 90
        0
102
RTVSPost2010PropOp40
 70
     1
102
RTVSPost2010Prop41ColorIndex
 90
       18
102
RTVSPost2010Prop41ColorRGB
 90
        0
102
RTVSPost2010PropOp41
 70
     1
102
RTVSPost2010Prop42
 90
       50
102
RTVSPost2010PropOp42
 70
     1
102
RTVSPost2010Prop43
 90
        3
102
RTVSPost2010PropOp43
 70
     1
102
RTVSPost2010Prop44ColorIndex
 90
        5
102
RTVSPost2010Prop44ColorRGB
 90
      255
102
RTVSPost2010PropOp44
 70
     1
102
RTVSPost2010Prop45
280
     0
102
RTVSPost2010PropOp45
 70
     1
102
RTVSPost2010Prop46
 90
       50
102
RTVSPost2010PropOp46
 70
     1
102
RTVSPost2010Prop47
 90
       50
102
RTVSPost2010PropOp47
 70
     1
102
RTVSPost2010Prop48
 90
       50
102
RTVSPost2010PropOp48
 70
     1
102
RTVSPost2010Prop49
280
     0
102
RTVSPost2010PropOp49
 70
     1
102
RTVSPost2010Prop50
 90
       50
102
RTVSPost2010PropOp50
 70
     1
102
RTVSPost2010Prop51ColorIndex
 90
      256
102
RTVSPost2010Prop51ColorRGB
 90
-16777216
102
RTVSPost2010PropOp51
 70
     0
102
RTVSPost2010Prop52
140
1.0
102
RTVSPost2010PropOp52
 70
     0
102
RTVSPost2010Prop53
 90
        2
102
RTVSPost2010PropOp53
 70
     1
102
RTVSPost2010Prop54
  1
strokes_ogs.tif
102
RTVSPost2010PropOp54
 70
     1
102
RTVSPost2010Prop55
280
     0
102
RTVSPost2010PropOp55
 70
     1
102
RTVSPost2010Prop56
140
1.0
102
RTVSPost2010PropOp56
 70
     1
102
RTVSPost2010Prop57
140
1.0
102
RTVSPost2010PropOp57
 70
     1
102
RTVSPropertyOp0
 70
     1
102
RTVSPropertyOp1
 70
     1
102
RTVSPropertyOp2
 70
     1
102
RTVSPropertyOp3
 70
     1
102
RTVSPropertyOp4
 70
     1
102
RTVSPropertyOp5
 70
     1
102
RTVSPropertyOp6
 70
     1
102
RTVSPropertyOp7
 70
     1
102
RTVSPropertyOp8
 70
     1
102
RTVSPropertyOp9
 70
     1
102
RTVSPropertyOp10
 70
     1
102
RTVSPropertyOp11
 70
     1
102
RTVSPropertyOp12
 70
     1
102
RTVSPropertyOp13
 70
     1
102
RTVSPropertyOp14
 70
     1
102
RTVSPropertyOp15
 70
     1
102
RTVSPropertyOp16
 70
     1
102
RTVSPropertyOp17
 70
     1
102
RTVSPropertyOp18
 70
     1
102
RTVSPropertyOp19
 70
     1
102
RTVSPropertyOp20
 70
     1
102
RTVSPropertyOp21
 70
     1
102
RTVSPropertyOp22
 70
     1
102
RTVSPropertyOp23
 70
     1
102
RTVSPropertyOp24
 70
     1
102
RTVSPropertyOp25
 70
     1
102
RTVSPropertyOp26
 70
     1
102
RTVSPropertyOp27
 70
     1
102
RTVSPropertyOp28
 70
     1
102
RTVSPropertyOp29
 70
     1
102
RTVSPropertyOp30
 70
     1
102
RTVSPropertyOp31
 70
     1
102
RTVSPropertyOp32
 70
     1
102
RTVSPropertyOp33
 70
     1
102
RTVSPropertyOp34
 70
     1
102
RTVSPropertyOp35
 70
     1
102
RTVSPropertyOp36
 70
     1
102
RTVSPropertyOp37
 70
     1
102
RTVSPropertyOp38
 70
     1
102
RTVSPropertyOp39
 70
     1
102
RTVSPropertyOp40
 70
     1
102
RTVSPropertyOp41
 70
     1
102
RTVSPropertyOp42
 70
     1
102
RTVSPropertyOp43
 70
     1
102
RTVSPropertyOp44
 70
     1
102
RTVSPropertyOp45
 70
     1
102
RTVSPropertyOp46
 70
     1
102
RTVSPropertyOp47
 70
     1
102
RTVSPropertyOp48
 70
     1
102
RTVSPropertyOp49
 70
     1
102
RTVSPropertyOp50
 70
     1
102
RTVSPropertyOp51
 70
     0
102
RTVSPropertyOp52
 70
     0
102
RTVSPropertyOp53
 70
     1
102
RTVSPropertyOp54
 70
     1
102
RTVSPropertyOp55
 70
     1
102
RTVSPropertyOp56
 70
     1
102
RTVSPropertyOp57
 70
     1
102
RTVSPropertyOp58
 70
     1
102
RTVSPropertyOp59
 70
     1
102
RTVSPropertyOp60
 70
     1
102
RTVSPropertyOp61
 70
     1
102
RTVSPropertyOp62
 70
     1
  0
XRECORD
  5
386
102
{ACAD_REACTORS
330
385
102
}
330
385
100
AcDbXrecord
280
     1
102
RTVSPost2010Prop28
280
     0
102
RTVSPost2010PropOp28
 70
     1
102
RTVSPost2010Prop29
280
     1
102
RTVSPost2010PropOp29
 70
     1
102
RTVSPost2010Prop30
280
     1
102
RTVSPost2010PropOp30
 70
     1
102
RTVSPost2010Prop31
280
     0
102
RTVSPost2010PropOp31
 70
     1
102
RTVSPost2010Prop32
280
     0
102
RTVSPost2010PropOp32
 70
     1
102
RTVSPost2010Prop33
280
     0
102
RTVSPost2010PropOp33
 70
     1
102
RTVSPost2010Prop34
280
     0
102
RTVSPost2010PropOp34
 70
     1
102
RTVSPost2010Prop35
280
     0
102
RTVSPost2010PropOp35
 70
     1
102
RTVSPost2010Prop36
280
     0
102
RTVSPost2010PropOp36
 70
     1
102
RTVSPost2010Prop37
 90
       50
102
RTVSPost2010PropOp37
 70
     1
102
RTVSPost2010Prop38
140
0.0
102
RTVSPost2010PropOp38
 70
     1
102
RTVSPost2010Prop39
140
1.0
102
RTVSPost2010PropOp39
 70
     1
102
RTVSPost2010Prop40
 90
        0
102
RTVSPost2010PropOp40
 70
     1
102
RTVSPost2010Prop41ColorIndex
 90
       18
102
RTVSPost2010Prop41ColorRGB
 90
        0
102
RTVSPost2010PropOp41
 70
     1
102
RTVSPost2010Prop42
 90
       50
102
RTVSPost2010PropOp42
 70
     1
102
RTVSPost2010Prop43
 90
        3
102
RTVSPost2010PropOp43
 70
     1
102
RTVSPost2010Prop44ColorIndex
 90
        5
102
RTVSPost2010Prop44ColorRGB
 90
      255
102
RTVSPost2010PropOp44
 70
     1
102
RTVSPost2010Prop45
280
     0
102
RTVSPost2010PropOp45
 70
     1
102
RTVSPost2010Prop46
 90
       50
102
RTVSPost2010PropOp46
 70
     1
102
RTVSPost2010Prop47
 90
       50
102
RTVSPost2010PropOp47
 70
     1
102
RTVSPost2010Prop48
 90
       50
102
RTVSPost2010PropOp48
 70
     1
102
RTVSPost2010Prop49
280
     0
102
RTVSPost2010PropOp49
 70
     1
102
RTVSPost2010Prop50
 90
       50
102
RTVSPost2010PropOp50
 70
     1
102
RTVSPost2010Prop51ColorIndex
 90
      256
102
RTVSPost2010Prop51ColorRGB
 90
-16777216
102
RTVSPost2010PropOp51
 70
     0
102
RTVSPost2010Prop52
140
1.0
102
RTVSPost2010PropOp52
 70
     0
102
RTVSPost2010Prop53
 90
        2
102
RTVSPost2010PropOp53
 70
     1
102
RTVSPost2010Prop54
  1
strokes_ogs.tif
102
RTVSPost2010PropOp54
 70
     1
102
RTVSPost2010Prop55
280
     0
102
RTVSPost2010PropOp55
 70
     1
102
RTVSPost2010Prop56
140
1.0
102
RTVSPost2010PropOp56
 70
     1
102
RTVSPost2010Prop57
140
1.0
102
RTVSPost2010PropOp57
 70
     1
102
RTVSPropertyOp0
 70
     1
102
RTVSPropertyOp1
 70
     1
102
RTVSPropertyOp2
 70
     1
102
RTVSPropertyOp3
 70
     1
102
RTVSPropertyOp4
 70
     1
102
RTVSPropertyOp5
 70
     1
102
RTVSPropertyOp6
 70
     1
102
RTVSPropertyOp7
 70
     1
102
RTVSPropertyOp8
 70
     1
102
RTVSPropertyOp9
 70
     1
102
RTVSPropertyOp10
 70
     1
102
RTVSPropertyOp11
 70
     1
102
RTVSPropertyOp12
 70
     1
102
RTVSPropertyOp13
 70
     1
102
RTVSPropertyOp14
 70
     1
102
RTVSPropertyOp15
 70
     1
102
RTVSPropertyOp16
 70
     1
102
RTVSPropertyOp17
 70
     1
102
RTVSPropertyOp18
 70
     1
102
RTVSPropertyOp19
 70
     1
102
RTVSPropertyOp20
 70
     1
102
RTVSPropertyOp21
 70
     1
102
RTVSPropertyOp22
 70
     1
102
RTVSPropertyOp23
 70
     1
102
RTVSPropertyOp24
 70
     1
102
RTVSPropertyOp25
 70
     1
102
RTVSPropertyOp26
 70
     1
102
RTVSPropertyOp27
 70
     1
102
RTVSPropertyOp28
 70
     1
102
RTVSPropertyOp29
 70
     1
102
RTVSPropertyOp30
 70
     1
102
RTVSPropertyOp31
 70
     1
102
RTVSPropertyOp32
 70
     1
102
RTVSPropertyOp33
 70
     1
102
RTVSPropertyOp34
 70
     1
102
RTVSPropertyOp35
 70
     1
102
RTVSPropertyOp36
 70
     1
102
RTVSPropertyOp37
 70
     1
102
RTVSPropertyOp38
 70
     1
102
RTVSPropertyOp39
 70
     1
102
RTVSPropertyOp40
 70
     1
102
RTVSPropertyOp41
 70
     1
102
RTVSPropertyOp42
 70
     1
102
RTVSPropertyOp43
 70
     1
102
RTVSPropertyOp44
 70
     1
102
RTVSPropertyOp45
 70
     1
102
RTVSPropertyOp46
 70
     1
102
RTVSPropertyOp47
 70
     1
102
RTVSPropertyOp48
 70
     1
102
RTVSPropertyOp49
 70
     1
102
RTVSPropertyOp50
 70
     1
102
RTVSPropertyOp51
 70
     0
102
RTVSPropertyOp52
 70
     0
102
RTVSPropertyOp53
 70
     1
102
RTVSPropertyOp54
 70
     1
102
RTVSPropertyOp55
 70
     1
102
RTVSPropertyOp56
 70
     1
102
RTVSPropertyOp57
 70
     1
102
RTVSPropertyOp58
 70
     1
102
RTVSPropertyOp59
 70
     1
102
RTVSPropertyOp60
 70
     1
102
RTVSPropertyOp61
 70
     1
102
RTVSPropertyOp62
 70
     1
  0
XRECORD
  5
388
102
{ACAD_REACTORS
330
387
102
}
330
387
100
AcDbXrecord
280
     1
102
RTVSPost2010Prop28
280
     0
102
RTVSPost2010PropOp28
 70
     1
102
RTVSPost2010Prop29
280
     1
102
RTVSPost2010PropOp29
 70
     1
102
RTVSPost2010Prop30
280
     1
102
RTVSPost2010PropOp30
 70
     1
102
RTVSPost2010Prop31
280
     0
102
RTVSPost2010PropOp31
 70
     1
102
RTVSPost2010Prop32
280
     0
102
RTVSPost2010PropOp32
 70
     1
102
RTVSPost2010Prop33
280
     0
102
RTVSPost2010PropOp33
 70
     1
102
RTVSPost2010Prop34
280
     0
102
RTVSPost2010PropOp34
 70
     1
102
RTVSPost2010Prop35
280
     0
102
RTVSPost2010PropOp35
 70
     1
102
RTVSPost2010Prop36
280
     0
102
RTVSPost2010PropOp36
 70
     1
102
RTVSPost2010Prop37
 90
       50
102
RTVSPost2010PropOp37
 70
     1
102
RTVSPost2010Prop38
140
0.0
102
RTVSPost2010PropOp38
 70
     1
102
RTVSPost2010Prop39
140
1.0
102
RTVSPost2010PropOp39
 70
     1
102
RTVSPost2010Prop40
 90
        0
102
RTVSPost2010PropOp40
 70
     1
102
RTVSPost2010Prop41ColorIndex
 90
       18
102
RTVSPost2010Prop41ColorRGB
 90
        0
102
RTVSPost2010PropOp41
 70
     1
102
RTVSPost2010Prop42
 90
       50
102
RTVSPost2010PropOp42
 70
     1
102
RTVSPost2010Prop43
 90
        3
102
RTVSPost2010PropOp43
 70
     1
102
RTVSPost2010Prop44ColorIndex
 90
        5
102
RTVSPost2010Prop44ColorRGB
 90
      255
102
RTVSPost2010PropOp44
 70
     1
102
RTVSPost2010Prop45
280
     0
102
RTVSPost2010PropOp45
 70
     1
102
RTVSPost2010Prop46
 90
       50
102
RTVSPost2010PropOp46
 70
     1
102
RTVSPost2010Prop47
 90
       50
102
RTVSPost2010PropOp47
 70
     1
102
RTVSPost2010Prop48
 90
       50
102
RTVSPost2010PropOp48
 70
     1
102
RTVSPost2010Prop49
280
     0
102
RTVSPost2010PropOp49
 70
     1
102
RTVSPost2010Prop50
 90
       50
102
RTVSPost2010PropOp50
 70
     1
102
RTVSPost2010Prop51ColorIndex
 90
      256
102
RTVSPost2010Prop51ColorRGB
 90
-16777216
102
RTVSPost2010PropOp51
 70
     0
102
RTVSPost2010Prop52
140
1.0
102
RTVSPost2010PropOp52
 70
     0
102
RTVSPost2010Prop53
 90
        2
102
RTVSPost2010PropOp53
 70
     1
102
RTVSPost2010Prop54
  1
strokes_ogs.tif
102
RTVSPost2010PropOp54
 70
     1
102
RTVSPost2010Prop55
280
     0
102
RTVSPost2010PropOp55
 70
     1
102
RTVSPost2010Prop56
140
1.0
102
RTVSPost2010PropOp56
 70
     1
102
RTVSPost2010Prop57
140
1.0
102
RTVSPost2010PropOp57
 70
     1
102
RTVSPropertyOp0
 70
     1
102
RTVSPropertyOp1
 70
     1
102
RTVSPropertyOp2
 70
     1
102
RTVSPropertyOp3
 70
     1
102
RTVSPropertyOp4
 70
     1
102
RTVSPropertyOp5
 70
     1
102
RTVSPropertyOp6
 70
     1
102
RTVSPropertyOp7
 70
     1
102
RTVSPropertyOp8
 70
     1
102
RTVSPropertyOp9
 70
     1
102
RTVSPropertyOp10
 70
     1
102
RTVSPropertyOp11
 70
     1
102
RTVSPropertyOp12
 70
     1
102
RTVSPropertyOp13
 70
     1
102
RTVSPropertyOp14
 70
     1
102
RTVSPropertyOp15
 70
     1
102
RTVSPropertyOp16
 70
     1
102
RTVSPropertyOp17
 70
     1
102
RTVSPropertyOp18
 70
     1
102
RTVSPropertyOp19
 70
     1
102
RTVSPropertyOp20
 70
     1
102
RTVSPropertyOp21
 70
     1
102
RTVSPropertyOp22
 70
     1
102
RTVSPropertyOp23
 70
     1
102
RTVSPropertyOp24
 70
     1
102
RTVSPropertyOp25
 70
     1
102
RTVSPropertyOp26
 70
     1
102
RTVSPropertyOp27
 70
     1
102
RTVSPropertyOp28
 70
     1
102
RTVSPropertyOp29
 70
     1
102
RTVSPropertyOp30
 70
     1
102
RTVSPropertyOp31
 70
     1
102
RTVSPropertyOp32
 70
     1
102
RTVSPropertyOp33
 70
     1
102
RTVSPropertyOp34
 70
     1
102
RTVSPropertyOp35
 70
     1
102
RTVSPropertyOp36
 70
     1
102
RTVSPropertyOp37
 70
     1
102
RTVSPropertyOp38
 70
     1
102
RTVSPropertyOp39
 70
     1
102
RTVSPropertyOp40
 70
     1
102
RTVSPropertyOp41
 70
     1
102
RTVSPropertyOp42
 70
     1
102
RTVSPropertyOp43
 70
     1
102
RTVSPropertyOp44
 70
     1
102
RTVSPropertyOp45
 70
     1
102
RTVSPropertyOp46
 70
     1
102
RTVSPropertyOp47
 70
     1
102
RTVSPropertyOp48
 70
     1
102
RTVSPropertyOp49
 70
     1
102
RTVSPropertyOp50
 70
     1
102
RTVSPropertyOp51
 70
     0
102
RTVSPropertyOp52
 70
     0
102
RTVSPropertyOp53
 70
     1
102
RTVSPropertyOp54
 70
     1
102
RTVSPropertyOp55
 70
     1
102
RTVSPropertyOp56
 70
     1
102
RTVSPropertyOp57
 70
     1
102
RTVSPropertyOp58
 70
     1
102
RTVSPropertyOp59
 70
     1
102
RTVSPropertyOp60
 70
     1
102
RTVSPropertyOp61
 70
     1
102
RTVSPropertyOp62
 70
     1
  0
XRECORD
  5
378
102
{ACAD_REACTORS
330
377
102
}
330
377
100
AcDbXrecord
280
     1
102
RTVSPost2010Prop28
280
     0
102
RTVSPost2010PropOp28
 70
     1
102
RTVSPost2010Prop29
280
     1
102
RTVSPost2010PropOp29
 70
     1
102
RTVSPost2010Prop30
280
     1
102
RTVSPost2010PropOp30
 70
     1
102
RTVSPost2010Prop31
280
     0
102
RTVSPost2010PropOp31
 70
     1
102
RTVSPost2010Prop32
280
     0
102
RTVSPost2010PropOp32
 70
     1
102
RTVSPost2010Prop33
280
     0
102
RTVSPost2010PropOp33
 70
     1
102
RTVSPost2010Prop34
280
     0
102
RTVSPost2010PropOp34
 70
     1
102
RTVSPost2010Prop35
280
     0
102
RTVSPost2010PropOp35
 70
     1
102
RTVSPost2010Prop36
280
     0
102
RTVSPost2010PropOp36
 70
     1
102
RTVSPost2010Prop37
 90
       50
102
RTVSPost2010PropOp37
 70
     1
102
RTVSPost2010Prop38
140
0.0
102
RTVSPost2010PropOp38
 70
     1
102
RTVSPost2010Prop39
140
1.0
102
RTVSPost2010PropOp39
 70
     1
102
RTVSPost2010Prop40
 90
        0
102
RTVSPost2010PropOp40
 70
     1
102
RTVSPost2010Prop41ColorIndex
 90
       18
102
RTVSPost2010Prop41ColorRGB
 90
        0
102
RTVSPost2010PropOp41
 70
     1
102
RTVSPost2010Prop42
 90
       50
102
RTVSPost2010PropOp42
 70
     1
102
RTVSPost2010Prop43
 90
        3
102
RTVSPost2010PropOp43
 70
     1
102
RTVSPost2010Prop44ColorIndex
 90
        5
102
RTVSPost2010Prop44ColorRGB
 90
      255
102
RTVSPost2010PropOp44
 70
     1
102
RTVSPost2010Prop45
280
     0
102
RTVSPost2010PropOp45
 70
     1
102
RTVSPost2010Prop46
 90
       50
102
RTVSPost2010PropOp46
 70
     1
102
RTVSPost2010Prop47
 90
       50
102
RTVSPost2010PropOp47
 70
     1
102
RTVSPost2010Prop48
 90
       50
102
RTVSPost2010PropOp48
 70
     1
102
RTVSPost2010Prop49
280
     0
102
RTVSPost2010PropOp49
 70
     1
102
RTVSPost2010Prop50
 90
       50
102
RTVSPost2010PropOp50
 70
     1
102
RTVSPost2010Prop51ColorIndex
 90
      256
102
RTVSPost2010Prop51ColorRGB
 90
-16777216
102
RTVSPost2010PropOp51
 70
     0
102
RTVSPost2010Prop52
140
1.0
102
RTVSPost2010PropOp52
 70
     0
102
RTVSPost2010Prop53
 90
        2
102
RTVSPost2010PropOp53
 70
     1
102
RTVSPost2010Prop54
  1
strokes_ogs.tif
102
RTVSPost2010PropOp54
 70
     1
102
RTVSPost2010Prop55
280
     0
102
RTVSPost2010PropOp55
 70
     1
102
RTVSPost2010Prop56
140
1.0
102
RTVSPost2010PropOp56
 70
     1
102
RTVSPost2010Prop57
140
1.0
102
RTVSPost2010PropOp57
 70
     1
102
RTVSPropertyOp0
 70
     1
102
RTVSPropertyOp1
 70
     1
102
RTVSPropertyOp2
 70
     1
102
RTVSPropertyOp3
 70
     1
102
RTVSPropertyOp4
 70
     1
102
RTVSPropertyOp5
 70
     1
102
RTVSPropertyOp6
 70
     1
102
RTVSPropertyOp7
 70
     1
102
RTVSPropertyOp8
 70
     1
102
RTVSPropertyOp9
 70
     1
102
RTVSPropertyOp10
 70
     1
102
RTVSPropertyOp11
 70
     1
102
RTVSPropertyOp12
 70
     1
102
RTVSPropertyOp13
 70
     1
102
RTVSPropertyOp14
 70
     1
102
RTVSPropertyOp15
 70
     1
102
RTVSPropertyOp16
 70
     1
102
RTVSPropertyOp17
 70
     1
102
RTVSPropertyOp18
 70
     1
102
RTVSPropertyOp19
 70
     1
102
RTVSPropertyOp20
 70
     1
102
RTVSPropertyOp21
 70
     1
102
RTVSPropertyOp22
 70
     1
102
RTVSPropertyOp23
 70
     1
102
RTVSPropertyOp24
 70
     1
102
RTVSPropertyOp25
 70
     1
102
RTVSPropertyOp26
 70
     1
102
RTVSPropertyOp27
 70
     1
102
RTVSPropertyOp28
 70
     1
102
RTVSPropertyOp29
 70
     1
102
RTVSPropertyOp30
 70
     1
102
RTVSPropertyOp31
 70
     1
102
RTVSPropertyOp32
 70
     1
102
RTVSPropertyOp33
 70
     1
102
RTVSPropertyOp34
 70
     1
102
RTVSPropertyOp35
 70
     1
102
RTVSPropertyOp36
 70
     1
102
RTVSPropertyOp37
 70
     1
102
RTVSPropertyOp38
 70
     1
102
RTVSPropertyOp39
 70
     1
102
RTVSPropertyOp40
 70
     1
102
RTVSPropertyOp41
 70
     1
102
RTVSPropertyOp42
 70
     1
102
RTVSPropertyOp43
 70
     1
102
RTVSPropertyOp44
 70
     1
102
RTVSPropertyOp45
 70
     1
102
RTVSPropertyOp46
 70
     1
102
RTVSPropertyOp47
 70
     1
102
RTVSPropertyOp48
 70
     1
102
RTVSPropertyOp49
 70
     1
102
RTVSPropertyOp50
 70
     1
102
RTVSPropertyOp51
 70
     0
102
RTVSPropertyOp52
 70
     0
102
RTVSPropertyOp53
 70
     1
102
RTVSPropertyOp54
 70
     1
102
RTVSPropertyOp55
 70
     1
102
RTVSPropertyOp56
 70
     1
102
RTVSPropertyOp57
 70
     1
102
RTVSPropertyOp58
 70
     1
102
RTVSPropertyOp59
 70
     1
102
RTVSPropertyOp60
 70
     1
102
RTVSPropertyOp61
 70
     1
102
RTVSPropertyOp62
 70
     1
  0
XRECORD
  5
36A
102
{ACAD_REACTORS
330
369
102
}
330
369
100
AcDbXrecord
280
     1
102
RTVSPost2010Prop28
280
     0
102
RTVSPost2010PropOp28
 70
     1
102
RTVSPost2010Prop29
280
     1
102
RTVSPost2010PropOp29
 70
     1
102
RTVSPost2010Prop30
280
     1
102
RTVSPost2010PropOp30
 70
     1
102
RTVSPost2010Prop31
280
     0
102
RTVSPost2010PropOp31
 70
     1
102
RTVSPost2010Prop32
280
     0
102
RTVSPost2010PropOp32
 70
     1
102
RTVSPost2010Prop33
280
     0
102
RTVSPost2010PropOp33
 70
     1
102
RTVSPost2010Prop34
280
     0
102
RTVSPost2010PropOp34
 70
     1
102
RTVSPost2010Prop35
280
     0
102
RTVSPost2010PropOp35
 70
     1
102
RTVSPost2010Prop36
280
     0
102
RTVSPost2010PropOp36
 70
     1
102
RTVSPost2010Prop37
 90
       50
102
RTVSPost2010PropOp37
 70
     1
102
RTVSPost2010Prop38
140
0.0
102
RTVSPost2010PropOp38
 70
     1
102
RTVSPost2010Prop39
140
1.0
102
RTVSPost2010PropOp39
 70
     1
102
RTVSPost2010Prop40
 90
        0
102
RTVSPost2010PropOp40
 70
     1
102
RTVSPost2010Prop41ColorIndex
 90
       18
102
RTVSPost2010Prop41ColorRGB
 90
        0
102
RTVSPost2010PropOp41
 70
     1
102
RTVSPost2010Prop42
 90
       50
102
RTVSPost2010PropOp42
 70
     1
102
RTVSPost2010Prop43
 90
        3
102
RTVSPost2010PropOp43
 70
     1
102
RTVSPost2010Prop44ColorIndex
 90
        5
102
RTVSPost2010Prop44ColorRGB
 90
      255
102
RTVSPost2010PropOp44
 70
     1
102
RTVSPost2010Prop45
280
     0
102
RTVSPost2010PropOp45
 70
     1
102
RTVSPost2010Prop46
 90
       50
102
RTVSPost2010PropOp46
 70
     1
102
RTVSPost2010Prop47
 90
       50
102
RTVSPost2010PropOp47
 70
     1
102
RTVSPost2010Prop48
 90
       50
102
RTVSPost2010PropOp48
 70
     1
102
RTVSPost2010Prop49
280
     0
102
RTVSPost2010PropOp49
 70
     1
102
RTVSPost2010Prop50
 90
       50
102
RTVSPost2010PropOp50
 70
     1
102
RTVSPost2010Prop51ColorIndex
 90
      256
102
RTVSPost2010Prop51ColorRGB
 90
-16777216
102
RTVSPost2010PropOp51
 70
     0
102
RTVSPost2010Prop52
140
1.0
102
RTVSPost2010PropOp52
 70
     0
102
RTVSPost2010Prop53
 90
        2
102
RTVSPost2010PropOp53
 70
     1
102
RTVSPost2010Prop54
  1
strokes_ogs.tif
102
RTVSPost2010PropOp54
 70
     1
102
RTVSPost2010Prop55
280
     0
102
RTVSPost2010PropOp55
 70
     1
102
RTVSPost2010Prop56
140
1.0
102
RTVSPost2010PropOp56
 70
     1
102
RTVSPost2010Prop57
140
1.0
102
RTVSPost2010PropOp57
 70
     1
102
RTVSPropertyOp0
 70
     1
102
RTVSPropertyOp1
 70
     1
102
RTVSPropertyOp2
 70
     1
102
RTVSPropertyOp3
 70
     1
102
RTVSPropertyOp4
 70
     1
102
RTVSPropertyOp5
 70
     1
102
RTVSPropertyOp6
 70
     1
102
RTVSPropertyOp7
 70
     1
102
RTVSPropertyOp8
 70
     1
102
RTVSPropertyOp9
 70
     1
102
RTVSPropertyOp10
 70
     1
102
RTVSPropertyOp11
 70
     1
102
RTVSPropertyOp12
 70
     1
102
RTVSPropertyOp13
 70
     1
102
RTVSPropertyOp14
 70
     1
102
RTVSPropertyOp15
 70
     1
102
RTVSPropertyOp16
 70
     1
102
RTVSPropertyOp17
 70
     1
102
RTVSPropertyOp18
 70
     1
102
RTVSPropertyOp19
 70
     1
102
RTVSPropertyOp20
 70
     1
102
RTVSPropertyOp21
 70
     1
102
RTVSPropertyOp22
 70
     1
102
RTVSPropertyOp23
 70
     1
102
RTVSPropertyOp24
 70
     1
102
RTVSPropertyOp25
 70
     1
102
RTVSPropertyOp26
 70
     1
102
RTVSPropertyOp27
 70
     1
102
RTVSPropertyOp28
 70
     1
102
RTVSPropertyOp29
 70
     1
102
RTVSPropertyOp30
 70
     1
102
RTVSPropertyOp31
 70
     1
102
RTVSPropertyOp32
 70
     1
102
RTVSPropertyOp33
 70
     1
102
RTVSPropertyOp34
 70
     1
102
RTVSPropertyOp35
 70
     1
102
RTVSPropertyOp36
 70
     1
102
RTVSPropertyOp37
 70
     1
102
RTVSPropertyOp38
 70
     1
102
RTVSPropertyOp39
 70
     1
102
RTVSPropertyOp40
 70
     1
102
RTVSPropertyOp41
 70
     1
102
RTVSPropertyOp42
 70
     1
102
RTVSPropertyOp43
 70
     1
102
RTVSPropertyOp44
 70
     1
102
RTVSPropertyOp45
 70
     1
102
RTVSPropertyOp46
 70
     1
102
RTVSPropertyOp47
 70
     1
102
RTVSPropertyOp48
 70
     1
102
RTVSPropertyOp49
 70
     1
102
RTVSPropertyOp50
 70
     1
102
RTVSPropertyOp51
 70
     0
102
RTVSPropertyOp52
 70
     0
102
RTVSPropertyOp53
 70
     1
102
RTVSPropertyOp54
 70
     1
102
RTVSPropertyOp55
 70
     1
102
RTVSPropertyOp56
 70
     1
102
RTVSPropertyOp57
 70
     1
102
RTVSPropertyOp58
 70
     1
102
RTVSPropertyOp59
 70
     1
102
RTVSPropertyOp60
 70
     1
102
RTVSPropertyOp61
 70
     1
102
RTVSPropertyOp62
 70
     1
  0
XRECORD
  5
38A
102
{ACAD_REACTORS
330
389
102
}
330
389
100
AcDbXrecord
280
     1
102
RTVSPost2010Prop28
280
     0
102
RTVSPost2010PropOp28
 70
     1
102
RTVSPost2010Prop29
280
     1
102
RTVSPost2010PropOp29
 70
     1
102
RTVSPost2010Prop30
280
     1
102
RTVSPost2010PropOp30
 70
     1
102
RTVSPost2010Prop31
280
     0
102
RTVSPost2010PropOp31
 70
     1
102
RTVSPost2010Prop32
280
     0
102
RTVSPost2010PropOp32
 70
     1
102
RTVSPost2010Prop33
280
     0
102
RTVSPost2010PropOp33
 70
     1
102
RTVSPost2010Prop34
280
     0
102
RTVSPost2010PropOp34
 70
     1
102
RTVSPost2010Prop35
280
     0
102
RTVSPost2010PropOp35
 70
     1
102
RTVSPost2010Prop36
280
     0
102
RTVSPost2010PropOp36
 70
     1
102
RTVSPost2010Prop37
 90
       50
102
RTVSPost2010PropOp37
 70
     1
102
RTVSPost2010Prop38
140
0.0
102
RTVSPost2010PropOp38
 70
     1
102
RTVSPost2010Prop39
140
1.0
102
RTVSPost2010PropOp39
 70
     1
102
RTVSPost2010Prop40
 90
        0
102
RTVSPost2010PropOp40
 70
     1
102
RTVSPost2010Prop41ColorIndex
 90
       18
102
RTVSPost2010Prop41ColorRGB
 90
        0
102
RTVSPost2010PropOp41
 70
     1
102
RTVSPost2010Prop42
 90
       50
102
RTVSPost2010PropOp42
 70
     1
102
RTVSPost2010Prop43
 90
        3
102
RTVSPost2010PropOp43
 70
     1
102
RTVSPost2010Prop44ColorIndex
 90
        5
102
RTVSPost2010Prop44ColorRGB
 90
      255
102
RTVSPost2010PropOp44
 70
     1
102
RTVSPost2010Prop45
280
     0
102
RTVSPost2010PropOp45
 70
     1
102
RTVSPost2010Prop46
 90
       50
102
RTVSPost2010PropOp46
 70
     1
102
RTVSPost2010Prop47
 90
       50
102
RTVSPost2010PropOp47
 70
     1
102
RTVSPost2010Prop48
 90
       50
102
RTVSPost2010PropOp48
 70
     1
102
RTVSPost2010Prop49
280
     0
102
RTVSPost2010PropOp49
 70
     1
102
RTVSPost2010Prop50
 90
       50
102
RTVSPost2010PropOp50
 70
     1
102
RTVSPost2010Prop51ColorIndex
 90
      256
102
RTVSPost2010Prop51ColorRGB
 90
-16777216
102
RTVSPost2010PropOp51
 70
     0
102
RTVSPost2010Prop52
140
1.0
102
RTVSPost2010PropOp52
 70
     0
102
RTVSPost2010Prop53
 90
        2
102
RTVSPost2010PropOp53
 70
     1
102
RTVSPost2010Prop54
  1
strokes_ogs.tif
102
RTVSPost2010PropOp54
 70
     1
102
RTVSPost2010Prop55
280
     0
102
RTVSPost2010PropOp55
 70
     1
102
RTVSPost2010Prop56
140
1.0
102
RTVSPost2010PropOp56
 70
     1
102
RTVSPost2010Prop57
140
1.0
102
RTVSPost2010PropOp57
 70
     1
102
RTVSPropertyOp0
 70
     1
102
RTVSPropertyOp1
 70
     1
102
RTVSPropertyOp2
 70
     1
102
RTVSPropertyOp3
 70
     1
102
RTVSPropertyOp4
 70
     1
102
RTVSPropertyOp5
 70
     1
102
RTVSPropertyOp6
 70
     1
102
RTVSPropertyOp7
 70
     1
102
RTVSPropertyOp8
 70
     1
102
RTVSPropertyOp9
 70
     1
102
RTVSPropertyOp10
 70
     1
102
RTVSPropertyOp11
 70
     1
102
RTVSPropertyOp12
 70
     1
102
RTVSPropertyOp13
 70
     1
102
RTVSPropertyOp14
 70
     1
102
RTVSPropertyOp15
 70
     1
102
RTVSPropertyOp16
 70
     1
102
RTVSPropertyOp17
 70
     1
102
RTVSPropertyOp18
 70
     1
102
RTVSPropertyOp19
 70
     1
102
RTVSPropertyOp20
 70
     1
102
RTVSPropertyOp21
 70
     1
102
RTVSPropertyOp22
 70
     1
102
RTVSPropertyOp23
 70
     1
102
RTVSPropertyOp24
 70
     1
102
RTVSPropertyOp25
 70
     1
102
RTVSPropertyOp26
 70
     1
102
RTVSPropertyOp27
 70
     1
102
RTVSPropertyOp28
 70
     1
102
RTVSPropertyOp29
 70
     1
102
RTVSPropertyOp30
 70
     1
102
RTVSPropertyOp31
 70
     1
102
RTVSPropertyOp32
 70
     1
102
RTVSPropertyOp33
 70
     1
102
RTVSPropertyOp34
 70
     1
102
RTVSPropertyOp35
 70
     1
102
RTVSPropertyOp36
 70
     1
102
RTVSPropertyOp37
 70
     1
102
RTVSPropertyOp38
 70
     1
102
RTVSPropertyOp39
 70
     1
102
RTVSPropertyOp40
 70
     1
102
RTVSPropertyOp41
 70
     1
102
RTVSPropertyOp42
 70
     1
102
RTVSPropertyOp43
 70
     1
102
RTVSPropertyOp44
 70
     1
102
RTVSPropertyOp45
 70
     1
102
RTVSPropertyOp46
 70
     1
102
RTVSPropertyOp47
 70
     1
102
RTVSPropertyOp48
 70
     1
102
RTVSPropertyOp49
 70
     1
102
RTVSPropertyOp50
 70
     1
102
RTVSPropertyOp51
 70
     0
102
RTVSPropertyOp52
 70
     0
102
RTVSPropertyOp53
 70
     1
102
RTVSPropertyOp54
 70
     1
102
RTVSPropertyOp55
 70
     1
102
RTVSPropertyOp56
 70
     1
102
RTVSPropertyOp57
 70
     1
102
RTVSPropertyOp58
 70
     1
102
RTVSPropertyOp59
 70
     1
102
RTVSPropertyOp60
 70
     1
102
RTVSPropertyOp61
 70
     1
102
RTVSPropertyOp62
 70
     1
  0
ENDSEC
  0
EOF
