  0
SECTION
  2
HEADER
  9
$ACADVER
  1
AC1018
  9
$ACADMAINTVER
 70
   104
  9
$DWGCODEPAGE
  3
ANSI_1250
  9
$LASTSAVEDBY
  1
wq7085
  9
$INSBASE
 10
0.0
 20
0.0
 30
0.0
  9
$EXTMIN
 10
257.3145373333332
 20
114.077238
 30
0.0
  9
$EXTMAX
 10
374.006381
 20
355.3838806666667
 30
0.0
  9
$LIMMIN
 10
-0.5
 20
-0.5
  9
$LIMMAX
 10
5.0
 20
5.0
  9
$ORTHOMODE
 70
     0
  9
$REGENMODE
 70
     1
  9
$FILLMODE
 70
     1
  9
$QTEXTMODE
 70
     0
  9
$MIRRTEXT
 70
     1
  9
$LTSCALE
 40
1.0
  9
$ATTMODE
 70
     1
  9
$TEXTSIZE
 40
0.2
  9
$TRACEWID
 40
0.05
  9
$TEXTSTYLE
  7
Standard
  9
$CLAYER
  8
0
  9
$CELTYPE
  6
ByLayer
  9
$CECOLOR
 62
   256
  9
$CELTSCALE
 40
1.0
  9
$DISPSILH
 70
     0
  9
$DIMSCALE
 40
1.0
  9
$DIMASZ
 40
0.18
  9
$DIMEXO
 40
0.0625
  9
$DIMDLI
 40
0.38
  9
$DIMRND
 40
0.0
  9
$DIMDLE
 40
0.0
  9
$DIMEXE
 40
0.18
  9
$DIMTP
 40
0.0
  9
$DIMTM
 40
0.0
  9
$DIMTXT
 40
0.18
  9
$DIMCEN
 40
0.09
  9
$DIMTSZ
 40
0.0
  9
$DIMTOL
 70
     0
  9
$DIMLIM
 70
     0
  9
$DIMTIH
 70
     1
  9
$DIMTOH
 70
     1
  9
$DIMSE1
 70
     0
  9
$DIMSE2
 70
     0
  9
$DIMTAD
 70
     0
  9
$DIMZIN
 70
     0
  9
$DIMBLK
  1

  9
$DIMASO
 70
     1
  9
$DIMSHO
 70
     1
  9
$DIMPOST
  1

  9
$DIMAPOST
  1

  9
$DIMALT
 70
     0
  9
$DIMALTD
 70
     2
  9
$DIMALTF
 40
25.4
  9
$DIMLFAC
 40
1.0
  9
$DIMTOFL
 70
     0
  9
$DIMTVP
 40
0.0
  9
$DIMTIX
 70
     0
  9
$DIMSOXD
 70
     0
  9
$DIMSAH
 70
     0
  9
$DIMBLK1
  1

  9
$DIMBLK2
  1

  9
$DIMSTYLE
  2
Standard
  9
$DIMCLRD
 70
     0
  9
$DIMCLRE
 70
     0
  9
$DIMCLRT
 70
     0
  9
$DIMTFAC
 40
1.0
  9
$DIMGAP
 40
0.09
  9
$DIMJUST
 70
     0
  9
$DIMSD1
 70
     0
  9
$DIMSD2
 70
     0
  9
$DIMTOLJ
 70
     1
  9
$DIMTZIN
 70
     0
  9
$DIMALTZ
 70
     0
  9
$DIMALTTZ
 70
     0
  9
$DIMUPT
 70
     0
  9
$DIMDEC
 70
     4
  9
$DIMTDEC
 70
     4
  9
$DIMALTU
 70
     2
  9
$DIMALTTD
 70
     2
  9
$DIMTXSTY
  7
Standard
  9
$DIMAUNIT
 70
     0
  9
$DIMADEC
 70
     0
  9
$DIMALTRND
 40
0.0
  9
$DIMAZIN
 70
     0
  9
$DIMDSEP
 70
    46
  9
$DIMATFIT
 70
     3
  9
$DIMFRAC
 70
     0
  9
$DIMLDRBLK
  1

  9
$DIMLUNIT
 70
     2
  9
$DIMLWD
 70
    -2
  9
$DIMLWE
 70
    -2
  9
$DIMTMOVE
 70
     0
  9
$LUNITS
 70
     2
  9
$LUPREC
 70
     4
  9
$SKETCHINC
 40
0.1
  9
$FILLETRAD
 40
0.5
  9
$AUNITS
 70
     0
  9
$AUPREC
 70
     0
  9
$MENU
  1
.
  9
$ELEVATION
 40
0.0
  9
$PELEVATION
 40
0.0
  9
$THICKNESS
 40
0.0
  9
$LIMCHECK
 70
     0
  9
$CHAMFERA
 40
0.0
  9
$CHAMFERB
 40
0.0
  9
$CHAMFERC
 40
0.0
  9
$CHAMFERD
 40
0.0
  9
$SKPOLY
 70
     0
  9
$TDCREATE
 40
2458869.574849537
  9
$TDUCREATE
 40
2458869.533188519
  9
$TDUPDATE
 40
2458869.577500000
  9
$TDUUPDATE
 40
2458869.535833333
  9
$TDINDWG
 40
0.0005324190
  9
$TDUSRTIMER
 40
0.0005324190
  9
$USRTIMER
 70
     1
  9
$ANGBASE
 50
0.0
  9
$ANGDIR
 70
     0
  9
$PDMODE
 70
     0
  9
$PDSIZE
 40
0.0
  9
$PLINEWID
 40
0.0
  9
$SPLFRAME
 70
     0
  9
$SPLINETYPE
 70
     6
  9
$SPLINESEGS
 70
     8
  9
$HANDSEED
  5
38E
  9
$SURFTAB1
 70
     6
  9
$SURFTAB2
 70
     6
  9
$SURFTYPE
 70
     6
  9
$SURFU
 70
     6
  9
$SURFV
 70
     6
  9
$UCSBASE
  2

  9
$UCSNAME
  2

  9
$UCSORG
 10
324.580042
 20
288.868048
 30
0.0
  9
$UCSXDIR
 10
1.0
 20
0.0
 30
0.0
  9
$UCSYDIR
 10
0.0
 20
1.0
 30
0.0
  9
$UCSORTHOREF
  2

  9
$UCSORTHOVIEW
 70
     0
  9
$UCSORGTOP
 10
0.0
 20
0.0
 30
0.0
  9
$UCSORGBOTTOM
 10
0.0
 20
0.0
 30
0.0
  9
$UCSORGLEFT
 10
0.0
 20
0.0
 30
0.0
  9
$UCSORGRIGHT
 10
0.0
 20
0.0
 30
0.0
  9
$UCSORGFRONT
 10
0.0
 20
0.0
 30
0.0
  9
$UCSORGBACK
 10
0.0
 20
0.0
 30
0.0
  9
$PUCSBASE
  2

  9
$PUCSNAME
  2

  9
$PUCSORG
 10
0.0
 20
0.0
 30
0.0
  9
$PUCSXDIR
 10
1.0
 20
0.0
 30
0.0
  9
$PUCSYDIR
 10
0.0
 20
1.0
 30
0.0
  9
$PUCSORTHOREF
  2

  9
$PUCSORTHOVIEW
 70
     0
  9
$PUCSORGTOP
 10
0.0
 20
0.0
 30
0.0
  9
$PUCSORGBOTTOM
 10
0.0
 20
0.0
 30
0.0
  9
$PUCSORGLEFT
 10
0.0
 20
0.0
 30
0.0
  9
$PUCSORGRIGHT
 10
0.0
 20
0.0
 30
0.0
  9
$PUCSORGFRONT
 10
0.0
 20
0.0
 30
0.0
  9
$PUCSORGBACK
 10
0.0
 20
0.0
 30
0.0
  9
$USERI1
 70
     0
  9
$USERI2
 70
     0
  9
$USERI3
 70
     0
  9
$USERI4
 70
     0
  9
$USERI5
 70
     0
  9
$USERR1
 40
0.0
  9
$USERR2
 40
0.0
  9
$USERR3
 40
0.0
  9
$USERR4
 40
0.0
  9
$USERR5
 40
0.0
  9
$WORLDVIEW
 70
     1
  9
$SHADEDGE
 70
     3
  9
$SHADEDIF
 70
    70
  9
$TILEMODE
 70
     1
  9
$MAXACTVP
 70
    64
  9
$PINSBASE
 10
0.0
 20
0.0
 30
0.0
  9
$PLIMCHECK
 70
     0
  9
$PEXTMIN
 10
-0.5
 20
-0.5
 30
-0.5
  9
$PEXTMAX
 10
5.0
 20
5.0
 30
5.0
  9
$PLIMMIN
 10
-0.5
 20
-0.5
  9
$PLIMMAX
 10
5.0
 20
5.0
  9
$UNITMODE
 70
     0
  9
$VISRETAIN
 70
     1
  9
$PLINEGEN
 70
     0
  9
$PSLTSCALE
 70
     1
  9
$TREEDEPTH
 70
  3020
  9
$CMLSTYLE
  2
Standard
  9
$CMLJUST
 70
     0
  9
$CMLSCALE
 40
1.0
  9
$PROXYGRAPHICS
 70
     1
  9
$MEASUREMENT
 70
     1
  9
$CELWEIGHT
370
    13
  9
$ENDCAPS
280
     0
  9
$JOINSTYLE
280
     0
  9
$LWDISPLAY
290
     0
  9
$INSUNITS
 70
     4
  9
$HYPERLINKBASE
  1

  9
$STYLESHEET
  1

  9
$XEDIT
290
     1
  9
$CEPSNTYPE
380
     0
  9
$PSTYLEMODE
290
     1
  9
$FINGERPRINTGUID
  2
{903FBB6D-B9A0-4003-AE0D-65A7A1D13F8E}
  9
$VERSIONGUID
  2
{15223576-6A10-0F46-9C20-A543C9CC7F54}
  9
$EXTNAMES
290
     1
  9
$PSVPSCALE
 40
0.0
  9
$OLESTARTUP
290
     0
  9
$SORTENTS
280
   127
  9
$INDEXCTL
280
     0
  9
$HIDETEXT
280
     1
  9
$XCLIPFRAME
290
     0
  9
$HALOGAP
280
     0
  9
$OBSCOLOR
 70
   257
  9
$OBSLTYPE
280
     0
  9
$INTERSECTIONDISPLAY
280
     0
  9
$INTERSECTIONCOLOR
 70
   257
  9
$DIMASSOC
280
     2
  9
$PROJECTNAME
  1

  0
ENDSEC
  0
SECTION
  2
CLASSES
  0
CLASS
  1
ACDBDICTIONARYWDFLT
  2
AcDbDictionaryWithDefault
  3
ObjectDBX Classes
 90
        0
 91
        1
280
     0
281
     0
  0
CLASS
  1
VISUALSTYLE
  2
AcDbVisualStyle
  3
ObjectDBX Classes
 90
     4095
 91
       24
280
     0
281
     0
  0
CLASS
  1
MATERIAL
  2
AcDbMaterial
  3
ObjectDBX Classes
 90
     1153
 91
        3
280
     0
281
     0
  0
CLASS
  1
SCALE
  2
AcDbScale
  3
ObjectDBX Classes
 90
     1153
 91
       33
280
     0
281
     0
  0
CLASS
  1
TABLESTYLE
  2
AcDbTableStyle
  3
ObjectDBX Classes
 90
     4095
 91
        1
280
     0
281
     0
  0
CLASS
  1
MLEADERSTYLE
  2
AcDbMLeaderStyle
  3
ACDB_MLEADERSTYLE_CLASS
 90
     4095
 91
        1
280
     0
281
     0
  0
CLASS
  1
SUN
  2
AcDbSun
  3
SCENEOE
 90
     1153
 91
        0
280
     0
281
     0
  0
CLASS
  1
DIMASSOC
  2
AcDbDimAssoc
  3
"AcDbDimAssoc|Product Desc:     AcDim ARX App For Dimension|Company:          Autodesk, Inc.|WEB Address:      www.autodesk.com"
 90
        0
 91
        7
280
     0
281
     0
  0
CLASS
  1
DICTIONARYVAR
  2
AcDbDictionaryVar
  3
ObjectDBX Classes
 90
        0
 91
        8
280
     0
281
     0
  0
CLASS
  1
CELLSTYLEMAP
  2
AcDbCellStyleMap
  3
ObjectDBX Classes
 90
     1152
 91
        2
280
     0
281
     0
  0
CLASS
  1
ACDBSECTIONVIEWSTYLE
  2
AcDbSectionViewStyle
  3
ObjectDBX Classes
 90
     1025
 91
        1
280
     0
281
     0
  0
CLASS
  1
ACDBDETAILVIEWSTYLE
  2
AcDbDetailViewStyle
  3
ObjectDBX Classes
 90
     1025
 91
        1
280
     0
281
     0
  0
CLASS
  1
SORTENTSTABLE
  2
AcDbSortentsTable
  3
ObjectDBX Classes
 90
        0
 91
        1
280
     0
281
     0
  0
ENDSEC
  0
SECTION
  2
TABLES
  0
TABLE
  2
VPORT
  5
8
330
0
100
AcDbSymbolTable
 70
    16
  0
VPORT
  5
29
330
8
100
AcDbSymbolTableRecord
100
AcDbViewportTableRecord
  2
*Active
 70
     0
 10
0.0
 20
0.0
 11
1.0
 21
1.0
 12
320.7248709007704
 22
296.466439582635
 13
0.0
 23
0.0
 14
0.5
 24
0.5
 15
0.5
 25
0.5
 16
0.0
 26
0.0
 36
1.0
 17
0.0
 27
0.0
 37
0.0
 40
130.591793527278
 41
2.292712066905615
 42
50.0
 43
334.314869
 44
-334.314869
 50
0.0
 51
0.0
 71
     0
 72
   100
 73
     1
 74
     3
 75
     0
 76
     0
 77
     0
 78
     0
281
     0
 65
     1
110
324.580042
120
288.868048
130
0.0
111
1.0
121
0.0
131
0.0
112
0.0
122
1.0
132
0.0
 79
     0
146
0.0
1001
ACAD_NAV_VCDISPLAY
1070
     3
  0
VPORT
  5
26D
330
8
100
AcDbSymbolTableRecord
100
AcDbViewportTableRecord
  2
L1
 70
     0
 10
0.0
 20
0.0
 11
1.0
 21
1.0
 12
315.15625
 22
234.735137
 13
0.0
 23
0.0
 14
0.5
 24
0.5
 15
0.5
 25
0.5
 16
0.0
 26
0.0
 36
1.0
 17
0.0
 27
0.0
 37
0.0
 40
207.433333
 41
0.085602
 42
50.0
 43
334.314869
 44
-334.314869
 50
0.0
 51
0.0
 71
     0
 72
   100
 73
     1
 74
     3
 75
     0
 76
     0
 77
     0
 78
     0
281
     0
 65
     1
110
0.0
120
0.0
130
0.0
111
1.0
121
0.0
131
0.0
112
0.0
122
1.0
132
0.0
 79
     0
146
0.0
  0
VPORT
  5
26E
330
8
100
AcDbSymbolTableRecord
100
AcDbViewportTableRecord
  2
L2
 70
     0
 10
0.0
 20
0.0
 11
0.5
 21
1.0
 12
0.0
 22
0.0
 13
0.0
 23
0.0
 14
0.5
 24
0.5
 15
0.5
 25
0.5
 16
0.0
 26
-1.0
 36
0.0
 17
0.0
 27
0.0
 37
0.0
 40
1311.475104
 41
0.01354
 42
50.0
 43
675.4659889999999
 44
-675.4659889999999
 50
0.0
 51
0.0
 71
     0
 72
   100
 73
     1
 74
     3
 75
     0
 76
     0
 77
     0
 78
     0
281
     0
 65
     1
110
0.0
120
0.0
130
0.0
111
1.0
121
0.0
131
0.0
112
0.0
122
1.0
132
0.0
 79
     0
146
0.0
  0
VPORT
  5
26F
330
8
100
AcDbSymbolTableRecord
100
AcDbViewportTableRecord
  2
L2
 70
     0
 10
0.5
 20
0.0
 11
1.0
 21
1.0
 12
0.0
 22
0.0
 13
0.0
 23
0.0
 14
0.5
 24
0.5
 15
0.5
 25
0.5
 16
1.0
 26
0.0
 36
0.0
 17
0.0
 27
0.0
 37
0.0
 40
1311.475104
 41
0.01354
 42
50.0
 43
663.889211
 44
-663.889211
 50
0.0
 51
0.0
 71
     0
 72
   100
 73
     1
 74
     3
 75
     0
 76
     0
 77
     0
 78
     0
281
     0
 65
     1
110
0.0
120
0.0
130
0.0
111
1.0
121
0.0
131
0.0
112
0.0
122
1.0
132
0.0
 79
     0
146
0.0
  0
VPORT
  5
270
330
8
100
AcDbSymbolTableRecord
100
AcDbViewportTableRecord
  2
L3
 70
     0
 10
0.0
 20
0.5
 11
1.0
 21
1.0
 12
315.15625
 22
234.735137
 13
0.0
 23
0.0
 14
0.5
 24
0.5
 15
0.5
 25
0.5
 16
0.0
 26
0.0
 36
1.0
 17
0.0
 27
0.0
 37
0.0
 40
207.433333
 41
0.085602
 42
50.0
 43
334.314869
 44
-334.314869
 50
0.0
 51
0.0
 71
     0
 72
   100
 73
     1
 74
     3
 75
     0
 76
     0
 77
     0
 78
     0
281
     0
 65
     1
110
0.0
120
0.0
130
0.0
111
1.0
121
0.0
131
0.0
112
0.0
122
1.0
132
0.0
 79
     0
146
0.0
  0
VPORT
  5
271
330
8
100
AcDbSymbolTableRecord
100
AcDbViewportTableRecord
  2
L3
 70
     0
 10
0.0
 20
0.0
 11
1.0
 21
0.5
 12
0.0
 22
0.0
 13
0.0
 23
0.0
 14
0.5
 24
0.5
 15
0.5
 25
0.5
 16
0.0
 26
-1.0
 36
0.0
 17
0.0
 27
0.0
 37
0.0
 40
1311.475104
 41
0.01354
 42
50.0
 43
675.4659889999999
 44
-675.4659889999999
 50
0.0
 51
0.0
 71
     0
 72
   100
 73
     1
 74
     3
 75
     0
 76
     0
 77
     0
 78
     0
281
     0
 65
     1
110
0.0
120
0.0
130
0.0
111
1.0
121
0.0
131
0.0
112
0.0
122
1.0
132
0.0
 79
     0
146
0.0
  0
VPORT
  5
272
330
8
100
AcDbSymbolTableRecord
100
AcDbViewportTableRecord
  2
L4
 70
     0
 10
0.0
 20
0.5
 11
0.5
 21
1.0
 12
315.15625
 22
234.735137
 13
0.0
 23
0.0
 14
0.5
 24
0.5
 15
0.5
 25
0.5
 16
0.0
 26
0.0
 36
1.0
 17
0.0
 27
0.0
 37
0.0
 40
207.433333
 41
0.085602
 42
50.0
 43
334.314869
 44
-334.314869
 50
0.0
 51
0.0
 71
     0
 72
   100
 73
     1
 74
     3
 75
     0
 76
     0
 77
     0
 78
     0
281
     0
 65
     1
110
0.0
120
0.0
130
0.0
111
1.0
121
0.0
131
0.0
112
0.0
122
1.0
132
0.0
 79
     0
146
0.0
  0
VPORT
  5
273
330
8
100
AcDbSymbolTableRecord
100
AcDbViewportTableRecord
  2
L4
 70
     0
 10
0.0
 20
0.0
 11
0.5
 21
0.5
 12
0.0
 22
0.0
 13
0.0
 23
0.0
 14
0.5
 24
0.5
 15
0.5
 25
0.5
 16
0.0
 26
-1.0
 36
0.0
 17
0.0
 27
0.0
 37
0.0
 40
1311.475104
 41
0.01354
 42
50.0
 43
675.4659889999999
 44
-675.4659889999999
 50
0.0
 51
0.0
 71
     0
 72
   100
 73
     1
 74
     3
 75
     0
 76
     0
 77
     0
 78
     0
281
     0
 65
     1
110
0.0
120
0.0
130
0.0
111
1.0
121
0.0
131
0.0
112
0.0
122
1.0
132
0.0
 79
     0
146
0.0
  0
VPORT
  5
274
330
8
100
AcDbSymbolTableRecord
100
AcDbViewportTableRecord
  2
L4
 70
     0
 10
0.5
 20
0.0
 11
1.0
 21
0.5
 12
0.0
 22
0.0
 13
0.0
 23
0.0
 14
0.5
 24
0.5
 15
0.5
 25
0.5
 16
1.0
 26
0.0
 36
0.0
 17
0.0
 27
0.0
 37
0.0
 40
1311.475104
 41
0.01354
 42
50.0
 43
663.889211
 44
-663.889211
 50
0.0
 51
0.0
 71
     0
 72
   100
 73
     1
 74
     3
 75
     0
 76
     0
 77
     0
 78
     0
281
     0
 65
     1
110
0.0
120
0.0
130
0.0
111
1.0
121
0.0
131
0.0
112
0.0
122
1.0
132
0.0
 79
     0
146
0.0
  0
VPORT
  5
275
330
8
100
AcDbSymbolTableRecord
100
AcDbViewportTableRecord
  2
L4
 70
     0
 10
0.5
 20
0.5
 11
1.0
 21
1.0
 12
0.0
 22
0.0
 13
0.0
 23
0.0
 14
0.5
 24
0.5
 15
0.5
 25
0.5
 16
0.5773502691896259
 26
-0.5773502691896259
 36
0.5773502691896259
 17
0.0
 27
0.0
 37
0.0
 40
1287.818467
 41
0.013788
 42
50.0
 43
670.773434
 44
-670.773434
 50
0.0
 51
0.0
 71
     0
 72
   100
 73
     1
 74
     3
 75
     0
 76
     0
 77
     0
 78
     0
281
     0
 65
     1
110
0.0
120
0.0
130
0.0
111
1.0
121
0.0
131
0.0
112
0.0
122
1.0
132
0.0
 79
     0
146
0.0
  0
VPORT
  5
276
330
8
100
AcDbSymbolTableRecord
100
AcDbViewportTableRecord
  2
L6
 70
     0
 10
0.0
 20
0.5
 11
0.333333
 21
1.0
 12
0.0
 22
0.0
 13
0.0
 23
0.0
 14
0.5
 24
0.5
 15
0.5
 25
0.5
 16
0.7188730927569434
 26
-0.5850486126764433
 36
0.3754192287502549
 17
0.0
 27
0.0
 37
0.0
 40
1359.077926
 41
0.013065
 42
50.0
 43
703.6802759999999
 44
-703.6802759999999
 50
0.0
 51
0.0
 71
     0
 72
   100
 73
     1
 74
     3
 75
     0
 76
     0
 77
     0
 78
     0
281
     0
 65
     1
110
0.0
120
0.0
130
0.0
111
1.0
121
0.0
131
0.0
112
0.0
122
1.0
132
0.0
 79
     0
146
0.0
  0
VPORT
  5
277
330
8
100
AcDbSymbolTableRecord
100
AcDbViewportTableRecord
  2
L6
 70
     0
 10
0.0
 20
0.0
 11
0.333333
 21
0.5
 12
0.0
 22
0.0
 13
0.0
 23
0.0
 14
0.5
 24
0.5
 15
0.5
 25
0.5
 16
-1.0
 26
0.0
 36
0.0
 17
0.0
 27
0.0
 37
0.0
 40
1311.475104
 41
0.01354
 42
50.0
 43
663.889211
 44
-663.889211
 50
0.0
 51
0.0
 71
     0
 72
   100
 73
     1
 74
     3
 75
     0
 76
     0
 77
     0
 78
     0
281
     0
 65
     1
110
0.0
120
0.0
130
0.0
111
1.0
121
0.0
131
0.0
112
0.0
122
1.0
132
0.0
 79
     0
146
0.0
  0
VPORT
  5
278
330
8
100
AcDbSymbolTableRecord
100
AcDbViewportTableRecord
  2
L6
 70
     0
 10
0.333333
 20
0.5
 11
0.666667
 21
1.0
 12
315.15625
 22
234.735137
 13
0.0
 23
0.0
 14
0.5
 24
0.5
 15
0.5
 25
0.5
 16
0.0
 26
0.0
 36
1.0
 17
0.0
 27
0.0
 37
0.0
 40
207.433333
 41
0.085602
 42
50.0
 43
334.314869
 44
-334.314869
 50
0.0
 51
0.0
 71
     0
 72
   100
 73
     1
 74
     3
 75
     0
 76
     0
 77
     0
 78
     0
281
     0
 65
     1
110
0.0
120
0.0
130
0.0
111
1.0
121
0.0
131
0.0
112
0.0
122
1.0
132
0.0
 79
     0
146
0.0
  0
VPORT
  5
279
330
8
100
AcDbSymbolTableRecord
100
AcDbViewportTableRecord
  2
L6
 70
     0
 10
0.333333
 20
0.0
 11
0.666667
 21
0.5
 12
0.0
 22
0.0
 13
0.0
 23
0.0
 14
0.5
 24
0.5
 15
0.5
 25
0.5
 16
0.0
 26
-1.0
 36
0.0
 17
0.0
 27
0.0
 37
0.0
 40
1311.475104
 41
0.01354
 42
50.0
 43
675.4659889999999
 44
-675.4659889999999
 50
0.0
 51
0.0
 71
     0
 72
   100
 73
     1
 74
     3
 75
     0
 76
     0
 77
     0
 78
     0
281
     0
 65
     1
110
0.0
120
0.0
130
0.0
111
1.0
121
0.0
131
0.0
112
0.0
122
1.0
132
0.0
 79
     0
146
0.0
  0
VPORT
  5
27A
330
8
100
AcDbSymbolTableRecord
100
AcDbViewportTableRecord
  2
L6
 70
     0
 10
0.666667
 20
0.5
 11
1.0
 21
1.0
 12
0.0
 22
0.0
 13
0.0
 23
0.0
 14
0.5
 24
0.5
 15
0.5
 25
0.5
 16
0.5773502691896259
 26
-0.5773502691896259
 36
0.5773502691896259
 17
0.0
 27
0.0
 37
0.0
 40
1287.818467
 41
0.013788
 42
50.0
 43
670.773434
 44
-670.773434
 50
0.0
 51
0.0
 71
     0
 72
   100
 73
     1
 74
     3
 75
     0
 76
     0
 77
     0
 78
     0
281
     0
 65
     1
110
0.0
120
0.0
130
0.0
111
1.0
121
0.0
131
0.0
112
0.0
122
1.0
132
0.0
 79
     0
146
0.0
  0
VPORT
  5
27B
330
8
100
AcDbSymbolTableRecord
100
AcDbViewportTableRecord
  2
L6
 70
     0
 10
0.666667
 20
0.0
 11
1.0
 21
0.5
 12
0.0
 22
0.0
 13
0.0
 23
0.0
 14
0.5
 24
0.5
 15
0.5
 25
0.5
 16
1.0
 26
0.0
 36
0.0
 17
0.0
 27
0.0
 37
0.0
 40
1311.475104
 41
0.01354
 42
50.0
 43
663.889211
 44
-663.889211
 50
0.0
 51
0.0
 71
     0
 72
   100
 73
     1
 74
     3
 75
     0
 76
     0
 77
     0
 78
     0
281
     0
 65
     1
110
0.0
120
0.0
130
0.0
111
1.0
121
0.0
131
0.0
112
0.0
122
1.0
132
0.0
 79
     0
146
0.0
  0
ENDTAB
  0
TABLE
  2
LTYPE
  5
5
330
0
100
AcDbSymbolTable
 70
     7
  0
LTYPE
  5
14
330
5
100
AcDbSymbolTableRecord
100
AcDbLinetypeTableRecord
  2
ByBlock
 70
     0
  3

 72
    65
 73
     0
 40
0.0
  0
LTYPE
  5
15
330
5
100
AcDbSymbolTableRecord
100
AcDbLinetypeTableRecord
  2
ByLayer
 70
     0
  3

 72
    65
 73
     0
 40
0.0
  0
LTYPE
  5
16
330
5
100
AcDbSymbolTableRecord
100
AcDbLinetypeTableRecord
  2
Continuous
 70
     0
  3
Solid line
 72
    65
 73
     0
 40
0.0
  0
LTYPE
  5
6E
330
5
100
AcDbSymbolTableRecord
100
AcDbLinetypeTableRecord
  2
CENTER
 70
     0
  3
____ _ ____ _ ____ _ ____
 72
    65
 73
     4
 40
47.4
 49
22.0
 74
     4
 75
     0
340
0
 46
0.0
 50
0.0
 44
0.0
 45
0.0
 49
-8.5
 74
     4
 75
     0
340
0
 46
0.0
 50
0.0
 44
0.0
 45
0.0
 49
8.5
 74
     4
 75
     0
340
0
 46
0.0
 50
0.0
 44
0.0
 45
0.0
 49
-8.5
 74
     4
 75
     0
340
0
 46
0.0
 50
0.0
 44
0.0
 45
0.0
  0
LTYPE
  5
6F
330
5
100
AcDbSymbolTableRecord
100
AcDbLinetypeTableRecord
  2
DASHDOT
 70
     0
  3
_._._._._._._._._._._._._._._._.
 72
    65
 73
     4
 40
70.0
 49
31.0
 74
     4
 75
     0
340
0
 46
0.0
 50
0.0
 44
0.0
 45
0.0
 49
-13.0
 74
     4
 75
     0
340
0
 46
0.0
 50
0.0
 44
0.0
 45
0.0
 49
13.0
 74
     4
 75
     0
340
0
 46
0.0
 50
0.0
 44
0.0
 45
0.0
 49
-13.0
 74
     4
 75
     0
340
0
 46
0.0
 50
0.0
 44
0.0
 45
0.0
  0
LTYPE
  5
70
330
5
100
AcDbSymbolTableRecord
100
AcDbLinetypeTableRecord
  2
DASHED
 70
     0
  3
__ __ __ __ __ __ __ __ __
 72
    65
 73
     2
 40
25.72
 49
12.86
 74
     4
 75
     0
340
0
 46
0.0
 50
0.0
 44
0.0
 45
0.0
 49
-12.86
 74
     4
 75
     0
340
0
 46
0.0
 50
0.0
 44
0.0
 45
0.0
  0
LTYPE
  5
71
330
5
100
AcDbSymbolTableRecord
100
AcDbLinetypeTableRecord
  2
DOT
 70
     0
  3
.........................
 72
    65
 73
     2
 40
10.0
 49
0.0
 74
     4
 75
     0
340
0
 46
0.0
 50
0.0
 44
0.0
 45
0.0
 49
-10.0
 74
     4
 75
     0
340
0
 46
0.0
 50
0.0
 44
0.0
 45
0.0
  0
LTYPE
  5
72
330
5
100
AcDbSymbolTableRecord
100
AcDbLinetypeTableRecord
  2
PHANTOM
 70
     0
  3
____ _ _ ____ _ _ _____ _ _ ____
 72
    65
 73
     6
 40
50.5
 49
18.0
 74
     4
 75
     0
340
0
 46
0.0
 50
0.0
 44
0.0
 45
0.0
 49
-6.5
 74
     4
 75
     0
340
0
 46
0.0
 50
0.0
 44
0.0
 45
0.0
 49
6.5
 74
     4
 75
     0
340
0
 46
0.0
 50
0.0
 44
0.0
 45
0.0
 49
-6.5
 74
     4
 75
     0
340
0
 46
0.0
 50
0.0
 44
0.0
 45
0.0
 49
6.5
 74
     4
 75
     0
340
0
 46
0.0
 50
0.0
 44
0.0
 45
0.0
 49
-6.5
 74
     4
 75
     0
340
0
 46
0.0
 50
0.0
 44
0.0
 45
0.0
  0
LTYPE
  5
330
330
5
100
AcDbSymbolTableRecord
100
AcDbLinetypeTableRecord
  2
CENTER2
 70
     0
  3
Center (.5x) ___ _ ___ _ ___ _ ___ _ ___ _ ___
 72
    65
 73
     4
 40
1.125
 49
0.75
 74
     0
 49
-0.125
 74
     0
 49
0.125
 74
     0
 49
-0.125
 74
     0
  0
ENDTAB
  0
TABLE
  2
LAYER
  5
2
330
0
100
AcDbSymbolTable
 70
    22
  0
LAYER
  5
10
102
{ACAD_XDICTIONARY
360
33B
102
}
330
2
100
AcDbSymbolTableRecord
100
AcDbLayerTableRecord
  2
0
 70
     0
 62
     7
  6
Continuous
370
    -3
390
F
  0
LAYER
  5
1C4
330
2
100
AcDbSymbolTableRecord
100
AcDbLayerTableRecord
  2
Defpoints
 70
     0
 62
     7
  6
Continuous
290
     0
370
    -3
390
F
  0
LAYER
  5
32D
102
{ACAD_XDICTIONARY
360
33D
102
}
330
2
100
AcDbSymbolTableRecord
100
AcDbLayerTableRecord
  2
1
 70
     0
 62
     4
  6
Continuous
370
    -3
390
F
  0
LAYER
  5
32E
102
{ACAD_XDICTIONARY
360
33F
102
}
330
2
100
AcDbSymbolTableRecord
100
AcDbLayerTableRecord
  2
2
 70
     0
 62
     7
  6
Continuous
370
    -3
390
F
  0
LAYER
  5
32F
102
{ACAD_XDICTIONARY
360
341
102
}
330
2
100
AcDbSymbolTableRecord
100
AcDbLayerTableRecord
  2
4
 70
     0
 62
     2
  6
CENTER2
370
    -3
390
F
  0
LAYER
  5
331
102
{ACAD_XDICTIONARY
360
343
102
}
330
2
100
AcDbSymbolTableRecord
100
AcDbLayerTableRecord
  2
SK1
 70
     0
 62
     4
  6
Continuous
370
    -3
390
F
  0
LAYER
  5
332
102
{ACAD_XDICTIONARY
360
345
102
}
330
2
100
AcDbSymbolTableRecord
100
AcDbLayerTableRecord
  2
SK2
 70
     0
 62
     7
  6
Continuous
370
    -3
390
F
  0
LAYER
  5
334
102
{ACAD_XDICTIONARY
360
347
102
}
330
2
100
AcDbSymbolTableRecord
100
AcDbLayerTableRecord
  2
SK4
 70
     0
 62
     2
  6
CENTER2
370
    -3
390
F
  0
LAYER
  5
335
102
{ACAD_XDICTIONARY
360
349
102
}
330
2
100
AcDbSymbolTableRecord
100
AcDbLayerTableRecord
  2
SK6
 70
     0
 62
     5
  6
Continuous
370
    -3
390
F
  0
LAYER
  5
336
102
{ACAD_XDICTIONARY
360
34B
102
}
330
2
100
AcDbSymbolTableRecord
100
AcDbLayerTableRecord
  2
CUT
 70
     0
 62
     1
  6
Continuous
370
    -3
390
F
  0
LAYER
  5
337
102
{ACAD_XDICTIONARY
360
34D
102
}
330
2
100
AcDbSymbolTableRecord
100
AcDbLayerTableRecord
  2
NOCUT
 70
     0
 62
     7
  6
Continuous
370
    -3
390
F
  0
LAYER
  5
338
102
{ACAD_XDICTIONARY
360
34F
102
}
330
2
100
AcDbSymbolTableRecord
100
AcDbLayerTableRecord
  2
80
 70
     0
 62
     6
  6
Continuous
370
    -3
390
F
  0
LAYER
  5
339
102
{ACAD_XDICTIONARY
360
351
102
}
330
2
100
AcDbSymbolTableRecord
100
AcDbLayerTableRecord
  2
81
 70
     0
 62
     3
  6
Continuous
370
    -3
390
F
  0
ENDTAB
  0
TABLE
  2
STYLE
  5
3
330
0
100
AcDbSymbolTable
 70
     3
  0
STYLE
  5
11
330
3
100
AcDbSymbolTableRecord
100
AcDbTextStyleTableRecord
  2
Standard
 70
     0
 40
0.0
 41
1.0
 50
0.0
 71
     0
 42
0.2
  3
txt
  4

  0
STYLE
  5
1BD
330
3
100
AcDbSymbolTableRecord
100
AcDbTextStyleTableRecord
  2
cesky
 70
     0
 40
0.0
 41
1.0
 50
0.0
 71
     0
 42
0.2
  3
simplex.shx
  4

  0
STYLE
  5
1BE
330
3
100
AcDbSymbolTableRecord
100
AcDbTextStyleTableRecord
  2
DWGDirectTextStyle
 70
     0
 40
0.0
 41
1.0
 50
0.0
 71
     0
 42
0.2
  3
simplex
  4

  0
ENDTAB
  0
TABLE
  2
VIEW
  5
6
330
0
100
AcDbSymbolTable
 70
     0
  0
ENDTAB
  0
TABLE
  2
UCS
  5
7
330
0
100
AcDbSymbolTable
 70
     0
  0
ENDTAB
  0
TABLE
  2
APPID
  5
9
330
0
100
AcDbSymbolTable
 70
     8
  0
APPID
  5
12
330
9
100
AcDbSymbolTableRecord
100
AcDbRegAppTableRecord
  2
ACAD
 70
     0
  0
APPID
  5
1C0
330
9
100
AcDbSymbolTableRecord
100
AcDbRegAppTableRecord
  2
ACAD_DSTYLE_DIMBREAK
 70
     0
  0
APPID
  5
1F2
330
9
100
AcDbSymbolTableRecord
100
AcDbRegAppTableRecord
  2
ACAD_DSTYLE_DIMANGULAR_EXTENSION
 70
     0
  0
APPID
  5
27C
330
9
100
AcDbSymbolTableRecord
100
AcDbRegAppTableRecord
  2
ACAD_DSTYLE_DIM_LINETYPE
 70
     0
  0
APPID
  5
27D
330
9
100
AcDbSymbolTableRecord
100
AcDbRegAppTableRecord
  2
ACAD_DSTYLE_DIM_EXT1_LINETYPE
 70
     0
  0
APPID
  5
27E
330
9
100
AcDbSymbolTableRecord
100
AcDbRegAppTableRecord
  2
ACAD_DSTYLE_DIM_EXT2_LINETYPE
 70
     0
  0
APPID
  5
2BE
330
9
100
AcDbSymbolTableRecord
100
AcDbRegAppTableRecord
  2
ACAD_MLEADERVER
 70
     0
  0
APPID
  5
356
330
9
100
AcDbSymbolTableRecord
100
AcDbRegAppTableRecord
  2
ACAD_NAV_VCDISPLAY
 70
     0
  0
ENDTAB
  0
TABLE
  2
DIMSTYLE
  5
A
330
0
100
AcDbSymbolTable
 70
     1
100
AcDbDimStyleTable
 71
     0
  0
DIMSTYLE
105
27
330
A
100
AcDbSymbolTableRecord
100
AcDbDimStyleTableRecord
  2
Standard
 70
     0
340
11
1001
ACAD_DSTYLE_DIMBREAK
1070
   391
1040
6.349999999999999
  0
ENDTAB
  0
TABLE
  2
BLOCK_RECORD
  5
1
330
0
100
AcDbSymbolTable
 70
    16
  0
BLOCK_RECORD
  5
1F
102
{ACAD_XDICTIONARY
360
2CE
102
}
330
1
100
AcDbSymbolTableRecord
100
AcDbBlockTableRecord
  2
*Model_Space
340
22
  0
BLOCK_RECORD
  5
1B
330
1
100
AcDbSymbolTableRecord
100
AcDbBlockTableRecord
  2
*Paper_Space
340
1E
  0
BLOCK_RECORD
  5
23
330
1
100
AcDbSymbolTableRecord
100
AcDbBlockTableRecord
  2
*Paper_Space0
340
26
  0
BLOCK_RECORD
  5
1B7
330
1
100
AcDbSymbolTableRecord
100
AcDbBlockTableRecord
  2
ASSORTED_DRAFT1
340
0
  0
BLOCK_RECORD
  5
1C5
330
1
100
AcDbSymbolTableRecord
100
AcDbBlockTableRecord
  2
*D2
340
0
  0
BLOCK_RECORD
  5
1D0
330
1
100
AcDbSymbolTableRecord
100
AcDbBlockTableRecord
  2
_U0
340
0
  0
BLOCK_RECORD
  5
1DB
330
1
100
AcDbSymbolTableRecord
100
AcDbBlockTableRecord
  2
*D4
340
0
  0
BLOCK_RECORD
  5
1E7
330
1
100
AcDbSymbolTableRecord
100
AcDbBlockTableRecord
  2
_U1
340
0
  0
BLOCK_RECORD
  5
1F5
330
1
100
AcDbSymbolTableRecord
100
AcDbBlockTableRecord
  2
*D6
340
0
  0
BLOCK_RECORD
  5
203
330
1
100
AcDbSymbolTableRecord
100
AcDbBlockTableRecord
  2
_U2
340
0
  0
BLOCK_RECORD
  5
20F
330
1
100
AcDbSymbolTableRecord
100
AcDbBlockTableRecord
  2
*D8
340
0
  0
BLOCK_RECORD
  5
21B
330
1
100
AcDbSymbolTableRecord
100
AcDbBlockTableRecord
  2
_U3
340
0
  0
BLOCK_RECORD
  5
227
330
1
100
AcDbSymbolTableRecord
100
AcDbBlockTableRecord
  2
*D10
340
0
  0
BLOCK_RECORD
  5
233
330
1
100
AcDbSymbolTableRecord
100
AcDbBlockTableRecord
  2
_U4
340
0
  0
BLOCK_RECORD
  5
23F
330
1
100
AcDbSymbolTableRecord
100
AcDbBlockTableRecord
  2
*D12
340
0
  0
BLOCK_RECORD
  5
24B
330
1
100
AcDbSymbolTableRecord
100
AcDbBlockTableRecord
  2
_U5
340
0
  0
BLOCK_RECORD
  5
257
330
1
100
AcDbSymbolTableRecord
100
AcDbBlockTableRecord
  2
*D14
340
0
  0
BLOCK_RECORD
  5
264
330
1
100
AcDbSymbolTableRecord
100
AcDbBlockTableRecord
  2
_U6
340
0
  0
ENDTAB
  0
ENDSEC
  0
SECTION
  2
BLOCKS
  0
BLOCK
  5
20
330
1F
100
AcDbEntity
  8
0
100
AcDbBlockBegin
  2
*Model_Space
 70
     0
 10
0.0
 20
0.0
 30
0.0
  3
*Model_Space
  1

  0
ENDBLK
  5
21
330
1F
100
AcDbEntity
  8
0
100
AcDbBlockEnd
  0
BLOCK
  5
1C
330
1B
100
AcDbEntity
 67
     1
  8
0
100
AcDbBlockBegin
  2
*Paper_Space
 70
     0
 10
0.0
 20
0.0
 30
0.0
  3
*Paper_Space
  1

  0
ENDBLK
  5
1D
330
1B
100
AcDbEntity
 67
     1
  8
0
100
AcDbBlockEnd
  0
BLOCK
  5
24
330
23
100
AcDbEntity
 67
     1
  8
0
100
AcDbBlockBegin
  2
*Paper_Space0
 70
     0
 10
0.0
 20
0.0
 30
0.0
  3
*Paper_Space0
  1

  0
ENDBLK
  5
25
330
23
100
AcDbEntity
 67
     1
  8
0
100
AcDbBlockEnd
  0
BLOCK
  5
1BA
330
1B7
100
AcDbEntity
  8
0
100
AcDbBlockBegin
  2
ASSORTED_DRAFT1
 70
     0
 10
0.0
 20
0.0
 30
0.0
  3
ASSORTED_DRAFT1
  1

  0
SOLID
  5
1B8
330
1B7
100
AcDbEntity
  8
0
 62
   254
370
    13
100
AcDbTrace
 10
270.445042
 20
116.077238
 30
0.0
 11
275.445038
 21
117.185711
 31
0.0
 12
275.445046
 22
114.968765
 32
0.0
 13
270.445042
 23
116.077238
 33
0.0
  0
ENDBLK
  5
1BB
330
1B7
100
AcDbEntity
  8
0
100
AcDbBlockEnd
  0
BLOCK
  5
1C6
330
1C5
100
AcDbEntity
  8
0
100
AcDbBlockBegin
  2
*D2
 70
     1
 10
0.0
 20
0.0
 30
0.0
  3
*D2
  1

  0
LINE
  5
1C8
330
1C5
100
AcDbEntity
  8
0
 62
   254
370
    -2
100
AcDbLine
 10
343.916717
 20
288.868048
 30
0.0
 11
374.006381
 21
288.868048
 31
0.0
  0
LINE
  5
1C9
330
1C5
100
AcDbEntity
  8
0
 62
   254
370
    -2
100
AcDbLine
 10
358.430042
 20
298.843048
 30
0.0
 11
374.006381
 21
298.843048
 31
0.0
  0
LINE
  5
1CA
330
1C5
100
AcDbEntity
  8
0
 62
   254
370
    -2
100
AcDbLine
 10
373.006381
 20
302.343048
 30
0.0
 11
373.006381
 21
305.843048
 31
0.0
  0
SOLID
  5
1CB
330
1C5
100
AcDbEntity
  8
0
 62
   254
100
AcDbTrace
 10
372.423048
 20
302.343048
 30
0.0
 11
373.589714
 21
302.343048
 31
0.0
 12
373.006381
 22
298.843048
 32
0.0
 13
373.006381
 23
298.843048
 33
0.0
  0
MTEXT
  5
1CC
330
1C5
100
AcDbEntity
  8
0
 62
   254
370
    13
100
AcDbMText
 10
367.756381
 20
275.534714
 30
0.0
 40
3.5
 41
0.0
 71
     5
 72
     1
  1
\A1;20
  7
cesky
 11
0.0
 21
1.0
 31
0.0
 73
     1
 44
1.0
  0
POINT
  5
1CD
330
1C5
100
AcDbEntity
  8
Defpoints
 62
     0
100
AcDbPoint
 10
343.916717
 20
288.868048
 30
0.0
  0
POINT
  5
1CE
330
1C5
100
AcDbEntity
  8
Defpoints
 62
     0
100
AcDbPoint
 10
358.430042
 20
298.843048
 30
0.0
  0
POINT
  5
1CF
330
1C5
100
AcDbEntity
  8
Defpoints
 62
     0
100
AcDbPoint
 10
373.006381
 20
298.843048
 30
0.0
  0
ENDBLK
  5
1C7
330
1C5
100
AcDbEntity
  8
0
100
AcDbBlockEnd
  0
BLOCK
  5
1D6
330
1D0
100
AcDbEntity
  8
0
100
AcDbBlockBegin
  2
_U0
 70
     0
 10
0.0
 20
0.0
 30
0.0
  3
_U0
  1

  0
ENDBLK
  5
1D7
330
1D0
100
AcDbEntity
  8
0
100
AcDbBlockEnd
  0
BLOCK
  5
1DC
330
1DB
100
AcDbEntity
  8
0
100
AcDbBlockBegin
  2
*D4
 70
     1
 10
0.0
 20
0.0
 30
0.0
  3
*D4
  1

  0
LINE
  5
1DE
330
1DB
100
AcDbEntity
  8
0
 62
    95
370
    -2
100
AcDbLine
 10
315.730042
 20
298.868048
 30
0.0
 11
261.168621
 21
298.868048
 31
0.0
  0
LINE
  5
1DF
330
1DB
100
AcDbEntity
  8
0
 62
    95
370
    -2
100
AcDbLine
 10
311.028284
 20
278.868048
 30
0.0
 11
261.168621
 21
278.868048
 31
0.0
  0
LINE
  5
1E0
330
1DB
100
AcDbEntity
  8
0
 62
    95
370
    -2
100
AcDbLine
 10
262.168621
 20
295.368048
 30
0.0
 11
262.168621
 21
282.368048
 31
0.0
  0
SOLID
  5
1E1
330
1DB
100
AcDbEntity
  8
0
 62
    95
100
AcDbTrace
 10
262.751954
 20
295.368048
 30
0.0
 11
261.585288
 21
295.368048
 31
0.0
 12
262.168621
 22
298.868048
 32
0.0
 13
262.168621
 23
298.868048
 33
0.0
  0
SOLID
  5
1E2
330
1DB
100
AcDbEntity
  8
0
 62
    95
100
AcDbTrace
 10
261.585288
 20
282.368048
 30
0.0
 11
262.751954
 21
282.368048
 31
0.0
 12
262.168621
 22
278.868048
 32
0.0
 13
262.168621
 23
278.868048
 33
0.0
  0
MTEXT
  5
1E3
330
1DB
100
AcDbEntity
  8
0
 62
    95
370
    13
100
AcDbMText
 10
256.918621
 20
288.868048
 30
0.0
 40
3.5
 41
0.0
 71
     5
 72
     1
  1
\A1;20
  7
cesky
 11
0.0
 21
1.0
 31
0.0
 73
     1
 44
1.0
  0
POINT
  5
1E4
330
1DB
100
AcDbEntity
  8
Defpoints
 62
     0
100
AcDbPoint
 10
315.730042
 20
298.868048
 30
0.0
  0
POINT
  5
1E5
330
1DB
100
AcDbEntity
  8
Defpoints
 62
     0
100
AcDbPoint
 10
311.028284
 20
278.868048
 30
0.0
  0
POINT
  5
1E6
330
1DB
100
AcDbEntity
  8
Defpoints
 62
     0
100
AcDbPoint
 10
262.168621
 20
278.868048
 30
0.0
  0
ENDBLK
  5
1DD
330
1DB
100
AcDbEntity
  8
0
100
AcDbBlockEnd
  0
BLOCK
  5
1EF
330
1E7
100
AcDbEntity
  8
0
100
AcDbBlockBegin
  2
_U1
 70
     0
 10
0.0
 20
0.0
 30
0.0
  3
_U1
  1

  0
ENDBLK
  5
1F0
330
1E7
100
AcDbEntity
  8
0
100
AcDbBlockEnd
  0
BLOCK
  5
1F6
330
1F5
100
AcDbEntity
  8
0
100
AcDbBlockBegin
  2
*D6
 70
     1
 10
0.0
 20
0.0
 30
0.0
  3
*D6
  1

  0
LINE
  5
1F8
330
1F5
100
AcDbEntity
  8
0
 62
   254
370
    -2
100
AcDbLine
 10
356.430042
 20
300.843048
 30
0.0
 11
356.430042
 21
322.762838
 31
0.0
  0
LINE
  5
1F9
330
1F5
100
AcDbEntity
  8
0
 62
   254
370
    -2
100
AcDbLine
 10
348.842089
 20
298.830894
 30
0.0
 11
332.5039450000001
 21
298.81832
 31
0.0
  0
ARC
  5
1FA
330
1F5
100
AcDbEntity
  8
0
 62
   254
370
    -2
100
AcDbCircle
 10
356.430042
 20
298.836734
 30
0.0
 40
22.9261044527249
100
AcDbArc
 50
98.75554200000001
 51
171.288554
  0
SOLID
  5
1FB
330
1F5
100
AcDbEntity
  8
0
 62
   254
100
AcDbTrace
 10
352.984781
 20
320.914044
 30
0.0
 11
352.895726
 21
322.077307
 31
0.0
 12
356.430042
 22
321.762838
 32
0.0
 13
356.430042
 23
321.762838
 33
0.0
  0
SOLID
  5
1FC
330
1F5
100
AcDbEntity
  8
0
 62
   254
100
AcDbTrace
 10
333.186756
 20
302.353162
 30
0.0
 11
334.350087
 21
302.265003
 31
0.0
 12
333.503944
 22
298.819089
 32
0.0
 13
333.503944
 23
298.819089
 33
0.0
  0
MTEXT
  5
1FD
330
1F5
100
AcDbEntity
  8
0
 62
   254
370
    13
100
AcDbMText
 10
336.498862
 20
318.7525799999999
 30
0.0
 40
3.5
 41
0.0
 71
     5
 72
     1
  1
\A1;90%%d
  7
cesky
 11
0.7068346227958036
 21
0.7073788348665192
 31
0.0
 73
     1
 44
1.0
  0
POINT
  5
1FE
330
1F5
100
AcDbEntity
  8
Defpoints
 62
     0
100
AcDbPoint
 10
344.961897
 20
318.688381
 30
0.0
  0
POINT
  5
1FF
330
1F5
100
AcDbEntity
  8
Defpoints
 62
     0
100
AcDbPoint
 10
348.842089
 20
298.830894
 30
0.0
  0
POINT
  5
200
330
1F5
100
AcDbEntity
  8
Defpoints
 62
     0
100
AcDbPoint
 10
356.430042
 20
296.843048
 30
0.0
  0
POINT
  5
201
330
1F5
100
AcDbEntity
  8
Defpoints
 62
     0
100
AcDbPoint
 10
356.430042
 20
300.843048
 30
0.0
  0
POINT
  5
202
330
1F5
100
AcDbEntity
  8
Defpoints
 62
     0
100
AcDbPoint
 10
349.842089
 20
298.831664
 30
0.0
  0
ENDBLK
  5
1F7
330
1F5
100
AcDbEntity
  8
0
100
AcDbBlockEnd
  0
BLOCK
  5
20A
330
203
100
AcDbEntity
  8
0
100
AcDbBlockBegin
  2
_U2
 70
     0
 10
0.0
 20
0.0
 30
0.0
  3
_U2
  1

  0
ENDBLK
  5
20B
330
203
100
AcDbEntity
  8
0
100
AcDbBlockEnd
  0
BLOCK
  5
210
330
20F
100
AcDbEntity
  8
0
100
AcDbBlockBegin
  2
*D8
 70
     1
 10
0.0
 20
0.0
 30
0.0
  3
*D8
  1

  0
LINE
  5
212
330
20F
100
AcDbEntity
  8
0
 62
    95
370
    -2
100
AcDbLine
 10
356.430042
 20
298.843048
 30
0.0
 11
356.430042
 21
351.843048
 31
0.0
  0
LINE
  5
213
330
20F
100
AcDbEntity
  8
0
 62
    95
370
    -2
100
AcDbLine
 10
274.580042
 20
287.375655
 30
0.0
 11
274.580042
 21
351.843048
 31
0.0
  0
LINE
  5
214
330
20F
100
AcDbEntity
  8
0
 62
    95
370
    -2
100
AcDbLine
 10
352.930042
 20
350.843048
 30
0.0
 11
278.080042
 21
350.843048
 31
0.0
  0
SOLID
  5
215
330
20F
100
AcDbEntity
  8
0
 62
    95
100
AcDbTrace
 10
352.930042
 20
350.259714
 30
0.0
 11
352.930042
 21
351.426381
 31
0.0
 12
356.430042
 22
350.843048
 32
0.0
 13
356.430042
 23
350.843048
 33
0.0
  0
SOLID
  5
216
330
20F
100
AcDbEntity
  8
0
 62
    95
100
AcDbTrace
 10
278.080042
 20
351.426381
 30
0.0
 11
278.080042
 21
350.259714
 31
0.0
 12
274.580042
 22
350.843048
 32
0.0
 13
274.580042
 23
350.843048
 33
0.0
  0
MTEXT
  5
217
330
20F
100
AcDbEntity
  8
0
 62
    95
370
    13
100
AcDbMText
 10
315.505042
 20
356.093048
 30
0.0
 40
3.5
 41
0.0
 71
     5
 72
     1
  1
\A1;82
  7
cesky
 73
     1
 44
1.0
  0
POINT
  5
218
330
20F
100
AcDbEntity
  8
Defpoints
 62
     0
100
AcDbPoint
 10
356.430042
 20
298.843048
 30
0.0
  0
POINT
  5
219
330
20F
100
AcDbEntity
  8
Defpoints
 62
     0
100
AcDbPoint
 10
274.580042
 20
287.375655
 30
0.0
  0
POINT
  5
21A
330
20F
100
AcDbEntity
  8
Defpoints
 62
     0
100
AcDbPoint
 10
274.580042
 20
350.843048
 30
0.0
  0
ENDBLK
  5
211
330
20F
100
AcDbEntity
  8
0
100
AcDbBlockEnd
  0
BLOCK
  5
222
330
21B
100
AcDbEntity
  8
0
100
AcDbBlockBegin
  2
_U3
 70
     0
 10
0.0
 20
0.0
 30
0.0
  3
_U3
  1

  0
ENDBLK
  5
223
330
21B
100
AcDbEntity
  8
0
100
AcDbBlockEnd
  0
BLOCK
  5
228
330
227
100
AcDbEntity
  8
0
100
AcDbBlockBegin
  2
*D10
 70
     1
 10
0.0
 20
0.0
 30
0.0
  3
*D10
  1

  0
LINE
  5
22A
330
227
100
AcDbEntity
  8
0
 62
   254
370
    -2
100
AcDbLine
 10
356.430042
 20
296.843048
 30
0.0
 11
356.430042
 21
327.1036009999999
 31
0.0
  0
LINE
  5
22B
330
227
100
AcDbEntity
  8
0
 62
   254
370
    -2
100
AcDbLine
 10
324.580042
 20
298.868048
 30
0.0
 11
324.580042
 21
327.1036009999999
 31
0.0
  0
LINE
  5
22C
330
227
100
AcDbEntity
  8
0
 62
   254
370
    -2
100
AcDbLine
 10
352.930042
 20
326.103601
 30
0.0
 11
328.080042
 21
326.103601
 31
0.0
  0
SOLID
  5
22D
330
227
100
AcDbEntity
  8
0
 62
   254
100
AcDbTrace
 10
352.930042
 20
325.520268
 30
0.0
 11
352.930042
 21
326.686935
 31
0.0
 12
356.430042
 22
326.103601
 32
0.0
 13
356.430042
 23
326.103601
 33
0.0
  0
SOLID
  5
22E
330
227
100
AcDbEntity
  8
0
 62
   254
100
AcDbTrace
 10
328.080042
 20
326.686935
 30
0.0
 11
328.080042
 21
325.520268
 31
0.0
 12
324.580042
 22
326.103601
 32
0.0
 13
324.580042
 23
326.103601
 33
0.0
  0
MTEXT
  5
22F
330
227
100
AcDbEntity
  8
0
 62
   254
370
    13
100
AcDbMText
 10
340.505042
 20
331.353601
 30
0.0
 40
3.5
 41
0.0
 71
     5
 72
     1
  1
\A1;32
  7
cesky
 73
     1
 44
1.0
  0
POINT
  5
230
330
227
100
AcDbEntity
  8
Defpoints
 62
     0
100
AcDbPoint
 10
356.430042
 20
296.843048
 30
0.0
  0
POINT
  5
231
330
227
100
AcDbEntity
  8
Defpoints
 62
     0
100
AcDbPoint
 10
324.580042
 20
298.868048
 30
0.0
  0
POINT
  5
232
330
227
100
AcDbEntity
  8
Defpoints
 62
     0
100
AcDbPoint
 10
324.580042
 20
326.103601
 30
0.0
  0
ENDBLK
  5
229
330
227
100
AcDbEntity
  8
0
100
AcDbBlockEnd
  0
BLOCK
  5
23A
330
233
100
AcDbEntity
  8
0
100
AcDbBlockBegin
  2
_U4
 70
     0
 10
0.0
 20
0.0
 30
0.0
  3
_U4
  1

  0
ENDBLK
  5
23B
330
233
100
AcDbEntity
  8
0
100
AcDbBlockEnd
  0
BLOCK
  5
240
330
23F
100
AcDbEntity
  8
0
100
AcDbBlockBegin
  2
*D12
 70
     1
 10
0.0
 20
0.0
 30
0.0
  3
*D12
  1

  0
LINE
  5
242
330
23F
100
AcDbEntity
  8
0
 62
    95
370
    -2
100
AcDbLine
 10
324.580042
 20
288.868048
 30
0.0
 11
324.580042
 21
341.843048
 31
0.0
  0
LINE
  5
243
330
23F
100
AcDbEntity
  8
0
 62
    95
370
    -2
100
AcDbLine
 10
356.430042
 20
300.843048
 30
0.0
 11
356.430042
 21
341.843048
 31
0.0
  0
LINE
  5
244
330
23F
100
AcDbEntity
  8
0
 62
    95
370
    -2
100
AcDbLine
 10
328.080042
 20
340.843048
 30
0.0
 11
352.930042
 21
340.843048
 31
0.0
  0
SOLID
  5
245
330
23F
100
AcDbEntity
  8
0
 62
    95
100
AcDbTrace
 10
328.080042
 20
341.426381
 30
0.0
 11
328.080042
 21
340.2597140000001
 31
0.0
 12
324.580042
 22
340.843048
 32
0.0
 13
324.580042
 23
340.843048
 33
0.0
  0
SOLID
  5
246
330
23F
100
AcDbEntity
  8
0
 62
    95
100
AcDbTrace
 10
352.930042
 20
340.2597140000001
 30
0.0
 11
352.930042
 21
341.426381
 31
0.0
 12
356.430042
 22
340.843048
 32
0.0
 13
356.430042
 23
340.843048
 33
0.0
  0
MTEXT
  5
247
330
23F
100
AcDbEntity
  8
0
 62
    95
370
    13
100
AcDbMText
 10
340.505042
 20
346.093048
 30
0.0
 40
3.5
 41
0.0
 71
     5
 72
     1
  1
\A1;32
  7
cesky
 73
     1
 44
1.0
  0
POINT
  5
248
330
23F
100
AcDbEntity
  8
Defpoints
 62
     0
100
AcDbPoint
 10
324.580042
 20
288.868048
 30
0.0
  0
POINT
  5
249
330
23F
100
AcDbEntity
  8
Defpoints
 62
     0
100
AcDbPoint
 10
356.430042
 20
300.843048
 30
0.0
  0
POINT
  5
24A
330
23F
100
AcDbEntity
  8
Defpoints
 62
     0
100
AcDbPoint
 10
356.430042
 20
340.843048
 30
0.0
  0
ENDBLK
  5
241
330
23F
100
AcDbEntity
  8
0
100
AcDbBlockEnd
  0
BLOCK
  5
252
330
24B
100
AcDbEntity
  8
0
100
AcDbBlockBegin
  2
_U5
 70
     0
 10
0.0
 20
0.0
 30
0.0
  3
_U5
  1

  0
ENDBLK
  5
253
330
24B
100
AcDbEntity
  8
0
100
AcDbBlockEnd
  0
BLOCK
  5
258
330
257
100
AcDbEntity
  8
0
100
AcDbBlockBegin
  2
*D14
 70
     1
 10
0.0
 20
0.0
 30
0.0
  3
*D14
  1

  0
LINE
  5
25A
330
257
100
AcDbEntity
  8
0
 62
   254
370
    -2
100
AcDbLine
 10
348.419519
 20
298.886499
 30
0.0
 11
348.419519
 21
306.783683
 31
0.0
  0
LINE
  5
25B
330
257
100
AcDbEntity
  8
0
 62
   254
370
    -2
100
AcDbLine
 10
356.430042
 20
298.843048
 30
0.0
 11
356.430042
 21
306.783683
 31
0.0
  0
LINE
  5
25C
330
257
100
AcDbEntity
  8
0
 62
   254
370
    -2
100
AcDbLine
 10
344.919519
 20
305.783683
 30
0.0
 11
341.419519
 21
305.783683
 31
0.0
  0
LINE
  5
25D
330
257
100
AcDbEntity
  8
0
 62
   254
370
    -2
100
AcDbLine
 10
359.930042
 20
305.783683
 30
0.0
 11
363.430042
 21
305.783683
 31
0.0
  0
SOLID
  5
25E
330
257
100
AcDbEntity
  8
0
 62
   254
100
AcDbTrace
 10
344.919519
 20
305.200349
 30
0.0
 11
344.919519
 21
306.367016
 31
0.0
 12
348.419519
 22
305.783683
 32
0.0
 13
348.419519
 23
305.783683
 33
0.0
  0
SOLID
  5
25F
330
257
100
AcDbEntity
  8
0
 62
   254
100
AcDbTrace
 10
359.930042
 20
306.367016
 30
0.0
 11
359.930042
 21
305.200349
 31
0.0
 12
356.430042
 22
305.783683
 32
0.0
 13
356.430042
 23
305.783683
 33
0.0
  0
MTEXT
  5
260
330
257
100
AcDbEntity
  8
0
 62
   254
370
    13
100
AcDbMText
 10
352.42478
 20
311.033683
 30
0.0
 40
3.5
 41
0.0
 71
     5
 72
     1
  1
\A1;8
  7
cesky
 73
     1
 44
1.0
  0
POINT
  5
261
330
257
100
AcDbEntity
  8
Defpoints
 62
     0
100
AcDbPoint
 10
348.419519
 20
298.886499
 30
0.0
  0
POINT
  5
262
330
257
100
AcDbEntity
  8
Defpoints
 62
     0
100
AcDbPoint
 10
356.430042
 20
298.843048
 30
0.0
  0
POINT
  5
263
330
257
100
AcDbEntity
  8
Defpoints
 62
     0
100
AcDbPoint
 10
356.430042
 20
305.783683
 30
0.0
  0
ENDBLK
  5
259
330
257
100
AcDbEntity
  8
0
100
AcDbBlockEnd
  0
BLOCK
  5
26B
330
264
100
AcDbEntity
  8
0
100
AcDbBlockBegin
  2
_U6
 70
     0
 10
0.0
 20
0.0
 30
0.0
  3
_U6
  1

  0
ENDBLK
  5
26C
330
264
100
AcDbEntity
  8
0
100
AcDbBlockEnd
  0
ENDSEC
  0
SECTION
  2
ENTITIES
  0
POINT
  5
73
102
{ACAD_REACTORS
330
33A
102
}
330
1F
100
AcDbEntity
  8
80
100
AcDbPoint
 10
324.580042
 20
288.868048
 30
0.0
  0
POINT
  5
76
330
1F
100
AcDbEntity
  8
4
 60
     1
100
AcDbPoint
 10
325.680042
 20
288.868048
 30
0.0
  0
POINT
  5
78
330
1F
100
AcDbEntity
  8
4
 60
     1
100
AcDbPoint
 10
343.916717
 20
288.868048
 30
0.0
  0
POINT
  5
79
330
1F
100
AcDbEntity
  8
SK4
 60
     1
100
AcDbPoint
 10
276.580042
 20
288.868048
 30
0.0
  0
POINT
  5
7A
330
1F
100
AcDbEntity
  8
SK4
 60
     1
100
AcDbPoint
 10
324.580042
 20
288.868048
 30
0.0
  0
POINT
  5
7B
330
1F
100
AcDbEntity
  8
SK6
 60
     1
100
AcDbPoint
 10
274.580042
 20
287.375655
 30
0.0
  0
POINT
  5
7C
330
1F
100
AcDbEntity
  8
SK6
 60
     1
100
AcDbPoint
 10
348.419519
 20
298.886499
 30
0.0
  0
LINE
  5
7D
330
1F
100
AcDbEntity
  8
1
100
AcDbLine
 10
355.580042
 20
290.809039
 30
0.0
 11
355.580042
 21
281.9618779999999
 31
0.0
  0
LINE
  5
7F
330
1F
100
AcDbEntity
  8
1
100
AcDbLine
 10
344.580042
 20
291.528491
 30
0.0
 11
344.580042
 21
279.996159
 31
0.0
  0
LINE
  5
80
330
1F
100
AcDbEntity
  8
1
100
AcDbLine
 10
355.67981
 20
281.071967
 30
0.0
 11
355.6792549999999
 21
287.544947
 31
0.0
  0
LINE
  5
82
330
1F
100
AcDbEntity
  8
1
100
AcDbLine
 10
348.897995
 20
281.020736
 30
0.0
 11
355.480875
 21
280.880574
 31
0.0
  0
LINE
  5
83
330
1F
100
AcDbEntity
  8
1
100
AcDbLine
 10
325.680042
 20
279.968048
 30
0.0
 11
333.316334
 21
279.968048
 31
0.0
  0
LINE
  5
84
330
1F
100
AcDbEntity
  8
1
100
AcDbLine
 10
333.316334
 20
297.768048
 30
0.0
 11
325.680042
 21
297.768048
 31
0.0
  0
LINE
  5
85
330
1F
100
AcDbEntity
  8
SK1
100
AcDbLine
 10
324.580042
 20
298.868048
 30
0.0
 11
306.880042
 21
298.868048
 31
0.0
  0
LINE
  5
86
330
1F
100
AcDbEntity
  8
1
100
AcDbLine
 10
292.280042
 20
298.868048
 30
0.0
 11
276.580042
 21
298.868048
 31
0.0
  0
LINE
  5
87
330
1F
100
AcDbEntity
  8
1
100
AcDbLine
 10
276.580042
 20
298.868048
 30
0.0
 11
274.580042
 21
296.868048
 31
0.0
  0
LINE
  5
88
330
1F
100
AcDbEntity
  8
1
100
AcDbLine
 10
324.580042
 20
278.868048
 30
0.0
 11
324.580042
 21
298.868048
 31
0.0
  0
LINE
  5
89
330
1F
100
AcDbEntity
  8
SK1
100
AcDbLine
 10
305.080042
 20
297.068048
 30
0.0
 11
306.880042
 21
298.868048
 31
0.0
  0
LINE
  5
8A
330
1F
100
AcDbEntity
  8
SK1
100
AcDbLine
 10
305.080042
 20
297.068048
 30
0.0
 11
294.080042
 21
297.068048
 31
0.0
  0
LINE
  5
8B
330
1F
100
AcDbEntity
  8
SK1
100
AcDbLine
 10
294.080042
 20
297.068048
 30
0.0
 11
292.280042
 21
298.868048
 31
0.0
  0
LINE
  5
8C
330
1F
100
AcDbEntity
  8
SK1
100
AcDbLine
 10
276.580042
 20
278.868048
 30
0.0
 11
276.580042
 21
298.868048
 31
0.0
  0
LINE
  5
8D
330
1F
100
AcDbEntity
  8
SK1
100
AcDbLine
 10
274.580042
 20
280.868048
 30
0.0
 11
274.580042
 21
296.868048
 31
0.0
  0
LINE
  5
8E
330
1F
100
AcDbEntity
  8
1
100
AcDbLine
 10
350.886475
 20
294.065505
 30
0.0
 11
350.735986
 21
294.369844
 31
0.0
  0
LINE
  5
90
330
1F
100
AcDbEntity
  8
1
100
AcDbLine
 10
352.22663
 20
294.8865149999999
 30
0.0
 11
352.378019
 21
294.580354
 31
0.0
  0
LINE
  5
91
330
1F
100
AcDbEntity
  8
1
100
AcDbLine
 10
351.365302
 20
292.747942
 30
0.0
 11
351.229439
 21
293.022702
 31
0.0
  0
LINE
  5
92
330
1F
100
AcDbEntity
  8
1
100
AcDbLine
 10
352.720083
 20
293.539373
 30
0.0
 11
352.812457
 21
293.352561
 31
0.0
  0
LINE
  5
93
330
1F
100
AcDbEntity
  8
1
100
AcDbLine
 10
348.814321
 20
297.398037
 30
0.0
 11
348.844239
 21
298.678786
 31
0.0
  0
LINE
  5
94
330
1F
100
AcDbEntity
  8
1
100
AcDbLine
 10
348.337069
 20
297.41613
 30
0.0
 11
347.951382
 21
298.677115
 31
0.0
  0
LINE
  5
95
330
1F
100
AcDbEntity
  8
1
100
AcDbLine
 10
347.217337
 20
297.985846
 30
0.0
 11
347.218366
 21
298.007832
 31
0.0
  0
LINE
  5
96
330
1F
100
AcDbEntity
  8
1
100
AcDbLine
 10
355.285887
 20
297.592204
 30
0.0
 11
356.464293
 21
298.035729
 31
0.0
  0
LINE
  5
97
330
1F
100
AcDbEntity
  8
1
100
AcDbLine
 10
356.485901
 20
297.174228
 30
0.0
 11
356.480587
 21
298.0158859999999
 31
0.0
  0
LINE
  5
98
330
1F
100
AcDbEntity
  8
1
100
AcDbLine
 10
347.247173
 20
297.992004
 30
0.0
 11
348.235404
 21
297.333317
 31
0.0
  0
LINE
  5
99
330
1F
100
AcDbEntity
  8
1
100
AcDbLine
 10
355.045618
 20
297.523584
 30
0.0
 11
348.831749
 21
297.316724
 31
0.0
  0
LINE
  5
9A
330
1F
100
AcDbEntity
  8
1
100
AcDbLine
 10
355.192064
 20
297.114111
 30
0.0
 11
355.128484
 21
297.4297
 31
0.0
  0
LINE
  5
9B
330
1F
100
AcDbEntity
  8
1
100
AcDbLine
 10
348.816502
 20
297.316962
 30
0.0
 11
348.4941720000001
 21
297.247553
 31
0.0
  0
LINE
  5
9C
330
1F
100
AcDbEntity
  8
1
100
AcDbLine
 10
356.486043
 20
297.151765
 30
0.0
 11
356.485901
 21
297.174228
 31
0.0
  0
LINE
  5
9D
330
1F
100
AcDbEntity
  8
1
100
AcDbLine
 10
355.267847
 20
297.119264
 30
0.0
 11
356.462575
 21
297.152261
 31
0.0
  0
LINE
  5
9E
330
1F
100
AcDbEntity
  8
1
100
AcDbLine
 10
348.395864
 20
297.167141
 30
0.0
 11
348.467721
 21
291.337724
 31
0.0
  0
LINE
  5
9F
330
1F
100
AcDbEntity
  8
1
100
AcDbLine
 10
355.266652
 20
291.016437
 30
0.0
 11
355.1916779999999
 21
297.098782
 31
0.0
  0
LINE
  5
A0
330
1F
100
AcDbEntity
  8
1
100
AcDbLine
 10
356.322419
 20
290.350203
 30
0.0
 11
355.580056
 21
290.756235
 31
0.0
  0
LINE
  5
A1
330
1F
100
AcDbEntity
  8
1
100
AcDbLine
 10
356.3498009999999
 20
290.35909
 30
0.0
 11
356.348738
 21
290.337254
 31
0.0
  0
LINE
  5
A2
330
1F
100
AcDbEntity
  8
1
100
AcDbLine
 10
355.627061
 20
289.647131
 30
0.0
 11
355.580042
 21
289.814631
 31
0.0
  0
LINE
  5
A3
330
1F
100
AcDbEntity
  8
1
100
AcDbLine
 10
356.334709
 20
290.147058
 30
0.0
 11
356.348938
 21
290.337248
 31
0.0
  0
LINE
  5
A4
330
1F
100
AcDbEntity
  8
1
100
AcDbLine
 10
356.265711
 20
290.067497
 30
0.0
 11
356.27579
 21
290.091108
 31
0.0
  0
LINE
  5
A5
330
1F
100
AcDbEntity
  8
1
100
AcDbLine
 10
356.174773
 20
289.854406
 30
0.0
 11
356.265676
 21
290.067508
 31
0.0
  0
LINE
  5
A6
330
1F
100
AcDbEntity
  8
1
100
AcDbLine
 10
355.651355
 20
289.626095
 30
0.0
 11
355.605801
 21
289.621913
 31
0.0
  0
LINE
  5
A7
330
1F
100
AcDbEntity
  8
1
100
AcDbLine
 10
355.580041
 20
289.630132
 30
0.0
 11
355.605941
 21
289.6310020000001
 31
0.0
  0
LINE
  5
A8
330
1F
100
AcDbEntity
  8
1
100
AcDbLine
 10
353.722968
 20
294.657926
 30
0.0
 11
353.629114
 21
294.84773
 31
0.0
  0
LINE
  5
A9
330
1F
100
AcDbEntity
  8
1
100
AcDbLine
 10
349.864239
 20
292.986087
 30
0.0
 11
349.958092
 21
292.796283
 31
0.0
  0
LINE
  5
AA
330
1F
100
AcDbEntity
  8
SK1
100
AcDbLine
 10
276.580042
 20
278.868048
 30
0.0
 11
324.580042
 21
278.868048
 31
0.0
  0
LINE
  5
AB
330
1F
100
AcDbEntity
  8
SK1
100
AcDbLine
 10
274.580042
 20
280.868048
 30
0.0
 11
276.580042
 21
278.868048
 31
0.0
  0
LINE
  5
AC
330
1F
100
AcDbEntity
  8
81
100
AcDbLine
 10
354.430042
 20
298.843048
 30
0.0
 11
358.430042
 21
298.843048
 31
0.0
  0
LINE
  5
AD
330
1F
100
AcDbEntity
  8
81
100
AcDbLine
 10
356.430042
 20
296.843048
 30
0.0
 11
356.430042
 21
300.843048
 31
0.0
  0
LINE
  5
AE
330
1F
100
AcDbEntity
  8
80
100
AcDbLine
 10
324.580042
 20
287.868474
 30
0.0
 11
324.580042
 21
289.867621
 31
0.0
  0
LINE
  5
AF
330
1F
100
AcDbEntity
  8
1
100
AcDbLine
 10
351.781362
 20
294.78041
 30
0.0
 11
351.633251
 21
295.07994
 31
0.0
  0
LINE
  5
B0
330
1F
100
AcDbEntity
  8
1
100
AcDbLine
 10
351.78215
 20
294.762874
 30
0.0
 11
351.633428
 21
295.063641
 31
0.0
  0
LINE
  5
B1
330
1F
100
AcDbEntity
  8
1
100
AcDbLine
 10
352.877437
 20
294.341956
 30
0.0
 11
352.731475
 21
294.63714
 31
0.0
  0
LINE
  5
B2
330
1F
100
AcDbEntity
  8
1
100
AcDbLine
 10
352.79115
 20
294.301662
 30
0.0
 11
352.64175
 21
294.603799
 31
0.0
  0
LINE
  5
B3
330
1F
100
AcDbEntity
  8
1
100
AcDbLine
 10
350.613242
 20
293.84504
 30
0.0
 11
350.762559
 21
293.543069
 31
0.0
  0
LINE
  5
B4
330
1F
100
AcDbEntity
  8
1
100
AcDbLine
 10
350.533383
 20
293.81823
 30
0.0
 11
350.679638
 21
293.522452
 31
0.0
  0
LINE
  5
B5
330
1F
100
AcDbEntity
  8
1
100
AcDbLine
 10
351.246165
 20
292.976212
 30
0.0
 11
351.357221
 21
292.751618
 31
0.0
  0
LINE
  5
B6
330
1F
100
AcDbEntity
  8
1
100
AcDbLine
 10
355.761499
 20
298.748428
 30
0.0
 11
355.783771
 21
298.7479140000001
 31
0.0
  0
LINE
  5
B7
330
1F
100
AcDbEntity
  8
1
100
AcDbLine
 10
355.973803
 20
298.739056
 30
0.0
 11
355.783784
 21
298.748115
 31
0.0
  0
LINE
  5
B8
330
1F
100
AcDbEntity
  8
1
100
AcDbLine
 10
356.056988
 20
298.672844
 30
0.0
 11
356.033096
 21
298.682393
 31
0.0
  0
LINE
  5
B9
330
1F
100
AcDbEntity
  8
1
100
AcDbLine
 10
348.845642
 20
298.703816
 30
0.0
 11
348.822958
 21
298.703575
 31
0.0
  0
LINE
  5
BA
330
1F
100
AcDbEntity
  8
1
100
AcDbLine
 10
348.822958
 20
298.703575
 30
0.0
 11
347.97216
 21
298.694554
 31
0.0
  0
LINE
  5
BB
330
1F
100
AcDbEntity
  8
1
100
AcDbLine
 10
347.925757
 20
298.701898
 30
0.0
 11
347.972208
 21
298.7047
 31
0.0
  0
LINE
  5
BC
330
1F
100
AcDbEntity
  8
1
100
AcDbLine
 10
356.267643
 20
298.588677
 30
0.0
 11
356.056976
 21
298.672808
 31
0.0
  0
LINE
  5
BD
330
1F
100
AcDbEntity
  8
1
100
AcDbLine
 10
347.390258
 20
298.487274
 30
0.0
 11
347.300624
 21
298.279517
 31
0.0
  0
LINE
  5
BE
330
1F
100
AcDbEntity
  8
1
100
AcDbLine
 10
355.769124
 20
298.718063
 30
0.0
 11
355.20105
 21
297.6917
 31
0.0
  0
LINE
  5
BF
330
1F
100
AcDbEntity
  8
1
100
AcDbLine
 10
347.300588
 20
298.279531
 30
0.0
 11
347.290395
 21
298.255922
 31
0.0
  0
LINE
  5
C0
330
1F
100
AcDbEntity
  8
1
100
AcDbLine
 10
347.232464
 20
298.198619
 30
0.0
 11
347.218021
 21
298.007856
 31
0.0
  0
LINE
  5
C1
330
1F
100
AcDbEntity
  8
1
100
AcDbLine
 10
356.487269
 20
298.061944
 30
0.0
 11
356.490165
 21
298.016101
 31
0.0
  0
LINE
  5
C2
330
1F
100
AcDbEntity
  8
80
100
AcDbLine
 10
323.580468
 20
288.868048
 30
0.0
 11
325.579616
 21
288.868048
 31
0.0
  0
LINE
  5
C5
330
1F
100
AcDbEntity
  8
NOCUT
100
AcDbLine
 10
355.580042
 20
284.527098
 30
0.0
 11
355.580042
 21
281.117865
 31
0.0
  0
LINE
  5
C7
330
1F
100
AcDbEntity
  8
NOCUT
100
AcDbLine
 10
354.614941
 20
280.118474
 30
0.0
 11
344.580042
 21
279.768048
 31
0.0
  0
LINE
  5
C8
330
1F
100
AcDbEntity
  8
NOCUT
100
AcDbLine
 10
343.916717
 20
279.968048
 30
0.0
 11
325.680042
 21
279.968048
 31
0.0
  0
LINE
  5
C9
330
1F
100
AcDbEntity
  8
NOCUT
100
AcDbLine
 10
276.580042
 20
278.868048
 30
0.0
 11
274.580042
 21
280.868048
 31
0.0
  0
LINE
  5
CA
330
1F
100
AcDbEntity
  8
NOCUT
100
AcDbLine
 10
274.580042
 20
280.868048
 30
0.0
 11
274.580042
 21
283.868048
 31
0.0
  0
LINE
  5
CB
330
1F
100
AcDbEntity
  8
NOCUT
100
AcDbLine
 10
327.889443
 20
288.868048
 30
0.0
 11
354.830042
 21
288.868048
 31
0.0
  0
LINE
  5
CC
330
1F
100
AcDbEntity
  8
NOCUT
100
AcDbLine
 10
354.845234
 20
288.694399
 30
0.0
 11
355.580042
 21
284.527098
 31
0.0
  0
LINE
  5
CD
330
1F
100
AcDbEntity
  8
NOCUT
100
AcDbLine
 10
274.580042
 20
283.868048
 30
0.0
 11
275.580042
 21
284.868048
 31
0.0
  0
LINE
  5
CE
330
1F
100
AcDbEntity
  8
NOCUT
100
AcDbLine
 10
275.580042
 20
284.868048
 30
0.0
 11
325.580042
 21
284.868048
 31
0.0
  0
LINE
  5
CF
330
1F
100
AcDbEntity
  8
NOCUT
100
AcDbLine
 10
325.580042
 20
284.868048
 30
0.0
 11
327.889443
 21
288.868048
 31
0.0
  0
LINE
  5
D0
330
1F
100
AcDbEntity
  8
NOCUT
100
AcDbLine
 10
324.580042
 20
278.868048
 30
0.0
 11
276.580042
 21
278.868048
 31
0.0
  0
ARC
  5
D9
330
1F
100
AcDbEntity
  8
1
100
AcDbCircle
 10
325.680042
 20
278.868048
 30
0.0
 40
1.100000000000377
100
AcDbArc
 50
90.0
 51
180.0
  0
ARC
  5
DA
330
1F
100
AcDbEntity
  8
1
100
AcDbCircle
 10
325.680042
 20
298.868048
 30
0.0
 40
1.100000000000377
100
AcDbArc
 50
180.0
 51
270.0
  0
ARC
  5
E3
330
1F
100
AcDbEntity
  8
NOCUT
100
AcDbCircle
 10
354.580042
 20
281.117865
 30
0.0
 40
1.0
100
AcDbArc
 50
272.0
 51
360.0
  0
ARC
  5
E4
330
1F
100
AcDbEntity
  8
NOCUT
100
AcDbCircle
 10
343.916717
 20
278.768048
 30
0.0
 40
1.199999999999999
100
AcDbArc
 50
56.44269
 51
90.0
  0
ARC
  5
E5
330
1F
100
AcDbEntity
  8
NOCUT
100
AcDbCircle
 10
325.680042
 20
278.868048
 30
0.0
 40
1.100000000000377
100
AcDbArc
 50
90.0
 51
180.0
  0
ARC
  5
E6
330
1F
100
AcDbEntity
  8
NOCUT
100
AcDbCircle
 10
355.830042
 20
288.868048
 30
0.0
 40
0.9999999999999975
100
AcDbArc
 50
180.0
 51
190.0
  0
ELLIPSE
  5
E7
330
1F
100
AcDbEntity
  8
1
100
AcDbEllipse
 10
303.571131
 20
287.863363
 30
0.0
 11
-104.2539373392711
 21
-2.930767692808215
 31
0.0
210
0.0
220
0.0
230
1.0
 40
0.091043
 41
4.278716262116272
 42
4.305551994856901
  0
ELLIPSE
  5
E8
330
1F
100
AcDbEntity
  8
1
100
AcDbEllipse
 10
352.382552
 20
285.105145
 30
0.0
 11
0.9860387968609757
 21
-0.4875730623044702
 31
0.0
210
0.0
220
0.0
230
0.9999999999999998
 40
0.973019
 41
5.735294300226007
 42
6.283185307179585
  0
ELLIPSE
  5
E9
330
1F
100
AcDbEntity
  8
1
100
AcDbEllipse
 10
352.382552
 20
285.105145
 30
0.0
 11
0.9860387968609757
 21
-0.4875730623044702
 31
0.0
210
0.0
220
0.0
230
0.9999999999999998
 40
0.973019
 41
0.0
 42
3.347880520007129
  0
ELLIPSE
  5
EA
330
1F
100
AcDbEntity
  8
1
100
AcDbEllipse
 10
347.390197
 20
288.8386740000001
 30
0.0
 11
-1.042891816305957
 21
-8.989161867723195
 31
0.0
210
0.0
220
0.0
230
1.0
 40
0.4385390000000001
 41
0.2786952853719475
 42
0.4397129341859324
  0
ELLIPSE
  5
EB
330
1F
100
AcDbEntity
  8
1
100
AcDbEllipse
 10
339.608921
 20
288.868048
 30
0.0
 11
-88.09856156580227
 21
-2.47942481828502
 31
0.0
210
0.0
220
0.0
230
1.0
 40
0.097024
 41
4.660741584459855
 42
4.76687553948465
  0
ELLIPSE
  5
EC
330
1F
100
AcDbEntity
  8
1
100
AcDbEllipse
 10
303.57114
 20
289.87273
 30
0.0
 11
-104.2539241639544
 21
2.930766546365631
 31
0.0
210
0.0
220
0.0
230
1.0
 40
0.091043
 41
1.977633269487228
 42
2.004469005136935
  0
ELLIPSE
  5
ED
330
1F
100
AcDbEntity
  8
1
100
AcDbEllipse
 10
339.608921
 20
288.868048
 30
0.0
 11
-88.09856152499484
 21
2.479424817165864
 31
0.0
210
0.0
220
0.0
230
0.9999999999999998
 40
0.097024
 41
1.516309767673104
 42
1.622443722747103
  0
ELLIPSE
  5
EE
330
1F
100
AcDbEntity
  8
1
100
AcDbEllipse
 10
352.865112
 20
294.16941
 30
0.0
 11
0.089555366082574
 21
0.0442830284423734
 31
0.0
210
0.0
220
0.0
230
0.9999999999999998
 40
0.973019
 41
4.34643613532056
 42
5.718970063329758
  0
ELLIPSE
  5
EF
330
1F
100
AcDbEntity
  8
1
100
AcDbEllipse
 10
352.88149
 20
293.974979
 30
0.0
 11
0.089555366082574
 21
0.0442830284423734
 31
0.0
210
0.0
220
0.0
230
0.9999999999999998
 40
0.973019
 41
1.204843481730873
 42
2.053778634141611
  0
ELLIPSE
  5
F0
330
1F
100
AcDbEntity
  8
1
100
AcDbEllipse
 10
353.245549
 20
293.716578
 30
0.0
 11
0.4983712321063107
 21
0.2464328874037038
 31
0.0
210
0.0
220
0.0
230
0.9999999999999998
 40
0.9730190000000002
 41
2.053778634141742
 42
2.97390220731155
  0
ELLIPSE
  5
F1
330
1F
100
AcDbEntity
  8
1
100
AcDbEllipse
 10
352.809638
 20
293.583656
 30
0.0
 11
0.0895553660825741
 21
0.0442830284423735
 31
0.0
210
0.0
220
0.0
230
1.0
 40
0.973019
 41
2.97390220731154
 42
3.822837359722401
  0
ELLIPSE
  5
F2
330
1F
100
AcDbEntity
  8
1
100
AcDbEllipse
 10
352.724778
 20
293.405106
 30
0.0
 11
0.0895553660825742
 21
0.0442830284423735
 31
0.0
210
0.0
220
0.0
230
0.9999999999999998
 40
0.973019
 41
5.591896085303081
 42
6.964430013311901
  0
ELLIPSE
  5
F3
330
1F
100
AcDbEntity
  8
1
100
AcDbEllipse
 10
352.284416
 20
293.502965
 30
0.0
 11
0.498371232106311
 21
0.246432887403704
 31
0.0
210
0.0
220
0.0
230
0.9999999999999998
 40
0.9730190000000002
 41
4.671772512133218
 42
5.591896085303055
  0
ELLIPSE
  5
F4
330
1F
100
AcDbEntity
  8
1
100
AcDbEllipse
 10
352.464349
 20
293.097299
 30
0.0
 11
0.089555366082574
 21
0.0442830284423734
 31
0.0
210
0.0
220
0.0
230
0.9999999999999998
 40
0.973019
 41
3.299238584124056
 42
4.671772512133251
  0
ELLIPSE
  5
F5
330
1F
100
AcDbEntity
  8
1
100
AcDbEllipse
 10
352.300989
 20
292.982471
 30
0.0
 11
0.089555366082574
 21
0.0442830284423734
 31
0.0
210
0.0
220
0.0
230
0.9999999999999998
 40
0.973019
 41
0.1576459305341476
 42
1.006581082945087
  0
ELLIPSE
  5
F6
330
1F
100
AcDbEntity
  8
1
100
AcDbEllipse
 10
352.248583
 20
292.538238
 30
0.0
 11
0.4983712321063107
 21
0.2464328874037038
 31
0.0
210
0.0
220
0.0
230
0.9999999999999998
 40
0.9730190000000002
 41
1.006581082945078
 42
1.926704656114956
  0
ELLIPSE
  5
F7
330
1F
100
AcDbEntity
  8
1
100
AcDbEllipse
 10
351.921766
 20
292.8406569999999
 30
0.0
 11
0.0895553660825741
 21
0.0442830284423735
 31
0.0
210
0.0
220
0.0
230
1.0
 40
0.973019
 41
1.926704656114764
 42
2.775639808525742
  0
ELLIPSE
  5
F8
330
1F
100
AcDbEntity
  8
1
100
AcDbEllipse
 10
351.723678
 20
292.820319
 30
0.0
 11
0.0895553660825742
 21
0.0442830284423735
 31
0.0
210
0.0
220
0.0
230
0.9999999999999998
 40
0.973019
 41
4.544698534106443
 42
5.917232462115535
  0
ELLIPSE
  5
F9
330
1F
100
AcDbEntity
  8
1
100
AcDbEllipse
 10
351.597975
 20
293.246265
 30
0.0
 11
0.498371232106311
 21
0.246432887403704
 31
0.0
210
0.0
220
0.0
230
0.9999999999999998
 40
0.9730190000000002
 41
3.624574960936626
 42
4.544698534106478
  0
ELLIPSE
  5
FA
330
1F
100
AcDbEntity
  8
1
100
AcDbEllipse
 10
351.327272
 20
292.882498
 30
0.0
 11
0.089555366082574
 21
0.0442830284423734
 31
0.0
210
0.0
220
0.0
230
0.9999999999999998
 40
0.973019
 41
2.252041032927642
 42
3.624574960936569
  0
ELLIPSE
  5
FB
330
1F
100
AcDbEntity
  8
1
100
AcDbEllipse
 10
351.147534
 20
292.9621
 30
0.0
 11
0.089555366082574
 21
0.0442830284423734
 31
0.0
210
0.0
220
0.0
230
0.9999999999999998
 40
0.973019
 41
5.39363368651715
 42
6.242568838928193
  0
ELLIPSE
  5
FC
330
1F
100
AcDbEntity
  8
1
100
AcDbEllipse
 10
350.731068
 20
292.776269
 30
0.0
 11
0.4983712321063107
 21
0.2464328874037038
 31
0.0
210
0.0
220
0.0
230
0.9999999999999998
 40
0.9730190000000002
 41
6.242568838928097
 42
7.162692412097947
  0
ELLIPSE
  5
FD
330
1F
100
AcDbEntity
  8
1
100
AcDbEllipse
 10
350.840162
 20
293.21161
 30
0.0
 11
0.0895553660825741
 21
0.0442830284423735
 31
0.0
210
0.0
220
0.0
230
1.0
 40
0.973019
 41
0.8795071049183768
 42
1.728442257329075
  0
ELLIPSE
  5
FE
330
1F
100
AcDbEntity
  8
1
100
AcDbEllipse
 10
350.726935
 20
293.369822
 30
0.0
 11
0.0895553660825742
 21
0.0442830284423735
 31
0.0
210
0.0
220
0.0
230
0.9999999999999998
 40
0.973019
 41
3.497500982909803
 42
4.870034910918858
  0
ELLIPSE
  5
FF
330
1F
100
AcDbEntity
  8
1
100
AcDbEllipse
 10
351.0415930000001
 20
293.697909
 30
0.0
 11
0.498371232106311
 21
0.246432887403704
 31
0.0
210
0.0
220
0.0
230
0.9999999999999998
 40
0.9730190000000002
 41
2.577377409739996
 42
3.497500982909886
  0
ELLIPSE
  5
100
330
1F
100
AcDbEntity
  8
1
100
AcDbEllipse
 10
350.590957
 20
293.739807
 30
0.0
 11
0.089555366082574
 21
0.0442830284423734
 31
0.0
210
0.0
220
0.0
230
0.9999999999999998
 40
0.973019
 41
1.204843481730792
 42
2.577377409739948
  0
ELLIPSE
  5
101
330
1F
100
AcDbEntity
  8
1
100
AcDbEllipse
 10
350.574579
 20
293.934238
 30
0.0
 11
0.089555366082574
 21
0.0442830284423734
 31
0.0
210
0.0
220
0.0
230
0.9999999999999998
 40
0.973019
 41
4.346436135320693
 42
5.195371287731656
  0
ELLIPSE
  5
102
330
1F
100
AcDbEntity
  8
1
100
AcDbEllipse
 10
350.21052
 20
294.192639
 30
0.0
 11
0.4983712321063107
 21
0.2464328874037038
 31
0.0
210
0.0
220
0.0
230
0.9999999999999998
 40
0.9730190000000002
 41
5.195371287731525
 42
6.115494860901331
  0
ELLIPSE
  5
103
330
1F
100
AcDbEntity
  8
1
100
AcDbEllipse
 10
350.646431
 20
294.325561
 30
0.0
 11
0.0895553660825741
 21
0.0442830284423735
 31
0.0
210
0.0
220
0.0
230
1.0
 40
0.973019
 41
6.115494860901308
 42
6.964430013312311
  0
ELLIPSE
  5
104
330
1F
100
AcDbEntity
  8
1
100
AcDbEllipse
 10
350.731292
 20
294.504112
 30
0.0
 11
0.0895553660825742
 21
0.0442830284423735
 31
0.0
210
0.0
220
0.0
230
0.9999999999999998
 40
0.973019
 41
2.450303431713197
 42
3.82283735972231
  0
ELLIPSE
  5
105
330
1F
100
AcDbEntity
  8
1
100
AcDbEllipse
 10
351.171653
 20
294.406252
 30
0.0
 11
0.498371232106311
 21
0.246432887403704
 31
0.0
210
0.0
220
0.0
230
0.9999999999999998
 40
0.9730190000000002
 41
1.530179858543426
 42
2.450303431713263
  0
ELLIPSE
  5
106
330
1F
100
AcDbEntity
  8
1
100
AcDbEllipse
 10
350.99172
 20
294.811918
 30
0.0
 11
0.089555366082574
 21
0.0442830284423734
 31
0.0
210
0.0
220
0.0
230
0.9999999999999998
 40
0.973019
 41
0.1576459305342783
 42
1.530179858543458
  0
ELLIPSE
  5
107
330
1F
100
AcDbEntity
  8
1
100
AcDbEllipse
 10
351.15508
 20
294.926746
 30
0.0
 11
0.089555366082574
 21
0.0442830284423734
 31
0.0
210
0.0
220
0.0
230
0.9999999999999998
 40
0.973019
 41
3.299238584124296
 42
4.148173736535038
  0
ELLIPSE
  5
108
330
1F
100
AcDbEntity
  8
1
100
AcDbEllipse
 10
351.207486
 20
295.370979
 30
0.0
 11
0.4983712321063107
 21
0.2464328874037038
 31
0.0
210
0.0
220
0.0
230
0.9999999999999998
 40
0.9730190000000002
 41
4.148173736534901
 42
5.068297309704751
  0
ELLIPSE
  5
109
330
1F
100
AcDbEntity
  8
1
100
AcDbEllipse
 10
351.728035
 20
293.954609
 30
0.0
 11
-1.479058195291465
 21
-0.731359593456701
 31
0.0
210
0.0
220
0.0
230
1.0
 40
0.973019
 41
0.0
 42
6.283185307179585
  0
ELLIPSE
  5
10A
330
1F
100
AcDbEntity
  8
1
100
AcDbEllipse
 10
351.952121
 20
293.832656
 30
0.0
 11
2.016897539033819
 21
0.9973085365318679
 31
0.0
210
0.0
220
0.0
230
1.0
 40
0.973019
 41
3.088632967058745
 42
3.312650463372933
  0
ELLIPSE
  5
10B
330
1F
100
AcDbEntity
  8
1
100
AcDbEllipse
 10
351.952121
 20
293.832656
 30
0.0
 11
2.016897539033819
 21
0.9973085365318679
 31
0.0
210
0.0
220
0.0
230
1.0
 40
0.973019
 41
6.112102487934793
 42
7.75773022594975
  0
ELLIPSE
  5
10C
330
1F
100
AcDbEntity
  8
1
100
AcDbEllipse
 10
351.84053
 20
293.727105
 30
0.0
 11
1.882437703098229
 21
0.9308213007630762
 31
0.0
210
0.0
220
0.0
230
0.9999999999999998
 40
0.973019
 41
5.184881515796066
 42
6.283162795017402
  0
ELLIPSE
  5
10D
330
1F
100
AcDbEntity
  8
1
100
AcDbEllipse
 10
351.746676
 20
293.916908
 30
0.0
 11
-1.882437703098229
 21
-0.930821300763074
 31
0.0
210
0.0
220
0.0
230
1.0
 40
0.973019
 41
0.0
 42
6.283185307179585
  0
ELLIPSE
  5
10E
330
1F
100
AcDbEntity
  8
1
100
AcDbEllipse
 10
351.534304
 20
295.06856
 30
0.0
 11
0.0895553660825741
 21
0.0442830284423735
 31
0.0
210
0.0
220
0.0
230
1.0
 40
0.973019
 41
5.068297309704919
 42
5.917232462115655
  0
ELLIPSE
  5
10F
330
1F
100
AcDbEntity
  8
1
100
AcDbEllipse
 10
351.732391
 20
295.088898
 30
0.0
 11
0.0895553660825742
 21
0.0442830284423735
 31
0.0
210
0.0
220
0.0
230
0.9999999999999998
 40
0.973019
 41
1.403105880516637
 42
2.775639808525742
  0
ELLIPSE
  5
110
330
1F
100
AcDbEntity
  8
1
100
AcDbEllipse
 10
351.858094
 20
294.662952
 30
0.0
 11
0.498371232106311
 21
0.246432887403704
 31
0.0
210
0.0
220
0.0
230
0.9999999999999998
 40
0.9730190000000002
 41
0.4829823073468342
 42
1.403105880516714
  0
ELLIPSE
  5
111
330
1F
100
AcDbEntity
  8
1
100
AcDbEllipse
 10
352.128798
 20
295.026719
 30
0.0
 11
0.089555366082574
 21
0.0442830284423734
 31
0.0
210
0.0
220
0.0
230
0.9999999999999998
 40
0.973019
 41
5.393633686517413
 42
6.766167614526362
  0
ELLIPSE
  5
112
330
1F
100
AcDbEntity
  8
1
100
AcDbEllipse
 10
352.308535
 20
294.947117
 30
0.0
 11
0.089555366082574
 21
0.0442830284423734
 31
0.0
210
0.0
220
0.0
230
0.9999999999999998
 40
0.973019
 41
2.25204103292749
 42
3.100976185338466
  0
ELLIPSE
  5
113
330
1F
100
AcDbEntity
  8
1
100
AcDbEllipse
 10
352.7250009999999
 20
295.132948
 30
0.0
 11
0.4983712321063107
 21
0.2464328874037038
 31
0.0
210
0.0
220
0.0
230
0.9999999999999998
 40
0.9730190000000002
 41
3.100976185338311
 42
4.021099758508138
  0
ELLIPSE
  5
114
330
1F
100
AcDbEntity
  8
1
100
AcDbEllipse
 10
352.615907
 20
294.697607
 30
0.0
 11
0.0895553660825741
 21
0.0442830284423735
 31
0.0
210
0.0
220
0.0
230
1.0
 40
0.973019
 41
4.021099758508193
 42
4.870034910919132
  0
ELLIPSE
  5
115
330
1F
100
AcDbEntity
  8
1
100
AcDbEllipse
 10
352.729134
 20
294.539395
 30
0.0
 11
0.0895553660825742
 21
0.0442830284423735
 31
0.0
210
0.0
220
0.0
230
0.9999999999999998
 40
0.973019
 41
0.35590832932001
 42
1.728442257329071
  0
ELLIPSE
  5
116
330
1F
100
AcDbEntity
  8
1
100
AcDbEllipse
 10
352.414476
 20
294.211308
 30
0.0
 11
0.498371232106311
 21
0.246432887403704
 31
0.0
210
0.0
220
0.0
230
0.9999999999999998
 40
0.9730190000000002
 41
5.718970063329807
 42
6.639093636499636
  0
ELLIPSE
  5
117
330
1F
100
AcDbEntity
  8
1
100
AcDbEllipse
 10
351.943965
 20
293.84915
 30
0.0
 11
2.020644075881331
 21
0.9991611111461667
 31
0.0
210
0.0
220
0.0
230
1.0
 40
0.973019
 41
6.107879362660767
 42
6.283185307179585
  0
ELLIPSE
  5
118
330
1F
100
AcDbEntity
  8
1
100
AcDbEllipse
 10
351.943965
 20
293.84915
 30
0.0
 11
2.020644075881331
 21
0.9991611111461667
 31
0.0
210
0.0
220
0.0
230
1.0
 40
0.973019
 41
0.0
 42
0.1199054075296334
  0
ELLIPSE
  5
119
330
1F
100
AcDbEntity
  8
1
100
AcDbEllipse
 10
351.943965
 20
293.84915
 30
0.0
 11
2.020644075881331
 21
0.9991611111461667
 31
0.0
210
0.0
220
0.0
230
1.0
 40
0.973019
 41
3.059356303996138
 42
3.316868852398747
  0
ELLIPSE
  5
11A
330
1F
100
AcDbEntity
  8
1
100
AcDbEllipse
 10
347.964283
 20
288.861568
 30
0.0
 11
-0.1874639429063121
 21
-8.981744359868356
 31
0.0
210
0.0
220
0.0
230
1.0
 40
0.10067
 41
0.3789100994113241
 42
0.4925684175676002
  0
ELLIPSE
  5
11B
330
1F
100
AcDbEntity
  8
1
100
AcDbEllipse
 10
345.066738
 20
289.509505
 30
0.0
 11
-88.34948083033067
 21
1.905497068973803
 31
0.0
210
0.0
220
0.0
230
1.0
 40
0.094538
 41
1.612336274433208
 42
1.681119675237345
  0
ELLIPSE
  5
11C
330
1F
100
AcDbEntity
  8
1
100
AcDbEllipse
 10
347.909259
 20
281.281827
 30
0.0
 11
-0.1698080546628012
 21
-20.6769644015038
 31
0.0
210
0.0
220
0.0
230
0.9999999999999996
 40
0.072158
 41
3.794945650872243
 42
4.201217566971596
  0
ELLIPSE
  5
11D
330
1F
100
AcDbEntity
  8
1
100
AcDbEllipse
 10
351.848613
 20
294.041984
 30
0.0
 11
2.064445176612951
 21
1.020819728316209
 31
0.0
210
0.0
220
0.0
230
0.9999999999999998
 40
0.973019
 41
0.0
 42
6.283185307179585
  0
ELLIPSE
  5
11E
330
1F
100
AcDbEntity
  8
1
100
AcDbEllipse
 10
351.831444
 20
294.076705
 30
0.0
 11
2.214932914146923
 21
1.095232385568939
 31
0.0
210
0.0
220
0.0
230
0.9999999999999998
 40
0.973019
 41
0.0
 42
6.283185307179585
  0
SPLINE
  5
11F
330
1F
100
AcDbEntity
  8
1
100
AcDbSpline
210
0.0
220
0.0
230
1.0
 70
     8
 71
     3
 72
    16
 73
    12
 74
     0
 42
0.000000001
 43
0.0000000001
 40
0.0
 40
0.0
 40
0.0
 40
0.0
 40
0.2499999999999866
 40
0.2499999999999866
 40
0.4999999999999731
 40
0.4999999999999731
 40
0.6249999999999654
 40
0.6249999999999654
 40
0.7499999999999575
 40
0.7499999999999575
 40
1.0
 40
1.0
 40
1.0
 40
1.0
 10
344.5800419452957
 20
297.7399361390716
 30
0.0
 10
344.5307645835997
 20
297.7073612540031
 30
0.0
 10
344.4797259056161
 20
297.678641128867
 30
0.0
 10
344.3742822693093
 20
297.6285682110079
 30
0.0
 10
344.3198768364646
 20
297.607216456807
 30
0.0
 10
344.2356950716375
 20
297.5808213573868
 30
0.0
 10
344.2071007267451
 20
297.5729442178101
 30
0.0
 10
344.1497069634587
 20
297.5592895125633
 30
0.0
 10
344.1208824400247
 20
297.5534951235663
 30
0.0
 10
344.0340314824511
 20
297.5391660294033
 30
0.0
 10
343.975629697846
 20
297.533668913851
 30
0.0
 10
343.9167169872251
 20
297.5323065568832
 30
0.0
  0
SPLINE
  5
120
330
1F
100
AcDbEntity
  8
1
100
AcDbSpline
210
0.0
220
0.0
230
1.0
 70
     8
 71
     3
 72
    30
 73
    26
 74
     0
 42
0.000000001
 43
0.0000000001
 40
0.0
 40
0.0
 40
0.0
 40
0.0
 40
0.1250000000000072
 40
0.1250000000000072
 40
0.1875000000000108
 40
0.1875000000000108
 40
0.2500000000000144
 40
0.2500000000000144
 40
0.3749999999999957
 40
0.3749999999999957
 40
0.4374999999999976
 40
0.4374999999999976
 40
0.4999999999999994
 40
0.4999999999999994
 40
0.6249999999999821
 40
0.6249999999999821
 40
0.6874999999999822
 40
0.6874999999999822
 40
0.7499999999999819
 40
0.7499999999999819
 40
0.8749999999999891
 40
0.8749999999999891
 40
0.9374999999999948
 40
0.9374999999999948
 40
1.0
 40
1.0
 40
1.0
 40
1.0
 10
354.6149414419982
 20
291.1089153696981
 30
0.0
 10
354.6795186171307
 20
291.1065066751064
 30
0.0
 10
354.7428216474441
 20
291.102449279094
 30
0.0
 10
354.8359439735257
 20
291.0939923535458
 30
0.0
 10
354.8666771985117
 20
291.0907754183101
 30
0.0
 10
354.9275158539414
 20
291.0835292023827
 30
0.0
 10
354.9577454782752
 20
291.0794778307433
 30
0.0
 10
355.0456627999652
 20
291.0663329076167
 30
0.0
 10
355.1010988745715
 20
291.0562137156745
 30
0.0
 10
355.1795610708869
 20
291.0390315052058
 30
0.0
 10
355.2049278727612
 20
291.0329679444368
 30
0.0
 10
355.2540322462397
 20
291.0201451503947
 30
0.0
 10
355.2774100649735
 20
291.0134788219134
 30
0.0
 10
355.3439422825907
 20
290.9927945959975
 30
0.0
 10
355.3836174915253
 20
290.9780741093164
 30
0.0
 10
355.4360271580506
 20
290.9545802146622
 30
0.0
 10
355.45236755502
 20
290.9464711515269
 30
0.0
 10
355.4819932932414
 20
290.9300871147291
 30
0.0
 10
355.4953495025715
 20
290.9217878541866
 30
0.0
 10
355.5311435055642
 20
290.8965753663019
 30
0.0
 10
355.5493467782627
 20
290.87935038524
 30
0.0
 10
355.5678254042546
 20
290.8528631054168
 30
0.0
 10
355.5724202174246
 20
290.8440360530773
 30
0.0
 10
355.578522852195
 20
290.8264847945702
 30
0.0
 10
355.5800419452958
 20
290.8177442543931
 30
0.0
 10
355.5800419452958
 20
290.8090385025787
 30
0.0
  0
SPLINE
  5
123
330
1F
100
AcDbEntity
  8
1
100
AcDbSpline
210
0.0
220
0.0
230
1.0
 70
     8
 71
     3
 72
    38
 73
    34
 74
     0
 42
0.000000001
 43
0.0000000001
 40
0.0
 40
0.0
 40
0.0
 40
0.0
 40
0.0850001462385838
 40
0.0850001462385838
 40
0.1706794679585738
 40
0.1706794679585738
 40
0.3437912571719588
 40
0.3437912571719588
 40
0.3985149397818069
 40
0.3985149397818069
 40
0.4531877399827406
 40
0.4531877399827406
 40
0.5078351439510422
 40
0.5078351439510422
 40
0.5690100894646113
 40
0.5690100894646113
 40
0.6303577583326739
 40
0.6303577583326739
 40
0.7223946797949143
 40
0.7223946797949143
 40
0.7918101315768693
 40
0.7918101315768693
 40
0.8442132610039394
 40
0.8442132610039394
 40
0.8837614712372905
 40
0.8837614712372905
 40
0.9135947444491819
 40
0.9135947444491819
 40
0.9360964727402066
 40
0.9360964727402066
 40
0.9530765311422459
 40
0.9530765311422459
 40
1.0
 40
1.0
 40
1.0
 40
1.0
 10
348.842089381438
 20
278.9474336768442
 30
0.0
 10
349.0484100474559
 20
278.9448956636203
 30
0.0
 10
349.2547286808155
 20
278.9424532269543
 30
0.0
 10
349.6690244597244
 20
278.9377612594397
 30
0.0
 10
349.8770010896513
 20
278.9355131594573
 30
0.0
 10
350.505203499135
 20
278.9290545027263
 30
0.0
 10
350.9254450648007
 20
278.925178749242
 30
0.0
 10
351.4785646149012
 20
278.920672733003
 30
0.0
 10
351.6114206326258
 20
278.9196360133987
 30
0.0
 10
351.8770154423772
 20
278.9176557181284
 30
0.0
 10
352.0097542795835
 20
278.9167120532626
 30
0.0
 10
352.2751775573659
 20
278.9149207040425
 30
0.0
 10
352.4078618650893
 20
278.914072928701
 30
0.0
 10
352.6890903287896
 20
278.9123797419426
 30
0.0
 10
352.8376345019738
 20
278.9115470208676
 30
0.0
 10
353.1351567882199
 20
278.9100064836236
 30
0.0
 10
353.2841342800976
 20
278.9092992819687
 30
0.0
 10
353.6566363550082
 20
278.907695161254
 30
0.0
 10
353.8801693032514
 20
278.9068808738402
 30
0.0
 10
354.2723297735776
 20
278.9057194888205
 30
0.0
 10
354.4409476123899
 20
278.9053064135659
 30
0.0
 10
354.7368803741922
 20
278.9047382684704
 30
0.0
 10
354.8641896222555
 20
278.9045444683375
 30
0.0
 10
355.0875928817268
 20
278.904298074688
 30
0.0
 10
355.1836826745607
 20
278.9042226456654
 30
0.0
 10
355.3522695519673
 20
278.9041478866078
 30
0.0
 10
355.4247634604612
 20
278.9041345173367
 30
0.0
 10
355.5519444486952
 20
278.9041487531694
 30
0.0
 10
355.6066293650479
 20
278.904166972063
 30
0.0
 10
355.7025873546124
 20
278.9042252485234
 30
0.0
 10
355.7438590026258
 20
278.904258179969
 30
0.0
 10
355.8991953185022
 20
278.9044265610797
 30
0.0
 10
356.0132566089043
 20
278.9045502009809
 30
0.0
 10
356.1273178993067
 20
278.9046738408823
 30
0.0
  0
SPLINE
  5
124
330
1F
100
AcDbEntity
  8
1
100
AcDbSpline
210
0.0
220
0.0
230
1.0
 70
    24
 71
     3
 72
     8
 73
     4
 74
     0
 42
0.000000001
 43
0.0000000001
 40
0.0
 40
0.0
 40
0.0
 40
0.0
 40
1.0
 40
1.0
 40
1.0
 40
1.0
 10
347.1390326769824
 20
279.3961574251406
 30
0.0
 10
347.139513441437
 20
279.375882904551
 30
0.0
 10
347.1399942058918
 20
279.3556083839615
 30
0.0
 10
347.1404749703465
 20
279.3353338633719
 30
0.0
  0
SPLINE
  5
125
330
1F
100
AcDbEntity
  8
1
100
AcDbSpline
210
0.0
220
0.0
230
1.0
 70
     8
 71
     3
 72
    14
 73
    10
 74
     0
 42
0.000000001
 43
0.0000000001
 40
0.0
 40
0.0
 40
0.0
 40
0.0
 40
0.0231512718750561
 40
0.0231512718750561
 40
0.2775430275799263
 40
0.2775430275799263
 40
0.4695099206558215
 40
0.4695099206558215
 40
1.0
 40
1.0
 40
1.0
 40
1.0
 10
347.1240814812173
 20
280.031784588982
 30
0.0
 10
347.1241941067897
 20
280.0268774139886
 30
0.0
 10
347.1243068113496
 20
280.0219702812125
 30
0.0
 10
347.1256588934452
 20
279.9631429052056
 30
0.0
 10
347.1269075739527
 20
279.9092280952889
 30
0.0
 10
347.1291178891103
 20
279.8146422328531
 30
0.0
 10
347.1300737406173
 20
279.7739685091316
 30
0.0
 10
347.1337029383779
 20
279.6209200797109
 30
0.0
 10
347.1363678076802
 20
279.5085387524257
 30
0.0
 10
347.1390326769824
 20
279.3961574251406
 30
0.0
  0
SPLINE
  5
126
330
1F
100
AcDbEntity
  8
1
100
AcDbSpline
210
0.0
220
0.0
230
1.0
 70
    24
 71
     1
 72
     4
 73
     2
 74
     0
 42
0.000000001
 43
0.0000000001
 40
0.0
 40
0.0
 40
1.0
 40
1.0
 10
348.8420893814382
 20
278.9474336768444
 30
0.0
 10
348.8209517349823
 20
279.2175342517641
 30
0.0
  0
SPLINE
  5
127
330
1F
100
AcDbEntity
  8
1
100
AcDbSpline
210
0.0
220
0.0
230
1.0
 70
    24
 71
     1
 72
     4
 73
     2
 74
     0
 42
0.000000001
 43
0.0000000001
 40
0.0
 40
0.0
 40
1.0
 40
1.0
 10
347.5431021828473
 20
278.951389925045
 30
0.0
 10
347.6227620585566
 20
278.9511473096903
 30
0.0
  0
SPLINE
  5
128
330
1F
100
AcDbEntity
  8
1
100
AcDbSpline
210
0.0
220
0.0
230
1.0
 70
    24
 71
     1
 72
     4
 73
     2
 74
     0
 42
0.000000001
 43
0.0000000001
 40
0.0
 40
0.0
 40
1.0
 40
1.0
 10
347.6227620585566
 20
278.9511473096903
 30
0.0
 10
348.8420893814382
 20
278.9474336768444
 30
0.0
  0
SPLINE
  5
129
330
1F
100
AcDbEntity
  8
1
100
AcDbSpline
210
0.0
220
0.0
230
1.0
 70
    24
 71
     1
 72
     4
 73
     2
 74
     0
 42
0.000000001
 43
0.0000000001
 40
0.0
 40
0.0
 40
1.0
 40
1.0
 10
347.1404749703465
 20
279.3353338633719
 30
0.0
 10
347.2326439363483
 20
279.637720862081
 30
0.0
  0
SPLINE
  5
12A
330
1F
100
AcDbEntity
  8
1
100
AcDbSpline
210
0.0
220
0.0
230
1.0
 70
    12
 71
     4
 72
    14
 73
     9
 74
     0
 42
0.000000001
 43
0.0000000001
 40
0.0
 40
0.0
 40
0.0
 40
0.0
 40
0.0
 40
0.5
 40
0.5
 40
0.5
 40
0.5
 40
1.0
 40
1.0
 40
1.0
 40
1.0
 40
1.0
 10
347.1405868962613
 20
279.3353193694944
 30
0.0
 41
0.2699606567766349
 10
347.1426343783893
 20
279.2558983842477
 30
0.0
 41
0.2496167667754463
 10
347.1656042863709
 20
279.1852118736926
 30
0.0
 41
0.2438574253738599
 10
347.2033831570497
 20
279.1206141265985
 30
0.0
 41
0.2496167667754464
 10
347.2621846292548
 20
279.0645277683684
 30
0.0
 41
0.2699606567766349
 10
347.3209861014598
 20
279.0084414101386
 30
0.0
 41
0.2496167667754461
 10
347.3881606209421
 20
278.9729319113206
 30
0.0
 41
0.2438574253738603
 10
347.4613291643184
 20
278.9519190915643
 30
0.0
 41
0.2496167667754461
 10
347.5431021828473
 20
278.951389925045
 30
0.0
 41
0.2699606567766349
  0
SPLINE
  5
12B
330
1F
100
AcDbEntity
  8
1
100
AcDbSpline
210
0.0
220
0.0
230
1.0
 70
    24
 71
     1
 72
     4
 73
     2
 74
     0
 42
0.000000001
 43
0.0000000001
 40
0.0
 40
0.0
 40
1.0
 40
1.0
 10
347.6256059880366
 20
279.2429855963113
 30
0.0
 10
347.5431021828473
 20
278.951389925045
 30
0.0
  0
SPLINE
  5
12C
330
1F
100
AcDbEntity
  8
1
100
AcDbSpline
210
0.0
220
0.0
230
1.0
 70
     8
 71
     3
 72
    29
 73
    25
 74
     0
 42
0.000000001
 43
0.0000000001
 40
0.0
 40
0.0
 40
0.0
 40
0.0
 40
0.0625
 40
0.125
 40
0.1875
 40
0.2187499999999999
 40
0.25
 40
0.3124999999999999
 40
0.34375
 40
0.375
 40
0.4375
 40
0.5
 40
0.5625
 40
0.59375
 40
0.625
 40
0.65625
 40
0.6875
 40
0.71875
 40
0.75
 40
0.8124999999999998
 40
0.8437499999999998
 40
0.875
 40
0.9375
 40
1.0
 40
1.0
 40
1.0
 40
1.0
 10
356.4611963338823
 20
287.7436543292947
 30
0.0
 10
356.4611952782705
 20
287.7559757474877
 30
0.0
 10
356.4599835188253
 20
287.7808845134773
 30
0.0
 10
356.4544269877491
 20
287.8185104176591
 30
0.0
 10
356.4465891792257
 20
287.8496384391304
 30
0.0
 10
356.4384499364073
 20
287.8741227845956
 30
0.0
 10
356.429083170781
 20
287.898234438085
 30
0.0
 10
356.4179028327312
 20
287.921646087359
 30
0.0
 10
356.4050933156539
 20
287.9440954326192
 30
0.0
 10
356.3912591436905
 20
287.9658158086042
 30
0.0
 10
356.3721604466973
 20
287.9914355238204
 30
0.0
 10
356.346514330723
 20
288.0197203136546
 30
0.0
 10
356.3230044108251
 20
288.0412338641608
 30
0.0
 10
356.3029167474293
 20
288.0571307784883
 30
0.0
 10
356.2872119277622
 20
288.0683765858291
 30
0.0
 10
356.2708688275933
 20
288.0789255993992
 30
0.0
 10
356.2539531410428
 20
288.0887310972232
 30
0.0
 10
356.2365305622306
 20
288.0977463573257
 30
0.0
 10
356.2127121929587
 20
288.1086507578666
 30
0.0
 10
356.1881428156436
 20
288.1177877950636
 30
0.0
 10
356.1631079546331
 20
288.125096914992
 30
0.0
 10
356.1378579459419
 20
288.1311672387667
 30
0.0
 10
356.1060704858936
 20
288.1363945544937
 30
0.0
 10
356.0807648988095
 20
288.1381227927256
 30
0.0
 10
356.0682342821938
 20
288.1383895950643
 30
0.0
  0
SPLINE
  5
12D
330
1F
100
AcDbEntity
  8
1
100
AcDbSpline
210
0.0
220
0.0
230
1.0
 70
    24
 71
     1
 72
     4
 73
     2
 74
     0
 42
0.000000001
 43
0.0000000001
 40
0.0
 40
0.0
 40
1.0
 40
1.0
 10
355.5800450574289
 20
287.8115915205607
 30
0.0
 10
356.0682342821939
 20
288.1383895950643
 30
0.0
  0
SPLINE
  5
12E
330
1F
100
AcDbEntity
  8
1
100
AcDbSpline
210
0.0
220
0.0
230
1.0
 70
    24
 71
     1
 72
     4
 73
     2
 74
     0
 42
0.000000001
 43
0.0000000001
 40
0.0
 40
0.0
 40
1.0
 40
1.0
 10
355.5800289337951
 20
288.1487844808651
 30
0.0
 10
356.0682342821939
 20
288.1383895950643
 30
0.0
  0
SPLINE
  5
12F
330
1F
100
AcDbEntity
  8
1
100
AcDbSpline
210
0.0
220
0.0
230
1.0
 70
     8
 71
     3
 72
    29
 73
    25
 74
     0
 42
0.000000001
 43
0.0000000001
 40
0.0
 40
0.0
 40
0.0
 40
0.0
 40
0.0625
 40
0.125
 40
0.1875
 40
0.2187499999999999
 40
0.25
 40
0.3124999999999999
 40
0.34375
 40
0.375
 40
0.4375
 40
0.5
 40
0.5625
 40
0.59375
 40
0.625
 40
0.65625
 40
0.6875
 40
0.71875
 40
0.75
 40
0.8124999999999998
 40
0.8437499999999998
 40
0.875
 40
0.9375
 40
1.0
 40
1.0
 40
1.0
 40
1.0
 10
356.0690117793718
 20
279.0632082971519
 30
0.0
 10
356.0815423959875
 20
279.0629414948132
 30
0.0
 10
356.1068477792672
 20
279.0635921224476
 30
0.0
 10
356.1449917956732
 20
279.0682405538655
 30
0.0
 10
356.1764780033682
 20
279.0752744825443
 30
0.0
 10
356.201201170924
 20
279.082749371652
 30
0.0
 10
356.2255186344085
 20
279.091439959758
 30
0.0
 10
356.2490847842789
 20
279.1019298986948
 30
0.0
 10
356.271636875119
 20
279.1140434899922
 30
0.0
 10
356.2934253448001
 20
279.12718095004
 30
0.0
 10
356.3190649263433
 20
279.1454127174627
 30
0.0
 10
356.3472725096302
 20
279.1700276923245
 30
0.0
 10
356.3686403121719
 20
279.1926883381495
 30
0.0
 10
356.3843704987794
 20
279.212104371465
 30
0.0
 10
356.3954658746952
 20
279.2273098089272
 30
0.0
 10
356.4058387502445
 20
279.243158313013
 30
0.0
 10
356.415443038146
 20
279.2595862715924
 30
0.0
 10
356.4242326511183
 20
279.2765300725357
 30
0.0
 10
356.4348044521343
 20
279.2997247807721
 30
0.0
 10
356.4435625541672
 20
279.323696725217
 30
0.0
 10
356.4504515817466
 20
279.348166332504
 30
0.0
 10
356.4560761012003
 20
279.3728745238969
 30
0.0
 10
356.460701188113
 20
279.4040323749826
 30
0.0
 10
356.4619086839584
 20
279.4288896301018
 30
0.0
 10
356.4619076283467
 20
279.4412110482947
 30
0.0
  0
SPLINE
  5
130
330
1F
100
AcDbEntity
  8
1
100
AcDbSpline
210
0.0
220
0.0
230
1.0
 70
    24
 71
     1
 72
     4
 73
     2
 74
     0
 42
0.000000001
 43
0.0000000001
 40
0.0
 40
0.0
 40
1.0
 40
1.0
 10
355.6792552478724
 20
287.544946740427
 30
0.0
 10
356.4611963338823
 20
287.7436543292947
 30
0.0
  0
SPLINE
  5
131
330
1F
100
AcDbEntity
  8
1
100
AcDbSpline
210
0.0
220
0.0
230
1.0
 70
    24
 71
     1
 72
     4
 73
     2
 74
     0
 42
0.000000001
 43
0.0000000001
 40
0.0
 40
0.0
 40
1.0
 40
1.0
 10
355.6798098068528
 20
281.0719673313917
 30
0.0
 10
356.4619076283471
 20
279.4412110482947
 30
0.0
  0
SPLINE
  5
132
330
1F
100
AcDbEntity
  8
1
100
AcDbSpline
210
0.0
220
0.0
230
1.0
 70
    24
 71
     1
 72
     4
 73
     2
 74
     0
 42
0.000000001
 43
0.0000000001
 40
0.0
 40
0.0
 40
1.0
 40
1.0
 10
356.461806929312
 20
280.6166005191389
 30
0.0
 10
356.4619076283467
 20
279.4412110482947
 30
0.0
  0
SPLINE
  5
133
330
1F
100
AcDbEntity
  8
1
100
AcDbSpline
210
0.0
220
0.0
230
1.0
 70
    24
 71
     3
 72
    38
 73
    34
 74
     0
 42
0.000000001
 43
0.0000000001
 40
0.0
 40
0.0
 40
0.0
 40
0.0
 40
0.0549238988239845
 40
0.0549238988239845
 40
0.0717614211718569
 40
0.0717614211718569
 40
0.0940742627413759
 40
0.0940742627413759
 40
0.1236571058931449
 40
0.1236571058931449
 40
0.1628733357703305
 40
0.1628733357703305
 40
0.214836576528135
 40
0.214836576528135
 40
0.283669332752693
 40
0.283669332752693
 40
0.3749336667884194
 40
0.3749336667884194
 40
0.435766363655459
 40
0.435766363655459
 40
0.4964277870632193
 40
0.4964277870632193
 40
0.5506164632022238
 40
0.5506164632022238
 40
0.6048303223897417
 40
0.6048303223897417
 40
0.6590946368629202
 40
0.6590946368629202
 40
0.8307532702166485
 40
0.8307532702166485
 40
0.9157133722406577
 40
0.9157133722406577
 40
1.0
 40
1.0
 40
1.0
 40
1.0
 10
356.4611963338823
 20
287.7436543292947
 30
0.0
 10
356.4612075126428
 20
287.6131724685006
 30
0.0
 10
356.4612186914033
 20
287.4826906077066
 30
0.0
 10
356.4612332971353
 20
287.3122081043117
 30
0.0
 10
356.4612367241066
 20
287.2722074617107
 30
0.0
 10
356.4612446924511
 20
287.1791985449352
 30
0.0
 10
356.4612492338242
 20
287.1261902707607
 30
0.0
 10
356.4612597962467
 20
287.0029024915862
 30
0.0
 10
356.4612658172964
 20
286.9326229865862
 30
0.0
 10
356.4612798200962
 20
286.7691780880641
 30
0.0
 10
356.4612878018464
 20
286.676012694542
 30
0.0
 10
356.4613063597692
 20
286.4593990300096
 30
0.0
 10
356.4613169359416
 20
286.3359507589994
 30
0.0
 10
356.4613415217695
 20
286.0489775688177
 30
0.0
 10
356.4613555314249
 20
285.8854526496465
 30
0.0
 10
356.4613881162755
 20
285.5051124572684
 30
0.0
 10
356.4614066914705
 20
285.2882971840615
 30
0.0
 10
356.4614376480545
 20
284.9269626095252
 30
0.0
 10
356.4614500294434
 20
284.7824433081958
 30
0.0
 10
356.4614747573616
 20
284.4938115972571
 30
0.0
 10
356.4614871038908
 20
284.3496991876478
 30
0.0
 10
356.4615104795397
 20
284.0768515744573
 30
0.0
 10
356.4615215086588
 20
283.9481163708761
 30
0.0
 10
356.4615435720232
 20
283.6905861367329
 30
0.0
 10
356.461554606268
 20
283.561791106171
 30
0.0
 10
356.461576685027
 20
283.3040811792019
 30
0.0
 10
356.4615877295411
 20
283.1751662827947
 30
0.0
 10
356.4616337120477
 20
282.6384446140909
 30
0.0
 10
356.4616686500399
 20
282.2306378417944
 30
0.0
 10
356.4617208801156
 20
281.6209926632172
 30
0.0
 10
356.4617381721989
 20
281.4191542569368
 30
0.0
 10
356.4617726192922
 20
281.0170774068172
 30
0.0
 10
356.4617897743021
 20
280.816838962978
 30
0.0
 10
356.4618069293119
 20
280.6166005191389
 30
0.0
  0
SPLINE
  5
134
330
1F
100
AcDbEntity
  8
1
100
AcDbSpline
210
0.0
220
0.0
230
1.0
 70
     8
 71
     2
 72
    11
 73
     8
 74
     0
 42
0.000000001
 43
0.0000000001
 40
0.0
 40
0.0
 40
0.0
 40
0.25
 40
0.25
 40
0.5
 40
0.75
 40
0.75
 40
1.0
 40
1.0
 40
1.0
 10
355.4808751997725
 20
280.8805735333581
 30
0.0
 10
355.5197814663333
 20
280.8814703559759
 30
0.0
 10
355.5532770528371
 20
280.8947672520441
 30
0.0
 10
355.5914740669049
 20
280.9099304953004
 30
0.0
 10
355.6486037421901
 20
280.9654043382851
 30
0.0
 10
355.6638134147253
 20
281.0011136260366
 30
0.0
 10
355.6781001933822
 20
281.0346561424136
 30
0.0
 10
355.6798098068482
 20
281.0719673314056
 30
0.0
  0
SPLINE
  5
135
330
1F
100
AcDbEntity
  8
1
100
AcDbSpline
210
0.0
220
0.0
230
1.0
 70
     8
 71
     2
 72
     9
 73
     6
 74
     0
 42
0.000000001
 43
0.0000000001
 40
0.0
 40
0.0
 40
0.0
 40
0.3872583859778525
 40
0.3872583859778525
 40
0.774516771955705
 40
1.0
 40
1.0
 40
1.0
 10
355.6792552478718
 20
287.5449467404255
 30
0.0
 10
355.6774974593766
 20
287.5832409700005
 30
0.0
 10
355.6632466568806
 20
287.6164818970437
 30
0.0
 10
355.6469956172593
 20
287.6543885077471
 30
0.0
 10
355.6016526058164
 20
287.6995353385047
 30
0.0
 10
355.5820584646425
 20
287.7120104603644
 30
0.0
  0
SPLINE
  5
136
330
1F
100
AcDbEntity
  8
1
100
AcDbSpline
210
0.0
220
0.0
230
1.0
 70
    24
 71
     1
 72
     4
 73
     2
 74
     0
 42
0.000000001
 43
0.0000000001
 40
0.0
 40
0.0
 40
1.0
 40
1.0
 10
348.8209517349823
 20
279.2175342517641
 30
0.0
 10
347.6256059880366
 20
279.2429855963113
 30
0.0
  0
SPLINE
  5
137
330
1F
100
AcDbEntity
  8
1
100
AcDbSpline
210
0.0
220
0.0
230
1.0
 70
    24
 71
     3
 72
    38
 73
    34
 74
     0
 42
0.000000001
 43
0.0000000001
 40
0.0
 40
0.0
 40
0.0
 40
0.0
 40
0.0549238988239845
 40
0.0549238988239845
 40
0.0717614211718569
 40
0.0717614211718569
 40
0.0940742627413759
 40
0.0940742627413759
 40
0.1236571058931449
 40
0.1236571058931449
 40
0.1628733357703305
 40
0.1628733357703305
 40
0.214836576528135
 40
0.214836576528135
 40
0.283669332752693
 40
0.283669332752693
 40
0.3749336667884194
 40
0.3749336667884194
 40
0.435766363655459
 40
0.435766363655459
 40
0.4964277870632193
 40
0.4964277870632193
 40
0.5506164632022238
 40
0.5506164632022238
 40
0.6048303223897417
 40
0.6048303223897417
 40
0.6590946368629202
 40
0.6590946368629202
 40
0.8307532702166485
 40
0.8307532702166485
 40
0.9157133722406577
 40
0.9157133722406577
 40
1.0
 40
1.0
 40
1.0
 40
1.0
 10
356.0690117793717
 20
279.0632082971519
 30
0.0
 10
355.9363145405223
 20
279.0660336915243
 30
0.0
 10
355.8036173016729
 20
279.0688590858966
 30
0.0
 10
355.6302402718315
 20
279.0725506358389
 30
0.0
 10
355.5895604808394
 20
279.0734167914087
 30
0.0
 10
355.4949724180285
 20
279.075430763837
 30
0.0
 10
355.4410641462096
 20
279.0765785806955
 30
0.0
 10
355.3156831332414
 20
279.0792481977238
 30
0.0
 10
355.244210392092
 20
279.0807699978936
 30
0.0
 10
355.0779904546547
 20
279.0843091587675
 30
0.0
 10
354.9832432583665
 20
279.0863265194715
 30
0.0
 10
354.7629518323738
 20
279.0910169724204
 30
0.0
 10
354.6374076026693
 20
279.0936900646653
 30
0.0
 10
354.3455620562526
 20
279.0999040505146
 30
0.0
 10
354.1792607395404
 20
279.1034449441188
 30
0.0
 10
353.792462965161
 20
279.1116806562139
 30
0.0
 10
353.5719665074936
 20
279.1163754747046
 30
0.0
 10
353.2044970366413
 20
279.1241996478672
 30
0.0
 10
353.0575240234567
 20
279.1273290025391
 30
0.0
 10
352.7639917971925
 20
279.1335789012361
 30
0.0
 10
352.6174325841133
 20
279.1366994452613
 30
0.0
 10
352.339952444907
 20
279.1426075623446
 30
0.0
 10
352.2090315187798
 20
279.1453951354027
 30
0.0
 10
351.9471288237763
 20
279.1509715769849
 30
0.0
 10
351.8161470548998
 20
279.153760445509
 30
0.0
 10
351.554061616167
 20
279.1593407780773
 30
0.0
 10
351.4229579463107
 20
279.1621322421214
 30
0.0
 10
350.877123582559
 20
279.1737541669855
 30
0.0
 10
350.4623928886638
 20
279.1825846278054
 30
0.0
 10
349.8423968878193
 20
279.1957856049082
 30
0.0
 10
349.6371315808702
 20
279.2001561211911
 30
0.0
 10
349.2282280942748
 20
279.2088625089041
 30
0.0
 10
349.0245899146286
 20
279.213198380334
 30
0.0
 10
348.8209517349823
 20
279.2175342517641
 30
0.0
  0
SPLINE
  5
138
330
1F
100
AcDbEntity
  8
1
100
AcDbSpline
210
0.0
220
0.0
230
1.0
 70
    24
 71
     1
 72
     4
 73
     2
 74
     0
 42
0.000000001
 43
0.0000000001
 40
0.0
 40
0.0
 40
1.0
 40
1.0
 10
355.4808751997725
 20
280.8805735333581
 30
0.0
 10
356.0690117793718
 20
279.0632082971519
 30
0.0
  0
SPLINE
  5
139
330
1F
100
AcDbEntity
  8
1
100
AcDbSpline
210
0.0
220
0.0
230
1.0
 70
     8
 71
     3
 72
    29
 73
    25
 74
     0
 42
0.000000001
 43
0.0000000001
 40
0.0
 40
0.0
 40
0.0
 40
0.0
 40
0.0625
 40
0.125
 40
0.1875
 40
0.2187499999999999
 40
0.25
 40
0.3124999999999999
 40
0.34375
 40
0.375
 40
0.4375
 40
0.5
 40
0.5625
 40
0.59375
 40
0.625
 40
0.65625
 40
0.6875
 40
0.71875
 40
0.75
 40
0.8124999999999998
 40
0.8437499999999998
 40
0.875
 40
0.9375
 40
1.0
 40
1.0
 40
1.0
 40
1.0
 10
347.2326439363483
 20
279.6377208620809
 30
0.0
 10
347.2326449919602
 20
279.625399443888
 30
0.0
 10
347.2338567514053
 20
279.6004906778983
 30
0.0
 10
347.2394132824816
 20
279.5628647737165
 30
0.0
 10
347.2472510910048
 20
279.5317367522453
 30
0.0
 10
347.2553903338232
 20
279.5072524067801
 30
0.0
 10
347.2647570994495
 20
279.4831407532906
 30
0.0
 10
347.2759374374994
 20
279.4597291040167
 30
0.0
 10
347.2887469545767
 20
279.4372797587564
 30
0.0
 10
347.3025811265401
 20
279.4155593827715
 30
0.0
 10
347.3216798235331
 20
279.3899396675553
 30
0.0
 10
347.3473259395075
 20
279.3616548777211
 30
0.0
 10
347.3708358594056
 20
279.3401413272149
 30
0.0
 10
347.3909235228013
 20
279.3242444128874
 30
0.0
 10
347.4066283424684
 20
279.3129986055465
 30
0.0
 10
347.4229714426372
 20
279.3024495919764
 30
0.0
 10
347.4398871291878
 20
279.2926440941525
 30
0.0
 10
347.457309708
 20
279.28362883405
 30
0.0
 10
347.4811280772718
 20
279.272724433509
 30
0.0
 10
347.505697454587
 20
279.2635873963121
 30
0.0
 10
347.5307323155974
 20
279.2562782763837
 30
0.0
 10
347.5559823242888
 20
279.2502079526091
 30
0.0
 10
347.587769784337
 20
279.244980636882
 30
0.0
 10
347.613075371421
 20
279.2432523986501
 30
0.0
 10
347.6256059880366
 20
279.2429855963113
 30
0.0
  0
SPLINE
  5
13A
330
1F
100
AcDbEntity
  8
1
100
AcDbSpline
210
0.0
220
0.0
230
1.0
 70
    24
 71
     1
 72
     4
 73
     2
 74
     0
 42
0.000000001
 43
0.0000000001
 40
0.0
 40
0.0
 40
1.0
 40
1.0
 10
348.8979947175408
 20
281.0207364608554
 30
0.0
 10
347.6256059880366
 20
279.2429855963113
 30
0.0
  0
SPLINE
  5
13B
330
1F
100
AcDbEntity
  8
1
100
AcDbSpline
210
0.0
220
0.0
230
1.0
 70
     8
 71
     2
 72
     8
 73
     5
 74
     0
 42
0.000000001
 43
0.0000000001
 40
0.0
 40
0.0
 40
0.0
 40
0.4934796995101213
 40
0.4934796995101213
 40
1.0
 40
1.0
 40
1.0
 10
348.7609876180127
 20
281.0816015122336
 30
0.0
 10
348.7898873761839
 20
281.0533472232273
 30
0.0
 10
348.825590168295
 20
281.0380134026587
 30
0.0
 10
348.8600128101162
 20
281.0232293876848
 30
0.0
 10
348.8979947175427
 20
281.0207364608576
 30
0.0
  0
SPLINE
  5
13C
330
1F
100
AcDbEntity
  8
1
100
AcDbSpline
210
0.0
220
0.0
230
1.0
 70
    24
 71
     3
 72
    10
 73
     6
 74
     0
 42
0.000000001
 43
0.0000000001
 40
0.0
 40
0.0
 40
0.0
 40
0.0
 40
0.9688887388305921
 40
0.9688887388305921
 40
1.0
 40
1.0
 40
1.0
 40
1.0
 10
347.2326439363483
 20
279.637720862081
 30
0.0
 10
347.2326327575878
 20
279.768202722875
 30
0.0
 10
347.2326215788273
 20
279.898684583669
 30
0.0
 10
347.2326100411139
 20
280.0333562498415
 30
0.0
 10
347.2326096821611
 20
280.0375460552199
 30
0.0
 10
347.2326093232082
 20
280.0417358605983
 30
0.0
  0
SPLINE
  5
13D
330
1F
100
AcDbEntity
  8
1
100
AcDbSpline
210
0.0
220
0.0
230
1.0
 70
    24
 71
     1
 72
     4
 73
     2
 74
     0
 42
0.000000001
 43
0.0000000001
 40
0.0
 40
0.0
 40
1.0
 40
1.0
 10
348.5732841112213
 20
281.0848701452324
 30
0.0
 10
348.1542652050496
 20
280.6325616727142
 30
0.0
  0
SPLINE
  5
13E
330
1F
100
AcDbEntity
  8
1
100
AcDbSpline
210
0.0
220
0.0
230
1.0
 70
    24
 71
     1
 72
     4
 73
     2
 74
     0
 42
0.000000001
 43
0.0000000001
 40
0.0
 40
0.0
 40
1.0
 40
1.0
 10
347.8544589109922
 20
280.3089368316411
 30
0.0
 10
347.2326439363483
 20
279.6377208620809
 30
0.0
  0
SPLINE
  5
13F
330
1F
100
AcDbEntity
  8
1
100
AcDbSpline
210
0.0
220
0.0
230
1.0
 70
    24
 71
     1
 72
     4
 73
     2
 74
     0
 42
0.000000001
 43
0.0000000001
 40
0.0
 40
0.0
 40
1.0
 40
1.0
 10
356.3738099333779
 20
289.7416512504307
 30
0.0
 10
356.4062305654484
 20
289.794210549089
 30
0.0
  0
SPLINE
  5
140
330
1F
100
AcDbEntity
  8
1
100
AcDbSpline
210
0.0
220
0.0
230
1.0
 70
     8
 71
     3
 72
    34
 73
    30
 74
     0
 42
0.000000001
 43
0.0000000001
 40
0.0
 40
0.0
 40
0.0
 40
0.0
 40
0.1249999999999208
 40
0.1249999999999208
 40
0.1874999999998815
 40
0.1874999999998815
 40
0.2187499999998623
 40
0.2187499999998623
 40
0.2499999999998426
 40
0.2499999999998426
 40
0.3749999999998108
 40
0.3749999999998108
 40
0.4062499999998141
 40
0.4062499999998141
 40
0.4374999999998174
 40
0.4374999999998174
 40
0.4999999999998452
 40
0.4999999999998452
 40
0.624999999999902
 40
0.624999999999902
 40
0.6562499999999091
 40
0.6562499999999091
 40
0.6874999999999161
 40
0.7499999999999316
 40
0.8124999999999468
 40
0.8124999999999468
 40
0.8749999999999625
 40
0.8749999999999625
 40
1.0
 40
1.0
 40
1.0
 40
1.0
 10
354.6149414419982
 20
280.9980742790045
 30
0.0
 10
354.6798935851702
 20
280.9973537708408
 30
0.0
 10
354.7436868600868
 20
281.0029806812991
 30
0.0
 10
354.8376923426983
 20
281.0206471007648
 30
0.0
 10
354.868744761473
 20
281.0280845582215
 30
0.0
 10
354.9148876997721
 20
281.0416271295149
 30
0.0
 10
354.9302376949142
 20
281.046554867841
 30
0.0
 10
354.9605664752464
 20
281.0571473619669
 30
0.0
 10
354.9755262186558
 20
281.0628025737795
 30
0.0
 10
355.0493217369121
 20
281.092838313814
 30
0.0
 10
355.105175946569
 20
281.1224487162867
 30
0.0
 10
355.1710452310932
 20
281.1663876256509
 30
0.0
 10
355.1840199216333
 20
281.1755247592821
 30
0.0
 10
355.2095645863608
 20
281.1945089273847
 30
0.0
 10
355.2221569959524
 20
281.20437692914
 30
0.0
 10
355.2589206561347
 20
281.2347321283085
 30
0.0
 10
355.2822031867111
 20
281.2560518353466
 30
0.0
 10
355.348492285299
 20
281.3231526440329
 30
0.0
 10
355.3879721902093
 20
281.3720473314588
 30
0.0
 10
355.4313327840942
 20
281.4384534540108
 30
0.0
 10
355.4396794199387
 20
281.4519692932525
 30
0.0
 10
355.455602116066
 20
281.4792506881565
 30
0.0
 10
355.4783899950249
 20
281.5206397148646
 30
0.0
 10
355.5110110207041
 20
281.5919041065492
 30
0.0
 10
355.531502216761
 20
281.6513034520966
 30
0.0
 10
355.5491702565384
 20
281.7119053797086
 30
0.0
 10
355.556607176122
 20
281.7429407863853
 30
0.0
 10
355.5742633769532
 20
281.8361190622777
 30
0.0
 10
355.5800419452958
 20
281.8987511384955
 30
0.0
 10
355.5800419452958
 20
281.9618781403491
 30
0.0
  0
SPLINE
  5
141
330
1F
100
AcDbEntity
  8
1
100
AcDbSpline
210
0.0
220
0.0
230
1.0
 70
     9
 71
     3
 72
   146
 73
   142
 74
     0
 42
0.000000001
 43
0.0000000001
 40
0.0
 40
0.0
 40
0.0
 40
0.0
 40
0.0156249999999858
 40
0.0156249999999858
 40
0.0312499999999716
 40
0.0312499999999716
 40
0.035156249999968
 40
0.035156249999968
 40
0.0390624999999644
 40
0.0390624999999644
 40
0.0468749999999573
 40
0.0468749999999573
 40
0.0624999999999479
 40
0.0624999999999479
 40
0.0703124999999456
 40
0.0703124999999456
 40
0.0781249999999433
 40
0.0781249999999433
 40
0.0937499999999433
 40
0.0937499999999433
 40
0.1093749999999432
 40
0.1093749999999432
 40
0.1249999999999432
 40
0.1249999999999432
 40
0.1406249999999432
 40
0.1406249999999432
 40
0.1484374999999432
 40
0.1484374999999432
 40
0.1562499999999432
 40
0.1562499999999432
 40
0.1874999999999428
 40
0.1874999999999428
 40
0.1953124999999439
 40
0.1953124999999439
 40
0.203124999999945
 40
0.203124999999945
 40
0.2187499999999449
 40
0.2187499999999449
 40
0.2499999999999449
 40
0.2499999999999449
 40
0.265624999999945
 40
0.265624999999945
 40
0.281249999999945
 40
0.281249999999945
 40
0.3124999999999455
 40
0.3124999999999455
 40
0.3281249999999458
 40
0.3281249999999458
 40
0.3437499999999459
 40
0.3437499999999459
 40
0.3749999999999473
 40
0.3749999999999473
 40
0.3906249999999472
 40
0.3906249999999472
 40
0.3984374999999482
 40
0.3984374999999482
 40
0.4062499999999491
 40
0.4062499999999491
 40
0.4374999999999526
 40
0.4374999999999526
 40
0.4531249999999546
 40
0.4531249999999546
 40
0.4609374999999555
 40
0.4609374999999555
 40
0.4687499999999563
 40
0.4687499999999563
 40
0.4999999999999563
 40
0.4999999999999563
 40
0.5156249999999584
 40
0.5156249999999584
 40
0.5234374999999573
 40
0.5234374999999573
 40
0.5312499999999562
 40
0.5312499999999562
 40
0.5468749999999585
 40
0.5468749999999585
 40
0.5624999999999608
 40
0.5624999999999608
 40
0.5703124999999596
 40
0.5703124999999596
 40
0.5781249999999585
 40
0.5781249999999585
 40
0.5937499999999609
 40
0.6093749999999632
 40
0.6093749999999632
 40
0.6171874999999643
 40
0.6171874999999643
 40
0.6249999999999654
 40
0.6249999999999654
 40
0.6406249999999637
 40
0.6406249999999637
 40
0.6484374999999628
 40
0.6484374999999628
 40
0.6562499999999619
 40
0.6562499999999619
 40
0.6874999999999581
 40
0.6874999999999581
 40
0.6953124999999585
 40
0.6953124999999585
 40
0.703124999999959
 40
0.703124999999959
 40
0.7187499999999599
 40
0.7187499999999599
 40
0.7343749999999608
 40
0.7343749999999608
 40
0.7421874999999611
 40
0.7421874999999611
 40
0.7499999999999617
 40
0.7499999999999617
 40
0.7812499999999606
 40
0.7812499999999606
 40
0.7968749999999602
 40
0.7968749999999602
 40
0.8046874999999602
 40
0.8046874999999602
 40
0.8124999999999602
 40
0.8124999999999602
 40
0.8437499999999616
 40
0.8437499999999616
 40
0.8593749999999625
 40
0.8593749999999625
 40
0.8671874999999637
 40
0.8671874999999637
 40
0.8749999999999648
 40
0.8749999999999648
 40
0.9062499999999696
 40
0.9062499999999696
 40
0.9218749999999719
 40
0.9218749999999719
 40
0.9296874999999731
 40
0.9296874999999731
 40
0.9374999999999744
 40
0.9374999999999744
 40
0.9687499999999852
 40
0.9687499999999852
 40
0.9843749999999925
 40
0.9843749999999925
 40
0.9921874999999943
 40
0.9960937499999971
 40
0.9960937499999971
 40
1.0
 40
1.0
 40
1.0
 40
1.0
 10
352.9826767003025
 20
284.1932426529529
 30
0.0
 10
352.9421414361935
 20
284.1739838746918
 30
0.0
 10
352.9006923560509
 20
284.1569074169869
 30
0.0
 10
352.8158336383561
 20
284.1273835901544
 30
0.0
 10
352.7724248918605
 20
284.1149340969795
 30
0.0
 10
352.7168029843396
 20
284.1025593411211
 30
0.0
 10
352.7056103022432
 20
284.100244359505
 30
0.0
 10
352.6830838192454
 20
284.0959444270935
 30
0.0
 10
352.6717292302945
 20
284.0939566478283
 30
0.0
 10
352.6377074567275
 20
284.0885440926095
 30
0.0
 10
352.6150252107687
 20
284.0856561803282
 30
0.0
 10
352.5469755480262
 20
284.0791508933862
 30
0.0
 10
352.5016052661873
 20
284.0776858417962
 30
0.0
 10
352.4335440810194
 20
284.0798928487981
 30
0.0
 10
352.4108560441715
 20
284.0813641160427
 30
0.0
 10
352.3654778329952
 20
284.0858133214527
 30
0.0
 10
352.3426924559375
 20
284.0888106293432
 30
0.0
 10
352.2753893693137
 20
284.0999406934009
 30
0.0
 10
352.2317282919037
 20
284.1101950941324
 30
0.0
 10
352.1466378635122
 20
284.1359952348812
 30
0.0
 10
352.105209096989
 20
284.1515423832187
 30
0.0
 10
352.0244827086385
 20
284.1877645847906
 30
0.0
 10
351.9859841429263
 20
284.2080772647644
 30
0.0
 10
351.9123180229239
 20
284.252619522316
 30
0.0
 10
351.8771424334838
 20
284.276856120425
 30
0.0
 10
351.8266519620967
 20
284.3159667496214
 30
0.0
 10
351.8101601084012
 20
284.3295021779515
 30
0.0
 10
351.7781910356756
 20
284.3572286978265
 30
0.0
 10
351.7626987656053
 20
284.3714266934303
 30
0.0
 10
351.6875365100416
 20
284.4440026000028
 30
0.0
 10
351.6346658019563
 20
284.5070772435461
 30
0.0
 10
351.5762191841454
 20
284.5915035750874
 30
0.0
 10
351.5649175788418
 20
284.6086715197212
 30
0.0
 10
351.5430742260575
 20
284.6435684606402
 30
0.0
 10
351.5325152931048
 20
284.6613284069602
 30
0.0
 10
351.502090896736
 20
284.7152235974368
 30
0.0
 10
351.4835430522766
 20
284.7518345939102
 30
0.0
 10
351.4327539955107
 20
284.8636319854973
 30
0.0
 10
351.405323057154
 20
284.9407683885124
 30
0.0
 10
351.3734013962888
 20
285.0603772500207
 30
0.0
 10
351.3642925460839
 20
285.101038564278
 30
0.0
 10
351.3494088336585
 20
285.1826257936619
 30
0.0
 10
351.3436010150044
 20
285.2236322214591
 30
0.0
 10
351.3309920527046
 20
285.3472885506928
 30
0.0
 10
351.3289659297001
 20
285.4305734658698
 30
0.0
 10
351.335880260629
 20
285.5568032325427
 30
0.0
 10
351.3398536174753
 20
285.5990973798556
 30
0.0
 10
351.3513317139644
 20
285.684132755083
 30
0.0
 10
351.3587626653011
 20
285.7263126200534
 30
0.0
 10
351.3861007657594
 20
285.8516868046097
 30
0.0
 10
351.4110204899266
 20
285.9337854593558
 30
0.0
 10
351.4590901323729
 20
286.0544267848369
 30
0.0
 10
351.47690454546
 20
286.0942200544049
 30
0.0
 10
351.5064980469484
 20
286.1532136357896
 30
0.0
 10
351.5168420169592
 20
286.1727618647816
 30
0.0
 10
351.5385312108651
 20
286.2116113703996
 30
0.0
 10
351.5498375238552
 20
286.230837659403
 30
0.0
 10
351.6082724187731
 20
286.3252536398695
 30
0.0
 10
351.6614420962741
 20
286.3960294276122
 30
0.0
 10
351.7512892212027
 20
286.4945447748153
 30
0.0
 10
351.7829300707124
 20
286.5261010666132
 30
0.0
 10
351.8330945546241
 20
286.5713640781505
 30
0.0
 10
351.8502674465602
 20
286.5861058337451
 30
0.0
 10
351.8855558358819
 20
286.6148631692232
 30
0.0
 10
351.9036709101231
 20
286.6288713677855
 30
0.0
 10
351.9953829118983
 20
286.6960772187616
 30
0.0
 10
352.0733197338726
 20
286.7416700329377
 30
0.0
 10
352.1973063244059
 20
286.7972736179614
 30
0.0
 10
352.2398238822016
 20
286.8136622590576
 30
0.0
 10
352.3055067831649
 20
286.8347918174358
 30
0.0
 10
352.3276908015682
 20
286.8412426072088
 30
0.0
 10
352.3720580535878
 20
286.852789521391
 30
0.0
 10
352.3943192792398
 20
286.8579118536076
 30
0.0
 10
352.4613338978849
 20
286.8713417235436
 30
0.0
 10
352.506317545716
 20
286.8777179502965
 30
0.0
 10
352.5969058267974
 20
286.8852639181295
 30
0.0
 10
352.6425103398394
 20
286.8864346704522
 30
0.0
 10
352.7114052240478
 20
286.8840985588072
 30
0.0
 10
352.7344833996716
 20
286.8826277706179
 30
0.0
 10
352.7801422195838
 20
286.8783492540545
 30
0.0
 10
352.8028037535967
 20
286.875541197347
 30
0.0
 10
352.870292935096
 20
286.8651456919278
 30
0.0
 10
352.9589604482386
 20
286.8460397091184
 30
0.0
 10
353.0450007864854
 20
286.8165195203188
 30
0.0
 10
353.108510149526
 20
286.7903560816897
 30
0.0
 10
353.1293647503596
 20
286.7810197749378
 30
0.0
 10
353.1702397096857
 20
286.7612486993142
 30
0.0
 10
353.1902959849446
 20
286.7507992024811
 30
0.0
 10
353.2493449483065
 20
286.7178000690159
 30
0.0
 10
353.2872209076394
 20
286.6936042833866
 30
0.0
 10
353.3418336024106
 20
286.6540925616408
 30
0.0
 10
353.3596701556733
 20
286.6403844898541
 30
0.0
 10
353.3946041640969
 20
286.6118927138643
 30
0.0
 10
353.4117522524431
 20
286.5970604528169
 30
0.0
 10
353.4948065762049
 20
286.520953861503
 30
0.0
 10
353.5529447886317
 20
286.4538440364859
 30
0.0
 10
353.6161288227422
 20
286.363035181417
 30
0.0
 10
353.6282862825824
 20
286.3445235886745
 30
0.0
 10
353.6516465937191
 20
286.3068084457926
 30
0.0
 10
353.6628412626277
 20
286.2876106474235
 30
0.0
 10
353.6946741290102
 20
286.2296137153608
 30
0.0
 10
353.7136940183493
 20
286.1902118899525
 30
0.0
 10
353.747620631525
 20
286.1100656724018
 30
0.0
 10
353.7625263021853
 20
286.0693208525272
 30
0.0
 10
353.7819248234302
 20
286.0072600009258
 30
0.0
 10
353.7878968135792
 20
285.9864154575964
 30
0.0
 10
353.7988639637161
 20
285.9444182694332
 30
0.0
 10
353.8038618557923
 20
285.9232422743761
 30
0.0
 10
353.8262515173117
 20
285.8175200717485
 30
0.0
 10
353.8361128584611
 20
285.7327678220307
 30
0.0
 10
353.8401615792094
 20
285.6055178481907
 30
0.0
 10
353.8397070401706
 20
285.5630797559697
 30
0.0
 10
353.8363794393652
 20
285.4993990138597
 30
0.0
 10
353.8348259281623
 20
285.4781600703164
 30
0.0
 10
353.8308749671237
 20
285.4359877901151
 30
0.0
 10
353.8284761108122
 20
285.415014828389
 30
0.0
 10
353.8144267657389
 20
285.3107004281154
 30
0.0
 10
353.7966623015246
 20
285.2290004673001
 30
0.0
 10
353.7607618402028
 20
285.1089064515473
 30
0.0
 10
353.7472427334711
 20
285.0692863421824
 30
0.0
 10
353.7246128789012
 20
285.0104681343174
 30
0.0
 10
353.7166650418104
 20
284.9909390035228
 30
0.0
 10
353.7000919545197
 20
284.9523516349955
 30
0.0
 10
353.6914568992943
 20
284.9332649424799
 30
0.0
 10
353.6465582091188
 20
284.8388473258721
 30
0.0
 10
353.6051736993882
 20
284.7665393120267
 30
0.0
 10
353.5346793725191
 20
284.6628468011996
 30
0.0
 10
353.5097689256763
 20
284.629082264853
 30
0.0
 10
353.4701574678115
 20
284.5796745654184
 30
0.0
 10
353.456578573491
 20
284.5634122183964
 30
0.0
 10
353.4286386414524
 20
284.5313129609235
 30
0.0
 10
353.4142503071475
 20
284.5154473909778
 30
0.0
 10
353.3405720490848
 20
284.4375587886243
 30
0.0
 10
353.2768372493038
 20
284.3805032332627
 30
0.0
 10
353.1731533162004
 20
284.3034147067706
 30
0.0
 10
353.1372344792443
 20
284.2791451072594
 30
0.0
 10
353.0810773085665
 20
284.2450878287675
 30
0.0
 10
353.0524275396763
 20
284.2286474099411
 30
0.0
 10
353.0228562854945
 20
284.2131471227286
 30
0.0
 10
353.0029288238496
 20
284.203030243508
 30
0.0
 10
352.9928105163298
 20
284.1980573475182
 30
0.0
 10
352.9826767003025
 20
284.193242652953
 30
0.0
  0
SPLINE
  5
142
330
1F
100
AcDbEntity
  8
1
100
AcDbSpline
210
0.0
220
0.0
230
1.0
 70
     8
 71
     3
 72
     8
 73
     4
 74
     0
 42
0.000000001
 43
0.0000000001
 40
0.0
 40
0.0
 40
0.0
 40
0.0
 40
1.0
 40
1.0
 40
1.0
 40
1.0
 10
344.5800419452958
 20
291.5284913053258
 30
0.0
 10
344.9844774254888
 20
291.482460007169
 30
0.0
 10
345.3896130107164
 20
291.4519147737099
 30
0.0
 10
345.7954589029676
 20
291.4368682319081
 30
0.0
  0
SPLINE
  5
143
330
1F
100
AcDbEntity
  8
1
100
AcDbSpline
210
0.0
220
0.0
230
1.0
 70
     8
 71
     3
 72
    22
 73
    18
 74
     0
 42
0.000000001
 43
0.0000000001
 40
0.0
 40
0.0
 40
0.0
 40
0.0
 40
0.125
 40
0.125
 40
0.25
 40
0.25
 40
0.375
 40
0.375
 40
0.5
 40
0.5
 40
0.625
 40
0.625
 40
0.75
 40
0.75
 40
0.875
 40
0.875
 40
1.0
 40
1.0
 40
1.0
 40
1.0
 10
352.8206777698859
 20
294.3188774128417
 30
0.0
 10
352.8250619154114
 20
294.3225290040647
 30
0.0
 10
352.8297006573749
 20
294.3257909673988
 30
0.0
 10
352.8393103895304
 20
294.3314459238203
 30
0.0
 10
352.8443022007353
 20
294.3338574145494
 30
0.0
 10
352.8546692789945
 20
294.3378244386512
 30
0.0
 10
352.8600459052077
 20
294.3393689414872
 30
0.0
 10
352.870821293429
 20
294.3414680027058
 30
0.0
 10
352.8762651268328
 20
294.3420426536671
 30
0.0
 10
352.8872676098962
 20
294.3422009911855
 30
0.0
 10
352.8928037275705
 20
294.341773651452
 30
0.0
 10
352.9035921686646
 20
294.3399232235596
 30
0.0
 10
352.9088934214295
 20
294.3385029795763
 30
0.0
 10
352.9192968015271
 20
294.334616024575
 30
0.0
 10
352.9243171862837
 20
294.3321717658288
 30
0.0
 10
352.9337846574905
 20
294.3263914384967
 30
0.0
 10
352.938266385852
 20
294.3230433605235
 30
0.0
 10
352.9424791421363
 20
294.3192081748287
 30
0.0
  0
SPLINE
  5
144
330
1F
100
AcDbEntity
  8
1
100
AcDbSpline
210
0.0
220
0.0
230
1.0
 70
    12
 71
     4
 72
    14
 73
     9
 74
     0
 42
0.000000001
 43
0.0000000001
 40
0.0
 40
0.0
 40
0.0
 40
0.0
 40
0.0
 40
0.2485612161605965
 40
0.2485612161605965
 40
0.2485612161605965
 40
0.2485612161605965
 40
1.0
 40
1.0
 40
1.0
 40
1.0
 40
1.0
 10
356.3741390419802
 20
287.9938887299067
 30
0.0
 41
0.2522474475533307
 10
356.3610925103076
 20
288.0159407090367
 30
0.0
 41
0.2544489498653338
 10
356.346329704687
 20
288.0366883254988
 30
0.0
 41
0.2580977150534156
 10
356.3299042484376
 20
288.0561778922254
 30
0.0
 41
0.263231296848876
 10
356.3117555019468
 20
288.07436850452
 30
0.0
 41
0.2699606567766349
 10
356.2538965389722
 20
288.1323609374277
 30
0.0
 41
0.2496167667754461
 10
356.187564051659
 20
288.1695733120835
 30
0.0
 41
0.2438574253738603
 10
356.1151675319977
 20
288.1921474267389
 30
0.0
 41
0.2496167667754461
 10
356.0340687217257
 20
288.1940400719855
 30
0.0
 41
0.2699606567766349
  0
SPLINE
  5
145
330
1F
100
AcDbEntity
  8
1
100
AcDbSpline
210
0.0
220
0.0
230
1.0
 70
    24
 71
     1
 72
     4
 73
     2
 74
     0
 42
0.000000001
 43
0.0000000001
 40
0.0
 40
0.0
 40
1.0
 40
1.0
 10
356.4062305654484
 20
287.9418847026996
 30
0.0
 10
356.373809933378
 20
287.9944440013579
 30
0.0
  0
SPLINE
  5
146
330
1F
100
AcDbEntity
  8
1
100
AcDbSpline
210
0.0
220
0.0
230
1.0
 70
    24
 71
     1
 72
     4
 73
     2
 74
     0
 42
0.000000001
 43
0.0000000001
 40
0.0
 40
0.0
 40
1.0
 40
1.0
 10
356.0682342821939
 20
288.1383895950643
 30
0.0
 10
356.0340687217257
 20
288.1940400719855
 30
0.0
  0
SPLINE
  5
147
330
1F
100
AcDbEntity
  8
1
100
AcDbSpline
210
0.0
220
0.0
230
1.0
 70
    24
 71
     1
 72
     4
 73
     2
 74
     0
 42
0.000000001
 43
0.0000000001
 40
0.0
 40
0.0
 40
1.0
 40
1.0
 10
356.0340687217257
 20
288.1940400719855
 30
0.0
 10
355.9553318783093
 20
288.1961493730165
 30
0.0
  0
SPLINE
  5
148
330
1F
100
AcDbEntity
  8
1
100
AcDbSpline
210
0.0
220
0.0
230
1.0
 70
    24
 71
     1
 72
     4
 73
     2
 74
     0
 42
0.000000001
 43
0.0000000001
 40
0.0
 40
0.0
 40
1.0
 40
1.0
 10
355.9553318783093
 20
288.1961493730165
 30
0.0
 10
355.5800255260749
 20
288.2062035489444
 30
0.0
  0
SPLINE
  5
149
330
1F
100
AcDbEntity
  8
1
100
AcDbSpline
210
0.0
220
0.0
230
1.0
 70
     8
 71
     3
 72
    28
 73
    24
 74
     0
 42
0.000000001
 43
0.0000000001
 40
0.0
 40
0.0
 40
0.0
 40
0.0
 40
0.1034714051646481
 40
0.1034714051646481
 40
0.207769576452936
 40
0.207769576452936
 40
0.4185000383770655
 40
0.4185000383770655
 40
0.4851156453612205
 40
0.4851156453612205
 40
0.5516693127537219
 40
0.5516693127537219
 40
0.6181920650949832
 40
0.6181920650949832
 40
0.6926608496002798
 40
0.6926608496002798
 40
0.7673398917225929
 40
0.7673398917225929
 40
0.8793772235643062
 40
0.8793772235643062
 40
0.9638772468449415
 40
0.9638772468449415
 40
1.0
 40
1.0
 40
1.0
 40
1.0
 10
356.5796233802311
 20
280.5809885519334
 30
0.0
 10
356.5764783452757
 20
280.7835040055119
 30
0.0
 10
356.5732347831201
 20
280.9860190938003
 30
0.0
 10
356.5665379110722
 20
281.392692319798
 30
0.0
 10
356.5630823235931
 20
281.596849712019
 30
0.0
 10
356.5523634290689
 20
282.2135413578336
 30
0.0
 10
356.5448120217239
 20
282.6261154561951
 30
0.0
 10
356.5343774876995
 20
283.1691915830472
 30
0.0
 10
356.5318334448108
 20
283.2996390140499
 30
0.0
 10
356.5266738460239
 20
283.5604272543949
 30
0.0
 10
356.5240589482578
 20
283.6907682898898
 30
0.0
 10
356.5187560441187
 20
283.9514064678762
 30
0.0
 10
356.5160686474897
 20
284.0817036438677
 30
0.0
 10
356.5102977532656
 20
284.3578846446521
 30
0.0
 10
356.5072049356181
 20
284.5037699208888
 30
0.0
 10
356.5009235578615
 20
284.7959832397188
 30
0.0
 10
356.4977342700128
 20
284.9423106469958
 30
0.0
 10
356.4896537615572
 20
285.3082097199209
 30
0.0
 10
356.4847077945501
 20
285.5278009328025
 30
0.0
 10
356.4758669780737
 20
285.9130868183966
 30
0.0
 10
356.472012746344
 20
286.0787619072564
 30
0.0
 10
356.4664348651596
 20
286.3152988889422
 30
0.0
 10
356.4647549205541
 20
286.3861390884666
 30
0.0
 10
356.4630655781876
 20
286.4569845648977
 30
0.0
  0
SPLINE
  5
14A
330
1F
100
AcDbEntity
  8
1
100
AcDbSpline
210
0.0
220
0.0
230
1.0
 70
    24
 71
     1
 72
     4
 73
     2
 74
     0
 42
0.000000001
 43
0.0000000001
 40
0.0
 40
0.0
 40
1.0
 40
1.0
 10
356.579623380231
 20
280.5809885519334
 30
0.0
 10
356.461806929312
 20
280.6166005191389
 30
0.0
  0
SPLINE
  5
14B
330
1F
100
AcDbEntity
  8
1
100
AcDbSpline
210
0.0
220
0.0
230
1.0
 70
    24
 71
     1
 72
     4
 73
     2
 74
     0
 42
0.000000001
 43
0.0000000001
 40
0.0
 40
0.0
 40
1.0
 40
1.0
 10
356.5806695755048
 20
279.2956874575704
 30
0.0
 10
356.5806054179938
 20
279.374508038356
 30
0.0
  0
SPLINE
  5
14C
330
1F
100
AcDbEntity
  8
1
100
AcDbSpline
210
0.0
220
0.0
230
1.0
 70
    24
 71
     1
 72
     4
 73
     2
 74
     0
 42
0.000000001
 43
0.0000000001
 40
0.0
 40
0.0
 40
1.0
 40
1.0
 10
356.5806054179938
 20
279.374508038356
 30
0.0
 10
356.579623380231
 20
280.5809885519334
 30
0.0
  0
SPLINE
  5
14D
330
1F
100
AcDbEntity
  8
1
100
AcDbSpline
210
0.0
220
0.0
230
1.0
 70
    12
 71
     4
 72
    14
 73
     9
 74
     0
 42
0.000000001
 43
0.0000000001
 40
0.0
 40
0.0
 40
0.0
 40
0.0
 40
0.0
 40
0.5
 40
0.5
 40
0.5
 40
0.5
 40
1.0
 40
1.0
 40
1.0
 40
1.0
 40
1.0
 10
356.1890400559257
 20
278.9048431370194
 30
0.0
 41
0.2699606567766349
 10
356.2707953530491
 20
278.9054638027499
 30
0.0
 41
0.2496167667754463
 10
356.3433663970047
 20
278.9269066910833
 30
0.0
 41
0.2438574253738599
 10
356.4095330937122
 20
278.9630859670043
 30
0.0
 41
0.2496167667754464
 10
356.4667443179255
 20
279.0201824853659
 30
0.0
 41
0.2699606567766349
 10
356.523955542139
 20
279.0772790037275
 30
0.0
 41
0.2496167667754461
 10
356.5599038386673
 20
279.1430099852154
 30
0.0
 41
0.2438574253738603
 10
356.5808712434939
 20
279.2149180054114
 30
0.0
 41
0.2496167667754461
 10
356.5806695755048
 20
279.2956874575704
 30
0.0
 41
0.2699606567766349
  0
SPLINE
  5
14E
330
1F
100
AcDbEntity
  8
1
100
AcDbSpline
210
0.0
220
0.0
230
1.0
 70
    24
 71
     1
 72
     4
 73
     2
 74
     0
 42
0.000000001
 43
0.0000000001
 40
0.0
 40
0.0
 40
1.0
 40
1.0
 10
356.4619076283467
 20
279.4412110482947
 30
0.0
 10
356.5806695755048
 20
279.2956874575704
 30
0.0
  0
SPLINE
  5
14F
330
1F
100
AcDbEntity
  8
1
100
AcDbSpline
210
0.0
220
0.0
230
1.0
 70
    24
 71
     3
 72
     8
 73
     4
 74
     0
 42
0.000000001
 43
0.0000000001
 40
0.0
 40
0.0
 40
0.0
 40
0.0
 40
1.0
 40
1.0
 40
1.0
 40
1.0
 10
356.1273178993067
 20
278.9046738408823
 30
0.0
 10
356.1478954991322
 20
278.9046961465427
 30
0.0
 10
356.1684730989577
 20
278.9047184522031
 30
0.0
 10
356.1890506987833
 20
278.9047407578636
 30
0.0
  0
SPLINE
  5
150
330
1F
100
AcDbEntity
  8
1
100
AcDbSpline
210
0.0
220
0.0
230
1.0
 70
    24
 71
     1
 72
     4
 73
     2
 74
     0
 42
0.000000001
 43
0.0000000001
 40
0.0
 40
0.0
 40
1.0
 40
1.0
 10
356.1890506987833
 20
278.9047407578636
 30
0.0
 10
356.0690117793717
 20
279.0632082971519
 30
0.0
  0
SPLINE
  5
158
330
1F
100
AcDbEntity
  8
1
100
AcDbSpline
210
0.0
220
0.0
230
1.0
 70
     8
 71
     3
 72
    25
 73
    21
 74
     0
 42
0.000000001
 43
0.0000000001
 40
0.0
 40
0.0
 40
0.0
 40
0.0
 40
0.0180434529288396
 40
0.0180434529288396
 40
0.140788021312734
 40
0.2635325896966279
 40
0.2635325896966279
 40
0.3862771580805218
 40
0.3862771580805218
 40
0.4169633001764956
 40
0.4169633001764956
 40
0.4476494422724696
 40
0.4476494422724696
 40
0.5090217264644171
 40
0.5090217264644171
 40
0.6317662948483127
 40
0.6317662948483127
 40
0.7545108632322087
 40
0.8772554316161043
 40
1.0
 40
1.0
 40
1.0
 40
1.0
 10
333.6741580045562
 20
280.3750442219688
 30
0.0
 10
333.6672531754245
 20
280.3665524665145
 30
0.0
 10
333.6604603901617
 20
280.3581885250132
 30
0.0
 10
333.6083188996367
 20
280.2939263341161
 30
0.0
 10
333.5275968171211
 20
280.1937212037298
 30
0.0
 10
333.4654203191218
 20
280.1176833414912
 30
0.0
 10
333.4117939612914
 20
280.0540836889305
 30
0.0
 10
333.3892560344605
 20
280.0285019591292
 30
0.0
 10
333.3660944439836
 20
280.004608477899
 30
0.0
 10
333.3617131259726
 20
280.0002343589191
 30
0.0
 10
333.3534460055095
 20
279.9923047051844
 30
0.0
 10
333.3495572160533
 20
279.9887468969712
 30
0.0
 10
333.3386680785446
 20
279.9793514863451
 30
0.0
 10
333.3324301100803
 20
279.9747765371111
 30
0.0
 10
333.3166097641518
 20
279.9660499288173
 30
0.0
 10
333.3099128857989
 20
279.9668908536282
 30
0.0
 10
333.3035190898705
 20
279.9816711874092
 30
0.0
 10
333.3041269657152
 20
280.0095506975968
 30
0.0
 10
333.3246860446513
 20
280.0905447905042
 30
0.0
 10
333.3510313671666
 20
280.1709239076609
 30
0.0
 10
333.3673593946119
 20
280.2178680384156
 30
0.0
  0
SPLINE
  5
159
330
1F
100
AcDbEntity
  8
1
100
AcDbSpline
210
0.0
220
0.0
230
1.0
 70
     8
 71
     3
 72
    38
 73
    34
 74
     0
 42
0.000000001
 43
0.0000000001
 40
0.0
 40
0.0
 40
0.0
 40
0.0
 40
0.0317596090357148
 40
0.0317596090357148
 40
0.0635192180714296
 40
0.1270384361428591
 40
0.1270384361428591
 40
0.2540768722857184
 40
0.2540768722857184
 40
0.2858364813214239
 40
0.2858364813214239
 40
0.3175960903571294
 40
0.3811153084285523
 40
0.3811153084285523
 40
0.5081537445713985
 40
0.5081537445713985
 40
0.5399133536071102
 40
0.5399133536071102
 40
0.5716729626428219
 40
0.6351921807142458
 40
0.6351921807142458
 40
0.7622306168570936
 40
0.7622306168570936
 40
0.7939902258928031
 40
0.7939902258928031
 40
0.8257498349285125
 40
0.8257498349285125
 40
0.8892690529999271
 40
0.9527882710713415
 40
0.9527882710713415
 40
0.9845478801070491
 40
0.9845478801070491
 40
1.0
 40
1.0
 40
1.0
 40
1.0
 10
334.5709017885915
 20
280.468103334203
 30
0.0
 10
334.5536229337984
 20
280.4686811472596
 30
0.0
 10
334.5362306133694
 20
280.4691409530988
 30
0.0
 10
334.5014198502792
 20
280.4698155123394
 30
0.0
 10
334.4493186692099
 20
280.4704579465451
 30
0.0
 10
334.3975556772677
 20
280.4700108174162
 30
0.0
 10
334.2944740657084
 20
280.4676885067428
 30
0.0
 10
334.226341300764
 20
280.4642453004361
 30
0.0
 10
334.141949157013
 20
280.4575231324183
 30
0.0
 10
334.1250709882596
 20
280.4560532972082
 30
0.0
 10
334.0915893362865
 20
280.4528847497517
 30
0.0
 10
334.0418783550543
 20
280.4477997488127
 30
0.0
 10
333.9936842139505
 20
280.4417448727093
 30
0.0
 10
333.8993252636919
 20
280.4283873454916
 30
0.0
 10
333.8391016321098
 20
280.4178281644302
 30
0.0
 10
333.7675117346031
 20
280.4025760409462
 30
0.0
 10
333.7533381926198
 20
280.3994121880846
 30
0.0
 10
333.7256057233269
 20
280.3929280721444
 30
0.0
 10
333.6849802514093
 20
280.3829820576494
 30
0.0
 10
333.6472536639525
 20
280.372409664632
 30
0.0
 10
333.5757219910261
 20
280.3504955337766
 30
0.0
 10
333.5332098560717
 20
280.3348680407502
 30
0.0
 10
333.4874098899642
 20
280.3141660235901
 30
0.0
 10
333.4786847302053
 20
280.3099943381022
 30
0.0
 10
333.4622089650479
 20
280.30164751718
 30
0.0
 10
333.4544400014049
 20
280.297464131882
 30
0.0
 10
333.4325328680423
 20
280.2848926993572
 30
0.0
 10
333.4070486049648
 20
280.2680745927879
 30
0.0
 10
333.3891177943975
 20
280.2512217566901
 30
0.0
 10
333.3786349279
 20
280.2385919655996
 30
0.0
 10
333.3756305354206
 20
280.2343704317426
 30
0.0
 10
333.3719697172697
 20
280.2281827252788
 30
0.0
 10
333.3708971038354
 20
280.2261691769106
 30
0.0
 10
333.3699486950642
 20
280.2241672764746
 30
0.0
  0
SPLINE
  5
15A
330
1F
100
AcDbEntity
  8
1
100
AcDbSpline
210
0.0
220
0.0
230
1.0
 70
     8
 71
     3
 72
    63
 73
    59
 74
     0
 42
0.000000001
 43
0.0000000001
 40
0.0
 40
0.0
 40
0.0
 40
0.0
 40
0.0703283906582564
 40
0.0703283906582564
 40
0.1406567813165128
 40
0.1406567813165128
 40
0.2109851719747692
 40
0.2109851719747692
 40
0.2461493673038974
 40
0.2461493673038974
 40
0.2637314649684616
 40
0.2637314649684616
 40
0.2725225138007437
 40
0.2725225138007437
 40
0.2813135626330257
 40
0.3516419532912801
 40
0.3516419532912801
 40
0.4219703439495344
 40
0.4219703439495344
 40
0.4571345392786615
 40
0.4571345392786615
 40
0.4747166369432251
 40
0.4747166369432251
 40
0.4835076857755068
 40
0.4835076857755068
 40
0.4922987346077887
 40
0.5626271252660418
 40
0.5626271252660418
 40
0.6329555159242949
 40
0.6329555159242949
 40
0.6417465647565765
 40
0.6417465647565765
 40
0.6505376135888579
 40
0.6505376135888579
 40
0.6681197112534211
 40
0.7032839065825475
 40
0.7032839065825475
 40
0.7736122972408003
 40
0.7736122972408003
 40
0.8087764925699264
 40
0.8087764925699264
 40
0.817567541402208
 40
0.817567541402208
 40
0.8263585902344892
 40
0.8439406878990524
 40
0.8439406878990524
 40
0.8791048832281795
 40
0.9142690785573064
 40
0.9142690785573064
 40
0.9494332738864336
 40
0.9494332738864336
 40
0.958224322718715
 40
0.958224322718715
 40
0.9670153715509972
 40
0.9670153715509972
 40
0.9845974692155607
 40
0.9845974692155607
 40
1.0
 40
1.0
 40
1.0
 40
1.0
 10
343.9167169872247
 20
291.559728437977
 30
0.0
 10
343.523216317692
 20
291.618146821349
 30
0.0
 10
343.1345179208563
 20
291.6908445928134
 30
0.0
 10
342.3665811196613
 20
291.8634941403531
 30
0.0
 10
341.9873428045391
 20
291.9634475402957
 30
0.0
 10
341.2384110446664
 20
292.1896589319372
 30
0.0
 10
340.8687168069891
 20
292.3159180279454
 30
0.0
 10
340.3215760813129
 20
292.5245562769823
 30
0.0
 10
340.1404312089407
 20
292.5973129649803
 30
0.0
 10
339.8706163699062
 20
292.7112239193121
 30
0.0
 10
339.7809953096007
 20
292.749990358793
 30
0.0
 10
339.6470470725708
 20
292.8093303748814
 30
0.0
 10
339.6024582518331
 20
292.8293180437957
 30
0.0
 10
339.5136381979995
 20
292.8696003566358
 30
0.0
 10
339.1153860685092
 20
293.0523271389468
 30
0.0
 10
338.7300503982694
 20
293.2479572590115
 30
0.0
 10
338.0659245863711
 20
293.6135903666449
 30
0.0
 10
337.744317300553
 20
293.8053395445401
 30
0.0
 10
337.2783404368469
 20
294.1043437178903
 30
0.0
 10
337.1257578550502
 20
294.2059065630788
 30
0.0
 10
336.9011330234935
 20
294.3608098406869
 30
0.0
 10
336.8269665596456
 20
294.4128704813845
 30
0.0
 10
336.7167993664866
 20
294.4915622012281
 30
0.0
 10
336.6802327567769
 20
294.5179108327522
 30
0.0
 10
336.6075816021824
 20
294.5707158918543
 30
0.0
 10
336.2831210554988
 20
294.8086006628671
 30
0.0
 10
335.9808162506089
 20
295.0484722719365
 30
0.0
 10
335.478335437968
 20
295.4722407425284
 30
0.0
 10
335.2445662860482
 20
295.6828158045715
 30
0.0
 10
335.0014875973713
 20
295.9143748247509
 30
0.0
 10
334.9747557911923
 20
295.9400284558822
 30
0.0
 10
334.9218476451204
 20
295.9911700836454
 30
0.0
 10
334.8956413496945
 20
296.0166875800267
 30
0.0
 10
334.818116068879
 20
296.0927143017457
 30
0.0
 10
334.6674858144567
 20
296.2426130971744
 30
0.0
 10
334.5297460034521
 20
296.3856273551129
 30
0.0
 10
334.2705697180174
 20
296.6613263332342
 30
0.0
 10
334.1194856366787
 20
296.8313908080953
 30
0.0
 10
333.9225423019282
 20
297.060839406445
 30
0.0
 10
333.8618508019707
 20
297.1330399237553
 30
0.0
 10
333.7919584822133
 20
297.2173210566685
 30
0.0
 10
333.7782629592953
 20
297.2338977879186
 30
0.0
 10
333.7515495449701
 20
297.2663338825789
 30
0.0
 10
333.712515981839
 20
297.3138871550716
 30
0.0
 10
333.6765074218886
 20
297.3581294360656
 30
0.0
 10
333.6083188996367
 20
297.4421689176726
 30
0.0
 10
333.5275968171211
 20
297.5423740480589
 30
0.0
 10
333.4654203191218
 20
297.6184119102975
 30
0.0
 10
333.4117939612914
 20
297.6820115628582
 30
0.0
 10
333.3892560344605
 20
297.7075932926595
 30
0.0
 10
333.3660944439837
 20
297.7314867738897
 30
0.0
 10
333.3617131259726
 20
297.7358608928695
 30
0.0
 10
333.3534460055095
 20
297.7437905466043
 30
0.0
 10
333.3495572160533
 20
297.7473483548175
 30
0.0
 10
333.3386680785445
 20
297.7567437654436
 30
0.0
 10
333.3324301100803
 20
297.7613187146776
 30
0.0
 10
333.3225369364985
 20
297.7667758551866
 30
0.0
 10
333.318655873408
 20
297.7680465998666
 30
0.0
 10
333.3154840557287
 20
297.7680490136891
 30
0.0
  0
SPLINE
  5
15B
330
1F
100
AcDbEntity
  8
1
100
AcDbSpline
210
0.0
220
0.0
230
1.0
 70
     8
 71
     3
 72
    26
 73
    22
 74
     0
 42
0.000000001
 43
0.0000000001
 40
0.0
 40
0.0
 40
0.0
 40
0.0
 40
0.1077846827791202
 40
0.1077846827791202
 40
0.1616770241686803
 40
0.1616770241686803
 40
0.2155693655582405
 40
0.2155693655582405
 40
0.4311387311165241
 40
0.4311387311165241
 40
0.5389234138956657
 40
0.5389234138956657
 40
0.5928157552852465
 40
0.5928157552852465
 40
0.6467080966748275
 40
0.6467080966748275
 40
0.8622774622331734
 40
0.8622774622331734
 40
0.9700621450123364
 40
0.9700621450123364
 40
1.0
 40
1.0
 40
1.0
 40
1.0
 10
334.5709017885918
 20
297.2679919175861
 30
0.0
 10
334.5365312179782
 20
297.2668425494882
 30
0.0
 10
334.5019138021669
 20
297.2661644152431
 30
0.0
 10
334.4496065795025
 20
297.26587906235
 30
0.0
 10
334.4321628030736
 20
297.2659068242119
 30
0.0
 10
334.397452235046
 20
297.2662049662612
 30
0.0
 10
334.3801559121854
 20
297.2664751459655
 30
0.0
 10
334.293965800085
 20
297.2684233885463
 30
0.0
 10
334.2259387115777
 20
297.2718825907918
 30
0.0
 10
334.1253157775919
 20
297.2798967482034
 30
0.0
 10
334.0920125739101
 20
297.2830411132556
 30
0.0
 10
334.0424337549108
 20
297.2884852378515
 30
0.0
 10
334.0260385899143
 20
297.290414358622
 30
0.0
 10
333.9936926140918
 20
297.2944749882593
 30
0.0
 10
333.9777132103089
 20
297.2966096023812
 30
0.0
 10
333.8987811779756
 20
297.307791585696
 30
0.0
 10
333.838693852286
 20
297.3183546838263
 30
0.0
 10
333.7534384089137
 20
297.3365171528744
 30
0.0
 10
333.7258380833749
 20
297.3429597059957
 30
0.0
 10
333.6917017183067
 20
297.3516950247492
 30
0.0
 10
333.6843870771143
 20
297.3536147228593
 30
0.0
 10
333.6771792413161
 20
297.3555543709203
 30
0.0
  0
SPLINE
  5
15C
330
1F
100
AcDbEntity
  8
1
100
AcDbSpline
210
0.0
220
0.0
230
1.0
 70
     8
 71
     3
 72
     8
 73
     4
 74
     0
 42
0.000000001
 43
0.0000000001
 40
0.0
 40
0.0
 40
0.0
 40
0.0
 40
1.0
 40
1.0
 40
1.0
 40
1.0
 10
354.6149414419982
 20
291.1089153696981
 30
0.0
 10
351.6751569219457
 20
291.2185677826402
 30
0.0
 10
348.7353279441951
 20
291.3278739972372
 30
0.0
 10
345.7954589029676
 20
291.4368682319081
 30
0.0
  0
SPLINE
  5
15D
330
1F
100
AcDbEntity
  8
1
100
AcDbSpline
210
0.0
220
0.0
230
1.0
 70
     8
 71
     3
 72
    13
 73
     9
 74
     0
 42
0.000000001
 43
0.0000000001
 40
0.0
 40
0.0
 40
0.0
 40
0.0
 40
0.5000000000000009
 40
0.5000000000000009
 40
0.750000000000001
 40
0.8750000000000005
 40
0.8750000000000005
 40
1.0
 40
1.0
 40
1.0
 40
1.0
 10
347.1371728636841
 20
280.028273887029
 30
0.0
 10
347.1894570195187
 20
280.0362792346168
 30
0.0
 10
347.2435011541559
 20
280.0438669938663
 30
0.0
 10
347.3272095918459
 20
280.054483537119
 30
0.0
 10
347.3697262051439
 20
280.0596004193398
 30
0.0
 10
347.4132540063064
 20
280.0644024336274
 30
0.0
 10
347.4425004710773
 20
280.0675305327776
 30
0.0
 10
347.4572542841996
 20
280.0690594893101
 30
0.0
 10
347.472023101496
 20
280.0705403472482
 30
0.0
  0
SPLINE
  5
15E
330
1F
100
AcDbEntity
  8
1
100
AcDbSpline
210
0.0
220
0.0
230
1.0
 70
     8
 71
     3
 72
    17
 73
    13
 74
     0
 42
0.000000001
 43
0.0000000001
 40
0.0
 40
0.0
 40
0.0
 40
0.0
 40
0.2500000000000547
 40
0.5000000000001095
 40
0.5000000000001095
 40
0.5625000000000947
 40
0.5625000000000947
 40
0.62500000000008
 40
0.62500000000008
 40
0.7500000000000533
 40
0.7500000000000533
 40
1.0
 40
1.0
 40
1.0
 40
1.0
 10
343.9167169872247
 20
291.559728437977
 30
0.0
 10
343.9755560684303
 20
291.550993296542
 30
0.0
 10
344.091849818878
 20
291.5366464402083
 30
0.0
 10
344.2054774849788
 20
291.5283254496594
 30
0.0
 10
344.2756357717936
 20
291.5250347264986
 30
0.0
 10
344.2896242489917
 20
291.5244724536458
 30
0.0
 10
344.317513238143
 20
291.5235418870743
 30
0.0
 10
344.3314108356577
 20
291.5231741348467
 30
0.0
 10
344.3726741510356
 20
291.5223690708844
 30
0.0
 10
344.3997108757935
 20
291.5222258761789
 30
0.0
 10
344.4794172025486
 20
291.5229484595475
 30
0.0
 10
344.5306907079001
 20
291.5249613758957
 30
0.0
 10
344.5800419452981
 20
291.5284913053239
 30
0.0
  0
SPLINE
  5
15F
330
1F
100
AcDbEntity
  8
1
100
AcDbSpline
210
0.0
220
0.0
230
1.0
 70
     8
 71
     3
 72
    16
 73
    12
 74
     0
 42
0.000000001
 43
0.0000000001
 40
0.0
 40
0.0
 40
0.0
 40
0.0
 40
0.2499999999999868
 40
0.2499999999999868
 40
0.4999999999999737
 40
0.4999999999999737
 40
0.6249999999999662
 40
0.6249999999999662
 40
0.7499999999999584
 40
0.7499999999999584
 40
1.0
 40
1.0
 40
1.0
 40
1.0
 10
344.5800419452957
 20
279.9961591127171
 30
0.0
 10
344.5307645835996
 20
280.0287339977855
 30
0.0
 10
344.4797259056161
 20
280.0574541229217
 30
0.0
 10
344.3742822693093
 20
280.1075270407809
 30
0.0
 10
344.3198768364646
 20
280.1288787949817
 30
0.0
 10
344.2356950716375
 20
280.1552738944018
 30
0.0
 10
344.2071007267451
 20
280.1631510339786
 30
0.0
 10
344.1497069634588
 20
280.1768057392253
 30
0.0
 10
344.1208824400247
 20
280.1826001282222
 30
0.0
 10
344.034031482451
 20
280.1969292223854
 30
0.0
 10
343.975629697846
 20
280.2024263379377
 30
0.0
 10
343.9167169872251
 20
280.2037886949055
 30
0.0
  0
SPLINE
  5
161
330
1F
100
AcDbEntity
  8
1
100
AcDbSpline
210
0.0
220
0.0
230
1.0
 70
     8
 71
     3
 72
     8
 73
     4
 74
     0
 42
0.000000001
 43
0.0000000001
 40
0.0
 40
0.0
 40
0.0
 40
0.0
 40
1.0
 40
1.0
 40
1.0
 40
1.0
 10
355.2265519097626
 20
297.6333833393389
 30
0.0
 10
355.1934056197098
 20
297.603189096388
 30
0.0
 10
355.160340241819
 20
297.5728918825896
 30
0.0
 10
355.1273560286576
 20
297.5424924072799
 30
0.0
  0
SPLINE
  5
162
330
1F
100
AcDbEntity
  8
1
100
AcDbSpline
210
0.0
220
0.0
230
1.0
 70
     8
 71
     3
 72
     8
 73
     4
 74
     0
 42
0.000000001
 43
0.0000000001
 40
0.0
 40
0.0
 40
0.0
 40
0.0
 40
1.0
 40
1.0
 40
1.0
 40
1.0
 10
348.2910357003458
 20
297.3534946937044
 30
0.0
 10
348.3197994438156
 20
297.3180693158365
 30
0.0
 10
348.3486715983378
 20
297.282731116871
 30
0.0
 10
348.3776514599527
 20
297.2474803649307
 30
0.0
  0
SPLINE
  5
163
330
1F
100
AcDbEntity
  8
1
100
AcDbSpline
210
0.0
220
0.0
230
1.0
 70
     8
 71
     3
 72
     8
 73
     4
 74
     0
 42
0.000000001
 43
0.0000000001
 40
0.0
 40
0.0
 40
0.0
 40
0.0
 40
1.0
 40
1.0
 40
1.0
 40
1.0
 10
356.4888969353942
 20
297.1519699050013
 30
0.0
 10
356.4888297925668
 20
297.1455337912662
 30
0.0
 10
356.4887625578756
 20
297.1390976756056
 30
0.0
 10
356.4886952300096
 20
297.132661557914
 30
0.0
  0
SPLINE
  5
164
330
1F
100
AcDbEntity
  8
1
100
AcDbSpline
210
0.0
220
0.0
230
1.0
 70
     8
 71
     3
 72
    18
 73
    14
 74
     0
 42
0.000000001
 43
0.0000000001
 40
0.0
 40
0.0
 40
0.0
 40
0.0
 40
0.1172804083005006
 40
0.1172804083005006
 40
0.4532766177216071
 40
0.4532766177216071
 40
0.7892728271427134
 40
0.7892728271427134
 40
0.9572709318532666
 40
0.9572709318532666
 40
0.9992704580309052
 40
0.9992704580309052
 40
1.0
 40
1.0
 40
1.0
 40
1.0
 10
347.1000984393208
 20
291.3884717206676
 30
0.0
 10
347.1019587955954
 20
291.6465171033317
 30
0.0
 10
347.1039927320719
 20
291.9045615125865
 30
0.0
 10
347.1128653924034
 20
292.9018553536504
 30
0.0
 10
347.121608741279
 20
293.6410546147479
 30
0.0
 10
347.1443863038223
 20
295.1191922082331
 30
0.0
 10
347.1586735574375
 20
295.8581323900319
 30
0.0
 10
347.1863690259121
 20
296.9660122956753
 30
0.0
 10
347.1962929900744
 20
297.3352454041176
 30
0.0
 10
347.2110098402721
 20
297.79655768541
 30
0.0
 10
347.214109458291
 20
297.8888071074525
 30
0.0
 10
347.2174631561971
 20
297.9826324440569
 30
0.0
 10
347.2175201559475
 20
297.9842344205252
 30
0.0
 10
347.2175770646246
 20
297.9858364084492
 30
0.0
  0
SPLINE
  5
165
330
1F
100
AcDbEntity
  8
1
100
AcDbSpline
210
0.0
220
0.0
230
1.0
 70
     8
 71
     3
 72
    18
 73
    14
 74
     0
 42
0.000000001
 43
0.0000000001
 40
0.0
 40
0.0
 40
0.0
 40
0.0
 40
0.1450616172914135
 40
0.1450616172914135
 40
0.4703738615215915
 40
0.4703738615215915
 40
0.7956861057517694
 40
0.7956861057517694
 40
0.9583422278668583
 40
0.9583422278668583
 40
0.9990062583956305
 40
0.9990062583956305
 40
1.0
 40
1.0
 40
1.0
 40
1.0
 10
356.4886952300096
 20
297.132661557914
 30
0.0
 10
356.4852713216795
 20
296.8053576000184
 30
0.0
 10
356.4816064494461
 20
296.478048389472
 30
0.0
 10
356.4683825095299
 20
295.4166600756297
 30
0.0
 10
356.4571445109968
 20
294.6825058458046
 30
0.0
 10
356.4296917330587
 20
293.2138231302019
 30
0.0
 10
356.4132374888639
 20
292.4792653414209
 30
0.0
 10
356.3828292759349
 20
291.3768715290112
 30
0.0
 10
356.3720635511731
 20
291.0093407472005
 30
0.0
 10
356.3565102587447
 20
290.5497200369866
 30
0.0
 10
356.35325750539
 20
290.45778030675
 30
0.0
 10
356.3497422547388
 20
290.3635827694489
 30
0.0
 10
356.3496588724829
 20
290.3613357142806
 30
0.0
 10
356.3495755317139
 20
290.3590886596037
 30
0.0
  0
SPLINE
  5
166
330
1F
100
AcDbEntity
  8
1
100
AcDbSpline
210
0.0
220
0.0
230
1.0
 70
     8
 71
     3
 72
    12
 73
     8
 74
     0
 42
0.000000001
 43
0.0000000001
 40
0.0
 40
0.0
 40
0.0
 40
0.0
 40
0.2547230782148973
 40
0.2547230782148973
 40
0.7443298326101664
 40
0.7443298326101664
 40
1.0
 40
1.0
 40
1.0
 40
1.0
 10
355.8854359421594
 20
289.6860754821909
 30
0.0
 10
355.866083721326
 20
289.6790441112695
 30
0.0
 10
355.8465731220946
 20
289.6725859734748
 30
0.0
 10
355.7891505323105
 20
289.654995696872
 30
0.0
 10
355.7507837842986
 20
289.6451379092218
 30
0.0
 10
355.6919873827039
 20
289.6328388840002
 30
0.0
 10
355.6717195619113
 20
289.6291429722509
 30
0.0
 10
355.6513791312872
 20
289.6259026855601
 30
0.0
  0
SPLINE
  5
167
330
1F
100
AcDbEntity
  8
1
100
AcDbSpline
210
0.0
220
0.0
230
1.0
 70
     8
 71
     3
 72
    21
 73
    17
 74
     0
 42
0.000000001
 43
0.0000000001
 40
0.0
 40
0.0
 40
0.0
 40
0.0
 40
0.2007596516534896
 40
0.2007596516534896
 40
0.2673630140157157
 40
0.2673630140157157
 40
0.3339663763779417
 40
0.3339663763779417
 40
0.4671731011023937
 40
0.6003798258268459
 40
0.6003798258268459
 40
0.6669831881890388
 40
0.6669831881890388
 40
0.7335865505512317
 40
0.7335865505512317
 40
1.0
 40
1.0
 40
1.0
 40
1.0
 10
350.7873713771478
 20
294.2640318484972
 30
0.0
 10
350.79652976365
 20
294.2948269899603
 30
0.0
 10
350.8083530329491
 20
294.324600185058
 30
0.0
 10
350.8276435149292
 20
294.3628946787592
 30
0.0
 10
350.8327583569025
 20
294.3723397522301
 30
0.0
 10
350.8434689862741
 20
294.3907900806233
 30
0.0
 10
350.849075011021
 20
294.3998186274889
 30
0.0
 10
350.8666314380556
 20
294.426325355126
 30
0.0
 10
350.892004167325
 20
294.4601276738163
 30
0.0
 10
350.9212781778834
 20
294.4908717891646
 30
0.0
 10
350.9447456915563
 20
294.512744397426
 30
0.0
 10
350.9528072632078
 20
294.5198212064092
 30
0.0
 10
350.9692228434076
 20
294.5333948131688
 30
0.0
 10
350.9776012974907
 20
294.5399149036123
 30
0.0
 10
351.0203316121364
 20
294.5712052363617
 30
0.0
 10
351.0571645398369
 20
294.5920973529287
 30
0.0
 10
351.0967189358189
 20
294.6087260507712
 30
0.0
  0
SPLINE
  5
168
330
1F
100
AcDbEntity
  8
1
100
AcDbSpline
210
0.0
220
0.0
230
1.0
 70
     8
 71
     3
 72
    20
 73
    16
 74
     0
 42
0.000000001
 43
0.0000000001
 40
0.0
 40
0.0
 40
0.0
 40
0.0
 40
0.125
 40
0.125
 40
0.25
 40
0.25
 40
0.375
 40
0.375
 40
0.5
 40
0.5
 40
0.625
 40
0.625
 40
0.75
 40
0.75
 40
1.0
 40
1.0
 40
1.0
 40
1.0
 10
351.0967189358189
 20
294.6087260507712
 30
0.0
 10
351.1022244190639
 20
294.6110405600712
 30
0.0
 10
351.1078609877492
 20
294.6128078824052
 30
0.0
 10
351.1193818629678
 20
294.6153066458129
 30
0.0
 10
351.1253260707015
 20
294.6160371921882
 30
0.0
 10
351.1371431780537
 20
294.6164208085176
 30
0.0
 10
351.1429977302527
 20
294.6160864759121
 30
0.0
 10
351.154603442044
 20
294.6144175204616
 30
0.0
 10
351.1604053240454
 20
294.6130646429265
 30
0.0
 10
351.1716457276528
 20
294.60940883858
 30
0.0
 10
351.1770454985208
 20
294.6071296718717
 30
0.0
 10
351.187426349854
 20
294.6017158500633
 30
0.0
 10
351.1924301433407
 20
294.5985636190484
 30
0.0
 10
351.20664281253
 20
294.587895767471
 30
0.0
 10
351.2147673461524
 20
294.5794571216822
 30
0.0
 10
351.221556864586
 20
294.5697085263814
 30
0.0
  0
SPLINE
  5
169
330
1F
100
AcDbEntity
  8
1
100
AcDbSpline
210
0.0
220
0.0
230
1.0
 70
     8
 71
     3
 72
    14
 73
    10
 74
     0
 42
0.000000001
 43
0.0000000001
 40
0.0
 40
0.0
 40
0.0
 40
0.0
 40
0.25
 40
0.25
 40
0.5
 40
0.5
 40
0.75
 40
0.75
 40
1.0
 40
1.0
 40
1.0
 40
1.0
 10
351.2945284877277
 20
294.5242042061416
 30
0.0
 10
351.2871443123391
 20
294.5252245819264
 30
0.0
 10
351.2798761040126
 20
294.527076705999
 30
0.0
 10
351.266070543762
 20
294.5321908114695
 30
0.0
 10
351.259509543774
 20
294.5354414872898
 30
0.0
 10
351.2470474509871
 20
294.5432856614444
 30
0.0
 10
351.2411641169844
 20
294.5478945745593
 30
0.0
 10
351.2305801311767
 20
294.5580361669402
 30
0.0
 10
351.2258029736937
 20
294.563611834886
 30
0.0
 10
351.221556864586
 20
294.5697085263814
 30
0.0
  0
SPLINE
  5
16A
330
1F
100
AcDbEntity
  8
1
100
AcDbSpline
210
0.0
220
0.0
230
1.0
 70
     8
 71
     3
 72
     8
 73
     4
 74
     0
 42
0.000000001
 43
0.0000000001
 40
0.0
 40
0.0
 40
0.0
 40
0.0
 40
1.0
 40
1.0
 40
1.0
 40
1.0
 10
350.8864730460873
 20
294.0655101718968
 30
0.0
 10
350.8890169669797
 20
294.0603699619872
 30
0.0
 10
350.8911516393273
 20
294.0550213153854
 30
0.0
 10
350.8928499735241
 20
294.0494502569849
 30
0.0
  0
SPLINE
  5
16B
330
1F
100
AcDbEntity
  8
1
100
AcDbSpline
210
0.0
220
0.0
230
1.0
 70
     8
 71
     3
 72
    22
 73
    18
 74
     0
 42
0.000000001
 43
0.0000000001
 40
0.0
 40
0.0
 40
0.0
 40
0.0
 40
0.125
 40
0.125
 40
0.25
 40
0.25
 40
0.375
 40
0.375
 40
0.5
 40
0.5
 40
0.625
 40
0.625
 40
0.75
 40
0.75
 40
0.875
 40
0.875
 40
1.0
 40
1.0
 40
1.0
 40
1.0
 10
351.7815044241444
 20
294.7791050789262
 30
0.0
 10
351.7808348039217
 20
294.7849949633963
 30
0.0
 10
351.7806395023651
 20
294.7909125470874
 30
0.0
 10
351.7811754309589
 20
294.8025967631634
 30
0.0
 10
351.7819025175431
 20
294.8083918667552
 30
0.0
 10
351.7843012590534
 20
294.8198849016673
 30
0.0
 10
351.7859830001447
 20
294.8255779864035
 30
0.0
 10
351.7902044335333
 20
294.8364696939719
 30
0.0
 10
351.7927521362036
 20
294.8417197440347
 30
0.0
 10
351.79875907197
 20
294.8518103496276
 30
0.0
 10
351.8022149263102
 20
294.8566243574797
 30
0.0
 10
351.8098207047672
 20
294.8654793413918
 30
0.0
 10
351.813995480677
 20
294.869566221111
 30
0.0
 10
351.8231307554243
 20
294.8770189016258
 30
0.0
 10
351.8280259423778
 20
294.8803216558377
 30
0.0
 10
351.8382618820584
 20
294.8859472206073
 30
0.0
 10
351.8436320862404
 20
294.8882951803279
 30
0.0
 10
351.8492704515465
 20
294.890148284542
 30
0.0
  0
SPLINE
  5
16C
330
1F
100
AcDbEntity
  8
1
100
AcDbSpline
210
0.0
220
0.0
230
1.0
 70
     8
 71
     3
 72
    14
 73
    10
 74
     0
 42
0.000000001
 43
0.0000000001
 40
0.0
 40
0.0
 40
0.0
 40
0.0
 40
0.25
 40
0.25
 40
0.5
 40
0.5
 40
0.75
 40
0.75
 40
1.0
 40
1.0
 40
1.0
 40
1.0
 10
351.7815044241441
 20
294.7791050789257
 30
0.0
 10
351.7823421255408
 20
294.7717367762971
 30
0.0
 10
351.7824405165938
 20
294.7643001917279
 30
0.0
 10
351.7811666804427
 20
294.7496338470813
 30
0.0
 10
351.7798104852726
 20
294.7424562265384
 30
0.0
 10
351.7756423196238
 20
294.7284144869294
 30
0.0
 10
351.7727977428237
 20
294.7215268479967
 30
0.0
 10
351.765825418248
 20
294.7087000105886
 30
0.0
 10
351.7616828395088
 20
294.7026786790441
 30
0.0
 10
351.7568246481328
 20
294.6970832920327
 30
0.0
  0
SPLINE
  5
16D
330
1F
100
AcDbEntity
  8
1
100
AcDbSpline
210
0.0
220
0.0
230
1.0
 70
     8
 71
     3
 72
    21
 73
    17
 74
     0
 42
0.000000001
 43
0.0000000001
 40
0.0
 40
0.0
 40
0.0
 40
0.0
 40
0.2499999999998981
 40
0.2499999999998981
 40
0.3124999999999226
 40
0.3124999999999226
 40
0.3749999999999472
 40
0.3749999999999472
 40
0.4999999999999254
 40
0.6249999999999037
 40
0.6249999999999037
 40
0.6874999999998929
 40
0.6874999999998929
 40
0.7499999999998821
 40
0.7499999999998821
 40
1.0
 40
1.0
 40
1.0
 40
1.0
 10
351.7568246481328
 20
294.6970832920327
 30
0.0
 10
351.728636372058
 20
294.6646176475945
 30
0.0
 10
351.6971284725576
 20
294.6360236205695
 30
0.0
 10
351.653391974947
 20
294.6052768477887
 30
0.0
 10
351.6444243655154
 20
294.5993805009507
 30
0.0
 10
351.6260319664453
 20
294.5881113550308
 30
0.0
 10
351.616582892572
 20
294.5827284119812
 30
0.0
 10
351.5879598177984
 20
294.5676184978248
 30
0.0
 10
351.5488225591077
 20
294.5500737383676
 30
0.0
 10
351.5077780734343
 20
294.5376252751378
 30
0.0
 10
351.4762686748797
 20
294.5302300171549
 30
0.0
 10
351.4656055114
 20
294.5280831649436
 30
0.0
 10
351.4442353086636
 20
294.5244844282005
 30
0.0
 10
351.4335491503703
 20
294.523032954313
 30
0.0
 10
351.3801118285791
 20
294.5174528621239
 30
0.0
 10
351.3373418720613
 20
294.518288076264
 30
0.0
 10
351.2945284877277
 20
294.5242042061416
 30
0.0
  0
SPLINE
  5
16E
330
1F
100
AcDbEntity
  8
1
100
AcDbSpline
210
0.0
220
0.0
230
1.0
 70
     8
 71
     3
 72
    20
 73
    16
 74
     0
 42
0.000000001
 43
0.0000000001
 40
0.0
 40
0.0
 40
0.0
 40
0.0
 40
0.1250000000000008
 40
0.1250000000000008
 40
0.2500000000000016
 40
0.2500000000000016
 40
0.3750000000000022
 40
0.3750000000000022
 40
0.5000000000000031
 40
0.5000000000000031
 40
0.6250000000000038
 40
0.6250000000000038
 40
0.7500000000000045
 40
0.7500000000000045
 40
1.0
 40
1.0
 40
1.0
 40
1.0
 10
350.6366556727153
 20
293.4569283469575
 30
0.0
 10
350.6373988061671
 20
293.462623351181
 30
0.0
 10
350.6386703761734
 20
293.4681352852436
 30
0.0
 10
350.6422132166035
 20
293.4788113809536
 30
0.0
 10
350.6445147883102
 20
293.484023744498
 30
0.0
 10
350.6499938764473
 20
293.4938162839289
 30
0.0
 10
350.6531524428599
 20
293.498389741821
 30
0.0
 10
350.6602653343943
 20
293.5069208864982
 30
0.0
 10
350.6642604195402
 20
293.5109102877429
 30
0.0
 10
350.6728724259427
 20
293.5180852450803
 30
0.0
 10
350.6774516120657
 20
293.5212533448001
 30
0.0
 10
350.6871268978147
 20
293.5267924425931
 30
0.0
 10
350.6922499139331
 20
293.5291728096639
 30
0.0
 10
350.7082422139506
 20
293.5350140439112
 30
0.0
 10
350.7193594482568
 20
293.5371007740165
 30
0.0
 10
350.7309250280409
 20
293.5373988398164
 30
0.0
  0
SPLINE
  5
16F
330
1F
100
AcDbEntity
  8
1
100
AcDbSpline
210
0.0
220
0.0
230
1.0
 70
     8
 71
     3
 72
    21
 73
    17
 74
     0
 42
0.000000001
 43
0.0000000001
 40
0.0
 40
0.0
 40
0.0
 40
0.0
 40
0.250000000000056
 40
0.250000000000056
 40
0.3125000000000661
 40
0.3125000000000661
 40
0.3750000000000762
 40
0.3750000000000762
 40
0.5000000000000922
 40
0.6250000000001082
 40
0.6250000000001082
 40
0.6875000000001018
 40
0.6875000000001018
 40
0.7500000000000955
 40
0.7500000000000955
 40
1.0
 40
1.0
 40
1.0
 40
1.0
 10
350.8928499735241
 20
294.0494502569849
 30
0.0
 10
350.9055147771733
 20
294.0079058066073
 30
0.0
 10
350.9133089912043
 20
293.9657789536368
 30
0.0
 10
350.9167938760705
 20
293.9124016648739
 30
0.0
 10
350.9171738961379
 20
293.9016897713458
 30
0.0
 10
350.9172785713158
 20
293.8801912106624
 30
0.0
 10
350.9169994932828
 20
293.8693787767613
 30
0.0
 10
350.9151761770715
 20
293.8373116276414
 30
0.0
 10
350.9101362208272
 20
293.7952525796558
 30
0.0
 10
350.8999911940932
 20
293.7545665478224
 30
0.0
 10
350.8904361265704
 20
293.7245721272922
 30
0.0
 10
350.8869116807898
 20
293.7146257128817
 30
0.0
 10
350.8792718152837
 20
293.695093917693
 30
0.0
 10
350.8751664648602
 20
293.6855260230676
 30
0.0
 10
350.8532601630129
 20
293.6386359067022
 30
0.0
 10
350.8313777928903
 20
293.6041252173725
 30
0.0
 10
350.8052588646835
 20
293.5724037346242
 30
0.0
  0
SPLINE
  5
170
330
1F
100
AcDbEntity
  8
1
100
AcDbSpline
210
0.0
220
0.0
230
1.0
 70
     8
 71
     3
 72
    14
 73
    10
 74
     0
 42
0.000000001
 43
0.0000000001
 40
0.0
 40
0.0
 40
0.0
 40
0.0
 40
0.25
 40
0.25
 40
0.5
 40
0.5
 40
0.75
 40
0.75
 40
1.0
 40
1.0
 40
1.0
 40
1.0
 10
350.8052588646835
 20
293.5724037346242
 30
0.0
 10
350.8007540857406
 20
293.5669326729332
 30
0.0
 10
350.7956076679103
 20
293.5620056519966
 30
0.0
 10
350.7844901767375
 20
293.5535072345236
 30
0.0
 10
350.7785161132368
 20
293.5499097756083
 30
0.0
 10
350.7657609961556
 20
293.5439731982773
 30
0.0
 10
350.7589773590407
 20
293.5416574366322
 30
0.0
 10
350.7452128965207
 20
293.5384829984351
 30
0.0
 10
350.7381581670137
 20
293.5375852508217
 30
0.0
 10
350.7309250280409
 20
293.5373988398164
 30
0.0
  0
SPLINE
  5
171
330
1F
100
AcDbEntity
  8
1
100
AcDbSpline
210
0.0
220
0.0
230
1.0
 70
     8
 71
     3
 72
    21
 73
    17
 74
     0
 42
0.000000001
 43
0.0000000001
 40
0.0
 40
0.0
 40
0.0
 40
0.0
 40
0.3207895307646754
 40
0.3207895307646754
 40
0.4009869134558956
 40
0.4009869134558956
 40
0.4811842961471158
 40
0.4811842961471158
 40
0.6415790615295562
 40
0.8019738269119963
 40
0.8019738269119963
 40
0.882171209603266
 40
0.882171209603266
 40
0.9623685922945359
 40
0.9623685922945359
 40
1.0
 40
1.0
 40
1.0
 40
1.0
 10
351.8492704515465
 20
294.890148284542
 30
0.0
 10
351.8898273868718
 20
294.903477720235
 30
0.0
 10
351.9312999268743
 20
294.9118599471628
 30
0.0
 10
351.9842726494719
 20
294.9161678382027
 30
0.0
 10
351.9949471774569
 20
294.9167160404619
 30
0.0
 10
352.0161715819627
 20
294.9171728578258
 30
0.0
 10
352.0267465971153
 20
294.9170848546435
 30
0.0
 10
352.0583619805333
 20
294.9158890757212
 30
0.0
 10
352.1002240660619
 20
294.9118160402795
 30
0.0
 10
352.141506036688
 20
294.9028200986514
 30
0.0
 10
352.1722429159727
 20
294.8941650309217
 30
0.0
 10
352.1824302822621
 20
294.8909644974822
 30
0.0
 10
352.2024637858153
 20
294.8840118267148
 30
0.0
 10
352.2123423444422
 20
294.8802509445845
 30
0.0
 10
352.2266569328887
 20
294.874314666473
 30
0.0
 10
352.231199126548
 20
294.8723579972088
 30
0.0
 10
352.2357117252549
 20
294.8703403441147
 30
0.0
  0
SPLINE
  5
172
330
1F
100
AcDbEntity
  8
1
100
AcDbSpline
210
0.0
220
0.0
230
1.0
 70
     8
 71
     3
 72
    10
 73
     6
 74
     0
 42
0.000000001
 43
0.0000000001
 40
0.0
 40
0.0
 40
0.0
 40
0.0
 40
0.0710657705208871
 40
0.0710657705208871
 40
1.0
 40
1.0
 40
1.0
 40
1.0
 10
350.6367237251893
 20
293.3250304736688
 30
0.0
 10
350.6363151854048
 20
293.3281489432307
 30
0.0
 10
350.6359357952633
 20
293.3312678691245
 30
0.0
 10
350.6310051246174
 20
293.3751620748046
 30
0.0
 10
350.6313167743265
 20
293.4160136918564
 30
0.0
 10
350.6366556727153
 20
293.4569283469575
 30
0.0
  0
SPLINE
  5
173
330
1F
100
AcDbEntity
  8
1
100
AcDbSpline
210
0.0
220
0.0
230
1.0
 70
     8
 71
     3
 72
    21
 73
    17
 74
     0
 42
0.000000001
 43
0.0000000001
 40
0.0
 40
0.0
 40
0.0
 40
0.0
 40
0.2615706539560383
 40
0.2615706539560383
 40
0.3269633174450117
 40
0.3269633174450117
 40
0.3923559809339849
 40
0.3923559809339849
 40
0.5231413079120032
 40
0.653926634890021
 40
0.653926634890021
 40
0.7193192983790299
 40
0.7193192983790299
 40
0.7847119618680387
 40
0.7847119618680387
 40
1.0
 40
1.0
 40
1.0
 40
1.0
 10
352.7429375682083
 20
294.2970130905019
 30
0.0
 10
352.703087126044
 20
294.3040631813516
 30
0.0
 10
352.6645866248398
 20
294.3159746283735
 30
0.0
 10
352.6180601880073
 20
294.3372003000224
 30
0.0
 10
352.6088360494522
 20
294.3417662650226
 30
0.0
 10
352.590552982294
 20
294.3515632909432
 30
0.0
 10
352.5814734119911
 20
294.3568098497382
 30
0.0
 10
352.5548893026657
 20
294.3733304087933
 30
0.0
 10
352.5209355286975
 20
294.3975541998838
 30
0.0
 10
352.4898929805788
 20
294.426081464957
 30
0.0
 10
352.467723894647
 20
294.4491154449606
 30
0.0
 10
352.4604953167113
 20
294.4570970322475
 30
0.0
 10
352.4465508587689
 20
294.4734627455711
 30
0.0
 10
352.4398464537811
 20
294.4818289887027
 30
0.0
 10
352.4121816048352
 20
294.5184986843724
 30
0.0
 10
352.3937335761103
 20
294.5485192507155
 30
0.0
 10
352.3780021956487
 20
294.5803786922263
 30
0.0
  0
SPLINE
  5
174
330
1F
100
AcDbEntity
  8
1
100
AcDbSpline
210
0.0
220
0.0
230
1.0
 70
     8
 71
     3
 72
    14
 73
    10
 74
     0
 42
0.000000001
 43
0.0000000001
 40
0.0
 40
0.0
 40
0.0
 40
0.0
 40
0.25
 40
0.25
 40
0.5
 40
0.5
 40
0.75
 40
0.75
 40
1.0
 40
1.0
 40
1.0
 40
1.0
 10
352.8206777698859
 20
294.3188774128417
 30
0.0
 10
352.8151933632541
 20
294.3143094050045
 30
0.0
 10
352.8092919819962
 20
294.3103354373176
 30
0.0
 10
352.796935399236
 20
294.3037499181588
 30
0.0
 10
352.7905289841937
 20
294.3011514557578
 30
0.0
 10
352.7772512578894
 20
294.2973595000356
 30
0.0
 10
352.7703458194686
 20
294.2961816644346
 30
0.0
 10
352.756659812787
 20
294.2954160374429
 30
0.0
 10
352.7498061186598
 20
294.2957979495383
 30
0.0
 10
352.7429375682083
 20
294.2970130905019
 30
0.0
  0
SPLINE
  5
176
330
1F
100
AcDbEntity
  8
1
100
AcDbSpline
210
0.0
220
0.0
230
1.0
 70
     8
 71
     3
 72
     8
 73
     4
 74
     0
 42
0.000000001
 43
0.0000000001
 40
0.0
 40
0.0
 40
0.0
 40
0.0
 40
1.0
 40
1.0
 40
1.0
 40
1.0
 10
347.3076822573535
 20
298.2515355759215
 30
0.0
 10
347.2926480879377
 20
298.2556334811118
 30
0.0
 10
347.2771458086194
 20
298.2590984679702
 30
0.0
 10
347.2622123013072
 20
298.2617225985189
 30
0.0
  0
SPLINE
  5
177
330
1F
100
AcDbEntity
  8
1
100
AcDbSpline
210
0.0
220
0.0
230
1.0
 70
    24
 71
     3
 72
     8
 73
     4
 74
     0
 42
0.000000001
 43
0.0000000001
 40
0.0
 40
0.0
 40
0.0
 40
0.0
 40
1.0
 40
1.0
 40
1.0
 40
1.0
 10
347.1390326769824
 20
298.3399378266481
 30
0.0
 10
347.139513441437
 20
298.3602123472376
 30
0.0
 10
347.1399942058918
 20
298.3804868678272
 30
0.0
 10
347.1404749703465
 20
298.4007613884168
 30
0.0
  0
SPLINE
  5
178
330
1F
100
AcDbEntity
  8
1
100
AcDbSpline
210
0.0
220
0.0
230
1.0
 70
    24
 71
     1
 72
     4
 73
     2
 74
     0
 42
0.000000001
 43
0.0000000001
 40
0.0
 40
0.0
 40
1.0
 40
1.0
 10
347.5431021828473
 20
298.7847053267437
 30
0.0
 10
347.6227620585566
 20
298.7849479420983
 30
0.0
  0
SPLINE
  5
179
330
1F
100
AcDbEntity
  8
1
100
AcDbSpline
210
0.0
220
0.0
230
1.0
 70
    12
 71
     4
 72
    14
 73
     9
 74
     0
 42
0.000000001
 43
0.0000000001
 40
0.0
 40
0.0
 40
0.0
 40
0.0
 40
0.0
 40
0.5
 40
0.5
 40
0.5
 40
0.5
 40
1.0
 40
1.0
 40
1.0
 40
1.0
 40
1.0
 10
347.1405868962613
 20
298.4007758822943
 30
0.0
 41
0.2699606567766349
 10
347.1426343783893
 20
298.480196867541
 30
0.0
 41
0.2496167667754463
 10
347.1656042863709
 20
298.5508833780962
 30
0.0
 41
0.2438574253738599
 10
347.2033831570497
 20
298.6154811251902
 30
0.0
 41
0.2496167667754464
 10
347.2621846292548
 20
298.6715674834202
 30
0.0
 41
0.2699606567766349
 10
347.3209861014598
 20
298.7276538416501
 30
0.0
 41
0.2496167667754461
 10
347.3881606209421
 20
298.7631633404682
 30
0.0
 41
0.2438574253738603
 10
347.4613291643184
 20
298.7841761602244
 30
0.0
 41
0.2496167667754461
 10
347.5431021828473
 20
298.7847053267437
 30
0.0
 41
0.2699606567766349
  0
SPLINE
  5
17A
330
1F
100
AcDbEntity
  8
1
100
AcDbSpline
210
0.0
220
0.0
230
1.0
 70
     8
 71
     3
 72
     8
 73
     4
 74
     0
 42
0.000000001
 43
0.0000000001
 40
0.0
 40
0.0
 40
0.0
 40
0.0
 40
1.0
 40
1.0
 40
1.0
 40
1.0
 10
347.6830539791303
 20
298.625991669562
 30
0.0
 10
347.6792512573394
 20
298.6408732871739
 30
0.0
 10
347.6752743810883
 20
298.6557889979421
 30
0.0
 10
347.6715327623539
 20
298.669203257322
 30
0.0
  0
SPLINE
  5
17B
330
1F
100
AcDbEntity
  8
1
100
AcDbSpline
210
0.0
220
0.0
230
1.0
 70
     8
 71
     3
 72
    12
 73
     8
 74
     0
 42
0.000000001
 43
0.0000000001
 40
0.0
 40
0.0
 40
0.0
 40
0.0
 40
0.250000000000406
 40
0.250000000000406
 40
0.5000000000008119
 40
0.5000000000008119
 40
1.0
 40
1.0
 40
1.0
 40
1.0
 10
347.3076822573536
 20
298.2515355759215
 30
0.0
 10
347.3068315113392
 20
298.2505191452448
 30
0.0
 10
347.3059865289471
 20
298.249497761556
 30
0.0
 10
347.3043081683278
 20
298.247445128956
 30
0.0
 10
347.3035064409986
 20
298.2464084108138
 30
0.0
 10
347.3008816234159
 20
298.2433230652755
 30
0.0
 10
347.2991321283515
 20
298.2412513028681
 30
0.0
 10
347.2974197415457
 20
298.2391562699961
 30
0.0
  0
SPLINE
  5
17C
330
1F
100
AcDbEntity
  8
1
100
AcDbSpline
210
0.0
220
0.0
230
1.0
 70
     8
 71
     3
 72
     8
 73
     4
 74
     0
 42
0.000000001
 43
0.0000000001
 40
0.0
 40
0.0
 40
0.0
 40
0.0
 40
1.0
 40
1.0
 40
1.0
 40
1.0
 10
347.2974197415457
 20
298.2391562699961
 30
0.0
 10
347.2856044809012
 20
298.2469774042933
 30
0.0
 10
347.2734861418069
 20
298.2546423554427
 30
0.0
 10
347.2622123013072
 20
298.261722598519
 30
0.0
  0
SPLINE
  5
17D
330
1F
100
AcDbEntity
  8
1
100
AcDbSpline
210
0.0
220
0.0
230
1.0
 70
    24
 71
     1
 72
     4
 73
     2
 74
     0
 42
0.000000001
 43
0.0000000001
 40
0.0
 40
0.0
 40
1.0
 40
1.0
 10
347.6227620585566
 20
298.7849479420983
 30
0.0
 10
348.8420893814382
 20
298.7886615749444
 30
0.0
  0
SPLINE
  5
17E
330
1F
100
AcDbEntity
  8
1
100
AcDbSpline
210
0.0
220
0.0
230
1.0
 70
     8
 71
     3
 72
     8
 73
     4
 74
     0
 42
0.000000001
 43
0.0000000001
 40
0.0
 40
0.0
 40
0.0
 40
0.0
 40
1.0
 40
1.0
 40
1.0
 40
1.0
 10
348.8468983453827
 20
298.6790934655415
 30
0.0
 10
348.845982136441
 20
298.69672607743
 30
0.0
 10
348.8451534429641
 20
298.7145853812132
 30
0.0
 10
348.8441638426648
 20
298.7303183225299
 30
0.0
  0
SPLINE
  5
17F
330
1F
100
AcDbEntity
  8
1
100
AcDbSpline
210
0.0
220
0.0
230
1.0
 70
     8
 71
     3
 72
    38
 73
    34
 74
     0
 42
0.000000001
 43
0.0000000001
 40
0.0
 40
0.0
 40
0.0
 40
0.0
 40
0.0850001462385835
 40
0.0850001462385835
 40
0.1706794679585735
 40
0.1706794679585735
 40
0.3437912571719581
 40
0.3437912571719581
 40
0.3985149397818061
 40
0.3985149397818061
 40
0.45318773998274
 40
0.45318773998274
 40
0.5078351439510412
 40
0.5078351439510412
 40
0.5690100894646103
 40
0.5690100894646103
 40
0.6303577583326728
 40
0.6303577583326728
 40
0.7223946797949129
 40
0.7223946797949129
 40
0.7918101315768677
 40
0.7918101315768677
 40
0.8442132610039379
 40
0.8442132610039379
 40
0.8837614712372889
 40
0.8837614712372889
 40
0.9135947444491804
 40
0.9135947444491804
 40
0.9360964727402048
 40
0.9360964727402048
 40
0.953076531142244
 40
0.953076531142244
 40
1.0
 40
1.0
 40
1.0
 40
1.0
 10
348.842089381438
 20
298.7886615749444
 30
0.0
 10
349.0484100474559
 20
298.7911995881684
 30
0.0
 10
349.2547286808157
 20
298.7936420248344
 30
0.0
 10
349.6690244597244
 20
298.798333992349
 30
0.0
 10
349.8770010896513
 20
298.8005820923314
 30
0.0
 10
350.505203499135
 20
298.8070407490624
 30
0.0
 10
350.9254450648007
 20
298.8109165025467
 30
0.0
 10
351.4785646149012
 20
298.8154225187857
 30
0.0
 10
351.6114206326258
 20
298.81645923839
 30
0.0
 10
351.8770154423772
 20
298.8184395336603
 30
0.0
 10
352.0097542795835
 20
298.8193831985261
 30
0.0
 10
352.2751775573659
 20
298.8211745477462
 30
0.0
 10
352.4078618650893
 20
298.8220223230877
 30
0.0
 10
352.6890903287897
 20
298.8237155098461
 30
0.0
 10
352.8376345019738
 20
298.824548230921
 30
0.0
 10
353.1351567882199
 20
298.8260887681651
 30
0.0
 10
353.2841342800978
 20
298.82679596982
 30
0.0
 10
353.6566363550083
 20
298.8284000905347
 30
0.0
 10
353.8801693032514
 20
298.8292143779485
 30
0.0
 10
354.2723297735776
 20
298.8303757629682
 30
0.0
 10
354.4409476123899
 20
298.8307888382228
 30
0.0
 10
354.7368803741922
 20
298.8313569833183
 30
0.0
 10
354.8641896222555
 20
298.8315507834512
 30
0.0
 10
355.0875928817268
 20
298.8317971771007
 30
0.0
 10
355.1836826745608
 20
298.8318726061233
 30
0.0
 10
355.3522695519673
 20
298.8319473651809
 30
0.0
 10
355.4247634604612
 20
298.831960734452
 30
0.0
 10
355.5519444486952
 20
298.8319464986194
 30
0.0
 10
355.6066293650479
 20
298.8319282797257
 30
0.0
 10
355.7025873546124
 20
298.8318700032653
 30
0.0
 10
355.7438590026258
 20
298.8318370718197
 30
0.0
 10
355.8991953185022
 20
298.831668690709
 30
0.0
 10
356.0132566089043
 20
298.8315450508077
 30
0.0
 10
356.1273178993067
 20
298.8314214109064
 30
0.0
  0
SPLINE
  5
180
330
1F
100
AcDbEntity
  8
1
100
AcDbSpline
210
0.0
220
0.0
230
1.0
 70
    24
 71
     3
 72
     8
 73
     4
 74
     0
 42
0.000000001
 43
0.0000000001
 40
0.0
 40
0.0
 40
0.0
 40
0.0
 40
1.0
 40
1.0
 40
1.0
 40
1.0
 10
348.8420893814382
 20
298.7886615749445
 30
0.0
 10
348.8427807308886
 20
298.7692174801704
 30
0.0
 10
348.8434720803392
 20
298.7497733853963
 30
0.0
 10
348.8441634297897
 20
298.7303292906223
 30
0.0
  0
SPLINE
  5
181
330
1F
100
AcDbEntity
  8
1
100
AcDbSpline
210
0.0
220
0.0
230
1.0
 70
     8
 71
     3
 72
     8
 73
     4
 74
     0
 42
0.000000001
 43
0.0000000001
 40
0.0
 40
0.0
 40
0.0
 40
0.0
 40
1.0
 40
1.0
 40
1.0
 40
1.0
 10
356.0296971285395
 20
298.6648966586828
 30
0.0
 10
356.032508033732
 20
298.6803197614719
 30
0.0
 10
356.0358289398684
 20
298.6958201650979
 30
0.0
 10
356.0394244897701
 20
298.7103737341291
 30
0.0
  0
SPLINE
  5
182
330
1F
100
AcDbEntity
  8
1
100
AcDbSpline
210
0.0
220
0.0
230
1.0
 70
     8
 71
     3
 72
     8
 73
     4
 74
     0
 42
0.000000001
 43
0.0000000001
 40
0.0
 40
0.0
 40
0.0
 40
0.0
 40
1.0
 40
1.0
 40
1.0
 40
1.0
 10
356.016864032576
 20
298.6748771580084
 30
0.0
 10
356.023768103014
 20
298.687092782124
 30
0.0
 10
356.0314461130204
 20
298.6993030773605
 30
0.0
 10
356.0394244897702
 20
298.7103737341291
 30
0.0
  0
SPLINE
  5
183
330
1F
100
AcDbEntity
  8
1
100
AcDbSpline
210
0.0
220
0.0
230
1.0
 70
    24
 71
     1
 72
     4
 73
     2
 74
     0
 42
0.000000001
 43
0.0000000001
 40
0.0
 40
0.0
 40
1.0
 40
1.0
 10
356.5806695755048
 20
298.4404077942183
 30
0.0
 10
356.5806054179939
 20
298.3615872134326
 30
0.0
  0
SPLINE
  5
184
330
1F
100
AcDbEntity
  8
1
100
AcDbSpline
210
0.0
220
0.0
230
1.0
 70
     8
 71
     3
 72
    18
 73
    14
 74
     0
 42
0.000000001
 43
0.0000000001
 40
0.0
 40
0.0
 40
0.0
 40
0.0
 40
0.1451206634590821
 40
0.1451206634590821
 40
0.4704377060332286
 40
0.4704377060332286
 40
0.7957547486073753
 40
0.7957547486073753
 40
0.9584132698944484
 40
0.9584132698944484
 40
0.9990779002162167
 40
0.9990779002162167
 40
1.0
 40
1.0
 40
1.0
 40
1.0
 10
348.8652100303669
 20
298.7072234776617
 30
0.0
 10
349.1987544717438
 20
298.7127440054888
 30
0.0
 10
349.5322977302668
 20
298.7180238477318
 30
0.0
 10
350.6135548120309
 20
298.733753051612
 30
0.0
 10
351.3612760488296
 20
298.7424608127256
 30
0.0
 10
352.8568215920388
 20
298.7545094844639
 30
0.0
 10
353.6046631737333
 20
298.7575947517191
 30
0.0
 10
354.7265776914429
 20
298.7557808013091
 30
0.0
 10
355.1005691175721
 20
298.7544628608782
 30
0.0
 10
355.568107247642
 20
298.7504287891728
 30
0.0
 10
355.6616200062217
 20
298.7494609413331
 30
0.0
 10
355.7572504032476
 20
298.7482633071719
 30
0.0
 10
355.7593708229776
 20
298.7482372072337
 30
0.0
 10
355.7614912451058
 20
298.7482111758642
 30
0.0
  0
SPLINE
  5
185
330
1F
100
AcDbEntity
  8
1
100
AcDbSpline
210
0.0
220
0.0
230
1.0
 70
     8
 71
     3
 72
     8
 73
     4
 74
     0
 42
0.000000001
 43
0.0000000001
 40
0.0
 40
0.0
 40
0.0
 40
0.0
 40
1.0
 40
1.0
 40
1.0
 40
1.0
 10
348.845485377582
 20
298.7068967338225
 30
0.0
 10
348.8520602623247
 20
298.7070057410037
 30
0.0
 10
348.8586351465756
 20
298.7071146560942
 30
0.0
 10
348.8652100303669
 20
298.7072234776617
 30
0.0
  0
SPLINE
  5
186
330
1F
100
AcDbEntity
  8
1
100
AcDbSpline
210
0.0
220
0.0
230
1.0
 70
     8
 71
     3
 72
    12
 73
     8
 74
     0
 42
0.000000001
 43
0.0000000001
 40
0.0
 40
0.0
 40
0.0
 40
0.0
 40
0.254600715269836
 40
0.254600715269836
 40
0.7428838669108615
 40
0.7428838669108615
 40
1.0
 40
1.0
 40
1.0
 40
1.0
 10
347.6862552023192
 20
298.6514582286009
 30
0.0
 10
347.7060638631801
 20
298.6576705640433
 30
0.0
 10
347.7260499122692
 20
298.663269872501
 30
0.0
 10
347.7847361973337
 20
298.678406529954
 30
0.0
 10
347.8238913684188
 20
298.6866698576173
 30
0.0
 10
347.8840107034429
 20
298.6966707232166
 30
0.0
 10
347.9048417043586
 20
298.6995994647093
 30
0.0
 10
347.9257321651119
 20
298.7020941251689
 30
0.0
  0
SPLINE
  5
187
330
1F
100
AcDbEntity
  8
1
100
AcDbSpline
210
0.0
220
0.0
230
1.0
 70
     8
 71
     3
 72
    12
 73
     8
 74
     0
 42
0.000000001
 43
0.0000000001
 40
0.0
 40
0.0
 40
0.0
 40
0.0
 40
0.2518723846689276
 40
0.2518723846689276
 40
0.7405923187278832
 40
0.7405923187278832
 40
1.0
 40
1.0
 40
1.0
 40
1.0
 10
356.4340395720831
 20
298.298662000629
 30
0.0
 10
356.4404746417549
 20
298.2793264008929
 30
0.0
 10
356.4463261168766
 20
298.2597992219419
 30
0.0
 10
356.4622581635216
 20
298.2020185513324
 30
0.0
 10
356.4710242047937
 20
298.1632864919085
 30
0.0
 10
356.48169347652
 20
298.1036221800495
 30
0.0
 10
356.4848439434304
 20
298.0828317628258
 30
0.0
 10
356.4875230147618
 20
298.0619798010708
 30
0.0
  0
SPLINE
  5
188
330
1F
100
AcDbEntity
  8
1
100
AcDbSpline
210
0.0
220
0.0
230
1.0
 70
    24
 71
     1
 72
     4
 73
     2
 74
     0
 42
0.000000001
 43
0.0000000001
 40
0.0
 40
0.0
 40
1.0
 40
1.0
 10
355.9553318783093
 20
289.5399458787722
 30
0.0
 10
355.5800255260749
 20
289.5298917028443
 30
0.0
  0
SPLINE
  5
189
330
1F
100
AcDbEntity
  8
1
100
AcDbSpline
210
0.0
220
0.0
230
1.0
 70
     8
 71
     3
 72
     8
 73
     4
 74
     0
 42
0.000000001
 43
0.0000000001
 40
0.0
 40
0.0
 40
0.0
 40
0.0
 40
1.0
 40
1.0
 40
1.0
 40
1.0
 10
356.2704704505252
 20
290.1064276007523
 30
0.0
 10
356.2814274277837
 20
290.1003263254496
 30
0.0
 10
356.2932883550893
 20
290.0931643120999
 30
0.0
 10
356.3048963654002
 20
290.0853871801393
 30
0.0
  0
SPLINE
  5
18A
330
1F
100
AcDbEntity
  8
1
100
AcDbSpline
210
0.0
220
0.0
230
1.0
 70
     8
 71
     3
 72
     8
 73
     4
 74
     0
 42
0.000000001
 43
0.0000000001
 40
0.0
 40
0.0
 40
0.0
 40
0.0
 40
1.0
 40
1.0
 40
1.0
 40
1.0
 10
356.260479585207
 20
290.0934443224553
 30
0.0
 10
356.2744200801593
 20
290.0915581995299
 30
0.0
 10
356.2895715929571
 20
290.0888025820454
 30
0.0
 10
356.3048963654002
 20
290.0853871801393
 30
0.0
  0
SPLINE
  5
18B
330
1F
100
AcDbEntity
  8
1
100
AcDbSpline
210
0.0
220
0.0
230
1.0
 70
    24
 71
     3
 72
     8
 73
     4
 74
     0
 42
0.000000001
 43
0.0000000001
 40
0.0
 40
0.0
 40
0.0
 40
0.0
 40
1.0
 40
1.0
 40
1.0
 40
1.0
 10
356.5796233802311
 20
297.1551066998552
 30
0.0
 10
356.5580556568781
 20
297.1545784973327
 30
0.0
 10
356.5364879335252
 20
297.1540502948102
 30
0.0
 10
356.5149202101721
 20
297.1535220922878
 30
0.0
  0
SPLINE
  5
18C
330
1F
100
AcDbEntity
  8
1
100
AcDbSpline
210
0.0
220
0.0
230
1.0
 70
     8
 71
     3
 72
    12
 73
     8
 74
     0
 42
0.000000001
 43
0.0000000001
 40
0.0
 40
0.0
 40
0.0
 40
0.0
 40
0.2500000000003972
 40
0.2500000000003972
 40
0.5000000000007944
 40
0.5000000000007944
 40
1.0
 40
1.0
 40
1.0
 40
1.0
 10
356.260479585207
 20
290.0934443224553
 30
0.0
 10
356.2612978974363
 20
290.094530835463
 30
0.0
 10
356.2621106231395
 20
290.0956219192125
 30
0.0
 10
356.2637248254095
 20
290.0978131849365
 30
0.0
 10
356.2644841017418
 20
290.0989396607924
 30
0.0
 10
356.2670622065683
 20
290.1021367998964
 30
0.0
 10
356.2687856782805
 20
290.1042678379881
 30
0.0
 10
356.2704704505243
 20
290.1064276007515
 30
0.0
  0
SPLINE
  5
18D
330
1F
100
AcDbEntity
  8
1
100
AcDbSpline
210
0.0
220
0.0
230
1.0
 70
    24
 71
     3
 72
    18
 73
    14
 74
     0
 42
0.000000001
 43
0.0000000001
 40
0.0
 40
0.0
 40
0.0
 40
0.0
 40
0.313487007755944
 40
0.313487007755944
 40
0.4095898812204438
 40
0.4095898812204438
 40
0.536944021912044
 40
0.536944021912044
 40
0.7057928687552281
 40
0.7057928687552281
 40
0.9296258234962275
 40
0.9296258234962275
 40
1.0
 40
1.0
 40
1.0
 40
1.0
 10
356.4611963338823
 20
289.992440922494
 30
0.0
 10
356.4612075126428
 20
290.122922783288
 30
0.0
 10
356.4612186914033
 20
290.253404644082
 30
0.0
 10
356.4612332971353
 20
290.4238871474771
 30
0.0
 10
356.4612367241067
 20
290.463887790078
 30
0.0
 10
356.4612446924511
 20
290.5568967068535
 30
0.0
 10
356.4612492338242
 20
290.609904981028
 30
0.0
 10
356.4612597962467
 20
290.7331927602025
 30
0.0
 10
356.4612658172964
 20
290.8034722652026
 30
0.0
 10
356.4612798200963
 20
290.9669171637247
 30
0.0
 10
356.4612878018465
 20
291.0600825572467
 30
0.0
 10
356.4612982930981
 20
291.1825396064829
 30
0.0
 10
356.4613008025994
 20
291.2118312621971
 30
0.0
 10
356.4613033121008
 20
291.2411229179113
 30
0.0
  0
SPLINE
  5
18E
330
1F
100
AcDbEntity
  8
1
100
AcDbSpline
210
0.0
220
0.0
230
1.0
 70
     8
 71
     3
 72
    38
 73
    34
 74
     0
 42
0.000000001
 43
0.0000000001
 40
0.0
 40
0.0
 40
0.0
 40
0.0
 40
0.0850001462385838
 40
0.0850001462385838
 40
0.1706794679585739
 40
0.1706794679585739
 40
0.3437912571719589
 40
0.3437912571719589
 40
0.398514939781807
 40
0.398514939781807
 40
0.453187739982741
 40
0.453187739982741
 40
0.5078351439510423
 40
0.5078351439510423
 40
0.5690100894646114
 40
0.5690100894646114
 40
0.630357758332674
 40
0.630357758332674
 40
0.7223946797949146
 40
0.7223946797949146
 40
0.7918101315768694
 40
0.7918101315768694
 40
0.8442132610039397
 40
0.8442132610039397
 40
0.8837614712372909
 40
0.8837614712372909
 40
0.9135947444491822
 40
0.9135947444491822
 40
0.9360964727402068
 40
0.9360964727402068
 40
0.9530765311422461
 40
0.9530765311422461
 40
1.0
 40
1.0
 40
1.0
 40
1.0
 10
356.5796233802311
 20
297.1551066998552
 30
0.0
 10
356.5764783452757
 20
296.9525912462768
 30
0.0
 10
356.5732347831201
 20
296.7500761579884
 30
0.0
 10
356.5665379110722
 20
296.3434029319907
 30
0.0
 10
356.5630823235932
 20
296.1392455397696
 30
0.0
 10
356.5523634290689
 20
295.5225538939551
 30
0.0
 10
356.5448120217239
 20
295.1099797955937
 30
0.0
 10
356.5343774876997
 20
294.5669036687416
 30
0.0
 10
356.531833444811
 20
294.4364562377388
 30
0.0
 10
356.5266738460239
 20
294.1756679973937
 30
0.0
 10
356.5240589482578
 20
294.0453269618989
 30
0.0
 10
356.5187560441187
 20
293.7846887839125
 30
0.0
 10
356.5160686474897
 20
293.654391607921
 30
0.0
 10
356.5102977532656
 20
293.3782106071365
 30
0.0
 10
356.5072049356181
 20
293.2323253308999
 30
0.0
 10
356.5009235578615
 20
292.9401120120699
 30
0.0
 10
356.4977342700128
 20
292.7937846047928
 30
0.0
 10
356.4896537615572
 20
292.4278855318679
 30
0.0
 10
356.4847077945501
 20
292.2082943189862
 30
0.0
 10
356.4758669780737
 20
291.8230084333922
 30
0.0
 10
356.4720127463441
 20
291.6573333445323
 30
0.0
 10
356.4651554305592
 20
291.3665403490266
 30
0.0
 10
356.4621758329819
 20
291.2414340445924
 30
0.0
 10
356.4568967426854
 20
291.0218800134568
 30
0.0
 10
356.4546086816461
 20
290.9274407726377
 30
0.0
 10
356.4505702745546
 20
290.7617373481132
 30
0.0
 10
356.448825437339
 20
290.6904794495447
 30
0.0
 10
356.4457515291443
 20
290.5654578165251
 30
0.0
 10
356.4444260302415
 20
290.5116983595676
 30
0.0
 10
356.4420949246861
 20
290.4173567764569
 30
0.0
 10
356.4410923286676
 20
290.3767775860587
 30
0.0
 10
356.4373123841246
 20
290.2240340179751
 30
0.0
 10
356.4345368235627
 20
290.1118765461183
 30
0.0
 10
356.4317612630006
 20
289.9997190742615
 30
0.0
  0
SPLINE
  5
18F
330
1F
100
AcDbEntity
  8
1
100
AcDbSpline
210
0.0
220
0.0
230
1.0
 70
     8
 71
     3
 72
     8
 73
     4
 74
     0
 42
0.000000001
 43
0.0000000001
 40
0.0
 40
0.0
 40
0.0
 40
0.0
 40
1.0
 40
1.0
 40
1.0
 40
1.0
 10
355.8897778232676
 20
289.7095439794591
 30
0.0
 10
355.8927970484043
 20
289.6962468589366
 30
0.0
 10
355.8967014021982
 20
289.6814778132778
 30
0.0
 10
355.9010889387236
 20
289.6667572881282
 30
0.0
  0
SPLINE
  5
190
330
1F
100
AcDbEntity
  8
1
100
AcDbSpline
210
0.0
220
0.0
230
1.0
 70
     8
 71
     3
 72
    14
 73
    10
 74
     0
 42
0.000000001
 43
0.0000000001
 40
0.0
 40
0.0
 40
0.0
 40
0.0
 40
0.1833265977034572
 40
0.3666531954069145
 40
0.5499797931103717
 40
0.6416430919621003
 40
0.7333063908138292
 40
0.916632988517286
 40
1.0
 40
1.0
 40
1.0
 40
1.0
 10
356.4611963338823
 20
289.992440922494
 30
0.0
 10
356.4611952782705
 20
289.980119504301
 30
0.0
 10
356.4599835188253
 20
289.9552107383114
 30
0.0
 10
356.4544269877491
 20
289.9175848341295
 30
0.0
 10
356.4465891792257
 20
289.8864568126583
 30
0.0
 10
356.4384499364073
 20
289.8619724671931
 30
0.0
 10
356.4290831707811
 20
289.8378608137036
 30
0.0
 10
356.4181558110183
 20
289.8149789014471
 30
0.0
 10
356.4088742664399
 20
289.7986287381923
 30
0.0
 10
356.4058663833626
 20
289.7935923185853
 30
0.0
  0
SPLINE
  5
191
330
1F
100
AcDbEntity
  8
1
100
AcDbSpline
210
0.0
220
0.0
230
1.0
 70
    24
 71
     1
 72
     4
 73
     2
 74
     0
 42
0.000000001
 43
0.0000000001
 40
0.0
 40
0.0
 40
1.0
 40
1.0
 10
356.430259060781
 20
289.939016668603
 30
0.0
 10
356.4611963338823
 20
289.992440922494
 30
0.0
  0
SPLINE
  5
192
330
1F
100
AcDbEntity
  8
1
100
AcDbSpline
210
0.0
220
0.0
230
1.0
 70
    24
 71
     1
 72
     4
 73
     2
 74
     0
 42
0.000000001
 43
0.0000000001
 40
0.0
 40
0.0
 40
1.0
 40
1.0
 10
356.0340687217257
 20
289.5420551798032
 30
0.0
 10
355.9553318783093
 20
289.5399458787722
 30
0.0
  0
SPLINE
  5
193
330
1F
100
AcDbEntity
  8
1
100
AcDbSpline
210
0.0
220
0.0
230
1.0
 70
    12
 71
     4
 72
    14
 73
     9
 74
     0
 42
0.000000001
 43
0.0000000001
 40
0.0
 40
0.0
 40
0.0
 40
0.0
 40
0.0
 40
0.5
 40
0.5
 40
0.5
 40
0.5
 40
1.0
 40
1.0
 40
1.0
 40
1.0
 40
1.0
 10
356.4301322247293
 20
289.9390323281006
 30
0.0
 41
0.2699606567766349
 10
356.4287540652562
 20
289.8582577444777
 30
0.0
 41
0.2496167667754463
 10
356.4065531048042
 20
289.7860161601185
 30
0.0
 41
0.2438574253738599
 10
356.3696144649214
 20
289.7197191801764
 30
0.0
 41
0.2496167667754464
 10
356.3117555019468
 20
289.6617267472686
 30
0.0
 41
0.2699606567766349
 10
356.2538965389722
 20
289.603734314361
 30
0.0
 41
0.2496167667754461
 10
356.1875640516591
 20
289.5665219397052
 30
0.0
 41
0.2438574253738603
 10
356.1151675319977
 20
289.5439478250498
 30
0.0
 41
0.2496167667754461
 10
356.0340687217257
 20
289.5420551798032
 30
0.0
 41
0.2699606567766349
  0
SPLINE
  5
194
330
1F
100
AcDbEntity
  8
1
100
AcDbSpline
210
0.0
220
0.0
230
1.0
 70
    24
 71
     3
 72
     8
 73
     4
 74
     0
 42
0.000000001
 43
0.0000000001
 40
0.0
 40
0.0
 40
0.0
 40
0.0
 40
1.0
 40
1.0
 40
1.0
 40
1.0
 10
356.4317612630006
 20
289.9997190742615
 30
0.0
 10
356.4312605289274
 20
289.9794849390421
 30
0.0
 10
356.4307597948542
 20
289.9592508038225
 30
0.0
 10
356.430259060781
 20
289.939016668603
 30
0.0
  0
SPLINE
  5
195
330
1F
100
AcDbEntity
  8
1
100
AcDbSpline
210
0.0
220
0.0
230
1.0
 70
     8
 71
     3
 72
    38
 73
    34
 74
     0
 42
0.000000001
 43
0.0000000001
 40
0.0
 40
0.0
 40
0.0
 40
0.0
 40
0.0520438434246212
 40
0.0520438434246212
 40
0.1408091477924677
 40
0.1408091477924677
 40
0.3201560467957947
 40
0.3201560467957947
 40
0.3768507573219549
 40
0.3768507573219549
 40
0.4334927527656009
 40
0.4334927527656009
 40
0.4901084372596017
 40
0.4901084372596017
 40
0.5534867711351305
 40
0.5534867711351305
 40
0.61704404948437
 40
0.61704404948437
 40
0.7123959404969393
 40
0.7123959404969393
 40
0.7843115857373847
 40
0.7843115857373847
 40
0.838602161806876
 40
0.838602161806876
 40
0.8795748124779414
 40
0.8795748124779414
 40
0.9104826152450684
 40
0.9104826152450684
 40
0.9337948068037624
 40
0.9337948068037624
 40
0.951386449944527
 40
0.951386449944527
 40
1.0
 40
1.0
 40
1.0
 40
1.0
 10
347.0155179885928
 20
291.391705998727
 30
0.0
 10
347.0169477560426
 20
291.5123547029633
 30
0.0
 10
347.0184122538311
 20
291.6330024451405
 30
0.0
 10
347.0224710041193
 20
291.9594170851203
 30
0.0
 10
347.0251333910488
 20
292.1651785990126
 30
0.0
 10
347.0334929779276
 20
292.7866415684541
 30
0.0
 10
347.039512536795
 20
293.202313586177
 30
0.0
 10
347.048002274381
 20
293.7493227538151
 30
0.0
 10
347.050084803898
 20
293.8807035220443
 30
0.0
 10
347.0543348012185
 20
294.1433312863603
 30
0.0
 10
347.0565019801701
 20
294.2745777617887
 30
0.0
 10
347.0609245968094
 20
294.5369961809211
 30
0.0
 10
347.0631797589013
 20
294.6681674823635
 30
0.0
 10
347.0680543895964
 20
294.9461610332669
 30
0.0
 10
347.0706855081165
 20
295.092980022391
 30
0.0
 10
347.0760699403424
 20
295.387007270579
 30
0.0
 10
347.0788239062335
 20
295.534215047123
 30
0.0
 10
347.0858555103368
 20
295.9022353618998
 30
0.0
 10
347.0902070412731
 20
296.1230287269783
 30
0.0
 10
347.0980751458944
 20
296.5102817672441
 30
0.0
 10
347.101533761297
 20
296.6767569270619
 30
0.0
 10
347.1077399804145
 20
296.9688666617892
 30
0.0
 10
347.1104536865736
 20
297.0945106892325
 30
0.0
 10
347.1152953008357
 20
297.3149494459116
 30
0.0
 10
347.117404056877
 20
297.409751302507
 30
0.0
 10
347.1211502855066
 20
297.5760456113959
 30
0.0
 10
347.1227765074583
 20
297.6475433904275
 30
0.0
 10
347.1256588934452
 20
297.7729523465831
 30
0.0
 10
347.1269075739527
 20
297.8268671564998
 30
0.0
 10
347.1291178891103
 20
297.9214530189356
 30
0.0
 10
347.1300737406173
 20
297.962126742657
 30
0.0
 10
347.1337029383779
 20
298.1151751720778
 30
0.0
 10
347.1363678076802
 20
298.2275564993629
 30
0.0
 10
347.1390326769824
 20
298.3399378266481
 30
0.0
  0
SPLINE
  5
196
330
1F
100
AcDbEntity
  8
1
100
AcDbSpline
210
0.0
220
0.0
230
1.0
 70
    12
 71
     4
 72
    14
 73
     9
 74
     0
 42
0.000000001
 43
0.0000000001
 40
0.0
 40
0.0
 40
0.0
 40
0.0
 40
0.0
 40
0.5
 40
0.5
 40
0.5
 40
0.5
 40
1.0
 40
1.0
 40
1.0
 40
1.0
 40
1.0
 10
356.1890400559257
 20
298.8312521147692
 30
0.0
 41
0.2699606567766349
 10
356.2707953530491
 20
298.8306314490388
 30
0.0
 41
0.2496167667754463
 10
356.3433663970047
 20
298.8091885607054
 30
0.0
 41
0.2438574253738599
 10
356.4095330937122
 20
298.7730092847844
 30
0.0
 41
0.2496167667754464
 10
356.4667443179255
 20
298.7159127664228
 30
0.0
 41
0.2699606567766349
 10
356.523955542139
 20
298.6588162480611
 30
0.0
 41
0.2496167667754461
 10
356.5599038386673
 20
298.5930852665733
 30
0.0
 41
0.2438574253738603
 10
356.580871243494
 20
298.5211772463772
 30
0.0
 41
0.2496167667754461
 10
356.5806695755048
 20
298.4404077942183
 30
0.0
 41
0.2699606567766349
  0
SPLINE
  5
197
330
1F
100
AcDbEntity
  8
1
100
AcDbSpline
210
0.0
220
0.0
230
1.0
 70
    24
 71
     3
 72
     8
 73
     4
 74
     0
 42
0.000000001
 43
0.0000000001
 40
0.0
 40
0.0
 40
0.0
 40
0.0
 40
1.0
 40
1.0
 40
1.0
 40
1.0
 10
356.1273178993067
 20
298.8314214109064
 30
0.0
 10
356.1478954991322
 20
298.831399105246
 30
0.0
 10
356.1684730989577
 20
298.8313767995855
 30
0.0
 10
356.1890506987833
 20
298.8313544939251
 30
0.0
  0
SPLINE
  5
198
330
1F
100
AcDbEntity
  8
1
100
AcDbSpline
210
0.0
220
0.0
230
1.0
 70
     8
 71
     3
 72
    30
 73
    26
 74
     0
 42
0.000000001
 43
0.0000000001
 40
0.0
 40
0.0
 40
0.0
 40
0.0
 40
0.1249999999999301
 40
0.1249999999999301
 40
0.1874999999999025
 40
0.1874999999999025
 40
0.2499999999998749
 40
0.2499999999998749
 40
0.3749999999998675
 40
0.3749999999998675
 40
0.4374999999998395
 40
0.4374999999998395
 40
0.4999999999998117
 40
0.4999999999998117
 40
0.6249999999998175
 40
0.6249999999998175
 40
0.6874999999998207
 40
0.6874999999998207
 40
0.749999999999824
 40
0.749999999999824
 40
0.8749999999999117
 40
0.8749999999999117
 40
0.9374999999999559
 40
0.9374999999999559
 40
1.0
 40
1.0
 40
1.0
 40
1.0
 10
348.2266882471763
 20
280.9386380270395
 30
0.0
 10
348.2286758109927
 20
280.9481358096462
 30
0.0
 10
348.2324980107043
 20
280.9575153094101
 30
0.0
 10
348.2408644474125
 20
280.971406027144
 30
0.0
 10
348.2440953131916
 20
280.9760062157666
 30
0.0
 10
348.2514592922458
 20
280.9851426717946
 30
0.0
 10
348.2556184525686
 20
280.9897023877218
 30
0.0
 10
348.2692696326699
 20
281.0030463559802
 30
0.0
 10
348.2799196117747
 20
281.0115229792632
 30
0.0
 10
348.2982043578377
 20
281.02358963643
 30
0.0
 10
348.3046868976426
 20
281.0275030413194
 30
0.0
 10
348.3184592532364
 20
281.0350988331202
 30
0.0
 10
348.3257355637355
 20
281.0387692295228
 30
0.0
 10
348.3483043760186
 20
281.0491784147844
 30
0.0
 10
348.364475490677
 20
281.0554045758818
 30
0.0
 10
348.3904641465254
 20
281.0636209881129
 30
0.0
 10
348.3994588437735
 20
281.0661816003625
 30
0.0
 10
348.4178739636761
 20
281.0708524936099
 30
0.0
 10
348.4272182645599
 20
281.072946055319
 30
0.0
 10
348.4556531553166
 20
281.0785113700262
 30
0.0
 10
348.4751416509713
 20
281.0812747078909
 30
0.0
 10
348.5052117307515
 20
281.0839180773935
 30
0.0
 10
348.5153551462861
 20
281.0845423287394
 30
0.0
 10
348.5355453858862
 20
281.0852522969296
 30
0.0
 10
348.5456382136935
 20
281.0853425940355
 30
0.0
 10
348.5557287084868
 20
281.0851646295004
 30
0.0
  0
SPLINE
  5
19F
330
1F
100
AcDbEntity
  8
1
100
AcDbSpline
210
0.0
220
0.0
230
1.0
 70
     8
 71
     3
 72
     8
 73
     4
 74
     0
 42
0.000000001
 43
0.0000000001
 40
0.0
 40
0.0
 40
0.0
 40
0.0
 40
1.0
 40
1.0
 40
1.0
 40
1.0
 10
356.4095398795298
 20
298.3014354859243
 30
0.0
 10
356.4235508891142
 20
298.3058896127548
 30
0.0
 10
356.4386946945187
 20
298.310162236718
 30
0.0
 10
356.4534122692825
 20
298.3138134991628
 30
0.0
  0
SPLINE
  5
1A0
330
1F
100
AcDbEntity
  8
1
100
AcDbSpline
210
0.0
220
0.0
230
1.0
 70
     8
 71
     3
 72
    12
 73
     8
 74
     0
 42
0.000000001
 43
0.0000000001
 40
0.0
 40
0.0
 40
0.0
 40
0.0
 40
0.249999999999561
 40
0.249999999999561
 40
0.4999999999991221
 40
0.4999999999991221
 40
1.0
 40
1.0
 40
1.0
 40
1.0
 10
356.0296971285395
 20
298.6648966586828
 30
0.0
 10
356.0286280112936
 20
298.6657291390837
 30
0.0
 10
356.027554020898
 20
298.6665557319613
 30
0.0
 10
356.0253963355602
 20
298.6681970671015
 30
0.0
 10
356.0242905106796
 20
298.6689853566204
 30
0.0
 10
356.0211231639748
 20
298.6715314148782
 30
0.0
 10
356.0190078612903
 20
298.6732214740001
 30
0.0
 10
356.0168640325768
 20
298.6748771580074
 30
0.0
  0
SPLINE
  5
1A1
330
1F
100
AcDbEntity
  8
1
100
AcDbSpline
210
0.0
220
0.0
230
1.0
 70
    24
 71
     1
 72
     4
 73
     2
 74
     0
 42
0.000000001
 43
0.0000000001
 40
0.0
 40
0.0
 40
1.0
 40
1.0
 10
356.5806054179939
 20
298.3615872134326
 30
0.0
 10
356.579623380231
 20
297.1551066998552
 30
0.0
  0
SPLINE
  5
1A2
330
1F
100
AcDbEntity
  8
1
100
AcDbSpline
210
0.0
220
0.0
230
1.0
 70
     8
 71
     3
 72
     8
 73
     4
 74
     0
 42
0.000000001
 43
0.0000000001
 40
0.0
 40
0.0
 40
0.0
 40
0.0
 40
1.0
 40
1.0
 40
1.0
 40
1.0
 10
356.462824416977
 20
297.1496953656307
 30
0.0
 10
356.479320359547
 20
297.1514504163295
 30
0.0
 10
356.4974803184376
 20
297.1526605413371
 30
0.0
 10
356.5149083393677
 20
297.153521676278
 30
0.0
  0
LINE
  5
1B5
330
1F
100
AcDbEntity
  8
4
100
AcDbLine
 10
320.680042
 20
288.868048
 30
0.0
 11
360.916717
 21
288.868048
 31
0.0
  0
LINE
  5
1B6
330
1F
100
AcDbEntity
  8
SK4
100
AcDbLine
 10
272.580042
 20
288.868048
 30
0.0
 11
328.580042
 21
288.868048
 31
0.0
  0
MTEXT
  5
1BC
330
1F
100
AcDbEntity
  8
SK6
100
AcDbMText
 10
294.776721
 20
256.53657
 30
0.0
 40
3.5
 41
0.0
 71
     7
 72
     5
  1
\W0.7164;20A2R032B20-SSO09-C
  7
cesky
 73
     2
 44
0.8433729999999998
  0
MTEXT
  5
2D0
330
1F
100
AcDbEntity
  8
2
100
AcDbMText
 10
372.818964
 20
286.402759
 30
0.0
 40
3.5
 41
0.0
 71
     7
 72
     5
  1
\W0.7045;20
  7
cesky
 11
0.0000000000000001
 21
1.0
 31
0.0
 73
     2
 44
0.8433729999999998
  0
MTEXT
  5
2D1
330
1F
100
AcDbEntity
  8
2
100
AcDbMText
 10
372.818964
 20
279.665259
 30
0.0
 40
3.5
 41
0.0
 71
     7
 72
     5
  1
\W3.0115;\H2.63;%%c\H3.50;
  7
cesky
 11
0.0000000000000001
 21
1.0
 31
0.0
 73
     2
 44
0.8433729999999998
  0
LINE
  5
2D2
330
1F
100
AcDbEntity
  8
2
100
AcDbLine
 10
358.430042
 20
298.843048
 30
0.0
 11
374.006381
 21
298.843048
 31
0.0
  0
LINE
  5
2D3
330
1F
100
AcDbEntity
  8
2
100
AcDbLine
 10
373.006381
 20
298.843048
 30
0.0
 11
373.006381
 21
279.507759
 31
0.0
  0
SOLID
  5
2D4
330
1F
100
AcDbEntity
  8
2
100
AcDbTrace
 10
373.006381
 20
298.843048
 30
0.0
 11
373.623526
 21
295.34305
 31
0.0
 12
372.3892370000001
 22
295.343045
 32
0.0
 13
372.3892370000001
 23
295.343045
 33
0.0
  0
MTEXT
  5
2D5
330
1F
100
AcDbEntity
  8
2
100
AcDbMText
 10
339.851982
 20
310.290488
 30
0.0
 40
3.5
 41
0.0
 71
     7
 72
     5
  1
\W1.0515;90%%d
  7
cesky
 11
0.7068346227958037
 21
0.707378834866519
 31
0.0
 73
     2
 44
0.8433729999999998
  0
LINE
  5
2D6
330
1F
100
AcDbEntity
  8
2
100
AcDbLine
 10
356.430042
 20
300.843048
 30
0.0
 11
356.430042
 21
319.962838
 31
0.0
  0
LINE
  5
2D7
330
1F
100
AcDbEntity
  8
2
100
AcDbLine
 10
348.842089
 20
298.830894
 30
0.0
 11
335.303944
 21
298.820475
 31
0.0
  0
ARC
  5
2D8
330
1F
100
AcDbEntity
  8
2
100
AcDbCircle
 10
356.430042
 20
298.836734
 30
0.0
 40
20.12610441100165
100
AcDbArc
 50
90.0
 51
180.0440389999999
  0
SOLID
  5
2D9
330
1F
100
AcDbEntity
  8
2
100
AcDbTrace
 10
356.430042
 20
318.962838
 30
0.0
 11
352.96009
 21
318.194538
 31
0.0
 12
352.906575
 22
319.427666
 32
0.0
 13
352.906575
 23
319.427666
 33
0.0
  0
SOLID
  5
2DA
330
1F
100
AcDbEntity
  8
2
100
AcDbTrace
 10
336.303943
 20
298.821244
 30
0.0
 11
335.836404
 21
302.344348
 31
0.0
 12
337.069573
 22
302.291791
 32
0.0
 13
337.069573
 23
302.291791
 33
0.0
  0
MTEXT
  5
2DB
330
1F
100
AcDbEntity
  8
2
100
AcDbMText
 10
338.690542
 20
325.977768
 30
0.0
 40
3.5
 41
0.0
 71
     7
 72
     5
  1
\W0.7045;32
  7
cesky
 73
     2
 44
0.8433729999999998
  0
LINE
  5
2DC
330
1F
100
AcDbEntity
  8
2
100
AcDbLine
 10
356.430042
 20
300.843048
 30
0.0
 11
356.430042
 21
327.1036009999999
 31
0.0
  0
LINE
  5
2DD
330
1F
100
AcDbEntity
  8
2
100
AcDbLine
 10
324.580042
 20
298.868048
 30
0.0
 11
324.580042
 21
327.1036009999999
 31
0.0
  0
LINE
  5
2DE
330
1F
100
AcDbEntity
  8
2
100
AcDbLine
 10
356.430042
 20
326.103601
 30
0.0
 11
324.580042
 21
326.103601
 31
0.0
  0
SOLID
  5
2DF
330
1F
100
AcDbEntity
  8
2
100
AcDbTrace
 10
356.430042
 20
326.103601
 30
0.0
 11
352.930044
 21
325.486457
 31
0.0
 12
352.93004
 22
326.720746
 32
0.0
 13
352.93004
 23
326.720746
 33
0.0
  0
SOLID
  5
2E0
330
1F
100
AcDbEntity
  8
2
100
AcDbTrace
 10
324.580042
 20
326.103601
 30
0.0
 11
328.08004
 21
326.720746
 31
0.0
 12
328.080044
 22
325.486457
 32
0.0
 13
328.080044
 23
325.486457
 33
0.0
  0
MTEXT
  5
2E1
330
1F
100
AcDbEntity
  8
2
100
AcDbMText
 10
351.87278
 20
305.65785
 30
0.0
 40
3.5
 41
0.0
 71
     7
 72
     5
  1
\W0.6094;8
  7
cesky
 73
     2
 44
0.8433729999999998
  0
LINE
  5
2E2
330
1F
100
AcDbEntity
  8
2
100
AcDbLine
 10
348.419519
 20
298.886499
 30
0.0
 11
348.419519
 21
306.783683
 31
0.0
  0
LINE
  5
2E3
330
1F
100
AcDbEntity
  8
2
100
AcDbLine
 10
356.430042
 20
300.843048
 30
0.0
 11
356.430042
 21
306.783683
 31
0.0
  0
LINE
  5
2E4
330
1F
100
AcDbEntity
  8
2
100
AcDbLine
 10
339.669519
 20
305.783683
 30
0.0
 11
365.180042
 21
305.783683
 31
0.0
  0
SOLID
  5
2E5
330
1F
100
AcDbEntity
  8
2
100
AcDbTrace
 10
348.419519
 20
305.783683
 30
0.0
 11
344.919521
 21
305.166538
 31
0.0
 12
344.919517
 22
306.400827
 32
0.0
 13
344.919517
 23
306.400827
 33
0.0
  0
SOLID
  5
2E6
330
1F
100
AcDbEntity
  8
2
100
AcDbTrace
 10
356.430042
 20
305.783683
 30
0.0
 11
359.93004
 21
306.400827
 31
0.0
 12
359.930044
 22
305.166538
 32
0.0
 13
359.930044
 23
305.166538
 33
0.0
  0
MTEXT
  5
2E7
330
1F
100
AcDbEntity
  8
SK2
100
AcDbMText
 10
261.981204
 20
290.394298
 30
0.0
 40
3.5
 41
0.0
 71
     7
 72
     5
  1
\W0.7045;20
  7
cesky
 11
0.0000000000000001
 21
1.0
 31
0.0
 73
     2
 44
0.8433729999999998
  0
MTEXT
  5
2E8
330
1F
100
AcDbEntity
  8
SK2
100
AcDbMText
 10
261.981204
 20
283.656798
 30
0.0
 40
3.5
 41
0.0
 71
     7
 72
     5
  1
\W3.0115;\H2.63;%%c\H3.50;
  7
cesky
 11
0.0000000000000001
 21
1.0
 31
0.0
 73
     2
 44
0.8433729999999998
  0
LINE
  5
2E9
330
1F
100
AcDbEntity
  8
SK2
100
AcDbLine
 10
306.880042
 20
298.868048
 30
0.0
 11
261.168621
 21
298.868048
 31
0.0
  0
LINE
  5
2EA
330
1F
100
AcDbEntity
  8
SK2
100
AcDbLine
 10
276.580042
 20
278.868048
 30
0.0
 11
261.168621
 21
278.868048
 31
0.0
  0
LINE
  5
2EB
330
1F
100
AcDbEntity
  8
SK2
100
AcDbLine
 10
262.168621
 20
298.868048
 30
0.0
 11
262.168621
 21
278.868048
 31
0.0
  0
SOLID
  5
2EC
330
1F
100
AcDbEntity
  8
SK2
100
AcDbTrace
 10
262.168621
 20
298.868048
 30
0.0
 11
262.785766
 21
295.36805
 31
0.0
 12
261.551477
 22
295.368045
 32
0.0
 13
261.551477
 23
295.368045
 33
0.0
  0
SOLID
  5
2ED
330
1F
100
AcDbEntity
  8
SK2
100
AcDbTrace
 10
262.168621
 20
278.868048
 30
0.0
 11
261.551477
 21
282.368045
 31
0.0
 12
262.785766
 22
282.36805
 32
0.0
 13
262.785766
 23
282.36805
 33
0.0
  0
MTEXT
  5
2EE
330
1F
100
AcDbEntity
  8
SK2
100
AcDbMText
 10
313.690542
 20
350.717214
 30
0.0
 40
3.5
 41
0.0
 71
     7
 72
     5
  1
\W0.7045;82
  7
cesky
 73
     2
 44
0.8433729999999998
  0
LINE
  5
2EF
330
1F
100
AcDbEntity
  8
SK2
100
AcDbLine
 10
356.430042
 20
298.843048
 30
0.0
 11
356.430042
 21
351.843048
 31
0.0
  0
LINE
  5
2F0
330
1F
100
AcDbEntity
  8
SK2
100
AcDbLine
 10
274.580042
 20
287.375655
 30
0.0
 11
274.580042
 21
351.843048
 31
0.0
  0
LINE
  5
2F1
330
1F
100
AcDbEntity
  8
SK2
100
AcDbLine
 10
356.430042
 20
350.843048
 30
0.0
 11
274.580042
 21
350.843048
 31
0.0
  0
SOLID
  5
2F2
330
1F
100
AcDbEntity
  8
SK2
100
AcDbTrace
 10
356.430042
 20
350.843048
 30
0.0
 11
352.930044
 21
350.225903
 31
0.0
 12
352.93004
 22
351.460192
 32
0.0
 13
352.93004
 23
351.460192
 33
0.0
  0
SOLID
  5
2F3
330
1F
100
AcDbEntity
  8
SK2
100
AcDbTrace
 10
274.580042
 20
350.843048
 30
0.0
 11
278.08004
 21
351.460192
 31
0.0
 12
278.080044
 22
350.225903
 32
0.0
 13
278.080044
 23
350.225903
 33
0.0
  0
MTEXT
  5
2F4
330
1F
100
AcDbEntity
  8
SK2
100
AcDbMText
 10
338.690542
 20
340.717214
 30
0.0
 40
3.5
 41
0.0
 71
     7
 72
     5
  1
\W0.7045;32
  7
cesky
 73
     2
 44
0.8433729999999998
  0
LINE
  5
2F5
330
1F
100
AcDbEntity
  8
SK2
100
AcDbLine
 10
324.580042
 20
289.867621
 30
0.0
 11
324.580042
 21
341.843048
 31
0.0
  0
LINE
  5
2F6
330
1F
100
AcDbEntity
  8
SK2
100
AcDbLine
 10
356.430042
 20
300.843048
 30
0.0
 11
356.430042
 21
341.843048
 31
0.0
  0
LINE
  5
2F7
330
1F
100
AcDbEntity
  8
SK2
100
AcDbLine
 10
324.580042
 20
340.843048
 30
0.0
 11
356.430042
 21
340.843048
 31
0.0
  0
SOLID
  5
2F8
330
1F
100
AcDbEntity
  8
SK2
100
AcDbTrace
 10
324.580042
 20
340.843048
 30
0.0
 11
328.08004
 21
341.460192
 31
0.0
 12
328.080044
 22
340.225903
 32
0.0
 13
328.080044
 23
340.225903
 33
0.0
  0
SOLID
  5
2F9
330
1F
100
AcDbEntity
  8
SK2
100
AcDbTrace
 10
356.430042
 20
340.843048
 30
0.0
 11
352.930044
 21
340.225903
 31
0.0
 12
352.93004
 22
341.460192
 32
0.0
 13
352.93004
 23
341.460192
 33
0.0
  0
LINE
  5
2FB
330
1F
100
AcDbEntity
  8
CUT
100
AcDbLine
 10
347.1404750771202
 20
298.4436083346159
 30
0.0
 11
347.1390326769824
 21
298.3818758410846
 31
0.0
  0
LINE
  5
2FE
330
1F
100
AcDbEntity
  8
CUT
100
AcDbLine
 10
347.3816857806818
 20
290.0645303826579
 30
0.0
 11
347.4434760406762
 21
290.0697002456872
 31
0.0
  0
LINE
  5
302
330
1F
100
AcDbEntity
  8
CUT
100
AcDbLine
 10
356.579623380231
 20
297.158701117824
 30
0.0
 11
356.5806695755048
 21
298.440521440845
 31
0.0
  0
LINE
  5
305
330
1F
100
AcDbEntity
  8
CUT
100
AcDbLine
 10
356.1890454588329
 20
298.8314573525532
 30
0.0
 11
356.1273178993067
 21
298.8315574970718
 31
0.0
  0
LINE
  5
308
330
1F
100
AcDbEntity
  8
CUT
100
AcDbLine
 10
354.7501331048969
 20
290.6631935453921
 30
0.0
 11
356.0340687217257
 21
290.8657801538291
 31
0.0
  0
LINE
  5
309
330
1F
100
AcDbEntity
  8
CUT
100
AcDbLine
 10
348.842089381438
 20
298.8308939441686
 30
0.0
 11
347.5431021828473
 21
298.8326602426194
 31
0.0
  0
ARC
  5
30A
330
1F
100
AcDbEntity
  8
CUT
100
AcDbCircle
 10
347.543193258623
 20
298.429652342712
 30
0.0
 40
0.4030079101984321
100
AcDbArc
 50
90.01294827589802
 51
175.2663399571322
  0
ARC
  5
30B
330
1F
100
AcDbEntity
  8
CUT
100
AcDbCircle
 10
347.5234399095624
 20
298.4339816707159
 30
0.0
 40
0.3829740731401725
100
AcDbArc
 50
175.6679548567219
 51
178.560034097283
  0
ARC
  5
30C
330
1F
100
AcDbEntity
  8
CUT
100
AcDbCircle
 10
347.1111556249266
 20
290.1958609854503
 30
0.0
 40
0.1147066279908951
100
AcDbArc
 50
178.2692110943844
 51
228.9200697949699
  0
ARC
  5
30D
330
1F
100
AcDbEntity
  8
CUT
100
AcDbCircle
 10
347.135527640377
 20
290.2223901782559
 30
0.0
 40
0.1507222135234928
100
AcDbArc
 50
228.5631758599277
 51
242.3067368352457
  0
ARC
  5
30E
330
1F
100
AcDbEntity
  8
CUT
100
AcDbCircle
 10
347.1654948554048
 20
290.2781130743139
 30
0.0
 40
0.2139898081883141
100
AcDbArc
 50
242.1359455090942
 51
251.8529973279408
  0
ARC
  5
30F
330
1F
100
AcDbEntity
  8
CUT
100
AcDbCircle
 10
347.2008106120055
 20
290.3853719011583
 30
0.0
 40
0.3269129826305792
100
AcDbArc
 50
251.8262247925621
 51
260.6913790761976
  0
ARC
  5
310
330
1F
100
AcDbEntity
  8
CUT
100
AcDbCircle
 10
347.2264807268899
 20
290.5282061100706
 30
0.0
 40
0.4720237234681242
100
AcDbArc
 50
260.4208982164445
 51
264.7558501693946
  0
ARC
  5
311
330
1F
100
AcDbEntity
  8
CUT
100
AcDbCircle
 10
347.2410129868026
 20
290.6806825502171
 30
0.0
 40
0.6251904143634439
100
AcDbArc
 50
264.7068113019769
 51
268.6058018988474
  0
ARC
  5
312
330
1F
100
AcDbEntity
  8
CUT
100
AcDbCircle
 10
347.2470302278138
 20
290.9303237187584
 30
0.0
 40
0.8749040859369417
100
AcDbArc
 50
268.6096359722776
 51
273.2484599697719
  0
ARC
  5
313
330
1F
100
AcDbEntity
  8
CUT
100
AcDbCircle
 10
347.2331639064166
 20
291.2144195031847
 30
0.0
 40
1.159331324011279
100
AcDbArc
 50
273.1370384972988
 51
277.3598142106794
  0
ARC
  5
314
330
1F
100
AcDbEntity
  8
CUT
100
AcDbCircle
 10
860.8890008223145
 20
286.0442516398869
 30
0.0
 40
513.8980898390845
100
AcDbArc
 50
178.6243153377204
 51
179.0247849370303
  0
ARC
  5
315
330
1F
100
AcDbEntity
  8
CUT
100
AcDbCircle
 10
1032.942339538573
 20
282.9209410711203
 30
0.0
 40
685.979692817312
100
AcDbArc
 50
179.0085370994118
 51
179.308546865638
  0
ARC
  5
316
330
1F
100
AcDbEntity
  8
CUT
100
AcDbCircle
 10
340.0118589222437
 20
292.0734613387864
 30
0.0
 40
16.45221482494583
100
AcDbArc
 50
356.408451593026
 51
357.7399978403323
  0
ARC
  5
317
330
1F
100
AcDbEntity
  8
CUT
100
AcDbCircle
 10
286.3553917046008
 20
294.1907783975673
 30
0.0
 40
70.1504411065719
100
AcDbArc
 50
357.740187708054
 51
358.6771137554671
  0
ARC
  5
318
330
1F
100
AcDbEntity
  8
CUT
100
AcDbCircle
 10
42.35496255907117
 20
300.774166542447
 30
0.0
 40
314.2392560794149
100
AcDbArc
 50
358.504176200586
 51
358.7830472701727
  0
ARC
  5
319
330
1F
100
AcDbEntity
  8
CUT
100
AcDbCircle
 10
-177.05258571265
 20
305.4492998238897
 30
0.0
 40
533.6966072669504
100
AcDbArc
 50
358.7815174730697
 51
359.1099148546214
  0
ARC
  5
31A
330
1F
100
AcDbEntity
  8
CUT
100
AcDbCircle
 10
353.6354227530114
 20
-783.9675366099643
 30
0.0
 40
1082.801961459453
100
AcDbArc
 50
89.86814283130184
 51
90.06088954949351
  0
ARC
  5
31B
330
1F
100
AcDbEntity
  8
CUT
100
AcDbCircle
 10
354.4400795379508
 20
-4413.344394117756
 30
0.0
 40
4712.178613222898
100
AcDbArc
 50
90.02377557417883
 51
90.06806645322569
  0
ARC
  5
31C
330
1F
100
AcDbEntity
  8
CUT
100
AcDbCircle
 10
94.94042470125396
 20
294.6806512060629
 30
0.0
 40
252.0962145074693
100
AcDbArc
 50
359.0098511617109
 51
359.2087274899786
  0
ARC
  5
31D
330
1F
100
AcDbEntity
  8
CUT
100
AcDbCircle
 10
295.2280526642336
 20
291.2953794313738
 30
0.0
 40
51.78005032208008
100
AcDbArc
 50
358.7871013275142
 51
358.9254196118206
  0
LINE
  5
31E
330
1F
100
AcDbEntity
  8
CUT
100
AcDbLine
 10
356.5806695755048
 20
298.440521440845
 30
0.0
 11
356.5806695755048
 21
298.440521440845
 31
0.0
  0
ARC
  5
31F
330
1F
100
AcDbEntity
  8
CUT
100
AcDbCircle
 10
356.1883268713261
 20
298.4390095334912
 30
0.0
 40
0.3923456172638452
100
AcDbArc
 50
0.2207903464948596
 51
89.89513302850488
  0
LINE
  5
320
330
1F
100
AcDbEntity
  8
CUT
100
AcDbLine
 10
356.4302609708423
 20
291.0232152225079
 30
0.0
 11
356.4302609708423
 21
291.0232152225079
 31
0.0
  0
ARC
  5
321
330
1F
100
AcDbEntity
  8
CUT
100
AcDbCircle
 10
353.3972455639486
 20
291.2649524017635
 30
0.0
 40
3.04263361617678
100
AcDbArc
 50
355.4430487345117
 51
355.8136868224321
  0
ARC
  5
322
330
1F
100
AcDbEntity
  8
CUT
100
AcDbCircle
 10
355.7238691734481
 20
293.0676489889613
 30
0.0
 40
2.223611955103234
100
AcDbArc
 50
278.0190622600023
 51
280.8782339734321
  0
ARC
  5
323
330
1F
100
AcDbEntity
  8
CUT
100
AcDbCircle
 10
355.8592107946623
 20
292.375873476169
 30
0.0
 40
1.518727150981862
100
AcDbArc
 50
280.7893485657623
 51
284.4551383467162
  0
ARC
  5
324
330
1F
100
AcDbEntity
  8
CUT
100
AcDbCircle
 10
356.0047760297119
 20
291.8085107069585
 30
0.0
 40
0.9329891370784229
100
AcDbArc
 50
284.4962241675132
 51
287.9013381959129
  0
ARC
  5
325
330
1F
100
AcDbEntity
  8
CUT
100
AcDbCircle
 10
356.0938644443642
 20
291.5304627357849
 30
0.0
 40
0.6410187180182146
100
AcDbArc
 50
287.9630716172411
 51
291.6769528171398
  0
ARC
  5
326
330
1F
100
AcDbEntity
  8
CUT
100
AcDbCircle
 10
356.193935175094
 20
291.2810868315686
 30
0.0
 40
0.3723159900141007
100
AcDbArc
 50
291.5413555166852
 51
297.9811202744319
  0
ARC
  5
327
330
1F
100
AcDbEntity
  8
CUT
100
AcDbCircle
 10
356.2717429043372
 20
291.1338909918587
 30
0.0
 40
0.2058214336134003
100
AcDbArc
 50
298.078343583978
 51
305.9188315429057
  0
ARC
  5
328
330
1F
100
AcDbEntity
  8
CUT
100
AcDbCircle
 10
356.3261014961401
 20
291.0612122865363
 30
0.0
 40
0.1150821677224647
100
AcDbArc
 50
305.2287129423507
 51
322.836179247225
  0
ARC
  5
329
330
1F
100
AcDbEntity
  8
CUT
100
AcDbCircle
 10
356.3637164043234
 20
291.0323657617962
 30
0.0
 40
0.0676808618538483
100
AcDbArc
 50
323.0606121707124
 51
340.6864630776291
  0
ARC
  5
32A
330
1F
100
AcDbEntity
  8
CUT
100
AcDbCircle
 10
356.3803663223803
 20
291.0259132002379
 30
0.0
 40
0.049837257077156
100
AcDbArc
 50
341.3563603444369
 51
356.9063970916901
  0
ARC
  5
32B
330
1F
100
AcDbEntity
  8
CUT
100
AcDbCircle
 10
426.7531480894895
 20
-654.3201889058269
 30
0.0
 40
947.714243225298
100
AcDbArc
 50
94.57882788664397
 51
94.80042396407901
  0
ARC
  5
32C
330
1F
100
AcDbEntity
  8
CUT
100
AcDbCircle
 10
699.935485169288
 20
-4024.471911703701
 30
0.0
 40
4328.919484563431
100
AcDbArc
 50
94.5735854031842
 51
94.62209863916866
  0
ENDSEC
  0
SECTION
  2
OBJECTS
  0
DICTIONARY
  5
C
330
0
100
AcDbDictionary
281
     1
  3
ACAD_CIP_PREVIOUS_PRODUCT_INFO
350
2CD
  3
ACAD_COLOR
350
2C8
  3
ACAD_DETAILVIEWSTYLE
350
2C4
  3
ACAD_GROUP
350
D
  3
ACAD_LAYOUT
350
1A
  3
ACAD_MATERIAL
350
43
  3
ACAD_MLEADERSTYLE
350
6B
  3
ACAD_MLINESTYLE
350
17
  3
ACAD_PLOTSETTINGS
350
19
  3
ACAD_PLOTSTYLENAME
350
E
  3
ACAD_SCALELIST
350
47
  3
ACAD_SECTIONVIEWSTYLE
350
2C5
  3
ACAD_TABLESTYLE
350
69
  3
ACAD_VISUALSTYLE
350
2A
  3
ACDB_RECOMPOSE_DATA
350
358
  3
AcDbVariableDictionary
350
281
  0
DICTIONARY
  5
33B
330
10
100
AcDbDictionary
280
     1
281
     1
  3
ADSK_XREC_LAYER_RECONCILED
360
33C
  0
DICTIONARY
  5
33D
330
32D
100
AcDbDictionary
280
     1
281
     1
  3
ADSK_XREC_LAYER_RECONCILED
360
33E
  0
DICTIONARY
  5
33F
330
32E
100
AcDbDictionary
280
     1
281
     1
  3
ADSK_XREC_LAYER_RECONCILED
360
340
  0
DICTIONARY
  5
341
330
32F
100
AcDbDictionary
280
     1
281
     1
  3
ADSK_XREC_LAYER_RECONCILED
360
342
  0
DICTIONARY
  5
343
330
331
100
AcDbDictionary
280
     1
281
     1
  3
ADSK_XREC_LAYER_RECONCILED
360
344
  0
DICTIONARY
  5
345
330
332
100
AcDbDictionary
280
     1
281
     1
  3
ADSK_XREC_LAYER_RECONCILED
360
346
  0
DICTIONARY
  5
347
330
334
100
AcDbDictionary
280
     1
281
     1
  3
ADSK_XREC_LAYER_RECONCILED
360
348
  0
DICTIONARY
  5
349
330
335
100
AcDbDictionary
280
     1
281
     1
  3
ADSK_XREC_LAYER_RECONCILED
360
34A
  0
DICTIONARY
  5
34B
330
336
100
AcDbDictionary
280
     1
281
     1
  3
ADSK_XREC_LAYER_RECONCILED
360
34C
  0
DICTIONARY
  5
34D
330
337
100
AcDbDictionary
280
     1
281
     1
  3
ADSK_XREC_LAYER_RECONCILED
360
34E
  0
DICTIONARY
  5
34F
330
338
100
AcDbDictionary
280
     1
281
     1
  3
ADSK_XREC_LAYER_RECONCILED
360
350
  0
DICTIONARY
  5
351
330
339
100
AcDbDictionary
280
     1
281
     1
  3
ADSK_XREC_LAYER_RECONCILED
360
352
  0
DICTIONARY
  5
2CE
330
1F
100
AcDbDictionary
280
     1
281
     1
  3
ACAD_SORTENTS
360
2CF
  0
XRECORD
  5
2CD
102
{ACAD_REACTORS
330
C
102
}
330
C
100
AcDbXrecord
280
     1
300
ACD
300
2019
300
87084ACD_2019_0F
  0
DICTIONARY
  5
2C8
102
{ACAD_REACTORS
330
C
102
}
330
C
100
AcDbDictionary
281
     1
  0
DICTIONARY
  5
2C4
102
{ACAD_REACTORS
330
C
102
}
330
C
100
AcDbDictionary
281
     1
  3
Metric50
350
2CA
  0
DICTIONARY
  5
D
102
{ACAD_REACTORS
330
C
102
}
330
C
100
AcDbDictionary
281
     1
  3
NULOVY_BOD
350
33A
  0
DICTIONARY
  5
1A
102
{ACAD_REACTORS
330
C
102
}
330
C
100
AcDbDictionary
281
     1
  3
Layout1
350
1E
  3
Layout2
350
26
  3
Model
350
22
  0
DICTIONARY
  5
43
102
{ACAD_REACTORS
330
C
102
}
330
C
100
AcDbDictionary
281
     1
  3
ByBlock
350
45
  3
ByLayer
350
44
  3
Global
350
46
  0
DICTIONARY
  5
6B
102
{ACAD_REACTORS
330
C
102
}
330
C
100
AcDbDictionary
281
     1
  3
Standard
350
6C
  0
DICTIONARY
  5
17
102
{ACAD_REACTORS
330
C
102
}
330
C
100
AcDbDictionary
281
     1
  3
Standard
350
18
  0
DICTIONARY
  5
19
102
{ACAD_REACTORS
330
C
102
}
330
C
100
AcDbDictionary
281
     1
  0
ACDBDICTIONARYWDFLT
  5
E
102
{ACAD_REACTORS
330
C
102
}
330
C
100
AcDbDictionary
281
     1
  3
Normal
350
F
100
AcDbDictionaryWithDefault
340
F
  0
DICTIONARY
  5
47
102
{ACAD_REACTORS
330
C
102
}
330
C
100
AcDbDictionary
281
     1
  3
A0
350
48
  3
A1
350
49
  3
A2
350
4A
  3
A3
350
4B
  3
A4
350
4C
  3
A5
350
4D
  3
A6
350
4E
  3
A7
350
4F
  3
A8
350
50
  3
A9
350
51
  3
B0
350
52
  3
B1
350
53
  3
B2
350
54
  3
B3
350
55
  3
B4
350
56
  3
B5
350
57
  3
B6
350
58
  3
B7
350
59
  3
B8
350
5A
  3
B9
350
5B
  3
C0
350
5C
  3
C1
350
5D
  3
C2
350
5E
  3
C3
350
5F
  3
C4
350
60
  3
C5
350
61
  3
C6
350
62
  3
C7
350
63
  3
C8
350
64
  3
C9
350
65
  3
D0
350
66
  3
D1
350
67
  3
D2
350
68
  0
DICTIONARY
  5
2C5
102
{ACAD_REACTORS
330
C
102
}
330
C
100
AcDbDictionary
281
     1
  3
Metric50
350
2C9
  0
DICTIONARY
  5
69
102
{ACAD_REACTORS
330
C
102
}
330
C
100
AcDbDictionary
281
     1
  3
Standard
350
6A
  0
DICTIONARY
  5
2A
102
{ACAD_REACTORS
330
C
102
}
330
C
100
AcDbDictionary
281
     1
  3
2dWireframe
350
2F
  3
Basic
350
32
  3
Brighten
350
36
  3
ColorChange
350
3A
  3
Conceptual
350
34
  3
Dim
350
35
  3
EdgeColorOff
350
3D
  3
Facepattern
350
39
  3
Flat
350
2B
  3
FlatWithEdges
350
2C
  3
Gouraud
350
2D
  3
GouraudWithEdges
350
2E
  3
Hidden
350
31
  3
JitterOff
350
3B
  3
Linepattern
350
38
  3
OverhangOff
350
3C
  3
Realistic
350
33
  3
Shaded
350
42
  3
Shaded with edges
350
41
  3
Shades of Gray
350
3E
  3
Sketchy
350
3F
  3
Thicken
350
37
  3
Wireframe
350
30
  3
X-Ray
350
40
  0
XRECORD
  5
358
102
{ACAD_REACTORS
330
C
102
}
330
C
100
AcDbXrecord
280
     1
 90
        1
330
6A
  0
DICTIONARY
  5
281
102
{ACAD_REACTORS
330
C
102
}
330
C
100
AcDbDictionary
281
     1
  3
CANNOSCALE
350
282
  3
CMLEADERSTYLE
350
2C3
  3
CTABLESTYLE
350
2C2
  3
CVIEWDETAILSTYLE
350
353
  3
CVIEWSECTIONSTYLE
350
354
  3
MSLTSCALE
350
283
  3
XCLIPFRAME
350
355
  0
XRECORD
  5
33C
102
{ACAD_REACTORS
330
33B
102
}
330
33B
100
AcDbXrecord
280
     1
290
     1
  0
XRECORD
  5
33E
102
{ACAD_REACTORS
330
33D
102
}
330
33D
100
AcDbXrecord
280
     1
290
     1
  0
XRECORD
  5
340
102
{ACAD_REACTORS
330
33F
102
}
330
33F
100
AcDbXrecord
280
     1
290
     1
  0
XRECORD
  5
342
102
{ACAD_REACTORS
330
341
102
}
330
341
100
AcDbXrecord
280
     1
290
     1
  0
XRECORD
  5
344
102
{ACAD_REACTORS
330
343
102
}
330
343
100
AcDbXrecord
280
     1
290
     1
  0
XRECORD
  5
346
102
{ACAD_REACTORS
330
345
102
}
330
345
100
AcDbXrecord
280
     1
290
     1
  0
XRECORD
  5
348
102
{ACAD_REACTORS
330
347
102
}
330
347
100
AcDbXrecord
280
     1
290
     1
  0
XRECORD
  5
34A
102
{ACAD_REACTORS
330
349
102
}
330
349
100
AcDbXrecord
280
     1
290
     1
  0
XRECORD
  5
34C
102
{ACAD_REACTORS
330
34B
102
}
330
34B
100
AcDbXrecord
280
     1
290
     1
  0
XRECORD
  5
34E
102
{ACAD_REACTORS
330
34D
102
}
330
34D
100
AcDbXrecord
280
     1
290
     1
  0
XRECORD
  5
350
102
{ACAD_REACTORS
330
34F
102
}
330
34F
100
AcDbXrecord
280
     1
290
     1
  0
XRECORD
  5
352
102
{ACAD_REACTORS
330
351
102
}
330
351
100
AcDbXrecord
280
     1
290
     1
  0
SORTENTSTABLE
  5
2CF
102
{ACAD_REACTORS
330
2CE
102
}
330
2CE
100
AcDbSortentsTable
330
1F
331
2D0
  5
1D8
331
2D1
  5
20C
331
2D2
  5
23C
331
2D3
  5
2D0
331
2D4
  5
2D1
331
2D5
  5
2DB
331
2D6
  5
2DC
331
2D7
  5
2DD
331
2D8
  5
2DE
331
2D9
  5
2DF
331
2DA
  5
2E1
331
2DB
  5
2E8
331
2DC
  5
2E9
331
2DD
  5
2EA
331
2DE
  5
2EB
331
2DF
  5
2EC
331
2E0
  5
2ED
331
2E1
  5
2F4
331
2E2
  5
2F5
331
2E3
  5
2F6
331
2E4
  5
2F7
331
2E5
  5
2F8
331
2E6
  5
2F9
331
2E7
  5
2D3
331
2E8
  5
2D4
331
2E9
  5
2D5
331
2EA
  5
2D6
331
2EB
  5
2D7
331
2EC
  5
2D8
331
2ED
  5
2DA
331
2EE
  5
2E2
331
2EF
  5
2E3
331
2F0
  5
2E4
331
2F1
  5
2E5
331
2F2
  5
2E6
331
2F3
  5
2E7
331
2F4
  5
2EE
331
2F5
  5
2EF
331
2F6
  5
2F0
331
2F7
  5
2F1
331
2F8
  5
2F2
331
2F9
  5
2F3
331
2FB
  5
302
331
2FE
  5
311
331
302
  5
31A
331
305
  5
31F
331
308
  5
32B
331
309
  5
32C
331
30A
  5
2FB
331
30B
  5
2FE
331
30C
  5
305
331
30D
  5
308
331
30E
  5
309
331
30F
  5
30A
331
310
  5
30B
331
311
  5
30C
331
312
  5
30D
331
313
  5
30E
331
314
  5
30F
331
315
  5
310
331
316
  5
312
331
317
  5
313
331
318
  5
314
331
319
  5
315
331
31A
  5
316
331
31B
  5
317
331
31C
  5
318
331
31D
  5
319
331
31E
  5
31B
331
31F
  5
31C
331
320
  5
31D
331
321
  5
31E
331
322
  5
320
331
323
  5
321
331
324
  5
322
331
325
  5
323
331
326
  5
324
331
327
  5
325
331
328
  5
326
331
329
  5
327
331
32A
  5
328
331
32B
  5
329
331
32C
  5
32A
  0
ACDBDETAILVIEWSTYLE
  5
2CA
102
{ACAD_XDICTIONARY
360
38C
102
}
102
{ACAD_REACTORS
330
2C4
102
}
330
2C4
100
AcDbModelDocViewStyle
 70
     0
  3
Metric50
290
     0
100
AcDbDetailViewStyle
 70
     0
 71
     0
 90
        3
 71
     1
340
11
 62
   256
 40
5.0
340
0
 62
   256
 40
5.0
300

 40
0.0
280
     1
 71
     2
340
16
 90
       25
 62
   256
 71
     3
340
11
 62
   256
 40
5.0
 90
        0
 40
15.0
 90
        1
300
%<\AcVar ViewDetailId>% (%<\AcVar ViewScale \f "%sn">%)
 71
     4
340
16
 90
       25
 62
   256
340
16
 90
       25
 62
   256
280
     0
  0
GROUP
  5
33A
102
{ACAD_REACTORS
330
D
102
}
330
D
100
AcDbGroup
300

 70
     0
 71
     1
340
73
  0
LAYOUT
  5
1E
102
{ACAD_REACTORS
330
1A
102
}
330
1A
100
AcDbPlotSettings
  1

  2
none_device
  4

  6

 40
0.0
 41
0.0
 42
0.0
 43
0.0
 44
0.0
 45
0.0
 46
0.0
 47
0.0
 48
0.0
 49
0.0
140
0.0
141
0.0
142
1.0
143
1.0
 70
   688
 72
     0
 73
     0
 74
     5
  7

 75
    16
147
1.0
 76
     0
 77
     2
 78
   300
148
0.0
149
0.0
100
AcDbLayout
  1
Layout1
 70
     1
 71
     1
 10
-0.5
 20
-0.5
 11
5.0
 21
5.0
 12
0.0
 22
0.0
 32
0.0
 14
-0.5
 24
-0.5
 34
-0.5
 15
5.0
 25
5.0
 35
5.0
146
0.0
 13
0.0
 23
0.0
 33
0.0
 16
1.0
 26
0.0
 36
0.0
 17
0.0
 27
1.0
 37
0.0
 76
     0
330
1B
  0
LAYOUT
  5
26
102
{ACAD_REACTORS
330
1A
102
}
330
1A
100
AcDbPlotSettings
  1

  2
none_device
  4

  6

 40
0.0
 41
0.0
 42
0.0
 43
0.0
 44
0.0
 45
0.0
 46
0.0
 47
0.0
 48
0.0
 49
0.0
140
0.0
141
0.0
142
1.0
143
1.0
 70
   688
 72
     0
 73
     0
 74
     5
  7

 75
    16
147
1.0
 76
     0
 77
     2
 78
   300
148
0.0
149
0.0
100
AcDbLayout
  1
Layout2
 70
     1
 71
     2
 10
0.0
 20
0.0
 11
0.0
 21
0.0
 12
0.0
 22
0.0
 32
0.0
 14
0.0
 24
0.0
 34
0.0
 15
0.0
 25
0.0
 35
0.0
146
0.0
 13
0.0
 23
0.0
 33
0.0
 16
1.0
 26
0.0
 36
0.0
 17
0.0
 27
1.0
 37
0.0
 76
     0
330
23
  0
LAYOUT
  5
22
102
{ACAD_REACTORS
330
1A
102
}
330
1A
100
AcDbPlotSettings
  1

  2
none_device
  4
Letter_(8.50_x_11.00_Inches)
  6

 40
6.349999999999999
 41
6.349999999999999
 42
6.350005
 43
6.350005
 44
215.9
 45
279.4
 46
0.0
 47
0.0
 48
0.0
 49
0.0
140
0.0
141
0.0
142
1.0
143
1.0
 70
  1712
 72
     0
 73
     0
 74
     0
  7

 75
     0
147
1.0
 76
     0
 77
     2
 78
   300
148
0.0
149
0.0
100
AcDbLayout
  1
Model
 70
     1
 71
     0
 10
-0.5
 20
-0.5
 11
5.0
 21
5.0
 12
0.0
 22
0.0
 32
0.0
 14
-0.5
 24
-0.5
 34
-0.5
 15
5.0
 25
5.0
 35
5.0
146
0.0
 13
0.0
 23
0.0
 33
0.0
 16
1.0
 26
0.0
 36
0.0
 17
0.0
 27
1.0
 37
0.0
 76
     0
330
1F
331
29
  0
MATERIAL
  5
45
102
{ACAD_XDICTIONARY
360
2B7
102
}
102
{ACAD_REACTORS
330
43
102
}
330
43
100
AcDbMaterial
  1
ByBlock
  0
MATERIAL
  5
44
102
{ACAD_XDICTIONARY
360
2B5
102
}
102
{ACAD_REACTORS
330
43
102
}
330
43
100
AcDbMaterial
  1
ByLayer
  0
MATERIAL
  5
46
102
{ACAD_XDICTIONARY
360
2B9
102
}
102
{ACAD_REACTORS
330
43
102
}
330
43
100
AcDbMaterial
  1
Global
  0
MLEADERSTYLE
  5
6C
102
{ACAD_REACTORS
330
6B
102
}
330
6B
100
AcDbMLeaderStyle
170
     2
171
     1
172
     0
 90
        2
 40
0.0
 41
0.0
173
     1
 91
-1056964608
340
14
 92
       -2
290
     1
 42
0.09
291
     1
 43
0.36
  3
Standard
 44
0.18
300

342
11
174
     1
178
     6
175
     1
176
     0
 93
-1056964608
 45
0.18
292
     0
297
     0
 46
0.18
 94
-1056964608
 47
1.0
 49
1.0
140
1.0
293
     1
141
0.0
294
     1
177
     0
142
1.0
295
     0
296
     0
143
0.125
1001
ACAD_MLEADERVER
1070
     2
  0
MLINESTYLE
  5
18
102
{ACAD_REACTORS
330
17
102
}
330
17
100
AcDbMlineStyle
  2
STANDARD
 70
     0
  3

 62
   256
 51
90.0
 52
90.0
 71
     2
 49
0.5
 62
   256
  6
BYLAYER
 49
-0.5
 62
   256
  6
BYLAYER
  0
ACDBPLACEHOLDER
  5
F
102
{ACAD_REACTORS
330
E
102
}
330
E
  0
SCALE
  5
48
102
{ACAD_REACTORS
330
47
102
}
330
47
100
AcDbScale
 70
     0
300
1:1
140
1.0
141
1.0
290
     1
  0
SCALE
  5
49
102
{ACAD_REACTORS
330
47
102
}
330
47
100
AcDbScale
 70
     0
300
1:2
140
1.0
141
2.0
290
     0
  0
SCALE
  5
4A
102
{ACAD_REACTORS
330
47
102
}
330
47
100
AcDbScale
 70
     0
300
1:4
140
1.0
141
4.0
290
     0
  0
SCALE
  5
4B
102
{ACAD_REACTORS
330
47
102
}
330
47
100
AcDbScale
 70
     0
300
1:5
140
1.0
141
5.0
290
     0
  0
SCALE
  5
4C
102
{ACAD_REACTORS
330
47
102
}
330
47
100
AcDbScale
 70
     0
300
1:8
140
1.0
141
8.0
290
     0
  0
SCALE
  5
4D
102
{ACAD_REACTORS
330
47
102
}
330
47
100
AcDbScale
 70
     0
300
1:10
140
1.0
141
10.0
290
     0
  0
SCALE
  5
4E
102
{ACAD_REACTORS
330
47
102
}
330
47
100
AcDbScale
 70
     0
300
1:16
140
1.0
141
16.0
290
     0
  0
SCALE
  5
4F
102
{ACAD_REACTORS
330
47
102
}
330
47
100
AcDbScale
 70
     0
300
1:20
140
1.0
141
20.0
290
     0
  0
SCALE
  5
50
102
{ACAD_REACTORS
330
47
102
}
330
47
100
AcDbScale
 70
     0
300
1:30
140
1.0
141
30.0
290
     0
  0
SCALE
  5
51
102
{ACAD_REACTORS
330
47
102
}
330
47
100
AcDbScale
 70
     0
300
1:40
140
1.0
141
40.0
290
     0
  0
SCALE
  5
52
102
{ACAD_REACTORS
330
47
102
}
330
47
100
AcDbScale
 70
     0
300
1:50
140
1.0
141
50.0
290
     0
  0
SCALE
  5
53
102
{ACAD_REACTORS
330
47
102
}
330
47
100
AcDbScale
 70
     0
300
1:100
140
1.0
141
100.0
290
     0
  0
SCALE
  5
54
102
{ACAD_REACTORS
330
47
102
}
330
47
100
AcDbScale
 70
     0
300
2:1
140
2.0
141
1.0
290
     0
  0
SCALE
  5
55
102
{ACAD_REACTORS
330
47
102
}
330
47
100
AcDbScale
 70
     0
300
4:1
140
4.0
141
1.0
290
     0
  0
SCALE
  5
56
102
{ACAD_REACTORS
330
47
102
}
330
47
100
AcDbScale
 70
     0
300
8:1
140
8.0
141
1.0
290
     0
  0
SCALE
  5
57
102
{ACAD_REACTORS
330
47
102
}
330
47
100
AcDbScale
 70
     0
300
10:1
140
10.0
141
1.0
290
     0
  0
SCALE
  5
58
102
{ACAD_REACTORS
330
47
102
}
330
47
100
AcDbScale
 70
     0
300
100:1
140
100.0
141
1.0
290
     0
  0
SCALE
  5
59
102
{ACAD_REACTORS
330
47
102
}
330
47
100
AcDbScale
 70
     0
300
1/128" = 1'-0"
140
0.007812
141
12.0
290
     0
  0
SCALE
  5
5A
102
{ACAD_REACTORS
330
47
102
}
330
47
100
AcDbScale
 70
     0
300
1/64" = 1'-0"
140
0.015625
141
12.0
290
     0
  0
SCALE
  5
5B
102
{ACAD_REACTORS
330
47
102
}
330
47
100
AcDbScale
 70
     0
300
1/32" = 1'-0"
140
0.03125
141
12.0
290
     0
  0
SCALE
  5
5C
102
{ACAD_REACTORS
330
47
102
}
330
47
100
AcDbScale
 70
     0
300
1/16" = 1'-0"
140
0.0625
141
12.0
290
     0
  0
SCALE
  5
5D
102
{ACAD_REACTORS
330
47
102
}
330
47
100
AcDbScale
 70
     0
300
3/32" = 1'-0"
140
0.09375
141
12.0
290
     0
  0
SCALE
  5
5E
102
{ACAD_REACTORS
330
47
102
}
330
47
100
AcDbScale
 70
     0
300
1/8" = 1'-0"
140
0.125
141
12.0
290
     0
  0
SCALE
  5
5F
102
{ACAD_REACTORS
330
47
102
}
330
47
100
AcDbScale
 70
     0
300
3/16" = 1'-0"
140
0.1875
141
12.0
290
     0
  0
SCALE
  5
60
102
{ACAD_REACTORS
330
47
102
}
330
47
100
AcDbScale
 70
     0
300
1/4" = 1'-0"
140
0.25
141
12.0
290
     0
  0
SCALE
  5
61
102
{ACAD_REACTORS
330
47
102
}
330
47
100
AcDbScale
 70
     0
300
3/8" = 1'-0"
140
0.375
141
12.0
290
     0
  0
SCALE
  5
62
102
{ACAD_REACTORS
330
47
102
}
330
47
100
AcDbScale
 70
     0
300
1/2" = 1'-0"
140
0.5
141
12.0
290
     0
  0
SCALE
  5
63
102
{ACAD_REACTORS
330
47
102
}
330
47
100
AcDbScale
 70
     0
300
3/4" = 1'-0"
140
0.75
141
12.0
290
     0
  0
SCALE
  5
64
102
{ACAD_REACTORS
330
47
102
}
330
47
100
AcDbScale
 70
     0
300
1" = 1'-0"
140
1.0
141
12.0
290
     0
  0
SCALE
  5
65
102
{ACAD_REACTORS
330
47
102
}
330
47
100
AcDbScale
 70
     0
300
1-1/2" = 1'-0"
140
1.5
141
12.0
290
     0
  0
SCALE
  5
66
102
{ACAD_REACTORS
330
47
102
}
330
47
100
AcDbScale
 70
     0
300
3" = 1'-0"
140
3.0
141
12.0
290
     0
  0
SCALE
  5
67
102
{ACAD_REACTORS
330
47
102
}
330
47
100
AcDbScale
 70
     0
300
6" = 1'-0"
140
6.0
141
12.0
290
     0
  0
SCALE
  5
68
102
{ACAD_REACTORS
330
47
102
}
330
47
100
AcDbScale
 70
     0
300
1'-0" = 1'-0"
140
12.0
141
12.0
290
     0
  0
ACDBSECTIONVIEWSTYLE
  5
2C9
102
{ACAD_XDICTIONARY
360
38A
102
}
102
{ACAD_REACTORS
330
2C5
102
}
330
2C5
100
AcDbModelDocViewStyle
 70
     0
  3
Metric50
290
     0
100
AcDbSectionViewStyle
 70
     0
 71
     0
 90
      102
 71
     1
340
11
 62
   256
 40
5.0
340
0
340
0
 62
   256
 40
5.0
300
I, O, Q, S, X, Z
 40
10.0
 90
        0
 40
2.5
 90
        0
 71
     2
340
16
 90
       25
 62
   256
340
16
 90
       50
 62
   256
 40
5.0
 40
2.5
 40
5.0
 71
     3
340
11
 62
   256
 40
5.0
 90
        0
 40
15.0
 90
        1
300
%<\AcVar ViewSectionStartId>%-%<\AcVar ViewSectionEndId>% (%<\AcVar ViewScale \f "%sn">%)
 71
     4
 62
   256
 62
   257
300
ANSI31
 40
1.0
 90
        0
290
     0
290
     0
 90
        6
 40
0.0
 40
1.570796326794896
 40
0.2617993877991494
 40
1.308996938995747
 40
-0.2617993877991494
 40
1.832595714594046
  0
TABLESTYLE
  5
6A
102
{ACAD_XDICTIONARY
360
2BB
102
}
102
{ACAD_REACTORS
330
69
102
}
330
69
100
AcDbTableStyle
  3
Standard
 70
     0
 71
     0
 40
0.06
 41
0.06
280
     0
281
     0
  7
Standard
140
0.18
170
     2
 62
     0
 63
     7
283
     0
274
    -2
284
     1
 64
     0
275
    -2
285
     1
 65
     0
276
    -2
286
     1
 66
     0
277
    -2
287
     1
 67
     0
278
    -2
288
     1
 68
     0
279
    -2
289
     1
 69
     0
  7
Standard
140
0.25
170
     5
 62
     0
 63
     7
283
     0
274
    -2
284
     1
 64
     0
275
    -2
285
     1
 65
     0
276
    -2
286
     1
 66
     0
277
    -2
287
     1
 67
     0
278
    -2
288
     1
 68
     0
279
    -2
289
     1
 69
     0
  7
Standard
140
0.18
170
     5
 62
     0
 63
     7
283
     0
274
    -2
284
     1
 64
     0
275
    -2
285
     1
 65
     0
276
    -2
286
     1
 66
     0
277
    -2
287
     1
 67
     0
278
    -2
288
     1
 68
     0
279
    -2
289
     1
 69
     0
  0
VISUALSTYLE
  5
2F
102
{ACAD_XDICTIONARY
360
361
102
}
102
{ACAD_REACTORS
330
2A
102
}
330
2A
100
AcDbVisualStyle
  2

 70
     4
 71
     0
 72
     2
 73
     0
 90
        0
 40
-0.6
 41
-30.0
 62
     5
 63
     7
421
 16777215
 74
     1
 91
        4
 64
     7
 65
   257
 75
     1
175
     1
 42
1.0
 92
        0
 66
   257
 43
1.0
 76
     1
 77
     6
 78
     2
 67
     7
 79
     5
170
     0
171
     0
290
     0
174
     0
 93
        1
 44
0.0
173
     0
291
     0
 45
0.0
1001
ACAD
1000
AcDbSavedByObjectVersion
1070
     0
  0
VISUALSTYLE
  5
32
102
{ACAD_XDICTIONARY
360
367
102
}
102
{ACAD_REACTORS
330
2A
102
}
330
2A
100
AcDbVisualStyle
  2

 70
     7
 71
     1
 72
     0
 73
     1
 90
        0
 40
-0.6
 41
-30.0
 62
     5
 63
     7
421
 16777215
 74
     0
 91
        4
 64
     7
 65
   257
 75
     1
175
     1
 42
1.0
 92
        8
 66
     7
 43
1.0
 76
     1
 77
     6
 78
     2
 67
     7
 79
     5
170
     0
171
     0
290
     0
174
     0
 93
        1
 44
0.0
173
     0
291
     1
 45
0.0
1001
ACAD
1000
AcDbSavedByObjectVersion
1070
     0
  0
VISUALSTYLE
  5
36
102
{ACAD_XDICTIONARY
360
36F
102
}
102
{ACAD_REACTORS
330
2A
102
}
330
2A
100
AcDbVisualStyle
  2

 70
    12
 71
     2
 72
     2
 73
     0
 90
        0
 40
-0.6
 41
-30.0
 62
     5
 63
     7
421
 16777215
 74
     1
 91
        4
 64
     7
 65
   257
 75
     1
175
     1
 42
1.0
 92
        8
 66
     7
 43
1.0
 76
     1
 77
     6
 78
     2
 67
     7
 79
     5
170
     0
171
     0
290
     0
174
     0
 93
        1
 44
50.0
173
     0
291
     1
 45
0.0
1001
ACAD
1000
AcDbSavedByObjectVersion
1070
     0
  0
VISUALSTYLE
  5
3A
102
{ACAD_XDICTIONARY
360
377
102
}
102
{ACAD_REACTORS
330
2A
102
}
330
2A
100
AcDbVisualStyle
  2

 70
    16
 71
     2
 72
     2
 73
     3
 90
        0
 40
-0.6
 41
-30.0
 62
     5
 63
     8
421
  8421504
 74
     1
 91
        4
 64
     7
 65
   257
 75
     1
175
     1
 42
1.0
 92
        8
 66
     8
424
  8421504
 43
1.0
 76
     1
 77
     6
 78
     2
 67
     7
 79
     5
170
     0
171
     0
290
     0
174
     0
 93
        1
 44
0.0
173
     0
291
     1
 45
0.0
1001
ACAD
1000
AcDbSavedByObjectVersion
1070
     0
  0
VISUALSTYLE
  5
34
102
{ACAD_XDICTIONARY
360
36B
102
}
102
{ACAD_REACTORS
330
2A
102
}
330
2A
100
AcDbVisualStyle
  2

 70
     9
 71
     3
 72
     2
 73
     0
 90
        0
 40
-0.6
 41
-30.0
 62
     5
 63
     7
421
 16777215
 74
     2
 91
        2
 64
     7
 65
   257
 75
     1
175
     1
 42
179.0
 92
        8
 66
     7
 43
1.0
 76
     1
 77
     6
 78
     2
 67
     7
 79
     3
170
     0
171
     0
290
     0
174
     0
 93
        1
 44
0.0
173
     0
291
     0
 45
0.0
1001
ACAD
1000
AcDbSavedByObjectVersion
1070
     0
  0
VISUALSTYLE
  5
35
102
{ACAD_XDICTIONARY
360
36D
102
}
102
{ACAD_REACTORS
330
2A
102
}
330
2A
100
AcDbVisualStyle
  2

 70
    11
 71
     2
 72
     2
 73
     0
 90
        0
 40
-0.6
 41
-30.0
 62
     5
 63
     7
421
 16777215
 74
     1
 91
        4
 64
     7
 65
   257
 75
     1
175
     1
 42
1.0
 92
        8
 66
     7
 43
1.0
 76
     1
 77
     6
 78
     2
 67
     7
 79
     5
170
     0
171
     0
290
     0
174
     0
 93
        1
 44
-50.0
173
     0
291
     1
 45
0.0
1001
ACAD
1000
AcDbSavedByObjectVersion
1070
     0
  0
VISUALSTYLE
  5
3D
102
{ACAD_XDICTIONARY
360
37D
102
}
102
{ACAD_REACTORS
330
2A
102
}
330
2A
100
AcDbVisualStyle
  2

 70
    22
 71
     2
 72
     2
 73
     0
 90
        0
 40
-0.6
 41
-30.0
 62
     5
 63
     7
421
 16777215
 74
     1
 91
        4
 64
     7
 65
   257
 75
     1
175
     1
 42
1.0
 92
        8
 66
     7
 43
1.0
 76
     1
 77
     6
 78
     2
 67
     7
 79
     5
170
     0
171
     0
290
     0
174
     0
 93
        1
 44
0.0
173
     0
291
     1
 45
0.0
1001
ACAD
1000
AcDbSavedByObjectVersion
1070
     0
  0
VISUALSTYLE
  5
39
102
{ACAD_XDICTIONARY
360
375
102
}
102
{ACAD_REACTORS
330
2A
102
}
330
2A
100
AcDbVisualStyle
  2

 70
    15
 71
     2
 72
     2
 73
     0
 90
        0
 40
-0.6
 41
-30.0
 62
     5
 63
     7
421
 16777215
 74
     1
 91
        4
 64
     7
 65
   257
 75
     1
175
     1
 42
1.0
 92
        8
 66
     7
 43
1.0
 76
     1
 77
     6
 78
     2
 67
     7
 79
     5
170
     0
171
     0
290
     0
174
     0
 93
        1
 44
0.0
173
     0
291
     1
 45
0.0
1001
ACAD
1000
AcDbSavedByObjectVersion
1070
     0
  0
VISUALSTYLE
  5
2B
102
{ACAD_XDICTIONARY
360
359
102
}
102
{ACAD_REACTORS
330
2A
102
}
330
2A
100
AcDbVisualStyle
  2

 70
     0
 71
     2
 72
     1
 73
     1
 90
        2
 40
-0.6
 41
30.0
 62
     5
 63
     7
421
 16777215
 74
     0
 91
        0
 64
     7
 65
   257
 75
     1
175
     1
 42
1.0
 92
        8
 66
     7
 43
1.0
 76
     1
 77
     6
 78
     2
 67
     7
 79
     5
170
     0
171
     0
290
     0
174
     0
 93
       13
 44
0.0
173
     0
291
     1
 45
0.0
1001
ACAD
1000
AcDbSavedByObjectVersion
1070
     0
  0
VISUALSTYLE
  5
2C
102
{ACAD_XDICTIONARY
360
35B
102
}
102
{ACAD_REACTORS
330
2A
102
}
330
2A
100
AcDbVisualStyle
  2

 70
     1
 71
     2
 72
     1
 73
     1
 90
        2
 40
-0.6
 41
30.0
 62
     5
 63
     7
421
 16777215
 74
     1
 91
        0
 64
     7
 65
   257
 75
     1
175
     1
 42
1.0
 92
        0
 66
   257
 43
1.0
 76
     1
 77
     6
 78
     2
 67
     7
 79
     5
170
     0
171
     0
290
     0
174
     0
 93
       13
 44
0.0
173
     0
291
     1
 45
0.0
1001
ACAD
1000
AcDbSavedByObjectVersion
1070
     0
  0
VISUALSTYLE
  5
2D
102
{ACAD_XDICTIONARY
360
35D
102
}
102
{ACAD_REACTORS
330
2A
102
}
330
2A
100
AcDbVisualStyle
  2

 70
     2
 71
     2
 72
     2
 73
     1
 90
        2
 40
-0.6
 41
30.0
 62
     5
 63
     7
421
 16777215
 74
     0
 91
        0
 64
     7
 65
   257
 75
     1
175
     1
 42
1.0
 92
        0
 66
     7
 43
1.0
 76
     1
 77
     6
 78
     2
 67
     7
 79
     5
170
     0
171
     0
290
     0
174
     0
 93
       13
 44
0.0
173
     0
291
     1
 45
0.0
1001
ACAD
1000
AcDbSavedByObjectVersion
1070
     0
  0
VISUALSTYLE
  5
2E
102
{ACAD_XDICTIONARY
360
35F
102
}
102
{ACAD_REACTORS
330
2A
102
}
330
2A
100
AcDbVisualStyle
  2

 70
     3
 71
     2
 72
     2
 73
     1
 90
        2
 40
-0.6
 41
30.0
 62
     5
 63
     7
421
 16777215
 74
     1
 91
        0
 64
     7
 65
   257
 75
     1
175
     1
 42
1.0
 92
        0
 66
   257
 43
1.0
 76
     1
 77
     6
 78
     2
 67
     7
 79
     5
170
     0
171
     0
290
     0
174
     0
 93
       13
 44
0.0
173
     0
291
     1
 45
0.0
1001
ACAD
1000
AcDbSavedByObjectVersion
1070
     0
  0
VISUALSTYLE
  5
31
102
{ACAD_XDICTIONARY
360
365
102
}
102
{ACAD_REACTORS
330
2A
102
}
330
2A
100
AcDbVisualStyle
  2

 70
     6
 71
     1
 72
     2
 73
     2
 90
        0
 40
-0.6
 41
-30.0
 62
     5
 63
     7
421
 16777215
 74
     2
 91
        2
 64
     7
 65
   257
 75
     2
175
     1
 42
40.0
 92
        0
 66
   257
 43
1.0
 76
     1
 77
     6
 78
     2
 67
     7
 79
     3
170
     0
171
     0
290
     0
174
     0
 93
        1
 44
0.0
173
     0
291
     0
 45
0.0
1001
ACAD
1000
AcDbSavedByObjectVersion
1070
     0
  0
VISUALSTYLE
  5
3B
102
{ACAD_XDICTIONARY
360
379
102
}
102
{ACAD_REACTORS
330
2A
102
}
330
2A
100
AcDbVisualStyle
  2

 70
    20
 71
     2
 72
     2
 73
     0
 90
        0
 40
-0.6
 41
-30.0
 62
     5
 63
     7
421
 16777215
 74
     1
 91
        4
 64
     7
 65
   257
 75
     1
175
     1
 42
1.0
 92
       10
 66
     7
 43
1.0
 76
     1
 77
     6
 78
     2
 67
     7
 79
     5
170
     0
171
     0
290
     0
174
     0
 93
        1
 44
0.0
173
     0
291
     1
 45
0.0
1001
ACAD
1000
AcDbSavedByObjectVersion
1070
     0
  0
VISUALSTYLE
  5
38
102
{ACAD_XDICTIONARY
360
373
102
}
102
{ACAD_REACTORS
330
2A
102
}
330
2A
100
AcDbVisualStyle
  2

 70
    14
 71
     2
 72
     2
 73
     0
 90
        0
 40
-0.6
 41
-30.0
 62
     5
 63
     7
421
 16777215
 74
     1
 91
        4
 64
     7
 65
   257
 75
     7
175
     7
 42
1.0
 92
        8
 66
     7
 43
1.0
 76
     1
 77
     6
 78
     2
 67
     7
 79
     5
170
     0
171
     0
290
     0
174
     0
 93
        1
 44
0.0
173
     0
291
     1
 45
0.0
1001
ACAD
1000
AcDbSavedByObjectVersion
1070
     0
  0
VISUALSTYLE
  5
3C
102
{ACAD_XDICTIONARY
360
37B
102
}
102
{ACAD_REACTORS
330
2A
102
}
330
2A
100
AcDbVisualStyle
  2

 70
    21
 71
     2
 72
     2
 73
     0
 90
        0
 40
-0.6
 41
-30.0
 62
     5
 63
     7
421
 16777215
 74
     1
 91
        4
 64
     7
 65
   257
 75
     1
175
     1
 42
1.0
 92
        9
 66
     7
 43
1.0
 76
     1
 77
     6
 78
     2
 67
     7
 79
     5
170
     0
171
     0
290
     0
174
     0
 93
        1
 44
0.0
173
     0
291
     1
 45
0.0
1001
ACAD
1000
AcDbSavedByObjectVersion
1070
     0
  0
VISUALSTYLE
  5
33
102
{ACAD_XDICTIONARY
360
369
102
}
102
{ACAD_REACTORS
330
2A
102
}
330
2A
100
AcDbVisualStyle
  2

 70
     8
 71
     2
 72
     3
 73
     0
 90
        2
 40
-0.6
 41
30.0
 62
     5
 63
     7
421
 16777215
 74
     0
 91
        0
 64
     7
 65
   257
 75
     1
175
     1
 42
1.0
 92
        8
 66
   257
 43
1.0
 76
     1
 77
     6
 78
     2
 67
     7
 79
     3
170
     0
171
     0
290
     0
174
     0
 93
       13
 44
0.0
173
     0
291
     0
 45
0.0
1001
ACAD
1000
AcDbSavedByObjectVersion
1070
     0
  0
VISUALSTYLE
  5
42
102
{ACAD_XDICTIONARY
360
387
102
}
102
{ACAD_REACTORS
330
2A
102
}
330
2A
100
AcDbVisualStyle
  2

 70
    27
 71
     2
 72
     2
 73
     1
 90
        2
 40
-0.6
 41
30.0
 62
     5
 63
     7
421
 16777215
 74
     0
 91
        4
 64
     7
 65
   257
 75
     1
175
     1
 42
1.0
 92
        8
 66
   257
 43
1.0
 76
     1
 77
     6
 78
     2
 67
     8
425
  7895160
 79
     3
170
     0
171
     0
290
     0
174
     0
 93
        5
 44
0.0
173
     0
291
     0
 45
0.0
1001
ACAD
1000
AcDbSavedByObjectVersion
1070
     0
  0
VISUALSTYLE
  5
41
102
{ACAD_XDICTIONARY
360
385
102
}
102
{ACAD_REACTORS
330
2A
102
}
330
2A
100
AcDbVisualStyle
  2

 70
    26
 71
     2
 72
     2
 73
     1
 90
        2
 40
-0.6
 41
30.0
 62
     5
 63
     7
421
 16777215
 74
     1
 91
       10
 64
     7
 65
   257
 75
     2
175
     1
 42
1.0
 92
        8
 66
   257
 43
1.0
 76
     1
 77
     6
 78
     2
 67
     7
 79
     3
170
     0
171
     0
290
     0
174
     0
 93
        5
 44
0.0
173
     0
291
     0
 45
0.0
1001
ACAD
1000
AcDbSavedByObjectVersion
1070
     0
  0
VISUALSTYLE
  5
3E
102
{ACAD_XDICTIONARY
360
37F
102
}
102
{ACAD_REACTORS
330
2A
102
}
330
2A
100
AcDbVisualStyle
  2

 70
    23
 71
     2
 72
     2
 73
     3
 90
        0
 40
-0.6
 41
-30.0
 62
     5
 63
     7
421
 16777215
 74
     2
 91
        2
 64
     7
 65
     7
 75
     1
175
     1
 42
40.0
 92
        8
 66
     7
 43
1.0
 76
     1
 77
     6
 78
     2
 67
     7
 79
     3
170
     0
171
     0
290
     0
174
     0
 93
        1
 44
0.0
173
     0
291
     0
 45
0.0
1001
ACAD
1000
AcDbSavedByObjectVersion
1070
     0
  0
VISUALSTYLE
  5
3F
102
{ACAD_XDICTIONARY
360
381
102
}
102
{ACAD_REACTORS
330
2A
102
}
330
2A
100
AcDbVisualStyle
  2

 70
    24
 71
     1
 72
     2
 73
     2
 90
        0
 40
-0.6
 41
-30.0
 62
     5
 63
     7
421
 16777215
 74
     2
 91
        2
 64
     7
 65
     7
 75
     1
175
     1
 42
40.0
 92
       11
 66
     7
 43
1.0
 76
     1
 77
     6
 78
     2
 67
     7
 79
     6
170
     0
171
     0
290
     0
174
     0
 93
        1
 44
0.0
173
     0
291
     0
 45
0.0
1001
ACAD
1000
AcDbSavedByObjectVersion
1070
     0
  0
VISUALSTYLE
  5
37
102
{ACAD_XDICTIONARY
360
371
102
}
102
{ACAD_REACTORS
330
2A
102
}
330
2A
100
AcDbVisualStyle
  2

 70
    13
 71
     2
 72
     2
 73
     0
 90
        0
 40
-0.6
 41
-30.0
 62
     5
 63
     7
421
 16777215
 74
     1
 91
        4
 64
     7
 65
   257
 75
     1
175
     1
 42
1.0
 92
       12
 66
     7
 43
1.0
 76
     1
 77
     6
 78
     2
 67
     7
 79
     5
170
     0
171
     0
290
     0
174
     0
 93
        1
 44
0.0
173
     0
291
     1
 45
0.0
1001
ACAD
1000
AcDbSavedByObjectVersion
1070
     0
  0
VISUALSTYLE
  5
30
102
{ACAD_XDICTIONARY
360
363
102
}
102
{ACAD_REACTORS
330
2A
102
}
330
2A
100
AcDbVisualStyle
  2

 70
     5
 71
     0
 72
     2
 73
     0
 90
        0
 40
-0.6
 41
-30.0
 62
     5
 63
     7
421
 16777215
 74
     1
 91
        4
 64
     7
 65
   257
 75
     1
175
     1
 42
1.0
 92
        0
 66
   257
 43
1.0
 76
     1
 77
     6
 78
     2
 67
     7
 79
     3
170
     0
171
     0
290
     0
174
     0
 93
        1
 44
0.0
173
     0
291
     0
 45
0.0
1001
ACAD
1000
AcDbSavedByObjectVersion
1070
     0
  0
VISUALSTYLE
  5
40
102
{ACAD_XDICTIONARY
360
383
102
}
102
{ACAD_REACTORS
330
2A
102
}
330
2A
100
AcDbVisualStyle
  2

 70
    25
 71
     2
 72
     2
 73
     1
 90
        1
 40
0.5
 41
-30.0
 62
     5
 63
     7
421
 16777215
 74
     1
 91
        0
 64
     7
 65
   257
 75
     1
175
     1
 42
1.0
 92
        8
 66
     7
 43
1.0
 76
     1
 77
     6
 78
     2
 67
     7
 79
     3
170
     0
171
     0
290
     0
174
     0
 93
       13
 44
0.0
173
     0
291
     0
 45
0.0
1001
ACAD
1000
AcDbSavedByObjectVersion
1070
     0
  0
DICTIONARYVAR
  5
282
102
{ACAD_REACTORS
330
281
102
}
330
281
100
DictionaryVariables
280
     0
  1
1:1
  0
DICTIONARYVAR
  5
2C3
102
{ACAD_REACTORS
330
281
102
}
330
281
100
DictionaryVariables
280
     0
  1
STANDARD
  0
DICTIONARYVAR
  5
2C2
102
{ACAD_REACTORS
330
281
102
}
330
281
100
DictionaryVariables
280
     0
  1
STANDARD
  0
DICTIONARYVAR
  5
353
102
{ACAD_REACTORS
330
281
102
}
330
281
100
DictionaryVariables
280
     0
  1
Metric50
  0
DICTIONARYVAR
  5
354
102
{ACAD_REACTORS
330
281
102
}
330
281
100
DictionaryVariables
280
     0
  1
Metric50
  0
DICTIONARYVAR
  5
283
102
{ACAD_REACTORS
330
281
102
}
330
281
100
DictionaryVariables
280
     0
  1
1
  0
DICTIONARYVAR
  5
355
102
{ACAD_REACTORS
330
281
102
}
330
281
100
DictionaryVariables
280
     0
  1
2
  0
DICTIONARY
  5
38C
330
2CA
100
AcDbDictionary
280
     1
281
     1
  3
ACAD_XREC_ROUNDTRIP
360
38D
  0
DICTIONARY
  5
2B7
330
45
100
AcDbDictionary
280
     1
281
     1
  3
ACAD_XREC_ROUNDTRIP
360
2B8
  0
DICTIONARY
  5
2B5
330
44
100
AcDbDictionary
280
     1
281
     1
  3
ACAD_XREC_ROUNDTRIP
360
2B6
  0
DICTIONARY
  5
2B9
330
46
100
AcDbDictionary
280
     1
281
     1
  3
ACAD_XREC_ROUNDTRIP
360
2BA
  0
DICTIONARY
  5
38A
330
2C9
100
AcDbDictionary
280
     1
281
     1
  3
ACAD_XREC_ROUNDTRIP
360
38B
  0
DICTIONARY
  5
2BB
330
6A
100
AcDbDictionary
280
     1
281
     1
  3
ACAD_ROUNDTRIP_2008_TABLESTYLE_CELLSTYLEMAP
360
357
  3
ACAD_XREC_ROUNDTRIP
360
389
  0
DICTIONARY
  5
361
330
2F
100
AcDbDictionary
280
     1
281
     1
  3
ACAD_XREC_ROUNDTRIP
360
362
  0
DICTIONARY
  5
367
330
32
100
AcDbDictionary
280
     1
281
     1
  3
ACAD_XREC_ROUNDTRIP
360
368
  0
DICTIONARY
  5
36F
330
36
100
AcDbDictionary
280
     1
281
     1
  3
ACAD_XREC_ROUNDTRIP
360
370
  0
DICTIONARY
  5
377
330
3A
100
AcDbDictionary
280
     1
281
     1
  3
ACAD_XREC_ROUNDTRIP
360
378
  0
DICTIONARY
  5
36B
330
34
100
AcDbDictionary
280
     1
281
     1
  3
ACAD_XREC_ROUNDTRIP
360
36C
  0
DICTIONARY
  5
36D
330
35
100
AcDbDictionary
280
     1
281
     1
  3
ACAD_XREC_ROUNDTRIP
360
36E
  0
DICTIONARY
  5
37D
330
3D
100
AcDbDictionary
280
     1
281
     1
  3
ACAD_XREC_ROUNDTRIP
360
37E
  0
DICTIONARY
  5
375
330
39
100
AcDbDictionary
280
     1
281
     1
  3
ACAD_XREC_ROUNDTRIP
360
376
  0
DICTIONARY
  5
359
330
2B
100
AcDbDictionary
280
     1
281
     1
  3
ACAD_XREC_ROUNDTRIP
360
35A
  0
DICTIONARY
  5
35B
330
2C
100
AcDbDictionary
280
     1
281
     1
  3
ACAD_XREC_ROUNDTRIP
360
35C
  0
DICTIONARY
  5
35D
330
2D
100
AcDbDictionary
280
     1
281
     1
  3
ACAD_XREC_ROUNDTRIP
360
35E
  0
DICTIONARY
  5
35F
330
2E
100
AcDbDictionary
280
     1
281
     1
  3
ACAD_XREC_ROUNDTRIP
360
360
  0
DICTIONARY
  5
365
330
31
100
AcDbDictionary
280
     1
281
     1
  3
ACAD_XREC_ROUNDTRIP
360
366
  0
DICTIONARY
  5
379
330
3B
100
AcDbDictionary
280
     1
281
     1
  3
ACAD_XREC_ROUNDTRIP
360
37A
  0
DICTIONARY
  5
373
330
38
100
AcDbDictionary
280
     1
281
     1
  3
ACAD_XREC_ROUNDTRIP
360
374
  0
DICTIONARY
  5
37B
330
3C
100
AcDbDictionary
280
     1
281
     1
  3
ACAD_XREC_ROUNDTRIP
360
37C
  0
DICTIONARY
  5
369
330
33
100
AcDbDictionary
280
     1
281
     1
  3
ACAD_XREC_ROUNDTRIP
360
36A
  0
DICTIONARY
  5
387
330
42
100
AcDbDictionary
280
     1
281
     1
  3
ACAD_XREC_ROUNDTRIP
360
388
  0
DICTIONARY
  5
385
330
41
100
AcDbDictionary
280
     1
281
     1
  3
ACAD_XREC_ROUNDTRIP
360
386
  0
DICTIONARY
  5
37F
330
3E
100
AcDbDictionary
280
     1
281
     1
  3
ACAD_XREC_ROUNDTRIP
360
380
  0
DICTIONARY
  5
381
330
3F
100
AcDbDictionary
280
     1
281
     1
  3
ACAD_XREC_ROUNDTRIP
360
382
  0
DICTIONARY
  5
371
330
37
100
AcDbDictionary
280
     1
281
     1
  3
ACAD_XREC_ROUNDTRIP
360
372
  0
DICTIONARY
  5
363
330
30
100
AcDbDictionary
280
     1
281
     1
  3
ACAD_XREC_ROUNDTRIP
360
364
  0
DICTIONARY
  5
383
330
40
100
AcDbDictionary
280
     1
281
     1
  3
ACAD_XREC_ROUNDTRIP
360
384
  0
XRECORD
  5
38D
102
{ACAD_REACTORS
330
38C
102
}
330
38C
100
AcDbXrecord
280
     1
102
DISPLAYNAME
  1
Metric50
102
FLAGS
 90
        0
  0
XRECORD
  5
2B8
102
{ACAD_REACTORS
330
2B7
102
}
330
2B7
100
AcDbXrecord
280
     1
102
MATERIAL
148
0.0
149
0.0
149
0.0
 93
        0
 94
      127
282
     0
 72
     1
 77
     1
171
     1
175
     1
179
     1
273
     0
  0
XRECORD
  5
2B6
102
{ACAD_REACTORS
330
2B5
102
}
330
2B5
100
AcDbXrecord
280
     1
102
MATERIAL
148
0.0
149
0.0
149
0.0
 93
        0
 94
      127
282
     0
 72
     1
 77
     1
171
     1
175
     1
179
     1
273
     0
  0
XRECORD
  5
2BA
102
{ACAD_REACTORS
330
2B9
102
}
330
2B9
100
AcDbXrecord
280
     1
102
MATERIAL
148
0.0
149
0.0
149
0.0
 93
        0
 94
      127
282
     0
 72
     1
 77
     1
171
     1
175
     1
179
     1
273
     0
  0
XRECORD
  5
38B
102
{ACAD_REACTORS
330
38A
102
}
330
38A
100
AcDbXrecord
280
     1
102
DISPLAYNAME
  1
Metric50
102
FLAGS
 90
        0
  0
CELLSTYLEMAP
  5
357
102
{ACAD_REACTORS
330
2BB
102
}
330
2BB
100
AcDbCellStyleMap
 90
        3
300
CELLSTYLE
  1
TABLEFORMAT_BEGIN
 90
        5
170
     1
 91
        0
 92
    32768
 62
   257
 93
        1
300
CONTENTFORMAT
  1
CONTENTFORMAT_BEGIN
 90
        0
 91
        0
 92
        4
 93
        0
300

 40
0.0
140
1.0
 94
        5
 62
     0
340
11
144
0.25
309
CONTENTFORMAT_END
171
     1
301
MARGIN
  1
CELLMARGIN_BEGIN
 40
0.06
 40
0.06
 40
0.06
 40
0.06
 40
0.18
 40
0.18
309
CELLMARGIN_END
 94
        6
 95
        1
302
GRIDFORMAT
  1
GRIDFORMAT_BEGIN
 90
        0
 91
        1
 62
     0
 92
       -2
340
14
 93
        0
 40
0.045
309
GRIDFORMAT_END
 95
        2
302
GRIDFORMAT
  1
GRIDFORMAT_BEGIN
 90
        0
 91
        1
 62
     0
 92
       -2
340
14
 93
        0
 40
0.045
309
GRIDFORMAT_END
 95
        4
302
GRIDFORMAT
  1
GRIDFORMAT_BEGIN
 90
        0
 91
        1
 62
     0
 92
       -2
340
14
 93
        0
 40
0.045
309
GRIDFORMAT_END
 95
        8
302
GRIDFORMAT
  1
GRIDFORMAT_BEGIN
 90
        0
 91
        1
 62
     0
 92
       -2
340
14
 93
        0
 40
0.045
309
GRIDFORMAT_END
 95
       16
302
GRIDFORMAT
  1
GRIDFORMAT_BEGIN
 90
        0
 91
        1
 62
     0
 92
       -2
340
14
 93
        0
 40
0.045
309
GRIDFORMAT_END
 95
       32
302
GRIDFORMAT
  1
GRIDFORMAT_BEGIN
 90
        0
 91
        1
 62
     0
 92
       -2
340
14
 93
        0
 40
0.045
309
GRIDFORMAT_END
309
TABLEFORMAT_END
  1
CELLSTYLE_BEGIN
 90
        1
 91
        1
300
_TITLE
309
CELLSTYLE_END
300
CELLSTYLE
  1
TABLEFORMAT_BEGIN
 90
        5
170
     1
 91
        0
 92
        0
 62
   257
 93
        1
300
CONTENTFORMAT
  1
CONTENTFORMAT_BEGIN
 90
        0
 91
        0
 92
        4
 93
        0
300

 40
0.0
140
1.0
 94
        5
 62
     0
340
11
144
0.18
309
CONTENTFORMAT_END
171
     1
301
MARGIN
  1
CELLMARGIN_BEGIN
 40
0.06
 40
0.06
 40
0.06
 40
0.06
 40
0.18
 40
0.18
309
CELLMARGIN_END
 94
        6
 95
        1
302
GRIDFORMAT
  1
GRIDFORMAT_BEGIN
 90
        0
 91
        1
 62
     0
 92
       -2
340
14
 93
        0
 40
0.045
309
GRIDFORMAT_END
 95
        2
302
GRIDFORMAT
  1
GRIDFORMAT_BEGIN
 90
        0
 91
        1
 62
     0
 92
       -2
340
14
 93
        0
 40
0.045
309
GRIDFORMAT_END
 95
        4
302
GRIDFORMAT
  1
GRIDFORMAT_BEGIN
 90
        0
 91
        1
 62
     0
 92
       -2
340
14
 93
        0
 40
0.045
309
GRIDFORMAT_END
 95
        8
302
GRIDFORMAT
  1
GRIDFORMAT_BEGIN
 90
        0
 91
        1
 62
     0
 92
       -2
340
14
 93
        0
 40
0.045
309
GRIDFORMAT_END
 95
       16
302
GRIDFORMAT
  1
GRIDFORMAT_BEGIN
 90
        0
 91
        1
 62
     0
 92
       -2
340
14
 93
        0
 40
0.045
309
GRIDFORMAT_END
 95
       32
302
GRIDFORMAT
  1
GRIDFORMAT_BEGIN
 90
        0
 91
        1
 62
     0
 92
       -2
340
14
 93
        0
 40
0.045
309
GRIDFORMAT_END
309
TABLEFORMAT_END
  1
CELLSTYLE_BEGIN
 90
        2
 91
        1
300
_HEADER
309
CELLSTYLE_END
300
CELLSTYLE
  1
TABLEFORMAT_BEGIN
 90
        5
170
     1
 91
        0
 92
        0
 62
   257
 93
        1
300
CONTENTFORMAT
  1
CONTENTFORMAT_BEGIN
 90
        0
 91
        0
 92
        4
 93
        0
300

 40
0.0
140
1.0
 94
        2
 62
     0
340
11
144
0.18
309
CONTENTFORMAT_END
171
     1
301
MARGIN
  1
CELLMARGIN_BEGIN
 40
0.06
 40
0.06
 40
0.06
 40
0.06
 40
0.18
 40
0.18
309
CELLMARGIN_END
 94
        6
 95
        1
302
GRIDFORMAT
  1
GRIDFORMAT_BEGIN
 90
        0
 91
        1
 62
     0
 92
       -2
340
14
 93
        0
 40
0.045
309
GRIDFORMAT_END
 95
        2
302
GRIDFORMAT
  1
GRIDFORMAT_BEGIN
 90
        0
 91
        1
 62
     0
 92
       -2
340
14
 93
        0
 40
0.045
309
GRIDFORMAT_END
 95
        4
302
GRIDFORMAT
  1
GRIDFORMAT_BEGIN
 90
        0
 91
        1
 62
     0
 92
       -2
340
14
 93
        0
 40
0.045
309
GRIDFORMAT_END
 95
        8
302
GRIDFORMAT
  1
GRIDFORMAT_BEGIN
 90
        0
 91
        1
 62
     0
 92
       -2
340
14
 93
        0
 40
0.045
309
GRIDFORMAT_END
 95
       16
302
GRIDFORMAT
  1
GRIDFORMAT_BEGIN
 90
        0
 91
        1
 62
     0
 92
       -2
340
14
 93
        0
 40
0.045
309
GRIDFORMAT_END
 95
       32
302
GRIDFORMAT
  1
GRIDFORMAT_BEGIN
 90
        0
 91
        1
 62
     0
 92
       -2
340
14
 93
        0
 40
0.045
309
GRIDFORMAT_END
309
TABLEFORMAT_END
  1
CELLSTYLE_BEGIN
 90
        3
 91
        2
300
_DATA
309
CELLSTYLE_END
  0
XRECORD
  5
389
102
{ACAD_REACTORS
330
2BB
102
}
330
2BB
100
AcDbXrecord
280
     1
102
ACAD_ROUNDTRIP_PRE2007_TABLESTYLE
 90
        4
 91
        0
  1

 92
        4
 93
        0
  2

 94
        4
 95
        0
  3

  0
XRECORD
  5
362
102
{ACAD_REACTORS
330
361
102
}
330
361
100
AcDbXrecord
280
     1
102
RTVSPost2010Prop28
280
     1
102
RTVSPost2010PropOp28
 70
     1
102
RTVSPost2010Prop29
280
     1
102
RTVSPost2010PropOp29
 70
     1
102
RTVSPost2010Prop30
280
     0
102
RTVSPost2010PropOp30
 70
     1
102
RTVSPost2010Prop31
280
     0
102
RTVSPost2010PropOp31
 70
     1
102
RTVSPost2010Prop32
280
     0
102
RTVSPost2010PropOp32
 70
     1
102
RTVSPost2010Prop33
280
     0
102
RTVSPost2010PropOp33
 70
     1
102
RTVSPost2010Prop34
280
     0
102
RTVSPost2010PropOp34
 70
     1
102
RTVSPost2010Prop35
280
     0
102
RTVSPost2010PropOp35
 70
     1
102
RTVSPost2010Prop36
280
     0
102
RTVSPost2010PropOp36
 70
     1
102
RTVSPost2010Prop37
 90
       50
102
RTVSPost2010PropOp37
 70
     1
102
RTVSPost2010Prop38
140
0.0
102
RTVSPost2010PropOp38
 70
     1
102
RTVSPost2010Prop39
140
1.0
102
RTVSPost2010PropOp39
 70
     1
102
RTVSPost2010Prop40
 90
        0
102
RTVSPost2010PropOp40
 70
     1
102
RTVSPost2010Prop41ColorIndex
 90
       18
102
RTVSPost2010Prop41ColorRGB
 90
        0
102
RTVSPost2010PropOp41
 70
     1
102
RTVSPost2010Prop42
 90
       50
102
RTVSPost2010PropOp42
 70
     1
102
RTVSPost2010Prop43
 90
        3
102
RTVSPost2010PropOp43
 70
     1
102
RTVSPost2010Prop44ColorIndex
 90
        5
102
RTVSPost2010Prop44ColorRGB
 90
      255
102
RTVSPost2010PropOp44
 70
     1
102
RTVSPost2010Prop45
280
     0
102
RTVSPost2010PropOp45
 70
     1
102
RTVSPost2010Prop46
 90
       50
102
RTVSPost2010PropOp46
 70
     1
102
RTVSPost2010Prop47
 90
       50
102
RTVSPost2010PropOp47
 70
     1
102
RTVSPost2010Prop48
 90
       50
102
RTVSPost2010PropOp48
 70
     1
102
RTVSPost2010Prop49
280
     0
102
RTVSPost2010PropOp49
 70
     1
102
RTVSPost2010Prop50
 90
       50
102
RTVSPost2010PropOp50
 70
     1
102
RTVSPost2010Prop51ColorIndex
 90
      256
102
RTVSPost2010Prop51ColorRGB
 90
-16777216
102
RTVSPost2010PropOp51
 70
     0
102
RTVSPost2010Prop52
140
1.0
102
RTVSPost2010PropOp52
 70
     0
102
RTVSPost2010Prop53
 90
        2
102
RTVSPost2010PropOp53
 70
     1
102
RTVSPost2010Prop54
  1
strokes_ogs.tif
102
RTVSPost2010PropOp54
 70
     1
102
RTVSPost2010Prop55
280
     0
102
RTVSPost2010PropOp55
 70
     1
102
RTVSPost2010Prop56
140
1.0
102
RTVSPost2010PropOp56
 70
     1
102
RTVSPost2010Prop57
140
1.0
102
RTVSPost2010PropOp57
 70
     1
102
RTVSPropertyOp0
 70
     1
102
RTVSPropertyOp1
 70
     1
102
RTVSPropertyOp2
 70
     1
102
RTVSPropertyOp3
 70
     1
102
RTVSPropertyOp4
 70
     1
102
RTVSPropertyOp5
 70
     1
102
RTVSPropertyOp6
 70
     1
102
RTVSPropertyOp7
 70
     1
102
RTVSPropertyOp8
 70
     1
102
RTVSPropertyOp9
 70
     1
102
RTVSPropertyOp10
 70
     1
102
RTVSPropertyOp11
 70
     1
102
RTVSPropertyOp12
 70
     1
102
RTVSPropertyOp13
 70
     1
102
RTVSPropertyOp14
 70
     1
102
RTVSPropertyOp15
 70
     1
102
RTVSPropertyOp16
 70
     1
102
RTVSPropertyOp17
 70
     1
102
RTVSPropertyOp18
 70
     1
102
RTVSPropertyOp19
 70
     1
102
RTVSPropertyOp20
 70
     1
102
RTVSPropertyOp21
 70
     1
102
RTVSPropertyOp22
 70
     1
102
RTVSPropertyOp23
 70
     1
102
RTVSPropertyOp24
 70
     1
102
RTVSPropertyOp25
 70
     1
102
RTVSPropertyOp26
 70
     1
102
RTVSPropertyOp27
 70
     1
102
RTVSPropertyOp28
 70
     1
102
RTVSPropertyOp29
 70
     1
102
RTVSPropertyOp30
 70
     1
102
RTVSPropertyOp31
 70
     1
102
RTVSPropertyOp32
 70
     1
102
RTVSPropertyOp33
 70
     1
102
RTVSPropertyOp34
 70
     1
102
RTVSPropertyOp35
 70
     1
102
RTVSPropertyOp36
 70
     1
102
RTVSPropertyOp37
 70
     1
102
RTVSPropertyOp38
 70
     1
102
RTVSPropertyOp39
 70
     1
102
RTVSPropertyOp40
 70
     1
102
RTVSPropertyOp41
 70
     1
102
RTVSPropertyOp42
 70
     1
102
RTVSPropertyOp43
 70
     1
102
RTVSPropertyOp44
 70
     1
102
RTVSPropertyOp45
 70
     1
102
RTVSPropertyOp46
 70
     1
102
RTVSPropertyOp47
 70
     1
102
RTVSPropertyOp48
 70
     1
102
RTVSPropertyOp49
 70
     1
102
RTVSPropertyOp50
 70
     1
102
RTVSPropertyOp51
 70
     0
102
RTVSPropertyOp52
 70
     0
102
RTVSPropertyOp53
 70
     1
102
RTVSPropertyOp54
 70
     1
102
RTVSPropertyOp55
 70
     1
102
RTVSPropertyOp56
 70
     1
102
RTVSPropertyOp57
 70
     1
102
RTVSPropertyOp58
 70
     1
102
RTVSPropertyOp59
 70
     1
102
RTVSPropertyOp60
 70
     1
102
RTVSPropertyOp61
 70
     1
102
RTVSPropertyOp62
 70
     1
  0
XRECORD
  5
368
102
{ACAD_REACTORS
330
367
102
}
330
367
100
AcDbXrecord
280
     1
102
RTVSPost2010Prop28
280
     0
102
RTVSPost2010PropOp28
 70
     1
102
RTVSPost2010Prop29
280
     1
102
RTVSPost2010PropOp29
 70
     1
102
RTVSPost2010Prop30
280
     1
102
RTVSPost2010PropOp30
 70
     1
102
RTVSPost2010Prop31
280
     0
102
RTVSPost2010PropOp31
 70
     1
102
RTVSPost2010Prop32
280
     0
102
RTVSPost2010PropOp32
 70
     1
102
RTVSPost2010Prop33
280
     0
102
RTVSPost2010PropOp33
 70
     1
102
RTVSPost2010Prop34
280
     0
102
RTVSPost2010PropOp34
 70
     1
102
RTVSPost2010Prop35
280
     0
102
RTVSPost2010PropOp35
 70
     1
102
RTVSPost2010Prop36
280
     0
102
RTVSPost2010PropOp36
 70
     1
102
RTVSPost2010Prop37
 90
       50
102
RTVSPost2010PropOp37
 70
     1
102
RTVSPost2010Prop38
140
0.0
102
RTVSPost2010PropOp38
 70
     1
102
RTVSPost2010Prop39
140
1.0
102
RTVSPost2010PropOp39
 70
     1
102
RTVSPost2010Prop40
 90
        0
102
RTVSPost2010PropOp40
 70
     1
102
RTVSPost2010Prop41ColorIndex
 90
       18
102
RTVSPost2010Prop41ColorRGB
 90
        0
102
RTVSPost2010PropOp41
 70
     1
102
RTVSPost2010Prop42
 90
       50
102
RTVSPost2010PropOp42
 70
     1
102
RTVSPost2010Prop43
 90
        3
102
RTVSPost2010PropOp43
 70
     1
102
RTVSPost2010Prop44ColorIndex
 90
        5
102
RTVSPost2010Prop44ColorRGB
 90
      255
102
RTVSPost2010PropOp44
 70
     1
102
RTVSPost2010Prop45
280
     0
102
RTVSPost2010PropOp45
 70
     1
102
RTVSPost2010Prop46
 90
       50
102
RTVSPost2010PropOp46
 70
     1
102
RTVSPost2010Prop47
 90
       50
102
RTVSPost2010PropOp47
 70
     1
102
RTVSPost2010Prop48
 90
       50
102
RTVSPost2010PropOp48
 70
     1
102
RTVSPost2010Prop49
280
     0
102
RTVSPost2010PropOp49
 70
     1
102
RTVSPost2010Prop50
 90
       50
102
RTVSPost2010PropOp50
 70
     1
102
RTVSPost2010Prop51ColorIndex
 90
      256
102
RTVSPost2010Prop51ColorRGB
 90
-16777216
102
RTVSPost2010PropOp51
 70
     0
102
RTVSPost2010Prop52
140
1.0
102
RTVSPost2010PropOp52
 70
     0
102
RTVSPost2010Prop53
 90
        2
102
RTVSPost2010PropOp53
 70
     1
102
RTVSPost2010Prop54
  1
strokes_ogs.tif
102
RTVSPost2010PropOp54
 70
     1
102
RTVSPost2010Prop55
280
     0
102
RTVSPost2010PropOp55
 70
     1
102
RTVSPost2010Prop56
140
1.0
102
RTVSPost2010PropOp56
 70
     1
102
RTVSPost2010Prop57
140
1.0
102
RTVSPost2010PropOp57
 70
     1
102
RTVSPropertyOp0
 70
     1
102
RTVSPropertyOp1
 70
     1
102
RTVSPropertyOp2
 70
     1
102
RTVSPropertyOp3
 70
     1
102
RTVSPropertyOp4
 70
     1
102
RTVSPropertyOp5
 70
     1
102
RTVSPropertyOp6
 70
     1
102
RTVSPropertyOp7
 70
     1
102
RTVSPropertyOp8
 70
     1
102
RTVSPropertyOp9
 70
     1
102
RTVSPropertyOp10
 70
     1
102
RTVSPropertyOp11
 70
     1
102
RTVSPropertyOp12
 70
     1
102
RTVSPropertyOp13
 70
     1
102
RTVSPropertyOp14
 70
     1
102
RTVSPropertyOp15
 70
     1
102
RTVSPropertyOp16
 70
     1
102
RTVSPropertyOp17
 70
     1
102
RTVSPropertyOp18
 70
     1
102
RTVSPropertyOp19
 70
     1
102
RTVSPropertyOp20
 70
     1
102
RTVSPropertyOp21
 70
     1
102
RTVSPropertyOp22
 70
     1
102
RTVSPropertyOp23
 70
     1
102
RTVSPropertyOp24
 70
     1
102
RTVSPropertyOp25
 70
     1
102
RTVSPropertyOp26
 70
     1
102
RTVSPropertyOp27
 70
     1
102
RTVSPropertyOp28
 70
     1
102
RTVSPropertyOp29
 70
     1
102
RTVSPropertyOp30
 70
     1
102
RTVSPropertyOp31
 70
     1
102
RTVSPropertyOp32
 70
     1
102
RTVSPropertyOp33
 70
     1
102
RTVSPropertyOp34
 70
     1
102
RTVSPropertyOp35
 70
     1
102
RTVSPropertyOp36
 70
     1
102
RTVSPropertyOp37
 70
     1
102
RTVSPropertyOp38
 70
     1
102
RTVSPropertyOp39
 70
     1
102
RTVSPropertyOp40
 70
     1
102
RTVSPropertyOp41
 70
     1
102
RTVSPropertyOp42
 70
     1
102
RTVSPropertyOp43
 70
     1
102
RTVSPropertyOp44
 70
     1
102
RTVSPropertyOp45
 70
     1
102
RTVSPropertyOp46
 70
     1
102
RTVSPropertyOp47
 70
     1
102
RTVSPropertyOp48
 70
     1
102
RTVSPropertyOp49
 70
     1
102
RTVSPropertyOp50
 70
     1
102
RTVSPropertyOp51
 70
     0
102
RTVSPropertyOp52
 70
     0
102
RTVSPropertyOp53
 70
     1
102
RTVSPropertyOp54
 70
     1
102
RTVSPropertyOp55
 70
     1
102
RTVSPropertyOp56
 70
     1
102
RTVSPropertyOp57
 70
     1
102
RTVSPropertyOp58
 70
     1
102
RTVSPropertyOp59
 70
     1
102
RTVSPropertyOp60
 70
     1
102
RTVSPropertyOp61
 70
     1
102
RTVSPropertyOp62
 70
     1
  0
XRECORD
  5
370
102
{ACAD_REACTORS
330
36F
102
}
330
36F
100
AcDbXrecord
280
     1
102
RTVSPost2010Prop28
280
     0
102
RTVSPost2010PropOp28
 70
     1
102
RTVSPost2010Prop29
280
     1
102
RTVSPost2010PropOp29
 70
     1
102
RTVSPost2010Prop30
280
     1
102
RTVSPost2010PropOp30
 70
     1
102
RTVSPost2010Prop31
280
     0
102
RTVSPost2010PropOp31
 70
     1
102
RTVSPost2010Prop32
280
     0
102
RTVSPost2010PropOp32
 70
     1
102
RTVSPost2010Prop33
280
     0
102
RTVSPost2010PropOp33
 70
     1
102
RTVSPost2010Prop34
280
     0
102
RTVSPost2010PropOp34
 70
     1
102
RTVSPost2010Prop35
280
     0
102
RTVSPost2010PropOp35
 70
     1
102
RTVSPost2010Prop36
280
     0
102
RTVSPost2010PropOp36
 70
     1
102
RTVSPost2010Prop37
 90
       50
102
RTVSPost2010PropOp37
 70
     1
102
RTVSPost2010Prop38
140
0.0
102
RTVSPost2010PropOp38
 70
     1
102
RTVSPost2010Prop39
140
1.0
102
RTVSPost2010PropOp39
 70
     1
102
RTVSPost2010Prop40
 90
        0
102
RTVSPost2010PropOp40
 70
     1
102
RTVSPost2010Prop41ColorIndex
 90
       18
102
RTVSPost2010Prop41ColorRGB
 90
        0
102
RTVSPost2010PropOp41
 70
     1
102
RTVSPost2010Prop42
 90
       50
102
RTVSPost2010PropOp42
 70
     1
102
RTVSPost2010Prop43
 90
        3
102
RTVSPost2010PropOp43
 70
     1
102
RTVSPost2010Prop44ColorIndex
 90
        5
102
RTVSPost2010Prop44ColorRGB
 90
      255
102
RTVSPost2010PropOp44
 70
     1
102
RTVSPost2010Prop45
280
     0
102
RTVSPost2010PropOp45
 70
     1
102
RTVSPost2010Prop46
 90
       50
102
RTVSPost2010PropOp46
 70
     1
102
RTVSPost2010Prop47
 90
       50
102
RTVSPost2010PropOp47
 70
     1
102
RTVSPost2010Prop48
 90
       50
102
RTVSPost2010PropOp48
 70
     1
102
RTVSPost2010Prop49
280
     0
102
RTVSPost2010PropOp49
 70
     1
102
RTVSPost2010Prop50
 90
       50
102
RTVSPost2010PropOp50
 70
     1
102
RTVSPost2010Prop51ColorIndex
 90
      256
102
RTVSPost2010Prop51ColorRGB
 90
-16777216
102
RTVSPost2010PropOp51
 70
     0
102
RTVSPost2010Prop52
140
1.0
102
RTVSPost2010PropOp52
 70
     0
102
RTVSPost2010Prop53
 90
        2
102
RTVSPost2010PropOp53
 70
     1
102
RTVSPost2010Prop54
  1
strokes_ogs.tif
102
RTVSPost2010PropOp54
 70
     1
102
RTVSPost2010Prop55
280
     0
102
RTVSPost2010PropOp55
 70
     1
102
RTVSPost2010Prop56
140
1.0
102
RTVSPost2010PropOp56
 70
     1
102
RTVSPost2010Prop57
140
1.0
102
RTVSPost2010PropOp57
 70
     1
102
RTVSPropertyOp0
 70
     1
102
RTVSPropertyOp1
 70
     1
102
RTVSPropertyOp2
 70
     1
102
RTVSPropertyOp3
 70
     1
102
RTVSPropertyOp4
 70
     1
102
RTVSPropertyOp5
 70
     1
102
RTVSPropertyOp6
 70
     1
102
RTVSPropertyOp7
 70
     1
102
RTVSPropertyOp8
 70
     1
102
RTVSPropertyOp9
 70
     1
102
RTVSPropertyOp10
 70
     1
102
RTVSPropertyOp11
 70
     1
102
RTVSPropertyOp12
 70
     1
102
RTVSPropertyOp13
 70
     1
102
RTVSPropertyOp14
 70
     1
102
RTVSPropertyOp15
 70
     1
102
RTVSPropertyOp16
 70
     1
102
RTVSPropertyOp17
 70
     1
102
RTVSPropertyOp18
 70
     1
102
RTVSPropertyOp19
 70
     1
102
RTVSPropertyOp20
 70
     1
102
RTVSPropertyOp21
 70
     1
102
RTVSPropertyOp22
 70
     1
102
RTVSPropertyOp23
 70
     1
102
RTVSPropertyOp24
 70
     1
102
RTVSPropertyOp25
 70
     1
102
RTVSPropertyOp26
 70
     1
102
RTVSPropertyOp27
 70
     1
102
RTVSPropertyOp28
 70
     1
102
RTVSPropertyOp29
 70
     1
102
RTVSPropertyOp30
 70
     1
102
RTVSPropertyOp31
 70
     1
102
RTVSPropertyOp32
 70
     1
102
RTVSPropertyOp33
 70
     1
102
RTVSPropertyOp34
 70
     1
102
RTVSPropertyOp35
 70
     1
102
RTVSPropertyOp36
 70
     1
102
RTVSPropertyOp37
 70
     1
102
RTVSPropertyOp38
 70
     1
102
RTVSPropertyOp39
 70
     1
102
RTVSPropertyOp40
 70
     1
102
RTVSPropertyOp41
 70
     1
102
RTVSPropertyOp42
 70
     1
102
RTVSPropertyOp43
 70
     1
102
RTVSPropertyOp44
 70
     1
102
RTVSPropertyOp45
 70
     1
102
RTVSPropertyOp46
 70
     1
102
RTVSPropertyOp47
 70
     1
102
RTVSPropertyOp48
 70
     1
102
RTVSPropertyOp49
 70
     1
102
RTVSPropertyOp50
 70
     1
102
RTVSPropertyOp51
 70
     0
102
RTVSPropertyOp52
 70
     0
102
RTVSPropertyOp53
 70
     1
102
RTVSPropertyOp54
 70
     1
102
RTVSPropertyOp55
 70
     1
102
RTVSPropertyOp56
 70
     1
102
RTVSPropertyOp57
 70
     1
102
RTVSPropertyOp58
 70
     1
102
RTVSPropertyOp59
 70
     1
102
RTVSPropertyOp60
 70
     1
102
RTVSPropertyOp61
 70
     1
102
RTVSPropertyOp62
 70
     1
  0
XRECORD
  5
378
102
{ACAD_REACTORS
330
377
102
}
330
377
100
AcDbXrecord
280
     1
102
RTVSPost2010Prop28
280
     0
102
RTVSPost2010PropOp28
 70
     1
102
RTVSPost2010Prop29
280
     1
102
RTVSPost2010PropOp29
 70
     1
102
RTVSPost2010Prop30
280
     1
102
RTVSPost2010PropOp30
 70
     1
102
RTVSPost2010Prop31
280
     0
102
RTVSPost2010PropOp31
 70
     1
102
RTVSPost2010Prop32
280
     0
102
RTVSPost2010PropOp32
 70
     1
102
RTVSPost2010Prop33
280
     0
102
RTVSPost2010PropOp33
 70
     1
102
RTVSPost2010Prop34
280
     0
102
RTVSPost2010PropOp34
 70
     1
102
RTVSPost2010Prop35
280
     0
102
RTVSPost2010PropOp35
 70
     1
102
RTVSPost2010Prop36
280
     0
102
RTVSPost2010PropOp36
 70
     1
102
RTVSPost2010Prop37
 90
       50
102
RTVSPost2010PropOp37
 70
     1
102
RTVSPost2010Prop38
140
0.0
102
RTVSPost2010PropOp38
 70
     1
102
RTVSPost2010Prop39
140
1.0
102
RTVSPost2010PropOp39
 70
     1
102
RTVSPost2010Prop40
 90
        0
102
RTVSPost2010PropOp40
 70
     1
102
RTVSPost2010Prop41ColorIndex
 90
       18
102
RTVSPost2010Prop41ColorRGB
 90
        0
102
RTVSPost2010PropOp41
 70
     1
102
RTVSPost2010Prop42
 90
       50
102
RTVSPost2010PropOp42
 70
     1
102
RTVSPost2010Prop43
 90
        3
102
RTVSPost2010PropOp43
 70
     1
102
RTVSPost2010Prop44ColorIndex
 90
        5
102
RTVSPost2010Prop44ColorRGB
 90
      255
102
RTVSPost2010PropOp44
 70
     1
102
RTVSPost2010Prop45
280
     0
102
RTVSPost2010PropOp45
 70
     1
102
RTVSPost2010Prop46
 90
       50
102
RTVSPost2010PropOp46
 70
     1
102
RTVSPost2010Prop47
 90
       50
102
RTVSPost2010PropOp47
 70
     1
102
RTVSPost2010Prop48
 90
       50
102
RTVSPost2010PropOp48
 70
     1
102
RTVSPost2010Prop49
280
     0
102
RTVSPost2010PropOp49
 70
     1
102
RTVSPost2010Prop50
 90
       50
102
RTVSPost2010PropOp50
 70
     1
102
RTVSPost2010Prop51ColorIndex
 90
      256
102
RTVSPost2010Prop51ColorRGB
 90
-16777216
102
RTVSPost2010PropOp51
 70
     0
102
RTVSPost2010Prop52
140
1.0
102
RTVSPost2010PropOp52
 70
     0
102
RTVSPost2010Prop53
 90
        2
102
RTVSPost2010PropOp53
 70
     1
102
RTVSPost2010Prop54
  1
strokes_ogs.tif
102
RTVSPost2010PropOp54
 70
     1
102
RTVSPost2010Prop55
280
     0
102
RTVSPost2010PropOp55
 70
     1
102
RTVSPost2010Prop56
140
1.0
102
RTVSPost2010PropOp56
 70
     1
102
RTVSPost2010Prop57
140
1.0
102
RTVSPost2010PropOp57
 70
     1
102
RTVSPropertyOp0
 70
     1
102
RTVSPropertyOp1
 70
     1
102
RTVSPropertyOp2
 70
     1
102
RTVSPropertyOp3
 70
     1
102
RTVSPropertyOp4
 70
     1
102
RTVSPropertyOp5
 70
     1
102
RTVSPropertyOp6
 70
     1
102
RTVSPropertyOp7
 70
     1
102
RTVSPropertyOp8
 70
     1
102
RTVSPropertyOp9
 70
     1
102
RTVSPropertyOp10
 70
     1
102
RTVSPropertyOp11
 70
     1
102
RTVSPropertyOp12
 70
     1
102
RTVSPropertyOp13
 70
     1
102
RTVSPropertyOp14
 70
     1
102
RTVSPropertyOp15
 70
     1
102
RTVSPropertyOp16
 70
     1
102
RTVSPropertyOp17
 70
     1
102
RTVSPropertyOp18
 70
     1
102
RTVSPropertyOp19
 70
     1
102
RTVSPropertyOp20
 70
     1
102
RTVSPropertyOp21
 70
     1
102
RTVSPropertyOp22
 70
     1
102
RTVSPropertyOp23
 70
     1
102
RTVSPropertyOp24
 70
     1
102
RTVSPropertyOp25
 70
     1
102
RTVSPropertyOp26
 70
     1
102
RTVSPropertyOp27
 70
     1
102
RTVSPropertyOp28
 70
     1
102
RTVSPropertyOp29
 70
     1
102
RTVSPropertyOp30
 70
     1
102
RTVSPropertyOp31
 70
     1
102
RTVSPropertyOp32
 70
     1
102
RTVSPropertyOp33
 70
     1
102
RTVSPropertyOp34
 70
     1
102
RTVSPropertyOp35
 70
     1
102
RTVSPropertyOp36
 70
     1
102
RTVSPropertyOp37
 70
     1
102
RTVSPropertyOp38
 70
     1
102
RTVSPropertyOp39
 70
     1
102
RTVSPropertyOp40
 70
     1
102
RTVSPropertyOp41
 70
     1
102
RTVSPropertyOp42
 70
     1
102
RTVSPropertyOp43
 70
     1
102
RTVSPropertyOp44
 70
     1
102
RTVSPropertyOp45
 70
     1
102
RTVSPropertyOp46
 70
     1
102
RTVSPropertyOp47
 70
     1
102
RTVSPropertyOp48
 70
     1
102
RTVSPropertyOp49
 70
     1
102
RTVSPropertyOp50
 70
     1
102
RTVSPropertyOp51
 70
     0
102
RTVSPropertyOp52
 70
     0
102
RTVSPropertyOp53
 70
     1
102
RTVSPropertyOp54
 70
     1
102
RTVSPropertyOp55
 70
     1
102
RTVSPropertyOp56
 70
     1
102
RTVSPropertyOp57
 70
     1
102
RTVSPropertyOp58
 70
     1
102
RTVSPropertyOp59
 70
     1
102
RTVSPropertyOp60
 70
     1
102
RTVSPropertyOp61
 70
     1
102
RTVSPropertyOp62
 70
     1
  0
XRECORD
  5
36C
102
{ACAD_REACTORS
330
36B
102
}
330
36B
100
AcDbXrecord
280
     1
102
RTVSPost2010Prop28
280
     0
102
RTVSPost2010PropOp28
 70
     1
102
RTVSPost2010Prop29
280
     1
102
RTVSPost2010PropOp29
 70
     1
102
RTVSPost2010Prop30
280
     1
102
RTVSPost2010PropOp30
 70
     1
102
RTVSPost2010Prop31
280
     0
102
RTVSPost2010PropOp31
 70
     1
102
RTVSPost2010Prop32
280
     0
102
RTVSPost2010PropOp32
 70
     1
102
RTVSPost2010Prop33
280
     0
102
RTVSPost2010PropOp33
 70
     1
102
RTVSPost2010Prop34
280
     0
102
RTVSPost2010PropOp34
 70
     1
102
RTVSPost2010Prop35
280
     0
102
RTVSPost2010PropOp35
 70
     1
102
RTVSPost2010Prop36
280
     0
102
RTVSPost2010PropOp36
 70
     1
102
RTVSPost2010Prop37
 90
       50
102
RTVSPost2010PropOp37
 70
     1
102
RTVSPost2010Prop38
140
0.0
102
RTVSPost2010PropOp38
 70
     1
102
RTVSPost2010Prop39
140
1.0
102
RTVSPost2010PropOp39
 70
     1
102
RTVSPost2010Prop40
 90
        0
102
RTVSPost2010PropOp40
 70
     1
102
RTVSPost2010Prop41ColorIndex
 90
       18
102
RTVSPost2010Prop41ColorRGB
 90
        0
102
RTVSPost2010PropOp41
 70
     1
102
RTVSPost2010Prop42
 90
       50
102
RTVSPost2010PropOp42
 70
     1
102
RTVSPost2010Prop43
 90
        3
102
RTVSPost2010PropOp43
 70
     1
102
RTVSPost2010Prop44ColorIndex
 90
        5
102
RTVSPost2010Prop44ColorRGB
 90
      255
102
RTVSPost2010PropOp44
 70
     1
102
RTVSPost2010Prop45
280
     0
102
RTVSPost2010PropOp45
 70
     1
102
RTVSPost2010Prop46
 90
       50
102
RTVSPost2010PropOp46
 70
     1
102
RTVSPost2010Prop47
 90
       50
102
RTVSPost2010PropOp47
 70
     1
102
RTVSPost2010Prop48
 90
       50
102
RTVSPost2010PropOp48
 70
     1
102
RTVSPost2010Prop49
280
     0
102
RTVSPost2010PropOp49
 70
     1
102
RTVSPost2010Prop50
 90
       50
102
RTVSPost2010PropOp50
 70
     1
102
RTVSPost2010Prop51ColorIndex
 90
      256
102
RTVSPost2010Prop51ColorRGB
 90
-16777216
102
RTVSPost2010PropOp51
 70
     0
102
RTVSPost2010Prop52
140
1.0
102
RTVSPost2010PropOp52
 70
     0
102
RTVSPost2010Prop53
 90
        2
102
RTVSPost2010PropOp53
 70
     1
102
RTVSPost2010Prop54
  1
strokes_ogs.tif
102
RTVSPost2010PropOp54
 70
     1
102
RTVSPost2010Prop55
280
     0
102
RTVSPost2010PropOp55
 70
     1
102
RTVSPost2010Prop56
140
1.0
102
RTVSPost2010PropOp56
 70
     1
102
RTVSPost2010Prop57
140
1.0
102
RTVSPost2010PropOp57
 70
     1
102
RTVSPropertyOp0
 70
     1
102
RTVSPropertyOp1
 70
     1
102
RTVSPropertyOp2
 70
     1
102
RTVSPropertyOp3
 70
     1
102
RTVSPropertyOp4
 70
     1
102
RTVSPropertyOp5
 70
     1
102
RTVSPropertyOp6
 70
     1
102
RTVSPropertyOp7
 70
     1
102
RTVSPropertyOp8
 70
     1
102
RTVSPropertyOp9
 70
     1
102
RTVSPropertyOp10
 70
     1
102
RTVSPropertyOp11
 70
     1
102
RTVSPropertyOp12
 70
     1
102
RTVSPropertyOp13
 70
     1
102
RTVSPropertyOp14
 70
     1
102
RTVSPropertyOp15
 70
     1
102
RTVSPropertyOp16
 70
     1
102
RTVSPropertyOp17
 70
     1
102
RTVSPropertyOp18
 70
     1
102
RTVSPropertyOp19
 70
     1
102
RTVSPropertyOp20
 70
     1
102
RTVSPropertyOp21
 70
     1
102
RTVSPropertyOp22
 70
     1
102
RTVSPropertyOp23
 70
     1
102
RTVSPropertyOp24
 70
     1
102
RTVSPropertyOp25
 70
     1
102
RTVSPropertyOp26
 70
     1
102
RTVSPropertyOp27
 70
     1
102
RTVSPropertyOp28
 70
     1
102
RTVSPropertyOp29
 70
     1
102
RTVSPropertyOp30
 70
     1
102
RTVSPropertyOp31
 70
     1
102
RTVSPropertyOp32
 70
     1
102
RTVSPropertyOp33
 70
     1
102
RTVSPropertyOp34
 70
     1
102
RTVSPropertyOp35
 70
     1
102
RTVSPropertyOp36
 70
     1
102
RTVSPropertyOp37
 70
     1
102
RTVSPropertyOp38
 70
     1
102
RTVSPropertyOp39
 70
     1
102
RTVSPropertyOp40
 70
     1
102
RTVSPropertyOp41
 70
     1
102
RTVSPropertyOp42
 70
     1
102
RTVSPropertyOp43
 70
     1
102
RTVSPropertyOp44
 70
     1
102
RTVSPropertyOp45
 70
     1
102
RTVSPropertyOp46
 70
     1
102
RTVSPropertyOp47
 70
     1
102
RTVSPropertyOp48
 70
     1
102
RTVSPropertyOp49
 70
     1
102
RTVSPropertyOp50
 70
     1
102
RTVSPropertyOp51
 70
     0
102
RTVSPropertyOp52
 70
     0
102
RTVSPropertyOp53
 70
     1
102
RTVSPropertyOp54
 70
     1
102
RTVSPropertyOp55
 70
     1
102
RTVSPropertyOp56
 70
     1
102
RTVSPropertyOp57
 70
     1
102
RTVSPropertyOp58
 70
     1
102
RTVSPropertyOp59
 70
     1
102
RTVSPropertyOp60
 70
     1
102
RTVSPropertyOp61
 70
     1
102
RTVSPropertyOp62
 70
     1
  0
XRECORD
  5
36E
102
{ACAD_REACTORS
330
36D
102
}
330
36D
100
AcDbXrecord
280
     1
102
RTVSPost2010Prop28
280
     0
102
RTVSPost2010PropOp28
 70
     1
102
RTVSPost2010Prop29
280
     1
102
RTVSPost2010PropOp29
 70
     1
102
RTVSPost2010Prop30
280
     1
102
RTVSPost2010PropOp30
 70
     1
102
RTVSPost2010Prop31
280
     0
102
RTVSPost2010PropOp31
 70
     1
102
RTVSPost2010Prop32
280
     0
102
RTVSPost2010PropOp32
 70
     1
102
RTVSPost2010Prop33
280
     0
102
RTVSPost2010PropOp33
 70
     1
102
RTVSPost2010Prop34
280
     0
102
RTVSPost2010PropOp34
 70
     1
102
RTVSPost2010Prop35
280
     0
102
RTVSPost2010PropOp35
 70
     1
102
RTVSPost2010Prop36
280
     0
102
RTVSPost2010PropOp36
 70
     1
102
RTVSPost2010Prop37
 90
       50
102
RTVSPost2010PropOp37
 70
     1
102
RTVSPost2010Prop38
140
0.0
102
RTVSPost2010PropOp38
 70
     1
102
RTVSPost2010Prop39
140
1.0
102
RTVSPost2010PropOp39
 70
     1
102
RTVSPost2010Prop40
 90
        0
102
RTVSPost2010PropOp40
 70
     1
102
RTVSPost2010Prop41ColorIndex
 90
       18
102
RTVSPost2010Prop41ColorRGB
 90
        0
102
RTVSPost2010PropOp41
 70
     1
102
RTVSPost2010Prop42
 90
       50
102
RTVSPost2010PropOp42
 70
     1
102
RTVSPost2010Prop43
 90
        3
102
RTVSPost2010PropOp43
 70
     1
102
RTVSPost2010Prop44ColorIndex
 90
        5
102
RTVSPost2010Prop44ColorRGB
 90
      255
102
RTVSPost2010PropOp44
 70
     1
102
RTVSPost2010Prop45
280
     0
102
RTVSPost2010PropOp45
 70
     1
102
RTVSPost2010Prop46
 90
       50
102
RTVSPost2010PropOp46
 70
     1
102
RTVSPost2010Prop47
 90
       50
102
RTVSPost2010PropOp47
 70
     1
102
RTVSPost2010Prop48
 90
       50
102
RTVSPost2010PropOp48
 70
     1
102
RTVSPost2010Prop49
280
     0
102
RTVSPost2010PropOp49
 70
     1
102
RTVSPost2010Prop50
 90
       50
102
RTVSPost2010PropOp50
 70
     1
102
RTVSPost2010Prop51ColorIndex
 90
      256
102
RTVSPost2010Prop51ColorRGB
 90
-16777216
102
RTVSPost2010PropOp51
 70
     0
102
RTVSPost2010Prop52
140
1.0
102
RTVSPost2010PropOp52
 70
     0
102
RTVSPost2010Prop53
 90
        2
102
RTVSPost2010PropOp53
 70
     1
102
RTVSPost2010Prop54
  1
strokes_ogs.tif
102
RTVSPost2010PropOp54
 70
     1
102
RTVSPost2010Prop55
280
     0
102
RTVSPost2010PropOp55
 70
     1
102
RTVSPost2010Prop56
140
1.0
102
RTVSPost2010PropOp56
 70
     1
102
RTVSPost2010Prop57
140
1.0
102
RTVSPost2010PropOp57
 70
     1
102
RTVSPropertyOp0
 70
     1
102
RTVSPropertyOp1
 70
     1
102
RTVSPropertyOp2
 70
     1
102
RTVSPropertyOp3
 70
     1
102
RTVSPropertyOp4
 70
     1
102
RTVSPropertyOp5
 70
     1
102
RTVSPropertyOp6
 70
     1
102
RTVSPropertyOp7
 70
     1
102
RTVSPropertyOp8
 70
     1
102
RTVSPropertyOp9
 70
     1
102
RTVSPropertyOp10
 70
     1
102
RTVSPropertyOp11
 70
     1
102
RTVSPropertyOp12
 70
     1
102
RTVSPropertyOp13
 70
     1
102
RTVSPropertyOp14
 70
     1
102
RTVSPropertyOp15
 70
     1
102
RTVSPropertyOp16
 70
     1
102
RTVSPropertyOp17
 70
     1
102
RTVSPropertyOp18
 70
     1
102
RTVSPropertyOp19
 70
     1
102
RTVSPropertyOp20
 70
     1
102
RTVSPropertyOp21
 70
     1
102
RTVSPropertyOp22
 70
     1
102
RTVSPropertyOp23
 70
     1
102
RTVSPropertyOp24
 70
     1
102
RTVSPropertyOp25
 70
     1
102
RTVSPropertyOp26
 70
     1
102
RTVSPropertyOp27
 70
     1
102
RTVSPropertyOp28
 70
     1
102
RTVSPropertyOp29
 70
     1
102
RTVSPropertyOp30
 70
     1
102
RTVSPropertyOp31
 70
     1
102
RTVSPropertyOp32
 70
     1
102
RTVSPropertyOp33
 70
     1
102
RTVSPropertyOp34
 70
     1
102
RTVSPropertyOp35
 70
     1
102
RTVSPropertyOp36
 70
     1
102
RTVSPropertyOp37
 70
     1
102
RTVSPropertyOp38
 70
     1
102
RTVSPropertyOp39
 70
     1
102
RTVSPropertyOp40
 70
     1
102
RTVSPropertyOp41
 70
     1
102
RTVSPropertyOp42
 70
     1
102
RTVSPropertyOp43
 70
     1
102
RTVSPropertyOp44
 70
     1
102
RTVSPropertyOp45
 70
     1
102
RTVSPropertyOp46
 70
     1
102
RTVSPropertyOp47
 70
     1
102
RTVSPropertyOp48
 70
     1
102
RTVSPropertyOp49
 70
     1
102
RTVSPropertyOp50
 70
     1
102
RTVSPropertyOp51
 70
     0
102
RTVSPropertyOp52
 70
     0
102
RTVSPropertyOp53
 70
     1
102
RTVSPropertyOp54
 70
     1
102
RTVSPropertyOp55
 70
     1
102
RTVSPropertyOp56
 70
     1
102
RTVSPropertyOp57
 70
     1
102
RTVSPropertyOp58
 70
     1
102
RTVSPropertyOp59
 70
     1
102
RTVSPropertyOp60
 70
     1
102
RTVSPropertyOp61
 70
     1
102
RTVSPropertyOp62
 70
     1
  0
XRECORD
  5
37E
102
{ACAD_REACTORS
330
37D
102
}
330
37D
100
AcDbXrecord
280
     1
102
RTVSPost2010Prop28
280
     0
102
RTVSPost2010PropOp28
 70
     0
102
RTVSPost2010Prop29
280
     1
102
RTVSPost2010PropOp29
 70
     0
102
RTVSPost2010Prop30
280
     1
102
RTVSPost2010PropOp30
 70
     0
102
RTVSPost2010Prop31
280
     0
102
RTVSPost2010PropOp31
 70
     0
102
RTVSPost2010Prop32
280
     0
102
RTVSPost2010PropOp32
 70
     0
102
RTVSPost2010Prop33
280
     0
102
RTVSPost2010PropOp33
 70
     0
102
RTVSPost2010Prop34
280
     0
102
RTVSPost2010PropOp34
 70
     0
102
RTVSPost2010Prop35
280
     0
102
RTVSPost2010PropOp35
 70
     0
102
RTVSPost2010Prop36
280
     0
102
RTVSPost2010PropOp36
 70
     0
102
RTVSPost2010Prop37
 90
       50
102
RTVSPost2010PropOp37
 70
     0
102
RTVSPost2010Prop38
140
0.0
102
RTVSPost2010PropOp38
 70
     0
102
RTVSPost2010Prop39
140
1.0
102
RTVSPost2010PropOp39
 70
     0
102
RTVSPost2010Prop40
 90
        0
102
RTVSPost2010PropOp40
 70
     0
102
RTVSPost2010Prop41ColorIndex
 90
       18
102
RTVSPost2010Prop41ColorRGB
 90
        0
102
RTVSPost2010PropOp41
 70
     0
102
RTVSPost2010Prop42
 90
       50
102
RTVSPost2010PropOp42
 70
     0
102
RTVSPost2010Prop43
 90
        3
102
RTVSPost2010PropOp43
 70
     0
102
RTVSPost2010Prop44ColorIndex
 90
        5
102
RTVSPost2010Prop44ColorRGB
 90
      255
102
RTVSPost2010PropOp44
 70
     0
102
RTVSPost2010Prop45
280
     0
102
RTVSPost2010PropOp45
 70
     0
102
RTVSPost2010Prop46
 90
       50
102
RTVSPost2010PropOp46
 70
     0
102
RTVSPost2010Prop47
 90
       50
102
RTVSPost2010PropOp47
 70
     0
102
RTVSPost2010Prop48
 90
       50
102
RTVSPost2010PropOp48
 70
     0
102
RTVSPost2010Prop49
280
     0
102
RTVSPost2010PropOp49
 70
     0
102
RTVSPost2010Prop50
 90
       50
102
RTVSPost2010PropOp50
 70
     0
102
RTVSPost2010Prop51ColorIndex
 90
      256
102
RTVSPost2010Prop51ColorRGB
 90
-16777216
102
RTVSPost2010PropOp51
 70
     0
102
RTVSPost2010Prop52
140
1.0
102
RTVSPost2010PropOp52
 70
     0
102
RTVSPost2010Prop53
 90
        2
102
RTVSPost2010PropOp53
 70
     0
102
RTVSPost2010Prop54
  1
strokes_ogs.tif
102
RTVSPost2010PropOp54
 70
     0
102
RTVSPost2010Prop55
280
     0
102
RTVSPost2010PropOp55
 70
     0
102
RTVSPost2010Prop56
140
1.0
102
RTVSPost2010PropOp56
 70
     0
102
RTVSPost2010Prop57
140
1.0
102
RTVSPost2010PropOp57
 70
     0
102
RTVSPropertyOp0
 70
     0
102
RTVSPropertyOp1
 70
     0
102
RTVSPropertyOp2
 70
     0
102
RTVSPropertyOp3
 70
     0
102
RTVSPropertyOp4
 70
     0
102
RTVSPropertyOp5
 70
     0
102
RTVSPropertyOp6
 70
     0
102
RTVSPropertyOp7
 70
     0
102
RTVSPropertyOp8
 70
     0
102
RTVSPropertyOp9
 70
     0
102
RTVSPropertyOp10
 70
     0
102
RTVSPropertyOp11
 70
     0
102
RTVSPropertyOp12
 70
     0
102
RTVSPropertyOp13
 70
     0
102
RTVSPropertyOp14
 70
     2
102
RTVSPropertyOp15
 70
     0
102
RTVSPropertyOp16
 70
     0
102
RTVSPropertyOp17
 70
     0
102
RTVSPropertyOp18
 70
     0
102
RTVSPropertyOp19
 70
     0
102
RTVSPropertyOp20
 70
     0
102
RTVSPropertyOp21
 70
     0
102
RTVSPropertyOp22
 70
     0
102
RTVSPropertyOp23
 70
     0
102
RTVSPropertyOp24
 70
     0
102
RTVSPropertyOp25
 70
     0
102
RTVSPropertyOp26
 70
     0
102
RTVSPropertyOp27
 70
     0
102
RTVSPropertyOp28
 70
     0
102
RTVSPropertyOp29
 70
     0
102
RTVSPropertyOp30
 70
     0
102
RTVSPropertyOp31
 70
     0
102
RTVSPropertyOp32
 70
     0
102
RTVSPropertyOp33
 70
     0
102
RTVSPropertyOp34
 70
     0
102
RTVSPropertyOp35
 70
     0
102
RTVSPropertyOp36
 70
     0
102
RTVSPropertyOp37
 70
     0
102
RTVSPropertyOp38
 70
     0
102
RTVSPropertyOp39
 70
     0
102
RTVSPropertyOp40
 70
     0
102
RTVSPropertyOp41
 70
     0
102
RTVSPropertyOp42
 70
     0
102
RTVSPropertyOp43
 70
     0
102
RTVSPropertyOp44
 70
     0
102
RTVSPropertyOp45
 70
     0
102
RTVSPropertyOp46
 70
     0
102
RTVSPropertyOp47
 70
     0
102
RTVSPropertyOp48
 70
     0
102
RTVSPropertyOp49
 70
     0
102
RTVSPropertyOp50
 70
     0
102
RTVSPropertyOp51
 70
     0
102
RTVSPropertyOp52
 70
     0
102
RTVSPropertyOp53
 70
     0
102
RTVSPropertyOp54
 70
     0
102
RTVSPropertyOp55
 70
     0
102
RTVSPropertyOp56
 70
     0
102
RTVSPropertyOp57
 70
     0
102
RTVSPropertyOp58
 70
     1
102
RTVSPropertyOp59
 70
     1
102
RTVSPropertyOp60
 70
     1
102
RTVSPropertyOp61
 70
     1
102
RTVSPropertyOp62
 70
     1
  0
XRECORD
  5
376
102
{ACAD_REACTORS
330
375
102
}
330
375
100
AcDbXrecord
280
     1
102
RTVSPost2010Prop28
280
     0
102
RTVSPost2010PropOp28
 70
     1
102
RTVSPost2010Prop29
280
     1
102
RTVSPost2010PropOp29
 70
     1
102
RTVSPost2010Prop30
280
     1
102
RTVSPost2010PropOp30
 70
     1
102
RTVSPost2010Prop31
280
     0
102
RTVSPost2010PropOp31
 70
     1
102
RTVSPost2010Prop32
280
     0
102
RTVSPost2010PropOp32
 70
     1
102
RTVSPost2010Prop33
280
     0
102
RTVSPost2010PropOp33
 70
     1
102
RTVSPost2010Prop34
280
     0
102
RTVSPost2010PropOp34
 70
     1
102
RTVSPost2010Prop35
280
     0
102
RTVSPost2010PropOp35
 70
     1
102
RTVSPost2010Prop36
280
     0
102
RTVSPost2010PropOp36
 70
     1
102
RTVSPost2010Prop37
 90
       50
102
RTVSPost2010PropOp37
 70
     1
102
RTVSPost2010Prop38
140
0.0
102
RTVSPost2010PropOp38
 70
     1
102
RTVSPost2010Prop39
140
1.0
102
RTVSPost2010PropOp39
 70
     1
102
RTVSPost2010Prop40
 90
        0
102
RTVSPost2010PropOp40
 70
     1
102
RTVSPost2010Prop41ColorIndex
 90
       18
102
RTVSPost2010Prop41ColorRGB
 90
        0
102
RTVSPost2010PropOp41
 70
     1
102
RTVSPost2010Prop42
 90
       50
102
RTVSPost2010PropOp42
 70
     1
102
RTVSPost2010Prop43
 90
        3
102
RTVSPost2010PropOp43
 70
     1
102
RTVSPost2010Prop44ColorIndex
 90
        5
102
RTVSPost2010Prop44ColorRGB
 90
      255
102
RTVSPost2010PropOp44
 70
     1
102
RTVSPost2010Prop45
280
     0
102
RTVSPost2010PropOp45
 70
     1
102
RTVSPost2010Prop46
 90
       50
102
RTVSPost2010PropOp46
 70
     1
102
RTVSPost2010Prop47
 90
       50
102
RTVSPost2010PropOp47
 70
     1
102
RTVSPost2010Prop48
 90
       50
102
RTVSPost2010PropOp48
 70
     1
102
RTVSPost2010Prop49
280
     0
102
RTVSPost2010PropOp49
 70
     1
102
RTVSPost2010Prop50
 90
       50
102
RTVSPost2010PropOp50
 70
     1
102
RTVSPost2010Prop51ColorIndex
 90
      256
102
RTVSPost2010Prop51ColorRGB
 90
-16777216
102
RTVSPost2010PropOp51
 70
     0
102
RTVSPost2010Prop52
140
1.0
102
RTVSPost2010PropOp52
 70
     0
102
RTVSPost2010Prop53
 90
        2
102
RTVSPost2010PropOp53
 70
     1
102
RTVSPost2010Prop54
  1
strokes_ogs.tif
102
RTVSPost2010PropOp54
 70
     1
102
RTVSPost2010Prop55
280
     0
102
RTVSPost2010PropOp55
 70
     1
102
RTVSPost2010Prop56
140
1.0
102
RTVSPost2010PropOp56
 70
     1
102
RTVSPost2010Prop57
140
1.0
102
RTVSPost2010PropOp57
 70
     1
102
RTVSPropertyOp0
 70
     1
102
RTVSPropertyOp1
 70
     1
102
RTVSPropertyOp2
 70
     1
102
RTVSPropertyOp3
 70
     1
102
RTVSPropertyOp4
 70
     1
102
RTVSPropertyOp5
 70
     1
102
RTVSPropertyOp6
 70
     1
102
RTVSPropertyOp7
 70
     1
102
RTVSPropertyOp8
 70
     1
102
RTVSPropertyOp9
 70
     1
102
RTVSPropertyOp10
 70
     1
102
RTVSPropertyOp11
 70
     1
102
RTVSPropertyOp12
 70
     1
102
RTVSPropertyOp13
 70
     1
102
RTVSPropertyOp14
 70
     1
102
RTVSPropertyOp15
 70
     1
102
RTVSPropertyOp16
 70
     1
102
RTVSPropertyOp17
 70
     1
102
RTVSPropertyOp18
 70
     1
102
RTVSPropertyOp19
 70
     1
102
RTVSPropertyOp20
 70
     1
102
RTVSPropertyOp21
 70
     1
102
RTVSPropertyOp22
 70
     1
102
RTVSPropertyOp23
 70
     1
102
RTVSPropertyOp24
 70
     1
102
RTVSPropertyOp25
 70
     1
102
RTVSPropertyOp26
 70
     1
102
RTVSPropertyOp27
 70
     1
102
RTVSPropertyOp28
 70
     1
102
RTVSPropertyOp29
 70
     1
102
RTVSPropertyOp30
 70
     1
102
RTVSPropertyOp31
 70
     1
102
RTVSPropertyOp32
 70
     1
102
RTVSPropertyOp33
 70
     1
102
RTVSPropertyOp34
 70
     1
102
RTVSPropertyOp35
 70
     1
102
RTVSPropertyOp36
 70
     1
102
RTVSPropertyOp37
 70
     1
102
RTVSPropertyOp38
 70
     1
102
RTVSPropertyOp39
 70
     1
102
RTVSPropertyOp40
 70
     1
102
RTVSPropertyOp41
 70
     1
102
RTVSPropertyOp42
 70
     1
102
RTVSPropertyOp43
 70
     1
102
RTVSPropertyOp44
 70
     1
102
RTVSPropertyOp45
 70
     1
102
RTVSPropertyOp46
 70
     1
102
RTVSPropertyOp47
 70
     1
102
RTVSPropertyOp48
 70
     1
102
RTVSPropertyOp49
 70
     1
102
RTVSPropertyOp50
 70
     1
102
RTVSPropertyOp51
 70
     0
102
RTVSPropertyOp52
 70
     0
102
RTVSPropertyOp53
 70
     1
102
RTVSPropertyOp54
 70
     1
102
RTVSPropertyOp55
 70
     1
102
RTVSPropertyOp56
 70
     1
102
RTVSPropertyOp57
 70
     1
102
RTVSPropertyOp58
 70
     1
102
RTVSPropertyOp59
 70
     1
102
RTVSPropertyOp60
 70
     1
102
RTVSPropertyOp61
 70
     1
102
RTVSPropertyOp62
 70
     1
  0
XRECORD
  5
35A
102
{ACAD_REACTORS
330
359
102
}
330
359
100
AcDbXrecord
280
     1
102
RTVSPost2010Prop28
280
     0
102
RTVSPost2010PropOp28
 70
     1
102
RTVSPost2010Prop29
280
     1
102
RTVSPost2010PropOp29
 70
     1
102
RTVSPost2010Prop30
280
     1
102
RTVSPost2010PropOp30
 70
     1
102
RTVSPost2010Prop31
280
     0
102
RTVSPost2010PropOp31
 70
     1
102
RTVSPost2010Prop32
280
     0
102
RTVSPost2010PropOp32
 70
     1
102
RTVSPost2010Prop33
280
     0
102
RTVSPost2010PropOp33
 70
     1
102
RTVSPost2010Prop34
280
     0
102
RTVSPost2010PropOp34
 70
     1
102
RTVSPost2010Prop35
280
     0
102
RTVSPost2010PropOp35
 70
     1
102
RTVSPost2010Prop36
280
     0
102
RTVSPost2010PropOp36
 70
     1
102
RTVSPost2010Prop37
 90
       50
102
RTVSPost2010PropOp37
 70
     1
102
RTVSPost2010Prop38
140
0.0
102
RTVSPost2010PropOp38
 70
     1
102
RTVSPost2010Prop39
140
1.0
102
RTVSPost2010PropOp39
 70
     1
102
RTVSPost2010Prop40
 90
        0
102
RTVSPost2010PropOp40
 70
     1
102
RTVSPost2010Prop41ColorIndex
 90
       18
102
RTVSPost2010Prop41ColorRGB
 90
        0
102
RTVSPost2010PropOp41
 70
     1
102
RTVSPost2010Prop42
 90
       50
102
RTVSPost2010PropOp42
 70
     1
102
RTVSPost2010Prop43
 90
        3
102
RTVSPost2010PropOp43
 70
     1
102
RTVSPost2010Prop44ColorIndex
 90
        5
102
RTVSPost2010Prop44ColorRGB
 90
      255
102
RTVSPost2010PropOp44
 70
     1
102
RTVSPost2010Prop45
280
     0
102
RTVSPost2010PropOp45
 70
     1
102
RTVSPost2010Prop46
 90
       50
102
RTVSPost2010PropOp46
 70
     1
102
RTVSPost2010Prop47
 90
       50
102
RTVSPost2010PropOp47
 70
     1
102
RTVSPost2010Prop48
 90
       50
102
RTVSPost2010PropOp48
 70
     1
102
RTVSPost2010Prop49
280
     0
102
RTVSPost2010PropOp49
 70
     1
102
RTVSPost2010Prop50
 90
       50
102
RTVSPost2010PropOp50
 70
     1
102
RTVSPost2010Prop51ColorIndex
 90
      256
102
RTVSPost2010Prop51ColorRGB
 90
-16777216
102
RTVSPost2010PropOp51
 70
     0
102
RTVSPost2010Prop52
140
1.0
102
RTVSPost2010PropOp52
 70
     0
102
RTVSPost2010Prop53
 90
        2
102
RTVSPost2010PropOp53
 70
     1
102
RTVSPost2010Prop54
  1
strokes_ogs.tif
102
RTVSPost2010PropOp54
 70
     1
102
RTVSPost2010Prop55
280
     0
102
RTVSPost2010PropOp55
 70
     1
102
RTVSPost2010Prop56
140
1.0
102
RTVSPost2010PropOp56
 70
     1
102
RTVSPost2010Prop57
140
1.0
102
RTVSPost2010PropOp57
 70
     1
102
RTVSPropertyOp0
 70
     1
102
RTVSPropertyOp1
 70
     1
102
RTVSPropertyOp2
 70
     1
102
RTVSPropertyOp3
 70
     1
102
RTVSPropertyOp4
 70
     1
102
RTVSPropertyOp5
 70
     1
102
RTVSPropertyOp6
 70
     1
102
RTVSPropertyOp7
 70
     1
102
RTVSPropertyOp8
 70
     1
102
RTVSPropertyOp9
 70
     1
102
RTVSPropertyOp10
 70
     1
102
RTVSPropertyOp11
 70
     1
102
RTVSPropertyOp12
 70
     1
102
RTVSPropertyOp13
 70
     1
102
RTVSPropertyOp14
 70
     1
102
RTVSPropertyOp15
 70
     1
102
RTVSPropertyOp16
 70
     1
102
RTVSPropertyOp17
 70
     1
102
RTVSPropertyOp18
 70
     1
102
RTVSPropertyOp19
 70
     1
102
RTVSPropertyOp20
 70
     1
102
RTVSPropertyOp21
 70
     1
102
RTVSPropertyOp22
 70
     1
102
RTVSPropertyOp23
 70
     1
102
RTVSPropertyOp24
 70
     1
102
RTVSPropertyOp25
 70
     1
102
RTVSPropertyOp26
 70
     1
102
RTVSPropertyOp27
 70
     1
102
RTVSPropertyOp28
 70
     1
102
RTVSPropertyOp29
 70
     1
102
RTVSPropertyOp30
 70
     1
102
RTVSPropertyOp31
 70
     1
102
RTVSPropertyOp32
 70
     1
102
RTVSPropertyOp33
 70
     1
102
RTVSPropertyOp34
 70
     1
102
RTVSPropertyOp35
 70
     1
102
RTVSPropertyOp36
 70
     1
102
RTVSPropertyOp37
 70
     1
102
RTVSPropertyOp38
 70
     1
102
RTVSPropertyOp39
 70
     1
102
RTVSPropertyOp40
 70
     1
102
RTVSPropertyOp41
 70
     1
102
RTVSPropertyOp42
 70
     1
102
RTVSPropertyOp43
 70
     1
102
RTVSPropertyOp44
 70
     1
102
RTVSPropertyOp45
 70
     1
102
RTVSPropertyOp46
 70
     1
102
RTVSPropertyOp47
 70
     1
102
RTVSPropertyOp48
 70
     1
102
RTVSPropertyOp49
 70
     1
102
RTVSPropertyOp50
 70
     1
102
RTVSPropertyOp51
 70
     0
102
RTVSPropertyOp52
 70
     0
102
RTVSPropertyOp53
 70
     1
102
RTVSPropertyOp54
 70
     1
102
RTVSPropertyOp55
 70
     1
102
RTVSPropertyOp56
 70
     1
102
RTVSPropertyOp57
 70
     1
102
RTVSPropertyOp58
 70
     1
102
RTVSPropertyOp59
 70
     1
102
RTVSPropertyOp60
 70
     1
102
RTVSPropertyOp61
 70
     1
102
RTVSPropertyOp62
 70
     1
  0
XRECORD
  5
35C
102
{ACAD_REACTORS
330
35B
102
}
330
35B
100
AcDbXrecord
280
     1
102
RTVSPost2010Prop28
280
     0
102
RTVSPost2010PropOp28
 70
     1
102
RTVSPost2010Prop29
280
     1
102
RTVSPost2010PropOp29
 70
     1
102
RTVSPost2010Prop30
280
     1
102
RTVSPost2010PropOp30
 70
     1
102
RTVSPost2010Prop31
280
     0
102
RTVSPost2010PropOp31
 70
     1
102
RTVSPost2010Prop32
280
     0
102
RTVSPost2010PropOp32
 70
     1
102
RTVSPost2010Prop33
280
     0
102
RTVSPost2010PropOp33
 70
     1
102
RTVSPost2010Prop34
280
     0
102
RTVSPost2010PropOp34
 70
     1
102
RTVSPost2010Prop35
280
     0
102
RTVSPost2010PropOp35
 70
     1
102
RTVSPost2010Prop36
280
     0
102
RTVSPost2010PropOp36
 70
     1
102
RTVSPost2010Prop37
 90
       50
102
RTVSPost2010PropOp37
 70
     1
102
RTVSPost2010Prop38
140
0.0
102
RTVSPost2010PropOp38
 70
     1
102
RTVSPost2010Prop39
140
1.0
102
RTVSPost2010PropOp39
 70
     1
102
RTVSPost2010Prop40
 90
        0
102
RTVSPost2010PropOp40
 70
     1
102
RTVSPost2010Prop41ColorIndex
 90
       18
102
RTVSPost2010Prop41ColorRGB
 90
        0
102
RTVSPost2010PropOp41
 70
     1
102
RTVSPost2010Prop42
 90
       50
102
RTVSPost2010PropOp42
 70
     1
102
RTVSPost2010Prop43
 90
        3
102
RTVSPost2010PropOp43
 70
     1
102
RTVSPost2010Prop44ColorIndex
 90
        5
102
RTVSPost2010Prop44ColorRGB
 90
      255
102
RTVSPost2010PropOp44
 70
     1
102
RTVSPost2010Prop45
280
     0
102
RTVSPost2010PropOp45
 70
     1
102
RTVSPost2010Prop46
 90
       50
102
RTVSPost2010PropOp46
 70
     1
102
RTVSPost2010Prop47
 90
       50
102
RTVSPost2010PropOp47
 70
     1
102
RTVSPost2010Prop48
 90
       50
102
RTVSPost2010PropOp48
 70
     1
102
RTVSPost2010Prop49
280
     0
102
RTVSPost2010PropOp49
 70
     1
102
RTVSPost2010Prop50
 90
       50
102
RTVSPost2010PropOp50
 70
     1
102
RTVSPost2010Prop51ColorIndex
 90
      256
102
RTVSPost2010Prop51ColorRGB
 90
-16777216
102
RTVSPost2010PropOp51
 70
     0
102
RTVSPost2010Prop52
140
1.0
102
RTVSPost2010PropOp52
 70
     0
102
RTVSPost2010Prop53
 90
        2
102
RTVSPost2010PropOp53
 70
     1
102
RTVSPost2010Prop54
  1
strokes_ogs.tif
102
RTVSPost2010PropOp54
 70
     1
102
RTVSPost2010Prop55
280
     0
102
RTVSPost2010PropOp55
 70
     1
102
RTVSPost2010Prop56
140
1.0
102
RTVSPost2010PropOp56
 70
     1
102
RTVSPost2010Prop57
140
1.0
102
RTVSPost2010PropOp57
 70
     1
102
RTVSPropertyOp0
 70
     1
102
RTVSPropertyOp1
 70
     1
102
RTVSPropertyOp2
 70
     1
102
RTVSPropertyOp3
 70
     1
102
RTVSPropertyOp4
 70
     1
102
RTVSPropertyOp5
 70
     1
102
RTVSPropertyOp6
 70
     1
102
RTVSPropertyOp7
 70
     1
102
RTVSPropertyOp8
 70
     1
102
RTVSPropertyOp9
 70
     1
102
RTVSPropertyOp10
 70
     1
102
RTVSPropertyOp11
 70
     1
102
RTVSPropertyOp12
 70
     1
102
RTVSPropertyOp13
 70
     1
102
RTVSPropertyOp14
 70
     1
102
RTVSPropertyOp15
 70
     1
102
RTVSPropertyOp16
 70
     1
102
RTVSPropertyOp17
 70
     1
102
RTVSPropertyOp18
 70
     1
102
RTVSPropertyOp19
 70
     1
102
RTVSPropertyOp20
 70
     1
102
RTVSPropertyOp21
 70
     1
102
RTVSPropertyOp22
 70
     1
102
RTVSPropertyOp23
 70
     1
102
RTVSPropertyOp24
 70
     1
102
RTVSPropertyOp25
 70
     1
102
RTVSPropertyOp26
 70
     1
102
RTVSPropertyOp27
 70
     1
102
RTVSPropertyOp28
 70
     1
102
RTVSPropertyOp29
 70
     1
102
RTVSPropertyOp30
 70
     1
102
RTVSPropertyOp31
 70
     1
102
RTVSPropertyOp32
 70
     1
102
RTVSPropertyOp33
 70
     1
102
RTVSPropertyOp34
 70
     1
102
RTVSPropertyOp35
 70
     1
102
RTVSPropertyOp36
 70
     1
102
RTVSPropertyOp37
 70
     1
102
RTVSPropertyOp38
 70
     1
102
RTVSPropertyOp39
 70
     1
102
RTVSPropertyOp40
 70
     1
102
RTVSPropertyOp41
 70
     1
102
RTVSPropertyOp42
 70
     1
102
RTVSPropertyOp43
 70
     1
102
RTVSPropertyOp44
 70
     1
102
RTVSPropertyOp45
 70
     1
102
RTVSPropertyOp46
 70
     1
102
RTVSPropertyOp47
 70
     1
102
RTVSPropertyOp48
 70
     1
102
RTVSPropertyOp49
 70
     1
102
RTVSPropertyOp50
 70
     1
102
RTVSPropertyOp51
 70
     0
102
RTVSPropertyOp52
 70
     0
102
RTVSPropertyOp53
 70
     1
102
RTVSPropertyOp54
 70
     1
102
RTVSPropertyOp55
 70
     1
102
RTVSPropertyOp56
 70
     1
102
RTVSPropertyOp57
 70
     1
102
RTVSPropertyOp58
 70
     1
102
RTVSPropertyOp59
 70
     1
102
RTVSPropertyOp60
 70
     1
102
RTVSPropertyOp61
 70
     1
102
RTVSPropertyOp62
 70
     1
  0
XRECORD
  5
35E
102
{ACAD_REACTORS
330
35D
102
}
330
35D
100
AcDbXrecord
280
     1
102
RTVSPost2010Prop28
280
     0
102
RTVSPost2010PropOp28
 70
     1
102
RTVSPost2010Prop29
280
     1
102
RTVSPost2010PropOp29
 70
     1
102
RTVSPost2010Prop30
280
     1
102
RTVSPost2010PropOp30
 70
     1
102
RTVSPost2010Prop31
280
     0
102
RTVSPost2010PropOp31
 70
     1
102
RTVSPost2010Prop32
280
     0
102
RTVSPost2010PropOp32
 70
     1
102
RTVSPost2010Prop33
280
     0
102
RTVSPost2010PropOp33
 70
     1
102
RTVSPost2010Prop34
280
     0
102
RTVSPost2010PropOp34
 70
     1
102
RTVSPost2010Prop35
280
     0
102
RTVSPost2010PropOp35
 70
     1
102
RTVSPost2010Prop36
280
     0
102
RTVSPost2010PropOp36
 70
     1
102
RTVSPost2010Prop37
 90
       50
102
RTVSPost2010PropOp37
 70
     1
102
RTVSPost2010Prop38
140
0.0
102
RTVSPost2010PropOp38
 70
     1
102
RTVSPost2010Prop39
140
1.0
102
RTVSPost2010PropOp39
 70
     1
102
RTVSPost2010Prop40
 90
        0
102
RTVSPost2010PropOp40
 70
     1
102
RTVSPost2010Prop41ColorIndex
 90
       18
102
RTVSPost2010Prop41ColorRGB
 90
        0
102
RTVSPost2010PropOp41
 70
     1
102
RTVSPost2010Prop42
 90
       50
102
RTVSPost2010PropOp42
 70
     1
102
RTVSPost2010Prop43
 90
        3
102
RTVSPost2010PropOp43
 70
     1
102
RTVSPost2010Prop44ColorIndex
 90
        5
102
RTVSPost2010Prop44ColorRGB
 90
      255
102
RTVSPost2010PropOp44
 70
     1
102
RTVSPost2010Prop45
280
     0
102
RTVSPost2010PropOp45
 70
     1
102
RTVSPost2010Prop46
 90
       50
102
RTVSPost2010PropOp46
 70
     1
102
RTVSPost2010Prop47
 90
       50
102
RTVSPost2010PropOp47
 70
     1
102
RTVSPost2010Prop48
 90
       50
102
RTVSPost2010PropOp48
 70
     1
102
RTVSPost2010Prop49
280
     0
102
RTVSPost2010PropOp49
 70
     1
102
RTVSPost2010Prop50
 90
       50
102
RTVSPost2010PropOp50
 70
     1
102
RTVSPost2010Prop51ColorIndex
 90
      256
102
RTVSPost2010Prop51ColorRGB
 90
-16777216
102
RTVSPost2010PropOp51
 70
     0
102
RTVSPost2010Prop52
140
1.0
102
RTVSPost2010PropOp52
 70
     0
102
RTVSPost2010Prop53
 90
        2
102
RTVSPost2010PropOp53
 70
     1
102
RTVSPost2010Prop54
  1
strokes_ogs.tif
102
RTVSPost2010PropOp54
 70
     1
102
RTVSPost2010Prop55
280
     0
102
RTVSPost2010PropOp55
 70
     1
102
RTVSPost2010Prop56
140
1.0
102
RTVSPost2010PropOp56
 70
     1
102
RTVSPost2010Prop57
140
1.0
102
RTVSPost2010PropOp57
 70
     1
102
RTVSPropertyOp0
 70
     1
102
RTVSPropertyOp1
 70
     1
102
RTVSPropertyOp2
 70
     1
102
RTVSPropertyOp3
 70
     1
102
RTVSPropertyOp4
 70
     1
102
RTVSPropertyOp5
 70
     1
102
RTVSPropertyOp6
 70
     1
102
RTVSPropertyOp7
 70
     1
102
RTVSPropertyOp8
 70
     1
102
RTVSPropertyOp9
 70
     1
102
RTVSPropertyOp10
 70
     1
102
RTVSPropertyOp11
 70
     1
102
RTVSPropertyOp12
 70
     1
102
RTVSPropertyOp13
 70
     1
102
RTVSPropertyOp14
 70
     1
102
RTVSPropertyOp15
 70
     1
102
RTVSPropertyOp16
 70
     1
102
RTVSPropertyOp17
 70
     1
102
RTVSPropertyOp18
 70
     1
102
RTVSPropertyOp19
 70
     1
102
RTVSPropertyOp20
 70
     1
102
RTVSPropertyOp21
 70
     1
102
RTVSPropertyOp22
 70
     1
102
RTVSPropertyOp23
 70
     1
102
RTVSPropertyOp24
 70
     1
102
RTVSPropertyOp25
 70
     1
102
RTVSPropertyOp26
 70
     1
102
RTVSPropertyOp27
 70
     1
102
RTVSPropertyOp28
 70
     1
102
RTVSPropertyOp29
 70
     1
102
RTVSPropertyOp30
 70
     1
102
RTVSPropertyOp31
 70
     1
102
RTVSPropertyOp32
 70
     1
102
RTVSPropertyOp33
 70
     1
102
RTVSPropertyOp34
 70
     1
102
RTVSPropertyOp35
 70
     1
102
RTVSPropertyOp36
 70
     1
102
RTVSPropertyOp37
 70
     1
102
RTVSPropertyOp38
 70
     1
102
RTVSPropertyOp39
 70
     1
102
RTVSPropertyOp40
 70
     1
102
RTVSPropertyOp41
 70
     1
102
RTVSPropertyOp42
 70
     1
102
RTVSPropertyOp43
 70
     1
102
RTVSPropertyOp44
 70
     1
102
RTVSPropertyOp45
 70
     1
102
RTVSPropertyOp46
 70
     1
102
RTVSPropertyOp47
 70
     1
102
RTVSPropertyOp48
 70
     1
102
RTVSPropertyOp49
 70
     1
102
RTVSPropertyOp50
 70
     1
102
RTVSPropertyOp51
 70
     0
102
RTVSPropertyOp52
 70
     0
102
RTVSPropertyOp53
 70
     1
102
RTVSPropertyOp54
 70
     1
102
RTVSPropertyOp55
 70
     1
102
RTVSPropertyOp56
 70
     1
102
RTVSPropertyOp57
 70
     1
102
RTVSPropertyOp58
 70
     1
102
RTVSPropertyOp59
 70
     1
102
RTVSPropertyOp60
 70
     1
102
RTVSPropertyOp61
 70
     1
102
RTVSPropertyOp62
 70
     1
  0
XRECORD
  5
360
102
{ACAD_REACTORS
330
35F
102
}
330
35F
100
AcDbXrecord
280
     1
102
RTVSPost2010Prop28
280
     0
102
RTVSPost2010PropOp28
 70
     1
102
RTVSPost2010Prop29
280
     1
102
RTVSPost2010PropOp29
 70
     1
102
RTVSPost2010Prop30
280
     1
102
RTVSPost2010PropOp30
 70
     1
102
RTVSPost2010Prop31
280
     0
102
RTVSPost2010PropOp31
 70
     1
102
RTVSPost2010Prop32
280
     0
102
RTVSPost2010PropOp32
 70
     1
102
RTVSPost2010Prop33
280
     0
102
RTVSPost2010PropOp33
 70
     1
102
RTVSPost2010Prop34
280
     0
102
RTVSPost2010PropOp34
 70
     1
102
RTVSPost2010Prop35
280
     0
102
RTVSPost2010PropOp35
 70
     1
102
RTVSPost2010Prop36
280
     0
102
RTVSPost2010PropOp36
 70
     1
102
RTVSPost2010Prop37
 90
       50
102
RTVSPost2010PropOp37
 70
     1
102
RTVSPost2010Prop38
140
0.0
102
RTVSPost2010PropOp38
 70
     1
102
RTVSPost2010Prop39
140
1.0
102
RTVSPost2010PropOp39
 70
     1
102
RTVSPost2010Prop40
 90
        0
102
RTVSPost2010PropOp40
 70
     1
102
RTVSPost2010Prop41ColorIndex
 90
       18
102
RTVSPost2010Prop41ColorRGB
 90
        0
102
RTVSPost2010PropOp41
 70
     1
102
RTVSPost2010Prop42
 90
       50
102
RTVSPost2010PropOp42
 70
     1
102
RTVSPost2010Prop43
 90
        3
102
RTVSPost2010PropOp43
 70
     1
102
RTVSPost2010Prop44ColorIndex
 90
        5
102
RTVSPost2010Prop44ColorRGB
 90
      255
102
RTVSPost2010PropOp44
 70
     1
102
RTVSPost2010Prop45
280
     0
102
RTVSPost2010PropOp45
 70
     1
102
RTVSPost2010Prop46
 90
       50
102
RTVSPost2010PropOp46
 70
     1
102
RTVSPost2010Prop47
 90
       50
102
RTVSPost2010PropOp47
 70
     1
102
RTVSPost2010Prop48
 90
       50
102
RTVSPost2010PropOp48
 70
     1
102
RTVSPost2010Prop49
280
     0
102
RTVSPost2010PropOp49
 70
     1
102
RTVSPost2010Prop50
 90
       50
102
RTVSPost2010PropOp50
 70
     1
102
RTVSPost2010Prop51ColorIndex
 90
      256
102
RTVSPost2010Prop51ColorRGB
 90
-16777216
102
RTVSPost2010PropOp51
 70
     0
102
RTVSPost2010Prop52
140
1.0
102
RTVSPost2010PropOp52
 70
     0
102
RTVSPost2010Prop53
 90
        2
102
RTVSPost2010PropOp53
 70
     1
102
RTVSPost2010Prop54
  1
strokes_ogs.tif
102
RTVSPost2010PropOp54
 70
     1
102
RTVSPost2010Prop55
280
     0
102
RTVSPost2010PropOp55
 70
     1
102
RTVSPost2010Prop56
140
1.0
102
RTVSPost2010PropOp56
 70
     1
102
RTVSPost2010Prop57
140
1.0
102
RTVSPost2010PropOp57
 70
     1
102
RTVSPropertyOp0
 70
     1
102
RTVSPropertyOp1
 70
     1
102
RTVSPropertyOp2
 70
     1
102
RTVSPropertyOp3
 70
     1
102
RTVSPropertyOp4
 70
     1
102
RTVSPropertyOp5
 70
     1
102
RTVSPropertyOp6
 70
     1
102
RTVSPropertyOp7
 70
     1
102
RTVSPropertyOp8
 70
     1
102
RTVSPropertyOp9
 70
     1
102
RTVSPropertyOp10
 70
     1
102
RTVSPropertyOp11
 70
     1
102
RTVSPropertyOp12
 70
     1
102
RTVSPropertyOp13
 70
     1
102
RTVSPropertyOp14
 70
     1
102
RTVSPropertyOp15
 70
     1
102
RTVSPropertyOp16
 70
     1
102
RTVSPropertyOp17
 70
     1
102
RTVSPropertyOp18
 70
     1
102
RTVSPropertyOp19
 70
     1
102
RTVSPropertyOp20
 70
     1
102
RTVSPropertyOp21
 70
     1
102
RTVSPropertyOp22
 70
     1
102
RTVSPropertyOp23
 70
     1
102
RTVSPropertyOp24
 70
     1
102
RTVSPropertyOp25
 70
     1
102
RTVSPropertyOp26
 70
     1
102
RTVSPropertyOp27
 70
     1
102
RTVSPropertyOp28
 70
     1
102
RTVSPropertyOp29
 70
     1
102
RTVSPropertyOp30
 70
     1
102
RTVSPropertyOp31
 70
     1
102
RTVSPropertyOp32
 70
     1
102
RTVSPropertyOp33
 70
     1
102
RTVSPropertyOp34
 70
     1
102
RTVSPropertyOp35
 70
     1
102
RTVSPropertyOp36
 70
     1
102
RTVSPropertyOp37
 70
     1
102
RTVSPropertyOp38
 70
     1
102
RTVSPropertyOp39
 70
     1
102
RTVSPropertyOp40
 70
     1
102
RTVSPropertyOp41
 70
     1
102
RTVSPropertyOp42
 70
     1
102
RTVSPropertyOp43
 70
     1
102
RTVSPropertyOp44
 70
     1
102
RTVSPropertyOp45
 70
     1
102
RTVSPropertyOp46
 70
     1
102
RTVSPropertyOp47
 70
     1
102
RTVSPropertyOp48
 70
     1
102
RTVSPropertyOp49
 70
     1
102
RTVSPropertyOp50
 70
     1
102
RTVSPropertyOp51
 70
     0
102
RTVSPropertyOp52
 70
     0
102
RTVSPropertyOp53
 70
     1
102
RTVSPropertyOp54
 70
     1
102
RTVSPropertyOp55
 70
     1
102
RTVSPropertyOp56
 70
     1
102
RTVSPropertyOp57
 70
     1
102
RTVSPropertyOp58
 70
     1
102
RTVSPropertyOp59
 70
     1
102
RTVSPropertyOp60
 70
     1
102
RTVSPropertyOp61
 70
     1
102
RTVSPropertyOp62
 70
     1
  0
XRECORD
  5
366
102
{ACAD_REACTORS
330
365
102
}
330
365
100
AcDbXrecord
280
     1
102
RTVSPost2010Prop28
280
     0
102
RTVSPost2010PropOp28
 70
     1
102
RTVSPost2010Prop29
280
     1
102
RTVSPost2010PropOp29
 70
     1
102
RTVSPost2010Prop30
280
     1
102
RTVSPost2010PropOp30
 70
     1
102
RTVSPost2010Prop31
280
     0
102
RTVSPost2010PropOp31
 70
     1
102
RTVSPost2010Prop32
280
     0
102
RTVSPost2010PropOp32
 70
     1
102
RTVSPost2010Prop33
280
     0
102
RTVSPost2010PropOp33
 70
     1
102
RTVSPost2010Prop34
280
     0
102
RTVSPost2010PropOp34
 70
     1
102
RTVSPost2010Prop35
280
     0
102
RTVSPost2010PropOp35
 70
     1
102
RTVSPost2010Prop36
280
     0
102
RTVSPost2010PropOp36
 70
     1
102
RTVSPost2010Prop37
 90
       50
102
RTVSPost2010PropOp37
 70
     1
102
RTVSPost2010Prop38
140
0.0
102
RTVSPost2010PropOp38
 70
     1
102
RTVSPost2010Prop39
140
1.0
102
RTVSPost2010PropOp39
 70
     1
102
RTVSPost2010Prop40
 90
        0
102
RTVSPost2010PropOp40
 70
     1
102
RTVSPost2010Prop41ColorIndex
 90
       18
102
RTVSPost2010Prop41ColorRGB
 90
        0
102
RTVSPost2010PropOp41
 70
     1
102
RTVSPost2010Prop42
 90
       50
102
RTVSPost2010PropOp42
 70
     1
102
RTVSPost2010Prop43
 90
        3
102
RTVSPost2010PropOp43
 70
     1
102
RTVSPost2010Prop44ColorIndex
 90
        5
102
RTVSPost2010Prop44ColorRGB
 90
      255
102
RTVSPost2010PropOp44
 70
     1
102
RTVSPost2010Prop45
280
     0
102
RTVSPost2010PropOp45
 70
     1
102
RTVSPost2010Prop46
 90
       50
102
RTVSPost2010PropOp46
 70
     1
102
RTVSPost2010Prop47
 90
       50
102
RTVSPost2010PropOp47
 70
     1
102
RTVSPost2010Prop48
 90
       50
102
RTVSPost2010PropOp48
 70
     1
102
RTVSPost2010Prop49
280
     0
102
RTVSPost2010PropOp49
 70
     1
102
RTVSPost2010Prop50
 90
       50
102
RTVSPost2010PropOp50
 70
     1
102
RTVSPost2010Prop51ColorIndex
 90
      256
102
RTVSPost2010Prop51ColorRGB
 90
-16777216
102
RTVSPost2010PropOp51
 70
     0
102
RTVSPost2010Prop52
140
1.0
102
RTVSPost2010PropOp52
 70
     0
102
RTVSPost2010Prop53
 90
        2
102
RTVSPost2010PropOp53
 70
     1
102
RTVSPost2010Prop54
  1
strokes_ogs.tif
102
RTVSPost2010PropOp54
 70
     1
102
RTVSPost2010Prop55
280
     0
102
RTVSPost2010PropOp55
 70
     1
102
RTVSPost2010Prop56
140
1.0
102
RTVSPost2010PropOp56
 70
     1
102
RTVSPost2010Prop57
140
1.0
102
RTVSPost2010PropOp57
 70
     1
102
RTVSPropertyOp0
 70
     1
102
RTVSPropertyOp1
 70
     1
102
RTVSPropertyOp2
 70
     1
102
RTVSPropertyOp3
 70
     1
102
RTVSPropertyOp4
 70
     1
102
RTVSPropertyOp5
 70
     1
102
RTVSPropertyOp6
 70
     1
102
RTVSPropertyOp7
 70
     1
102
RTVSPropertyOp8
 70
     1
102
RTVSPropertyOp9
 70
     1
102
RTVSPropertyOp10
 70
     1
102
RTVSPropertyOp11
 70
     1
102
RTVSPropertyOp12
 70
     1
102
RTVSPropertyOp13
 70
     1
102
RTVSPropertyOp14
 70
     1
102
RTVSPropertyOp15
 70
     1
102
RTVSPropertyOp16
 70
     1
102
RTVSPropertyOp17
 70
     1
102
RTVSPropertyOp18
 70
     1
102
RTVSPropertyOp19
 70
     1
102
RTVSPropertyOp20
 70
     1
102
RTVSPropertyOp21
 70
     1
102
RTVSPropertyOp22
 70
     1
102
RTVSPropertyOp23
 70
     1
102
RTVSPropertyOp24
 70
     1
102
RTVSPropertyOp25
 70
     1
102
RTVSPropertyOp26
 70
     1
102
RTVSPropertyOp27
 70
     1
102
RTVSPropertyOp28
 70
     1
102
RTVSPropertyOp29
 70
     1
102
RTVSPropertyOp30
 70
     1
102
RTVSPropertyOp31
 70
     1
102
RTVSPropertyOp32
 70
     1
102
RTVSPropertyOp33
 70
     1
102
RTVSPropertyOp34
 70
     1
102
RTVSPropertyOp35
 70
     1
102
RTVSPropertyOp36
 70
     1
102
RTVSPropertyOp37
 70
     1
102
RTVSPropertyOp38
 70
     1
102
RTVSPropertyOp39
 70
     1
102
RTVSPropertyOp40
 70
     1
102
RTVSPropertyOp41
 70
     1
102
RTVSPropertyOp42
 70
     1
102
RTVSPropertyOp43
 70
     1
102
RTVSPropertyOp44
 70
     1
102
RTVSPropertyOp45
 70
     1
102
RTVSPropertyOp46
 70
     1
102
RTVSPropertyOp47
 70
     1
102
RTVSPropertyOp48
 70
     1
102
RTVSPropertyOp49
 70
     1
102
RTVSPropertyOp50
 70
     1
102
RTVSPropertyOp51
 70
     0
102
RTVSPropertyOp52
 70
     0
102
RTVSPropertyOp53
 70
     1
102
RTVSPropertyOp54
 70
     1
102
RTVSPropertyOp55
 70
     1
102
RTVSPropertyOp56
 70
     1
102
RTVSPropertyOp57
 70
     1
102
RTVSPropertyOp58
 70
     1
102
RTVSPropertyOp59
 70
     1
102
RTVSPropertyOp60
 70
     1
102
RTVSPropertyOp61
 70
     1
102
RTVSPropertyOp62
 70
     1
  0
XRECORD
  5
37A
102
{ACAD_REACTORS
330
379
102
}
330
379
100
AcDbXrecord
280
     1
102
RTVSPost2010Prop28
280
     0
102
RTVSPost2010PropOp28
 70
     0
102
RTVSPost2010Prop29
280
     1
102
RTVSPost2010PropOp29
 70
     0
102
RTVSPost2010Prop30
280
     1
102
RTVSPost2010PropOp30
 70
     0
102
RTVSPost2010Prop31
280
     0
102
RTVSPost2010PropOp31
 70
     0
102
RTVSPost2010Prop32
280
     0
102
RTVSPost2010PropOp32
 70
     0
102
RTVSPost2010Prop33
280
     0
102
RTVSPost2010PropOp33
 70
     0
102
RTVSPost2010Prop34
280
     0
102
RTVSPost2010PropOp34
 70
     0
102
RTVSPost2010Prop35
280
     0
102
RTVSPost2010PropOp35
 70
     0
102
RTVSPost2010Prop36
280
     0
102
RTVSPost2010PropOp36
 70
     0
102
RTVSPost2010Prop37
 90
       50
102
RTVSPost2010PropOp37
 70
     0
102
RTVSPost2010Prop38
140
0.0
102
RTVSPost2010PropOp38
 70
     0
102
RTVSPost2010Prop39
140
1.0
102
RTVSPost2010PropOp39
 70
     0
102
RTVSPost2010Prop40
 90
        0
102
RTVSPost2010PropOp40
 70
     0
102
RTVSPost2010Prop41ColorIndex
 90
       18
102
RTVSPost2010Prop41ColorRGB
 90
        0
102
RTVSPost2010PropOp41
 70
     0
102
RTVSPost2010Prop42
 90
       50
102
RTVSPost2010PropOp42
 70
     0
102
RTVSPost2010Prop43
 90
        3
102
RTVSPost2010PropOp43
 70
     0
102
RTVSPost2010Prop44ColorIndex
 90
        5
102
RTVSPost2010Prop44ColorRGB
 90
      255
102
RTVSPost2010PropOp44
 70
     0
102
RTVSPost2010Prop45
280
     0
102
RTVSPost2010PropOp45
 70
     0
102
RTVSPost2010Prop46
 90
       50
102
RTVSPost2010PropOp46
 70
     0
102
RTVSPost2010Prop47
 90
       50
102
RTVSPost2010PropOp47
 70
     0
102
RTVSPost2010Prop48
 90
       50
102
RTVSPost2010PropOp48
 70
     0
102
RTVSPost2010Prop49
280
     0
102
RTVSPost2010PropOp49
 70
     0
102
RTVSPost2010Prop50
 90
       50
102
RTVSPost2010PropOp50
 70
     0
102
RTVSPost2010Prop51ColorIndex
 90
      256
102
RTVSPost2010Prop51ColorRGB
 90
-16777216
102
RTVSPost2010PropOp51
 70
     0
102
RTVSPost2010Prop52
140
1.0
102
RTVSPost2010PropOp52
 70
     0
102
RTVSPost2010Prop53
 90
        2
102
RTVSPost2010PropOp53
 70
     0
102
RTVSPost2010Prop54
  1
strokes_ogs.tif
102
RTVSPost2010PropOp54
 70
     0
102
RTVSPost2010Prop55
280
     0
102
RTVSPost2010PropOp55
 70
     0
102
RTVSPost2010Prop56
140
1.0
102
RTVSPost2010PropOp56
 70
     0
102
RTVSPost2010Prop57
140
1.0
102
RTVSPost2010PropOp57
 70
     0
102
RTVSPropertyOp0
 70
     0
102
RTVSPropertyOp1
 70
     0
102
RTVSPropertyOp2
 70
     0
102
RTVSPropertyOp3
 70
     0
102
RTVSPropertyOp4
 70
     0
102
RTVSPropertyOp5
 70
     0
102
RTVSPropertyOp6
 70
     0
102
RTVSPropertyOp7
 70
     0
102
RTVSPropertyOp8
 70
     0
102
RTVSPropertyOp9
 70
     0
102
RTVSPropertyOp10
 70
     0
102
RTVSPropertyOp11
 70
     0
102
RTVSPropertyOp12
 70
     0
102
RTVSPropertyOp13
 70
     0
102
RTVSPropertyOp14
 70
     2
102
RTVSPropertyOp15
 70
     0
102
RTVSPropertyOp16
 70
     0
102
RTVSPropertyOp17
 70
     0
102
RTVSPropertyOp18
 70
     0
102
RTVSPropertyOp19
 70
     0
102
RTVSPropertyOp20
 70
     0
102
RTVSPropertyOp21
 70
     0
102
RTVSPropertyOp22
 70
     0
102
RTVSPropertyOp23
 70
     0
102
RTVSPropertyOp24
 70
     0
102
RTVSPropertyOp25
 70
     0
102
RTVSPropertyOp26
 70
     0
102
RTVSPropertyOp27
 70
     0
102
RTVSPropertyOp28
 70
     0
102
RTVSPropertyOp29
 70
     0
102
RTVSPropertyOp30
 70
     0
102
RTVSPropertyOp31
 70
     0
102
RTVSPropertyOp32
 70
     0
102
RTVSPropertyOp33
 70
     0
102
RTVSPropertyOp34
 70
     0
102
RTVSPropertyOp35
 70
     0
102
RTVSPropertyOp36
 70
     0
102
RTVSPropertyOp37
 70
     0
102
RTVSPropertyOp38
 70
     0
102
RTVSPropertyOp39
 70
     0
102
RTVSPropertyOp40
 70
     0
102
RTVSPropertyOp41
 70
     0
102
RTVSPropertyOp42
 70
     0
102
RTVSPropertyOp43
 70
     0
102
RTVSPropertyOp44
 70
     0
102
RTVSPropertyOp45
 70
     0
102
RTVSPropertyOp46
 70
     0
102
RTVSPropertyOp47
 70
     0
102
RTVSPropertyOp48
 70
     0
102
RTVSPropertyOp49
 70
     0
102
RTVSPropertyOp50
 70
     0
102
RTVSPropertyOp51
 70
     0
102
RTVSPropertyOp52
 70
     0
102
RTVSPropertyOp53
 70
     0
102
RTVSPropertyOp54
 70
     0
102
RTVSPropertyOp55
 70
     0
102
RTVSPropertyOp56
 70
     0
102
RTVSPropertyOp57
 70
     0
102
RTVSPropertyOp58
 70
     1
102
RTVSPropertyOp59
 70
     1
102
RTVSPropertyOp60
 70
     1
102
RTVSPropertyOp61
 70
     1
102
RTVSPropertyOp62
 70
     1
  0
XRECORD
  5
374
102
{ACAD_REACTORS
330
373
102
}
330
373
100
AcDbXrecord
280
     1
102
RTVSPost2010Prop28
280
     0
102
RTVSPost2010PropOp28
 70
     1
102
RTVSPost2010Prop29
280
     1
102
RTVSPost2010PropOp29
 70
     1
102
RTVSPost2010Prop30
280
     1
102
RTVSPost2010PropOp30
 70
     1
102
RTVSPost2010Prop31
280
     0
102
RTVSPost2010PropOp31
 70
     1
102
RTVSPost2010Prop32
280
     0
102
RTVSPost2010PropOp32
 70
     1
102
RTVSPost2010Prop33
280
     0
102
RTVSPost2010PropOp33
 70
     1
102
RTVSPost2010Prop34
280
     0
102
RTVSPost2010PropOp34
 70
     1
102
RTVSPost2010Prop35
280
     0
102
RTVSPost2010PropOp35
 70
     1
102
RTVSPost2010Prop36
280
     0
102
RTVSPost2010PropOp36
 70
     1
102
RTVSPost2010Prop37
 90
       50
102
RTVSPost2010PropOp37
 70
     1
102
RTVSPost2010Prop38
140
0.0
102
RTVSPost2010PropOp38
 70
     1
102
RTVSPost2010Prop39
140
1.0
102
RTVSPost2010PropOp39
 70
     1
102
RTVSPost2010Prop40
 90
        0
102
RTVSPost2010PropOp40
 70
     1
102
RTVSPost2010Prop41ColorIndex
 90
       18
102
RTVSPost2010Prop41ColorRGB
 90
        0
102
RTVSPost2010PropOp41
 70
     1
102
RTVSPost2010Prop42
 90
       50
102
RTVSPost2010PropOp42
 70
     1
102
RTVSPost2010Prop43
 90
        3
102
RTVSPost2010PropOp43
 70
     1
102
RTVSPost2010Prop44ColorIndex
 90
        5
102
RTVSPost2010Prop44ColorRGB
 90
      255
102
RTVSPost2010PropOp44
 70
     1
102
RTVSPost2010Prop45
280
     0
102
RTVSPost2010PropOp45
 70
     1
102
RTVSPost2010Prop46
 90
       50
102
RTVSPost2010PropOp46
 70
     1
102
RTVSPost2010Prop47
 90
       50
102
RTVSPost2010PropOp47
 70
     1
102
RTVSPost2010Prop48
 90
       50
102
RTVSPost2010PropOp48
 70
     1
102
RTVSPost2010Prop49
280
     0
102
RTVSPost2010PropOp49
 70
     1
102
RTVSPost2010Prop50
 90
       50
102
RTVSPost2010PropOp50
 70
     1
102
RTVSPost2010Prop51ColorIndex
 90
      256
102
RTVSPost2010Prop51ColorRGB
 90
-16777216
102
RTVSPost2010PropOp51
 70
     0
102
RTVSPost2010Prop52
140
1.0
102
RTVSPost2010PropOp52
 70
     0
102
RTVSPost2010Prop53
 90
        2
102
RTVSPost2010PropOp53
 70
     1
102
RTVSPost2010Prop54
  1
strokes_ogs.tif
102
RTVSPost2010PropOp54
 70
     1
102
RTVSPost2010Prop55
280
     0
102
RTVSPost2010PropOp55
 70
     1
102
RTVSPost2010Prop56
140
1.0
102
RTVSPost2010PropOp56
 70
     1
102
RTVSPost2010Prop57
140
1.0
102
RTVSPost2010PropOp57
 70
     1
102
RTVSPropertyOp0
 70
     1
102
RTVSPropertyOp1
 70
     1
102
RTVSPropertyOp2
 70
     1
102
RTVSPropertyOp3
 70
     1
102
RTVSPropertyOp4
 70
     1
102
RTVSPropertyOp5
 70
     1
102
RTVSPropertyOp6
 70
     1
102
RTVSPropertyOp7
 70
     1
102
RTVSPropertyOp8
 70
     1
102
RTVSPropertyOp9
 70
     1
102
RTVSPropertyOp10
 70
     1
102
RTVSPropertyOp11
 70
     1
102
RTVSPropertyOp12
 70
     1
102
RTVSPropertyOp13
 70
     1
102
RTVSPropertyOp14
 70
     1
102
RTVSPropertyOp15
 70
     1
102
RTVSPropertyOp16
 70
     1
102
RTVSPropertyOp17
 70
     1
102
RTVSPropertyOp18
 70
     1
102
RTVSPropertyOp19
 70
     1
102
RTVSPropertyOp20
 70
     1
102
RTVSPropertyOp21
 70
     1
102
RTVSPropertyOp22
 70
     1
102
RTVSPropertyOp23
 70
     1
102
RTVSPropertyOp24
 70
     1
102
RTVSPropertyOp25
 70
     1
102
RTVSPropertyOp26
 70
     1
102
RTVSPropertyOp27
 70
     1
102
RTVSPropertyOp28
 70
     1
102
RTVSPropertyOp29
 70
     1
102
RTVSPropertyOp30
 70
     1
102
RTVSPropertyOp31
 70
     1
102
RTVSPropertyOp32
 70
     1
102
RTVSPropertyOp33
 70
     1
102
RTVSPropertyOp34
 70
     1
102
RTVSPropertyOp35
 70
     1
102
RTVSPropertyOp36
 70
     1
102
RTVSPropertyOp37
 70
     1
102
RTVSPropertyOp38
 70
     1
102
RTVSPropertyOp39
 70
     1
102
RTVSPropertyOp40
 70
     1
102
RTVSPropertyOp41
 70
     1
102
RTVSPropertyOp42
 70
     1
102
RTVSPropertyOp43
 70
     1
102
RTVSPropertyOp44
 70
     1
102
RTVSPropertyOp45
 70
     1
102
RTVSPropertyOp46
 70
     1
102
RTVSPropertyOp47
 70
     1
102
RTVSPropertyOp48
 70
     1
102
RTVSPropertyOp49
 70
     1
102
RTVSPropertyOp50
 70
     1
102
RTVSPropertyOp51
 70
     0
102
RTVSPropertyOp52
 70
     0
102
RTVSPropertyOp53
 70
     1
102
RTVSPropertyOp54
 70
     1
102
RTVSPropertyOp55
 70
     1
102
RTVSPropertyOp56
 70
     1
102
RTVSPropertyOp57
 70
     1
102
RTVSPropertyOp58
 70
     1
102
RTVSPropertyOp59
 70
     1
102
RTVSPropertyOp60
 70
     1
102
RTVSPropertyOp61
 70
     1
102
RTVSPropertyOp62
 70
     1
  0
XRECORD
  5
37C
102
{ACAD_REACTORS
330
37B
102
}
330
37B
100
AcDbXrecord
280
     1
102
RTVSPost2010Prop28
280
     0
102
RTVSPost2010PropOp28
 70
     0
102
RTVSPost2010Prop29
280
     1
102
RTVSPost2010PropOp29
 70
     0
102
RTVSPost2010Prop30
280
     1
102
RTVSPost2010PropOp30
 70
     0
102
RTVSPost2010Prop31
280
     0
102
RTVSPost2010PropOp31
 70
     0
102
RTVSPost2010Prop32
280
     0
102
RTVSPost2010PropOp32
 70
     0
102
RTVSPost2010Prop33
280
     0
102
RTVSPost2010PropOp33
 70
     0
102
RTVSPost2010Prop34
280
     0
102
RTVSPost2010PropOp34
 70
     0
102
RTVSPost2010Prop35
280
     0
102
RTVSPost2010PropOp35
 70
     0
102
RTVSPost2010Prop36
280
     0
102
RTVSPost2010PropOp36
 70
     0
102
RTVSPost2010Prop37
 90
       50
102
RTVSPost2010PropOp37
 70
     0
102
RTVSPost2010Prop38
140
0.0
102
RTVSPost2010PropOp38
 70
     0
102
RTVSPost2010Prop39
140
1.0
102
RTVSPost2010PropOp39
 70
     0
102
RTVSPost2010Prop40
 90
        0
102
RTVSPost2010PropOp40
 70
     0
102
RTVSPost2010Prop41ColorIndex
 90
       18
102
RTVSPost2010Prop41ColorRGB
 90
        0
102
RTVSPost2010PropOp41
 70
     0
102
RTVSPost2010Prop42
 90
       50
102
RTVSPost2010PropOp42
 70
     0
102
RTVSPost2010Prop43
 90
        3
102
RTVSPost2010PropOp43
 70
     0
102
RTVSPost2010Prop44ColorIndex
 90
        5
102
RTVSPost2010Prop44ColorRGB
 90
      255
102
RTVSPost2010PropOp44
 70
     0
102
RTVSPost2010Prop45
280
     0
102
RTVSPost2010PropOp45
 70
     0
102
RTVSPost2010Prop46
 90
       50
102
RTVSPost2010PropOp46
 70
     0
102
RTVSPost2010Prop47
 90
       50
102
RTVSPost2010PropOp47
 70
     0
102
RTVSPost2010Prop48
 90
       50
102
RTVSPost2010PropOp48
 70
     0
102
RTVSPost2010Prop49
280
     0
102
RTVSPost2010PropOp49
 70
     0
102
RTVSPost2010Prop50
 90
       50
102
RTVSPost2010PropOp50
 70
     0
102
RTVSPost2010Prop51ColorIndex
 90
      256
102
RTVSPost2010Prop51ColorRGB
 90
-16777216
102
RTVSPost2010PropOp51
 70
     0
102
RTVSPost2010Prop52
140
1.0
102
RTVSPost2010PropOp52
 70
     0
102
RTVSPost2010Prop53
 90
        2
102
RTVSPost2010PropOp53
 70
     0
102
RTVSPost2010Prop54
  1
strokes_ogs.tif
102
RTVSPost2010PropOp54
 70
     0
102
RTVSPost2010Prop55
280
     0
102
RTVSPost2010PropOp55
 70
     0
102
RTVSPost2010Prop56
140
1.0
102
RTVSPost2010PropOp56
 70
     0
102
RTVSPost2010Prop57
140
1.0
102
RTVSPost2010PropOp57
 70
     0
102
RTVSPropertyOp0
 70
     0
102
RTVSPropertyOp1
 70
     0
102
RTVSPropertyOp2
 70
     0
102
RTVSPropertyOp3
 70
     0
102
RTVSPropertyOp4
 70
     0
102
RTVSPropertyOp5
 70
     0
102
RTVSPropertyOp6
 70
     0
102
RTVSPropertyOp7
 70
     0
102
RTVSPropertyOp8
 70
     0
102
RTVSPropertyOp9
 70
     0
102
RTVSPropertyOp10
 70
     0
102
RTVSPropertyOp11
 70
     0
102
RTVSPropertyOp12
 70
     0
102
RTVSPropertyOp13
 70
     0
102
RTVSPropertyOp14
 70
     2
102
RTVSPropertyOp15
 70
     0
102
RTVSPropertyOp16
 70
     0
102
RTVSPropertyOp17
 70
     0
102
RTVSPropertyOp18
 70
     0
102
RTVSPropertyOp19
 70
     0
102
RTVSPropertyOp20
 70
     0
102
RTVSPropertyOp21
 70
     0
102
RTVSPropertyOp22
 70
     0
102
RTVSPropertyOp23
 70
     0
102
RTVSPropertyOp24
 70
     0
102
RTVSPropertyOp25
 70
     0
102
RTVSPropertyOp26
 70
     0
102
RTVSPropertyOp27
 70
     0
102
RTVSPropertyOp28
 70
     0
102
RTVSPropertyOp29
 70
     0
102
RTVSPropertyOp30
 70
     0
102
RTVSPropertyOp31
 70
     0
102
RTVSPropertyOp32
 70
     0
102
RTVSPropertyOp33
 70
     0
102
RTVSPropertyOp34
 70
     0
102
RTVSPropertyOp35
 70
     0
102
RTVSPropertyOp36
 70
     0
102
RTVSPropertyOp37
 70
     0
102
RTVSPropertyOp38
 70
     0
102
RTVSPropertyOp39
 70
     0
102
RTVSPropertyOp40
 70
     0
102
RTVSPropertyOp41
 70
     0
102
RTVSPropertyOp42
 70
     0
102
RTVSPropertyOp43
 70
     0
102
RTVSPropertyOp44
 70
     0
102
RTVSPropertyOp45
 70
     0
102
RTVSPropertyOp46
 70
     0
102
RTVSPropertyOp47
 70
     0
102
RTVSPropertyOp48
 70
     0
102
RTVSPropertyOp49
 70
     0
102
RTVSPropertyOp50
 70
     0
102
RTVSPropertyOp51
 70
     0
102
RTVSPropertyOp52
 70
     0
102
RTVSPropertyOp53
 70
     0
102
RTVSPropertyOp54
 70
     0
102
RTVSPropertyOp55
 70
     0
102
RTVSPropertyOp56
 70
     0
102
RTVSPropertyOp57
 70
     0
102
RTVSPropertyOp58
 70
     1
102
RTVSPropertyOp59
 70
     1
102
RTVSPropertyOp60
 70
     1
102
RTVSPropertyOp61
 70
     1
102
RTVSPropertyOp62
 70
     1
  0
XRECORD
  5
36A
102
{ACAD_REACTORS
330
369
102
}
330
369
100
AcDbXrecord
280
     1
102
RTVSPost2010Prop28
280
     0
102
RTVSPost2010PropOp28
 70
     1
102
RTVSPost2010Prop29
280
     1
102
RTVSPost2010PropOp29
 70
     1
102
RTVSPost2010Prop30
280
     1
102
RTVSPost2010PropOp30
 70
     1
102
RTVSPost2010Prop31
280
     0
102
RTVSPost2010PropOp31
 70
     1
102
RTVSPost2010Prop32
280
     0
102
RTVSPost2010PropOp32
 70
     1
102
RTVSPost2010Prop33
280
     0
102
RTVSPost2010PropOp33
 70
     1
102
RTVSPost2010Prop34
280
     0
102
RTVSPost2010PropOp34
 70
     1
102
RTVSPost2010Prop35
280
     0
102
RTVSPost2010PropOp35
 70
     1
102
RTVSPost2010Prop36
280
     0
102
RTVSPost2010PropOp36
 70
     1
102
RTVSPost2010Prop37
 90
       50
102
RTVSPost2010PropOp37
 70
     1
102
RTVSPost2010Prop38
140
0.0
102
RTVSPost2010PropOp38
 70
     1
102
RTVSPost2010Prop39
140
1.0
102
RTVSPost2010PropOp39
 70
     1
102
RTVSPost2010Prop40
 90
        0
102
RTVSPost2010PropOp40
 70
     1
102
RTVSPost2010Prop41ColorIndex
 90
       18
102
RTVSPost2010Prop41ColorRGB
 90
        0
102
RTVSPost2010PropOp41
 70
     1
102
RTVSPost2010Prop42
 90
       50
102
RTVSPost2010PropOp42
 70
     1
102
RTVSPost2010Prop43
 90
        3
102
RTVSPost2010PropOp43
 70
     1
102
RTVSPost2010Prop44ColorIndex
 90
        5
102
RTVSPost2010Prop44ColorRGB
 90
      255
102
RTVSPost2010PropOp44
 70
     1
102
RTVSPost2010Prop45
280
     0
102
RTVSPost2010PropOp45
 70
     1
102
RTVSPost2010Prop46
 90
       50
102
RTVSPost2010PropOp46
 70
     1
102
RTVSPost2010Prop47
 90
       50
102
RTVSPost2010PropOp47
 70
     1
102
RTVSPost2010Prop48
 90
       50
102
RTVSPost2010PropOp48
 70
     1
102
RTVSPost2010Prop49
280
     0
102
RTVSPost2010PropOp49
 70
     1
102
RTVSPost2010Prop50
 90
       50
102
RTVSPost2010PropOp50
 70
     1
102
RTVSPost2010Prop51ColorIndex
 90
      256
102
RTVSPost2010Prop51ColorRGB
 90
-16777216
102
RTVSPost2010PropOp51
 70
     0
102
RTVSPost2010Prop52
140
1.0
102
RTVSPost2010PropOp52
 70
     0
102
RTVSPost2010Prop53
 90
        2
102
RTVSPost2010PropOp53
 70
     1
102
RTVSPost2010Prop54
  1
strokes_ogs.tif
102
RTVSPost2010PropOp54
 70
     1
102
RTVSPost2010Prop55
280
     0
102
RTVSPost2010PropOp55
 70
     1
102
RTVSPost2010Prop56
140
1.0
102
RTVSPost2010PropOp56
 70
     1
102
RTVSPost2010Prop57
140
1.0
102
RTVSPost2010PropOp57
 70
     1
102
RTVSPropertyOp0
 70
     1
102
RTVSPropertyOp1
 70
     1
102
RTVSPropertyOp2
 70
     1
102
RTVSPropertyOp3
 70
     1
102
RTVSPropertyOp4
 70
     1
102
RTVSPropertyOp5
 70
     1
102
RTVSPropertyOp6
 70
     1
102
RTVSPropertyOp7
 70
     1
102
RTVSPropertyOp8
 70
     1
102
RTVSPropertyOp9
 70
     1
102
RTVSPropertyOp10
 70
     1
102
RTVSPropertyOp11
 70
     1
102
RTVSPropertyOp12
 70
     1
102
RTVSPropertyOp13
 70
     1
102
RTVSPropertyOp14
 70
     1
102
RTVSPropertyOp15
 70
     1
102
RTVSPropertyOp16
 70
     1
102
RTVSPropertyOp17
 70
     1
102
RTVSPropertyOp18
 70
     1
102
RTVSPropertyOp19
 70
     1
102
RTVSPropertyOp20
 70
     1
102
RTVSPropertyOp21
 70
     1
102
RTVSPropertyOp22
 70
     1
102
RTVSPropertyOp23
 70
     1
102
RTVSPropertyOp24
 70
     1
102
RTVSPropertyOp25
 70
     1
102
RTVSPropertyOp26
 70
     1
102
RTVSPropertyOp27
 70
     1
102
RTVSPropertyOp28
 70
     1
102
RTVSPropertyOp29
 70
     1
102
RTVSPropertyOp30
 70
     1
102
RTVSPropertyOp31
 70
     1
102
RTVSPropertyOp32
 70
     1
102
RTVSPropertyOp33
 70
     1
102
RTVSPropertyOp34
 70
     1
102
RTVSPropertyOp35
 70
     1
102
RTVSPropertyOp36
 70
     1
102
RTVSPropertyOp37
 70
     1
102
RTVSPropertyOp38
 70
     1
102
RTVSPropertyOp39
 70
     1
102
RTVSPropertyOp40
 70
     1
102
RTVSPropertyOp41
 70
     1
102
RTVSPropertyOp42
 70
     1
102
RTVSPropertyOp43
 70
     1
102
RTVSPropertyOp44
 70
     1
102
RTVSPropertyOp45
 70
     1
102
RTVSPropertyOp46
 70
     1
102
RTVSPropertyOp47
 70
     1
102
RTVSPropertyOp48
 70
     1
102
RTVSPropertyOp49
 70
     1
102
RTVSPropertyOp50
 70
     1
102
RTVSPropertyOp51
 70
     0
102
RTVSPropertyOp52
 70
     0
102
RTVSPropertyOp53
 70
     1
102
RTVSPropertyOp54
 70
     1
102
RTVSPropertyOp55
 70
     1
102
RTVSPropertyOp56
 70
     1
102
RTVSPropertyOp57
 70
     1
102
RTVSPropertyOp58
 70
     1
102
RTVSPropertyOp59
 70
     1
102
RTVSPropertyOp60
 70
     1
102
RTVSPropertyOp61
 70
     1
102
RTVSPropertyOp62
 70
     1
  0
XRECORD
  5
388
102
{ACAD_REACTORS
330
387
102
}
330
387
100
AcDbXrecord
280
     1
102
RTVSPost2010Prop28
280
     0
102
RTVSPost2010PropOp28
 70
     1
102
RTVSPost2010Prop29
280
     1
102
RTVSPost2010PropOp29
 70
     1
102
RTVSPost2010Prop30
280
     1
102
RTVSPost2010PropOp30
 70
     1
102
RTVSPost2010Prop31
280
     0
102
RTVSPost2010PropOp31
 70
     1
102
RTVSPost2010Prop32
280
     0
102
RTVSPost2010PropOp32
 70
     1
102
RTVSPost2010Prop33
280
     0
102
RTVSPost2010PropOp33
 70
     1
102
RTVSPost2010Prop34
280
     0
102
RTVSPost2010PropOp34
 70
     1
102
RTVSPost2010Prop35
280
     0
102
RTVSPost2010PropOp35
 70
     1
102
RTVSPost2010Prop36
280
     0
102
RTVSPost2010PropOp36
 70
     1
102
RTVSPost2010Prop37
 90
       50
102
RTVSPost2010PropOp37
 70
     1
102
RTVSPost2010Prop38
140
0.0
102
RTVSPost2010PropOp38
 70
     1
102
RTVSPost2010Prop39
140
1.0
102
RTVSPost2010PropOp39
 70
     1
102
RTVSPost2010Prop40
 90
        0
102
RTVSPost2010PropOp40
 70
     1
102
RTVSPost2010Prop41ColorIndex
 90
       18
102
RTVSPost2010Prop41ColorRGB
 90
        0
102
RTVSPost2010PropOp41
 70
     1
102
RTVSPost2010Prop42
 90
       50
102
RTVSPost2010PropOp42
 70
     1
102
RTVSPost2010Prop43
 90
        3
102
RTVSPost2010PropOp43
 70
     1
102
RTVSPost2010Prop44ColorIndex
 90
        5
102
RTVSPost2010Prop44ColorRGB
 90
      255
102
RTVSPost2010PropOp44
 70
     1
102
RTVSPost2010Prop45
280
     0
102
RTVSPost2010PropOp45
 70
     1
102
RTVSPost2010Prop46
 90
       50
102
RTVSPost2010PropOp46
 70
     1
102
RTVSPost2010Prop47
 90
       50
102
RTVSPost2010PropOp47
 70
     1
102
RTVSPost2010Prop48
 90
       50
102
RTVSPost2010PropOp48
 70
     1
102
RTVSPost2010Prop49
280
     0
102
RTVSPost2010PropOp49
 70
     1
102
RTVSPost2010Prop50
 90
       50
102
RTVSPost2010PropOp50
 70
     1
102
RTVSPost2010Prop51ColorIndex
 90
      256
102
RTVSPost2010Prop51ColorRGB
 90
-16777216
102
RTVSPost2010PropOp51
 70
     0
102
RTVSPost2010Prop52
140
1.0
102
RTVSPost2010PropOp52
 70
     0
102
RTVSPost2010Prop53
 90
        2
102
RTVSPost2010PropOp53
 70
     1
102
RTVSPost2010Prop54
  1
strokes_ogs.tif
102
RTVSPost2010PropOp54
 70
     1
102
RTVSPost2010Prop55
280
     0
102
RTVSPost2010PropOp55
 70
     1
102
RTVSPost2010Prop56
140
1.0
102
RTVSPost2010PropOp56
 70
     1
102
RTVSPost2010Prop57
140
1.0
102
RTVSPost2010PropOp57
 70
     1
102
RTVSPropertyOp0
 70
     1
102
RTVSPropertyOp1
 70
     1
102
RTVSPropertyOp2
 70
     1
102
RTVSPropertyOp3
 70
     1
102
RTVSPropertyOp4
 70
     1
102
RTVSPropertyOp5
 70
     1
102
RTVSPropertyOp6
 70
     1
102
RTVSPropertyOp7
 70
     1
102
RTVSPropertyOp8
 70
     1
102
RTVSPropertyOp9
 70
     1
102
RTVSPropertyOp10
 70
     1
102
RTVSPropertyOp11
 70
     1
102
RTVSPropertyOp12
 70
     1
102
RTVSPropertyOp13
 70
     1
102
RTVSPropertyOp14
 70
     1
102
RTVSPropertyOp15
 70
     1
102
RTVSPropertyOp16
 70
     1
102
RTVSPropertyOp17
 70
     1
102
RTVSPropertyOp18
 70
     1
102
RTVSPropertyOp19
 70
     1
102
RTVSPropertyOp20
 70
     1
102
RTVSPropertyOp21
 70
     1
102
RTVSPropertyOp22
 70
     1
102
RTVSPropertyOp23
 70
     1
102
RTVSPropertyOp24
 70
     1
102
RTVSPropertyOp25
 70
     1
102
RTVSPropertyOp26
 70
     1
102
RTVSPropertyOp27
 70
     1
102
RTVSPropertyOp28
 70
     1
102
RTVSPropertyOp29
 70
     1
102
RTVSPropertyOp30
 70
     1
102
RTVSPropertyOp31
 70
     1
102
RTVSPropertyOp32
 70
     1
102
RTVSPropertyOp33
 70
     1
102
RTVSPropertyOp34
 70
     1
102
RTVSPropertyOp35
 70
     1
102
RTVSPropertyOp36
 70
     1
102
RTVSPropertyOp37
 70
     1
102
RTVSPropertyOp38
 70
     1
102
RTVSPropertyOp39
 70
     1
102
RTVSPropertyOp40
 70
     1
102
RTVSPropertyOp41
 70
     1
102
RTVSPropertyOp42
 70
     1
102
RTVSPropertyOp43
 70
     1
102
RTVSPropertyOp44
 70
     1
102
RTVSPropertyOp45
 70
     1
102
RTVSPropertyOp46
 70
     1
102
RTVSPropertyOp47
 70
     1
102
RTVSPropertyOp48
 70
     1
102
RTVSPropertyOp49
 70
     1
102
RTVSPropertyOp50
 70
     1
102
RTVSPropertyOp51
 70
     0
102
RTVSPropertyOp52
 70
     0
102
RTVSPropertyOp53
 70
     1
102
RTVSPropertyOp54
 70
     1
102
RTVSPropertyOp55
 70
     1
102
RTVSPropertyOp56
 70
     1
102
RTVSPropertyOp57
 70
     1
102
RTVSPropertyOp58
 70
     1
102
RTVSPropertyOp59
 70
     1
102
RTVSPropertyOp60
 70
     1
102
RTVSPropertyOp61
 70
     1
102
RTVSPropertyOp62
 70
     1
  0
XRECORD
  5
386
102
{ACAD_REACTORS
330
385
102
}
330
385
100
AcDbXrecord
280
     1
102
RTVSPost2010Prop28
280
     0
102
RTVSPost2010PropOp28
 70
     1
102
RTVSPost2010Prop29
280
     1
102
RTVSPost2010PropOp29
 70
     1
102
RTVSPost2010Prop30
280
     1
102
RTVSPost2010PropOp30
 70
     1
102
RTVSPost2010Prop31
280
     0
102
RTVSPost2010PropOp31
 70
     1
102
RTVSPost2010Prop32
280
     0
102
RTVSPost2010PropOp32
 70
     1
102
RTVSPost2010Prop33
280
     0
102
RTVSPost2010PropOp33
 70
     1
102
RTVSPost2010Prop34
280
     0
102
RTVSPost2010PropOp34
 70
     1
102
RTVSPost2010Prop35
280
     0
102
RTVSPost2010PropOp35
 70
     1
102
RTVSPost2010Prop36
280
     0
102
RTVSPost2010PropOp36
 70
     1
102
RTVSPost2010Prop37
 90
       50
102
RTVSPost2010PropOp37
 70
     1
102
RTVSPost2010Prop38
140
0.0
102
RTVSPost2010PropOp38
 70
     1
102
RTVSPost2010Prop39
140
1.0
102
RTVSPost2010PropOp39
 70
     1
102
RTVSPost2010Prop40
 90
        0
102
RTVSPost2010PropOp40
 70
     1
102
RTVSPost2010Prop41ColorIndex
 90
       18
102
RTVSPost2010Prop41ColorRGB
 90
        0
102
RTVSPost2010PropOp41
 70
     1
102
RTVSPost2010Prop42
 90
       50
102
RTVSPost2010PropOp42
 70
     1
102
RTVSPost2010Prop43
 90
        3
102
RTVSPost2010PropOp43
 70
     1
102
RTVSPost2010Prop44ColorIndex
 90
        5
102
RTVSPost2010Prop44ColorRGB
 90
      255
102
RTVSPost2010PropOp44
 70
     1
102
RTVSPost2010Prop45
280
     0
102
RTVSPost2010PropOp45
 70
     1
102
RTVSPost2010Prop46
 90
       50
102
RTVSPost2010PropOp46
 70
     1
102
RTVSPost2010Prop47
 90
       50
102
RTVSPost2010PropOp47
 70
     1
102
RTVSPost2010Prop48
 90
       50
102
RTVSPost2010PropOp48
 70
     1
102
RTVSPost2010Prop49
280
     0
102
RTVSPost2010PropOp49
 70
     1
102
RTVSPost2010Prop50
 90
       50
102
RTVSPost2010PropOp50
 70
     1
102
RTVSPost2010Prop51ColorIndex
 90
      256
102
RTVSPost2010Prop51ColorRGB
 90
-16777216
102
RTVSPost2010PropOp51
 70
     0
102
RTVSPost2010Prop52
140
1.0
102
RTVSPost2010PropOp52
 70
     0
102
RTVSPost2010Prop53
 90
        2
102
RTVSPost2010PropOp53
 70
     1
102
RTVSPost2010Prop54
  1
strokes_ogs.tif
102
RTVSPost2010PropOp54
 70
     1
102
RTVSPost2010Prop55
280
     0
102
RTVSPost2010PropOp55
 70
     1
102
RTVSPost2010Prop56
140
1.0
102
RTVSPost2010PropOp56
 70
     1
102
RTVSPost2010Prop57
140
1.0
102
RTVSPost2010PropOp57
 70
     1
102
RTVSPropertyOp0
 70
     1
102
RTVSPropertyOp1
 70
     1
102
RTVSPropertyOp2
 70
     1
102
RTVSPropertyOp3
 70
     1
102
RTVSPropertyOp4
 70
     1
102
RTVSPropertyOp5
 70
     1
102
RTVSPropertyOp6
 70
     1
102
RTVSPropertyOp7
 70
     1
102
RTVSPropertyOp8
 70
     1
102
RTVSPropertyOp9
 70
     1
102
RTVSPropertyOp10
 70
     1
102
RTVSPropertyOp11
 70
     1
102
RTVSPropertyOp12
 70
     1
102
RTVSPropertyOp13
 70
     1
102
RTVSPropertyOp14
 70
     1
102
RTVSPropertyOp15
 70
     1
102
RTVSPropertyOp16
 70
     1
102
RTVSPropertyOp17
 70
     1
102
RTVSPropertyOp18
 70
     1
102
RTVSPropertyOp19
 70
     1
102
RTVSPropertyOp20
 70
     1
102
RTVSPropertyOp21
 70
     1
102
RTVSPropertyOp22
 70
     1
102
RTVSPropertyOp23
 70
     1
102
RTVSPropertyOp24
 70
     1
102
RTVSPropertyOp25
 70
     1
102
RTVSPropertyOp26
 70
     1
102
RTVSPropertyOp27
 70
     1
102
RTVSPropertyOp28
 70
     1
102
RTVSPropertyOp29
 70
     1
102
RTVSPropertyOp30
 70
     1
102
RTVSPropertyOp31
 70
     1
102
RTVSPropertyOp32
 70
     1
102
RTVSPropertyOp33
 70
     1
102
RTVSPropertyOp34
 70
     1
102
RTVSPropertyOp35
 70
     1
102
RTVSPropertyOp36
 70
     1
102
RTVSPropertyOp37
 70
     1
102
RTVSPropertyOp38
 70
     1
102
RTVSPropertyOp39
 70
     1
102
RTVSPropertyOp40
 70
     1
102
RTVSPropertyOp41
 70
     1
102
RTVSPropertyOp42
 70
     1
102
RTVSPropertyOp43
 70
     1
102
RTVSPropertyOp44
 70
     1
102
RTVSPropertyOp45
 70
     1
102
RTVSPropertyOp46
 70
     1
102
RTVSPropertyOp47
 70
     1
102
RTVSPropertyOp48
 70
     1
102
RTVSPropertyOp49
 70
     1
102
RTVSPropertyOp50
 70
     1
102
RTVSPropertyOp51
 70
     0
102
RTVSPropertyOp52
 70
     0
102
RTVSPropertyOp53
 70
     1
102
RTVSPropertyOp54
 70
     1
102
RTVSPropertyOp55
 70
     1
102
RTVSPropertyOp56
 70
     1
102
RTVSPropertyOp57
 70
     1
102
RTVSPropertyOp58
 70
     1
102
RTVSPropertyOp59
 70
     1
102
RTVSPropertyOp60
 70
     1
102
RTVSPropertyOp61
 70
     1
102
RTVSPropertyOp62
 70
     1
  0
XRECORD
  5
380
102
{ACAD_REACTORS
330
37F
102
}
330
37F
100
AcDbXrecord
280
     1
102
RTVSPost2010Prop28
280
     0
102
RTVSPost2010PropOp28
 70
     1
102
RTVSPost2010Prop29
280
     1
102
RTVSPost2010PropOp29
 70
     1
102
RTVSPost2010Prop30
280
     1
102
RTVSPost2010PropOp30
 70
     1
102
RTVSPost2010Prop31
280
     0
102
RTVSPost2010PropOp31
 70
     1
102
RTVSPost2010Prop32
280
     0
102
RTVSPost2010PropOp32
 70
     1
102
RTVSPost2010Prop33
280
     0
102
RTVSPost2010PropOp33
 70
     1
102
RTVSPost2010Prop34
280
     0
102
RTVSPost2010PropOp34
 70
     1
102
RTVSPost2010Prop35
280
     0
102
RTVSPost2010PropOp35
 70
     1
102
RTVSPost2010Prop36
280
     0
102
RTVSPost2010PropOp36
 70
     1
102
RTVSPost2010Prop37
 90
       50
102
RTVSPost2010PropOp37
 70
     1
102
RTVSPost2010Prop38
140
0.0
102
RTVSPost2010PropOp38
 70
     1
102
RTVSPost2010Prop39
140
1.0
102
RTVSPost2010PropOp39
 70
     1
102
RTVSPost2010Prop40
 90
        0
102
RTVSPost2010PropOp40
 70
     1
102
RTVSPost2010Prop41ColorIndex
 90
       18
102
RTVSPost2010Prop41ColorRGB
 90
        0
102
RTVSPost2010PropOp41
 70
     1
102
RTVSPost2010Prop42
 90
       50
102
RTVSPost2010PropOp42
 70
     1
102
RTVSPost2010Prop43
 90
        3
102
RTVSPost2010PropOp43
 70
     1
102
RTVSPost2010Prop44ColorIndex
 90
        5
102
RTVSPost2010Prop44ColorRGB
 90
      255
102
RTVSPost2010PropOp44
 70
     1
102
RTVSPost2010Prop45
280
     0
102
RTVSPost2010PropOp45
 70
     1
102
RTVSPost2010Prop46
 90
       50
102
RTVSPost2010PropOp46
 70
     1
102
RTVSPost2010Prop47
 90
       50
102
RTVSPost2010PropOp47
 70
     1
102
RTVSPost2010Prop48
 90
       50
102
RTVSPost2010PropOp48
 70
     1
102
RTVSPost2010Prop49
280
     0
102
RTVSPost2010PropOp49
 70
     1
102
RTVSPost2010Prop50
 90
       50
102
RTVSPost2010PropOp50
 70
     1
102
RTVSPost2010Prop51ColorIndex
 90
      256
102
RTVSPost2010Prop51ColorRGB
 90
-16777216
102
RTVSPost2010PropOp51
 70
     0
102
RTVSPost2010Prop52
140
1.0
102
RTVSPost2010PropOp52
 70
     0
102
RTVSPost2010Prop53
 90
        2
102
RTVSPost2010PropOp53
 70
     1
102
RTVSPost2010Prop54
  1
strokes_ogs.tif
102
RTVSPost2010PropOp54
 70
     1
102
RTVSPost2010Prop55
280
     0
102
RTVSPost2010PropOp55
 70
     1
102
RTVSPost2010Prop56
140
1.0
102
RTVSPost2010PropOp56
 70
     1
102
RTVSPost2010Prop57
140
1.0
102
RTVSPost2010PropOp57
 70
     1
102
RTVSPropertyOp0
 70
     1
102
RTVSPropertyOp1
 70
     1
102
RTVSPropertyOp2
 70
     1
102
RTVSPropertyOp3
 70
     1
102
RTVSPropertyOp4
 70
     1
102
RTVSPropertyOp5
 70
     1
102
RTVSPropertyOp6
 70
     1
102
RTVSPropertyOp7
 70
     1
102
RTVSPropertyOp8
 70
     1
102
RTVSPropertyOp9
 70
     1
102
RTVSPropertyOp10
 70
     1
102
RTVSPropertyOp11
 70
     1
102
RTVSPropertyOp12
 70
     1
102
RTVSPropertyOp13
 70
     1
102
RTVSPropertyOp14
 70
     1
102
RTVSPropertyOp15
 70
     1
102
RTVSPropertyOp16
 70
     1
102
RTVSPropertyOp17
 70
     1
102
RTVSPropertyOp18
 70
     1
102
RTVSPropertyOp19
 70
     1
102
RTVSPropertyOp20
 70
     1
102
RTVSPropertyOp21
 70
     1
102
RTVSPropertyOp22
 70
     1
102
RTVSPropertyOp23
 70
     1
102
RTVSPropertyOp24
 70
     1
102
RTVSPropertyOp25
 70
     1
102
RTVSPropertyOp26
 70
     1
102
RTVSPropertyOp27
 70
     1
102
RTVSPropertyOp28
 70
     1
102
RTVSPropertyOp29
 70
     1
102
RTVSPropertyOp30
 70
     1
102
RTVSPropertyOp31
 70
     1
102
RTVSPropertyOp32
 70
     1
102
RTVSPropertyOp33
 70
     1
102
RTVSPropertyOp34
 70
     1
102
RTVSPropertyOp35
 70
     1
102
RTVSPropertyOp36
 70
     1
102
RTVSPropertyOp37
 70
     1
102
RTVSPropertyOp38
 70
     1
102
RTVSPropertyOp39
 70
     1
102
RTVSPropertyOp40
 70
     1
102
RTVSPropertyOp41
 70
     1
102
RTVSPropertyOp42
 70
     1
102
RTVSPropertyOp43
 70
     1
102
RTVSPropertyOp44
 70
     1
102
RTVSPropertyOp45
 70
     1
102
RTVSPropertyOp46
 70
     1
102
RTVSPropertyOp47
 70
     1
102
RTVSPropertyOp48
 70
     1
102
RTVSPropertyOp49
 70
     1
102
RTVSPropertyOp50
 70
     1
102
RTVSPropertyOp51
 70
     0
102
RTVSPropertyOp52
 70
     0
102
RTVSPropertyOp53
 70
     1
102
RTVSPropertyOp54
 70
     1
102
RTVSPropertyOp55
 70
     1
102
RTVSPropertyOp56
 70
     1
102
RTVSPropertyOp57
 70
     1
102
RTVSPropertyOp58
 70
     1
102
RTVSPropertyOp59
 70
     1
102
RTVSPropertyOp60
 70
     1
102
RTVSPropertyOp61
 70
     1
102
RTVSPropertyOp62
 70
     1
  0
XRECORD
  5
382
102
{ACAD_REACTORS
330
381
102
}
330
381
100
AcDbXrecord
280
     1
102
RTVSPost2010Prop28
280
     0
102
RTVSPost2010PropOp28
 70
     1
102
RTVSPost2010Prop29
280
     1
102
RTVSPost2010PropOp29
 70
     1
102
RTVSPost2010Prop30
280
     1
102
RTVSPost2010PropOp30
 70
     1
102
RTVSPost2010Prop31
280
     0
102
RTVSPost2010PropOp31
 70
     1
102
RTVSPost2010Prop32
280
     0
102
RTVSPost2010PropOp32
 70
     1
102
RTVSPost2010Prop33
280
     0
102
RTVSPost2010PropOp33
 70
     1
102
RTVSPost2010Prop34
280
     0
102
RTVSPost2010PropOp34
 70
     1
102
RTVSPost2010Prop35
280
     0
102
RTVSPost2010PropOp35
 70
     1
102
RTVSPost2010Prop36
280
     0
102
RTVSPost2010PropOp36
 70
     1
102
RTVSPost2010Prop37
 90
       50
102
RTVSPost2010PropOp37
 70
     1
102
RTVSPost2010Prop38
140
0.0
102
RTVSPost2010PropOp38
 70
     1
102
RTVSPost2010Prop39
140
1.0
102
RTVSPost2010PropOp39
 70
     1
102
RTVSPost2010Prop40
 90
        0
102
RTVSPost2010PropOp40
 70
     1
102
RTVSPost2010Prop41ColorIndex
 90
       18
102
RTVSPost2010Prop41ColorRGB
 90
        0
102
RTVSPost2010PropOp41
 70
     1
102
RTVSPost2010Prop42
 90
       50
102
RTVSPost2010PropOp42
 70
     1
102
RTVSPost2010Prop43
 90
        3
102
RTVSPost2010PropOp43
 70
     1
102
RTVSPost2010Prop44ColorIndex
 90
        5
102
RTVSPost2010Prop44ColorRGB
 90
      255
102
RTVSPost2010PropOp44
 70
     1
102
RTVSPost2010Prop45
280
     0
102
RTVSPost2010PropOp45
 70
     1
102
RTVSPost2010Prop46
 90
       50
102
RTVSPost2010PropOp46
 70
     1
102
RTVSPost2010Prop47
 90
       50
102
RTVSPost2010PropOp47
 70
     1
102
RTVSPost2010Prop48
 90
       50
102
RTVSPost2010PropOp48
 70
     1
102
RTVSPost2010Prop49
280
     0
102
RTVSPost2010PropOp49
 70
     1
102
RTVSPost2010Prop50
 90
       50
102
RTVSPost2010PropOp50
 70
     1
102
RTVSPost2010Prop51ColorIndex
 90
      256
102
RTVSPost2010Prop51ColorRGB
 90
-16777216
102
RTVSPost2010PropOp51
 70
     0
102
RTVSPost2010Prop52
140
1.0
102
RTVSPost2010PropOp52
 70
     0
102
RTVSPost2010Prop53
 90
        2
102
RTVSPost2010PropOp53
 70
     1
102
RTVSPost2010Prop54
  1
strokes_ogs.tif
102
RTVSPost2010PropOp54
 70
     1
102
RTVSPost2010Prop55
280
     0
102
RTVSPost2010PropOp55
 70
     1
102
RTVSPost2010Prop56
140
1.0
102
RTVSPost2010PropOp56
 70
     1
102
RTVSPost2010Prop57
140
1.0
102
RTVSPost2010PropOp57
 70
     1
102
RTVSPropertyOp0
 70
     1
102
RTVSPropertyOp1
 70
     1
102
RTVSPropertyOp2
 70
     1
102
RTVSPropertyOp3
 70
     1
102
RTVSPropertyOp4
 70
     1
102
RTVSPropertyOp5
 70
     1
102
RTVSPropertyOp6
 70
     1
102
RTVSPropertyOp7
 70
     1
102
RTVSPropertyOp8
 70
     1
102
RTVSPropertyOp9
 70
     1
102
RTVSPropertyOp10
 70
     1
102
RTVSPropertyOp11
 70
     1
102
RTVSPropertyOp12
 70
     1
102
RTVSPropertyOp13
 70
     1
102
RTVSPropertyOp14
 70
     1
102
RTVSPropertyOp15
 70
     1
102
RTVSPropertyOp16
 70
     1
102
RTVSPropertyOp17
 70
     1
102
RTVSPropertyOp18
 70
     1
102
RTVSPropertyOp19
 70
     1
102
RTVSPropertyOp20
 70
     1
102
RTVSPropertyOp21
 70
     1
102
RTVSPropertyOp22
 70
     1
102
RTVSPropertyOp23
 70
     1
102
RTVSPropertyOp24
 70
     1
102
RTVSPropertyOp25
 70
     1
102
RTVSPropertyOp26
 70
     1
102
RTVSPropertyOp27
 70
     1
102
RTVSPropertyOp28
 70
     1
102
RTVSPropertyOp29
 70
     1
102
RTVSPropertyOp30
 70
     1
102
RTVSPropertyOp31
 70
     1
102
RTVSPropertyOp32
 70
     1
102
RTVSPropertyOp33
 70
     1
102
RTVSPropertyOp34
 70
     1
102
RTVSPropertyOp35
 70
     1
102
RTVSPropertyOp36
 70
     1
102
RTVSPropertyOp37
 70
     1
102
RTVSPropertyOp38
 70
     1
102
RTVSPropertyOp39
 70
     1
102
RTVSPropertyOp40
 70
     1
102
RTVSPropertyOp41
 70
     1
102
RTVSPropertyOp42
 70
     1
102
RTVSPropertyOp43
 70
     1
102
RTVSPropertyOp44
 70
     1
102
RTVSPropertyOp45
 70
     1
102
RTVSPropertyOp46
 70
     1
102
RTVSPropertyOp47
 70
     1
102
RTVSPropertyOp48
 70
     1
102
RTVSPropertyOp49
 70
     1
102
RTVSPropertyOp50
 70
     1
102
RTVSPropertyOp51
 70
     0
102
RTVSPropertyOp52
 70
     0
102
RTVSPropertyOp53
 70
     1
102
RTVSPropertyOp54
 70
     1
102
RTVSPropertyOp55
 70
     1
102
RTVSPropertyOp56
 70
     1
102
RTVSPropertyOp57
 70
     1
102
RTVSPropertyOp58
 70
     1
102
RTVSPropertyOp59
 70
     1
102
RTVSPropertyOp60
 70
     1
102
RTVSPropertyOp61
 70
     1
102
RTVSPropertyOp62
 70
     1
  0
XRECORD
  5
372
102
{ACAD_REACTORS
330
371
102
}
330
371
100
AcDbXrecord
280
     1
102
RTVSPost2010Prop28
280
     0
102
RTVSPost2010PropOp28
 70
     1
102
RTVSPost2010Prop29
280
     1
102
RTVSPost2010PropOp29
 70
     1
102
RTVSPost2010Prop30
280
     1
102
RTVSPost2010PropOp30
 70
     1
102
RTVSPost2010Prop31
280
     0
102
RTVSPost2010PropOp31
 70
     1
102
RTVSPost2010Prop32
280
     0
102
RTVSPost2010PropOp32
 70
     1
102
RTVSPost2010Prop33
280
     0
102
RTVSPost2010PropOp33
 70
     1
102
RTVSPost2010Prop34
280
     0
102
RTVSPost2010PropOp34
 70
     1
102
RTVSPost2010Prop35
280
     0
102
RTVSPost2010PropOp35
 70
     1
102
RTVSPost2010Prop36
280
     0
102
RTVSPost2010PropOp36
 70
     1
102
RTVSPost2010Prop37
 90
       50
102
RTVSPost2010PropOp37
 70
     1
102
RTVSPost2010Prop38
140
0.0
102
RTVSPost2010PropOp38
 70
     1
102
RTVSPost2010Prop39
140
1.0
102
RTVSPost2010PropOp39
 70
     1
102
RTVSPost2010Prop40
 90
        0
102
RTVSPost2010PropOp40
 70
     1
102
RTVSPost2010Prop41ColorIndex
 90
       18
102
RTVSPost2010Prop41ColorRGB
 90
        0
102
RTVSPost2010PropOp41
 70
     1
102
RTVSPost2010Prop42
 90
       50
102
RTVSPost2010PropOp42
 70
     1
102
RTVSPost2010Prop43
 90
        3
102
RTVSPost2010PropOp43
 70
     1
102
RTVSPost2010Prop44ColorIndex
 90
        5
102
RTVSPost2010Prop44ColorRGB
 90
      255
102
RTVSPost2010PropOp44
 70
     1
102
RTVSPost2010Prop45
280
     0
102
RTVSPost2010PropOp45
 70
     1
102
RTVSPost2010Prop46
 90
       50
102
RTVSPost2010PropOp46
 70
     1
102
RTVSPost2010Prop47
 90
       50
102
RTVSPost2010PropOp47
 70
     1
102
RTVSPost2010Prop48
 90
       50
102
RTVSPost2010PropOp48
 70
     1
102
RTVSPost2010Prop49
280
     0
102
RTVSPost2010PropOp49
 70
     1
102
RTVSPost2010Prop50
 90
       50
102
RTVSPost2010PropOp50
 70
     1
102
RTVSPost2010Prop51ColorIndex
 90
      256
102
RTVSPost2010Prop51ColorRGB
 90
-16777216
102
RTVSPost2010PropOp51
 70
     0
102
RTVSPost2010Prop52
140
1.0
102
RTVSPost2010PropOp52
 70
     0
102
RTVSPost2010Prop53
 90
        2
102
RTVSPost2010PropOp53
 70
     1
102
RTVSPost2010Prop54
  1
strokes_ogs.tif
102
RTVSPost2010PropOp54
 70
     1
102
RTVSPost2010Prop55
280
     0
102
RTVSPost2010PropOp55
 70
     1
102
RTVSPost2010Prop56
140
1.0
102
RTVSPost2010PropOp56
 70
     1
102
RTVSPost2010Prop57
140
1.0
102
RTVSPost2010PropOp57
 70
     1
102
RTVSPropertyOp0
 70
     1
102
RTVSPropertyOp1
 70
     1
102
RTVSPropertyOp2
 70
     1
102
RTVSPropertyOp3
 70
     1
102
RTVSPropertyOp4
 70
     1
102
RTVSPropertyOp5
 70
     1
102
RTVSPropertyOp6
 70
     1
102
RTVSPropertyOp7
 70
     1
102
RTVSPropertyOp8
 70
     1
102
RTVSPropertyOp9
 70
     1
102
RTVSPropertyOp10
 70
     1
102
RTVSPropertyOp11
 70
     1
102
RTVSPropertyOp12
 70
     1
102
RTVSPropertyOp13
 70
     1
102
RTVSPropertyOp14
 70
     1
102
RTVSPropertyOp15
 70
     1
102
RTVSPropertyOp16
 70
     1
102
RTVSPropertyOp17
 70
     1
102
RTVSPropertyOp18
 70
     1
102
RTVSPropertyOp19
 70
     1
102
RTVSPropertyOp20
 70
     1
102
RTVSPropertyOp21
 70
     1
102
RTVSPropertyOp22
 70
     1
102
RTVSPropertyOp23
 70
     1
102
RTVSPropertyOp24
 70
     1
102
RTVSPropertyOp25
 70
     1
102
RTVSPropertyOp26
 70
     1
102
RTVSPropertyOp27
 70
     1
102
RTVSPropertyOp28
 70
     1
102
RTVSPropertyOp29
 70
     1
102
RTVSPropertyOp30
 70
     1
102
RTVSPropertyOp31
 70
     1
102
RTVSPropertyOp32
 70
     1
102
RTVSPropertyOp33
 70
     1
102
RTVSPropertyOp34
 70
     1
102
RTVSPropertyOp35
 70
     1
102
RTVSPropertyOp36
 70
     1
102
RTVSPropertyOp37
 70
     1
102
RTVSPropertyOp38
 70
     1
102
RTVSPropertyOp39
 70
     1
102
RTVSPropertyOp40
 70
     1
102
RTVSPropertyOp41
 70
     1
102
RTVSPropertyOp42
 70
     1
102
RTVSPropertyOp43
 70
     1
102
RTVSPropertyOp44
 70
     1
102
RTVSPropertyOp45
 70
     1
102
RTVSPropertyOp46
 70
     1
102
RTVSPropertyOp47
 70
     1
102
RTVSPropertyOp48
 70
     1
102
RTVSPropertyOp49
 70
     1
102
RTVSPropertyOp50
 70
     1
102
RTVSPropertyOp51
 70
     0
102
RTVSPropertyOp52
 70
     0
102
RTVSPropertyOp53
 70
     1
102
RTVSPropertyOp54
 70
     1
102
RTVSPropertyOp55
 70
     1
102
RTVSPropertyOp56
 70
     1
102
RTVSPropertyOp57
 70
     1
102
RTVSPropertyOp58
 70
     1
102
RTVSPropertyOp59
 70
     1
102
RTVSPropertyOp60
 70
     1
102
RTVSPropertyOp61
 70
     1
102
RTVSPropertyOp62
 70
     1
  0
XRECORD
  5
364
102
{ACAD_REACTORS
330
363
102
}
330
363
100
AcDbXrecord
280
     1
102
RTVSPost2010Prop28
280
     0
102
RTVSPost2010PropOp28
 70
     1
102
RTVSPost2010Prop29
280
     1
102
RTVSPost2010PropOp29
 70
     1
102
RTVSPost2010Prop30
280
     1
102
RTVSPost2010PropOp30
 70
     1
102
RTVSPost2010Prop31
280
     0
102
RTVSPost2010PropOp31
 70
     1
102
RTVSPost2010Prop32
280
     0
102
RTVSPost2010PropOp32
 70
     1
102
RTVSPost2010Prop33
280
     0
102
RTVSPost2010PropOp33
 70
     1
102
RTVSPost2010Prop34
280
     0
102
RTVSPost2010PropOp34
 70
     1
102
RTVSPost2010Prop35
280
     0
102
RTVSPost2010PropOp35
 70
     1
102
RTVSPost2010Prop36
280
     0
102
RTVSPost2010PropOp36
 70
     1
102
RTVSPost2010Prop37
 90
       50
102
RTVSPost2010PropOp37
 70
     1
102
RTVSPost2010Prop38
140
0.0
102
RTVSPost2010PropOp38
 70
     1
102
RTVSPost2010Prop39
140
1.0
102
RTVSPost2010PropOp39
 70
     1
102
RTVSPost2010Prop40
 90
        0
102
RTVSPost2010PropOp40
 70
     1
102
RTVSPost2010Prop41ColorIndex
 90
       18
102
RTVSPost2010Prop41ColorRGB
 90
        0
102
RTVSPost2010PropOp41
 70
     1
102
RTVSPost2010Prop42
 90
       50
102
RTVSPost2010PropOp42
 70
     1
102
RTVSPost2010Prop43
 90
        3
102
RTVSPost2010PropOp43
 70
     1
102
RTVSPost2010Prop44ColorIndex
 90
        5
102
RTVSPost2010Prop44ColorRGB
 90
      255
102
RTVSPost2010PropOp44
 70
     1
102
RTVSPost2010Prop45
280
     0
102
RTVSPost2010PropOp45
 70
     1
102
RTVSPost2010Prop46
 90
       50
102
RTVSPost2010PropOp46
 70
     1
102
RTVSPost2010Prop47
 90
       50
102
RTVSPost2010PropOp47
 70
     1
102
RTVSPost2010Prop48
 90
       50
102
RTVSPost2010PropOp48
 70
     1
102
RTVSPost2010Prop49
280
     0
102
RTVSPost2010PropOp49
 70
     1
102
RTVSPost2010Prop50
 90
       50
102
RTVSPost2010PropOp50
 70
     1
102
RTVSPost2010Prop51ColorIndex
 90
      256
102
RTVSPost2010Prop51ColorRGB
 90
-16777216
102
RTVSPost2010PropOp51
 70
     0
102
RTVSPost2010Prop52
140
1.0
102
RTVSPost2010PropOp52
 70
     0
102
RTVSPost2010Prop53
 90
        2
102
RTVSPost2010PropOp53
 70
     1
102
RTVSPost2010Prop54
  1
strokes_ogs.tif
102
RTVSPost2010PropOp54
 70
     1
102
RTVSPost2010Prop55
280
     0
102
RTVSPost2010PropOp55
 70
     1
102
RTVSPost2010Prop56
140
1.0
102
RTVSPost2010PropOp56
 70
     1
102
RTVSPost2010Prop57
140
1.0
102
RTVSPost2010PropOp57
 70
     1
102
RTVSPropertyOp0
 70
     1
102
RTVSPropertyOp1
 70
     1
102
RTVSPropertyOp2
 70
     1
102
RTVSPropertyOp3
 70
     1
102
RTVSPropertyOp4
 70
     1
102
RTVSPropertyOp5
 70
     1
102
RTVSPropertyOp6
 70
     1
102
RTVSPropertyOp7
 70
     1
102
RTVSPropertyOp8
 70
     1
102
RTVSPropertyOp9
 70
     1
102
RTVSPropertyOp10
 70
     1
102
RTVSPropertyOp11
 70
     1
102
RTVSPropertyOp12
 70
     1
102
RTVSPropertyOp13
 70
     1
102
RTVSPropertyOp14
 70
     1
102
RTVSPropertyOp15
 70
     1
102
RTVSPropertyOp16
 70
     1
102
RTVSPropertyOp17
 70
     1
102
RTVSPropertyOp18
 70
     1
102
RTVSPropertyOp19
 70
     1
102
RTVSPropertyOp20
 70
     1
102
RTVSPropertyOp21
 70
     1
102
RTVSPropertyOp22
 70
     1
102
RTVSPropertyOp23
 70
     1
102
RTVSPropertyOp24
 70
     1
102
RTVSPropertyOp25
 70
     1
102
RTVSPropertyOp26
 70
     1
102
RTVSPropertyOp27
 70
     1
102
RTVSPropertyOp28
 70
     1
102
RTVSPropertyOp29
 70
     1
102
RTVSPropertyOp30
 70
     1
102
RTVSPropertyOp31
 70
     1
102
RTVSPropertyOp32
 70
     1
102
RTVSPropertyOp33
 70
     1
102
RTVSPropertyOp34
 70
     1
102
RTVSPropertyOp35
 70
     1
102
RTVSPropertyOp36
 70
     1
102
RTVSPropertyOp37
 70
     1
102
RTVSPropertyOp38
 70
     1
102
RTVSPropertyOp39
 70
     1
102
RTVSPropertyOp40
 70
     1
102
RTVSPropertyOp41
 70
     1
102
RTVSPropertyOp42
 70
     1
102
RTVSPropertyOp43
 70
     1
102
RTVSPropertyOp44
 70
     1
102
RTVSPropertyOp45
 70
     1
102
RTVSPropertyOp46
 70
     1
102
RTVSPropertyOp47
 70
     1
102
RTVSPropertyOp48
 70
     1
102
RTVSPropertyOp49
 70
     1
102
RTVSPropertyOp50
 70
     1
102
RTVSPropertyOp51
 70
     0
102
RTVSPropertyOp52
 70
     0
102
RTVSPropertyOp53
 70
     1
102
RTVSPropertyOp54
 70
     1
102
RTVSPropertyOp55
 70
     1
102
RTVSPropertyOp56
 70
     1
102
RTVSPropertyOp57
 70
     1
102
RTVSPropertyOp58
 70
     1
102
RTVSPropertyOp59
 70
     1
102
RTVSPropertyOp60
 70
     1
102
RTVSPropertyOp61
 70
     1
102
RTVSPropertyOp62
 70
     1
  0
XRECORD
  5
384
102
{ACAD_REACTORS
330
383
102
}
330
383
100
AcDbXrecord
280
     1
102
RTVSPost2010Prop28
280
     0
102
RTVSPost2010PropOp28
 70
     1
102
RTVSPost2010Prop29
280
     1
102
RTVSPost2010PropOp29
 70
     1
102
RTVSPost2010Prop30
280
     1
102
RTVSPost2010PropOp30
 70
     1
102
RTVSPost2010Prop31
280
     0
102
RTVSPost2010PropOp31
 70
     1
102
RTVSPost2010Prop32
280
     0
102
RTVSPost2010PropOp32
 70
     1
102
RTVSPost2010Prop33
280
     0
102
RTVSPost2010PropOp33
 70
     1
102
RTVSPost2010Prop34
280
     0
102
RTVSPost2010PropOp34
 70
     1
102
RTVSPost2010Prop35
280
     0
102
RTVSPost2010PropOp35
 70
     1
102
RTVSPost2010Prop36
280
     0
102
RTVSPost2010PropOp36
 70
     1
102
RTVSPost2010Prop37
 90
       50
102
RTVSPost2010PropOp37
 70
     1
102
RTVSPost2010Prop38
140
0.0
102
RTVSPost2010PropOp38
 70
     1
102
RTVSPost2010Prop39
140
1.0
102
RTVSPost2010PropOp39
 70
     1
102
RTVSPost2010Prop40
 90
        0
102
RTVSPost2010PropOp40
 70
     1
102
RTVSPost2010Prop41ColorIndex
 90
       18
102
RTVSPost2010Prop41ColorRGB
 90
        0
102
RTVSPost2010PropOp41
 70
     1
102
RTVSPost2010Prop42
 90
       50
102
RTVSPost2010PropOp42
 70
     1
102
RTVSPost2010Prop43
 90
        3
102
RTVSPost2010PropOp43
 70
     1
102
RTVSPost2010Prop44ColorIndex
 90
        5
102
RTVSPost2010Prop44ColorRGB
 90
      255
102
RTVSPost2010PropOp44
 70
     1
102
RTVSPost2010Prop45
280
     0
102
RTVSPost2010PropOp45
 70
     1
102
RTVSPost2010Prop46
 90
       50
102
RTVSPost2010PropOp46
 70
     1
102
RTVSPost2010Prop47
 90
       50
102
RTVSPost2010PropOp47
 70
     1
102
RTVSPost2010Prop48
 90
       50
102
RTVSPost2010PropOp48
 70
     1
102
RTVSPost2010Prop49
280
     0
102
RTVSPost2010PropOp49
 70
     1
102
RTVSPost2010Prop50
 90
       50
102
RTVSPost2010PropOp50
 70
     1
102
RTVSPost2010Prop51ColorIndex
 90
      256
102
RTVSPost2010Prop51ColorRGB
 90
-16777216
102
RTVSPost2010PropOp51
 70
     0
102
RTVSPost2010Prop52
140
1.0
102
RTVSPost2010PropOp52
 70
     0
102
RTVSPost2010Prop53
 90
        2
102
RTVSPost2010PropOp53
 70
     1
102
RTVSPost2010Prop54
  1
strokes_ogs.tif
102
RTVSPost2010PropOp54
 70
     1
102
RTVSPost2010Prop55
280
     0
102
RTVSPost2010PropOp55
 70
     1
102
RTVSPost2010Prop56
140
1.0
102
RTVSPost2010PropOp56
 70
     1
102
RTVSPost2010Prop57
140
1.0
102
RTVSPost2010PropOp57
 70
     1
102
RTVSPropertyOp0
 70
     1
102
RTVSPropertyOp1
 70
     1
102
RTVSPropertyOp2
 70
     1
102
RTVSPropertyOp3
 70
     1
102
RTVSPropertyOp4
 70
     1
102
RTVSPropertyOp5
 70
     1
102
RTVSPropertyOp6
 70
     1
102
RTVSPropertyOp7
 70
     1
102
RTVSPropertyOp8
 70
     1
102
RTVSPropertyOp9
 70
     1
102
RTVSPropertyOp10
 70
     1
102
RTVSPropertyOp11
 70
     1
102
RTVSPropertyOp12
 70
     1
102
RTVSPropertyOp13
 70
     1
102
RTVSPropertyOp14
 70
     1
102
RTVSPropertyOp15
 70
     1
102
RTVSPropertyOp16
 70
     1
102
RTVSPropertyOp17
 70
     1
102
RTVSPropertyOp18
 70
     1
102
RTVSPropertyOp19
 70
     1
102
RTVSPropertyOp20
 70
     1
102
RTVSPropertyOp21
 70
     1
102
RTVSPropertyOp22
 70
     1
102
RTVSPropertyOp23
 70
     1
102
RTVSPropertyOp24
 70
     1
102
RTVSPropertyOp25
 70
     1
102
RTVSPropertyOp26
 70
     1
102
RTVSPropertyOp27
 70
     1
102
RTVSPropertyOp28
 70
     1
102
RTVSPropertyOp29
 70
     1
102
RTVSPropertyOp30
 70
     1
102
RTVSPropertyOp31
 70
     1
102
RTVSPropertyOp32
 70
     1
102
RTVSPropertyOp33
 70
     1
102
RTVSPropertyOp34
 70
     1
102
RTVSPropertyOp35
 70
     1
102
RTVSPropertyOp36
 70
     1
102
RTVSPropertyOp37
 70
     1
102
RTVSPropertyOp38
 70
     1
102
RTVSPropertyOp39
 70
     1
102
RTVSPropertyOp40
 70
     1
102
RTVSPropertyOp41
 70
     1
102
RTVSPropertyOp42
 70
     1
102
RTVSPropertyOp43
 70
     1
102
RTVSPropertyOp44
 70
     1
102
RTVSPropertyOp45
 70
     1
102
RTVSPropertyOp46
 70
     1
102
RTVSPropertyOp47
 70
     1
102
RTVSPropertyOp48
 70
     1
102
RTVSPropertyOp49
 70
     1
102
RTVSPropertyOp50
 70
     1
102
RTVSPropertyOp51
 70
     0
102
RTVSPropertyOp52
 70
     0
102
RTVSPropertyOp53
 70
     1
102
RTVSPropertyOp54
 70
     1
102
RTVSPropertyOp55
 70
     1
102
RTVSPropertyOp56
 70
     1
102
RTVSPropertyOp57
 70
     1
102
RTVSPropertyOp58
 70
     1
102
RTVSPropertyOp59
 70
     1
102
RTVSPropertyOp60
 70
     1
102
RTVSPropertyOp61
 70
     1
102
RTVSPropertyOp62
 70
     1
  0
ENDSEC
  0
EOF
