  0
SECTION
  2
HEADER
  9
$ACADVER
  1
AC1018
  9
$ACADMAINTVER
 70
   104
  9
$DWGCODEPAGE
  3
ANSI_1250
  9
$LASTSAVEDBY
  1
pp0701
  9
$INSBASE
 10
0.0
 20
0.0
 30
0.0
  9
$EXTMIN
 10
172.144248
 20
21.404126
 30
0.0
  9
$EXTMAX
 10
587.478648
 20
289.0785476666667
 30
0.0
  9
$LIMMIN
 10
-0.5
 20
-0.5
  9
$LIMMAX
 10
5.0
 20
5.0
  9
$ORTHOMODE
 70
     0
  9
$REGENMODE
 70
     1
  9
$FILLMODE
 70
     1
  9
$QTEXTMODE
 70
     0
  9
$MIRRTEXT
 70
     1
  9
$LTSCALE
 40
1.0
  9
$ATTMODE
 70
     1
  9
$TEXTSIZE
 40
0.2
  9
$TRACEWID
 40
0.05
  9
$TEXTSTYLE
  7
Standard
  9
$CLAYER
  8
1
  9
$CELTYPE
  6
ByLayer
  9
$CECOLOR
 62
   256
  9
$CELTSCALE
 40
1.0
  9
$DISPSILH
 70
     0
  9
$DIMSCALE
 40
1.0
  9
$DIMASZ
 40
0.18
  9
$DIMEXO
 40
0.0625
  9
$DIMDLI
 40
0.38
  9
$DIMRND
 40
0.0
  9
$DIMDLE
 40
0.0
  9
$DIMEXE
 40
0.18
  9
$DIMTP
 40
0.0
  9
$DIMTM
 40
0.0
  9
$DIMTXT
 40
0.18
  9
$DIMCEN
 40
0.09
  9
$DIMTSZ
 40
0.0
  9
$DIMTOL
 70
     0
  9
$DIMLIM
 70
     0
  9
$DIMTIH
 70
     1
  9
$DIMTOH
 70
     1
  9
$DIMSE1
 70
     0
  9
$DIMSE2
 70
     0
  9
$DIMTAD
 70
     0
  9
$DIMZIN
 70
     0
  9
$DIMBLK
  1

  9
$DIMASO
 70
     1
  9
$DIMSHO
 70
     1
  9
$DIMPOST
  1

  9
$DIMAPOST
  1

  9
$DIMALT
 70
     0
  9
$DIMALTD
 70
     2
  9
$DIMALTF
 40
25.4
  9
$DIMLFAC
 40
1.0
  9
$DIMTOFL
 70
     0
  9
$DIMTVP
 40
0.0
  9
$DIMTIX
 70
     0
  9
$DIMSOXD
 70
     0
  9
$DIMSAH
 70
     0
  9
$DIMBLK1
  1

  9
$DIMBLK2
  1

  9
$DIMSTYLE
  2
Standard
  9
$DIMCLRD
 70
     0
  9
$DIMCLRE
 70
     0
  9
$DIMCLRT
 70
     0
  9
$DIMTFAC
 40
1.0
  9
$DIMGAP
 40
0.09
  9
$DIMJUST
 70
     0
  9
$DIMSD1
 70
     0
  9
$DIMSD2
 70
     0
  9
$DIMTOLJ
 70
     1
  9
$DIMTZIN
 70
     0
  9
$DIMALTZ
 70
     0
  9
$DIMALTTZ
 70
     0
  9
$DIMUPT
 70
     0
  9
$DIMDEC
 70
     4
  9
$DIMTDEC
 70
     4
  9
$DIMALTU
 70
     2
  9
$DIMALTTD
 70
     2
  9
$DIMTXSTY
  7
Standard
  9
$DIMAUNIT
 70
     0
  9
$DIMADEC
 70
     0
  9
$DIMALTRND
 40
0.0
  9
$DIMAZIN
 70
     0
  9
$DIMDSEP
 70
    46
  9
$DIMATFIT
 70
     3
  9
$DIMFRAC
 70
     0
  9
$DIMLDRBLK
  1

  9
$DIMLUNIT
 70
     2
  9
$DIMLWD
 70
    -2
  9
$DIMLWE
 70
    -2
  9
$DIMTMOVE
 70
     0
  9
$LUNITS
 70
     2
  9
$LUPREC
 70
     4
  9
$SKETCHINC
 40
0.1
  9
$FILLETRAD
 40
0.5
  9
$AUNITS
 70
     0
  9
$AUPREC
 70
     0
  9
$MENU
  1
.
  9
$ELEVATION
 40
0.0
  9
$PELEVATION
 40
0.0
  9
$THICKNESS
 40
0.0
  9
$LIMCHECK
 70
     0
  9
$CHAMFERA
 40
0.0
  9
$CHAMFERB
 40
0.0
  9
$CHAMFERC
 40
0.0
  9
$CHAMFERD
 40
0.0
  9
$SKPOLY
 70
     0
  9
$TDCREATE
 40
2458831.512916666
  9
$TDUCREATE
 40
2458831.471260035
  9
$TDUPDATE
 40
2458831.514872685
  9
$TDUUPDATE
 40
2458831.473206019
  9
$TDINDWG
 40
0.0005671412
  9
$TDUSRTIMER
 40
0.0005671412
  9
$USRTIMER
 70
     1
  9
$ANGBASE
 50
0.0
  9
$ANGDIR
 70
     0
  9
$PDMODE
 70
     0
  9
$PDSIZE
 40
0.0
  9
$PLINEWID
 40
0.0
  9
$SPLFRAME
 70
     0
  9
$SPLINETYPE
 70
     6
  9
$SPLINESEGS
 70
     8
  9
$HANDSEED
  5
2AC
  9
$SURFTAB1
 70
     6
  9
$SURFTAB2
 70
     6
  9
$SURFTYPE
 70
     6
  9
$SURFU
 70
     6
  9
$SURFV
 70
     6
  9
$UCSBASE
  2

  9
$UCSNAME
  2

  9
$UCSORG
 10
237.144248
 20
243.731161
 30
0.0
  9
$UCSXDIR
 10
1.0
 20
0.0
 30
0.0
  9
$UCSYDIR
 10
0.0
 20
1.0
 30
0.0
  9
$UCSORTHOREF
  2

  9
$UCSORTHOVIEW
 70
     0
  9
$UCSORGTOP
 10
0.0
 20
0.0
 30
0.0
  9
$UCSORGBOTTOM
 10
0.0
 20
0.0
 30
0.0
  9
$UCSORGLEFT
 10
0.0
 20
0.0
 30
0.0
  9
$UCSORGRIGHT
 10
0.0
 20
0.0
 30
0.0
  9
$UCSORGFRONT
 10
0.0
 20
0.0
 30
0.0
  9
$UCSORGBACK
 10
0.0
 20
0.0
 30
0.0
  9
$PUCSBASE
  2

  9
$PUCSNAME
  2

  9
$PUCSORG
 10
0.0
 20
0.0
 30
0.0
  9
$PUCSXDIR
 10
1.0
 20
0.0
 30
0.0
  9
$PUCSYDIR
 10
0.0
 20
1.0
 30
0.0
  9
$PUCSORTHOREF
  2

  9
$PUCSORTHOVIEW
 70
     0
  9
$PUCSORGTOP
 10
0.0
 20
0.0
 30
0.0
  9
$PUCSORGBOTTOM
 10
0.0
 20
0.0
 30
0.0
  9
$PUCSORGLEFT
 10
0.0
 20
0.0
 30
0.0
  9
$PUCSORGRIGHT
 10
0.0
 20
0.0
 30
0.0
  9
$PUCSORGFRONT
 10
0.0
 20
0.0
 30
0.0
  9
$PUCSORGBACK
 10
0.0
 20
0.0
 30
0.0
  9
$USERI1
 70
     0
  9
$USERI2
 70
     0
  9
$USERI3
 70
     0
  9
$USERI4
 70
     0
  9
$USERI5
 70
     0
  9
$USERR1
 40
0.0
  9
$USERR2
 40
0.0
  9
$USERR3
 40
0.0
  9
$USERR4
 40
0.0
  9
$USERR5
 40
0.0
  9
$WORLDVIEW
 70
     1
  9
$SHADEDGE
 70
     3
  9
$SHADEDIF
 70
    70
  9
$TILEMODE
 70
     1
  9
$MAXACTVP
 70
    64
  9
$PINSBASE
 10
0.0
 20
0.0
 30
0.0
  9
$PLIMCHECK
 70
     0
  9
$PEXTMIN
 10
-0.5
 20
-0.5
 30
-0.5
  9
$PEXTMAX
 10
5.0
 20
5.0
 30
5.0
  9
$PLIMMIN
 10
-0.5
 20
-0.5
  9
$PLIMMAX
 10
5.0
 20
5.0
  9
$UNITMODE
 70
     0
  9
$VISRETAIN
 70
     1
  9
$PLINEGEN
 70
     0
  9
$PSLTSCALE
 70
     1
  9
$TREEDEPTH
 70
  3020
  9
$CMLSTYLE
  2
Standard
  9
$CMLJUST
 70
     0
  9
$CMLSCALE
 40
1.0
  9
$PROXYGRAPHICS
 70
     1
  9
$MEASUREMENT
 70
     1
  9
$CELWEIGHT
370
    13
  9
$ENDCAPS
280
     0
  9
$JOINSTYLE
280
     0
  9
$LWDISPLAY
290
     0
  9
$INSUNITS
 70
     4
  9
$HYPERLINKBASE
  1

  9
$STYLESHEET
  1

  9
$XEDIT
290
     1
  9
$CEPSNTYPE
380
     0
  9
$PSTYLEMODE
290
     1
  9
$FINGERPRINTGUID
  2
{F1B0FC3D-BA7F-4DF5-A586-0AC9694A2FB9}
  9
$VERSIONGUID
  2
{D0A0E325-6014-AE4B-89D2-0BC14BA5474B}
  9
$EXTNAMES
290
     1
  9
$PSVPSCALE
 40
0.0
  9
$OLESTARTUP
290
     0
  9
$SORTENTS
280
   127
  9
$INDEXCTL
280
     0
  9
$HIDETEXT
280
     1
  9
$XCLIPFRAME
290
     0
  9
$HALOGAP
280
     0
  9
$OBSCOLOR
 70
   257
  9
$OBSLTYPE
280
     0
  9
$INTERSECTIONDISPLAY
280
     0
  9
$INTERSECTIONCOLOR
 70
   257
  9
$DIMASSOC
280
     2
  9
$PROJECTNAME
  1

  0
ENDSEC
  0
SECTION
  2
CLASSES
  0
CLASS
  1
ACDBDICTIONARYWDFLT
  2
AcDbDictionaryWithDefault
  3
ObjectDBX Classes
 90
        0
 91
        1
280
     0
281
     0
  0
CLASS
  1
VISUALSTYLE
  2
AcDbVisualStyle
  3
ObjectDBX Classes
 90
     4095
 91
       24
280
     0
281
     0
  0
CLASS
  1
MATERIAL
  2
AcDbMaterial
  3
ObjectDBX Classes
 90
     1153
 91
        3
280
     0
281
     0
  0
CLASS
  1
SCALE
  2
AcDbScale
  3
ObjectDBX Classes
 90
     1153
 91
       33
280
     0
281
     0
  0
CLASS
  1
TABLESTYLE
  2
AcDbTableStyle
  3
ObjectDBX Classes
 90
     4095
 91
        1
280
     0
281
     0
  0
CLASS
  1
MLEADERSTYLE
  2
AcDbMLeaderStyle
  3
ACDB_MLEADERSTYLE_CLASS
 90
     4095
 91
        1
280
     0
281
     0
  0
CLASS
  1
SUN
  2
AcDbSun
  3
SCENEOE
 90
     1153
 91
        0
280
     0
281
     0
  0
CLASS
  1
IMAGEDEF
  2
AcDbRasterImageDef
  3
ISM
 90
        0
 91
        1
280
     0
281
     0
  0
CLASS
  1
IMAGE
  2
AcDbRasterImage
  3
ISM
 90
     2175
 91
        1
280
     0
281
     1
  0
CLASS
  1
IMAGEDEF_REACTOR
  2
AcDbRasterImageDefReactor
  3
ISM
 90
        1
 91
        1
280
     0
281
     0
  0
CLASS
  1
DIMASSOC
  2
AcDbDimAssoc
  3
"AcDbDimAssoc|Product Desc:     AcDim ARX App For Dimension|Company:          Autodesk, Inc.|WEB Address:      www.autodesk.com"
 90
        0
 91
        5
280
     0
281
     0
  0
CLASS
  1
DICTIONARYVAR
  2
AcDbDictionaryVar
  3
ObjectDBX Classes
 90
        0
 91
        8
280
     0
281
     0
  0
CLASS
  1
CELLSTYLEMAP
  2
AcDbCellStyleMap
  3
ObjectDBX Classes
 90
     1152
 91
        2
280
     0
281
     0
  0
CLASS
  1
ACDBSECTIONVIEWSTYLE
  2
AcDbSectionViewStyle
  3
ObjectDBX Classes
 90
     1025
 91
        1
280
     0
281
     0
  0
CLASS
  1
ACDBDETAILVIEWSTYLE
  2
AcDbDetailViewStyle
  3
ObjectDBX Classes
 90
     1025
 91
        1
280
     0
281
     0
  0
CLASS
  1
RASTERVARIABLES
  2
AcDbRasterVariables
  3
ISM
 90
        0
 91
        1
280
     0
281
     0
  0
CLASS
  1
SORTENTSTABLE
  2
AcDbSortentsTable
  3
ObjectDBX Classes
 90
        0
 91
        1
280
     0
281
     0
  0
ENDSEC
  0
SECTION
  2
TABLES
  0
TABLE
  2
VPORT
  5
8
330
0
100
AcDbSymbolTable
 70
    16
  0
VPORT
  5
29
330
8
100
AcDbSymbolTableRecord
100
AcDbViewportTableRecord
  2
*Active
 70
     0
 10
0.0
 20
0.0
 11
1.0
 21
1.0
 12
243.4728509595103
 22
247.0696320670137
 13
0.0
 23
0.0
 14
0.5
 24
0.5
 15
0.5
 25
0.5
 16
0.0
 26
0.0
 36
1.0
 17
0.0
 27
0.0
 37
0.0
 40
128.3722327318967
 41
2.292712066905615
 42
50.0
 43
753.1326629999999
 44
-753.1326629999999
 50
0.0
 51
0.0
 71
     0
 72
   100
 73
     1
 74
     3
 75
     0
 76
     0
 77
     0
 78
     0
281
     0
 65
     1
110
237.144248
120
243.731161
130
0.0
111
1.0
121
0.0
131
0.0
112
0.0
122
1.0
132
0.0
 79
     0
146
0.0
1001
ACAD_NAV_VCDISPLAY
1070
     3
  0
VPORT
  5
1B1
330
8
100
AcDbSymbolTableRecord
100
AcDbViewportTableRecord
  2
L1
 70
     0
 10
0.0
 20
0.0
 11
1.0
 21
1.0
 12
379.811445
 22
155.245917
 13
0.0
 23
0.0
 14
0.5
 24
0.5
 15
0.5
 25
0.5
 16
0.0
 26
0.0
 36
1.0
 17
0.0
 27
0.0
 37
0.0
 40
207.433333
 41
0.085602
 42
50.0
 43
753.1326629999999
 44
-753.1326629999999
 50
0.0
 51
0.0
 71
     0
 72
   100
 73
     1
 74
     3
 75
     0
 76
     0
 77
     0
 78
     0
281
     0
 65
     1
110
0.0
120
0.0
130
0.0
111
1.0
121
0.0
131
0.0
112
0.0
122
1.0
132
0.0
 79
     0
146
0.0
  0
VPORT
  5
1B2
330
8
100
AcDbSymbolTableRecord
100
AcDbViewportTableRecord
  2
L2
 70
     0
 10
0.0
 20
0.0
 11
0.5
 21
1.0
 12
0.0
 22
0.0
 13
0.0
 23
0.0
 14
0.5
 24
0.5
 15
0.5
 25
0.5
 16
0.0
 26
-1.0
 36
0.0
 17
0.0
 27
0.0
 37
0.0
 40
1478.660809
 41
0.012009
 42
50.0
 43
765.39502
 44
-765.39502
 50
0.0
 51
0.0
 71
     0
 72
   100
 73
     1
 74
     3
 75
     0
 76
     0
 77
     0
 78
     0
281
     0
 65
     1
110
0.0
120
0.0
130
0.0
111
1.0
121
0.0
131
0.0
112
0.0
122
1.0
132
0.0
 79
     0
146
0.0
  0
VPORT
  5
1B3
330
8
100
AcDbSymbolTableRecord
100
AcDbViewportTableRecord
  2
L2
 70
     0
 10
0.5
 20
0.0
 11
1.0
 21
1.0
 12
0.0
 22
0.0
 13
0.0
 23
0.0
 14
0.5
 24
0.5
 15
0.5
 25
0.5
 16
1.0
 26
0.0
 36
0.0
 17
0.0
 27
0.0
 37
0.0
 40
1478.660809
 41
0.012009
 42
50.0
 43
746.5698859999999
 44
-746.5698859999999
 50
0.0
 51
0.0
 71
     0
 72
   100
 73
     1
 74
     3
 75
     0
 76
     0
 77
     0
 78
     0
281
     0
 65
     1
110
0.0
120
0.0
130
0.0
111
1.0
121
0.0
131
0.0
112
0.0
122
1.0
132
0.0
 79
     0
146
0.0
  0
VPORT
  5
1B4
330
8
100
AcDbSymbolTableRecord
100
AcDbViewportTableRecord
  2
L3
 70
     0
 10
0.0
 20
0.5
 11
1.0
 21
1.0
 12
379.811445
 22
155.245917
 13
0.0
 23
0.0
 14
0.5
 24
0.5
 15
0.5
 25
0.5
 16
0.0
 26
0.0
 36
1.0
 17
0.0
 27
0.0
 37
0.0
 40
207.433333
 41
0.085602
 42
50.0
 43
753.1326629999999
 44
-753.1326629999999
 50
0.0
 51
0.0
 71
     0
 72
   100
 73
     1
 74
     3
 75
     0
 76
     0
 77
     0
 78
     0
281
     0
 65
     1
110
0.0
120
0.0
130
0.0
111
1.0
121
0.0
131
0.0
112
0.0
122
1.0
132
0.0
 79
     0
146
0.0
  0
VPORT
  5
1B5
330
8
100
AcDbSymbolTableRecord
100
AcDbViewportTableRecord
  2
L3
 70
     0
 10
0.0
 20
0.0
 11
1.0
 21
0.5
 12
0.0
 22
0.0
 13
0.0
 23
0.0
 14
0.5
 24
0.5
 15
0.5
 25
0.5
 16
0.0
 26
-1.0
 36
0.0
 17
0.0
 27
0.0
 37
0.0
 40
1478.660809
 41
0.012009
 42
50.0
 43
765.39502
 44
-765.39502
 50
0.0
 51
0.0
 71
     0
 72
   100
 73
     1
 74
     3
 75
     0
 76
     0
 77
     0
 78
     0
281
     0
 65
     1
110
0.0
120
0.0
130
0.0
111
1.0
121
0.0
131
0.0
112
0.0
122
1.0
132
0.0
 79
     0
146
0.0
  0
VPORT
  5
1B6
330
8
100
AcDbSymbolTableRecord
100
AcDbViewportTableRecord
  2
L4
 70
     0
 10
0.0
 20
0.5
 11
0.5
 21
1.0
 12
379.811445
 22
155.245917
 13
0.0
 23
0.0
 14
0.5
 24
0.5
 15
0.5
 25
0.5
 16
0.0
 26
0.0
 36
1.0
 17
0.0
 27
0.0
 37
0.0
 40
207.433333
 41
0.085602
 42
50.0
 43
753.1326629999999
 44
-753.1326629999999
 50
0.0
 51
0.0
 71
     0
 72
   100
 73
     1
 74
     3
 75
     0
 76
     0
 77
     0
 78
     0
281
     0
 65
     1
110
0.0
120
0.0
130
0.0
111
1.0
121
0.0
131
0.0
112
0.0
122
1.0
132
0.0
 79
     0
146
0.0
  0
VPORT
  5
1B7
330
8
100
AcDbSymbolTableRecord
100
AcDbViewportTableRecord
  2
L4
 70
     0
 10
0.0
 20
0.0
 11
0.5
 21
0.5
 12
0.0
 22
0.0
 13
0.0
 23
0.0
 14
0.5
 24
0.5
 15
0.5
 25
0.5
 16
0.0
 26
-1.0
 36
0.0
 17
0.0
 27
0.0
 37
0.0
 40
1478.660809
 41
0.012009
 42
50.0
 43
765.39502
 44
-765.39502
 50
0.0
 51
0.0
 71
     0
 72
   100
 73
     1
 74
     3
 75
     0
 76
     0
 77
     0
 78
     0
281
     0
 65
     1
110
0.0
120
0.0
130
0.0
111
1.0
121
0.0
131
0.0
112
0.0
122
1.0
132
0.0
 79
     0
146
0.0
  0
VPORT
  5
1B8
330
8
100
AcDbSymbolTableRecord
100
AcDbViewportTableRecord
  2
L4
 70
     0
 10
0.5
 20
0.0
 11
1.0
 21
0.5
 12
0.0
 22
0.0
 13
0.0
 23
0.0
 14
0.5
 24
0.5
 15
0.5
 25
0.5
 16
1.0
 26
0.0
 36
0.0
 17
0.0
 27
0.0
 37
0.0
 40
1478.660809
 41
0.012009
 42
50.0
 43
746.5698859999999
 44
-746.5698859999999
 50
0.0
 51
0.0
 71
     0
 72
   100
 73
     1
 74
     3
 75
     0
 76
     0
 77
     0
 78
     0
281
     0
 65
     1
110
0.0
120
0.0
130
0.0
111
1.0
121
0.0
131
0.0
112
0.0
122
1.0
132
0.0
 79
     0
146
0.0
  0
VPORT
  5
1B9
330
8
100
AcDbSymbolTableRecord
100
AcDbViewportTableRecord
  2
L4
 70
     0
 10
0.5
 20
0.5
 11
1.0
 21
1.0
 12
0.0
 22
0.0
 13
0.0
 23
0.0
 14
0.5
 24
0.5
 15
0.5
 25
0.5
 16
0.5773502691896259
 26
-0.5773502691896259
 36
0.5773502691896259
 17
0.0
 27
0.0
 37
0.0
 40
1453.705292
 41
0.012215
 42
50.0
 43
757.5245879999999
 44
-757.5245879999999
 50
0.0
 51
0.0
 71
     0
 72
   100
 73
     1
 74
     3
 75
     0
 76
     0
 77
     0
 78
     0
281
     0
 65
     1
110
0.0
120
0.0
130
0.0
111
1.0
121
0.0
131
0.0
112
0.0
122
1.0
132
0.0
 79
     0
146
0.0
  0
VPORT
  5
1BA
330
8
100
AcDbSymbolTableRecord
100
AcDbViewportTableRecord
  2
L6
 70
     0
 10
0.0
 20
0.5
 11
0.333333
 21
1.0
 12
0.0
 22
0.0
 13
0.0
 23
0.0
 14
0.5
 24
0.5
 15
0.5
 25
0.5
 16
0.7188730927569434
 26
-0.5850486126764433
 36
0.3754192287502549
 17
0.0
 27
0.0
 37
0.0
 40
1534.989881
 41
0.011568
 42
50.0
 43
794.5176169999999
 44
-794.5176169999999
 50
0.0
 51
0.0
 71
     0
 72
   100
 73
     1
 74
     3
 75
     0
 76
     0
 77
     0
 78
     0
281
     0
 65
     1
110
0.0
120
0.0
130
0.0
111
1.0
121
0.0
131
0.0
112
0.0
122
1.0
132
0.0
 79
     0
146
0.0
  0
VPORT
  5
1BB
330
8
100
AcDbSymbolTableRecord
100
AcDbViewportTableRecord
  2
L6
 70
     0
 10
0.0
 20
0.0
 11
0.333333
 21
0.5
 12
0.0
 22
0.0
 13
0.0
 23
0.0
 14
0.5
 24
0.5
 15
0.5
 25
0.5
 16
-1.0
 26
0.0
 36
0.0
 17
0.0
 27
0.0
 37
0.0
 40
1478.660809
 41
0.012009
 42
50.0
 43
746.5698859999999
 44
-746.5698859999999
 50
0.0
 51
0.0
 71
     0
 72
   100
 73
     1
 74
     3
 75
     0
 76
     0
 77
     0
 78
     0
281
     0
 65
     1
110
0.0
120
0.0
130
0.0
111
1.0
121
0.0
131
0.0
112
0.0
122
1.0
132
0.0
 79
     0
146
0.0
  0
VPORT
  5
1BC
330
8
100
AcDbSymbolTableRecord
100
AcDbViewportTableRecord
  2
L6
 70
     0
 10
0.333333
 20
0.5
 11
0.666667
 21
1.0
 12
379.811445
 22
155.245917
 13
0.0
 23
0.0
 14
0.5
 24
0.5
 15
0.5
 25
0.5
 16
0.0
 26
0.0
 36
1.0
 17
0.0
 27
0.0
 37
0.0
 40
207.433333
 41
0.085602
 42
50.0
 43
753.1326629999999
 44
-753.1326629999999
 50
0.0
 51
0.0
 71
     0
 72
   100
 73
     1
 74
     3
 75
     0
 76
     0
 77
     0
 78
     0
281
     0
 65
     1
110
0.0
120
0.0
130
0.0
111
1.0
121
0.0
131
0.0
112
0.0
122
1.0
132
0.0
 79
     0
146
0.0
  0
VPORT
  5
1BD
330
8
100
AcDbSymbolTableRecord
100
AcDbViewportTableRecord
  2
L6
 70
     0
 10
0.333333
 20
0.0
 11
0.666667
 21
0.5
 12
0.0
 22
0.0
 13
0.0
 23
0.0
 14
0.5
 24
0.5
 15
0.5
 25
0.5
 16
0.0
 26
-1.0
 36
0.0
 17
0.0
 27
0.0
 37
0.0
 40
1478.660809
 41
0.012009
 42
50.0
 43
765.39502
 44
-765.39502
 50
0.0
 51
0.0
 71
     0
 72
   100
 73
     1
 74
     3
 75
     0
 76
     0
 77
     0
 78
     0
281
     0
 65
     1
110
0.0
120
0.0
130
0.0
111
1.0
121
0.0
131
0.0
112
0.0
122
1.0
132
0.0
 79
     0
146
0.0
  0
VPORT
  5
1BE
330
8
100
AcDbSymbolTableRecord
100
AcDbViewportTableRecord
  2
L6
 70
     0
 10
0.666667
 20
0.5
 11
1.0
 21
1.0
 12
0.0
 22
0.0
 13
0.0
 23
0.0
 14
0.5
 24
0.5
 15
0.5
 25
0.5
 16
0.5773502691896259
 26
-0.5773502691896259
 36
0.5773502691896259
 17
0.0
 27
0.0
 37
0.0
 40
1453.705292
 41
0.012215
 42
50.0
 43
757.5245879999999
 44
-757.5245879999999
 50
0.0
 51
0.0
 71
     0
 72
   100
 73
     1
 74
     3
 75
     0
 76
     0
 77
     0
 78
     0
281
     0
 65
     1
110
0.0
120
0.0
130
0.0
111
1.0
121
0.0
131
0.0
112
0.0
122
1.0
132
0.0
 79
     0
146
0.0
  0
VPORT
  5
1BF
330
8
100
AcDbSymbolTableRecord
100
AcDbViewportTableRecord
  2
L6
 70
     0
 10
0.666667
 20
0.0
 11
1.0
 21
0.5
 12
0.0
 22
0.0
 13
0.0
 23
0.0
 14
0.5
 24
0.5
 15
0.5
 25
0.5
 16
1.0
 26
0.0
 36
0.0
 17
0.0
 27
0.0
 37
0.0
 40
1478.660809
 41
0.012009
 42
50.0
 43
746.5698859999999
 44
-746.5698859999999
 50
0.0
 51
0.0
 71
     0
 72
   100
 73
     1
 74
     3
 75
     0
 76
     0
 77
     0
 78
     0
281
     0
 65
     1
110
0.0
120
0.0
130
0.0
111
1.0
121
0.0
131
0.0
112
0.0
122
1.0
132
0.0
 79
     0
146
0.0
  0
ENDTAB
  0
TABLE
  2
LTYPE
  5
5
330
0
100
AcDbSymbolTable
 70
     7
  0
LTYPE
  5
14
330
5
100
AcDbSymbolTableRecord
100
AcDbLinetypeTableRecord
  2
ByBlock
 70
     0
  3

 72
    65
 73
     0
 40
0.0
  0
LTYPE
  5
15
330
5
100
AcDbSymbolTableRecord
100
AcDbLinetypeTableRecord
  2
ByLayer
 70
     0
  3

 72
    65
 73
     0
 40
0.0
  0
LTYPE
  5
16
330
5
100
AcDbSymbolTableRecord
100
AcDbLinetypeTableRecord
  2
Continuous
 70
     0
  3
Solid line
 72
    65
 73
     0
 40
0.0
  0
LTYPE
  5
6E
330
5
100
AcDbSymbolTableRecord
100
AcDbLinetypeTableRecord
  2
CENTER
 70
     0
  3
____ _ ____ _ ____ _ ____
 72
    65
 73
     4
 40
47.4
 49
22.0
 74
     4
 75
     0
340
0
 46
0.0
 50
0.0
 44
0.0
 45
0.0
 49
-8.5
 74
     4
 75
     0
340
0
 46
0.0
 50
0.0
 44
0.0
 45
0.0
 49
8.5
 74
     4
 75
     0
340
0
 46
0.0
 50
0.0
 44
0.0
 45
0.0
 49
-8.5
 74
     4
 75
     0
340
0
 46
0.0
 50
0.0
 44
0.0
 45
0.0
  0
LTYPE
  5
6F
330
5
100
AcDbSymbolTableRecord
100
AcDbLinetypeTableRecord
  2
DASHDOT
 70
     0
  3
_._._._._._._._._._._._._._._._.
 72
    65
 73
     4
 40
70.0
 49
31.0
 74
     4
 75
     0
340
0
 46
0.0
 50
0.0
 44
0.0
 45
0.0
 49
-13.0
 74
     4
 75
     0
340
0
 46
0.0
 50
0.0
 44
0.0
 45
0.0
 49
13.0
 74
     4
 75
     0
340
0
 46
0.0
 50
0.0
 44
0.0
 45
0.0
 49
-13.0
 74
     4
 75
     0
340
0
 46
0.0
 50
0.0
 44
0.0
 45
0.0
  0
LTYPE
  5
70
330
5
100
AcDbSymbolTableRecord
100
AcDbLinetypeTableRecord
  2
DASHED
 70
     0
  3
__ __ __ __ __ __ __ __ __
 72
    65
 73
     2
 40
25.72
 49
12.86
 74
     4
 75
     0
340
0
 46
0.0
 50
0.0
 44
0.0
 45
0.0
 49
-12.86
 74
     4
 75
     0
340
0
 46
0.0
 50
0.0
 44
0.0
 45
0.0
  0
LTYPE
  5
71
330
5
100
AcDbSymbolTableRecord
100
AcDbLinetypeTableRecord
  2
DOT
 70
     0
  3
.........................
 72
    65
 73
     2
 40
10.0
 49
0.0
 74
     4
 75
     0
340
0
 46
0.0
 50
0.0
 44
0.0
 45
0.0
 49
-10.0
 74
     4
 75
     0
340
0
 46
0.0
 50
0.0
 44
0.0
 45
0.0
  0
LTYPE
  5
72
330
5
100
AcDbSymbolTableRecord
100
AcDbLinetypeTableRecord
  2
PHANTOM
 70
     0
  3
____ _ _ ____ _ _ _____ _ _ ____
 72
    65
 73
     6
 40
50.5
 49
18.0
 74
     4
 75
     0
340
0
 46
0.0
 50
0.0
 44
0.0
 45
0.0
 49
-6.5
 74
     4
 75
     0
340
0
 46
0.0
 50
0.0
 44
0.0
 45
0.0
 49
6.5
 74
     4
 75
     0
340
0
 46
0.0
 50
0.0
 44
0.0
 45
0.0
 49
-6.5
 74
     4
 75
     0
340
0
 46
0.0
 50
0.0
 44
0.0
 45
0.0
 49
6.5
 74
     4
 75
     0
340
0
 46
0.0
 50
0.0
 44
0.0
 45
0.0
 49
-6.5
 74
     4
 75
     0
340
0
 46
0.0
 50
0.0
 44
0.0
 45
0.0
  0
LTYPE
  5
23D
330
5
100
AcDbSymbolTableRecord
100
AcDbLinetypeTableRecord
  2
CENTER2
 70
     0
  3
Center (.5x) ___ _ ___ _ ___ _ ___ _ ___ _ ___
 72
    65
 73
     4
 40
1.125
 49
0.75
 74
     0
 49
-0.125
 74
     0
 49
0.125
 74
     0
 49
-0.125
 74
     0
  0
ENDTAB
  0
TABLE
  2
LAYER
  5
2
102
{ACAD_XDICTIONARY
360
263
102
}
330
0
100
AcDbSymbolTable
 70
    22
  0
LAYER
  5
10
102
{ACAD_XDICTIONARY
360
248
102
}
330
2
100
AcDbSymbolTableRecord
100
AcDbLayerTableRecord
  2
0
 70
     0
 62
     7
  6
Continuous
370
    -3
390
F
  0
LAYER
  5
138
330
2
100
AcDbSymbolTableRecord
100
AcDbLayerTableRecord
  2
Defpoints
 70
     0
 62
     7
  6
Continuous
290
     0
370
    -3
390
F
  0
LAYER
  5
23A
102
{ACAD_XDICTIONARY
360
24A
102
}
330
2
100
AcDbSymbolTableRecord
100
AcDbLayerTableRecord
  2
1
 70
     0
 62
     4
  6
Continuous
370
    -3
390
F
  0
LAYER
  5
23B
102
{ACAD_XDICTIONARY
360
24C
102
}
330
2
100
AcDbSymbolTableRecord
100
AcDbLayerTableRecord
  2
2
 70
     0
 62
     7
  6
Continuous
370
    -3
390
F
  0
LAYER
  5
23C
102
{ACAD_XDICTIONARY
360
24E
102
}
330
2
100
AcDbSymbolTableRecord
100
AcDbLayerTableRecord
  2
4
 70
     0
 62
     2
  6
CENTER2
370
    -3
390
F
  0
LAYER
  5
23E
102
{ACAD_XDICTIONARY
360
250
102
}
330
2
100
AcDbSymbolTableRecord
100
AcDbLayerTableRecord
  2
SK1
 70
     0
 62
     4
  6
Continuous
370
    -3
390
F
  0
LAYER
  5
23F
102
{ACAD_XDICTIONARY
360
252
102
}
330
2
100
AcDbSymbolTableRecord
100
AcDbLayerTableRecord
  2
SK2
 70
     0
 62
     7
  6
Continuous
370
    -3
390
F
  0
LAYER
  5
241
102
{ACAD_XDICTIONARY
360
254
102
}
330
2
100
AcDbSymbolTableRecord
100
AcDbLayerTableRecord
  2
SK4
 70
     0
 62
     2
  6
CENTER2
370
    -3
390
F
  0
LAYER
  5
242
102
{ACAD_XDICTIONARY
360
256
102
}
330
2
100
AcDbSymbolTableRecord
100
AcDbLayerTableRecord
  2
SK6
 70
     0
 62
     5
  6
Continuous
370
    -3
390
F
  0
LAYER
  5
243
102
{ACAD_XDICTIONARY
360
258
102
}
330
2
100
AcDbSymbolTableRecord
100
AcDbLayerTableRecord
  2
CUT
 70
     0
 62
     1
  6
Continuous
370
    -3
390
F
  0
LAYER
  5
244
102
{ACAD_XDICTIONARY
360
25A
102
}
330
2
100
AcDbSymbolTableRecord
100
AcDbLayerTableRecord
  2
NOCUT
 70
     0
 62
     7
  6
Continuous
370
    -3
390
F
  0
LAYER
  5
245
102
{ACAD_XDICTIONARY
360
25C
102
}
330
2
100
AcDbSymbolTableRecord
100
AcDbLayerTableRecord
  2
80
 70
     0
 62
     6
  6
Continuous
370
    -3
390
F
  0
LAYER
  5
246
102
{ACAD_XDICTIONARY
360
25E
102
}
330
2
100
AcDbSymbolTableRecord
100
AcDbLayerTableRecord
  2
81
 70
     0
 62
     3
  6
Continuous
370
    -3
390
F
  0
ENDTAB
  0
TABLE
  2
STYLE
  5
3
330
0
100
AcDbSymbolTable
 70
     3
  0
STYLE
  5
11
330
3
100
AcDbSymbolTableRecord
100
AcDbTextStyleTableRecord
  2
Standard
 70
     0
 40
0.0
 41
1.0
 50
0.0
 71
     0
 42
0.2
  3
txt
  4

  0
STYLE
  5
132
330
3
100
AcDbSymbolTableRecord
100
AcDbTextStyleTableRecord
  2
cesky
 70
     0
 40
0.0
 41
1.0
 50
0.0
 71
     0
 42
0.2
  3
simplex.shx
  4

  0
STYLE
  5
133
330
3
100
AcDbSymbolTableRecord
100
AcDbTextStyleTableRecord
  2
DWGDirectTextStyle
 70
     0
 40
0.0
 41
1.0
 50
0.0
 71
     0
 42
0.2
  3
simplex
  4

  0
ENDTAB
  0
TABLE
  2
VIEW
  5
6
330
0
100
AcDbSymbolTable
 70
     1
  0
ENDTAB
  0
TABLE
  2
UCS
  5
7
330
0
100
AcDbSymbolTable
 70
     0
  0
ENDTAB
  0
TABLE
  2
APPID
  5
9
330
0
100
AcDbSymbolTable
 70
     8
  0
APPID
  5
12
330
9
100
AcDbSymbolTableRecord
100
AcDbRegAppTableRecord
  2
ACAD
 70
     0
  0
APPID
  5
134
330
9
100
AcDbSymbolTableRecord
100
AcDbRegAppTableRecord
  2
ACAD_DSTYLE_DIMBREAK
 70
     0
  0
APPID
  5
14D
330
9
100
AcDbSymbolTableRecord
100
AcDbRegAppTableRecord
  2
ACAD_DSTYLE_DIMANGULAR_EXTENSION
 70
     0
  0
APPID
  5
1C0
330
9
100
AcDbSymbolTableRecord
100
AcDbRegAppTableRecord
  2
ACAD_DSTYLE_DIM_LINETYPE
 70
     0
  0
APPID
  5
1C1
330
9
100
AcDbSymbolTableRecord
100
AcDbRegAppTableRecord
  2
ACAD_DSTYLE_DIM_EXT1_LINETYPE
 70
     0
  0
APPID
  5
1C2
330
9
100
AcDbSymbolTableRecord
100
AcDbRegAppTableRecord
  2
ACAD_DSTYLE_DIM_EXT2_LINETYPE
 70
     0
  0
APPID
  5
202
330
9
100
AcDbSymbolTableRecord
100
AcDbRegAppTableRecord
  2
ACAD_MLEADERVER
 70
     0
  0
APPID
  5
26C
330
9
100
AcDbSymbolTableRecord
100
AcDbRegAppTableRecord
  2
ACAD_NAV_VCDISPLAY
 70
     0
  0
ENDTAB
  0
TABLE
  2
DIMSTYLE
  5
A
330
0
100
AcDbSymbolTable
 70
     1
100
AcDbDimStyleTable
 71
     0
  0
DIMSTYLE
105
27
330
A
100
AcDbSymbolTableRecord
100
AcDbDimStyleTableRecord
  2
Standard
 70
     0
340
11
1001
ACAD_DSTYLE_DIMBREAK
1070
   391
1040
6.349999999999999
  0
ENDTAB
  0
TABLE
  2
BLOCK_RECORD
  5
1
330
0
100
AcDbSymbolTable
 70
    11
  0
BLOCK_RECORD
  5
1F
102
{ACAD_XDICTIONARY
360
213
102
}
330
1
100
AcDbSymbolTableRecord
100
AcDbBlockTableRecord
  2
*Model_Space
340
22
  0
BLOCK_RECORD
  5
1B
330
1
100
AcDbSymbolTableRecord
100
AcDbBlockTableRecord
  2
*Paper_Space
340
1E
  0
BLOCK_RECORD
  5
23
330
1
100
AcDbSymbolTableRecord
100
AcDbBlockTableRecord
  2
*Paper_Space0
340
26
  0
BLOCK_RECORD
  5
139
330
1
100
AcDbSymbolTableRecord
100
AcDbBlockTableRecord
  2
*D1
340
0
  0
BLOCK_RECORD
  5
144
330
1
100
AcDbSymbolTableRecord
100
AcDbBlockTableRecord
  2
_U0
340
0
  0
BLOCK_RECORD
  5
150
330
1
100
AcDbSymbolTableRecord
100
AcDbBlockTableRecord
  2
*D3
340
0
  0
BLOCK_RECORD
  5
15E
330
1
100
AcDbSymbolTableRecord
100
AcDbBlockTableRecord
  2
_U1
340
0
  0
BLOCK_RECORD
  5
16A
330
1
100
AcDbSymbolTableRecord
100
AcDbBlockTableRecord
  2
*D5
340
0
  0
BLOCK_RECORD
  5
176
330
1
100
AcDbSymbolTableRecord
100
AcDbBlockTableRecord
  2
_U2
340
0
  0
BLOCK_RECORD
  5
182
330
1
100
AcDbSymbolTableRecord
100
AcDbBlockTableRecord
  2
*D7
340
0
  0
BLOCK_RECORD
  5
190
330
1
100
AcDbSymbolTableRecord
100
AcDbBlockTableRecord
  2
_U3
340
0
  0
BLOCK_RECORD
  5
19C
330
1
100
AcDbSymbolTableRecord
100
AcDbBlockTableRecord
  2
*D9
340
0
  0
BLOCK_RECORD
  5
1A8
330
1
100
AcDbSymbolTableRecord
100
AcDbBlockTableRecord
  2
_U4
340
0
  0
ENDTAB
  0
ENDSEC
  0
SECTION
  2
BLOCKS
  0
BLOCK
  5
20
330
1F
100
AcDbEntity
  8
0
100
AcDbBlockBegin
  2
*Model_Space
 70
     0
 10
0.0
 20
0.0
 30
0.0
  3
*Model_Space
  1

  0
ENDBLK
  5
21
330
1F
100
AcDbEntity
  8
0
100
AcDbBlockEnd
  0
BLOCK
  5
1C
330
1B
100
AcDbEntity
 67
     1
  8
0
100
AcDbBlockBegin
  2
*Paper_Space
 70
     0
 10
0.0
 20
0.0
 30
0.0
  3
*Paper_Space
  1

  0
ENDBLK
  5
1D
330
1B
100
AcDbEntity
 67
     1
  8
0
100
AcDbBlockEnd
  0
BLOCK
  5
24
330
23
100
AcDbEntity
 67
     1
  8
0
100
AcDbBlockBegin
  2
*Paper_Space0
 70
     0
 10
0.0
 20
0.0
 30
0.0
  3
*Paper_Space0
  1

  0
ENDBLK
  5
25
330
23
100
AcDbEntity
 67
     1
  8
0
100
AcDbBlockEnd
  0
BLOCK
  5
13A
330
139
100
AcDbEntity
  8
0
100
AcDbBlockBegin
  2
*D1
 70
     1
 10
0.0
 20
0.0
 30
0.0
  3
*D1
  1

  0
LINE
  5
13C
330
139
100
AcDbEntity
  8
0
 62
   254
370
    -2
100
AcDbLine
 10
242.144248
 20
243.731161
 30
0.0
 11
282.788805
 21
243.731161
 31
0.0
  0
LINE
  5
13D
330
139
100
AcDbEntity
  8
0
 62
   254
370
    -2
100
AcDbLine
 10
269.144248
 20
251.731161
 30
0.0
 11
282.788805
 21
251.731161
 31
0.0
  0
LINE
  5
13E
330
139
100
AcDbEntity
  8
0
 62
   254
370
    -2
100
AcDbLine
 10
281.788805
 20
255.231161
 30
0.0
 11
281.788805
 21
258.731161
 31
0.0
  0
SOLID
  5
13F
330
139
100
AcDbEntity
  8
0
 62
   254
100
AcDbTrace
 10
281.205472
 20
255.231161
 30
0.0
 11
282.372139
 21
255.231161
 31
0.0
 12
281.788805
 22
251.731161
 32
0.0
 13
281.788805
 23
251.731161
 33
0.0
  0
MTEXT
  5
140
330
139
100
AcDbEntity
  8
0
 62
   254
370
    13
100
AcDbMText
 10
276.538805
 20
230.814495
 30
0.0
 40
3.5
 41
0.0
 71
     5
 72
     1
  1
\A1;16
  7
cesky
 11
0.0
 21
1.0
 31
0.0
 73
     1
 44
1.0
  0
POINT
  5
141
330
139
100
AcDbEntity
  8
Defpoints
 62
     0
100
AcDbPoint
 10
242.144248
 20
243.731161
 30
0.0
  0
POINT
  5
142
330
139
100
AcDbEntity
  8
Defpoints
 62
     0
100
AcDbPoint
 10
269.144248
 20
251.731161
 30
0.0
  0
POINT
  5
143
330
139
100
AcDbEntity
  8
Defpoints
 62
     0
100
AcDbPoint
 10
281.788805
 20
251.731161
 30
0.0
  0
ENDBLK
  5
13B
330
139
100
AcDbEntity
  8
0
100
AcDbBlockEnd
  0
BLOCK
  5
14A
330
144
100
AcDbEntity
  8
0
100
AcDbBlockBegin
  2
_U0
 70
     0
 10
0.0
 20
0.0
 30
0.0
  3
_U0
  1

  0
ENDBLK
  5
14B
330
144
100
AcDbEntity
  8
0
100
AcDbBlockEnd
  0
BLOCK
  5
151
330
150
100
AcDbEntity
  8
0
100
AcDbBlockBegin
  2
*D3
 70
     1
 10
0.0
 20
0.0
 30
0.0
  3
*D3
  1

  0
LINE
  5
153
330
150
100
AcDbEntity
  8
0
 62
   254
370
    -2
100
AcDbLine
 10
267.144248
 20
253.731161
 30
0.0
 11
267.144248
 21
274.164329
 31
0.0
  0
LINE
  5
154
330
150
100
AcDbEntity
  8
0
 62
   254
370
    -2
100
AcDbLine
 10
261.306112
 20
257.56137
 30
0.0
 11
251.275998
 21
267.591484
 31
0.0
  0
ARC
  5
155
330
150
100
AcDbEntity
  8
0
 62
   254
370
    -2
100
AcDbCircle
 10
267.144248
 20
251.723234
 30
0.0
 40
21.44109455688599
100
AcDbArc
 50
99.36326000000001
 51
125.63674
  0
SOLID
  5
156
330
150
100
AcDbEntity
  8
0
 62
   254
100
AcDbTrace
 10
263.703537
 20
272.297275
 30
0.0
 11
263.608315
 21
273.460049
 31
0.0
 12
267.144248
 22
273.164329
 32
0.0
 13
267.144248
 23
273.164329
 33
0.0
  0
SOLID
  5
157
330
150
100
AcDbEntity
  8
0
 62
   254
100
AcDbTrace
 10
254.274281
 20
269.593766
 30
0.0
 11
255.029155
 21
268.704229
 31
0.0
 12
251.983105
 22
266.884377
 32
0.0
 13
251.983105
 23
266.884377
 33
0.0
  0
MTEXT
  5
158
330
150
100
AcDbEntity
  8
0
 62
   254
370
    13
100
AcDbMText
 10
256.930009
 20
276.38259
 30
0.0
 40
3.5
 41
0.0
 71
     5
 72
     1
  1
\A1;45%%d
  7
cesky
 73
     1
 44
1.0
  0
POINT
  5
159
330
150
100
AcDbEntity
  8
Defpoints
 62
     0
100
AcDbPoint
 10
261.594885
 20
272.433741
 30
0.0
  0
POINT
  5
15A
330
150
100
AcDbEntity
  8
Defpoints
 62
     0
100
AcDbPoint
 10
261.306112
 20
257.56137
 30
0.0
  0
POINT
  5
15B
330
150
100
AcDbEntity
  8
Defpoints
 62
     0
100
AcDbPoint
 10
267.144248
 20
249.731161
 30
0.0
  0
POINT
  5
15C
330
150
100
AcDbEntity
  8
Defpoints
 62
     0
100
AcDbPoint
 10
267.144248
 20
253.731161
 30
0.0
  0
POINT
  5
15D
330
150
100
AcDbEntity
  8
Defpoints
 62
     0
100
AcDbPoint
 10
266.909934
 20
251.957549
 30
0.0
  0
ENDBLK
  5
152
330
150
100
AcDbEntity
  8
0
100
AcDbBlockEnd
  0
BLOCK
  5
165
330
15E
100
AcDbEntity
  8
0
100
AcDbBlockBegin
  2
_U1
 70
     0
 10
0.0
 20
0.0
 30
0.0
  3
_U1
  1

  0
ENDBLK
  5
166
330
15E
100
AcDbEntity
  8
0
100
AcDbBlockEnd
  0
BLOCK
  5
16B
330
16A
100
AcDbEntity
  8
0
100
AcDbBlockBegin
  2
*D5
 70
     1
 10
0.0
 20
0.0
 30
0.0
  3
*D5
  1

  0
LINE
  5
16D
330
16A
100
AcDbEntity
  8
0
 62
    95
370
    -2
100
AcDbLine
 10
267.144248
 20
257.679956
 30
0.0
 11
267.144248
 21
285.537714
 31
0.0
  0
LINE
  5
16E
330
16A
100
AcDbEntity
  8
0
 62
    95
370
    -2
100
AcDbLine
 10
173.144248
 20
243.731161
 30
0.0
 11
173.144248
 21
285.537714
 31
0.0
  0
LINE
  5
16F
330
16A
100
AcDbEntity
  8
0
 62
    95
370
    -2
100
AcDbLine
 10
263.644248
 20
284.537714
 30
0.0
 11
176.644248
 21
284.537714
 31
0.0
  0
SOLID
  5
170
330
16A
100
AcDbEntity
  8
0
 62
    95
100
AcDbTrace
 10
263.644248
 20
283.954381
 30
0.0
 11
263.644248
 21
285.121047
 31
0.0
 12
267.144248
 22
284.537714
 32
0.0
 13
267.144248
 23
284.537714
 33
0.0
  0
SOLID
  5
171
330
16A
100
AcDbEntity
  8
0
 62
    95
100
AcDbTrace
 10
176.644248
 20
285.121047
 30
0.0
 11
176.644248
 21
283.954381
 31
0.0
 12
173.144248
 22
284.537714
 32
0.0
 13
173.144248
 23
284.537714
 33
0.0
  0
MTEXT
  5
172
330
16A
100
AcDbEntity
  8
0
 62
    95
370
    13
100
AcDbMText
 10
220.144248
 20
289.787714
 30
0.0
 40
3.5
 41
0.0
 71
     5
 72
     1
  1
\A1;94
  7
cesky
 73
     1
 44
1.0
  0
POINT
  5
173
330
16A
100
AcDbEntity
  8
Defpoints
 62
     0
100
AcDbPoint
 10
267.144248
 20
257.679956
 30
0.0
  0
POINT
  5
174
330
16A
100
AcDbEntity
  8
Defpoints
 62
     0
100
AcDbPoint
 10
173.144248
 20
243.731161
 30
0.0
  0
POINT
  5
175
330
16A
100
AcDbEntity
  8
Defpoints
 62
     0
100
AcDbPoint
 10
173.144248
 20
284.537714
 30
0.0
  0
ENDBLK
  5
16C
330
16A
100
AcDbEntity
  8
0
100
AcDbBlockEnd
  0
BLOCK
  5
17D
330
176
100
AcDbEntity
  8
0
100
AcDbBlockBegin
  2
_U2
 70
     0
 10
0.0
 20
0.0
 30
0.0
  3
_U2
  1

  0
ENDBLK
  5
17E
330
176
100
AcDbEntity
  8
0
100
AcDbBlockEnd
  0
BLOCK
  5
183
330
182
100
AcDbEntity
  8
0
100
AcDbBlockBegin
  2
*D7
 70
     1
 10
0.0
 20
0.0
 30
0.0
  3
*D7
  1

  0
LINE
  5
185
330
182
100
AcDbEntity
  8
0
 62
   254
370
    -2
100
AcDbLine
 10
267.144248
 20
253.010213
 30
0.0
 11
267.144248
 21
260.709837
 31
0.0
  0
LINE
  5
186
330
182
100
AcDbEntity
  8
0
 62
   254
370
    -2
100
AcDbLine
 10
261.306112
 20
257.56137
 30
0.0
 11
261.306112
 21
260.709837
 31
0.0
  0
LINE
  5
187
330
182
100
AcDbEntity
  8
0
 62
   254
370
    -2
100
AcDbLine
 10
267.144248
 20
259.709837
 30
0.0
 11
288.477582
 21
259.709837
 31
0.0
  0
LINE
  5
188
330
182
100
AcDbEntity
  8
0
 62
   254
370
    -2
100
AcDbLine
 10
270.644248
 20
259.709837
 30
0.0
 11
274.144248
 21
259.709837
 31
0.0
  0
LINE
  5
189
330
182
100
AcDbEntity
  8
0
 62
   254
370
    -2
100
AcDbLine
 10
257.806112
 20
259.709837
 30
0.0
 11
254.306112
 21
259.709837
 31
0.0
  0
SOLID
  5
18A
330
182
100
AcDbEntity
  8
0
 62
   254
100
AcDbTrace
 10
270.644248
 20
260.29317
 30
0.0
 11
270.644248
 21
259.126504
 31
0.0
 12
267.144248
 22
259.709837
 32
0.0
 13
267.144248
 23
259.709837
 33
0.0
  0
SOLID
  5
18B
330
182
100
AcDbEntity
  8
0
 62
   254
100
AcDbTrace
 10
257.806112
 20
259.126504
 30
0.0
 11
257.806112
 21
260.29317
 31
0.0
 12
261.306112
 22
259.709837
 32
0.0
 13
261.306112
 23
259.709837
 33
0.0
  0
MTEXT
  5
18C
330
182
100
AcDbEntity
  8
0
 62
   254
370
    13
100
AcDbMText
 10
281.310915
 20
264.959837
 30
0.0
 40
3.5
 41
0.0
 71
     5
 72
     1
  1
\A1;5.8
  7
cesky
 73
     1
 44
1.0
  0
POINT
  5
18D
330
182
100
AcDbEntity
  8
Defpoints
 62
     0
100
AcDbPoint
 10
267.144248
 20
253.010213
 30
0.0
  0
POINT
  5
18E
330
182
100
AcDbEntity
  8
Defpoints
 62
     0
100
AcDbPoint
 10
261.306112
 20
257.56137
 30
0.0
  0
POINT
  5
18F
330
182
100
AcDbEntity
  8
Defpoints
 62
     0
100
AcDbPoint
 10
261.306112
 20
259.709837
 30
0.0
  0
ENDBLK
  5
184
330
182
100
AcDbEntity
  8
0
100
AcDbBlockEnd
  0
BLOCK
  5
197
330
190
100
AcDbEntity
  8
0
100
AcDbBlockBegin
  2
_U3
 70
     0
 10
0.0
 20
0.0
 30
0.0
  3
_U3
  1

  0
ENDBLK
  5
198
330
190
100
AcDbEntity
  8
0
100
AcDbBlockEnd
  0
BLOCK
  5
19D
330
19C
100
AcDbEntity
  8
0
100
AcDbBlockBegin
  2
*D9
 70
     1
 10
0.0
 20
0.0
 30
0.0
  3
*D9
  1

  0
LINE
  5
19F
330
19C
100
AcDbEntity
  8
0
 62
    95
370
    -2
100
AcDbLine
 10
267.144248
 20
251.731161
 30
0.0
 11
267.144248
 21
277.066992
 31
0.0
  0
LINE
  5
1A0
330
19C
100
AcDbEntity
  8
0
 62
    95
370
    -2
100
AcDbLine
 10
237.144248
 20
243.731161
 30
0.0
 11
237.144248
 21
277.066992
 31
0.0
  0
LINE
  5
1A1
330
19C
100
AcDbEntity
  8
0
 62
    95
370
    -2
100
AcDbLine
 10
263.644248
 20
276.066992
 30
0.0
 11
240.644248
 21
276.066992
 31
0.0
  0
SOLID
  5
1A2
330
19C
100
AcDbEntity
  8
0
 62
    95
100
AcDbTrace
 10
263.644248
 20
275.483659
 30
0.0
 11
263.644248
 21
276.6503259999999
 31
0.0
 12
267.144248
 22
276.066992
 32
0.0
 13
267.144248
 23
276.066992
 33
0.0
  0
SOLID
  5
1A3
330
19C
100
AcDbEntity
  8
0
 62
    95
100
AcDbTrace
 10
240.644248
 20
276.6503259999999
 30
0.0
 11
240.644248
 21
275.483659
 31
0.0
 12
237.144248
 22
276.066992
 32
0.0
 13
237.144248
 23
276.066992
 33
0.0
  0
MTEXT
  5
1A4
330
19C
100
AcDbEntity
  8
0
 62
    95
370
    13
100
AcDbMText
 10
252.144248
 20
281.3169919999999
 30
0.0
 40
3.5
 41
0.0
 71
     5
 72
     1
  1
\A1;30
  7
cesky
 73
     1
 44
1.0
  0
POINT
  5
1A5
330
19C
100
AcDbEntity
  8
Defpoints
 62
     0
100
AcDbPoint
 10
267.144248
 20
251.731161
 30
0.0
  0
POINT
  5
1A6
330
19C
100
AcDbEntity
  8
Defpoints
 62
     0
100
AcDbPoint
 10
237.144248
 20
243.731161
 30
0.0
  0
POINT
  5
1A7
330
19C
100
AcDbEntity
  8
Defpoints
 62
     0
100
AcDbPoint
 10
237.144248
 20
276.066992
 30
0.0
  0
ENDBLK
  5
19E
330
19C
100
AcDbEntity
  8
0
100
AcDbBlockEnd
  0
BLOCK
  5
1AF
330
1A8
100
AcDbEntity
  8
0
100
AcDbBlockBegin
  2
_U4
 70
     0
 10
0.0
 20
0.0
 30
0.0
  3
_U4
  1

  0
ENDBLK
  5
1B0
330
1A8
100
AcDbEntity
  8
0
100
AcDbBlockEnd
  0
ENDSEC
  0
SECTION
  2
ENTITIES
  0
POINT
  5
73
102
{ACAD_REACTORS
330
247
102
}
330
1F
100
AcDbEntity
  8
80
100
AcDbPoint
 10
237.144248
 20
243.731161
 30
0.0
  0
POINT
  5
75
330
1F
100
AcDbEntity
  8
SK6
 60
     1
100
AcDbPoint
 10
208.144248
 20
243.731161
 30
0.0
  0
POINT
  5
77
330
1F
100
AcDbEntity
  8
SK6
 60
     1
100
AcDbPoint
 10
242.144248
 20
243.731161
 30
0.0
  0
POINT
  5
78
330
1F
100
AcDbEntity
  8
SK6
 60
     1
100
AcDbPoint
 10
178.144248
 20
243.731161
 30
0.0
  0
POINT
  5
79
330
1F
100
AcDbEntity
  8
SK6
 60
     1
100
AcDbPoint
 10
208.144248
 20
243.731161
 30
0.0
  0
POINT
  5
7A
330
1F
100
AcDbEntity
  8
SK6
 60
     1
100
AcDbPoint
 10
173.144248
 20
243.731161
 30
0.0
  0
LINE
  5
7B
330
1F
100
AcDbEntity
  8
1
100
AcDbLine
 10
266.909934
 20
236.636145
 30
0.0
 11
266.138708
 21
237.407371
 31
0.0
  0
LINE
  5
7D
330
1F
100
AcDbEntity
  8
1
100
AcDbLine
 10
255.589793
 20
235.690922
 30
0.0
 11
260.36089
 21
230.919825
 31
0.0
  0
LINE
  5
7E
330
1F
100
AcDbEntity
  8
1
100
AcDbLine
 10
254.5709200000001
 20
235.504774
 30
0.0
 11
260.174742
 21
229.900953
 31
0.0
  0
LINE
  5
7F
330
1F
100
AcDbEntity
  8
1
100
AcDbLine
 10
261.1199640000001
 20
230.919825
 30
0.0
 11
265.891061
 21
235.690922
 31
0.0
  0
LINE
  5
80
330
1F
100
AcDbEntity
  8
1
100
AcDbLine
 10
261.306112
 20
229.900953
 30
0.0
 11
266.909934
 21
235.504774
 31
0.0
  0
LINE
  5
81
330
1F
100
AcDbEntity
  8
SK1
100
AcDbLine
 10
178.144248
 20
250.731161
 30
0.0
 11
173.644248
 21
250.731161
 31
0.0
  0
LINE
  5
83
330
1F
100
AcDbEntity
  8
SK1
100
AcDbLine
 10
173.644248
 20
236.731161
 30
0.0
 11
178.144248
 21
236.731161
 31
0.0
  0
LINE
  5
84
330
1F
100
AcDbEntity
  8
SK1
100
AcDbLine
 10
208.144248
 20
251.381161
 30
0.0
 11
198.144248
 21
251.381161
 31
0.0
  0
LINE
  5
85
330
1F
100
AcDbEntity
  8
SK1
100
AcDbLine
 10
198.144248
 20
236.081161
 30
0.0
 11
208.144248
 21
236.081161
 31
0.0
  0
LINE
  5
86
330
1F
100
AcDbEntity
  8
1
100
AcDbLine
 10
247.410158
 20
251.481161
 30
0.0
 11
242.944248
 21
251.481161
 31
0.0
  0
LINE
  5
87
330
1F
100
AcDbEntity
  8
1
100
AcDbLine
 10
242.944248
 20
235.981161
 30
0.0
 11
247.410158
 21
235.981161
 31
0.0
  0
LINE
  5
88
330
1F
100
AcDbEntity
  8
SK1
100
AcDbLine
 10
178.144248
 20
236.31462
 30
0.0
 11
198.144248
 21
235.815142
 31
0.0
  0
LINE
  5
89
330
1F
100
AcDbEntity
  8
SK1
100
AcDbLine
 10
198.144248
 20
251.64718
 30
0.0
 11
178.144248
 21
251.147703
 31
0.0
  0
LINE
  5
8A
330
1F
100
AcDbEntity
  8
SK1
100
AcDbLine
 10
208.144248
 20
235.565404
 30
0.0
 11
242.144248
 21
234.716292
 31
0.0
  0
LINE
  5
8B
330
1F
100
AcDbEntity
  8
SK1
100
AcDbLine
 10
242.144248
 20
252.746031
 30
0.0
 11
208.144248
 21
251.896919
 31
0.0
  0
LINE
  5
8C
330
1F
100
AcDbEntity
  8
1
100
AcDbLine
 10
254.376637
 20
251.142069
 30
0.0
 11
254.043354
 21
251.475353
 31
0.0
  0
LINE
  5
8D
330
1F
100
AcDbEntity
  8
1
100
AcDbLine
 10
262.724324
 20
246.24979
 30
0.0
 11
265.640623
 21
246.24979
 31
0.0
  0
LINE
  5
8E
330
1F
100
AcDbEntity
  8
SK1
100
AcDbLine
 10
173.644248
 20
250.731161
 30
0.0
 11
173.644248
 21
236.731161
 31
0.0
  0
LINE
  5
8F
330
1F
100
AcDbEntity
  8
SK1
100
AcDbLine
 10
173.144248
 20
250.231161
 30
0.0
 11
173.144248
 21
237.231161
 31
0.0
  0
LINE
  5
90
330
1F
100
AcDbEntity
  8
1
100
AcDbLine
 10
254.043354
 20
251.475353
 30
0.0
 11
248.546922
 21
251.475353
 31
0.0
  0
LINE
  5
91
330
1F
100
AcDbEntity
  8
1
100
AcDbLine
 10
254.043354
 20
235.98697
 30
0.0
 11
248.546922
 21
235.98697
 31
0.0
  0
LINE
  5
92
330
1F
100
AcDbEntity
  8
1
100
AcDbLine
 10
254.793713
 20
236.290531
 30
0.0
 11
254.63089
 21
236.127708
 31
0.0
  0
LINE
  5
93
330
1F
100
AcDbEntity
  8
1
100
AcDbLine
 10
254.793713
 20
236.290531
 30
0.0
 11
254.793713
 21
244.80208
 31
0.0
  0
LINE
  5
94
330
1F
100
AcDbEntity
  8
1
100
AcDbLine
 10
254.794866
 20
244.8018
 30
0.0
 11
254.794866
 21
236.291685
 31
0.0
  0
LINE
  5
95
330
1F
100
AcDbEntity
  8
SK1
100
AcDbLine
 10
198.144248
 20
251.64718
 30
0.0
 11
198.144248
 21
243.731161
 31
0.0
  0
LINE
  5
96
330
1F
100
AcDbEntity
  8
SK1
100
AcDbLine
 10
198.144248
 20
243.731161
 30
0.0
 11
198.144248
 21
235.815142
 31
0.0
  0
LINE
  5
97
330
1F
100
AcDbEntity
  8
SK1
100
AcDbLine
 10
178.144248
 20
251.147703
 30
0.0
 11
178.144248
 21
243.731161
 31
0.0
  0
LINE
  5
98
330
1F
100
AcDbEntity
  8
SK1
100
AcDbLine
 10
178.144248
 20
243.731161
 30
0.0
 11
178.144248
 21
236.31462
 31
0.0
  0
LINE
  5
99
330
1F
100
AcDbEntity
  8
1
100
AcDbLine
 10
266.138781
 20
250.05501
 30
0.0
 11
266.138781
 21
244.450671
 31
0.0
  0
LINE
  5
9A
330
1F
100
AcDbEntity
  8
1
100
AcDbLine
 10
242.944248
 20
235.981161
 30
0.0
 11
242.944248
 21
243.731161
 31
0.0
  0
LINE
  5
9B
330
1F
100
AcDbEntity
  8
1
100
AcDbLine
 10
242.944248
 20
243.731161
 30
0.0
 11
242.944248
 21
251.481161
 31
0.0
  0
LINE
  5
9C
330
1F
100
AcDbEntity
  8
SK1
100
AcDbLine
 10
242.144248
 20
252.746031
 30
0.0
 11
242.144248
 21
243.731161
 31
0.0
  0
LINE
  5
9D
330
1F
100
AcDbEntity
  8
SK1
100
AcDbLine
 10
242.144248
 20
243.731161
 30
0.0
 11
242.144248
 21
234.716292
 31
0.0
  0
LINE
  5
9E
330
1F
100
AcDbEntity
  8
SK1
100
AcDbLine
 10
208.144248
 20
251.896919
 30
0.0
 11
208.144248
 21
243.731161
 31
0.0
  0
LINE
  5
9F
330
1F
100
AcDbEntity
  8
SK1
100
AcDbLine
 10
208.144248
 20
243.731161
 30
0.0
 11
208.144248
 21
235.565404
 31
0.0
  0
LINE
  5
A0
330
1F
100
AcDbEntity
  8
1
100
AcDbLine
 10
260.525337
 20
230.956643
 30
0.0
 11
260.955517
 21
230.956643
 31
0.0
  0
LINE
  5
A1
330
1F
100
AcDbEntity
  8
1
100
AcDbLine
 10
254.818358
 20
244.796128
 30
0.0
 11
254.818358
 21
236.315176
 31
0.0
  0
LINE
  5
A2
330
1F
100
AcDbEntity
  8
1
100
AcDbLine
 10
260.525337
 20
230.956643
 30
0.0
 11
260.525337
 21
234.840706
 31
0.0
  0
LINE
  5
A3
330
1F
100
AcDbEntity
  8
1
100
AcDbLine
 10
260.525337
 20
244.44979
 30
0.0
 11
260.955517
 21
244.44979
 31
0.0
  0
LINE
  5
A4
330
1F
100
AcDbEntity
  8
1
100
AcDbLine
 10
260.525337
 20
237.708623
 30
0.0
 11
260.525337
 21
244.44979
 31
0.0
  0
LINE
  5
A5
330
1F
100
AcDbEntity
  8
1
100
AcDbLine
 10
266.138781
 20
236.139908
 30
0.0
 11
266.138781
 21
244.44979
 31
0.0
  0
LINE
  5
A6
330
1F
100
AcDbEntity
  8
1
100
AcDbLine
 10
260.955517
 20
244.44979
 30
0.0
 11
260.955517
 21
237.708623
 31
0.0
  0
LINE
  5
A7
330
1F
100
AcDbEntity
  8
1
100
AcDbLine
 10
260.955517
 20
234.840706
 30
0.0
 11
260.955517
 21
230.956643
 31
0.0
  0
LINE
  5
A8
330
1F
100
AcDbEntity
  8
1
100
AcDbLine
 10
260.174742
 20
245.222357
 30
0.0
 11
254.5709200000001
 21
250.826178
 31
0.0
  0
LINE
  5
A9
330
1F
100
AcDbEntity
  8
1
100
AcDbLine
 10
266.909934
 20
250.826178
 30
0.0
 11
261.306112
 21
245.222357
 31
0.0
  0
LINE
  5
AA
330
1F
100
AcDbEntity
  8
1
100
AcDbLine
 10
254.5709200000001
 20
251.957549
 30
0.0
 11
260.174742
 21
257.56137
 31
0.0
  0
LINE
  5
AB
330
1F
100
AcDbEntity
  8
1
100
AcDbLine
 10
257.740427
 20
246.24979
 30
0.0
 11
258.75653
 21
246.24979
 31
0.0
  0
LINE
  5
AC
330
1F
100
AcDbEntity
  8
1
100
AcDbLine
 10
257.740427
 20
244.44979
 30
0.0
 11
257.740427
 21
246.24979
 31
0.0
  0
LINE
  5
AD
330
1F
100
AcDbEntity
  8
1
100
AcDbLine
 10
261.306112
 20
257.56137
 30
0.0
 11
266.909934
 21
251.957549
 31
0.0
  0
LINE
  5
AE
330
1F
100
AcDbEntity
  8
81
100
AcDbLine
 10
265.144248
 20
251.731161
 30
0.0
 11
269.144248
 21
251.731161
 31
0.0
  0
LINE
  5
AF
330
1F
100
AcDbEntity
  8
81
100
AcDbLine
 10
267.144248
 20
249.731161
 30
0.0
 11
267.144248
 21
253.731161
 31
0.0
  0
LINE
  5
B3
330
1F
100
AcDbEntity
  8
80
100
AcDbLine
 10
236.144675
 20
243.731161
 30
0.0
 11
238.143822
 21
243.731161
 31
0.0
  0
LINE
  5
B5
330
1F
100
AcDbEntity
  8
80
100
AcDbLine
 10
237.144248
 20
242.731588
 30
0.0
 11
237.144248
 21
244.730735
 31
0.0
  0
LINE
  5
B7
330
1F
100
AcDbEntity
  8
NOCUT
100
AcDbLine
 10
214.626854
 20
243.731161
 30
0.0
 11
265.418714
 21
243.731161
 31
0.0
  0
LINE
  5
B9
330
1F
100
AcDbEntity
  8
NOCUT
100
AcDbLine
 10
212.144248
 20
248.031161
 30
0.0
 11
180.144248
 21
248.031161
 31
0.0
  0
LINE
  5
BA
330
1F
100
AcDbEntity
  8
NOCUT
100
AcDbLine
 10
180.144248
 20
248.031161
 30
0.0
 11
180.144248
 21
248.981161
 31
0.0
  0
LINE
  5
BB
330
1F
100
AcDbEntity
  8
NOCUT
100
AcDbLine
 10
180.144248
 20
248.981161
 30
0.0
 11
174.876299
 21
248.981161
 31
0.0
  0
LINE
  5
BC
330
1F
100
AcDbEntity
  8
NOCUT
100
AcDbLine
 10
174.876299
 20
248.981161
 30
0.0
 11
173.360755
 21
249.856161
 31
0.0
  0
LINE
  5
BD
330
1F
100
AcDbEntity
  8
NOCUT
100
AcDbLine
 10
173.360755
 20
249.856161
 30
0.0
 11
173.144248
 21
250.231161
 31
0.0
  0
LINE
  5
BE
330
1F
100
AcDbEntity
  8
NOCUT
100
AcDbLine
 10
173.644248
 20
250.731161
 30
0.0
 11
178.144248
 21
250.731161
 31
0.0
  0
LINE
  5
BF
330
1F
100
AcDbEntity
  8
NOCUT
100
AcDbLine
 10
178.144248
 20
250.731161
 30
0.0
 11
178.144248
 21
251.147703
 31
0.0
  0
LINE
  5
C0
330
1F
100
AcDbEntity
  8
NOCUT
100
AcDbLine
 10
178.144248
 20
251.147703
 30
0.0
 11
198.144248
 21
251.64718
 31
0.0
  0
LINE
  5
C1
330
1F
100
AcDbEntity
  8
NOCUT
100
AcDbLine
 10
198.144248
 20
251.64718
 30
0.0
 11
198.144248
 21
251.381161
 31
0.0
  0
LINE
  5
C2
330
1F
100
AcDbEntity
  8
NOCUT
100
AcDbLine
 10
198.144248
 20
251.381161
 30
0.0
 11
208.144248
 21
251.381161
 31
0.0
  0
LINE
  5
C3
330
1F
100
AcDbEntity
  8
NOCUT
100
AcDbLine
 10
208.144248
 20
251.381161
 30
0.0
 11
208.144248
 21
251.896919
 31
0.0
  0
LINE
  5
C4
330
1F
100
AcDbEntity
  8
NOCUT
100
AcDbLine
 10
208.144248
 20
251.896919
 30
0.0
 11
242.144248
 21
252.746031
 31
0.0
  0
LINE
  5
C5
330
1F
100
AcDbEntity
  8
NOCUT
100
AcDbLine
 10
242.144248
 20
252.746031
 30
0.0
 11
242.144248
 21
252.281161
 31
0.0
  0
LINE
  5
C6
330
1F
100
AcDbEntity
  8
NOCUT
100
AcDbLine
 10
242.944248
 20
251.481161
 30
0.0
 11
254.793713
 21
251.481161
 31
0.0
  0
LINE
  5
C7
330
1F
100
AcDbEntity
  8
NOCUT
100
AcDbLine
 10
254.793713
 20
251.481161
 30
0.0
 11
254.794866
 21
251.482315
 31
0.0
  0
LINE
  5
C8
330
1F
100
AcDbEntity
  8
NOCUT
100
AcDbLine
 10
260.525337
 20
256.895534
 30
0.0
 11
260.955517
 21
256.895534
 31
0.0
  0
LINE
  5
C9
330
1F
100
AcDbEntity
  8
NOCUT
100
AcDbLine
 10
266.138781
 20
251.961564
 30
0.0
 11
265.418714
 21
243.731161
 31
0.0
  0
LINE
  5
CA
330
1F
100
AcDbEntity
  8
NOCUT
100
AcDbLine
 10
214.626854
 20
243.731161
 30
0.0
 11
212.144248
 21
248.031161
 31
0.0
  0
CIRCLE
  5
D0
330
1F
100
AcDbEntity
  8
1
100
AcDbCircle
 10
260.740427
 20
251.187658
 30
0.0
 40
2.75
  0
ARC
  5
D2
330
1F
100
AcDbEntity
  8
1
100
AcDbCircle
 10
261.223349
 20
249.753648
 30
0.0
 40
0.0953174225105372
100
AcDbArc
 50
156.226117
 51
195.0
  0
ARC
  5
D3
330
1F
100
AcDbEntity
  8
1
100
AcDbCircle
 10
261.03921
 20
249.704308
 30
0.0
 40
0.0953174225105371
100
AcDbArc
 50
306.226117
 51
15.0
  0
ARC
  5
D4
330
1F
100
AcDbEntity
  8
1
100
AcDbCircle
 10
260.740427
 20
250.112153
 30
0.0
 40
0.6008944156305271
100
AcDbArc
 50
233.773883
 51
306.226117
  0
ARC
  5
D5
330
1F
100
AcDbEntity
  8
1
100
AcDbCircle
 10
260.441644
 20
249.704308
 30
0.0
 40
0.0953174225105393
100
AcDbArc
 50
165.0
 51
233.773883
  0
ARC
  5
D6
330
1F
100
AcDbEntity
  8
1
100
AcDbCircle
 10
260.257505
 20
249.753648
 30
0.0
 40
0.0953174225105393
100
AcDbArc
 50
345.0
 51
23.773883
  0
ARC
  5
D7
330
1F
100
AcDbEntity
  8
1
100
AcDbCircle
 10
259.79483
 20
249.549836
 30
0.0
 40
0.6008944156305267
100
AcDbArc
 50
23.773883
 51
96.226117
  0
ARC
  5
D8
330
1F
100
AcDbEntity
  8
1
100
AcDbCircle
 10
259.739999
 20
250.052431
 30
0.0
 40
0.0953174225105372
100
AcDbArc
 50
96.226117
 51
135.0
  0
ARC
  5
D9
330
1F
100
AcDbEntity
  8
1
100
AcDbCircle
 10
259.6052
 20
250.18723
 30
0.0
 40
0.0953174225105371
100
AcDbArc
 50
246.226117
 51
315.0
  0
ARC
  5
DA
330
1F
100
AcDbEntity
  8
1
100
AcDbCircle
 10
259.809012
 20
250.649906
 30
0.0
 40
0.6008944156305271
100
AcDbArc
 50
173.773883
 51
246.226117
  0
ARC
  5
DB
330
1F
100
AcDbEntity
  8
1
100
AcDbCircle
 10
259.306417
 20
250.704737
 30
0.0
 40
0.0953174225105393
100
AcDbArc
 50
105.0
 51
173.773883
  0
ARC
  5
DC
330
1F
100
AcDbEntity
  8
1
100
AcDbCircle
 10
259.257077
 20
250.888876
 30
0.0
 40
0.0953174225105393
100
AcDbArc
 50
285.0
 51
323.773883
  0
ARC
  5
DD
330
1F
100
AcDbEntity
  8
1
100
AcDbCircle
 10
258.849233
 20
251.187658
 30
0.0
 40
0.6008944156305267
100
AcDbArc
 50
323.773883
 51
36.226117
  0
ARC
  5
DE
330
1F
100
AcDbEntity
  8
1
100
AcDbCircle
 10
259.257077
 20
251.486441
 30
0.0
 40
0.0953174225105372
100
AcDbArc
 50
36.226117
 51
75.0
  0
ARC
  5
DF
330
1F
100
AcDbEntity
  8
1
100
AcDbCircle
 10
259.306417
 20
251.67058
 30
0.0
 40
0.0953174225105371
100
AcDbArc
 50
186.226117
 51
255.0
  0
ARC
  5
E0
330
1F
100
AcDbEntity
  8
1
100
AcDbCircle
 10
259.809012
 20
251.725411
 30
0.0
 40
0.6008944156305271
100
AcDbArc
 50
113.773883
 51
186.226117
  0
ARC
  5
E1
330
1F
100
AcDbEntity
  8
1
100
AcDbCircle
 10
259.6052
 20
252.188087
 30
0.0
 40
0.0953174225105393
100
AcDbArc
 50
45.0
 51
113.773883
  0
ARC
  5
E2
330
1F
100
AcDbEntity
  8
1
100
AcDbCircle
 10
259.739999
 20
252.322886
 30
0.0
 40
0.0953174225105393
100
AcDbArc
 50
225.0
 51
263.773883
  0
ARC
  5
E3
330
1F
100
AcDbEntity
  8
1
100
AcDbCircle
 10
259.79483
 20
252.825481
 30
0.0
 40
0.6008944156305267
100
AcDbArc
 50
263.773883
 51
336.226117
  0
ARC
  5
E4
330
1F
100
AcDbEntity
  8
1
100
AcDbCircle
 10
260.257505
 20
252.621668
 30
0.0
 40
0.0953174225105372
100
AcDbArc
 50
336.226117
 51
15.0
  0
ARC
  5
E5
330
1F
100
AcDbEntity
  8
1
100
AcDbCircle
 10
260.441644
 20
252.671008
 30
0.0
 40
0.0953174225105371
100
AcDbArc
 50
126.226117
 51
195.0
  0
ARC
  5
E6
330
1F
100
AcDbEntity
  8
1
100
AcDbCircle
 10
260.740427
 20
252.263164
 30
0.0
 40
0.6008944156305271
100
AcDbArc
 50
53.77388299999999
 51
126.226117
  0
ARC
  5
E7
330
1F
100
AcDbEntity
  8
1
100
AcDbCircle
 10
261.03921
 20
252.671008
 30
0.0
 40
0.0953174225105393
100
AcDbArc
 50
345.0
 51
53.77388299999999
  0
ARC
  5
E8
330
1F
100
AcDbEntity
  8
1
100
AcDbCircle
 10
255.136606
 20
236.070459
 30
0.0
 40
0.8000000000000007
100
AcDbArc
 50
182.223257
 51
225.0
  0
ARC
  5
E9
330
1F
100
AcDbEntity
  8
1
100
AcDbCircle
 10
260.740427
 20
230.466638
 30
0.0
 40
0.8000000000000007
100
AcDbArc
 50
225.0
 51
315.0
  0
ARC
  5
EA
330
1F
100
AcDbEntity
  8
1
100
AcDbCircle
 10
261.223349
 20
252.621668
 30
0.0
 40
0.0953174225105393
100
AcDbArc
 50
165.0
 51
203.773883
  0
ARC
  5
EB
330
1F
100
AcDbEntity
  8
1
100
AcDbCircle
 10
261.686024
 20
252.825481
 30
0.0
 40
0.6008944156305267
100
AcDbArc
 50
203.773883
 51
276.226117
  0
ARC
  5
EC
330
1F
100
AcDbEntity
  8
1
100
AcDbCircle
 10
261.7408549999999
 20
252.322886
 30
0.0
 40
0.0953174225105372
100
AcDbArc
 50
276.226117
 51
315.0
  0
ARC
  5
ED
330
1F
100
AcDbEntity
  8
1
100
AcDbCircle
 10
261.875655
 20
252.188087
 30
0.0
 40
0.0953174225105371
100
AcDbArc
 50
66.226117
 51
135.0
  0
ARC
  5
EE
330
1F
100
AcDbEntity
  8
1
100
AcDbCircle
 10
261.671842
 20
251.725411
 30
0.0
 40
0.6008944156305271
100
AcDbArc
 50
353.773883
 51
66.226117
  0
ARC
  5
EF
330
1F
100
AcDbEntity
  8
1
100
AcDbCircle
 10
262.174437
 20
251.67058
 30
0.0
 40
0.0953174225105393
100
AcDbArc
 50
285.0
 51
353.773883
  0
ARC
  5
F0
330
1F
100
AcDbEntity
  8
1
100
AcDbCircle
 10
262.223777
 20
251.486441
 30
0.0
 40
0.0953174225105393
100
AcDbArc
 50
105.0
 51
143.773883
  0
ARC
  5
F1
330
1F
100
AcDbEntity
  8
1
100
AcDbCircle
 10
262.631621
 20
251.187658
 30
0.0
 40
0.6008944156305267
100
AcDbArc
 50
143.773883
 51
216.226117
  0
ARC
  5
F2
330
1F
100
AcDbEntity
  8
1
100
AcDbCircle
 10
262.223777
 20
250.888876
 30
0.0
 40
0.0953174225105372
100
AcDbArc
 50
216.226117
 51
255.0
  0
ARC
  5
F3
330
1F
100
AcDbEntity
  8
1
100
AcDbCircle
 10
262.174437
 20
250.704737
 30
0.0
 40
0.0953174225105371
100
AcDbArc
 50
6.226116999999999
 51
75.0
  0
ARC
  5
F4
330
1F
100
AcDbEntity
  8
1
100
AcDbCircle
 10
261.671842
 20
250.649906
 30
0.0
 40
0.6008944156305271
100
AcDbArc
 50
293.773883
 51
6.226116999999999
  0
ARC
  5
F5
330
1F
100
AcDbEntity
  8
1
100
AcDbCircle
 10
261.875655
 20
250.18723
 30
0.0
 40
0.0953174225105393
100
AcDbArc
 50
225.0
 51
293.773883
  0
ARC
  5
F6
330
1F
100
AcDbEntity
  8
1
100
AcDbCircle
 10
261.7408549999999
 20
250.052431
 30
0.0
 40
0.0953174225105393
100
AcDbArc
 50
45.0
 51
83.77388299999999
  0
ARC
  5
F7
330
1F
100
AcDbEntity
  8
1
100
AcDbCircle
 10
261.686024
 20
249.549836
 30
0.0
 40
0.6008944156305267
100
AcDbArc
 50
83.77388299999999
 51
156.226117
  0
CIRCLE
  5
F8
330
1F
100
AcDbEntity
  8
1
100
AcDbCircle
 10
260.740427
 20
251.187658
 30
0.0
 40
1.8
  0
CIRCLE
  5
F9
330
1F
100
AcDbEntity
  8
1
100
AcDbCircle
 10
260.740427
 20
236.274664
 30
0.0
 40
1.349999999999999
  0
ARC
  5
FA
330
1F
100
AcDbEntity
  8
1
100
AcDbCircle
 10
266.344248
 20
236.070459
 30
0.0
 40
0.8000000000000007
100
AcDbArc
 50
315.0
 51
45.0
  0
ARC
  5
FB
330
1F
100
AcDbEntity
  8
SK1
100
AcDbCircle
 10
173.644248
 20
237.231161
 30
0.0
 40
0.5
100
AcDbArc
 50
180.0
 51
270.0
  0
ARC
  5
FC
330
1F
100
AcDbEntity
  8
SK1
100
AcDbCircle
 10
173.644248
 20
250.231161
 30
0.0
 40
0.5
100
AcDbArc
 50
90.0
 51
180.0
  0
ARC
  5
FD
330
1F
100
AcDbEntity
  8
1
100
AcDbCircle
 10
242.944248
 20
252.281161
 30
0.0
 40
0.8
100
AcDbArc
 50
180.0
 51
270.0
  0
ARC
  5
FE
330
1F
100
AcDbEntity
  8
1
100
AcDbCircle
 10
242.944248
 20
235.181161
 30
0.0
 40
0.8
100
AcDbArc
 50
90.0
 51
180.0
  0
ARC
  5
FF
330
1F
100
AcDbEntity
  8
1
100
AcDbCircle
 10
257.740427
 20
256.94979
 30
0.0
 40
10.7
100
AcDbArc
 50
210.772444
 51
270.0
  0
CIRCLE
  5
100
330
1F
100
AcDbEntity
  8
1
100
AcDbCircle
 10
260.740427
 20
251.391863
 30
0.0
 40
3.0
  0
ARC
  5
101
330
1F
100
AcDbEntity
  8
1
100
AcDbCircle
 10
255.136606
 20
251.391863
 30
0.0
 40
0.8000000000000007
100
AcDbArc
 50
135.0
 51
225.0
  0
CIRCLE
  5
102
330
1F
100
AcDbEntity
  8
1
100
AcDbCircle
 10
260.740427
 20
251.391863
 30
0.0
 40
3.139298314759687
  0
ARC
  5
103
330
1F
100
AcDbEntity
  8
1
100
AcDbCircle
 10
260.740427
 20
256.995684
 30
0.0
 40
0.8000000000000007
100
AcDbArc
 50
45.0
 51
135.0
  0
ARC
  5
104
330
1F
100
AcDbEntity
  8
1
100
AcDbCircle
 10
266.344248
 20
251.391863
 30
0.0
 40
0.8000000000000007
100
AcDbArc
 50
315.0
 51
45.0
  0
ARC
  5
105
330
1F
100
AcDbEntity
  8
1
100
AcDbCircle
 10
260.740427
 20
246.503076
 30
0.0
 40
2.0
100
AcDbArc
 50
175.753338
 51
187.275634
  0
ARC
  5
106
330
1F
100
AcDbEntity
  8
1
100
AcDbCircle
 10
260.740427
 20
246.503076
 30
0.0
 40
2.0
100
AcDbArc
 50
352.724366
 51
4.246662
  0
ARC
  5
107
330
1F
100
AcDbEntity
  8
1
100
AcDbCircle
 10
260.740427
 20
245.788042
 30
0.0
 40
0.8000000000000007
100
AcDbArc
 50
225.0
 51
315.0
  0
ARC
  5
10C
330
1F
100
AcDbEntity
  8
NOCUT
100
AcDbCircle
 10
173.644248
 20
250.231161
 30
0.0
 40
0.5
100
AcDbArc
 50
90.0
 51
180.0
  0
ARC
  5
10D
330
1F
100
AcDbEntity
  8
NOCUT
100
AcDbCircle
 10
242.944248
 20
252.281161
 30
0.0
 40
0.8
100
AcDbArc
 50
180.0
 51
270.0
  0
ELLIPSE
  5
10E
330
1F
100
AcDbEntity
  8
1
100
AcDbEllipse
 10
261.675846
 20
243.731161
 30
0.0
 11
-8.155881030164874
 21
7.610122975381866
 31
0.0
210
0.0
220
0.0
230
1.0
 40
0.179721
 41
5.970226833940481
 42
6.054186143730665
  0
ELLIPSE
  5
10F
330
1F
100
AcDbEntity
  8
1
100
AcDbEllipse
 10
261.675846
 20
243.731161
 30
0.0
 11
-8.155881030923923
 21
-7.610122976171838
 31
0.0
210
0.0
220
0.0
230
1.0
 40
0.179721
 41
0.2289991634370731
 42
0.3850574548702431
  0
SPLINE
  5
110
330
1F
100
AcDbEntity
  8
1
100
AcDbSpline
210
0.0
220
0.0
230
1.0
 70
     8
 71
     3
 72
    16
 73
    12
 74
     0
 42
0.000000001
 43
0.0000000001
 40
0.0
 40
0.0
 40
0.0
 40
0.0
 40
0.0270000481444464
 40
0.0270000481444464
 40
0.3513333654296215
 40
0.3513333654296215
 40
0.5135000240722129
 40
0.5135000240722129
 40
0.6756666827148043
 40
0.6756666827148043
 40
1.0
 40
1.0
 40
1.0
 40
1.0
 10
255.4991546813635
 20
235.9800628321557
 30
0.0
 10
255.4994644809005
 20
235.9773391499366
 30
0.0
 10
255.4997882887345
 20
235.9746168200831
 30
0.0
 10
255.5041839164549
 20
235.9392111081882
 30
0.0
 10
255.5102843192331
 20
235.9066763871133
 30
0.0
 10
255.5223656072853
 20
235.858791526112
 30
0.0
 10
255.5268844734699
 20
235.8429557818467
 30
0.0
 10
255.5369107621944
 20
235.8115373293804
 30
0.0
 10
255.5424210833371
 20
235.7959531520468
 30
0.0
 10
255.5603269402048
 20
235.7498917850324
 30
0.0
 10
255.5741232958275
 20
235.7199974499856
 30
0.0
 10
255.5897927448362
 20
235.6909224713495
 30
0.0
  0
SPLINE
  5
111
330
1F
100
AcDbEntity
  8
1
100
AcDbSpline
210
0.0
220
0.0
230
1.0
 70
     8
 71
     3
 72
    27
 73
    23
 74
     0
 42
0.000000001
 43
0.0000000001
 40
0.0
 40
0.0
 40
0.0
 40
0.0
 40
0.1249999999999961
 40
0.1249999999999961
 40
0.1874999999999942
 40
0.1874999999999942
 40
0.2499999999999923
 40
0.3124999999999903
 40
0.3124999999999903
 40
0.3749999999999885
 40
0.3749999999999885
 40
0.4999999999999977
 40
0.4999999999999977
 40
0.625000000000007
 40
0.625000000000007
 40
0.7500000000000161
 40
0.7500000000000161
 40
0.8125000000000152
 40
0.8125000000000152
 40
0.8750000000000143
 40
0.8750000000000143
 40
1.0
 40
1.0
 40
1.0
 40
1.0
 10
260.3608901271822
 20
230.9198250890034
 30
0.0
 10
260.3899651058184
 20
230.9041556399947
 30
0.0
 10
260.4198573034494
 20
230.8903604354149
 30
0.0
 10
260.4659117463727
 20
230.8724567900468
 30
0.0
 10
260.4814935872582
 20
230.8669469763016
 30
0.0
 10
260.5129143595964
 20
230.8569194821829
 30
0.0
 10
260.544582672908
 20
230.8478824636154
 30
0.0
 10
260.5767430370277
 20
230.8408142677778
 30
0.0
 10
260.6091507352354
 20
230.8347357196885
 30
0.0
 10
260.6254862602806
 20
230.83219228789
 30
0.0
 10
260.6745311017008
 20
230.8261015398905
 30
0.0
 10
260.7073871067947
 20
230.8240644620384
 30
0.0
 10
260.7734200048349
 20
230.8240625232899
 30
0.0
 10
260.8063057742102
 20
230.8261006151389
 30
0.0
 10
260.8716753241569
 20
230.8342162606221
 30
0.0
 10
260.9042100452319
 20
230.8403166634002
 30
0.0
 10
260.9520949062332
 20
230.8523979514525
 30
0.0
 10
260.9679306504984
 20
230.8569168176371
 30
0.0
 10
260.9993491029647
 20
230.8669431063616
 30
0.0
 10
261.0149332802983
 20
230.8724534275043
 30
0.0
 10
261.0609946473127
 20
230.890359284372
 30
0.0
 10
261.0908889823595
 20
230.9041556399947
 30
0.0
 10
261.1199639609957
 20
230.9198250890034
 30
0.0
  0
SPLINE
  5
112
330
1F
100
AcDbEntity
  8
1
100
AcDbSpline
210
0.0
220
0.0
230
1.0
 70
     8
 71
     3
 72
    40
 73
    36
 74
     0
 42
0.000000001
 43
0.0000000001
 40
0.0
 40
0.0
 40
0.0
 40
0.0
 40
0.0009765625000002
 40
0.0009765625000002
 40
0.0019531250000004
 40
0.0019531250000004
 40
0.00390625
 40
0.00390625
 40
0.0078124999999996
 40
0.0078124999999996
 40
0.0156249999999993
 40
0.0156249999999993
 40
0.0234374999999991
 40
0.0234374999999991
 40
0.031249999999999
 40
0.031249999999999
 40
0.0468749999999993
 40
0.0468749999999993
 40
0.0624999999999997
 40
0.0624999999999997
 40
0.0937499999999996
 40
0.0937499999999996
 40
0.1249999999999993
 40
0.1249999999999993
 40
0.187499999999999
 40
0.187499999999999
 40
0.2499999999999987
 40
0.2499999999999987
 40
0.3749999999999989
 40
0.3749999999999989
 40
0.4999999999999992
 40
0.4999999999999992
 40
0.7499999999999996
 40
0.7499999999999996
 40
1.0
 40
1.0
 40
1.0
 40
1.0
 10
254.5709203782362
 20
235.5047739633069
 30
0.0
 10
254.5701367891282
 20
235.505557552415
 30
0.0
 10
254.5694089021866
 20
235.5063716833228
 30
0.0
 10
254.5681631795101
 20
235.5079534903736
 30
0.0
 10
254.5676597694903
 20
235.508698351027
 30
0.0
 10
254.5664358933
 20
235.5107656913597
 30
0.0
 10
254.5659854306573
 20
235.5119256213266
 30
0.0
 10
254.5651213880437
 20
235.5149612009057
 30
0.0
 10
254.5651443499733
 20
235.5165016373105
 30
0.0
 10
254.5657029786528
 20
235.5206517661579
 30
0.0
 10
254.5668167944139
 20
235.5227389024799
 30
0.0
 10
254.569426079639
 20
235.5265210149524
 30
0.0
 10
254.5709768876505
 20
235.528170933124
 30
0.0
 10
254.5743218501986
 20
235.53122445553
 30
0.0
 10
254.5761222197595
 20
235.5326221427734
 30
0.0
 10
254.5817599982653
 20
235.5365715118376
 30
0.0
 10
254.5858303743931
 20
235.5388850306726
 30
0.0
 10
254.5942863346422
 20
235.5431799046473
 30
0.0
 10
254.5986803994882
 20
235.5451543329779
 30
0.0
 10
254.6121727499778
 20
235.5507467598147
 30
0.0
 10
254.6215778138021
 20
235.5540417210862
 30
0.0
 10
254.6408103425531
 20
235.5601755949495
 30
0.0
 10
254.6506485171136
 20
235.5630052192267
 30
0.0
 10
254.680583495325
 20
235.5710379516289
 30
0.0
 10
254.701093537668
 20
235.5757943794591
 30
0.0
 10
254.7426942271276
 20
235.5846725474731
 30
0.0
 10
254.7637968127505
 20
235.5887811350442
 30
0.0
 10
254.8276872598837
 20
235.6004697336281
 30
0.0
 10
254.8710423362804
 20
235.6074245333873
 30
0.0
 10
254.9585626297801
 20
235.6204405806973
 30
0.0
 10
255.0027430650084
 20
235.6264836378094
 30
0.0
 10
255.1360964426614
 20
235.6437116772018
 30
0.0
 10
255.2260661583068
 20
235.6540134255648
 30
0.0
 10
255.4071435244149
 20
235.6733440262116
 30
0.0
 10
255.498275444007
 20
235.6823480421784
 30
0.0
 10
255.5897927448362
 20
235.6909224713495
 30
0.0
  0
SPLINE
  5
113
330
1F
100
AcDbEntity
  8
1
100
AcDbSpline
210
0.0
220
0.0
230
1.0
 70
     8
 71
     3
 72
    42
 73
    38
 74
     0
 42
0.000000001
 43
0.0000000001
 40
0.0
 40
0.0
 40
0.0
 40
0.0
 40
0.0009765625000005
 40
0.0009765625000005
 40
0.001953125000001
 40
0.001953125000001
 40
0.0039062500000006
 40
0.0039062500000006
 40
0.0058593750000002
 40
0.0058593750000002
 40
0.0078124999999998
 40
0.0078124999999998
 40
0.0156250000000002
 40
0.0156250000000002
 40
0.0234375000000006
 40
0.0234375000000006
 40
0.031250000000001
 40
0.031250000000001
 40
0.0468750000000014
 40
0.0468750000000014
 40
0.0625000000000017
 40
0.0625000000000017
 40
0.0937500000000017
 40
0.0937500000000017
 40
0.1250000000000017
 40
0.1250000000000017
 40
0.1875000000000016
 40
0.1875000000000016
 40
0.2500000000000015
 40
0.2500000000000015
 40
0.3750000000000012
 40
0.3750000000000012
 40
0.5000000000000009
 40
0.5000000000000009
 40
0.7500000000000006
 40
0.7500000000000006
 40
1.0
 40
1.0
 40
1.0
 40
1.0
 10
260.1747416191397
 20
229.9009527224035
 30
0.0
 10
260.1755355607069
 20
229.9001587808364
 30
0.0
 10
260.1763614976714
 20
229.8994217462654
 30
0.0
 10
260.177958177348
 20
229.8981684874686
 30
0.0
 10
260.1787238106731
 20
229.8976542325919
 30
0.0
 10
260.1808073827737
 20
229.8964322535122
 30
0.0
 10
260.1819665742449
 20
229.8959904505972
 30
0.0
 10
260.1839978692331
 20
229.8954256978184
 30
0.0
 10
260.1848912842515
 20
229.8953051296247
 30
0.0
 10
260.1865162157545
 20
229.8952300368242
 30
0.0
 10
260.1872508030832
 20
229.895277227108
 30
0.0
 10
260.1906920195214
 20
229.8957653048682
 30
0.0
 10
260.1927795900249
 20
229.8968886382648
 30
0.0
 10
260.1965606250142
 20
229.8995193757229
 30
0.0
 10
260.1982058695904
 20
229.901075443731
 30
0.0
 10
260.2012518909496
 20
229.9044274889145
 30
0.0
 10
260.2026462491467
 20
229.9062297649876
 30
0.0
 10
260.2065881085614
 20
229.9118733104088
 30
0.0
 10
260.20889906483
 20
229.9159467138185
 30
0.0
 10
260.2131929203736
 20
229.9244154603056
 30
0.0
 10
260.215166895849
 20
229.9288151846526
 30
0.0
 10
260.2207560383686
 20
229.9423175285451
 30
0.0
 10
260.224047743096
 20
229.9517227738239
 30
0.0
 10
260.2301767627758
 20
229.970955532775
 30
0.0
 10
260.233004195019
 20
229.980792230532
 30
0.0
 10
260.2410319368564
 20
230.0107247456353
 30
0.0
 10
260.2457866927376
 20
230.031234619939
 30
0.0
 10
260.2546634601543
 20
230.0728423833939
 30
0.0
 10
260.2587711514193
 20
230.0939463293005
 30
0.0
 10
260.2704562782075
 20
230.1578329950704
 30
0.0
 10
260.277408815114
 20
230.2011810655392
 30
0.0
 10
260.2904207334674
 20
230.288684423764
 30
0.0
 10
260.2964620807032
 20
230.3328560105043
 30
0.0
 10
260.3136857794652
 20
230.4661844839289
 30
0.0
 10
260.3239855741331
 20
230.5561390090815
 30
0.0
 10
260.3433137811678
 20
230.7371971110564
 30
0.0
 10
260.352316719958
 20
230.8283186957006
 30
0.0
 10
260.3608901271822
 20
230.9198250890034
 30
0.0
  0
SPLINE
  5
114
330
1F
100
AcDbEntity
  8
1
100
AcDbSpline
210
0.0
220
0.0
230
1.0
 70
     8
 71
     3
 72
    40
 73
    36
 74
     0
 42
0.000000001
 43
0.0000000001
 40
0.0
 40
0.0
 40
0.0
 40
0.0
 40
0.0009765624999999
 40
0.0009765624999999
 40
0.0019531249999997
 40
0.0019531249999997
 40
0.0039062499999993
 40
0.0039062499999993
 40
0.0078124999999998
 40
0.0078124999999998
 40
0.0156249999999998
 40
0.0156249999999998
 40
0.0234374999999998
 40
0.0234374999999998
 40
0.0312499999999998
 40
0.0312499999999998
 40
0.046875
 40
0.046875
 40
0.0625000000000002
 40
0.0625000000000002
 40
0.0937500000000004
 40
0.0937500000000004
 40
0.1250000000000006
 40
0.1250000000000006
 40
0.1875000000000006
 40
0.1875000000000006
 40
0.2500000000000006
 40
0.2500000000000006
 40
0.3750000000000003
 40
0.3750000000000003
 40
0.5000000000000002
 40
0.5000000000000002
 40
0.7500000000000001
 40
0.7500000000000001
 40
1.0
 40
1.0
 40
1.0
 40
1.0
 10
261.3061124690382
 20
229.9009527224035
 30
0.0
 10
261.3053288799301
 20
229.9001691332954
 30
0.0
 10
261.3045147490223
 20
229.8994412463536
 30
0.0
 10
261.3029329419715
 20
229.8981955236771
 30
0.0
 10
261.3021880813181
 20
229.8976921136576
 30
0.0
 10
261.3001207409854
 20
229.8964682374673
 30
0.0
 10
261.2989608110183
 20
229.8960177748244
 30
0.0
 10
261.2959252314393
 20
229.8951537322108
 30
0.0
 10
261.2943847950345
 20
229.8951766941404
 30
0.0
 10
261.2902346661871
 20
229.89573532282
 30
0.0
 10
261.2881475298652
 20
229.8968491385811
 30
0.0
 10
261.2843654173927
 20
229.8994584238062
 30
0.0
 10
261.2827154992211
 20
229.9010092318179
 30
0.0
 10
261.2796619768151
 20
229.9043541943659
 30
0.0
 10
261.2782642895717
 20
229.9061545639268
 30
0.0
 10
261.2743149205074
 20
229.9117923424326
 30
0.0
 10
261.2720014016725
 20
229.9158627185603
 30
0.0
 10
261.2677065276979
 20
229.9243186788095
 30
0.0
 10
261.2657320993672
 20
229.9287127436555
 30
0.0
 10
261.2601396725304
 20
229.942205094145
 30
0.0
 10
261.256844711259
 20
229.9516101579694
 30
0.0
 10
261.2507108373956
 20
229.9708426867204
 30
0.0
 10
261.2478812131184
 20
229.9806808612808
 30
0.0
 10
261.2398484807163
 20
230.0106158394922
 30
0.0
 10
261.235092052886
 20
230.0311258818353
 30
0.0
 10
261.226213884872
 20
230.0727265712949
 30
0.0
 10
261.2221052973009
 20
230.0938291569178
 30
0.0
 10
261.210416698717
 20
230.157719604051
 30
0.0
 10
261.2034618989578
 20
230.2010746804476
 30
0.0
 10
261.1904458516478
 20
230.2885949739474
 30
0.0
 10
261.1844027945357
 20
230.3327754091757
 30
0.0
 10
261.1671747551433
 20
230.4661287868285
 30
0.0
 10
261.1568730067803
 20
230.556098502474
 30
0.0
 10
261.1375424061336
 20
230.7371758685822
 30
0.0
 10
261.1285383901668
 20
230.8283077881742
 30
0.0
 10
261.1199639609957
 20
230.9198250890034
 30
0.0
  0
SPLINE
  5
115
330
1F
100
AcDbEntity
  8
1
100
AcDbSpline
210
0.0
220
0.0
230
1.0
 70
     8
 71
     3
 72
    42
 73
    38
 74
     0
 42
0.000000001
 43
0.0000000001
 40
0.0
 40
0.0
 40
0.0
 40
0.0
 40
0.0009765624999991
 40
0.0009765624999991
 40
0.0019531249999981
 40
0.0019531249999981
 40
0.0039062499999984
 40
0.0039062499999984
 40
0.0058593749999986
 40
0.0058593749999986
 40
0.0078124999999988
 40
0.0078124999999988
 40
0.0156249999999988
 40
0.0156249999999988
 40
0.0234374999999987
 40
0.0234374999999987
 40
0.0312499999999987
 40
0.0312499999999987
 40
0.0468749999999983
 40
0.0468749999999983
 40
0.0624999999999979
 40
0.0624999999999979
 40
0.0937499999999974
 40
0.0937499999999974
 40
0.1249999999999969
 40
0.1249999999999969
 40
0.1874999999999967
 40
0.1874999999999967
 40
0.2499999999999964
 40
0.2499999999999964
 40
0.3749999999999971
 40
0.3749999999999971
 40
0.4999999999999977
 40
0.4999999999999977
 40
0.749999999999999
 40
0.749999999999999
 40
1.0
 40
1.0
 40
1.0
 40
1.0
 10
266.9099337099416
 20
235.5047739633069
 30
0.0
 10
266.9107276515088
 20
235.5055679048741
 30
0.0
 10
266.9114646860799
 20
235.5063938418386
 30
0.0
 10
266.9127179448766
 20
235.5079905215152
 30
0.0
 10
266.9132321997533
 20
235.5087561548404
 30
0.0
 10
266.914454178833
 20
235.510839726941
 30
0.0
 10
266.914895981748
 20
235.5119989184121
 30
0.0
 10
266.9154607345268
 20
235.5140302134003
 30
0.0
 10
266.9155813027206
 20
235.5149236284189
 30
0.0
 10
266.915656395521
 20
235.5165485599217
 30
0.0
 10
266.9156092052372
 20
235.5172831472503
 30
0.0
 10
266.9151211274769
 20
235.5207243636886
 30
0.0
 10
266.9139977940804
 20
235.5228119341921
 30
0.0
 10
266.9113670566223
 20
235.5265929691814
 30
0.0
 10
266.9098109886141
 20
235.5282382137576
 30
0.0
 10
266.9064589434307
 20
235.5312842351168
 30
0.0
 10
266.9046566673575
 20
235.5326785933138
 30
0.0
 10
266.8990131219363
 20
235.5366204527286
 30
0.0
 10
266.8949397185267
 20
235.5389314089971
 30
0.0
 10
266.8864709720395
 20
235.5432252645409
 30
0.0
 10
266.8820712476925
 20
235.5451992400162
 30
0.0
 10
266.8685689038001
 20
235.5507883825358
 30
0.0
 10
266.8591636585213
 20
235.5540800872632
 30
0.0
 10
266.8399308995702
 20
235.560209106943
 30
0.0
 10
266.8300942018132
 20
235.5630365391863
 30
0.0
 10
266.8001616867099
 20
235.5710642810236
 30
0.0
 10
266.7796518124061
 20
235.5758190369048
 30
0.0
 10
266.7380440489512
 20
235.5846958043215
 30
0.0
 10
266.7169401030446
 20
235.5888034955865
 30
0.0
 10
266.6530534372747
 20
235.6004886223747
 30
0.0
 10
266.6097053668059
 20
235.6074411592812
 30
0.0
 10
266.5222020085812
 20
235.6204530776346
 30
0.0
 10
266.4780304218408
 20
235.6264944248704
 30
0.0
 10
266.3447019484163
 20
235.6437181236324
 30
0.0
 10
266.2547474232636
 20
235.6540179183003
 30
0.0
 10
266.0736893212887
 20
235.673346125335
 30
0.0
 10
265.9825677366445
 20
235.6823490641251
 30
0.0
 10
265.8910613433417
 20
235.6909224713495
 30
0.0
  0
SPLINE
  5
116
330
1F
100
AcDbEntity
  8
1
100
AcDbSpline
210
0.0
220
0.0
230
1.0
 70
     8
 71
     3
 72
    40
 73
    36
 74
     0
 42
0.000000001
 43
0.0000000001
 40
0.0
 40
0.0
 40
0.0
 40
0.0
 40
0.0012644909317633
 40
0.0012644909317633
 40
0.0025289818635267
 40
0.0025289818635267
 40
0.0050579637270541
 40
0.0050579637270541
 40
0.0101159274541086
 40
0.0101159274541086
 40
0.0202318549082173
 40
0.0202318549082173
 40
0.0303477823623261
 40
0.0303477823623261
 40
0.040463709816435
 40
0.040463709816435
 40
0.0606955647246524
 40
0.0606955647246524
 40
0.08092741963287
 40
0.08092741963287
 40
0.1213911294493048
 40
0.1213911294493048
 40
0.1618548392657398
 40
0.1618548392657398
 40
0.2427822588986084
 40
0.2427822588986084
 40
0.3237096785314769
 40
0.3237096785314769
 40
0.4855645177972141
 40
0.4855645177972141
 40
0.6474193570629511
 40
0.6474193570629511
 40
0.9711290355944235
 40
0.9711290355944235
 40
1.0
 40
1.0
 40
1.0
 40
1.0
 10
266.9099337099416
 20
236.6361448132054
 30
0.0
 10
266.9107172990497
 20
236.6353612240973
 30
0.0
 10
266.9114451859914
 20
236.6345470931895
 30
0.0
 10
266.9126909086679
 20
236.6329652861387
 30
0.0
 10
266.9131943186875
 20
236.6322204254853
 30
0.0
 10
266.9144181948778
 20
236.6301530851527
 30
0.0
 10
266.9148686575206
 20
236.6289931551857
 30
0.0
 10
266.9157327001342
 20
236.6259575756066
 30
0.0
 10
266.9157097382046
 20
236.6244171392019
 30
0.0
 10
266.915151109525
 20
236.6202670103544
 30
0.0
 10
266.914037293764
 20
236.6181798740324
 30
0.0
 10
266.911428008539
 20
236.6143977615599
 30
0.0
 10
266.9098772005273
 20
236.6127478433883
 30
0.0
 10
266.9065322379792
 20
236.6096943209824
 30
0.0
 10
266.9047318684183
 20
236.6082966337389
 30
0.0
 10
266.8990940899125
 20
236.6043472646747
 30
0.0
 10
266.8950237137849
 20
236.6020337458397
 30
0.0
 10
266.8865677535356
 20
236.597738871865
 30
0.0
 10
266.8821736886896
 20
236.5957644435344
 30
0.0
 10
266.8686813382001
 20
236.5901720166976
 30
0.0
 10
266.8592762743757
 20
236.5868770554262
 30
0.0
 10
266.8400437456247
 20
236.5807431815628
 30
0.0
 10
266.8302055710643
 20
236.5779135572857
 30
0.0
 10
266.8002705928529
 20
236.5698808248835
 30
0.0
 10
266.7797605505098
 20
236.5651243970532
 30
0.0
 10
266.7381598610502
 20
236.5562462290393
 30
0.0
 10
266.7170572754274
 20
236.5521376414681
 30
0.0
 10
266.6531668282942
 20
236.5404490428842
 30
0.0
 10
266.6098117518975
 20
236.5334942431251
 30
0.0
 10
266.5222914583978
 20
236.520478195815
 30
0.0
 10
266.4781110231694
 20
236.5144351387029
 30
0.0
 10
266.3447576455165
 20
236.4972070993105
 30
0.0
 10
266.2547879298711
 20
236.4869053509475
 30
0.0
 10
266.1561742979689
 20
236.4763780234433
 30
0.0
 10
266.148094630239
 20
236.4755212564286
 30
0.0
 10
266.1400103910884
 20
236.4746695852041
 30
0.0
  0
SPLINE
  5
117
330
1F
100
AcDbEntity
  8
1
100
AcDbSpline
210
0.0
220
0.0
230
1.0
 70
     8
 71
     3
 72
    17
 73
    13
 74
     0
 42
0.000000001
 43
0.0000000001
 40
0.0
 40
0.0
 40
0.0
 40
0.0
 40
0.3240313269621876
 40
0.3240313269621876
 40
0.4860469904432751
 40
0.4860469904432751
 40
0.6480626539243627
 40
0.8100783174054502
 40
0.8100783174054502
 40
0.9720939808865294
 40
0.9720939808865294
 40
1.0
 40
1.0
 40
1.0
 40
1.0
 10
265.8910613433417
 20
235.6909224713495
 30
0.0
 10
265.9067307923504
 20
235.7199974499856
 30
0.0
 10
265.9205259969303
 20
235.7498896476166
 30
0.0
 10
265.9384296422983
 20
235.7959440905399
 30
0.0
 10
265.9439394560436
 20
235.8115259314254
 30
0.0
 10
265.9539669501622
 20
235.8429467037636
 30
0.0
 10
265.9630039687297
 20
235.8746150170753
 30
0.0
 10
265.9700721645673
 20
235.9067753811949
 30
0.0
 10
265.9761507126566
 20
235.9391830794025
 30
0.0
 10
265.9786941444551
 20
235.9555186044478
 30
0.0
 10
265.9810740894627
 20
235.9746827572731
 30
0.0
 10
265.9814087776496
 20
235.9774998122045
 30
0.0
 10
265.9817284502448
 20
235.980318050354
 30
0.0
  0
SPLINE
  5
118
330
1F
100
AcDbEntity
  8
1
100
AcDbSpline
210
0.0
220
0.0
230
1.0
 70
     8
 71
     3
 72
   103
 73
    99
 74
     0
 42
0.000000001
 43
0.0000000001
 40
0.0
 40
0.0
 40
0.0
 40
0.0
 40
0.0312500000000072
 40
0.0312500000000072
 40
0.0625000000000145
 40
0.0625000000000145
 40
0.0781250000000184
 40
0.0781250000000184
 40
0.0859375000000203
 40
0.0859375000000203
 40
0.0937500000000222
 40
0.1250000000000291
 40
0.1250000000000291
 40
0.1562500000000361
 40
0.1562500000000361
 40
0.1640625000000375
 40
0.1640625000000375
 40
0.171875000000039
 40
0.1875000000000411
 40
0.1875000000000411
 40
0.2187500000000451
 40
0.2187500000000451
 40
0.2500000000000491
 40
0.2500000000000491
 40
0.2656250000000507
 40
0.2656250000000507
 40
0.2812500000000522
 40
0.2812500000000522
 40
0.3125000000000564
 40
0.3125000000000564
 40
0.3437500000000606
 40
0.3437500000000606
 40
0.3750000000000648
 40
0.3750000000000648
 40
0.406250000000069
 40
0.406250000000069
 40
0.4218750000000712
 40
0.4218750000000712
 40
0.4296875000000715
 40
0.4296875000000715
 40
0.4375000000000719
 40
0.4375000000000719
 40
0.4531250000000728
 40
0.4531250000000728
 40
0.4687500000000736
 40
0.4687500000000736
 40
0.4765625000000739
 40
0.4765625000000739
 40
0.4843750000000743
 40
0.4921875000000746
 40
0.4960937500000741
 40
0.4960937500000741
 40
0.5000000000000734
 40
0.5000000000000734
 40
0.5156250000000695
 40
0.5156250000000695
 40
0.5234375000000675
 40
0.5234375000000675
 40
0.5312500000000656
 40
0.5312500000000656
 40
0.5468750000000631
 40
0.5468750000000631
 40
0.5625000000000605
 40
0.5625000000000605
 40
0.5781250000000581
 40
0.5781250000000581
 40
0.5937500000000556
 40
0.5937500000000556
 40
0.6250000000000519
 40
0.6250000000000519
 40
0.6562500000000482
 40
0.6562500000000482
 40
0.6875000000000445
 40
0.6875000000000445
 40
0.7187500000000409
 40
0.7187500000000409
 40
0.7500000000000373
 40
0.7500000000000373
 40
0.7812500000000337
 40
0.7812500000000337
 40
0.81250000000003
 40
0.81250000000003
 40
0.8281250000000277
 40
0.8281250000000277
 40
0.8437500000000252
 40
0.8437500000000252
 40
0.8750000000000206
 40
0.8750000000000206
 40
0.9062500000000158
 40
0.9062500000000158
 40
0.9218750000000131
 40
0.9218750000000131
 40
0.9296875000000115
 40
0.9296875000000115
 40
0.9375000000000103
 40
0.9687500000000051
 40
0.9687500000000051
 40
1.0
 40
1.0
 40
1.0
 40
1.0
 10
258.7565302637389
 20
246.2497904602925
 30
0.0
 10
258.7652153343051
 20
246.1817633494113
 30
0.0
 10
258.7772625122873
 20
246.1151602387344
 30
0.0
 10
258.8076429566643
 20
245.9845788563144
 30
0.0
 10
258.8259781135704
 20
245.9206016138192
 30
0.0
 10
258.8580438521462
 20
245.8265175785681
 30
0.0
 10
258.8694945613779
 20
245.7954705948724
 30
0.0
 10
258.8878084463603
 20
245.749366658315
 30
0.0
 10
258.8941013454179
 20
245.734082657006
 30
0.0
 10
258.9069697158235
 20
245.7038866779134
 30
0.0
 10
258.9399039779114
 20
245.6291882479085
 30
0.0
 10
258.9765250085914
 20
245.5582943495206
 30
0.0
 10
259.039432075484
 20
245.4492359388094
 30
0.0
 10
259.0730441300897
 20
245.396894971348
 30
0.0
 10
259.1176140631089
 20
245.3340098478408
 30
0.0
 10
259.1266656239389
 20
245.3215481078062
 30
0.0
 10
259.1449305211194
 20
245.296997674865
 30
0.0
 10
259.1725970060583
 20
245.260692802482
 30
0.0
 10
259.2010479016687
 20
245.2258940256324
 30
0.0
 10
259.2589470261367
 20
245.1581801974139
 30
0.0
 10
259.2988728599412
 20
245.1155434313256
 30
0.0
 10
259.381211260413
 20
245.0347921213583
 30
0.0
 10
259.4236242255977
 20
244.9966795306411
 30
0.0
 10
259.4890628959329
 20
244.9426633097902
 30
0.0
 10
259.5111797580051
 20
244.9251844622888
 30
0.0
 10
259.556023267559
 20
244.8912514781529
 30
0.0
 10
259.5787783470392
 20
244.8747777985235
 30
0.0
 10
259.6477799057043
 20
244.8269933201466
 30
0.0
 10
259.6944736538508
 20
244.7975033159542
 30
0.0
 10
259.7893360902206
 20
244.7428423017313
 30
0.0
 10
259.8375023292682
 20
244.7176725356891
 30
0.0
 10
259.935541195401
 20
244.6713835199324
 30
0.0
 10
259.9854074629
 20
244.6502644814968
 30
0.0
 10
260.0873417866218
 20
244.6119269478331
 30
0.0
 10
260.1393919418425
 20
244.5947067822101
 30
0.0
 10
260.219930512347
 20
244.5717908255228
 30
0.0
 10
260.24719298585
 20
244.5646390054449
 30
0.0
 10
260.2889116452203
 20
244.5546565642994
 30
0.0
 10
260.3029562545863
 20
244.5514534418933
 30
0.0
 10
260.3313702907
 20
244.5453007643106
 30
0.0
 10
260.3457604588186
 20
244.5423473814383
 30
0.0
 10
260.389290402708
 20
244.5339196368475
 30
0.0
 10
260.4188096310106
 20
244.5288682136019
 30
0.0
 10
260.479285040371
 20
244.5199625392635
 30
0.0
 10
260.5102371768
 20
244.5161064852479
 30
0.0
 10
260.558262149883
 20
244.5113243195721
 30
0.0
 10
260.5745267465917
 20
244.5099012132123
 30
0.0
 10
260.6072155529662
 20
244.5074499483496
 30
0.0
 10
260.6401677627502
 20
244.5053826563726
 30
0.0
 10
260.6821050845216
 20
244.5038006050103
 30
0.0
 10
260.7076408721244
 20
244.5033264492135
 30
0.0
 10
260.7247511614747
 20
244.5031191340534
 30
0.0
 10
260.7333763249674
 20
244.5030700189043
 30
0.0
 10
260.7762830022411
 20
244.5031028557444
 30
0.0
 10
260.8100101522726
 20
244.5040100413013
 30
0.0
 10
260.859840750483
 20
244.5065748119099
 30
0.0
 10
260.8763250723676
 20
244.5076308494268
 30
0.0
 10
260.9090702965476
 20
244.510131174763
 30
0.0
 10
260.9253347486988
 20
244.5115777505995
 30
0.0
 10
260.9731050892785
 20
244.516399005487
 30
0.0
 10
261.0038831847555
 20
244.5202713089034
 30
0.0
 10
261.0640060955253
 20
244.5291914596656
 30
0.0
 10
261.093346700261
 20
244.5342410987361
 30
0.0
 10
261.1510253064851
 20
244.5454569821424
 30
0.0
 10
261.1794262603191
 20
244.551640788423
 30
0.0
 10
261.2351052725998
 20
244.5650065618513
 30
0.0
 10
261.2623900442454
 20
244.5721862808461
 30
0.0
 10
261.3429840597564
 20
244.5951852867168
 30
0.0
 10
261.3950560498831
 20
244.6124599735018
 30
0.0
 10
261.4970101199473
 20
244.6509015632236
 30
0.0
 10
261.5468741461562
 20
244.6720701466256
 30
0.0
 10
261.6448865621246
 20
244.7184493320909
 30
0.0
 10
261.6930285529332
 20
244.7436597405875
 30
0.0
 10
261.787821193438
 20
244.7983881386864
 30
0.0
 10
261.834469381565
 20
244.8279049165188
 30
0.0
 10
261.9263589594867
 20
244.8916504549511
 30
0.0
 10
261.971149545308
 20
244.9255731457434
 30
0.0
 10
262.0582563032506
 20
244.9975796785249
 30
0.0
 10
262.100605807481
 20
245.0356857924149
 30
0.0
 10
262.1828333717635
 20
245.1164310289722
 30
0.0
 10
262.2227118453559
 20
245.1590681639049
 30
0.0
 10
262.2805508651399
 20
245.2267923565113
 30
0.0
 10
262.2994999173353
 20
245.2499966457674
 30
0.0
 10
262.3367042677925
 20
245.2977481951115
 30
0.0
 10
262.355007253624
 20
245.3223656036126
 30
0.0
 10
262.4083300810756
 20
245.3976870928664
 30
0.0
 10
262.4418325233577
 20
245.4499097582781
 30
0.0
 10
262.5045236722623
 20
245.5586699304615
 30
0.0
 10
262.5337141125351
 20
245.6152052336318
 30
0.0
 10
262.5739717050629
 20
245.7035997793056
 30
0.0
 10
262.5868014090414
 20
245.7336648098177
 30
0.0
 10
262.60510846362
 20
245.7797253437984
 30
0.0
 10
262.6110527619137
 20
245.795238104662
 30
0.0
 10
262.6225342120721
 20
245.8263576904162
 30
0.0
 10
262.6502760995351
 20
245.9045356541018
 30
0.0
 10
262.6732204068532
 20
245.9846092239729
 30
0.0
 10
262.7036114056538
 20
246.1152549798798
 30
0.0
 10
262.7156486646275
 20
246.1818409768754
 30
0.0
 10
262.7243238244391
 20
246.2497904602925
 30
0.0
  0
SPLINE
  5
119
330
1F
100
AcDbEntity
  8
1
100
AcDbSpline
210
0.0
220
0.0
230
1.0
 70
     8
 71
     3
 72
    58
 73
    54
 74
     0
 42
0.000000001
 43
0.0000000001
 40
0.0
 40
0.0
 40
0.0
 40
0.0
 40
0.0312500000000002
 40
0.0312500000000002
 40
0.0468750000000002
 40
0.0468750000000002
 40
0.0625000000000002
 40
0.0625000000000002
 40
0.1250000000000001
 40
0.1250000000000001
 40
0.1875
 40
0.1875
 40
0.203125
 40
0.203125
 40
0.2187500000000001
 40
0.2187500000000001
 40
0.25
 40
0.25
 40
0.3124999999999998
 40
0.3124999999999998
 40
0.3749999999999995
 40
0.3749999999999995
 40
0.3828124999999995
 40
0.3828124999999995
 40
0.3906249999999995
 40
0.4062499999999998
 40
0.4375000000000001
 40
0.4375000000000001
 40
0.5000000000000011
 40
0.5000000000000011
 40
0.5312500000000016
 40
0.5468750000000018
 40
0.5468750000000018
 40
0.5546875000000019
 40
0.5546875000000019
 40
0.5625000000000022
 40
0.6250000000000022
 40
0.6250000000000022
 40
0.6875000000000019
 40
0.6875000000000019
 40
0.7500000000000017
 40
0.7500000000000017
 40
0.7812500000000018
 40
0.7812500000000018
 40
0.7968750000000017
 40
0.7968750000000017
 40
0.8125000000000015
 40
0.8125000000000015
 40
0.8750000000000015
 40
0.8750000000000015
 40
0.9375000000000007
 40
0.9375000000000007
 40
1.0
 40
1.0
 40
1.0
 40
1.0
 10
246.5726251729753
 20
251.3346144730637
 30
0.0
 10
246.5863166412044
 20
251.3073840523511
 30
0.0
 10
246.6020384813563
 20
251.276357938888
 30
0.0
 10
246.6288877993825
 20
251.2240521060988
 30
0.0
 10
246.6383948883839
 20
251.2056323178944
 30
0.0
 10
246.6584025019338
 20
251.1671264722798
 30
0.0
 10
246.6689157001043
 20
251.1470155034416
 30
0.0
 10
246.7240729879546
 20
251.04226021938
 30
0.0
 10
246.7764467899106
 20
250.945044922965
 30
0.0
 10
246.8995438943855
 20
250.7255568113569
 30
0.0
 10
246.9702649642495
 20
250.6032752418338
 30
0.0
 10
247.0720080294557
 20
250.4354696097762
 30
0.0
 10
247.0930266744516
 20
250.4011596346282
 30
0.0
 10
247.1364631413572
 20
250.3310556966267
 30
0.0
 10
247.1589091791006
 20
250.2952184723372
 30
0.0
 10
247.2279530007452
 20
250.1862644443886
 30
0.0
 10
247.2763814342123
 20
250.1114993699703
 30
0.0
 10
247.4291685243472
 20
249.8814207766036
 30
0.0
 10
247.5410145228816
 20
249.7203318523873
 30
0.0
 10
247.7866771908717
 20
249.3856678144892
 30
0.0
 10
247.9204943917103
 20
249.2120844559695
 30
0.0
 10
248.0847789202777
 20
249.0113214571451
 30
0.0
 10
248.103238764685
 20
248.9889204473708
 30
0.0
 10
248.1404634915052
 20
248.9440706872564
 30
0.0
 10
248.1967451438801
 20
248.8767391423863
 30
0.0
 10
248.3311893381964
 20
248.7192987437614
 30
0.0
 10
248.4518064608269
 20
248.5839957650887
 30
0.0
 10
248.7003041061517
 20
248.3134631068756
 30
0.0
 10
248.8756504175275
 20
248.1332124498404
 30
0.0
 10
249.1536207636121
 20
247.8650044961177
 30
0.0
 10
249.2963449249417
 20
247.7314395997465
 30
0.0
 10
249.4447694895471
 20
247.5990412020254
 30
0.0
 10
249.5199401090991
 20
247.5330656559901
 30
0.0
 10
249.5451735683208
 20
247.5110966346951
 30
0.0
 10
249.5958464323114
 20
247.4673368050555
 30
0.0
 10
249.8248486955861
 20
247.2711750548608
 30
0.0
 10
250.0625688096115
 20
247.0819483382026
 30
0.0
 10
250.4985754840781
 20
246.7576659909782
 30
0.0
 10
250.723275660769
 20
246.6015816453289
 30
0.0
 10
251.1858285948536
 20
246.3025805730121
 30
0.0
 10
251.4236811814066
 20
246.1596612005873
 30
0.0
 10
251.7902488563523
 20
245.955932108108
 30
0.0
 10
251.9140706568262
 20
245.8897975243937
 30
0.0
 10
252.1022532931248
 20
245.7933589126461
 30
0.0
 10
252.165316605058
 20
245.76171180238
 30
0.0
 10
252.2917437907018
 20
245.6995988500448
 30
0.0
 10
252.3551617093027
 20
245.6691051632731
 30
0.0
 10
252.6732615545773
 20
245.5194392038822
 30
0.0
 10
252.9309701111535
 20
245.408666721694
 30
0.0
 10
253.4526211871219
 20
245.2048709598292
 30
0.0
 10
253.716563957452
 20
245.1118475232145
 30
0.0
 10
254.2505610931032
 20
244.9435752879051
 30
0.0
 10
254.5206154599175
 20
244.8683259813389
 30
0.0
 10
254.7937125843721
 20
244.8020798161878
 30
0.0
  0
SPLINE
  5
11A
330
1F
100
AcDbEntity
  8
1
100
AcDbSpline
210
0.0
220
0.0
230
1.0
 70
     8
 71
     3
 72
    22
 73
    18
 74
     0
 42
0.000000001
 43
0.0000000001
 40
0.0
 40
0.0
 40
0.0
 40
0.0
 40
0.0483742025454704
 40
0.0483742025454704
 40
0.1276763523333463
 40
0.1276763523333463
 40
0.2069785021212219
 40
0.2069785021212219
 40
0.3655828016969777
 40
0.3655828016969777
 40
0.6827914008484888
 40
0.6827914008484888
 40
0.7620935506363679
 40
0.7620935506363679
 40
0.8413957004242465
 40
0.8413957004242465
 40
1.0
 40
1.0
 40
1.0
 40
1.0
 10
247.408273218167
 20
235.981161744379
 30
0.0
 10
247.4248069455559
 20
235.9811658131937
 30
0.0
 10
247.4414867624214
 20
235.981187754333
 30
0.0
 10
247.4858907159826
 20
235.9812857196839
 30
0.0
 10
247.5138587103151
 20
235.9813876844613
 30
0.0
 10
247.5705614651117
 20
235.9816535210487
 30
0.0
 10
247.5993586676361
 20
235.9818178335705
 30
0.0
 10
247.6862951893208
 20
235.9823718996954
 30
0.0
 10
247.7450193298407
 20
235.982821168845
 30
0.0
 10
247.9233523056458
 20
235.9842129581283
 30
0.0
 10
248.0451041071811
 20
235.9851872382866
 30
0.0
 10
248.2007310883768
 20
235.986051082098
 30
0.0
 10
248.2320733555759
 20
235.9862073336008
 30
0.0
 10
248.294821232716
 20
235.9864788816103
 30
0.0
 10
248.3262367046296
 20
235.9865942956599
 30
0.0
 10
248.4206061383296
 20
235.9868736403635
 30
0.0
 10
248.4836828770478
 20
235.9869699385886
 30
0.0
 10
248.5469222168024
 20
235.9869699385886
 30
0.0
  0
SPLINE
  5
11B
330
1F
100
AcDbEntity
  8
1
100
AcDbSpline
210
0.0
220
0.0
230
1.0
 70
     8
 71
     3
 72
    46
 73
    42
 74
     0
 42
0.000000001
 43
0.0000000001
 40
0.0
 40
0.0
 40
0.0
 40
0.0
 40
0.0624999999999971
 40
0.1249999999999942
 40
0.1249999999999942
 40
0.156249999999993
 40
0.156249999999993
 40
0.1718749999999925
 40
0.1718749999999925
 40
0.1874999999999921
 40
0.2499999999999907
 40
0.2499999999999907
 40
0.3124999999999893
 40
0.3124999999999893
 40
0.3437499999999886
 40
0.3437499999999886
 40
0.374999999999988
 40
0.374999999999988
 40
0.4374999999999866
 40
0.4374999999999866
 40
0.4687499999999866
 40
0.4687499999999866
 40
0.4999999999999865
 40
0.4999999999999865
 40
0.5624999999999876
 40
0.5624999999999876
 40
0.6249999999999886
 40
0.6249999999999886
 40
0.6562499999999892
 40
0.6562499999999892
 40
0.6874999999999897
 40
0.6874999999999897
 40
0.7499999999999925
 40
0.7499999999999925
 40
0.8749999999999962
 40
0.8749999999999962
 40
0.9062499999999975
 40
0.9062499999999975
 40
0.9374999999999987
 40
0.9374999999999987
 40
1.0
 40
1.0
 40
1.0
 40
1.0
 10
246.5726251729753
 20
251.3346144730637
 30
0.0
 10
246.5664788317423
 20
251.3468386885253
 30
0.0
 10
246.5621990240514
 20
251.3696558303913
 30
0.0
 10
246.5738340968774
 20
251.3892952577459
 30
0.0
 10
246.5886788157714
 20
251.4028609620423
 30
0.0
 10
246.5946488071455
 20
251.4071888492652
 30
0.0
 10
246.6051749771008
 20
251.4133928675387
 30
0.0
 10
246.6089506281302
 20
251.4154146633362
 30
0.0
 10
246.6169706191952
 20
251.4193343185698
 30
0.0
 10
246.6382226121747
 20
251.4288417338631
 30
0.0
 10
246.6653587670429
 20
251.4369452073972
 30
0.0
 10
246.7159875765756
 20
251.4483441088499
 30
0.0
 10
246.7449084405822
 20
251.4532597335689
 30
0.0
 10
246.7936453999142
 20
251.4596069576625
 30
0.0
 10
246.8108198045878
 20
251.4615533283737
 30
0.0
 10
246.8464976680682
 20
251.4650860080277
 30
0.0
 10
246.8650469364275
 20
251.4666792981179
 30
0.0
 10
246.9227400455902
 20
251.4709986350233
 30
0.0
 10
246.9639232719689
 20
251.4732656952098
 30
0.0
 10
247.0295595963104
 20
251.4759471378976
 30
0.0
 10
247.0520835128115
 20
251.4767206691716
 30
0.0
 10
247.0984020991104
 20
251.4780561687609
 30
0.0
 10
247.1222595573285
 20
251.4786191750497
 30
0.0
 10
247.1951857028261
 20
251.4800216634154
 30
0.0
 10
247.2455565267527
 20
251.480578770617
 30
0.0
 10
247.3495382909202
 20
251.481178000259
 30
0.0
 10
247.4031503593199
 20
251.4812194449857
 30
0.0
 10
247.4858907159826
 20
251.481036900698
 30
0.0
 10
247.5138587103151
 20
251.4809349359207
 30
0.0
 10
247.5705614651117
 20
251.4806690993332
 30
0.0
 10
247.5993586676361
 20
251.4805047868114
 30
0.0
 10
247.6862951893208
 20
251.4799507206866
 30
0.0
 10
247.7450193298407
 20
251.4795014515369
 30
0.0
 10
247.9233523056458
 20
251.4781096622536
 30
0.0
 10
248.0451041071811
 20
251.4771353820954
 30
0.0
 10
248.2007310883768
 20
251.4762715382839
 30
0.0
 10
248.2320733555759
 20
251.4761152867812
 30
0.0
 10
248.294821232716
 20
251.4758437387717
 30
0.0
 10
248.3262367046296
 20
251.475728324722
 30
0.0
 10
248.4206061383296
 20
251.4754489800185
 30
0.0
 10
248.4836828770478
 20
251.4753526817933
 30
0.0
 10
248.5469222168024
 20
251.4753526817933
 30
0.0
  0
SPLINE
  5
11C
330
1F
100
AcDbEntity
  8
1
100
AcDbSpline
210
0.0
220
0.0
230
1.0
 70
     8
 71
     3
 72
     8
 73
     4
 74
     0
 42
0.000000001
 43
0.0000000001
 40
0.0
 40
0.0
 40
0.0
 40
0.0
 40
1.0
 40
1.0
 40
1.0
 40
1.0
 10
254.7948661641285
 20
244.8018000461356
 30
0.0
 10
254.8026949165472
 20
244.7999017842769
 30
0.0
 10
254.8105254807427
 20
244.7980110958966
 30
0.0
 10
254.818357833795
 20
244.7961279863609
 30
0.0
  0
SPLINE
  5
11D
330
1F
100
AcDbEntity
  8
1
100
AcDbSpline
210
0.0
220
0.0
230
1.0
 70
    24
 71
     3
 72
     8
 73
     4
 74
     0
 42
0.000000001
 43
0.0000000001
 40
0.0
 40
0.0
 40
0.0
 40
0.0
 40
1.0
 40
1.0
 40
1.0
 40
1.0
 10
254.818357833795
 20
236.3151761958195
 30
0.0
 10
254.8104060648833
 20
236.3072244269078
 30
0.0
 10
254.802575169393
 20
236.2993935314176
 30
0.0
 10
254.7948661641285
 20
236.2916845261531
 30
0.0
  0
SPLINE
  5
11E
330
1F
100
AcDbEntity
  8
1
100
AcDbSpline
210
0.0
220
0.0
230
1.0
 70
     8
 71
     3
 72
     8
 73
     4
 74
     0
 42
0.000000001
 43
0.0000000001
 40
0.0
 40
0.0
 40
0.0
 40
0.0
 40
1.0
 40
1.0
 40
1.0
 40
1.0
 10
254.7937125843721
 20
244.8020798161878
 30
0.0
 10
254.7940971053899
 20
244.8019865415226
 30
0.0
 10
254.7944816319766
 20
244.8018932848381
 30
0.0
 10
254.7948661641285
 20
244.8018000461356
 30
0.0
  0
SPLINE
  5
11F
330
1F
100
AcDbEntity
  8
1
100
AcDbSpline
210
0.0
220
0.0
230
1.0
 70
    24
 71
     3
 72
     8
 73
     4
 74
     0
 42
0.000000001
 43
0.0000000001
 40
0.0
 40
0.0
 40
0.0
 40
0.0
 40
1.0
 40
1.0
 40
1.0
 40
1.0
 10
254.7948661641285
 20
236.2916845261531
 30
0.0
 10
254.7944809514203
 20
236.2912993134449
 30
0.0
 10
254.7940964246847
 20
236.2909147867092
 30
0.0
 10
254.7937125843721
 20
236.2905309463967
 30
0.0
  0
SPLINE
  5
120
330
1F
100
AcDbEntity
  8
1
100
AcDbSpline
210
0.0
220
0.0
230
1.0
 70
     8
 71
     3
 72
    10
 73
     6
 74
     0
 42
0.000000001
 43
0.0000000001
 40
0.0
 40
0.0
 40
0.0
 40
0.0
 40
0.5183949333171407
 40
0.5183949333171407
 40
1.0
 40
1.0
 40
1.0
 40
1.0
 10
265.640623281263
 20
246.2497904602925
 30
0.0
 10
265.6950142223272
 20
246.8758764344762
 30
0.0
 10
265.7496361560309
 20
247.5019422967554
 30
0.0
 10
265.8550508153191
 20
248.7096387645016
 30
0.0
 10
265.9058612543806
 20
249.2912678290361
 30
0.0
 10
265.9566868577699
 20
249.8728955648896
 30
0.0
  0
SPLINE
  5
121
330
1F
100
AcDbEntity
  8
1
100
AcDbSpline
210
0.0
220
0.0
230
1.0
 70
     8
 71
     3
 72
    38
 73
    34
 74
     0
 42
0.000000001
 43
0.0000000001
 40
0.0
 40
0.0
 40
0.0
 40
0.0
 40
0.1249999999999999
 40
0.1249999999999999
 40
0.1874999999999999
 40
0.1874999999999999
 40
0.2187500000000001
 40
0.2187500000000001
 40
0.2500000000000002
 40
0.2500000000000002
 40
0.3750000000000006
 40
0.3750000000000006
 40
0.4375000000000007
 40
0.4375000000000007
 40
0.4687500000000007
 40
0.4687500000000007
 40
0.5000000000000007
 40
0.5000000000000007
 40
0.6250000000000004
 40
0.6250000000000004
 40
0.6562500000000001
 40
0.6562500000000001
 40
0.6875000000000001
 40
0.6875000000000001
 40
0.7500000000000001
 40
0.7500000000000001
 40
0.8125000000000001
 40
0.8125000000000001
 40
0.8437500000000003
 40
0.8437500000000003
 40
0.8750000000000003
 40
0.8750000000000003
 40
1.0
 40
1.0
 40
1.0
 40
1.0
 10
265.640623281263
 20
246.2497904602925
 30
0.0
 10
265.6303127432346
 20
246.1311074016888
 30
0.0
 10
265.6200684066821
 20
246.0145289276682
 30
0.0
 10
265.6047821565848
 20
245.8426713425054
 30
0.0
 10
265.5997013152549
 20
245.7858908300778
 30
0.0
 10
265.592115565657
 20
245.701491632072
 30
0.0
 10
265.5895930408936
 20
245.6734873785043
 30
0.0
 10
265.5845645477789
 20
245.6177415136084
 30
0.0
 10
265.58205829362
 20
245.5899969885918
 30
0.0
 10
265.5697263465819
 20
245.4535181095318
 30
0.0
 10
265.5603528324841
 20
245.3501637432121
 30
0.0
 10
265.5475441869287
 20
245.2036619325142
 30
0.0
 10
265.5434887085358
 20
245.1562595639928
 30
0.0
 10
265.5378592724491
 20
245.087369881199
 30
0.0
 10
265.5360623857371
 20
245.0648125926051
 30
0.0
 10
265.5326856548518
 20
245.0209388132642
 30
0.0
 10
265.5311006493431
 20
244.9995595157536
 30
0.0
 10
265.5237500110233
 20
244.8954072422567
 30
0.0
 10
265.5197206813998
 20
244.8207864310763
 30
0.0
 10
265.5179338676378
 20
244.7385033112247
 30
0.0
 10
265.5177374324275
 20
244.7226014100092
 30
0.0
 10
265.5176793157622
 20
244.6919311782739
 30
0.0
 10
265.5178185061483
 20
244.6772296645783
 30
0.0
 10
265.5187241509723
 20
244.6352850408292
 30
0.0
 10
265.5199802691788
 20
244.6100716981348
 30
0.0
 10
265.523633073423
 20
244.5650108553425
 30
0.0
 10
265.5260274592377
 20
244.5451635391266
 30
0.0
 10
265.5303208941035
 20
244.519435664945
 30
0.0
 10
265.5318689659404
 20
244.5115347685981
 30
0.0
 10
265.5351754373505
 20
244.4971012371582
 30
0.0
 10
265.5369358711696
 20
244.4905622015374
 30
0.0
 10
265.5461890098812
 20
244.4614291076947
 30
0.0
 10
265.5548592255808
 20
244.4497904602925
 30
0.0
 10
265.5642303779396
 20
244.4497904602925
 30
0.0
  0
SPLINE
  5
122
330
1F
100
AcDbEntity
  8
1
100
AcDbSpline
210
0.0
220
0.0
230
1.0
 70
     8
 71
     3
 72
    12
 73
     8
 74
     0
 42
0.000000001
 43
0.0000000001
 40
0.0
 40
0.0
 40
0.0
 40
0.0
 40
0.5
 40
0.5
 40
0.75
 40
0.75
 40
1.0
 40
1.0
 40
1.0
 40
1.0
 10
260.5253374367728
 20
234.8407058753773
 30
0.0
 10
260.596635685324
 20
234.8300113439678
 30
0.0
 10
260.6681672490915
 20
234.8246888815319
 30
0.0
 10
260.775811302385
 20
234.8246519787131
 30
0.0
 10
260.8117506441606
 20
234.8259696230073
 30
0.0
 10
260.8837472830705
 20
234.831313119225
 30
0.0
 10
260.9199799224812
 20
234.8353754686507
 30
0.0
 10
260.9555166514052
 20
234.8407058753773
 30
0.0
  0
SPLINE
  5
123
330
1F
100
AcDbEntity
  8
1
100
AcDbSpline
210
0.0
220
0.0
230
1.0
 70
     8
 71
     3
 72
    14
 73
    10
 74
     0
 42
0.000000001
 43
0.0000000001
 40
0.0
 40
0.0
 40
0.0
 40
0.0
 40
0.25
 40
0.25
 40
0.5
 40
0.5
 40
0.75
 40
0.75
 40
1.0
 40
1.0
 40
1.0
 40
1.0
 10
254.818357833795
 20
244.7961279863609
 30
0.0
 10
255.0598285740982
 20
244.738071888708
 30
0.0
 10
255.3020906126518
 20
244.6874363210443
 30
0.0
 10
255.7876311891158
 20
244.6008066179672
 30
0.0
 10
256.0309134492381
 20
244.5648094600358
 30
0.0
 10
256.5182053645373
 20
244.5072679960277
 30
0.0
 10
256.7622173521642
 20
244.4857219285859
 30
0.0
 10
257.2508566620141
 20
244.4569837538133
 30
0.0
 10
257.4954853943843
 20
244.4497904602925
 30
0.0
 10
257.740427044089
 20
244.4497904602925
 30
0.0
  0
SPLINE
  5
124
330
1F
100
AcDbEntity
  8
1
100
AcDbSpline
210
0.0
220
0.0
230
1.0
 70
    24
 71
     3
 72
     8
 73
     4
 74
     0
 42
0.000000001
 43
0.0000000001
 40
0.0
 40
0.0
 40
0.0
 40
0.0
 40
1.0
 40
1.0
 40
1.0
 40
1.0
 10
254.9925811568625
 20
236.4893995188871
 30
0.0
 10
254.9253249649009
 20
236.4221433269255
 30
0.0
 10
254.8670417903869
 20
236.3638601524114
 30
0.0
 10
254.818357833795
 20
236.3151761958195
 30
0.0
  0
SPLINE
  5
125
330
1F
100
AcDbEntity
  8
1
100
AcDbSpline
210
0.0
220
0.0
230
1.0
 70
    24
 71
     3
 72
     8
 73
     4
 74
     0
 42
0.000000001
 43
0.0000000001
 40
0.0
 40
0.0
 40
0.0
 40
0.0
 40
1.0
 40
1.0
 40
1.0
 40
1.0
 10
260.5253374367728
 20
230.9566432389769
 30
0.0
 10
258.6810853434694
 20
232.8008953322803
 30
0.0
 10
256.836833250166
 20
234.6451474255837
 30
0.0
 10
254.9925811568625
 20
236.4893995188871
 30
0.0
  0
SPLINE
  5
126
330
1F
100
AcDbEntity
  8
1
100
AcDbSpline
210
0.0
220
0.0
230
1.0
 70
     8
 71
     3
 72
    76
 73
    72
 74
     0
 42
0.000000001
 43
0.0000000001
 40
0.0
 40
0.0
 40
0.0
 40
0.0
 40
0.0625000000000108
 40
0.0625000000000108
 40
0.0937500000000158
 40
0.0937500000000158
 40
0.1250000000000209
 40
0.1250000000000209
 40
0.1406250000000228
 40
0.1406250000000228
 40
0.1562500000000246
 40
0.1562500000000246
 40
0.187500000000027
 40
0.187500000000027
 40
0.1953125000000284
 40
0.1953125000000284
 40
0.2031250000000298
 40
0.218750000000031
 40
0.2343750000000322
 40
0.2343750000000322
 40
0.242187500000033
 40
0.242187500000033
 40
0.2500000000000338
 40
0.2500000000000338
 40
0.2812500000000356
 40
0.2812500000000356
 40
0.2968750000000365
 40
0.2968750000000365
 40
0.3046875000000361
 40
0.3046875000000361
 40
0.3125000000000357
 40
0.3125000000000357
 40
0.3437500000000327
 40
0.3437500000000327
 40
0.3593750000000314
 40
0.3593750000000314
 40
0.3750000000000305
 40
0.3750000000000305
 40
0.406250000000029
 40
0.406250000000029
 40
0.4375000000000275
 40
0.4375000000000275
 40
0.4531250000000266
 40
0.4531250000000266
 40
0.468750000000026
 40
0.468750000000026
 40
0.5000000000000238
 40
0.5000000000000238
 40
0.5625000000000206
 40
0.5625000000000206
 40
0.5937500000000188
 40
0.5937500000000188
 40
0.6093750000000182
 40
0.6093750000000182
 40
0.6250000000000174
 40
0.6250000000000174
 40
0.6875000000000135
 40
0.6875000000000135
 40
0.7500000000000097
 40
0.7500000000000097
 40
0.7812500000000079
 40
0.7812500000000079
 40
0.7968750000000071
 40
0.7968750000000071
 40
0.8125000000000063
 40
0.8125000000000063
 40
0.8750000000000042
 40
0.8750000000000042
 40
0.9375000000000019
 40
0.9375000000000019
 40
1.0
 40
1.0
 40
1.0
 40
1.0
 10
260.5253374367728
 20
234.8407058753773
 30
0.0
 10
260.450757325719
 20
234.8518926766859
 30
0.0
 10
260.3748435627554
 20
234.8691296689544
 30
0.0
 10
260.2581314419768
 20
234.9066142691042
 30
0.0
 10
260.2187494174123
 20
234.9210643397863
 30
0.0
 10
260.1387988040947
 20
234.9546552651007
 30
0.0
 10
260.0982325266704
 20
234.9737865929867
 30
0.0
 10
260.0362356241846
 20
235.0069246600071
 30
0.0
 10
260.015300843802
 20
235.0187642657237
 30
0.0
 10
259.9735506293985
 20
235.0438135934798
 30
0.0
 10
259.9527028220529
 20
235.0570355518866
 30
0.0
 10
259.8902483881032
 20
235.0989890277627
 30
0.0
 10
259.8487284976611
 20
235.1299835211729
 30
0.0
 10
259.7970237130652
 20
235.1734500173414
 30
0.0
 10
259.786680905341
 20
235.1823933473352
 30
0.0
 10
259.7662339235714
 20
235.2005901445961
 30
0.0
 10
259.7358445393745
 20
235.2284135892449
 30
0.0
 10
259.6866327993665
 20
235.277479918043
 30
0.0
 10
259.6488854111071
 20
235.319751574134
 30
0.0
 10
259.6212267731187
 20
235.3526576512469
 30
0.0
 10
259.6121159916461
 20
235.3638269096234
 30
0.0
 10
259.5941207745836
 20
235.3865806809293
 30
0.0
 10
259.5852090094923
 20
235.398202353607
 30
0.0
 10
259.5415825591855
 20
235.4569252657722
 30
0.0
 10
259.5100226519926
 20
235.5053216884284
 30
0.0
 10
259.4673705421145
 20
235.5799355728282
 30
0.0
 10
259.4539371332193
 20
235.605144567039
 30
0.0
 10
259.4349442696542
 20
235.6434606367739
 30
0.0
 10
259.4288165684353
 20
235.6562987920281
 30
0.0
 10
259.4170685955081
 20
235.6818571201617
 30
0.0
 10
259.4114307220887
 20
235.6946122829822
 30
0.0
 10
259.3843631216455
 20
235.7582789309421
 30
0.0
 10
259.3662748985389
 20
235.8088665519856
 30
0.0
 10
259.3436899166875
 20
235.884387641667
 30
0.0
 10
259.3369242191288
 20
235.9095005570531
 30
0.0
 10
259.3248301826255
 20
235.9596242167293
 30
0.0
 10
259.3195600688357
 20
235.9843955310836
 30
0.0
 10
259.3058788213837
 20
236.0577613823057
 30
0.0
 10
259.2995620133509
 20
236.1055046371284
 30
0.0
 10
259.2916340631044
 20
236.1991268468236
 30
0.0
 10
259.2900295141093
 20
236.2450024202108
 30
0.0
 10
259.2907488391848
 20
236.3126287329169
 30
0.0
 10
259.2915137788093
 20
236.3350049423859
 30
0.0
 10
259.2940330279368
 20
236.3792347744594
 30
0.0
 10
259.2957812961479
 20
236.4010155928869
 30
0.0
 10
259.3023837261412
 20
236.4654401558098
 30
0.0
 10
259.3085904859435
 20
236.5071701586525
 30
0.0
 10
259.3319962306455
 20
236.6291814073967
 30
0.0
 10
259.3539421257548
 20
236.7063161265522
 30
0.0
 10
259.3949764613551
 20
236.8167008022831
 30
0.0
 10
259.4100189907618
 20
236.8525996120378
 30
0.0
 10
259.4345365503207
 20
236.9051590414522
 30
0.0
 10
259.4430297861578
 20
236.9224492380823
 30
0.0
 10
259.4605500860945
 20
236.9564120070872
 30
0.0
 10
259.4695885798658
 20
236.9731095529606
 30
0.0
 10
259.5161202606646
 20
237.0552242726907
 30
0.0
 10
259.5576073791371
 20
237.1165502876471
 30
0.0
 10
259.6481931241428
 20
237.2311471361868
 30
0.0
 10
259.6972982565318
 20
237.2844108773575
 30
0.0
 10
259.7763452477392
 20
237.3583374836417
 30
0.0
 10
259.8035955264697
 20
237.3819811257536
 30
0.0
 10
259.8458072924181
 20
237.415927319063
 30
0.0
 10
259.8601007732082
 20
237.4269892924691
 30
0.0
 10
259.8891329342425
 20
237.4486002290227
 30
0.0
 10
259.9038898044744
 20
237.4591614104944
 30
0.0
 10
259.9785275024985
 20
237.5104879755577
 30
0.0
 10
260.0409106758146
 20
237.5468224174637
 30
0.0
 10
260.1707068378495
 20
237.6100025712171
 30
0.0
 10
260.2381196659513
 20
237.6368502635289
 30
0.0
 10
260.3779282836819
 20
237.6805298486386
 30
0.0
 10
260.4503208280361
 20
237.6973702388129
 30
0.0
 10
260.5253374367728
 20
237.7086225135135
 30
0.0
  0
SPLINE
  5
127
330
1F
100
AcDbEntity
  8
1
100
AcDbSpline
210
0.0
220
0.0
230
1.0
 70
    24
 71
     3
 72
    10
 73
     6
 74
     0
 42
0.000000001
 43
0.0000000001
 40
0.0
 40
0.0
 40
0.0
 40
0.0
 40
0.5
 40
0.5
 40
1.0
 40
1.0
 40
1.0
 40
1.0
 10
260.5253374367728
 20
244.4497904602925
 30
0.0
 10
260.0628959204794
 20
244.4497904602925
 30
0.0
 10
259.5997890698154
 20
244.4497904602925
 30
0.0
 10
258.671711035304
 20
244.4497904602925
 30
0.0
 10
258.2067462016845
 20
244.4497904602925
 30
0.0
 10
257.740427044089
 20
244.4497904602925
 30
0.0
  0
SPLINE
  5
128
330
1F
100
AcDbEntity
  8
1
100
AcDbSpline
210
0.0
220
0.0
230
1.0
 70
     8
 71
     3
 72
    12
 73
     8
 74
     0
 42
0.000000001
 43
0.0000000001
 40
0.0
 40
0.0
 40
0.0
 40
0.0
 40
0.500000000000012
 40
0.500000000000012
 40
0.7500000000000061
 40
0.7500000000000061
 40
1.0
 40
1.0
 40
1.0
 40
1.0
 10
260.9555166514052
 20
237.7086225135135
 30
0.0
 10
260.8849383492533
 20
237.7192090550419
 30
0.0
 10
260.813313027377
 20
237.7246564211399
 30
0.0
 10
260.7042162632564
 20
237.7246680687023
 30
0.0
 10
260.6680559458336
 20
237.7233037087856
 30
0.0
 10
260.596311755764
 20
237.7179329850875
 30
0.0
 10
260.5606976966949
 20
237.7139264503993
 30
0.0
 10
260.5253374367728
 20
237.7086225135135
 30
0.0
  0
SPLINE
  5
129
330
1F
100
AcDbEntity
  8
1
100
AcDbSpline
210
0.0
220
0.0
230
1.0
 70
    24
 71
     3
 72
    14
 73
    10
 74
     0
 42
0.000000001
 43
0.0000000001
 40
0.0
 40
0.0
 40
0.0
 40
0.0
 40
0.25
 40
0.25
 40
0.5
 40
0.5
 40
0.75
 40
0.75
 40
1.0
 40
1.0
 40
1.0
 40
1.0
 10
266.1387810895845
 20
244.4497904602925
 30
0.0
 10
265.7006491263856
 20
244.4497904602925
 30
0.0
 10
265.2650085851325
 20
244.4497904602925
 30
0.0
 10
264.3968978613759
 20
244.4497904602925
 30
0.0
 10
263.9644454150042
 20
244.4497904602925
 30
0.0
 10
263.1017060390898
 20
244.4497904602925
 30
0.0
 10
262.6714272143291
 20
244.4497904602925
 30
0.0
 10
261.8124122816652
 20
244.4497904602925
 30
0.0
 10
261.3836802302533
 20
244.4497904602925
 30
0.0
 10
260.9555166514052
 20
244.4497904602925
 30
0.0
  0
SPLINE
  5
12A
330
1F
100
AcDbEntity
  8
1
100
AcDbSpline
210
0.0
220
0.0
230
1.0
 70
     8
 71
     3
 72
    79
 73
    75
 74
     0
 42
0.000000001
 43
0.0000000001
 40
0.0
 40
0.0
 40
0.0
 40
0.0
 40
0.0624999999999958
 40
0.0624999999999958
 40
0.1249999999999915
 40
0.1249999999999915
 40
0.1874999999999873
 40
0.1874999999999873
 40
0.2031249999999861
 40
0.2031249999999861
 40
0.2187499999999847
 40
0.2187499999999847
 40
0.249999999999983
 40
0.249999999999983
 40
0.3124999999999805
 40
0.3124999999999805
 40
0.3749999999999779
 40
0.3749999999999779
 40
0.4062499999999771
 40
0.4062499999999771
 40
0.4218749999999775
 40
0.4218749999999775
 40
0.4374999999999777
 40
0.4374999999999777
 40
0.4999999999999775
 40
0.4999999999999775
 40
0.531249999999977
 40
0.531249999999977
 40
0.5468749999999773
 40
0.5468749999999773
 40
0.5624999999999777
 40
0.5624999999999777
 40
0.5937499999999783
 40
0.5937499999999783
 40
0.6249999999999789
 40
0.6249999999999789
 40
0.6406249999999798
 40
0.6406249999999798
 40
0.6562499999999804
 40
0.6562499999999804
 40
0.6874999999999809
 40
0.6874999999999809
 40
0.6953124999999812
 40
0.6953124999999812
 40
0.7031249999999813
 40
0.7031249999999813
 40
0.7187499999999816
 40
0.7343749999999818
 40
0.7343749999999818
 40
0.7421874999999824
 40
0.7421874999999824
 40
0.749999999999983
 40
0.749999999999983
 40
0.7812499999999826
 40
0.7812499999999826
 40
0.7968749999999824
 40
0.7968749999999824
 40
0.8046874999999824
 40
0.8046874999999824
 40
0.8124999999999824
 40
0.8124999999999824
 40
0.8437499999999857
 40
0.8437499999999857
 40
0.8593749999999873
 40
0.8593749999999873
 40
0.8749999999999888
 40
0.8749999999999888
 40
0.9062499999999914
 40
0.9062499999999914
 40
0.9374999999999944
 40
0.9374999999999944
 40
0.9687499999999971
 40
0.9687499999999971
 40
1.0
 40
1.0
 40
1.0
 40
1.0
 10
260.9555166514052
 20
237.7086225135135
 30
0.0
 10
261.0305104347077
 20
237.6973736625621
 30
0.0
 10
261.1028160839161
 20
237.6805507129737
 30
0.0
 10
261.2423600598443
 20
237.6369805919321
 30
0.0
 10
261.3095948109686
 20
237.6102244683163
 30
0.0
 10
261.4389722242456
 20
237.5473416175487
 30
0.0
 10
261.5011144948235
 20
237.5112125508178
 30
0.0
 10
261.5754295266571
 20
237.4602423999277
 30
0.0
 10
261.5901237298519
 20
237.4497567901161
 30
0.0
 10
261.6191672892577
 20
237.4281990433848
 30
0.0
 10
261.6335347689511
 20
237.4171120955047
 30
0.0
 10
261.6759576330241
 20
237.3830851327803
 30
0.0
 10
261.7033135634096
 20
237.359401961947
 30
0.0
 10
261.7825893815997
 20
237.2854181484862
 30
0.0
 10
261.8317294154624
 20
237.2321974802985
 30
0.0
 10
261.92223704695
 20
237.1179529803423
 30
0.0
 10
261.9636101505924
 20
237.0569348001397
 30
0.0
 10
262.019242450183
 20
236.9591619740464
 30
0.0
 10
262.0367113905388
 20
236.9255256166658
 30
0.0
 10
262.0611786896349
 20
236.8733991234701
 30
0.0
 10
262.0690447076017
 20
236.8557445221241
 30
0.0
 10
262.0841710233122
 20
236.8198534838806
 30
0.0
 10
262.0914416225416
 20
236.8015888275599
 30
0.0
 10
262.1260629845318
 20
236.7091206402997
 30
0.0
 10
262.1482242147551
 20
236.6317143807271
 30
0.0
 10
262.1718710054658
 20
236.5095846336427
 30
0.0
 10
262.1781447294342
 20
236.4678638003432
 30
0.0
 10
262.184848256462
 20
236.40355142758
 30
0.0
 10
262.1866304090947
 20
236.3818245148877
 30
0.0
 10
262.1892226667885
 20
236.337741534893
 30
0.0
 10
262.190031126751
 20
236.3153589330126
 30
0.0
 10
262.1908778446709
 20
236.2477437939872
 30
0.0
 10
262.1893599291954
 20
236.2018876140066
 30
0.0
 10
262.1816202919065
 20
236.1083363295268
 30
0.0
 10
262.175404939881
 20
236.0606444595394
 30
0.0
 10
262.1619016923471
 20
235.9873902373168
 30
0.0
 10
262.1566956655326
 20
235.9626632812225
 30
0.0
 10
262.144741076012
 20
235.9126372925695
 30
0.0
 10
262.1380472921843
 20
235.8875656689
 30
0.0
 10
262.1156817897159
 20
235.8121440434333
 30
0.0
 10
262.0977452503775
 20
235.7615904702064
 30
0.0
 10
262.0708606151363
 20
235.6979167644496
 30
0.0
 10
262.0652589727447
 20
235.6851576866875
 30
0.0
 10
262.0535822533483
 20
235.6595861845398
 30
0.0
 10
262.0474940333783
 20
235.6467490902731
 30
0.0
 10
262.0286790832978
 20
235.6085465970012
 30
0.0
 10
262.0020341393919
 20
235.5582162119547
 30
0.0
 10
261.9722009993582
 20
235.5091133160251
 30
0.0
 10
261.9485888628179
 20
235.4727578246938
 30
0.0
 10
261.9405117632318
 20
235.4607180078649
 30
0.0
 10
261.9239356957447
 20
235.4367984538729
 30
0.0
 10
261.9154136688283
 20
235.4248877517557
 30
0.0
 10
261.8719982465547
 20
235.3661138394215
 30
0.0
 10
261.8351909954319
 20
235.3222070445744
 30
0.0
 10
261.777206496749
 20
235.2605714721478
 30
0.0
 10
261.7574141092226
 20
235.2407329367169
 30
0.0
 10
261.7270564419077
 20
235.2119993529036
 30
0.0
 10
261.7168662870835
 20
235.2026318657419
 30
0.0
 10
261.6964789660706
 20
235.1844111818285
 30
0.0
 10
261.686261878394
 20
235.1755390517247
 30
0.0
 10
261.6350675690661
 20
235.1323016681868
 30
0.0
 10
261.5937675825016
 20
235.1012813204025
 30
0.0
 10
261.5314060336883
 20
235.0591471855511
 30
0.0
 10
261.5105479028596
 20
235.0458392059907
 30
0.0
 10
261.4687095726907
 20
235.0205902142123
 30
0.0
 10
261.4479568156883
 20
235.0087853753718
 30
0.0
 10
261.3861339994806
 20
234.9755287985484
 30
0.0
 10
261.3454966151009
 20
234.956220265871
 30
0.0
 10
261.2651306509397
 20
234.9222257657112
 30
0.0
 10
261.2254034463656
 20
234.9075473707543
 30
0.0
 10
261.1466896534623
 20
234.8821265064062
 30
0.0
 10
261.1076290658546
 20
234.8713753672602
 30
0.0
 10
261.0307702905156
 20
234.853482412777
 30
0.0
 10
260.9929059250214
 20
234.8463141584585
 30
0.0
 10
260.9555166514052
 20
234.8407058753773
 30
0.0
  0
SPLINE
  5
12B
330
1F
100
AcDbEntity
  8
1
100
AcDbSpline
210
0.0
220
0.0
230
1.0
 70
    24
 71
     3
 72
     8
 73
     4
 74
     0
 42
0.000000001
 43
0.0000000001
 40
0.0
 40
0.0
 40
0.0
 40
0.0
 40
1.0
 40
1.0
 40
1.0
 40
1.0
 10
266.1387810895845
 20
236.1399076771562
 30
0.0
 10
264.4110262768581
 20
234.4121528644298
 30
0.0
 10
262.6832714641316
 20
232.6843980517033
 30
0.0
 10
260.9555166514052
 20
230.9566432389769
 30
0.0
  0
SPLINE
  5
12C
330
1F
100
AcDbEntity
  8
NOCUT
100
AcDbSpline
210
0.0
220
0.0
230
1.0
 70
     8
 71
     3
 72
    20
 73
    16
 74
     0
 42
0.000000001
 43
0.0000000001
 40
0.0
 40
0.0
 40
0.0
 40
0.0
 40
0.2499999999999461
 40
0.2499999999999461
 40
0.3749999999998135
 40
0.3749999999998135
 40
0.4999999999998235
 40
0.4999999999998235
 40
0.6249999999997785
 40
0.6249999999997785
 40
0.7499999999997562
 40
0.7499999999997562
 40
0.8749999999998504
 40
0.8749999999998504
 40
1.0
 40
1.0
 40
1.0
 40
1.0
 10
254.7948661641285
 20
251.4823148899474
 30
0.0
 10
254.7968238031964
 20
251.4822187568565
 30
0.0
 10
254.7987814422821
 20
251.4821226241267
 30
0.0
 10
254.8017179009371
 20
251.4819784255737
 30
0.0
 10
254.8026967204933
 20
251.4819303594796
 30
0.0
 10
254.8046543596144
 20
251.4818342274721
 30
0.0
 10
254.8056331791794
 20
251.4817861615586
 30
0.0
 10
254.8075908183183
 20
251.4816900299122
 30
0.0
 10
254.8085696378922
 20
251.4816419641793
 30
0.0
 10
254.8105272770488
 20
251.481545832894
 30
0.0
 10
254.8115060966315
 20
251.4814977673417
 30
0.0
 10
254.8134637358058
 20
251.4814016364176
 30
0.0
 10
254.8144425553974
 20
251.4813535710458
 30
0.0
 10
254.8164001945895
 20
251.4812574404829
 30
0.0
 10
254.81737901419
 20
251.4812093752918
 30
0.0
 10
254.8183578337949
 20
251.481161310191
 30
0.0
  0
SPLINE
  5
12D
330
1F
100
AcDbEntity
  8
NOCUT
100
AcDbSpline
210
0.0
220
0.0
230
1.0
 70
     8
 71
     3
 72
    14
 73
    10
 74
     0
 42
0.000000001
 43
0.0000000001
 40
0.0
 40
0.0
 40
0.0
 40
0.0
 40
0.25
 40
0.25
 40
0.5
 40
0.5
 40
0.75
 40
0.75
 40
1.0
 40
1.0
 40
1.0
 40
1.0
 10
260.9555166514051
 20
256.8955341380843
 30
0.0
 10
261.3834969857403
 20
256.4802281765648
 30
0.0
 10
261.8120788588618
 20
256.0655421391805
 30
0.0
 10
262.6708772732534
 20
255.237865527904
 30
0.0
 10
263.1010901305561
 20
254.8248700168129
 30
0.0
 10
263.9638019520373
 20
254.0012738828661
 30
0.0
 10
264.3962929651382
 20
253.5906640142863
 30
0.0
 10
265.2646108363224
 20
252.772978602716
 30
0.0
 10
265.7004108053175
 20
252.3658919168855
 30
0.0
 10
266.1387810895844
 20
251.9615641995435
 30
0.0
  0
SPLINE
  5
12E
330
1F
100
AcDbEntity
  8
NOCUT
100
AcDbSpline
210
0.0
220
0.0
230
1.0
 70
     8
 71
     3
 72
    14
 73
    10
 74
     0
 42
0.000000001
 43
0.0000000001
 40
0.0
 40
0.0
 40
0.0
 40
0.0
 40
0.25
 40
0.25
 40
0.5
 40
0.5
 40
0.75
 40
0.75
 40
1.0
 40
1.0
 40
1.0
 40
1.0
 10
254.8183578337949
 20
251.481161310191
 30
0.0
 10
255.302765843008
 20
251.9229125668923
 30
0.0
 10
255.7834468287292
 20
252.36872243427
 30
0.0
 10
256.7403466752939
 20
253.2650985589144
 30
0.0
 10
257.216529295463
 20
253.7157065044551
 30
0.0
 10
258.1659627625597
 20
254.6199945920127
 30
0.0
 10
258.639198438018
 20
255.0736917195051
 30
0.0
 10
259.5836481521666
 20
255.9831829537331
 30
0.0
 10
260.0548552847484
 20
256.4389850239112
 30
0.0
 10
260.5253374367727
 20
256.8955341380843
 30
0.0
  0
LINE
  5
12F
330
1F
100
AcDbEntity
  8
4
100
AcDbLine
 10
234.144248
 20
243.731161
 30
0.0
 11
268.144248
 21
243.731161
 31
0.0
  0
LINE
  5
130
330
1F
100
AcDbEntity
  8
SK4
100
AcDbLine
 10
172.144248
 20
243.731161
 30
0.0
 11
268.144248
 21
243.731161
 31
0.0
  0
MTEXT
  5
131
330
1F
100
AcDbEntity
  8
SK6
100
AcDbMText
 10
203.44812
 20
205.761883
 30
0.0
 40
3.5
 41
0.0
 71
     7
 72
     5
  1
\W0.7275;16N2R030E02-SSD09-A\P\P\P 
  7
cesky
 73
     1
 44
0.8433729999999998
  0
MTEXT
  5
215
330
1F
100
AcDbEntity
  8
2
100
AcDbMText
 10
281.601389
 20
242.190798
 30
0.0
 40
3.5
 41
0.0
 71
     7
 72
     5
  1
\W0.8260;16
  7
cesky
 11
0.0000000000000001
 21
1.0
 31
0.0
 73
     2
 44
0.8433729999999998
  0
MTEXT
  5
216
330
1F
100
AcDbEntity
  8
2
100
AcDbMText
 10
281.601389
 20
235.453298
 30
0.0
 40
3.5
 41
0.0
 71
     7
 72
     5
  1
\W3.0115;\H2.63;%%c\H3.50;
  7
cesky
 11
0.0000000000000001
 21
1.0
 31
0.0
 73
     2
 44
0.8433729999999998
  0
LINE
  5
217
330
1F
100
AcDbEntity
  8
2
100
AcDbLine
 10
269.144248
 20
251.731161
 30
0.0
 11
282.788805
 21
251.731161
 31
0.0
  0
LINE
  5
218
330
1F
100
AcDbEntity
  8
2
100
AcDbLine
 10
281.788805
 20
251.731161
 30
0.0
 11
281.788805
 21
235.295798
 31
0.0
  0
SOLID
  5
219
330
1F
100
AcDbEntity
  8
2
100
AcDbTrace
 10
281.788805
 20
251.731161
 30
0.0
 11
282.40595
 21
248.231164
 31
0.0
 12
281.171661
 22
248.231159
 32
0.0
 13
281.171661
 23
248.231159
 33
0.0
  0
MTEXT
  5
21A
330
1F
100
AcDbEntity
  8
2
100
AcDbMText
 10
256.739902
 20
267.364574
 30
0.0
 40
3.5
 41
0.0
 71
     7
 72
     5
  1
\W1.0515;45%%d
  7
cesky
 11
0.9238795325112866
 21
0.3826834323650902
 31
0.0
 73
     2
 44
0.8433729999999998
  0
LINE
  5
21B
330
1F
100
AcDbEntity
  8
2
100
AcDbLine
 10
267.144248
 20
253.731161
 30
0.0
 11
267.144248
 21
271.364329
 31
0.0
  0
LINE
  5
21C
330
1F
100
AcDbEntity
  8
2
100
AcDbLine
 10
261.306112
 20
257.56137
 30
0.0
 11
253.255897
 21
265.611585
 31
0.0
  0
ARC
  5
21D
330
1F
100
AcDbEntity
  8
2
100
AcDbCircle
 10
267.144248
 20
251.723234
 30
0.0
 40
18.64109451516275
100
AcDbArc
 50
90.0
 51
134.999943
  0
SOLID
  5
21E
330
1F
100
AcDbEntity
  8
2
100
AcDbTrace
 10
267.144248
 20
270.364329
 30
0.0
 11
263.676956
 21
269.584112
 31
0.0
 12
263.619205
 22
270.817049
 32
0.0
 13
263.619205
 23
270.817049
 33
0.0
  0
SOLID
  5
21F
330
1F
100
AcDbEntity
  8
2
100
AcDbTrace
 10
253.963004
 20
264.904478
 30
0.0
 11
256.13546
 21
267.717179
 31
0.0
 12
256.966449
 22
266.804531
 32
0.0
 13
256.966449
 23
266.804531
 33
0.0
  0
MTEXT
  5
220
330
1F
100
AcDbEntity
  8
2
100
AcDbMText
 10
273.829748
 20
259.584004
 30
0.0
 40
3.5
 41
0.0
 71
     7
 72
     5
  1
\W0.8874;4,5
  7
cesky
 73
     2
 44
0.8433729999999998
  0
LINE
  5
221
330
1F
100
AcDbEntity
  8
2
100
AcDbLine
 10
261.306112
 20
257.56137
 30
0.0
 11
261.306112
 21
260.709837
 31
0.0
  0
LINE
  5
222
330
1F
100
AcDbEntity
  8
2
100
AcDbLine
 10
267.144248
 20
253.731161
 30
0.0
 11
267.144248
 21
260.709837
 31
0.0
  0
LINE
  5
223
330
1F
100
AcDbEntity
  8
2
100
AcDbLine
 10
280.169248
 20
259.709837
 30
0.0
 11
252.556112
 21
259.709837
 31
0.0
  0
SOLID
  5
224
330
1F
100
AcDbEntity
  8
2
100
AcDbTrace
 10
261.306112
 20
259.709837
 30
0.0
 11
257.806115
 21
259.092692
 31
0.0
 12
257.80611
 22
260.326981
 32
0.0
 13
257.80611
 23
260.326981
 33
0.0
  0
SOLID
  5
225
330
1F
100
AcDbEntity
  8
2
100
AcDbTrace
 10
267.144248
 20
259.709837
 30
0.0
 11
270.644246
 21
260.326981
 31
0.0
 12
270.644251
 22
259.092692
 32
0.0
 13
270.644251
 23
259.092692
 33
0.0
  0
MTEXT
  5
226
330
1F
100
AcDbEntity
  8
SK2
100
AcDbMText
 10
218.329748
 20
284.411881
 30
0.0
 40
3.5
 41
0.0
 71
     7
 72
     5
  1
\W0.6844;94
  7
cesky
 73
     2
 44
0.8433729999999998
  0
LINE
  5
227
330
1F
100
AcDbEntity
  8
SK2
100
AcDbLine
 10
173.144248
 20
243.731161
 30
0.0
 11
173.144248
 21
285.537714
 31
0.0
  0
LINE
  5
228
330
1F
100
AcDbEntity
  8
SK2
100
AcDbLine
 10
267.144248
 20
253.731161
 30
0.0
 11
267.144248
 21
285.537714
 31
0.0
  0
LINE
  5
229
330
1F
100
AcDbEntity
  8
SK2
100
AcDbLine
 10
173.144248
 20
284.537714
 30
0.0
 11
267.144248
 21
284.537714
 31
0.0
  0
SOLID
  5
22A
330
1F
100
AcDbEntity
  8
SK2
100
AcDbTrace
 10
173.144248
 20
284.537714
 30
0.0
 11
176.644246
 21
285.154859
 31
0.0
 12
176.644251
 22
283.92057
 32
0.0
 13
176.644251
 23
283.92057
 33
0.0
  0
SOLID
  5
22B
330
1F
100
AcDbEntity
  8
SK2
100
AcDbTrace
 10
267.144248
 20
284.537714
 30
0.0
 11
263.644251
 21
283.92057
 31
0.0
 12
263.644246
 22
285.154859
 32
0.0
 13
263.644246
 23
285.154859
 33
0.0
  0
MTEXT
  5
22C
330
1F
100
AcDbEntity
  8
SK2
100
AcDbMText
 10
250.329748
 20
275.941159
 30
0.0
 40
3.5
 41
0.0
 71
     7
 72
     5
  1
\W0.7045;30
  7
cesky
 73
     2
 44
0.8433729999999998
  0
LINE
  5
22D
330
1F
100
AcDbEntity
  8
SK2
100
AcDbLine
 10
267.144248
 20
253.731161
 30
0.0
 11
267.144248
 21
277.066992
 31
0.0
  0
LINE
  5
22E
330
1F
100
AcDbEntity
  8
SK2
100
AcDbLine
 10
237.144248
 20
244.730735
 30
0.0
 11
237.144248
 21
277.066992
 31
0.0
  0
LINE
  5
22F
330
1F
100
AcDbEntity
  8
SK2
100
AcDbLine
 10
267.144248
 20
276.066992
 30
0.0
 11
237.144248
 21
276.066992
 31
0.0
  0
SOLID
  5
230
330
1F
100
AcDbEntity
  8
SK2
100
AcDbTrace
 10
267.144248
 20
276.066992
 30
0.0
 11
263.644251
 21
275.449848
 31
0.0
 12
263.644246
 22
276.684137
 32
0.0
 13
263.644246
 23
276.684137
 33
0.0
  0
SOLID
  5
231
330
1F
100
AcDbEntity
  8
SK2
100
AcDbTrace
 10
237.144248
 20
276.066992
 30
0.0
 11
240.644246
 21
276.684137
 31
0.0
 12
240.644251
 22
275.449848
 32
0.0
 13
240.644251
 23
275.449848
 33
0.0
  0
ARC
  5
232
330
1F
100
AcDbEntity
  8
CUT
100
AcDbCircle
 10
255.136606
 20
251.391863
 30
0.0
 40
0.8000000000000007
100
AcDbArc
 50
135.0
 51
225.0
  0
ARC
  5
233
330
1F
100
AcDbEntity
  8
CUT
100
AcDbCircle
 10
260.740427
 20
245.788042
 30
0.0
 40
0.8000000000000007
100
AcDbArc
 50
225.0
 51
315.0
  0
ARC
  5
234
330
1F
100
AcDbEntity
  8
CUT
100
AcDbCircle
 10
260.740427
 20
256.995684
 30
0.0
 40
0.8000000000000007
100
AcDbArc
 50
45.0
 51
135.0
  0
ARC
  5
235
330
1F
100
AcDbEntity
  8
CUT
100
AcDbCircle
 10
266.344248
 20
251.391863
 30
0.0
 40
0.8000000000000007
100
AcDbArc
 50
315.0
 51
45.0
  0
LINE
  5
236
330
1F
100
AcDbEntity
  8
CUT
100
AcDbLine
 10
261.306112
 20
257.56137
 30
0.0
 11
266.909934
 21
251.957549
 31
0.0
  0
LINE
  5
237
330
1F
100
AcDbEntity
  8
CUT
100
AcDbLine
 10
260.174742
 20
245.222357
 30
0.0
 11
254.5709200000001
 21
250.826178
 31
0.0
  0
LINE
  5
238
330
1F
100
AcDbEntity
  8
CUT
100
AcDbLine
 10
266.909934
 20
250.826178
 30
0.0
 11
261.306112
 21
245.222357
 31
0.0
  0
LINE
  5
239
330
1F
100
AcDbEntity
  8
CUT
100
AcDbLine
 10
254.5709200000001
 20
251.957549
 30
0.0
 11
260.174742
 21
257.56137
 31
0.0
  0
ENDSEC
  0
SECTION
  2
OBJECTS
  0
DICTIONARY
  5
C
330
0
100
AcDbDictionary
281
     1
  3
ACAD_CIP_PREVIOUS_PRODUCT_INFO
350
212
  3
ACAD_COLOR
350
20C
  3
ACAD_DETAILVIEWSTYLE
350
208
  3
ACAD_GROUP
350
D
  3
ACAD_IMAGE_DICT
350
CB
  3
ACAD_IMAGE_VARS
350
211
  3
ACAD_LAYOUT
350
1A
  3
ACAD_MATERIAL
350
43
  3
ACAD_MLEADERSTYLE
350
6B
  3
ACAD_MLINESTYLE
350
17
  3
ACAD_PLOTSETTINGS
350
19
  3
ACAD_PLOTSTYLENAME
350
E
  3
ACAD_SCALELIST
350
47
  3
ACAD_SECTIONVIEWSTYLE
350
209
  3
ACAD_TABLESTYLE
350
69
  3
ACAD_VISUALSTYLE
350
2A
  3
ACDB_RECOMPOSE_DATA
350
26E
  3
AcDbVariableDictionary
350
1C5
  3
AcDsDecomposeData
350
274
  0
DICTIONARY
  5
263
330
2
100
AcDbDictionary
280
     1
281
     1
  3
ACAD_LAYERSTATES
360
264
  0
DICTIONARY
  5
248
330
10
100
AcDbDictionary
280
     1
281
     1
  3
ADSK_XREC_LAYER_RECONCILED
360
249
  0
DICTIONARY
  5
24A
330
23A
100
AcDbDictionary
280
     1
281
     1
  3
ADSK_XREC_LAYER_RECONCILED
360
24B
  0
DICTIONARY
  5
24C
330
23B
100
AcDbDictionary
280
     1
281
     1
  3
ADSK_XREC_LAYER_RECONCILED
360
24D
  0
DICTIONARY
  5
24E
330
23C
100
AcDbDictionary
280
     1
281
     1
  3
ADSK_XREC_LAYER_RECONCILED
360
24F
  0
DICTIONARY
  5
250
330
23E
100
AcDbDictionary
280
     1
281
     1
  3
ADSK_XREC_LAYER_RECONCILED
360
251
  0
DICTIONARY
  5
252
330
23F
100
AcDbDictionary
280
     1
281
     1
  3
ADSK_XREC_LAYER_RECONCILED
360
253
  0
DICTIONARY
  5
254
330
241
100
AcDbDictionary
280
     1
281
     1
  3
ADSK_XREC_LAYER_RECONCILED
360
255
  0
DICTIONARY
  5
256
330
242
100
AcDbDictionary
280
     1
281
     1
  3
ADSK_XREC_LAYER_RECONCILED
360
257
  0
DICTIONARY
  5
258
330
243
100
AcDbDictionary
280
     1
281
     1
  3
ADSK_XREC_LAYER_RECONCILED
360
259
  0
DICTIONARY
  5
25A
330
244
100
AcDbDictionary
280
     1
281
     1
  3
ADSK_XREC_LAYER_RECONCILED
360
25B
  0
DICTIONARY
  5
25C
330
245
100
AcDbDictionary
280
     1
281
     1
  3
ADSK_XREC_LAYER_RECONCILED
360
25D
  0
DICTIONARY
  5
25E
330
246
100
AcDbDictionary
280
     1
281
     1
  3
ADSK_XREC_LAYER_RECONCILED
360
25F
  0
DICTIONARY
  5
213
330
1F
100
AcDbDictionary
280
     1
281
     1
  3
ACAD_SORTENTS
360
214
  0
XRECORD
  5
212
102
{ACAD_REACTORS
330
C
102
}
330
C
100
AcDbXrecord
280
     1
300
ACD
300
2019
300
87084ACD_2019_0F
  0
DICTIONARY
  5
20C
102
{ACAD_REACTORS
330
C
102
}
330
C
100
AcDbDictionary
281
     1
  0
DICTIONARY
  5
208
102
{ACAD_REACTORS
330
C
102
}
330
C
100
AcDbDictionary
281
     1
  3
Metric50
350
20E
  0
DICTIONARY
  5
D
102
{ACAD_REACTORS
330
C
102
}
330
C
100
AcDbDictionary
281
     1
  3
NULOVY_BOD
350
247
  0
DICTIONARY
  5
CB
102
{ACAD_REACTORS
330
C
102
}
330
C
100
AcDbDictionary
281
     1
  3
16N2R030E02_SSD09_A_2D_DormerPramet_jpg
350
CC
  0
RASTERVARIABLES
  5
211
102
{ACAD_REACTORS
330
C
102
}
330
C
100
AcDbRasterVariables
 90
        0
 70
     1
 71
     1
 72
     1
  0
DICTIONARY
  5
1A
102
{ACAD_REACTORS
330
C
102
}
330
C
100
AcDbDictionary
281
     1
  3
Layout1
350
1E
  3
Layout2
350
26
  3
Model
350
22
  0
DICTIONARY
  5
43
102
{ACAD_REACTORS
330
C
102
}
330
C
100
AcDbDictionary
281
     1
  3
ByBlock
350
45
  3
ByLayer
350
44
  3
Global
350
46
  0
DICTIONARY
  5
6B
102
{ACAD_REACTORS
330
C
102
}
330
C
100
AcDbDictionary
281
     1
  3
Standard
350
6C
  0
DICTIONARY
  5
17
102
{ACAD_REACTORS
330
C
102
}
330
C
100
AcDbDictionary
281
     1
  3
Standard
350
18
  0
DICTIONARY
  5
19
102
{ACAD_REACTORS
330
C
102
}
330
C
100
AcDbDictionary
281
     1
  0
ACDBDICTIONARYWDFLT
  5
E
102
{ACAD_REACTORS
330
C
102
}
330
C
100
AcDbDictionary
281
     1
  3
Normal
350
F
100
AcDbDictionaryWithDefault
340
F
  0
DICTIONARY
  5
47
102
{ACAD_REACTORS
330
C
102
}
330
C
100
AcDbDictionary
281
     1
  3
A0
350
48
  3
A1
350
49
  3
A2
350
4A
  3
A3
350
4B
  3
A4
350
4C
  3
A5
350
4D
  3
A6
350
4E
  3
A7
350
4F
  3
A8
350
50
  3
A9
350
51
  3
B0
350
52
  3
B1
350
53
  3
B2
350
54
  3
B3
350
55
  3
B4
350
56
  3
B5
350
57
  3
B6
350
58
  3
B7
350
59
  3
B8
350
5A
  3
B9
350
5B
  3
C0
350
5C
  3
C1
350
5D
  3
C2
350
5E
  3
C3
350
5F
  3
C4
350
60
  3
C5
350
61
  3
C6
350
62
  3
C7
350
63
  3
C8
350
64
  3
C9
350
65
  3
D0
350
66
  3
D1
350
67
  3
D2
350
68
  0
DICTIONARY
  5
209
102
{ACAD_REACTORS
330
C
102
}
330
C
100
AcDbDictionary
281
     1
  3
Metric50
350
20D
  0
DICTIONARY
  5
69
102
{ACAD_REACTORS
330
C
102
}
330
C
100
AcDbDictionary
281
     1
  3
Standard
350
6A
  0
DICTIONARY
  5
2A
102
{ACAD_REACTORS
330
C
102
}
330
C
100
AcDbDictionary
281
     1
  3
2dWireframe
350
2F
  3
Basic
350
32
  3
Brighten
350
36
  3
ColorChange
350
3A
  3
Conceptual
350
34
  3
Dim
350
35
  3
EdgeColorOff
350
3D
  3
Facepattern
350
39
  3
Flat
350
2B
  3
FlatWithEdges
350
2C
  3
Gouraud
350
2D
  3
GouraudWithEdges
350
2E
  3
Hidden
350
31
  3
JitterOff
350
3B
  3
Linepattern
350
38
  3
OverhangOff
350
3C
  3
Realistic
350
33
  3
Shaded
350
42
  3
Shaded with edges
350
41
  3
Shades of Gray
350
3E
  3
Sketchy
350
3F
  3
Thicken
350
37
  3
Wireframe
350
30
  3
X-Ray
350
40
  0
XRECORD
  5
26E
102
{ACAD_REACTORS
330
C
102
}
330
C
100
AcDbXrecord
280
     1
 90
        1
330
6A
  0
DICTIONARY
  5
1C5
102
{ACAD_REACTORS
330
C
102
}
330
C
100
AcDbDictionary
281
     1
  3
CANNOSCALE
350
1C6
  3
CMLEADERSTYLE
350
207
  3
CTABLESTYLE
350
206
  3
CVIEWDETAILSTYLE
350
269
  3
CVIEWSECTIONSTYLE
350
26A
  3
MSLTSCALE
350
1C7
  3
XCLIPFRAME
350
26B
  0
DICTIONARY
  5
274
102
{ACAD_REACTORS
330
C
102
}
330
C
100
AcDbDictionary
281
     1
  3
AcDsRecords
350
276
  3
AcDsSchemas
350
275
1001
ACAD
1070
     2
  0
DICTIONARY
  5
264
102
{ACAD_REACTORS
330
263
102
}
330
263
100
AcDbDictionary
281
     1
  0
XRECORD
  5
249
102
{ACAD_REACTORS
330
248
102
}
330
248
100
AcDbXrecord
280
     1
290
     1
  0
XRECORD
  5
24B
102
{ACAD_REACTORS
330
24A
102
}
330
24A
100
AcDbXrecord
280
     1
290
     1
  0
XRECORD
  5
24D
102
{ACAD_REACTORS
330
24C
102
}
330
24C
100
AcDbXrecord
280
     1
290
     1
  0
XRECORD
  5
24F
102
{ACAD_REACTORS
330
24E
102
}
330
24E
100
AcDbXrecord
280
     1
290
     1
  0
XRECORD
  5
251
102
{ACAD_REACTORS
330
250
102
}
330
250
100
AcDbXrecord
280
     1
290
     1
  0
XRECORD
  5
253
102
{ACAD_REACTORS
330
252
102
}
330
252
100
AcDbXrecord
280
     1
290
     1
  0
XRECORD
  5
255
102
{ACAD_REACTORS
330
254
102
}
330
254
100
AcDbXrecord
280
     1
290
     1
  0
XRECORD
  5
257
102
{ACAD_REACTORS
330
256
102
}
330
256
100
AcDbXrecord
280
     1
290
     1
  0
XRECORD
  5
259
102
{ACAD_REACTORS
330
258
102
}
330
258
100
AcDbXrecord
280
     1
290
     1
  0
XRECORD
  5
25B
102
{ACAD_REACTORS
330
25A
102
}
330
25A
100
AcDbXrecord
280
     1
290
     1
  0
XRECORD
  5
25D
102
{ACAD_REACTORS
330
25C
102
}
330
25C
100
AcDbXrecord
280
     1
290
     1
  0
XRECORD
  5
25F
102
{ACAD_REACTORS
330
25E
102
}
330
25E
100
AcDbXrecord
280
     1
290
     1
  0
SORTENTSTABLE
  5
214
102
{ACAD_REACTORS
330
213
102
}
330
213
100
AcDbSortentsTable
330
1F
331
215
  5
167
331
216
  5
199
331
217
  5
215
331
218
  5
216
331
219
  5
217
331
21A
  5
218
331
21B
  5
219
331
21C
  5
21A
331
21D
  5
21B
331
21E
  5
21C
331
21F
  5
21D
331
220
  5
226
331
221
  5
227
331
222
  5
228
331
223
  5
229
331
224
  5
22A
331
225
  5
22B
331
226
  5
21F
331
227
  5
220
331
228
  5
221
331
229
  5
222
331
22A
  5
223
331
22B
  5
224
  0
ACDBDETAILVIEWSTYLE
  5
20E
102
{ACAD_XDICTIONARY
360
2AA
102
}
102
{ACAD_REACTORS
330
208
102
}
330
208
100
AcDbModelDocViewStyle
 70
     0
  3
Metric50
290
     0
100
AcDbDetailViewStyle
 70
     0
 71
     0
 90
        3
 71
     1
340
11
 62
   256
 40
5.0
340
0
 62
   256
 40
5.0
300

 40
0.0
280
     1
 71
     2
340
16
 90
       25
 62
   256
 71
     3
340
11
 62
   256
 40
5.0
 90
        0
 40
15.0
 90
        1
300
%<\AcVar ViewDetailId>% (%<\AcVar ViewScale \f "%sn">%)
 71
     4
340
16
 90
       25
 62
   256
340
16
 90
       25
 62
   256
280
     0
  0
GROUP
  5
247
102
{ACAD_REACTORS
330
D
102
}
330
D
100
AcDbGroup
300

 70
     0
 71
     1
340
73
  0
IMAGEDEF
  5
CC
102
{ACAD_REACTORS
330
CB
330
CF
102
}
330
CB
100
AcDbRasterImageDef
 90
        0
  1
C:\Users\pp0701\Desktop\zakaznik data\16N2R030E02_SSD09_A_2D_DormerPramet.jpg
 10
2089.0
 20
531.0
 11
0.0004786979415989
 21
0.0004786979415989
280
     1
281
     0
  0
LAYOUT
  5
1E
102
{ACAD_REACTORS
330
1A
102
}
330
1A
100
AcDbPlotSettings
  1

  2
none_device
  4

  6

 40
0.0
 41
0.0
 42
0.0
 43
0.0
 44
0.0
 45
0.0
 46
0.0
 47
0.0
 48
0.0
 49
0.0
140
0.0
141
0.0
142
1.0
143
1.0
 70
   688
 72
     0
 73
     0
 74
     5
  7

 75
    16
147
1.0
 76
     0
 77
     2
 78
   300
148
0.0
149
0.0
100
AcDbLayout
  1
Layout1
 70
     1
 71
     1
 10
-0.5
 20
-0.5
 11
5.0
 21
5.0
 12
0.0
 22
0.0
 32
0.0
 14
-0.5
 24
-0.5
 34
-0.5
 15
5.0
 25
5.0
 35
5.0
146
0.0
 13
0.0
 23
0.0
 33
0.0
 16
1.0
 26
0.0
 36
0.0
 17
0.0
 27
1.0
 37
0.0
 76
     0
330
1B
  0
LAYOUT
  5
26
102
{ACAD_REACTORS
330
1A
102
}
330
1A
100
AcDbPlotSettings
  1

  2
none_device
  4

  6

 40
0.0
 41
0.0
 42
0.0
 43
0.0
 44
0.0
 45
0.0
 46
0.0
 47
0.0
 48
0.0
 49
0.0
140
0.0
141
0.0
142
1.0
143
1.0
 70
   688
 72
     0
 73
     0
 74
     5
  7

 75
    16
147
1.0
 76
     0
 77
     2
 78
   300
148
0.0
149
0.0
100
AcDbLayout
  1
Layout2
 70
     1
 71
     2
 10
0.0
 20
0.0
 11
0.0
 21
0.0
 12
0.0
 22
0.0
 32
0.0
 14
0.0
 24
0.0
 34
0.0
 15
0.0
 25
0.0
 35
0.0
146
0.0
 13
0.0
 23
0.0
 33
0.0
 16
1.0
 26
0.0
 36
0.0
 17
0.0
 27
1.0
 37
0.0
 76
     0
330
23
  0
LAYOUT
  5
22
102
{ACAD_REACTORS
330
1A
102
}
330
1A
100
AcDbPlotSettings
  1

  2
none_device
  4
Letter_(8.50_x_11.00_Inches)
  6

 40
6.349999999999999
 41
6.349999999999999
 42
6.350005
 43
6.350005
 44
215.9
 45
279.4
 46
0.0
 47
0.0
 48
0.0
 49
0.0
140
0.0
141
0.0
142
1.0
143
1.0
 70
  1712
 72
     0
 73
     0
 74
     0
  7

 75
     0
147
1.0
 76
     0
 77
     2
 78
   300
148
0.0
149
0.0
100
AcDbLayout
  1
Model
 70
     1
 71
     0
 10
-0.5
 20
-0.5
 11
5.0
 21
5.0
 12
0.0
 22
0.0
 32
0.0
 14
-0.5
 24
-0.5
 34
-0.5
 15
5.0
 25
5.0
 35
5.0
146
0.0
 13
0.0
 23
0.0
 33
0.0
 16
1.0
 26
0.0
 36
0.0
 17
0.0
 27
1.0
 37
0.0
 76
     0
330
1F
331
29
  0
MATERIAL
  5
45
102
{ACAD_XDICTIONARY
360
1FB
102
}
102
{ACAD_REACTORS
330
43
102
}
330
43
100
AcDbMaterial
  1
ByBlock
  0
MATERIAL
  5
44
102
{ACAD_XDICTIONARY
360
1F9
102
}
102
{ACAD_REACTORS
330
43
102
}
330
43
100
AcDbMaterial
  1
ByLayer
  0
MATERIAL
  5
46
102
{ACAD_XDICTIONARY
360
1FD
102
}
102
{ACAD_REACTORS
330
43
102
}
330
43
100
AcDbMaterial
  1
Global
  0
MLEADERSTYLE
  5
6C
102
{ACAD_REACTORS
330
6B
102
}
330
6B
100
AcDbMLeaderStyle
170
     2
171
     1
172
     0
 90
        2
 40
0.0
 41
0.0
173
     1
 91
-1056964608
340
14
 92
       -2
290
     1
 42
0.09
291
     1
 43
0.36
  3
Standard
 44
0.18
300

342
11
174
     1
178
     6
175
     1
176
     0
 93
-1056964608
 45
0.18
292
     0
297
     0
 46
0.18
 94
-1056964608
 47
1.0
 49
1.0
140
1.0
293
     1
141
0.0
294
     1
177
     0
142
1.0
295
     0
296
     0
143
0.125
1001
ACAD_MLEADERVER
1070
     2
  0
MLINESTYLE
  5
18
102
{ACAD_REACTORS
330
17
102
}
330
17
100
AcDbMlineStyle
  2
STANDARD
 70
     0
  3

 62
   256
 51
90.0
 52
90.0
 71
     2
 49
0.5
 62
   256
  6
BYLAYER
 49
-0.5
 62
   256
  6
BYLAYER
  0
ACDBPLACEHOLDER
  5
F
102
{ACAD_REACTORS
330
E
102
}
330
E
  0
SCALE
  5
48
102
{ACAD_REACTORS
330
47
102
}
330
47
100
AcDbScale
 70
     0
300
1:1
140
1.0
141
1.0
290
     1
  0
SCALE
  5
49
102
{ACAD_REACTORS
330
47
102
}
330
47
100
AcDbScale
 70
     0
300
1:2
140
1.0
141
2.0
290
     0
  0
SCALE
  5
4A
102
{ACAD_REACTORS
330
47
102
}
330
47
100
AcDbScale
 70
     0
300
1:4
140
1.0
141
4.0
290
     0
  0
SCALE
  5
4B
102
{ACAD_REACTORS
330
47
102
}
330
47
100
AcDbScale
 70
     0
300
1:5
140
1.0
141
5.0
290
     0
  0
SCALE
  5
4C
102
{ACAD_REACTORS
330
47
102
}
330
47
100
AcDbScale
 70
     0
300
1:8
140
1.0
141
8.0
290
     0
  0
SCALE
  5
4D
102
{ACAD_REACTORS
330
47
102
}
330
47
100
AcDbScale
 70
     0
300
1:10
140
1.0
141
10.0
290
     0
  0
SCALE
  5
4E
102
{ACAD_REACTORS
330
47
102
}
330
47
100
AcDbScale
 70
     0
300
1:16
140
1.0
141
16.0
290
     0
  0
SCALE
  5
4F
102
{ACAD_REACTORS
330
47
102
}
330
47
100
AcDbScale
 70
     0
300
1:20
140
1.0
141
20.0
290
     0
  0
SCALE
  5
50
102
{ACAD_REACTORS
330
47
102
}
330
47
100
AcDbScale
 70
     0
300
1:30
140
1.0
141
30.0
290
     0
  0
SCALE
  5
51
102
{ACAD_REACTORS
330
47
102
}
330
47
100
AcDbScale
 70
     0
300
1:40
140
1.0
141
40.0
290
     0
  0
SCALE
  5
52
102
{ACAD_REACTORS
330
47
102
}
330
47
100
AcDbScale
 70
     0
300
1:50
140
1.0
141
50.0
290
     0
  0
SCALE
  5
53
102
{ACAD_REACTORS
330
47
102
}
330
47
100
AcDbScale
 70
     0
300
1:100
140
1.0
141
100.0
290
     0
  0
SCALE
  5
54
102
{ACAD_REACTORS
330
47
102
}
330
47
100
AcDbScale
 70
     0
300
2:1
140
2.0
141
1.0
290
     0
  0
SCALE
  5
55
102
{ACAD_REACTORS
330
47
102
}
330
47
100
AcDbScale
 70
     0
300
4:1
140
4.0
141
1.0
290
     0
  0
SCALE
  5
56
102
{ACAD_REACTORS
330
47
102
}
330
47
100
AcDbScale
 70
     0
300
8:1
140
8.0
141
1.0
290
     0
  0
SCALE
  5
57
102
{ACAD_REACTORS
330
47
102
}
330
47
100
AcDbScale
 70
     0
300
10:1
140
10.0
141
1.0
290
     0
  0
SCALE
  5
58
102
{ACAD_REACTORS
330
47
102
}
330
47
100
AcDbScale
 70
     0
300
100:1
140
100.0
141
1.0
290
     0
  0
SCALE
  5
59
102
{ACAD_REACTORS
330
47
102
}
330
47
100
AcDbScale
 70
     0
300
1/128" = 1'-0"
140
0.007812
141
12.0
290
     0
  0
SCALE
  5
5A
102
{ACAD_REACTORS
330
47
102
}
330
47
100
AcDbScale
 70
     0
300
1/64" = 1'-0"
140
0.015625
141
12.0
290
     0
  0
SCALE
  5
5B
102
{ACAD_REACTORS
330
47
102
}
330
47
100
AcDbScale
 70
     0
300
1/32" = 1'-0"
140
0.03125
141
12.0
290
     0
  0
SCALE
  5
5C
102
{ACAD_REACTORS
330
47
102
}
330
47
100
AcDbScale
 70
     0
300
1/16" = 1'-0"
140
0.0625
141
12.0
290
     0
  0
SCALE
  5
5D
102
{ACAD_REACTORS
330
47
102
}
330
47
100
AcDbScale
 70
     0
300
3/32" = 1'-0"
140
0.09375
141
12.0
290
     0
  0
SCALE
  5
5E
102
{ACAD_REACTORS
330
47
102
}
330
47
100
AcDbScale
 70
     0
300
1/8" = 1'-0"
140
0.125
141
12.0
290
     0
  0
SCALE
  5
5F
102
{ACAD_REACTORS
330
47
102
}
330
47
100
AcDbScale
 70
     0
300
3/16" = 1'-0"
140
0.1875
141
12.0
290
     0
  0
SCALE
  5
60
102
{ACAD_REACTORS
330
47
102
}
330
47
100
AcDbScale
 70
     0
300
1/4" = 1'-0"
140
0.25
141
12.0
290
     0
  0
SCALE
  5
61
102
{ACAD_REACTORS
330
47
102
}
330
47
100
AcDbScale
 70
     0
300
3/8" = 1'-0"
140
0.375
141
12.0
290
     0
  0
SCALE
  5
62
102
{ACAD_REACTORS
330
47
102
}
330
47
100
AcDbScale
 70
     0
300
1/2" = 1'-0"
140
0.5
141
12.0
290
     0
  0
SCALE
  5
63
102
{ACAD_REACTORS
330
47
102
}
330
47
100
AcDbScale
 70
     0
300
3/4" = 1'-0"
140
0.75
141
12.0
290
     0
  0
SCALE
  5
64
102
{ACAD_REACTORS
330
47
102
}
330
47
100
AcDbScale
 70
     0
300
1" = 1'-0"
140
1.0
141
12.0
290
     0
  0
SCALE
  5
65
102
{ACAD_REACTORS
330
47
102
}
330
47
100
AcDbScale
 70
     0
300
1-1/2" = 1'-0"
140
1.5
141
12.0
290
     0
  0
SCALE
  5
66
102
{ACAD_REACTORS
330
47
102
}
330
47
100
AcDbScale
 70
     0
300
3" = 1'-0"
140
3.0
141
12.0
290
     0
  0
SCALE
  5
67
102
{ACAD_REACTORS
330
47
102
}
330
47
100
AcDbScale
 70
     0
300
6" = 1'-0"
140
6.0
141
12.0
290
     0
  0
SCALE
  5
68
102
{ACAD_REACTORS
330
47
102
}
330
47
100
AcDbScale
 70
     0
300
1'-0" = 1'-0"
140
12.0
141
12.0
290
     0
  0
ACDBSECTIONVIEWSTYLE
  5
20D
102
{ACAD_XDICTIONARY
360
2A8
102
}
102
{ACAD_REACTORS
330
209
102
}
330
209
100
AcDbModelDocViewStyle
 70
     0
  3
Metric50
290
     0
100
AcDbSectionViewStyle
 70
     0
 71
     0
 90
      102
 71
     1
340
11
 62
   256
 40
5.0
340
0
340
0
 62
   256
 40
5.0
300
I, O, Q, S, X, Z
 40
10.0
 90
        0
 40
2.5
 90
        0
 71
     2
340
16
 90
       25
 62
   256
340
16
 90
       50
 62
   256
 40
5.0
 40
2.5
 40
5.0
 71
     3
340
11
 62
   256
 40
5.0
 90
        0
 40
15.0
 90
        1
300
%<\AcVar ViewSectionStartId>%-%<\AcVar ViewSectionEndId>% (%<\AcVar ViewScale \f "%sn">%)
 71
     4
 62
   256
 62
   257
300
ANSI31
 40
1.0
 90
        0
290
     0
290
     0
 90
        6
 40
0.0
 40
1.570796326794896
 40
0.2617993877991494
 40
1.308996938995747
 40
-0.2617993877991494
 40
1.832595714594046
  0
TABLESTYLE
  5
6A
102
{ACAD_XDICTIONARY
360
1FF
102
}
102
{ACAD_REACTORS
330
69
102
}
330
69
100
AcDbTableStyle
  3
Standard
 70
     0
 71
     0
 40
0.06
 41
0.06
280
     0
281
     0
  7
Standard
140
0.18
170
     2
 62
     0
 63
     7
283
     0
274
    -2
284
     1
 64
     0
275
    -2
285
     1
 65
     0
276
    -2
286
     1
 66
     0
277
    -2
287
     1
 67
     0
278
    -2
288
     1
 68
     0
279
    -2
289
     1
 69
     0
  7
Standard
140
0.25
170
     5
 62
     0
 63
     7
283
     0
274
    -2
284
     1
 64
     0
275
    -2
285
     1
 65
     0
276
    -2
286
     1
 66
     0
277
    -2
287
     1
 67
     0
278
    -2
288
     1
 68
     0
279
    -2
289
     1
 69
     0
  7
Standard
140
0.18
170
     5
 62
     0
 63
     7
283
     0
274
    -2
284
     1
 64
     0
275
    -2
285
     1
 65
     0
276
    -2
286
     1
 66
     0
277
    -2
287
     1
 67
     0
278
    -2
288
     1
 68
     0
279
    -2
289
     1
 69
     0
  0
VISUALSTYLE
  5
2F
102
{ACAD_XDICTIONARY
360
27F
102
}
102
{ACAD_REACTORS
330
2A
102
}
330
2A
100
AcDbVisualStyle
  2

 70
     4
 71
     0
 72
     2
 73
     0
 90
        0
 40
-0.6
 41
-30.0
 62
     5
 63
     7
421
 16777215
 74
     1
 91
        4
 64
     7
 65
   257
 75
     1
175
     1
 42
1.0
 92
        0
 66
   257
 43
1.0
 76
     1
 77
     6
 78
     2
 67
     7
 79
     5
170
     0
171
     0
290
     0
174
     0
 93
        1
 44
0.0
173
     0
291
     0
 45
0.0
1001
ACAD
1000
AcDbSavedByObjectVersion
1070
     0
  0
VISUALSTYLE
  5
32
102
{ACAD_XDICTIONARY
360
285
102
}
102
{ACAD_REACTORS
330
2A
102
}
330
2A
100
AcDbVisualStyle
  2

 70
     7
 71
     1
 72
     0
 73
     1
 90
        0
 40
-0.6
 41
-30.0
 62
     5
 63
     7
421
 16777215
 74
     0
 91
        4
 64
     7
 65
   257
 75
     1
175
     1
 42
1.0
 92
        8
 66
     7
 43
1.0
 76
     1
 77
     6
 78
     2
 67
     7
 79
     5
170
     0
171
     0
290
     0
174
     0
 93
        1
 44
0.0
173
     0
291
     1
 45
0.0
1001
ACAD
1000
AcDbSavedByObjectVersion
1070
     0
  0
VISUALSTYLE
  5
36
102
{ACAD_XDICTIONARY
360
28D
102
}
102
{ACAD_REACTORS
330
2A
102
}
330
2A
100
AcDbVisualStyle
  2

 70
    12
 71
     2
 72
     2
 73
     0
 90
        0
 40
-0.6
 41
-30.0
 62
     5
 63
     7
421
 16777215
 74
     1
 91
        4
 64
     7
 65
   257
 75
     1
175
     1
 42
1.0
 92
        8
 66
     7
 43
1.0
 76
     1
 77
     6
 78
     2
 67
     7
 79
     5
170
     0
171
     0
290
     0
174
     0
 93
        1
 44
50.0
173
     0
291
     1
 45
0.0
1001
ACAD
1000
AcDbSavedByObjectVersion
1070
     0
  0
VISUALSTYLE
  5
3A
102
{ACAD_XDICTIONARY
360
295
102
}
102
{ACAD_REACTORS
330
2A
102
}
330
2A
100
AcDbVisualStyle
  2

 70
    16
 71
     2
 72
     2
 73
     3
 90
        0
 40
-0.6
 41
-30.0
 62
     5
 63
     8
421
  8421504
 74
     1
 91
        4
 64
     7
 65
   257
 75
     1
175
     1
 42
1.0
 92
        8
 66
     8
424
  8421504
 43
1.0
 76
     1
 77
     6
 78
     2
 67
     7
 79
     5
170
     0
171
     0
290
     0
174
     0
 93
        1
 44
0.0
173
     0
291
     1
 45
0.0
1001
ACAD
1000
AcDbSavedByObjectVersion
1070
     0
  0
VISUALSTYLE
  5
34
102
{ACAD_XDICTIONARY
360
289
102
}
102
{ACAD_REACTORS
330
2A
102
}
330
2A
100
AcDbVisualStyle
  2

 70
     9
 71
     3
 72
     2
 73
     0
 90
        0
 40
-0.6
 41
-30.0
 62
     5
 63
     7
421
 16777215
 74
     2
 91
        2
 64
     7
 65
   257
 75
     1
175
     1
 42
179.0
 92
        8
 66
     7
 43
1.0
 76
     1
 77
     6
 78
     2
 67
     7
 79
     3
170
     0
171
     0
290
     0
174
     0
 93
        1
 44
0.0
173
     0
291
     0
 45
0.0
1001
ACAD
1000
AcDbSavedByObjectVersion
1070
     0
  0
VISUALSTYLE
  5
35
102
{ACAD_XDICTIONARY
360
28B
102
}
102
{ACAD_REACTORS
330
2A
102
}
330
2A
100
AcDbVisualStyle
  2

 70
    11
 71
     2
 72
     2
 73
     0
 90
        0
 40
-0.6
 41
-30.0
 62
     5
 63
     7
421
 16777215
 74
     1
 91
        4
 64
     7
 65
   257
 75
     1
175
     1
 42
1.0
 92
        8
 66
     7
 43
1.0
 76
     1
 77
     6
 78
     2
 67
     7
 79
     5
170
     0
171
     0
290
     0
174
     0
 93
        1
 44
-50.0
173
     0
291
     1
 45
0.0
1001
ACAD
1000
AcDbSavedByObjectVersion
1070
     0
  0
VISUALSTYLE
  5
3D
102
{ACAD_XDICTIONARY
360
29B
102
}
102
{ACAD_REACTORS
330
2A
102
}
330
2A
100
AcDbVisualStyle
  2

 70
    22
 71
     2
 72
     2
 73
     0
 90
        0
 40
-0.6
 41
-30.0
 62
     5
 63
     7
421
 16777215
 74
     1
 91
        4
 64
     7
 65
   257
 75
     1
175
     1
 42
1.0
 92
        8
 66
     7
 43
1.0
 76
     1
 77
     6
 78
     2
 67
     7
 79
     5
170
     0
171
     0
290
     0
174
     0
 93
        1
 44
0.0
173
     0
291
     1
 45
0.0
1001
ACAD
1000
AcDbSavedByObjectVersion
1070
     0
  0
VISUALSTYLE
  5
39
102
{ACAD_XDICTIONARY
360
293
102
}
102
{ACAD_REACTORS
330
2A
102
}
330
2A
100
AcDbVisualStyle
  2

 70
    15
 71
     2
 72
     2
 73
     0
 90
        0
 40
-0.6
 41
-30.0
 62
     5
 63
     7
421
 16777215
 74
     1
 91
        4
 64
     7
 65
   257
 75
     1
175
     1
 42
1.0
 92
        8
 66
     7
 43
1.0
 76
     1
 77
     6
 78
     2
 67
     7
 79
     5
170
     0
171
     0
290
     0
174
     0
 93
        1
 44
0.0
173
     0
291
     1
 45
0.0
1001
ACAD
1000
AcDbSavedByObjectVersion
1070
     0
  0
VISUALSTYLE
  5
2B
102
{ACAD_XDICTIONARY
360
277
102
}
102
{ACAD_REACTORS
330
2A
102
}
330
2A
100
AcDbVisualStyle
  2

 70
     0
 71
     2
 72
     1
 73
     1
 90
        2
 40
-0.6
 41
30.0
 62
     5
 63
     7
421
 16777215
 74
     0
 91
        0
 64
     7
 65
   257
 75
     1
175
     1
 42
1.0
 92
        8
 66
     7
 43
1.0
 76
     1
 77
     6
 78
     2
 67
     7
 79
     5
170
     0
171
     0
290
     0
174
     0
 93
       13
 44
0.0
173
     0
291
     1
 45
0.0
1001
ACAD
1000
AcDbSavedByObjectVersion
1070
     0
  0
VISUALSTYLE
  5
2C
102
{ACAD_XDICTIONARY
360
279
102
}
102
{ACAD_REACTORS
330
2A
102
}
330
2A
100
AcDbVisualStyle
  2

 70
     1
 71
     2
 72
     1
 73
     1
 90
        2
 40
-0.6
 41
30.0
 62
     5
 63
     7
421
 16777215
 74
     1
 91
        0
 64
     7
 65
   257
 75
     1
175
     1
 42
1.0
 92
        0
 66
   257
 43
1.0
 76
     1
 77
     6
 78
     2
 67
     7
 79
     5
170
     0
171
     0
290
     0
174
     0
 93
       13
 44
0.0
173
     0
291
     1
 45
0.0
1001
ACAD
1000
AcDbSavedByObjectVersion
1070
     0
  0
VISUALSTYLE
  5
2D
102
{ACAD_XDICTIONARY
360
27B
102
}
102
{ACAD_REACTORS
330
2A
102
}
330
2A
100
AcDbVisualStyle
  2

 70
     2
 71
     2
 72
     2
 73
     1
 90
        2
 40
-0.6
 41
30.0
 62
     5
 63
     7
421
 16777215
 74
     0
 91
        0
 64
     7
 65
   257
 75
     1
175
     1
 42
1.0
 92
        0
 66
     7
 43
1.0
 76
     1
 77
     6
 78
     2
 67
     7
 79
     5
170
     0
171
     0
290
     0
174
     0
 93
       13
 44
0.0
173
     0
291
     1
 45
0.0
1001
ACAD
1000
AcDbSavedByObjectVersion
1070
     0
  0
VISUALSTYLE
  5
2E
102
{ACAD_XDICTIONARY
360
27D
102
}
102
{ACAD_REACTORS
330
2A
102
}
330
2A
100
AcDbVisualStyle
  2

 70
     3
 71
     2
 72
     2
 73
     1
 90
        2
 40
-0.6
 41
30.0
 62
     5
 63
     7
421
 16777215
 74
     1
 91
        0
 64
     7
 65
   257
 75
     1
175
     1
 42
1.0
 92
        0
 66
   257
 43
1.0
 76
     1
 77
     6
 78
     2
 67
     7
 79
     5
170
     0
171
     0
290
     0
174
     0
 93
       13
 44
0.0
173
     0
291
     1
 45
0.0
1001
ACAD
1000
AcDbSavedByObjectVersion
1070
     0
  0
VISUALSTYLE
  5
31
102
{ACAD_XDICTIONARY
360
283
102
}
102
{ACAD_REACTORS
330
2A
102
}
330
2A
100
AcDbVisualStyle
  2

 70
     6
 71
     1
 72
     2
 73
     2
 90
        0
 40
-0.6
 41
-30.0
 62
     5
 63
     7
421
 16777215
 74
     2
 91
        2
 64
     7
 65
   257
 75
     2
175
     1
 42
40.0
 92
        0
 66
   257
 43
1.0
 76
     1
 77
     6
 78
     2
 67
     7
 79
     3
170
     0
171
     0
290
     0
174
     0
 93
        1
 44
0.0
173
     0
291
     0
 45
0.0
1001
ACAD
1000
AcDbSavedByObjectVersion
1070
     0
  0
VISUALSTYLE
  5
3B
102
{ACAD_XDICTIONARY
360
297
102
}
102
{ACAD_REACTORS
330
2A
102
}
330
2A
100
AcDbVisualStyle
  2

 70
    20
 71
     2
 72
     2
 73
     0
 90
        0
 40
-0.6
 41
-30.0
 62
     5
 63
     7
421
 16777215
 74
     1
 91
        4
 64
     7
 65
   257
 75
     1
175
     1
 42
1.0
 92
       10
 66
     7
 43
1.0
 76
     1
 77
     6
 78
     2
 67
     7
 79
     5
170
     0
171
     0
290
     0
174
     0
 93
        1
 44
0.0
173
     0
291
     1
 45
0.0
1001
ACAD
1000
AcDbSavedByObjectVersion
1070
     0
  0
VISUALSTYLE
  5
38
102
{ACAD_XDICTIONARY
360
291
102
}
102
{ACAD_REACTORS
330
2A
102
}
330
2A
100
AcDbVisualStyle
  2

 70
    14
 71
     2
 72
     2
 73
     0
 90
        0
 40
-0.6
 41
-30.0
 62
     5
 63
     7
421
 16777215
 74
     1
 91
        4
 64
     7
 65
   257
 75
     7
175
     7
 42
1.0
 92
        8
 66
     7
 43
1.0
 76
     1
 77
     6
 78
     2
 67
     7
 79
     5
170
     0
171
     0
290
     0
174
     0
 93
        1
 44
0.0
173
     0
291
     1
 45
0.0
1001
ACAD
1000
AcDbSavedByObjectVersion
1070
     0
  0
VISUALSTYLE
  5
3C
102
{ACAD_XDICTIONARY
360
299
102
}
102
{ACAD_REACTORS
330
2A
102
}
330
2A
100
AcDbVisualStyle
  2

 70
    21
 71
     2
 72
     2
 73
     0
 90
        0
 40
-0.6
 41
-30.0
 62
     5
 63
     7
421
 16777215
 74
     1
 91
        4
 64
     7
 65
   257
 75
     1
175
     1
 42
1.0
 92
        9
 66
     7
 43
1.0
 76
     1
 77
     6
 78
     2
 67
     7
 79
     5
170
     0
171
     0
290
     0
174
     0
 93
        1
 44
0.0
173
     0
291
     1
 45
0.0
1001
ACAD
1000
AcDbSavedByObjectVersion
1070
     0
  0
VISUALSTYLE
  5
33
102
{ACAD_XDICTIONARY
360
287
102
}
102
{ACAD_REACTORS
330
2A
102
}
330
2A
100
AcDbVisualStyle
  2

 70
     8
 71
     2
 72
     3
 73
     0
 90
        2
 40
-0.6
 41
30.0
 62
     5
 63
     7
421
 16777215
 74
     0
 91
        0
 64
     7
 65
   257
 75
     1
175
     1
 42
1.0
 92
        8
 66
   257
 43
1.0
 76
     1
 77
     6
 78
     2
 67
     7
 79
     3
170
     0
171
     0
290
     0
174
     0
 93
       13
 44
0.0
173
     0
291
     0
 45
0.0
1001
ACAD
1000
AcDbSavedByObjectVersion
1070
     0
  0
VISUALSTYLE
  5
42
102
{ACAD_XDICTIONARY
360
2A5
102
}
102
{ACAD_REACTORS
330
2A
102
}
330
2A
100
AcDbVisualStyle
  2

 70
    27
 71
     2
 72
     2
 73
     1
 90
        2
 40
-0.6
 41
30.0
 62
     5
 63
     7
421
 16777215
 74
     0
 91
        4
 64
     7
 65
   257
 75
     1
175
     1
 42
1.0
 92
        8
 66
   257
 43
1.0
 76
     1
 77
     6
 78
     2
 67
     8
425
  7895160
 79
     3
170
     0
171
     0
290
     0
174
     0
 93
        5
 44
0.0
173
     0
291
     0
 45
0.0
1001
ACAD
1000
AcDbSavedByObjectVersion
1070
     0
  0
VISUALSTYLE
  5
41
102
{ACAD_XDICTIONARY
360
2A3
102
}
102
{ACAD_REACTORS
330
2A
102
}
330
2A
100
AcDbVisualStyle
  2

 70
    26
 71
     2
 72
     2
 73
     1
 90
        2
 40
-0.6
 41
30.0
 62
     5
 63
     7
421
 16777215
 74
     1
 91
       10
 64
     7
 65
   257
 75
     2
175
     1
 42
1.0
 92
        8
 66
   257
 43
1.0
 76
     1
 77
     6
 78
     2
 67
     7
 79
     3
170
     0
171
     0
290
     0
174
     0
 93
        5
 44
0.0
173
     0
291
     0
 45
0.0
1001
ACAD
1000
AcDbSavedByObjectVersion
1070
     0
  0
VISUALSTYLE
  5
3E
102
{ACAD_XDICTIONARY
360
29D
102
}
102
{ACAD_REACTORS
330
2A
102
}
330
2A
100
AcDbVisualStyle
  2

 70
    23
 71
     2
 72
     2
 73
     3
 90
        0
 40
-0.6
 41
-30.0
 62
     5
 63
     7
421
 16777215
 74
     2
 91
        2
 64
     7
 65
     7
 75
     1
175
     1
 42
40.0
 92
        8
 66
     7
 43
1.0
 76
     1
 77
     6
 78
     2
 67
     7
 79
     3
170
     0
171
     0
290
     0
174
     0
 93
        1
 44
0.0
173
     0
291
     0
 45
0.0
1001
ACAD
1000
AcDbSavedByObjectVersion
1070
     0
  0
VISUALSTYLE
  5
3F
102
{ACAD_XDICTIONARY
360
29F
102
}
102
{ACAD_REACTORS
330
2A
102
}
330
2A
100
AcDbVisualStyle
  2

 70
    24
 71
     1
 72
     2
 73
     2
 90
        0
 40
-0.6
 41
-30.0
 62
     5
 63
     7
421
 16777215
 74
     2
 91
        2
 64
     7
 65
     7
 75
     1
175
     1
 42
40.0
 92
       11
 66
     7
 43
1.0
 76
     1
 77
     6
 78
     2
 67
     7
 79
     6
170
     0
171
     0
290
     0
174
     0
 93
        1
 44
0.0
173
     0
291
     0
 45
0.0
1001
ACAD
1000
AcDbSavedByObjectVersion
1070
     0
  0
VISUALSTYLE
  5
37
102
{ACAD_XDICTIONARY
360
28F
102
}
102
{ACAD_REACTORS
330
2A
102
}
330
2A
100
AcDbVisualStyle
  2

 70
    13
 71
     2
 72
     2
 73
     0
 90
        0
 40
-0.6
 41
-30.0
 62
     5
 63
     7
421
 16777215
 74
     1
 91
        4
 64
     7
 65
   257
 75
     1
175
     1
 42
1.0
 92
       12
 66
     7
 43
1.0
 76
     1
 77
     6
 78
     2
 67
     7
 79
     5
170
     0
171
     0
290
     0
174
     0
 93
        1
 44
0.0
173
     0
291
     1
 45
0.0
1001
ACAD
1000
AcDbSavedByObjectVersion
1070
     0
  0
VISUALSTYLE
  5
30
102
{ACAD_XDICTIONARY
360
281
102
}
102
{ACAD_REACTORS
330
2A
102
}
330
2A
100
AcDbVisualStyle
  2

 70
     5
 71
     0
 72
     2
 73
     0
 90
        0
 40
-0.6
 41
-30.0
 62
     5
 63
     7
421
 16777215
 74
     1
 91
        4
 64
     7
 65
   257
 75
     1
175
     1
 42
1.0
 92
        0
 66
   257
 43
1.0
 76
     1
 77
     6
 78
     2
 67
     7
 79
     3
170
     0
171
     0
290
     0
174
     0
 93
        1
 44
0.0
173
     0
291
     0
 45
0.0
1001
ACAD
1000
AcDbSavedByObjectVersion
1070
     0
  0
VISUALSTYLE
  5
40
102
{ACAD_XDICTIONARY
360
2A1
102
}
102
{ACAD_REACTORS
330
2A
102
}
330
2A
100
AcDbVisualStyle
  2

 70
    25
 71
     2
 72
     2
 73
     1
 90
        1
 40
0.5
 41
-30.0
 62
     5
 63
     7
421
 16777215
 74
     1
 91
        0
 64
     7
 65
   257
 75
     1
175
     1
 42
1.0
 92
        8
 66
     7
 43
1.0
 76
     1
 77
     6
 78
     2
 67
     7
 79
     3
170
     0
171
     0
290
     0
174
     0
 93
       13
 44
0.0
173
     0
291
     0
 45
0.0
1001
ACAD
1000
AcDbSavedByObjectVersion
1070
     0
  0
DICTIONARYVAR
  5
1C6
102
{ACAD_REACTORS
330
1C5
102
}
330
1C5
100
DictionaryVariables
280
     0
  1
1:1
  0
DICTIONARYVAR
  5
207
102
{ACAD_REACTORS
330
1C5
102
}
330
1C5
100
DictionaryVariables
280
     0
  1
STANDARD
  0
DICTIONARYVAR
  5
206
102
{ACAD_REACTORS
330
1C5
102
}
330
1C5
100
DictionaryVariables
280
     0
  1
STANDARD
  0
DICTIONARYVAR
  5
269
102
{ACAD_REACTORS
330
1C5
102
}
330
1C5
100
DictionaryVariables
280
     0
  1
Metric50
  0
DICTIONARYVAR
  5
26A
102
{ACAD_REACTORS
330
1C5
102
}
330
1C5
100
DictionaryVariables
280
     0
  1
Metric50
  0
DICTIONARYVAR
  5
1C7
102
{ACAD_REACTORS
330
1C5
102
}
330
1C5
100
DictionaryVariables
280
     0
  1
1
  0
DICTIONARYVAR
  5
26B
102
{ACAD_REACTORS
330
1C5
102
}
330
1C5
100
DictionaryVariables
280
     0
  1
2
  0
DICTIONARY
  5
276
102
{ACAD_REACTORS
330
274
102
}
330
274
100
AcDbDictionary
281
     1
  0
DICTIONARY
  5
275
102
{ACAD_REACTORS
330
274
102
}
330
274
100
AcDbDictionary
281
     1
  3
2125214394736
350
26F
  3
2125214394752
350
270
  3
2125214394768
350
271
  3
2125214394784
350
272
  3
2125214394800
350
273
  0
DICTIONARY
  5
2AA
330
20E
100
AcDbDictionary
280
     1
281
     1
  3
ACAD_XREC_ROUNDTRIP
360
2AB
  0
DICTIONARY
  5
1FB
330
45
100
AcDbDictionary
280
     1
281
     1
  3
ACAD_XREC_ROUNDTRIP
360
1FC
  0
DICTIONARY
  5
1F9
330
44
100
AcDbDictionary
280
     1
281
     1
  3
ACAD_XREC_ROUNDTRIP
360
1FA
  0
DICTIONARY
  5
1FD
330
46
100
AcDbDictionary
280
     1
281
     1
  3
ACAD_XREC_ROUNDTRIP
360
1FE
  0
DICTIONARY
  5
2A8
330
20D
100
AcDbDictionary
280
     1
281
     1
  3
ACAD_XREC_ROUNDTRIP
360
2A9
  0
DICTIONARY
  5
1FF
330
6A
100
AcDbDictionary
280
     1
281
     1
  3
ACAD_ROUNDTRIP_2008_TABLESTYLE_CELLSTYLEMAP
360
26D
  3
ACAD_XREC_ROUNDTRIP
360
2A7
  0
DICTIONARY
  5
27F
330
2F
100
AcDbDictionary
280
     1
281
     1
  3
ACAD_XREC_ROUNDTRIP
360
280
  0
DICTIONARY
  5
285
330
32
100
AcDbDictionary
280
     1
281
     1
  3
ACAD_XREC_ROUNDTRIP
360
286
  0
DICTIONARY
  5
28D
330
36
100
AcDbDictionary
280
     1
281
     1
  3
ACAD_XREC_ROUNDTRIP
360
28E
  0
DICTIONARY
  5
295
330
3A
100
AcDbDictionary
280
     1
281
     1
  3
ACAD_XREC_ROUNDTRIP
360
296
  0
DICTIONARY
  5
289
330
34
100
AcDbDictionary
280
     1
281
     1
  3
ACAD_XREC_ROUNDTRIP
360
28A
  0
DICTIONARY
  5
28B
330
35
100
AcDbDictionary
280
     1
281
     1
  3
ACAD_XREC_ROUNDTRIP
360
28C
  0
DICTIONARY
  5
29B
330
3D
100
AcDbDictionary
280
     1
281
     1
  3
ACAD_XREC_ROUNDTRIP
360
29C
  0
DICTIONARY
  5
293
330
39
100
AcDbDictionary
280
     1
281
     1
  3
ACAD_XREC_ROUNDTRIP
360
294
  0
DICTIONARY
  5
277
330
2B
100
AcDbDictionary
280
     1
281
     1
  3
ACAD_XREC_ROUNDTRIP
360
278
  0
DICTIONARY
  5
279
330
2C
100
AcDbDictionary
280
     1
281
     1
  3
ACAD_XREC_ROUNDTRIP
360
27A
  0
DICTIONARY
  5
27B
330
2D
100
AcDbDictionary
280
     1
281
     1
  3
ACAD_XREC_ROUNDTRIP
360
27C
  0
DICTIONARY
  5
27D
330
2E
100
AcDbDictionary
280
     1
281
     1
  3
ACAD_XREC_ROUNDTRIP
360
27E
  0
DICTIONARY
  5
283
330
31
100
AcDbDictionary
280
     1
281
     1
  3
ACAD_XREC_ROUNDTRIP
360
284
  0
DICTIONARY
  5
297
330
3B
100
AcDbDictionary
280
     1
281
     1
  3
ACAD_XREC_ROUNDTRIP
360
298
  0
DICTIONARY
  5
291
330
38
100
AcDbDictionary
280
     1
281
     1
  3
ACAD_XREC_ROUNDTRIP
360
292
  0
DICTIONARY
  5
299
330
3C
100
AcDbDictionary
280
     1
281
     1
  3
ACAD_XREC_ROUNDTRIP
360
29A
  0
DICTIONARY
  5
287
330
33
100
AcDbDictionary
280
     1
281
     1
  3
ACAD_XREC_ROUNDTRIP
360
288
  0
DICTIONARY
  5
2A5
330
42
100
AcDbDictionary
280
     1
281
     1
  3
ACAD_XREC_ROUNDTRIP
360
2A6
  0
DICTIONARY
  5
2A3
330
41
100
AcDbDictionary
280
     1
281
     1
  3
ACAD_XREC_ROUNDTRIP
360
2A4
  0
DICTIONARY
  5
29D
330
3E
100
AcDbDictionary
280
     1
281
     1
  3
ACAD_XREC_ROUNDTRIP
360
29E
  0
DICTIONARY
  5
29F
330
3F
100
AcDbDictionary
280
     1
281
     1
  3
ACAD_XREC_ROUNDTRIP
360
2A0
  0
DICTIONARY
  5
28F
330
37
100
AcDbDictionary
280
     1
281
     1
  3
ACAD_XREC_ROUNDTRIP
360
290
  0
DICTIONARY
  5
281
330
30
100
AcDbDictionary
280
     1
281
     1
  3
ACAD_XREC_ROUNDTRIP
360
282
  0
DICTIONARY
  5
2A1
330
40
100
AcDbDictionary
280
     1
281
     1
  3
ACAD_XREC_ROUNDTRIP
360
2A2
  0
XRECORD
  5
26F
102
{ACAD_REACTORS
330
275
102
}
330
275
100
AcDbXrecord
280
     1
  1
AcDb_Thumbnail_Schema
102
{ATTRRECORD
341
270
  2
AcDbDs::TreatedAsObjectData
280
     1
291
     1
102
ATTRRECORD}
102
{ATTRRECORD
341
271
  2
AcDbDs::Legacy
280
     1
291
     1
102
ATTRRECORD}
  2
AcDbDs::ID
280
    10
 91
        8
102
{ATTRRECORD
341
272
  2
AcDs:Indexable
280
     1
291
     1
102
ATTRRECORD}
102
{ATTRRECORD
341
273
  2
AcDbDs::HandleAttribute
280
     7
282
     1
102
ATTRRECORD}
  2
Thumbnail_Data
280
    15
 91
        0
  0
XRECORD
  5
270
102
{ACAD_REACTORS
330
275
102
}
330
275
100
AcDbXrecord
280
     1
  1
AcDbDs::TreatedAsObjectDataSchema
  2
AcDbDs::TreatedAsObjectData
280
     1
 91
        0
  0
XRECORD
  5
271
102
{ACAD_REACTORS
330
275
102
}
330
275
100
AcDbXrecord
280
     1
  1
AcDbDs::LegacySchema
  2
AcDbDs::Legacy
280
     1
 91
        0
  0
XRECORD
  5
272
102
{ACAD_REACTORS
330
275
102
}
330
275
100
AcDbXrecord
280
     1
  1
AcDbDs::IndexedPropertySchema
  2
AcDs:Indexable
280
     1
 91
        0
  0
XRECORD
  5
273
102
{ACAD_REACTORS
330
275
102
}
330
275
100
AcDbXrecord
280
     1
  1
AcDbDs::HandleAttributeSchema
  2
AcDbDs::HandleAttribute
280
     7
 91
        1
284
     1
  0
XRECORD
  5
2AB
102
{ACAD_REACTORS
330
2AA
102
}
330
2AA
100
AcDbXrecord
280
     1
102
DISPLAYNAME
  1
Metric50
102
FLAGS
 90
        0
  0
XRECORD
  5
1FC
102
{ACAD_REACTORS
330
1FB
102
}
330
1FB
100
AcDbXrecord
280
     1
102
MATERIAL
148
0.0
149
0.0
149
0.0
 93
        0
 94
      127
282
     0
 72
     1
 77
     1
171
     1
175
     1
179
     1
273
     0
  0
XRECORD
  5
1FA
102
{ACAD_REACTORS
330
1F9
102
}
330
1F9
100
AcDbXrecord
280
     1
102
MATERIAL
148
0.0
149
0.0
149
0.0
 93
        0
 94
      127
282
     0
 72
     1
 77
     1
171
     1
175
     1
179
     1
273
     0
  0
XRECORD
  5
1FE
102
{ACAD_REACTORS
330
1FD
102
}
330
1FD
100
AcDbXrecord
280
     1
102
MATERIAL
148
0.0
149
0.0
149
0.0
 93
        0
 94
      127
282
     0
 72
     1
 77
     1
171
     1
175
     1
179
     1
273
     0
  0
XRECORD
  5
2A9
102
{ACAD_REACTORS
330
2A8
102
}
330
2A8
100
AcDbXrecord
280
     1
102
DISPLAYNAME
  1
Metric50
102
FLAGS
 90
        0
  0
CELLSTYLEMAP
  5
26D
102
{ACAD_REACTORS
330
1FF
102
}
330
1FF
100
AcDbCellStyleMap
 90
        3
300
CELLSTYLE
  1
TABLEFORMAT_BEGIN
 90
        5
170
     1
 91
        0
 92
    32768
 62
   257
 93
        1
300
CONTENTFORMAT
  1
CONTENTFORMAT_BEGIN
 90
        0
 91
        0
 92
        4
 93
        0
300

 40
0.0
140
1.0
 94
        5
 62
     0
340
11
144
0.25
309
CONTENTFORMAT_END
171
     1
301
MARGIN
  1
CELLMARGIN_BEGIN
 40
0.06
 40
0.06
 40
0.06
 40
0.06
 40
0.18
 40
0.18
309
CELLMARGIN_END
 94
        6
 95
        1
302
GRIDFORMAT
  1
GRIDFORMAT_BEGIN
 90
        0
 91
        1
 62
     0
 92
       -2
340
14
 93
        0
 40
0.045
309
GRIDFORMAT_END
 95
        2
302
GRIDFORMAT
  1
GRIDFORMAT_BEGIN
 90
        0
 91
        1
 62
     0
 92
       -2
340
14
 93
        0
 40
0.045
309
GRIDFORMAT_END
 95
        4
302
GRIDFORMAT
  1
GRIDFORMAT_BEGIN
 90
        0
 91
        1
 62
     0
 92
       -2
340
14
 93
        0
 40
0.045
309
GRIDFORMAT_END
 95
        8
302
GRIDFORMAT
  1
GRIDFORMAT_BEGIN
 90
        0
 91
        1
 62
     0
 92
       -2
340
14
 93
        0
 40
0.045
309
GRIDFORMAT_END
 95
       16
302
GRIDFORMAT
  1
GRIDFORMAT_BEGIN
 90
        0
 91
        1
 62
     0
 92
       -2
340
14
 93
        0
 40
0.045
309
GRIDFORMAT_END
 95
       32
302
GRIDFORMAT
  1
GRIDFORMAT_BEGIN
 90
        0
 91
        1
 62
     0
 92
       -2
340
14
 93
        0
 40
0.045
309
GRIDFORMAT_END
309
TABLEFORMAT_END
  1
CELLSTYLE_BEGIN
 90
        1
 91
        1
300
_TITLE
309
CELLSTYLE_END
300
CELLSTYLE
  1
TABLEFORMAT_BEGIN
 90
        5
170
     1
 91
        0
 92
        0
 62
   257
 93
        1
300
CONTENTFORMAT
  1
CONTENTFORMAT_BEGIN
 90
        0
 91
        0
 92
        4
 93
        0
300

 40
0.0
140
1.0
 94
        5
 62
     0
340
11
144
0.18
309
CONTENTFORMAT_END
171
     1
301
MARGIN
  1
CELLMARGIN_BEGIN
 40
0.06
 40
0.06
 40
0.06
 40
0.06
 40
0.18
 40
0.18
309
CELLMARGIN_END
 94
        6
 95
        1
302
GRIDFORMAT
  1
GRIDFORMAT_BEGIN
 90
        0
 91
        1
 62
     0
 92
       -2
340
14
 93
        0
 40
0.045
309
GRIDFORMAT_END
 95
        2
302
GRIDFORMAT
  1
GRIDFORMAT_BEGIN
 90
        0
 91
        1
 62
     0
 92
       -2
340
14
 93
        0
 40
0.045
309
GRIDFORMAT_END
 95
        4
302
GRIDFORMAT
  1
GRIDFORMAT_BEGIN
 90
        0
 91
        1
 62
     0
 92
       -2
340
14
 93
        0
 40
0.045
309
GRIDFORMAT_END
 95
        8
302
GRIDFORMAT
  1
GRIDFORMAT_BEGIN
 90
        0
 91
        1
 62
     0
 92
       -2
340
14
 93
        0
 40
0.045
309
GRIDFORMAT_END
 95
       16
302
GRIDFORMAT
  1
GRIDFORMAT_BEGIN
 90
        0
 91
        1
 62
     0
 92
       -2
340
14
 93
        0
 40
0.045
309
GRIDFORMAT_END
 95
       32
302
GRIDFORMAT
  1
GRIDFORMAT_BEGIN
 90
        0
 91
        1
 62
     0
 92
       -2
340
14
 93
        0
 40
0.045
309
GRIDFORMAT_END
309
TABLEFORMAT_END
  1
CELLSTYLE_BEGIN
 90
        2
 91
        1
300
_HEADER
309
CELLSTYLE_END
300
CELLSTYLE
  1
TABLEFORMAT_BEGIN
 90
        5
170
     1
 91
        0
 92
        0
 62
   257
 93
        1
300
CONTENTFORMAT
  1
CONTENTFORMAT_BEGIN
 90
        0
 91
        0
 92
        4
 93
        0
300

 40
0.0
140
1.0
 94
        2
 62
     0
340
11
144
0.18
309
CONTENTFORMAT_END
171
     1
301
MARGIN
  1
CELLMARGIN_BEGIN
 40
0.06
 40
0.06
 40
0.06
 40
0.06
 40
0.18
 40
0.18
309
CELLMARGIN_END
 94
        6
 95
        1
302
GRIDFORMAT
  1
GRIDFORMAT_BEGIN
 90
        0
 91
        1
 62
     0
 92
       -2
340
14
 93
        0
 40
0.045
309
GRIDFORMAT_END
 95
        2
302
GRIDFORMAT
  1
GRIDFORMAT_BEGIN
 90
        0
 91
        1
 62
     0
 92
       -2
340
14
 93
        0
 40
0.045
309
GRIDFORMAT_END
 95
        4
302
GRIDFORMAT
  1
GRIDFORMAT_BEGIN
 90
        0
 91
        1
 62
     0
 92
       -2
340
14
 93
        0
 40
0.045
309
GRIDFORMAT_END
 95
        8
302
GRIDFORMAT
  1
GRIDFORMAT_BEGIN
 90
        0
 91
        1
 62
     0
 92
       -2
340
14
 93
        0
 40
0.045
309
GRIDFORMAT_END
 95
       16
302
GRIDFORMAT
  1
GRIDFORMAT_BEGIN
 90
        0
 91
        1
 62
     0
 92
       -2
340
14
 93
        0
 40
0.045
309
GRIDFORMAT_END
 95
       32
302
GRIDFORMAT
  1
GRIDFORMAT_BEGIN
 90
        0
 91
        1
 62
     0
 92
       -2
340
14
 93
        0
 40
0.045
309
GRIDFORMAT_END
309
TABLEFORMAT_END
  1
CELLSTYLE_BEGIN
 90
        3
 91
        2
300
_DATA
309
CELLSTYLE_END
  0
XRECORD
  5
2A7
102
{ACAD_REACTORS
330
1FF
102
}
330
1FF
100
AcDbXrecord
280
     1
102
ACAD_ROUNDTRIP_PRE2007_TABLESTYLE
 90
        4
 91
        0
  1

 92
        4
 93
        0
  2

 94
        4
 95
        0
  3

  0
XRECORD
  5
280
102
{ACAD_REACTORS
330
27F
102
}
330
27F
100
AcDbXrecord
280
     1
102
RTVSPost2010Prop28
280
     1
102
RTVSPost2010PropOp28
 70
     1
102
RTVSPost2010Prop29
280
     1
102
RTVSPost2010PropOp29
 70
     1
102
RTVSPost2010Prop30
280
     0
102
RTVSPost2010PropOp30
 70
     1
102
RTVSPost2010Prop31
280
     0
102
RTVSPost2010PropOp31
 70
     1
102
RTVSPost2010Prop32
280
     0
102
RTVSPost2010PropOp32
 70
     1
102
RTVSPost2010Prop33
280
     0
102
RTVSPost2010PropOp33
 70
     1
102
RTVSPost2010Prop34
280
     0
102
RTVSPost2010PropOp34
 70
     1
102
RTVSPost2010Prop35
280
     0
102
RTVSPost2010PropOp35
 70
     1
102
RTVSPost2010Prop36
280
     0
102
RTVSPost2010PropOp36
 70
     1
102
RTVSPost2010Prop37
 90
       50
102
RTVSPost2010PropOp37
 70
     1
102
RTVSPost2010Prop38
140
0.0
102
RTVSPost2010PropOp38
 70
     1
102
RTVSPost2010Prop39
140
1.0
102
RTVSPost2010PropOp39
 70
     1
102
RTVSPost2010Prop40
 90
        0
102
RTVSPost2010PropOp40
 70
     1
102
RTVSPost2010Prop41ColorIndex
 90
       18
102
RTVSPost2010Prop41ColorRGB
 90
        0
102
RTVSPost2010PropOp41
 70
     1
102
RTVSPost2010Prop42
 90
       50
102
RTVSPost2010PropOp42
 70
     1
102
RTVSPost2010Prop43
 90
        3
102
RTVSPost2010PropOp43
 70
     1
102
RTVSPost2010Prop44ColorIndex
 90
        5
102
RTVSPost2010Prop44ColorRGB
 90
      255
102
RTVSPost2010PropOp44
 70
     1
102
RTVSPost2010Prop45
280
     0
102
RTVSPost2010PropOp45
 70
     1
102
RTVSPost2010Prop46
 90
       50
102
RTVSPost2010PropOp46
 70
     1
102
RTVSPost2010Prop47
 90
       50
102
RTVSPost2010PropOp47
 70
     1
102
RTVSPost2010Prop48
 90
       50
102
RTVSPost2010PropOp48
 70
     1
102
RTVSPost2010Prop49
280
     0
102
RTVSPost2010PropOp49
 70
     1
102
RTVSPost2010Prop50
 90
       50
102
RTVSPost2010PropOp50
 70
     1
102
RTVSPost2010Prop51ColorIndex
 90
      256
102
RTVSPost2010Prop51ColorRGB
 90
-16777216
102
RTVSPost2010PropOp51
 70
     0
102
RTVSPost2010Prop52
140
1.0
102
RTVSPost2010PropOp52
 70
     0
102
RTVSPost2010Prop53
 90
        2
102
RTVSPost2010PropOp53
 70
     1
102
RTVSPost2010Prop54
  1
strokes_ogs.tif
102
RTVSPost2010PropOp54
 70
     1
102
RTVSPost2010Prop55
280
     0
102
RTVSPost2010PropOp55
 70
     1
102
RTVSPost2010Prop56
140
1.0
102
RTVSPost2010PropOp56
 70
     1
102
RTVSPost2010Prop57
140
1.0
102
RTVSPost2010PropOp57
 70
     1
102
RTVSPropertyOp0
 70
     1
102
RTVSPropertyOp1
 70
     1
102
RTVSPropertyOp2
 70
     1
102
RTVSPropertyOp3
 70
     1
102
RTVSPropertyOp4
 70
     1
102
RTVSPropertyOp5
 70
     1
102
RTVSPropertyOp6
 70
     1
102
RTVSPropertyOp7
 70
     1
102
RTVSPropertyOp8
 70
     1
102
RTVSPropertyOp9
 70
     1
102
RTVSPropertyOp10
 70
     1
102
RTVSPropertyOp11
 70
     1
102
RTVSPropertyOp12
 70
     1
102
RTVSPropertyOp13
 70
     1
102
RTVSPropertyOp14
 70
     1
102
RTVSPropertyOp15
 70
     1
102
RTVSPropertyOp16
 70
     1
102
RTVSPropertyOp17
 70
     1
102
RTVSPropertyOp18
 70
     1
102
RTVSPropertyOp19
 70
     1
102
RTVSPropertyOp20
 70
     1
102
RTVSPropertyOp21
 70
     1
102
RTVSPropertyOp22
 70
     1
102
RTVSPropertyOp23
 70
     1
102
RTVSPropertyOp24
 70
     1
102
RTVSPropertyOp25
 70
     1
102
RTVSPropertyOp26
 70
     1
102
RTVSPropertyOp27
 70
     1
102
RTVSPropertyOp28
 70
     1
102
RTVSPropertyOp29
 70
     1
102
RTVSPropertyOp30
 70
     1
102
RTVSPropertyOp31
 70
     1
102
RTVSPropertyOp32
 70
     1
102
RTVSPropertyOp33
 70
     1
102
RTVSPropertyOp34
 70
     1
102
RTVSPropertyOp35
 70
     1
102
RTVSPropertyOp36
 70
     1
102
RTVSPropertyOp37
 70
     1
102
RTVSPropertyOp38
 70
     1
102
RTVSPropertyOp39
 70
     1
102
RTVSPropertyOp40
 70
     1
102
RTVSPropertyOp41
 70
     1
102
RTVSPropertyOp42
 70
     1
102
RTVSPropertyOp43
 70
     1
102
RTVSPropertyOp44
 70
     1
102
RTVSPropertyOp45
 70
     1
102
RTVSPropertyOp46
 70
     1
102
RTVSPropertyOp47
 70
     1
102
RTVSPropertyOp48
 70
     1
102
RTVSPropertyOp49
 70
     1
102
RTVSPropertyOp50
 70
     1
102
RTVSPropertyOp51
 70
     0
102
RTVSPropertyOp52
 70
     0
102
RTVSPropertyOp53
 70
     1
102
RTVSPropertyOp54
 70
     1
102
RTVSPropertyOp55
 70
     1
102
RTVSPropertyOp56
 70
     1
102
RTVSPropertyOp57
 70
     1
102
RTVSPropertyOp58
 70
     1
102
RTVSPropertyOp59
 70
     1
102
RTVSPropertyOp60
 70
     1
102
RTVSPropertyOp61
 70
     1
102
RTVSPropertyOp62
 70
     1
  0
XRECORD
  5
286
102
{ACAD_REACTORS
330
285
102
}
330
285
100
AcDbXrecord
280
     1
102
RTVSPost2010Prop28
280
     0
102
RTVSPost2010PropOp28
 70
     1
102
RTVSPost2010Prop29
280
     1
102
RTVSPost2010PropOp29
 70
     1
102
RTVSPost2010Prop30
280
     1
102
RTVSPost2010PropOp30
 70
     1
102
RTVSPost2010Prop31
280
     0
102
RTVSPost2010PropOp31
 70
     1
102
RTVSPost2010Prop32
280
     0
102
RTVSPost2010PropOp32
 70
     1
102
RTVSPost2010Prop33
280
     0
102
RTVSPost2010PropOp33
 70
     1
102
RTVSPost2010Prop34
280
     0
102
RTVSPost2010PropOp34
 70
     1
102
RTVSPost2010Prop35
280
     0
102
RTVSPost2010PropOp35
 70
     1
102
RTVSPost2010Prop36
280
     0
102
RTVSPost2010PropOp36
 70
     1
102
RTVSPost2010Prop37
 90
       50
102
RTVSPost2010PropOp37
 70
     1
102
RTVSPost2010Prop38
140
0.0
102
RTVSPost2010PropOp38
 70
     1
102
RTVSPost2010Prop39
140
1.0
102
RTVSPost2010PropOp39
 70
     1
102
RTVSPost2010Prop40
 90
        0
102
RTVSPost2010PropOp40
 70
     1
102
RTVSPost2010Prop41ColorIndex
 90
       18
102
RTVSPost2010Prop41ColorRGB
 90
        0
102
RTVSPost2010PropOp41
 70
     1
102
RTVSPost2010Prop42
 90
       50
102
RTVSPost2010PropOp42
 70
     1
102
RTVSPost2010Prop43
 90
        3
102
RTVSPost2010PropOp43
 70
     1
102
RTVSPost2010Prop44ColorIndex
 90
        5
102
RTVSPost2010Prop44ColorRGB
 90
      255
102
RTVSPost2010PropOp44
 70
     1
102
RTVSPost2010Prop45
280
     0
102
RTVSPost2010PropOp45
 70
     1
102
RTVSPost2010Prop46
 90
       50
102
RTVSPost2010PropOp46
 70
     1
102
RTVSPost2010Prop47
 90
       50
102
RTVSPost2010PropOp47
 70
     1
102
RTVSPost2010Prop48
 90
       50
102
RTVSPost2010PropOp48
 70
     1
102
RTVSPost2010Prop49
280
     0
102
RTVSPost2010PropOp49
 70
     1
102
RTVSPost2010Prop50
 90
       50
102
RTVSPost2010PropOp50
 70
     1
102
RTVSPost2010Prop51ColorIndex
 90
      256
102
RTVSPost2010Prop51ColorRGB
 90
-16777216
102
RTVSPost2010PropOp51
 70
     0
102
RTVSPost2010Prop52
140
1.0
102
RTVSPost2010PropOp52
 70
     0
102
RTVSPost2010Prop53
 90
        2
102
RTVSPost2010PropOp53
 70
     1
102
RTVSPost2010Prop54
  1
strokes_ogs.tif
102
RTVSPost2010PropOp54
 70
     1
102
RTVSPost2010Prop55
280
     0
102
RTVSPost2010PropOp55
 70
     1
102
RTVSPost2010Prop56
140
1.0
102
RTVSPost2010PropOp56
 70
     1
102
RTVSPost2010Prop57
140
1.0
102
RTVSPost2010PropOp57
 70
     1
102
RTVSPropertyOp0
 70
     1
102
RTVSPropertyOp1
 70
     1
102
RTVSPropertyOp2
 70
     1
102
RTVSPropertyOp3
 70
     1
102
RTVSPropertyOp4
 70
     1
102
RTVSPropertyOp5
 70
     1
102
RTVSPropertyOp6
 70
     1
102
RTVSPropertyOp7
 70
     1
102
RTVSPropertyOp8
 70
     1
102
RTVSPropertyOp9
 70
     1
102
RTVSPropertyOp10
 70
     1
102
RTVSPropertyOp11
 70
     1
102
RTVSPropertyOp12
 70
     1
102
RTVSPropertyOp13
 70
     1
102
RTVSPropertyOp14
 70
     1
102
RTVSPropertyOp15
 70
     1
102
RTVSPropertyOp16
 70
     1
102
RTVSPropertyOp17
 70
     1
102
RTVSPropertyOp18
 70
     1
102
RTVSPropertyOp19
 70
     1
102
RTVSPropertyOp20
 70
     1
102
RTVSPropertyOp21
 70
     1
102
RTVSPropertyOp22
 70
     1
102
RTVSPropertyOp23
 70
     1
102
RTVSPropertyOp24
 70
     1
102
RTVSPropertyOp25
 70
     1
102
RTVSPropertyOp26
 70
     1
102
RTVSPropertyOp27
 70
     1
102
RTVSPropertyOp28
 70
     1
102
RTVSPropertyOp29
 70
     1
102
RTVSPropertyOp30
 70
     1
102
RTVSPropertyOp31
 70
     1
102
RTVSPropertyOp32
 70
     1
102
RTVSPropertyOp33
 70
     1
102
RTVSPropertyOp34
 70
     1
102
RTVSPropertyOp35
 70
     1
102
RTVSPropertyOp36
 70
     1
102
RTVSPropertyOp37
 70
     1
102
RTVSPropertyOp38
 70
     1
102
RTVSPropertyOp39
 70
     1
102
RTVSPropertyOp40
 70
     1
102
RTVSPropertyOp41
 70
     1
102
RTVSPropertyOp42
 70
     1
102
RTVSPropertyOp43
 70
     1
102
RTVSPropertyOp44
 70
     1
102
RTVSPropertyOp45
 70
     1
102
RTVSPropertyOp46
 70
     1
102
RTVSPropertyOp47
 70
     1
102
RTVSPropertyOp48
 70
     1
102
RTVSPropertyOp49
 70
     1
102
RTVSPropertyOp50
 70
     1
102
RTVSPropertyOp51
 70
     0
102
RTVSPropertyOp52
 70
     0
102
RTVSPropertyOp53
 70
     1
102
RTVSPropertyOp54
 70
     1
102
RTVSPropertyOp55
 70
     1
102
RTVSPropertyOp56
 70
     1
102
RTVSPropertyOp57
 70
     1
102
RTVSPropertyOp58
 70
     1
102
RTVSPropertyOp59
 70
     1
102
RTVSPropertyOp60
 70
     1
102
RTVSPropertyOp61
 70
     1
102
RTVSPropertyOp62
 70
     1
  0
XRECORD
  5
28E
102
{ACAD_REACTORS
330
28D
102
}
330
28D
100
AcDbXrecord
280
     1
102
RTVSPost2010Prop28
280
     0
102
RTVSPost2010PropOp28
 70
     1
102
RTVSPost2010Prop29
280
     1
102
RTVSPost2010PropOp29
 70
     1
102
RTVSPost2010Prop30
280
     1
102
RTVSPost2010PropOp30
 70
     1
102
RTVSPost2010Prop31
280
     0
102
RTVSPost2010PropOp31
 70
     1
102
RTVSPost2010Prop32
280
     0
102
RTVSPost2010PropOp32
 70
     1
102
RTVSPost2010Prop33
280
     0
102
RTVSPost2010PropOp33
 70
     1
102
RTVSPost2010Prop34
280
     0
102
RTVSPost2010PropOp34
 70
     1
102
RTVSPost2010Prop35
280
     0
102
RTVSPost2010PropOp35
 70
     1
102
RTVSPost2010Prop36
280
     0
102
RTVSPost2010PropOp36
 70
     1
102
RTVSPost2010Prop37
 90
       50
102
RTVSPost2010PropOp37
 70
     1
102
RTVSPost2010Prop38
140
0.0
102
RTVSPost2010PropOp38
 70
     1
102
RTVSPost2010Prop39
140
1.0
102
RTVSPost2010PropOp39
 70
     1
102
RTVSPost2010Prop40
 90
        0
102
RTVSPost2010PropOp40
 70
     1
102
RTVSPost2010Prop41ColorIndex
 90
       18
102
RTVSPost2010Prop41ColorRGB
 90
        0
102
RTVSPost2010PropOp41
 70
     1
102
RTVSPost2010Prop42
 90
       50
102
RTVSPost2010PropOp42
 70
     1
102
RTVSPost2010Prop43
 90
        3
102
RTVSPost2010PropOp43
 70
     1
102
RTVSPost2010Prop44ColorIndex
 90
        5
102
RTVSPost2010Prop44ColorRGB
 90
      255
102
RTVSPost2010PropOp44
 70
     1
102
RTVSPost2010Prop45
280
     0
102
RTVSPost2010PropOp45
 70
     1
102
RTVSPost2010Prop46
 90
       50
102
RTVSPost2010PropOp46
 70
     1
102
RTVSPost2010Prop47
 90
       50
102
RTVSPost2010PropOp47
 70
     1
102
RTVSPost2010Prop48
 90
       50
102
RTVSPost2010PropOp48
 70
     1
102
RTVSPost2010Prop49
280
     0
102
RTVSPost2010PropOp49
 70
     1
102
RTVSPost2010Prop50
 90
       50
102
RTVSPost2010PropOp50
 70
     1
102
RTVSPost2010Prop51ColorIndex
 90
      256
102
RTVSPost2010Prop51ColorRGB
 90
-16777216
102
RTVSPost2010PropOp51
 70
     0
102
RTVSPost2010Prop52
140
1.0
102
RTVSPost2010PropOp52
 70
     0
102
RTVSPost2010Prop53
 90
        2
102
RTVSPost2010PropOp53
 70
     1
102
RTVSPost2010Prop54
  1
strokes_ogs.tif
102
RTVSPost2010PropOp54
 70
     1
102
RTVSPost2010Prop55
280
     0
102
RTVSPost2010PropOp55
 70
     1
102
RTVSPost2010Prop56
140
1.0
102
RTVSPost2010PropOp56
 70
     1
102
RTVSPost2010Prop57
140
1.0
102
RTVSPost2010PropOp57
 70
     1
102
RTVSPropertyOp0
 70
     1
102
RTVSPropertyOp1
 70
     1
102
RTVSPropertyOp2
 70
     1
102
RTVSPropertyOp3
 70
     1
102
RTVSPropertyOp4
 70
     1
102
RTVSPropertyOp5
 70
     1
102
RTVSPropertyOp6
 70
     1
102
RTVSPropertyOp7
 70
     1
102
RTVSPropertyOp8
 70
     1
102
RTVSPropertyOp9
 70
     1
102
RTVSPropertyOp10
 70
     1
102
RTVSPropertyOp11
 70
     1
102
RTVSPropertyOp12
 70
     1
102
RTVSPropertyOp13
 70
     1
102
RTVSPropertyOp14
 70
     1
102
RTVSPropertyOp15
 70
     1
102
RTVSPropertyOp16
 70
     1
102
RTVSPropertyOp17
 70
     1
102
RTVSPropertyOp18
 70
     1
102
RTVSPropertyOp19
 70
     1
102
RTVSPropertyOp20
 70
     1
102
RTVSPropertyOp21
 70
     1
102
RTVSPropertyOp22
 70
     1
102
RTVSPropertyOp23
 70
     1
102
RTVSPropertyOp24
 70
     1
102
RTVSPropertyOp25
 70
     1
102
RTVSPropertyOp26
 70
     1
102
RTVSPropertyOp27
 70
     1
102
RTVSPropertyOp28
 70
     1
102
RTVSPropertyOp29
 70
     1
102
RTVSPropertyOp30
 70
     1
102
RTVSPropertyOp31
 70
     1
102
RTVSPropertyOp32
 70
     1
102
RTVSPropertyOp33
 70
     1
102
RTVSPropertyOp34
 70
     1
102
RTVSPropertyOp35
 70
     1
102
RTVSPropertyOp36
 70
     1
102
RTVSPropertyOp37
 70
     1
102
RTVSPropertyOp38
 70
     1
102
RTVSPropertyOp39
 70
     1
102
RTVSPropertyOp40
 70
     1
102
RTVSPropertyOp41
 70
     1
102
RTVSPropertyOp42
 70
     1
102
RTVSPropertyOp43
 70
     1
102
RTVSPropertyOp44
 70
     1
102
RTVSPropertyOp45
 70
     1
102
RTVSPropertyOp46
 70
     1
102
RTVSPropertyOp47
 70
     1
102
RTVSPropertyOp48
 70
     1
102
RTVSPropertyOp49
 70
     1
102
RTVSPropertyOp50
 70
     1
102
RTVSPropertyOp51
 70
     0
102
RTVSPropertyOp52
 70
     0
102
RTVSPropertyOp53
 70
     1
102
RTVSPropertyOp54
 70
     1
102
RTVSPropertyOp55
 70
     1
102
RTVSPropertyOp56
 70
     1
102
RTVSPropertyOp57
 70
     1
102
RTVSPropertyOp58
 70
     1
102
RTVSPropertyOp59
 70
     1
102
RTVSPropertyOp60
 70
     1
102
RTVSPropertyOp61
 70
     1
102
RTVSPropertyOp62
 70
     1
  0
XRECORD
  5
296
102
{ACAD_REACTORS
330
295
102
}
330
295
100
AcDbXrecord
280
     1
102
RTVSPost2010Prop28
280
     0
102
RTVSPost2010PropOp28
 70
     1
102
RTVSPost2010Prop29
280
     1
102
RTVSPost2010PropOp29
 70
     1
102
RTVSPost2010Prop30
280
     1
102
RTVSPost2010PropOp30
 70
     1
102
RTVSPost2010Prop31
280
     0
102
RTVSPost2010PropOp31
 70
     1
102
RTVSPost2010Prop32
280
     0
102
RTVSPost2010PropOp32
 70
     1
102
RTVSPost2010Prop33
280
     0
102
RTVSPost2010PropOp33
 70
     1
102
RTVSPost2010Prop34
280
     0
102
RTVSPost2010PropOp34
 70
     1
102
RTVSPost2010Prop35
280
     0
102
RTVSPost2010PropOp35
 70
     1
102
RTVSPost2010Prop36
280
     0
102
RTVSPost2010PropOp36
 70
     1
102
RTVSPost2010Prop37
 90
       50
102
RTVSPost2010PropOp37
 70
     1
102
RTVSPost2010Prop38
140
0.0
102
RTVSPost2010PropOp38
 70
     1
102
RTVSPost2010Prop39
140
1.0
102
RTVSPost2010PropOp39
 70
     1
102
RTVSPost2010Prop40
 90
        0
102
RTVSPost2010PropOp40
 70
     1
102
RTVSPost2010Prop41ColorIndex
 90
       18
102
RTVSPost2010Prop41ColorRGB
 90
        0
102
RTVSPost2010PropOp41
 70
     1
102
RTVSPost2010Prop42
 90
       50
102
RTVSPost2010PropOp42
 70
     1
102
RTVSPost2010Prop43
 90
        3
102
RTVSPost2010PropOp43
 70
     1
102
RTVSPost2010Prop44ColorIndex
 90
        5
102
RTVSPost2010Prop44ColorRGB
 90
      255
102
RTVSPost2010PropOp44
 70
     1
102
RTVSPost2010Prop45
280
     0
102
RTVSPost2010PropOp45
 70
     1
102
RTVSPost2010Prop46
 90
       50
102
RTVSPost2010PropOp46
 70
     1
102
RTVSPost2010Prop47
 90
       50
102
RTVSPost2010PropOp47
 70
     1
102
RTVSPost2010Prop48
 90
       50
102
RTVSPost2010PropOp48
 70
     1
102
RTVSPost2010Prop49
280
     0
102
RTVSPost2010PropOp49
 70
     1
102
RTVSPost2010Prop50
 90
       50
102
RTVSPost2010PropOp50
 70
     1
102
RTVSPost2010Prop51ColorIndex
 90
      256
102
RTVSPost2010Prop51ColorRGB
 90
-16777216
102
RTVSPost2010PropOp51
 70
     0
102
RTVSPost2010Prop52
140
1.0
102
RTVSPost2010PropOp52
 70
     0
102
RTVSPost2010Prop53
 90
        2
102
RTVSPost2010PropOp53
 70
     1
102
RTVSPost2010Prop54
  1
strokes_ogs.tif
102
RTVSPost2010PropOp54
 70
     1
102
RTVSPost2010Prop55
280
     0
102
RTVSPost2010PropOp55
 70
     1
102
RTVSPost2010Prop56
140
1.0
102
RTVSPost2010PropOp56
 70
     1
102
RTVSPost2010Prop57
140
1.0
102
RTVSPost2010PropOp57
 70
     1
102
RTVSPropertyOp0
 70
     1
102
RTVSPropertyOp1
 70
     1
102
RTVSPropertyOp2
 70
     1
102
RTVSPropertyOp3
 70
     1
102
RTVSPropertyOp4
 70
     1
102
RTVSPropertyOp5
 70
     1
102
RTVSPropertyOp6
 70
     1
102
RTVSPropertyOp7
 70
     1
102
RTVSPropertyOp8
 70
     1
102
RTVSPropertyOp9
 70
     1
102
RTVSPropertyOp10
 70
     1
102
RTVSPropertyOp11
 70
     1
102
RTVSPropertyOp12
 70
     1
102
RTVSPropertyOp13
 70
     1
102
RTVSPropertyOp14
 70
     1
102
RTVSPropertyOp15
 70
     1
102
RTVSPropertyOp16
 70
     1
102
RTVSPropertyOp17
 70
     1
102
RTVSPropertyOp18
 70
     1
102
RTVSPropertyOp19
 70
     1
102
RTVSPropertyOp20
 70
     1
102
RTVSPropertyOp21
 70
     1
102
RTVSPropertyOp22
 70
     1
102
RTVSPropertyOp23
 70
     1
102
RTVSPropertyOp24
 70
     1
102
RTVSPropertyOp25
 70
     1
102
RTVSPropertyOp26
 70
     1
102
RTVSPropertyOp27
 70
     1
102
RTVSPropertyOp28
 70
     1
102
RTVSPropertyOp29
 70
     1
102
RTVSPropertyOp30
 70
     1
102
RTVSPropertyOp31
 70
     1
102
RTVSPropertyOp32
 70
     1
102
RTVSPropertyOp33
 70
     1
102
RTVSPropertyOp34
 70
     1
102
RTVSPropertyOp35
 70
     1
102
RTVSPropertyOp36
 70
     1
102
RTVSPropertyOp37
 70
     1
102
RTVSPropertyOp38
 70
     1
102
RTVSPropertyOp39
 70
     1
102
RTVSPropertyOp40
 70
     1
102
RTVSPropertyOp41
 70
     1
102
RTVSPropertyOp42
 70
     1
102
RTVSPropertyOp43
 70
     1
102
RTVSPropertyOp44
 70
     1
102
RTVSPropertyOp45
 70
     1
102
RTVSPropertyOp46
 70
     1
102
RTVSPropertyOp47
 70
     1
102
RTVSPropertyOp48
 70
     1
102
RTVSPropertyOp49
 70
     1
102
RTVSPropertyOp50
 70
     1
102
RTVSPropertyOp51
 70
     0
102
RTVSPropertyOp52
 70
     0
102
RTVSPropertyOp53
 70
     1
102
RTVSPropertyOp54
 70
     1
102
RTVSPropertyOp55
 70
     1
102
RTVSPropertyOp56
 70
     1
102
RTVSPropertyOp57
 70
     1
102
RTVSPropertyOp58
 70
     1
102
RTVSPropertyOp59
 70
     1
102
RTVSPropertyOp60
 70
     1
102
RTVSPropertyOp61
 70
     1
102
RTVSPropertyOp62
 70
     1
  0
XRECORD
  5
28A
102
{ACAD_REACTORS
330
289
102
}
330
289
100
AcDbXrecord
280
     1
102
RTVSPost2010Prop28
280
     0
102
RTVSPost2010PropOp28
 70
     1
102
RTVSPost2010Prop29
280
     1
102
RTVSPost2010PropOp29
 70
     1
102
RTVSPost2010Prop30
280
     1
102
RTVSPost2010PropOp30
 70
     1
102
RTVSPost2010Prop31
280
     0
102
RTVSPost2010PropOp31
 70
     1
102
RTVSPost2010Prop32
280
     0
102
RTVSPost2010PropOp32
 70
     1
102
RTVSPost2010Prop33
280
     0
102
RTVSPost2010PropOp33
 70
     1
102
RTVSPost2010Prop34
280
     0
102
RTVSPost2010PropOp34
 70
     1
102
RTVSPost2010Prop35
280
     0
102
RTVSPost2010PropOp35
 70
     1
102
RTVSPost2010Prop36
280
     0
102
RTVSPost2010PropOp36
 70
     1
102
RTVSPost2010Prop37
 90
       50
102
RTVSPost2010PropOp37
 70
     1
102
RTVSPost2010Prop38
140
0.0
102
RTVSPost2010PropOp38
 70
     1
102
RTVSPost2010Prop39
140
1.0
102
RTVSPost2010PropOp39
 70
     1
102
RTVSPost2010Prop40
 90
        0
102
RTVSPost2010PropOp40
 70
     1
102
RTVSPost2010Prop41ColorIndex
 90
       18
102
RTVSPost2010Prop41ColorRGB
 90
        0
102
RTVSPost2010PropOp41
 70
     1
102
RTVSPost2010Prop42
 90
       50
102
RTVSPost2010PropOp42
 70
     1
102
RTVSPost2010Prop43
 90
        3
102
RTVSPost2010PropOp43
 70
     1
102
RTVSPost2010Prop44ColorIndex
 90
        5
102
RTVSPost2010Prop44ColorRGB
 90
      255
102
RTVSPost2010PropOp44
 70
     1
102
RTVSPost2010Prop45
280
     0
102
RTVSPost2010PropOp45
 70
     1
102
RTVSPost2010Prop46
 90
       50
102
RTVSPost2010PropOp46
 70
     1
102
RTVSPost2010Prop47
 90
       50
102
RTVSPost2010PropOp47
 70
     1
102
RTVSPost2010Prop48
 90
       50
102
RTVSPost2010PropOp48
 70
     1
102
RTVSPost2010Prop49
280
     0
102
RTVSPost2010PropOp49
 70
     1
102
RTVSPost2010Prop50
 90
       50
102
RTVSPost2010PropOp50
 70
     1
102
RTVSPost2010Prop51ColorIndex
 90
      256
102
RTVSPost2010Prop51ColorRGB
 90
-16777216
102
RTVSPost2010PropOp51
 70
     0
102
RTVSPost2010Prop52
140
1.0
102
RTVSPost2010PropOp52
 70
     0
102
RTVSPost2010Prop53
 90
        2
102
RTVSPost2010PropOp53
 70
     1
102
RTVSPost2010Prop54
  1
strokes_ogs.tif
102
RTVSPost2010PropOp54
 70
     1
102
RTVSPost2010Prop55
280
     0
102
RTVSPost2010PropOp55
 70
     1
102
RTVSPost2010Prop56
140
1.0
102
RTVSPost2010PropOp56
 70
     1
102
RTVSPost2010Prop57
140
1.0
102
RTVSPost2010PropOp57
 70
     1
102
RTVSPropertyOp0
 70
     1
102
RTVSPropertyOp1
 70
     1
102
RTVSPropertyOp2
 70
     1
102
RTVSPropertyOp3
 70
     1
102
RTVSPropertyOp4
 70
     1
102
RTVSPropertyOp5
 70
     1
102
RTVSPropertyOp6
 70
     1
102
RTVSPropertyOp7
 70
     1
102
RTVSPropertyOp8
 70
     1
102
RTVSPropertyOp9
 70
     1
102
RTVSPropertyOp10
 70
     1
102
RTVSPropertyOp11
 70
     1
102
RTVSPropertyOp12
 70
     1
102
RTVSPropertyOp13
 70
     1
102
RTVSPropertyOp14
 70
     1
102
RTVSPropertyOp15
 70
     1
102
RTVSPropertyOp16
 70
     1
102
RTVSPropertyOp17
 70
     1
102
RTVSPropertyOp18
 70
     1
102
RTVSPropertyOp19
 70
     1
102
RTVSPropertyOp20
 70
     1
102
RTVSPropertyOp21
 70
     1
102
RTVSPropertyOp22
 70
     1
102
RTVSPropertyOp23
 70
     1
102
RTVSPropertyOp24
 70
     1
102
RTVSPropertyOp25
 70
     1
102
RTVSPropertyOp26
 70
     1
102
RTVSPropertyOp27
 70
     1
102
RTVSPropertyOp28
 70
     1
102
RTVSPropertyOp29
 70
     1
102
RTVSPropertyOp30
 70
     1
102
RTVSPropertyOp31
 70
     1
102
RTVSPropertyOp32
 70
     1
102
RTVSPropertyOp33
 70
     1
102
RTVSPropertyOp34
 70
     1
102
RTVSPropertyOp35
 70
     1
102
RTVSPropertyOp36
 70
     1
102
RTVSPropertyOp37
 70
     1
102
RTVSPropertyOp38
 70
     1
102
RTVSPropertyOp39
 70
     1
102
RTVSPropertyOp40
 70
     1
102
RTVSPropertyOp41
 70
     1
102
RTVSPropertyOp42
 70
     1
102
RTVSPropertyOp43
 70
     1
102
RTVSPropertyOp44
 70
     1
102
RTVSPropertyOp45
 70
     1
102
RTVSPropertyOp46
 70
     1
102
RTVSPropertyOp47
 70
     1
102
RTVSPropertyOp48
 70
     1
102
RTVSPropertyOp49
 70
     1
102
RTVSPropertyOp50
 70
     1
102
RTVSPropertyOp51
 70
     0
102
RTVSPropertyOp52
 70
     0
102
RTVSPropertyOp53
 70
     1
102
RTVSPropertyOp54
 70
     1
102
RTVSPropertyOp55
 70
     1
102
RTVSPropertyOp56
 70
     1
102
RTVSPropertyOp57
 70
     1
102
RTVSPropertyOp58
 70
     1
102
RTVSPropertyOp59
 70
     1
102
RTVSPropertyOp60
 70
     1
102
RTVSPropertyOp61
 70
     1
102
RTVSPropertyOp62
 70
     1
  0
XRECORD
  5
28C
102
{ACAD_REACTORS
330
28B
102
}
330
28B
100
AcDbXrecord
280
     1
102
RTVSPost2010Prop28
280
     0
102
RTVSPost2010PropOp28
 70
     1
102
RTVSPost2010Prop29
280
     1
102
RTVSPost2010PropOp29
 70
     1
102
RTVSPost2010Prop30
280
     1
102
RTVSPost2010PropOp30
 70
     1
102
RTVSPost2010Prop31
280
     0
102
RTVSPost2010PropOp31
 70
     1
102
RTVSPost2010Prop32
280
     0
102
RTVSPost2010PropOp32
 70
     1
102
RTVSPost2010Prop33
280
     0
102
RTVSPost2010PropOp33
 70
     1
102
RTVSPost2010Prop34
280
     0
102
RTVSPost2010PropOp34
 70
     1
102
RTVSPost2010Prop35
280
     0
102
RTVSPost2010PropOp35
 70
     1
102
RTVSPost2010Prop36
280
     0
102
RTVSPost2010PropOp36
 70
     1
102
RTVSPost2010Prop37
 90
       50
102
RTVSPost2010PropOp37
 70
     1
102
RTVSPost2010Prop38
140
0.0
102
RTVSPost2010PropOp38
 70
     1
102
RTVSPost2010Prop39
140
1.0
102
RTVSPost2010PropOp39
 70
     1
102
RTVSPost2010Prop40
 90
        0
102
RTVSPost2010PropOp40
 70
     1
102
RTVSPost2010Prop41ColorIndex
 90
       18
102
RTVSPost2010Prop41ColorRGB
 90
        0
102
RTVSPost2010PropOp41
 70
     1
102
RTVSPost2010Prop42
 90
       50
102
RTVSPost2010PropOp42
 70
     1
102
RTVSPost2010Prop43
 90
        3
102
RTVSPost2010PropOp43
 70
     1
102
RTVSPost2010Prop44ColorIndex
 90
        5
102
RTVSPost2010Prop44ColorRGB
 90
      255
102
RTVSPost2010PropOp44
 70
     1
102
RTVSPost2010Prop45
280
     0
102
RTVSPost2010PropOp45
 70
     1
102
RTVSPost2010Prop46
 90
       50
102
RTVSPost2010PropOp46
 70
     1
102
RTVSPost2010Prop47
 90
       50
102
RTVSPost2010PropOp47
 70
     1
102
RTVSPost2010Prop48
 90
       50
102
RTVSPost2010PropOp48
 70
     1
102
RTVSPost2010Prop49
280
     0
102
RTVSPost2010PropOp49
 70
     1
102
RTVSPost2010Prop50
 90
       50
102
RTVSPost2010PropOp50
 70
     1
102
RTVSPost2010Prop51ColorIndex
 90
      256
102
RTVSPost2010Prop51ColorRGB
 90
-16777216
102
RTVSPost2010PropOp51
 70
     0
102
RTVSPost2010Prop52
140
1.0
102
RTVSPost2010PropOp52
 70
     0
102
RTVSPost2010Prop53
 90
        2
102
RTVSPost2010PropOp53
 70
     1
102
RTVSPost2010Prop54
  1
strokes_ogs.tif
102
RTVSPost2010PropOp54
 70
     1
102
RTVSPost2010Prop55
280
     0
102
RTVSPost2010PropOp55
 70
     1
102
RTVSPost2010Prop56
140
1.0
102
RTVSPost2010PropOp56
 70
     1
102
RTVSPost2010Prop57
140
1.0
102
RTVSPost2010PropOp57
 70
     1
102
RTVSPropertyOp0
 70
     1
102
RTVSPropertyOp1
 70
     1
102
RTVSPropertyOp2
 70
     1
102
RTVSPropertyOp3
 70
     1
102
RTVSPropertyOp4
 70
     1
102
RTVSPropertyOp5
 70
     1
102
RTVSPropertyOp6
 70
     1
102
RTVSPropertyOp7
 70
     1
102
RTVSPropertyOp8
 70
     1
102
RTVSPropertyOp9
 70
     1
102
RTVSPropertyOp10
 70
     1
102
RTVSPropertyOp11
 70
     1
102
RTVSPropertyOp12
 70
     1
102
RTVSPropertyOp13
 70
     1
102
RTVSPropertyOp14
 70
     1
102
RTVSPropertyOp15
 70
     1
102
RTVSPropertyOp16
 70
     1
102
RTVSPropertyOp17
 70
     1
102
RTVSPropertyOp18
 70
     1
102
RTVSPropertyOp19
 70
     1
102
RTVSPropertyOp20
 70
     1
102
RTVSPropertyOp21
 70
     1
102
RTVSPropertyOp22
 70
     1
102
RTVSPropertyOp23
 70
     1
102
RTVSPropertyOp24
 70
     1
102
RTVSPropertyOp25
 70
     1
102
RTVSPropertyOp26
 70
     1
102
RTVSPropertyOp27
 70
     1
102
RTVSPropertyOp28
 70
     1
102
RTVSPropertyOp29
 70
     1
102
RTVSPropertyOp30
 70
     1
102
RTVSPropertyOp31
 70
     1
102
RTVSPropertyOp32
 70
     1
102
RTVSPropertyOp33
 70
     1
102
RTVSPropertyOp34
 70
     1
102
RTVSPropertyOp35
 70
     1
102
RTVSPropertyOp36
 70
     1
102
RTVSPropertyOp37
 70
     1
102
RTVSPropertyOp38
 70
     1
102
RTVSPropertyOp39
 70
     1
102
RTVSPropertyOp40
 70
     1
102
RTVSPropertyOp41
 70
     1
102
RTVSPropertyOp42
 70
     1
102
RTVSPropertyOp43
 70
     1
102
RTVSPropertyOp44
 70
     1
102
RTVSPropertyOp45
 70
     1
102
RTVSPropertyOp46
 70
     1
102
RTVSPropertyOp47
 70
     1
102
RTVSPropertyOp48
 70
     1
102
RTVSPropertyOp49
 70
     1
102
RTVSPropertyOp50
 70
     1
102
RTVSPropertyOp51
 70
     0
102
RTVSPropertyOp52
 70
     0
102
RTVSPropertyOp53
 70
     1
102
RTVSPropertyOp54
 70
     1
102
RTVSPropertyOp55
 70
     1
102
RTVSPropertyOp56
 70
     1
102
RTVSPropertyOp57
 70
     1
102
RTVSPropertyOp58
 70
     1
102
RTVSPropertyOp59
 70
     1
102
RTVSPropertyOp60
 70
     1
102
RTVSPropertyOp61
 70
     1
102
RTVSPropertyOp62
 70
     1
  0
XRECORD
  5
29C
102
{ACAD_REACTORS
330
29B
102
}
330
29B
100
AcDbXrecord
280
     1
102
RTVSPost2010Prop28
280
     0
102
RTVSPost2010PropOp28
 70
     0
102
RTVSPost2010Prop29
280
     1
102
RTVSPost2010PropOp29
 70
     0
102
RTVSPost2010Prop30
280
     1
102
RTVSPost2010PropOp30
 70
     0
102
RTVSPost2010Prop31
280
     0
102
RTVSPost2010PropOp31
 70
     0
102
RTVSPost2010Prop32
280
     0
102
RTVSPost2010PropOp32
 70
     0
102
RTVSPost2010Prop33
280
     0
102
RTVSPost2010PropOp33
 70
     0
102
RTVSPost2010Prop34
280
     0
102
RTVSPost2010PropOp34
 70
     0
102
RTVSPost2010Prop35
280
     0
102
RTVSPost2010PropOp35
 70
     0
102
RTVSPost2010Prop36
280
     0
102
RTVSPost2010PropOp36
 70
     0
102
RTVSPost2010Prop37
 90
       50
102
RTVSPost2010PropOp37
 70
     0
102
RTVSPost2010Prop38
140
0.0
102
RTVSPost2010PropOp38
 70
     0
102
RTVSPost2010Prop39
140
1.0
102
RTVSPost2010PropOp39
 70
     0
102
RTVSPost2010Prop40
 90
        0
102
RTVSPost2010PropOp40
 70
     0
102
RTVSPost2010Prop41ColorIndex
 90
       18
102
RTVSPost2010Prop41ColorRGB
 90
        0
102
RTVSPost2010PropOp41
 70
     0
102
RTVSPost2010Prop42
 90
       50
102
RTVSPost2010PropOp42
 70
     0
102
RTVSPost2010Prop43
 90
        3
102
RTVSPost2010PropOp43
 70
     0
102
RTVSPost2010Prop44ColorIndex
 90
        5
102
RTVSPost2010Prop44ColorRGB
 90
      255
102
RTVSPost2010PropOp44
 70
     0
102
RTVSPost2010Prop45
280
     0
102
RTVSPost2010PropOp45
 70
     0
102
RTVSPost2010Prop46
 90
       50
102
RTVSPost2010PropOp46
 70
     0
102
RTVSPost2010Prop47
 90
       50
102
RTVSPost2010PropOp47
 70
     0
102
RTVSPost2010Prop48
 90
       50
102
RTVSPost2010PropOp48
 70
     0
102
RTVSPost2010Prop49
280
     0
102
RTVSPost2010PropOp49
 70
     0
102
RTVSPost2010Prop50
 90
       50
102
RTVSPost2010PropOp50
 70
     0
102
RTVSPost2010Prop51ColorIndex
 90
      256
102
RTVSPost2010Prop51ColorRGB
 90
-16777216
102
RTVSPost2010PropOp51
 70
     0
102
RTVSPost2010Prop52
140
1.0
102
RTVSPost2010PropOp52
 70
     0
102
RTVSPost2010Prop53
 90
        2
102
RTVSPost2010PropOp53
 70
     0
102
RTVSPost2010Prop54
  1
strokes_ogs.tif
102
RTVSPost2010PropOp54
 70
     0
102
RTVSPost2010Prop55
280
     0
102
RTVSPost2010PropOp55
 70
     0
102
RTVSPost2010Prop56
140
1.0
102
RTVSPost2010PropOp56
 70
     0
102
RTVSPost2010Prop57
140
1.0
102
RTVSPost2010PropOp57
 70
     0
102
RTVSPropertyOp0
 70
     0
102
RTVSPropertyOp1
 70
     0
102
RTVSPropertyOp2
 70
     0
102
RTVSPropertyOp3
 70
     0
102
RTVSPropertyOp4
 70
     0
102
RTVSPropertyOp5
 70
     0
102
RTVSPropertyOp6
 70
     0
102
RTVSPropertyOp7
 70
     0
102
RTVSPropertyOp8
 70
     0
102
RTVSPropertyOp9
 70
     0
102
RTVSPropertyOp10
 70
     0
102
RTVSPropertyOp11
 70
     0
102
RTVSPropertyOp12
 70
     0
102
RTVSPropertyOp13
 70
     0
102
RTVSPropertyOp14
 70
     2
102
RTVSPropertyOp15
 70
     0
102
RTVSPropertyOp16
 70
     0
102
RTVSPropertyOp17
 70
     0
102
RTVSPropertyOp18
 70
     0
102
RTVSPropertyOp19
 70
     0
102
RTVSPropertyOp20
 70
     0
102
RTVSPropertyOp21
 70
     0
102
RTVSPropertyOp22
 70
     0
102
RTVSPropertyOp23
 70
     0
102
RTVSPropertyOp24
 70
     0
102
RTVSPropertyOp25
 70
     0
102
RTVSPropertyOp26
 70
     0
102
RTVSPropertyOp27
 70
     0
102
RTVSPropertyOp28
 70
     0
102
RTVSPropertyOp29
 70
     0
102
RTVSPropertyOp30
 70
     0
102
RTVSPropertyOp31
 70
     0
102
RTVSPropertyOp32
 70
     0
102
RTVSPropertyOp33
 70
     0
102
RTVSPropertyOp34
 70
     0
102
RTVSPropertyOp35
 70
     0
102
RTVSPropertyOp36
 70
     0
102
RTVSPropertyOp37
 70
     0
102
RTVSPropertyOp38
 70
     0
102
RTVSPropertyOp39
 70
     0
102
RTVSPropertyOp40
 70
     0
102
RTVSPropertyOp41
 70
     0
102
RTVSPropertyOp42
 70
     0
102
RTVSPropertyOp43
 70
     0
102
RTVSPropertyOp44
 70
     0
102
RTVSPropertyOp45
 70
     0
102
RTVSPropertyOp46
 70
     0
102
RTVSPropertyOp47
 70
     0
102
RTVSPropertyOp48
 70
     0
102
RTVSPropertyOp49
 70
     0
102
RTVSPropertyOp50
 70
     0
102
RTVSPropertyOp51
 70
     0
102
RTVSPropertyOp52
 70
     0
102
RTVSPropertyOp53
 70
     0
102
RTVSPropertyOp54
 70
     0
102
RTVSPropertyOp55
 70
     0
102
RTVSPropertyOp56
 70
     0
102
RTVSPropertyOp57
 70
     0
102
RTVSPropertyOp58
 70
     1
102
RTVSPropertyOp59
 70
     1
102
RTVSPropertyOp60
 70
     1
102
RTVSPropertyOp61
 70
     1
102
RTVSPropertyOp62
 70
     1
  0
XRECORD
  5
294
102
{ACAD_REACTORS
330
293
102
}
330
293
100
AcDbXrecord
280
     1
102
RTVSPost2010Prop28
280
     0
102
RTVSPost2010PropOp28
 70
     1
102
RTVSPost2010Prop29
280
     1
102
RTVSPost2010PropOp29
 70
     1
102
RTVSPost2010Prop30
280
     1
102
RTVSPost2010PropOp30
 70
     1
102
RTVSPost2010Prop31
280
     0
102
RTVSPost2010PropOp31
 70
     1
102
RTVSPost2010Prop32
280
     0
102
RTVSPost2010PropOp32
 70
     1
102
RTVSPost2010Prop33
280
     0
102
RTVSPost2010PropOp33
 70
     1
102
RTVSPost2010Prop34
280
     0
102
RTVSPost2010PropOp34
 70
     1
102
RTVSPost2010Prop35
280
     0
102
RTVSPost2010PropOp35
 70
     1
102
RTVSPost2010Prop36
280
     0
102
RTVSPost2010PropOp36
 70
     1
102
RTVSPost2010Prop37
 90
       50
102
RTVSPost2010PropOp37
 70
     1
102
RTVSPost2010Prop38
140
0.0
102
RTVSPost2010PropOp38
 70
     1
102
RTVSPost2010Prop39
140
1.0
102
RTVSPost2010PropOp39
 70
     1
102
RTVSPost2010Prop40
 90
        0
102
RTVSPost2010PropOp40
 70
     1
102
RTVSPost2010Prop41ColorIndex
 90
       18
102
RTVSPost2010Prop41ColorRGB
 90
        0
102
RTVSPost2010PropOp41
 70
     1
102
RTVSPost2010Prop42
 90
       50
102
RTVSPost2010PropOp42
 70
     1
102
RTVSPost2010Prop43
 90
        3
102
RTVSPost2010PropOp43
 70
     1
102
RTVSPost2010Prop44ColorIndex
 90
        5
102
RTVSPost2010Prop44ColorRGB
 90
      255
102
RTVSPost2010PropOp44
 70
     1
102
RTVSPost2010Prop45
280
     0
102
RTVSPost2010PropOp45
 70
     1
102
RTVSPost2010Prop46
 90
       50
102
RTVSPost2010PropOp46
 70
     1
102
RTVSPost2010Prop47
 90
       50
102
RTVSPost2010PropOp47
 70
     1
102
RTVSPost2010Prop48
 90
       50
102
RTVSPost2010PropOp48
 70
     1
102
RTVSPost2010Prop49
280
     0
102
RTVSPost2010PropOp49
 70
     1
102
RTVSPost2010Prop50
 90
       50
102
RTVSPost2010PropOp50
 70
     1
102
RTVSPost2010Prop51ColorIndex
 90
      256
102
RTVSPost2010Prop51ColorRGB
 90
-16777216
102
RTVSPost2010PropOp51
 70
     0
102
RTVSPost2010Prop52
140
1.0
102
RTVSPost2010PropOp52
 70
     0
102
RTVSPost2010Prop53
 90
        2
102
RTVSPost2010PropOp53
 70
     1
102
RTVSPost2010Prop54
  1
strokes_ogs.tif
102
RTVSPost2010PropOp54
 70
     1
102
RTVSPost2010Prop55
280
     0
102
RTVSPost2010PropOp55
 70
     1
102
RTVSPost2010Prop56
140
1.0
102
RTVSPost2010PropOp56
 70
     1
102
RTVSPost2010Prop57
140
1.0
102
RTVSPost2010PropOp57
 70
     1
102
RTVSPropertyOp0
 70
     1
102
RTVSPropertyOp1
 70
     1
102
RTVSPropertyOp2
 70
     1
102
RTVSPropertyOp3
 70
     1
102
RTVSPropertyOp4
 70
     1
102
RTVSPropertyOp5
 70
     1
102
RTVSPropertyOp6
 70
     1
102
RTVSPropertyOp7
 70
     1
102
RTVSPropertyOp8
 70
     1
102
RTVSPropertyOp9
 70
     1
102
RTVSPropertyOp10
 70
     1
102
RTVSPropertyOp11
 70
     1
102
RTVSPropertyOp12
 70
     1
102
RTVSPropertyOp13
 70
     1
102
RTVSPropertyOp14
 70
     1
102
RTVSPropertyOp15
 70
     1
102
RTVSPropertyOp16
 70
     1
102
RTVSPropertyOp17
 70
     1
102
RTVSPropertyOp18
 70
     1
102
RTVSPropertyOp19
 70
     1
102
RTVSPropertyOp20
 70
     1
102
RTVSPropertyOp21
 70
     1
102
RTVSPropertyOp22
 70
     1
102
RTVSPropertyOp23
 70
     1
102
RTVSPropertyOp24
 70
     1
102
RTVSPropertyOp25
 70
     1
102
RTVSPropertyOp26
 70
     1
102
RTVSPropertyOp27
 70
     1
102
RTVSPropertyOp28
 70
     1
102
RTVSPropertyOp29
 70
     1
102
RTVSPropertyOp30
 70
     1
102
RTVSPropertyOp31
 70
     1
102
RTVSPropertyOp32
 70
     1
102
RTVSPropertyOp33
 70
     1
102
RTVSPropertyOp34
 70
     1
102
RTVSPropertyOp35
 70
     1
102
RTVSPropertyOp36
 70
     1
102
RTVSPropertyOp37
 70
     1
102
RTVSPropertyOp38
 70
     1
102
RTVSPropertyOp39
 70
     1
102
RTVSPropertyOp40
 70
     1
102
RTVSPropertyOp41
 70
     1
102
RTVSPropertyOp42
 70
     1
102
RTVSPropertyOp43
 70
     1
102
RTVSPropertyOp44
 70
     1
102
RTVSPropertyOp45
 70
     1
102
RTVSPropertyOp46
 70
     1
102
RTVSPropertyOp47
 70
     1
102
RTVSPropertyOp48
 70
     1
102
RTVSPropertyOp49
 70
     1
102
RTVSPropertyOp50
 70
     1
102
RTVSPropertyOp51
 70
     0
102
RTVSPropertyOp52
 70
     0
102
RTVSPropertyOp53
 70
     1
102
RTVSPropertyOp54
 70
     1
102
RTVSPropertyOp55
 70
     1
102
RTVSPropertyOp56
 70
     1
102
RTVSPropertyOp57
 70
     1
102
RTVSPropertyOp58
 70
     1
102
RTVSPropertyOp59
 70
     1
102
RTVSPropertyOp60
 70
     1
102
RTVSPropertyOp61
 70
     1
102
RTVSPropertyOp62
 70
     1
  0
XRECORD
  5
278
102
{ACAD_REACTORS
330
277
102
}
330
277
100
AcDbXrecord
280
     1
102
RTVSPost2010Prop28
280
     0
102
RTVSPost2010PropOp28
 70
     1
102
RTVSPost2010Prop29
280
     1
102
RTVSPost2010PropOp29
 70
     1
102
RTVSPost2010Prop30
280
     1
102
RTVSPost2010PropOp30
 70
     1
102
RTVSPost2010Prop31
280
     0
102
RTVSPost2010PropOp31
 70
     1
102
RTVSPost2010Prop32
280
     0
102
RTVSPost2010PropOp32
 70
     1
102
RTVSPost2010Prop33
280
     0
102
RTVSPost2010PropOp33
 70
     1
102
RTVSPost2010Prop34
280
     0
102
RTVSPost2010PropOp34
 70
     1
102
RTVSPost2010Prop35
280
     0
102
RTVSPost2010PropOp35
 70
     1
102
RTVSPost2010Prop36
280
     0
102
RTVSPost2010PropOp36
 70
     1
102
RTVSPost2010Prop37
 90
       50
102
RTVSPost2010PropOp37
 70
     1
102
RTVSPost2010Prop38
140
0.0
102
RTVSPost2010PropOp38
 70
     1
102
RTVSPost2010Prop39
140
1.0
102
RTVSPost2010PropOp39
 70
     1
102
RTVSPost2010Prop40
 90
        0
102
RTVSPost2010PropOp40
 70
     1
102
RTVSPost2010Prop41ColorIndex
 90
       18
102
RTVSPost2010Prop41ColorRGB
 90
        0
102
RTVSPost2010PropOp41
 70
     1
102
RTVSPost2010Prop42
 90
       50
102
RTVSPost2010PropOp42
 70
     1
102
RTVSPost2010Prop43
 90
        3
102
RTVSPost2010PropOp43
 70
     1
102
RTVSPost2010Prop44ColorIndex
 90
        5
102
RTVSPost2010Prop44ColorRGB
 90
      255
102
RTVSPost2010PropOp44
 70
     1
102
RTVSPost2010Prop45
280
     0
102
RTVSPost2010PropOp45
 70
     1
102
RTVSPost2010Prop46
 90
       50
102
RTVSPost2010PropOp46
 70
     1
102
RTVSPost2010Prop47
 90
       50
102
RTVSPost2010PropOp47
 70
     1
102
RTVSPost2010Prop48
 90
       50
102
RTVSPost2010PropOp48
 70
     1
102
RTVSPost2010Prop49
280
     0
102
RTVSPost2010PropOp49
 70
     1
102
RTVSPost2010Prop50
 90
       50
102
RTVSPost2010PropOp50
 70
     1
102
RTVSPost2010Prop51ColorIndex
 90
      256
102
RTVSPost2010Prop51ColorRGB
 90
-16777216
102
RTVSPost2010PropOp51
 70
     0
102
RTVSPost2010Prop52
140
1.0
102
RTVSPost2010PropOp52
 70
     0
102
RTVSPost2010Prop53
 90
        2
102
RTVSPost2010PropOp53
 70
     1
102
RTVSPost2010Prop54
  1
strokes_ogs.tif
102
RTVSPost2010PropOp54
 70
     1
102
RTVSPost2010Prop55
280
     0
102
RTVSPost2010PropOp55
 70
     1
102
RTVSPost2010Prop56
140
1.0
102
RTVSPost2010PropOp56
 70
     1
102
RTVSPost2010Prop57
140
1.0
102
RTVSPost2010PropOp57
 70
     1
102
RTVSPropertyOp0
 70
     1
102
RTVSPropertyOp1
 70
     1
102
RTVSPropertyOp2
 70
     1
102
RTVSPropertyOp3
 70
     1
102
RTVSPropertyOp4
 70
     1
102
RTVSPropertyOp5
 70
     1
102
RTVSPropertyOp6
 70
     1
102
RTVSPropertyOp7
 70
     1
102
RTVSPropertyOp8
 70
     1
102
RTVSPropertyOp9
 70
     1
102
RTVSPropertyOp10
 70
     1
102
RTVSPropertyOp11
 70
     1
102
RTVSPropertyOp12
 70
     1
102
RTVSPropertyOp13
 70
     1
102
RTVSPropertyOp14
 70
     1
102
RTVSPropertyOp15
 70
     1
102
RTVSPropertyOp16
 70
     1
102
RTVSPropertyOp17
 70
     1
102
RTVSPropertyOp18
 70
     1
102
RTVSPropertyOp19
 70
     1
102
RTVSPropertyOp20
 70
     1
102
RTVSPropertyOp21
 70
     1
102
RTVSPropertyOp22
 70
     1
102
RTVSPropertyOp23
 70
     1
102
RTVSPropertyOp24
 70
     1
102
RTVSPropertyOp25
 70
     1
102
RTVSPropertyOp26
 70
     1
102
RTVSPropertyOp27
 70
     1
102
RTVSPropertyOp28
 70
     1
102
RTVSPropertyOp29
 70
     1
102
RTVSPropertyOp30
 70
     1
102
RTVSPropertyOp31
 70
     1
102
RTVSPropertyOp32
 70
     1
102
RTVSPropertyOp33
 70
     1
102
RTVSPropertyOp34
 70
     1
102
RTVSPropertyOp35
 70
     1
102
RTVSPropertyOp36
 70
     1
102
RTVSPropertyOp37
 70
     1
102
RTVSPropertyOp38
 70
     1
102
RTVSPropertyOp39
 70
     1
102
RTVSPropertyOp40
 70
     1
102
RTVSPropertyOp41
 70
     1
102
RTVSPropertyOp42
 70
     1
102
RTVSPropertyOp43
 70
     1
102
RTVSPropertyOp44
 70
     1
102
RTVSPropertyOp45
 70
     1
102
RTVSPropertyOp46
 70
     1
102
RTVSPropertyOp47
 70
     1
102
RTVSPropertyOp48
 70
     1
102
RTVSPropertyOp49
 70
     1
102
RTVSPropertyOp50
 70
     1
102
RTVSPropertyOp51
 70
     0
102
RTVSPropertyOp52
 70
     0
102
RTVSPropertyOp53
 70
     1
102
RTVSPropertyOp54
 70
     1
102
RTVSPropertyOp55
 70
     1
102
RTVSPropertyOp56
 70
     1
102
RTVSPropertyOp57
 70
     1
102
RTVSPropertyOp58
 70
     1
102
RTVSPropertyOp59
 70
     1
102
RTVSPropertyOp60
 70
     1
102
RTVSPropertyOp61
 70
     1
102
RTVSPropertyOp62
 70
     1
  0
XRECORD
  5
27A
102
{ACAD_REACTORS
330
279
102
}
330
279
100
AcDbXrecord
280
     1
102
RTVSPost2010Prop28
280
     0
102
RTVSPost2010PropOp28
 70
     1
102
RTVSPost2010Prop29
280
     1
102
RTVSPost2010PropOp29
 70
     1
102
RTVSPost2010Prop30
280
     1
102
RTVSPost2010PropOp30
 70
     1
102
RTVSPost2010Prop31
280
     0
102
RTVSPost2010PropOp31
 70
     1
102
RTVSPost2010Prop32
280
     0
102
RTVSPost2010PropOp32
 70
     1
102
RTVSPost2010Prop33
280
     0
102
RTVSPost2010PropOp33
 70
     1
102
RTVSPost2010Prop34
280
     0
102
RTVSPost2010PropOp34
 70
     1
102
RTVSPost2010Prop35
280
     0
102
RTVSPost2010PropOp35
 70
     1
102
RTVSPost2010Prop36
280
     0
102
RTVSPost2010PropOp36
 70
     1
102
RTVSPost2010Prop37
 90
       50
102
RTVSPost2010PropOp37
 70
     1
102
RTVSPost2010Prop38
140
0.0
102
RTVSPost2010PropOp38
 70
     1
102
RTVSPost2010Prop39
140
1.0
102
RTVSPost2010PropOp39
 70
     1
102
RTVSPost2010Prop40
 90
        0
102
RTVSPost2010PropOp40
 70
     1
102
RTVSPost2010Prop41ColorIndex
 90
       18
102
RTVSPost2010Prop41ColorRGB
 90
        0
102
RTVSPost2010PropOp41
 70
     1
102
RTVSPost2010Prop42
 90
       50
102
RTVSPost2010PropOp42
 70
     1
102
RTVSPost2010Prop43
 90
        3
102
RTVSPost2010PropOp43
 70
     1
102
RTVSPost2010Prop44ColorIndex
 90
        5
102
RTVSPost2010Prop44ColorRGB
 90
      255
102
RTVSPost2010PropOp44
 70
     1
102
RTVSPost2010Prop45
280
     0
102
RTVSPost2010PropOp45
 70
     1
102
RTVSPost2010Prop46
 90
       50
102
RTVSPost2010PropOp46
 70
     1
102
RTVSPost2010Prop47
 90
       50
102
RTVSPost2010PropOp47
 70
     1
102
RTVSPost2010Prop48
 90
       50
102
RTVSPost2010PropOp48
 70
     1
102
RTVSPost2010Prop49
280
     0
102
RTVSPost2010PropOp49
 70
     1
102
RTVSPost2010Prop50
 90
       50
102
RTVSPost2010PropOp50
 70
     1
102
RTVSPost2010Prop51ColorIndex
 90
      256
102
RTVSPost2010Prop51ColorRGB
 90
-16777216
102
RTVSPost2010PropOp51
 70
     0
102
RTVSPost2010Prop52
140
1.0
102
RTVSPost2010PropOp52
 70
     0
102
RTVSPost2010Prop53
 90
        2
102
RTVSPost2010PropOp53
 70
     1
102
RTVSPost2010Prop54
  1
strokes_ogs.tif
102
RTVSPost2010PropOp54
 70
     1
102
RTVSPost2010Prop55
280
     0
102
RTVSPost2010PropOp55
 70
     1
102
RTVSPost2010Prop56
140
1.0
102
RTVSPost2010PropOp56
 70
     1
102
RTVSPost2010Prop57
140
1.0
102
RTVSPost2010PropOp57
 70
     1
102
RTVSPropertyOp0
 70
     1
102
RTVSPropertyOp1
 70
     1
102
RTVSPropertyOp2
 70
     1
102
RTVSPropertyOp3
 70
     1
102
RTVSPropertyOp4
 70
     1
102
RTVSPropertyOp5
 70
     1
102
RTVSPropertyOp6
 70
     1
102
RTVSPropertyOp7
 70
     1
102
RTVSPropertyOp8
 70
     1
102
RTVSPropertyOp9
 70
     1
102
RTVSPropertyOp10
 70
     1
102
RTVSPropertyOp11
 70
     1
102
RTVSPropertyOp12
 70
     1
102
RTVSPropertyOp13
 70
     1
102
RTVSPropertyOp14
 70
     1
102
RTVSPropertyOp15
 70
     1
102
RTVSPropertyOp16
 70
     1
102
RTVSPropertyOp17
 70
     1
102
RTVSPropertyOp18
 70
     1
102
RTVSPropertyOp19
 70
     1
102
RTVSPropertyOp20
 70
     1
102
RTVSPropertyOp21
 70
     1
102
RTVSPropertyOp22
 70
     1
102
RTVSPropertyOp23
 70
     1
102
RTVSPropertyOp24
 70
     1
102
RTVSPropertyOp25
 70
     1
102
RTVSPropertyOp26
 70
     1
102
RTVSPropertyOp27
 70
     1
102
RTVSPropertyOp28
 70
     1
102
RTVSPropertyOp29
 70
     1
102
RTVSPropertyOp30
 70
     1
102
RTVSPropertyOp31
 70
     1
102
RTVSPropertyOp32
 70
     1
102
RTVSPropertyOp33
 70
     1
102
RTVSPropertyOp34
 70
     1
102
RTVSPropertyOp35
 70
     1
102
RTVSPropertyOp36
 70
     1
102
RTVSPropertyOp37
 70
     1
102
RTVSPropertyOp38
 70
     1
102
RTVSPropertyOp39
 70
     1
102
RTVSPropertyOp40
 70
     1
102
RTVSPropertyOp41
 70
     1
102
RTVSPropertyOp42
 70
     1
102
RTVSPropertyOp43
 70
     1
102
RTVSPropertyOp44
 70
     1
102
RTVSPropertyOp45
 70
     1
102
RTVSPropertyOp46
 70
     1
102
RTVSPropertyOp47
 70
     1
102
RTVSPropertyOp48
 70
     1
102
RTVSPropertyOp49
 70
     1
102
RTVSPropertyOp50
 70
     1
102
RTVSPropertyOp51
 70
     0
102
RTVSPropertyOp52
 70
     0
102
RTVSPropertyOp53
 70
     1
102
RTVSPropertyOp54
 70
     1
102
RTVSPropertyOp55
 70
     1
102
RTVSPropertyOp56
 70
     1
102
RTVSPropertyOp57
 70
     1
102
RTVSPropertyOp58
 70
     1
102
RTVSPropertyOp59
 70
     1
102
RTVSPropertyOp60
 70
     1
102
RTVSPropertyOp61
 70
     1
102
RTVSPropertyOp62
 70
     1
  0
XRECORD
  5
27C
102
{ACAD_REACTORS
330
27B
102
}
330
27B
100
AcDbXrecord
280
     1
102
RTVSPost2010Prop28
280
     0
102
RTVSPost2010PropOp28
 70
     1
102
RTVSPost2010Prop29
280
     1
102
RTVSPost2010PropOp29
 70
     1
102
RTVSPost2010Prop30
280
     1
102
RTVSPost2010PropOp30
 70
     1
102
RTVSPost2010Prop31
280
     0
102
RTVSPost2010PropOp31
 70
     1
102
RTVSPost2010Prop32
280
     0
102
RTVSPost2010PropOp32
 70
     1
102
RTVSPost2010Prop33
280
     0
102
RTVSPost2010PropOp33
 70
     1
102
RTVSPost2010Prop34
280
     0
102
RTVSPost2010PropOp34
 70
     1
102
RTVSPost2010Prop35
280
     0
102
RTVSPost2010PropOp35
 70
     1
102
RTVSPost2010Prop36
280
     0
102
RTVSPost2010PropOp36
 70
     1
102
RTVSPost2010Prop37
 90
       50
102
RTVSPost2010PropOp37
 70
     1
102
RTVSPost2010Prop38
140
0.0
102
RTVSPost2010PropOp38
 70
     1
102
RTVSPost2010Prop39
140
1.0
102
RTVSPost2010PropOp39
 70
     1
102
RTVSPost2010Prop40
 90
        0
102
RTVSPost2010PropOp40
 70
     1
102
RTVSPost2010Prop41ColorIndex
 90
       18
102
RTVSPost2010Prop41ColorRGB
 90
        0
102
RTVSPost2010PropOp41
 70
     1
102
RTVSPost2010Prop42
 90
       50
102
RTVSPost2010PropOp42
 70
     1
102
RTVSPost2010Prop43
 90
        3
102
RTVSPost2010PropOp43
 70
     1
102
RTVSPost2010Prop44ColorIndex
 90
        5
102
RTVSPost2010Prop44ColorRGB
 90
      255
102
RTVSPost2010PropOp44
 70
     1
102
RTVSPost2010Prop45
280
     0
102
RTVSPost2010PropOp45
 70
     1
102
RTVSPost2010Prop46
 90
       50
102
RTVSPost2010PropOp46
 70
     1
102
RTVSPost2010Prop47
 90
       50
102
RTVSPost2010PropOp47
 70
     1
102
RTVSPost2010Prop48
 90
       50
102
RTVSPost2010PropOp48
 70
     1
102
RTVSPost2010Prop49
280
     0
102
RTVSPost2010PropOp49
 70
     1
102
RTVSPost2010Prop50
 90
       50
102
RTVSPost2010PropOp50
 70
     1
102
RTVSPost2010Prop51ColorIndex
 90
      256
102
RTVSPost2010Prop51ColorRGB
 90
-16777216
102
RTVSPost2010PropOp51
 70
     0
102
RTVSPost2010Prop52
140
1.0
102
RTVSPost2010PropOp52
 70
     0
102
RTVSPost2010Prop53
 90
        2
102
RTVSPost2010PropOp53
 70
     1
102
RTVSPost2010Prop54
  1
strokes_ogs.tif
102
RTVSPost2010PropOp54
 70
     1
102
RTVSPost2010Prop55
280
     0
102
RTVSPost2010PropOp55
 70
     1
102
RTVSPost2010Prop56
140
1.0
102
RTVSPost2010PropOp56
 70
     1
102
RTVSPost2010Prop57
140
1.0
102
RTVSPost2010PropOp57
 70
     1
102
RTVSPropertyOp0
 70
     1
102
RTVSPropertyOp1
 70
     1
102
RTVSPropertyOp2
 70
     1
102
RTVSPropertyOp3
 70
     1
102
RTVSPropertyOp4
 70
     1
102
RTVSPropertyOp5
 70
     1
102
RTVSPropertyOp6
 70
     1
102
RTVSPropertyOp7
 70
     1
102
RTVSPropertyOp8
 70
     1
102
RTVSPropertyOp9
 70
     1
102
RTVSPropertyOp10
 70
     1
102
RTVSPropertyOp11
 70
     1
102
RTVSPropertyOp12
 70
     1
102
RTVSPropertyOp13
 70
     1
102
RTVSPropertyOp14
 70
     1
102
RTVSPropertyOp15
 70
     1
102
RTVSPropertyOp16
 70
     1
102
RTVSPropertyOp17
 70
     1
102
RTVSPropertyOp18
 70
     1
102
RTVSPropertyOp19
 70
     1
102
RTVSPropertyOp20
 70
     1
102
RTVSPropertyOp21
 70
     1
102
RTVSPropertyOp22
 70
     1
102
RTVSPropertyOp23
 70
     1
102
RTVSPropertyOp24
 70
     1
102
RTVSPropertyOp25
 70
     1
102
RTVSPropertyOp26
 70
     1
102
RTVSPropertyOp27
 70
     1
102
RTVSPropertyOp28
 70
     1
102
RTVSPropertyOp29
 70
     1
102
RTVSPropertyOp30
 70
     1
102
RTVSPropertyOp31
 70
     1
102
RTVSPropertyOp32
 70
     1
102
RTVSPropertyOp33
 70
     1
102
RTVSPropertyOp34
 70
     1
102
RTVSPropertyOp35
 70
     1
102
RTVSPropertyOp36
 70
     1
102
RTVSPropertyOp37
 70
     1
102
RTVSPropertyOp38
 70
     1
102
RTVSPropertyOp39
 70
     1
102
RTVSPropertyOp40
 70
     1
102
RTVSPropertyOp41
 70
     1
102
RTVSPropertyOp42
 70
     1
102
RTVSPropertyOp43
 70
     1
102
RTVSPropertyOp44
 70
     1
102
RTVSPropertyOp45
 70
     1
102
RTVSPropertyOp46
 70
     1
102
RTVSPropertyOp47
 70
     1
102
RTVSPropertyOp48
 70
     1
102
RTVSPropertyOp49
 70
     1
102
RTVSPropertyOp50
 70
     1
102
RTVSPropertyOp51
 70
     0
102
RTVSPropertyOp52
 70
     0
102
RTVSPropertyOp53
 70
     1
102
RTVSPropertyOp54
 70
     1
102
RTVSPropertyOp55
 70
     1
102
RTVSPropertyOp56
 70
     1
102
RTVSPropertyOp57
 70
     1
102
RTVSPropertyOp58
 70
     1
102
RTVSPropertyOp59
 70
     1
102
RTVSPropertyOp60
 70
     1
102
RTVSPropertyOp61
 70
     1
102
RTVSPropertyOp62
 70
     1
  0
XRECORD
  5
27E
102
{ACAD_REACTORS
330
27D
102
}
330
27D
100
AcDbXrecord
280
     1
102
RTVSPost2010Prop28
280
     0
102
RTVSPost2010PropOp28
 70
     1
102
RTVSPost2010Prop29
280
     1
102
RTVSPost2010PropOp29
 70
     1
102
RTVSPost2010Prop30
280
     1
102
RTVSPost2010PropOp30
 70
     1
102
RTVSPost2010Prop31
280
     0
102
RTVSPost2010PropOp31
 70
     1
102
RTVSPost2010Prop32
280
     0
102
RTVSPost2010PropOp32
 70
     1
102
RTVSPost2010Prop33
280
     0
102
RTVSPost2010PropOp33
 70
     1
102
RTVSPost2010Prop34
280
     0
102
RTVSPost2010PropOp34
 70
     1
102
RTVSPost2010Prop35
280
     0
102
RTVSPost2010PropOp35
 70
     1
102
RTVSPost2010Prop36
280
     0
102
RTVSPost2010PropOp36
 70
     1
102
RTVSPost2010Prop37
 90
       50
102
RTVSPost2010PropOp37
 70
     1
102
RTVSPost2010Prop38
140
0.0
102
RTVSPost2010PropOp38
 70
     1
102
RTVSPost2010Prop39
140
1.0
102
RTVSPost2010PropOp39
 70
     1
102
RTVSPost2010Prop40
 90
        0
102
RTVSPost2010PropOp40
 70
     1
102
RTVSPost2010Prop41ColorIndex
 90
       18
102
RTVSPost2010Prop41ColorRGB
 90
        0
102
RTVSPost2010PropOp41
 70
     1
102
RTVSPost2010Prop42
 90
       50
102
RTVSPost2010PropOp42
 70
     1
102
RTVSPost2010Prop43
 90
        3
102
RTVSPost2010PropOp43
 70
     1
102
RTVSPost2010Prop44ColorIndex
 90
        5
102
RTVSPost2010Prop44ColorRGB
 90
      255
102
RTVSPost2010PropOp44
 70
     1
102
RTVSPost2010Prop45
280
     0
102
RTVSPost2010PropOp45
 70
     1
102
RTVSPost2010Prop46
 90
       50
102
RTVSPost2010PropOp46
 70
     1
102
RTVSPost2010Prop47
 90
       50
102
RTVSPost2010PropOp47
 70
     1
102
RTVSPost2010Prop48
 90
       50
102
RTVSPost2010PropOp48
 70
     1
102
RTVSPost2010Prop49
280
     0
102
RTVSPost2010PropOp49
 70
     1
102
RTVSPost2010Prop50
 90
       50
102
RTVSPost2010PropOp50
 70
     1
102
RTVSPost2010Prop51ColorIndex
 90
      256
102
RTVSPost2010Prop51ColorRGB
 90
-16777216
102
RTVSPost2010PropOp51
 70
     0
102
RTVSPost2010Prop52
140
1.0
102
RTVSPost2010PropOp52
 70
     0
102
RTVSPost2010Prop53
 90
        2
102
RTVSPost2010PropOp53
 70
     1
102
RTVSPost2010Prop54
  1
strokes_ogs.tif
102
RTVSPost2010PropOp54
 70
     1
102
RTVSPost2010Prop55
280
     0
102
RTVSPost2010PropOp55
 70
     1
102
RTVSPost2010Prop56
140
1.0
102
RTVSPost2010PropOp56
 70
     1
102
RTVSPost2010Prop57
140
1.0
102
RTVSPost2010PropOp57
 70
     1
102
RTVSPropertyOp0
 70
     1
102
RTVSPropertyOp1
 70
     1
102
RTVSPropertyOp2
 70
     1
102
RTVSPropertyOp3
 70
     1
102
RTVSPropertyOp4
 70
     1
102
RTVSPropertyOp5
 70
     1
102
RTVSPropertyOp6
 70
     1
102
RTVSPropertyOp7
 70
     1
102
RTVSPropertyOp8
 70
     1
102
RTVSPropertyOp9
 70
     1
102
RTVSPropertyOp10
 70
     1
102
RTVSPropertyOp11
 70
     1
102
RTVSPropertyOp12
 70
     1
102
RTVSPropertyOp13
 70
     1
102
RTVSPropertyOp14
 70
     1
102
RTVSPropertyOp15
 70
     1
102
RTVSPropertyOp16
 70
     1
102
RTVSPropertyOp17
 70
     1
102
RTVSPropertyOp18
 70
     1
102
RTVSPropertyOp19
 70
     1
102
RTVSPropertyOp20
 70
     1
102
RTVSPropertyOp21
 70
     1
102
RTVSPropertyOp22
 70
     1
102
RTVSPropertyOp23
 70
     1
102
RTVSPropertyOp24
 70
     1
102
RTVSPropertyOp25
 70
     1
102
RTVSPropertyOp26
 70
     1
102
RTVSPropertyOp27
 70
     1
102
RTVSPropertyOp28
 70
     1
102
RTVSPropertyOp29
 70
     1
102
RTVSPropertyOp30
 70
     1
102
RTVSPropertyOp31
 70
     1
102
RTVSPropertyOp32
 70
     1
102
RTVSPropertyOp33
 70
     1
102
RTVSPropertyOp34
 70
     1
102
RTVSPropertyOp35
 70
     1
102
RTVSPropertyOp36
 70
     1
102
RTVSPropertyOp37
 70
     1
102
RTVSPropertyOp38
 70
     1
102
RTVSPropertyOp39
 70
     1
102
RTVSPropertyOp40
 70
     1
102
RTVSPropertyOp41
 70
     1
102
RTVSPropertyOp42
 70
     1
102
RTVSPropertyOp43
 70
     1
102
RTVSPropertyOp44
 70
     1
102
RTVSPropertyOp45
 70
     1
102
RTVSPropertyOp46
 70
     1
102
RTVSPropertyOp47
 70
     1
102
RTVSPropertyOp48
 70
     1
102
RTVSPropertyOp49
 70
     1
102
RTVSPropertyOp50
 70
     1
102
RTVSPropertyOp51
 70
     0
102
RTVSPropertyOp52
 70
     0
102
RTVSPropertyOp53
 70
     1
102
RTVSPropertyOp54
 70
     1
102
RTVSPropertyOp55
 70
     1
102
RTVSPropertyOp56
 70
     1
102
RTVSPropertyOp57
 70
     1
102
RTVSPropertyOp58
 70
     1
102
RTVSPropertyOp59
 70
     1
102
RTVSPropertyOp60
 70
     1
102
RTVSPropertyOp61
 70
     1
102
RTVSPropertyOp62
 70
     1
  0
XRECORD
  5
284
102
{ACAD_REACTORS
330
283
102
}
330
283
100
AcDbXrecord
280
     1
102
RTVSPost2010Prop28
280
     0
102
RTVSPost2010PropOp28
 70
     1
102
RTVSPost2010Prop29
280
     1
102
RTVSPost2010PropOp29
 70
     1
102
RTVSPost2010Prop30
280
     1
102
RTVSPost2010PropOp30
 70
     1
102
RTVSPost2010Prop31
280
     0
102
RTVSPost2010PropOp31
 70
     1
102
RTVSPost2010Prop32
280
     0
102
RTVSPost2010PropOp32
 70
     1
102
RTVSPost2010Prop33
280
     0
102
RTVSPost2010PropOp33
 70
     1
102
RTVSPost2010Prop34
280
     0
102
RTVSPost2010PropOp34
 70
     1
102
RTVSPost2010Prop35
280
     0
102
RTVSPost2010PropOp35
 70
     1
102
RTVSPost2010Prop36
280
     0
102
RTVSPost2010PropOp36
 70
     1
102
RTVSPost2010Prop37
 90
       50
102
RTVSPost2010PropOp37
 70
     1
102
RTVSPost2010Prop38
140
0.0
102
RTVSPost2010PropOp38
 70
     1
102
RTVSPost2010Prop39
140
1.0
102
RTVSPost2010PropOp39
 70
     1
102
RTVSPost2010Prop40
 90
        0
102
RTVSPost2010PropOp40
 70
     1
102
RTVSPost2010Prop41ColorIndex
 90
       18
102
RTVSPost2010Prop41ColorRGB
 90
        0
102
RTVSPost2010PropOp41
 70
     1
102
RTVSPost2010Prop42
 90
       50
102
RTVSPost2010PropOp42
 70
     1
102
RTVSPost2010Prop43
 90
        3
102
RTVSPost2010PropOp43
 70
     1
102
RTVSPost2010Prop44ColorIndex
 90
        5
102
RTVSPost2010Prop44ColorRGB
 90
      255
102
RTVSPost2010PropOp44
 70
     1
102
RTVSPost2010Prop45
280
     0
102
RTVSPost2010PropOp45
 70
     1
102
RTVSPost2010Prop46
 90
       50
102
RTVSPost2010PropOp46
 70
     1
102
RTVSPost2010Prop47
 90
       50
102
RTVSPost2010PropOp47
 70
     1
102
RTVSPost2010Prop48
 90
       50
102
RTVSPost2010PropOp48
 70
     1
102
RTVSPost2010Prop49
280
     0
102
RTVSPost2010PropOp49
 70
     1
102
RTVSPost2010Prop50
 90
       50
102
RTVSPost2010PropOp50
 70
     1
102
RTVSPost2010Prop51ColorIndex
 90
      256
102
RTVSPost2010Prop51ColorRGB
 90
-16777216
102
RTVSPost2010PropOp51
 70
     0
102
RTVSPost2010Prop52
140
1.0
102
RTVSPost2010PropOp52
 70
     0
102
RTVSPost2010Prop53
 90
        2
102
RTVSPost2010PropOp53
 70
     1
102
RTVSPost2010Prop54
  1
strokes_ogs.tif
102
RTVSPost2010PropOp54
 70
     1
102
RTVSPost2010Prop55
280
     0
102
RTVSPost2010PropOp55
 70
     1
102
RTVSPost2010Prop56
140
1.0
102
RTVSPost2010PropOp56
 70
     1
102
RTVSPost2010Prop57
140
1.0
102
RTVSPost2010PropOp57
 70
     1
102
RTVSPropertyOp0
 70
     1
102
RTVSPropertyOp1
 70
     1
102
RTVSPropertyOp2
 70
     1
102
RTVSPropertyOp3
 70
     1
102
RTVSPropertyOp4
 70
     1
102
RTVSPropertyOp5
 70
     1
102
RTVSPropertyOp6
 70
     1
102
RTVSPropertyOp7
 70
     1
102
RTVSPropertyOp8
 70
     1
102
RTVSPropertyOp9
 70
     1
102
RTVSPropertyOp10
 70
     1
102
RTVSPropertyOp11
 70
     1
102
RTVSPropertyOp12
 70
     1
102
RTVSPropertyOp13
 70
     1
102
RTVSPropertyOp14
 70
     1
102
RTVSPropertyOp15
 70
     1
102
RTVSPropertyOp16
 70
     1
102
RTVSPropertyOp17
 70
     1
102
RTVSPropertyOp18
 70
     1
102
RTVSPropertyOp19
 70
     1
102
RTVSPropertyOp20
 70
     1
102
RTVSPropertyOp21
 70
     1
102
RTVSPropertyOp22
 70
     1
102
RTVSPropertyOp23
 70
     1
102
RTVSPropertyOp24
 70
     1
102
RTVSPropertyOp25
 70
     1
102
RTVSPropertyOp26
 70
     1
102
RTVSPropertyOp27
 70
     1
102
RTVSPropertyOp28
 70
     1
102
RTVSPropertyOp29
 70
     1
102
RTVSPropertyOp30
 70
     1
102
RTVSPropertyOp31
 70
     1
102
RTVSPropertyOp32
 70
     1
102
RTVSPropertyOp33
 70
     1
102
RTVSPropertyOp34
 70
     1
102
RTVSPropertyOp35
 70
     1
102
RTVSPropertyOp36
 70
     1
102
RTVSPropertyOp37
 70
     1
102
RTVSPropertyOp38
 70
     1
102
RTVSPropertyOp39
 70
     1
102
RTVSPropertyOp40
 70
     1
102
RTVSPropertyOp41
 70
     1
102
RTVSPropertyOp42
 70
     1
102
RTVSPropertyOp43
 70
     1
102
RTVSPropertyOp44
 70
     1
102
RTVSPropertyOp45
 70
     1
102
RTVSPropertyOp46
 70
     1
102
RTVSPropertyOp47
 70
     1
102
RTVSPropertyOp48
 70
     1
102
RTVSPropertyOp49
 70
     1
102
RTVSPropertyOp50
 70
     1
102
RTVSPropertyOp51
 70
     0
102
RTVSPropertyOp52
 70
     0
102
RTVSPropertyOp53
 70
     1
102
RTVSPropertyOp54
 70
     1
102
RTVSPropertyOp55
 70
     1
102
RTVSPropertyOp56
 70
     1
102
RTVSPropertyOp57
 70
     1
102
RTVSPropertyOp58
 70
     1
102
RTVSPropertyOp59
 70
     1
102
RTVSPropertyOp60
 70
     1
102
RTVSPropertyOp61
 70
     1
102
RTVSPropertyOp62
 70
     1
  0
XRECORD
  5
298
102
{ACAD_REACTORS
330
297
102
}
330
297
100
AcDbXrecord
280
     1
102
RTVSPost2010Prop28
280
     0
102
RTVSPost2010PropOp28
 70
     0
102
RTVSPost2010Prop29
280
     1
102
RTVSPost2010PropOp29
 70
     0
102
RTVSPost2010Prop30
280
     1
102
RTVSPost2010PropOp30
 70
     0
102
RTVSPost2010Prop31
280
     0
102
RTVSPost2010PropOp31
 70
     0
102
RTVSPost2010Prop32
280
     0
102
RTVSPost2010PropOp32
 70
     0
102
RTVSPost2010Prop33
280
     0
102
RTVSPost2010PropOp33
 70
     0
102
RTVSPost2010Prop34
280
     0
102
RTVSPost2010PropOp34
 70
     0
102
RTVSPost2010Prop35
280
     0
102
RTVSPost2010PropOp35
 70
     0
102
RTVSPost2010Prop36
280
     0
102
RTVSPost2010PropOp36
 70
     0
102
RTVSPost2010Prop37
 90
       50
102
RTVSPost2010PropOp37
 70
     0
102
RTVSPost2010Prop38
140
0.0
102
RTVSPost2010PropOp38
 70
     0
102
RTVSPost2010Prop39
140
1.0
102
RTVSPost2010PropOp39
 70
     0
102
RTVSPost2010Prop40
 90
        0
102
RTVSPost2010PropOp40
 70
     0
102
RTVSPost2010Prop41ColorIndex
 90
       18
102
RTVSPost2010Prop41ColorRGB
 90
        0
102
RTVSPost2010PropOp41
 70
     0
102
RTVSPost2010Prop42
 90
       50
102
RTVSPost2010PropOp42
 70
     0
102
RTVSPost2010Prop43
 90
        3
102
RTVSPost2010PropOp43
 70
     0
102
RTVSPost2010Prop44ColorIndex
 90
        5
102
RTVSPost2010Prop44ColorRGB
 90
      255
102
RTVSPost2010PropOp44
 70
     0
102
RTVSPost2010Prop45
280
     0
102
RTVSPost2010PropOp45
 70
     0
102
RTVSPost2010Prop46
 90
       50
102
RTVSPost2010PropOp46
 70
     0
102
RTVSPost2010Prop47
 90
       50
102
RTVSPost2010PropOp47
 70
     0
102
RTVSPost2010Prop48
 90
       50
102
RTVSPost2010PropOp48
 70
     0
102
RTVSPost2010Prop49
280
     0
102
RTVSPost2010PropOp49
 70
     0
102
RTVSPost2010Prop50
 90
       50
102
RTVSPost2010PropOp50
 70
     0
102
RTVSPost2010Prop51ColorIndex
 90
      256
102
RTVSPost2010Prop51ColorRGB
 90
-16777216
102
RTVSPost2010PropOp51
 70
     0
102
RTVSPost2010Prop52
140
1.0
102
RTVSPost2010PropOp52
 70
     0
102
RTVSPost2010Prop53
 90
        2
102
RTVSPost2010PropOp53
 70
     0
102
RTVSPost2010Prop54
  1
strokes_ogs.tif
102
RTVSPost2010PropOp54
 70
     0
102
RTVSPost2010Prop55
280
     0
102
RTVSPost2010PropOp55
 70
     0
102
RTVSPost2010Prop56
140
1.0
102
RTVSPost2010PropOp56
 70
     0
102
RTVSPost2010Prop57
140
1.0
102
RTVSPost2010PropOp57
 70
     0
102
RTVSPropertyOp0
 70
     0
102
RTVSPropertyOp1
 70
     0
102
RTVSPropertyOp2
 70
     0
102
RTVSPropertyOp3
 70
     0
102
RTVSPropertyOp4
 70
     0
102
RTVSPropertyOp5
 70
     0
102
RTVSPropertyOp6
 70
     0
102
RTVSPropertyOp7
 70
     0
102
RTVSPropertyOp8
 70
     0
102
RTVSPropertyOp9
 70
     0
102
RTVSPropertyOp10
 70
     0
102
RTVSPropertyOp11
 70
     0
102
RTVSPropertyOp12
 70
     0
102
RTVSPropertyOp13
 70
     0
102
RTVSPropertyOp14
 70
     2
102
RTVSPropertyOp15
 70
     0
102
RTVSPropertyOp16
 70
     0
102
RTVSPropertyOp17
 70
     0
102
RTVSPropertyOp18
 70
     0
102
RTVSPropertyOp19
 70
     0
102
RTVSPropertyOp20
 70
     0
102
RTVSPropertyOp21
 70
     0
102
RTVSPropertyOp22
 70
     0
102
RTVSPropertyOp23
 70
     0
102
RTVSPropertyOp24
 70
     0
102
RTVSPropertyOp25
 70
     0
102
RTVSPropertyOp26
 70
     0
102
RTVSPropertyOp27
 70
     0
102
RTVSPropertyOp28
 70
     0
102
RTVSPropertyOp29
 70
     0
102
RTVSPropertyOp30
 70
     0
102
RTVSPropertyOp31
 70
     0
102
RTVSPropertyOp32
 70
     0
102
RTVSPropertyOp33
 70
     0
102
RTVSPropertyOp34
 70
     0
102
RTVSPropertyOp35
 70
     0
102
RTVSPropertyOp36
 70
     0
102
RTVSPropertyOp37
 70
     0
102
RTVSPropertyOp38
 70
     0
102
RTVSPropertyOp39
 70
     0
102
RTVSPropertyOp40
 70
     0
102
RTVSPropertyOp41
 70
     0
102
RTVSPropertyOp42
 70
     0
102
RTVSPropertyOp43
 70
     0
102
RTVSPropertyOp44
 70
     0
102
RTVSPropertyOp45
 70
     0
102
RTVSPropertyOp46
 70
     0
102
RTVSPropertyOp47
 70
     0
102
RTVSPropertyOp48
 70
     0
102
RTVSPropertyOp49
 70
     0
102
RTVSPropertyOp50
 70
     0
102
RTVSPropertyOp51
 70
     0
102
RTVSPropertyOp52
 70
     0
102
RTVSPropertyOp53
 70
     0
102
RTVSPropertyOp54
 70
     0
102
RTVSPropertyOp55
 70
     0
102
RTVSPropertyOp56
 70
     0
102
RTVSPropertyOp57
 70
     0
102
RTVSPropertyOp58
 70
     1
102
RTVSPropertyOp59
 70
     1
102
RTVSPropertyOp60
 70
     1
102
RTVSPropertyOp61
 70
     1
102
RTVSPropertyOp62
 70
     1
  0
XRECORD
  5
292
102
{ACAD_REACTORS
330
291
102
}
330
291
100
AcDbXrecord
280
     1
102
RTVSPost2010Prop28
280
     0
102
RTVSPost2010PropOp28
 70
     1
102
RTVSPost2010Prop29
280
     1
102
RTVSPost2010PropOp29
 70
     1
102
RTVSPost2010Prop30
280
     1
102
RTVSPost2010PropOp30
 70
     1
102
RTVSPost2010Prop31
280
     0
102
RTVSPost2010PropOp31
 70
     1
102
RTVSPost2010Prop32
280
     0
102
RTVSPost2010PropOp32
 70
     1
102
RTVSPost2010Prop33
280
     0
102
RTVSPost2010PropOp33
 70
     1
102
RTVSPost2010Prop34
280
     0
102
RTVSPost2010PropOp34
 70
     1
102
RTVSPost2010Prop35
280
     0
102
RTVSPost2010PropOp35
 70
     1
102
RTVSPost2010Prop36
280
     0
102
RTVSPost2010PropOp36
 70
     1
102
RTVSPost2010Prop37
 90
       50
102
RTVSPost2010PropOp37
 70
     1
102
RTVSPost2010Prop38
140
0.0
102
RTVSPost2010PropOp38
 70
     1
102
RTVSPost2010Prop39
140
1.0
102
RTVSPost2010PropOp39
 70
     1
102
RTVSPost2010Prop40
 90
        0
102
RTVSPost2010PropOp40
 70
     1
102
RTVSPost2010Prop41ColorIndex
 90
       18
102
RTVSPost2010Prop41ColorRGB
 90
        0
102
RTVSPost2010PropOp41
 70
     1
102
RTVSPost2010Prop42
 90
       50
102
RTVSPost2010PropOp42
 70
     1
102
RTVSPost2010Prop43
 90
        3
102
RTVSPost2010PropOp43
 70
     1
102
RTVSPost2010Prop44ColorIndex
 90
        5
102
RTVSPost2010Prop44ColorRGB
 90
      255
102
RTVSPost2010PropOp44
 70
     1
102
RTVSPost2010Prop45
280
     0
102
RTVSPost2010PropOp45
 70
     1
102
RTVSPost2010Prop46
 90
       50
102
RTVSPost2010PropOp46
 70
     1
102
RTVSPost2010Prop47
 90
       50
102
RTVSPost2010PropOp47
 70
     1
102
RTVSPost2010Prop48
 90
       50
102
RTVSPost2010PropOp48
 70
     1
102
RTVSPost2010Prop49
280
     0
102
RTVSPost2010PropOp49
 70
     1
102
RTVSPost2010Prop50
 90
       50
102
RTVSPost2010PropOp50
 70
     1
102
RTVSPost2010Prop51ColorIndex
 90
      256
102
RTVSPost2010Prop51ColorRGB
 90
-16777216
102
RTVSPost2010PropOp51
 70
     0
102
RTVSPost2010Prop52
140
1.0
102
RTVSPost2010PropOp52
 70
     0
102
RTVSPost2010Prop53
 90
        2
102
RTVSPost2010PropOp53
 70
     1
102
RTVSPost2010Prop54
  1
strokes_ogs.tif
102
RTVSPost2010PropOp54
 70
     1
102
RTVSPost2010Prop55
280
     0
102
RTVSPost2010PropOp55
 70
     1
102
RTVSPost2010Prop56
140
1.0
102
RTVSPost2010PropOp56
 70
     1
102
RTVSPost2010Prop57
140
1.0
102
RTVSPost2010PropOp57
 70
     1
102
RTVSPropertyOp0
 70
     1
102
RTVSPropertyOp1
 70
     1
102
RTVSPropertyOp2
 70
     1
102
RTVSPropertyOp3
 70
     1
102
RTVSPropertyOp4
 70
     1
102
RTVSPropertyOp5
 70
     1
102
RTVSPropertyOp6
 70
     1
102
RTVSPropertyOp7
 70
     1
102
RTVSPropertyOp8
 70
     1
102
RTVSPropertyOp9
 70
     1
102
RTVSPropertyOp10
 70
     1
102
RTVSPropertyOp11
 70
     1
102
RTVSPropertyOp12
 70
     1
102
RTVSPropertyOp13
 70
     1
102
RTVSPropertyOp14
 70
     1
102
RTVSPropertyOp15
 70
     1
102
RTVSPropertyOp16
 70
     1
102
RTVSPropertyOp17
 70
     1
102
RTVSPropertyOp18
 70
     1
102
RTVSPropertyOp19
 70
     1
102
RTVSPropertyOp20
 70
     1
102
RTVSPropertyOp21
 70
     1
102
RTVSPropertyOp22
 70
     1
102
RTVSPropertyOp23
 70
     1
102
RTVSPropertyOp24
 70
     1
102
RTVSPropertyOp25
 70
     1
102
RTVSPropertyOp26
 70
     1
102
RTVSPropertyOp27
 70
     1
102
RTVSPropertyOp28
 70
     1
102
RTVSPropertyOp29
 70
     1
102
RTVSPropertyOp30
 70
     1
102
RTVSPropertyOp31
 70
     1
102
RTVSPropertyOp32
 70
     1
102
RTVSPropertyOp33
 70
     1
102
RTVSPropertyOp34
 70
     1
102
RTVSPropertyOp35
 70
     1
102
RTVSPropertyOp36
 70
     1
102
RTVSPropertyOp37
 70
     1
102
RTVSPropertyOp38
 70
     1
102
RTVSPropertyOp39
 70
     1
102
RTVSPropertyOp40
 70
     1
102
RTVSPropertyOp41
 70
     1
102
RTVSPropertyOp42
 70
     1
102
RTVSPropertyOp43
 70
     1
102
RTVSPropertyOp44
 70
     1
102
RTVSPropertyOp45
 70
     1
102
RTVSPropertyOp46
 70
     1
102
RTVSPropertyOp47
 70
     1
102
RTVSPropertyOp48
 70
     1
102
RTVSPropertyOp49
 70
     1
102
RTVSPropertyOp50
 70
     1
102
RTVSPropertyOp51
 70
     0
102
RTVSPropertyOp52
 70
     0
102
RTVSPropertyOp53
 70
     1
102
RTVSPropertyOp54
 70
     1
102
RTVSPropertyOp55
 70
     1
102
RTVSPropertyOp56
 70
     1
102
RTVSPropertyOp57
 70
     1
102
RTVSPropertyOp58
 70
     1
102
RTVSPropertyOp59
 70
     1
102
RTVSPropertyOp60
 70
     1
102
RTVSPropertyOp61
 70
     1
102
RTVSPropertyOp62
 70
     1
  0
XRECORD
  5
29A
102
{ACAD_REACTORS
330
299
102
}
330
299
100
AcDbXrecord
280
     1
102
RTVSPost2010Prop28
280
     0
102
RTVSPost2010PropOp28
 70
     0
102
RTVSPost2010Prop29
280
     1
102
RTVSPost2010PropOp29
 70
     0
102
RTVSPost2010Prop30
280
     1
102
RTVSPost2010PropOp30
 70
     0
102
RTVSPost2010Prop31
280
     0
102
RTVSPost2010PropOp31
 70
     0
102
RTVSPost2010Prop32
280
     0
102
RTVSPost2010PropOp32
 70
     0
102
RTVSPost2010Prop33
280
     0
102
RTVSPost2010PropOp33
 70
     0
102
RTVSPost2010Prop34
280
     0
102
RTVSPost2010PropOp34
 70
     0
102
RTVSPost2010Prop35
280
     0
102
RTVSPost2010PropOp35
 70
     0
102
RTVSPost2010Prop36
280
     0
102
RTVSPost2010PropOp36
 70
     0
102
RTVSPost2010Prop37
 90
       50
102
RTVSPost2010PropOp37
 70
     0
102
RTVSPost2010Prop38
140
0.0
102
RTVSPost2010PropOp38
 70
     0
102
RTVSPost2010Prop39
140
1.0
102
RTVSPost2010PropOp39
 70
     0
102
RTVSPost2010Prop40
 90
        0
102
RTVSPost2010PropOp40
 70
     0
102
RTVSPost2010Prop41ColorIndex
 90
       18
102
RTVSPost2010Prop41ColorRGB
 90
        0
102
RTVSPost2010PropOp41
 70
     0
102
RTVSPost2010Prop42
 90
       50
102
RTVSPost2010PropOp42
 70
     0
102
RTVSPost2010Prop43
 90
        3
102
RTVSPost2010PropOp43
 70
     0
102
RTVSPost2010Prop44ColorIndex
 90
        5
102
RTVSPost2010Prop44ColorRGB
 90
      255
102
RTVSPost2010PropOp44
 70
     0
102
RTVSPost2010Prop45
280
     0
102
RTVSPost2010PropOp45
 70
     0
102
RTVSPost2010Prop46
 90
       50
102
RTVSPost2010PropOp46
 70
     0
102
RTVSPost2010Prop47
 90
       50
102
RTVSPost2010PropOp47
 70
     0
102
RTVSPost2010Prop48
 90
       50
102
RTVSPost2010PropOp48
 70
     0
102
RTVSPost2010Prop49
280
     0
102
RTVSPost2010PropOp49
 70
     0
102
RTVSPost2010Prop50
 90
       50
102
RTVSPost2010PropOp50
 70
     0
102
RTVSPost2010Prop51ColorIndex
 90
      256
102
RTVSPost2010Prop51ColorRGB
 90
-16777216
102
RTVSPost2010PropOp51
 70
     0
102
RTVSPost2010Prop52
140
1.0
102
RTVSPost2010PropOp52
 70
     0
102
RTVSPost2010Prop53
 90
        2
102
RTVSPost2010PropOp53
 70
     0
102
RTVSPost2010Prop54
  1
strokes_ogs.tif
102
RTVSPost2010PropOp54
 70
     0
102
RTVSPost2010Prop55
280
     0
102
RTVSPost2010PropOp55
 70
     0
102
RTVSPost2010Prop56
140
1.0
102
RTVSPost2010PropOp56
 70
     0
102
RTVSPost2010Prop57
140
1.0
102
RTVSPost2010PropOp57
 70
     0
102
RTVSPropertyOp0
 70
     0
102
RTVSPropertyOp1
 70
     0
102
RTVSPropertyOp2
 70
     0
102
RTVSPropertyOp3
 70
     0
102
RTVSPropertyOp4
 70
     0
102
RTVSPropertyOp5
 70
     0
102
RTVSPropertyOp6
 70
     0
102
RTVSPropertyOp7
 70
     0
102
RTVSPropertyOp8
 70
     0
102
RTVSPropertyOp9
 70
     0
102
RTVSPropertyOp10
 70
     0
102
RTVSPropertyOp11
 70
     0
102
RTVSPropertyOp12
 70
     0
102
RTVSPropertyOp13
 70
     0
102
RTVSPropertyOp14
 70
     2
102
RTVSPropertyOp15
 70
     0
102
RTVSPropertyOp16
 70
     0
102
RTVSPropertyOp17
 70
     0
102
RTVSPropertyOp18
 70
     0
102
RTVSPropertyOp19
 70
     0
102
RTVSPropertyOp20
 70
     0
102
RTVSPropertyOp21
 70
     0
102
RTVSPropertyOp22
 70
     0
102
RTVSPropertyOp23
 70
     0
102
RTVSPropertyOp24
 70
     0
102
RTVSPropertyOp25
 70
     0
102
RTVSPropertyOp26
 70
     0
102
RTVSPropertyOp27
 70
     0
102
RTVSPropertyOp28
 70
     0
102
RTVSPropertyOp29
 70
     0
102
RTVSPropertyOp30
 70
     0
102
RTVSPropertyOp31
 70
     0
102
RTVSPropertyOp32
 70
     0
102
RTVSPropertyOp33
 70
     0
102
RTVSPropertyOp34
 70
     0
102
RTVSPropertyOp35
 70
     0
102
RTVSPropertyOp36
 70
     0
102
RTVSPropertyOp37
 70
     0
102
RTVSPropertyOp38
 70
     0
102
RTVSPropertyOp39
 70
     0
102
RTVSPropertyOp40
 70
     0
102
RTVSPropertyOp41
 70
     0
102
RTVSPropertyOp42
 70
     0
102
RTVSPropertyOp43
 70
     0
102
RTVSPropertyOp44
 70
     0
102
RTVSPropertyOp45
 70
     0
102
RTVSPropertyOp46
 70
     0
102
RTVSPropertyOp47
 70
     0
102
RTVSPropertyOp48
 70
     0
102
RTVSPropertyOp49
 70
     0
102
RTVSPropertyOp50
 70
     0
102
RTVSPropertyOp51
 70
     0
102
RTVSPropertyOp52
 70
     0
102
RTVSPropertyOp53
 70
     0
102
RTVSPropertyOp54
 70
     0
102
RTVSPropertyOp55
 70
     0
102
RTVSPropertyOp56
 70
     0
102
RTVSPropertyOp57
 70
     0
102
RTVSPropertyOp58
 70
     1
102
RTVSPropertyOp59
 70
     1
102
RTVSPropertyOp60
 70
     1
102
RTVSPropertyOp61
 70
     1
102
RTVSPropertyOp62
 70
     1
  0
XRECORD
  5
288
102
{ACAD_REACTORS
330
287
102
}
330
287
100
AcDbXrecord
280
     1
102
RTVSPost2010Prop28
280
     0
102
RTVSPost2010PropOp28
 70
     1
102
RTVSPost2010Prop29
280
     1
102
RTVSPost2010PropOp29
 70
     1
102
RTVSPost2010Prop30
280
     1
102
RTVSPost2010PropOp30
 70
     1
102
RTVSPost2010Prop31
280
     0
102
RTVSPost2010PropOp31
 70
     1
102
RTVSPost2010Prop32
280
     0
102
RTVSPost2010PropOp32
 70
     1
102
RTVSPost2010Prop33
280
     0
102
RTVSPost2010PropOp33
 70
     1
102
RTVSPost2010Prop34
280
     0
102
RTVSPost2010PropOp34
 70
     1
102
RTVSPost2010Prop35
280
     0
102
RTVSPost2010PropOp35
 70
     1
102
RTVSPost2010Prop36
280
     0
102
RTVSPost2010PropOp36
 70
     1
102
RTVSPost2010Prop37
 90
       50
102
RTVSPost2010PropOp37
 70
     1
102
RTVSPost2010Prop38
140
0.0
102
RTVSPost2010PropOp38
 70
     1
102
RTVSPost2010Prop39
140
1.0
102
RTVSPost2010PropOp39
 70
     1
102
RTVSPost2010Prop40
 90
        0
102
RTVSPost2010PropOp40
 70
     1
102
RTVSPost2010Prop41ColorIndex
 90
       18
102
RTVSPost2010Prop41ColorRGB
 90
        0
102
RTVSPost2010PropOp41
 70
     1
102
RTVSPost2010Prop42
 90
       50
102
RTVSPost2010PropOp42
 70
     1
102
RTVSPost2010Prop43
 90
        3
102
RTVSPost2010PropOp43
 70
     1
102
RTVSPost2010Prop44ColorIndex
 90
        5
102
RTVSPost2010Prop44ColorRGB
 90
      255
102
RTVSPost2010PropOp44
 70
     1
102
RTVSPost2010Prop45
280
     0
102
RTVSPost2010PropOp45
 70
     1
102
RTVSPost2010Prop46
 90
       50
102
RTVSPost2010PropOp46
 70
     1
102
RTVSPost2010Prop47
 90
       50
102
RTVSPost2010PropOp47
 70
     1
102
RTVSPost2010Prop48
 90
       50
102
RTVSPost2010PropOp48
 70
     1
102
RTVSPost2010Prop49
280
     0
102
RTVSPost2010PropOp49
 70
     1
102
RTVSPost2010Prop50
 90
       50
102
RTVSPost2010PropOp50
 70
     1
102
RTVSPost2010Prop51ColorIndex
 90
      256
102
RTVSPost2010Prop51ColorRGB
 90
-16777216
102
RTVSPost2010PropOp51
 70
     0
102
RTVSPost2010Prop52
140
1.0
102
RTVSPost2010PropOp52
 70
     0
102
RTVSPost2010Prop53
 90
        2
102
RTVSPost2010PropOp53
 70
     1
102
RTVSPost2010Prop54
  1
strokes_ogs.tif
102
RTVSPost2010PropOp54
 70
     1
102
RTVSPost2010Prop55
280
     0
102
RTVSPost2010PropOp55
 70
     1
102
RTVSPost2010Prop56
140
1.0
102
RTVSPost2010PropOp56
 70
     1
102
RTVSPost2010Prop57
140
1.0
102
RTVSPost2010PropOp57
 70
     1
102
RTVSPropertyOp0
 70
     1
102
RTVSPropertyOp1
 70
     1
102
RTVSPropertyOp2
 70
     1
102
RTVSPropertyOp3
 70
     1
102
RTVSPropertyOp4
 70
     1
102
RTVSPropertyOp5
 70
     1
102
RTVSPropertyOp6
 70
     1
102
RTVSPropertyOp7
 70
     1
102
RTVSPropertyOp8
 70
     1
102
RTVSPropertyOp9
 70
     1
102
RTVSPropertyOp10
 70
     1
102
RTVSPropertyOp11
 70
     1
102
RTVSPropertyOp12
 70
     1
102
RTVSPropertyOp13
 70
     1
102
RTVSPropertyOp14
 70
     1
102
RTVSPropertyOp15
 70
     1
102
RTVSPropertyOp16
 70
     1
102
RTVSPropertyOp17
 70
     1
102
RTVSPropertyOp18
 70
     1
102
RTVSPropertyOp19
 70
     1
102
RTVSPropertyOp20
 70
     1
102
RTVSPropertyOp21
 70
     1
102
RTVSPropertyOp22
 70
     1
102
RTVSPropertyOp23
 70
     1
102
RTVSPropertyOp24
 70
     1
102
RTVSPropertyOp25
 70
     1
102
RTVSPropertyOp26
 70
     1
102
RTVSPropertyOp27
 70
     1
102
RTVSPropertyOp28
 70
     1
102
RTVSPropertyOp29
 70
     1
102
RTVSPropertyOp30
 70
     1
102
RTVSPropertyOp31
 70
     1
102
RTVSPropertyOp32
 70
     1
102
RTVSPropertyOp33
 70
     1
102
RTVSPropertyOp34
 70
     1
102
RTVSPropertyOp35
 70
     1
102
RTVSPropertyOp36
 70
     1
102
RTVSPropertyOp37
 70
     1
102
RTVSPropertyOp38
 70
     1
102
RTVSPropertyOp39
 70
     1
102
RTVSPropertyOp40
 70
     1
102
RTVSPropertyOp41
 70
     1
102
RTVSPropertyOp42
 70
     1
102
RTVSPropertyOp43
 70
     1
102
RTVSPropertyOp44
 70
     1
102
RTVSPropertyOp45
 70
     1
102
RTVSPropertyOp46
 70
     1
102
RTVSPropertyOp47
 70
     1
102
RTVSPropertyOp48
 70
     1
102
RTVSPropertyOp49
 70
     1
102
RTVSPropertyOp50
 70
     1
102
RTVSPropertyOp51
 70
     0
102
RTVSPropertyOp52
 70
     0
102
RTVSPropertyOp53
 70
     1
102
RTVSPropertyOp54
 70
     1
102
RTVSPropertyOp55
 70
     1
102
RTVSPropertyOp56
 70
     1
102
RTVSPropertyOp57
 70
     1
102
RTVSPropertyOp58
 70
     1
102
RTVSPropertyOp59
 70
     1
102
RTVSPropertyOp60
 70
     1
102
RTVSPropertyOp61
 70
     1
102
RTVSPropertyOp62
 70
     1
  0
XRECORD
  5
2A6
102
{ACAD_REACTORS
330
2A5
102
}
330
2A5
100
AcDbXrecord
280
     1
102
RTVSPost2010Prop28
280
     0
102
RTVSPost2010PropOp28
 70
     1
102
RTVSPost2010Prop29
280
     1
102
RTVSPost2010PropOp29
 70
     1
102
RTVSPost2010Prop30
280
     1
102
RTVSPost2010PropOp30
 70
     1
102
RTVSPost2010Prop31
280
     0
102
RTVSPost2010PropOp31
 70
     1
102
RTVSPost2010Prop32
280
     0
102
RTVSPost2010PropOp32
 70
     1
102
RTVSPost2010Prop33
280
     0
102
RTVSPost2010PropOp33
 70
     1
102
RTVSPost2010Prop34
280
     0
102
RTVSPost2010PropOp34
 70
     1
102
RTVSPost2010Prop35
280
     0
102
RTVSPost2010PropOp35
 70
     1
102
RTVSPost2010Prop36
280
     0
102
RTVSPost2010PropOp36
 70
     1
102
RTVSPost2010Prop37
 90
       50
102
RTVSPost2010PropOp37
 70
     1
102
RTVSPost2010Prop38
140
0.0
102
RTVSPost2010PropOp38
 70
     1
102
RTVSPost2010Prop39
140
1.0
102
RTVSPost2010PropOp39
 70
     1
102
RTVSPost2010Prop40
 90
        0
102
RTVSPost2010PropOp40
 70
     1
102
RTVSPost2010Prop41ColorIndex
 90
       18
102
RTVSPost2010Prop41ColorRGB
 90
        0
102
RTVSPost2010PropOp41
 70
     1
102
RTVSPost2010Prop42
 90
       50
102
RTVSPost2010PropOp42
 70
     1
102
RTVSPost2010Prop43
 90
        3
102
RTVSPost2010PropOp43
 70
     1
102
RTVSPost2010Prop44ColorIndex
 90
        5
102
RTVSPost2010Prop44ColorRGB
 90
      255
102
RTVSPost2010PropOp44
 70
     1
102
RTVSPost2010Prop45
280
     0
102
RTVSPost2010PropOp45
 70
     1
102
RTVSPost2010Prop46
 90
       50
102
RTVSPost2010PropOp46
 70
     1
102
RTVSPost2010Prop47
 90
       50
102
RTVSPost2010PropOp47
 70
     1
102
RTVSPost2010Prop48
 90
       50
102
RTVSPost2010PropOp48
 70
     1
102
RTVSPost2010Prop49
280
     0
102
RTVSPost2010PropOp49
 70
     1
102
RTVSPost2010Prop50
 90
       50
102
RTVSPost2010PropOp50
 70
     1
102
RTVSPost2010Prop51ColorIndex
 90
      256
102
RTVSPost2010Prop51ColorRGB
 90
-16777216
102
RTVSPost2010PropOp51
 70
     0
102
RTVSPost2010Prop52
140
1.0
102
RTVSPost2010PropOp52
 70
     0
102
RTVSPost2010Prop53
 90
        2
102
RTVSPost2010PropOp53
 70
     1
102
RTVSPost2010Prop54
  1
strokes_ogs.tif
102
RTVSPost2010PropOp54
 70
     1
102
RTVSPost2010Prop55
280
     0
102
RTVSPost2010PropOp55
 70
     1
102
RTVSPost2010Prop56
140
1.0
102
RTVSPost2010PropOp56
 70
     1
102
RTVSPost2010Prop57
140
1.0
102
RTVSPost2010PropOp57
 70
     1
102
RTVSPropertyOp0
 70
     1
102
RTVSPropertyOp1
 70
     1
102
RTVSPropertyOp2
 70
     1
102
RTVSPropertyOp3
 70
     1
102
RTVSPropertyOp4
 70
     1
102
RTVSPropertyOp5
 70
     1
102
RTVSPropertyOp6
 70
     1
102
RTVSPropertyOp7
 70
     1
102
RTVSPropertyOp8
 70
     1
102
RTVSPropertyOp9
 70
     1
102
RTVSPropertyOp10
 70
     1
102
RTVSPropertyOp11
 70
     1
102
RTVSPropertyOp12
 70
     1
102
RTVSPropertyOp13
 70
     1
102
RTVSPropertyOp14
 70
     1
102
RTVSPropertyOp15
 70
     1
102
RTVSPropertyOp16
 70
     1
102
RTVSPropertyOp17
 70
     1
102
RTVSPropertyOp18
 70
     1
102
RTVSPropertyOp19
 70
     1
102
RTVSPropertyOp20
 70
     1
102
RTVSPropertyOp21
 70
     1
102
RTVSPropertyOp22
 70
     1
102
RTVSPropertyOp23
 70
     1
102
RTVSPropertyOp24
 70
     1
102
RTVSPropertyOp25
 70
     1
102
RTVSPropertyOp26
 70
     1
102
RTVSPropertyOp27
 70
     1
102
RTVSPropertyOp28
 70
     1
102
RTVSPropertyOp29
 70
     1
102
RTVSPropertyOp30
 70
     1
102
RTVSPropertyOp31
 70
     1
102
RTVSPropertyOp32
 70
     1
102
RTVSPropertyOp33
 70
     1
102
RTVSPropertyOp34
 70
     1
102
RTVSPropertyOp35
 70
     1
102
RTVSPropertyOp36
 70
     1
102
RTVSPropertyOp37
 70
     1
102
RTVSPropertyOp38
 70
     1
102
RTVSPropertyOp39
 70
     1
102
RTVSPropertyOp40
 70
     1
102
RTVSPropertyOp41
 70
     1
102
RTVSPropertyOp42
 70
     1
102
RTVSPropertyOp43
 70
     1
102
RTVSPropertyOp44
 70
     1
102
RTVSPropertyOp45
 70
     1
102
RTVSPropertyOp46
 70
     1
102
RTVSPropertyOp47
 70
     1
102
RTVSPropertyOp48
 70
     1
102
RTVSPropertyOp49
 70
     1
102
RTVSPropertyOp50
 70
     1
102
RTVSPropertyOp51
 70
     0
102
RTVSPropertyOp52
 70
     0
102
RTVSPropertyOp53
 70
     1
102
RTVSPropertyOp54
 70
     1
102
RTVSPropertyOp55
 70
     1
102
RTVSPropertyOp56
 70
     1
102
RTVSPropertyOp57
 70
     1
102
RTVSPropertyOp58
 70
     1
102
RTVSPropertyOp59
 70
     1
102
RTVSPropertyOp60
 70
     1
102
RTVSPropertyOp61
 70
     1
102
RTVSPropertyOp62
 70
     1
  0
XRECORD
  5
2A4
102
{ACAD_REACTORS
330
2A3
102
}
330
2A3
100
AcDbXrecord
280
     1
102
RTVSPost2010Prop28
280
     0
102
RTVSPost2010PropOp28
 70
     1
102
RTVSPost2010Prop29
280
     1
102
RTVSPost2010PropOp29
 70
     1
102
RTVSPost2010Prop30
280
     1
102
RTVSPost2010PropOp30
 70
     1
102
RTVSPost2010Prop31
280
     0
102
RTVSPost2010PropOp31
 70
     1
102
RTVSPost2010Prop32
280
     0
102
RTVSPost2010PropOp32
 70
     1
102
RTVSPost2010Prop33
280
     0
102
RTVSPost2010PropOp33
 70
     1
102
RTVSPost2010Prop34
280
     0
102
RTVSPost2010PropOp34
 70
     1
102
RTVSPost2010Prop35
280
     0
102
RTVSPost2010PropOp35
 70
     1
102
RTVSPost2010Prop36
280
     0
102
RTVSPost2010PropOp36
 70
     1
102
RTVSPost2010Prop37
 90
       50
102
RTVSPost2010PropOp37
 70
     1
102
RTVSPost2010Prop38
140
0.0
102
RTVSPost2010PropOp38
 70
     1
102
RTVSPost2010Prop39
140
1.0
102
RTVSPost2010PropOp39
 70
     1
102
RTVSPost2010Prop40
 90
        0
102
RTVSPost2010PropOp40
 70
     1
102
RTVSPost2010Prop41ColorIndex
 90
       18
102
RTVSPost2010Prop41ColorRGB
 90
        0
102
RTVSPost2010PropOp41
 70
     1
102
RTVSPost2010Prop42
 90
       50
102
RTVSPost2010PropOp42
 70
     1
102
RTVSPost2010Prop43
 90
        3
102
RTVSPost2010PropOp43
 70
     1
102
RTVSPost2010Prop44ColorIndex
 90
        5
102
RTVSPost2010Prop44ColorRGB
 90
      255
102
RTVSPost2010PropOp44
 70
     1
102
RTVSPost2010Prop45
280
     0
102
RTVSPost2010PropOp45
 70
     1
102
RTVSPost2010Prop46
 90
       50
102
RTVSPost2010PropOp46
 70
     1
102
RTVSPost2010Prop47
 90
       50
102
RTVSPost2010PropOp47
 70
     1
102
RTVSPost2010Prop48
 90
       50
102
RTVSPost2010PropOp48
 70
     1
102
RTVSPost2010Prop49
280
     0
102
RTVSPost2010PropOp49
 70
     1
102
RTVSPost2010Prop50
 90
       50
102
RTVSPost2010PropOp50
 70
     1
102
RTVSPost2010Prop51ColorIndex
 90
      256
102
RTVSPost2010Prop51ColorRGB
 90
-16777216
102
RTVSPost2010PropOp51
 70
     0
102
RTVSPost2010Prop52
140
1.0
102
RTVSPost2010PropOp52
 70
     0
102
RTVSPost2010Prop53
 90
        2
102
RTVSPost2010PropOp53
 70
     1
102
RTVSPost2010Prop54
  1
strokes_ogs.tif
102
RTVSPost2010PropOp54
 70
     1
102
RTVSPost2010Prop55
280
     0
102
RTVSPost2010PropOp55
 70
     1
102
RTVSPost2010Prop56
140
1.0
102
RTVSPost2010PropOp56
 70
     1
102
RTVSPost2010Prop57
140
1.0
102
RTVSPost2010PropOp57
 70
     1
102
RTVSPropertyOp0
 70
     1
102
RTVSPropertyOp1
 70
     1
102
RTVSPropertyOp2
 70
     1
102
RTVSPropertyOp3
 70
     1
102
RTVSPropertyOp4
 70
     1
102
RTVSPropertyOp5
 70
     1
102
RTVSPropertyOp6
 70
     1
102
RTVSPropertyOp7
 70
     1
102
RTVSPropertyOp8
 70
     1
102
RTVSPropertyOp9
 70
     1
102
RTVSPropertyOp10
 70
     1
102
RTVSPropertyOp11
 70
     1
102
RTVSPropertyOp12
 70
     1
102
RTVSPropertyOp13
 70
     1
102
RTVSPropertyOp14
 70
     1
102
RTVSPropertyOp15
 70
     1
102
RTVSPropertyOp16
 70
     1
102
RTVSPropertyOp17
 70
     1
102
RTVSPropertyOp18
 70
     1
102
RTVSPropertyOp19
 70
     1
102
RTVSPropertyOp20
 70
     1
102
RTVSPropertyOp21
 70
     1
102
RTVSPropertyOp22
 70
     1
102
RTVSPropertyOp23
 70
     1
102
RTVSPropertyOp24
 70
     1
102
RTVSPropertyOp25
 70
     1
102
RTVSPropertyOp26
 70
     1
102
RTVSPropertyOp27
 70
     1
102
RTVSPropertyOp28
 70
     1
102
RTVSPropertyOp29
 70
     1
102
RTVSPropertyOp30
 70
     1
102
RTVSPropertyOp31
 70
     1
102
RTVSPropertyOp32
 70
     1
102
RTVSPropertyOp33
 70
     1
102
RTVSPropertyOp34
 70
     1
102
RTVSPropertyOp35
 70
     1
102
RTVSPropertyOp36
 70
     1
102
RTVSPropertyOp37
 70
     1
102
RTVSPropertyOp38
 70
     1
102
RTVSPropertyOp39
 70
     1
102
RTVSPropertyOp40
 70
     1
102
RTVSPropertyOp41
 70
     1
102
RTVSPropertyOp42
 70
     1
102
RTVSPropertyOp43
 70
     1
102
RTVSPropertyOp44
 70
     1
102
RTVSPropertyOp45
 70
     1
102
RTVSPropertyOp46
 70
     1
102
RTVSPropertyOp47
 70
     1
102
RTVSPropertyOp48
 70
     1
102
RTVSPropertyOp49
 70
     1
102
RTVSPropertyOp50
 70
     1
102
RTVSPropertyOp51
 70
     0
102
RTVSPropertyOp52
 70
     0
102
RTVSPropertyOp53
 70
     1
102
RTVSPropertyOp54
 70
     1
102
RTVSPropertyOp55
 70
     1
102
RTVSPropertyOp56
 70
     1
102
RTVSPropertyOp57
 70
     1
102
RTVSPropertyOp58
 70
     1
102
RTVSPropertyOp59
 70
     1
102
RTVSPropertyOp60
 70
     1
102
RTVSPropertyOp61
 70
     1
102
RTVSPropertyOp62
 70
     1
  0
XRECORD
  5
29E
102
{ACAD_REACTORS
330
29D
102
}
330
29D
100
AcDbXrecord
280
     1
102
RTVSPost2010Prop28
280
     0
102
RTVSPost2010PropOp28
 70
     1
102
RTVSPost2010Prop29
280
     1
102
RTVSPost2010PropOp29
 70
     1
102
RTVSPost2010Prop30
280
     1
102
RTVSPost2010PropOp30
 70
     1
102
RTVSPost2010Prop31
280
     0
102
RTVSPost2010PropOp31
 70
     1
102
RTVSPost2010Prop32
280
     0
102
RTVSPost2010PropOp32
 70
     1
102
RTVSPost2010Prop33
280
     0
102
RTVSPost2010PropOp33
 70
     1
102
RTVSPost2010Prop34
280
     0
102
RTVSPost2010PropOp34
 70
     1
102
RTVSPost2010Prop35
280
     0
102
RTVSPost2010PropOp35
 70
     1
102
RTVSPost2010Prop36
280
     0
102
RTVSPost2010PropOp36
 70
     1
102
RTVSPost2010Prop37
 90
       50
102
RTVSPost2010PropOp37
 70
     1
102
RTVSPost2010Prop38
140
0.0
102
RTVSPost2010PropOp38
 70
     1
102
RTVSPost2010Prop39
140
1.0
102
RTVSPost2010PropOp39
 70
     1
102
RTVSPost2010Prop40
 90
        0
102
RTVSPost2010PropOp40
 70
     1
102
RTVSPost2010Prop41ColorIndex
 90
       18
102
RTVSPost2010Prop41ColorRGB
 90
        0
102
RTVSPost2010PropOp41
 70
     1
102
RTVSPost2010Prop42
 90
       50
102
RTVSPost2010PropOp42
 70
     1
102
RTVSPost2010Prop43
 90
        3
102
RTVSPost2010PropOp43
 70
     1
102
RTVSPost2010Prop44ColorIndex
 90
        5
102
RTVSPost2010Prop44ColorRGB
 90
      255
102
RTVSPost2010PropOp44
 70
     1
102
RTVSPost2010Prop45
280
     0
102
RTVSPost2010PropOp45
 70
     1
102
RTVSPost2010Prop46
 90
       50
102
RTVSPost2010PropOp46
 70
     1
102
RTVSPost2010Prop47
 90
       50
102
RTVSPost2010PropOp47
 70
     1
102
RTVSPost2010Prop48
 90
       50
102
RTVSPost2010PropOp48
 70
     1
102
RTVSPost2010Prop49
280
     0
102
RTVSPost2010PropOp49
 70
     1
102
RTVSPost2010Prop50
 90
       50
102
RTVSPost2010PropOp50
 70
     1
102
RTVSPost2010Prop51ColorIndex
 90
      256
102
RTVSPost2010Prop51ColorRGB
 90
-16777216
102
RTVSPost2010PropOp51
 70
     0
102
RTVSPost2010Prop52
140
1.0
102
RTVSPost2010PropOp52
 70
     0
102
RTVSPost2010Prop53
 90
        2
102
RTVSPost2010PropOp53
 70
     1
102
RTVSPost2010Prop54
  1
strokes_ogs.tif
102
RTVSPost2010PropOp54
 70
     1
102
RTVSPost2010Prop55
280
     0
102
RTVSPost2010PropOp55
 70
     1
102
RTVSPost2010Prop56
140
1.0
102
RTVSPost2010PropOp56
 70
     1
102
RTVSPost2010Prop57
140
1.0
102
RTVSPost2010PropOp57
 70
     1
102
RTVSPropertyOp0
 70
     1
102
RTVSPropertyOp1
 70
     1
102
RTVSPropertyOp2
 70
     1
102
RTVSPropertyOp3
 70
     1
102
RTVSPropertyOp4
 70
     1
102
RTVSPropertyOp5
 70
     1
102
RTVSPropertyOp6
 70
     1
102
RTVSPropertyOp7
 70
     1
102
RTVSPropertyOp8
 70
     1
102
RTVSPropertyOp9
 70
     1
102
RTVSPropertyOp10
 70
     1
102
RTVSPropertyOp11
 70
     1
102
RTVSPropertyOp12
 70
     1
102
RTVSPropertyOp13
 70
     1
102
RTVSPropertyOp14
 70
     1
102
RTVSPropertyOp15
 70
     1
102
RTVSPropertyOp16
 70
     1
102
RTVSPropertyOp17
 70
     1
102
RTVSPropertyOp18
 70
     1
102
RTVSPropertyOp19
 70
     1
102
RTVSPropertyOp20
 70
     1
102
RTVSPropertyOp21
 70
     1
102
RTVSPropertyOp22
 70
     1
102
RTVSPropertyOp23
 70
     1
102
RTVSPropertyOp24
 70
     1
102
RTVSPropertyOp25
 70
     1
102
RTVSPropertyOp26
 70
     1
102
RTVSPropertyOp27
 70
     1
102
RTVSPropertyOp28
 70
     1
102
RTVSPropertyOp29
 70
     1
102
RTVSPropertyOp30
 70
     1
102
RTVSPropertyOp31
 70
     1
102
RTVSPropertyOp32
 70
     1
102
RTVSPropertyOp33
 70
     1
102
RTVSPropertyOp34
 70
     1
102
RTVSPropertyOp35
 70
     1
102
RTVSPropertyOp36
 70
     1
102
RTVSPropertyOp37
 70
     1
102
RTVSPropertyOp38
 70
     1
102
RTVSPropertyOp39
 70
     1
102
RTVSPropertyOp40
 70
     1
102
RTVSPropertyOp41
 70
     1
102
RTVSPropertyOp42
 70
     1
102
RTVSPropertyOp43
 70
     1
102
RTVSPropertyOp44
 70
     1
102
RTVSPropertyOp45
 70
     1
102
RTVSPropertyOp46
 70
     1
102
RTVSPropertyOp47
 70
     1
102
RTVSPropertyOp48
 70
     1
102
RTVSPropertyOp49
 70
     1
102
RTVSPropertyOp50
 70
     1
102
RTVSPropertyOp51
 70
     0
102
RTVSPropertyOp52
 70
     0
102
RTVSPropertyOp53
 70
     1
102
RTVSPropertyOp54
 70
     1
102
RTVSPropertyOp55
 70
     1
102
RTVSPropertyOp56
 70
     1
102
RTVSPropertyOp57
 70
     1
102
RTVSPropertyOp58
 70
     1
102
RTVSPropertyOp59
 70
     1
102
RTVSPropertyOp60
 70
     1
102
RTVSPropertyOp61
 70
     1
102
RTVSPropertyOp62
 70
     1
  0
XRECORD
  5
2A0
102
{ACAD_REACTORS
330
29F
102
}
330
29F
100
AcDbXrecord
280
     1
102
RTVSPost2010Prop28
280
     0
102
RTVSPost2010PropOp28
 70
     1
102
RTVSPost2010Prop29
280
     1
102
RTVSPost2010PropOp29
 70
     1
102
RTVSPost2010Prop30
280
     1
102
RTVSPost2010PropOp30
 70
     1
102
RTVSPost2010Prop31
280
     0
102
RTVSPost2010PropOp31
 70
     1
102
RTVSPost2010Prop32
280
     0
102
RTVSPost2010PropOp32
 70
     1
102
RTVSPost2010Prop33
280
     0
102
RTVSPost2010PropOp33
 70
     1
102
RTVSPost2010Prop34
280
     0
102
RTVSPost2010PropOp34
 70
     1
102
RTVSPost2010Prop35
280
     0
102
RTVSPost2010PropOp35
 70
     1
102
RTVSPost2010Prop36
280
     0
102
RTVSPost2010PropOp36
 70
     1
102
RTVSPost2010Prop37
 90
       50
102
RTVSPost2010PropOp37
 70
     1
102
RTVSPost2010Prop38
140
0.0
102
RTVSPost2010PropOp38
 70
     1
102
RTVSPost2010Prop39
140
1.0
102
RTVSPost2010PropOp39
 70
     1
102
RTVSPost2010Prop40
 90
        0
102
RTVSPost2010PropOp40
 70
     1
102
RTVSPost2010Prop41ColorIndex
 90
       18
102
RTVSPost2010Prop41ColorRGB
 90
        0
102
RTVSPost2010PropOp41
 70
     1
102
RTVSPost2010Prop42
 90
       50
102
RTVSPost2010PropOp42
 70
     1
102
RTVSPost2010Prop43
 90
        3
102
RTVSPost2010PropOp43
 70
     1
102
RTVSPost2010Prop44ColorIndex
 90
        5
102
RTVSPost2010Prop44ColorRGB
 90
      255
102
RTVSPost2010PropOp44
 70
     1
102
RTVSPost2010Prop45
280
     0
102
RTVSPost2010PropOp45
 70
     1
102
RTVSPost2010Prop46
 90
       50
102
RTVSPost2010PropOp46
 70
     1
102
RTVSPost2010Prop47
 90
       50
102
RTVSPost2010PropOp47
 70
     1
102
RTVSPost2010Prop48
 90
       50
102
RTVSPost2010PropOp48
 70
     1
102
RTVSPost2010Prop49
280
     0
102
RTVSPost2010PropOp49
 70
     1
102
RTVSPost2010Prop50
 90
       50
102
RTVSPost2010PropOp50
 70
     1
102
RTVSPost2010Prop51ColorIndex
 90
      256
102
RTVSPost2010Prop51ColorRGB
 90
-16777216
102
RTVSPost2010PropOp51
 70
     0
102
RTVSPost2010Prop52
140
1.0
102
RTVSPost2010PropOp52
 70
     0
102
RTVSPost2010Prop53
 90
        2
102
RTVSPost2010PropOp53
 70
     1
102
RTVSPost2010Prop54
  1
strokes_ogs.tif
102
RTVSPost2010PropOp54
 70
     1
102
RTVSPost2010Prop55
280
     0
102
RTVSPost2010PropOp55
 70
     1
102
RTVSPost2010Prop56
140
1.0
102
RTVSPost2010PropOp56
 70
     1
102
RTVSPost2010Prop57
140
1.0
102
RTVSPost2010PropOp57
 70
     1
102
RTVSPropertyOp0
 70
     1
102
RTVSPropertyOp1
 70
     1
102
RTVSPropertyOp2
 70
     1
102
RTVSPropertyOp3
 70
     1
102
RTVSPropertyOp4
 70
     1
102
RTVSPropertyOp5
 70
     1
102
RTVSPropertyOp6
 70
     1
102
RTVSPropertyOp7
 70
     1
102
RTVSPropertyOp8
 70
     1
102
RTVSPropertyOp9
 70
     1
102
RTVSPropertyOp10
 70
     1
102
RTVSPropertyOp11
 70
     1
102
RTVSPropertyOp12
 70
     1
102
RTVSPropertyOp13
 70
     1
102
RTVSPropertyOp14
 70
     1
102
RTVSPropertyOp15
 70
     1
102
RTVSPropertyOp16
 70
     1
102
RTVSPropertyOp17
 70
     1
102
RTVSPropertyOp18
 70
     1
102
RTVSPropertyOp19
 70
     1
102
RTVSPropertyOp20
 70
     1
102
RTVSPropertyOp21
 70
     1
102
RTVSPropertyOp22
 70
     1
102
RTVSPropertyOp23
 70
     1
102
RTVSPropertyOp24
 70
     1
102
RTVSPropertyOp25
 70
     1
102
RTVSPropertyOp26
 70
     1
102
RTVSPropertyOp27
 70
     1
102
RTVSPropertyOp28
 70
     1
102
RTVSPropertyOp29
 70
     1
102
RTVSPropertyOp30
 70
     1
102
RTVSPropertyOp31
 70
     1
102
RTVSPropertyOp32
 70
     1
102
RTVSPropertyOp33
 70
     1
102
RTVSPropertyOp34
 70
     1
102
RTVSPropertyOp35
 70
     1
102
RTVSPropertyOp36
 70
     1
102
RTVSPropertyOp37
 70
     1
102
RTVSPropertyOp38
 70
     1
102
RTVSPropertyOp39
 70
     1
102
RTVSPropertyOp40
 70
     1
102
RTVSPropertyOp41
 70
     1
102
RTVSPropertyOp42
 70
     1
102
RTVSPropertyOp43
 70
     1
102
RTVSPropertyOp44
 70
     1
102
RTVSPropertyOp45
 70
     1
102
RTVSPropertyOp46
 70
     1
102
RTVSPropertyOp47
 70
     1
102
RTVSPropertyOp48
 70
     1
102
RTVSPropertyOp49
 70
     1
102
RTVSPropertyOp50
 70
     1
102
RTVSPropertyOp51
 70
     0
102
RTVSPropertyOp52
 70
     0
102
RTVSPropertyOp53
 70
     1
102
RTVSPropertyOp54
 70
     1
102
RTVSPropertyOp55
 70
     1
102
RTVSPropertyOp56
 70
     1
102
RTVSPropertyOp57
 70
     1
102
RTVSPropertyOp58
 70
     1
102
RTVSPropertyOp59
 70
     1
102
RTVSPropertyOp60
 70
     1
102
RTVSPropertyOp61
 70
     1
102
RTVSPropertyOp62
 70
     1
  0
XRECORD
  5
290
102
{ACAD_REACTORS
330
28F
102
}
330
28F
100
AcDbXrecord
280
     1
102
RTVSPost2010Prop28
280
     0
102
RTVSPost2010PropOp28
 70
     1
102
RTVSPost2010Prop29
280
     1
102
RTVSPost2010PropOp29
 70
     1
102
RTVSPost2010Prop30
280
     1
102
RTVSPost2010PropOp30
 70
     1
102
RTVSPost2010Prop31
280
     0
102
RTVSPost2010PropOp31
 70
     1
102
RTVSPost2010Prop32
280
     0
102
RTVSPost2010PropOp32
 70
     1
102
RTVSPost2010Prop33
280
     0
102
RTVSPost2010PropOp33
 70
     1
102
RTVSPost2010Prop34
280
     0
102
RTVSPost2010PropOp34
 70
     1
102
RTVSPost2010Prop35
280
     0
102
RTVSPost2010PropOp35
 70
     1
102
RTVSPost2010Prop36
280
     0
102
RTVSPost2010PropOp36
 70
     1
102
RTVSPost2010Prop37
 90
       50
102
RTVSPost2010PropOp37
 70
     1
102
RTVSPost2010Prop38
140
0.0
102
RTVSPost2010PropOp38
 70
     1
102
RTVSPost2010Prop39
140
1.0
102
RTVSPost2010PropOp39
 70
     1
102
RTVSPost2010Prop40
 90
        0
102
RTVSPost2010PropOp40
 70
     1
102
RTVSPost2010Prop41ColorIndex
 90
       18
102
RTVSPost2010Prop41ColorRGB
 90
        0
102
RTVSPost2010PropOp41
 70
     1
102
RTVSPost2010Prop42
 90
       50
102
RTVSPost2010PropOp42
 70
     1
102
RTVSPost2010Prop43
 90
        3
102
RTVSPost2010PropOp43
 70
     1
102
RTVSPost2010Prop44ColorIndex
 90
        5
102
RTVSPost2010Prop44ColorRGB
 90
      255
102
RTVSPost2010PropOp44
 70
     1
102
RTVSPost2010Prop45
280
     0
102
RTVSPost2010PropOp45
 70
     1
102
RTVSPost2010Prop46
 90
       50
102
RTVSPost2010PropOp46
 70
     1
102
RTVSPost2010Prop47
 90
       50
102
RTVSPost2010PropOp47
 70
     1
102
RTVSPost2010Prop48
 90
       50
102
RTVSPost2010PropOp48
 70
     1
102
RTVSPost2010Prop49
280
     0
102
RTVSPost2010PropOp49
 70
     1
102
RTVSPost2010Prop50
 90
       50
102
RTVSPost2010PropOp50
 70
     1
102
RTVSPost2010Prop51ColorIndex
 90
      256
102
RTVSPost2010Prop51ColorRGB
 90
-16777216
102
RTVSPost2010PropOp51
 70
     0
102
RTVSPost2010Prop52
140
1.0
102
RTVSPost2010PropOp52
 70
     0
102
RTVSPost2010Prop53
 90
        2
102
RTVSPost2010PropOp53
 70
     1
102
RTVSPost2010Prop54
  1
strokes_ogs.tif
102
RTVSPost2010PropOp54
 70
     1
102
RTVSPost2010Prop55
280
     0
102
RTVSPost2010PropOp55
 70
     1
102
RTVSPost2010Prop56
140
1.0
102
RTVSPost2010PropOp56
 70
     1
102
RTVSPost2010Prop57
140
1.0
102
RTVSPost2010PropOp57
 70
     1
102
RTVSPropertyOp0
 70
     1
102
RTVSPropertyOp1
 70
     1
102
RTVSPropertyOp2
 70
     1
102
RTVSPropertyOp3
 70
     1
102
RTVSPropertyOp4
 70
     1
102
RTVSPropertyOp5
 70
     1
102
RTVSPropertyOp6
 70
     1
102
RTVSPropertyOp7
 70
     1
102
RTVSPropertyOp8
 70
     1
102
RTVSPropertyOp9
 70
     1
102
RTVSPropertyOp10
 70
     1
102
RTVSPropertyOp11
 70
     1
102
RTVSPropertyOp12
 70
     1
102
RTVSPropertyOp13
 70
     1
102
RTVSPropertyOp14
 70
     1
102
RTVSPropertyOp15
 70
     1
102
RTVSPropertyOp16
 70
     1
102
RTVSPropertyOp17
 70
     1
102
RTVSPropertyOp18
 70
     1
102
RTVSPropertyOp19
 70
     1
102
RTVSPropertyOp20
 70
     1
102
RTVSPropertyOp21
 70
     1
102
RTVSPropertyOp22
 70
     1
102
RTVSPropertyOp23
 70
     1
102
RTVSPropertyOp24
 70
     1
102
RTVSPropertyOp25
 70
     1
102
RTVSPropertyOp26
 70
     1
102
RTVSPropertyOp27
 70
     1
102
RTVSPropertyOp28
 70
     1
102
RTVSPropertyOp29
 70
     1
102
RTVSPropertyOp30
 70
     1
102
RTVSPropertyOp31
 70
     1
102
RTVSPropertyOp32
 70
     1
102
RTVSPropertyOp33
 70
     1
102
RTVSPropertyOp34
 70
     1
102
RTVSPropertyOp35
 70
     1
102
RTVSPropertyOp36
 70
     1
102
RTVSPropertyOp37
 70
     1
102
RTVSPropertyOp38
 70
     1
102
RTVSPropertyOp39
 70
     1
102
RTVSPropertyOp40
 70
     1
102
RTVSPropertyOp41
 70
     1
102
RTVSPropertyOp42
 70
     1
102
RTVSPropertyOp43
 70
     1
102
RTVSPropertyOp44
 70
     1
102
RTVSPropertyOp45
 70
     1
102
RTVSPropertyOp46
 70
     1
102
RTVSPropertyOp47
 70
     1
102
RTVSPropertyOp48
 70
     1
102
RTVSPropertyOp49
 70
     1
102
RTVSPropertyOp50
 70
     1
102
RTVSPropertyOp51
 70
     0
102
RTVSPropertyOp52
 70
     0
102
RTVSPropertyOp53
 70
     1
102
RTVSPropertyOp54
 70
     1
102
RTVSPropertyOp55
 70
     1
102
RTVSPropertyOp56
 70
     1
102
RTVSPropertyOp57
 70
     1
102
RTVSPropertyOp58
 70
     1
102
RTVSPropertyOp59
 70
     1
102
RTVSPropertyOp60
 70
     1
102
RTVSPropertyOp61
 70
     1
102
RTVSPropertyOp62
 70
     1
  0
XRECORD
  5
282
102
{ACAD_REACTORS
330
281
102
}
330
281
100
AcDbXrecord
280
     1
102
RTVSPost2010Prop28
280
     0
102
RTVSPost2010PropOp28
 70
     1
102
RTVSPost2010Prop29
280
     1
102
RTVSPost2010PropOp29
 70
     1
102
RTVSPost2010Prop30
280
     1
102
RTVSPost2010PropOp30
 70
     1
102
RTVSPost2010Prop31
280
     0
102
RTVSPost2010PropOp31
 70
     1
102
RTVSPost2010Prop32
280
     0
102
RTVSPost2010PropOp32
 70
     1
102
RTVSPost2010Prop33
280
     0
102
RTVSPost2010PropOp33
 70
     1
102
RTVSPost2010Prop34
280
     0
102
RTVSPost2010PropOp34
 70
     1
102
RTVSPost2010Prop35
280
     0
102
RTVSPost2010PropOp35
 70
     1
102
RTVSPost2010Prop36
280
     0
102
RTVSPost2010PropOp36
 70
     1
102
RTVSPost2010Prop37
 90
       50
102
RTVSPost2010PropOp37
 70
     1
102
RTVSPost2010Prop38
140
0.0
102
RTVSPost2010PropOp38
 70
     1
102
RTVSPost2010Prop39
140
1.0
102
RTVSPost2010PropOp39
 70
     1
102
RTVSPost2010Prop40
 90
        0
102
RTVSPost2010PropOp40
 70
     1
102
RTVSPost2010Prop41ColorIndex
 90
       18
102
RTVSPost2010Prop41ColorRGB
 90
        0
102
RTVSPost2010PropOp41
 70
     1
102
RTVSPost2010Prop42
 90
       50
102
RTVSPost2010PropOp42
 70
     1
102
RTVSPost2010Prop43
 90
        3
102
RTVSPost2010PropOp43
 70
     1
102
RTVSPost2010Prop44ColorIndex
 90
        5
102
RTVSPost2010Prop44ColorRGB
 90
      255
102
RTVSPost2010PropOp44
 70
     1
102
RTVSPost2010Prop45
280
     0
102
RTVSPost2010PropOp45
 70
     1
102
RTVSPost2010Prop46
 90
       50
102
RTVSPost2010PropOp46
 70
     1
102
RTVSPost2010Prop47
 90
       50
102
RTVSPost2010PropOp47
 70
     1
102
RTVSPost2010Prop48
 90
       50
102
RTVSPost2010PropOp48
 70
     1
102
RTVSPost2010Prop49
280
     0
102
RTVSPost2010PropOp49
 70
     1
102
RTVSPost2010Prop50
 90
       50
102
RTVSPost2010PropOp50
 70
     1
102
RTVSPost2010Prop51ColorIndex
 90
      256
102
RTVSPost2010Prop51ColorRGB
 90
-16777216
102
RTVSPost2010PropOp51
 70
     0
102
RTVSPost2010Prop52
140
1.0
102
RTVSPost2010PropOp52
 70
     0
102
RTVSPost2010Prop53
 90
        2
102
RTVSPost2010PropOp53
 70
     1
102
RTVSPost2010Prop54
  1
strokes_ogs.tif
102
RTVSPost2010PropOp54
 70
     1
102
RTVSPost2010Prop55
280
     0
102
RTVSPost2010PropOp55
 70
     1
102
RTVSPost2010Prop56
140
1.0
102
RTVSPost2010PropOp56
 70
     1
102
RTVSPost2010Prop57
140
1.0
102
RTVSPost2010PropOp57
 70
     1
102
RTVSPropertyOp0
 70
     1
102
RTVSPropertyOp1
 70
     1
102
RTVSPropertyOp2
 70
     1
102
RTVSPropertyOp3
 70
     1
102
RTVSPropertyOp4
 70
     1
102
RTVSPropertyOp5
 70
     1
102
RTVSPropertyOp6
 70
     1
102
RTVSPropertyOp7
 70
     1
102
RTVSPropertyOp8
 70
     1
102
RTVSPropertyOp9
 70
     1
102
RTVSPropertyOp10
 70
     1
102
RTVSPropertyOp11
 70
     1
102
RTVSPropertyOp12
 70
     1
102
RTVSPropertyOp13
 70
     1
102
RTVSPropertyOp14
 70
     1
102
RTVSPropertyOp15
 70
     1
102
RTVSPropertyOp16
 70
     1
102
RTVSPropertyOp17
 70
     1
102
RTVSPropertyOp18
 70
     1
102
RTVSPropertyOp19
 70
     1
102
RTVSPropertyOp20
 70
     1
102
RTVSPropertyOp21
 70
     1
102
RTVSPropertyOp22
 70
     1
102
RTVSPropertyOp23
 70
     1
102
RTVSPropertyOp24
 70
     1
102
RTVSPropertyOp25
 70
     1
102
RTVSPropertyOp26
 70
     1
102
RTVSPropertyOp27
 70
     1
102
RTVSPropertyOp28
 70
     1
102
RTVSPropertyOp29
 70
     1
102
RTVSPropertyOp30
 70
     1
102
RTVSPropertyOp31
 70
     1
102
RTVSPropertyOp32
 70
     1
102
RTVSPropertyOp33
 70
     1
102
RTVSPropertyOp34
 70
     1
102
RTVSPropertyOp35
 70
     1
102
RTVSPropertyOp36
 70
     1
102
RTVSPropertyOp37
 70
     1
102
RTVSPropertyOp38
 70
     1
102
RTVSPropertyOp39
 70
     1
102
RTVSPropertyOp40
 70
     1
102
RTVSPropertyOp41
 70
     1
102
RTVSPropertyOp42
 70
     1
102
RTVSPropertyOp43
 70
     1
102
RTVSPropertyOp44
 70
     1
102
RTVSPropertyOp45
 70
     1
102
RTVSPropertyOp46
 70
     1
102
RTVSPropertyOp47
 70
     1
102
RTVSPropertyOp48
 70
     1
102
RTVSPropertyOp49
 70
     1
102
RTVSPropertyOp50
 70
     1
102
RTVSPropertyOp51
 70
     0
102
RTVSPropertyOp52
 70
     0
102
RTVSPropertyOp53
 70
     1
102
RTVSPropertyOp54
 70
     1
102
RTVSPropertyOp55
 70
     1
102
RTVSPropertyOp56
 70
     1
102
RTVSPropertyOp57
 70
     1
102
RTVSPropertyOp58
 70
     1
102
RTVSPropertyOp59
 70
     1
102
RTVSPropertyOp60
 70
     1
102
RTVSPropertyOp61
 70
     1
102
RTVSPropertyOp62
 70
     1
  0
XRECORD
  5
2A2
102
{ACAD_REACTORS
330
2A1
102
}
330
2A1
100
AcDbXrecord
280
     1
102
RTVSPost2010Prop28
280
     0
102
RTVSPost2010PropOp28
 70
     1
102
RTVSPost2010Prop29
280
     1
102
RTVSPost2010PropOp29
 70
     1
102
RTVSPost2010Prop30
280
     1
102
RTVSPost2010PropOp30
 70
     1
102
RTVSPost2010Prop31
280
     0
102
RTVSPost2010PropOp31
 70
     1
102
RTVSPost2010Prop32
280
     0
102
RTVSPost2010PropOp32
 70
     1
102
RTVSPost2010Prop33
280
     0
102
RTVSPost2010PropOp33
 70
     1
102
RTVSPost2010Prop34
280
     0
102
RTVSPost2010PropOp34
 70
     1
102
RTVSPost2010Prop35
280
     0
102
RTVSPost2010PropOp35
 70
     1
102
RTVSPost2010Prop36
280
     0
102
RTVSPost2010PropOp36
 70
     1
102
RTVSPost2010Prop37
 90
       50
102
RTVSPost2010PropOp37
 70
     1
102
RTVSPost2010Prop38
140
0.0
102
RTVSPost2010PropOp38
 70
     1
102
RTVSPost2010Prop39
140
1.0
102
RTVSPost2010PropOp39
 70
     1
102
RTVSPost2010Prop40
 90
        0
102
RTVSPost2010PropOp40
 70
     1
102
RTVSPost2010Prop41ColorIndex
 90
       18
102
RTVSPost2010Prop41ColorRGB
 90
        0
102
RTVSPost2010PropOp41
 70
     1
102
RTVSPost2010Prop42
 90
       50
102
RTVSPost2010PropOp42
 70
     1
102
RTVSPost2010Prop43
 90
        3
102
RTVSPost2010PropOp43
 70
     1
102
RTVSPost2010Prop44ColorIndex
 90
        5
102
RTVSPost2010Prop44ColorRGB
 90
      255
102
RTVSPost2010PropOp44
 70
     1
102
RTVSPost2010Prop45
280
     0
102
RTVSPost2010PropOp45
 70
     1
102
RTVSPost2010Prop46
 90
       50
102
RTVSPost2010PropOp46
 70
     1
102
RTVSPost2010Prop47
 90
       50
102
RTVSPost2010PropOp47
 70
     1
102
RTVSPost2010Prop48
 90
       50
102
RTVSPost2010PropOp48
 70
     1
102
RTVSPost2010Prop49
280
     0
102
RTVSPost2010PropOp49
 70
     1
102
RTVSPost2010Prop50
 90
       50
102
RTVSPost2010PropOp50
 70
     1
102
RTVSPost2010Prop51ColorIndex
 90
      256
102
RTVSPost2010Prop51ColorRGB
 90
-16777216
102
RTVSPost2010PropOp51
 70
     0
102
RTVSPost2010Prop52
140
1.0
102
RTVSPost2010PropOp52
 70
     0
102
RTVSPost2010Prop53
 90
        2
102
RTVSPost2010PropOp53
 70
     1
102
RTVSPost2010Prop54
  1
strokes_ogs.tif
102
RTVSPost2010PropOp54
 70
     1
102
RTVSPost2010Prop55
280
     0
102
RTVSPost2010PropOp55
 70
     1
102
RTVSPost2010Prop56
140
1.0
102
RTVSPost2010PropOp56
 70
     1
102
RTVSPost2010Prop57
140
1.0
102
RTVSPost2010PropOp57
 70
     1
102
RTVSPropertyOp0
 70
     1
102
RTVSPropertyOp1
 70
     1
102
RTVSPropertyOp2
 70
     1
102
RTVSPropertyOp3
 70
     1
102
RTVSPropertyOp4
 70
     1
102
RTVSPropertyOp5
 70
     1
102
RTVSPropertyOp6
 70
     1
102
RTVSPropertyOp7
 70
     1
102
RTVSPropertyOp8
 70
     1
102
RTVSPropertyOp9
 70
     1
102
RTVSPropertyOp10
 70
     1
102
RTVSPropertyOp11
 70
     1
102
RTVSPropertyOp12
 70
     1
102
RTVSPropertyOp13
 70
     1
102
RTVSPropertyOp14
 70
     1
102
RTVSPropertyOp15
 70
     1
102
RTVSPropertyOp16
 70
     1
102
RTVSPropertyOp17
 70
     1
102
RTVSPropertyOp18
 70
     1
102
RTVSPropertyOp19
 70
     1
102
RTVSPropertyOp20
 70
     1
102
RTVSPropertyOp21
 70
     1
102
RTVSPropertyOp22
 70
     1
102
RTVSPropertyOp23
 70
     1
102
RTVSPropertyOp24
 70
     1
102
RTVSPropertyOp25
 70
     1
102
RTVSPropertyOp26
 70
     1
102
RTVSPropertyOp27
 70
     1
102
RTVSPropertyOp28
 70
     1
102
RTVSPropertyOp29
 70
     1
102
RTVSPropertyOp30
 70
     1
102
RTVSPropertyOp31
 70
     1
102
RTVSPropertyOp32
 70
     1
102
RTVSPropertyOp33
 70
     1
102
RTVSPropertyOp34
 70
     1
102
RTVSPropertyOp35
 70
     1
102
RTVSPropertyOp36
 70
     1
102
RTVSPropertyOp37
 70
     1
102
RTVSPropertyOp38
 70
     1
102
RTVSPropertyOp39
 70
     1
102
RTVSPropertyOp40
 70
     1
102
RTVSPropertyOp41
 70
     1
102
RTVSPropertyOp42
 70
     1
102
RTVSPropertyOp43
 70
     1
102
RTVSPropertyOp44
 70
     1
102
RTVSPropertyOp45
 70
     1
102
RTVSPropertyOp46
 70
     1
102
RTVSPropertyOp47
 70
     1
102
RTVSPropertyOp48
 70
     1
102
RTVSPropertyOp49
 70
     1
102
RTVSPropertyOp50
 70
     1
102
RTVSPropertyOp51
 70
     0
102
RTVSPropertyOp52
 70
     0
102
RTVSPropertyOp53
 70
     1
102
RTVSPropertyOp54
 70
     1
102
RTVSPropertyOp55
 70
     1
102
RTVSPropertyOp56
 70
     1
102
RTVSPropertyOp57
 70
     1
102
RTVSPropertyOp58
 70
     1
102
RTVSPropertyOp59
 70
     1
102
RTVSPropertyOp60
 70
     1
102
RTVSPropertyOp61
 70
     1
102
RTVSPropertyOp62
 70
     1
  0
ENDSEC
  0
EOF
