  0
SECTION
  2
HEADER
  9
$ACADVER
  1
AC1018
  9
$ACADMAINTVER
 70
   104
  9
$DWGCODEPAGE
  3
ANSI_1250
  9
$LASTSAVEDBY
  1
pp0701
  9
$INSBASE
 10
0.0
 20
0.0
 30
0.0
  9
$EXTMIN
 10
165.3952511395698
 20
21.404126
 30
0.0
  9
$EXTMAX
 10
587.478648
 20
295.7812356666668
 30
0.0
  9
$LIMMIN
 10
-0.5
 20
-0.5
  9
$LIMMAX
 10
5.0
 20
5.0
  9
$ORTHOMODE
 70
     0
  9
$REGENMODE
 70
     1
  9
$FILLMODE
 70
     1
  9
$QTEXTMODE
 70
     0
  9
$MIRRTEXT
 70
     1
  9
$LTSCALE
 40
1.0
  9
$ATTMODE
 70
     1
  9
$TEXTSIZE
 40
0.2
  9
$TRACEWID
 40
0.05
  9
$TEXTSTYLE
  7
Standard
  9
$CLAYER
  8
0
  9
$CELTYPE
  6
ByLayer
  9
$CECOLOR
 62
   256
  9
$CELTSCALE
 40
1.0
  9
$DISPSILH
 70
     0
  9
$DIMSCALE
 40
1.0
  9
$DIMASZ
 40
0.18
  9
$DIMEXO
 40
0.0625
  9
$DIMDLI
 40
0.38
  9
$DIMRND
 40
0.0
  9
$DIMDLE
 40
0.0
  9
$DIMEXE
 40
0.18
  9
$DIMTP
 40
0.0
  9
$DIMTM
 40
0.0
  9
$DIMTXT
 40
0.18
  9
$DIMCEN
 40
0.09
  9
$DIMTSZ
 40
0.0
  9
$DIMTOL
 70
     0
  9
$DIMLIM
 70
     0
  9
$DIMTIH
 70
     1
  9
$DIMTOH
 70
     1
  9
$DIMSE1
 70
     0
  9
$DIMSE2
 70
     0
  9
$DIMTAD
 70
     0
  9
$DIMZIN
 70
     0
  9
$DIMBLK
  1

  9
$DIMASO
 70
     1
  9
$DIMSHO
 70
     1
  9
$DIMPOST
  1

  9
$DIMAPOST
  1

  9
$DIMALT
 70
     0
  9
$DIMALTD
 70
     2
  9
$DIMALTF
 40
25.4
  9
$DIMLFAC
 40
1.0
  9
$DIMTOFL
 70
     0
  9
$DIMTVP
 40
0.0
  9
$DIMTIX
 70
     0
  9
$DIMSOXD
 70
     0
  9
$DIMSAH
 70
     0
  9
$DIMBLK1
  1

  9
$DIMBLK2
  1

  9
$DIMSTYLE
  2
Standard
  9
$DIMCLRD
 70
     0
  9
$DIMCLRE
 70
     0
  9
$DIMCLRT
 70
     0
  9
$DIMTFAC
 40
1.0
  9
$DIMGAP
 40
0.09
  9
$DIMJUST
 70
     0
  9
$DIMSD1
 70
     0
  9
$DIMSD2
 70
     0
  9
$DIMTOLJ
 70
     1
  9
$DIMTZIN
 70
     0
  9
$DIMALTZ
 70
     0
  9
$DIMALTTZ
 70
     0
  9
$DIMUPT
 70
     0
  9
$DIMDEC
 70
     4
  9
$DIMTDEC
 70
     4
  9
$DIMALTU
 70
     2
  9
$DIMALTTD
 70
     2
  9
$DIMTXSTY
  7
Standard
  9
$DIMAUNIT
 70
     0
  9
$DIMADEC
 70
     0
  9
$DIMALTRND
 40
0.0
  9
$DIMAZIN
 70
     0
  9
$DIMDSEP
 70
    46
  9
$DIMATFIT
 70
     3
  9
$DIMFRAC
 70
     0
  9
$DIMLDRBLK
  1

  9
$DIMLUNIT
 70
     2
  9
$DIMLWD
 70
    -2
  9
$DIMLWE
 70
    -2
  9
$DIMTMOVE
 70
     0
  9
$LUNITS
 70
     2
  9
$LUPREC
 70
     4
  9
$SKETCHINC
 40
0.1
  9
$FILLETRAD
 40
0.5
  9
$AUNITS
 70
     0
  9
$AUPREC
 70
     0
  9
$MENU
  1
.
  9
$ELEVATION
 40
0.0
  9
$PELEVATION
 40
0.0
  9
$THICKNESS
 40
0.0
  9
$LIMCHECK
 70
     0
  9
$CHAMFERA
 40
0.0
  9
$CHAMFERB
 40
0.0
  9
$CHAMFERC
 40
0.0
  9
$CHAMFERD
 40
0.0
  9
$SKPOLY
 70
     0
  9
$TDCREATE
 40
2458831.426331019
  9
$TDUCREATE
 40
2458831.384674572
  9
$TDUPDATE
 40
2458831.430277778
  9
$TDUUPDATE
 40
2458831.388611112
  9
$TDINDWG
 40
0.0017361227
  9
$TDUSRTIMER
 40
0.0017361227
  9
$USRTIMER
 70
     1
  9
$ANGBASE
 50
0.0
  9
$ANGDIR
 70
     0
  9
$PDMODE
 70
     0
  9
$PDSIZE
 40
0.0
  9
$PLINEWID
 40
0.0
  9
$SPLFRAME
 70
     0
  9
$SPLINETYPE
 70
     6
  9
$SPLINESEGS
 70
     8
  9
$HANDSEED
  5
3E9
  9
$SURFTAB1
 70
     6
  9
$SURFTAB2
 70
     6
  9
$SURFTYPE
 70
     6
  9
$SURFU
 70
     6
  9
$SURFV
 70
     6
  9
$UCSBASE
  2

  9
$UCSNAME
  2

  9
$UCSORG
 10
237.144248
 20
243.731161
 30
0.0
  9
$UCSXDIR
 10
1.0
 20
0.0
 30
0.0
  9
$UCSYDIR
 10
0.0
 20
1.0
 30
0.0
  9
$UCSORTHOREF
  2

  9
$UCSORTHOVIEW
 70
     0
  9
$UCSORGTOP
 10
0.0
 20
0.0
 30
0.0
  9
$UCSORGBOTTOM
 10
0.0
 20
0.0
 30
0.0
  9
$UCSORGLEFT
 10
0.0
 20
0.0
 30
0.0
  9
$UCSORGRIGHT
 10
0.0
 20
0.0
 30
0.0
  9
$UCSORGFRONT
 10
0.0
 20
0.0
 30
0.0
  9
$UCSORGBACK
 10
0.0
 20
0.0
 30
0.0
  9
$PUCSBASE
  2

  9
$PUCSNAME
  2

  9
$PUCSORG
 10
0.0
 20
0.0
 30
0.0
  9
$PUCSXDIR
 10
1.0
 20
0.0
 30
0.0
  9
$PUCSYDIR
 10
0.0
 20
1.0
 30
0.0
  9
$PUCSORTHOREF
  2

  9
$PUCSORTHOVIEW
 70
     0
  9
$PUCSORGTOP
 10
0.0
 20
0.0
 30
0.0
  9
$PUCSORGBOTTOM
 10
0.0
 20
0.0
 30
0.0
  9
$PUCSORGLEFT
 10
0.0
 20
0.0
 30
0.0
  9
$PUCSORGRIGHT
 10
0.0
 20
0.0
 30
0.0
  9
$PUCSORGFRONT
 10
0.0
 20
0.0
 30
0.0
  9
$PUCSORGBACK
 10
0.0
 20
0.0
 30
0.0
  9
$USERI1
 70
     0
  9
$USERI2
 70
     0
  9
$USERI3
 70
     0
  9
$USERI4
 70
     0
  9
$USERI5
 70
     0
  9
$USERR1
 40
0.0
  9
$USERR2
 40
0.0
  9
$USERR3
 40
0.0
  9
$USERR4
 40
0.0
  9
$USERR5
 40
0.0
  9
$WORLDVIEW
 70
     1
  9
$SHADEDGE
 70
     3
  9
$SHADEDIF
 70
    70
  9
$TILEMODE
 70
     1
  9
$MAXACTVP
 70
    64
  9
$PINSBASE
 10
0.0
 20
0.0
 30
0.0
  9
$PLIMCHECK
 70
     0
  9
$PEXTMIN
 10
-0.5
 20
-0.5
 30
-0.5
  9
$PEXTMAX
 10
5.0
 20
5.0
 30
5.0
  9
$PLIMMIN
 10
-0.5
 20
-0.5
  9
$PLIMMAX
 10
5.0
 20
5.0
  9
$UNITMODE
 70
     0
  9
$VISRETAIN
 70
     1
  9
$PLINEGEN
 70
     0
  9
$PSLTSCALE
 70
     1
  9
$TREEDEPTH
 70
  3020
  9
$CMLSTYLE
  2
Standard
  9
$CMLJUST
 70
     0
  9
$CMLSCALE
 40
1.0
  9
$PROXYGRAPHICS
 70
     1
  9
$MEASUREMENT
 70
     1
  9
$CELWEIGHT
370
    13
  9
$ENDCAPS
280
     0
  9
$JOINSTYLE
280
     0
  9
$LWDISPLAY
290
     0
  9
$INSUNITS
 70
     4
  9
$HYPERLINKBASE
  1

  9
$STYLESHEET
  1

  9
$XEDIT
290
     1
  9
$CEPSNTYPE
380
     0
  9
$PSTYLEMODE
290
     1
  9
$FINGERPRINTGUID
  2
{02D93376-9B67-43C0-8F87-8F19C22BA582}
  9
$VERSIONGUID
  2
{F9B401C2-A9E5-D243-9B66-80F03816C203}
  9
$EXTNAMES
290
     1
  9
$PSVPSCALE
 40
0.0
  9
$OLESTARTUP
290
     0
  9
$SORTENTS
280
   127
  9
$INDEXCTL
280
     0
  9
$HIDETEXT
280
     1
  9
$XCLIPFRAME
290
     0
  9
$HALOGAP
280
     0
  9
$OBSCOLOR
 70
   257
  9
$OBSLTYPE
280
     0
  9
$INTERSECTIONDISPLAY
280
     0
  9
$INTERSECTIONCOLOR
 70
   257
  9
$DIMASSOC
280
     2
  9
$PROJECTNAME
  1

  0
ENDSEC
  0
SECTION
  2
CLASSES
  0
CLASS
  1
ACDBDICTIONARYWDFLT
  2
AcDbDictionaryWithDefault
  3
ObjectDBX Classes
 90
        0
 91
        1
280
     0
281
     0
  0
CLASS
  1
VISUALSTYLE
  2
AcDbVisualStyle
  3
ObjectDBX Classes
 90
     4095
 91
       24
280
     0
281
     0
  0
CLASS
  1
MATERIAL
  2
AcDbMaterial
  3
ObjectDBX Classes
 90
     1153
 91
        3
280
     0
281
     0
  0
CLASS
  1
SCALE
  2
AcDbScale
  3
ObjectDBX Classes
 90
     1153
 91
       33
280
     0
281
     0
  0
CLASS
  1
TABLESTYLE
  2
AcDbTableStyle
  3
ObjectDBX Classes
 90
     4095
 91
        1
280
     0
281
     0
  0
CLASS
  1
MLEADERSTYLE
  2
AcDbMLeaderStyle
  3
ACDB_MLEADERSTYLE_CLASS
 90
     4095
 91
        1
280
     0
281
     0
  0
CLASS
  1
SUN
  2
AcDbSun
  3
SCENEOE
 90
     1153
 91
        0
280
     0
281
     0
  0
CLASS
  1
IMAGEDEF
  2
AcDbRasterImageDef
  3
ISM
 90
        0
 91
        1
280
     0
281
     0
  0
CLASS
  1
IMAGE
  2
AcDbRasterImage
  3
ISM
 90
     2175
 91
        1
280
     0
281
     1
  0
CLASS
  1
IMAGEDEF_REACTOR
  2
AcDbRasterImageDefReactor
  3
ISM
 90
        1
 91
        1
280
     0
281
     0
  0
CLASS
  1
DIMASSOC
  2
AcDbDimAssoc
  3
"AcDbDimAssoc|Product Desc:     AcDim ARX App For Dimension|Company:          Autodesk, Inc.|WEB Address:      www.autodesk.com"
 90
        0
 91
        6
280
     0
281
     0
  0
CLASS
  1
DICTIONARYVAR
  2
AcDbDictionaryVar
  3
ObjectDBX Classes
 90
        0
 91
        8
280
     0
281
     0
  0
CLASS
  1
CELLSTYLEMAP
  2
AcDbCellStyleMap
  3
ObjectDBX Classes
 90
     1152
 91
        2
280
     0
281
     0
  0
CLASS
  1
ACDBSECTIONVIEWSTYLE
  2
AcDbSectionViewStyle
  3
ObjectDBX Classes
 90
     1025
 91
        1
280
     0
281
     0
  0
CLASS
  1
ACDBDETAILVIEWSTYLE
  2
AcDbDetailViewStyle
  3
ObjectDBX Classes
 90
     1025
 91
        1
280
     0
281
     0
  0
CLASS
  1
RASTERVARIABLES
  2
AcDbRasterVariables
  3
ISM
 90
        0
 91
        1
280
     0
281
     0
  0
CLASS
  1
SORTENTSTABLE
  2
AcDbSortentsTable
  3
ObjectDBX Classes
 90
        0
 91
        1
280
     0
281
     0
  0
ENDSEC
  0
SECTION
  2
TABLES
  0
TABLE
  2
VPORT
  5
8
330
0
100
AcDbSymbolTable
 70
    16
  0
VPORT
  5
29
330
8
100
AcDbSymbolTableRecord
100
AcDbViewportTableRecord
  2
*Active
 70
     0
 10
0.0
 20
0.0
 11
1.0
 21
1.0
 12
315.1501936025779
 22
266.7002015866134
 13
0.0
 23
0.0
 14
0.5
 24
0.5
 15
0.5
 25
0.5
 16
0.0
 26
0.0
 36
1.0
 17
0.0
 27
0.0
 37
0.0
 40
176.011367786316
 41
2.188141391106043
 42
50.0
 43
763.1318
 44
-763.1318
 50
0.0
 51
0.0
 71
     0
 72
   100
 73
     1
 74
     3
 75
     0
 76
     0
 77
     0
 78
     0
281
     0
 65
     1
110
237.144248
120
243.731161
130
0.0
111
1.0
121
0.0
131
0.0
112
0.0
122
1.0
132
0.0
 79
     0
146
0.0
1001
ACAD_NAV_VCDISPLAY
1070
     3
  0
VPORT
  5
1BC
330
8
100
AcDbSymbolTableRecord
100
AcDbViewportTableRecord
  2
L1
 70
     0
 10
0.0
 20
0.0
 11
1.0
 21
1.0
 12
376.925542
 22
158.597266
 13
0.0
 23
0.0
 14
0.5
 24
0.5
 15
0.5
 25
0.5
 16
0.0
 26
0.0
 36
1.0
 17
0.0
 27
0.0
 37
0.0
 40
207.433333
 41
0.085602
 42
50.0
 43
763.1318
 44
-763.1318
 50
0.0
 51
0.0
 71
     0
 72
   100
 73
     1
 74
     3
 75
     0
 76
     0
 77
     0
 78
     0
281
     0
 65
     1
110
0.0
120
0.0
130
0.0
111
1.0
121
0.0
131
0.0
112
0.0
122
1.0
132
0.0
 79
     0
146
0.0
  0
VPORT
  5
1BD
330
8
100
AcDbSymbolTableRecord
100
AcDbViewportTableRecord
  2
L2
 70
     0
 10
0.0
 20
0.0
 11
0.5
 21
1.0
 12
0.0
 22
0.0
 13
0.0
 23
0.0
 14
0.5
 24
0.5
 15
0.5
 25
0.5
 16
0.0
 26
-1.0
 36
0.0
 17
0.0
 27
0.0
 37
0.0
 40
1478.660809
 41
0.012009
 42
50.0
 43
765.39502
 44
-765.39502
 50
0.0
 51
0.0
 71
     0
 72
   100
 73
     1
 74
     3
 75
     0
 76
     0
 77
     0
 78
     0
281
     0
 65
     1
110
0.0
120
0.0
130
0.0
111
1.0
121
0.0
131
0.0
112
0.0
122
1.0
132
0.0
 79
     0
146
0.0
  0
VPORT
  5
1BE
330
8
100
AcDbSymbolTableRecord
100
AcDbViewportTableRecord
  2
L2
 70
     0
 10
0.5
 20
0.0
 11
1.0
 21
1.0
 12
0.0
 22
0.0
 13
0.0
 23
0.0
 14
0.5
 24
0.5
 15
0.5
 25
0.5
 16
1.0
 26
0.0
 36
0.0
 17
0.0
 27
0.0
 37
0.0
 40
1478.660809
 41
0.012009
 42
50.0
 43
746.5698859999999
 44
-746.5698859999999
 50
0.0
 51
0.0
 71
     0
 72
   100
 73
     1
 74
     3
 75
     0
 76
     0
 77
     0
 78
     0
281
     0
 65
     1
110
0.0
120
0.0
130
0.0
111
1.0
121
0.0
131
0.0
112
0.0
122
1.0
132
0.0
 79
     0
146
0.0
  0
VPORT
  5
1BF
330
8
100
AcDbSymbolTableRecord
100
AcDbViewportTableRecord
  2
L3
 70
     0
 10
0.0
 20
0.5
 11
1.0
 21
1.0
 12
376.925542
 22
158.597266
 13
0.0
 23
0.0
 14
0.5
 24
0.5
 15
0.5
 25
0.5
 16
0.0
 26
0.0
 36
1.0
 17
0.0
 27
0.0
 37
0.0
 40
207.433333
 41
0.085602
 42
50.0
 43
763.1318
 44
-763.1318
 50
0.0
 51
0.0
 71
     0
 72
   100
 73
     1
 74
     3
 75
     0
 76
     0
 77
     0
 78
     0
281
     0
 65
     1
110
0.0
120
0.0
130
0.0
111
1.0
121
0.0
131
0.0
112
0.0
122
1.0
132
0.0
 79
     0
146
0.0
  0
VPORT
  5
1C0
330
8
100
AcDbSymbolTableRecord
100
AcDbViewportTableRecord
  2
L3
 70
     0
 10
0.0
 20
0.0
 11
1.0
 21
0.5
 12
0.0
 22
0.0
 13
0.0
 23
0.0
 14
0.5
 24
0.5
 15
0.5
 25
0.5
 16
0.0
 26
-1.0
 36
0.0
 17
0.0
 27
0.0
 37
0.0
 40
1478.660809
 41
0.012009
 42
50.0
 43
765.39502
 44
-765.39502
 50
0.0
 51
0.0
 71
     0
 72
   100
 73
     1
 74
     3
 75
     0
 76
     0
 77
     0
 78
     0
281
     0
 65
     1
110
0.0
120
0.0
130
0.0
111
1.0
121
0.0
131
0.0
112
0.0
122
1.0
132
0.0
 79
     0
146
0.0
  0
VPORT
  5
1C1
330
8
100
AcDbSymbolTableRecord
100
AcDbViewportTableRecord
  2
L4
 70
     0
 10
0.0
 20
0.5
 11
0.5
 21
1.0
 12
376.925542
 22
158.597266
 13
0.0
 23
0.0
 14
0.5
 24
0.5
 15
0.5
 25
0.5
 16
0.0
 26
0.0
 36
1.0
 17
0.0
 27
0.0
 37
0.0
 40
207.433333
 41
0.085602
 42
50.0
 43
763.1318
 44
-763.1318
 50
0.0
 51
0.0
 71
     0
 72
   100
 73
     1
 74
     3
 75
     0
 76
     0
 77
     0
 78
     0
281
     0
 65
     1
110
0.0
120
0.0
130
0.0
111
1.0
121
0.0
131
0.0
112
0.0
122
1.0
132
0.0
 79
     0
146
0.0
  0
VPORT
  5
1C2
330
8
100
AcDbSymbolTableRecord
100
AcDbViewportTableRecord
  2
L4
 70
     0
 10
0.0
 20
0.0
 11
0.5
 21
0.5
 12
0.0
 22
0.0
 13
0.0
 23
0.0
 14
0.5
 24
0.5
 15
0.5
 25
0.5
 16
0.0
 26
-1.0
 36
0.0
 17
0.0
 27
0.0
 37
0.0
 40
1478.660809
 41
0.012009
 42
50.0
 43
765.39502
 44
-765.39502
 50
0.0
 51
0.0
 71
     0
 72
   100
 73
     1
 74
     3
 75
     0
 76
     0
 77
     0
 78
     0
281
     0
 65
     1
110
0.0
120
0.0
130
0.0
111
1.0
121
0.0
131
0.0
112
0.0
122
1.0
132
0.0
 79
     0
146
0.0
  0
VPORT
  5
1C3
330
8
100
AcDbSymbolTableRecord
100
AcDbViewportTableRecord
  2
L4
 70
     0
 10
0.5
 20
0.0
 11
1.0
 21
0.5
 12
0.0
 22
0.0
 13
0.0
 23
0.0
 14
0.5
 24
0.5
 15
0.5
 25
0.5
 16
1.0
 26
0.0
 36
0.0
 17
0.0
 27
0.0
 37
0.0
 40
1478.660809
 41
0.012009
 42
50.0
 43
746.5698859999999
 44
-746.5698859999999
 50
0.0
 51
0.0
 71
     0
 72
   100
 73
     1
 74
     3
 75
     0
 76
     0
 77
     0
 78
     0
281
     0
 65
     1
110
0.0
120
0.0
130
0.0
111
1.0
121
0.0
131
0.0
112
0.0
122
1.0
132
0.0
 79
     0
146
0.0
  0
VPORT
  5
1C4
330
8
100
AcDbSymbolTableRecord
100
AcDbViewportTableRecord
  2
L4
 70
     0
 10
0.5
 20
0.5
 11
1.0
 21
1.0
 12
0.0
 22
0.0
 13
0.0
 23
0.0
 14
0.5
 24
0.5
 15
0.5
 25
0.5
 16
0.5773502691896259
 26
-0.5773502691896259
 36
0.5773502691896259
 17
0.0
 27
0.0
 37
0.0
 40
1453.705292
 41
0.012215
 42
50.0
 43
757.5245879999999
 44
-757.5245879999999
 50
0.0
 51
0.0
 71
     0
 72
   100
 73
     1
 74
     3
 75
     0
 76
     0
 77
     0
 78
     0
281
     0
 65
     1
110
0.0
120
0.0
130
0.0
111
1.0
121
0.0
131
0.0
112
0.0
122
1.0
132
0.0
 79
     0
146
0.0
  0
VPORT
  5
1C5
330
8
100
AcDbSymbolTableRecord
100
AcDbViewportTableRecord
  2
L6
 70
     0
 10
0.0
 20
0.5
 11
0.333333
 21
1.0
 12
0.0
 22
0.0
 13
0.0
 23
0.0
 14
0.5
 24
0.5
 15
0.5
 25
0.5
 16
0.7188730927569434
 26
-0.5850486126764433
 36
0.3754192287502549
 17
0.0
 27
0.0
 37
0.0
 40
1534.989881
 41
0.011568
 42
50.0
 43
794.5176169999999
 44
-794.5176169999999
 50
0.0
 51
0.0
 71
     0
 72
   100
 73
     1
 74
     3
 75
     0
 76
     0
 77
     0
 78
     0
281
     0
 65
     1
110
0.0
120
0.0
130
0.0
111
1.0
121
0.0
131
0.0
112
0.0
122
1.0
132
0.0
 79
     0
146
0.0
  0
VPORT
  5
1C6
330
8
100
AcDbSymbolTableRecord
100
AcDbViewportTableRecord
  2
L6
 70
     0
 10
0.0
 20
0.0
 11
0.333333
 21
0.5
 12
0.0
 22
0.0
 13
0.0
 23
0.0
 14
0.5
 24
0.5
 15
0.5
 25
0.5
 16
-1.0
 26
0.0
 36
0.0
 17
0.0
 27
0.0
 37
0.0
 40
1478.660809
 41
0.012009
 42
50.0
 43
746.5698859999999
 44
-746.5698859999999
 50
0.0
 51
0.0
 71
     0
 72
   100
 73
     1
 74
     3
 75
     0
 76
     0
 77
     0
 78
     0
281
     0
 65
     1
110
0.0
120
0.0
130
0.0
111
1.0
121
0.0
131
0.0
112
0.0
122
1.0
132
0.0
 79
     0
146
0.0
  0
VPORT
  5
1C7
330
8
100
AcDbSymbolTableRecord
100
AcDbViewportTableRecord
  2
L6
 70
     0
 10
0.333333
 20
0.5
 11
0.666667
 21
1.0
 12
376.925542
 22
158.597266
 13
0.0
 23
0.0
 14
0.5
 24
0.5
 15
0.5
 25
0.5
 16
0.0
 26
0.0
 36
1.0
 17
0.0
 27
0.0
 37
0.0
 40
207.433333
 41
0.085602
 42
50.0
 43
763.1318
 44
-763.1318
 50
0.0
 51
0.0
 71
     0
 72
   100
 73
     1
 74
     3
 75
     0
 76
     0
 77
     0
 78
     0
281
     0
 65
     1
110
0.0
120
0.0
130
0.0
111
1.0
121
0.0
131
0.0
112
0.0
122
1.0
132
0.0
 79
     0
146
0.0
  0
VPORT
  5
1C8
330
8
100
AcDbSymbolTableRecord
100
AcDbViewportTableRecord
  2
L6
 70
     0
 10
0.333333
 20
0.0
 11
0.666667
 21
0.5
 12
0.0
 22
0.0
 13
0.0
 23
0.0
 14
0.5
 24
0.5
 15
0.5
 25
0.5
 16
0.0
 26
-1.0
 36
0.0
 17
0.0
 27
0.0
 37
0.0
 40
1478.660809
 41
0.012009
 42
50.0
 43
765.39502
 44
-765.39502
 50
0.0
 51
0.0
 71
     0
 72
   100
 73
     1
 74
     3
 75
     0
 76
     0
 77
     0
 78
     0
281
     0
 65
     1
110
0.0
120
0.0
130
0.0
111
1.0
121
0.0
131
0.0
112
0.0
122
1.0
132
0.0
 79
     0
146
0.0
  0
VPORT
  5
1C9
330
8
100
AcDbSymbolTableRecord
100
AcDbViewportTableRecord
  2
L6
 70
     0
 10
0.666667
 20
0.5
 11
1.0
 21
1.0
 12
0.0
 22
0.0
 13
0.0
 23
0.0
 14
0.5
 24
0.5
 15
0.5
 25
0.5
 16
0.5773502691896259
 26
-0.5773502691896259
 36
0.5773502691896259
 17
0.0
 27
0.0
 37
0.0
 40
1453.705292
 41
0.012215
 42
50.0
 43
757.5245879999999
 44
-757.5245879999999
 50
0.0
 51
0.0
 71
     0
 72
   100
 73
     1
 74
     3
 75
     0
 76
     0
 77
     0
 78
     0
281
     0
 65
     1
110
0.0
120
0.0
130
0.0
111
1.0
121
0.0
131
0.0
112
0.0
122
1.0
132
0.0
 79
     0
146
0.0
  0
VPORT
  5
1CA
330
8
100
AcDbSymbolTableRecord
100
AcDbViewportTableRecord
  2
L6
 70
     0
 10
0.666667
 20
0.0
 11
1.0
 21
0.5
 12
0.0
 22
0.0
 13
0.0
 23
0.0
 14
0.5
 24
0.5
 15
0.5
 25
0.5
 16
1.0
 26
0.0
 36
0.0
 17
0.0
 27
0.0
 37
0.0
 40
1478.660809
 41
0.012009
 42
50.0
 43
746.5698859999999
 44
-746.5698859999999
 50
0.0
 51
0.0
 71
     0
 72
   100
 73
     1
 74
     3
 75
     0
 76
     0
 77
     0
 78
     0
281
     0
 65
     1
110
0.0
120
0.0
130
0.0
111
1.0
121
0.0
131
0.0
112
0.0
122
1.0
132
0.0
 79
     0
146
0.0
  0
ENDTAB
  0
TABLE
  2
LTYPE
  5
5
330
0
100
AcDbSymbolTable
 70
     8
  0
LTYPE
  5
14
330
5
100
AcDbSymbolTableRecord
100
AcDbLinetypeTableRecord
  2
ByBlock
 70
     0
  3

 72
    65
 73
     0
 40
0.0
  0
LTYPE
  5
15
330
5
100
AcDbSymbolTableRecord
100
AcDbLinetypeTableRecord
  2
ByLayer
 70
     0
  3

 72
    65
 73
     0
 40
0.0
  0
LTYPE
  5
16
330
5
100
AcDbSymbolTableRecord
100
AcDbLinetypeTableRecord
  2
Continuous
 70
     0
  3
Solid line
 72
    65
 73
     0
 40
0.0
  0
LTYPE
  5
6E
330
5
100
AcDbSymbolTableRecord
100
AcDbLinetypeTableRecord
  2
CENTER
 70
     0
  3
____ _ ____ _ ____ _ ____
 72
    65
 73
     4
 40
47.4
 49
22.0
 74
     4
 75
     0
340
0
 46
0.0
 50
0.0
 44
0.0
 45
0.0
 49
-8.5
 74
     4
 75
     0
340
0
 46
0.0
 50
0.0
 44
0.0
 45
0.0
 49
8.5
 74
     4
 75
     0
340
0
 46
0.0
 50
0.0
 44
0.0
 45
0.0
 49
-8.5
 74
     4
 75
     0
340
0
 46
0.0
 50
0.0
 44
0.0
 45
0.0
  0
LTYPE
  5
6F
330
5
100
AcDbSymbolTableRecord
100
AcDbLinetypeTableRecord
  2
DASHDOT
 70
     0
  3
_._._._._._._._._._._._._._._._.
 72
    65
 73
     4
 40
70.0
 49
31.0
 74
     4
 75
     0
340
0
 46
0.0
 50
0.0
 44
0.0
 45
0.0
 49
-13.0
 74
     4
 75
     0
340
0
 46
0.0
 50
0.0
 44
0.0
 45
0.0
 49
13.0
 74
     4
 75
     0
340
0
 46
0.0
 50
0.0
 44
0.0
 45
0.0
 49
-13.0
 74
     4
 75
     0
340
0
 46
0.0
 50
0.0
 44
0.0
 45
0.0
  0
LTYPE
  5
70
330
5
100
AcDbSymbolTableRecord
100
AcDbLinetypeTableRecord
  2
DASHED
 70
     0
  3
__ __ __ __ __ __ __ __ __
 72
    65
 73
     2
 40
25.72
 49
12.86
 74
     4
 75
     0
340
0
 46
0.0
 50
0.0
 44
0.0
 45
0.0
 49
-12.86
 74
     4
 75
     0
340
0
 46
0.0
 50
0.0
 44
0.0
 45
0.0
  0
LTYPE
  5
71
330
5
100
AcDbSymbolTableRecord
100
AcDbLinetypeTableRecord
  2
DOT
 70
     0
  3
.........................
 72
    65
 73
     2
 40
10.0
 49
0.0
 74
     4
 75
     0
340
0
 46
0.0
 50
0.0
 44
0.0
 45
0.0
 49
-10.0
 74
     4
 75
     0
340
0
 46
0.0
 50
0.0
 44
0.0
 45
0.0
  0
LTYPE
  5
72
330
5
100
AcDbSymbolTableRecord
100
AcDbLinetypeTableRecord
  2
PHANTOM
 70
     0
  3
____ _ _ ____ _ _ _____ _ _ ____
 72
    65
 73
     6
 40
50.5
 49
18.0
 74
     4
 75
     0
340
0
 46
0.0
 50
0.0
 44
0.0
 45
0.0
 49
-6.5
 74
     4
 75
     0
340
0
 46
0.0
 50
0.0
 44
0.0
 45
0.0
 49
6.5
 74
     4
 75
     0
340
0
 46
0.0
 50
0.0
 44
0.0
 45
0.0
 49
-6.5
 74
     4
 75
     0
340
0
 46
0.0
 50
0.0
 44
0.0
 45
0.0
 49
6.5
 74
     4
 75
     0
340
0
 46
0.0
 50
0.0
 44
0.0
 45
0.0
 49
-6.5
 74
     4
 75
     0
340
0
 46
0.0
 50
0.0
 44
0.0
 45
0.0
  0
LTYPE
  5
378
330
5
100
AcDbSymbolTableRecord
100
AcDbLinetypeTableRecord
  2
CENTER2
 70
     0
  3
Center (.5x) ___ _ ___ _ ___ _ ___ _ ___ _ ___
 72
    65
 73
     4
 40
1.125
 49
0.75
 74
     0
 49
-0.125
 74
     0
 49
0.125
 74
     0
 49
-0.125
 74
     0
  0
ENDTAB
  0
TABLE
  2
LAYER
  5
2
102
{ACAD_XDICTIONARY
360
3A0
102
}
330
0
100
AcDbSymbolTable
 70
    22
  0
LAYER
  5
10
102
{ACAD_XDICTIONARY
360
385
102
}
330
2
100
AcDbSymbolTableRecord
100
AcDbLayerTableRecord
  2
0
 70
     0
 62
     7
  6
Continuous
370
    -3
390
F
  0
LAYER
  5
12A
330
2
100
AcDbSymbolTableRecord
100
AcDbLayerTableRecord
  2
Defpoints
 70
     0
 62
     7
  6
Continuous
290
     0
370
    -3
390
F
  0
LAYER
  5
375
102
{ACAD_XDICTIONARY
360
387
102
}
330
2
100
AcDbSymbolTableRecord
100
AcDbLayerTableRecord
  2
1
 70
     0
 62
     4
  6
Continuous
370
    -3
390
F
  0
LAYER
  5
376
102
{ACAD_XDICTIONARY
360
389
102
}
330
2
100
AcDbSymbolTableRecord
100
AcDbLayerTableRecord
  2
2
 70
     0
 62
     7
  6
Continuous
370
    -3
390
F
  0
LAYER
  5
377
102
{ACAD_XDICTIONARY
360
38B
102
}
330
2
100
AcDbSymbolTableRecord
100
AcDbLayerTableRecord
  2
4
 70
     0
 62
     2
  6
CENTER2
370
    -3
390
F
  0
LAYER
  5
379
102
{ACAD_XDICTIONARY
360
38D
102
}
330
2
100
AcDbSymbolTableRecord
100
AcDbLayerTableRecord
  2
SK1
 70
     0
 62
     4
  6
Continuous
370
    -3
390
F
  0
LAYER
  5
37A
102
{ACAD_XDICTIONARY
360
38F
102
}
330
2
100
AcDbSymbolTableRecord
100
AcDbLayerTableRecord
  2
SK2
 70
     0
 62
     7
  6
Continuous
370
    -3
390
F
  0
LAYER
  5
37C
102
{ACAD_XDICTIONARY
360
391
102
}
330
2
100
AcDbSymbolTableRecord
100
AcDbLayerTableRecord
  2
SK4
 70
     0
 62
     2
  6
CENTER2
370
    -3
390
F
  0
LAYER
  5
37D
102
{ACAD_XDICTIONARY
360
393
102
}
330
2
100
AcDbSymbolTableRecord
100
AcDbLayerTableRecord
  2
SK6
 70
     0
 62
     5
  6
Continuous
370
    -3
390
F
  0
LAYER
  5
37E
102
{ACAD_XDICTIONARY
360
395
102
}
330
2
100
AcDbSymbolTableRecord
100
AcDbLayerTableRecord
  2
CUT
 70
     0
 62
     1
  6
Continuous
370
    -3
390
F
  0
LAYER
  5
37F
102
{ACAD_XDICTIONARY
360
397
102
}
330
2
100
AcDbSymbolTableRecord
100
AcDbLayerTableRecord
  2
NOCUT
 70
     0
 62
     7
  6
Continuous
370
    -3
390
F
  0
LAYER
  5
380
102
{ACAD_XDICTIONARY
360
399
102
}
330
2
100
AcDbSymbolTableRecord
100
AcDbLayerTableRecord
  2
80
 70
     0
 62
     6
  6
Continuous
370
    -3
390
F
  0
LAYER
  5
381
102
{ACAD_XDICTIONARY
360
39B
102
}
330
2
100
AcDbSymbolTableRecord
100
AcDbLayerTableRecord
  2
81
 70
     0
 62
     3
  6
Continuous
370
    -3
390
F
  0
ENDTAB
  0
TABLE
  2
STYLE
  5
3
330
0
100
AcDbSymbolTable
 70
     3
  0
STYLE
  5
11
330
3
100
AcDbSymbolTableRecord
100
AcDbTextStyleTableRecord
  2
Standard
 70
     0
 40
0.0
 41
1.0
 50
0.0
 71
     0
 42
0.2
  3
txt
  4

  0
STYLE
  5
11A
330
3
100
AcDbSymbolTableRecord
100
AcDbTextStyleTableRecord
  2
cesky
 70
     0
 40
0.0
 41
1.0
 50
0.0
 71
     0
 42
0.2
  3
simplex.shx
  4

  0
STYLE
  5
11B
330
3
100
AcDbSymbolTableRecord
100
AcDbTextStyleTableRecord
  2
DWGDirectTextStyle
 70
     0
 40
0.0
 41
1.0
 50
0.0
 71
     0
 42
0.2
  3
simplex
  4

  0
ENDTAB
  0
TABLE
  2
VIEW
  5
6
330
0
100
AcDbSymbolTable
 70
     1
  0
ENDTAB
  0
TABLE
  2
UCS
  5
7
330
0
100
AcDbSymbolTable
 70
     0
  0
ENDTAB
  0
TABLE
  2
APPID
  5
9
330
0
100
AcDbSymbolTable
 70
     9
  0
APPID
  5
12
330
9
100
AcDbSymbolTableRecord
100
AcDbRegAppTableRecord
  2
ACAD
 70
     0
  0
APPID
  5
126
330
9
100
AcDbSymbolTableRecord
100
AcDbRegAppTableRecord
  2
ACAD_DSTYLE_DIMBREAK
 70
     0
  0
APPID
  5
157
330
9
100
AcDbSymbolTableRecord
100
AcDbRegAppTableRecord
  2
ACAD_DSTYLE_DIMANGULAR_EXTENSION
 70
     0
  0
APPID
  5
1CB
330
9
100
AcDbSymbolTableRecord
100
AcDbRegAppTableRecord
  2
ACAD_DSTYLE_DIM_LINETYPE
 70
     0
  0
APPID
  5
1CC
330
9
100
AcDbSymbolTableRecord
100
AcDbRegAppTableRecord
  2
ACAD_DSTYLE_DIM_EXT1_LINETYPE
 70
     0
  0
APPID
  5
1CD
330
9
100
AcDbSymbolTableRecord
100
AcDbRegAppTableRecord
  2
ACAD_DSTYLE_DIM_EXT2_LINETYPE
 70
     0
  0
APPID
  5
20D
330
9
100
AcDbSymbolTableRecord
100
AcDbRegAppTableRecord
  2
ACAD_MLEADERVER
 70
     0
  0
APPID
  5
383
330
9
100
AcDbSymbolTableRecord
100
AcDbRegAppTableRecord
  2
ACAD_EXEMPT_FROM_CAD_STANDARDS
 70
     0
  0
APPID
  5
3A9
330
9
100
AcDbSymbolTableRecord
100
AcDbRegAppTableRecord
  2
ACAD_NAV_VCDISPLAY
 70
     0
  0
ENDTAB
  0
TABLE
  2
DIMSTYLE
  5
A
330
0
100
AcDbSymbolTable
 70
     1
100
AcDbDimStyleTable
 71
     0
  0
DIMSTYLE
105
27
330
A
100
AcDbSymbolTableRecord
100
AcDbDimStyleTableRecord
  2
Standard
 70
     0
340
11
1001
ACAD_DSTYLE_DIMBREAK
1070
   391
1040
6.349999999999999
  0
ENDTAB
  0
TABLE
  2
BLOCK_RECORD
  5
1
330
0
100
AcDbSymbolTable
 70
    13
  0
BLOCK_RECORD
  5
1F
102
{ACAD_XDICTIONARY
360
21E
102
}
330
1
100
AcDbSymbolTableRecord
100
AcDbBlockTableRecord
  2
*Model_Space
340
22
  0
BLOCK_RECORD
  5
1B
330
1
100
AcDbSymbolTableRecord
100
AcDbBlockTableRecord
  2
*Paper_Space
340
1E
  0
BLOCK_RECORD
  5
23
330
1
100
AcDbSymbolTableRecord
100
AcDbBlockTableRecord
  2
*Paper_Space0
340
26
  0
BLOCK_RECORD
  5
12B
330
1
100
AcDbSymbolTableRecord
100
AcDbBlockTableRecord
  2
*D1
340
0
  0
BLOCK_RECORD
  5
137
330
1
100
AcDbSymbolTableRecord
100
AcDbBlockTableRecord
  2
_U0
340
0
  0
BLOCK_RECORD
  5
143
330
1
100
AcDbSymbolTableRecord
100
AcDbBlockTableRecord
  2
*D3
340
0
  0
BLOCK_RECORD
  5
14E
330
1
100
AcDbSymbolTableRecord
100
AcDbBlockTableRecord
  2
_U1
340
0
  0
BLOCK_RECORD
  5
15A
330
1
100
AcDbSymbolTableRecord
100
AcDbBlockTableRecord
  2
*D5
340
0
  0
BLOCK_RECORD
  5
168
330
1
100
AcDbSymbolTableRecord
100
AcDbBlockTableRecord
  2
_U2
340
0
  0
BLOCK_RECORD
  5
174
330
1
100
AcDbSymbolTableRecord
100
AcDbBlockTableRecord
  2
*D7
340
0
  0
BLOCK_RECORD
  5
180
330
1
100
AcDbSymbolTableRecord
100
AcDbBlockTableRecord
  2
_U3
340
0
  0
BLOCK_RECORD
  5
18C
330
1
100
AcDbSymbolTableRecord
100
AcDbBlockTableRecord
  2
*D9
340
0
  0
BLOCK_RECORD
  5
19A
330
1
100
AcDbSymbolTableRecord
100
AcDbBlockTableRecord
  2
_U4
340
0
  0
BLOCK_RECORD
  5
1A6
330
1
100
AcDbSymbolTableRecord
100
AcDbBlockTableRecord
  2
*D11
340
0
  0
BLOCK_RECORD
  5
1B2
330
1
100
AcDbSymbolTableRecord
100
AcDbBlockTableRecord
  2
_U5
340
0
  0
ENDTAB
  0
ENDSEC
  0
SECTION
  2
BLOCKS
  0
BLOCK
  5
20
330
1F
100
AcDbEntity
  8
0
100
AcDbBlockBegin
  2
*Model_Space
 70
     0
 10
0.0
 20
0.0
 30
0.0
  3
*Model_Space
  1

  0
ENDBLK
  5
21
330
1F
100
AcDbEntity
  8
0
100
AcDbBlockEnd
  0
BLOCK
  5
1C
330
1B
100
AcDbEntity
 67
     1
  8
0
100
AcDbBlockBegin
  2
*Paper_Space
 70
     0
 10
0.0
 20
0.0
 30
0.0
  3
*Paper_Space
  1

  0
ENDBLK
  5
1D
330
1B
100
AcDbEntity
 67
     1
  8
0
100
AcDbBlockEnd
  0
BLOCK
  5
24
330
23
100
AcDbEntity
 67
     1
  8
0
100
AcDbBlockBegin
  2
*Paper_Space0
 70
     0
 10
0.0
 20
0.0
 30
0.0
  3
*Paper_Space0
  1

  0
ENDBLK
  5
25
330
23
100
AcDbEntity
 67
     1
  8
0
100
AcDbBlockEnd
  0
BLOCK
  5
12C
330
12B
100
AcDbEntity
  8
0
100
AcDbBlockBegin
  2
*D1
 70
     1
 10
0.0
 20
0.0
 30
0.0
  3
*D1
  1

  0
LINE
  5
12E
330
12B
100
AcDbEntity
  8
0
 62
    95
370
    -2
100
AcDbLine
 10
389.144248
 20
251.731161
 30
0.0
 11
389.144248
 21
282.156095
 31
0.0
  0
LINE
  5
12F
330
12B
100
AcDbEntity
  8
0
 62
    95
370
    -2
100
AcDbLine
 10
237.144248
 20
243.731161
 30
0.0
 11
237.144248
 21
282.156095
 31
0.0
  0
LINE
  5
130
330
12B
100
AcDbEntity
  8
0
 62
    95
370
    -2
100
AcDbLine
 10
385.644248
 20
281.156095
 30
0.0
 11
240.644248
 21
281.156095
 31
0.0
  0
SOLID
  5
131
330
12B
100
AcDbEntity
  8
0
 62
    95
100
AcDbTrace
 10
385.644248
 20
280.572761
 30
0.0
 11
385.644248
 21
281.739428
 31
0.0
 12
389.144248
 22
281.156095
 32
0.0
 13
389.144248
 23
281.156095
 33
0.0
  0
SOLID
  5
132
330
12B
100
AcDbEntity
  8
0
 62
    95
100
AcDbTrace
 10
240.644248
 20
281.739428
 30
0.0
 11
240.644248
 21
280.572761
 31
0.0
 12
237.144248
 22
281.156095
 32
0.0
 13
237.144248
 23
281.156095
 33
0.0
  0
MTEXT
  5
133
330
12B
100
AcDbEntity
  8
0
 62
    95
370
    13
100
AcDbMText
 10
313.144248
 20
286.406095
 30
0.0
 40
3.5
 41
0.0
 71
     5
 72
     1
  1
\A1;152
  7
cesky
 73
     1
 44
1.0
  0
POINT
  5
134
330
12B
100
AcDbEntity
  8
Defpoints
 62
     0
100
AcDbPoint
 10
389.144248
 20
251.731161
 30
0.0
  0
POINT
  5
135
330
12B
100
AcDbEntity
  8
Defpoints
 62
     0
100
AcDbPoint
 10
237.144248
 20
243.731161
 30
0.0
  0
POINT
  5
136
330
12B
100
AcDbEntity
  8
Defpoints
 62
     0
100
AcDbPoint
 10
237.144248
 20
281.156095
 30
0.0
  0
ENDBLK
  5
12D
330
12B
100
AcDbEntity
  8
0
100
AcDbBlockEnd
  0
BLOCK
  5
13E
330
137
100
AcDbEntity
  8
0
100
AcDbBlockBegin
  2
_U0
 70
     0
 10
0.0
 20
0.0
 30
0.0
  3
_U0
  1

  0
ENDBLK
  5
13F
330
137
100
AcDbEntity
  8
0
100
AcDbBlockEnd
  0
BLOCK
  5
144
330
143
100
AcDbEntity
  8
0
100
AcDbBlockBegin
  2
*D3
 70
     1
 10
0.0
 20
0.0
 30
0.0
  3
*D3
  1

  0
LINE
  5
146
330
143
100
AcDbEntity
  8
0
 62
   254
370
    -2
100
AcDbLine
 10
362.144248
 20
243.731161
 30
0.0
 11
400.2852759999999
 21
243.731161
 31
0.0
  0
LINE
  5
147
330
143
100
AcDbEntity
  8
0
 62
   254
370
    -2
100
AcDbLine
 10
391.144248
 20
251.731161
 30
0.0
 11
400.2852759999999
 21
251.731161
 31
0.0
  0
LINE
  5
148
330
143
100
AcDbEntity
  8
0
 62
   254
370
    -2
100
AcDbLine
 10
399.2852759999999
 20
255.231161
 30
0.0
 11
399.2852759999999
 21
258.731161
 31
0.0
  0
SOLID
  5
149
330
143
100
AcDbEntity
  8
0
 62
   254
100
AcDbTrace
 10
398.7019430000001
 20
255.231161
 30
0.0
 11
399.868609
 21
255.231161
 31
0.0
 12
399.2852759999999
 22
251.731161
 32
0.0
 13
399.2852759999999
 23
251.731161
 33
0.0
  0
MTEXT
  5
14A
330
143
100
AcDbEntity
  8
0
 62
   254
370
    13
100
AcDbMText
 10
394.035276
 20
230.814495
 30
0.0
 40
3.5
 41
0.0
 71
     5
 72
     1
  1
\A1;16
  7
cesky
 11
0.0
 21
1.0
 31
0.0
 73
     1
 44
1.0
  0
POINT
  5
14B
330
143
100
AcDbEntity
  8
Defpoints
 62
     0
100
AcDbPoint
 10
362.144248
 20
243.731161
 30
0.0
  0
POINT
  5
14C
330
143
100
AcDbEntity
  8
Defpoints
 62
     0
100
AcDbPoint
 10
391.144248
 20
251.731161
 30
0.0
  0
POINT
  5
14D
330
143
100
AcDbEntity
  8
Defpoints
 62
     0
100
AcDbPoint
 10
399.2852759999999
 20
251.731161
 30
0.0
  0
ENDBLK
  5
145
330
143
100
AcDbEntity
  8
0
100
AcDbBlockEnd
  0
BLOCK
  5
154
330
14E
100
AcDbEntity
  8
0
100
AcDbBlockBegin
  2
_U1
 70
     0
 10
0.0
 20
0.0
 30
0.0
  3
_U1
  1

  0
ENDBLK
  5
155
330
14E
100
AcDbEntity
  8
0
100
AcDbBlockEnd
  0
BLOCK
  5
15B
330
15A
100
AcDbEntity
  8
0
100
AcDbBlockBegin
  2
*D5
 70
     1
 10
0.0
 20
0.0
 30
0.0
  3
*D5
  1

  0
LINE
  5
15D
330
15A
100
AcDbEntity
  8
0
 62
   254
370
    -2
100
AcDbLine
 10
389.144248
 20
253.731161
 30
0.0
 11
389.144248
 21
268.537734
 31
0.0
  0
LINE
  5
15E
330
15A
100
AcDbEntity
  8
0
 62
   254
370
    -2
100
AcDbLine
 10
383.306112
 20
257.56137
 30
0.0
 11
377.254601
 21
263.612881
 31
0.0
  0
ARC
  5
15F
330
15A
100
AcDbEntity
  8
0
 62
   254
370
    -2
100
AcDbCircle
 10
389.144248
 20
251.723234
 30
0.0
 40
15.81450009810266
100
AcDbArc
 50
102.706489
 51
122.293511
  0
SOLID
  5
160
330
15A
100
AcDbEntity
  8
0
 62
   254
100
AcDbTrace
 10
385.730294
 20
266.570681
 30
0.0
 11
385.601193
 21
267.730182
 31
0.0
 12
389.144248
 22
267.537734
 32
0.0
 13
389.144248
 23
267.537734
 33
0.0
  0
SOLID
  5
161
330
15A
100
AcDbEntity
  8
0
 62
   254
100
AcDbTrace
 10
380.330945
 20
265.547174
 30
0.0
 11
381.059549
 21
264.635995
 31
0.0
 12
377.961708
 22
262.905774
 32
0.0
 13
377.961708
 23
262.905774
 33
0.0
  0
MTEXT
  5
162
330
15A
100
AcDbEntity
  8
0
 62
   254
370
    13
100
AcDbMText
 10
383.474083
 20
272.010235
 30
0.0
 40
3.5
 41
0.0
 71
     5
 72
     1
  1
\A1;45%%d
  7
cesky
 73
     1
 44
1.0
  0
POINT
  5
163
330
15A
100
AcDbEntity
  8
Defpoints
 62
     0
100
AcDbPoint
 10
381.236998
 20
265.418993
 30
0.0
  0
POINT
  5
164
330
15A
100
AcDbEntity
  8
Defpoints
 62
     0
100
AcDbPoint
 10
383.306112
 20
257.56137
 30
0.0
  0
POINT
  5
165
330
15A
100
AcDbEntity
  8
Defpoints
 62
     0
100
AcDbPoint
 10
389.144248
 20
249.731161
 30
0.0
  0
POINT
  5
166
330
15A
100
AcDbEntity
  8
Defpoints
 62
     0
100
AcDbPoint
 10
389.144248
 20
253.731161
 30
0.0
  0
POINT
  5
167
330
15A
100
AcDbEntity
  8
Defpoints
 62
     0
100
AcDbPoint
 10
388.9099339999999
 20
251.957549
 30
0.0
  0
ENDBLK
  5
15C
330
15A
100
AcDbEntity
  8
0
100
AcDbBlockEnd
  0
BLOCK
  5
16F
330
168
100
AcDbEntity
  8
0
100
AcDbBlockBegin
  2
_U2
 70
     0
 10
0.0
 20
0.0
 30
0.0
  3
_U2
  1

  0
ENDBLK
  5
170
330
168
100
AcDbEntity
  8
0
100
AcDbBlockEnd
  0
BLOCK
  5
175
330
174
100
AcDbEntity
  8
0
100
AcDbBlockBegin
  2
*D7
 70
     1
 10
0.0
 20
0.0
 30
0.0
  3
*D7
  1

  0
LINE
  5
177
330
174
100
AcDbEntity
  8
0
 62
    95
370
    -2
100
AcDbLine
 10
389.144248
 20
257.679956
 30
0.0
 11
389.144248
 21
292.240402
 31
0.0
  0
LINE
  5
178
330
174
100
AcDbEntity
  8
0
 62
    95
370
    -2
100
AcDbLine
 10
189.144248
 20
243.731161
 30
0.0
 11
189.144248
 21
292.240402
 31
0.0
  0
LINE
  5
179
330
174
100
AcDbEntity
  8
0
 62
    95
370
    -2
100
AcDbLine
 10
385.644248
 20
291.240402
 30
0.0
 11
192.644248
 21
291.240402
 31
0.0
  0
SOLID
  5
17A
330
174
100
AcDbEntity
  8
0
 62
    95
100
AcDbTrace
 10
385.644248
 20
290.657069
 30
0.0
 11
385.644248
 21
291.823735
 31
0.0
 12
389.144248
 22
291.240402
 32
0.0
 13
389.144248
 23
291.240402
 33
0.0
  0
SOLID
  5
17B
330
174
100
AcDbEntity
  8
0
 62
    95
100
AcDbTrace
 10
192.644248
 20
291.823735
 30
0.0
 11
192.644248
 21
290.657069
 31
0.0
 12
189.144248
 22
291.240402
 32
0.0
 13
189.144248
 23
291.240402
 33
0.0
  0
MTEXT
  5
17C
330
174
100
AcDbEntity
  8
0
 62
    95
370
    13
100
AcDbMText
 10
289.144248
 20
296.490402
 30
0.0
 40
3.5
 41
0.0
 71
     5
 72
     1
  1
\A1;200
  7
cesky
 73
     1
 44
1.0
  0
POINT
  5
17D
330
174
100
AcDbEntity
  8
Defpoints
 62
     0
100
AcDbPoint
 10
389.144248
 20
257.679956
 30
0.0
  0
POINT
  5
17E
330
174
100
AcDbEntity
  8
Defpoints
 62
     0
100
AcDbPoint
 10
189.144248
 20
243.731161
 30
0.0
  0
POINT
  5
17F
330
174
100
AcDbEntity
  8
Defpoints
 62
     0
100
AcDbPoint
 10
189.144248
 20
291.240402
 30
0.0
  0
ENDBLK
  5
176
330
174
100
AcDbEntity
  8
0
100
AcDbBlockEnd
  0
BLOCK
  5
187
330
180
100
AcDbEntity
  8
0
100
AcDbBlockBegin
  2
_U3
 70
     0
 10
0.0
 20
0.0
 30
0.0
  3
_U3
  1

  0
ENDBLK
  5
188
330
180
100
AcDbEntity
  8
0
100
AcDbBlockEnd
  0
BLOCK
  5
18D
330
18C
100
AcDbEntity
  8
0
100
AcDbBlockBegin
  2
*D9
 70
     1
 10
0.0
 20
0.0
 30
0.0
  3
*D9
  1

  0
LINE
  5
18F
330
18C
100
AcDbEntity
  8
0
 62
   254
370
    -2
100
AcDbLine
 10
389.144248
 20
253.010213
 30
0.0
 11
389.144248
 21
259.243281
 31
0.0
  0
LINE
  5
190
330
18C
100
AcDbEntity
  8
0
 62
   254
370
    -2
100
AcDbLine
 10
383.306112
 20
257.56137
 30
0.0
 11
383.306112
 21
259.243281
 31
0.0
  0
LINE
  5
191
330
18C
100
AcDbEntity
  8
0
 62
   254
370
    -2
100
AcDbLine
 10
389.144248
 20
258.243281
 30
0.0
 11
410.4775819999999
 21
258.243281
 31
0.0
  0
LINE
  5
192
330
18C
100
AcDbEntity
  8
0
 62
   254
370
    -2
100
AcDbLine
 10
392.644248
 20
258.243281
 30
0.0
 11
396.144248
 21
258.243281
 31
0.0
  0
LINE
  5
193
330
18C
100
AcDbEntity
  8
0
 62
   254
370
    -2
100
AcDbLine
 10
379.806112
 20
258.243281
 30
0.0
 11
376.306112
 21
258.243281
 31
0.0
  0
SOLID
  5
194
330
18C
100
AcDbEntity
  8
0
 62
   254
100
AcDbTrace
 10
392.644248
 20
258.826615
 30
0.0
 11
392.644248
 21
257.659948
 31
0.0
 12
389.144248
 22
258.243281
 32
0.0
 13
389.144248
 23
258.243281
 33
0.0
  0
SOLID
  5
195
330
18C
100
AcDbEntity
  8
0
 62
   254
100
AcDbTrace
 10
379.806112
 20
257.659948
 30
0.0
 11
379.806112
 21
258.826615
 31
0.0
 12
383.306112
 22
258.243281
 32
0.0
 13
383.306112
 23
258.243281
 33
0.0
  0
MTEXT
  5
196
330
18C
100
AcDbEntity
  8
0
 62
   254
370
    13
100
AcDbMText
 10
403.3109149999999
 20
263.493281
 30
0.0
 40
3.5
 41
0.0
 71
     5
 72
     1
  1
\A1;5.8
  7
cesky
 73
     1
 44
1.0
  0
POINT
  5
197
330
18C
100
AcDbEntity
  8
Defpoints
 62
     0
100
AcDbPoint
 10
389.144248
 20
253.010213
 30
0.0
  0
POINT
  5
198
330
18C
100
AcDbEntity
  8
Defpoints
 62
     0
100
AcDbPoint
 10
383.306112
 20
257.56137
 30
0.0
  0
POINT
  5
199
330
18C
100
AcDbEntity
  8
Defpoints
 62
     0
100
AcDbPoint
 10
383.306112
 20
258.243281
 30
0.0
  0
ENDBLK
  5
18E
330
18C
100
AcDbEntity
  8
0
100
AcDbBlockEnd
  0
BLOCK
  5
1A1
330
19A
100
AcDbEntity
  8
0
100
AcDbBlockBegin
  2
_U4
 70
     0
 10
0.0
 20
0.0
 30
0.0
  3
_U4
  1

  0
ENDBLK
  5
1A2
330
19A
100
AcDbEntity
  8
0
100
AcDbBlockEnd
  0
BLOCK
  5
1A7
330
1A6
100
AcDbEntity
  8
0
100
AcDbBlockBegin
  2
*D11
 70
     1
 10
0.0
 20
0.0
 30
0.0
  3
*D11
  1

  0
LINE
  5
1A9
330
1A6
100
AcDbEntity
  8
0
 62
   254
370
    -2
100
AcDbLine
 10
362.144248
 20
251.731161
 30
0.0
 11
362.144248
 21
273.172565
 31
0.0
  0
LINE
  5
1AA
330
1A6
100
AcDbEntity
  8
0
 62
   254
370
    -2
100
AcDbLine
 10
389.144248
 20
253.731161
 30
0.0
 11
389.144248
 21
273.172565
 31
0.0
  0
LINE
  5
1AB
330
1A6
100
AcDbEntity
  8
0
 62
   254
370
    -2
100
AcDbLine
 10
365.644248
 20
272.172565
 30
0.0
 11
385.644248
 21
272.172565
 31
0.0
  0
SOLID
  5
1AC
330
1A6
100
AcDbEntity
  8
0
 62
   254
100
AcDbTrace
 10
365.644248
 20
272.755898
 30
0.0
 11
365.644248
 21
271.589231
 31
0.0
 12
362.144248
 22
272.172565
 32
0.0
 13
362.144248
 23
272.172565
 33
0.0
  0
SOLID
  5
1AD
330
1A6
100
AcDbEntity
  8
0
 62
   254
100
AcDbTrace
 10
385.644248
 20
271.589231
 30
0.0
 11
385.644248
 21
272.755898
 31
0.0
 12
389.144248
 22
272.172565
 32
0.0
 13
389.144248
 23
272.172565
 33
0.0
  0
MTEXT
  5
1AE
330
1A6
100
AcDbEntity
  8
0
 62
   254
370
    13
100
AcDbMText
 10
375.644248
 20
277.4225649999999
 30
0.0
 40
3.5
 41
0.0
 71
     5
 72
     1
  1
\A1;27
  7
cesky
 73
     1
 44
1.0
  0
POINT
  5
1AF
330
1A6
100
AcDbEntity
  8
Defpoints
 62
     0
100
AcDbPoint
 10
362.144248
 20
251.731161
 30
0.0
  0
POINT
  5
1B0
330
1A6
100
AcDbEntity
  8
Defpoints
 62
     0
100
AcDbPoint
 10
389.144248
 20
253.731161
 30
0.0
  0
POINT
  5
1B1
330
1A6
100
AcDbEntity
  8
Defpoints
 62
     0
100
AcDbPoint
 10
389.144248
 20
272.172565
 30
0.0
  0
ENDBLK
  5
1A8
330
1A6
100
AcDbEntity
  8
0
100
AcDbBlockEnd
  0
BLOCK
  5
1B9
330
1B2
100
AcDbEntity
  8
0
100
AcDbBlockBegin
  2
_U5
 70
     0
 10
0.0
 20
0.0
 30
0.0
  3
_U5
  1

  0
ENDBLK
  5
1BA
330
1B2
100
AcDbEntity
  8
0
100
AcDbBlockEnd
  0
ENDSEC
  0
SECTION
  2
ENTITIES
  0
POINT
  5
73
102
{ACAD_REACTORS
330
382
102
}
330
1F
100
AcDbEntity
  8
80
100
AcDbPoint
 10
237.144248
 20
243.731161
 30
0.0
  0
POINT
  5
75
330
1F
100
AcDbEntity
  8
SK6
 60
     1
100
AcDbPoint
 10
190.144248
 20
243.731161
 30
0.0
  0
POINT
  5
77
330
1F
100
AcDbEntity
  8
SK6
 60
     1
100
AcDbPoint
 10
362.144248
 20
243.731161
 30
0.0
  0
POINT
  5
78
330
1F
100
AcDbEntity
  8
SK6
 60
     1
100
AcDbPoint
 10
190.144248
 20
243.731161
 30
0.0
  0
POINT
  5
79
330
1F
100
AcDbEntity
  8
SK6
 60
     1
100
AcDbPoint
 10
362.725196
 20
243.731161
 30
0.0
  0
LINE
  5
7A
330
1F
100
AcDbEntity
  8
1
100
AcDbLine
 10
376.376637
 20
251.142069
 30
0.0
 11
376.043354
 21
251.475353
 31
0.0
  0
LINE
  5
7C
330
1F
100
AcDbEntity
  8
1
100
AcDbLine
 10
379.740427
 20
246.24979
 30
0.0
 11
380.75653
 21
246.24979
 31
0.0
  0
LINE
  5
7D
330
1F
100
AcDbEntity
  8
1
100
AcDbLine
 10
379.740427
 20
244.44979
 30
0.0
 11
379.740427
 21
246.24979
 31
0.0
  0
LINE
  5
7E
330
1F
100
AcDbEntity
  8
1
100
AcDbLine
 10
384.724324
 20
246.24979
 30
0.0
 11
387.640623
 21
246.24979
 31
0.0
  0
LINE
  5
7F
330
1F
100
AcDbEntity
  8
1
100
AcDbLine
 10
376.043354
 20
235.98697
 30
0.0
 11
370.546922
 21
235.98697
 31
0.0
  0
LINE
  5
80
330
1F
100
AcDbEntity
  8
1
100
AcDbLine
 10
376.818358
 20
236.315176
 30
0.0
 11
376.63089
 21
236.127708
 31
0.0
  0
LINE
  5
81
330
1F
100
AcDbEntity
  8
1
100
AcDbLine
 10
376.043354
 20
251.475353
 30
0.0
 11
370.546922
 21
251.475353
 31
0.0
  0
LINE
  5
82
330
1F
100
AcDbEntity
  8
1
100
AcDbLine
 10
369.410158
 20
251.481161
 30
0.0
 11
362.725196
 21
251.481161
 31
0.0
  0
LINE
  5
83
330
1F
100
AcDbEntity
  8
1
100
AcDbLine
 10
362.725196
 20
235.981161
 30
0.0
 11
369.410158
 21
235.981161
 31
0.0
  0
LINE
  5
84
330
1F
100
AcDbEntity
  8
1
100
AcDbLine
 10
362.725196
 20
251.481161
 30
0.0
 11
362.725196
 21
235.981161
 31
0.0
  0
LINE
  5
85
330
1F
100
AcDbEntity
  8
SK1
100
AcDbLine
 10
362.144248
 20
235.731161
 30
0.0
 11
362.144248
 21
251.731161
 31
0.0
  0
LINE
  5
86
330
1F
100
AcDbEntity
  8
SK1
100
AcDbLine
 10
362.144248
 20
251.731161
 30
0.0
 11
190.144248
 21
251.731161
 31
0.0
  0
LINE
  5
87
330
1F
100
AcDbEntity
  8
SK1
100
AcDbLine
 10
190.144248
 20
235.731161
 30
0.0
 11
362.144248
 21
235.731161
 31
0.0
  0
LINE
  5
88
330
1F
100
AcDbEntity
  8
SK1
100
AcDbLine
 10
190.144248
 20
235.731161
 30
0.0
 11
190.144248
 21
243.731161
 31
0.0
  0
LINE
  5
89
330
1F
100
AcDbEntity
  8
SK1
100
AcDbLine
 10
190.144248
 20
243.731161
 30
0.0
 11
190.144248
 21
251.731161
 31
0.0
  0
LINE
  5
8A
330
1F
100
AcDbEntity
  8
SK1
100
AcDbLine
 10
189.144248
 20
250.731161
 30
0.0
 11
189.144248
 21
243.731161
 31
0.0
  0
LINE
  5
8B
330
1F
100
AcDbEntity
  8
SK1
100
AcDbLine
 10
189.144248
 20
243.731161
 30
0.0
 11
189.144248
 21
236.731161
 31
0.0
  0
LINE
  5
8C
330
1F
100
AcDbEntity
  8
SK1
100
AcDbLine
 10
189.144248
 20
236.731161
 30
0.0
 11
190.144248
 21
235.731161
 31
0.0
  0
LINE
  5
8D
330
1F
100
AcDbEntity
  8
SK1
100
AcDbLine
 10
190.144248
 20
251.731161
 30
0.0
 11
189.144248
 21
250.731161
 31
0.0
  0
LINE
  5
8E
330
1F
100
AcDbEntity
  8
1
100
AcDbLine
 10
388.138781
 20
250.05501
 30
0.0
 11
388.138781
 21
244.450671
 31
0.0
  0
LINE
  5
8F
330
1F
100
AcDbEntity
  8
1
100
AcDbLine
 10
382.525337
 20
230.956643
 30
0.0
 11
382.955517
 21
230.956643
 31
0.0
  0
LINE
  5
90
330
1F
100
AcDbEntity
  8
1
100
AcDbLine
 10
383.306112
 20
257.56137
 30
0.0
 11
388.9099339999999
 21
251.957549
 31
0.0
  0
LINE
  5
92
330
1F
100
AcDbEntity
  8
81
100
AcDbLine
 10
387.144248
 20
251.731161
 30
0.0
 11
391.144248
 21
251.731161
 31
0.0
  0
LINE
  5
93
330
1F
100
AcDbEntity
  8
81
100
AcDbLine
 10
389.144248
 20
249.731161
 30
0.0
 11
389.144248
 21
253.731161
 31
0.0
  0
LINE
  5
94
330
1F
100
AcDbEntity
  8
1
100
AcDbLine
 10
388.9099339999999
 20
250.826178
 30
0.0
 11
383.306112
 21
245.222357
 31
0.0
  0
LINE
  5
95
330
1F
100
AcDbEntity
  8
1
100
AcDbLine
 10
376.57092
 20
251.957549
 30
0.0
 11
382.174742
 21
257.56137
 31
0.0
  0
LINE
  5
96
330
1F
100
AcDbEntity
  8
SK1
100
AcDbLine
 10
236.144675
 20
243.731161
 30
0.0
 11
238.143822
 21
243.731161
 31
0.0
  0
LINE
  5
9B
330
1F
100
AcDbEntity
  8
1
100
AcDbLine
 10
382.174742
 20
245.222357
 30
0.0
 11
376.57092
 21
250.826178
 31
0.0
  0
LINE
  5
9C
330
1F
100
AcDbEntity
  8
1
100
AcDbLine
 10
388.9099339999999
 20
236.636145
 30
0.0
 11
388.138708
 21
237.407371
 31
0.0
  0
LINE
  5
9D
330
1F
100
AcDbEntity
  8
1
100
AcDbLine
 10
377.5897930000001
 20
235.690922
 30
0.0
 11
382.36089
 21
230.919825
 31
0.0
  0
LINE
  5
9E
330
1F
100
AcDbEntity
  8
1
100
AcDbLine
 10
376.57092
 20
235.504774
 30
0.0
 11
382.174742
 21
229.900953
 31
0.0
  0
LINE
  5
9F
330
1F
100
AcDbEntity
  8
1
100
AcDbLine
 10
383.119964
 20
230.919825
 30
0.0
 11
387.891061
 21
235.690922
 31
0.0
  0
LINE
  5
A0
330
1F
100
AcDbEntity
  8
1
100
AcDbLine
 10
383.306112
 20
229.900953
 30
0.0
 11
388.9099339999999
 21
235.504774
 31
0.0
  0
LINE
  5
A1
330
1F
100
AcDbEntity
  8
1
100
AcDbLine
 10
382.525337
 20
230.956643
 30
0.0
 11
382.525337
 21
234.840706
 31
0.0
  0
LINE
  5
A2
330
1F
100
AcDbEntity
  8
1
100
AcDbLine
 10
376.818358
 20
236.315176
 30
0.0
 11
376.818358
 21
244.796128
 31
0.0
  0
LINE
  5
A3
330
1F
100
AcDbEntity
  8
1
100
AcDbLine
 10
382.955517
 20
234.840706
 30
0.0
 11
382.955517
 21
230.956643
 31
0.0
  0
LINE
  5
A4
330
1F
100
AcDbEntity
  8
1
100
AcDbLine
 10
388.138781
 20
236.139908
 30
0.0
 11
388.138781
 21
244.44979
 31
0.0
  0
LINE
  5
A5
330
1F
100
AcDbEntity
  8
1
100
AcDbLine
 10
382.955517
 20
244.44979
 30
0.0
 11
382.955517
 21
237.708623
 31
0.0
  0
LINE
  5
A6
330
1F
100
AcDbEntity
  8
1
100
AcDbLine
 10
382.525337
 20
244.44979
 30
0.0
 11
382.955517
 21
244.44979
 31
0.0
  0
LINE
  5
A7
330
1F
100
AcDbEntity
  8
1
100
AcDbLine
 10
382.525337
 20
237.708623
 30
0.0
 11
382.525337
 21
244.44979
 31
0.0
  0
LINE
  5
A8
330
1F
100
AcDbEntity
  8
SK1
100
AcDbLine
 10
237.144248
 20
242.731588
 30
0.0
 11
237.144248
 21
244.730735
 31
0.0
  0
LINE
  5
AA
330
1F
100
AcDbEntity
  8
NOCUT
100
AcDbLine
 10
189.144248
 20
243.731161
 30
0.0
 11
387.418714
 21
243.731161
 31
0.0
  0
LINE
  5
AC
330
1F
100
AcDbEntity
  8
NOCUT
100
AcDbLine
 10
189.144248
 20
243.731161
 30
0.0
 11
189.144248
 21
250.731161
 31
0.0
  0
LINE
  5
AD
330
1F
100
AcDbEntity
  8
NOCUT
100
AcDbLine
 10
189.144248
 20
250.731161
 30
0.0
 11
190.144248
 21
251.731161
 31
0.0
  0
LINE
  5
AE
330
1F
100
AcDbEntity
  8
NOCUT
100
AcDbLine
 10
190.144248
 20
251.731161
 30
0.0
 11
362.144248
 21
251.731161
 31
0.0
  0
LINE
  5
AF
330
1F
100
AcDbEntity
  8
NOCUT
100
AcDbLine
 10
362.725196
 20
251.481161
 30
0.0
 11
376.818358
 21
251.481161
 31
0.0
  0
LINE
  5
B0
330
1F
100
AcDbEntity
  8
NOCUT
100
AcDbLine
 10
382.525337
 20
256.895534
 30
0.0
 11
382.955517
 21
256.895534
 31
0.0
  0
LINE
  5
B1
330
1F
100
AcDbEntity
  8
NOCUT
100
AcDbLine
 10
388.138781
 20
251.961564
 30
0.0
 11
387.418714
 21
243.731161
 31
0.0
  0
LINE
  5
B2
102
{ACAD_REACTORS
330
1BB
102
}
330
1F
100
AcDbEntity
  8
SK2
100
AcDbLine
 10
173.219319
 20
260.481161
 30
0.0
 11
173.219319
 21
226.981161
 31
0.0
  0
LINE
  5
B3
102
{ACAD_REACTORS
330
1BB
102
}
330
1F
100
AcDbEntity
  8
SK2
100
AcDbLine
 10
190.144248
 20
235.731161
 30
0.0
 11
172.219319
 21
235.731161
 31
0.0
  0
LINE
  5
B4
102
{ACAD_REACTORS
330
1BB
102
}
330
1F
100
AcDbEntity
  8
SK2
100
AcDbLine
 10
190.144248
 20
251.731161
 30
0.0
 11
172.219319
 21
251.731161
 31
0.0
  0
LINE
  5
B5
330
1F
100
AcDbEntity
  8
SK2
 60
     1
100
AcDbLine
 10
173.219319
 20
235.731161
 30
0.0
 11
173.836464
 21
232.231164
 31
0.0
  0
LINE
  5
B6
330
1F
100
AcDbEntity
  8
SK2
 60
     1
100
AcDbLine
 10
173.836464
 20
232.231164
 30
0.0
 11
172.602175
 21
232.231159
 31
0.0
  0
LINE
  5
B7
330
1F
100
AcDbEntity
  8
SK2
 60
     1
100
AcDbLine
 10
172.602175
 20
232.231159
 30
0.0
 11
173.219319
 21
235.731161
 31
0.0
  0
LINE
  5
B8
330
1F
100
AcDbEntity
  8
SK2
 60
     1
100
AcDbLine
 10
173.219319
 20
251.731161
 30
0.0
 11
172.602175
 21
255.231159
 31
0.0
  0
LINE
  5
B9
330
1F
100
AcDbEntity
  8
SK2
 60
     1
100
AcDbLine
 10
172.602175
 20
255.231159
 30
0.0
 11
173.836464
 21
255.231164
 31
0.0
  0
LINE
  5
BA
330
1F
100
AcDbEntity
  8
SK2
 60
     1
100
AcDbLine
 10
173.836464
 20
255.231164
 30
0.0
 11
173.219319
 21
251.731161
 31
0.0
  0
CIRCLE
  5
C0
330
1F
100
AcDbEntity
  8
1
100
AcDbCircle
 10
382.740427
 20
251.187658
 30
0.0
 40
2.75
  0
ARC
  5
C2
330
1F
100
AcDbEntity
  8
1
100
AcDbCircle
 10
381.227341
 20
251.174613
 30
0.0
 40
0.0953174225105372
100
AcDbArc
 50
48.10848400000001
 51
86.882367
  0
ARC
  5
C3
330
1F
100
AcDbEntity
  8
1
100
AcDbCircle
 10
381.237709
 20
251.364965
 30
0.0
 40
0.0953174225105371
100
AcDbArc
 50
198.108484
 51
266.882367
  0
ARC
  5
C4
330
1F
100
AcDbEntity
  8
1
100
AcDbCircle
 10
381.718245
 20
251.522107
 30
0.0
 40
0.6008944156305271
100
AcDbArc
 50
125.656249
 51
198.108484
  0
ARC
  5
C5
330
1F
100
AcDbEntity
  8
1
100
AcDbCircle
 10
381.423534
 20
251.932903
 30
0.0
 40
0.0953174225105393
100
AcDbArc
 50
56.882367
 51
125.656249
  0
ARC
  5
C6
330
1F
100
AcDbEntity
  8
1
100
AcDbCircle
 10
381.527689
 20
252.09257
 30
0.0
 40
0.0953174225105393
100
AcDbArc
 50
236.882367
 51
275.656249
  0
ARC
  5
C7
330
1F
100
AcDbEntity
  8
1
100
AcDbCircle
 10
381.4778589999999
 20
252.595685
 30
0.0
 40
0.6008944156305267
100
AcDbArc
 50
275.656249
 51
348.108484
  0
ARC
  5
C8
330
1F
100
AcDbEntity
  8
1
100
AcDbCircle
 10
381.972586
 20
252.491506
 30
0.0
 40
0.0953174225105372
100
AcDbArc
 50
348.108484
 51
26.882367
  0
ARC
  5
C9
330
1F
100
AcDbEntity
  8
1
100
AcDbCircle
 10
382.14262
 20
252.577704
 30
0.0
 40
0.0953174225105371
100
AcDbArc
 50
138.108484
 51
206.882367
  0
ARC
  5
CA
330
1F
100
AcDbEntity
  8
1
100
AcDbCircle
 10
382.518977
 20
252.240119
 30
0.0
 40
0.6008944156305271
100
AcDbArc
 50
65.656249
 51
138.108484
  0
ARC
  5
CB
330
1F
100
AcDbEntity
  8
1
100
AcDbCircle
 10
382.727381
 20
252.700744
 30
0.0
 40
0.0953174225105393
100
AcDbArc
 50
356.882367
 51
65.656249
  0
ARC
  5
CC
330
1F
100
AcDbEntity
  8
1
100
AcDbCircle
 10
382.917734
 20
252.690376
 30
0.0
 40
0.0953174225105393
100
AcDbArc
 50
176.882367
 51
215.656249
  0
ARC
  5
CD
330
1F
100
AcDbEntity
  8
1
100
AcDbCircle
 10
383.32853
 20
252.985088
 30
0.0
 40
0.6008944156305267
100
AcDbArc
 50
215.656249
 51
288.108484
  0
ARC
  5
CE
330
1F
100
AcDbEntity
  8
1
100
AcDbCircle
 10
383.485672
 20
252.504552
 30
0.0
 40
0.0953174225105372
100
AcDbArc
 50
288.108484
 51
326.882367
  0
ARC
  5
CF
330
1F
100
AcDbEntity
  8
1
100
AcDbCircle
 10
383.645338
 20
252.400397
 30
0.0
 40
0.0953174225105371
100
AcDbArc
 50
78.10848399999999
 51
146.882367
  0
ARC
  5
D0
330
1F
100
AcDbEntity
  8
1
100
AcDbCircle
 10
383.541159
 20
251.90567
 30
0.0
 40
0.6008944156305271
100
AcDbArc
 50
5.656248999999999
 51
78.10848399999999
  0
ARC
  5
D1
330
1F
100
AcDbEntity
  8
1
100
AcDbCircle
 10
384.044275
 20
251.955499
 30
0.0
 40
0.0953174225105393
100
AcDbArc
 50
296.882367
 51
5.656248999999999
  0
ARC
  5
D2
330
1F
100
AcDbEntity
  8
1
100
AcDbCircle
 10
384.130472
 20
251.785465
 30
0.0
 40
0.0953174225105393
100
AcDbArc
 50
116.882367
 51
155.656249
  0
ARC
  5
D3
330
1F
100
AcDbEntity
  8
1
100
AcDbCircle
 10
384.591098
 20
251.577061
 30
0.0
 40
0.6008944156305267
100
AcDbArc
 50
155.656249
 51
228.108484
  0
ARC
  5
D4
330
1F
100
AcDbEntity
  8
1
100
AcDbCircle
 10
384.253513
 20
251.200704
 30
0.0
 40
0.0953174225105372
100
AcDbArc
 50
228.108484
 51
266.882367
  0
ARC
  5
D5
330
1F
100
AcDbEntity
  8
1
100
AcDbCircle
 10
384.243145
 20
251.010352
 30
0.0
 40
0.0953174225105371
100
AcDbArc
 50
18.108484
 51
86.882367
  0
ARC
  5
D6
330
1F
100
AcDbEntity
  8
1
100
AcDbCircle
 10
383.762609
 20
250.85321
 30
0.0
 40
0.6008944156305271
100
AcDbArc
 50
305.656249
 51
18.108484
  0
ARC
  5
D7
330
1F
100
AcDbEntity
  8
1
100
AcDbCircle
 10
384.057321
 20
250.442414
 30
0.0
 40
0.0953174225105393
100
AcDbArc
 50
236.882367
 51
305.656249
  0
ARC
  5
D8
330
1F
100
AcDbEntity
  8
1
100
AcDbCircle
 10
383.953165
 20
250.282747
 30
0.0
 40
0.0953174225105393
100
AcDbArc
 50
56.882367
 51
95.65624900000001
  0
ARC
  5
D9
330
1F
100
AcDbEntity
  8
1
100
AcDbCircle
 10
384.002995
 20
249.779632
 30
0.0
 40
0.6008944156305267
100
AcDbArc
 50
95.65624900000001
 51
168.108484
  0
ARC
  5
DA
330
1F
100
AcDbEntity
  8
1
100
AcDbCircle
 10
383.5082680000001
 20
249.883811
 30
0.0
 40
0.0953174225105372
100
AcDbArc
 50
168.108484
 51
206.882367
  0
ARC
  5
DB
330
1F
100
AcDbEntity
  8
1
100
AcDbCircle
 10
383.338234
 20
249.797613
 30
0.0
 40
0.0953174225105371
100
AcDbArc
 50
318.108484
 51
26.882367
  0
ARC
  5
DC
330
1F
100
AcDbEntity
  8
1
100
AcDbCircle
 10
379.740427
 20
256.94979
 30
0.0
 40
10.7
100
AcDbArc
 50
210.772444
 51
270.0
  0
ARC
  5
DD
330
1F
100
AcDbEntity
  8
1
100
AcDbCircle
 10
362.725196
 20
252.281161
 30
0.0
 40
0.8
100
AcDbArc
 50
223.432537
 51
270.0
  0
ARC
  5
DE
330
1F
100
AcDbEntity
  8
1
100
AcDbCircle
 10
362.725196
 20
235.181161
 30
0.0
 40
0.8
100
AcDbArc
 50
90.0
 51
136.567463
  0
ARC
  5
DF
330
1F
100
AcDbEntity
  8
1
100
AcDbCircle
 10
382.740427
 20
256.995684
 30
0.0
 40
0.8000000000000007
100
AcDbArc
 50
45.0
 51
135.0
  0
ARC
  5
E0
330
1F
100
AcDbEntity
  8
1
100
AcDbCircle
 10
388.344248
 20
251.391863
 30
0.0
 40
0.8000000000000007
100
AcDbArc
 50
315.0
 51
45.0
  0
CIRCLE
  5
E5
330
1F
100
AcDbEntity
  8
1
100
AcDbCircle
 10
382.740427
 20
251.391863
 30
0.0
 40
3.0
  0
ARC
  5
E6
330
1F
100
AcDbEntity
  8
1
100
AcDbCircle
 10
382.740427
 20
245.788042
 30
0.0
 40
0.8000000000000007
100
AcDbArc
 50
225.0
 51
315.0
  0
ARC
  5
E7
330
1F
100
AcDbEntity
  8
1
100
AcDbCircle
 10
377.136606
 20
251.391863
 30
0.0
 40
0.8000000000000007
100
AcDbArc
 50
135.0
 51
225.0
  0
CIRCLE
  5
E8
330
1F
100
AcDbEntity
  8
1
100
AcDbCircle
 10
382.740427
 20
251.391863
 30
0.0
 40
3.139298314759687
  0
ARC
  5
E9
330
1F
100
AcDbEntity
  8
1
100
AcDbCircle
 10
382.961877
 20
250.135198
 30
0.0
 40
0.6008944156305271
100
AcDbArc
 50
245.656249
 51
318.108484
  0
ARC
  5
EA
330
1F
100
AcDbEntity
  8
1
100
AcDbCircle
 10
382.753473
 20
249.674573
 30
0.0
 40
0.0953174225105393
100
AcDbArc
 50
176.882367
 51
245.656249
  0
ARC
  5
EB
330
1F
100
AcDbEntity
  8
1
100
AcDbCircle
 10
382.56312
 20
249.684941
 30
0.0
 40
0.0953174225105393
100
AcDbArc
 50
356.882367
 51
35.656249
  0
ARC
  5
EC
330
1F
100
AcDbEntity
  8
1
100
AcDbCircle
 10
382.152324
 20
249.390229
 30
0.0
 40
0.6008944156305267
100
AcDbArc
 50
35.656249
 51
108.108484
  0
ARC
  5
ED
330
1F
100
AcDbEntity
  8
1
100
AcDbCircle
 10
381.995182
 20
249.870765
 30
0.0
 40
0.0953174225105372
100
AcDbArc
 50
108.108484
 51
146.882367
  0
ARC
  5
EE
330
1F
100
AcDbEntity
  8
1
100
AcDbCircle
 10
381.835516
 20
249.97492
 30
0.0
 40
0.0953174225105371
100
AcDbArc
 50
258.108484
 51
326.882367
  0
ARC
  5
EF
330
1F
100
AcDbEntity
  8
1
100
AcDbCircle
 10
381.939695
 20
250.469647
 30
0.0
 40
0.6008944156305271
100
AcDbArc
 50
185.656249
 51
258.108484
  0
ARC
  5
F0
330
1F
100
AcDbEntity
  8
1
100
AcDbCircle
 10
381.436579
 20
250.419818
 30
0.0
 40
0.0953174225105393
100
AcDbArc
 50
116.882367
 51
185.656249
  0
ARC
  5
F1
330
1F
100
AcDbEntity
  8
1
100
AcDbCircle
 10
381.350382
 20
250.589852
 30
0.0
 40
0.0953174225105393
100
AcDbArc
 50
296.882367
 51
335.656249
  0
ARC
  5
F2
330
1F
100
AcDbEntity
  8
1
100
AcDbCircle
 10
380.8897560000001
 20
250.798256
 30
0.0
 40
0.6008944156305267
100
AcDbArc
 50
335.656249
 51
48.10848400000001
  0
CIRCLE
  5
F3
330
1F
100
AcDbEntity
  8
1
100
AcDbCircle
 10
382.740427
 20
251.187658
 30
0.0
 40
1.8
  0
ARC
  5
F4
330
1F
100
AcDbEntity
  8
1
100
AcDbCircle
 10
377.136606
 20
236.070459
 30
0.0
 40
0.8000000000000007
100
AcDbArc
 50
182.223257
 51
225.0
  0
ARC
  5
F5
330
1F
100
AcDbEntity
  8
1
100
AcDbCircle
 10
382.740427
 20
230.466638
 30
0.0
 40
0.8000000000000007
100
AcDbArc
 50
225.0
 51
315.0
  0
ARC
  5
F6
330
1F
100
AcDbEntity
  8
1
100
AcDbCircle
 10
388.344248
 20
236.070459
 30
0.0
 40
0.8000000000000007
100
AcDbArc
 50
315.0
 51
45.0
  0
ARC
  5
F7
330
1F
100
AcDbEntity
  8
1
100
AcDbCircle
 10
382.740427
 20
246.503076
 30
0.0
 40
2.000000000000003
100
AcDbArc
 50
352.724366
 51
4.246662
  0
ARC
  5
F8
330
1F
100
AcDbEntity
  8
1
100
AcDbCircle
 10
382.740427
 20
246.503076
 30
0.0
 40
2.000000000000003
100
AcDbArc
 50
175.753338
 51
187.275634
  0
CIRCLE
  5
F9
330
1F
100
AcDbEntity
  8
1
100
AcDbCircle
 10
382.740427
 20
236.274664
 30
0.0
 40
1.349999999999999
  0
ARC
  5
FA
330
1F
100
AcDbEntity
  8
NOCUT
100
AcDbCircle
 10
362.725196
 20
252.281161
 30
0.0
 40
0.8
100
AcDbArc
 50
223.432537
 51
270.0
  0
ELLIPSE
  5
FB
330
1F
100
AcDbEntity
  8
1
100
AcDbEllipse
 10
383.675846
 20
243.731161
 30
0.0
 11
-8.155881038288411
 21
-7.610122983851836
 31
0.0
210
0.0
220
0.0
230
1.0
 40
0.179721
 41
0.2289991633223158
 42
0.3850574546776548
  0
ELLIPSE
  5
FC
330
1F
100
AcDbEntity
  8
1
100
AcDbEllipse
 10
383.675846
 20
243.731161
 30
0.0
 11
-8.155881028555635
 21
7.610122973703031
 31
0.0
210
0.0
220
0.0
230
0.9999999999999998
 40
0.179721
 41
5.970226833906298
 42
6.054186143705647
  0
SPLINE
  5
FD
330
1F
100
AcDbEntity
  8
1
100
AcDbSpline
210
0.0
220
0.0
230
1.0
 70
     8
 71
     3
 72
   103
 73
    99
 74
     0
 42
0.000000001
 43
0.0000000001
 40
0.0
 40
0.0
 40
0.0
 40
0.0
 40
0.0312500000000537
 40
0.0312500000000537
 40
0.0625000000001073
 40
0.0625000000001073
 40
0.0781250000001321
 40
0.0781250000001321
 40
0.0859375000001445
 40
0.0859375000001445
 40
0.0937500000001569
 40
0.1250000000002065
 40
0.1250000000002065
 40
0.1562500000002561
 40
0.1562500000002561
 40
0.1640625000002685
 40
0.1640625000002685
 40
0.1718750000002808
 40
0.1875000000003126
 40
0.1875000000003126
 40
0.2187500000003836
 40
0.2187500000003836
 40
0.2500000000004546
 40
0.2500000000004546
 40
0.2656250000004901
 40
0.2656250000004901
 40
0.2812500000005256
 40
0.2812500000005256
 40
0.3125000000005965
 40
0.3125000000005965
 40
0.3437500000006675
 40
0.3437500000006675
 40
0.3750000000007384
 40
0.3750000000007384
 40
0.4062500000008094
 40
0.4062500000008094
 40
0.4218750000008499
 40
0.4218750000008499
 40
0.4296875000008649
 40
0.4296875000008649
 40
0.43750000000088
 40
0.43750000000088
 40
0.4531250000008993
 40
0.4531250000008993
 40
0.4687500000009188
 40
0.4687500000009188
 40
0.4765625000009284
 40
0.4765625000009284
 40
0.484375000000938
 40
0.4921875000009476
 40
0.4960937500009524
 40
0.4960937500009524
 40
0.5000000000009573
 40
0.5000000000009573
 40
0.5156250000009388
 40
0.5156250000009388
 40
0.5234375000009293
 40
0.5234375000009293
 40
0.53125000000092
 40
0.53125000000092
 40
0.5468750000008895
 40
0.5468750000008895
 40
0.562500000000859
 40
0.562500000000859
 40
0.5781250000008286
 40
0.5781250000008286
 40
0.5937500000007982
 40
0.5937500000007982
 40
0.6250000000007373
 40
0.6250000000007373
 40
0.6562500000006765
 40
0.6562500000006765
 40
0.6875000000006156
 40
0.6875000000006156
 40
0.718750000000555
 40
0.718750000000555
 40
0.750000000000494
 40
0.750000000000494
 40
0.7812500000004333
 40
0.7812500000004333
 40
0.8125000000003723
 40
0.8125000000003723
 40
0.8281250000003419
 40
0.8281250000003419
 40
0.8437500000003115
 40
0.8437500000003115
 40
0.8750000000002506
 40
0.8750000000002506
 40
0.9062500000001898
 40
0.9062500000001898
 40
0.9218750000001595
 40
0.9218750000001595
 40
0.9296875000001442
 40
0.9296875000001442
 40
0.9375000000001287
 40
0.9687500000000643
 40
0.9687500000000643
 40
1.0
 40
1.0
 40
1.0
 40
1.0
 10
380.7565302637388
 20
246.2497904602925
 30
0.0
 10
380.7652153343052
 20
246.1817633494113
 30
0.0
 10
380.7772625122873
 20
246.1151602387344
 30
0.0
 10
380.8076429566643
 20
245.9845788563144
 30
0.0
 10
380.8259781135704
 20
245.9206016138192
 30
0.0
 10
380.8580438521462
 20
245.8265175785681
 30
0.0
 10
380.8694945613778
 20
245.7954705948724
 30
0.0
 10
380.8878084463604
 20
245.7493666583149
 30
0.0
 10
380.8941013454178
 20
245.734082657006
 30
0.0
 10
380.9069697158235
 20
245.7038866779133
 30
0.0
 10
380.9399039779113
 20
245.6291882479084
 30
0.0
 10
380.9765250085914
 20
245.5582943495206
 30
0.0
 10
381.0394320754838
 20
245.4492359388094
 30
0.0
 10
381.0730441300897
 20
245.396894971348
 30
0.0
 10
381.1176140631088
 20
245.3340098478408
 30
0.0
 10
381.1266656239388
 20
245.3215481078062
 30
0.0
 10
381.1449305211194
 20
245.2969976748649
 30
0.0
 10
381.1725970060584
 20
245.260692802482
 30
0.0
 10
381.2010479016686
 20
245.2258940256324
 30
0.0
 10
381.2589470261366
 20
245.1581801974139
 30
0.0
 10
381.2988728599412
 20
245.1155434313256
 30
0.0
 10
381.381211260413
 20
245.0347921213583
 30
0.0
 10
381.4236242255976
 20
244.9966795306411
 30
0.0
 10
381.489062895933
 20
244.9426633097902
 30
0.0
 10
381.511179758005
 20
244.9251844622888
 30
0.0
 10
381.556023267559
 20
244.8912514781529
 30
0.0
 10
381.5787783470391
 20
244.8747777985235
 30
0.0
 10
381.6477799057043
 20
244.8269933201466
 30
0.0
 10
381.6944736538508
 20
244.7975033159542
 30
0.0
 10
381.7893360902205
 20
244.7428423017313
 30
0.0
 10
381.8375023292682
 20
244.7176725356891
 30
0.0
 10
381.9355411954008
 20
244.6713835199324
 30
0.0
 10
381.9854074629
 20
244.6502644814968
 30
0.0
 10
382.0873417866217
 20
244.6119269478331
 30
0.0
 10
382.1393919418424
 20
244.5947067822101
 30
0.0
 10
382.2199305123469
 20
244.5717908255228
 30
0.0
 10
382.24719298585
 20
244.5646390054449
 30
0.0
 10
382.2889116452202
 20
244.5546565642994
 30
0.0
 10
382.3029562545863
 20
244.5514534418933
 30
0.0
 10
382.3313702907
 20
244.5453007643106
 30
0.0
 10
382.3457604588185
 20
244.5423473814383
 30
0.0
 10
382.389290402708
 20
244.5339196368475
 30
0.0
 10
382.4188096310105
 20
244.5288682136018
 30
0.0
 10
382.4792850403709
 20
244.5199625392635
 30
0.0
 10
382.5102371767999
 20
244.5161064852479
 30
0.0
 10
382.5582621498829
 20
244.5113243195721
 30
0.0
 10
382.5745267465917
 20
244.5099012132123
 30
0.0
 10
382.6072155529662
 20
244.5074499483496
 30
0.0
 10
382.6401677627501
 20
244.5053826563726
 30
0.0
 10
382.6821050845215
 20
244.5038006050103
 30
0.0
 10
382.7076408721244
 20
244.5033264492135
 30
0.0
 10
382.7247511614747
 20
244.5031191340534
 30
0.0
 10
382.7333763249674
 20
244.5030700189042
 30
0.0
 10
382.776283002241
 20
244.5031028557444
 30
0.0
 10
382.8100101522725
 20
244.5040100413013
 30
0.0
 10
382.8598407504831
 20
244.5065748119099
 30
0.0
 10
382.8763250723676
 20
244.5076308494268
 30
0.0
 10
382.9090702965475
 20
244.510131174763
 30
0.0
 10
382.9253347486987
 20
244.5115777505995
 30
0.0
 10
382.9731050892784
 20
244.5163990054869
 30
0.0
 10
383.0038831847554
 20
244.5202713089034
 30
0.0
 10
383.0640060955253
 20
244.5291914596656
 30
0.0
 10
383.093346700261
 20
244.5342410987361
 30
0.0
 10
383.1510253064851
 20
244.5454569821424
 30
0.0
 10
383.179426260319
 20
244.551640788423
 30
0.0
 10
383.2351052725998
 20
244.5650065618513
 30
0.0
 10
383.2623900442453
 20
244.572186280846
 30
0.0
 10
383.3429840597563
 20
244.5951852867168
 30
0.0
 10
383.3950560498831
 20
244.6124599735018
 30
0.0
 10
383.4970101199472
 20
244.6509015632236
 30
0.0
 10
383.5468741461562
 20
244.6720701466255
 30
0.0
 10
383.6448865621245
 20
244.7184493320909
 30
0.0
 10
383.6930285529331
 20
244.7436597405875
 30
0.0
 10
383.7878211934381
 20
244.7983881386864
 30
0.0
 10
383.834469381565
 20
244.8279049165188
 30
0.0
 10
383.9263589594865
 20
244.8916504549511
 30
0.0
 10
383.9711495453079
 20
244.9255731457434
 30
0.0
 10
384.0582563032505
 20
244.9975796785249
 30
0.0
 10
384.1006058074809
 20
245.0356857924149
 30
0.0
 10
384.1828333717635
 20
245.1164310289722
 30
0.0
 10
384.2227118453559
 20
245.1590681639049
 30
0.0
 10
384.2805508651398
 20
245.2267923565113
 30
0.0
 10
384.2994999173352
 20
245.2499966457674
 30
0.0
 10
384.3367042677924
 20
245.2977481951115
 30
0.0
 10
384.355007253624
 20
245.3223656036126
 30
0.0
 10
384.4083300810756
 20
245.3976870928664
 30
0.0
 10
384.4418325233577
 20
245.4499097582781
 30
0.0
 10
384.5045236722624
 20
245.5586699304615
 30
0.0
 10
384.533714112535
 20
245.6152052336318
 30
0.0
 10
384.5739717050629
 20
245.7035997793056
 30
0.0
 10
384.5868014090413
 20
245.7336648098177
 30
0.0
 10
384.6051084636199
 20
245.7797253437984
 30
0.0
 10
384.6110527619136
 20
245.795238104662
 30
0.0
 10
384.6225342120721
 20
245.8263576904162
 30
0.0
 10
384.6502760995351
 20
245.9045356541018
 30
0.0
 10
384.6732204068533
 20
245.9846092239729
 30
0.0
 10
384.7036114056538
 20
246.1152549798798
 30
0.0
 10
384.7156486646274
 20
246.1818409768754
 30
0.0
 10
384.724323824439
 20
246.2497904602925
 30
0.0
  0
SPLINE
  5
FE
330
1F
100
AcDbEntity
  8
1
100
AcDbSpline
210
0.0
220
0.0
230
1.0
 70
     8
 71
     3
 72
    56
 73
    52
 74
     0
 42
0.000000001
 43
0.0000000001
 40
0.0
 40
0.0
 40
0.0
 40
0.0
 40
0.0625000000000113
 40
0.0625000000000113
 40
0.093750000000017
 40
0.093750000000017
 40
0.1093750000000199
 40
0.1093750000000199
 40
0.1250000000000227
 40
0.1250000000000227
 40
0.1875000000000318
 40
0.1875000000000318
 40
0.250000000000041
 40
0.250000000000041
 40
0.2812500000000444
 40
0.2812500000000444
 40
0.296875000000046
 40
0.296875000000046
 40
0.3125000000000477
 40
0.3125000000000477
 40
0.375000000000052
 40
0.375000000000052
 40
0.4375000000000563
 40
0.4375000000000563
 40
0.4531250000000574
 40
0.4531250000000574
 40
0.4609375000000579
 40
0.4609375000000579
 40
0.4687500000000583
 40
0.5000000000000559
 40
0.5000000000000559
 40
0.5625000000000552
 40
0.5625000000000552
 40
0.6250000000000544
 40
0.6250000000000544
 40
0.6406250000000519
 40
0.6406250000000519
 40
0.6562500000000492
 40
0.687500000000044
 40
0.687500000000044
 40
0.7500000000000386
 40
0.7500000000000386
 40
0.8125000000000332
 40
0.8125000000000332
 40
0.8750000000000278
 40
0.8750000000000278
 40
0.9062500000000223
 40
0.9062500000000223
 40
0.9375000000000166
 40
0.9375000000000166
 40
1.0
 40
1.0
 40
1.0
 40
1.0
 10
368.5726251729751
 20
251.3346144730637
 30
0.0
 10
368.599965047736
 20
251.2802392753489
 30
0.0
 10
368.6351069629223
 20
251.2112616430312
 30
0.0
 10
368.7008176602262
 20
251.0864094881352
 30
0.0
 10
368.7248980295896
 20
251.0412207155964
 30
0.0
 10
368.7645457830305
 20
250.9680850581975
 30
0.0
 10
368.7783502951028
 20
250.9428140240634
 30
0.0
 10
368.8071893670144
 20
250.8904830367768
 30
0.0
 10
368.8222428663447
 20
250.8633900797673
 30
0.0
 10
368.9001725610921
 20
250.7244287805939
 30
0.0
 10
368.9713375286464
 20
250.6014775219374
 30
0.0
 10
369.1332230515441
 20
250.3345361480652
 30
0.0
 10
369.2239441545731
 20
250.1905353273013
 30
0.0
 10
369.3767721991021
 20
249.960288057863
 30
0.0
 10
369.4305125720514
 20
249.8811620352376
 30
0.0
 10
369.5156418527691
 20
249.7590861241775
 30
0.0
 10
369.5448028758416
 20
249.7177880112542
 30
0.0
 10
369.6042760083608
 20
249.6346654590397
 30
0.0
 10
369.6346311663
 20
249.5927782079423
 30
0.0
 10
369.7895444381018
 20
249.3818469458298
 30
0.0
 10
369.9235051791741
 20
249.2083315870284
 30
0.0
 10
370.2127933264571
 20
248.8549565440883
 30
0.0
 10
370.3681218079099
 20
248.6750896551855
 30
0.0
 10
370.5765970599939
 20
248.44814246117
 30
0.0
 10
370.619008366339
 20
248.4026470892885
 30
0.0
 10
370.6837192575508
 20
248.3342795239588
 30
0.0
 10
370.7054855411045
 20
248.3114555332157
 30
0.0
 10
370.7492698908567
 20
248.2658920661042
 30
0.0
 10
370.8594088528547
 20
248.1521420669107
 30
0.0
 10
370.9729356036655
 20
248.0392476781982
 30
0.0
 10
371.2518972607565
 20
247.7703799435328
 30
0.0
 10
371.4465315552183
 20
247.5939132272609
 30
0.0
 10
371.8531673748575
 20
247.2486422761864
 30
0.0
 10
372.0651686694546
 20
247.0798337217195
 30
0.0
 10
372.3411249546131
 20
246.8748187030197
 30
0.0
 10
372.3969231030353
 20
246.8340740582624
 30
0.0
 10
372.5091328503686
 20
246.7535581785897
 30
0.0
 10
372.6784853147457
 20
246.6341525752079
 30
0.0
 10
372.8509168674816
 20
246.5188846477429
 30
0.0
 10
373.1998072538985
 20
246.2939526736332
 30
0.0
 10
373.4377661518778
 20
246.1514682859922
 30
0.0
 10
373.9241083267225
 20
245.8819210772446
 30
0.0
 10
374.1724917167064
 20
245.754856566844
 30
0.0
 10
374.6795169055218
 20
245.5166965107989
 30
0.0
 10
374.9381584361426
 20
245.4055993484422
 30
0.0
 10
375.33379624544
 20
245.2514299744446
 30
0.0
 10
375.4671340045943
 20
245.2020655553606
 30
0.0
 10
375.7345086016968
 20
245.1082242093165
 30
0.0
 10
375.8687357242818
 20
245.0636662684219
 30
0.0
 10
376.2730093832307
 20
244.9370146492266
 30
0.0
 10
376.5446460823208
 20
244.8619356952054
 30
0.0
 10
376.8183578337948
 20
244.7961279863609
 30
0.0
  0
SPLINE
  5
FF
330
1F
100
AcDbEntity
  8
1
100
AcDbSpline
210
0.0
220
0.0
230
1.0
 70
     8
 71
     3
 72
    46
 73
    42
 74
     0
 42
0.000000001
 43
0.0000000001
 40
0.0
 40
0.0
 40
0.0
 40
0.0
 40
0.0624999999999969
 40
0.1249999999999938
 40
0.1249999999999938
 40
0.1562499999999901
 40
0.1562499999999901
 40
0.1718749999999853
 40
0.1718749999999853
 40
0.1874999999999806
 40
0.2499999999999535
 40
0.2499999999999535
 40
0.3124999999999264
 40
0.3124999999999264
 40
0.3437499999999199
 40
0.3437499999999199
 40
0.3749999999999134
 40
0.3749999999999134
 40
0.4374999999998835
 40
0.4374999999998835
 40
0.4687499999998685
 40
0.4687499999998685
 40
0.4999999999998537
 40
0.4999999999998537
 40
0.5624999999998448
 40
0.5624999999998448
 40
0.6249999999998362
 40
0.6249999999998362
 40
0.6562499999998437
 40
0.6562499999998437
 40
0.6874999999998515
 40
0.6874999999998515
 40
0.7499999999998921
 40
0.7499999999998921
 40
0.8749999999999733
 40
0.8749999999999733
 40
0.9062499999999868
 40
0.9062499999999868
 40
0.9375000000000003
 40
0.9375000000000003
 40
1.0
 40
1.0
 40
1.0
 40
1.0
 10
368.5726251729751
 20
251.3346144730637
 30
0.0
 10
368.5664788317422
 20
251.3468386885253
 30
0.0
 10
368.5621990240514
 20
251.3696558303913
 30
0.0
 10
368.5738340968774
 20
251.3892952577459
 30
0.0
 10
368.5886788157713
 20
251.4028609620423
 30
0.0
 10
368.5946488071453
 20
251.4071888492652
 30
0.0
 10
368.6051749771008
 20
251.4133928675387
 30
0.0
 10
368.6089506281302
 20
251.4154146633362
 30
0.0
 10
368.6169706191951
 20
251.4193343185698
 30
0.0
 10
368.6382226121746
 20
251.4288417338631
 30
0.0
 10
368.6653587670428
 20
251.4369452073972
 30
0.0
 10
368.7159875765754
 20
251.4483441088499
 30
0.0
 10
368.7449084405821
 20
251.4532597335689
 30
0.0
 10
368.7936453999141
 20
251.4596069576625
 30
0.0
 10
368.8108198045877
 20
251.4615533283737
 30
0.0
 10
368.8464976680681
 20
251.4650860080276
 30
0.0
 10
368.8650469364275
 20
251.4666792981179
 30
0.0
 10
368.9227400455902
 20
251.4709986350233
 30
0.0
 10
368.9639232719688
 20
251.4732656952098
 30
0.0
 10
369.0295595963103
 20
251.4759471378976
 30
0.0
 10
369.0520835128115
 20
251.4767206691716
 30
0.0
 10
369.0984020991103
 20
251.4780561687609
 30
0.0
 10
369.1222595573283
 20
251.4786191750497
 30
0.0
 10
369.1951857028262
 20
251.4800216634154
 30
0.0
 10
369.2455565267526
 20
251.480578770617
 30
0.0
 10
369.3495382909201
 20
251.481178000259
 30
0.0
 10
369.4031503593198
 20
251.4812194449857
 30
0.0
 10
369.4858907159826
 20
251.481036900698
 30
0.0
 10
369.513858710315
 20
251.4809349359207
 30
0.0
 10
369.5705614651116
 20
251.4806690993332
 30
0.0
 10
369.5993586676361
 20
251.4805047868114
 30
0.0
 10
369.6862951893207
 20
251.4799507206866
 30
0.0
 10
369.7450193298407
 20
251.4795014515369
 30
0.0
 10
369.9233523056459
 20
251.4781096622536
 30
0.0
 10
370.045104107181
 20
251.4771353820954
 30
0.0
 10
370.2007310883768
 20
251.4762715382839
 30
0.0
 10
370.2320733555758
 20
251.4761152867812
 30
0.0
 10
370.294821232716
 20
251.4758437387717
 30
0.0
 10
370.3262367046296
 20
251.475728324722
 30
0.0
 10
370.4206061383295
 20
251.4754489800185
 30
0.0
 10
370.4836828770477
 20
251.4753526817933
 30
0.0
 10
370.5469222168024
 20
251.4753526817933
 30
0.0
  0
SPLINE
  5
100
330
1F
100
AcDbEntity
  8
1
100
AcDbSpline
210
0.0
220
0.0
230
1.0
 70
     8
 71
     3
 72
    22
 73
    18
 74
     0
 42
0.000000001
 43
0.0000000001
 40
0.0
 40
0.0
 40
0.0
 40
0.0
 40
0.0483742025361363
 40
0.0483742025361363
 40
0.1276763523247765
 40
0.1276763523247765
 40
0.2069785021134167
 40
0.2069785021134167
 40
0.365582801690761
 40
0.365582801690761
 40
0.6827914008454497
 40
0.6827914008454497
 40
0.7620935506341048
 40
0.7620935506341048
 40
0.8413957004227597
 40
0.8413957004227597
 40
1.0
 40
1.0
 40
1.0
 40
1.0
 10
369.4082732181769
 20
235.981161744379
 30
0.0
 10
369.4248069455626
 20
235.9811658131937
 30
0.0
 10
369.4414867624247
 20
235.981187754333
 30
0.0
 10
369.4858907159826
 20
235.9812857196839
 30
0.0
 10
369.513858710315
 20
235.9813876844613
 30
0.0
 10
369.5705614651116
 20
235.9816535210487
 30
0.0
 10
369.5993586676361
 20
235.9818178335705
 30
0.0
 10
369.6862951893207
 20
235.9823718996954
 30
0.0
 10
369.7450193298407
 20
235.982821168845
 30
0.0
 10
369.9233523056457
 20
235.9842129581283
 30
0.0
 10
370.045104107181
 20
235.9851872382865
 30
0.0
 10
370.2007310883768
 20
235.986051082098
 30
0.0
 10
370.2320733555758
 20
235.9862073336008
 30
0.0
 10
370.294821232716
 20
235.9864788816103
 30
0.0
 10
370.3262367046296
 20
235.9865942956599
 30
0.0
 10
370.4206061383296
 20
235.9868736403635
 30
0.0
 10
370.4836828770477
 20
235.9869699385886
 30
0.0
 10
370.5469222168024
 20
235.9869699385886
 30
0.0
  0
SPLINE
  5
101
330
1F
100
AcDbEntity
  8
1
100
AcDbSpline
210
0.0
220
0.0
230
1.0
 70
     8
 71
     3
 72
    10
 73
     6
 74
     0
 42
0.000000001
 43
0.0000000001
 40
0.0
 40
0.0
 40
0.0
 40
0.0
 40
0.5183865234660406
 40
0.5183865234660406
 40
1.0
 40
1.0
 40
1.0
 40
1.0
 10
387.6406232812629
 20
246.2497904602925
 30
0.0
 10
387.6950142223858
 20
246.87587643515
 30
0.0
 10
387.7496361559796
 20
247.5019422961669
 30
0.0
 10
387.855052525176
 20
248.7096583536969
 30
0.0
 10
387.9058646769707
 20
249.2913070075593
 30
0.0
 10
387.9566919939184
 20
249.8729543409048
 30
0.0
  0
SPLINE
  5
102
330
1F
100
AcDbEntity
  8
1
100
AcDbSpline
210
0.0
220
0.0
230
1.0
 70
     8
 71
     3
 72
    38
 73
    34
 74
     0
 42
0.000000001
 43
0.0000000001
 40
0.0
 40
0.0
 40
0.0
 40
0.0
 40
0.1249999999999956
 40
0.1249999999999956
 40
0.1874999999999948
 40
0.1874999999999948
 40
0.2187499999999947
 40
0.2187499999999947
 40
0.2499999999999946
 40
0.2499999999999946
 40
0.3749999999999916
 40
0.3749999999999916
 40
0.4374999999999912
 40
0.4374999999999912
 40
0.468749999999992
 40
0.468749999999992
 40
0.4999999999999928
 40
0.4999999999999928
 40
0.6249999999999963
 40
0.6249999999999963
 40
0.6562499999999972
 40
0.6562499999999972
 40
0.6874999999999979
 40
0.6874999999999979
 40
0.7499999999999999
 40
0.7499999999999999
 40
0.8125000000000017
 40
0.8125000000000017
 40
0.8437500000000021
 40
0.8437500000000021
 40
0.8750000000000024
 40
0.8750000000000024
 40
1.0
 40
1.0
 40
1.0
 40
1.0
 10
387.6406232812629
 20
246.2497904602925
 30
0.0
 10
387.6303127432347
 20
246.1311074016888
 30
0.0
 10
387.6200684066819
 20
246.0145289276681
 30
0.0
 10
387.6047821565847
 20
245.8426713425053
 30
0.0
 10
387.5997013152548
 20
245.7858908300778
 30
0.0
 10
387.5921155656569
 20
245.7014916320719
 30
0.0
 10
387.5895930408935
 20
245.6734873785042
 30
0.0
 10
387.5845645477789
 20
245.6177415136083
 30
0.0
 10
387.58205829362
 20
245.5899969885917
 30
0.0
 10
387.5697263465819
 20
245.4535181095317
 30
0.0
 10
387.5603528324841
 20
245.3501637432121
 30
0.0
 10
387.5475441869288
 20
245.2036619325141
 30
0.0
 10
387.5434887085357
 20
245.1562595639927
 30
0.0
 10
387.5378592724491
 20
245.087369881199
 30
0.0
 10
387.5360623857371
 20
245.0648125926051
 30
0.0
 10
387.5326856548517
 20
245.0209388132641
 30
0.0
 10
387.5311006493431
 20
244.9995595157535
 30
0.0
 10
387.5237500110233
 20
244.8954072422567
 30
0.0
 10
387.5197206813997
 20
244.8207864310762
 30
0.0
 10
387.5179338676378
 20
244.7385033112247
 30
0.0
 10
387.5177374324275
 20
244.7226014100092
 30
0.0
 10
387.5176793157621
 20
244.6919311782738
 30
0.0
 10
387.5178185061483
 20
244.6772296645782
 30
0.0
 10
387.5187241509723
 20
244.6352850408292
 30
0.0
 10
387.5199802691787
 20
244.6100716981347
 30
0.0
 10
387.523633073423
 20
244.5650108553425
 30
0.0
 10
387.5260274592376
 20
244.5451635391265
 30
0.0
 10
387.5303208941034
 20
244.519435664945
 30
0.0
 10
387.5318689659404
 20
244.5115347685981
 30
0.0
 10
387.5351754373505
 20
244.4971012371581
 30
0.0
 10
387.5369358711696
 20
244.4905622015374
 30
0.0
 10
387.5461890098812
 20
244.4614291076946
 30
0.0
 10
387.5548592255808
 20
244.4497904602925
 30
0.0
 10
387.5642303779395
 20
244.4497904602925
 30
0.0
  0
SPLINE
  5
103
330
1F
100
AcDbEntity
  8
1
100
AcDbSpline
210
0.0
220
0.0
230
1.0
 70
     8
 71
     3
 72
    12
 73
     8
 74
     0
 42
0.000000001
 43
0.0000000001
 40
0.0
 40
0.0
 40
0.0
 40
0.0
 40
0.5
 40
0.5
 40
0.75
 40
0.75
 40
1.0
 40
1.0
 40
1.0
 40
1.0
 10
382.5253374367727
 20
234.8407058753773
 30
0.0
 10
382.5966356853241
 20
234.8300113439678
 30
0.0
 10
382.6681672490913
 20
234.8246888815319
 30
0.0
 10
382.7758113023849
 20
234.8246519787131
 30
0.0
 10
382.8117506441606
 20
234.8259696230072
 30
0.0
 10
382.8837472830705
 20
234.831313119225
 30
0.0
 10
382.9199799224812
 20
234.8353754686507
 30
0.0
 10
382.9555166514051
 20
234.8407058753773
 30
0.0
  0
SPLINE
  5
104
330
1F
100
AcDbEntity
  8
1
100
AcDbSpline
210
0.0
220
0.0
230
1.0
 70
     8
 71
     3
 72
    16
 73
    12
 74
     0
 42
0.000000001
 43
0.0000000001
 40
0.0
 40
0.0
 40
0.0
 40
0.0
 40
0.0270000481724373
 40
0.0270000481724373
 40
0.3513333654482803
 40
0.3513333654482803
 40
0.5135000240862104
 40
0.5135000240862104
 40
0.67566668272414
 40
0.67566668272414
 40
1.0
 40
1.0
 40
1.0
 40
1.0
 10
377.4991546813625
 20
235.9800628321644
 30
0.0
 10
377.4994644808998
 20
235.9773391499423
 30
0.0
 10
377.4997882887341
 20
235.974616820086
 30
0.0
 10
377.5041839164548
 20
235.9392111081883
 30
0.0
 10
377.5102843192329
 20
235.9066763871133
 30
0.0
 10
377.5223656072852
 20
235.858791526112
 30
0.0
 10
377.5268844734699
 20
235.8429557818467
 30
0.0
 10
377.5369107621943
 20
235.8115373293804
 30
0.0
 10
377.542421083337
 20
235.7959531520468
 30
0.0
 10
377.5603269402047
 20
235.7498917850324
 30
0.0
 10
377.5741232958275
 20
235.7199974499856
 30
0.0
 10
377.5897927448361
 20
235.6909224713495
 30
0.0
  0
SPLINE
  5
105
330
1F
100
AcDbEntity
  8
1
100
AcDbSpline
210
0.0
220
0.0
230
1.0
 70
     8
 71
     3
 72
    40
 73
    36
 74
     0
 42
0.000000001
 43
0.0000000001
 40
0.0
 40
0.0
 40
0.0
 40
0.0
 40
0.0009765625000038
 40
0.0009765625000038
 40
0.0019531250000077
 40
0.0019531250000077
 40
0.0039062500000071
 40
0.0039062500000071
 40
0.0078125000000059
 40
0.0078125000000059
 40
0.0156250000000037
 40
0.0156250000000037
 40
0.0234375000000013
 40
0.0234375000000013
 40
0.031249999999999
 40
0.031249999999999
 40
0.0468749999999997
 40
0.0468749999999997
 40
0.0625000000000003
 40
0.0625000000000003
 40
0.0937500000000016
 40
0.0937500000000016
 40
0.1250000000000028
 40
0.1250000000000028
 40
0.1874999999999982
 40
0.1874999999999982
 40
0.2499999999999937
 40
0.2499999999999937
 40
0.3749999999999921
 40
0.3749999999999921
 40
0.4999999999999906
 40
0.4999999999999906
 40
0.7499999999999954
 40
0.7499999999999954
 40
1.0
 40
1.0
 40
1.0
 40
1.0
 10
376.5709203782362
 20
235.5047739633069
 30
0.0
 10
376.5701367891281
 20
235.505557552415
 30
0.0
 10
376.5694089021862
 20
235.5063716833228
 30
0.0
 10
376.5681631795097
 20
235.5079534903736
 30
0.0
 10
376.5676597694902
 20
235.508698351027
 30
0.0
 10
376.5664358932999
 20
235.5107656913596
 30
0.0
 10
376.5659854306573
 20
235.5119256213266
 30
0.0
 10
376.5651213880436
 20
235.5149612009057
 30
0.0
 10
376.5651443499729
 20
235.5165016373109
 30
0.0
 10
376.5657029786523
 20
235.5206517661582
 30
0.0
 10
376.5668167944139
 20
235.5227389024799
 30
0.0
 10
376.5694260796389
 20
235.5265210149524
 30
0.0
 10
376.5709768876508
 20
235.5281709331237
 30
0.0
 10
376.5743218501989
 20
235.5312244555296
 30
0.0
 10
376.5761222197593
 20
235.5326221427735
 30
0.0
 10
376.5817599982652
 20
235.5365715118377
 30
0.0
 10
376.5858303743929
 20
235.5388850306726
 30
0.0
 10
376.5942863346421
 20
235.5431799046474
 30
0.0
 10
376.5986803994883
 20
235.5451543329777
 30
0.0
 10
376.6121727499778
 20
235.5507467598146
 30
0.0
 10
376.621577813802
 20
235.5540417210862
 30
0.0
 10
376.6408103425531
 20
235.5601755949496
 30
0.0
 10
376.6506485171137
 20
235.5630052192266
 30
0.0
 10
376.680583495325
 20
235.5710379516288
 30
0.0
 10
376.701093537668
 20
235.5757943794591
 30
0.0
 10
376.7426942271276
 20
235.584672547473
 30
0.0
 10
376.7637968127504
 20
235.5887811350443
 30
0.0
 10
376.8276872598835
 20
235.6004697336282
 30
0.0
 10
376.8710423362803
 20
235.6074245333873
 30
0.0
 10
376.95856262978
 20
235.6204405806974
 30
0.0
 10
377.0027430650084
 20
235.6264836378094
 30
0.0
 10
377.1360964426613
 20
235.6437116772018
 30
0.0
 10
377.2260661583067
 20
235.6540134255649
 30
0.0
 10
377.4071435244149
 20
235.6733440262116
 30
0.0
 10
377.4982754440069
 20
235.6823480421784
 30
0.0
 10
377.5897927448361
 20
235.6909224713495
 30
0.0
  0
SPLINE
  5
106
330
1F
100
AcDbEntity
  8
1
100
AcDbSpline
210
0.0
220
0.0
230
1.0
 70
     8
 71
     3
 72
    42
 73
    38
 74
     0
 42
0.000000001
 43
0.0000000001
 40
0.0
 40
0.0
 40
0.0
 40
0.0
 40
0.0009765625000004
 40
0.0009765625000004
 40
0.0019531250000008
 40
0.0019531250000008
 40
0.003906250000001
 40
0.003906250000001
 40
0.0058593750000012
 40
0.0058593750000012
 40
0.0078125000000015
 40
0.0078125000000015
 40
0.0156250000000023
 40
0.0156250000000023
 40
0.0234375000000032
 40
0.0234375000000032
 40
0.031250000000004
 40
0.031250000000004
 40
0.0468750000000057
 40
0.0468750000000057
 40
0.0625000000000074
 40
0.0625000000000074
 40
0.0937500000000082
 40
0.0937500000000082
 40
0.125000000000009
 40
0.125000000000009
 40
0.1875000000000092
 40
0.1875000000000092
 40
0.2500000000000093
 40
0.2500000000000093
 40
0.3750000000000083
 40
0.3750000000000083
 40
0.5000000000000073
 40
0.5000000000000073
 40
0.7500000000000037
 40
0.7500000000000037
 40
1.0
 40
1.0
 40
1.0
 40
1.0
 10
382.1747416191397
 20
229.9009527224036
 30
0.0
 10
382.1755355607067
 20
229.9001587808364
 30
0.0
 10
382.1763614976717
 20
229.8994217462649
 30
0.0
 10
382.1779581773481
 20
229.8981684874682
 30
0.0
 10
382.1787238106736
 20
229.8976542325912
 30
0.0
 10
382.1808073827741
 20
229.8964322535116
 30
0.0
 10
382.1819665742452
 20
229.895990450597
 30
0.0
 10
382.1839978692331
 20
229.8954256978183
 30
0.0
 10
382.1848912842517
 20
229.8953051296245
 30
0.0
 10
382.1865162157546
 20
229.895230036824
 30
0.0
 10
382.1872508030833
 20
229.8952772271078
 30
0.0
 10
382.1906920195214
 20
229.8957653048681
 30
0.0
 10
382.1927795900252
 20
229.8968886382645
 30
0.0
 10
382.1965606250143
 20
229.8995193757227
 30
0.0
 10
382.1982058695903
 20
229.901075443731
 30
0.0
 10
382.2012518909495
 20
229.9044274889145
 30
0.0
 10
382.2026462491465
 20
229.9062297649877
 30
0.0
 10
382.2065881085613
 20
229.9118733104089
 30
0.0
 10
382.2088990648301
 20
229.9159467138184
 30
0.0
 10
382.2131929203737
 20
229.9244154603055
 30
0.0
 10
382.215166895849
 20
229.9288151846526
 30
0.0
 10
382.2207560383686
 20
229.9423175285451
 30
0.0
 10
382.224047743096
 20
229.9517227738239
 30
0.0
 10
382.2301767627758
 20
229.9709555327749
 30
0.0
 10
382.2330041950191
 20
229.9807922305319
 30
0.0
 10
382.2410319368564
 20
230.0107247456352
 30
0.0
 10
382.2457866927375
 20
230.031234619939
 30
0.0
 10
382.2546634601542
 20
230.0728423833939
 30
0.0
 10
382.2587711514193
 20
230.0939463293005
 30
0.0
 10
382.2704562782075
 20
230.1578329950704
 30
0.0
 10
382.277408815114
 20
230.2011810655392
 30
0.0
 10
382.2904207334674
 20
230.288684423764
 30
0.0
 10
382.2964620807031
 20
230.3328560105043
 30
0.0
 10
382.3136857794651
 20
230.4661844839289
 30
0.0
 10
382.323985574133
 20
230.5561390090815
 30
0.0
 10
382.3433137811677
 20
230.7371971110566
 30
0.0
 10
382.3523167199579
 20
230.8283186957006
 30
0.0
 10
382.3608901271822
 20
230.9198250890034
 30
0.0
  0
SPLINE
  5
107
330
1F
100
AcDbEntity
  8
1
100
AcDbSpline
210
0.0
220
0.0
230
1.0
 70
     8
 71
     3
 72
    27
 73
    23
 74
     0
 42
0.000000001
 43
0.0000000001
 40
0.0
 40
0.0
 40
0.0
 40
0.0
 40
0.1249999999999724
 40
0.1249999999999724
 40
0.1874999999999597
 40
0.1874999999999597
 40
0.2499999999999471
 40
0.3124999999999344
 40
0.3124999999999344
 40
0.3749999999999218
 40
0.3749999999999218
 40
0.4999999999998966
 40
0.4999999999998966
 40
0.6249999999998713
 40
0.6249999999998713
 40
0.7499999999998462
 40
0.7499999999998462
 40
0.8124999999998845
 40
0.8124999999998845
 40
0.874999999999923
 40
0.874999999999923
 40
1.0
 40
1.0
 40
1.0
 40
1.0
 10
382.3608901271822
 20
230.9198250890034
 30
0.0
 10
382.3899651058182
 20
230.9041556399948
 30
0.0
 10
382.4198573034492
 20
230.8903604354149
 30
0.0
 10
382.4659117463727
 20
230.8724567900468
 30
0.0
 10
382.4814935872582
 20
230.8669469763016
 30
0.0
 10
382.5129143595963
 20
230.8569194821829
 30
0.0
 10
382.5445826729079
 20
230.8478824636154
 30
0.0
 10
382.5767430370277
 20
230.8408142677778
 30
0.0
 10
382.6091507352353
 20
230.8347357196886
 30
0.0
 10
382.6254862602806
 20
230.83219228789
 30
0.0
 10
382.6745311017007
 20
230.8261015398905
 30
0.0
 10
382.7073871067947
 20
230.8240644620384
 30
0.0
 10
382.7734200048349
 20
230.8240625232899
 30
0.0
 10
382.8063057742102
 20
230.8261006151389
 30
0.0
 10
382.8716753241569
 20
230.8342162606222
 30
0.0
 10
382.9042100452318
 20
230.8403166634003
 30
0.0
 10
382.9520949062331
 20
230.8523979514525
 30
0.0
 10
382.9679306504984
 20
230.8569168176371
 30
0.0
 10
382.9993491029646
 20
230.8669431063616
 30
0.0
 10
383.0149332802982
 20
230.8724534275043
 30
0.0
 10
383.0609946473126
 20
230.890359284372
 30
0.0
 10
383.0908889823594
 20
230.9041556399948
 30
0.0
 10
383.1199639609956
 20
230.9198250890034
 30
0.0
  0
SPLINE
  5
108
330
1F
100
AcDbEntity
  8
1
100
AcDbSpline
210
0.0
220
0.0
230
1.0
 70
     8
 71
     3
 72
    40
 73
    36
 74
     0
 42
0.000000001
 43
0.0000000001
 40
0.0
 40
0.0
 40
0.0
 40
0.0
 40
0.0012644909317476
 40
0.0012644909317476
 40
0.0025289818634953
 40
0.0025289818634953
 40
0.0050579637270036
 40
0.0050579637270036
 40
0.0101159274540199
 40
0.0101159274540199
 40
0.0202318549080532
 40
0.0202318549080532
 40
0.0303477823620864
 40
0.0303477823620864
 40
0.0404637098161196
 40
0.0404637098161196
 40
0.0606955647241928
 40
0.0606955647241928
 40
0.080927419632266
 40
0.080927419632266
 40
0.1213911294484122
 40
0.1213911294484122
 40
0.1618548392645585
 40
0.1618548392645585
 40
0.2427822588968602
 40
0.2427822588968602
 40
0.3237096785291617
 40
0.3237096785291617
 40
0.4855645177937555
 40
0.4855645177937555
 40
0.6474193570583492
 40
0.6474193570583492
 40
0.9711290355875361
 40
0.9711290355875361
 40
1.0
 40
1.0
 40
1.0
 40
1.0
 10
388.9099337099415
 20
236.6361448132054
 30
0.0
 10
388.9107172990496
 20
236.6353612240974
 30
0.0
 10
388.9114451859912
 20
236.6345470931896
 30
0.0
 10
388.9126909086677
 20
236.6329652861388
 30
0.0
 10
388.9131943186873
 20
236.6322204254854
 30
0.0
 10
388.9144181948776
 20
236.6301530851528
 30
0.0
 10
388.9148686575206
 20
236.6289931551856
 30
0.0
 10
388.9157327001342
 20
236.6259575756065
 30
0.0
 10
388.9157097382043
 20
236.624417139202
 30
0.0
 10
388.9151511095249
 20
236.6202670103546
 30
0.0
 10
388.9140372937641
 20
236.6181798740323
 30
0.0
 10
388.911428008539
 20
236.6143977615598
 30
0.0
 10
388.9098772005271
 20
236.6127478433884
 30
0.0
 10
388.9065322379792
 20
236.6096943209825
 30
0.0
 10
388.9047318684182
 20
236.608296633739
 30
0.0
 10
388.8990940899124
 20
236.6043472646748
 30
0.0
 10
388.8950237137848
 20
236.6020337458397
 30
0.0
 10
388.8865677535356
 20
236.5977388718649
 30
0.0
 10
388.8821736886894
 20
236.5957644435346
 30
0.0
 10
388.8686813382
 20
236.5901720166977
 30
0.0
 10
388.8592762743756
 20
236.5868770554262
 30
0.0
 10
388.8400437456247
 20
236.5807431815629
 30
0.0
 10
388.8302055710642
 20
236.5779135572857
 30
0.0
 10
388.8002705928528
 20
236.5698808248835
 30
0.0
 10
388.7797605505098
 20
236.5651243970532
 30
0.0
 10
388.7381598610502
 20
236.5562462290392
 30
0.0
 10
388.7170572754274
 20
236.5521376414681
 30
0.0
 10
388.6531668282941
 20
236.5404490428842
 30
0.0
 10
388.6098117518974
 20
236.5334942431251
 30
0.0
 10
388.5222914583977
 20
236.520478195815
 30
0.0
 10
388.4781110231694
 20
236.5144351387029
 30
0.0
 10
388.3447576455164
 20
236.4972070993106
 30
0.0
 10
388.254787929871
 20
236.4869053509475
 30
0.0
 10
388.1561742979668
 20
236.476378023443
 30
0.0
 10
388.148094630235
 20
236.4755212564281
 30
0.0
 10
388.1400103910823
 20
236.4746695852034
 30
0.0
  0
SPLINE
  5
109
330
1F
100
AcDbEntity
  8
1
100
AcDbSpline
210
0.0
220
0.0
230
1.0
 70
     8
 71
     3
 72
    17
 73
    13
 74
     0
 42
0.000000001
 43
0.0000000001
 40
0.0
 40
0.0
 40
0.0
 40
0.0
 40
0.3240313269371892
 40
0.3240313269371892
 40
0.4860469904057839
 40
0.4860469904057839
 40
0.6480626538743783
 40
0.8100783173429729
 40
0.8100783173429729
 40
0.9720939808115591
 40
0.9720939808115591
 40
1.0
 40
1.0
 40
1.0
 40
1.0
 10
387.8910613433417
 20
235.6909224713495
 30
0.0
 10
387.9067307923503
 20
235.7199974499856
 30
0.0
 10
387.9205259969302
 20
235.7498896476166
 30
0.0
 10
387.9384296422983
 20
235.79594409054
 30
0.0
 10
387.9439394560434
 20
235.8115259314254
 30
0.0
 10
387.9539669501621
 20
235.8429467037636
 30
0.0
 10
387.9630039679409
 20
235.8746150172724
 30
0.0
 10
387.9700721645672
 20
235.906775381195
 30
0.0
 10
387.9761507126565
 20
235.9391830794026
 30
0.0
 10
387.9786941444551
 20
235.9555186044479
 30
0.0
 10
387.9810740894635
 20
235.9746827572809
 30
0.0
 10
387.9814087776513
 20
235.9774998122201
 30
0.0
 10
387.9817284502473
 20
235.9803180503774
 30
0.0
  0
SPLINE
  5
10A
330
1F
100
AcDbEntity
  8
1
100
AcDbSpline
210
0.0
220
0.0
230
1.0
 70
     8
 71
     3
 72
    40
 73
    36
 74
     0
 42
0.000000001
 43
0.0000000001
 40
0.0
 40
0.0
 40
0.0
 40
0.0
 40
0.0009765625000046
 40
0.0009765625000046
 40
0.001953125000009
 40
0.001953125000009
 40
0.0039062500000017
 40
0.0039062500000017
 40
0.0078124999999987
 40
0.0078124999999987
 40
0.0156250000000003
 40
0.0156250000000003
 40
0.0234375000000021
 40
0.0234375000000021
 40
0.0312500000000039
 40
0.0312500000000039
 40
0.046875000000004
 40
0.046875000000004
 40
0.0625000000000041
 40
0.0625000000000041
 40
0.0937500000000041
 40
0.0937500000000041
 40
0.125000000000004
 40
0.125000000000004
 40
0.1875000000000038
 40
0.1875000000000038
 40
0.2500000000000036
 40
0.2500000000000036
 40
0.3750000000000031
 40
0.3750000000000031
 40
0.5000000000000027
 40
0.5000000000000027
 40
0.7500000000000014
 40
0.7500000000000014
 40
1.0
 40
1.0
 40
1.0
 40
1.0
 10
383.3061124690382
 20
229.9009527224035
 30
0.0
 10
383.30532887993
 20
229.9001691332955
 30
0.0
 10
383.3045147490222
 20
229.8994412463537
 30
0.0
 10
383.3029329419714
 20
229.8981955236772
 30
0.0
 10
383.302188081318
 20
229.8976921136576
 30
0.0
 10
383.3001207409854
 20
229.8964682374672
 30
0.0
 10
383.2989608110183
 20
229.8960177748246
 30
0.0
 10
383.2959252314393
 20
229.8951537322109
 30
0.0
 10
383.2943847950343
 20
229.8951766941404
 30
0.0
 10
383.290234666187
 20
229.8957353228199
 30
0.0
 10
383.2881475298651
 20
229.8968491385812
 30
0.0
 10
383.2843654173927
 20
229.8994584238062
 30
0.0
 10
383.2827154992208
 20
229.9010092318177
 30
0.0
 10
383.2796619768149
 20
229.9043541943658
 30
0.0
 10
383.2782642895717
 20
229.9061545639269
 30
0.0
 10
383.2743149205074
 20
229.9117923424327
 30
0.0
 10
383.2720014016725
 20
229.9158627185603
 30
0.0
 10
383.2677065276977
 20
229.9243186788095
 30
0.0
 10
383.2657320993671
 20
229.9287127436555
 30
0.0
 10
383.2601396725303
 20
229.9422050941451
 30
0.0
 10
383.256844711259
 20
229.9516101579695
 30
0.0
 10
383.2507108373956
 20
229.9708426867205
 30
0.0
 10
383.2478812131183
 20
229.9806808612808
 30
0.0
 10
383.2398484807161
 20
230.0106158394922
 30
0.0
 10
383.2350920528859
 20
230.0311258818353
 30
0.0
 10
383.2262138848719
 20
230.0727265712949
 30
0.0
 10
383.2221052973008
 20
230.0938291569178
 30
0.0
 10
383.2104166987169
 20
230.157719604051
 30
0.0
 10
383.2034618989578
 20
230.2010746804476
 30
0.0
 10
383.1904458516477
 20
230.2885949739474
 30
0.0
 10
383.1844027945356
 20
230.3327754091757
 30
0.0
 10
383.1671747551433
 20
230.4661287868285
 30
0.0
 10
383.1568730067801
 20
230.556098502474
 30
0.0
 10
383.1375424061335
 20
230.7371758685822
 30
0.0
 10
383.1285383901667
 20
230.8283077881742
 30
0.0
 10
383.1199639609956
 20
230.9198250890034
 30
0.0
  0
SPLINE
  5
10B
330
1F
100
AcDbEntity
  8
1
100
AcDbSpline
210
0.0
220
0.0
230
1.0
 70
     8
 71
     3
 72
    42
 73
    38
 74
     0
 42
0.000000001
 43
0.0000000001
 40
0.0
 40
0.0
 40
0.0
 40
0.0
 40
0.0009765625000052
 40
0.0009765625000052
 40
0.0019531250000104
 40
0.0019531250000104
 40
0.0039062500000108
 40
0.0039062500000108
 40
0.0058593750000112
 40
0.0058593750000112
 40
0.0078125000000117
 40
0.0078125000000117
 40
0.0156250000000127
 40
0.0156250000000127
 40
0.0234375000000137
 40
0.0234375000000137
 40
0.0312500000000148
 40
0.0312500000000148
 40
0.0468750000000169
 40
0.0468750000000169
 40
0.062500000000019
 40
0.062500000000019
 40
0.0937500000000169
 40
0.0937500000000169
 40
0.1250000000000148
 40
0.1250000000000148
 40
0.1875000000000106
 40
0.1875000000000106
 40
0.2500000000000064
 40
0.2500000000000064
 40
0.3750000000000054
 40
0.3750000000000054
 40
0.5000000000000044
 40
0.5000000000000044
 40
0.7500000000000022
 40
0.7500000000000022
 40
1.0
 40
1.0
 40
1.0
 40
1.0
 10
388.9099337099417
 20
235.504773963307
 30
0.0
 10
388.9107276515088
 20
235.5055679048741
 30
0.0
 10
388.91146468608
 20
235.5063938418388
 30
0.0
 10
388.9127179448767
 20
235.5079905215153
 30
0.0
 10
388.9132321997531
 20
235.5087561548403
 30
0.0
 10
388.9144541788328
 20
235.5108397269409
 30
0.0
 10
388.9148959817477
 20
235.511998918412
 30
0.0
 10
388.9154607345265
 20
235.5140302134002
 30
0.0
 10
388.9155813027211
 20
235.5149236284195
 30
0.0
 10
388.9156563955215
 20
235.5165485599223
 30
0.0
 10
388.9156092052374
 20
235.5172831472507
 30
0.0
 10
388.9151211274772
 20
235.5207243636888
 30
0.0
 10
388.9139977940803
 20
235.5228119341921
 30
0.0
 10
388.9113670566222
 20
235.5265929691814
 30
0.0
 10
388.9098109886144
 20
235.5282382137578
 30
0.0
 10
388.9064589434308
 20
235.5312842351171
 30
0.0
 10
388.9046566673576
 20
235.532678593314
 30
0.0
 10
388.8990131219363
 20
235.5366204527288
 30
0.0
 10
388.8949397185268
 20
235.5389314089973
 30
0.0
 10
388.8864709720396
 20
235.543225264541
 30
0.0
 10
388.8820712476925
 20
235.5451992400162
 30
0.0
 10
388.8685689037999
 20
235.5507883825358
 30
0.0
 10
388.8591636585212
 20
235.5540800872633
 30
0.0
 10
388.8399308995703
 20
235.5602091069431
 30
0.0
 10
388.8300942018132
 20
235.5630365391864
 30
0.0
 10
388.8001616867099
 20
235.5710642810239
 30
0.0
 10
388.7796518124062
 20
235.5758190369047
 30
0.0
 10
388.7380440489511
 20
235.5846958043215
 30
0.0
 10
388.7169401030446
 20
235.5888034955867
 30
0.0
 10
388.6530534372748
 20
235.6004886223749
 30
0.0
 10
388.6097053668059
 20
235.6074411592813
 30
0.0
 10
388.5222020085812
 20
235.6204530776346
 30
0.0
 10
388.4780304218407
 20
235.6264944248705
 30
0.0
 10
388.3447019484163
 20
235.6437181236324
 30
0.0
 10
388.2547474232636
 20
235.6540179183004
 30
0.0
 10
388.0736893212886
 20
235.6733461253351
 30
0.0
 10
387.9825677366445
 20
235.6823490641251
 30
0.0
 10
387.8910613433417
 20
235.6909224713495
 30
0.0
  0
SPLINE
  5
10C
330
1F
100
AcDbEntity
  8
1
100
AcDbSpline
210
0.0
220
0.0
230
1.0
 70
     8
 71
     3
 72
    76
 73
    72
 74
     0
 42
0.000000001
 43
0.0000000001
 40
0.0
 40
0.0
 40
0.0
 40
0.0
 40
0.0624999999999964
 40
0.0624999999999964
 40
0.093749999999995
 40
0.093749999999995
 40
0.1249999999999935
 40
0.1249999999999935
 40
0.1406249999999931
 40
0.1406249999999931
 40
0.1562499999999926
 40
0.1562499999999926
 40
0.1874999999999913
 40
0.1874999999999913
 40
0.1953124999999912
 40
0.1953124999999912
 40
0.2031249999999911
 40
0.2187499999999906
 40
0.2343749999999902
 40
0.2343749999999902
 40
0.2421874999999944
 40
0.2421874999999944
 40
0.2499999999999986
 40
0.2499999999999986
 40
0.2812500000000051
 40
0.2812500000000051
 40
0.2968750000000088
 40
0.2968750000000088
 40
0.3046875000000105
 40
0.3046875000000105
 40
0.3125000000000122
 40
0.3125000000000122
 40
0.3437500000000063
 40
0.3437500000000063
 40
0.3593750000000058
 40
0.3593750000000058
 40
0.3750000000000053
 40
0.3750000000000053
 40
0.4062500000000047
 40
0.4062500000000047
 40
0.4375000000000038
 40
0.4375000000000038
 40
0.4531250000000037
 40
0.4531250000000037
 40
0.4687500000000034
 40
0.4687500000000034
 40
0.5000000000000022
 40
0.5000000000000022
 40
0.5625000000000002
 40
0.5625000000000002
 40
0.5937499999999978
 40
0.5937499999999978
 40
0.6093749999999963
 40
0.6093749999999963
 40
0.6249999999999947
 40
0.6249999999999947
 40
0.6874999999999983
 40
0.6874999999999983
 40
0.7500000000000017
 40
0.7500000000000017
 40
0.7812500000000037
 40
0.7812500000000037
 40
0.7968750000000047
 40
0.7968750000000047
 40
0.8125000000000056
 40
0.8125000000000056
 40
0.8750000000000037
 40
0.8750000000000037
 40
0.9375000000000019
 40
0.9375000000000019
 40
1.0
 40
1.0
 40
1.0
 40
1.0
 10
382.5253374367727
 20
234.8407058753773
 30
0.0
 10
382.4507573257188
 20
234.8518926766859
 30
0.0
 10
382.3748435627554
 20
234.8691296689544
 30
0.0
 10
382.2581314419768
 20
234.9066142691042
 30
0.0
 10
382.2187494174123
 20
234.9210643397863
 30
0.0
 10
382.1387988040947
 20
234.9546552651007
 30
0.0
 10
382.0982325266704
 20
234.9737865929867
 30
0.0
 10
382.0362356241845
 20
235.0069246600071
 30
0.0
 10
382.0153008438018
 20
235.0187642657237
 30
0.0
 10
381.9735506293985
 20
235.0438135934798
 30
0.0
 10
381.9527028220528
 20
235.0570355518866
 30
0.0
 10
381.8902483881031
 20
235.0989890277627
 30
0.0
 10
381.848728497661
 20
235.1299835211729
 30
0.0
 10
381.7970237130652
 20
235.1734500173414
 30
0.0
 10
381.7866809053411
 20
235.1823933473352
 30
0.0
 10
381.7662339235713
 20
235.2005901445961
 30
0.0
 10
381.7358445393746
 20
235.2284135892449
 30
0.0
 10
381.6866327993665
 20
235.277479918043
 30
0.0
 10
381.648885411107
 20
235.319751574134
 30
0.0
 10
381.6212267731187
 20
235.3526576512469
 30
0.0
 10
381.6121159916461
 20
235.3638269096234
 30
0.0
 10
381.5941207745835
 20
235.3865806809293
 30
0.0
 10
381.5852090094922
 20
235.398202353607
 30
0.0
 10
381.5415825591855
 20
235.4569252657722
 30
0.0
 10
381.5100226519927
 20
235.5053216884284
 30
0.0
 10
381.4673705421145
 20
235.5799355728282
 30
0.0
 10
381.4539371332193
 20
235.605144567039
 30
0.0
 10
381.4349442696542
 20
235.6434606367739
 30
0.0
 10
381.4288165684353
 20
235.6562987920281
 30
0.0
 10
381.4170685955081
 20
235.6818571201617
 30
0.0
 10
381.4114307220887
 20
235.6946122829822
 30
0.0
 10
381.3843631216455
 20
235.7582789309421
 30
0.0
 10
381.3662748985389
 20
235.8088665519856
 30
0.0
 10
381.3436899166875
 20
235.884387641667
 30
0.0
 10
381.3369242191288
 20
235.9095005570531
 30
0.0
 10
381.3248301826254
 20
235.9596242167293
 30
0.0
 10
381.3195600688356
 20
235.9843955310836
 30
0.0
 10
381.3058788213837
 20
236.0577613823057
 30
0.0
 10
381.2995620133507
 20
236.1055046371284
 30
0.0
 10
381.2916340631044
 20
236.1991268468235
 30
0.0
 10
381.2900295141093
 20
236.2450024202108
 30
0.0
 10
381.2907488391847
 20
236.3126287329169
 30
0.0
 10
381.2915137788092
 20
236.3350049423859
 30
0.0
 10
381.2940330279367
 20
236.3792347744593
 30
0.0
 10
381.295781296148
 20
236.4010155928869
 30
0.0
 10
381.3023837261412
 20
236.4654401558098
 30
0.0
 10
381.3085904859434
 20
236.5071701586525
 30
0.0
 10
381.3319962306455
 20
236.6291814073967
 30
0.0
 10
381.3539421257547
 20
236.7063161265522
 30
0.0
 10
381.3949764613552
 20
236.816700802283
 30
0.0
 10
381.4100189907618
 20
236.8525996120379
 30
0.0
 10
381.4345365503208
 20
236.9051590414522
 30
0.0
 10
381.4430297861577
 20
236.9224492380823
 30
0.0
 10
381.4605500860944
 20
236.9564120070872
 30
0.0
 10
381.4695885798658
 20
236.9731095529606
 30
0.0
 10
381.5161202606646
 20
237.0552242726907
 30
0.0
 10
381.557607379137
 20
237.1165502876471
 30
0.0
 10
381.6481931241428
 20
237.2311471361868
 30
0.0
 10
381.6972982565318
 20
237.2844108773575
 30
0.0
 10
381.7763452477391
 20
237.3583374836417
 30
0.0
 10
381.8035955264697
 20
237.3819811257536
 30
0.0
 10
381.845807292418
 20
237.415927319063
 30
0.0
 10
381.8601007732082
 20
237.4269892924691
 30
0.0
 10
381.8891329342425
 20
237.4486002290226
 30
0.0
 10
381.9038898044743
 20
237.4591614104944
 30
0.0
 10
381.9785275024985
 20
237.5104879755577
 30
0.0
 10
382.0409106758146
 20
237.5468224174637
 30
0.0
 10
382.1707068378495
 20
237.6100025712171
 30
0.0
 10
382.2381196659513
 20
237.6368502635289
 30
0.0
 10
382.3779282836818
 20
237.6805298486386
 30
0.0
 10
382.4503208280361
 20
237.6973702388129
 30
0.0
 10
382.5253374367727
 20
237.7086225135135
 30
0.0
  0
SPLINE
  5
10D
330
1F
100
AcDbEntity
  8
1
100
AcDbSpline
210
0.0
220
0.0
230
1.0
 70
    24
 71
     3
 72
    10
 73
     6
 74
     0
 42
0.000000001
 43
0.0000000001
 40
0.0
 40
0.0
 40
0.0
 40
0.0
 40
0.5
 40
0.5
 40
1.0
 40
1.0
 40
1.0
 40
1.0
 10
382.5253374367727
 20
244.4497904602925
 30
0.0
 10
382.0628976406538
 20
244.4497904602925
 30
0.0
 10
381.5997910489354
 20
244.4497904602925
 30
0.0
 10
380.6717093944024
 20
244.4497904602925
 30
0.0
 10
380.2067426658127
 20
244.4497904602925
 30
0.0
 10
379.7404270440889
 20
244.4497904602925
 30
0.0
  0
SPLINE
  5
10E
330
1F
100
AcDbEntity
  8
1
100
AcDbSpline
210
0.0
220
0.0
230
1.0
 70
     8
 71
     3
 72
    17
 73
    13
 74
     0
 42
0.000000001
 43
0.0000000001
 40
0.0
 40
0.0
 40
0.0
 40
0.0
 40
0.2499999999999843
 40
0.2499999999999843
 40
0.3749999999999843
 40
0.3749999999999843
 40
0.4999999999999843
 40
0.6249999999999844
 40
0.6249999999999844
 40
0.7499999999999844
 40
0.7499999999999844
 40
1.0
 40
1.0
 40
1.0
 40
1.0
 10
376.8183578337948
 20
244.7961279863609
 30
0.0
 10
377.059288369468
 20
244.7382017685134
 30
0.0
 10
377.3013106591093
 20
244.6875900672542
 30
0.0
 10
377.6655629859837
 20
244.6225786528719
 30
0.0
 10
377.7872115352342
 20
244.6027220149468
 30
0.0
 10
378.0307257285905
 20
244.566653885504
 30
0.0
 10
378.2744553029711
 20
244.5342289948434
 30
0.0
 10
378.5185547043325
 20
244.5090484923865
 30
0.0
 10
378.7628198743464
 20
244.4874745860921
 30
0.0
 10
378.8850351396107
 20
244.4784919085581
 30
0.0
 10
379.2516165796981
 20
244.4569526787133
 30
0.0
 10
379.4960149299435
 20
244.4497904602925
 30
0.0
 10
379.7404270440889
 20
244.4497904602925
 30
0.0
  0
SPLINE
  5
10F
330
1F
100
AcDbEntity
  8
1
100
AcDbSpline
210
0.0
220
0.0
230
1.0
 70
    24
 71
     3
 72
     8
 73
     4
 74
     0
 42
0.000000001
 43
0.0000000001
 40
0.0
 40
0.0
 40
0.0
 40
0.0
 40
1.0
 40
1.0
 40
1.0
 40
1.0
 10
376.9925811568625
 20
236.4893995188871
 30
0.0
 10
376.9253249649009
 20
236.4221433269255
 30
0.0
 10
376.8670417903868
 20
236.3638601524114
 30
0.0
 10
376.8183578337948
 20
236.3151761958195
 30
0.0
  0
SPLINE
  5
110
330
1F
100
AcDbEntity
  8
1
100
AcDbSpline
210
0.0
220
0.0
230
1.0
 70
    24
 71
     3
 72
     8
 73
     4
 74
     0
 42
0.000000001
 43
0.0000000001
 40
0.0
 40
0.0
 40
0.0
 40
0.0
 40
1.0
 40
1.0
 40
1.0
 40
1.0
 10
382.5253374367727
 20
230.9566432389769
 30
0.0
 10
380.6810853434693
 20
232.8008953322803
 30
0.0
 10
378.8368332501658
 20
234.6451474255837
 30
0.0
 10
376.9925811568625
 20
236.4893995188871
 30
0.0
  0
SPLINE
  5
111
330
1F
100
AcDbEntity
  8
1
100
AcDbSpline
210
0.0
220
0.0
230
1.0
 70
     8
 71
     3
 72
    79
 73
    75
 74
     0
 42
0.000000001
 43
0.0000000001
 40
0.0
 40
0.0
 40
0.0
 40
0.0
 40
0.0624999999999849
 40
0.0624999999999849
 40
0.1249999999999699
 40
0.1249999999999699
 40
0.1874999999999548
 40
0.1874999999999548
 40
0.2031249999999532
 40
0.2031249999999532
 40
0.2187499999999516
 40
0.2187499999999516
 40
0.249999999999949
 40
0.249999999999949
 40
0.3124999999999516
 40
0.3124999999999516
 40
0.3749999999999541
 40
0.3749999999999541
 40
0.4062499999999584
 40
0.4062499999999584
 40
0.4218749999999624
 40
0.4218749999999624
 40
0.4374999999999664
 40
0.4374999999999664
 40
0.499999999999978
 40
0.499999999999978
 40
0.5312499999999844
 40
0.5312499999999844
 40
0.546874999999988
 40
0.546874999999988
 40
0.5624999999999917
 40
0.5624999999999917
 40
0.593749999999999
 40
0.593749999999999
 40
0.6250000000000061
 40
0.6250000000000061
 40
0.6406250000000094
 40
0.6406250000000094
 40
0.6562500000000127
 40
0.6562500000000127
 40
0.68750000000002
 40
0.68750000000002
 40
0.6953125000000197
 40
0.6953125000000197
 40
0.7031250000000194
 40
0.7031250000000194
 40
0.7187500000000179
 40
0.7343750000000165
 40
0.7343750000000165
 40
0.7421875000000117
 40
0.7421875000000117
 40
0.750000000000007
 40
0.750000000000007
 40
0.7812499999999806
 40
0.7812499999999806
 40
0.796874999999972
 40
0.796874999999972
 40
0.8046874999999729
 40
0.8046874999999729
 40
0.8124999999999738
 40
0.8124999999999738
 40
0.8437499999999777
 40
0.8437499999999777
 40
0.8593749999999801
 40
0.8593749999999801
 40
0.8749999999999822
 40
0.8749999999999822
 40
0.9062499999999864
 40
0.9062499999999864
 40
0.9374999999999912
 40
0.9374999999999912
 40
0.9687499999999955
 40
0.9687499999999955
 40
1.0
 40
1.0
 40
1.0
 40
1.0
 10
382.9555166514051
 20
237.7086225135135
 30
0.0
 10
383.0305104347076
 20
237.6973736625621
 30
0.0
 10
383.1028160839161
 20
237.6805507129737
 30
0.0
 10
383.2423600598442
 20
237.6369805919321
 30
0.0
 10
383.3095948109685
 20
237.6102244683163
 30
0.0
 10
383.4389722242455
 20
237.5473416175487
 30
0.0
 10
383.5011144948235
 20
237.5112125508178
 30
0.0
 10
383.575429526657
 20
237.4602423999277
 30
0.0
 10
383.5901237298518
 20
237.4497567901161
 30
0.0
 10
383.6191672892576
 20
237.4281990433848
 30
0.0
 10
383.6335347689511
 20
237.4171120955047
 30
0.0
 10
383.675957633024
 20
237.3830851327803
 30
0.0
 10
383.7033135634097
 20
237.359401961947
 30
0.0
 10
383.7825893815997
 20
237.2854181484862
 30
0.0
 10
383.8317294154624
 20
237.2321974802985
 30
0.0
 10
383.92223704695
 20
237.1179529803423
 30
0.0
 10
383.9636101505923
 20
237.0569348001397
 30
0.0
 10
384.019242450183
 20
236.9591619740464
 30
0.0
 10
384.0367113905388
 20
236.9255256166658
 30
0.0
 10
384.0611786896348
 20
236.87339912347
 30
0.0
 10
384.0690447076016
 20
236.8557445221241
 30
0.0
 10
384.0841710233121
 20
236.8198534838806
 30
0.0
 10
384.0914416225415
 20
236.8015888275599
 30
0.0
 10
384.1260629845317
 20
236.7091206402997
 30
0.0
 10
384.148224214755
 20
236.6317143807271
 30
0.0
 10
384.1718710054657
 20
236.5095846336426
 30
0.0
 10
384.1781447294341
 20
236.4678638003432
 30
0.0
 10
384.1848482564619
 20
236.40355142758
 30
0.0
 10
384.1866304090946
 20
236.3818245148877
 30
0.0
 10
384.1892226667885
 20
236.337741534893
 30
0.0
 10
384.1900311267508
 20
236.3153589330126
 30
0.0
 10
384.1908778446708
 20
236.2477437939872
 30
0.0
 10
384.1893599291954
 20
236.2018876140066
 30
0.0
 10
384.1816202919065
 20
236.1083363295268
 30
0.0
 10
384.175404939881
 20
236.0606444595394
 30
0.0
 10
384.1619016923473
 20
235.9873902373168
 30
0.0
 10
384.1566956655327
 20
235.9626632812225
 30
0.0
 10
384.1447410760119
 20
235.9126372925695
 30
0.0
 10
384.1380472921843
 20
235.8875656689
 30
0.0
 10
384.1156817897158
 20
235.8121440434333
 30
0.0
 10
384.0977452503773
 20
235.7615904702064
 30
0.0
 10
384.0708606151364
 20
235.6979167644496
 30
0.0
 10
384.0652589727446
 20
235.6851576866875
 30
0.0
 10
384.0535822533484
 20
235.6595861845398
 30
0.0
 10
384.0474940333783
 20
235.6467490902731
 30
0.0
 10
384.0286790832978
 20
235.6085465970012
 30
0.0
 10
384.0020340571519
 20
235.5582162417485
 30
0.0
 10
383.9722009993582
 20
235.5091133160251
 30
0.0
 10
383.9485888628178
 20
235.4727578246938
 30
0.0
 10
383.9405117632318
 20
235.4607180078649
 30
0.0
 10
383.9239356957448
 20
235.4367984538729
 30
0.0
 10
383.9154136688283
 20
235.4248877517557
 30
0.0
 10
383.8719982465548
 20
235.3661138394215
 30
0.0
 10
383.8351909954318
 20
235.3222070445744
 30
0.0
 10
383.7772064967489
 20
235.2605714721478
 30
0.0
 10
383.7574141092225
 20
235.2407329367169
 30
0.0
 10
383.7270564419077
 20
235.2119993529036
 30
0.0
 10
383.7168662870833
 20
235.2026318657419
 30
0.0
 10
383.6964789660706
 20
235.1844111818285
 30
0.0
 10
383.686261878394
 20
235.1755390517247
 30
0.0
 10
383.6350675690662
 20
235.1323016681868
 30
0.0
 10
383.5937675825016
 20
235.1012813204025
 30
0.0
 10
383.5314060336882
 20
235.0591471855511
 30
0.0
 10
383.5105479028596
 20
235.0458392059907
 30
0.0
 10
383.4687095726907
 20
235.0205902142123
 30
0.0
 10
383.4479568156883
 20
235.0087853753718
 30
0.0
 10
383.3861339994806
 20
234.9755287985484
 30
0.0
 10
383.3454966151008
 20
234.956220265871
 30
0.0
 10
383.2651306509396
 20
234.9222257657112
 30
0.0
 10
383.2254034463657
 20
234.9075473707543
 30
0.0
 10
383.1466896534623
 20
234.8821265064062
 30
0.0
 10
383.1076290658547
 20
234.8713753672602
 30
0.0
 10
383.0307702905153
 20
234.853482412777
 30
0.0
 10
382.9929059250213
 20
234.8463141584585
 30
0.0
 10
382.9555166514051
 20
234.8407058753773
 30
0.0
  0
SPLINE
  5
112
330
1F
100
AcDbEntity
  8
1
100
AcDbSpline
210
0.0
220
0.0
230
1.0
 70
    24
 71
     3
 72
     8
 73
     4
 74
     0
 42
0.000000001
 43
0.0000000001
 40
0.0
 40
0.0
 40
0.0
 40
0.0
 40
1.0
 40
1.0
 40
1.0
 40
1.0
 10
388.1387810895844
 20
236.1399076771562
 30
0.0
 10
386.411026276858
 20
234.4121528644298
 30
0.0
 10
384.6832714641316
 20
232.6843980517033
 30
0.0
 10
382.9555166514051
 20
230.9566432389769
 30
0.0
  0
SPLINE
  5
113
330
1F
100
AcDbEntity
  8
1
100
AcDbSpline
210
0.0
220
0.0
230
1.0
 70
    24
 71
     3
 72
    14
 73
    10
 74
     0
 42
0.000000001
 43
0.0000000001
 40
0.0
 40
0.0
 40
0.0
 40
0.0
 40
0.25
 40
0.25
 40
0.5
 40
0.5
 40
0.75
 40
0.75
 40
1.0
 40
1.0
 40
1.0
 40
1.0
 10
388.1387810895844
 20
244.4497904602925
 30
0.0
 10
387.7006862799246
 20
244.4497904602925
 30
0.0
 10
387.2650509715242
 20
244.4497904602925
 30
0.0
 10
386.3969321200658
 20
244.4497904602925
 30
0.0
 10
385.9644675546923
 20
244.4497904602925
 30
0.0
 10
385.101709520939
 20
244.4497904602925
 30
0.0
 10
384.6714226454186
 20
244.4497904602925
 30
0.0
 10
383.8124024689964
 20
244.4497904602925
 30
0.0
 10
383.3836726647433
 20
244.4497904602925
 30
0.0
 10
382.9555166514051
 20
244.4497904602925
 30
0.0
  0
SPLINE
  5
114
330
1F
100
AcDbEntity
  8
1
100
AcDbSpline
210
0.0
220
0.0
230
1.0
 70
     8
 71
     3
 72
    12
 73
     8
 74
     0
 42
0.000000001
 43
0.0000000001
 40
0.0
 40
0.0
 40
0.0
 40
0.0
 40
0.5
 40
0.5
 40
0.75
 40
0.75
 40
1.0
 40
1.0
 40
1.0
 40
1.0
 10
382.9555166514051
 20
237.7086225135135
 30
0.0
 10
382.8849383492532
 20
237.7192090550419
 30
0.0
 10
382.8133130273769
 20
237.7246564211399
 30
0.0
 10
382.7042162632564
 20
237.7246680687023
 30
0.0
 10
382.6680559458335
 20
237.7233037087856
 30
0.0
 10
382.596311755764
 20
237.7179329850875
 30
0.0
 10
382.5606976966948
 20
237.7139264503993
 30
0.0
 10
382.5253374367727
 20
237.7086225135135
 30
0.0
  0
SPLINE
  5
115
330
1F
100
AcDbEntity
  8
NOCUT
100
AcDbSpline
210
0.0
220
0.0
230
1.0
 70
     8
 71
     3
 72
    14
 73
    10
 74
     0
 42
0.000000001
 43
0.0000000001
 40
0.0
 40
0.0
 40
0.0
 40
0.0
 40
0.25
 40
0.25
 40
0.5
 40
0.5
 40
0.75
 40
0.75
 40
1.0
 40
1.0
 40
1.0
 40
1.0
 10
376.8183578337948
 20
251.481161310191
 30
0.0
 10
377.3027658430079
 20
251.9229125668923
 30
0.0
 10
377.7834468287291
 20
252.36872243427
 30
0.0
 10
378.7403466752938
 20
253.2650985589144
 30
0.0
 10
379.2165292954629
 20
253.7157065044551
 30
0.0
 10
380.1659627625597
 20
254.6199945920127
 30
0.0
 10
380.639198438018
 20
255.0736917195051
 30
0.0
 10
381.5836481521666
 20
255.9831829537331
 30
0.0
 10
382.0548552847483
 20
256.4389850239112
 30
0.0
 10
382.5253374367726
 20
256.8955341380843
 30
0.0
  0
SPLINE
  5
116
330
1F
100
AcDbEntity
  8
NOCUT
100
AcDbSpline
210
0.0
220
0.0
230
1.0
 70
     8
 71
     3
 72
    14
 73
    10
 74
     0
 42
0.000000001
 43
0.0000000001
 40
0.0
 40
0.0
 40
0.0
 40
0.0
 40
0.25
 40
0.25
 40
0.5
 40
0.5
 40
0.75
 40
0.75
 40
1.0
 40
1.0
 40
1.0
 40
1.0
 10
382.9555166514051
 20
256.8955341380843
 30
0.0
 10
383.3834969857403
 20
256.4802281765648
 30
0.0
 10
383.8120788588619
 20
256.0655421391804
 30
0.0
 10
384.6708772732534
 20
255.237865527904
 30
0.0
 10
385.1010901305561
 20
254.8248700168129
 30
0.0
 10
385.9638019520373
 20
254.001273882866
 30
0.0
 10
386.3962929651382
 20
253.5906640142863
 30
0.0
 10
387.2646108363224
 20
252.7729786027159
 30
0.0
 10
387.7004108053174
 20
252.3658919168855
 30
0.0
 10
388.1387810895844
 20
251.9615641995435
 30
0.0
  0
LINE
  5
117
330
1F
100
AcDbEntity
  8
4
100
AcDbLine
 10
344.944248
 20
243.731161
 30
0.0
 11
391.644248
 21
243.731161
 31
0.0
  0
LINE
  5
118
330
1F
100
AcDbEntity
  8
SK4
100
AcDbLine
 10
185.144248
 20
243.731161
 30
0.0
 11
391.725196
 21
243.731161
 31
0.0
  0
LINE
  5
11D
330
1F
100
AcDbEntity
  8
SK2
 60
     1
100
AcDbLine
 10
173.219319
 20
235.731161
 30
0.0
 11
173.836464
 21
232.231164
 31
0.0
  0
LINE
  5
11E
330
1F
100
AcDbEntity
  8
SK2
 60
     1
100
AcDbLine
 10
173.836464
 20
232.231164
 30
0.0
 11
172.602175
 21
232.231159
 31
0.0
  0
LINE
  5
11F
330
1F
100
AcDbEntity
  8
SK2
 60
     1
100
AcDbLine
 10
172.602175
 20
232.231159
 30
0.0
 11
173.219319
 21
235.731161
 31
0.0
  0
LINE
  5
121
330
1F
100
AcDbEntity
  8
SK2
 60
     1
100
AcDbLine
 10
173.219319
 20
251.731161
 30
0.0
 11
172.602175
 21
255.231159
 31
0.0
  0
LINE
  5
122
330
1F
100
AcDbEntity
  8
SK2
 60
     1
100
AcDbLine
 10
172.602175
 20
255.231159
 30
0.0
 11
173.836464
 21
255.231164
 31
0.0
  0
LINE
  5
123
330
1F
100
AcDbEntity
  8
SK2
 60
     1
100
AcDbLine
 10
173.836464
 20
255.231164
 30
0.0
 11
173.219319
 21
251.731161
 31
0.0
  0
MTEXT
  5
125
330
1F
100
AcDbEntity
  8
SK6
100
AcDbMText
 10
277.597923
 20
196.657036
 30
0.0
 40
3.5
 41
0.0
 71
     7
 72
     5
  1
\W0.7449;16N2R027A16-SSD09\P\P\P\P 
  7
cesky
 73
     1
 44
0.8433729999999998
  0
MTEXT
  5
220
330
1F
100
AcDbEntity
  8
2
100
AcDbMText
 10
399.097859
 20
240.578007
 30
0.0
 40
3.5
 41
0.0
 71
     7
 72
     5
  1
\W0.8260;16
  7
cesky
 11
0.0000000000000001
 21
1.0
 31
0.0
 73
     2
 44
0.8433729999999998
  0
MTEXT
  5
221
330
1F
100
AcDbEntity
  8
2
100
AcDbMText
 10
399.097859
 20
233.840507
 30
0.0
 40
3.5
 41
0.0
 71
     7
 72
     5
  1
\W3.0115;\H2.63;%%c\H3.50;
  7
cesky
 11
0.0000000000000001
 21
1.0
 31
0.0
 73
     2
 44
0.8433729999999998
  0
LINE
  5
222
330
1F
100
AcDbEntity
  8
2
100
AcDbLine
 10
391.144248
 20
251.731161
 30
0.0
 11
400.2852759999999
 21
251.731161
 31
0.0
  0
LINE
  5
223
330
1F
100
AcDbEntity
  8
2
100
AcDbLine
 10
399.2852759999999
 20
251.731161
 30
0.0
 11
399.2852759999999
 21
233.683007
 31
0.0
  0
SOLID
  5
224
330
1F
100
AcDbEntity
  8
2
100
AcDbTrace
 10
399.2852759999999
 20
251.731161
 30
0.0
 11
399.90242
 21
248.231164
 31
0.0
 12
398.668131
 22
248.231159
 32
0.0
 13
398.668131
 23
248.231159
 33
0.0
  0
MTEXT
  5
225
330
1F
100
AcDbEntity
  8
2
100
AcDbMText
 10
382.186838
 20
263.103398
 30
0.0
 40
3.5
 41
0.0
 71
     7
 72
     5
  1
\W1.0515;45%%d
  7
cesky
 11
0.9630895746403711
 21
0.2691811122999336
 31
0.0
 73
     2
 44
0.8433729999999998
  0
LINE
  5
226
330
1F
100
AcDbEntity
  8
2
100
AcDbLine
 10
389.144248
 20
253.731161
 30
0.0
 11
389.144248
 21
265.737734
 31
0.0
  0
LINE
  5
227
330
1F
100
AcDbEntity
  8
2
100
AcDbLine
 10
383.306112
 20
257.56137
 30
0.0
 11
379.2345
 21
261.632982
 31
0.0
  0
ARC
  5
228
330
1F
100
AcDbEntity
  8
2
100
AcDbCircle
 10
389.144248
 20
251.723234
 30
0.0
 40
13.01450005637942
100
AcDbArc
 50
90.0
 51
134.999943
  0
SOLID
  5
229
330
1F
100
AcDbEntity
  8
2
100
AcDbTrace
 10
389.144248
 20
264.737734
 30
0.0
 11
385.693278
 21
263.88823
 31
0.0
 12
385.6108450000001
 22
265.119763
 32
0.0
 13
385.6108450000001
 23
265.119763
 33
0.0
  0
SOLID
  5
22A
330
1F
100
AcDbEntity
  8
2
100
AcDbTrace
 10
379.941607
 20
260.925875
 30
0.0
 11
382.169961
 21
263.694501
 31
0.0
 12
382.982505
 22
262.765393
 32
0.0
 13
382.982505
 23
262.765393
 33
0.0
  0
MTEXT
  5
22B
330
1F
100
AcDbEntity
  8
2
100
AcDbMText
 10
395.829748
 20
258.117448
 30
0.0
 40
3.5
 41
0.0
 71
     7
 72
     5
  1
\W0.8874;4,5
  7
cesky
 73
     2
 44
0.8433729999999998
  0
LINE
  5
22C
330
1F
100
AcDbEntity
  8
2
100
AcDbLine
 10
383.306112
 20
257.56137
 30
0.0
 11
383.306112
 21
259.243281
 31
0.0
  0
LINE
  5
22D
330
1F
100
AcDbEntity
  8
2
100
AcDbLine
 10
389.144248
 20
253.731161
 30
0.0
 11
389.144248
 21
259.243281
 31
0.0
  0
LINE
  5
22E
330
1F
100
AcDbEntity
  8
2
100
AcDbLine
 10
402.1692479999999
 20
258.243281
 30
0.0
 11
374.556112
 21
258.243281
 31
0.0
  0
SOLID
  5
22F
330
1F
100
AcDbEntity
  8
2
100
AcDbTrace
 10
383.306112
 20
258.243281
 30
0.0
 11
379.806115
 21
257.626137
 31
0.0
 12
379.80611
 22
258.860426
 32
0.0
 13
379.80611
 23
258.860426
 33
0.0
  0
SOLID
  5
230
330
1F
100
AcDbEntity
  8
2
100
AcDbTrace
 10
389.144248
 20
258.243281
 30
0.0
 11
392.644246
 21
258.860426
 31
0.0
 12
392.644251
 22
257.626137
 32
0.0
 13
392.644251
 23
257.626137
 33
0.0
  0
MTEXT
  5
231
330
1F
100
AcDbEntity
  8
2
100
AcDbMText
 10
373.829748
 20
272.046731
 30
0.0
 40
3.5
 41
0.0
 71
     7
 72
     5
  1
\W0.7045;27
  7
cesky
 73
     2
 44
0.8433729999999998
  0
LINE
  5
232
330
1F
100
AcDbEntity
  8
2
100
AcDbLine
 10
362.144248
 20
251.731161
 30
0.0
 11
362.144248
 21
273.172565
 31
0.0
  0
LINE
  5
233
330
1F
100
AcDbEntity
  8
2
100
AcDbLine
 10
389.144248
 20
253.731161
 30
0.0
 11
389.144248
 21
273.172565
 31
0.0
  0
LINE
  5
234
330
1F
100
AcDbEntity
  8
2
100
AcDbLine
 10
362.144248
 20
272.172565
 30
0.0
 11
389.144248
 21
272.172565
 31
0.0
  0
SOLID
  5
235
330
1F
100
AcDbEntity
  8
2
100
AcDbTrace
 10
362.144248
 20
272.172565
 30
0.0
 11
365.644246
 21
272.7897089999999
 31
0.0
 12
365.644251
 22
271.55542
 32
0.0
 13
365.644251
 23
271.55542
 33
0.0
  0
SOLID
  5
236
330
1F
100
AcDbEntity
  8
2
100
AcDbTrace
 10
389.144248
 20
272.172565
 30
0.0
 11
385.644251
 21
271.55542
 31
0.0
 12
385.644246
 22
272.7897089999999
 32
0.0
 13
385.644246
 23
272.7897089999999
 33
0.0
  0
TEXT
  5
237
330
1F
100
AcDbEntity
  8
SK2
100
AcDbText
 10
172.2457252403078
 20
235.646243838023
 30
0.0
 40
4.379999999999999
  1
\U+2205
 50
89.99999999999992
 41
3.0
  7
cesky
 72
     1
 11
172.2457252403078
 21
239.7133866951659
 31
0.0
100
AcDbText
  0
TEXT
  5
238
330
1F
100
AcDbEntity
  8
SK2
100
AcDbText
 10
171.8652353333333
 20
245.257411
 30
0.0
 40
3.5
  1
16
 50
89.99999999999992
 41
0.8259999999999999
  7
cesky
100
AcDbText
  0
LINE
  5
239
330
1F
100
AcDbEntity
  8
SK2
100
AcDbLine
 10
173.2163756385751
 20
235.7144681131557
 30
0.0
 11
173.2213801327236
 21
235.7194726073042
 31
0.0
  0
LINE
  5
23A
330
1F
100
AcDbEntity
  8
SK2
100
AcDbLine
 10
173.2104160811861
 20
235.6806697617913
 30
0.0
 11
173.2255530653107
 21
235.695806745916
 31
0.0
  0
LINE
  5
23B
330
1F
100
AcDbEntity
  8
SK2
100
AcDbLine
 10
173.204456523797
 20
235.6468714104269
 30
0.0
 11
173.2297259978979
 21
235.6721408845278
 31
0.0
  0
LINE
  5
23C
330
1F
100
AcDbEntity
  8
SK2
100
AcDbLine
 10
173.198496966408
 20
235.6130730590626
 30
0.0
 11
173.233898930485
 21
235.6484750231397
 31
0.0
  0
LINE
  5
23D
330
1F
100
AcDbEntity
  8
SK2
100
AcDbLine
 10
173.1925374090189
 20
235.5792747076982
 30
0.0
 11
173.2380718630722
 21
235.6248091617516
 31
0.0
  0
LINE
  5
23E
330
1F
100
AcDbEntity
  8
SK2
100
AcDbLine
 10
173.1865778516299
 20
235.5454763563339
 30
0.0
 11
173.2422447956594
 21
235.6011433003634
 31
0.0
  0
LINE
  5
23F
330
1F
100
AcDbEntity
  8
SK2
100
AcDbLine
 10
173.1806182942409
 20
235.5116780049696
 30
0.0
 11
173.2464177282466
 21
235.5774774389752
 31
0.0
  0
LINE
  5
240
330
1F
100
AcDbEntity
  8
SK2
100
AcDbLine
 10
173.1746587368519
 20
235.4778796536052
 30
0.0
 11
173.2505906608338
 21
235.5538115775871
 31
0.0
  0
LINE
  5
241
330
1F
100
AcDbEntity
  8
SK2
100
AcDbLine
 10
173.1686991794628
 20
235.4440813022408
 30
0.0
 11
173.2547635934208
 21
235.5301457161989
 31
0.0
  0
LINE
  5
242
330
1F
100
AcDbEntity
  8
SK2
100
AcDbLine
 10
173.1627396220737
 20
235.4102829508764
 30
0.0
 11
173.258936526008
 21
235.5064798548107
 31
0.0
  0
LINE
  5
243
330
1F
100
AcDbEntity
  8
SK2
100
AcDbLine
 10
173.1567800646847
 20
235.3764845995121
 30
0.0
 11
173.2631094585952
 21
235.4828139934226
 31
0.0
  0
LINE
  5
244
330
1F
100
AcDbEntity
  8
SK2
100
AcDbLine
 10
173.1508205072956
 20
235.3426862481477
 30
0.0
 11
173.2672823911823
 21
235.4591481320344
 31
0.0
  0
LINE
  5
245
330
1F
100
AcDbEntity
  8
SK2
100
AcDbLine
 10
173.1448609499066
 20
235.3088878967834
 30
0.0
 11
173.2714553237695
 21
235.4354822706463
 31
0.0
  0
LINE
  5
246
330
1F
100
AcDbEntity
  8
SK2
100
AcDbLine
 10
173.1389013925175
 20
235.275089545419
 30
0.0
 11
173.2756282563567
 21
235.4118164092582
 31
0.0
  0
LINE
  5
247
330
1F
100
AcDbEntity
  8
SK2
100
AcDbLine
 10
173.1329418351285
 20
235.2412911940547
 30
0.0
 11
173.2798011889438
 21
235.38815054787
 31
0.0
  0
LINE
  5
248
330
1F
100
AcDbEntity
  8
SK2
100
AcDbLine
 10
173.1269822777395
 20
235.2074928426903
 30
0.0
 11
173.283974121531
 21
235.3644846864818
 31
0.0
  0
LINE
  5
249
330
1F
100
AcDbEntity
  8
SK2
100
AcDbLine
 10
173.1210227203504
 20
235.1736944913259
 30
0.0
 11
173.2881470541181
 21
235.3408188250937
 31
0.0
  0
LINE
  5
24A
330
1F
100
AcDbEntity
  8
SK2
100
AcDbLine
 10
173.1150631629614
 20
235.1398961399616
 30
0.0
 11
173.2923199867053
 21
235.3171529637055
 31
0.0
  0
LINE
  5
24B
330
1F
100
AcDbEntity
  8
SK2
100
AcDbLine
 10
173.1091036055723
 20
235.1060977885972
 30
0.0
 11
173.2964929192924
 21
235.2934871023173
 31
0.0
  0
LINE
  5
24C
330
1F
100
AcDbEntity
  8
SK2
100
AcDbLine
 10
173.1031440481832
 20
235.0722994372329
 30
0.0
 11
173.3006658518796
 21
235.2698212409292
 31
0.0
  0
LINE
  5
24D
330
1F
100
AcDbEntity
  8
SK2
100
AcDbLine
 10
173.0971844907942
 20
235.0385010858685
 30
0.0
 11
173.3048387844667
 21
235.246155379541
 31
0.0
  0
LINE
  5
24E
330
1F
100
AcDbEntity
  8
SK2
100
AcDbLine
 10
173.0912249334052
 20
235.0047027345041
 30
0.0
 11
173.3090117170539
 21
235.2224895181528
 31
0.0
  0
LINE
  5
24F
330
1F
100
AcDbEntity
  8
SK2
100
AcDbLine
 10
173.0852653760161
 20
234.9709043831397
 30
0.0
 11
173.313184649641
 21
235.1988236567647
 31
0.0
  0
LINE
  5
250
330
1F
100
AcDbEntity
  8
SK2
100
AcDbLine
 10
173.0793058186271
 20
234.9371060317754
 30
0.0
 11
173.3173575822282
 21
235.1751577953765
 31
0.0
  0
LINE
  5
251
330
1F
100
AcDbEntity
  8
SK2
100
AcDbLine
 10
173.0733462612381
 20
234.9033076804111
 30
0.0
 11
173.3215305148154
 21
235.1514919339884
 31
0.0
  0
LINE
  5
252
330
1F
100
AcDbEntity
  8
SK2
100
AcDbLine
 10
173.067386703849
 20
234.8695093290467
 30
0.0
 11
173.3257034474025
 21
235.1278260726002
 31
0.0
  0
LINE
  5
253
330
1F
100
AcDbEntity
  8
SK2
100
AcDbLine
 10
173.06142714646
 20
234.8357109776824
 30
0.0
 11
173.3298763799897
 21
235.1041602112121
 31
0.0
  0
LINE
  5
254
330
1F
100
AcDbEntity
  8
SK2
100
AcDbLine
 10
173.0554675890709
 20
234.801912626318
 30
0.0
 11
173.3340493125768
 21
235.0804943498239
 31
0.0
  0
LINE
  5
255
330
1F
100
AcDbEntity
  8
SK2
100
AcDbLine
 10
173.0495080316818
 20
234.7681142749536
 30
0.0
 11
173.338222245164
 21
235.0568284884357
 31
0.0
  0
LINE
  5
256
330
1F
100
AcDbEntity
  8
SK2
100
AcDbLine
 10
173.0435484742928
 20
234.7343159235893
 30
0.0
 11
173.3423951777512
 21
235.0331626270476
 31
0.0
  0
LINE
  5
257
330
1F
100
AcDbEntity
  8
SK2
100
AcDbLine
 10
173.0375889169038
 20
234.7005175722249
 30
0.0
 11
173.3465681103383
 21
235.0094967656594
 31
0.0
  0
LINE
  5
258
330
1F
100
AcDbEntity
  8
SK2
100
AcDbLine
 10
173.0316293595147
 20
234.6667192208605
 30
0.0
 11
173.3507410429255
 21
234.9858309042713
 31
0.0
  0
LINE
  5
259
330
1F
100
AcDbEntity
  8
SK2
100
AcDbLine
 10
173.0256698021257
 20
234.6329208694962
 30
0.0
 11
173.3549139755126
 21
234.9621650428831
 31
0.0
  0
LINE
  5
25A
330
1F
100
AcDbEntity
  8
SK2
100
AcDbLine
 10
173.0197102447367
 20
234.5991225181318
 30
0.0
 11
173.3590869080997
 21
234.9384991814949
 31
0.0
  0
LINE
  5
25B
330
1F
100
AcDbEntity
  8
SK2
100
AcDbLine
 10
173.0137506873476
 20
234.5653241667675
 30
0.0
 11
173.363259840687
 21
234.9148333201068
 31
0.0
  0
LINE
  5
25C
330
1F
100
AcDbEntity
  8
SK2
100
AcDbLine
 10
173.0077911299585
 20
234.5315258154031
 30
0.0
 11
173.3674327732741
 21
234.8911674587187
 31
0.0
  0
LINE
  5
25D
330
1F
100
AcDbEntity
  8
SK2
100
AcDbLine
 10
173.0018315725695
 20
234.4977274640387
 30
0.0
 11
173.3716057058613
 21
234.8675015973304
 31
0.0
  0
LINE
  5
25E
330
1F
100
AcDbEntity
  8
SK2
100
AcDbLine
 10
172.9958720151805
 20
234.4639291126744
 30
0.0
 11
173.3757786384484
 21
234.8438357359424
 31
0.0
  0
LINE
  5
25F
330
1F
100
AcDbEntity
  8
SK2
100
AcDbLine
 10
172.9899124577914
 20
234.43013076131
 30
0.0
 11
173.3799515710356
 21
234.8201698745542
 31
0.0
  0
LINE
  5
260
330
1F
100
AcDbEntity
  8
SK2
100
AcDbLine
 10
172.9839529004024
 20
234.3963324099457
 30
0.0
 11
173.3841245036227
 21
234.796504013166
 31
0.0
  0
LINE
  5
261
330
1F
100
AcDbEntity
  8
SK2
100
AcDbLine
 10
172.9779933430133
 20
234.3625340585813
 30
0.0
 11
173.3882974362099
 21
234.7728381517779
 31
0.0
  0
LINE
  5
262
330
1F
100
AcDbEntity
  8
SK2
100
AcDbLine
 10
172.9720337856243
 20
234.3287357072169
 30
0.0
 11
173.392470368797
 21
234.7491722903897
 31
0.0
  0
LINE
  5
263
330
1F
100
AcDbEntity
  8
SK2
100
AcDbLine
 10
172.9660742282352
 20
234.2949373558526
 30
0.0
 11
173.3966433013842
 21
234.7255064290016
 31
0.0
  0
LINE
  5
264
330
1F
100
AcDbEntity
  8
SK2
100
AcDbLine
 10
172.9601146708462
 20
234.2611390044883
 30
0.0
 11
173.4008162339713
 21
234.7018405676134
 31
0.0
  0
LINE
  5
265
330
1F
100
AcDbEntity
  8
SK2
100
AcDbLine
 10
172.9541551134571
 20
234.2273406531239
 30
0.0
 11
173.4049891665585
 21
234.6781747062252
 31
0.0
  0
LINE
  5
266
330
1F
100
AcDbEntity
  8
SK2
100
AcDbLine
 10
172.9481955560681
 20
234.1935423017595
 30
0.0
 11
173.4091620991457
 21
234.6545088448371
 31
0.0
  0
LINE
  5
267
330
1F
100
AcDbEntity
  8
SK2
100
AcDbLine
 10
172.9422359986791
 20
234.1597439503952
 30
0.0
 11
173.4133350317329
 21
234.630842983449
 31
0.0
  0
LINE
  5
268
330
1F
100
AcDbEntity
  8
SK2
100
AcDbLine
 10
172.93627644129
 20
234.1259455990308
 30
0.0
 11
173.41750796432
 21
234.6071771220608
 31
0.0
  0
LINE
  5
269
330
1F
100
AcDbEntity
  8
SK2
100
AcDbLine
 10
172.9303168839009
 20
234.0921472476664
 30
0.0
 11
173.4216808969072
 21
234.5835112606726
 31
0.0
  0
LINE
  5
26A
330
1F
100
AcDbEntity
  8
SK2
100
AcDbLine
 10
172.9243573265119
 20
234.0583488963021
 30
0.0
 11
173.4258538294943
 21
234.5598453992845
 31
0.0
  0
LINE
  5
26B
330
1F
100
AcDbEntity
  8
SK2
100
AcDbLine
 10
172.9183977691229
 20
234.0245505449377
 30
0.0
 11
173.4300267620815
 21
234.5361795378963
 31
0.0
  0
LINE
  5
26C
330
1F
100
AcDbEntity
  8
SK2
100
AcDbLine
 10
172.9124382117338
 20
233.9907521935733
 30
0.0
 11
173.4341996946686
 21
234.5125136765081
 31
0.0
  0
LINE
  5
26D
330
1F
100
AcDbEntity
  8
SK2
100
AcDbLine
 10
172.9064786543448
 20
233.956953842209
 30
0.0
 11
173.4383726272558
 21
234.48884781512
 31
0.0
  0
LINE
  5
26E
330
1F
100
AcDbEntity
  8
SK2
100
AcDbLine
 10
172.9005190969558
 20
233.9231554908447
 30
0.0
 11
173.4425455598429
 21
234.4651819537318
 31
0.0
  0
LINE
  5
26F
330
1F
100
AcDbEntity
  8
SK2
100
AcDbLine
 10
172.8945595395667
 20
233.8893571394803
 30
0.0
 11
173.4467184924301
 21
234.4415160923437
 31
0.0
  0
LINE
  5
270
330
1F
100
AcDbEntity
  8
SK2
100
AcDbLine
 10
172.8885999821777
 20
233.8555587881159
 30
0.0
 11
173.4508914250173
 21
234.4178502309556
 31
0.0
  0
LINE
  5
271
330
1F
100
AcDbEntity
  8
SK2
100
AcDbLine
 10
172.8826404247886
 20
233.8217604367516
 30
0.0
 11
173.4550643576044
 21
234.3941843695674
 31
0.0
  0
LINE
  5
272
330
1F
100
AcDbEntity
  8
SK2
100
AcDbLine
 10
172.8766808673995
 20
233.7879620853872
 30
0.0
 11
173.4592372901916
 21
234.3705185081792
 31
0.0
  0
LINE
  5
273
330
1F
100
AcDbEntity
  8
SK2
100
AcDbLine
 10
172.8707213100105
 20
233.7541637340228
 30
0.0
 11
173.4634102227787
 21
234.346852646791
 31
0.0
  0
LINE
  5
274
330
1F
100
AcDbEntity
  8
SK2
100
AcDbLine
 10
172.8647617526215
 20
233.7203653826585
 30
0.0
 11
173.4675831553659
 21
234.3231867854029
 31
0.0
  0
LINE
  5
275
330
1F
100
AcDbEntity
  8
SK2
100
AcDbLine
 10
172.8588021952324
 20
233.6865670312941
 30
0.0
 11
173.471756087953
 21
234.2995209240147
 31
0.0
  0
LINE
  5
276
330
1F
100
AcDbEntity
  8
SK2
100
AcDbLine
 10
172.8528426378434
 20
233.6527686799298
 30
0.0
 11
173.4759290205402
 21
234.2758550626266
 31
0.0
  0
LINE
  5
277
330
1F
100
AcDbEntity
  8
SK2
100
AcDbLine
 10
172.8468830804543
 20
233.6189703285654
 30
0.0
 11
173.4801019531273
 21
234.2521892012384
 31
0.0
  0
LINE
  5
278
330
1F
100
AcDbEntity
  8
SK2
100
AcDbLine
 10
172.8409235230653
 20
233.5851719772011
 30
0.0
 11
173.4842748857145
 21
234.2285233398503
 31
0.0
  0
LINE
  5
279
330
1F
100
AcDbEntity
  8
SK2
100
AcDbLine
 10
172.8349639656763
 20
233.5513736258367
 30
0.0
 11
173.4884478183017
 21
234.2048574784621
 31
0.0
  0
LINE
  5
27A
330
1F
100
AcDbEntity
  8
SK2
100
AcDbLine
 10
172.8290044082873
 20
233.5175752744724
 30
0.0
 11
173.4926207508888
 21
234.181191617074
 31
0.0
  0
LINE
  5
27B
330
1F
100
AcDbEntity
  8
SK2
100
AcDbLine
 10
172.8230448508982
 20
233.483776923108
 30
0.0
 11
173.496793683476
 21
234.1575257556858
 31
0.0
  0
LINE
  5
27C
330
1F
100
AcDbEntity
  8
SK2
100
AcDbLine
 10
172.8170852935091
 20
233.4499785717436
 30
0.0
 11
173.5009666160631
 21
234.1338598942976
 31
0.0
  0
LINE
  5
27D
330
1F
100
AcDbEntity
  8
SK2
100
AcDbLine
 10
172.8111257361201
 20
233.4161802203793
 30
0.0
 11
173.5051395486503
 21
234.1101940329095
 31
0.0
  0
LINE
  5
27E
330
1F
100
AcDbEntity
  8
SK2
100
AcDbLine
 10
172.805166178731
 20
233.3823818690149
 30
0.0
 11
173.5093124812375
 21
234.0865281715213
 31
0.0
  0
LINE
  5
27F
330
1F
100
AcDbEntity
  8
SK2
100
AcDbLine
 10
172.799206621342
 20
233.3485835176506
 30
0.0
 11
173.5134854138246
 21
234.0628623101332
 31
0.0
  0
LINE
  5
280
330
1F
100
AcDbEntity
  8
SK2
100
AcDbLine
 10
172.793247063953
 20
233.3147851662861
 30
0.0
 11
173.5176583464118
 21
234.039196448745
 31
0.0
  0
LINE
  5
281
330
1F
100
AcDbEntity
  8
SK2
100
AcDbLine
 10
172.7872875065639
 20
233.2809868149218
 30
0.0
 11
173.5218312789989
 21
234.0155305873568
 31
0.0
  0
LINE
  5
282
330
1F
100
AcDbEntity
  8
SK2
100
AcDbLine
 10
172.7813279491749
 20
233.2471884635574
 30
0.0
 11
173.5260042115861
 21
233.9918647259687
 31
0.0
  0
LINE
  5
283
330
1F
100
AcDbEntity
  8
SK2
100
AcDbLine
 10
172.7753683917858
 20
233.2133901121931
 30
0.0
 11
173.5301771441733
 21
233.9681988645806
 31
0.0
  0
LINE
  5
284
330
1F
100
AcDbEntity
  8
SK2
100
AcDbLine
 10
172.7694088343968
 20
233.1795917608288
 30
0.0
 11
173.5343500767604
 21
233.9445330031924
 31
0.0
  0
LINE
  5
285
330
1F
100
AcDbEntity
  8
SK2
100
AcDbLine
 10
172.7634492770077
 20
233.1457934094644
 30
0.0
 11
173.5385230093476
 21
233.9208671418043
 31
0.0
  0
LINE
  5
286
330
1F
100
AcDbEntity
  8
SK2
100
AcDbLine
 10
172.7574897196187
 20
233.1119950581
 30
0.0
 11
173.5426959419347
 21
233.8972012804161
 31
0.0
  0
LINE
  5
287
330
1F
100
AcDbEntity
  8
SK2
100
AcDbLine
 10
172.7515301622297
 20
233.0781967067357
 30
0.0
 11
173.5468688745218
 21
233.8735354190279
 31
0.0
  0
LINE
  5
288
330
1F
100
AcDbEntity
  8
SK2
100
AcDbLine
 10
172.7455706048406
 20
233.0443983553713
 30
0.0
 11
173.5510418071091
 21
233.8498695576398
 31
0.0
  0
LINE
  5
289
330
1F
100
AcDbEntity
  8
SK2
100
AcDbLine
 10
172.7396110474515
 20
233.0106000040069
 30
0.0
 11
173.5552147396962
 21
233.8262036962516
 31
0.0
  0
LINE
  5
28A
330
1F
100
AcDbEntity
  8
SK2
100
AcDbLine
 10
172.7336514900625
 20
232.9768016526426
 30
0.0
 11
173.5593876722834
 21
233.8025378348635
 31
0.0
  0
LINE
  5
28B
330
1F
100
AcDbEntity
  8
SK2
100
AcDbLine
 10
172.7276919326734
 20
232.9430033012782
 30
0.0
 11
173.5635606048705
 21
233.7788719734753
 31
0.0
  0
LINE
  5
28C
330
1F
100
AcDbEntity
  8
SK2
100
AcDbLine
 10
172.7217323752844
 20
232.9092049499139
 30
0.0
 11
173.5677335374577
 21
233.7552061120871
 31
0.0
  0
LINE
  5
28D
330
1F
100
AcDbEntity
  8
SK2
100
AcDbLine
 10
172.7157728178954
 20
232.8754065985496
 30
0.0
 11
173.5719064700449
 21
233.731540250699
 31
0.0
  0
LINE
  5
28E
330
1F
100
AcDbEntity
  8
SK2
100
AcDbLine
 10
172.7098132605063
 20
232.8416082471852
 30
0.0
 11
173.576079402632
 21
233.7078743893108
 31
0.0
  0
LINE
  5
28F
330
1F
100
AcDbEntity
  8
SK2
100
AcDbLine
 10
172.7038537031173
 20
232.8078098958208
 30
0.0
 11
173.5802523352191
 21
233.6842085279227
 31
0.0
  0
LINE
  5
290
330
1F
100
AcDbEntity
  8
SK2
100
AcDbLine
 10
172.6978941457282
 20
232.7740115444564
 30
0.0
 11
173.5844252678063
 21
233.6605426665345
 31
0.0
  0
LINE
  5
291
330
1F
100
AcDbEntity
  8
SK2
100
AcDbLine
 10
172.6919345883392
 20
232.7402131930921
 30
0.0
 11
173.5885982003934
 21
233.6368768051463
 31
0.0
  0
LINE
  5
292
330
1F
100
AcDbEntity
  8
SK2
100
AcDbLine
 10
172.6859750309501
 20
232.7064148417277
 30
0.0
 11
173.5927711329806
 21
233.6132109437582
 31
0.0
  0
LINE
  5
293
330
1F
100
AcDbEntity
  8
SK2
100
AcDbLine
 10
172.6800154735611
 20
232.6726164903633
 30
0.0
 11
173.5969440655678
 21
233.58954508237
 31
0.0
  0
LINE
  5
294
330
1F
100
AcDbEntity
  8
SK2
100
AcDbLine
 10
172.6740559161721
 20
232.638818138999
 30
0.0
 11
173.6011169981549
 21
233.5658792209819
 31
0.0
  0
LINE
  5
295
330
1F
100
AcDbEntity
  8
SK2
100
AcDbLine
 10
172.668096358783
 20
232.6050197876347
 30
0.0
 11
173.6052899307421
 21
233.5422133595937
 31
0.0
  0
LINE
  5
296
330
1F
100
AcDbEntity
  8
SK2
100
AcDbLine
 10
172.6621368013939
 20
232.5712214362702
 30
0.0
 11
173.6094628633293
 21
233.5185474982056
 31
0.0
  0
LINE
  5
297
330
1F
100
AcDbEntity
  8
SK2
100
AcDbLine
 10
172.6561772440049
 20
232.5374230849059
 30
0.0
 11
173.6136357959164
 21
233.4948816368174
 31
0.0
  0
LINE
  5
298
330
1F
100
AcDbEntity
  8
SK2
100
AcDbLine
 10
172.6502176866159
 20
232.5036247335416
 30
0.0
 11
173.6178087285035
 21
233.4712157754292
 31
0.0
  0
LINE
  5
299
330
1F
100
AcDbEntity
  8
SK2
100
AcDbLine
 10
172.6442581292269
 20
232.4698263821772
 30
0.0
 11
173.6219816610907
 21
233.4475499140411
 31
0.0
  0
LINE
  5
29A
330
1F
100
AcDbEntity
  8
SK2
100
AcDbLine
 10
172.6382985718378
 20
232.4360280308129
 30
0.0
 11
173.6261545936779
 21
233.4238840526529
 31
0.0
  0
LINE
  5
29B
330
1F
100
AcDbEntity
  8
SK2
100
AcDbLine
 10
172.6323390144487
 20
232.4022296794485
 30
0.0
 11
173.630327526265
 21
233.4002181912648
 31
0.0
  0
LINE
  5
29C
330
1F
100
AcDbEntity
  8
SK2
100
AcDbLine
 10
172.6263794570597
 20
232.3684313280841
 30
0.0
 11
173.6345004588522
 21
233.3765523298766
 31
0.0
  0
LINE
  5
29D
330
1F
100
AcDbEntity
  8
SK2
100
AcDbLine
 10
172.6204198996707
 20
232.3346329767197
 30
0.0
 11
173.6386733914393
 21
233.3528864684885
 31
0.0
  0
LINE
  5
29E
330
1F
100
AcDbEntity
  8
SK2
100
AcDbLine
 10
172.6144603422816
 20
232.3008346253554
 30
0.0
 11
173.6428463240265
 21
233.3292206071003
 31
0.0
  0
LINE
  5
29F
330
1F
100
AcDbEntity
  8
SK2
100
AcDbLine
 10
172.6085007848926
 20
232.2670362739911
 30
0.0
 11
173.6470192566136
 21
233.3055547457121
 31
0.0
  0
LINE
  5
2A0
330
1F
100
AcDbEntity
  8
SK2
100
AcDbLine
 10
172.6025412275035
 20
232.2332379226267
 30
0.0
 11
173.6511921892008
 21
233.281888884324
 31
0.0
  0
LINE
  5
2A1
330
1F
100
AcDbEntity
  8
SK2
100
AcDbLine
 10
172.6283012381134
 20
232.2311591392612
 30
0.0
 11
173.655365121788
 21
233.2582230229358
 31
0.0
  0
LINE
  5
2A2
330
1F
100
AcDbEntity
  8
SK2
100
AcDbLine
 10
172.6561401343467
 20
232.2311592415192
 30
0.0
 11
173.6595380543751
 21
233.2345571615476
 31
0.0
  0
LINE
  5
2A3
330
1F
100
AcDbEntity
  8
SK2
100
AcDbLine
 10
172.6839790305799
 20
232.2311593437772
 30
0.0
 11
173.6637109869623
 21
233.2108913001595
 31
0.0
  0
LINE
  5
2A4
330
1F
100
AcDbEntity
  8
SK2
100
AcDbLine
 10
172.7118179268132
 20
232.2311594460351
 30
0.0
 11
173.6678839195494
 21
233.1872254387714
 31
0.0
  0
LINE
  5
2A5
330
1F
100
AcDbEntity
  8
SK2
100
AcDbLine
 10
172.7396568230465
 20
232.2311595482931
 30
0.0
 11
173.6720568521366
 21
233.1635595773832
 31
0.0
  0
LINE
  5
2A6
330
1F
100
AcDbEntity
  8
SK2
100
AcDbLine
 10
172.7674957192798
 20
232.2311596505511
 30
0.0
 11
173.6762297847238
 21
233.1398937159951
 31
0.0
  0
LINE
  5
2A7
330
1F
100
AcDbEntity
  8
SK2
100
AcDbLine
 10
172.795334615513
 20
232.231159752809
 30
0.0
 11
173.6804027173109
 21
233.1162278546069
 31
0.0
  0
LINE
  5
2A8
330
1F
100
AcDbEntity
  8
SK2
100
AcDbLine
 10
172.8231735117464
 20
232.231159855067
 30
0.0
 11
173.6845756498981
 21
233.0925619932187
 31
0.0
  0
LINE
  5
2A9
330
1F
100
AcDbEntity
  8
SK2
100
AcDbLine
 10
172.8510124079796
 20
232.231159957325
 30
0.0
 11
173.6887485824852
 21
233.0688961318306
 31
0.0
  0
LINE
  5
2AA
330
1F
100
AcDbEntity
  8
SK2
100
AcDbLine
 10
172.878851304213
 20
232.231160059583
 30
0.0
 11
173.6929215150724
 21
233.0452302704424
 31
0.0
  0
LINE
  5
2AB
330
1F
100
AcDbEntity
  8
SK2
100
AcDbLine
 10
172.9066902004462
 20
232.2311601618409
 30
0.0
 11
173.6970944476596
 21
233.0215644090543
 31
0.0
  0
LINE
  5
2AC
330
1F
100
AcDbEntity
  8
SK2
100
AcDbLine
 10
172.9345290966795
 20
232.231160264099
 30
0.0
 11
173.7012673802467
 21
232.9978985476661
 31
0.0
  0
LINE
  5
2AD
330
1F
100
AcDbEntity
  8
SK2
100
AcDbLine
 10
172.9623679929128
 20
232.2311603663569
 30
0.0
 11
173.7054403128339
 21
232.9742326862779
 31
0.0
  0
LINE
  5
2AE
330
1F
100
AcDbEntity
  8
SK2
100
AcDbLine
 10
172.9902068891461
 20
232.2311604686149
 30
0.0
 11
173.709613245421
 21
232.9505668248898
 31
0.0
  0
LINE
  5
2AF
330
1F
100
AcDbEntity
  8
SK2
100
AcDbLine
 10
173.0180457853793
 20
232.2311605708728
 30
0.0
 11
173.7137861780082
 21
232.9269009635016
 31
0.0
  0
LINE
  5
2B0
330
1F
100
AcDbEntity
  8
SK2
100
AcDbLine
 10
173.0458846816127
 20
232.2311606731308
 30
0.0
 11
173.7179591105953
 21
232.9032351021135
 31
0.0
  0
LINE
  5
2B1
330
1F
100
AcDbEntity
  8
SK2
100
AcDbLine
 10
173.0737235778459
 20
232.2311607753888
 30
0.0
 11
173.7221320431825
 21
232.8795692407253
 31
0.0
  0
LINE
  5
2B2
330
1F
100
AcDbEntity
  8
SK2
100
AcDbLine
 10
173.1015624740792
 20
232.2311608776467
 30
0.0
 11
173.7263049757696
 21
232.8559033793371
 31
0.0
  0
LINE
  5
2B3
330
1F
100
AcDbEntity
  8
SK2
100
AcDbLine
 10
173.1294013703125
 20
232.2311609799047
 30
0.0
 11
173.7304779083568
 21
232.832237517949
 31
0.0
  0
LINE
  5
2B4
330
1F
100
AcDbEntity
  8
SK2
100
AcDbLine
 10
173.1572402665458
 20
232.2311610821627
 30
0.0
 11
173.7346508409439
 21
232.8085716565608
 31
0.0
  0
LINE
  5
2B5
330
1F
100
AcDbEntity
  8
SK2
100
AcDbLine
 10
173.1850791627791
 20
232.2311611844207
 30
0.0
 11
173.7388237735311
 21
232.7849057951727
 31
0.0
  0
LINE
  5
2B6
330
1F
100
AcDbEntity
  8
SK2
100
AcDbLine
 10
173.2129180590124
 20
232.2311612866787
 30
0.0
 11
173.7429967061182
 21
232.7612399337845
 31
0.0
  0
LINE
  5
2B7
330
1F
100
AcDbEntity
  8
SK2
100
AcDbLine
 10
173.2407569552457
 20
232.2311613889366
 30
0.0
 11
173.7471696387054
 21
232.7375740723964
 31
0.0
  0
LINE
  5
2B8
330
1F
100
AcDbEntity
  8
SK2
100
AcDbLine
 10
173.268595851479
 20
232.2311614911946
 30
0.0
 11
173.7513425712926
 21
232.7139082110082
 31
0.0
  0
LINE
  5
2B9
330
1F
100
AcDbEntity
  8
SK2
100
AcDbLine
 10
173.2964347477122
 20
232.2311615934526
 30
0.0
 11
173.7555155038798
 21
232.6902423496201
 31
0.0
  0
LINE
  5
2BA
330
1F
100
AcDbEntity
  8
SK2
100
AcDbLine
 10
173.3242736439455
 20
232.2311616957105
 30
0.0
 11
173.7596884364669
 21
232.6665764882319
 31
0.0
  0
LINE
  5
2BB
330
1F
100
AcDbEntity
  8
SK2
100
AcDbLine
 10
173.3521125401788
 20
232.2311617979685
 30
0.0
 11
173.7638613690541
 21
232.6429106268438
 31
0.0
  0
LINE
  5
2BC
330
1F
100
AcDbEntity
  8
SK2
100
AcDbLine
 10
173.3799514364121
 20
232.2311619002265
 30
0.0
 11
173.7680343016412
 21
232.6192447654556
 31
0.0
  0
LINE
  5
2BD
330
1F
100
AcDbEntity
  8
SK2
100
AcDbLine
 10
173.4077903326454
 20
232.2311620024844
 30
0.0
 11
173.7722072342284
 21
232.5955789040675
 31
0.0
  0
LINE
  5
2BE
330
1F
100
AcDbEntity
  8
SK2
100
AcDbLine
 10
173.4356292288787
 20
232.2311621047425
 30
0.0
 11
173.7763801668155
 21
232.5719130426793
 31
0.0
  0
LINE
  5
2BF
330
1F
100
AcDbEntity
  8
SK2
100
AcDbLine
 10
173.463468125112
 20
232.2311622070004
 30
0.0
 11
173.7805530994027
 21
232.5482471812911
 31
0.0
  0
LINE
  5
2C0
330
1F
100
AcDbEntity
  8
SK2
100
AcDbLine
 10
173.4913070213453
 20
232.2311623092584
 30
0.0
 11
173.7847260319899
 21
232.524581319903
 31
0.0
  0
LINE
  5
2C1
330
1F
100
AcDbEntity
  8
SK2
100
AcDbLine
 10
173.5191459175785
 20
232.2311624115164
 30
0.0
 11
173.788898964577
 21
232.5009154585148
 31
0.0
  0
LINE
  5
2C2
330
1F
100
AcDbEntity
  8
SK2
100
AcDbLine
 10
173.5469848138118
 20
232.2311625137743
 30
0.0
 11
173.7930718971641
 21
232.4772495971267
 31
0.0
  0
LINE
  5
2C3
330
1F
100
AcDbEntity
  8
SK2
100
AcDbLine
 10
173.5748237100451
 20
232.2311626160323
 30
0.0
 11
173.7972448297514
 21
232.4535837357385
 31
0.0
  0
LINE
  5
2C4
330
1F
100
AcDbEntity
  8
SK2
100
AcDbLine
 10
173.6026626062784
 20
232.2311627182903
 30
0.0
 11
173.8014177623385
 21
232.4299178743503
 31
0.0
  0
LINE
  5
2C5
330
1F
100
AcDbEntity
  8
SK2
100
AcDbLine
 10
173.6305015025117
 20
232.2311628205482
 30
0.0
 11
173.8055906949256
 21
232.4062520129622
 31
0.0
  0
LINE
  5
2C6
330
1F
100
AcDbEntity
  8
SK2
100
AcDbLine
 10
173.658340398745
 20
232.2311629228062
 30
0.0
 11
173.8097636275128
 21
232.3825861515741
 31
0.0
  0
LINE
  5
2C7
330
1F
100
AcDbEntity
  8
SK2
100
AcDbLine
 10
173.6861792949783
 20
232.2311630250642
 30
0.0
 11
173.8139365601
 21
232.3589202901859
 31
0.0
  0
LINE
  5
2C8
330
1F
100
AcDbEntity
  8
SK2
100
AcDbLine
 10
173.7140181912115
 20
232.2311631273222
 30
0.0
 11
173.8181094926871
 21
232.3352544287977
 31
0.0
  0
LINE
  5
2C9
330
1F
100
AcDbEntity
  8
SK2
100
AcDbLine
 10
173.7418570874449
 20
232.2311632295801
 30
0.0
 11
173.8222824252743
 21
232.3115885674095
 31
0.0
  0
LINE
  5
2CA
330
1F
100
AcDbEntity
  8
SK2
100
AcDbLine
 10
173.7696959836782
 20
232.2311633318381
 30
0.0
 11
173.8264553578614
 21
232.2879227060214
 31
0.0
  0
LINE
  5
2CB
330
1F
100
AcDbEntity
  8
SK2
100
AcDbLine
 10
173.7975348799114
 20
232.2311634340961
 30
0.0
 11
173.8306282904486
 21
232.2642568446332
 31
0.0
  0
LINE
  5
2CC
330
1F
100
AcDbEntity
  8
SK2
100
AcDbLine
 10
173.8253737761447
 20
232.2311635363541
 30
0.0
 11
173.8348012230357
 21
232.2405909832451
 31
0.0
  0
LINE
  5
2CD
330
1F
100
AcDbEntity
  8
SK2
100
AcDbLine
 10
172.6026908870431
 20
255.2282314057759
 30
0.0
 11
172.6056185372103
 21
255.231159055943
 31
0.0
  0
LINE
  5
2CE
330
1F
100
AcDbEntity
  8
SK2
100
AcDbLine
 10
172.6068638196303
 20
255.2045655443877
 30
0.0
 11
172.6334574334436
 21
255.231159158201
 31
0.0
  0
LINE
  5
2CF
330
1F
100
AcDbEntity
  8
SK2
100
AcDbLine
 10
172.6110367522175
 20
255.1808996829996
 30
0.0
 11
172.6612963296769
 21
255.231159260459
 31
0.0
  0
LINE
  5
2D0
330
1F
100
AcDbEntity
  8
SK2
100
AcDbLine
 10
172.6152096848046
 20
255.1572338216114
 30
0.0
 11
172.6891352259101
 21
255.231159362717
 31
0.0
  0
LINE
  5
2D1
330
1F
100
AcDbEntity
  8
SK2
100
AcDbLine
 10
172.6193826173918
 20
255.1335679602233
 30
0.0
 11
172.7169741221434
 21
255.2311594649749
 31
0.0
  0
LINE
  5
2D2
330
1F
100
AcDbEntity
  8
SK2
100
AcDbLine
 10
172.623555549979
 20
255.1099020988351
 30
0.0
 11
172.7448130183767
 21
255.2311595672329
 31
0.0
  0
LINE
  5
2D3
330
1F
100
AcDbEntity
  8
SK2
100
AcDbLine
 10
172.6277284825661
 20
255.0862362374469
 30
0.0
 11
172.77265191461
 21
255.2311596694909
 31
0.0
  0
LINE
  5
2D4
330
1F
100
AcDbEntity
  8
SK2
100
AcDbLine
 10
172.6319014151533
 20
255.0625703760588
 30
0.0
 11
172.8004908108433
 21
255.2311597717488
 31
0.0
  0
LINE
  5
2D5
330
1F
100
AcDbEntity
  8
SK2
100
AcDbLine
 10
172.6360743477404
 20
255.0389045146707
 30
0.0
 11
172.8283297070766
 21
255.2311598740068
 31
0.0
  0
LINE
  5
2D6
330
1F
100
AcDbEntity
  8
SK2
100
AcDbLine
 10
172.6402472803276
 20
255.0152386532825
 30
0.0
 11
172.8561686033099
 21
255.2311599762647
 31
0.0
  0
LINE
  5
2D7
330
1F
100
AcDbEntity
  8
SK2
100
AcDbLine
 10
172.6444202129147
 20
254.9915727918943
 30
0.0
 11
172.8840074995431
 21
255.2311600785227
 31
0.0
  0
LINE
  5
2D8
330
1F
100
AcDbEntity
  8
SK2
100
AcDbLine
 10
172.6485931455019
 20
254.9679069305061
 30
0.0
 11
172.9118463957764
 21
255.2311601807807
 31
0.0
  0
LINE
  5
2D9
330
1F
100
AcDbEntity
  8
SK2
100
AcDbLine
 10
172.6527660780891
 20
254.9442410691181
 30
0.0
 11
172.9396852920097
 21
255.2311602830387
 31
0.0
  0
LINE
  5
2DA
330
1F
100
AcDbEntity
  8
SK2
100
AcDbLine
 10
172.6569390106762
 20
254.9205752077299
 30
0.0
 11
172.967524188243
 21
255.2311603852967
 31
0.0
  0
LINE
  5
2DB
330
1F
100
AcDbEntity
  8
SK2
100
AcDbLine
 10
172.6611119432633
 20
254.8969093463417
 30
0.0
 11
172.9953630844763
 21
255.2311604875546
 31
0.0
  0
LINE
  5
2DC
330
1F
100
AcDbEntity
  8
SK2
100
AcDbLine
 10
172.6652848758505
 20
254.8732434849536
 30
0.0
 11
173.0232019807096
 21
255.2311605898126
 31
0.0
  0
LINE
  5
2DD
330
1F
100
AcDbEntity
  8
SK2
100
AcDbLine
 10
172.6694578084376
 20
254.8495776235654
 30
0.0
 11
173.0510408769429
 21
255.2311606920706
 31
0.0
  0
LINE
  5
2DE
330
1F
100
AcDbEntity
  8
SK2
100
AcDbLine
 10
172.6736307410248
 20
254.8259117621772
 30
0.0
 11
173.0788797731762
 21
255.2311607943286
 31
0.0
  0
LINE
  5
2DF
330
1F
100
AcDbEntity
  8
SK2
100
AcDbLine
 10
172.677803673612
 20
254.8022459007891
 30
0.0
 11
173.1067186694095
 21
255.2311608965865
 31
0.0
  0
LINE
  5
2E0
330
1F
100
AcDbEntity
  8
SK2
100
AcDbLine
 10
172.6819766061991
 20
254.7785800394009
 30
0.0
 11
173.1345575656427
 21
255.2311609988445
 31
0.0
  0
LINE
  5
2E1
330
1F
100
AcDbEntity
  8
SK2
100
AcDbLine
 10
172.6861495387863
 20
254.7549141780127
 30
0.0
 11
173.162396461876
 21
255.2311611011025
 31
0.0
  0
LINE
  5
2E2
330
1F
100
AcDbEntity
  8
SK2
100
AcDbLine
 10
172.6903224713734
 20
254.7312483166246
 30
0.0
 11
173.1902353581093
 21
255.2311612033605
 31
0.0
  0
LINE
  5
2E3
330
1F
100
AcDbEntity
  8
SK2
100
AcDbLine
 10
172.6944954039606
 20
254.7075824552365
 30
0.0
 11
173.2180742543426
 21
255.2311613056184
 31
0.0
  0
LINE
  5
2E4
330
1F
100
AcDbEntity
  8
SK2
100
AcDbLine
 10
172.6986683365477
 20
254.6839165938483
 30
0.0
 11
173.2459131505759
 21
255.2311614078764
 31
0.0
  0
LINE
  5
2E5
330
1F
100
AcDbEntity
  8
SK2
100
AcDbLine
 10
172.7028412691349
 20
254.6602507324601
 30
0.0
 11
173.2737520468092
 21
255.2311615101344
 31
0.0
  0
LINE
  5
2E6
330
1F
100
AcDbEntity
  8
SK2
100
AcDbLine
 10
172.707014201722
 20
254.636584871072
 30
0.0
 11
173.3015909430424
 21
255.2311616123923
 31
0.0
  0
LINE
  5
2E7
330
1F
100
AcDbEntity
  8
SK2
100
AcDbLine
 10
172.7111871343093
 20
254.6129190096838
 30
0.0
 11
173.3294298392757
 21
255.2311617146504
 31
0.0
  0
LINE
  5
2E8
330
1F
100
AcDbEntity
  8
SK2
100
AcDbLine
 10
172.7153600668964
 20
254.5892531482957
 30
0.0
 11
173.357268735509
 21
255.2311618169083
 31
0.0
  0
LINE
  5
2E9
330
1F
100
AcDbEntity
  8
SK2
100
AcDbLine
 10
172.7195329994835
 20
254.5655872869075
 30
0.0
 11
173.3851076317423
 21
255.2311619191663
 31
0.0
  0
LINE
  5
2EA
330
1F
100
AcDbEntity
  8
SK2
100
AcDbLine
 10
172.7237059320707
 20
254.5419214255193
 30
0.0
 11
173.4129465279756
 21
255.2311620214243
 31
0.0
  0
LINE
  5
2EB
330
1F
100
AcDbEntity
  8
SK2
100
AcDbLine
 10
172.7278788646579
 20
254.5182555641312
 30
0.0
 11
173.4407854242089
 21
255.2311621236822
 31
0.0
  0
LINE
  5
2EC
330
1F
100
AcDbEntity
  8
SK2
100
AcDbLine
 10
172.732051797245
 20
254.494589702743
 30
0.0
 11
173.4686243204422
 21
255.2311622259402
 31
0.0
  0
LINE
  5
2ED
330
1F
100
AcDbEntity
  8
SK2
100
AcDbLine
 10
172.7362247298322
 20
254.4709238413549
 30
0.0
 11
173.4964632166755
 21
255.2311623281982
 31
0.0
  0
LINE
  5
2EE
330
1F
100
AcDbEntity
  8
SK2
100
AcDbLine
 10
172.7403976624193
 20
254.4472579799667
 30
0.0
 11
173.5243021129088
 21
255.2311624304562
 31
0.0
  0
LINE
  5
2EF
330
1F
100
AcDbEntity
  8
SK2
100
AcDbLine
 10
172.7445705950065
 20
254.4235921185786
 30
0.0
 11
173.552141009142
 21
255.2311625327142
 31
0.0
  0
LINE
  5
2F0
330
1F
100
AcDbEntity
  8
SK2
100
AcDbLine
 10
172.7487435275937
 20
254.3999262571905
 30
0.0
 11
173.5799799053753
 21
255.2311626349721
 31
0.0
  0
LINE
  5
2F1
330
1F
100
AcDbEntity
  8
SK2
100
AcDbLine
 10
172.7529164601808
 20
254.3762603958022
 30
0.0
 11
173.6078188016086
 21
255.2311627372301
 31
0.0
  0
LINE
  5
2F2
330
1F
100
AcDbEntity
  8
SK2
100
AcDbLine
 10
172.757089392768
 20
254.3525945344141
 30
0.0
 11
173.6356576978419
 21
255.2311628394881
 31
0.0
  0
LINE
  5
2F3
330
1F
100
AcDbEntity
  8
SK2
100
AcDbLine
 10
172.7612623253552
 20
254.328928673026
 30
0.0
 11
173.6634965940752
 21
255.231162941746
 31
0.0
  0
LINE
  5
2F4
330
1F
100
AcDbEntity
  8
SK2
100
AcDbLine
 10
172.7654352579423
 20
254.3052628116378
 30
0.0
 11
173.6913354903085
 21
255.231163044004
 31
0.0
  0
LINE
  5
2F5
330
1F
100
AcDbEntity
  8
SK2
100
AcDbLine
 10
172.7696081905295
 20
254.2815969502496
 30
0.0
 11
173.7191743865418
 21
255.2311631462619
 31
0.0
  0
LINE
  5
2F6
330
1F
100
AcDbEntity
  8
SK2
100
AcDbLine
 10
172.7737811231166
 20
254.2579310888615
 30
0.0
 11
173.7470132827751
 21
255.23116324852
 31
0.0
  0
LINE
  5
2F7
330
1F
100
AcDbEntity
  8
SK2
100
AcDbLine
 10
172.7779540557038
 20
254.2342652274733
 30
0.0
 11
173.7748521790084
 21
255.231163350778
 31
0.0
  0
LINE
  5
2F8
330
1F
100
AcDbEntity
  8
SK2
100
AcDbLine
 10
172.7821269882909
 20
254.2105993660852
 30
0.0
 11
173.8026910752417
 21
255.2311634530359
 31
0.0
  0
LINE
  5
2F9
330
1F
100
AcDbEntity
  8
SK2
100
AcDbLine
 10
172.7862999208781
 20
254.186933504697
 30
0.0
 11
173.8305299714749
 21
255.2311635552939
 31
0.0
  0
LINE
  5
2FA
330
1F
100
AcDbEntity
  8
SK2
100
AcDbLine
 10
172.7904728534652
 20
254.1632676433088
 30
0.0
 11
173.8317741877875
 21
255.2045689776311
 31
0.0
  0
LINE
  5
2FB
330
1F
100
AcDbEntity
  8
SK2
100
AcDbLine
 10
172.7946457860524
 20
254.1396017819207
 30
0.0
 11
173.8258146303985
 21
255.1707706262667
 31
0.0
  0
LINE
  5
2FC
330
1F
100
AcDbEntity
  8
SK2
100
AcDbLine
 10
172.7988187186396
 20
254.1159359205325
 30
0.0
 11
173.8198550730094
 21
255.1369722749024
 31
0.0
  0
LINE
  5
2FD
330
1F
100
AcDbEntity
  8
SK2
100
AcDbLine
 10
172.8029916512267
 20
254.0922700591444
 30
0.0
 11
173.8138955156204
 21
255.103173923538
 31
0.0
  0
LINE
  5
2FE
330
1F
100
AcDbEntity
  8
SK2
100
AcDbLine
 10
172.8071645838138
 20
254.0686041977562
 30
0.0
 11
173.8079359582313
 21
255.0693755721737
 31
0.0
  0
LINE
  5
2FF
330
1F
100
AcDbEntity
  8
SK2
100
AcDbLine
 10
172.811337516401
 20
254.044938336368
 30
0.0
 11
173.8019764008423
 21
255.0355772208093
 31
0.0
  0
LINE
  5
300
330
1F
100
AcDbEntity
  8
SK2
100
AcDbLine
 10
172.8155104489881
 20
254.0212724749799
 30
0.0
 11
173.7960168434533
 21
255.001778869445
 31
0.0
  0
LINE
  5
301
330
1F
100
AcDbEntity
  8
SK2
100
AcDbLine
 10
172.8196833815753
 20
253.9976066135917
 30
0.0
 11
173.7900572860642
 21
254.9679805180806
 31
0.0
  0
LINE
  5
302
330
1F
100
AcDbEntity
  8
SK2
100
AcDbLine
 10
172.8238563141625
 20
253.9739407522036
 30
0.0
 11
173.7840977286751
 21
254.9341821667162
 31
0.0
  0
LINE
  5
303
330
1F
100
AcDbEntity
  8
SK2
100
AcDbLine
 10
172.8280292467497
 20
253.9502748908155
 30
0.0
 11
173.7781381712861
 21
254.9003838153519
 31
0.0
  0
LINE
  5
304
330
1F
100
AcDbEntity
  8
SK2
100
AcDbLine
 10
172.8322021793368
 20
253.9266090294272
 30
0.0
 11
173.7721786138971
 21
254.8665854639875
 31
0.0
  0
LINE
  5
305
330
1F
100
AcDbEntity
  8
SK2
100
AcDbLine
 10
172.836375111924
 20
253.9029431680391
 30
0.0
 11
173.766219056508
 21
254.8327871126232
 31
0.0
  0
LINE
  5
306
330
1F
100
AcDbEntity
  8
SK2
100
AcDbLine
 10
172.8405480445111
 20
253.8792773066509
 30
0.0
 11
173.7602594991189
 21
254.7989887612588
 31
0.0
  0
LINE
  5
307
330
1F
100
AcDbEntity
  8
SK2
100
AcDbLine
 10
172.8447209770983
 20
253.8556114452628
 30
0.0
 11
173.7542999417299
 21
254.7651904098945
 31
0.0
  0
LINE
  5
308
330
1F
100
AcDbEntity
  8
SK2
100
AcDbLine
 10
172.8488939096854
 20
253.8319455838746
 30
0.0
 11
173.7483403843409
 21
254.7313920585301
 31
0.0
  0
LINE
  5
309
330
1F
100
AcDbEntity
  8
SK2
100
AcDbLine
 10
172.8530668422726
 20
253.8082797224865
 30
0.0
 11
173.7423808269519
 21
254.6975937071657
 31
0.0
  0
LINE
  5
30A
330
1F
100
AcDbEntity
  8
SK2
100
AcDbLine
 10
172.8572397748597
 20
253.7846138610983
 30
0.0
 11
173.7364212695628
 21
254.6637953558014
 31
0.0
  0
LINE
  5
30B
330
1F
100
AcDbEntity
  8
SK2
100
AcDbLine
 10
172.8614127074469
 20
253.7609479997101
 30
0.0
 11
173.7304617121737
 21
254.629997004437
 31
0.0
  0
LINE
  5
30C
330
1F
100
AcDbEntity
  8
SK2
100
AcDbLine
 10
172.8655856400341
 20
253.737282138322
 30
0.0
 11
173.7245021547847
 21
254.5961986530727
 31
0.0
  0
LINE
  5
30D
330
1F
100
AcDbEntity
  8
SK2
100
AcDbLine
 10
172.8697585726212
 20
253.7136162769339
 30
0.0
 11
173.7185425973957
 21
254.5624003017083
 31
0.0
  0
LINE
  5
30E
330
1F
100
AcDbEntity
  8
SK2
100
AcDbLine
 10
172.8739315052084
 20
253.6899504155457
 30
0.0
 11
173.7125830400066
 21
254.5286019503439
 31
0.0
  0
LINE
  5
30F
330
1F
100
AcDbEntity
  8
SK2
100
AcDbLine
 10
172.8781044377956
 20
253.6662845541576
 30
0.0
 11
173.7066234826176
 21
254.4948035989796
 31
0.0
  0
LINE
  5
310
330
1F
100
AcDbEntity
  8
SK2
100
AcDbLine
 10
172.8822773703827
 20
253.6426186927694
 30
0.0
 11
173.7006639252285
 21
254.4610052476152
 31
0.0
  0
LINE
  5
311
330
1F
100
AcDbEntity
  8
SK2
100
AcDbLine
 10
172.8864503029698
 20
253.6189528313812
 30
0.0
 11
173.6947043678395
 21
254.4272068962508
 31
0.0
  0
LINE
  5
312
330
1F
100
AcDbEntity
  8
SK2
100
AcDbLine
 10
172.890623235557
 20
253.5952869699931
 30
0.0
 11
173.6887448104504
 21
254.3934085448865
 31
0.0
  0
LINE
  5
313
330
1F
100
AcDbEntity
  8
SK2
100
AcDbLine
 10
172.8947961681442
 20
253.5716211086049
 30
0.0
 11
173.6827852530614
 21
254.3596101935222
 31
0.0
  0
LINE
  5
314
330
1F
100
AcDbEntity
  8
SK2
100
AcDbLine
 10
172.8989691007313
 20
253.5479552472168
 30
0.0
 11
173.6768256956723
 21
254.3258118421578
 31
0.0
  0
LINE
  5
315
330
1F
100
AcDbEntity
  8
SK2
100
AcDbLine
 10
172.9031420333185
 20
253.5242893858286
 30
0.0
 11
173.6708661382833
 21
254.2920134907934
 31
0.0
  0
LINE
  5
316
330
1F
100
AcDbEntity
  8
SK2
100
AcDbLine
 10
172.9073149659057
 20
253.5006235244405
 30
0.0
 11
173.6649065808942
 21
254.2582151394291
 31
0.0
  0
LINE
  5
317
330
1F
100
AcDbEntity
  8
SK2
100
AcDbLine
 10
172.9114878984928
 20
253.4769576630523
 30
0.0
 11
173.6589470235052
 21
254.2244167880647
 31
0.0
  0
LINE
  5
318
330
1F
100
AcDbEntity
  8
SK2
100
AcDbLine
 10
172.91566083108
 20
253.4532918016641
 30
0.0
 11
173.6529874661162
 21
254.1906184367003
 31
0.0
  0
LINE
  5
319
330
1F
100
AcDbEntity
  8
SK2
100
AcDbLine
 10
172.9198337636671
 20
253.429625940276
 30
0.0
 11
173.6470279087271
 21
254.156820085336
 31
0.0
  0
LINE
  5
31A
330
1F
100
AcDbEntity
  8
SK2
100
AcDbLine
 10
172.9240066962543
 20
253.4059600788878
 30
0.0
 11
173.6410683513381
 21
254.1230217339716
 31
0.0
  0
LINE
  5
31B
330
1F
100
AcDbEntity
  8
SK2
100
AcDbLine
 10
172.9281796288414
 20
253.3822942174996
 30
0.0
 11
173.635108793949
 21
254.0892233826072
 31
0.0
  0
LINE
  5
31C
330
1F
100
AcDbEntity
  8
SK2
100
AcDbLine
 10
172.9323525614286
 20
253.3586283561115
 30
0.0
 11
173.62914923656
 21
254.0554250312429
 31
0.0
  0
LINE
  5
31D
330
1F
100
AcDbEntity
  8
SK2
100
AcDbLine
 10
172.9365254940157
 20
253.3349624947234
 30
0.0
 11
173.623189679171
 21
254.0216266798786
 31
0.0
  0
LINE
  5
31E
330
1F
100
AcDbEntity
  8
SK2
100
AcDbLine
 10
172.9406984266029
 20
253.3112966333352
 30
0.0
 11
173.6172301217819
 21
253.9878283285142
 31
0.0
  0
LINE
  5
31F
330
1F
100
AcDbEntity
  8
SK2
100
AcDbLine
 10
172.94487135919
 20
253.287630771947
 30
0.0
 11
173.6112705643928
 21
253.9540299771498
 31
0.0
  0
LINE
  5
320
330
1F
100
AcDbEntity
  8
SK2
100
AcDbLine
 10
172.9490442917772
 20
253.2639649105589
 30
0.0
 11
173.6053110070038
 21
253.9202316257855
 31
0.0
  0
LINE
  5
321
330
1F
100
AcDbEntity
  8
SK2
100
AcDbLine
 10
172.9532172243644
 20
253.2402990491708
 30
0.0
 11
173.5993514496148
 21
253.8864332744211
 31
0.0
  0
LINE
  5
322
330
1F
100
AcDbEntity
  8
SK2
100
AcDbLine
 10
172.9573901569516
 20
253.2166331877826
 30
0.0
 11
173.5933918922257
 21
253.8526349230568
 31
0.0
  0
LINE
  5
323
330
1F
100
AcDbEntity
  8
SK2
100
AcDbLine
 10
172.9615630895387
 20
253.1929673263944
 30
0.0
 11
173.5874323348367
 21
253.8188365716924
 31
0.0
  0
LINE
  5
324
330
1F
100
AcDbEntity
  8
SK2
100
AcDbLine
 10
172.9657360221258
 20
253.1693014650062
 30
0.0
 11
173.5814727774476
 21
253.785038220328
 31
0.0
  0
LINE
  5
325
330
1F
100
AcDbEntity
  8
SK2
100
AcDbLine
 10
172.969908954713
 20
253.1456356036181
 30
0.0
 11
173.5755132200586
 21
253.7512398689637
 31
0.0
  0
LINE
  5
326
330
1F
100
AcDbEntity
  8
SK2
100
AcDbLine
 10
172.9740818873002
 20
253.12196974223
 30
0.0
 11
173.5695536626696
 21
253.7174415175993
 31
0.0
  0
LINE
  5
327
330
1F
100
AcDbEntity
  8
SK2
100
AcDbLine
 10
172.9782548198873
 20
253.0983038808417
 30
0.0
 11
173.5635941052805
 21
253.6836431662349
 31
0.0
  0
LINE
  5
328
330
1F
100
AcDbEntity
  8
SK2
100
AcDbLine
 10
172.9824277524745
 20
253.0746380194537
 30
0.0
 11
173.5576345478914
 21
253.6498448148706
 31
0.0
  0
LINE
  5
329
330
1F
100
AcDbEntity
  8
SK2
100
AcDbLine
 10
172.9866006850616
 20
253.0509721580655
 30
0.0
 11
173.5516749905024
 21
253.6160464635063
 31
0.0
  0
LINE
  5
32A
330
1F
100
AcDbEntity
  8
SK2
100
AcDbLine
 10
172.9907736176488
 20
253.0273062966773
 30
0.0
 11
173.5457154331134
 21
253.5822481121419
 31
0.0
  0
LINE
  5
32B
330
1F
100
AcDbEntity
  8
SK2
100
AcDbLine
 10
172.994946550236
 20
253.0036404352892
 30
0.0
 11
173.5397558757243
 21
253.5484497607775
 31
0.0
  0
LINE
  5
32C
330
1F
100
AcDbEntity
  8
SK2
100
AcDbLine
 10
172.9991194828231
 20
252.979974573901
 30
0.0
 11
173.5337963183352
 21
253.5146514094131
 31
0.0
  0
LINE
  5
32D
330
1F
100
AcDbEntity
  8
SK2
100
AcDbLine
 10
173.0032924154103
 20
252.9563087125128
 30
0.0
 11
173.5278367609463
 21
253.4808530580488
 31
0.0
  0
LINE
  5
32E
330
1F
100
AcDbEntity
  8
SK2
100
AcDbLine
 10
173.0074653479975
 20
252.9326428511247
 30
0.0
 11
173.5218772035572
 21
253.4470547066844
 31
0.0
  0
LINE
  5
32F
330
1F
100
AcDbEntity
  8
SK2
100
AcDbLine
 10
173.0116382805846
 20
252.9089769897365
 30
0.0
 11
173.5159176461681
 21
253.4132563553201
 31
0.0
  0
LINE
  5
330
330
1F
100
AcDbEntity
  8
SK2
100
AcDbLine
 10
173.0158112131718
 20
252.8853111283484
 30
0.0
 11
173.5099580887791
 21
253.3794580039558
 31
0.0
  0
LINE
  5
331
330
1F
100
AcDbEntity
  8
SK2
100
AcDbLine
 10
173.0199841457589
 20
252.8616452669602
 30
0.0
 11
173.5039985313901
 21
253.3456596525913
 31
0.0
  0
LINE
  5
332
330
1F
100
AcDbEntity
  8
SK2
100
AcDbLine
 10
173.024157078346
 20
252.837979405572
 30
0.0
 11
173.498038974001
 21
253.311861301227
 31
0.0
  0
LINE
  5
333
330
1F
100
AcDbEntity
  8
SK2
100
AcDbLine
 10
173.0283300109332
 20
252.8143135441839
 30
0.0
 11
173.492079416612
 21
253.2780629498627
 31
0.0
  0
LINE
  5
334
330
1F
100
AcDbEntity
  8
SK2
100
AcDbLine
 10
173.0325029435204
 20
252.7906476827958
 30
0.0
 11
173.4861198592229
 21
253.2442645984983
 31
0.0
  0
LINE
  5
335
330
1F
100
AcDbEntity
  8
SK2
100
AcDbLine
 10
173.0366758761075
 20
252.7669818214076
 30
0.0
 11
173.4801603018339
 21
253.2104662471339
 31
0.0
  0
LINE
  5
336
330
1F
100
AcDbEntity
  8
SK2
100
AcDbLine
 10
173.0408488086947
 20
252.7433159600194
 30
0.0
 11
173.4742007444448
 21
253.1766678957696
 31
0.0
  0
LINE
  5
337
330
1F
100
AcDbEntity
  8
SK2
100
AcDbLine
 10
173.0450217412818
 20
252.7196500986313
 30
0.0
 11
173.4682411870558
 21
253.1428695444052
 31
0.0
  0
LINE
  5
338
330
1F
100
AcDbEntity
  8
SK2
100
AcDbLine
 10
173.049194673869
 20
252.6959842372431
 30
0.0
 11
173.4622816296667
 21
253.1090711930408
 31
0.0
  0
LINE
  5
339
330
1F
100
AcDbEntity
  8
SK2
100
AcDbLine
 10
173.0533676064561
 20
252.672318375855
 30
0.0
 11
173.4563220722777
 21
253.0752728416765
 31
0.0
  0
LINE
  5
33A
330
1F
100
AcDbEntity
  8
SK2
100
AcDbLine
 10
173.0575405390433
 20
252.6486525144668
 30
0.0
 11
173.4503625148887
 21
253.0414744903121
 31
0.0
  0
LINE
  5
33B
330
1F
100
AcDbEntity
  8
SK2
100
AcDbLine
 10
173.0617134716305
 20
252.6249866530787
 30
0.0
 11
173.4444029574996
 21
253.0076761389478
 31
0.0
  0
LINE
  5
33C
330
1F
100
AcDbEntity
  8
SK2
100
AcDbLine
 10
173.0658864042176
 20
252.6013207916904
 30
0.0
 11
173.4384434001106
 21
252.9738777875834
 31
0.0
  0
LINE
  5
33D
330
1F
100
AcDbEntity
  8
SK2
100
AcDbLine
 10
173.0700593368047
 20
252.5776549303023
 30
0.0
 11
173.4324838427216
 21
252.9400794362191
 31
0.0
  0
LINE
  5
33E
330
1F
100
AcDbEntity
  8
SK2
100
AcDbLine
 10
173.0742322693919
 20
252.5539890689142
 30
0.0
 11
173.4265242853325
 21
252.9062810848547
 31
0.0
  0
LINE
  5
33F
330
1F
100
AcDbEntity
  8
SK2
100
AcDbLine
 10
173.0784052019791
 20
252.530323207526
 30
0.0
 11
173.4205647279434
 21
252.8724827334904
 31
0.0
  0
LINE
  5
340
330
1F
100
AcDbEntity
  8
SK2
100
AcDbLine
 10
173.0825781345663
 20
252.5066573461379
 30
0.0
 11
173.4146051705543
 21
252.838684382126
 31
0.0
  0
LINE
  5
341
330
1F
100
AcDbEntity
  8
SK2
100
AcDbLine
 10
173.0867510671535
 20
252.4829914847497
 30
0.0
 11
173.4086456131653
 21
252.8048860307616
 31
0.0
  0
LINE
  5
342
330
1F
100
AcDbEntity
  8
SK2
100
AcDbLine
 10
173.0909239997405
 20
252.4593256233615
 30
0.0
 11
173.4026860557763
 21
252.7710876793972
 31
0.0
  0
LINE
  5
343
330
1F
100
AcDbEntity
  8
SK2
100
AcDbLine
 10
173.0950969323277
 20
252.4356597619734
 30
0.0
 11
173.3967264983873
 21
252.7372893280329
 31
0.0
  0
LINE
  5
344
330
1F
100
AcDbEntity
  8
SK2
100
AcDbLine
 10
173.0992698649149
 20
252.4119939005852
 30
0.0
 11
173.3907669409982
 21
252.7034909766685
 31
0.0
  0
LINE
  5
345
330
1F
100
AcDbEntity
  8
SK2
100
AcDbLine
 10
173.103442797502
 20
252.3883280391971
 30
0.0
 11
173.3848073836091
 21
252.6696926253042
 31
0.0
  0
LINE
  5
346
330
1F
100
AcDbEntity
  8
SK2
100
AcDbLine
 10
173.1076157300892
 20
252.364662177809
 30
0.0
 11
173.3788478262201
 21
252.6358942739399
 31
0.0
  0
LINE
  5
347
330
1F
100
AcDbEntity
  8
SK2
100
AcDbLine
 10
173.1117886626764
 20
252.3409963164208
 30
0.0
 11
173.3728882688311
 21
252.6020959225755
 31
0.0
  0
LINE
  5
348
330
1F
100
AcDbEntity
  8
SK2
100
AcDbLine
 10
173.1159615952635
 20
252.3173304550326
 30
0.0
 11
173.366928711442
 21
252.5682975712111
 31
0.0
  0
LINE
  5
349
330
1F
100
AcDbEntity
  8
SK2
100
AcDbLine
 10
173.1201345278507
 20
252.2936645936444
 30
0.0
 11
173.360969154053
 21
252.5344992198468
 31
0.0
  0
LINE
  5
34A
330
1F
100
AcDbEntity
  8
SK2
100
AcDbLine
 10
173.1243074604378
 20
252.2699987322563
 30
0.0
 11
173.355009596664
 21
252.5007008684824
 31
0.0
  0
LINE
  5
34B
330
1F
100
AcDbEntity
  8
SK2
100
AcDbLine
 10
173.128480393025
 20
252.2463328708681
 30
0.0
 11
173.3490500392749
 21
252.466902517118
 31
0.0
  0
LINE
  5
34C
330
1F
100
AcDbEntity
  8
SK2
100
AcDbLine
 10
173.1326533256122
 20
252.22266700948
 30
0.0
 11
173.3430904818858
 21
252.4331041657537
 31
0.0
  0
LINE
  5
34D
330
1F
100
AcDbEntity
  8
SK2
100
AcDbLine
 10
173.1368262581993
 20
252.1990011480918
 30
0.0
 11
173.3371309244968
 21
252.3993058143893
 31
0.0
  0
LINE
  5
34E
330
1F
100
AcDbEntity
  8
SK2
100
AcDbLine
 10
173.1409991907865
 20
252.1753352867037
 30
0.0
 11
173.3311713671078
 21
252.365507463025
 31
0.0
  0
LINE
  5
34F
330
1F
100
AcDbEntity
  8
SK2
100
AcDbLine
 10
173.1451721233736
 20
252.1516694253155
 30
0.0
 11
173.3252118097187
 21
252.3317091116606
 31
0.0
  0
LINE
  5
350
330
1F
100
AcDbEntity
  8
SK2
100
AcDbLine
 10
173.1493450559608
 20
252.1280035639273
 30
0.0
 11
173.3192522523297
 21
252.2979107602962
 31
0.0
  0
LINE
  5
351
330
1F
100
AcDbEntity
  8
SK2
100
AcDbLine
 10
173.153517988548
 20
252.1043377025392
 30
0.0
 11
173.3132926949406
 21
252.2641124089319
 31
0.0
  0
LINE
  5
352
330
1F
100
AcDbEntity
  8
SK2
100
AcDbLine
 10
173.1576909211351
 20
252.0806718411511
 30
0.0
 11
173.3073331375516
 21
252.2303140575675
 31
0.0
  0
LINE
  5
353
330
1F
100
AcDbEntity
  8
SK2
100
AcDbLine
 10
173.1618638537223
 20
252.0570059797629
 30
0.0
 11
173.3013735801625
 21
252.1965157062032
 31
0.0
  0
LINE
  5
354
330
1F
100
AcDbEntity
  8
SK2
100
AcDbLine
 10
173.1660367863094
 20
252.0333401183747
 30
0.0
 11
173.2954140227735
 21
252.1627173548388
 31
0.0
  0
LINE
  5
355
330
1F
100
AcDbEntity
  8
SK2
100
AcDbLine
 10
173.1702097188966
 20
252.0096742569866
 30
0.0
 11
173.2894544653844
 21
252.1289190034744
 31
0.0
  0
LINE
  5
356
330
1F
100
AcDbEntity
  8
SK2
100
AcDbLine
 10
173.1743826514837
 20
251.9860083955984
 30
0.0
 11
173.2834949079955
 21
252.0951206521101
 31
0.0
  0
LINE
  5
357
330
1F
100
AcDbEntity
  8
SK2
100
AcDbLine
 10
173.1785555840709
 20
251.9623425342103
 30
0.0
 11
173.2775353506064
 21
252.0613223007457
 31
0.0
  0
LINE
  5
358
330
1F
100
AcDbEntity
  8
SK2
100
AcDbLine
 10
173.1827285166581
 20
251.9386766728221
 30
0.0
 11
173.2715757932173
 21
252.0275239493813
 31
0.0
  0
LINE
  5
359
330
1F
100
AcDbEntity
  8
SK2
100
AcDbLine
 10
173.1869014492452
 20
251.9150108114339
 30
0.0
 11
173.2656162358283
 21
251.993725598017
 31
0.0
  0
LINE
  5
35A
330
1F
100
AcDbEntity
  8
SK2
100
AcDbLine
 10
173.1910743818323
 20
251.8913449500458
 30
0.0
 11
173.2596566784392
 21
251.9599272466526
 31
0.0
  0
LINE
  5
35B
330
1F
100
AcDbEntity
  8
SK2
100
AcDbLine
 10
173.1952473144195
 20
251.8676790886576
 30
0.0
 11
173.2536971210502
 21
251.9261288952883
 31
0.0
  0
LINE
  5
35C
330
1F
100
AcDbEntity
  8
SK2
100
AcDbLine
 10
173.1994202470067
 20
251.8440132272695
 30
0.0
 11
173.2477375636611
 21
251.892330543924
 31
0.0
  0
LINE
  5
35D
330
1F
100
AcDbEntity
  8
SK2
100
AcDbLine
 10
173.2035931795938
 20
251.8203473658813
 30
0.0
 11
173.2417780062721
 21
251.8585321925596
 31
0.0
  0
LINE
  5
35E
330
1F
100
AcDbEntity
  8
SK2
100
AcDbLine
 10
173.207766112181
 20
251.7966815044931
 30
0.0
 11
173.235818448883
 21
251.8247338411952
 31
0.0
  0
LINE
  5
35F
330
1F
100
AcDbEntity
  8
SK2
100
AcDbLine
 10
173.2119390447682
 20
251.773015643105
 30
0.0
 11
173.229858891494
 21
251.7909354898308
 31
0.0
  0
LINE
  5
360
330
1F
100
AcDbEntity
  8
SK2
100
AcDbLine
 10
173.2161119773553
 20
251.7493497817168
 30
0.0
 11
173.223899334105
 21
251.7571371384665
 31
0.0
  0
MTEXT
  5
361
330
1F
100
AcDbEntity
  8
SK2
100
AcDbMText
 10
310.067248
 20
281.030261
 30
0.0
 40
3.5
 41
0.0
 71
     7
 72
     5
  1
\W0.7809;152
  7
cesky
 73
     2
 44
0.8433729999999998
  0
LINE
  5
362
330
1F
100
AcDbEntity
  8
SK2
100
AcDbLine
 10
389.144248
 20
253.731161
 30
0.0
 11
389.144248
 21
282.156095
 31
0.0
  0
LINE
  5
363
330
1F
100
AcDbEntity
  8
SK2
100
AcDbLine
 10
237.144248
 20
243.731161
 30
0.0
 11
237.144248
 21
282.156095
 31
0.0
  0
LINE
  5
364
330
1F
100
AcDbEntity
  8
SK2
100
AcDbLine
 10
389.144248
 20
281.156095
 30
0.0
 11
237.144248
 21
281.156095
 31
0.0
  0
SOLID
  5
365
330
1F
100
AcDbEntity
  8
SK2
100
AcDbTrace
 10
389.144248
 20
281.156095
 30
0.0
 11
385.644251
 21
280.53895
 31
0.0
 12
385.644246
 22
281.773239
 32
0.0
 13
385.644246
 23
281.773239
 33
0.0
  0
SOLID
  5
366
330
1F
100
AcDbEntity
  8
SK2
100
AcDbTrace
 10
237.144248
 20
281.156095
 30
0.0
 11
240.644246
 21
281.773239
 31
0.0
 12
240.644251
 22
280.53895
 32
0.0
 13
240.644251
 23
280.53895
 33
0.0
  0
MTEXT
  5
367
330
1F
100
AcDbEntity
  8
SK2
100
AcDbMText
 10
286.067248
 20
291.114569
 30
0.0
 40
3.5
 41
0.0
 71
     7
 72
     5
  1
\W0.7231;200
  7
cesky
 73
     2
 44
0.8433729999999998
  0
LINE
  5
368
330
1F
100
AcDbEntity
  8
SK2
100
AcDbLine
 10
189.144248
 20
250.731161
 30
0.0
 11
189.144248
 21
292.240402
 31
0.0
  0
LINE
  5
369
330
1F
100
AcDbEntity
  8
SK2
100
AcDbLine
 10
389.144248
 20
253.731161
 30
0.0
 11
389.144248
 21
292.240402
 31
0.0
  0
LINE
  5
36A
330
1F
100
AcDbEntity
  8
SK2
100
AcDbLine
 10
189.144248
 20
291.240402
 30
0.0
 11
389.144248
 21
291.240402
 31
0.0
  0
SOLID
  5
36B
330
1F
100
AcDbEntity
  8
SK2
100
AcDbTrace
 10
189.144248
 20
291.240402
 30
0.0
 11
192.644246
 21
291.857546
 31
0.0
 12
192.644251
 22
290.623258
 32
0.0
 13
192.644251
 23
290.623258
 33
0.0
  0
SOLID
  5
36C
330
1F
100
AcDbEntity
  8
SK2
100
AcDbTrace
 10
389.144248
 20
291.240402
 30
0.0
 11
385.644251
 21
290.623258
 31
0.0
 12
385.644246
 22
291.857546
 32
0.0
 13
385.644246
 23
291.857546
 33
0.0
  0
ARC
  5
36D
330
1F
100
AcDbEntity
  8
CUT
100
AcDbCircle
 10
388.344248
 20
251.391863
 30
0.0
 40
0.8000000000000007
100
AcDbArc
 50
315.0
 51
45.0
  0
ARC
  5
36E
330
1F
100
AcDbEntity
  8
CUT
100
AcDbCircle
 10
382.740427
 20
245.788042
 30
0.0
 40
0.8000000000000007
100
AcDbArc
 50
225.0
 51
315.0
  0
ARC
  5
36F
330
1F
100
AcDbEntity
  8
CUT
100
AcDbCircle
 10
382.740427
 20
256.995684
 30
0.0
 40
0.8000000000000007
100
AcDbArc
 50
45.0
 51
135.0
  0
ARC
  5
370
330
1F
100
AcDbEntity
  8
CUT
100
AcDbCircle
 10
377.136606
 20
251.391863
 30
0.0
 40
0.8000000000000007
100
AcDbArc
 50
135.0
 51
225.0
  0
LINE
  5
371
330
1F
100
AcDbEntity
  8
CUT
100
AcDbLine
 10
383.306112
 20
257.56137
 30
0.0
 11
388.9099339999999
 21
251.957549
 31
0.0
  0
LINE
  5
372
330
1F
100
AcDbEntity
  8
CUT
100
AcDbLine
 10
382.174742
 20
245.222357
 30
0.0
 11
376.57092
 21
250.826178
 31
0.0
  0
LINE
  5
373
330
1F
100
AcDbEntity
  8
CUT
100
AcDbLine
 10
388.9099339999999
 20
250.826178
 30
0.0
 11
383.306112
 21
245.222357
 31
0.0
  0
LINE
  5
374
330
1F
100
AcDbEntity
  8
CUT
100
AcDbLine
 10
376.57092
 20
251.957549
 30
0.0
 11
382.174742
 21
257.56137
 31
0.0
  0
ENDSEC
  0
SECTION
  2
OBJECTS
  0
DICTIONARY
  5
C
330
0
100
AcDbDictionary
281
     1
  3
ACAD_CIP_PREVIOUS_PRODUCT_INFO
350
21D
  3
ACAD_COLOR
350
217
  3
ACAD_DETAILVIEWSTYLE
350
213
  3
ACAD_GROUP
350
D
  3
ACAD_IMAGE_DICT
350
BB
  3
ACAD_IMAGE_VARS
350
21C
  3
ACAD_LAYOUT
350
1A
  3
ACAD_MATERIAL
350
43
  3
ACAD_MLEADERSTYLE
350
6B
  3
ACAD_MLINESTYLE
350
17
  3
ACAD_PLOTSETTINGS
350
19
  3
ACAD_PLOTSTYLENAME
350
E
  3
ACAD_SCALELIST
350
47
  3
ACAD_SECTIONVIEWSTYLE
350
214
  3
ACAD_TABLESTYLE
350
69
  3
ACAD_VISUALSTYLE
350
2A
  3
ACDB_RECOMPOSE_DATA
350
3AB
  3
AcDbVariableDictionary
350
1D0
  3
AcDsDecomposeData
350
3B1
  0
DICTIONARY
  5
3A0
330
2
100
AcDbDictionary
280
     1
281
     1
  3
ACAD_LAYERSTATES
360
3A1
  0
DICTIONARY
  5
385
330
10
100
AcDbDictionary
280
     1
281
     1
  3
ADSK_XREC_LAYER_RECONCILED
360
386
  0
DICTIONARY
  5
387
330
375
100
AcDbDictionary
280
     1
281
     1
  3
ADSK_XREC_LAYER_RECONCILED
360
388
  0
DICTIONARY
  5
389
330
376
100
AcDbDictionary
280
     1
281
     1
  3
ADSK_XREC_LAYER_RECONCILED
360
38A
  0
DICTIONARY
  5
38B
330
377
100
AcDbDictionary
280
     1
281
     1
  3
ADSK_XREC_LAYER_RECONCILED
360
38C
  0
DICTIONARY
  5
38D
330
379
100
AcDbDictionary
280
     1
281
     1
  3
ADSK_XREC_LAYER_RECONCILED
360
38E
  0
DICTIONARY
  5
38F
330
37A
100
AcDbDictionary
280
     1
281
     1
  3
ADSK_XREC_LAYER_RECONCILED
360
390
  0
DICTIONARY
  5
391
330
37C
100
AcDbDictionary
280
     1
281
     1
  3
ADSK_XREC_LAYER_RECONCILED
360
392
  0
DICTIONARY
  5
393
330
37D
100
AcDbDictionary
280
     1
281
     1
  3
ADSK_XREC_LAYER_RECONCILED
360
394
  0
DICTIONARY
  5
395
330
37E
100
AcDbDictionary
280
     1
281
     1
  3
ADSK_XREC_LAYER_RECONCILED
360
396
  0
DICTIONARY
  5
397
330
37F
100
AcDbDictionary
280
     1
281
     1
  3
ADSK_XREC_LAYER_RECONCILED
360
398
  0
DICTIONARY
  5
399
330
380
100
AcDbDictionary
280
     1
281
     1
  3
ADSK_XREC_LAYER_RECONCILED
360
39A
  0
DICTIONARY
  5
39B
330
381
100
AcDbDictionary
280
     1
281
     1
  3
ADSK_XREC_LAYER_RECONCILED
360
39C
  0
DICTIONARY
  5
21E
330
1F
100
AcDbDictionary
280
     1
281
     1
  3
ACAD_SORTENTS
360
21F
  0
XRECORD
  5
21D
102
{ACAD_REACTORS
330
C
102
}
330
C
100
AcDbXrecord
280
     1
300
ACD
300
2019
300

  0
DICTIONARY
  5
217
102
{ACAD_REACTORS
330
C
102
}
330
C
100
AcDbDictionary
281
     1
  0
DICTIONARY
  5
213
102
{ACAD_REACTORS
330
C
102
}
330
C
100
AcDbDictionary
281
     1
  3
Metric50
350
219
  0
DICTIONARY
  5
D
102
{ACAD_REACTORS
330
C
102
}
330
C
100
AcDbDictionary
281
     1
  3
ANNOTATION
350
1BB
  3
NULOVY_BOD
350
382
  0
DICTIONARY
  5
BB
102
{ACAD_REACTORS
330
C
102
}
330
C
100
AcDbDictionary
281
     1
  3
16N2R027A16_SSD09_2D_DormerPramet_jpg
350
BC
  0
RASTERVARIABLES
  5
21C
102
{ACAD_REACTORS
330
C
102
}
330
C
100
AcDbRasterVariables
 90
        0
 70
     1
 71
     1
 72
     1
  0
DICTIONARY
  5
1A
102
{ACAD_REACTORS
330
C
102
}
330
C
100
AcDbDictionary
281
     1
  3
Layout1
350
1E
  3
Layout2
350
26
  3
Model
350
22
  0
DICTIONARY
  5
43
102
{ACAD_REACTORS
330
C
102
}
330
C
100
AcDbDictionary
281
     1
  3
ByBlock
350
45
  3
ByLayer
350
44
  3
Global
350
46
  0
DICTIONARY
  5
6B
102
{ACAD_REACTORS
330
C
102
}
330
C
100
AcDbDictionary
281
     1
  3
Standard
350
6C
  0
DICTIONARY
  5
17
102
{ACAD_REACTORS
330
C
102
}
330
C
100
AcDbDictionary
281
     1
  3
Standard
350
18
  0
DICTIONARY
  5
19
102
{ACAD_REACTORS
330
C
102
}
330
C
100
AcDbDictionary
281
     1
  0
ACDBDICTIONARYWDFLT
  5
E
102
{ACAD_REACTORS
330
C
102
}
330
C
100
AcDbDictionary
281
     1
  3
Normal
350
F
100
AcDbDictionaryWithDefault
340
F
  0
DICTIONARY
  5
47
102
{ACAD_REACTORS
330
C
102
}
330
C
100
AcDbDictionary
281
     1
  3
A0
350
48
  3
A1
350
49
  3
A2
350
4A
  3
A3
350
4B
  3
A4
350
4C
  3
A5
350
4D
  3
A6
350
4E
  3
A7
350
4F
  3
A8
350
50
  3
A9
350
51
  3
B0
350
52
  3
B1
350
53
  3
B2
350
54
  3
B3
350
55
  3
B4
350
56
  3
B5
350
57
  3
B6
350
58
  3
B7
350
59
  3
B8
350
5A
  3
B9
350
5B
  3
C0
350
5C
  3
C1
350
5D
  3
C2
350
5E
  3
C3
350
5F
  3
C4
350
60
  3
C5
350
61
  3
C6
350
62
  3
C7
350
63
  3
C8
350
64
  3
C9
350
65
  3
D0
350
66
  3
D1
350
67
  3
D2
350
68
  0
DICTIONARY
  5
214
102
{ACAD_REACTORS
330
C
102
}
330
C
100
AcDbDictionary
281
     1
  3
Metric50
350
218
  0
DICTIONARY
  5
69
102
{ACAD_REACTORS
330
C
102
}
330
C
100
AcDbDictionary
281
     1
  3
Standard
350
6A
  0
DICTIONARY
  5
2A
102
{ACAD_REACTORS
330
C
102
}
330
C
100
AcDbDictionary
281
     1
  3
2dWireframe
350
2F
  3
Basic
350
32
  3
Brighten
350
36
  3
ColorChange
350
3A
  3
Conceptual
350
34
  3
Dim
350
35
  3
EdgeColorOff
350
3D
  3
Facepattern
350
39
  3
Flat
350
2B
  3
FlatWithEdges
350
2C
  3
Gouraud
350
2D
  3
GouraudWithEdges
350
2E
  3
Hidden
350
31
  3
JitterOff
350
3B
  3
Linepattern
350
38
  3
OverhangOff
350
3C
  3
Realistic
350
33
  3
Shaded
350
42
  3
Shaded with edges
350
41
  3
Shades of Gray
350
3E
  3
Sketchy
350
3F
  3
Thicken
350
37
  3
Wireframe
350
30
  3
X-Ray
350
40
  0
XRECORD
  5
3AB
102
{ACAD_REACTORS
330
C
102
}
330
C
100
AcDbXrecord
280
     1
 90
        1
330
6A
  0
DICTIONARY
  5
1D0
102
{ACAD_REACTORS
330
C
102
}
330
C
100
AcDbDictionary
281
     1
  3
CANNOSCALE
350
1D1
  3
CMLEADERSTYLE
350
212
  3
CTABLESTYLE
350
211
  3
CVIEWDETAILSTYLE
350
3A6
  3
CVIEWSECTIONSTYLE
350
3A7
  3
MSLTSCALE
350
1D2
  3
XCLIPFRAME
350
3A8
  0
DICTIONARY
  5
3B1
102
{ACAD_REACTORS
330
C
102
}
330
C
100
AcDbDictionary
281
     1
  3
AcDsRecords
350
3B3
  3
AcDsSchemas
350
3B2
1001
ACAD
1070
     2
  0
DICTIONARY
  5
3A1
102
{ACAD_REACTORS
330
3A0
102
}
330
3A0
100
AcDbDictionary
281
     1
  0
XRECORD
  5
386
102
{ACAD_REACTORS
330
385
102
}
330
385
100
AcDbXrecord
280
     1
290
     1
  0
XRECORD
  5
388
102
{ACAD_REACTORS
330
387
102
}
330
387
100
AcDbXrecord
280
     1
290
     1
  0
XRECORD
  5
38A
102
{ACAD_REACTORS
330
389
102
}
330
389
100
AcDbXrecord
280
     1
290
     1
  0
XRECORD
  5
38C
102
{ACAD_REACTORS
330
38B
102
}
330
38B
100
AcDbXrecord
280
     1
290
     1
  0
XRECORD
  5
38E
102
{ACAD_REACTORS
330
38D
102
}
330
38D
100
AcDbXrecord
280
     1
290
     1
  0
XRECORD
  5
390
102
{ACAD_REACTORS
330
38F
102
}
330
38F
100
AcDbXrecord
280
     1
290
     1
  0
XRECORD
  5
392
102
{ACAD_REACTORS
330
391
102
}
330
391
100
AcDbXrecord
280
     1
290
     1
  0
XRECORD
  5
394
102
{ACAD_REACTORS
330
393
102
}
330
393
100
AcDbXrecord
280
     1
290
     1
  0
XRECORD
  5
396
102
{ACAD_REACTORS
330
395
102
}
330
395
100
AcDbXrecord
280
     1
290
     1
  0
XRECORD
  5
398
102
{ACAD_REACTORS
330
397
102
}
330
397
100
AcDbXrecord
280
     1
290
     1
  0
XRECORD
  5
39A
102
{ACAD_REACTORS
330
399
102
}
330
399
100
AcDbXrecord
280
     1
290
     1
  0
XRECORD
  5
39C
102
{ACAD_REACTORS
330
39B
102
}
330
39B
100
AcDbXrecord
280
     1
290
     1
  0
SORTENTSTABLE
  5
21F
102
{ACAD_REACTORS
330
21E
102
}
330
21E
100
AcDbSortentsTable
330
1F
331
11D
  5
11F
331
11E
  5
121
331
11F
  5
122
331
121
  5
2B2
331
122
  5
2B3
331
123
  5
2B4
331
125
  5
349
331
220
  5
350
331
221
  5
351
331
222
  5
352
331
223
  5
353
331
224
  5
354
331
225
  5
355
331
226
  5
356
331
227
  5
357
331
228
  5
358
331
229
  5
359
331
22A
  5
35A
331
22B
  5
361
331
22C
  5
362
331
22D
  5
363
331
22E
  5
364
331
22F
  5
365
331
230
  5
366
331
231
  5
367
331
232
  5
368
331
233
  5
369
331
234
  5
36A
331
235
  5
36B
331
236
  5
36C
331
237
  5
11D
331
238
  5
11E
331
239
  5
123
331
23A
  5
125
331
23B
  5
171
331
23C
  5
220
331
23D
  5
221
331
23E
  5
222
331
23F
  5
223
331
240
  5
224
331
241
  5
225
331
242
  5
226
331
243
  5
227
331
244
  5
228
331
245
  5
229
331
246
  5
22B
331
247
  5
22C
331
248
  5
22D
331
249
  5
22E
331
24A
  5
22F
331
24B
  5
230
331
24C
  5
231
331
24D
  5
232
331
24E
  5
233
331
24F
  5
234
331
250
  5
235
331
251
  5
236
331
252
  5
237
331
253
  5
238
331
254
  5
239
331
255
  5
23A
331
256
  5
23B
331
257
  5
23C
331
258
  5
23D
331
259
  5
23E
331
25A
  5
23F
331
25B
  5
240
331
25C
  5
241
331
25D
  5
242
331
25E
  5
243
331
25F
  5
244
331
260
  5
245
331
261
  5
246
331
262
  5
247
331
263
  5
248
331
264
  5
249
331
265
  5
24A
331
266
  5
24B
331
267
  5
24C
331
268
  5
24D
331
269
  5
24E
331
26A
  5
24F
331
26B
  5
250
331
26C
  5
251
331
26D
  5
252
331
26E
  5
253
331
26F
  5
254
331
270
  5
255
331
271
  5
256
331
272
  5
257
331
273
  5
258
331
274
  5
259
331
275
  5
25A
331
276
  5
25B
331
277
  5
25C
331
278
  5
25D
331
279
  5
25E
331
27A
  5
25F
331
27B
  5
260
331
27C
  5
261
331
27D
  5
262
331
27E
  5
263
331
27F
  5
264
331
280
  5
265
331
281
  5
266
331
282
  5
267
331
283
  5
268
331
284
  5
269
331
285
  5
26A
331
286
  5
26B
331
287
  5
26C
331
288
  5
26D
331
289
  5
26E
331
28A
  5
26F
331
28B
  5
270
331
28C
  5
271
331
28D
  5
272
331
28E
  5
273
331
28F
  5
274
331
290
  5
275
331
291
  5
276
331
292
  5
277
331
293
  5
278
331
294
  5
279
331
295
  5
27A
331
296
  5
27B
331
297
  5
27C
331
298
  5
27D
331
299
  5
27E
331
29A
  5
27F
331
29B
  5
280
331
29C
  5
281
331
29D
  5
282
331
29E
  5
283
331
29F
  5
284
331
2A0
  5
285
331
2A1
  5
286
331
2A2
  5
287
331
2A3
  5
288
331
2A4
  5
289
331
2A5
  5
28A
331
2A6
  5
28B
331
2A7
  5
28C
331
2A8
  5
28D
331
2A9
  5
28E
331
2AA
  5
28F
331
2AB
  5
290
331
2AC
  5
291
331
2AD
  5
292
331
2AE
  5
293
331
2AF
  5
294
331
2B0
  5
295
331
2B1
  5
296
331
2B2
  5
297
331
2B3
  5
298
331
2B4
  5
299
331
2B5
  5
29A
331
2B6
  5
29B
331
2B7
  5
29C
331
2B8
  5
29D
331
2B9
  5
29E
331
2BA
  5
29F
331
2BB
  5
2A0
331
2BC
  5
2A1
331
2BD
  5
2A2
331
2BE
  5
2A3
331
2BF
  5
2A4
331
2C0
  5
2A5
331
2C1
  5
2A6
331
2C2
  5
2A7
331
2C3
  5
2A8
331
2C4
  5
2A9
331
2C5
  5
2AA
331
2C6
  5
2AB
331
2C7
  5
2AC
331
2C8
  5
2AD
331
2C9
  5
2AE
331
2CA
  5
2AF
331
2CB
  5
2B0
331
2CC
  5
2B1
331
2CD
  5
2B5
331
2CE
  5
2B6
331
2CF
  5
2B7
331
2D0
  5
2B8
331
2D1
  5
2B9
331
2D2
  5
2BA
331
2D3
  5
2BB
331
2D4
  5
2BC
331
2D5
  5
2BD
331
2D6
  5
2BE
331
2D7
  5
2BF
331
2D8
  5
2C0
331
2D9
  5
2C1
331
2DA
  5
2C2
331
2DB
  5
2C3
331
2DC
  5
2C4
331
2DD
  5
2C5
331
2DE
  5
2C6
331
2DF
  5
2C7
331
2E0
  5
2C8
331
2E1
  5
2C9
331
2E2
  5
2CA
331
2E3
  5
2CB
331
2E4
  5
2CC
331
2E5
  5
2CD
331
2E6
  5
2CE
331
2E7
  5
2CF
331
2E8
  5
2D0
331
2E9
  5
2D1
331
2EA
  5
2D2
331
2EB
  5
2D3
331
2EC
  5
2D4
331
2ED
  5
2D5
331
2EE
  5
2D6
331
2EF
  5
2D7
331
2F0
  5
2D8
331
2F1
  5
2D9
331
2F2
  5
2DA
331
2F3
  5
2DB
331
2F4
  5
2DC
331
2F5
  5
2DD
331
2F6
  5
2DE
331
2F7
  5
2DF
331
2F8
  5
2E0
331
2F9
  5
2E1
331
2FA
  5
2E2
331
2FB
  5
2E3
331
2FC
  5
2E4
331
2FD
  5
2E5
331
2FE
  5
2E6
331
2FF
  5
2E7
331
300
  5
2E8
331
301
  5
2E9
331
302
  5
2EA
331
303
  5
2EB
331
304
  5
2EC
331
305
  5
2ED
331
306
  5
2EE
331
307
  5
2EF
331
308
  5
2F0
331
309
  5
2F1
331
30A
  5
2F2
331
30B
  5
2F3
331
30C
  5
2F4
331
30D
  5
2F5
331
30E
  5
2F6
331
30F
  5
2F7
331
310
  5
2F8
331
311
  5
2F9
331
312
  5
2FA
331
313
  5
2FB
331
314
  5
2FC
331
315
  5
2FD
331
316
  5
2FE
331
317
  5
2FF
331
318
  5
300
331
319
  5
301
331
31A
  5
302
331
31B
  5
303
331
31C
  5
304
331
31D
  5
305
331
31E
  5
306
331
31F
  5
307
331
320
  5
308
331
321
  5
309
331
322
  5
30A
331
323
  5
30B
331
324
  5
30C
331
325
  5
30D
331
326
  5
30E
331
327
  5
30F
331
328
  5
310
331
329
  5
311
331
32A
  5
312
331
32B
  5
313
331
32C
  5
314
331
32D
  5
315
331
32E
  5
316
331
32F
  5
317
331
330
  5
318
331
331
  5
319
331
332
  5
31A
331
333
  5
31B
331
334
  5
31C
331
335
  5
31D
331
336
  5
31E
331
337
  5
31F
331
338
  5
320
331
339
  5
321
331
33A
  5
322
331
33B
  5
323
331
33C
  5
324
331
33D
  5
325
331
33E
  5
326
331
33F
  5
327
331
340
  5
328
331
341
  5
329
331
342
  5
32A
331
343
  5
32B
331
344
  5
32C
331
345
  5
32D
331
346
  5
32E
331
347
  5
32F
331
348
  5
330
331
349
  5
331
331
34A
  5
332
331
34B
  5
333
331
34C
  5
334
331
34D
  5
335
331
34E
  5
336
331
34F
  5
337
331
350
  5
338
331
351
  5
339
331
352
  5
33A
331
353
  5
33B
331
354
  5
33C
331
355
  5
33D
331
356
  5
33E
331
357
  5
33F
331
358
  5
340
331
359
  5
341
331
35A
  5
342
331
35B
  5
343
331
35C
  5
344
331
35D
  5
345
331
35E
  5
346
331
35F
  5
347
331
360
  5
348
331
361
  5
34A
331
362
  5
34B
331
363
  5
34C
331
364
  5
34D
331
365
  5
34E
331
366
  5
34F
331
367
  5
35B
331
368
  5
35C
331
369
  5
35D
331
36A
  5
35E
331
36B
  5
35F
331
36C
  5
360
  0
ACDBDETAILVIEWSTYLE
  5
219
102
{ACAD_XDICTIONARY
360
3E7
102
}
102
{ACAD_REACTORS
330
213
102
}
330
213
100
AcDbModelDocViewStyle
 70
     0
  3
Metric50
290
     0
100
AcDbDetailViewStyle
 70
     0
 71
     0
 90
        3
 71
     1
340
11
 62
   256
 40
5.0
340
0
 62
   256
 40
5.0
300

 40
0.0
280
     1
 71
     2
340
16
 90
       25
 62
   256
 71
     3
340
11
 62
   256
 40
5.0
 90
        0
 40
15.0
 90
        1
300
%<\AcVar ViewDetailId>% (%<\AcVar ViewScale \f "%sn">%)
 71
     4
340
16
 90
       25
 62
   256
340
16
 90
       25
 62
   256
280
     0
  0
GROUP
  5
1BB
102
{ACAD_REACTORS
330
D
102
}
330
D
100
AcDbGroup
300

 70
     0
 71
     1
340
B2
340
B3
340
B4
  0
GROUP
  5
382
102
{ACAD_REACTORS
330
D
102
}
330
D
100
AcDbGroup
300

 70
     0
 71
     1
340
73
  0
IMAGEDEF
  5
BC
102
{ACAD_REACTORS
330
BB
330
BF
102
}
330
BB
100
AcDbRasterImageDef
 90
        0
  1
C:\Users\pp0701\Desktop\zakaznik data\16N2R027A16_SSD09_2D_DormerPramet.jpg
 10
2089.0
 20
531.0
 11
0.0004786979415989
 21
0.0004786979415989
280
     1
281
     0
  0
LAYOUT
  5
1E
102
{ACAD_REACTORS
330
1A
102
}
330
1A
100
AcDbPlotSettings
  1

  2
none_device
  4

  6

 40
0.0
 41
0.0
 42
0.0
 43
0.0
 44
0.0
 45
0.0
 46
0.0
 47
0.0
 48
0.0
 49
0.0
140
0.0
141
0.0
142
1.0
143
1.0
 70
   688
 72
     0
 73
     0
 74
     5
  7

 75
    16
147
1.0
 76
     0
 77
     2
 78
   300
148
0.0
149
0.0
100
AcDbLayout
  1
Layout1
 70
     1
 71
     1
 10
-0.5
 20
-0.5
 11
5.0
 21
5.0
 12
0.0
 22
0.0
 32
0.0
 14
-0.5
 24
-0.5
 34
-0.5
 15
5.0
 25
5.0
 35
5.0
146
0.0
 13
0.0
 23
0.0
 33
0.0
 16
1.0
 26
0.0
 36
0.0
 17
0.0
 27
1.0
 37
0.0
 76
     0
330
1B
  0
LAYOUT
  5
26
102
{ACAD_REACTORS
330
1A
102
}
330
1A
100
AcDbPlotSettings
  1

  2
none_device
  4

  6

 40
0.0
 41
0.0
 42
0.0
 43
0.0
 44
0.0
 45
0.0
 46
0.0
 47
0.0
 48
0.0
 49
0.0
140
0.0
141
0.0
142
1.0
143
1.0
 70
   688
 72
     0
 73
     0
 74
     5
  7

 75
    16
147
1.0
 76
     0
 77
     2
 78
   300
148
0.0
149
0.0
100
AcDbLayout
  1
Layout2
 70
     1
 71
     2
 10
0.0
 20
0.0
 11
0.0
 21
0.0
 12
0.0
 22
0.0
 32
0.0
 14
0.0
 24
0.0
 34
0.0
 15
0.0
 25
0.0
 35
0.0
146
0.0
 13
0.0
 23
0.0
 33
0.0
 16
1.0
 26
0.0
 36
0.0
 17
0.0
 27
1.0
 37
0.0
 76
     0
330
23
  0
LAYOUT
  5
22
102
{ACAD_REACTORS
330
1A
102
}
330
1A
100
AcDbPlotSettings
  1

  2
none_device
  4
Letter_(8.50_x_11.00_Inches)
  6

 40
6.349999999999999
 41
6.349999999999999
 42
6.350005
 43
6.350005
 44
215.9
 45
279.4
 46
0.0
 47
0.0
 48
0.0
 49
0.0
140
0.0
141
0.0
142
1.0
143
1.0
 70
  1712
 72
     0
 73
     0
 74
     0
  7

 75
     0
147
1.0
 76
     0
 77
     2
 78
   300
148
0.0
149
0.0
100
AcDbLayout
  1
Model
 70
     1
 71
     0
 10
-0.5
 20
-0.5
 11
5.0
 21
5.0
 12
0.0
 22
0.0
 32
0.0
 14
-0.5
 24
-0.5
 34
-0.5
 15
5.0
 25
5.0
 35
5.0
146
0.0
 13
0.0
 23
0.0
 33
0.0
 16
1.0
 26
0.0
 36
0.0
 17
0.0
 27
1.0
 37
0.0
 76
     0
330
1F
331
29
  0
MATERIAL
  5
45
102
{ACAD_XDICTIONARY
360
206
102
}
102
{ACAD_REACTORS
330
43
102
}
330
43
100
AcDbMaterial
  1
ByBlock
  0
MATERIAL
  5
44
102
{ACAD_XDICTIONARY
360
204
102
}
102
{ACAD_REACTORS
330
43
102
}
330
43
100
AcDbMaterial
  1
ByLayer
  0
MATERIAL
  5
46
102
{ACAD_XDICTIONARY
360
208
102
}
102
{ACAD_REACTORS
330
43
102
}
330
43
100
AcDbMaterial
  1
Global
  0
MLEADERSTYLE
  5
6C
102
{ACAD_REACTORS
330
6B
102
}
330
6B
100
AcDbMLeaderStyle
170
     2
171
     1
172
     0
 90
        2
 40
0.0
 41
0.0
173
     1
 91
-1056964608
340
14
 92
       -2
290
     1
 42
0.09
291
     1
 43
0.36
  3
Standard
 44
0.18
300

342
11
174
     1
178
     6
175
     1
176
     0
 93
-1056964608
 45
0.18
292
     0
297
     0
 46
0.18
 94
-1056964608
 47
1.0
 49
1.0
140
1.0
293
     1
141
0.0
294
     1
177
     0
142
1.0
295
     0
296
     0
143
0.125
1001
ACAD_MLEADERVER
1070
     2
  0
MLINESTYLE
  5
18
102
{ACAD_REACTORS
330
17
102
}
330
17
100
AcDbMlineStyle
  2
STANDARD
 70
     0
  3

 62
   256
 51
90.0
 52
90.0
 71
     2
 49
0.5
 62
   256
  6
BYLAYER
 49
-0.5
 62
   256
  6
BYLAYER
  0
ACDBPLACEHOLDER
  5
F
102
{ACAD_REACTORS
330
E
102
}
330
E
  0
SCALE
  5
48
102
{ACAD_REACTORS
330
47
102
}
330
47
100
AcDbScale
 70
     0
300
1:1
140
1.0
141
1.0
290
     1
  0
SCALE
  5
49
102
{ACAD_REACTORS
330
47
102
}
330
47
100
AcDbScale
 70
     0
300
1:2
140
1.0
141
2.0
290
     0
  0
SCALE
  5
4A
102
{ACAD_REACTORS
330
47
102
}
330
47
100
AcDbScale
 70
     0
300
1:4
140
1.0
141
4.0
290
     0
  0
SCALE
  5
4B
102
{ACAD_REACTORS
330
47
102
}
330
47
100
AcDbScale
 70
     0
300
1:5
140
1.0
141
5.0
290
     0
  0
SCALE
  5
4C
102
{ACAD_REACTORS
330
47
102
}
330
47
100
AcDbScale
 70
     0
300
1:8
140
1.0
141
8.0
290
     0
  0
SCALE
  5
4D
102
{ACAD_REACTORS
330
47
102
}
330
47
100
AcDbScale
 70
     0
300
1:10
140
1.0
141
10.0
290
     0
  0
SCALE
  5
4E
102
{ACAD_REACTORS
330
47
102
}
330
47
100
AcDbScale
 70
     0
300
1:16
140
1.0
141
16.0
290
     0
  0
SCALE
  5
4F
102
{ACAD_REACTORS
330
47
102
}
330
47
100
AcDbScale
 70
     0
300
1:20
140
1.0
141
20.0
290
     0
  0
SCALE
  5
50
102
{ACAD_REACTORS
330
47
102
}
330
47
100
AcDbScale
 70
     0
300
1:30
140
1.0
141
30.0
290
     0
  0
SCALE
  5
51
102
{ACAD_REACTORS
330
47
102
}
330
47
100
AcDbScale
 70
     0
300
1:40
140
1.0
141
40.0
290
     0
  0
SCALE
  5
52
102
{ACAD_REACTORS
330
47
102
}
330
47
100
AcDbScale
 70
     0
300
1:50
140
1.0
141
50.0
290
     0
  0
SCALE
  5
53
102
{ACAD_REACTORS
330
47
102
}
330
47
100
AcDbScale
 70
     0
300
1:100
140
1.0
141
100.0
290
     0
  0
SCALE
  5
54
102
{ACAD_REACTORS
330
47
102
}
330
47
100
AcDbScale
 70
     0
300
2:1
140
2.0
141
1.0
290
     0
  0
SCALE
  5
55
102
{ACAD_REACTORS
330
47
102
}
330
47
100
AcDbScale
 70
     0
300
4:1
140
4.0
141
1.0
290
     0
  0
SCALE
  5
56
102
{ACAD_REACTORS
330
47
102
}
330
47
100
AcDbScale
 70
     0
300
8:1
140
8.0
141
1.0
290
     0
  0
SCALE
  5
57
102
{ACAD_REACTORS
330
47
102
}
330
47
100
AcDbScale
 70
     0
300
10:1
140
10.0
141
1.0
290
     0
  0
SCALE
  5
58
102
{ACAD_REACTORS
330
47
102
}
330
47
100
AcDbScale
 70
     0
300
100:1
140
100.0
141
1.0
290
     0
  0
SCALE
  5
59
102
{ACAD_REACTORS
330
47
102
}
330
47
100
AcDbScale
 70
     0
300
1/128" = 1'-0"
140
0.007812
141
12.0
290
     0
  0
SCALE
  5
5A
102
{ACAD_REACTORS
330
47
102
}
330
47
100
AcDbScale
 70
     0
300
1/64" = 1'-0"
140
0.015625
141
12.0
290
     0
  0
SCALE
  5
5B
102
{ACAD_REACTORS
330
47
102
}
330
47
100
AcDbScale
 70
     0
300
1/32" = 1'-0"
140
0.03125
141
12.0
290
     0
  0
SCALE
  5
5C
102
{ACAD_REACTORS
330
47
102
}
330
47
100
AcDbScale
 70
     0
300
1/16" = 1'-0"
140
0.0625
141
12.0
290
     0
  0
SCALE
  5
5D
102
{ACAD_REACTORS
330
47
102
}
330
47
100
AcDbScale
 70
     0
300
3/32" = 1'-0"
140
0.09375
141
12.0
290
     0
  0
SCALE
  5
5E
102
{ACAD_REACTORS
330
47
102
}
330
47
100
AcDbScale
 70
     0
300
1/8" = 1'-0"
140
0.125
141
12.0
290
     0
  0
SCALE
  5
5F
102
{ACAD_REACTORS
330
47
102
}
330
47
100
AcDbScale
 70
     0
300
3/16" = 1'-0"
140
0.1875
141
12.0
290
     0
  0
SCALE
  5
60
102
{ACAD_REACTORS
330
47
102
}
330
47
100
AcDbScale
 70
     0
300
1/4" = 1'-0"
140
0.25
141
12.0
290
     0
  0
SCALE
  5
61
102
{ACAD_REACTORS
330
47
102
}
330
47
100
AcDbScale
 70
     0
300
3/8" = 1'-0"
140
0.375
141
12.0
290
     0
  0
SCALE
  5
62
102
{ACAD_REACTORS
330
47
102
}
330
47
100
AcDbScale
 70
     0
300
1/2" = 1'-0"
140
0.5
141
12.0
290
     0
  0
SCALE
  5
63
102
{ACAD_REACTORS
330
47
102
}
330
47
100
AcDbScale
 70
     0
300
3/4" = 1'-0"
140
0.75
141
12.0
290
     0
  0
SCALE
  5
64
102
{ACAD_REACTORS
330
47
102
}
330
47
100
AcDbScale
 70
     0
300
1" = 1'-0"
140
1.0
141
12.0
290
     0
  0
SCALE
  5
65
102
{ACAD_REACTORS
330
47
102
}
330
47
100
AcDbScale
 70
     0
300
1-1/2" = 1'-0"
140
1.5
141
12.0
290
     0
  0
SCALE
  5
66
102
{ACAD_REACTORS
330
47
102
}
330
47
100
AcDbScale
 70
     0
300
3" = 1'-0"
140
3.0
141
12.0
290
     0
  0
SCALE
  5
67
102
{ACAD_REACTORS
330
47
102
}
330
47
100
AcDbScale
 70
     0
300
6" = 1'-0"
140
6.0
141
12.0
290
     0
  0
SCALE
  5
68
102
{ACAD_REACTORS
330
47
102
}
330
47
100
AcDbScale
 70
     0
300
1'-0" = 1'-0"
140
12.0
141
12.0
290
     0
  0
ACDBSECTIONVIEWSTYLE
  5
218
102
{ACAD_XDICTIONARY
360
3E5
102
}
102
{ACAD_REACTORS
330
214
102
}
330
214
100
AcDbModelDocViewStyle
 70
     0
  3
Metric50
290
     0
100
AcDbSectionViewStyle
 70
     0
 71
     0
 90
      102
 71
     1
340
11
 62
   256
 40
5.0
340
0
340
0
 62
   256
 40
5.0
300
I, O, Q, S, X, Z
 40
10.0
 90
        0
 40
2.5
 90
        0
 71
     2
340
16
 90
       25
 62
   256
340
16
 90
       50
 62
   256
 40
5.0
 40
2.5
 40
5.0
 71
     3
340
11
 62
   256
 40
5.0
 90
        0
 40
15.0
 90
        1
300
%<\AcVar ViewSectionStartId>%-%<\AcVar ViewSectionEndId>% (%<\AcVar ViewScale \f "%sn">%)
 71
     4
 62
   256
 62
   257
300
ANSI31
 40
1.0
 90
        0
290
     0
290
     0
 90
        6
 40
0.0
 40
1.570796326794896
 40
0.2617993877991494
 40
1.308996938995747
 40
-0.2617993877991494
 40
1.832595714594046
  0
TABLESTYLE
  5
6A
102
{ACAD_XDICTIONARY
360
20A
102
}
102
{ACAD_REACTORS
330
69
102
}
330
69
100
AcDbTableStyle
  3
Standard
 70
     0
 71
     0
 40
0.06
 41
0.06
280
     0
281
     0
  7
Standard
140
0.18
170
     2
 62
     0
 63
     7
283
     0
274
    -2
284
     1
 64
     0
275
    -2
285
     1
 65
     0
276
    -2
286
     1
 66
     0
277
    -2
287
     1
 67
     0
278
    -2
288
     1
 68
     0
279
    -2
289
     1
 69
     0
  7
Standard
140
0.25
170
     5
 62
     0
 63
     7
283
     0
274
    -2
284
     1
 64
     0
275
    -2
285
     1
 65
     0
276
    -2
286
     1
 66
     0
277
    -2
287
     1
 67
     0
278
    -2
288
     1
 68
     0
279
    -2
289
     1
 69
     0
  7
Standard
140
0.18
170
     5
 62
     0
 63
     7
283
     0
274
    -2
284
     1
 64
     0
275
    -2
285
     1
 65
     0
276
    -2
286
     1
 66
     0
277
    -2
287
     1
 67
     0
278
    -2
288
     1
 68
     0
279
    -2
289
     1
 69
     0
  0
VISUALSTYLE
  5
2F
102
{ACAD_XDICTIONARY
360
3BC
102
}
102
{ACAD_REACTORS
330
2A
102
}
330
2A
100
AcDbVisualStyle
  2

 70
     4
 71
     0
 72
     2
 73
     0
 90
        0
 40
-0.6
 41
-30.0
 62
     5
 63
     7
421
 16777215
 74
     1
 91
        4
 64
     7
 65
   257
 75
     1
175
     1
 42
1.0
 92
        0
 66
   257
 43
1.0
 76
     1
 77
     6
 78
     2
 67
     7
 79
     5
170
     0
171
     0
290
     0
174
     0
 93
        1
 44
0.0
173
     0
291
     0
 45
0.0
1001
ACAD
1000
AcDbSavedByObjectVersion
1070
     0
  0
VISUALSTYLE
  5
32
102
{ACAD_XDICTIONARY
360
3C2
102
}
102
{ACAD_REACTORS
330
2A
102
}
330
2A
100
AcDbVisualStyle
  2

 70
     7
 71
     1
 72
     0
 73
     1
 90
        0
 40
-0.6
 41
-30.0
 62
     5
 63
     7
421
 16777215
 74
     0
 91
        4
 64
     7
 65
   257
 75
     1
175
     1
 42
1.0
 92
        8
 66
     7
 43
1.0
 76
     1
 77
     6
 78
     2
 67
     7
 79
     5
170
     0
171
     0
290
     0
174
     0
 93
        1
 44
0.0
173
     0
291
     1
 45
0.0
1001
ACAD
1000
AcDbSavedByObjectVersion
1070
     0
  0
VISUALSTYLE
  5
36
102
{ACAD_XDICTIONARY
360
3CA
102
}
102
{ACAD_REACTORS
330
2A
102
}
330
2A
100
AcDbVisualStyle
  2

 70
    12
 71
     2
 72
     2
 73
     0
 90
        0
 40
-0.6
 41
-30.0
 62
     5
 63
     7
421
 16777215
 74
     1
 91
        4
 64
     7
 65
   257
 75
     1
175
     1
 42
1.0
 92
        8
 66
     7
 43
1.0
 76
     1
 77
     6
 78
     2
 67
     7
 79
     5
170
     0
171
     0
290
     0
174
     0
 93
        1
 44
50.0
173
     0
291
     1
 45
0.0
1001
ACAD
1000
AcDbSavedByObjectVersion
1070
     0
  0
VISUALSTYLE
  5
3A
102
{ACAD_XDICTIONARY
360
3D2
102
}
102
{ACAD_REACTORS
330
2A
102
}
330
2A
100
AcDbVisualStyle
  2

 70
    16
 71
     2
 72
     2
 73
     3
 90
        0
 40
-0.6
 41
-30.0
 62
     5
 63
     8
421
  8421504
 74
     1
 91
        4
 64
     7
 65
   257
 75
     1
175
     1
 42
1.0
 92
        8
 66
     8
424
  8421504
 43
1.0
 76
     1
 77
     6
 78
     2
 67
     7
 79
     5
170
     0
171
     0
290
     0
174
     0
 93
        1
 44
0.0
173
     0
291
     1
 45
0.0
1001
ACAD
1000
AcDbSavedByObjectVersion
1070
     0
  0
VISUALSTYLE
  5
34
102
{ACAD_XDICTIONARY
360
3C6
102
}
102
{ACAD_REACTORS
330
2A
102
}
330
2A
100
AcDbVisualStyle
  2

 70
     9
 71
     3
 72
     2
 73
     0
 90
        0
 40
-0.6
 41
-30.0
 62
     5
 63
     7
421
 16777215
 74
     2
 91
        2
 64
     7
 65
   257
 75
     1
175
     1
 42
179.0
 92
        8
 66
     7
 43
1.0
 76
     1
 77
     6
 78
     2
 67
     7
 79
     3
170
     0
171
     0
290
     0
174
     0
 93
        1
 44
0.0
173
     0
291
     0
 45
0.0
1001
ACAD
1000
AcDbSavedByObjectVersion
1070
     0
  0
VISUALSTYLE
  5
35
102
{ACAD_XDICTIONARY
360
3C8
102
}
102
{ACAD_REACTORS
330
2A
102
}
330
2A
100
AcDbVisualStyle
  2

 70
    11
 71
     2
 72
     2
 73
     0
 90
        0
 40
-0.6
 41
-30.0
 62
     5
 63
     7
421
 16777215
 74
     1
 91
        4
 64
     7
 65
   257
 75
     1
175
     1
 42
1.0
 92
        8
 66
     7
 43
1.0
 76
     1
 77
     6
 78
     2
 67
     7
 79
     5
170
     0
171
     0
290
     0
174
     0
 93
        1
 44
-50.0
173
     0
291
     1
 45
0.0
1001
ACAD
1000
AcDbSavedByObjectVersion
1070
     0
  0
VISUALSTYLE
  5
3D
102
{ACAD_XDICTIONARY
360
3D8
102
}
102
{ACAD_REACTORS
330
2A
102
}
330
2A
100
AcDbVisualStyle
  2

 70
    22
 71
     2
 72
     2
 73
     0
 90
        0
 40
-0.6
 41
-30.0
 62
     5
 63
     7
421
 16777215
 74
     1
 91
        4
 64
     7
 65
   257
 75
     1
175
     1
 42
1.0
 92
        8
 66
     7
 43
1.0
 76
     1
 77
     6
 78
     2
 67
     7
 79
     5
170
     0
171
     0
290
     0
174
     0
 93
        1
 44
0.0
173
     0
291
     1
 45
0.0
1001
ACAD
1000
AcDbSavedByObjectVersion
1070
     0
  0
VISUALSTYLE
  5
39
102
{ACAD_XDICTIONARY
360
3D0
102
}
102
{ACAD_REACTORS
330
2A
102
}
330
2A
100
AcDbVisualStyle
  2

 70
    15
 71
     2
 72
     2
 73
     0
 90
        0
 40
-0.6
 41
-30.0
 62
     5
 63
     7
421
 16777215
 74
     1
 91
        4
 64
     7
 65
   257
 75
     1
175
     1
 42
1.0
 92
        8
 66
     7
 43
1.0
 76
     1
 77
     6
 78
     2
 67
     7
 79
     5
170
     0
171
     0
290
     0
174
     0
 93
        1
 44
0.0
173
     0
291
     1
 45
0.0
1001
ACAD
1000
AcDbSavedByObjectVersion
1070
     0
  0
VISUALSTYLE
  5
2B
102
{ACAD_XDICTIONARY
360
3B4
102
}
102
{ACAD_REACTORS
330
2A
102
}
330
2A
100
AcDbVisualStyle
  2

 70
     0
 71
     2
 72
     1
 73
     1
 90
        2
 40
-0.6
 41
30.0
 62
     5
 63
     7
421
 16777215
 74
     0
 91
        0
 64
     7
 65
   257
 75
     1
175
     1
 42
1.0
 92
        8
 66
     7
 43
1.0
 76
     1
 77
     6
 78
     2
 67
     7
 79
     5
170
     0
171
     0
290
     0
174
     0
 93
       13
 44
0.0
173
     0
291
     1
 45
0.0
1001
ACAD
1000
AcDbSavedByObjectVersion
1070
     0
  0
VISUALSTYLE
  5
2C
102
{ACAD_XDICTIONARY
360
3B6
102
}
102
{ACAD_REACTORS
330
2A
102
}
330
2A
100
AcDbVisualStyle
  2

 70
     1
 71
     2
 72
     1
 73
     1
 90
        2
 40
-0.6
 41
30.0
 62
     5
 63
     7
421
 16777215
 74
     1
 91
        0
 64
     7
 65
   257
 75
     1
175
     1
 42
1.0
 92
        0
 66
   257
 43
1.0
 76
     1
 77
     6
 78
     2
 67
     7
 79
     5
170
     0
171
     0
290
     0
174
     0
 93
       13
 44
0.0
173
     0
291
     1
 45
0.0
1001
ACAD
1000
AcDbSavedByObjectVersion
1070
     0
  0
VISUALSTYLE
  5
2D
102
{ACAD_XDICTIONARY
360
3B8
102
}
102
{ACAD_REACTORS
330
2A
102
}
330
2A
100
AcDbVisualStyle
  2

 70
     2
 71
     2
 72
     2
 73
     1
 90
        2
 40
-0.6
 41
30.0
 62
     5
 63
     7
421
 16777215
 74
     0
 91
        0
 64
     7
 65
   257
 75
     1
175
     1
 42
1.0
 92
        0
 66
     7
 43
1.0
 76
     1
 77
     6
 78
     2
 67
     7
 79
     5
170
     0
171
     0
290
     0
174
     0
 93
       13
 44
0.0
173
     0
291
     1
 45
0.0
1001
ACAD
1000
AcDbSavedByObjectVersion
1070
     0
  0
VISUALSTYLE
  5
2E
102
{ACAD_XDICTIONARY
360
3BA
102
}
102
{ACAD_REACTORS
330
2A
102
}
330
2A
100
AcDbVisualStyle
  2

 70
     3
 71
     2
 72
     2
 73
     1
 90
        2
 40
-0.6
 41
30.0
 62
     5
 63
     7
421
 16777215
 74
     1
 91
        0
 64
     7
 65
   257
 75
     1
175
     1
 42
1.0
 92
        0
 66
   257
 43
1.0
 76
     1
 77
     6
 78
     2
 67
     7
 79
     5
170
     0
171
     0
290
     0
174
     0
 93
       13
 44
0.0
173
     0
291
     1
 45
0.0
1001
ACAD
1000
AcDbSavedByObjectVersion
1070
     0
  0
VISUALSTYLE
  5
31
102
{ACAD_XDICTIONARY
360
3C0
102
}
102
{ACAD_REACTORS
330
2A
102
}
330
2A
100
AcDbVisualStyle
  2

 70
     6
 71
     1
 72
     2
 73
     2
 90
        0
 40
-0.6
 41
-30.0
 62
     5
 63
     7
421
 16777215
 74
     2
 91
        2
 64
     7
 65
   257
 75
     2
175
     1
 42
40.0
 92
        0
 66
   257
 43
1.0
 76
     1
 77
     6
 78
     2
 67
     7
 79
     3
170
     0
171
     0
290
     0
174
     0
 93
        1
 44
0.0
173
     0
291
     0
 45
0.0
1001
ACAD
1000
AcDbSavedByObjectVersion
1070
     0
  0
VISUALSTYLE
  5
3B
102
{ACAD_XDICTIONARY
360
3D4
102
}
102
{ACAD_REACTORS
330
2A
102
}
330
2A
100
AcDbVisualStyle
  2

 70
    20
 71
     2
 72
     2
 73
     0
 90
        0
 40
-0.6
 41
-30.0
 62
     5
 63
     7
421
 16777215
 74
     1
 91
        4
 64
     7
 65
   257
 75
     1
175
     1
 42
1.0
 92
       10
 66
     7
 43
1.0
 76
     1
 77
     6
 78
     2
 67
     7
 79
     5
170
     0
171
     0
290
     0
174
     0
 93
        1
 44
0.0
173
     0
291
     1
 45
0.0
1001
ACAD
1000
AcDbSavedByObjectVersion
1070
     0
  0
VISUALSTYLE
  5
38
102
{ACAD_XDICTIONARY
360
3CE
102
}
102
{ACAD_REACTORS
330
2A
102
}
330
2A
100
AcDbVisualStyle
  2

 70
    14
 71
     2
 72
     2
 73
     0
 90
        0
 40
-0.6
 41
-30.0
 62
     5
 63
     7
421
 16777215
 74
     1
 91
        4
 64
     7
 65
   257
 75
     7
175
     7
 42
1.0
 92
        8
 66
     7
 43
1.0
 76
     1
 77
     6
 78
     2
 67
     7
 79
     5
170
     0
171
     0
290
     0
174
     0
 93
        1
 44
0.0
173
     0
291
     1
 45
0.0
1001
ACAD
1000
AcDbSavedByObjectVersion
1070
     0
  0
VISUALSTYLE
  5
3C
102
{ACAD_XDICTIONARY
360
3D6
102
}
102
{ACAD_REACTORS
330
2A
102
}
330
2A
100
AcDbVisualStyle
  2

 70
    21
 71
     2
 72
     2
 73
     0
 90
        0
 40
-0.6
 41
-30.0
 62
     5
 63
     7
421
 16777215
 74
     1
 91
        4
 64
     7
 65
   257
 75
     1
175
     1
 42
1.0
 92
        9
 66
     7
 43
1.0
 76
     1
 77
     6
 78
     2
 67
     7
 79
     5
170
     0
171
     0
290
     0
174
     0
 93
        1
 44
0.0
173
     0
291
     1
 45
0.0
1001
ACAD
1000
AcDbSavedByObjectVersion
1070
     0
  0
VISUALSTYLE
  5
33
102
{ACAD_XDICTIONARY
360
3C4
102
}
102
{ACAD_REACTORS
330
2A
102
}
330
2A
100
AcDbVisualStyle
  2

 70
     8
 71
     2
 72
     3
 73
     0
 90
        2
 40
-0.6
 41
30.0
 62
     5
 63
     7
421
 16777215
 74
     0
 91
        0
 64
     7
 65
   257
 75
     1
175
     1
 42
1.0
 92
        8
 66
   257
 43
1.0
 76
     1
 77
     6
 78
     2
 67
     7
 79
     3
170
     0
171
     0
290
     0
174
     0
 93
       13
 44
0.0
173
     0
291
     0
 45
0.0
1001
ACAD
1000
AcDbSavedByObjectVersion
1070
     0
  0
VISUALSTYLE
  5
42
102
{ACAD_XDICTIONARY
360
3E2
102
}
102
{ACAD_REACTORS
330
2A
102
}
330
2A
100
AcDbVisualStyle
  2

 70
    27
 71
     2
 72
     2
 73
     1
 90
        2
 40
-0.6
 41
30.0
 62
     5
 63
     7
421
 16777215
 74
     0
 91
        4
 64
     7
 65
   257
 75
     1
175
     1
 42
1.0
 92
        8
 66
   257
 43
1.0
 76
     1
 77
     6
 78
     2
 67
     8
425
  7895160
 79
     3
170
     0
171
     0
290
     0
174
     0
 93
        5
 44
0.0
173
     0
291
     0
 45
0.0
1001
ACAD
1000
AcDbSavedByObjectVersion
1070
     0
  0
VISUALSTYLE
  5
41
102
{ACAD_XDICTIONARY
360
3E0
102
}
102
{ACAD_REACTORS
330
2A
102
}
330
2A
100
AcDbVisualStyle
  2

 70
    26
 71
     2
 72
     2
 73
     1
 90
        2
 40
-0.6
 41
30.0
 62
     5
 63
     7
421
 16777215
 74
     1
 91
       10
 64
     7
 65
   257
 75
     2
175
     1
 42
1.0
 92
        8
 66
   257
 43
1.0
 76
     1
 77
     6
 78
     2
 67
     7
 79
     3
170
     0
171
     0
290
     0
174
     0
 93
        5
 44
0.0
173
     0
291
     0
 45
0.0
1001
ACAD
1000
AcDbSavedByObjectVersion
1070
     0
  0
VISUALSTYLE
  5
3E
102
{ACAD_XDICTIONARY
360
3DA
102
}
102
{ACAD_REACTORS
330
2A
102
}
330
2A
100
AcDbVisualStyle
  2

 70
    23
 71
     2
 72
     2
 73
     3
 90
        0
 40
-0.6
 41
-30.0
 62
     5
 63
     7
421
 16777215
 74
     2
 91
        2
 64
     7
 65
     7
 75
     1
175
     1
 42
40.0
 92
        8
 66
     7
 43
1.0
 76
     1
 77
     6
 78
     2
 67
     7
 79
     3
170
     0
171
     0
290
     0
174
     0
 93
        1
 44
0.0
173
     0
291
     0
 45
0.0
1001
ACAD
1000
AcDbSavedByObjectVersion
1070
     0
  0
VISUALSTYLE
  5
3F
102
{ACAD_XDICTIONARY
360
3DC
102
}
102
{ACAD_REACTORS
330
2A
102
}
330
2A
100
AcDbVisualStyle
  2

 70
    24
 71
     1
 72
     2
 73
     2
 90
        0
 40
-0.6
 41
-30.0
 62
     5
 63
     7
421
 16777215
 74
     2
 91
        2
 64
     7
 65
     7
 75
     1
175
     1
 42
40.0
 92
       11
 66
     7
 43
1.0
 76
     1
 77
     6
 78
     2
 67
     7
 79
     6
170
     0
171
     0
290
     0
174
     0
 93
        1
 44
0.0
173
     0
291
     0
 45
0.0
1001
ACAD
1000
AcDbSavedByObjectVersion
1070
     0
  0
VISUALSTYLE
  5
37
102
{ACAD_XDICTIONARY
360
3CC
102
}
102
{ACAD_REACTORS
330
2A
102
}
330
2A
100
AcDbVisualStyle
  2

 70
    13
 71
     2
 72
     2
 73
     0
 90
        0
 40
-0.6
 41
-30.0
 62
     5
 63
     7
421
 16777215
 74
     1
 91
        4
 64
     7
 65
   257
 75
     1
175
     1
 42
1.0
 92
       12
 66
     7
 43
1.0
 76
     1
 77
     6
 78
     2
 67
     7
 79
     5
170
     0
171
     0
290
     0
174
     0
 93
        1
 44
0.0
173
     0
291
     1
 45
0.0
1001
ACAD
1000
AcDbSavedByObjectVersion
1070
     0
  0
VISUALSTYLE
  5
30
102
{ACAD_XDICTIONARY
360
3BE
102
}
102
{ACAD_REACTORS
330
2A
102
}
330
2A
100
AcDbVisualStyle
  2

 70
     5
 71
     0
 72
     2
 73
     0
 90
        0
 40
-0.6
 41
-30.0
 62
     5
 63
     7
421
 16777215
 74
     1
 91
        4
 64
     7
 65
   257
 75
     1
175
     1
 42
1.0
 92
        0
 66
   257
 43
1.0
 76
     1
 77
     6
 78
     2
 67
     7
 79
     3
170
     0
171
     0
290
     0
174
     0
 93
        1
 44
0.0
173
     0
291
     0
 45
0.0
1001
ACAD
1000
AcDbSavedByObjectVersion
1070
     0
  0
VISUALSTYLE
  5
40
102
{ACAD_XDICTIONARY
360
3DE
102
}
102
{ACAD_REACTORS
330
2A
102
}
330
2A
100
AcDbVisualStyle
  2

 70
    25
 71
     2
 72
     2
 73
     1
 90
        1
 40
0.5
 41
-30.0
 62
     5
 63
     7
421
 16777215
 74
     1
 91
        0
 64
     7
 65
   257
 75
     1
175
     1
 42
1.0
 92
        8
 66
     7
 43
1.0
 76
     1
 77
     6
 78
     2
 67
     7
 79
     3
170
     0
171
     0
290
     0
174
     0
 93
       13
 44
0.0
173
     0
291
     0
 45
0.0
1001
ACAD
1000
AcDbSavedByObjectVersion
1070
     0
  0
DICTIONARYVAR
  5
1D1
102
{ACAD_REACTORS
330
1D0
102
}
330
1D0
100
DictionaryVariables
280
     0
  1
1:1
  0
DICTIONARYVAR
  5
212
102
{ACAD_REACTORS
330
1D0
102
}
330
1D0
100
DictionaryVariables
280
     0
  1
STANDARD
  0
DICTIONARYVAR
  5
211
102
{ACAD_REACTORS
330
1D0
102
}
330
1D0
100
DictionaryVariables
280
     0
  1
STANDARD
  0
DICTIONARYVAR
  5
3A6
102
{ACAD_REACTORS
330
1D0
102
}
330
1D0
100
DictionaryVariables
280
     0
  1
Metric50
  0
DICTIONARYVAR
  5
3A7
102
{ACAD_REACTORS
330
1D0
102
}
330
1D0
100
DictionaryVariables
280
     0
  1
Metric50
  0
DICTIONARYVAR
  5
1D2
102
{ACAD_REACTORS
330
1D0
102
}
330
1D0
100
DictionaryVariables
280
     0
  1
1
  0
DICTIONARYVAR
  5
3A8
102
{ACAD_REACTORS
330
1D0
102
}
330
1D0
100
DictionaryVariables
280
     0
  1
2
  0
DICTIONARY
  5
3B3
102
{ACAD_REACTORS
330
3B1
102
}
330
3B1
100
AcDbDictionary
281
     1
  0
DICTIONARY
  5
3B2
102
{ACAD_REACTORS
330
3B1
102
}
330
3B1
100
AcDbDictionary
281
     1
  3
2125640859200
350
3AC
  3
2125640859216
350
3AD
  3
2125640859232
350
3AE
  3
2125640859248
350
3AF
  3
2125640859264
350
3B0
  0
DICTIONARY
  5
3E7
330
219
100
AcDbDictionary
280
     1
281
     1
  3
ACAD_XREC_ROUNDTRIP
360
3E8
  0
DICTIONARY
  5
206
330
45
100
AcDbDictionary
280
     1
281
     1
  3
ACAD_XREC_ROUNDTRIP
360
207
  0
DICTIONARY
  5
204
330
44
100
AcDbDictionary
280
     1
281
     1
  3
ACAD_XREC_ROUNDTRIP
360
205
  0
DICTIONARY
  5
208
330
46
100
AcDbDictionary
280
     1
281
     1
  3
ACAD_XREC_ROUNDTRIP
360
209
  0
DICTIONARY
  5
3E5
330
218
100
AcDbDictionary
280
     1
281
     1
  3
ACAD_XREC_ROUNDTRIP
360
3E6
  0
DICTIONARY
  5
20A
330
6A
100
AcDbDictionary
280
     1
281
     1
  3
ACAD_ROUNDTRIP_2008_TABLESTYLE_CELLSTYLEMAP
360
3AA
  3
ACAD_XREC_ROUNDTRIP
360
3E4
  0
DICTIONARY
  5
3BC
330
2F
100
AcDbDictionary
280
     1
281
     1
  3
ACAD_XREC_ROUNDTRIP
360
3BD
  0
DICTIONARY
  5
3C2
330
32
100
AcDbDictionary
280
     1
281
     1
  3
ACAD_XREC_ROUNDTRIP
360
3C3
  0
DICTIONARY
  5
3CA
330
36
100
AcDbDictionary
280
     1
281
     1
  3
ACAD_XREC_ROUNDTRIP
360
3CB
  0
DICTIONARY
  5
3D2
330
3A
100
AcDbDictionary
280
     1
281
     1
  3
ACAD_XREC_ROUNDTRIP
360
3D3
  0
DICTIONARY
  5
3C6
330
34
100
AcDbDictionary
280
     1
281
     1
  3
ACAD_XREC_ROUNDTRIP
360
3C7
  0
DICTIONARY
  5
3C8
330
35
100
AcDbDictionary
280
     1
281
     1
  3
ACAD_XREC_ROUNDTRIP
360
3C9
  0
DICTIONARY
  5
3D8
330
3D
100
AcDbDictionary
280
     1
281
     1
  3
ACAD_XREC_ROUNDTRIP
360
3D9
  0
DICTIONARY
  5
3D0
330
39
100
AcDbDictionary
280
     1
281
     1
  3
ACAD_XREC_ROUNDTRIP
360
3D1
  0
DICTIONARY
  5
3B4
330
2B
100
AcDbDictionary
280
     1
281
     1
  3
ACAD_XREC_ROUNDTRIP
360
3B5
  0
DICTIONARY
  5
3B6
330
2C
100
AcDbDictionary
280
     1
281
     1
  3
ACAD_XREC_ROUNDTRIP
360
3B7
  0
DICTIONARY
  5
3B8
330
2D
100
AcDbDictionary
280
     1
281
     1
  3
ACAD_XREC_ROUNDTRIP
360
3B9
  0
DICTIONARY
  5
3BA
330
2E
100
AcDbDictionary
280
     1
281
     1
  3
ACAD_XREC_ROUNDTRIP
360
3BB
  0
DICTIONARY
  5
3C0
330
31
100
AcDbDictionary
280
     1
281
     1
  3
ACAD_XREC_ROUNDTRIP
360
3C1
  0
DICTIONARY
  5
3D4
330
3B
100
AcDbDictionary
280
     1
281
     1
  3
ACAD_XREC_ROUNDTRIP
360
3D5
  0
DICTIONARY
  5
3CE
330
38
100
AcDbDictionary
280
     1
281
     1
  3
ACAD_XREC_ROUNDTRIP
360
3CF
  0
DICTIONARY
  5
3D6
330
3C
100
AcDbDictionary
280
     1
281
     1
  3
ACAD_XREC_ROUNDTRIP
360
3D7
  0
DICTIONARY
  5
3C4
330
33
100
AcDbDictionary
280
     1
281
     1
  3
ACAD_XREC_ROUNDTRIP
360
3C5
  0
DICTIONARY
  5
3E2
330
42
100
AcDbDictionary
280
     1
281
     1
  3
ACAD_XREC_ROUNDTRIP
360
3E3
  0
DICTIONARY
  5
3E0
330
41
100
AcDbDictionary
280
     1
281
     1
  3
ACAD_XREC_ROUNDTRIP
360
3E1
  0
DICTIONARY
  5
3DA
330
3E
100
AcDbDictionary
280
     1
281
     1
  3
ACAD_XREC_ROUNDTRIP
360
3DB
  0
DICTIONARY
  5
3DC
330
3F
100
AcDbDictionary
280
     1
281
     1
  3
ACAD_XREC_ROUNDTRIP
360
3DD
  0
DICTIONARY
  5
3CC
330
37
100
AcDbDictionary
280
     1
281
     1
  3
ACAD_XREC_ROUNDTRIP
360
3CD
  0
DICTIONARY
  5
3BE
330
30
100
AcDbDictionary
280
     1
281
     1
  3
ACAD_XREC_ROUNDTRIP
360
3BF
  0
DICTIONARY
  5
3DE
330
40
100
AcDbDictionary
280
     1
281
     1
  3
ACAD_XREC_ROUNDTRIP
360
3DF
  0
XRECORD
  5
3AC
102
{ACAD_REACTORS
330
3B2
102
}
330
3B2
100
AcDbXrecord
280
     1
  1
AcDb_Thumbnail_Schema
102
{ATTRRECORD
341
3AD
  2
AcDbDs::TreatedAsObjectData
280
     1
291
     1
102
ATTRRECORD}
102
{ATTRRECORD
341
3AE
  2
AcDbDs::Legacy
280
     1
291
     1
102
ATTRRECORD}
  2
AcDbDs::ID
280
    10
 91
        8
102
{ATTRRECORD
341
3AF
  2
AcDs:Indexable
280
     1
291
     1
102
ATTRRECORD}
102
{ATTRRECORD
341
3B0
  2
AcDbDs::HandleAttribute
280
     7
282
     1
102
ATTRRECORD}
  2
Thumbnail_Data
280
    15
 91
        0
  0
XRECORD
  5
3AD
102
{ACAD_REACTORS
330
3B2
102
}
330
3B2
100
AcDbXrecord
280
     1
  1
AcDbDs::TreatedAsObjectDataSchema
  2
AcDbDs::TreatedAsObjectData
280
     1
 91
        0
  0
XRECORD
  5
3AE
102
{ACAD_REACTORS
330
3B2
102
}
330
3B2
100
AcDbXrecord
280
     1
  1
AcDbDs::LegacySchema
  2
AcDbDs::Legacy
280
     1
 91
        0
  0
XRECORD
  5
3AF
102
{ACAD_REACTORS
330
3B2
102
}
330
3B2
100
AcDbXrecord
280
     1
  1
AcDbDs::IndexedPropertySchema
  2
AcDs:Indexable
280
     1
 91
        0
  0
XRECORD
  5
3B0
102
{ACAD_REACTORS
330
3B2
102
}
330
3B2
100
AcDbXrecord
280
     1
  1
AcDbDs::HandleAttributeSchema
  2
AcDbDs::HandleAttribute
280
     7
 91
        1
284
     1
  0
XRECORD
  5
3E8
102
{ACAD_REACTORS
330
3E7
102
}
330
3E7
100
AcDbXrecord
280
     1
102
DISPLAYNAME
  1
Metric50
102
FLAGS
 90
        0
  0
XRECORD
  5
207
102
{ACAD_REACTORS
330
206
102
}
330
206
100
AcDbXrecord
280
     1
102
MATERIAL
148
0.0
149
0.0
149
0.0
 93
        0
 94
      127
282
     0
 72
     1
 77
     1
171
     1
175
     1
179
     1
273
     0
  0
XRECORD
  5
205
102
{ACAD_REACTORS
330
204
102
}
330
204
100
AcDbXrecord
280
     1
102
MATERIAL
148
0.0
149
0.0
149
0.0
 93
        0
 94
      127
282
     0
 72
     1
 77
     1
171
     1
175
     1
179
     1
273
     0
  0
XRECORD
  5
209
102
{ACAD_REACTORS
330
208
102
}
330
208
100
AcDbXrecord
280
     1
102
MATERIAL
148
0.0
149
0.0
149
0.0
 93
        0
 94
      127
282
     0
 72
     1
 77
     1
171
     1
175
     1
179
     1
273
     0
  0
XRECORD
  5
3E6
102
{ACAD_REACTORS
330
3E5
102
}
330
3E5
100
AcDbXrecord
280
     1
102
DISPLAYNAME
  1
Metric50
102
FLAGS
 90
        0
  0
CELLSTYLEMAP
  5
3AA
102
{ACAD_REACTORS
330
20A
102
}
330
20A
100
AcDbCellStyleMap
 90
        3
300
CELLSTYLE
  1
TABLEFORMAT_BEGIN
 90
        5
170
     1
 91
        0
 92
    32768
 62
   257
 93
        1
300
CONTENTFORMAT
  1
CONTENTFORMAT_BEGIN
 90
        0
 91
        0
 92
        4
 93
        0
300

 40
0.0
140
1.0
 94
        5
 62
     0
340
11
144
0.25
309
CONTENTFORMAT_END
171
     1
301
MARGIN
  1
CELLMARGIN_BEGIN
 40
0.06
 40
0.06
 40
0.06
 40
0.06
 40
0.18
 40
0.18
309
CELLMARGIN_END
 94
        6
 95
        1
302
GRIDFORMAT
  1
GRIDFORMAT_BEGIN
 90
        0
 91
        1
 62
     0
 92
       -2
340
14
 93
        0
 40
0.045
309
GRIDFORMAT_END
 95
        2
302
GRIDFORMAT
  1
GRIDFORMAT_BEGIN
 90
        0
 91
        1
 62
     0
 92
       -2
340
14
 93
        0
 40
0.045
309
GRIDFORMAT_END
 95
        4
302
GRIDFORMAT
  1
GRIDFORMAT_BEGIN
 90
        0
 91
        1
 62
     0
 92
       -2
340
14
 93
        0
 40
0.045
309
GRIDFORMAT_END
 95
        8
302
GRIDFORMAT
  1
GRIDFORMAT_BEGIN
 90
        0
 91
        1
 62
     0
 92
       -2
340
14
 93
        0
 40
0.045
309
GRIDFORMAT_END
 95
       16
302
GRIDFORMAT
  1
GRIDFORMAT_BEGIN
 90
        0
 91
        1
 62
     0
 92
       -2
340
14
 93
        0
 40
0.045
309
GRIDFORMAT_END
 95
       32
302
GRIDFORMAT
  1
GRIDFORMAT_BEGIN
 90
        0
 91
        1
 62
     0
 92
       -2
340
14
 93
        0
 40
0.045
309
GRIDFORMAT_END
309
TABLEFORMAT_END
  1
CELLSTYLE_BEGIN
 90
        1
 91
        1
300
_TITLE
309
CELLSTYLE_END
300
CELLSTYLE
  1
TABLEFORMAT_BEGIN
 90
        5
170
     1
 91
        0
 92
        0
 62
   257
 93
        1
300
CONTENTFORMAT
  1
CONTENTFORMAT_BEGIN
 90
        0
 91
        0
 92
        4
 93
        0
300

 40
0.0
140
1.0
 94
        5
 62
     0
340
11
144
0.18
309
CONTENTFORMAT_END
171
     1
301
MARGIN
  1
CELLMARGIN_BEGIN
 40
0.06
 40
0.06
 40
0.06
 40
0.06
 40
0.18
 40
0.18
309
CELLMARGIN_END
 94
        6
 95
        1
302
GRIDFORMAT
  1
GRIDFORMAT_BEGIN
 90
        0
 91
        1
 62
     0
 92
       -2
340
14
 93
        0
 40
0.045
309
GRIDFORMAT_END
 95
        2
302
GRIDFORMAT
  1
GRIDFORMAT_BEGIN
 90
        0
 91
        1
 62
     0
 92
       -2
340
14
 93
        0
 40
0.045
309
GRIDFORMAT_END
 95
        4
302
GRIDFORMAT
  1
GRIDFORMAT_BEGIN
 90
        0
 91
        1
 62
     0
 92
       -2
340
14
 93
        0
 40
0.045
309
GRIDFORMAT_END
 95
        8
302
GRIDFORMAT
  1
GRIDFORMAT_BEGIN
 90
        0
 91
        1
 62
     0
 92
       -2
340
14
 93
        0
 40
0.045
309
GRIDFORMAT_END
 95
       16
302
GRIDFORMAT
  1
GRIDFORMAT_BEGIN
 90
        0
 91
        1
 62
     0
 92
       -2
340
14
 93
        0
 40
0.045
309
GRIDFORMAT_END
 95
       32
302
GRIDFORMAT
  1
GRIDFORMAT_BEGIN
 90
        0
 91
        1
 62
     0
 92
       -2
340
14
 93
        0
 40
0.045
309
GRIDFORMAT_END
309
TABLEFORMAT_END
  1
CELLSTYLE_BEGIN
 90
        2
 91
        1
300
_HEADER
309
CELLSTYLE_END
300
CELLSTYLE
  1
TABLEFORMAT_BEGIN
 90
        5
170
     1
 91
        0
 92
        0
 62
   257
 93
        1
300
CONTENTFORMAT
  1
CONTENTFORMAT_BEGIN
 90
        0
 91
        0
 92
        4
 93
        0
300

 40
0.0
140
1.0
 94
        2
 62
     0
340
11
144
0.18
309
CONTENTFORMAT_END
171
     1
301
MARGIN
  1
CELLMARGIN_BEGIN
 40
0.06
 40
0.06
 40
0.06
 40
0.06
 40
0.18
 40
0.18
309
CELLMARGIN_END
 94
        6
 95
        1
302
GRIDFORMAT
  1
GRIDFORMAT_BEGIN
 90
        0
 91
        1
 62
     0
 92
       -2
340
14
 93
        0
 40
0.045
309
GRIDFORMAT_END
 95
        2
302
GRIDFORMAT
  1
GRIDFORMAT_BEGIN
 90
        0
 91
        1
 62
     0
 92
       -2
340
14
 93
        0
 40
0.045
309
GRIDFORMAT_END
 95
        4
302
GRIDFORMAT
  1
GRIDFORMAT_BEGIN
 90
        0
 91
        1
 62
     0
 92
       -2
340
14
 93
        0
 40
0.045
309
GRIDFORMAT_END
 95
        8
302
GRIDFORMAT
  1
GRIDFORMAT_BEGIN
 90
        0
 91
        1
 62
     0
 92
       -2
340
14
 93
        0
 40
0.045
309
GRIDFORMAT_END
 95
       16
302
GRIDFORMAT
  1
GRIDFORMAT_BEGIN
 90
        0
 91
        1
 62
     0
 92
       -2
340
14
 93
        0
 40
0.045
309
GRIDFORMAT_END
 95
       32
302
GRIDFORMAT
  1
GRIDFORMAT_BEGIN
 90
        0
 91
        1
 62
     0
 92
       -2
340
14
 93
        0
 40
0.045
309
GRIDFORMAT_END
309
TABLEFORMAT_END
  1
CELLSTYLE_BEGIN
 90
        3
 91
        2
300
_DATA
309
CELLSTYLE_END
  0
XRECORD
  5
3E4
102
{ACAD_REACTORS
330
20A
102
}
330
20A
100
AcDbXrecord
280
     1
102
ACAD_ROUNDTRIP_PRE2007_TABLESTYLE
 90
        4
 91
        0
  1

 92
        4
 93
        0
  2

 94
        4
 95
        0
  3

  0
XRECORD
  5
3BD
102
{ACAD_REACTORS
330
3BC
102
}
330
3BC
100
AcDbXrecord
280
     1
102
RTVSPost2010Prop28
280
     1
102
RTVSPost2010PropOp28
 70
     1
102
RTVSPost2010Prop29
280
     1
102
RTVSPost2010PropOp29
 70
     1
102
RTVSPost2010Prop30
280
     0
102
RTVSPost2010PropOp30
 70
     1
102
RTVSPost2010Prop31
280
     0
102
RTVSPost2010PropOp31
 70
     1
102
RTVSPost2010Prop32
280
     0
102
RTVSPost2010PropOp32
 70
     1
102
RTVSPost2010Prop33
280
     0
102
RTVSPost2010PropOp33
 70
     1
102
RTVSPost2010Prop34
280
     0
102
RTVSPost2010PropOp34
 70
     1
102
RTVSPost2010Prop35
280
     0
102
RTVSPost2010PropOp35
 70
     1
102
RTVSPost2010Prop36
280
     0
102
RTVSPost2010PropOp36
 70
     1
102
RTVSPost2010Prop37
 90
       50
102
RTVSPost2010PropOp37
 70
     1
102
RTVSPost2010Prop38
140
0.0
102
RTVSPost2010PropOp38
 70
     1
102
RTVSPost2010Prop39
140
1.0
102
RTVSPost2010PropOp39
 70
     1
102
RTVSPost2010Prop40
 90
        0
102
RTVSPost2010PropOp40
 70
     1
102
RTVSPost2010Prop41ColorIndex
 90
       18
102
RTVSPost2010Prop41ColorRGB
 90
        0
102
RTVSPost2010PropOp41
 70
     1
102
RTVSPost2010Prop42
 90
       50
102
RTVSPost2010PropOp42
 70
     1
102
RTVSPost2010Prop43
 90
        3
102
RTVSPost2010PropOp43
 70
     1
102
RTVSPost2010Prop44ColorIndex
 90
        5
102
RTVSPost2010Prop44ColorRGB
 90
      255
102
RTVSPost2010PropOp44
 70
     1
102
RTVSPost2010Prop45
280
     0
102
RTVSPost2010PropOp45
 70
     1
102
RTVSPost2010Prop46
 90
       50
102
RTVSPost2010PropOp46
 70
     1
102
RTVSPost2010Prop47
 90
       50
102
RTVSPost2010PropOp47
 70
     1
102
RTVSPost2010Prop48
 90
       50
102
RTVSPost2010PropOp48
 70
     1
102
RTVSPost2010Prop49
280
     0
102
RTVSPost2010PropOp49
 70
     1
102
RTVSPost2010Prop50
 90
       50
102
RTVSPost2010PropOp50
 70
     1
102
RTVSPost2010Prop51ColorIndex
 90
      256
102
RTVSPost2010Prop51ColorRGB
 90
-16777216
102
RTVSPost2010PropOp51
 70
     0
102
RTVSPost2010Prop52
140
1.0
102
RTVSPost2010PropOp52
 70
     0
102
RTVSPost2010Prop53
 90
        2
102
RTVSPost2010PropOp53
 70
     1
102
RTVSPost2010Prop54
  1
strokes_ogs.tif
102
RTVSPost2010PropOp54
 70
     1
102
RTVSPost2010Prop55
280
     0
102
RTVSPost2010PropOp55
 70
     1
102
RTVSPost2010Prop56
140
1.0
102
RTVSPost2010PropOp56
 70
     1
102
RTVSPost2010Prop57
140
1.0
102
RTVSPost2010PropOp57
 70
     1
102
RTVSPropertyOp0
 70
     1
102
RTVSPropertyOp1
 70
     1
102
RTVSPropertyOp2
 70
     1
102
RTVSPropertyOp3
 70
     1
102
RTVSPropertyOp4
 70
     1
102
RTVSPropertyOp5
 70
     1
102
RTVSPropertyOp6
 70
     1
102
RTVSPropertyOp7
 70
     1
102
RTVSPropertyOp8
 70
     1
102
RTVSPropertyOp9
 70
     1
102
RTVSPropertyOp10
 70
     1
102
RTVSPropertyOp11
 70
     1
102
RTVSPropertyOp12
 70
     1
102
RTVSPropertyOp13
 70
     1
102
RTVSPropertyOp14
 70
     1
102
RTVSPropertyOp15
 70
     1
102
RTVSPropertyOp16
 70
     1
102
RTVSPropertyOp17
 70
     1
102
RTVSPropertyOp18
 70
     1
102
RTVSPropertyOp19
 70
     1
102
RTVSPropertyOp20
 70
     1
102
RTVSPropertyOp21
 70
     1
102
RTVSPropertyOp22
 70
     1
102
RTVSPropertyOp23
 70
     1
102
RTVSPropertyOp24
 70
     1
102
RTVSPropertyOp25
 70
     1
102
RTVSPropertyOp26
 70
     1
102
RTVSPropertyOp27
 70
     1
102
RTVSPropertyOp28
 70
     1
102
RTVSPropertyOp29
 70
     1
102
RTVSPropertyOp30
 70
     1
102
RTVSPropertyOp31
 70
     1
102
RTVSPropertyOp32
 70
     1
102
RTVSPropertyOp33
 70
     1
102
RTVSPropertyOp34
 70
     1
102
RTVSPropertyOp35
 70
     1
102
RTVSPropertyOp36
 70
     1
102
RTVSPropertyOp37
 70
     1
102
RTVSPropertyOp38
 70
     1
102
RTVSPropertyOp39
 70
     1
102
RTVSPropertyOp40
 70
     1
102
RTVSPropertyOp41
 70
     1
102
RTVSPropertyOp42
 70
     1
102
RTVSPropertyOp43
 70
     1
102
RTVSPropertyOp44
 70
     1
102
RTVSPropertyOp45
 70
     1
102
RTVSPropertyOp46
 70
     1
102
RTVSPropertyOp47
 70
     1
102
RTVSPropertyOp48
 70
     1
102
RTVSPropertyOp49
 70
     1
102
RTVSPropertyOp50
 70
     1
102
RTVSPropertyOp51
 70
     0
102
RTVSPropertyOp52
 70
     0
102
RTVSPropertyOp53
 70
     1
102
RTVSPropertyOp54
 70
     1
102
RTVSPropertyOp55
 70
     1
102
RTVSPropertyOp56
 70
     1
102
RTVSPropertyOp57
 70
     1
102
RTVSPropertyOp58
 70
     1
102
RTVSPropertyOp59
 70
     1
102
RTVSPropertyOp60
 70
     1
102
RTVSPropertyOp61
 70
     1
102
RTVSPropertyOp62
 70
     1
  0
XRECORD
  5
3C3
102
{ACAD_REACTORS
330
3C2
102
}
330
3C2
100
AcDbXrecord
280
     1
102
RTVSPost2010Prop28
280
     0
102
RTVSPost2010PropOp28
 70
     1
102
RTVSPost2010Prop29
280
     1
102
RTVSPost2010PropOp29
 70
     1
102
RTVSPost2010Prop30
280
     1
102
RTVSPost2010PropOp30
 70
     1
102
RTVSPost2010Prop31
280
     0
102
RTVSPost2010PropOp31
 70
     1
102
RTVSPost2010Prop32
280
     0
102
RTVSPost2010PropOp32
 70
     1
102
RTVSPost2010Prop33
280
     0
102
RTVSPost2010PropOp33
 70
     1
102
RTVSPost2010Prop34
280
     0
102
RTVSPost2010PropOp34
 70
     1
102
RTVSPost2010Prop35
280
     0
102
RTVSPost2010PropOp35
 70
     1
102
RTVSPost2010Prop36
280
     0
102
RTVSPost2010PropOp36
 70
     1
102
RTVSPost2010Prop37
 90
       50
102
RTVSPost2010PropOp37
 70
     1
102
RTVSPost2010Prop38
140
0.0
102
RTVSPost2010PropOp38
 70
     1
102
RTVSPost2010Prop39
140
1.0
102
RTVSPost2010PropOp39
 70
     1
102
RTVSPost2010Prop40
 90
        0
102
RTVSPost2010PropOp40
 70
     1
102
RTVSPost2010Prop41ColorIndex
 90
       18
102
RTVSPost2010Prop41ColorRGB
 90
        0
102
RTVSPost2010PropOp41
 70
     1
102
RTVSPost2010Prop42
 90
       50
102
RTVSPost2010PropOp42
 70
     1
102
RTVSPost2010Prop43
 90
        3
102
RTVSPost2010PropOp43
 70
     1
102
RTVSPost2010Prop44ColorIndex
 90
        5
102
RTVSPost2010Prop44ColorRGB
 90
      255
102
RTVSPost2010PropOp44
 70
     1
102
RTVSPost2010Prop45
280
     0
102
RTVSPost2010PropOp45
 70
     1
102
RTVSPost2010Prop46
 90
       50
102
RTVSPost2010PropOp46
 70
     1
102
RTVSPost2010Prop47
 90
       50
102
RTVSPost2010PropOp47
 70
     1
102
RTVSPost2010Prop48
 90
       50
102
RTVSPost2010PropOp48
 70
     1
102
RTVSPost2010Prop49
280
     0
102
RTVSPost2010PropOp49
 70
     1
102
RTVSPost2010Prop50
 90
       50
102
RTVSPost2010PropOp50
 70
     1
102
RTVSPost2010Prop51ColorIndex
 90
      256
102
RTVSPost2010Prop51ColorRGB
 90
-16777216
102
RTVSPost2010PropOp51
 70
     0
102
RTVSPost2010Prop52
140
1.0
102
RTVSPost2010PropOp52
 70
     0
102
RTVSPost2010Prop53
 90
        2
102
RTVSPost2010PropOp53
 70
     1
102
RTVSPost2010Prop54
  1
strokes_ogs.tif
102
RTVSPost2010PropOp54
 70
     1
102
RTVSPost2010Prop55
280
     0
102
RTVSPost2010PropOp55
 70
     1
102
RTVSPost2010Prop56
140
1.0
102
RTVSPost2010PropOp56
 70
     1
102
RTVSPost2010Prop57
140
1.0
102
RTVSPost2010PropOp57
 70
     1
102
RTVSPropertyOp0
 70
     1
102
RTVSPropertyOp1
 70
     1
102
RTVSPropertyOp2
 70
     1
102
RTVSPropertyOp3
 70
     1
102
RTVSPropertyOp4
 70
     1
102
RTVSPropertyOp5
 70
     1
102
RTVSPropertyOp6
 70
     1
102
RTVSPropertyOp7
 70
     1
102
RTVSPropertyOp8
 70
     1
102
RTVSPropertyOp9
 70
     1
102
RTVSPropertyOp10
 70
     1
102
RTVSPropertyOp11
 70
     1
102
RTVSPropertyOp12
 70
     1
102
RTVSPropertyOp13
 70
     1
102
RTVSPropertyOp14
 70
     1
102
RTVSPropertyOp15
 70
     1
102
RTVSPropertyOp16
 70
     1
102
RTVSPropertyOp17
 70
     1
102
RTVSPropertyOp18
 70
     1
102
RTVSPropertyOp19
 70
     1
102
RTVSPropertyOp20
 70
     1
102
RTVSPropertyOp21
 70
     1
102
RTVSPropertyOp22
 70
     1
102
RTVSPropertyOp23
 70
     1
102
RTVSPropertyOp24
 70
     1
102
RTVSPropertyOp25
 70
     1
102
RTVSPropertyOp26
 70
     1
102
RTVSPropertyOp27
 70
     1
102
RTVSPropertyOp28
 70
     1
102
RTVSPropertyOp29
 70
     1
102
RTVSPropertyOp30
 70
     1
102
RTVSPropertyOp31
 70
     1
102
RTVSPropertyOp32
 70
     1
102
RTVSPropertyOp33
 70
     1
102
RTVSPropertyOp34
 70
     1
102
RTVSPropertyOp35
 70
     1
102
RTVSPropertyOp36
 70
     1
102
RTVSPropertyOp37
 70
     1
102
RTVSPropertyOp38
 70
     1
102
RTVSPropertyOp39
 70
     1
102
RTVSPropertyOp40
 70
     1
102
RTVSPropertyOp41
 70
     1
102
RTVSPropertyOp42
 70
     1
102
RTVSPropertyOp43
 70
     1
102
RTVSPropertyOp44
 70
     1
102
RTVSPropertyOp45
 70
     1
102
RTVSPropertyOp46
 70
     1
102
RTVSPropertyOp47
 70
     1
102
RTVSPropertyOp48
 70
     1
102
RTVSPropertyOp49
 70
     1
102
RTVSPropertyOp50
 70
     1
102
RTVSPropertyOp51
 70
     0
102
RTVSPropertyOp52
 70
     0
102
RTVSPropertyOp53
 70
     1
102
RTVSPropertyOp54
 70
     1
102
RTVSPropertyOp55
 70
     1
102
RTVSPropertyOp56
 70
     1
102
RTVSPropertyOp57
 70
     1
102
RTVSPropertyOp58
 70
     1
102
RTVSPropertyOp59
 70
     1
102
RTVSPropertyOp60
 70
     1
102
RTVSPropertyOp61
 70
     1
102
RTVSPropertyOp62
 70
     1
  0
XRECORD
  5
3CB
102
{ACAD_REACTORS
330
3CA
102
}
330
3CA
100
AcDbXrecord
280
     1
102
RTVSPost2010Prop28
280
     0
102
RTVSPost2010PropOp28
 70
     1
102
RTVSPost2010Prop29
280
     1
102
RTVSPost2010PropOp29
 70
     1
102
RTVSPost2010Prop30
280
     1
102
RTVSPost2010PropOp30
 70
     1
102
RTVSPost2010Prop31
280
     0
102
RTVSPost2010PropOp31
 70
     1
102
RTVSPost2010Prop32
280
     0
102
RTVSPost2010PropOp32
 70
     1
102
RTVSPost2010Prop33
280
     0
102
RTVSPost2010PropOp33
 70
     1
102
RTVSPost2010Prop34
280
     0
102
RTVSPost2010PropOp34
 70
     1
102
RTVSPost2010Prop35
280
     0
102
RTVSPost2010PropOp35
 70
     1
102
RTVSPost2010Prop36
280
     0
102
RTVSPost2010PropOp36
 70
     1
102
RTVSPost2010Prop37
 90
       50
102
RTVSPost2010PropOp37
 70
     1
102
RTVSPost2010Prop38
140
0.0
102
RTVSPost2010PropOp38
 70
     1
102
RTVSPost2010Prop39
140
1.0
102
RTVSPost2010PropOp39
 70
     1
102
RTVSPost2010Prop40
 90
        0
102
RTVSPost2010PropOp40
 70
     1
102
RTVSPost2010Prop41ColorIndex
 90
       18
102
RTVSPost2010Prop41ColorRGB
 90
        0
102
RTVSPost2010PropOp41
 70
     1
102
RTVSPost2010Prop42
 90
       50
102
RTVSPost2010PropOp42
 70
     1
102
RTVSPost2010Prop43
 90
        3
102
RTVSPost2010PropOp43
 70
     1
102
RTVSPost2010Prop44ColorIndex
 90
        5
102
RTVSPost2010Prop44ColorRGB
 90
      255
102
RTVSPost2010PropOp44
 70
     1
102
RTVSPost2010Prop45
280
     0
102
RTVSPost2010PropOp45
 70
     1
102
RTVSPost2010Prop46
 90
       50
102
RTVSPost2010PropOp46
 70
     1
102
RTVSPost2010Prop47
 90
       50
102
RTVSPost2010PropOp47
 70
     1
102
RTVSPost2010Prop48
 90
       50
102
RTVSPost2010PropOp48
 70
     1
102
RTVSPost2010Prop49
280
     0
102
RTVSPost2010PropOp49
 70
     1
102
RTVSPost2010Prop50
 90
       50
102
RTVSPost2010PropOp50
 70
     1
102
RTVSPost2010Prop51ColorIndex
 90
      256
102
RTVSPost2010Prop51ColorRGB
 90
-16777216
102
RTVSPost2010PropOp51
 70
     0
102
RTVSPost2010Prop52
140
1.0
102
RTVSPost2010PropOp52
 70
     0
102
RTVSPost2010Prop53
 90
        2
102
RTVSPost2010PropOp53
 70
     1
102
RTVSPost2010Prop54
  1
strokes_ogs.tif
102
RTVSPost2010PropOp54
 70
     1
102
RTVSPost2010Prop55
280
     0
102
RTVSPost2010PropOp55
 70
     1
102
RTVSPost2010Prop56
140
1.0
102
RTVSPost2010PropOp56
 70
     1
102
RTVSPost2010Prop57
140
1.0
102
RTVSPost2010PropOp57
 70
     1
102
RTVSPropertyOp0
 70
     1
102
RTVSPropertyOp1
 70
     1
102
RTVSPropertyOp2
 70
     1
102
RTVSPropertyOp3
 70
     1
102
RTVSPropertyOp4
 70
     1
102
RTVSPropertyOp5
 70
     1
102
RTVSPropertyOp6
 70
     1
102
RTVSPropertyOp7
 70
     1
102
RTVSPropertyOp8
 70
     1
102
RTVSPropertyOp9
 70
     1
102
RTVSPropertyOp10
 70
     1
102
RTVSPropertyOp11
 70
     1
102
RTVSPropertyOp12
 70
     1
102
RTVSPropertyOp13
 70
     1
102
RTVSPropertyOp14
 70
     1
102
RTVSPropertyOp15
 70
     1
102
RTVSPropertyOp16
 70
     1
102
RTVSPropertyOp17
 70
     1
102
RTVSPropertyOp18
 70
     1
102
RTVSPropertyOp19
 70
     1
102
RTVSPropertyOp20
 70
     1
102
RTVSPropertyOp21
 70
     1
102
RTVSPropertyOp22
 70
     1
102
RTVSPropertyOp23
 70
     1
102
RTVSPropertyOp24
 70
     1
102
RTVSPropertyOp25
 70
     1
102
RTVSPropertyOp26
 70
     1
102
RTVSPropertyOp27
 70
     1
102
RTVSPropertyOp28
 70
     1
102
RTVSPropertyOp29
 70
     1
102
RTVSPropertyOp30
 70
     1
102
RTVSPropertyOp31
 70
     1
102
RTVSPropertyOp32
 70
     1
102
RTVSPropertyOp33
 70
     1
102
RTVSPropertyOp34
 70
     1
102
RTVSPropertyOp35
 70
     1
102
RTVSPropertyOp36
 70
     1
102
RTVSPropertyOp37
 70
     1
102
RTVSPropertyOp38
 70
     1
102
RTVSPropertyOp39
 70
     1
102
RTVSPropertyOp40
 70
     1
102
RTVSPropertyOp41
 70
     1
102
RTVSPropertyOp42
 70
     1
102
RTVSPropertyOp43
 70
     1
102
RTVSPropertyOp44
 70
     1
102
RTVSPropertyOp45
 70
     1
102
RTVSPropertyOp46
 70
     1
102
RTVSPropertyOp47
 70
     1
102
RTVSPropertyOp48
 70
     1
102
RTVSPropertyOp49
 70
     1
102
RTVSPropertyOp50
 70
     1
102
RTVSPropertyOp51
 70
     0
102
RTVSPropertyOp52
 70
     0
102
RTVSPropertyOp53
 70
     1
102
RTVSPropertyOp54
 70
     1
102
RTVSPropertyOp55
 70
     1
102
RTVSPropertyOp56
 70
     1
102
RTVSPropertyOp57
 70
     1
102
RTVSPropertyOp58
 70
     1
102
RTVSPropertyOp59
 70
     1
102
RTVSPropertyOp60
 70
     1
102
RTVSPropertyOp61
 70
     1
102
RTVSPropertyOp62
 70
     1
  0
XRECORD
  5
3D3
102
{ACAD_REACTORS
330
3D2
102
}
330
3D2
100
AcDbXrecord
280
     1
102
RTVSPost2010Prop28
280
     0
102
RTVSPost2010PropOp28
 70
     1
102
RTVSPost2010Prop29
280
     1
102
RTVSPost2010PropOp29
 70
     1
102
RTVSPost2010Prop30
280
     1
102
RTVSPost2010PropOp30
 70
     1
102
RTVSPost2010Prop31
280
     0
102
RTVSPost2010PropOp31
 70
     1
102
RTVSPost2010Prop32
280
     0
102
RTVSPost2010PropOp32
 70
     1
102
RTVSPost2010Prop33
280
     0
102
RTVSPost2010PropOp33
 70
     1
102
RTVSPost2010Prop34
280
     0
102
RTVSPost2010PropOp34
 70
     1
102
RTVSPost2010Prop35
280
     0
102
RTVSPost2010PropOp35
 70
     1
102
RTVSPost2010Prop36
280
     0
102
RTVSPost2010PropOp36
 70
     1
102
RTVSPost2010Prop37
 90
       50
102
RTVSPost2010PropOp37
 70
     1
102
RTVSPost2010Prop38
140
0.0
102
RTVSPost2010PropOp38
 70
     1
102
RTVSPost2010Prop39
140
1.0
102
RTVSPost2010PropOp39
 70
     1
102
RTVSPost2010Prop40
 90
        0
102
RTVSPost2010PropOp40
 70
     1
102
RTVSPost2010Prop41ColorIndex
 90
       18
102
RTVSPost2010Prop41ColorRGB
 90
        0
102
RTVSPost2010PropOp41
 70
     1
102
RTVSPost2010Prop42
 90
       50
102
RTVSPost2010PropOp42
 70
     1
102
RTVSPost2010Prop43
 90
        3
102
RTVSPost2010PropOp43
 70
     1
102
RTVSPost2010Prop44ColorIndex
 90
        5
102
RTVSPost2010Prop44ColorRGB
 90
      255
102
RTVSPost2010PropOp44
 70
     1
102
RTVSPost2010Prop45
280
     0
102
RTVSPost2010PropOp45
 70
     1
102
RTVSPost2010Prop46
 90
       50
102
RTVSPost2010PropOp46
 70
     1
102
RTVSPost2010Prop47
 90
       50
102
RTVSPost2010PropOp47
 70
     1
102
RTVSPost2010Prop48
 90
       50
102
RTVSPost2010PropOp48
 70
     1
102
RTVSPost2010Prop49
280
     0
102
RTVSPost2010PropOp49
 70
     1
102
RTVSPost2010Prop50
 90
       50
102
RTVSPost2010PropOp50
 70
     1
102
RTVSPost2010Prop51ColorIndex
 90
      256
102
RTVSPost2010Prop51ColorRGB
 90
-16777216
102
RTVSPost2010PropOp51
 70
     0
102
RTVSPost2010Prop52
140
1.0
102
RTVSPost2010PropOp52
 70
     0
102
RTVSPost2010Prop53
 90
        2
102
RTVSPost2010PropOp53
 70
     1
102
RTVSPost2010Prop54
  1
strokes_ogs.tif
102
RTVSPost2010PropOp54
 70
     1
102
RTVSPost2010Prop55
280
     0
102
RTVSPost2010PropOp55
 70
     1
102
RTVSPost2010Prop56
140
1.0
102
RTVSPost2010PropOp56
 70
     1
102
RTVSPost2010Prop57
140
1.0
102
RTVSPost2010PropOp57
 70
     1
102
RTVSPropertyOp0
 70
     1
102
RTVSPropertyOp1
 70
     1
102
RTVSPropertyOp2
 70
     1
102
RTVSPropertyOp3
 70
     1
102
RTVSPropertyOp4
 70
     1
102
RTVSPropertyOp5
 70
     1
102
RTVSPropertyOp6
 70
     1
102
RTVSPropertyOp7
 70
     1
102
RTVSPropertyOp8
 70
     1
102
RTVSPropertyOp9
 70
     1
102
RTVSPropertyOp10
 70
     1
102
RTVSPropertyOp11
 70
     1
102
RTVSPropertyOp12
 70
     1
102
RTVSPropertyOp13
 70
     1
102
RTVSPropertyOp14
 70
     1
102
RTVSPropertyOp15
 70
     1
102
RTVSPropertyOp16
 70
     1
102
RTVSPropertyOp17
 70
     1
102
RTVSPropertyOp18
 70
     1
102
RTVSPropertyOp19
 70
     1
102
RTVSPropertyOp20
 70
     1
102
RTVSPropertyOp21
 70
     1
102
RTVSPropertyOp22
 70
     1
102
RTVSPropertyOp23
 70
     1
102
RTVSPropertyOp24
 70
     1
102
RTVSPropertyOp25
 70
     1
102
RTVSPropertyOp26
 70
     1
102
RTVSPropertyOp27
 70
     1
102
RTVSPropertyOp28
 70
     1
102
RTVSPropertyOp29
 70
     1
102
RTVSPropertyOp30
 70
     1
102
RTVSPropertyOp31
 70
     1
102
RTVSPropertyOp32
 70
     1
102
RTVSPropertyOp33
 70
     1
102
RTVSPropertyOp34
 70
     1
102
RTVSPropertyOp35
 70
     1
102
RTVSPropertyOp36
 70
     1
102
RTVSPropertyOp37
 70
     1
102
RTVSPropertyOp38
 70
     1
102
RTVSPropertyOp39
 70
     1
102
RTVSPropertyOp40
 70
     1
102
RTVSPropertyOp41
 70
     1
102
RTVSPropertyOp42
 70
     1
102
RTVSPropertyOp43
 70
     1
102
RTVSPropertyOp44
 70
     1
102
RTVSPropertyOp45
 70
     1
102
RTVSPropertyOp46
 70
     1
102
RTVSPropertyOp47
 70
     1
102
RTVSPropertyOp48
 70
     1
102
RTVSPropertyOp49
 70
     1
102
RTVSPropertyOp50
 70
     1
102
RTVSPropertyOp51
 70
     0
102
RTVSPropertyOp52
 70
     0
102
RTVSPropertyOp53
 70
     1
102
RTVSPropertyOp54
 70
     1
102
RTVSPropertyOp55
 70
     1
102
RTVSPropertyOp56
 70
     1
102
RTVSPropertyOp57
 70
     1
102
RTVSPropertyOp58
 70
     1
102
RTVSPropertyOp59
 70
     1
102
RTVSPropertyOp60
 70
     1
102
RTVSPropertyOp61
 70
     1
102
RTVSPropertyOp62
 70
     1
  0
XRECORD
  5
3C7
102
{ACAD_REACTORS
330
3C6
102
}
330
3C6
100
AcDbXrecord
280
     1
102
RTVSPost2010Prop28
280
     0
102
RTVSPost2010PropOp28
 70
     1
102
RTVSPost2010Prop29
280
     1
102
RTVSPost2010PropOp29
 70
     1
102
RTVSPost2010Prop30
280
     1
102
RTVSPost2010PropOp30
 70
     1
102
RTVSPost2010Prop31
280
     0
102
RTVSPost2010PropOp31
 70
     1
102
RTVSPost2010Prop32
280
     0
102
RTVSPost2010PropOp32
 70
     1
102
RTVSPost2010Prop33
280
     0
102
RTVSPost2010PropOp33
 70
     1
102
RTVSPost2010Prop34
280
     0
102
RTVSPost2010PropOp34
 70
     1
102
RTVSPost2010Prop35
280
     0
102
RTVSPost2010PropOp35
 70
     1
102
RTVSPost2010Prop36
280
     0
102
RTVSPost2010PropOp36
 70
     1
102
RTVSPost2010Prop37
 90
       50
102
RTVSPost2010PropOp37
 70
     1
102
RTVSPost2010Prop38
140
0.0
102
RTVSPost2010PropOp38
 70
     1
102
RTVSPost2010Prop39
140
1.0
102
RTVSPost2010PropOp39
 70
     1
102
RTVSPost2010Prop40
 90
        0
102
RTVSPost2010PropOp40
 70
     1
102
RTVSPost2010Prop41ColorIndex
 90
       18
102
RTVSPost2010Prop41ColorRGB
 90
        0
102
RTVSPost2010PropOp41
 70
     1
102
RTVSPost2010Prop42
 90
       50
102
RTVSPost2010PropOp42
 70
     1
102
RTVSPost2010Prop43
 90
        3
102
RTVSPost2010PropOp43
 70
     1
102
RTVSPost2010Prop44ColorIndex
 90
        5
102
RTVSPost2010Prop44ColorRGB
 90
      255
102
RTVSPost2010PropOp44
 70
     1
102
RTVSPost2010Prop45
280
     0
102
RTVSPost2010PropOp45
 70
     1
102
RTVSPost2010Prop46
 90
       50
102
RTVSPost2010PropOp46
 70
     1
102
RTVSPost2010Prop47
 90
       50
102
RTVSPost2010PropOp47
 70
     1
102
RTVSPost2010Prop48
 90
       50
102
RTVSPost2010PropOp48
 70
     1
102
RTVSPost2010Prop49
280
     0
102
RTVSPost2010PropOp49
 70
     1
102
RTVSPost2010Prop50
 90
       50
102
RTVSPost2010PropOp50
 70
     1
102
RTVSPost2010Prop51ColorIndex
 90
      256
102
RTVSPost2010Prop51ColorRGB
 90
-16777216
102
RTVSPost2010PropOp51
 70
     0
102
RTVSPost2010Prop52
140
1.0
102
RTVSPost2010PropOp52
 70
     0
102
RTVSPost2010Prop53
 90
        2
102
RTVSPost2010PropOp53
 70
     1
102
RTVSPost2010Prop54
  1
strokes_ogs.tif
102
RTVSPost2010PropOp54
 70
     1
102
RTVSPost2010Prop55
280
     0
102
RTVSPost2010PropOp55
 70
     1
102
RTVSPost2010Prop56
140
1.0
102
RTVSPost2010PropOp56
 70
     1
102
RTVSPost2010Prop57
140
1.0
102
RTVSPost2010PropOp57
 70
     1
102
RTVSPropertyOp0
 70
     1
102
RTVSPropertyOp1
 70
     1
102
RTVSPropertyOp2
 70
     1
102
RTVSPropertyOp3
 70
     1
102
RTVSPropertyOp4
 70
     1
102
RTVSPropertyOp5
 70
     1
102
RTVSPropertyOp6
 70
     1
102
RTVSPropertyOp7
 70
     1
102
RTVSPropertyOp8
 70
     1
102
RTVSPropertyOp9
 70
     1
102
RTVSPropertyOp10
 70
     1
102
RTVSPropertyOp11
 70
     1
102
RTVSPropertyOp12
 70
     1
102
RTVSPropertyOp13
 70
     1
102
RTVSPropertyOp14
 70
     1
102
RTVSPropertyOp15
 70
     1
102
RTVSPropertyOp16
 70
     1
102
RTVSPropertyOp17
 70
     1
102
RTVSPropertyOp18
 70
     1
102
RTVSPropertyOp19
 70
     1
102
RTVSPropertyOp20
 70
     1
102
RTVSPropertyOp21
 70
     1
102
RTVSPropertyOp22
 70
     1
102
RTVSPropertyOp23
 70
     1
102
RTVSPropertyOp24
 70
     1
102
RTVSPropertyOp25
 70
     1
102
RTVSPropertyOp26
 70
     1
102
RTVSPropertyOp27
 70
     1
102
RTVSPropertyOp28
 70
     1
102
RTVSPropertyOp29
 70
     1
102
RTVSPropertyOp30
 70
     1
102
RTVSPropertyOp31
 70
     1
102
RTVSPropertyOp32
 70
     1
102
RTVSPropertyOp33
 70
     1
102
RTVSPropertyOp34
 70
     1
102
RTVSPropertyOp35
 70
     1
102
RTVSPropertyOp36
 70
     1
102
RTVSPropertyOp37
 70
     1
102
RTVSPropertyOp38
 70
     1
102
RTVSPropertyOp39
 70
     1
102
RTVSPropertyOp40
 70
     1
102
RTVSPropertyOp41
 70
     1
102
RTVSPropertyOp42
 70
     1
102
RTVSPropertyOp43
 70
     1
102
RTVSPropertyOp44
 70
     1
102
RTVSPropertyOp45
 70
     1
102
RTVSPropertyOp46
 70
     1
102
RTVSPropertyOp47
 70
     1
102
RTVSPropertyOp48
 70
     1
102
RTVSPropertyOp49
 70
     1
102
RTVSPropertyOp50
 70
     1
102
RTVSPropertyOp51
 70
     0
102
RTVSPropertyOp52
 70
     0
102
RTVSPropertyOp53
 70
     1
102
RTVSPropertyOp54
 70
     1
102
RTVSPropertyOp55
 70
     1
102
RTVSPropertyOp56
 70
     1
102
RTVSPropertyOp57
 70
     1
102
RTVSPropertyOp58
 70
     1
102
RTVSPropertyOp59
 70
     1
102
RTVSPropertyOp60
 70
     1
102
RTVSPropertyOp61
 70
     1
102
RTVSPropertyOp62
 70
     1
  0
XRECORD
  5
3C9
102
{ACAD_REACTORS
330
3C8
102
}
330
3C8
100
AcDbXrecord
280
     1
102
RTVSPost2010Prop28
280
     0
102
RTVSPost2010PropOp28
 70
     1
102
RTVSPost2010Prop29
280
     1
102
RTVSPost2010PropOp29
 70
     1
102
RTVSPost2010Prop30
280
     1
102
RTVSPost2010PropOp30
 70
     1
102
RTVSPost2010Prop31
280
     0
102
RTVSPost2010PropOp31
 70
     1
102
RTVSPost2010Prop32
280
     0
102
RTVSPost2010PropOp32
 70
     1
102
RTVSPost2010Prop33
280
     0
102
RTVSPost2010PropOp33
 70
     1
102
RTVSPost2010Prop34
280
     0
102
RTVSPost2010PropOp34
 70
     1
102
RTVSPost2010Prop35
280
     0
102
RTVSPost2010PropOp35
 70
     1
102
RTVSPost2010Prop36
280
     0
102
RTVSPost2010PropOp36
 70
     1
102
RTVSPost2010Prop37
 90
       50
102
RTVSPost2010PropOp37
 70
     1
102
RTVSPost2010Prop38
140
0.0
102
RTVSPost2010PropOp38
 70
     1
102
RTVSPost2010Prop39
140
1.0
102
RTVSPost2010PropOp39
 70
     1
102
RTVSPost2010Prop40
 90
        0
102
RTVSPost2010PropOp40
 70
     1
102
RTVSPost2010Prop41ColorIndex
 90
       18
102
RTVSPost2010Prop41ColorRGB
 90
        0
102
RTVSPost2010PropOp41
 70
     1
102
RTVSPost2010Prop42
 90
       50
102
RTVSPost2010PropOp42
 70
     1
102
RTVSPost2010Prop43
 90
        3
102
RTVSPost2010PropOp43
 70
     1
102
RTVSPost2010Prop44ColorIndex
 90
        5
102
RTVSPost2010Prop44ColorRGB
 90
      255
102
RTVSPost2010PropOp44
 70
     1
102
RTVSPost2010Prop45
280
     0
102
RTVSPost2010PropOp45
 70
     1
102
RTVSPost2010Prop46
 90
       50
102
RTVSPost2010PropOp46
 70
     1
102
RTVSPost2010Prop47
 90
       50
102
RTVSPost2010PropOp47
 70
     1
102
RTVSPost2010Prop48
 90
       50
102
RTVSPost2010PropOp48
 70
     1
102
RTVSPost2010Prop49
280
     0
102
RTVSPost2010PropOp49
 70
     1
102
RTVSPost2010Prop50
 90
       50
102
RTVSPost2010PropOp50
 70
     1
102
RTVSPost2010Prop51ColorIndex
 90
      256
102
RTVSPost2010Prop51ColorRGB
 90
-16777216
102
RTVSPost2010PropOp51
 70
     0
102
RTVSPost2010Prop52
140
1.0
102
RTVSPost2010PropOp52
 70
     0
102
RTVSPost2010Prop53
 90
        2
102
RTVSPost2010PropOp53
 70
     1
102
RTVSPost2010Prop54
  1
strokes_ogs.tif
102
RTVSPost2010PropOp54
 70
     1
102
RTVSPost2010Prop55
280
     0
102
RTVSPost2010PropOp55
 70
     1
102
RTVSPost2010Prop56
140
1.0
102
RTVSPost2010PropOp56
 70
     1
102
RTVSPost2010Prop57
140
1.0
102
RTVSPost2010PropOp57
 70
     1
102
RTVSPropertyOp0
 70
     1
102
RTVSPropertyOp1
 70
     1
102
RTVSPropertyOp2
 70
     1
102
RTVSPropertyOp3
 70
     1
102
RTVSPropertyOp4
 70
     1
102
RTVSPropertyOp5
 70
     1
102
RTVSPropertyOp6
 70
     1
102
RTVSPropertyOp7
 70
     1
102
RTVSPropertyOp8
 70
     1
102
RTVSPropertyOp9
 70
     1
102
RTVSPropertyOp10
 70
     1
102
RTVSPropertyOp11
 70
     1
102
RTVSPropertyOp12
 70
     1
102
RTVSPropertyOp13
 70
     1
102
RTVSPropertyOp14
 70
     1
102
RTVSPropertyOp15
 70
     1
102
RTVSPropertyOp16
 70
     1
102
RTVSPropertyOp17
 70
     1
102
RTVSPropertyOp18
 70
     1
102
RTVSPropertyOp19
 70
     1
102
RTVSPropertyOp20
 70
     1
102
RTVSPropertyOp21
 70
     1
102
RTVSPropertyOp22
 70
     1
102
RTVSPropertyOp23
 70
     1
102
RTVSPropertyOp24
 70
     1
102
RTVSPropertyOp25
 70
     1
102
RTVSPropertyOp26
 70
     1
102
RTVSPropertyOp27
 70
     1
102
RTVSPropertyOp28
 70
     1
102
RTVSPropertyOp29
 70
     1
102
RTVSPropertyOp30
 70
     1
102
RTVSPropertyOp31
 70
     1
102
RTVSPropertyOp32
 70
     1
102
RTVSPropertyOp33
 70
     1
102
RTVSPropertyOp34
 70
     1
102
RTVSPropertyOp35
 70
     1
102
RTVSPropertyOp36
 70
     1
102
RTVSPropertyOp37
 70
     1
102
RTVSPropertyOp38
 70
     1
102
RTVSPropertyOp39
 70
     1
102
RTVSPropertyOp40
 70
     1
102
RTVSPropertyOp41
 70
     1
102
RTVSPropertyOp42
 70
     1
102
RTVSPropertyOp43
 70
     1
102
RTVSPropertyOp44
 70
     1
102
RTVSPropertyOp45
 70
     1
102
RTVSPropertyOp46
 70
     1
102
RTVSPropertyOp47
 70
     1
102
RTVSPropertyOp48
 70
     1
102
RTVSPropertyOp49
 70
     1
102
RTVSPropertyOp50
 70
     1
102
RTVSPropertyOp51
 70
     0
102
RTVSPropertyOp52
 70
     0
102
RTVSPropertyOp53
 70
     1
102
RTVSPropertyOp54
 70
     1
102
RTVSPropertyOp55
 70
     1
102
RTVSPropertyOp56
 70
     1
102
RTVSPropertyOp57
 70
     1
102
RTVSPropertyOp58
 70
     1
102
RTVSPropertyOp59
 70
     1
102
RTVSPropertyOp60
 70
     1
102
RTVSPropertyOp61
 70
     1
102
RTVSPropertyOp62
 70
     1
  0
XRECORD
  5
3D9
102
{ACAD_REACTORS
330
3D8
102
}
330
3D8
100
AcDbXrecord
280
     1
102
RTVSPost2010Prop28
280
     0
102
RTVSPost2010PropOp28
 70
     0
102
RTVSPost2010Prop29
280
     1
102
RTVSPost2010PropOp29
 70
     0
102
RTVSPost2010Prop30
280
     1
102
RTVSPost2010PropOp30
 70
     0
102
RTVSPost2010Prop31
280
     0
102
RTVSPost2010PropOp31
 70
     0
102
RTVSPost2010Prop32
280
     0
102
RTVSPost2010PropOp32
 70
     0
102
RTVSPost2010Prop33
280
     0
102
RTVSPost2010PropOp33
 70
     0
102
RTVSPost2010Prop34
280
     0
102
RTVSPost2010PropOp34
 70
     0
102
RTVSPost2010Prop35
280
     0
102
RTVSPost2010PropOp35
 70
     0
102
RTVSPost2010Prop36
280
     0
102
RTVSPost2010PropOp36
 70
     0
102
RTVSPost2010Prop37
 90
       50
102
RTVSPost2010PropOp37
 70
     0
102
RTVSPost2010Prop38
140
0.0
102
RTVSPost2010PropOp38
 70
     0
102
RTVSPost2010Prop39
140
1.0
102
RTVSPost2010PropOp39
 70
     0
102
RTVSPost2010Prop40
 90
        0
102
RTVSPost2010PropOp40
 70
     0
102
RTVSPost2010Prop41ColorIndex
 90
       18
102
RTVSPost2010Prop41ColorRGB
 90
        0
102
RTVSPost2010PropOp41
 70
     0
102
RTVSPost2010Prop42
 90
       50
102
RTVSPost2010PropOp42
 70
     0
102
RTVSPost2010Prop43
 90
        3
102
RTVSPost2010PropOp43
 70
     0
102
RTVSPost2010Prop44ColorIndex
 90
        5
102
RTVSPost2010Prop44ColorRGB
 90
      255
102
RTVSPost2010PropOp44
 70
     0
102
RTVSPost2010Prop45
280
     0
102
RTVSPost2010PropOp45
 70
     0
102
RTVSPost2010Prop46
 90
       50
102
RTVSPost2010PropOp46
 70
     0
102
RTVSPost2010Prop47
 90
       50
102
RTVSPost2010PropOp47
 70
     0
102
RTVSPost2010Prop48
 90
       50
102
RTVSPost2010PropOp48
 70
     0
102
RTVSPost2010Prop49
280
     0
102
RTVSPost2010PropOp49
 70
     0
102
RTVSPost2010Prop50
 90
       50
102
RTVSPost2010PropOp50
 70
     0
102
RTVSPost2010Prop51ColorIndex
 90
      256
102
RTVSPost2010Prop51ColorRGB
 90
-16777216
102
RTVSPost2010PropOp51
 70
     0
102
RTVSPost2010Prop52
140
1.0
102
RTVSPost2010PropOp52
 70
     0
102
RTVSPost2010Prop53
 90
        2
102
RTVSPost2010PropOp53
 70
     0
102
RTVSPost2010Prop54
  1
strokes_ogs.tif
102
RTVSPost2010PropOp54
 70
     0
102
RTVSPost2010Prop55
280
     0
102
RTVSPost2010PropOp55
 70
     0
102
RTVSPost2010Prop56
140
1.0
102
RTVSPost2010PropOp56
 70
     0
102
RTVSPost2010Prop57
140
1.0
102
RTVSPost2010PropOp57
 70
     0
102
RTVSPropertyOp0
 70
     0
102
RTVSPropertyOp1
 70
     0
102
RTVSPropertyOp2
 70
     0
102
RTVSPropertyOp3
 70
     0
102
RTVSPropertyOp4
 70
     0
102
RTVSPropertyOp5
 70
     0
102
RTVSPropertyOp6
 70
     0
102
RTVSPropertyOp7
 70
     0
102
RTVSPropertyOp8
 70
     0
102
RTVSPropertyOp9
 70
     0
102
RTVSPropertyOp10
 70
     0
102
RTVSPropertyOp11
 70
     0
102
RTVSPropertyOp12
 70
     0
102
RTVSPropertyOp13
 70
     0
102
RTVSPropertyOp14
 70
     2
102
RTVSPropertyOp15
 70
     0
102
RTVSPropertyOp16
 70
     0
102
RTVSPropertyOp17
 70
     0
102
RTVSPropertyOp18
 70
     0
102
RTVSPropertyOp19
 70
     0
102
RTVSPropertyOp20
 70
     0
102
RTVSPropertyOp21
 70
     0
102
RTVSPropertyOp22
 70
     0
102
RTVSPropertyOp23
 70
     0
102
RTVSPropertyOp24
 70
     0
102
RTVSPropertyOp25
 70
     0
102
RTVSPropertyOp26
 70
     0
102
RTVSPropertyOp27
 70
     0
102
RTVSPropertyOp28
 70
     0
102
RTVSPropertyOp29
 70
     0
102
RTVSPropertyOp30
 70
     0
102
RTVSPropertyOp31
 70
     0
102
RTVSPropertyOp32
 70
     0
102
RTVSPropertyOp33
 70
     0
102
RTVSPropertyOp34
 70
     0
102
RTVSPropertyOp35
 70
     0
102
RTVSPropertyOp36
 70
     0
102
RTVSPropertyOp37
 70
     0
102
RTVSPropertyOp38
 70
     0
102
RTVSPropertyOp39
 70
     0
102
RTVSPropertyOp40
 70
     0
102
RTVSPropertyOp41
 70
     0
102
RTVSPropertyOp42
 70
     0
102
RTVSPropertyOp43
 70
     0
102
RTVSPropertyOp44
 70
     0
102
RTVSPropertyOp45
 70
     0
102
RTVSPropertyOp46
 70
     0
102
RTVSPropertyOp47
 70
     0
102
RTVSPropertyOp48
 70
     0
102
RTVSPropertyOp49
 70
     0
102
RTVSPropertyOp50
 70
     0
102
RTVSPropertyOp51
 70
     0
102
RTVSPropertyOp52
 70
     0
102
RTVSPropertyOp53
 70
     0
102
RTVSPropertyOp54
 70
     0
102
RTVSPropertyOp55
 70
     0
102
RTVSPropertyOp56
 70
     0
102
RTVSPropertyOp57
 70
     0
102
RTVSPropertyOp58
 70
     1
102
RTVSPropertyOp59
 70
     1
102
RTVSPropertyOp60
 70
     1
102
RTVSPropertyOp61
 70
     1
102
RTVSPropertyOp62
 70
     1
  0
XRECORD
  5
3D1
102
{ACAD_REACTORS
330
3D0
102
}
330
3D0
100
AcDbXrecord
280
     1
102
RTVSPost2010Prop28
280
     0
102
RTVSPost2010PropOp28
 70
     1
102
RTVSPost2010Prop29
280
     1
102
RTVSPost2010PropOp29
 70
     1
102
RTVSPost2010Prop30
280
     1
102
RTVSPost2010PropOp30
 70
     1
102
RTVSPost2010Prop31
280
     0
102
RTVSPost2010PropOp31
 70
     1
102
RTVSPost2010Prop32
280
     0
102
RTVSPost2010PropOp32
 70
     1
102
RTVSPost2010Prop33
280
     0
102
RTVSPost2010PropOp33
 70
     1
102
RTVSPost2010Prop34
280
     0
102
RTVSPost2010PropOp34
 70
     1
102
RTVSPost2010Prop35
280
     0
102
RTVSPost2010PropOp35
 70
     1
102
RTVSPost2010Prop36
280
     0
102
RTVSPost2010PropOp36
 70
     1
102
RTVSPost2010Prop37
 90
       50
102
RTVSPost2010PropOp37
 70
     1
102
RTVSPost2010Prop38
140
0.0
102
RTVSPost2010PropOp38
 70
     1
102
RTVSPost2010Prop39
140
1.0
102
RTVSPost2010PropOp39
 70
     1
102
RTVSPost2010Prop40
 90
        0
102
RTVSPost2010PropOp40
 70
     1
102
RTVSPost2010Prop41ColorIndex
 90
       18
102
RTVSPost2010Prop41ColorRGB
 90
        0
102
RTVSPost2010PropOp41
 70
     1
102
RTVSPost2010Prop42
 90
       50
102
RTVSPost2010PropOp42
 70
     1
102
RTVSPost2010Prop43
 90
        3
102
RTVSPost2010PropOp43
 70
     1
102
RTVSPost2010Prop44ColorIndex
 90
        5
102
RTVSPost2010Prop44ColorRGB
 90
      255
102
RTVSPost2010PropOp44
 70
     1
102
RTVSPost2010Prop45
280
     0
102
RTVSPost2010PropOp45
 70
     1
102
RTVSPost2010Prop46
 90
       50
102
RTVSPost2010PropOp46
 70
     1
102
RTVSPost2010Prop47
 90
       50
102
RTVSPost2010PropOp47
 70
     1
102
RTVSPost2010Prop48
 90
       50
102
RTVSPost2010PropOp48
 70
     1
102
RTVSPost2010Prop49
280
     0
102
RTVSPost2010PropOp49
 70
     1
102
RTVSPost2010Prop50
 90
       50
102
RTVSPost2010PropOp50
 70
     1
102
RTVSPost2010Prop51ColorIndex
 90
      256
102
RTVSPost2010Prop51ColorRGB
 90
-16777216
102
RTVSPost2010PropOp51
 70
     0
102
RTVSPost2010Prop52
140
1.0
102
RTVSPost2010PropOp52
 70
     0
102
RTVSPost2010Prop53
 90
        2
102
RTVSPost2010PropOp53
 70
     1
102
RTVSPost2010Prop54
  1
strokes_ogs.tif
102
RTVSPost2010PropOp54
 70
     1
102
RTVSPost2010Prop55
280
     0
102
RTVSPost2010PropOp55
 70
     1
102
RTVSPost2010Prop56
140
1.0
102
RTVSPost2010PropOp56
 70
     1
102
RTVSPost2010Prop57
140
1.0
102
RTVSPost2010PropOp57
 70
     1
102
RTVSPropertyOp0
 70
     1
102
RTVSPropertyOp1
 70
     1
102
RTVSPropertyOp2
 70
     1
102
RTVSPropertyOp3
 70
     1
102
RTVSPropertyOp4
 70
     1
102
RTVSPropertyOp5
 70
     1
102
RTVSPropertyOp6
 70
     1
102
RTVSPropertyOp7
 70
     1
102
RTVSPropertyOp8
 70
     1
102
RTVSPropertyOp9
 70
     1
102
RTVSPropertyOp10
 70
     1
102
RTVSPropertyOp11
 70
     1
102
RTVSPropertyOp12
 70
     1
102
RTVSPropertyOp13
 70
     1
102
RTVSPropertyOp14
 70
     1
102
RTVSPropertyOp15
 70
     1
102
RTVSPropertyOp16
 70
     1
102
RTVSPropertyOp17
 70
     1
102
RTVSPropertyOp18
 70
     1
102
RTVSPropertyOp19
 70
     1
102
RTVSPropertyOp20
 70
     1
102
RTVSPropertyOp21
 70
     1
102
RTVSPropertyOp22
 70
     1
102
RTVSPropertyOp23
 70
     1
102
RTVSPropertyOp24
 70
     1
102
RTVSPropertyOp25
 70
     1
102
RTVSPropertyOp26
 70
     1
102
RTVSPropertyOp27
 70
     1
102
RTVSPropertyOp28
 70
     1
102
RTVSPropertyOp29
 70
     1
102
RTVSPropertyOp30
 70
     1
102
RTVSPropertyOp31
 70
     1
102
RTVSPropertyOp32
 70
     1
102
RTVSPropertyOp33
 70
     1
102
RTVSPropertyOp34
 70
     1
102
RTVSPropertyOp35
 70
     1
102
RTVSPropertyOp36
 70
     1
102
RTVSPropertyOp37
 70
     1
102
RTVSPropertyOp38
 70
     1
102
RTVSPropertyOp39
 70
     1
102
RTVSPropertyOp40
 70
     1
102
RTVSPropertyOp41
 70
     1
102
RTVSPropertyOp42
 70
     1
102
RTVSPropertyOp43
 70
     1
102
RTVSPropertyOp44
 70
     1
102
RTVSPropertyOp45
 70
     1
102
RTVSPropertyOp46
 70
     1
102
RTVSPropertyOp47
 70
     1
102
RTVSPropertyOp48
 70
     1
102
RTVSPropertyOp49
 70
     1
102
RTVSPropertyOp50
 70
     1
102
RTVSPropertyOp51
 70
     0
102
RTVSPropertyOp52
 70
     0
102
RTVSPropertyOp53
 70
     1
102
RTVSPropertyOp54
 70
     1
102
RTVSPropertyOp55
 70
     1
102
RTVSPropertyOp56
 70
     1
102
RTVSPropertyOp57
 70
     1
102
RTVSPropertyOp58
 70
     1
102
RTVSPropertyOp59
 70
     1
102
RTVSPropertyOp60
 70
     1
102
RTVSPropertyOp61
 70
     1
102
RTVSPropertyOp62
 70
     1
  0
XRECORD
  5
3B5
102
{ACAD_REACTORS
330
3B4
102
}
330
3B4
100
AcDbXrecord
280
     1
102
RTVSPost2010Prop28
280
     0
102
RTVSPost2010PropOp28
 70
     1
102
RTVSPost2010Prop29
280
     1
102
RTVSPost2010PropOp29
 70
     1
102
RTVSPost2010Prop30
280
     1
102
RTVSPost2010PropOp30
 70
     1
102
RTVSPost2010Prop31
280
     0
102
RTVSPost2010PropOp31
 70
     1
102
RTVSPost2010Prop32
280
     0
102
RTVSPost2010PropOp32
 70
     1
102
RTVSPost2010Prop33
280
     0
102
RTVSPost2010PropOp33
 70
     1
102
RTVSPost2010Prop34
280
     0
102
RTVSPost2010PropOp34
 70
     1
102
RTVSPost2010Prop35
280
     0
102
RTVSPost2010PropOp35
 70
     1
102
RTVSPost2010Prop36
280
     0
102
RTVSPost2010PropOp36
 70
     1
102
RTVSPost2010Prop37
 90
       50
102
RTVSPost2010PropOp37
 70
     1
102
RTVSPost2010Prop38
140
0.0
102
RTVSPost2010PropOp38
 70
     1
102
RTVSPost2010Prop39
140
1.0
102
RTVSPost2010PropOp39
 70
     1
102
RTVSPost2010Prop40
 90
        0
102
RTVSPost2010PropOp40
 70
     1
102
RTVSPost2010Prop41ColorIndex
 90
       18
102
RTVSPost2010Prop41ColorRGB
 90
        0
102
RTVSPost2010PropOp41
 70
     1
102
RTVSPost2010Prop42
 90
       50
102
RTVSPost2010PropOp42
 70
     1
102
RTVSPost2010Prop43
 90
        3
102
RTVSPost2010PropOp43
 70
     1
102
RTVSPost2010Prop44ColorIndex
 90
        5
102
RTVSPost2010Prop44ColorRGB
 90
      255
102
RTVSPost2010PropOp44
 70
     1
102
RTVSPost2010Prop45
280
     0
102
RTVSPost2010PropOp45
 70
     1
102
RTVSPost2010Prop46
 90
       50
102
RTVSPost2010PropOp46
 70
     1
102
RTVSPost2010Prop47
 90
       50
102
RTVSPost2010PropOp47
 70
     1
102
RTVSPost2010Prop48
 90
       50
102
RTVSPost2010PropOp48
 70
     1
102
RTVSPost2010Prop49
280
     0
102
RTVSPost2010PropOp49
 70
     1
102
RTVSPost2010Prop50
 90
       50
102
RTVSPost2010PropOp50
 70
     1
102
RTVSPost2010Prop51ColorIndex
 90
      256
102
RTVSPost2010Prop51ColorRGB
 90
-16777216
102
RTVSPost2010PropOp51
 70
     0
102
RTVSPost2010Prop52
140
1.0
102
RTVSPost2010PropOp52
 70
     0
102
RTVSPost2010Prop53
 90
        2
102
RTVSPost2010PropOp53
 70
     1
102
RTVSPost2010Prop54
  1
strokes_ogs.tif
102
RTVSPost2010PropOp54
 70
     1
102
RTVSPost2010Prop55
280
     0
102
RTVSPost2010PropOp55
 70
     1
102
RTVSPost2010Prop56
140
1.0
102
RTVSPost2010PropOp56
 70
     1
102
RTVSPost2010Prop57
140
1.0
102
RTVSPost2010PropOp57
 70
     1
102
RTVSPropertyOp0
 70
     1
102
RTVSPropertyOp1
 70
     1
102
RTVSPropertyOp2
 70
     1
102
RTVSPropertyOp3
 70
     1
102
RTVSPropertyOp4
 70
     1
102
RTVSPropertyOp5
 70
     1
102
RTVSPropertyOp6
 70
     1
102
RTVSPropertyOp7
 70
     1
102
RTVSPropertyOp8
 70
     1
102
RTVSPropertyOp9
 70
     1
102
RTVSPropertyOp10
 70
     1
102
RTVSPropertyOp11
 70
     1
102
RTVSPropertyOp12
 70
     1
102
RTVSPropertyOp13
 70
     1
102
RTVSPropertyOp14
 70
     1
102
RTVSPropertyOp15
 70
     1
102
RTVSPropertyOp16
 70
     1
102
RTVSPropertyOp17
 70
     1
102
RTVSPropertyOp18
 70
     1
102
RTVSPropertyOp19
 70
     1
102
RTVSPropertyOp20
 70
     1
102
RTVSPropertyOp21
 70
     1
102
RTVSPropertyOp22
 70
     1
102
RTVSPropertyOp23
 70
     1
102
RTVSPropertyOp24
 70
     1
102
RTVSPropertyOp25
 70
     1
102
RTVSPropertyOp26
 70
     1
102
RTVSPropertyOp27
 70
     1
102
RTVSPropertyOp28
 70
     1
102
RTVSPropertyOp29
 70
     1
102
RTVSPropertyOp30
 70
     1
102
RTVSPropertyOp31
 70
     1
102
RTVSPropertyOp32
 70
     1
102
RTVSPropertyOp33
 70
     1
102
RTVSPropertyOp34
 70
     1
102
RTVSPropertyOp35
 70
     1
102
RTVSPropertyOp36
 70
     1
102
RTVSPropertyOp37
 70
     1
102
RTVSPropertyOp38
 70
     1
102
RTVSPropertyOp39
 70
     1
102
RTVSPropertyOp40
 70
     1
102
RTVSPropertyOp41
 70
     1
102
RTVSPropertyOp42
 70
     1
102
RTVSPropertyOp43
 70
     1
102
RTVSPropertyOp44
 70
     1
102
RTVSPropertyOp45
 70
     1
102
RTVSPropertyOp46
 70
     1
102
RTVSPropertyOp47
 70
     1
102
RTVSPropertyOp48
 70
     1
102
RTVSPropertyOp49
 70
     1
102
RTVSPropertyOp50
 70
     1
102
RTVSPropertyOp51
 70
     0
102
RTVSPropertyOp52
 70
     0
102
RTVSPropertyOp53
 70
     1
102
RTVSPropertyOp54
 70
     1
102
RTVSPropertyOp55
 70
     1
102
RTVSPropertyOp56
 70
     1
102
RTVSPropertyOp57
 70
     1
102
RTVSPropertyOp58
 70
     1
102
RTVSPropertyOp59
 70
     1
102
RTVSPropertyOp60
 70
     1
102
RTVSPropertyOp61
 70
     1
102
RTVSPropertyOp62
 70
     1
  0
XRECORD
  5
3B7
102
{ACAD_REACTORS
330
3B6
102
}
330
3B6
100
AcDbXrecord
280
     1
102
RTVSPost2010Prop28
280
     0
102
RTVSPost2010PropOp28
 70
     1
102
RTVSPost2010Prop29
280
     1
102
RTVSPost2010PropOp29
 70
     1
102
RTVSPost2010Prop30
280
     1
102
RTVSPost2010PropOp30
 70
     1
102
RTVSPost2010Prop31
280
     0
102
RTVSPost2010PropOp31
 70
     1
102
RTVSPost2010Prop32
280
     0
102
RTVSPost2010PropOp32
 70
     1
102
RTVSPost2010Prop33
280
     0
102
RTVSPost2010PropOp33
 70
     1
102
RTVSPost2010Prop34
280
     0
102
RTVSPost2010PropOp34
 70
     1
102
RTVSPost2010Prop35
280
     0
102
RTVSPost2010PropOp35
 70
     1
102
RTVSPost2010Prop36
280
     0
102
RTVSPost2010PropOp36
 70
     1
102
RTVSPost2010Prop37
 90
       50
102
RTVSPost2010PropOp37
 70
     1
102
RTVSPost2010Prop38
140
0.0
102
RTVSPost2010PropOp38
 70
     1
102
RTVSPost2010Prop39
140
1.0
102
RTVSPost2010PropOp39
 70
     1
102
RTVSPost2010Prop40
 90
        0
102
RTVSPost2010PropOp40
 70
     1
102
RTVSPost2010Prop41ColorIndex
 90
       18
102
RTVSPost2010Prop41ColorRGB
 90
        0
102
RTVSPost2010PropOp41
 70
     1
102
RTVSPost2010Prop42
 90
       50
102
RTVSPost2010PropOp42
 70
     1
102
RTVSPost2010Prop43
 90
        3
102
RTVSPost2010PropOp43
 70
     1
102
RTVSPost2010Prop44ColorIndex
 90
        5
102
RTVSPost2010Prop44ColorRGB
 90
      255
102
RTVSPost2010PropOp44
 70
     1
102
RTVSPost2010Prop45
280
     0
102
RTVSPost2010PropOp45
 70
     1
102
RTVSPost2010Prop46
 90
       50
102
RTVSPost2010PropOp46
 70
     1
102
RTVSPost2010Prop47
 90
       50
102
RTVSPost2010PropOp47
 70
     1
102
RTVSPost2010Prop48
 90
       50
102
RTVSPost2010PropOp48
 70
     1
102
RTVSPost2010Prop49
280
     0
102
RTVSPost2010PropOp49
 70
     1
102
RTVSPost2010Prop50
 90
       50
102
RTVSPost2010PropOp50
 70
     1
102
RTVSPost2010Prop51ColorIndex
 90
      256
102
RTVSPost2010Prop51ColorRGB
 90
-16777216
102
RTVSPost2010PropOp51
 70
     0
102
RTVSPost2010Prop52
140
1.0
102
RTVSPost2010PropOp52
 70
     0
102
RTVSPost2010Prop53
 90
        2
102
RTVSPost2010PropOp53
 70
     1
102
RTVSPost2010Prop54
  1
strokes_ogs.tif
102
RTVSPost2010PropOp54
 70
     1
102
RTVSPost2010Prop55
280
     0
102
RTVSPost2010PropOp55
 70
     1
102
RTVSPost2010Prop56
140
1.0
102
RTVSPost2010PropOp56
 70
     1
102
RTVSPost2010Prop57
140
1.0
102
RTVSPost2010PropOp57
 70
     1
102
RTVSPropertyOp0
 70
     1
102
RTVSPropertyOp1
 70
     1
102
RTVSPropertyOp2
 70
     1
102
RTVSPropertyOp3
 70
     1
102
RTVSPropertyOp4
 70
     1
102
RTVSPropertyOp5
 70
     1
102
RTVSPropertyOp6
 70
     1
102
RTVSPropertyOp7
 70
     1
102
RTVSPropertyOp8
 70
     1
102
RTVSPropertyOp9
 70
     1
102
RTVSPropertyOp10
 70
     1
102
RTVSPropertyOp11
 70
     1
102
RTVSPropertyOp12
 70
     1
102
RTVSPropertyOp13
 70
     1
102
RTVSPropertyOp14
 70
     1
102
RTVSPropertyOp15
 70
     1
102
RTVSPropertyOp16
 70
     1
102
RTVSPropertyOp17
 70
     1
102
RTVSPropertyOp18
 70
     1
102
RTVSPropertyOp19
 70
     1
102
RTVSPropertyOp20
 70
     1
102
RTVSPropertyOp21
 70
     1
102
RTVSPropertyOp22
 70
     1
102
RTVSPropertyOp23
 70
     1
102
RTVSPropertyOp24
 70
     1
102
RTVSPropertyOp25
 70
     1
102
RTVSPropertyOp26
 70
     1
102
RTVSPropertyOp27
 70
     1
102
RTVSPropertyOp28
 70
     1
102
RTVSPropertyOp29
 70
     1
102
RTVSPropertyOp30
 70
     1
102
RTVSPropertyOp31
 70
     1
102
RTVSPropertyOp32
 70
     1
102
RTVSPropertyOp33
 70
     1
102
RTVSPropertyOp34
 70
     1
102
RTVSPropertyOp35
 70
     1
102
RTVSPropertyOp36
 70
     1
102
RTVSPropertyOp37
 70
     1
102
RTVSPropertyOp38
 70
     1
102
RTVSPropertyOp39
 70
     1
102
RTVSPropertyOp40
 70
     1
102
RTVSPropertyOp41
 70
     1
102
RTVSPropertyOp42
 70
     1
102
RTVSPropertyOp43
 70
     1
102
RTVSPropertyOp44
 70
     1
102
RTVSPropertyOp45
 70
     1
102
RTVSPropertyOp46
 70
     1
102
RTVSPropertyOp47
 70
     1
102
RTVSPropertyOp48
 70
     1
102
RTVSPropertyOp49
 70
     1
102
RTVSPropertyOp50
 70
     1
102
RTVSPropertyOp51
 70
     0
102
RTVSPropertyOp52
 70
     0
102
RTVSPropertyOp53
 70
     1
102
RTVSPropertyOp54
 70
     1
102
RTVSPropertyOp55
 70
     1
102
RTVSPropertyOp56
 70
     1
102
RTVSPropertyOp57
 70
     1
102
RTVSPropertyOp58
 70
     1
102
RTVSPropertyOp59
 70
     1
102
RTVSPropertyOp60
 70
     1
102
RTVSPropertyOp61
 70
     1
102
RTVSPropertyOp62
 70
     1
  0
XRECORD
  5
3B9
102
{ACAD_REACTORS
330
3B8
102
}
330
3B8
100
AcDbXrecord
280
     1
102
RTVSPost2010Prop28
280
     0
102
RTVSPost2010PropOp28
 70
     1
102
RTVSPost2010Prop29
280
     1
102
RTVSPost2010PropOp29
 70
     1
102
RTVSPost2010Prop30
280
     1
102
RTVSPost2010PropOp30
 70
     1
102
RTVSPost2010Prop31
280
     0
102
RTVSPost2010PropOp31
 70
     1
102
RTVSPost2010Prop32
280
     0
102
RTVSPost2010PropOp32
 70
     1
102
RTVSPost2010Prop33
280
     0
102
RTVSPost2010PropOp33
 70
     1
102
RTVSPost2010Prop34
280
     0
102
RTVSPost2010PropOp34
 70
     1
102
RTVSPost2010Prop35
280
     0
102
RTVSPost2010PropOp35
 70
     1
102
RTVSPost2010Prop36
280
     0
102
RTVSPost2010PropOp36
 70
     1
102
RTVSPost2010Prop37
 90
       50
102
RTVSPost2010PropOp37
 70
     1
102
RTVSPost2010Prop38
140
0.0
102
RTVSPost2010PropOp38
 70
     1
102
RTVSPost2010Prop39
140
1.0
102
RTVSPost2010PropOp39
 70
     1
102
RTVSPost2010Prop40
 90
        0
102
RTVSPost2010PropOp40
 70
     1
102
RTVSPost2010Prop41ColorIndex
 90
       18
102
RTVSPost2010Prop41ColorRGB
 90
        0
102
RTVSPost2010PropOp41
 70
     1
102
RTVSPost2010Prop42
 90
       50
102
RTVSPost2010PropOp42
 70
     1
102
RTVSPost2010Prop43
 90
        3
102
RTVSPost2010PropOp43
 70
     1
102
RTVSPost2010Prop44ColorIndex
 90
        5
102
RTVSPost2010Prop44ColorRGB
 90
      255
102
RTVSPost2010PropOp44
 70
     1
102
RTVSPost2010Prop45
280
     0
102
RTVSPost2010PropOp45
 70
     1
102
RTVSPost2010Prop46
 90
       50
102
RTVSPost2010PropOp46
 70
     1
102
RTVSPost2010Prop47
 90
       50
102
RTVSPost2010PropOp47
 70
     1
102
RTVSPost2010Prop48
 90
       50
102
RTVSPost2010PropOp48
 70
     1
102
RTVSPost2010Prop49
280
     0
102
RTVSPost2010PropOp49
 70
     1
102
RTVSPost2010Prop50
 90
       50
102
RTVSPost2010PropOp50
 70
     1
102
RTVSPost2010Prop51ColorIndex
 90
      256
102
RTVSPost2010Prop51ColorRGB
 90
-16777216
102
RTVSPost2010PropOp51
 70
     0
102
RTVSPost2010Prop52
140
1.0
102
RTVSPost2010PropOp52
 70
     0
102
RTVSPost2010Prop53
 90
        2
102
RTVSPost2010PropOp53
 70
     1
102
RTVSPost2010Prop54
  1
strokes_ogs.tif
102
RTVSPost2010PropOp54
 70
     1
102
RTVSPost2010Prop55
280
     0
102
RTVSPost2010PropOp55
 70
     1
102
RTVSPost2010Prop56
140
1.0
102
RTVSPost2010PropOp56
 70
     1
102
RTVSPost2010Prop57
140
1.0
102
RTVSPost2010PropOp57
 70
     1
102
RTVSPropertyOp0
 70
     1
102
RTVSPropertyOp1
 70
     1
102
RTVSPropertyOp2
 70
     1
102
RTVSPropertyOp3
 70
     1
102
RTVSPropertyOp4
 70
     1
102
RTVSPropertyOp5
 70
     1
102
RTVSPropertyOp6
 70
     1
102
RTVSPropertyOp7
 70
     1
102
RTVSPropertyOp8
 70
     1
102
RTVSPropertyOp9
 70
     1
102
RTVSPropertyOp10
 70
     1
102
RTVSPropertyOp11
 70
     1
102
RTVSPropertyOp12
 70
     1
102
RTVSPropertyOp13
 70
     1
102
RTVSPropertyOp14
 70
     1
102
RTVSPropertyOp15
 70
     1
102
RTVSPropertyOp16
 70
     1
102
RTVSPropertyOp17
 70
     1
102
RTVSPropertyOp18
 70
     1
102
RTVSPropertyOp19
 70
     1
102
RTVSPropertyOp20
 70
     1
102
RTVSPropertyOp21
 70
     1
102
RTVSPropertyOp22
 70
     1
102
RTVSPropertyOp23
 70
     1
102
RTVSPropertyOp24
 70
     1
102
RTVSPropertyOp25
 70
     1
102
RTVSPropertyOp26
 70
     1
102
RTVSPropertyOp27
 70
     1
102
RTVSPropertyOp28
 70
     1
102
RTVSPropertyOp29
 70
     1
102
RTVSPropertyOp30
 70
     1
102
RTVSPropertyOp31
 70
     1
102
RTVSPropertyOp32
 70
     1
102
RTVSPropertyOp33
 70
     1
102
RTVSPropertyOp34
 70
     1
102
RTVSPropertyOp35
 70
     1
102
RTVSPropertyOp36
 70
     1
102
RTVSPropertyOp37
 70
     1
102
RTVSPropertyOp38
 70
     1
102
RTVSPropertyOp39
 70
     1
102
RTVSPropertyOp40
 70
     1
102
RTVSPropertyOp41
 70
     1
102
RTVSPropertyOp42
 70
     1
102
RTVSPropertyOp43
 70
     1
102
RTVSPropertyOp44
 70
     1
102
RTVSPropertyOp45
 70
     1
102
RTVSPropertyOp46
 70
     1
102
RTVSPropertyOp47
 70
     1
102
RTVSPropertyOp48
 70
     1
102
RTVSPropertyOp49
 70
     1
102
RTVSPropertyOp50
 70
     1
102
RTVSPropertyOp51
 70
     0
102
RTVSPropertyOp52
 70
     0
102
RTVSPropertyOp53
 70
     1
102
RTVSPropertyOp54
 70
     1
102
RTVSPropertyOp55
 70
     1
102
RTVSPropertyOp56
 70
     1
102
RTVSPropertyOp57
 70
     1
102
RTVSPropertyOp58
 70
     1
102
RTVSPropertyOp59
 70
     1
102
RTVSPropertyOp60
 70
     1
102
RTVSPropertyOp61
 70
     1
102
RTVSPropertyOp62
 70
     1
  0
XRECORD
  5
3BB
102
{ACAD_REACTORS
330
3BA
102
}
330
3BA
100
AcDbXrecord
280
     1
102
RTVSPost2010Prop28
280
     0
102
RTVSPost2010PropOp28
 70
     1
102
RTVSPost2010Prop29
280
     1
102
RTVSPost2010PropOp29
 70
     1
102
RTVSPost2010Prop30
280
     1
102
RTVSPost2010PropOp30
 70
     1
102
RTVSPost2010Prop31
280
     0
102
RTVSPost2010PropOp31
 70
     1
102
RTVSPost2010Prop32
280
     0
102
RTVSPost2010PropOp32
 70
     1
102
RTVSPost2010Prop33
280
     0
102
RTVSPost2010PropOp33
 70
     1
102
RTVSPost2010Prop34
280
     0
102
RTVSPost2010PropOp34
 70
     1
102
RTVSPost2010Prop35
280
     0
102
RTVSPost2010PropOp35
 70
     1
102
RTVSPost2010Prop36
280
     0
102
RTVSPost2010PropOp36
 70
     1
102
RTVSPost2010Prop37
 90
       50
102
RTVSPost2010PropOp37
 70
     1
102
RTVSPost2010Prop38
140
0.0
102
RTVSPost2010PropOp38
 70
     1
102
RTVSPost2010Prop39
140
1.0
102
RTVSPost2010PropOp39
 70
     1
102
RTVSPost2010Prop40
 90
        0
102
RTVSPost2010PropOp40
 70
     1
102
RTVSPost2010Prop41ColorIndex
 90
       18
102
RTVSPost2010Prop41ColorRGB
 90
        0
102
RTVSPost2010PropOp41
 70
     1
102
RTVSPost2010Prop42
 90
       50
102
RTVSPost2010PropOp42
 70
     1
102
RTVSPost2010Prop43
 90
        3
102
RTVSPost2010PropOp43
 70
     1
102
RTVSPost2010Prop44ColorIndex
 90
        5
102
RTVSPost2010Prop44ColorRGB
 90
      255
102
RTVSPost2010PropOp44
 70
     1
102
RTVSPost2010Prop45
280
     0
102
RTVSPost2010PropOp45
 70
     1
102
RTVSPost2010Prop46
 90
       50
102
RTVSPost2010PropOp46
 70
     1
102
RTVSPost2010Prop47
 90
       50
102
RTVSPost2010PropOp47
 70
     1
102
RTVSPost2010Prop48
 90
       50
102
RTVSPost2010PropOp48
 70
     1
102
RTVSPost2010Prop49
280
     0
102
RTVSPost2010PropOp49
 70
     1
102
RTVSPost2010Prop50
 90
       50
102
RTVSPost2010PropOp50
 70
     1
102
RTVSPost2010Prop51ColorIndex
 90
      256
102
RTVSPost2010Prop51ColorRGB
 90
-16777216
102
RTVSPost2010PropOp51
 70
     0
102
RTVSPost2010Prop52
140
1.0
102
RTVSPost2010PropOp52
 70
     0
102
RTVSPost2010Prop53
 90
        2
102
RTVSPost2010PropOp53
 70
     1
102
RTVSPost2010Prop54
  1
strokes_ogs.tif
102
RTVSPost2010PropOp54
 70
     1
102
RTVSPost2010Prop55
280
     0
102
RTVSPost2010PropOp55
 70
     1
102
RTVSPost2010Prop56
140
1.0
102
RTVSPost2010PropOp56
 70
     1
102
RTVSPost2010Prop57
140
1.0
102
RTVSPost2010PropOp57
 70
     1
102
RTVSPropertyOp0
 70
     1
102
RTVSPropertyOp1
 70
     1
102
RTVSPropertyOp2
 70
     1
102
RTVSPropertyOp3
 70
     1
102
RTVSPropertyOp4
 70
     1
102
RTVSPropertyOp5
 70
     1
102
RTVSPropertyOp6
 70
     1
102
RTVSPropertyOp7
 70
     1
102
RTVSPropertyOp8
 70
     1
102
RTVSPropertyOp9
 70
     1
102
RTVSPropertyOp10
 70
     1
102
RTVSPropertyOp11
 70
     1
102
RTVSPropertyOp12
 70
     1
102
RTVSPropertyOp13
 70
     1
102
RTVSPropertyOp14
 70
     1
102
RTVSPropertyOp15
 70
     1
102
RTVSPropertyOp16
 70
     1
102
RTVSPropertyOp17
 70
     1
102
RTVSPropertyOp18
 70
     1
102
RTVSPropertyOp19
 70
     1
102
RTVSPropertyOp20
 70
     1
102
RTVSPropertyOp21
 70
     1
102
RTVSPropertyOp22
 70
     1
102
RTVSPropertyOp23
 70
     1
102
RTVSPropertyOp24
 70
     1
102
RTVSPropertyOp25
 70
     1
102
RTVSPropertyOp26
 70
     1
102
RTVSPropertyOp27
 70
     1
102
RTVSPropertyOp28
 70
     1
102
RTVSPropertyOp29
 70
     1
102
RTVSPropertyOp30
 70
     1
102
RTVSPropertyOp31
 70
     1
102
RTVSPropertyOp32
 70
     1
102
RTVSPropertyOp33
 70
     1
102
RTVSPropertyOp34
 70
     1
102
RTVSPropertyOp35
 70
     1
102
RTVSPropertyOp36
 70
     1
102
RTVSPropertyOp37
 70
     1
102
RTVSPropertyOp38
 70
     1
102
RTVSPropertyOp39
 70
     1
102
RTVSPropertyOp40
 70
     1
102
RTVSPropertyOp41
 70
     1
102
RTVSPropertyOp42
 70
     1
102
RTVSPropertyOp43
 70
     1
102
RTVSPropertyOp44
 70
     1
102
RTVSPropertyOp45
 70
     1
102
RTVSPropertyOp46
 70
     1
102
RTVSPropertyOp47
 70
     1
102
RTVSPropertyOp48
 70
     1
102
RTVSPropertyOp49
 70
     1
102
RTVSPropertyOp50
 70
     1
102
RTVSPropertyOp51
 70
     0
102
RTVSPropertyOp52
 70
     0
102
RTVSPropertyOp53
 70
     1
102
RTVSPropertyOp54
 70
     1
102
RTVSPropertyOp55
 70
     1
102
RTVSPropertyOp56
 70
     1
102
RTVSPropertyOp57
 70
     1
102
RTVSPropertyOp58
 70
     1
102
RTVSPropertyOp59
 70
     1
102
RTVSPropertyOp60
 70
     1
102
RTVSPropertyOp61
 70
     1
102
RTVSPropertyOp62
 70
     1
  0
XRECORD
  5
3C1
102
{ACAD_REACTORS
330
3C0
102
}
330
3C0
100
AcDbXrecord
280
     1
102
RTVSPost2010Prop28
280
     0
102
RTVSPost2010PropOp28
 70
     1
102
RTVSPost2010Prop29
280
     1
102
RTVSPost2010PropOp29
 70
     1
102
RTVSPost2010Prop30
280
     1
102
RTVSPost2010PropOp30
 70
     1
102
RTVSPost2010Prop31
280
     0
102
RTVSPost2010PropOp31
 70
     1
102
RTVSPost2010Prop32
280
     0
102
RTVSPost2010PropOp32
 70
     1
102
RTVSPost2010Prop33
280
     0
102
RTVSPost2010PropOp33
 70
     1
102
RTVSPost2010Prop34
280
     0
102
RTVSPost2010PropOp34
 70
     1
102
RTVSPost2010Prop35
280
     0
102
RTVSPost2010PropOp35
 70
     1
102
RTVSPost2010Prop36
280
     0
102
RTVSPost2010PropOp36
 70
     1
102
RTVSPost2010Prop37
 90
       50
102
RTVSPost2010PropOp37
 70
     1
102
RTVSPost2010Prop38
140
0.0
102
RTVSPost2010PropOp38
 70
     1
102
RTVSPost2010Prop39
140
1.0
102
RTVSPost2010PropOp39
 70
     1
102
RTVSPost2010Prop40
 90
        0
102
RTVSPost2010PropOp40
 70
     1
102
RTVSPost2010Prop41ColorIndex
 90
       18
102
RTVSPost2010Prop41ColorRGB
 90
        0
102
RTVSPost2010PropOp41
 70
     1
102
RTVSPost2010Prop42
 90
       50
102
RTVSPost2010PropOp42
 70
     1
102
RTVSPost2010Prop43
 90
        3
102
RTVSPost2010PropOp43
 70
     1
102
RTVSPost2010Prop44ColorIndex
 90
        5
102
RTVSPost2010Prop44ColorRGB
 90
      255
102
RTVSPost2010PropOp44
 70
     1
102
RTVSPost2010Prop45
280
     0
102
RTVSPost2010PropOp45
 70
     1
102
RTVSPost2010Prop46
 90
       50
102
RTVSPost2010PropOp46
 70
     1
102
RTVSPost2010Prop47
 90
       50
102
RTVSPost2010PropOp47
 70
     1
102
RTVSPost2010Prop48
 90
       50
102
RTVSPost2010PropOp48
 70
     1
102
RTVSPost2010Prop49
280
     0
102
RTVSPost2010PropOp49
 70
     1
102
RTVSPost2010Prop50
 90
       50
102
RTVSPost2010PropOp50
 70
     1
102
RTVSPost2010Prop51ColorIndex
 90
      256
102
RTVSPost2010Prop51ColorRGB
 90
-16777216
102
RTVSPost2010PropOp51
 70
     0
102
RTVSPost2010Prop52
140
1.0
102
RTVSPost2010PropOp52
 70
     0
102
RTVSPost2010Prop53
 90
        2
102
RTVSPost2010PropOp53
 70
     1
102
RTVSPost2010Prop54
  1
strokes_ogs.tif
102
RTVSPost2010PropOp54
 70
     1
102
RTVSPost2010Prop55
280
     0
102
RTVSPost2010PropOp55
 70
     1
102
RTVSPost2010Prop56
140
1.0
102
RTVSPost2010PropOp56
 70
     1
102
RTVSPost2010Prop57
140
1.0
102
RTVSPost2010PropOp57
 70
     1
102
RTVSPropertyOp0
 70
     1
102
RTVSPropertyOp1
 70
     1
102
RTVSPropertyOp2
 70
     1
102
RTVSPropertyOp3
 70
     1
102
RTVSPropertyOp4
 70
     1
102
RTVSPropertyOp5
 70
     1
102
RTVSPropertyOp6
 70
     1
102
RTVSPropertyOp7
 70
     1
102
RTVSPropertyOp8
 70
     1
102
RTVSPropertyOp9
 70
     1
102
RTVSPropertyOp10
 70
     1
102
RTVSPropertyOp11
 70
     1
102
RTVSPropertyOp12
 70
     1
102
RTVSPropertyOp13
 70
     1
102
RTVSPropertyOp14
 70
     1
102
RTVSPropertyOp15
 70
     1
102
RTVSPropertyOp16
 70
     1
102
RTVSPropertyOp17
 70
     1
102
RTVSPropertyOp18
 70
     1
102
RTVSPropertyOp19
 70
     1
102
RTVSPropertyOp20
 70
     1
102
RTVSPropertyOp21
 70
     1
102
RTVSPropertyOp22
 70
     1
102
RTVSPropertyOp23
 70
     1
102
RTVSPropertyOp24
 70
     1
102
RTVSPropertyOp25
 70
     1
102
RTVSPropertyOp26
 70
     1
102
RTVSPropertyOp27
 70
     1
102
RTVSPropertyOp28
 70
     1
102
RTVSPropertyOp29
 70
     1
102
RTVSPropertyOp30
 70
     1
102
RTVSPropertyOp31
 70
     1
102
RTVSPropertyOp32
 70
     1
102
RTVSPropertyOp33
 70
     1
102
RTVSPropertyOp34
 70
     1
102
RTVSPropertyOp35
 70
     1
102
RTVSPropertyOp36
 70
     1
102
RTVSPropertyOp37
 70
     1
102
RTVSPropertyOp38
 70
     1
102
RTVSPropertyOp39
 70
     1
102
RTVSPropertyOp40
 70
     1
102
RTVSPropertyOp41
 70
     1
102
RTVSPropertyOp42
 70
     1
102
RTVSPropertyOp43
 70
     1
102
RTVSPropertyOp44
 70
     1
102
RTVSPropertyOp45
 70
     1
102
RTVSPropertyOp46
 70
     1
102
RTVSPropertyOp47
 70
     1
102
RTVSPropertyOp48
 70
     1
102
RTVSPropertyOp49
 70
     1
102
RTVSPropertyOp50
 70
     1
102
RTVSPropertyOp51
 70
     0
102
RTVSPropertyOp52
 70
     0
102
RTVSPropertyOp53
 70
     1
102
RTVSPropertyOp54
 70
     1
102
RTVSPropertyOp55
 70
     1
102
RTVSPropertyOp56
 70
     1
102
RTVSPropertyOp57
 70
     1
102
RTVSPropertyOp58
 70
     1
102
RTVSPropertyOp59
 70
     1
102
RTVSPropertyOp60
 70
     1
102
RTVSPropertyOp61
 70
     1
102
RTVSPropertyOp62
 70
     1
  0
XRECORD
  5
3D5
102
{ACAD_REACTORS
330
3D4
102
}
330
3D4
100
AcDbXrecord
280
     1
102
RTVSPost2010Prop28
280
     0
102
RTVSPost2010PropOp28
 70
     0
102
RTVSPost2010Prop29
280
     1
102
RTVSPost2010PropOp29
 70
     0
102
RTVSPost2010Prop30
280
     1
102
RTVSPost2010PropOp30
 70
     0
102
RTVSPost2010Prop31
280
     0
102
RTVSPost2010PropOp31
 70
     0
102
RTVSPost2010Prop32
280
     0
102
RTVSPost2010PropOp32
 70
     0
102
RTVSPost2010Prop33
280
     0
102
RTVSPost2010PropOp33
 70
     0
102
RTVSPost2010Prop34
280
     0
102
RTVSPost2010PropOp34
 70
     0
102
RTVSPost2010Prop35
280
     0
102
RTVSPost2010PropOp35
 70
     0
102
RTVSPost2010Prop36
280
     0
102
RTVSPost2010PropOp36
 70
     0
102
RTVSPost2010Prop37
 90
       50
102
RTVSPost2010PropOp37
 70
     0
102
RTVSPost2010Prop38
140
0.0
102
RTVSPost2010PropOp38
 70
     0
102
RTVSPost2010Prop39
140
1.0
102
RTVSPost2010PropOp39
 70
     0
102
RTVSPost2010Prop40
 90
        0
102
RTVSPost2010PropOp40
 70
     0
102
RTVSPost2010Prop41ColorIndex
 90
       18
102
RTVSPost2010Prop41ColorRGB
 90
        0
102
RTVSPost2010PropOp41
 70
     0
102
RTVSPost2010Prop42
 90
       50
102
RTVSPost2010PropOp42
 70
     0
102
RTVSPost2010Prop43
 90
        3
102
RTVSPost2010PropOp43
 70
     0
102
RTVSPost2010Prop44ColorIndex
 90
        5
102
RTVSPost2010Prop44ColorRGB
 90
      255
102
RTVSPost2010PropOp44
 70
     0
102
RTVSPost2010Prop45
280
     0
102
RTVSPost2010PropOp45
 70
     0
102
RTVSPost2010Prop46
 90
       50
102
RTVSPost2010PropOp46
 70
     0
102
RTVSPost2010Prop47
 90
       50
102
RTVSPost2010PropOp47
 70
     0
102
RTVSPost2010Prop48
 90
       50
102
RTVSPost2010PropOp48
 70
     0
102
RTVSPost2010Prop49
280
     0
102
RTVSPost2010PropOp49
 70
     0
102
RTVSPost2010Prop50
 90
       50
102
RTVSPost2010PropOp50
 70
     0
102
RTVSPost2010Prop51ColorIndex
 90
      256
102
RTVSPost2010Prop51ColorRGB
 90
-16777216
102
RTVSPost2010PropOp51
 70
     0
102
RTVSPost2010Prop52
140
1.0
102
RTVSPost2010PropOp52
 70
     0
102
RTVSPost2010Prop53
 90
        2
102
RTVSPost2010PropOp53
 70
     0
102
RTVSPost2010Prop54
  1
strokes_ogs.tif
102
RTVSPost2010PropOp54
 70
     0
102
RTVSPost2010Prop55
280
     0
102
RTVSPost2010PropOp55
 70
     0
102
RTVSPost2010Prop56
140
1.0
102
RTVSPost2010PropOp56
 70
     0
102
RTVSPost2010Prop57
140
1.0
102
RTVSPost2010PropOp57
 70
     0
102
RTVSPropertyOp0
 70
     0
102
RTVSPropertyOp1
 70
     0
102
RTVSPropertyOp2
 70
     0
102
RTVSPropertyOp3
 70
     0
102
RTVSPropertyOp4
 70
     0
102
RTVSPropertyOp5
 70
     0
102
RTVSPropertyOp6
 70
     0
102
RTVSPropertyOp7
 70
     0
102
RTVSPropertyOp8
 70
     0
102
RTVSPropertyOp9
 70
     0
102
RTVSPropertyOp10
 70
     0
102
RTVSPropertyOp11
 70
     0
102
RTVSPropertyOp12
 70
     0
102
RTVSPropertyOp13
 70
     0
102
RTVSPropertyOp14
 70
     2
102
RTVSPropertyOp15
 70
     0
102
RTVSPropertyOp16
 70
     0
102
RTVSPropertyOp17
 70
     0
102
RTVSPropertyOp18
 70
     0
102
RTVSPropertyOp19
 70
     0
102
RTVSPropertyOp20
 70
     0
102
RTVSPropertyOp21
 70
     0
102
RTVSPropertyOp22
 70
     0
102
RTVSPropertyOp23
 70
     0
102
RTVSPropertyOp24
 70
     0
102
RTVSPropertyOp25
 70
     0
102
RTVSPropertyOp26
 70
     0
102
RTVSPropertyOp27
 70
     0
102
RTVSPropertyOp28
 70
     0
102
RTVSPropertyOp29
 70
     0
102
RTVSPropertyOp30
 70
     0
102
RTVSPropertyOp31
 70
     0
102
RTVSPropertyOp32
 70
     0
102
RTVSPropertyOp33
 70
     0
102
RTVSPropertyOp34
 70
     0
102
RTVSPropertyOp35
 70
     0
102
RTVSPropertyOp36
 70
     0
102
RTVSPropertyOp37
 70
     0
102
RTVSPropertyOp38
 70
     0
102
RTVSPropertyOp39
 70
     0
102
RTVSPropertyOp40
 70
     0
102
RTVSPropertyOp41
 70
     0
102
RTVSPropertyOp42
 70
     0
102
RTVSPropertyOp43
 70
     0
102
RTVSPropertyOp44
 70
     0
102
RTVSPropertyOp45
 70
     0
102
RTVSPropertyOp46
 70
     0
102
RTVSPropertyOp47
 70
     0
102
RTVSPropertyOp48
 70
     0
102
RTVSPropertyOp49
 70
     0
102
RTVSPropertyOp50
 70
     0
102
RTVSPropertyOp51
 70
     0
102
RTVSPropertyOp52
 70
     0
102
RTVSPropertyOp53
 70
     0
102
RTVSPropertyOp54
 70
     0
102
RTVSPropertyOp55
 70
     0
102
RTVSPropertyOp56
 70
     0
102
RTVSPropertyOp57
 70
     0
102
RTVSPropertyOp58
 70
     1
102
RTVSPropertyOp59
 70
     1
102
RTVSPropertyOp60
 70
     1
102
RTVSPropertyOp61
 70
     1
102
RTVSPropertyOp62
 70
     1
  0
XRECORD
  5
3CF
102
{ACAD_REACTORS
330
3CE
102
}
330
3CE
100
AcDbXrecord
280
     1
102
RTVSPost2010Prop28
280
     0
102
RTVSPost2010PropOp28
 70
     1
102
RTVSPost2010Prop29
280
     1
102
RTVSPost2010PropOp29
 70
     1
102
RTVSPost2010Prop30
280
     1
102
RTVSPost2010PropOp30
 70
     1
102
RTVSPost2010Prop31
280
     0
102
RTVSPost2010PropOp31
 70
     1
102
RTVSPost2010Prop32
280
     0
102
RTVSPost2010PropOp32
 70
     1
102
RTVSPost2010Prop33
280
     0
102
RTVSPost2010PropOp33
 70
     1
102
RTVSPost2010Prop34
280
     0
102
RTVSPost2010PropOp34
 70
     1
102
RTVSPost2010Prop35
280
     0
102
RTVSPost2010PropOp35
 70
     1
102
RTVSPost2010Prop36
280
     0
102
RTVSPost2010PropOp36
 70
     1
102
RTVSPost2010Prop37
 90
       50
102
RTVSPost2010PropOp37
 70
     1
102
RTVSPost2010Prop38
140
0.0
102
RTVSPost2010PropOp38
 70
     1
102
RTVSPost2010Prop39
140
1.0
102
RTVSPost2010PropOp39
 70
     1
102
RTVSPost2010Prop40
 90
        0
102
RTVSPost2010PropOp40
 70
     1
102
RTVSPost2010Prop41ColorIndex
 90
       18
102
RTVSPost2010Prop41ColorRGB
 90
        0
102
RTVSPost2010PropOp41
 70
     1
102
RTVSPost2010Prop42
 90
       50
102
RTVSPost2010PropOp42
 70
     1
102
RTVSPost2010Prop43
 90
        3
102
RTVSPost2010PropOp43
 70
     1
102
RTVSPost2010Prop44ColorIndex
 90
        5
102
RTVSPost2010Prop44ColorRGB
 90
      255
102
RTVSPost2010PropOp44
 70
     1
102
RTVSPost2010Prop45
280
     0
102
RTVSPost2010PropOp45
 70
     1
102
RTVSPost2010Prop46
 90
       50
102
RTVSPost2010PropOp46
 70
     1
102
RTVSPost2010Prop47
 90
       50
102
RTVSPost2010PropOp47
 70
     1
102
RTVSPost2010Prop48
 90
       50
102
RTVSPost2010PropOp48
 70
     1
102
RTVSPost2010Prop49
280
     0
102
RTVSPost2010PropOp49
 70
     1
102
RTVSPost2010Prop50
 90
       50
102
RTVSPost2010PropOp50
 70
     1
102
RTVSPost2010Prop51ColorIndex
 90
      256
102
RTVSPost2010Prop51ColorRGB
 90
-16777216
102
RTVSPost2010PropOp51
 70
     0
102
RTVSPost2010Prop52
140
1.0
102
RTVSPost2010PropOp52
 70
     0
102
RTVSPost2010Prop53
 90
        2
102
RTVSPost2010PropOp53
 70
     1
102
RTVSPost2010Prop54
  1
strokes_ogs.tif
102
RTVSPost2010PropOp54
 70
     1
102
RTVSPost2010Prop55
280
     0
102
RTVSPost2010PropOp55
 70
     1
102
RTVSPost2010Prop56
140
1.0
102
RTVSPost2010PropOp56
 70
     1
102
RTVSPost2010Prop57
140
1.0
102
RTVSPost2010PropOp57
 70
     1
102
RTVSPropertyOp0
 70
     1
102
RTVSPropertyOp1
 70
     1
102
RTVSPropertyOp2
 70
     1
102
RTVSPropertyOp3
 70
     1
102
RTVSPropertyOp4
 70
     1
102
RTVSPropertyOp5
 70
     1
102
RTVSPropertyOp6
 70
     1
102
RTVSPropertyOp7
 70
     1
102
RTVSPropertyOp8
 70
     1
102
RTVSPropertyOp9
 70
     1
102
RTVSPropertyOp10
 70
     1
102
RTVSPropertyOp11
 70
     1
102
RTVSPropertyOp12
 70
     1
102
RTVSPropertyOp13
 70
     1
102
RTVSPropertyOp14
 70
     1
102
RTVSPropertyOp15
 70
     1
102
RTVSPropertyOp16
 70
     1
102
RTVSPropertyOp17
 70
     1
102
RTVSPropertyOp18
 70
     1
102
RTVSPropertyOp19
 70
     1
102
RTVSPropertyOp20
 70
     1
102
RTVSPropertyOp21
 70
     1
102
RTVSPropertyOp22
 70
     1
102
RTVSPropertyOp23
 70
     1
102
RTVSPropertyOp24
 70
     1
102
RTVSPropertyOp25
 70
     1
102
RTVSPropertyOp26
 70
     1
102
RTVSPropertyOp27
 70
     1
102
RTVSPropertyOp28
 70
     1
102
RTVSPropertyOp29
 70
     1
102
RTVSPropertyOp30
 70
     1
102
RTVSPropertyOp31
 70
     1
102
RTVSPropertyOp32
 70
     1
102
RTVSPropertyOp33
 70
     1
102
RTVSPropertyOp34
 70
     1
102
RTVSPropertyOp35
 70
     1
102
RTVSPropertyOp36
 70
     1
102
RTVSPropertyOp37
 70
     1
102
RTVSPropertyOp38
 70
     1
102
RTVSPropertyOp39
 70
     1
102
RTVSPropertyOp40
 70
     1
102
RTVSPropertyOp41
 70
     1
102
RTVSPropertyOp42
 70
     1
102
RTVSPropertyOp43
 70
     1
102
RTVSPropertyOp44
 70
     1
102
RTVSPropertyOp45
 70
     1
102
RTVSPropertyOp46
 70
     1
102
RTVSPropertyOp47
 70
     1
102
RTVSPropertyOp48
 70
     1
102
RTVSPropertyOp49
 70
     1
102
RTVSPropertyOp50
 70
     1
102
RTVSPropertyOp51
 70
     0
102
RTVSPropertyOp52
 70
     0
102
RTVSPropertyOp53
 70
     1
102
RTVSPropertyOp54
 70
     1
102
RTVSPropertyOp55
 70
     1
102
RTVSPropertyOp56
 70
     1
102
RTVSPropertyOp57
 70
     1
102
RTVSPropertyOp58
 70
     1
102
RTVSPropertyOp59
 70
     1
102
RTVSPropertyOp60
 70
     1
102
RTVSPropertyOp61
 70
     1
102
RTVSPropertyOp62
 70
     1
  0
XRECORD
  5
3D7
102
{ACAD_REACTORS
330
3D6
102
}
330
3D6
100
AcDbXrecord
280
     1
102
RTVSPost2010Prop28
280
     0
102
RTVSPost2010PropOp28
 70
     0
102
RTVSPost2010Prop29
280
     1
102
RTVSPost2010PropOp29
 70
     0
102
RTVSPost2010Prop30
280
     1
102
RTVSPost2010PropOp30
 70
     0
102
RTVSPost2010Prop31
280
     0
102
RTVSPost2010PropOp31
 70
     0
102
RTVSPost2010Prop32
280
     0
102
RTVSPost2010PropOp32
 70
     0
102
RTVSPost2010Prop33
280
     0
102
RTVSPost2010PropOp33
 70
     0
102
RTVSPost2010Prop34
280
     0
102
RTVSPost2010PropOp34
 70
     0
102
RTVSPost2010Prop35
280
     0
102
RTVSPost2010PropOp35
 70
     0
102
RTVSPost2010Prop36
280
     0
102
RTVSPost2010PropOp36
 70
     0
102
RTVSPost2010Prop37
 90
       50
102
RTVSPost2010PropOp37
 70
     0
102
RTVSPost2010Prop38
140
0.0
102
RTVSPost2010PropOp38
 70
     0
102
RTVSPost2010Prop39
140
1.0
102
RTVSPost2010PropOp39
 70
     0
102
RTVSPost2010Prop40
 90
        0
102
RTVSPost2010PropOp40
 70
     0
102
RTVSPost2010Prop41ColorIndex
 90
       18
102
RTVSPost2010Prop41ColorRGB
 90
        0
102
RTVSPost2010PropOp41
 70
     0
102
RTVSPost2010Prop42
 90
       50
102
RTVSPost2010PropOp42
 70
     0
102
RTVSPost2010Prop43
 90
        3
102
RTVSPost2010PropOp43
 70
     0
102
RTVSPost2010Prop44ColorIndex
 90
        5
102
RTVSPost2010Prop44ColorRGB
 90
      255
102
RTVSPost2010PropOp44
 70
     0
102
RTVSPost2010Prop45
280
     0
102
RTVSPost2010PropOp45
 70
     0
102
RTVSPost2010Prop46
 90
       50
102
RTVSPost2010PropOp46
 70
     0
102
RTVSPost2010Prop47
 90
       50
102
RTVSPost2010PropOp47
 70
     0
102
RTVSPost2010Prop48
 90
       50
102
RTVSPost2010PropOp48
 70
     0
102
RTVSPost2010Prop49
280
     0
102
RTVSPost2010PropOp49
 70
     0
102
RTVSPost2010Prop50
 90
       50
102
RTVSPost2010PropOp50
 70
     0
102
RTVSPost2010Prop51ColorIndex
 90
      256
102
RTVSPost2010Prop51ColorRGB
 90
-16777216
102
RTVSPost2010PropOp51
 70
     0
102
RTVSPost2010Prop52
140
1.0
102
RTVSPost2010PropOp52
 70
     0
102
RTVSPost2010Prop53
 90
        2
102
RTVSPost2010PropOp53
 70
     0
102
RTVSPost2010Prop54
  1
strokes_ogs.tif
102
RTVSPost2010PropOp54
 70
     0
102
RTVSPost2010Prop55
280
     0
102
RTVSPost2010PropOp55
 70
     0
102
RTVSPost2010Prop56
140
1.0
102
RTVSPost2010PropOp56
 70
     0
102
RTVSPost2010Prop57
140
1.0
102
RTVSPost2010PropOp57
 70
     0
102
RTVSPropertyOp0
 70
     0
102
RTVSPropertyOp1
 70
     0
102
RTVSPropertyOp2
 70
     0
102
RTVSPropertyOp3
 70
     0
102
RTVSPropertyOp4
 70
     0
102
RTVSPropertyOp5
 70
     0
102
RTVSPropertyOp6
 70
     0
102
RTVSPropertyOp7
 70
     0
102
RTVSPropertyOp8
 70
     0
102
RTVSPropertyOp9
 70
     0
102
RTVSPropertyOp10
 70
     0
102
RTVSPropertyOp11
 70
     0
102
RTVSPropertyOp12
 70
     0
102
RTVSPropertyOp13
 70
     0
102
RTVSPropertyOp14
 70
     2
102
RTVSPropertyOp15
 70
     0
102
RTVSPropertyOp16
 70
     0
102
RTVSPropertyOp17
 70
     0
102
RTVSPropertyOp18
 70
     0
102
RTVSPropertyOp19
 70
     0
102
RTVSPropertyOp20
 70
     0
102
RTVSPropertyOp21
 70
     0
102
RTVSPropertyOp22
 70
     0
102
RTVSPropertyOp23
 70
     0
102
RTVSPropertyOp24
 70
     0
102
RTVSPropertyOp25
 70
     0
102
RTVSPropertyOp26
 70
     0
102
RTVSPropertyOp27
 70
     0
102
RTVSPropertyOp28
 70
     0
102
RTVSPropertyOp29
 70
     0
102
RTVSPropertyOp30
 70
     0
102
RTVSPropertyOp31
 70
     0
102
RTVSPropertyOp32
 70
     0
102
RTVSPropertyOp33
 70
     0
102
RTVSPropertyOp34
 70
     0
102
RTVSPropertyOp35
 70
     0
102
RTVSPropertyOp36
 70
     0
102
RTVSPropertyOp37
 70
     0
102
RTVSPropertyOp38
 70
     0
102
RTVSPropertyOp39
 70
     0
102
RTVSPropertyOp40
 70
     0
102
RTVSPropertyOp41
 70
     0
102
RTVSPropertyOp42
 70
     0
102
RTVSPropertyOp43
 70
     0
102
RTVSPropertyOp44
 70
     0
102
RTVSPropertyOp45
 70
     0
102
RTVSPropertyOp46
 70
     0
102
RTVSPropertyOp47
 70
     0
102
RTVSPropertyOp48
 70
     0
102
RTVSPropertyOp49
 70
     0
102
RTVSPropertyOp50
 70
     0
102
RTVSPropertyOp51
 70
     0
102
RTVSPropertyOp52
 70
     0
102
RTVSPropertyOp53
 70
     0
102
RTVSPropertyOp54
 70
     0
102
RTVSPropertyOp55
 70
     0
102
RTVSPropertyOp56
 70
     0
102
RTVSPropertyOp57
 70
     0
102
RTVSPropertyOp58
 70
     1
102
RTVSPropertyOp59
 70
     1
102
RTVSPropertyOp60
 70
     1
102
RTVSPropertyOp61
 70
     1
102
RTVSPropertyOp62
 70
     1
  0
XRECORD
  5
3C5
102
{ACAD_REACTORS
330
3C4
102
}
330
3C4
100
AcDbXrecord
280
     1
102
RTVSPost2010Prop28
280
     0
102
RTVSPost2010PropOp28
 70
     1
102
RTVSPost2010Prop29
280
     1
102
RTVSPost2010PropOp29
 70
     1
102
RTVSPost2010Prop30
280
     1
102
RTVSPost2010PropOp30
 70
     1
102
RTVSPost2010Prop31
280
     0
102
RTVSPost2010PropOp31
 70
     1
102
RTVSPost2010Prop32
280
     0
102
RTVSPost2010PropOp32
 70
     1
102
RTVSPost2010Prop33
280
     0
102
RTVSPost2010PropOp33
 70
     1
102
RTVSPost2010Prop34
280
     0
102
RTVSPost2010PropOp34
 70
     1
102
RTVSPost2010Prop35
280
     0
102
RTVSPost2010PropOp35
 70
     1
102
RTVSPost2010Prop36
280
     0
102
RTVSPost2010PropOp36
 70
     1
102
RTVSPost2010Prop37
 90
       50
102
RTVSPost2010PropOp37
 70
     1
102
RTVSPost2010Prop38
140
0.0
102
RTVSPost2010PropOp38
 70
     1
102
RTVSPost2010Prop39
140
1.0
102
RTVSPost2010PropOp39
 70
     1
102
RTVSPost2010Prop40
 90
        0
102
RTVSPost2010PropOp40
 70
     1
102
RTVSPost2010Prop41ColorIndex
 90
       18
102
RTVSPost2010Prop41ColorRGB
 90
        0
102
RTVSPost2010PropOp41
 70
     1
102
RTVSPost2010Prop42
 90
       50
102
RTVSPost2010PropOp42
 70
     1
102
RTVSPost2010Prop43
 90
        3
102
RTVSPost2010PropOp43
 70
     1
102
RTVSPost2010Prop44ColorIndex
 90
        5
102
RTVSPost2010Prop44ColorRGB
 90
      255
102
RTVSPost2010PropOp44
 70
     1
102
RTVSPost2010Prop45
280
     0
102
RTVSPost2010PropOp45
 70
     1
102
RTVSPost2010Prop46
 90
       50
102
RTVSPost2010PropOp46
 70
     1
102
RTVSPost2010Prop47
 90
       50
102
RTVSPost2010PropOp47
 70
     1
102
RTVSPost2010Prop48
 90
       50
102
RTVSPost2010PropOp48
 70
     1
102
RTVSPost2010Prop49
280
     0
102
RTVSPost2010PropOp49
 70
     1
102
RTVSPost2010Prop50
 90
       50
102
RTVSPost2010PropOp50
 70
     1
102
RTVSPost2010Prop51ColorIndex
 90
      256
102
RTVSPost2010Prop51ColorRGB
 90
-16777216
102
RTVSPost2010PropOp51
 70
     0
102
RTVSPost2010Prop52
140
1.0
102
RTVSPost2010PropOp52
 70
     0
102
RTVSPost2010Prop53
 90
        2
102
RTVSPost2010PropOp53
 70
     1
102
RTVSPost2010Prop54
  1
strokes_ogs.tif
102
RTVSPost2010PropOp54
 70
     1
102
RTVSPost2010Prop55
280
     0
102
RTVSPost2010PropOp55
 70
     1
102
RTVSPost2010Prop56
140
1.0
102
RTVSPost2010PropOp56
 70
     1
102
RTVSPost2010Prop57
140
1.0
102
RTVSPost2010PropOp57
 70
     1
102
RTVSPropertyOp0
 70
     1
102
RTVSPropertyOp1
 70
     1
102
RTVSPropertyOp2
 70
     1
102
RTVSPropertyOp3
 70
     1
102
RTVSPropertyOp4
 70
     1
102
RTVSPropertyOp5
 70
     1
102
RTVSPropertyOp6
 70
     1
102
RTVSPropertyOp7
 70
     1
102
RTVSPropertyOp8
 70
     1
102
RTVSPropertyOp9
 70
     1
102
RTVSPropertyOp10
 70
     1
102
RTVSPropertyOp11
 70
     1
102
RTVSPropertyOp12
 70
     1
102
RTVSPropertyOp13
 70
     1
102
RTVSPropertyOp14
 70
     1
102
RTVSPropertyOp15
 70
     1
102
RTVSPropertyOp16
 70
     1
102
RTVSPropertyOp17
 70
     1
102
RTVSPropertyOp18
 70
     1
102
RTVSPropertyOp19
 70
     1
102
RTVSPropertyOp20
 70
     1
102
RTVSPropertyOp21
 70
     1
102
RTVSPropertyOp22
 70
     1
102
RTVSPropertyOp23
 70
     1
102
RTVSPropertyOp24
 70
     1
102
RTVSPropertyOp25
 70
     1
102
RTVSPropertyOp26
 70
     1
102
RTVSPropertyOp27
 70
     1
102
RTVSPropertyOp28
 70
     1
102
RTVSPropertyOp29
 70
     1
102
RTVSPropertyOp30
 70
     1
102
RTVSPropertyOp31
 70
     1
102
RTVSPropertyOp32
 70
     1
102
RTVSPropertyOp33
 70
     1
102
RTVSPropertyOp34
 70
     1
102
RTVSPropertyOp35
 70
     1
102
RTVSPropertyOp36
 70
     1
102
RTVSPropertyOp37
 70
     1
102
RTVSPropertyOp38
 70
     1
102
RTVSPropertyOp39
 70
     1
102
RTVSPropertyOp40
 70
     1
102
RTVSPropertyOp41
 70
     1
102
RTVSPropertyOp42
 70
     1
102
RTVSPropertyOp43
 70
     1
102
RTVSPropertyOp44
 70
     1
102
RTVSPropertyOp45
 70
     1
102
RTVSPropertyOp46
 70
     1
102
RTVSPropertyOp47
 70
     1
102
RTVSPropertyOp48
 70
     1
102
RTVSPropertyOp49
 70
     1
102
RTVSPropertyOp50
 70
     1
102
RTVSPropertyOp51
 70
     0
102
RTVSPropertyOp52
 70
     0
102
RTVSPropertyOp53
 70
     1
102
RTVSPropertyOp54
 70
     1
102
RTVSPropertyOp55
 70
     1
102
RTVSPropertyOp56
 70
     1
102
RTVSPropertyOp57
 70
     1
102
RTVSPropertyOp58
 70
     1
102
RTVSPropertyOp59
 70
     1
102
RTVSPropertyOp60
 70
     1
102
RTVSPropertyOp61
 70
     1
102
RTVSPropertyOp62
 70
     1
  0
XRECORD
  5
3E3
102
{ACAD_REACTORS
330
3E2
102
}
330
3E2
100
AcDbXrecord
280
     1
102
RTVSPost2010Prop28
280
     0
102
RTVSPost2010PropOp28
 70
     1
102
RTVSPost2010Prop29
280
     1
102
RTVSPost2010PropOp29
 70
     1
102
RTVSPost2010Prop30
280
     1
102
RTVSPost2010PropOp30
 70
     1
102
RTVSPost2010Prop31
280
     0
102
RTVSPost2010PropOp31
 70
     1
102
RTVSPost2010Prop32
280
     0
102
RTVSPost2010PropOp32
 70
     1
102
RTVSPost2010Prop33
280
     0
102
RTVSPost2010PropOp33
 70
     1
102
RTVSPost2010Prop34
280
     0
102
RTVSPost2010PropOp34
 70
     1
102
RTVSPost2010Prop35
280
     0
102
RTVSPost2010PropOp35
 70
     1
102
RTVSPost2010Prop36
280
     0
102
RTVSPost2010PropOp36
 70
     1
102
RTVSPost2010Prop37
 90
       50
102
RTVSPost2010PropOp37
 70
     1
102
RTVSPost2010Prop38
140
0.0
102
RTVSPost2010PropOp38
 70
     1
102
RTVSPost2010Prop39
140
1.0
102
RTVSPost2010PropOp39
 70
     1
102
RTVSPost2010Prop40
 90
        0
102
RTVSPost2010PropOp40
 70
     1
102
RTVSPost2010Prop41ColorIndex
 90
       18
102
RTVSPost2010Prop41ColorRGB
 90
        0
102
RTVSPost2010PropOp41
 70
     1
102
RTVSPost2010Prop42
 90
       50
102
RTVSPost2010PropOp42
 70
     1
102
RTVSPost2010Prop43
 90
        3
102
RTVSPost2010PropOp43
 70
     1
102
RTVSPost2010Prop44ColorIndex
 90
        5
102
RTVSPost2010Prop44ColorRGB
 90
      255
102
RTVSPost2010PropOp44
 70
     1
102
RTVSPost2010Prop45
280
     0
102
RTVSPost2010PropOp45
 70
     1
102
RTVSPost2010Prop46
 90
       50
102
RTVSPost2010PropOp46
 70
     1
102
RTVSPost2010Prop47
 90
       50
102
RTVSPost2010PropOp47
 70
     1
102
RTVSPost2010Prop48
 90
       50
102
RTVSPost2010PropOp48
 70
     1
102
RTVSPost2010Prop49
280
     0
102
RTVSPost2010PropOp49
 70
     1
102
RTVSPost2010Prop50
 90
       50
102
RTVSPost2010PropOp50
 70
     1
102
RTVSPost2010Prop51ColorIndex
 90
      256
102
RTVSPost2010Prop51ColorRGB
 90
-16777216
102
RTVSPost2010PropOp51
 70
     0
102
RTVSPost2010Prop52
140
1.0
102
RTVSPost2010PropOp52
 70
     0
102
RTVSPost2010Prop53
 90
        2
102
RTVSPost2010PropOp53
 70
     1
102
RTVSPost2010Prop54
  1
strokes_ogs.tif
102
RTVSPost2010PropOp54
 70
     1
102
RTVSPost2010Prop55
280
     0
102
RTVSPost2010PropOp55
 70
     1
102
RTVSPost2010Prop56
140
1.0
102
RTVSPost2010PropOp56
 70
     1
102
RTVSPost2010Prop57
140
1.0
102
RTVSPost2010PropOp57
 70
     1
102
RTVSPropertyOp0
 70
     1
102
RTVSPropertyOp1
 70
     1
102
RTVSPropertyOp2
 70
     1
102
RTVSPropertyOp3
 70
     1
102
RTVSPropertyOp4
 70
     1
102
RTVSPropertyOp5
 70
     1
102
RTVSPropertyOp6
 70
     1
102
RTVSPropertyOp7
 70
     1
102
RTVSPropertyOp8
 70
     1
102
RTVSPropertyOp9
 70
     1
102
RTVSPropertyOp10
 70
     1
102
RTVSPropertyOp11
 70
     1
102
RTVSPropertyOp12
 70
     1
102
RTVSPropertyOp13
 70
     1
102
RTVSPropertyOp14
 70
     1
102
RTVSPropertyOp15
 70
     1
102
RTVSPropertyOp16
 70
     1
102
RTVSPropertyOp17
 70
     1
102
RTVSPropertyOp18
 70
     1
102
RTVSPropertyOp19
 70
     1
102
RTVSPropertyOp20
 70
     1
102
RTVSPropertyOp21
 70
     1
102
RTVSPropertyOp22
 70
     1
102
RTVSPropertyOp23
 70
     1
102
RTVSPropertyOp24
 70
     1
102
RTVSPropertyOp25
 70
     1
102
RTVSPropertyOp26
 70
     1
102
RTVSPropertyOp27
 70
     1
102
RTVSPropertyOp28
 70
     1
102
RTVSPropertyOp29
 70
     1
102
RTVSPropertyOp30
 70
     1
102
RTVSPropertyOp31
 70
     1
102
RTVSPropertyOp32
 70
     1
102
RTVSPropertyOp33
 70
     1
102
RTVSPropertyOp34
 70
     1
102
RTVSPropertyOp35
 70
     1
102
RTVSPropertyOp36
 70
     1
102
RTVSPropertyOp37
 70
     1
102
RTVSPropertyOp38
 70
     1
102
RTVSPropertyOp39
 70
     1
102
RTVSPropertyOp40
 70
     1
102
RTVSPropertyOp41
 70
     1
102
RTVSPropertyOp42
 70
     1
102
RTVSPropertyOp43
 70
     1
102
RTVSPropertyOp44
 70
     1
102
RTVSPropertyOp45
 70
     1
102
RTVSPropertyOp46
 70
     1
102
RTVSPropertyOp47
 70
     1
102
RTVSPropertyOp48
 70
     1
102
RTVSPropertyOp49
 70
     1
102
RTVSPropertyOp50
 70
     1
102
RTVSPropertyOp51
 70
     0
102
RTVSPropertyOp52
 70
     0
102
RTVSPropertyOp53
 70
     1
102
RTVSPropertyOp54
 70
     1
102
RTVSPropertyOp55
 70
     1
102
RTVSPropertyOp56
 70
     1
102
RTVSPropertyOp57
 70
     1
102
RTVSPropertyOp58
 70
     1
102
RTVSPropertyOp59
 70
     1
102
RTVSPropertyOp60
 70
     1
102
RTVSPropertyOp61
 70
     1
102
RTVSPropertyOp62
 70
     1
  0
XRECORD
  5
3E1
102
{ACAD_REACTORS
330
3E0
102
}
330
3E0
100
AcDbXrecord
280
     1
102
RTVSPost2010Prop28
280
     0
102
RTVSPost2010PropOp28
 70
     1
102
RTVSPost2010Prop29
280
     1
102
RTVSPost2010PropOp29
 70
     1
102
RTVSPost2010Prop30
280
     1
102
RTVSPost2010PropOp30
 70
     1
102
RTVSPost2010Prop31
280
     0
102
RTVSPost2010PropOp31
 70
     1
102
RTVSPost2010Prop32
280
     0
102
RTVSPost2010PropOp32
 70
     1
102
RTVSPost2010Prop33
280
     0
102
RTVSPost2010PropOp33
 70
     1
102
RTVSPost2010Prop34
280
     0
102
RTVSPost2010PropOp34
 70
     1
102
RTVSPost2010Prop35
280
     0
102
RTVSPost2010PropOp35
 70
     1
102
RTVSPost2010Prop36
280
     0
102
RTVSPost2010PropOp36
 70
     1
102
RTVSPost2010Prop37
 90
       50
102
RTVSPost2010PropOp37
 70
     1
102
RTVSPost2010Prop38
140
0.0
102
RTVSPost2010PropOp38
 70
     1
102
RTVSPost2010Prop39
140
1.0
102
RTVSPost2010PropOp39
 70
     1
102
RTVSPost2010Prop40
 90
        0
102
RTVSPost2010PropOp40
 70
     1
102
RTVSPost2010Prop41ColorIndex
 90
       18
102
RTVSPost2010Prop41ColorRGB
 90
        0
102
RTVSPost2010PropOp41
 70
     1
102
RTVSPost2010Prop42
 90
       50
102
RTVSPost2010PropOp42
 70
     1
102
RTVSPost2010Prop43
 90
        3
102
RTVSPost2010PropOp43
 70
     1
102
RTVSPost2010Prop44ColorIndex
 90
        5
102
RTVSPost2010Prop44ColorRGB
 90
      255
102
RTVSPost2010PropOp44
 70
     1
102
RTVSPost2010Prop45
280
     0
102
RTVSPost2010PropOp45
 70
     1
102
RTVSPost2010Prop46
 90
       50
102
RTVSPost2010PropOp46
 70
     1
102
RTVSPost2010Prop47
 90
       50
102
RTVSPost2010PropOp47
 70
     1
102
RTVSPost2010Prop48
 90
       50
102
RTVSPost2010PropOp48
 70
     1
102
RTVSPost2010Prop49
280
     0
102
RTVSPost2010PropOp49
 70
     1
102
RTVSPost2010Prop50
 90
       50
102
RTVSPost2010PropOp50
 70
     1
102
RTVSPost2010Prop51ColorIndex
 90
      256
102
RTVSPost2010Prop51ColorRGB
 90
-16777216
102
RTVSPost2010PropOp51
 70
     0
102
RTVSPost2010Prop52
140
1.0
102
RTVSPost2010PropOp52
 70
     0
102
RTVSPost2010Prop53
 90
        2
102
RTVSPost2010PropOp53
 70
     1
102
RTVSPost2010Prop54
  1
strokes_ogs.tif
102
RTVSPost2010PropOp54
 70
     1
102
RTVSPost2010Prop55
280
     0
102
RTVSPost2010PropOp55
 70
     1
102
RTVSPost2010Prop56
140
1.0
102
RTVSPost2010PropOp56
 70
     1
102
RTVSPost2010Prop57
140
1.0
102
RTVSPost2010PropOp57
 70
     1
102
RTVSPropertyOp0
 70
     1
102
RTVSPropertyOp1
 70
     1
102
RTVSPropertyOp2
 70
     1
102
RTVSPropertyOp3
 70
     1
102
RTVSPropertyOp4
 70
     1
102
RTVSPropertyOp5
 70
     1
102
RTVSPropertyOp6
 70
     1
102
RTVSPropertyOp7
 70
     1
102
RTVSPropertyOp8
 70
     1
102
RTVSPropertyOp9
 70
     1
102
RTVSPropertyOp10
 70
     1
102
RTVSPropertyOp11
 70
     1
102
RTVSPropertyOp12
 70
     1
102
RTVSPropertyOp13
 70
     1
102
RTVSPropertyOp14
 70
     1
102
RTVSPropertyOp15
 70
     1
102
RTVSPropertyOp16
 70
     1
102
RTVSPropertyOp17
 70
     1
102
RTVSPropertyOp18
 70
     1
102
RTVSPropertyOp19
 70
     1
102
RTVSPropertyOp20
 70
     1
102
RTVSPropertyOp21
 70
     1
102
RTVSPropertyOp22
 70
     1
102
RTVSPropertyOp23
 70
     1
102
RTVSPropertyOp24
 70
     1
102
RTVSPropertyOp25
 70
     1
102
RTVSPropertyOp26
 70
     1
102
RTVSPropertyOp27
 70
     1
102
RTVSPropertyOp28
 70
     1
102
RTVSPropertyOp29
 70
     1
102
RTVSPropertyOp30
 70
     1
102
RTVSPropertyOp31
 70
     1
102
RTVSPropertyOp32
 70
     1
102
RTVSPropertyOp33
 70
     1
102
RTVSPropertyOp34
 70
     1
102
RTVSPropertyOp35
 70
     1
102
RTVSPropertyOp36
 70
     1
102
RTVSPropertyOp37
 70
     1
102
RTVSPropertyOp38
 70
     1
102
RTVSPropertyOp39
 70
     1
102
RTVSPropertyOp40
 70
     1
102
RTVSPropertyOp41
 70
     1
102
RTVSPropertyOp42
 70
     1
102
RTVSPropertyOp43
 70
     1
102
RTVSPropertyOp44
 70
     1
102
RTVSPropertyOp45
 70
     1
102
RTVSPropertyOp46
 70
     1
102
RTVSPropertyOp47
 70
     1
102
RTVSPropertyOp48
 70
     1
102
RTVSPropertyOp49
 70
     1
102
RTVSPropertyOp50
 70
     1
102
RTVSPropertyOp51
 70
     0
102
RTVSPropertyOp52
 70
     0
102
RTVSPropertyOp53
 70
     1
102
RTVSPropertyOp54
 70
     1
102
RTVSPropertyOp55
 70
     1
102
RTVSPropertyOp56
 70
     1
102
RTVSPropertyOp57
 70
     1
102
RTVSPropertyOp58
 70
     1
102
RTVSPropertyOp59
 70
     1
102
RTVSPropertyOp60
 70
     1
102
RTVSPropertyOp61
 70
     1
102
RTVSPropertyOp62
 70
     1
  0
XRECORD
  5
3DB
102
{ACAD_REACTORS
330
3DA
102
}
330
3DA
100
AcDbXrecord
280
     1
102
RTVSPost2010Prop28
280
     0
102
RTVSPost2010PropOp28
 70
     1
102
RTVSPost2010Prop29
280
     1
102
RTVSPost2010PropOp29
 70
     1
102
RTVSPost2010Prop30
280
     1
102
RTVSPost2010PropOp30
 70
     1
102
RTVSPost2010Prop31
280
     0
102
RTVSPost2010PropOp31
 70
     1
102
RTVSPost2010Prop32
280
     0
102
RTVSPost2010PropOp32
 70
     1
102
RTVSPost2010Prop33
280
     0
102
RTVSPost2010PropOp33
 70
     1
102
RTVSPost2010Prop34
280
     0
102
RTVSPost2010PropOp34
 70
     1
102
RTVSPost2010Prop35
280
     0
102
RTVSPost2010PropOp35
 70
     1
102
RTVSPost2010Prop36
280
     0
102
RTVSPost2010PropOp36
 70
     1
102
RTVSPost2010Prop37
 90
       50
102
RTVSPost2010PropOp37
 70
     1
102
RTVSPost2010Prop38
140
0.0
102
RTVSPost2010PropOp38
 70
     1
102
RTVSPost2010Prop39
140
1.0
102
RTVSPost2010PropOp39
 70
     1
102
RTVSPost2010Prop40
 90
        0
102
RTVSPost2010PropOp40
 70
     1
102
RTVSPost2010Prop41ColorIndex
 90
       18
102
RTVSPost2010Prop41ColorRGB
 90
        0
102
RTVSPost2010PropOp41
 70
     1
102
RTVSPost2010Prop42
 90
       50
102
RTVSPost2010PropOp42
 70
     1
102
RTVSPost2010Prop43
 90
        3
102
RTVSPost2010PropOp43
 70
     1
102
RTVSPost2010Prop44ColorIndex
 90
        5
102
RTVSPost2010Prop44ColorRGB
 90
      255
102
RTVSPost2010PropOp44
 70
     1
102
RTVSPost2010Prop45
280
     0
102
RTVSPost2010PropOp45
 70
     1
102
RTVSPost2010Prop46
 90
       50
102
RTVSPost2010PropOp46
 70
     1
102
RTVSPost2010Prop47
 90
       50
102
RTVSPost2010PropOp47
 70
     1
102
RTVSPost2010Prop48
 90
       50
102
RTVSPost2010PropOp48
 70
     1
102
RTVSPost2010Prop49
280
     0
102
RTVSPost2010PropOp49
 70
     1
102
RTVSPost2010Prop50
 90
       50
102
RTVSPost2010PropOp50
 70
     1
102
RTVSPost2010Prop51ColorIndex
 90
      256
102
RTVSPost2010Prop51ColorRGB
 90
-16777216
102
RTVSPost2010PropOp51
 70
     0
102
RTVSPost2010Prop52
140
1.0
102
RTVSPost2010PropOp52
 70
     0
102
RTVSPost2010Prop53
 90
        2
102
RTVSPost2010PropOp53
 70
     1
102
RTVSPost2010Prop54
  1
strokes_ogs.tif
102
RTVSPost2010PropOp54
 70
     1
102
RTVSPost2010Prop55
280
     0
102
RTVSPost2010PropOp55
 70
     1
102
RTVSPost2010Prop56
140
1.0
102
RTVSPost2010PropOp56
 70
     1
102
RTVSPost2010Prop57
140
1.0
102
RTVSPost2010PropOp57
 70
     1
102
RTVSPropertyOp0
 70
     1
102
RTVSPropertyOp1
 70
     1
102
RTVSPropertyOp2
 70
     1
102
RTVSPropertyOp3
 70
     1
102
RTVSPropertyOp4
 70
     1
102
RTVSPropertyOp5
 70
     1
102
RTVSPropertyOp6
 70
     1
102
RTVSPropertyOp7
 70
     1
102
RTVSPropertyOp8
 70
     1
102
RTVSPropertyOp9
 70
     1
102
RTVSPropertyOp10
 70
     1
102
RTVSPropertyOp11
 70
     1
102
RTVSPropertyOp12
 70
     1
102
RTVSPropertyOp13
 70
     1
102
RTVSPropertyOp14
 70
     1
102
RTVSPropertyOp15
 70
     1
102
RTVSPropertyOp16
 70
     1
102
RTVSPropertyOp17
 70
     1
102
RTVSPropertyOp18
 70
     1
102
RTVSPropertyOp19
 70
     1
102
RTVSPropertyOp20
 70
     1
102
RTVSPropertyOp21
 70
     1
102
RTVSPropertyOp22
 70
     1
102
RTVSPropertyOp23
 70
     1
102
RTVSPropertyOp24
 70
     1
102
RTVSPropertyOp25
 70
     1
102
RTVSPropertyOp26
 70
     1
102
RTVSPropertyOp27
 70
     1
102
RTVSPropertyOp28
 70
     1
102
RTVSPropertyOp29
 70
     1
102
RTVSPropertyOp30
 70
     1
102
RTVSPropertyOp31
 70
     1
102
RTVSPropertyOp32
 70
     1
102
RTVSPropertyOp33
 70
     1
102
RTVSPropertyOp34
 70
     1
102
RTVSPropertyOp35
 70
     1
102
RTVSPropertyOp36
 70
     1
102
RTVSPropertyOp37
 70
     1
102
RTVSPropertyOp38
 70
     1
102
RTVSPropertyOp39
 70
     1
102
RTVSPropertyOp40
 70
     1
102
RTVSPropertyOp41
 70
     1
102
RTVSPropertyOp42
 70
     1
102
RTVSPropertyOp43
 70
     1
102
RTVSPropertyOp44
 70
     1
102
RTVSPropertyOp45
 70
     1
102
RTVSPropertyOp46
 70
     1
102
RTVSPropertyOp47
 70
     1
102
RTVSPropertyOp48
 70
     1
102
RTVSPropertyOp49
 70
     1
102
RTVSPropertyOp50
 70
     1
102
RTVSPropertyOp51
 70
     0
102
RTVSPropertyOp52
 70
     0
102
RTVSPropertyOp53
 70
     1
102
RTVSPropertyOp54
 70
     1
102
RTVSPropertyOp55
 70
     1
102
RTVSPropertyOp56
 70
     1
102
RTVSPropertyOp57
 70
     1
102
RTVSPropertyOp58
 70
     1
102
RTVSPropertyOp59
 70
     1
102
RTVSPropertyOp60
 70
     1
102
RTVSPropertyOp61
 70
     1
102
RTVSPropertyOp62
 70
     1
  0
XRECORD
  5
3DD
102
{ACAD_REACTORS
330
3DC
102
}
330
3DC
100
AcDbXrecord
280
     1
102
RTVSPost2010Prop28
280
     0
102
RTVSPost2010PropOp28
 70
     1
102
RTVSPost2010Prop29
280
     1
102
RTVSPost2010PropOp29
 70
     1
102
RTVSPost2010Prop30
280
     1
102
RTVSPost2010PropOp30
 70
     1
102
RTVSPost2010Prop31
280
     0
102
RTVSPost2010PropOp31
 70
     1
102
RTVSPost2010Prop32
280
     0
102
RTVSPost2010PropOp32
 70
     1
102
RTVSPost2010Prop33
280
     0
102
RTVSPost2010PropOp33
 70
     1
102
RTVSPost2010Prop34
280
     0
102
RTVSPost2010PropOp34
 70
     1
102
RTVSPost2010Prop35
280
     0
102
RTVSPost2010PropOp35
 70
     1
102
RTVSPost2010Prop36
280
     0
102
RTVSPost2010PropOp36
 70
     1
102
RTVSPost2010Prop37
 90
       50
102
RTVSPost2010PropOp37
 70
     1
102
RTVSPost2010Prop38
140
0.0
102
RTVSPost2010PropOp38
 70
     1
102
RTVSPost2010Prop39
140
1.0
102
RTVSPost2010PropOp39
 70
     1
102
RTVSPost2010Prop40
 90
        0
102
RTVSPost2010PropOp40
 70
     1
102
RTVSPost2010Prop41ColorIndex
 90
       18
102
RTVSPost2010Prop41ColorRGB
 90
        0
102
RTVSPost2010PropOp41
 70
     1
102
RTVSPost2010Prop42
 90
       50
102
RTVSPost2010PropOp42
 70
     1
102
RTVSPost2010Prop43
 90
        3
102
RTVSPost2010PropOp43
 70
     1
102
RTVSPost2010Prop44ColorIndex
 90
        5
102
RTVSPost2010Prop44ColorRGB
 90
      255
102
RTVSPost2010PropOp44
 70
     1
102
RTVSPost2010Prop45
280
     0
102
RTVSPost2010PropOp45
 70
     1
102
RTVSPost2010Prop46
 90
       50
102
RTVSPost2010PropOp46
 70
     1
102
RTVSPost2010Prop47
 90
       50
102
RTVSPost2010PropOp47
 70
     1
102
RTVSPost2010Prop48
 90
       50
102
RTVSPost2010PropOp48
 70
     1
102
RTVSPost2010Prop49
280
     0
102
RTVSPost2010PropOp49
 70
     1
102
RTVSPost2010Prop50
 90
       50
102
RTVSPost2010PropOp50
 70
     1
102
RTVSPost2010Prop51ColorIndex
 90
      256
102
RTVSPost2010Prop51ColorRGB
 90
-16777216
102
RTVSPost2010PropOp51
 70
     0
102
RTVSPost2010Prop52
140
1.0
102
RTVSPost2010PropOp52
 70
     0
102
RTVSPost2010Prop53
 90
        2
102
RTVSPost2010PropOp53
 70
     1
102
RTVSPost2010Prop54
  1
strokes_ogs.tif
102
RTVSPost2010PropOp54
 70
     1
102
RTVSPost2010Prop55
280
     0
102
RTVSPost2010PropOp55
 70
     1
102
RTVSPost2010Prop56
140
1.0
102
RTVSPost2010PropOp56
 70
     1
102
RTVSPost2010Prop57
140
1.0
102
RTVSPost2010PropOp57
 70
     1
102
RTVSPropertyOp0
 70
     1
102
RTVSPropertyOp1
 70
     1
102
RTVSPropertyOp2
 70
     1
102
RTVSPropertyOp3
 70
     1
102
RTVSPropertyOp4
 70
     1
102
RTVSPropertyOp5
 70
     1
102
RTVSPropertyOp6
 70
     1
102
RTVSPropertyOp7
 70
     1
102
RTVSPropertyOp8
 70
     1
102
RTVSPropertyOp9
 70
     1
102
RTVSPropertyOp10
 70
     1
102
RTVSPropertyOp11
 70
     1
102
RTVSPropertyOp12
 70
     1
102
RTVSPropertyOp13
 70
     1
102
RTVSPropertyOp14
 70
     1
102
RTVSPropertyOp15
 70
     1
102
RTVSPropertyOp16
 70
     1
102
RTVSPropertyOp17
 70
     1
102
RTVSPropertyOp18
 70
     1
102
RTVSPropertyOp19
 70
     1
102
RTVSPropertyOp20
 70
     1
102
RTVSPropertyOp21
 70
     1
102
RTVSPropertyOp22
 70
     1
102
RTVSPropertyOp23
 70
     1
102
RTVSPropertyOp24
 70
     1
102
RTVSPropertyOp25
 70
     1
102
RTVSPropertyOp26
 70
     1
102
RTVSPropertyOp27
 70
     1
102
RTVSPropertyOp28
 70
     1
102
RTVSPropertyOp29
 70
     1
102
RTVSPropertyOp30
 70
     1
102
RTVSPropertyOp31
 70
     1
102
RTVSPropertyOp32
 70
     1
102
RTVSPropertyOp33
 70
     1
102
RTVSPropertyOp34
 70
     1
102
RTVSPropertyOp35
 70
     1
102
RTVSPropertyOp36
 70
     1
102
RTVSPropertyOp37
 70
     1
102
RTVSPropertyOp38
 70
     1
102
RTVSPropertyOp39
 70
     1
102
RTVSPropertyOp40
 70
     1
102
RTVSPropertyOp41
 70
     1
102
RTVSPropertyOp42
 70
     1
102
RTVSPropertyOp43
 70
     1
102
RTVSPropertyOp44
 70
     1
102
RTVSPropertyOp45
 70
     1
102
RTVSPropertyOp46
 70
     1
102
RTVSPropertyOp47
 70
     1
102
RTVSPropertyOp48
 70
     1
102
RTVSPropertyOp49
 70
     1
102
RTVSPropertyOp50
 70
     1
102
RTVSPropertyOp51
 70
     0
102
RTVSPropertyOp52
 70
     0
102
RTVSPropertyOp53
 70
     1
102
RTVSPropertyOp54
 70
     1
102
RTVSPropertyOp55
 70
     1
102
RTVSPropertyOp56
 70
     1
102
RTVSPropertyOp57
 70
     1
102
RTVSPropertyOp58
 70
     1
102
RTVSPropertyOp59
 70
     1
102
RTVSPropertyOp60
 70
     1
102
RTVSPropertyOp61
 70
     1
102
RTVSPropertyOp62
 70
     1
  0
XRECORD
  5
3CD
102
{ACAD_REACTORS
330
3CC
102
}
330
3CC
100
AcDbXrecord
280
     1
102
RTVSPost2010Prop28
280
     0
102
RTVSPost2010PropOp28
 70
     1
102
RTVSPost2010Prop29
280
     1
102
RTVSPost2010PropOp29
 70
     1
102
RTVSPost2010Prop30
280
     1
102
RTVSPost2010PropOp30
 70
     1
102
RTVSPost2010Prop31
280
     0
102
RTVSPost2010PropOp31
 70
     1
102
RTVSPost2010Prop32
280
     0
102
RTVSPost2010PropOp32
 70
     1
102
RTVSPost2010Prop33
280
     0
102
RTVSPost2010PropOp33
 70
     1
102
RTVSPost2010Prop34
280
     0
102
RTVSPost2010PropOp34
 70
     1
102
RTVSPost2010Prop35
280
     0
102
RTVSPost2010PropOp35
 70
     1
102
RTVSPost2010Prop36
280
     0
102
RTVSPost2010PropOp36
 70
     1
102
RTVSPost2010Prop37
 90
       50
102
RTVSPost2010PropOp37
 70
     1
102
RTVSPost2010Prop38
140
0.0
102
RTVSPost2010PropOp38
 70
     1
102
RTVSPost2010Prop39
140
1.0
102
RTVSPost2010PropOp39
 70
     1
102
RTVSPost2010Prop40
 90
        0
102
RTVSPost2010PropOp40
 70
     1
102
RTVSPost2010Prop41ColorIndex
 90
       18
102
RTVSPost2010Prop41ColorRGB
 90
        0
102
RTVSPost2010PropOp41
 70
     1
102
RTVSPost2010Prop42
 90
       50
102
RTVSPost2010PropOp42
 70
     1
102
RTVSPost2010Prop43
 90
        3
102
RTVSPost2010PropOp43
 70
     1
102
RTVSPost2010Prop44ColorIndex
 90
        5
102
RTVSPost2010Prop44ColorRGB
 90
      255
102
RTVSPost2010PropOp44
 70
     1
102
RTVSPost2010Prop45
280
     0
102
RTVSPost2010PropOp45
 70
     1
102
RTVSPost2010Prop46
 90
       50
102
RTVSPost2010PropOp46
 70
     1
102
RTVSPost2010Prop47
 90
       50
102
RTVSPost2010PropOp47
 70
     1
102
RTVSPost2010Prop48
 90
       50
102
RTVSPost2010PropOp48
 70
     1
102
RTVSPost2010Prop49
280
     0
102
RTVSPost2010PropOp49
 70
     1
102
RTVSPost2010Prop50
 90
       50
102
RTVSPost2010PropOp50
 70
     1
102
RTVSPost2010Prop51ColorIndex
 90
      256
102
RTVSPost2010Prop51ColorRGB
 90
-16777216
102
RTVSPost2010PropOp51
 70
     0
102
RTVSPost2010Prop52
140
1.0
102
RTVSPost2010PropOp52
 70
     0
102
RTVSPost2010Prop53
 90
        2
102
RTVSPost2010PropOp53
 70
     1
102
RTVSPost2010Prop54
  1
strokes_ogs.tif
102
RTVSPost2010PropOp54
 70
     1
102
RTVSPost2010Prop55
280
     0
102
RTVSPost2010PropOp55
 70
     1
102
RTVSPost2010Prop56
140
1.0
102
RTVSPost2010PropOp56
 70
     1
102
RTVSPost2010Prop57
140
1.0
102
RTVSPost2010PropOp57
 70
     1
102
RTVSPropertyOp0
 70
     1
102
RTVSPropertyOp1
 70
     1
102
RTVSPropertyOp2
 70
     1
102
RTVSPropertyOp3
 70
     1
102
RTVSPropertyOp4
 70
     1
102
RTVSPropertyOp5
 70
     1
102
RTVSPropertyOp6
 70
     1
102
RTVSPropertyOp7
 70
     1
102
RTVSPropertyOp8
 70
     1
102
RTVSPropertyOp9
 70
     1
102
RTVSPropertyOp10
 70
     1
102
RTVSPropertyOp11
 70
     1
102
RTVSPropertyOp12
 70
     1
102
RTVSPropertyOp13
 70
     1
102
RTVSPropertyOp14
 70
     1
102
RTVSPropertyOp15
 70
     1
102
RTVSPropertyOp16
 70
     1
102
RTVSPropertyOp17
 70
     1
102
RTVSPropertyOp18
 70
     1
102
RTVSPropertyOp19
 70
     1
102
RTVSPropertyOp20
 70
     1
102
RTVSPropertyOp21
 70
     1
102
RTVSPropertyOp22
 70
     1
102
RTVSPropertyOp23
 70
     1
102
RTVSPropertyOp24
 70
     1
102
RTVSPropertyOp25
 70
     1
102
RTVSPropertyOp26
 70
     1
102
RTVSPropertyOp27
 70
     1
102
RTVSPropertyOp28
 70
     1
102
RTVSPropertyOp29
 70
     1
102
RTVSPropertyOp30
 70
     1
102
RTVSPropertyOp31
 70
     1
102
RTVSPropertyOp32
 70
     1
102
RTVSPropertyOp33
 70
     1
102
RTVSPropertyOp34
 70
     1
102
RTVSPropertyOp35
 70
     1
102
RTVSPropertyOp36
 70
     1
102
RTVSPropertyOp37
 70
     1
102
RTVSPropertyOp38
 70
     1
102
RTVSPropertyOp39
 70
     1
102
RTVSPropertyOp40
 70
     1
102
RTVSPropertyOp41
 70
     1
102
RTVSPropertyOp42
 70
     1
102
RTVSPropertyOp43
 70
     1
102
RTVSPropertyOp44
 70
     1
102
RTVSPropertyOp45
 70
     1
102
RTVSPropertyOp46
 70
     1
102
RTVSPropertyOp47
 70
     1
102
RTVSPropertyOp48
 70
     1
102
RTVSPropertyOp49
 70
     1
102
RTVSPropertyOp50
 70
     1
102
RTVSPropertyOp51
 70
     0
102
RTVSPropertyOp52
 70
     0
102
RTVSPropertyOp53
 70
     1
102
RTVSPropertyOp54
 70
     1
102
RTVSPropertyOp55
 70
     1
102
RTVSPropertyOp56
 70
     1
102
RTVSPropertyOp57
 70
     1
102
RTVSPropertyOp58
 70
     1
102
RTVSPropertyOp59
 70
     1
102
RTVSPropertyOp60
 70
     1
102
RTVSPropertyOp61
 70
     1
102
RTVSPropertyOp62
 70
     1
  0
XRECORD
  5
3BF
102
{ACAD_REACTORS
330
3BE
102
}
330
3BE
100
AcDbXrecord
280
     1
102
RTVSPost2010Prop28
280
     0
102
RTVSPost2010PropOp28
 70
     1
102
RTVSPost2010Prop29
280
     1
102
RTVSPost2010PropOp29
 70
     1
102
RTVSPost2010Prop30
280
     1
102
RTVSPost2010PropOp30
 70
     1
102
RTVSPost2010Prop31
280
     0
102
RTVSPost2010PropOp31
 70
     1
102
RTVSPost2010Prop32
280
     0
102
RTVSPost2010PropOp32
 70
     1
102
RTVSPost2010Prop33
280
     0
102
RTVSPost2010PropOp33
 70
     1
102
RTVSPost2010Prop34
280
     0
102
RTVSPost2010PropOp34
 70
     1
102
RTVSPost2010Prop35
280
     0
102
RTVSPost2010PropOp35
 70
     1
102
RTVSPost2010Prop36
280
     0
102
RTVSPost2010PropOp36
 70
     1
102
RTVSPost2010Prop37
 90
       50
102
RTVSPost2010PropOp37
 70
     1
102
RTVSPost2010Prop38
140
0.0
102
RTVSPost2010PropOp38
 70
     1
102
RTVSPost2010Prop39
140
1.0
102
RTVSPost2010PropOp39
 70
     1
102
RTVSPost2010Prop40
 90
        0
102
RTVSPost2010PropOp40
 70
     1
102
RTVSPost2010Prop41ColorIndex
 90
       18
102
RTVSPost2010Prop41ColorRGB
 90
        0
102
RTVSPost2010PropOp41
 70
     1
102
RTVSPost2010Prop42
 90
       50
102
RTVSPost2010PropOp42
 70
     1
102
RTVSPost2010Prop43
 90
        3
102
RTVSPost2010PropOp43
 70
     1
102
RTVSPost2010Prop44ColorIndex
 90
        5
102
RTVSPost2010Prop44ColorRGB
 90
      255
102
RTVSPost2010PropOp44
 70
     1
102
RTVSPost2010Prop45
280
     0
102
RTVSPost2010PropOp45
 70
     1
102
RTVSPost2010Prop46
 90
       50
102
RTVSPost2010PropOp46
 70
     1
102
RTVSPost2010Prop47
 90
       50
102
RTVSPost2010PropOp47
 70
     1
102
RTVSPost2010Prop48
 90
       50
102
RTVSPost2010PropOp48
 70
     1
102
RTVSPost2010Prop49
280
     0
102
RTVSPost2010PropOp49
 70
     1
102
RTVSPost2010Prop50
 90
       50
102
RTVSPost2010PropOp50
 70
     1
102
RTVSPost2010Prop51ColorIndex
 90
      256
102
RTVSPost2010Prop51ColorRGB
 90
-16777216
102
RTVSPost2010PropOp51
 70
     0
102
RTVSPost2010Prop52
140
1.0
102
RTVSPost2010PropOp52
 70
     0
102
RTVSPost2010Prop53
 90
        2
102
RTVSPost2010PropOp53
 70
     1
102
RTVSPost2010Prop54
  1
strokes_ogs.tif
102
RTVSPost2010PropOp54
 70
     1
102
RTVSPost2010Prop55
280
     0
102
RTVSPost2010PropOp55
 70
     1
102
RTVSPost2010Prop56
140
1.0
102
RTVSPost2010PropOp56
 70
     1
102
RTVSPost2010Prop57
140
1.0
102
RTVSPost2010PropOp57
 70
     1
102
RTVSPropertyOp0
 70
     1
102
RTVSPropertyOp1
 70
     1
102
RTVSPropertyOp2
 70
     1
102
RTVSPropertyOp3
 70
     1
102
RTVSPropertyOp4
 70
     1
102
RTVSPropertyOp5
 70
     1
102
RTVSPropertyOp6
 70
     1
102
RTVSPropertyOp7
 70
     1
102
RTVSPropertyOp8
 70
     1
102
RTVSPropertyOp9
 70
     1
102
RTVSPropertyOp10
 70
     1
102
RTVSPropertyOp11
 70
     1
102
RTVSPropertyOp12
 70
     1
102
RTVSPropertyOp13
 70
     1
102
RTVSPropertyOp14
 70
     1
102
RTVSPropertyOp15
 70
     1
102
RTVSPropertyOp16
 70
     1
102
RTVSPropertyOp17
 70
     1
102
RTVSPropertyOp18
 70
     1
102
RTVSPropertyOp19
 70
     1
102
RTVSPropertyOp20
 70
     1
102
RTVSPropertyOp21
 70
     1
102
RTVSPropertyOp22
 70
     1
102
RTVSPropertyOp23
 70
     1
102
RTVSPropertyOp24
 70
     1
102
RTVSPropertyOp25
 70
     1
102
RTVSPropertyOp26
 70
     1
102
RTVSPropertyOp27
 70
     1
102
RTVSPropertyOp28
 70
     1
102
RTVSPropertyOp29
 70
     1
102
RTVSPropertyOp30
 70
     1
102
RTVSPropertyOp31
 70
     1
102
RTVSPropertyOp32
 70
     1
102
RTVSPropertyOp33
 70
     1
102
RTVSPropertyOp34
 70
     1
102
RTVSPropertyOp35
 70
     1
102
RTVSPropertyOp36
 70
     1
102
RTVSPropertyOp37
 70
     1
102
RTVSPropertyOp38
 70
     1
102
RTVSPropertyOp39
 70
     1
102
RTVSPropertyOp40
 70
     1
102
RTVSPropertyOp41
 70
     1
102
RTVSPropertyOp42
 70
     1
102
RTVSPropertyOp43
 70
     1
102
RTVSPropertyOp44
 70
     1
102
RTVSPropertyOp45
 70
     1
102
RTVSPropertyOp46
 70
     1
102
RTVSPropertyOp47
 70
     1
102
RTVSPropertyOp48
 70
     1
102
RTVSPropertyOp49
 70
     1
102
RTVSPropertyOp50
 70
     1
102
RTVSPropertyOp51
 70
     0
102
RTVSPropertyOp52
 70
     0
102
RTVSPropertyOp53
 70
     1
102
RTVSPropertyOp54
 70
     1
102
RTVSPropertyOp55
 70
     1
102
RTVSPropertyOp56
 70
     1
102
RTVSPropertyOp57
 70
     1
102
RTVSPropertyOp58
 70
     1
102
RTVSPropertyOp59
 70
     1
102
RTVSPropertyOp60
 70
     1
102
RTVSPropertyOp61
 70
     1
102
RTVSPropertyOp62
 70
     1
  0
XRECORD
  5
3DF
102
{ACAD_REACTORS
330
3DE
102
}
330
3DE
100
AcDbXrecord
280
     1
102
RTVSPost2010Prop28
280
     0
102
RTVSPost2010PropOp28
 70
     1
102
RTVSPost2010Prop29
280
     1
102
RTVSPost2010PropOp29
 70
     1
102
RTVSPost2010Prop30
280
     1
102
RTVSPost2010PropOp30
 70
     1
102
RTVSPost2010Prop31
280
     0
102
RTVSPost2010PropOp31
 70
     1
102
RTVSPost2010Prop32
280
     0
102
RTVSPost2010PropOp32
 70
     1
102
RTVSPost2010Prop33
280
     0
102
RTVSPost2010PropOp33
 70
     1
102
RTVSPost2010Prop34
280
     0
102
RTVSPost2010PropOp34
 70
     1
102
RTVSPost2010Prop35
280
     0
102
RTVSPost2010PropOp35
 70
     1
102
RTVSPost2010Prop36
280
     0
102
RTVSPost2010PropOp36
 70
     1
102
RTVSPost2010Prop37
 90
       50
102
RTVSPost2010PropOp37
 70
     1
102
RTVSPost2010Prop38
140
0.0
102
RTVSPost2010PropOp38
 70
     1
102
RTVSPost2010Prop39
140
1.0
102
RTVSPost2010PropOp39
 70
     1
102
RTVSPost2010Prop40
 90
        0
102
RTVSPost2010PropOp40
 70
     1
102
RTVSPost2010Prop41ColorIndex
 90
       18
102
RTVSPost2010Prop41ColorRGB
 90
        0
102
RTVSPost2010PropOp41
 70
     1
102
RTVSPost2010Prop42
 90
       50
102
RTVSPost2010PropOp42
 70
     1
102
RTVSPost2010Prop43
 90
        3
102
RTVSPost2010PropOp43
 70
     1
102
RTVSPost2010Prop44ColorIndex
 90
        5
102
RTVSPost2010Prop44ColorRGB
 90
      255
102
RTVSPost2010PropOp44
 70
     1
102
RTVSPost2010Prop45
280
     0
102
RTVSPost2010PropOp45
 70
     1
102
RTVSPost2010Prop46
 90
       50
102
RTVSPost2010PropOp46
 70
     1
102
RTVSPost2010Prop47
 90
       50
102
RTVSPost2010PropOp47
 70
     1
102
RTVSPost2010Prop48
 90
       50
102
RTVSPost2010PropOp48
 70
     1
102
RTVSPost2010Prop49
280
     0
102
RTVSPost2010PropOp49
 70
     1
102
RTVSPost2010Prop50
 90
       50
102
RTVSPost2010PropOp50
 70
     1
102
RTVSPost2010Prop51ColorIndex
 90
      256
102
RTVSPost2010Prop51ColorRGB
 90
-16777216
102
RTVSPost2010PropOp51
 70
     0
102
RTVSPost2010Prop52
140
1.0
102
RTVSPost2010PropOp52
 70
     0
102
RTVSPost2010Prop53
 90
        2
102
RTVSPost2010PropOp53
 70
     1
102
RTVSPost2010Prop54
  1
strokes_ogs.tif
102
RTVSPost2010PropOp54
 70
     1
102
RTVSPost2010Prop55
280
     0
102
RTVSPost2010PropOp55
 70
     1
102
RTVSPost2010Prop56
140
1.0
102
RTVSPost2010PropOp56
 70
     1
102
RTVSPost2010Prop57
140
1.0
102
RTVSPost2010PropOp57
 70
     1
102
RTVSPropertyOp0
 70
     1
102
RTVSPropertyOp1
 70
     1
102
RTVSPropertyOp2
 70
     1
102
RTVSPropertyOp3
 70
     1
102
RTVSPropertyOp4
 70
     1
102
RTVSPropertyOp5
 70
     1
102
RTVSPropertyOp6
 70
     1
102
RTVSPropertyOp7
 70
     1
102
RTVSPropertyOp8
 70
     1
102
RTVSPropertyOp9
 70
     1
102
RTVSPropertyOp10
 70
     1
102
RTVSPropertyOp11
 70
     1
102
RTVSPropertyOp12
 70
     1
102
RTVSPropertyOp13
 70
     1
102
RTVSPropertyOp14
 70
     1
102
RTVSPropertyOp15
 70
     1
102
RTVSPropertyOp16
 70
     1
102
RTVSPropertyOp17
 70
     1
102
RTVSPropertyOp18
 70
     1
102
RTVSPropertyOp19
 70
     1
102
RTVSPropertyOp20
 70
     1
102
RTVSPropertyOp21
 70
     1
102
RTVSPropertyOp22
 70
     1
102
RTVSPropertyOp23
 70
     1
102
RTVSPropertyOp24
 70
     1
102
RTVSPropertyOp25
 70
     1
102
RTVSPropertyOp26
 70
     1
102
RTVSPropertyOp27
 70
     1
102
RTVSPropertyOp28
 70
     1
102
RTVSPropertyOp29
 70
     1
102
RTVSPropertyOp30
 70
     1
102
RTVSPropertyOp31
 70
     1
102
RTVSPropertyOp32
 70
     1
102
RTVSPropertyOp33
 70
     1
102
RTVSPropertyOp34
 70
     1
102
RTVSPropertyOp35
 70
     1
102
RTVSPropertyOp36
 70
     1
102
RTVSPropertyOp37
 70
     1
102
RTVSPropertyOp38
 70
     1
102
RTVSPropertyOp39
 70
     1
102
RTVSPropertyOp40
 70
     1
102
RTVSPropertyOp41
 70
     1
102
RTVSPropertyOp42
 70
     1
102
RTVSPropertyOp43
 70
     1
102
RTVSPropertyOp44
 70
     1
102
RTVSPropertyOp45
 70
     1
102
RTVSPropertyOp46
 70
     1
102
RTVSPropertyOp47
 70
     1
102
RTVSPropertyOp48
 70
     1
102
RTVSPropertyOp49
 70
     1
102
RTVSPropertyOp50
 70
     1
102
RTVSPropertyOp51
 70
     0
102
RTVSPropertyOp52
 70
     0
102
RTVSPropertyOp53
 70
     1
102
RTVSPropertyOp54
 70
     1
102
RTVSPropertyOp55
 70
     1
102
RTVSPropertyOp56
 70
     1
102
RTVSPropertyOp57
 70
     1
102
RTVSPropertyOp58
 70
     1
102
RTVSPropertyOp59
 70
     1
102
RTVSPropertyOp60
 70
     1
102
RTVSPropertyOp61
 70
     1
102
RTVSPropertyOp62
 70
     1
  0
ENDSEC
  0
EOF
