  0
SECTION
  2
HEADER
  9
$ACADVER
  1
AC1018
  9
$ACADMAINTVER
 70
   104
  9
$DWGCODEPAGE
  3
ANSI_1250
  9
$LASTSAVEDBY
  1
hm1535
  9
$INSBASE
 10
0.0
 20
0.0
 30
0.0
  9
$EXTMIN
 10
186.7855743333333
 20
21.404126
 30
0.0
  9
$EXTMAX
 10
587.478648
 20
405.7652486666667
 30
0.0
  9
$LIMMIN
 10
-0.5
 20
-0.5
  9
$LIMMAX
 10
5.0
 20
5.0
  9
$ORTHOMODE
 70
     0
  9
$REGENMODE
 70
     1
  9
$FILLMODE
 70
     1
  9
$QTEXTMODE
 70
     0
  9
$MIRRTEXT
 70
     1
  9
$LTSCALE
 40
1.0
  9
$ATTMODE
 70
     1
  9
$TEXTSIZE
 40
0.2
  9
$TRACEWID
 40
0.05
  9
$TEXTSTYLE
  7
Standard
  9
$CLAYER
  8
0
  9
$CELTYPE
  6
ByLayer
  9
$CECOLOR
 62
   256
  9
$CELTSCALE
 40
1.0
  9
$DISPSILH
 70
     0
  9
$DIMSCALE
 40
1.0
  9
$DIMASZ
 40
0.18
  9
$DIMEXO
 40
0.0625
  9
$DIMDLI
 40
0.38
  9
$DIMRND
 40
0.0
  9
$DIMDLE
 40
0.0
  9
$DIMEXE
 40
0.18
  9
$DIMTP
 40
0.0
  9
$DIMTM
 40
0.0
  9
$DIMTXT
 40
0.18
  9
$DIMCEN
 40
0.09
  9
$DIMTSZ
 40
0.0
  9
$DIMTOL
 70
     0
  9
$DIMLIM
 70
     0
  9
$DIMTIH
 70
     1
  9
$DIMTOH
 70
     1
  9
$DIMSE1
 70
     0
  9
$DIMSE2
 70
     0
  9
$DIMTAD
 70
     0
  9
$DIMZIN
 70
     0
  9
$DIMBLK
  1

  9
$DIMASO
 70
     1
  9
$DIMSHO
 70
     1
  9
$DIMPOST
  1

  9
$DIMAPOST
  1

  9
$DIMALT
 70
     0
  9
$DIMALTD
 70
     2
  9
$DIMALTF
 40
25.4
  9
$DIMLFAC
 40
1.0
  9
$DIMTOFL
 70
     0
  9
$DIMTVP
 40
0.0
  9
$DIMTIX
 70
     0
  9
$DIMSOXD
 70
     0
  9
$DIMSAH
 70
     0
  9
$DIMBLK1
  1

  9
$DIMBLK2
  1

  9
$DIMSTYLE
  2
Standard
  9
$DIMCLRD
 70
     0
  9
$DIMCLRE
 70
     0
  9
$DIMCLRT
 70
     0
  9
$DIMTFAC
 40
1.0
  9
$DIMGAP
 40
0.09
  9
$DIMJUST
 70
     0
  9
$DIMSD1
 70
     0
  9
$DIMSD2
 70
     0
  9
$DIMTOLJ
 70
     1
  9
$DIMTZIN
 70
     0
  9
$DIMALTZ
 70
     0
  9
$DIMALTTZ
 70
     0
  9
$DIMUPT
 70
     0
  9
$DIMDEC
 70
     4
  9
$DIMTDEC
 70
     4
  9
$DIMALTU
 70
     2
  9
$DIMALTTD
 70
     2
  9
$DIMTXSTY
  7
Standard
  9
$DIMAUNIT
 70
     0
  9
$DIMADEC
 70
     0
  9
$DIMALTRND
 40
0.0
  9
$DIMAZIN
 70
     0
  9
$DIMDSEP
 70
    46
  9
$DIMATFIT
 70
     3
  9
$DIMFRAC
 70
     0
  9
$DIMLDRBLK
  1

  9
$DIMLUNIT
 70
     2
  9
$DIMLWD
 70
    -2
  9
$DIMLWE
 70
    -2
  9
$DIMTMOVE
 70
     0
  9
$LUNITS
 70
     2
  9
$LUPREC
 70
     2
  9
$SKETCHINC
 40
0.1
  9
$FILLETRAD
 40
0.5
  9
$AUNITS
 70
     0
  9
$AUPREC
 70
     0
  9
$MENU
  1
.
  9
$ELEVATION
 40
0.0
  9
$PELEVATION
 40
0.0
  9
$THICKNESS
 40
0.0
  9
$LIMCHECK
 70
     0
  9
$CHAMFERA
 40
0.0
  9
$CHAMFERB
 40
0.0
  9
$CHAMFERC
 40
0.0
  9
$CHAMFERD
 40
0.0
  9
$SKPOLY
 70
     0
  9
$TDCREATE
 40
2458866.551782407
  9
$TDUCREATE
 40
2458866.510116840
  9
$TDUPDATE
 40
2458866.552361111
  9
$TDUUPDATE
 40
2458866.510694445
  9
$TDINDWG
 40
0.0004051042
  9
$TDUSRTIMER
 40
0.0004051042
  9
$USRTIMER
 70
     1
  9
$ANGBASE
 50
0.0
  9
$ANGDIR
 70
     0
  9
$PDMODE
 70
     0
  9
$PDSIZE
 40
0.0
  9
$PLINEWID
 40
0.0
  9
$SPLFRAME
 70
     0
  9
$SPLINETYPE
 70
     6
  9
$SPLINESEGS
 70
     8
  9
$HANDSEED
  5
392
  9
$SURFTAB1
 70
     6
  9
$SURFTAB2
 70
     6
  9
$SURFTYPE
 70
     6
  9
$SURFU
 70
     6
  9
$SURFV
 70
     6
  9
$UCSBASE
  2

  9
$UCSNAME
  2

  9
$UCSORG
 10
250.174849
 20
366.008075
 30
0.0
  9
$UCSXDIR
 10
1.0
 20
0.0
 30
0.0
  9
$UCSYDIR
 10
0.0
 20
1.0
 30
0.0
  9
$UCSORTHOREF
  2

  9
$UCSORTHOVIEW
 70
     0
  9
$UCSORGTOP
 10
0.0
 20
0.0
 30
0.0
  9
$UCSORGBOTTOM
 10
0.0
 20
0.0
 30
0.0
  9
$UCSORGLEFT
 10
0.0
 20
0.0
 30
0.0
  9
$UCSORGRIGHT
 10
0.0
 20
0.0
 30
0.0
  9
$UCSORGFRONT
 10
0.0
 20
0.0
 30
0.0
  9
$UCSORGBACK
 10
0.0
 20
0.0
 30
0.0
  9
$PUCSBASE
  2

  9
$PUCSNAME
  2

  9
$PUCSORG
 10
0.0
 20
0.0
 30
0.0
  9
$PUCSXDIR
 10
1.0
 20
0.0
 30
0.0
  9
$PUCSYDIR
 10
0.0
 20
1.0
 30
0.0
  9
$PUCSORTHOREF
  2

  9
$PUCSORTHOVIEW
 70
     0
  9
$PUCSORGTOP
 10
0.0
 20
0.0
 30
0.0
  9
$PUCSORGBOTTOM
 10
0.0
 20
0.0
 30
0.0
  9
$PUCSORGLEFT
 10
0.0
 20
0.0
 30
0.0
  9
$PUCSORGRIGHT
 10
0.0
 20
0.0
 30
0.0
  9
$PUCSORGFRONT
 10
0.0
 20
0.0
 30
0.0
  9
$PUCSORGBACK
 10
0.0
 20
0.0
 30
0.0
  9
$USERI1
 70
     0
  9
$USERI2
 70
     0
  9
$USERI3
 70
     0
  9
$USERI4
 70
     0
  9
$USERI5
 70
     0
  9
$USERR1
 40
0.0
  9
$USERR2
 40
0.0
  9
$USERR3
 40
0.0
  9
$USERR4
 40
0.0
  9
$USERR5
 40
0.0
  9
$WORLDVIEW
 70
     1
  9
$SHADEDGE
 70
     3
  9
$SHADEDIF
 70
    70
  9
$TILEMODE
 70
     1
  9
$MAXACTVP
 70
    64
  9
$PINSBASE
 10
0.0
 20
0.0
 30
0.0
  9
$PLIMCHECK
 70
     0
  9
$PEXTMIN
 10
-0.5
 20
-0.5
 30
-0.5
  9
$PEXTMAX
 10
5.0
 20
5.0
 30
5.0
  9
$PLIMMIN
 10
-0.5
 20
-0.5
  9
$PLIMMAX
 10
5.0
 20
5.0
  9
$UNITMODE
 70
     0
  9
$VISRETAIN
 70
     1
  9
$PLINEGEN
 70
     0
  9
$PSLTSCALE
 70
     1
  9
$TREEDEPTH
 70
  3020
  9
$CMLSTYLE
  2
Standard
  9
$CMLJUST
 70
     0
  9
$CMLSCALE
 40
1.0
  9
$PROXYGRAPHICS
 70
     1
  9
$MEASUREMENT
 70
     1
  9
$CELWEIGHT
370
    13
  9
$ENDCAPS
280
     0
  9
$JOINSTYLE
280
     0
  9
$LWDISPLAY
290
     0
  9
$INSUNITS
 70
     4
  9
$HYPERLINKBASE
  1

  9
$STYLESHEET
  1

  9
$XEDIT
290
     1
  9
$CEPSNTYPE
380
     0
  9
$PSTYLEMODE
290
     1
  9
$FINGERPRINTGUID
  2
{AB68F539-4A1A-4C98-9D32-76A36B521508}
  9
$VERSIONGUID
  2
{9ABFF554-6595-DB4B-A9D5-C35831220B2E}
  9
$EXTNAMES
290
     1
  9
$PSVPSCALE
 40
0.0
  9
$OLESTARTUP
290
     0
  9
$SORTENTS
280
   127
  9
$INDEXCTL
280
     0
  9
$HIDETEXT
280
     1
  9
$XCLIPFRAME
290
     0
  9
$HALOGAP
280
     0
  9
$OBSCOLOR
 70
   257
  9
$OBSLTYPE
280
     0
  9
$INTERSECTIONDISPLAY
280
     0
  9
$INTERSECTIONCOLOR
 70
   257
  9
$DIMASSOC
280
     2
  9
$PROJECTNAME
  1

  0
ENDSEC
  0
SECTION
  2
CLASSES
  0
CLASS
  1
ACDBDICTIONARYWDFLT
  2
AcDbDictionaryWithDefault
  3
ObjectDBX Classes
 90
        0
 91
        1
280
     0
281
     0
  0
CLASS
  1
VISUALSTYLE
  2
AcDbVisualStyle
  3
ObjectDBX Classes
 90
     4095
 91
       24
280
     0
281
     0
  0
CLASS
  1
MATERIAL
  2
AcDbMaterial
  3
ObjectDBX Classes
 90
     1153
 91
        3
280
     0
281
     0
  0
CLASS
  1
SCALE
  2
AcDbScale
  3
ObjectDBX Classes
 90
     1153
 91
       33
280
     0
281
     0
  0
CLASS
  1
TABLESTYLE
  2
AcDbTableStyle
  3
ObjectDBX Classes
 90
     4095
 91
        1
280
     0
281
     0
  0
CLASS
  1
MLEADERSTYLE
  2
AcDbMLeaderStyle
  3
ACDB_MLEADERSTYLE_CLASS
 90
     4095
 91
        1
280
     0
281
     0
  0
CLASS
  1
SUN
  2
AcDbSun
  3
SCENEOE
 90
     1153
 91
        0
280
     0
281
     0
  0
CLASS
  1
IMAGEDEF
  2
AcDbRasterImageDef
  3
ISM
 90
        0
 91
        1
280
     0
281
     0
  0
CLASS
  1
IMAGE
  2
AcDbRasterImage
  3
ISM
 90
     2175
 91
        1
280
     0
281
     1
  0
CLASS
  1
IMAGEDEF_REACTOR
  2
AcDbRasterImageDefReactor
  3
ISM
 90
        1
 91
        1
280
     0
281
     0
  0
CLASS
  1
DIMASSOC
  2
AcDbDimAssoc
  3
"AcDbDimAssoc|Product Desc:     AcDim ARX App For Dimension|Company:          Autodesk, Inc.|WEB Address:      www.autodesk.com"
 90
        0
 91
        6
280
     0
281
     0
  0
CLASS
  1
DICTIONARYVAR
  2
AcDbDictionaryVar
  3
ObjectDBX Classes
 90
        0
 91
        8
280
     0
281
     0
  0
CLASS
  1
CELLSTYLEMAP
  2
AcDbCellStyleMap
  3
ObjectDBX Classes
 90
     1152
 91
        2
280
     0
281
     0
  0
CLASS
  1
ACDBSECTIONVIEWSTYLE
  2
AcDbSectionViewStyle
  3
ObjectDBX Classes
 90
     1025
 91
        2
280
     0
281
     0
  0
CLASS
  1
ACDBDETAILVIEWSTYLE
  2
AcDbDetailViewStyle
  3
ObjectDBX Classes
 90
     1025
 91
        2
280
     0
281
     0
  0
CLASS
  1
RASTERVARIABLES
  2
AcDbRasterVariables
  3
ISM
 90
        0
 91
        1
280
     0
281
     0
  0
CLASS
  1
AMGSETTINGSOBJ
  2
AmgSettingsObj
  3
"AcadM|Product Description: AutoCAD Mechanical|Company: Autodesk, Inc."
 90
     1024
 91
        2
280
     0
281
     0
  0
CLASS
  1
ACME_DOCUMENT
  2
AcMeDbDoc
  3
AcMeServices
 90
     1024
 91
        1
280
     0
281
     0
  0
CLASS
  1
ACMESCOPE
  2
AcMeScope
  3
AcMeServices
 90
     1024
 91
        1
280
     0
281
     0
  0
CLASS
  1
ACMECOMMANDHISTORY
  2
AcMeCommandHistory
  3
AcMeServices
 90
     1024
 91
        1
280
     0
281
     0
  0
CLASS
  1
ACIMSYSVARMAN
  2
AcImSysVarManager
  3
AcMeServices
 90
     1024
 91
        3
280
     0
281
     0
  0
CLASS
  1
ACIMINTSYSVAR
  2
AcImIntSysVar
  3
AcMeServices
 90
     1024
 91
        2
280
     0
281
     0
  0
CLASS
  1
ACMESTATEMGR
  2
AcMeStateMgr
  3
AcMeServices
 90
     1024
 91
        1
280
     0
281
     0
  0
CLASS
  1
ACDBENTITYCACHE
  2
AcMeEntityCache
  3
AcMeServices
 90
     1024
 91
        1
280
     0
281
     0
  0
CLASS
  1
ACGREFMASTER
  2
AcGrefMaster
  3
AcAttribServices
 90
     1024
 91
        1
280
     0
281
     0
  0
CLASS
  1
ACME_DATABASE
  2
AcMeDbDatabase
  3
AcMeServices
 90
     1024
 91
        1
280
     0
281
     0
  0
CLASS
  1
ACRFINSADJUSTERMGR
  2
AcRfInsAdjusterMgr
  3
AcMeServices
 90
     1024
 91
        1
280
     0
281
     0
  0
CLASS
  1
ACGREFACADMASTER
  2
AcGrefacadMaster
  3
AcGrefServices
 90
     1024
 91
        1
280
     0
281
     0
  0
CLASS
  1
AMIMASTER
  2
AmiMaster
  3
AmiServices
 90
     1024
 91
        1
280
     0
281
     0
  0
CLASS
  1
AMDTMENUSTATEMGR
  2
AmdtMenuStateMgr
  3
McadcomServices
 90
     1024
 91
        1
280
     0
281
     0
  0
CLASS
  1
AMDTMCOMMENUSTATE
  2
AmdtMcomMenuState
  3
McadcomServices
 90
     1024
 91
        1
280
     0
281
     0
  0
CLASS
  1
MAPIAMMOUDLE
  2
MApiAmModule
  3
MApiAmServices
 90
     1024
 91
        1
280
     0
281
     0
  0
CLASS
  1
ACIMSTRSYSVAR
  2
AcImStrSysVar
  3
AcMeServices
 90
     1024
 91
        5
280
     0
281
     0
  0
CLASS
  1
AMDTAMMENUSTATE
  2
AmdtAmMenuState
  3
DesignerAssemblies_arx
 90
     1024
 91
        1
280
     0
281
     0
  0
CLASS
  1
ACAMPROJECT
  2
AcAmProject
  3
DesignerAssemblies
 90
     1024
 91
        1
280
     0
281
     0
  0
CLASS
  1
ACAMGRCOMPDEF
  2
AcAmGrCompDef
  3
DesignerAssemblies
 90
     1024
 91
        1
280
     0
281
     0
  0
CLASS
  1
ACAMCOMPDEF
  2
AcAmCompDef
  3
DesignerAssemblies
 90
     1024
 91
        1
280
     0
281
     0
  0
CLASS
  1
ACAMCOMPDEFMGR
  2
AcAmCompDefMgr
  3
DesignerAssemblies
 90
     1024
 91
        1
280
     0
281
     0
  0
CLASS
  1
AMCONTEXTMGR
  2
AcAmContextMgr
  3
DesignerAssemblies
 90
     1024
 91
        1
280
     0
281
     0
  0
CLASS
  1
ACAMCONTEXTMODELER
  2
AcAmContextModeler
  3
DesignerAssemblies
 90
     1024
 91
        1
280
     0
281
     0
  0
CLASS
  1
ACMDATADICTIONARY
  2
AcmDataDictionary
  3
"AcmSymBB|Product Description: AutoCAD Mechanical|Company: Autodesk, Inc."
 90
     1024
 91
        1
280
     0
281
     0
  0
CLASS
  1
ACAMGRCOMPDEFSET
  2
AcAmGrCompDefSet
  3
DesignerAssemblies
 90
     1024
 91
        1
280
     0
281
     0
  0
CLASS
  1
AMDTBROWSERDBTAB
  2
AmdtBrowserDbTab
  3
McadcomServices
 90
     1024
 91
        1
280
     0
281
     0
  0
CLASS
  1
CBROWSERAPPOBJECT
  2
CBrowserAppObject
  3
McadcomServices
 90
     1024
 91
        2
280
     0
281
     0
  0
CLASS
  1
DM_PLACEHOLDER
  2
AcDmSelsetPlaceholder
  3
McadcomServices
 90
     1024
 91
        1
280
     0
281
     0
  0
CLASS
  1
ACMSTANDARDISO
  2
AcmStandardISO
  3
"Amdt_StdImp|Product Description: AutoCAD Mechanical|Company: Autodesk, Inc."
 90
     1024
 91
        1
280
     0
281
     0
  0
CLASS
  1
AMDTEDGESTANDARDISO13715
  2
AmdtEdgeStdISO13715
  3
"Amdt_StdImp|Product Description: AutoCAD Mechanical|Company: Autodesk, Inc."
 90
     1024
 91
        1
280
     0
281
     0
  0
CLASS
  1
ACMSURFSTANDARDISO2002
  2
AcmSurfTextStdISO2002
  3
"Amdt_StdImp|Product Description: AutoCAD Mechanical|Company: Autodesk, Inc."
 90
     1024
 91
        1
280
     0
281
     0
  0
CLASS
  1
ACMFCFSTANDARDISO2012
  2
AcmFCFStdISO2012
  3
"Amdt_StdImp|Product Description: AutoCAD Mechanical|Company: Autodesk, Inc."
 90
     1024
 91
        1
280
     0
281
     0
  0
CLASS
  1
ACMWELDSTANDARDISO
  2
AcmWeldingStdISO
  3
"Amdt_StdImp|Product Description: AutoCAD Mechanical|Company: Autodesk, Inc."
 90
     1024
 91
        1
280
     0
281
     0
  0
CLASS
  1
ACMIDSTANDARDISO2012
  2
AcmIdStdISO2012
  3
"Amdt_StdImp|Product Description: AutoCAD Mechanical|Company: Autodesk, Inc."
 90
     1024
 91
        1
280
     0
281
     0
  0
CLASS
  1
ACMDATUMSTANDARDISO2012
  2
AcmDatumStdISO2012
  3
"Amdt_StdImp|Product Description: AutoCAD Mechanical|Company: Autodesk, Inc."
 90
     1024
 91
        1
280
     0
281
     0
  0
CLASS
  1
ACMBOMSTANDARDISO
  2
AcmBOMStdISO
  3
"Amdt_StdImp|Product Description: AutoCAD Mechanical|Company: Autodesk, Inc."
 90
     1024
 91
        1
280
     0
281
     0
  0
CLASS
  1
ACMDETAILSTANDARDISO
  2
AmdtDetailSymStdISO
  3
"Amdt_StdImp|Product Description: AutoCAD Mechanical|Company: Autodesk, Inc."
 90
     1024
 91
        1
280
     0
281
     0
  0
CLASS
  1
ACMSECTIONSTANDARDISO2001
  2
AmdtSectionSymStdISO2001
  3
"Amdt_StdImp|Product Description: AutoCAD Mechanical|Company: Autodesk, Inc."
 90
     1024
 91
        1
280
     0
281
     0
  0
CLASS
  1
ACMCENTERLINESTANDARDISO
  2
AmdtCenterLineStdISO
  3
"Amdt_StdImp|Product Description: AutoCAD Mechanical|Company: Autodesk, Inc."
 90
     1024
 91
        1
280
     0
281
     0
  0
CLASS
  1
ACMTHREADLINESTANDARDISO
  2
AmdtThreadLineStdISO
  3
"Amdt_StdImp|Product Description: AutoCAD Mechanical|Company: Autodesk, Inc."
 90
     1024
 91
        1
280
     0
281
     0
  0
CLASS
  1
ACMNOTESTANDARDISO
  2
AmdtNoteStdISO
  3
"Amdt_StdImp|Product Description: AutoCAD Mechanical|Company: Autodesk, Inc."
 90
     1024
 91
        1
280
     0
281
     0
  0
CLASS
  1
ACMTAPERSTANDARDISO
  2
AcmTaperStdISO
  3
"Amdt_StdImp|Product Description: AutoCAD Mechanical|Company: Autodesk, Inc."
 90
     1024
 91
        1
280
     0
281
     0
  0
CLASS
  1
ACMANOOTATIONVIEWSTANDARDISO
  2
AmdtAnViewStdISO
  3
"Amdt_StdImp|Product Description: AutoCAD Mechanical|Company: Autodesk, Inc."
 90
     1024
 91
        1
280
     0
281
     0
  0
CLASS
  1
ACAMGLAYSTD
  2
AcAmgLayStd
  3
"AmgLay|Product Description: AutoCAD Mechanical|Company: Autodesk, Inc."
 90
     1024
 91
        1
280
     0
281
     0
  0
CLASS
  1
ACAMGTITLESTD
  2
AcAmgTitleStd
  3
"AmgTitle|Product Description: AutoCAD Mechanical|Company: Autodesk, Inc."
 90
     1024
 91
        1
280
     0
281
     0
  0
CLASS
  1
ACAMGDIMSTD
  2
AcAmgDimStd
  3
"AmgDim|Product Description: AutoCAD Mechanical|Company: Autodesk, Inc."
 90
     1024
 91
        1
280
     0
281
     0
  0
CLASS
  1
AMGOBJPROPCFG
  2
AmgObjPropCfg
  3
"AmgLay|Product Description: AutoCAD Mechanical|Company: Autodesk, Inc."
 90
     1024
 91
        1
280
     0
281
     0
  0
CLASS
  1
ACAMGHOLECHARTSTDISO
  2
AcAmgHoleChartStdISO
  3
"AmgDim" "Product Description: AutoCAD Mechanical|Company: Autodesk, Inc."
 90
     1024
 91
        1
280
     0
281
     0
  0
CLASS
  1
ACMSECTIONSTANDARDCUSTOM
  2
AmdtSectionSymStdCustom
  3
"Amdt_StdImp|Product Description: AutoCAD Mechanical|Company: Autodesk, Inc."
 90
     1024
 91
        1
280
     0
281
     0
  0
CLASS
  1
ACMDETAILTANDARDCUSTOM
  2
AmdtDetailSymStdCustom
  3
"Amdt_StdImp|Product Description: AutoCAD Mechanical|Company: Autodesk, Inc."
 90
     1024
 91
        1
280
     0
281
     0
  0
CLASS
  1
FIELD
  2
AcDbField
  3
ObjectDBX Classes
 90
     1152
 91
        3
280
     0
281
     0
  0
CLASS
  1
FIELDLIST
  2
AcDbFieldList
  3
ObjectDBX Classes
 90
     1152
 91
        1
280
     0
281
     0
  0
CLASS
  1
AMDTNOTETEMPLATEDB
  2
AmdtNoteTemplateDB
  3
"AcmSymBB" "Product Description: AutoCAD Mechanical|Company: Autodesk, Inc."
 90
     1024
 91
        7
280
     0
281
     0
  0
CLASS
  1
ACAMGFILTERDAT
  2
AcAmgFilterDat
  3
"AcadM|Product Description: AutoCAD Mechanical|Company: Autodesk, Inc."
 90
     1024
 91
        6
280
     0
281
     0
  0
CLASS
  1
SORTENTSTABLE
  2
AcDbSortentsTable
  3
ObjectDBX Classes
 90
        0
 91
        1
280
     0
281
     0
  0
ENDSEC
  0
SECTION
  2
TABLES
  0
TABLE
  2
VPORT
  5
8
330
0
100
AcDbSymbolTable
 70
    16
  0
VPORT
  5
29
330
8
100
AcDbSymbolTableRecord
100
AcDbViewportTableRecord
  2
*Active
 70
     0
 10
0.0
 20
0.0
 11
1.0
 21
1.0
 12
358.2053701457712
 22
376.1454782419658
 13
0.0
 23
0.0
 14
0.5
 24
0.5
 15
0.5
 25
0.5
 16
0.0
 26
0.0
 36
1.0
 17
0.0
 27
0.0
 37
0.0
 40
205.3648966278211
 41
2.292712066905615
 42
50.0
 43
827.0201659999999
 44
-827.0201659999999
 50
0.0
 51
0.0
 71
     0
 72
   100
 73
     1
 74
     3
 75
     0
 76
     0
 77
     0
 78
     0
281
     0
 65
     0
110
0.0
120
0.0
130
0.0
111
1.0
121
0.0
131
0.0
112
0.0
122
1.0
132
0.0
 79
     0
146
0.0
1001
ACAD_NAV_VCDISPLAY
1070
     3
  0
VPORT
  5
216
330
8
100
AcDbSymbolTableRecord
100
AcDbViewportTableRecord
  2
L1
 70
     0
 10
0.0
 20
0.0
 11
1.0
 21
1.0
 12
386.627904
 22
213.58927
 13
0.0
 23
0.0
 14
0.5
 24
0.5
 15
0.5
 25
0.5
 16
0.0
 26
0.0
 36
1.0
 17
0.0
 27
0.0
 37
0.0
 40
207.433333
 41
0.085602
 42
50.0
 43
827.0201659999999
 44
-827.0201659999999
 50
0.0
 51
0.0
 71
     0
 72
   100
 73
     1
 74
     3
 75
     0
 76
     0
 77
     0
 78
     0
281
     0
 65
     1
110
0.0
120
0.0
130
0.0
111
1.0
121
0.0
131
0.0
112
0.0
122
1.0
132
0.0
 79
     0
146
0.0
  0
VPORT
  5
217
330
8
100
AcDbSymbolTableRecord
100
AcDbViewportTableRecord
  2
L2
 70
     0
 10
0.0
 20
0.0
 11
0.5
 21
1.0
 12
0.0
 22
0.0
 13
0.0
 23
0.0
 14
0.5
 24
0.5
 15
0.5
 25
0.5
 16
0.0
 26
-1.0
 36
0.0
 17
0.0
 27
0.0
 37
0.0
 40
1478.660809
 41
0.012009
 42
50.0
 43
765.39502
 44
-765.39502
 50
0.0
 51
0.0
 71
     0
 72
   100
 73
     1
 74
     3
 75
     0
 76
     0
 77
     0
 78
     0
281
     0
 65
     1
110
0.0
120
0.0
130
0.0
111
1.0
121
0.0
131
0.0
112
0.0
122
1.0
132
0.0
 79
     0
146
0.0
  0
VPORT
  5
218
330
8
100
AcDbSymbolTableRecord
100
AcDbViewportTableRecord
  2
L2
 70
     0
 10
0.5
 20
0.0
 11
1.0
 21
1.0
 12
0.0
 22
0.0
 13
0.0
 23
0.0
 14
0.5
 24
0.5
 15
0.5
 25
0.5
 16
1.0
 26
0.0
 36
0.0
 17
0.0
 27
0.0
 37
0.0
 40
1478.660809
 41
0.012009
 42
50.0
 43
746.5698859999999
 44
-746.5698859999999
 50
0.0
 51
0.0
 71
     0
 72
   100
 73
     1
 74
     3
 75
     0
 76
     0
 77
     0
 78
     0
281
     0
 65
     1
110
0.0
120
0.0
130
0.0
111
1.0
121
0.0
131
0.0
112
0.0
122
1.0
132
0.0
 79
     0
146
0.0
  0
VPORT
  5
219
330
8
100
AcDbSymbolTableRecord
100
AcDbViewportTableRecord
  2
L3
 70
     0
 10
0.0
 20
0.5
 11
1.0
 21
1.0
 12
386.627904
 22
213.58927
 13
0.0
 23
0.0
 14
0.5
 24
0.5
 15
0.5
 25
0.5
 16
0.0
 26
0.0
 36
1.0
 17
0.0
 27
0.0
 37
0.0
 40
207.433333
 41
0.085602
 42
50.0
 43
827.0201659999999
 44
-827.0201659999999
 50
0.0
 51
0.0
 71
     0
 72
   100
 73
     1
 74
     3
 75
     0
 76
     0
 77
     0
 78
     0
281
     0
 65
     1
110
0.0
120
0.0
130
0.0
111
1.0
121
0.0
131
0.0
112
0.0
122
1.0
132
0.0
 79
     0
146
0.0
  0
VPORT
  5
21A
330
8
100
AcDbSymbolTableRecord
100
AcDbViewportTableRecord
  2
L3
 70
     0
 10
0.0
 20
0.0
 11
1.0
 21
0.5
 12
0.0
 22
0.0
 13
0.0
 23
0.0
 14
0.5
 24
0.5
 15
0.5
 25
0.5
 16
0.0
 26
-1.0
 36
0.0
 17
0.0
 27
0.0
 37
0.0
 40
1478.660809
 41
0.012009
 42
50.0
 43
765.39502
 44
-765.39502
 50
0.0
 51
0.0
 71
     0
 72
   100
 73
     1
 74
     3
 75
     0
 76
     0
 77
     0
 78
     0
281
     0
 65
     1
110
0.0
120
0.0
130
0.0
111
1.0
121
0.0
131
0.0
112
0.0
122
1.0
132
0.0
 79
     0
146
0.0
  0
VPORT
  5
21B
330
8
100
AcDbSymbolTableRecord
100
AcDbViewportTableRecord
  2
L4
 70
     0
 10
0.0
 20
0.5
 11
0.5
 21
1.0
 12
386.627904
 22
213.58927
 13
0.0
 23
0.0
 14
0.5
 24
0.5
 15
0.5
 25
0.5
 16
0.0
 26
0.0
 36
1.0
 17
0.0
 27
0.0
 37
0.0
 40
207.433333
 41
0.085602
 42
50.0
 43
827.0201659999999
 44
-827.0201659999999
 50
0.0
 51
0.0
 71
     0
 72
   100
 73
     1
 74
     3
 75
     0
 76
     0
 77
     0
 78
     0
281
     0
 65
     1
110
0.0
120
0.0
130
0.0
111
1.0
121
0.0
131
0.0
112
0.0
122
1.0
132
0.0
 79
     0
146
0.0
  0
VPORT
  5
21C
330
8
100
AcDbSymbolTableRecord
100
AcDbViewportTableRecord
  2
L4
 70
     0
 10
0.0
 20
0.0
 11
0.5
 21
0.5
 12
0.0
 22
0.0
 13
0.0
 23
0.0
 14
0.5
 24
0.5
 15
0.5
 25
0.5
 16
0.0
 26
-1.0
 36
0.0
 17
0.0
 27
0.0
 37
0.0
 40
1478.660809
 41
0.012009
 42
50.0
 43
765.39502
 44
-765.39502
 50
0.0
 51
0.0
 71
     0
 72
   100
 73
     1
 74
     3
 75
     0
 76
     0
 77
     0
 78
     0
281
     0
 65
     1
110
0.0
120
0.0
130
0.0
111
1.0
121
0.0
131
0.0
112
0.0
122
1.0
132
0.0
 79
     0
146
0.0
  0
VPORT
  5
21D
330
8
100
AcDbSymbolTableRecord
100
AcDbViewportTableRecord
  2
L4
 70
     0
 10
0.5
 20
0.0
 11
1.0
 21
0.5
 12
0.0
 22
0.0
 13
0.0
 23
0.0
 14
0.5
 24
0.5
 15
0.5
 25
0.5
 16
1.0
 26
0.0
 36
0.0
 17
0.0
 27
0.0
 37
0.0
 40
1478.660809
 41
0.012009
 42
50.0
 43
746.5698859999999
 44
-746.5698859999999
 50
0.0
 51
0.0
 71
     0
 72
   100
 73
     1
 74
     3
 75
     0
 76
     0
 77
     0
 78
     0
281
     0
 65
     1
110
0.0
120
0.0
130
0.0
111
1.0
121
0.0
131
0.0
112
0.0
122
1.0
132
0.0
 79
     0
146
0.0
  0
VPORT
  5
21E
330
8
100
AcDbSymbolTableRecord
100
AcDbViewportTableRecord
  2
L4
 70
     0
 10
0.5
 20
0.5
 11
1.0
 21
1.0
 12
0.0
 22
0.0
 13
0.0
 23
0.0
 14
0.5
 24
0.5
 15
0.5
 25
0.5
 16
0.5773502691896259
 26
-0.5773502691896259
 36
0.5773502691896259
 17
0.0
 27
0.0
 37
0.0
 40
1453.705292
 41
0.012215
 42
50.0
 43
757.5245879999999
 44
-757.5245879999999
 50
0.0
 51
0.0
 71
     0
 72
   100
 73
     1
 74
     3
 75
     0
 76
     0
 77
     0
 78
     0
281
     0
 65
     1
110
0.0
120
0.0
130
0.0
111
1.0
121
0.0
131
0.0
112
0.0
122
1.0
132
0.0
 79
     0
146
0.0
  0
VPORT
  5
21F
330
8
100
AcDbSymbolTableRecord
100
AcDbViewportTableRecord
  2
L6
 70
     0
 10
0.0
 20
0.5
 11
0.333333
 21
1.0
 12
0.0
 22
0.0
 13
0.0
 23
0.0
 14
0.5
 24
0.5
 15
0.5
 25
0.5
 16
0.7188730927569434
 26
-0.5850486126764433
 36
0.3754192287502549
 17
0.0
 27
0.0
 37
0.0
 40
1534.989881
 41
0.011568
 42
50.0
 43
794.5176169999999
 44
-794.5176169999999
 50
0.0
 51
0.0
 71
     0
 72
   100
 73
     1
 74
     3
 75
     0
 76
     0
 77
     0
 78
     0
281
     0
 65
     1
110
0.0
120
0.0
130
0.0
111
1.0
121
0.0
131
0.0
112
0.0
122
1.0
132
0.0
 79
     0
146
0.0
  0
VPORT
  5
220
330
8
100
AcDbSymbolTableRecord
100
AcDbViewportTableRecord
  2
L6
 70
     0
 10
0.0
 20
0.0
 11
0.333333
 21
0.5
 12
0.0
 22
0.0
 13
0.0
 23
0.0
 14
0.5
 24
0.5
 15
0.5
 25
0.5
 16
-1.0
 26
0.0
 36
0.0
 17
0.0
 27
0.0
 37
0.0
 40
1478.660809
 41
0.012009
 42
50.0
 43
746.5698859999999
 44
-746.5698859999999
 50
0.0
 51
0.0
 71
     0
 72
   100
 73
     1
 74
     3
 75
     0
 76
     0
 77
     0
 78
     0
281
     0
 65
     1
110
0.0
120
0.0
130
0.0
111
1.0
121
0.0
131
0.0
112
0.0
122
1.0
132
0.0
 79
     0
146
0.0
  0
VPORT
  5
221
330
8
100
AcDbSymbolTableRecord
100
AcDbViewportTableRecord
  2
L6
 70
     0
 10
0.333333
 20
0.5
 11
0.666667
 21
1.0
 12
386.627904
 22
213.58927
 13
0.0
 23
0.0
 14
0.5
 24
0.5
 15
0.5
 25
0.5
 16
0.0
 26
0.0
 36
1.0
 17
0.0
 27
0.0
 37
0.0
 40
207.433333
 41
0.085602
 42
50.0
 43
827.0201659999999
 44
-827.0201659999999
 50
0.0
 51
0.0
 71
     0
 72
   100
 73
     1
 74
     3
 75
     0
 76
     0
 77
     0
 78
     0
281
     0
 65
     1
110
0.0
120
0.0
130
0.0
111
1.0
121
0.0
131
0.0
112
0.0
122
1.0
132
0.0
 79
     0
146
0.0
  0
VPORT
  5
222
330
8
100
AcDbSymbolTableRecord
100
AcDbViewportTableRecord
  2
L6
 70
     0
 10
0.333333
 20
0.0
 11
0.666667
 21
0.5
 12
0.0
 22
0.0
 13
0.0
 23
0.0
 14
0.5
 24
0.5
 15
0.5
 25
0.5
 16
0.0
 26
-1.0
 36
0.0
 17
0.0
 27
0.0
 37
0.0
 40
1478.660809
 41
0.012009
 42
50.0
 43
765.39502
 44
-765.39502
 50
0.0
 51
0.0
 71
     0
 72
   100
 73
     1
 74
     3
 75
     0
 76
     0
 77
     0
 78
     0
281
     0
 65
     1
110
0.0
120
0.0
130
0.0
111
1.0
121
0.0
131
0.0
112
0.0
122
1.0
132
0.0
 79
     0
146
0.0
  0
VPORT
  5
223
330
8
100
AcDbSymbolTableRecord
100
AcDbViewportTableRecord
  2
L6
 70
     0
 10
0.666667
 20
0.5
 11
1.0
 21
1.0
 12
0.0
 22
0.0
 13
0.0
 23
0.0
 14
0.5
 24
0.5
 15
0.5
 25
0.5
 16
0.5773502691896259
 26
-0.5773502691896259
 36
0.5773502691896259
 17
0.0
 27
0.0
 37
0.0
 40
1453.705292
 41
0.012215
 42
50.0
 43
757.5245879999999
 44
-757.5245879999999
 50
0.0
 51
0.0
 71
     0
 72
   100
 73
     1
 74
     3
 75
     0
 76
     0
 77
     0
 78
     0
281
     0
 65
     1
110
0.0
120
0.0
130
0.0
111
1.0
121
0.0
131
0.0
112
0.0
122
1.0
132
0.0
 79
     0
146
0.0
  0
VPORT
  5
224
330
8
100
AcDbSymbolTableRecord
100
AcDbViewportTableRecord
  2
L6
 70
     0
 10
0.666667
 20
0.0
 11
1.0
 21
0.5
 12
0.0
 22
0.0
 13
0.0
 23
0.0
 14
0.5
 24
0.5
 15
0.5
 25
0.5
 16
1.0
 26
0.0
 36
0.0
 17
0.0
 27
0.0
 37
0.0
 40
1478.660809
 41
0.012009
 42
50.0
 43
746.5698859999999
 44
-746.5698859999999
 50
0.0
 51
0.0
 71
     0
 72
   100
 73
     1
 74
     3
 75
     0
 76
     0
 77
     0
 78
     0
281
     0
 65
     1
110
0.0
120
0.0
130
0.0
111
1.0
121
0.0
131
0.0
112
0.0
122
1.0
132
0.0
 79
     0
146
0.0
  0
ENDTAB
  0
TABLE
  2
LTYPE
  5
5
330
0
100
AcDbSymbolTable
 70
    19
  0
LTYPE
  5
14
330
5
100
AcDbSymbolTableRecord
100
AcDbLinetypeTableRecord
  2
ByBlock
 70
     0
  3

 72
    65
 73
     0
 40
0.0
  0
LTYPE
  5
15
330
5
100
AcDbSymbolTableRecord
100
AcDbLinetypeTableRecord
  2
ByLayer
 70
     0
  3

 72
    65
 73
     0
 40
0.0
  0
LTYPE
  5
16
330
5
100
AcDbSymbolTableRecord
100
AcDbLinetypeTableRecord
  2
Continuous
 70
     0
  3
Solid line
 72
    65
 73
     0
 40
0.0
  0
LTYPE
  5
6E
330
5
100
AcDbSymbolTableRecord
100
AcDbLinetypeTableRecord
  2
CENTER
 70
     0
  3
____ _ ____ _ ____ _ ____
 72
    65
 73
     4
 40
47.4
 49
22.0
 74
     4
 75
     0
340
0
 46
0.0
 50
0.0
 44
0.0
 45
0.0
 49
-8.5
 74
     4
 75
     0
340
0
 46
0.0
 50
0.0
 44
0.0
 45
0.0
 49
8.5
 74
     4
 75
     0
340
0
 46
0.0
 50
0.0
 44
0.0
 45
0.0
 49
-8.5
 74
     4
 75
     0
340
0
 46
0.0
 50
0.0
 44
0.0
 45
0.0
  0
LTYPE
  5
6F
330
5
100
AcDbSymbolTableRecord
100
AcDbLinetypeTableRecord
  2
DASHDOT
 70
     0
  3
_._._._._._._._._._._._._._._._.
 72
    65
 73
     4
 40
70.0
 49
31.0
 74
     4
 75
     0
340
0
 46
0.0
 50
0.0
 44
0.0
 45
0.0
 49
-13.0
 74
     4
 75
     0
340
0
 46
0.0
 50
0.0
 44
0.0
 45
0.0
 49
13.0
 74
     4
 75
     0
340
0
 46
0.0
 50
0.0
 44
0.0
 45
0.0
 49
-13.0
 74
     4
 75
     0
340
0
 46
0.0
 50
0.0
 44
0.0
 45
0.0
  0
LTYPE
  5
70
330
5
100
AcDbSymbolTableRecord
100
AcDbLinetypeTableRecord
  2
DASHED
 70
     0
  3
__ __ __ __ __ __ __ __ __
 72
    65
 73
     2
 40
25.72
 49
12.86
 74
     4
 75
     0
340
0
 46
0.0
 50
0.0
 44
0.0
 45
0.0
 49
-12.86
 74
     4
 75
     0
340
0
 46
0.0
 50
0.0
 44
0.0
 45
0.0
  0
LTYPE
  5
71
330
5
100
AcDbSymbolTableRecord
100
AcDbLinetypeTableRecord
  2
DOT
 70
     0
  3
.........................
 72
    65
 73
     2
 40
10.0
 49
0.0
 74
     4
 75
     0
340
0
 46
0.0
 50
0.0
 44
0.0
 45
0.0
 49
-10.0
 74
     4
 75
     0
340
0
 46
0.0
 50
0.0
 44
0.0
 45
0.0
  0
LTYPE
  5
72
330
5
100
AcDbSymbolTableRecord
100
AcDbLinetypeTableRecord
  2
PHANTOM
 70
     0
  3
____ _ _ ____ _ _ _____ _ _ ____
 72
    65
 73
     6
 40
50.5
 49
18.0
 74
     4
 75
     0
340
0
 46
0.0
 50
0.0
 44
0.0
 45
0.0
 49
-6.5
 74
     4
 75
     0
340
0
 46
0.0
 50
0.0
 44
0.0
 45
0.0
 49
6.5
 74
     4
 75
     0
340
0
 46
0.0
 50
0.0
 44
0.0
 45
0.0
 49
-6.5
 74
     4
 75
     0
340
0
 46
0.0
 50
0.0
 44
0.0
 45
0.0
 49
6.5
 74
     4
 75
     0
340
0
 46
0.0
 50
0.0
 44
0.0
 45
0.0
 49
-6.5
 74
     4
 75
     0
340
0
 46
0.0
 50
0.0
 44
0.0
 45
0.0
  0
LTYPE
  5
284
330
5
100
AcDbSymbolTableRecord
100
AcDbLinetypeTableRecord
  2
HIDDEN
 70
     0
  3
Hidden __ __ __ __ __ __ __ __ __ __ __ __ __ _
 72
    65
 73
     2
 40
9.524999999999998
 49
6.349999999999999
 74
     0
 49
-3.174999999999999
 74
     0
  0
LTYPE
  5
285
330
5
100
AcDbSymbolTableRecord
100
AcDbLinetypeTableRecord
  2
PHANTOM2
 70
     0
  3
Phantom (.5x) ___ _ _ ___ _ _ ___ _ _ ___ _ _
 72
    65
 73
     6
 40
31.75
 49
15.875
 74
     0
 49
-3.174999999999999
 74
     0
 49
3.174999999999999
 74
     0
 49
-3.174999999999999
 74
     0
 49
3.174999999999999
 74
     0
 49
-3.174999999999999
 74
     0
  0
LTYPE
  5
2C0
330
5
100
AcDbSymbolTableRecord
100
AcDbLinetypeTableRecord
  2
AM_ISO02W050
 70
     0
  3
__ __ __ __ __ __ __ __ __ __ __ __ __ __ __
 72
    65
 73
     2
 40
7.5
 49
6.0
 74
     0
 49
-1.5
 74
     0
  0
LTYPE
  5
2C1
330
5
100
AcDbSymbolTableRecord
100
AcDbLinetypeTableRecord
  2
AM_ISO08W050
 70
     0
  3
____ . ____ . ____ . ____ . ____ . ____ . ____
 72
    65
 73
     4
 40
18.0
 49
12.0
 74
     0
 49
-1.5
 74
     0
 49
3.0
 74
     0
 49
-1.5
 74
     0
  0
LTYPE
  5
2C2
330
5
100
AcDbSymbolTableRecord
100
AcDbLinetypeTableRecord
  2
AM_ISO09W050
 70
     0
  3
_____ . . _____ . . _____ . . ____ .. ____
 72
    65
 73
     6
 40
22.5
 49
12.0
 74
     0
 49
-1.5
 74
     0
 49
3.0
 74
     0
 49
-1.5
 74
     0
 49
3.0
 74
     0
 49
-1.5
 74
     0
  0
LTYPE
  5
2C3
330
5
100
AcDbSymbolTableRecord
100
AcDbLinetypeTableRecord
  2
Amconstr
 70
     0
  3
_______________________
 72
    65
 73
     2
 40
9999.0
 49
9999.0
 74
     0
 49
0.0
 74
     0
  0
LTYPE
  5
2C4
330
5
100
AcDbSymbolTableRecord
100
AcDbLinetypeTableRecord
  2
AM_ISO08W050x2
 70
     0
  3
__ . __ . __ . __ . __ . __
 72
    65
 73
     4
 40
9.0
 49
6.0
 74
     0
 49
-0.75
 74
     0
 49
1.5
 74
     0
 49
-0.75
 74
     0
  0
LTYPE
  5
2C5
330
5
100
AcDbSymbolTableRecord
100
AcDbLinetypeTableRecord
  2
AM_ISO02W050x2
 70
     0
  3
 _ _ _ _ _ _ _ _ _ _ _ _
 72
    65
 73
     2
 40
3.75
 49
3.0
 74
     0
 49
-0.75
 74
     0
  0
LTYPE
  5
2C8
330
5
100
AcDbSymbolTableRecord
100
AcDbLinetypeTableRecord
  2
Amzigzag
 70
     0
  3
/\/-/\/-/\/-/\/-/\/-/\/
 72
    65
 73
     2
 40
11.0001
 49
0.0001
 74
     4
 75
   136
340
2C7
 46
0.04
 50
0.0
 44
0.0
 45
0.0
 49
-11.0
 74
     0
  0
LTYPE
  5
2D8
330
5
100
AcDbSymbolTableRecord
100
AcDbLinetypeTableRecord
  2
ACISOWELD
 70
     0
  3
_ _ _ _ _
 72
    65
 73
     2
 40
2.0
 49
2.0
 74
     0
 49
-1.0
 74
     0
  0
LTYPE
  5
2D9
330
5
100
AcDbSymbolTableRecord
100
AcDbLinetypeTableRecord
  2
ACISOTGL
 70
     0
  3
_ _ _ _ _
 72
    65
 73
     2
 40
3.0
 49
2.0
 74
     0
 49
-1.0
 74
     0
  0
LTYPE
  5
2DA
330
5
100
AcDbSymbolTableRecord
100
AcDbLinetypeTableRecord
  2
ACISOTGB
 70
     0
  3
__ . . __ . .
 72
    65
 73
     6
 40
9.0
 49
4.0
 74
     0
 49
-1.0
 74
     0
 49
1.0
 74
     0
 49
-1.0
 74
     0
 49
1.0
 74
     0
 49
-1.0
 74
     0
  0
LTYPE
  5
332
330
5
100
AcDbSymbolTableRecord
100
AcDbLinetypeTableRecord
  2
CENTER2
 70
     0
  3
Center (.5x) ___ _ ___ _ ___ _ ___ _ ___ _ ___
 72
    65
 73
     4
 40
1.125
 49
0.75
 74
     0
 49
-0.125
 74
     0
 49
0.125
 74
     0
 49
-0.125
 74
     0
  0
ENDTAB
  0
TABLE
  2
LAYER
  5
2
330
0
100
AcDbSymbolTable
 70
    23
  0
LAYER
  5
10
102
{ACAD_XDICTIONARY
360
33D
102
}
330
2
100
AcDbSymbolTableRecord
100
AcDbLayerTableRecord
  2
0
 70
     0
 62
     7
  6
Continuous
370
    -3
390
F
  0
LAYER
  5
76
102
{ACAD_XDICTIONARY
360
33F
102
}
330
2
100
AcDbSymbolTableRecord
100
AcDbLayerTableRecord
  2
96
 70
     0
 62
     7
420
 16777215
  6
Continuous
370
    -3
390
F
  0
LAYER
  5
189
330
2
100
AcDbSymbolTableRecord
100
AcDbLayerTableRecord
  2
Defpoints
 70
     0
 62
     7
  6
Continuous
290
     0
370
    -3
390
F
  0
LAYER
  5
32F
102
{ACAD_XDICTIONARY
360
341
102
}
330
2
100
AcDbSymbolTableRecord
100
AcDbLayerTableRecord
  2
1
 70
     0
 62
     4
  6
Continuous
370
    -3
390
F
  0
LAYER
  5
330
102
{ACAD_XDICTIONARY
360
343
102
}
330
2
100
AcDbSymbolTableRecord
100
AcDbLayerTableRecord
  2
2
 70
     0
 62
     7
  6
Continuous
370
    -3
390
F
  0
LAYER
  5
331
102
{ACAD_XDICTIONARY
360
345
102
}
330
2
100
AcDbSymbolTableRecord
100
AcDbLayerTableRecord
  2
4
 70
     0
 62
     2
  6
CENTER2
370
    -3
390
F
  0
LAYER
  5
333
102
{ACAD_XDICTIONARY
360
347
102
}
330
2
100
AcDbSymbolTableRecord
100
AcDbLayerTableRecord
  2
SK1
 70
     0
 62
     4
  6
Continuous
370
    -3
390
F
  0
LAYER
  5
334
102
{ACAD_XDICTIONARY
360
349
102
}
330
2
100
AcDbSymbolTableRecord
100
AcDbLayerTableRecord
  2
SK2
 70
     0
 62
     7
  6
Continuous
370
    -3
390
F
  0
LAYER
  5
336
102
{ACAD_XDICTIONARY
360
34B
102
}
330
2
100
AcDbSymbolTableRecord
100
AcDbLayerTableRecord
  2
SK4
 70
     0
 62
     2
  6
CENTER2
370
    -3
390
F
  0
LAYER
  5
337
102
{ACAD_XDICTIONARY
360
34D
102
}
330
2
100
AcDbSymbolTableRecord
100
AcDbLayerTableRecord
  2
SK6
 70
     0
 62
     5
  6
Continuous
370
    -3
390
F
  0
LAYER
  5
338
102
{ACAD_XDICTIONARY
360
34F
102
}
330
2
100
AcDbSymbolTableRecord
100
AcDbLayerTableRecord
  2
CUT
 70
     0
 62
     1
  6
Continuous
370
    -3
390
F
  0
LAYER
  5
339
102
{ACAD_XDICTIONARY
360
351
102
}
330
2
100
AcDbSymbolTableRecord
100
AcDbLayerTableRecord
  2
NOCUT
 70
     0
 62
     7
  6
Continuous
370
    -3
390
F
  0
LAYER
  5
33A
102
{ACAD_XDICTIONARY
360
353
102
}
330
2
100
AcDbSymbolTableRecord
100
AcDbLayerTableRecord
  2
80
 70
     0
 62
     6
  6
Continuous
370
    -3
390
F
  0
LAYER
  5
33B
102
{ACAD_XDICTIONARY
360
355
102
}
330
2
100
AcDbSymbolTableRecord
100
AcDbLayerTableRecord
  2
81
 70
     0
 62
     3
  6
Continuous
370
    -3
390
F
  0
ENDTAB
  0
TABLE
  2
STYLE
  5
3
330
0
100
AcDbSymbolTable
 70
     6
  0
STYLE
  5
11
330
3
100
AcDbSymbolTableRecord
100
AcDbTextStyleTableRecord
  2
Standard
 70
     0
 40
0.0
 41
1.0
 50
0.0
 71
     0
 42
0.2
  3
txt
  4

  0
STYLE
  5
17D
330
3
100
AcDbSymbolTableRecord
100
AcDbTextStyleTableRecord
  2
cesky
 70
     0
 40
0.0
 41
1.0
 50
0.0
 71
     0
 42
0.2
  3
simplex.shx
  4

  0
STYLE
  5
17E
330
3
100
AcDbSymbolTableRecord
100
AcDbTextStyleTableRecord
  2
DWGDirectTextStyle
 70
     0
 40
0.0
 41
1.0
 50
0.0
 71
     0
 42
0.2
  3
simplex
  4

  0
STYLE
  5
2C7
330
3
100
AcDbSymbolTableRecord
100
AcDbTextStyleTableRecord
  2

 70
     1
 40
0.0
 41
1.0
 50
0.0
 71
     0
 42
0.2
  3
genltshp.shx
  4

  0
STYLE
  5
2D6
330
3
100
AcDbSymbolTableRecord
100
AcDbTextStyleTableRecord
  2
ACISOTS
 70
     0
 40
0.0
 41
1.0
 50
0.0
 71
     0
 42
0.2
  3
isocp.shx
  4

  0
STYLE
  5
2D7
330
3
100
AcDbSymbolTableRecord
100
AcDbTextStyleTableRecord
  2
ACISOGDT
 70
     0
 40
0.0
 41
1.0
 50
0.0
 71
     0
 42
0.2
  3
amgdt.shx
  4

  0
ENDTAB
  0
TABLE
  2
VIEW
  5
6
330
0
100
AcDbSymbolTable
 70
     0
  0
ENDTAB
  0
TABLE
  2
UCS
  5
7
330
0
100
AcDbSymbolTable
 70
     0
  0
ENDTAB
  0
TABLE
  2
APPID
  5
9
330
0
100
AcDbSymbolTable
 70
    13
  0
APPID
  5
12
330
9
100
AcDbSymbolTableRecord
100
AcDbRegAppTableRecord
  2
ACAD
 70
     0
  0
APPID
  5
185
330
9
100
AcDbSymbolTableRecord
100
AcDbRegAppTableRecord
  2
ACAD_DSTYLE_DIMBREAK
 70
     0
  0
APPID
  5
225
330
9
100
AcDbSymbolTableRecord
100
AcDbRegAppTableRecord
  2
ACAD_DSTYLE_DIM_LINETYPE
 70
     0
  0
APPID
  5
226
330
9
100
AcDbSymbolTableRecord
100
AcDbRegAppTableRecord
  2
ACAD_DSTYLE_DIM_EXT1_LINETYPE
 70
     0
  0
APPID
  5
227
330
9
100
AcDbSymbolTableRecord
100
AcDbRegAppTableRecord
  2
ACAD_DSTYLE_DIM_EXT2_LINETYPE
 70
     0
  0
APPID
  5
267
330
9
100
AcDbSymbolTableRecord
100
AcDbRegAppTableRecord
  2
ACAD_MLEADERVER
 70
     0
  0
APPID
  5
27D
330
9
100
AcDbSymbolTableRecord
100
AcDbRegAppTableRecord
  2
MCAD_NO_VIS
 70
     0
  0
APPID
  5
27E
330
9
100
AcDbSymbolTableRecord
100
AcDbRegAppTableRecord
  2
ACAD_TEMP_GRAPHIC
 70
     0
  0
APPID
  5
28A
330
9
100
AcDbSymbolTableRecord
100
AcDbRegAppTableRecord
  2
ACATTRIBSERVICES
 70
     0
  0
APPID
  5
2A2
330
9
100
AcDbSymbolTableRecord
100
AcDbRegAppTableRecord
  2
DESIGNERASSEMBLIES
 70
     0
  0
APPID
  5
2BE
330
9
100
AcDbSymbolTableRecord
100
AcDbRegAppTableRecord
  2
ACAD_DSTYLE_DIMJAG
 70
     0
  0
APPID
  5
2EA
330
9
100
AcDbSymbolTableRecord
100
AcDbRegAppTableRecord
  2
ACAD_NAV_VCDISPLAY
 70
     0
  0
APPID
  5
391
330
9
100
AcDbSymbolTableRecord
100
AcDbRegAppTableRecord
  2
ACAD_DSTYLE_DIMARC_LENGTH_SYMBOL
 70
     0
  0
ENDTAB
  0
TABLE
  2
DIMSTYLE
  5
A
330
0
100
AcDbSymbolTable
 70
     8
100
AcDbDimStyleTable
 71
     0
  0
DIMSTYLE
105
27
330
A
100
AcDbSymbolTableRecord
100
AcDbDimStyleTableRecord
  2
Standard
 70
     0
340
11
1001
ACAD_DSTYLE_DIMBREAK
1070
   391
1040
6.349999999999999
  0
DIMSTYLE
105
2BD
102
{ACAD_REACTORS
330
2AB
102
}
330
A
100
AcDbSymbolTableRecord
100
AcDbDimStyleTableRecord
  2
AM_ISO
 70
     0
  4
"
 41
3.5
 42
1.0
 43
10.0
 44
1.0
 47
0.1
 48
0.1
 73
     0
 74
     0
 77
     1
 78
     8
 79
     2
140
3.5
141
0.0
143
0.0393701
146
0.71
147
1.5
172
     1
176
   256
177
   256
178
     2
271
     2
272
     3
274
     4
283
     0
284
     8
340
11
371
    -1
372
    -1
1001
ACAD_DSTYLE_DIMJAG
1070
   388
1040
1.5
1001
ACAD_DSTYLE_DIMBREAK
1070
   391
1040
3.75
1001
ACAD_DSTYLE_DIMARC_LENGTH_SYMBOL
1070
   379
1070
     1
1001
ACAD_DSTYLE_DIM_LINETYPE
1070
   380
1005
14
1001
ACAD_DSTYLE_DIM_EXT1_LINETYPE
1070
   381
1005
14
1001
ACAD_DSTYLE_DIM_EXT2_LINETYPE
1070
   382
1005
14
  0
DIMSTYLE
105
2C9
330
A
100
AcDbSymbolTableRecord
100
AcDbDimStyleTableRecord
  2
AM_ISO$3
 70
     0
  4
"
 41
3.5
 42
1.0
 43
10.0
 44
1.0
 47
0.1
 48
0.1
 73
     0
 77
     1
 78
     8
 79
     2
140
3.5
141
0.0
143
0.0393701
146
0.71
147
1.5
176
   256
177
   256
178
     2
271
     2
272
     3
274
     4
283
     0
284
     8
288
     1
289
     0
340
11
371
    -1
372
    -1
1001
ACAD_DSTYLE_DIMBREAK
1070
   391
1040
3.75
1001
ACAD_DSTYLE_DIMJAG
1070
   388
1040
1.5
1001
ACAD_DSTYLE_DIMARC_LENGTH_SYMBOL
1070
   379
1070
     1
1001
ACAD_DSTYLE_DIM_LINETYPE
1070
   380
1005
14
1001
ACAD_DSTYLE_DIM_EXT1_LINETYPE
1070
   381
1005
14
1001
ACAD_DSTYLE_DIM_EXT2_LINETYPE
1070
   382
1005
14
  0
DIMSTYLE
105
2CA
330
A
100
AcDbSymbolTableRecord
100
AcDbDimStyleTableRecord
  2
AM_ISO$4
 70
     0
  4
"
 41
3.5
 42
1.0
 43
10.0
 44
1.0
 47
0.1
 48
0.1
 73
     0
 77
     1
 78
     8
 79
     2
140
3.5
141
0.0
143
0.0393701
146
0.71
147
1.5
176
   256
177
   256
178
     2
271
     2
272
     3
274
     4
283
     0
284
     8
288
     1
289
     0
340
11
371
    -1
372
    -1
1001
ACAD_DSTYLE_DIMBREAK
1070
   391
1040
3.75
1001
ACAD_DSTYLE_DIMJAG
1070
   388
1040
1.5
1001
ACAD_DSTYLE_DIMARC_LENGTH_SYMBOL
1070
   379
1070
     1
1001
ACAD_DSTYLE_DIM_LINETYPE
1070
   380
1005
14
1001
ACAD_DSTYLE_DIM_EXT1_LINETYPE
1070
   381
1005
14
1001
ACAD_DSTYLE_DIM_EXT2_LINETYPE
1070
   382
1005
14
  0
DIMSTYLE
105
2CB
330
A
100
AcDbSymbolTableRecord
100
AcDbDimStyleTableRecord
  2
AM_ISO$6
 70
     0
  4
"
 41
3.5
 42
1.0
 43
10.0
 44
1.0
 47
0.1
 48
0.1
 73
     0
 74
     0
 78
     8
 79
     2
140
3.5
141
0.0
143
0.0393701
146
0.71
147
1.5
172
     1
176
   256
177
   256
178
     2
271
     2
272
     3
274
     4
283
     0
284
     8
340
11
371
    -1
372
    -1
1001
ACAD_DSTYLE_DIMBREAK
1070
   391
1040
3.75
1001
ACAD_DSTYLE_DIMJAG
1070
   388
1040
1.5
1001
ACAD_DSTYLE_DIMARC_LENGTH_SYMBOL
1070
   379
1070
     1
1001
ACAD_DSTYLE_DIM_LINETYPE
1070
   380
1005
14
1001
ACAD_DSTYLE_DIM_EXT1_LINETYPE
1070
   381
1005
14
1001
ACAD_DSTYLE_DIM_EXT2_LINETYPE
1070
   382
1005
14
  0
DIMSTYLE
105
2CC
330
A
100
AcDbSymbolTableRecord
100
AcDbDimStyleTableRecord
  2
AM_ISO$7
 70
     0
  4
"
 41
3.5
 42
1.0
 43
10.0
 44
1.0
 47
0.1
 48
0.1
 73
     0
 74
     0
 77
     1
 78
     8
 79
     2
140
3.5
141
0.0
143
0.0393701
146
0.71
147
1.5
172
     1
176
   256
177
   256
178
     2
271
     2
272
     3
274
     4
283
     0
284
     8
340
11
371
    -1
372
    -1
1001
ACAD_DSTYLE_DIMBREAK
1070
   391
1040
3.75
1001
ACAD_DSTYLE_DIMJAG
1070
   388
1040
1.5
1001
ACAD_DSTYLE_DIMARC_LENGTH_SYMBOL
1070
   379
1070
     1
1001
ACAD_DSTYLE_DIM_LINETYPE
1070
   380
1005
14
1001
ACAD_DSTYLE_DIM_EXT1_LINETYPE
1070
   381
1005
14
1001
ACAD_DSTYLE_DIM_EXT2_LINETYPE
1070
   382
1005
14
  0
DIMSTYLE
105
2CD
330
A
100
AcDbSymbolTableRecord
100
AcDbDimStyleTableRecord
  2
AM_ISO$SF
 70
     0
  4
"
 41
3.5
 42
1.0
 43
10.0
 44
1.0
 47
0.1
 48
0.1
 73
     0
 74
     0
 75
     1
 76
     1
 77
     1
 78
     8
 79
     2
140
3.5
141
0.0
143
0.0393701
146
0.71
147
1.5
172
     1
176
   256
177
   256
178
     2
271
     2
272
     3
274
     4
283
     0
284
     8
340
11
371
    -1
372
    -1
1001
ACAD_DSTYLE_DIMBREAK
1070
   391
1040
3.75
1001
ACAD_DSTYLE_DIMJAG
1070
   388
1040
1.5
1001
ACAD_DSTYLE_DIMARC_LENGTH_SYMBOL
1070
   379
1070
     1
1001
ACAD_DSTYLE_DIM_LINETYPE
1070
   380
1005
14
1001
ACAD_DSTYLE_DIM_EXT1_LINETYPE
1070
   381
1005
14
1001
ACAD_DSTYLE_DIM_EXT2_LINETYPE
1070
   382
1005
14
  0
DIMSTYLE
105
2D2
330
A
100
AcDbSymbolTableRecord
100
AcDbDimStyleTableRecord
  2
AM_ISO$SH
 70
     0
  4
"
 41
3.5
 42
1.0
 43
10.0
 44
1.0
 47
0.1
 48
0.1
 73
     0
 74
     0
 75
     1
 76
     1
 77
     1
 78
     8
 79
     2
140
3.5
141
0.0
143
0.0393701
144
2.0
146
0.71
147
1.5
172
     1
173
     1
176
   256
177
   256
178
     2
271
     2
272
     3
274
     4
283
     0
284
     8
340
11
343
2CE
371
    -1
372
    -1
1001
ACAD_DSTYLE_DIMBREAK
1070
   391
1040
3.75
1001
ACAD_DSTYLE_DIMJAG
1070
   388
1040
1.5
1001
ACAD_DSTYLE_DIMARC_LENGTH_SYMBOL
1070
   379
1070
     1
1001
ACAD_DSTYLE_DIM_LINETYPE
1070
   380
1005
14
1001
ACAD_DSTYLE_DIM_EXT1_LINETYPE
1070
   381
1005
14
1001
ACAD_DSTYLE_DIM_EXT2_LINETYPE
1070
   382
1005
14
  0
ENDTAB
  0
TABLE
  2
BLOCK_RECORD
  5
1
330
0
100
AcDbSymbolTable
 70
    16
  0
BLOCK_RECORD
  5
1F
102
{ACAD_XDICTIONARY
360
2F2
102
}
330
1
100
AcDbSymbolTableRecord
100
AcDbBlockTableRecord
  2
*Model_Space
340
22
  0
BLOCK_RECORD
  5
1B
330
1
100
AcDbSymbolTableRecord
100
AcDbBlockTableRecord
  2
*Paper_Space
340
1E
  0
BLOCK_RECORD
  5
23
330
1
100
AcDbSymbolTableRecord
100
AcDbBlockTableRecord
  2
*Paper_Space0
340
26
  0
BLOCK_RECORD
  5
180
330
1
100
AcDbSymbolTableRecord
100
AcDbBlockTableRecord
  2
ASSORTED_DRAFT1
340
0
  0
BLOCK_RECORD
  5
18A
330
1
100
AcDbSymbolTableRecord
100
AcDbBlockTableRecord
  2
*D2
340
0
  0
BLOCK_RECORD
  5
196
330
1
100
AcDbSymbolTableRecord
100
AcDbBlockTableRecord
  2
_U0
340
0
  0
BLOCK_RECORD
  5
1A2
330
1
100
AcDbSymbolTableRecord
100
AcDbBlockTableRecord
  2
*D4
340
0
  0
BLOCK_RECORD
  5
1AE
330
1
100
AcDbSymbolTableRecord
100
AcDbBlockTableRecord
  2
_U1
340
0
  0
BLOCK_RECORD
  5
1BA
330
1
100
AcDbSymbolTableRecord
100
AcDbBlockTableRecord
  2
*D6
340
0
  0
BLOCK_RECORD
  5
1C6
330
1
100
AcDbSymbolTableRecord
100
AcDbBlockTableRecord
  2
_U2
340
0
  0
BLOCK_RECORD
  5
1D2
330
1
100
AcDbSymbolTableRecord
100
AcDbBlockTableRecord
  2
*D8
340
0
  0
BLOCK_RECORD
  5
1DE
330
1
100
AcDbSymbolTableRecord
100
AcDbBlockTableRecord
  2
_U3
340
0
  0
BLOCK_RECORD
  5
1EA
330
1
100
AcDbSymbolTableRecord
100
AcDbBlockTableRecord
  2
*D10
340
0
  0
BLOCK_RECORD
  5
1F5
330
1
100
AcDbSymbolTableRecord
100
AcDbBlockTableRecord
  2
_U4
340
0
  0
BLOCK_RECORD
  5
200
330
1
100
AcDbSymbolTableRecord
100
AcDbBlockTableRecord
  2
*D12
340
0
  0
BLOCK_RECORD
  5
20C
330
1
100
AcDbSymbolTableRecord
100
AcDbBlockTableRecord
  2
_U5
340
0
  0
BLOCK_RECORD
  5
2CE
330
1
100
AcDbSymbolTableRecord
100
AcDbBlockTableRecord
  2
GENAXEH
340
0
  0
ENDTAB
  0
ENDSEC
  0
SECTION
  2
BLOCKS
  0
BLOCK
  5
20
330
1F
100
AcDbEntity
  8
0
100
AcDbBlockBegin
  2
*Model_Space
 70
     0
 10
0.0
 20
0.0
 30
0.0
  3
*Model_Space
  1

  0
ENDBLK
  5
21
330
1F
100
AcDbEntity
  8
0
100
AcDbBlockEnd
  0
BLOCK
  5
1C
330
1B
100
AcDbEntity
 67
     1
  8
0
100
AcDbBlockBegin
  2
*Paper_Space
 70
     0
 10
0.0
 20
0.0
 30
0.0
  3
*Paper_Space
  1

  0
ENDBLK
  5
1D
330
1B
100
AcDbEntity
 67
     1
  8
0
100
AcDbBlockEnd
  0
BLOCK
  5
24
330
23
100
AcDbEntity
 67
     1
  8
0
100
AcDbBlockBegin
  2
*Paper_Space0
 70
     0
 10
0.0
 20
0.0
 30
0.0
  3
*Paper_Space0
  1

  0
ENDBLK
  5
25
330
23
100
AcDbEntity
 67
     1
  8
0
100
AcDbBlockEnd
  0
BLOCK
  5
183
330
180
100
AcDbEntity
  8
0
100
AcDbBlockBegin
  2
ASSORTED_DRAFT1
 70
     0
 10
0.0
 20
0.0
 30
0.0
  3
ASSORTED_DRAFT1
  1

  0
SOLID
  5
181
330
180
100
AcDbEntity
  8
0
 62
   254
370
    13
100
AcDbTrace
 10
476.517572
 20
269.186216
 30
0.0
 11
481.517568
 21
270.29469
 31
0.0
 12
481.5175759999999
 22
268.077743
 32
0.0
 13
476.517572
 23
269.186216
 33
0.0
  0
ENDBLK
  5
184
330
180
100
AcDbEntity
  8
0
100
AcDbBlockEnd
  0
BLOCK
  5
18B
330
18A
100
AcDbEntity
  8
0
100
AcDbBlockBegin
  2
*D2
 70
     1
 10
0.0
 20
0.0
 30
0.0
  3
*D2
  1

  0
LINE
  5
18D
330
18A
100
AcDbEntity
  8
0
 62
   254
370
    -2
100
AcDbLine
 10
362.174849
 20
375.508075
 30
0.0
 11
362.174849
 21
378.873424
 31
0.0
  0
LINE
  5
18E
330
18A
100
AcDbEntity
  8
0
 62
   254
370
    -2
100
AcDbLine
 10
347.689408
 20
373.543529
 30
0.0
 11
347.689408
 21
378.873424
 31
0.0
  0
LINE
  5
18F
330
18A
100
AcDbEntity
  8
0
 62
   254
370
    -2
100
AcDbLine
 10
358.674849
 20
377.873424
 30
0.0
 11
351.189408
 21
377.873424
 31
0.0
  0
SOLID
  5
190
330
18A
100
AcDbEntity
  8
0
 62
   254
100
AcDbTrace
 10
358.674849
 20
377.290091
 30
0.0
 11
358.674849
 21
378.456758
 31
0.0
 12
362.174849
 22
377.873424
 32
0.0
 13
362.174849
 23
377.873424
 33
0.0
  0
SOLID
  5
191
330
18A
100
AcDbEntity
  8
0
 62
   254
100
AcDbTrace
 10
351.189408
 20
378.456758
 30
0.0
 11
351.189408
 21
377.290091
 31
0.0
 12
347.689408
 22
377.873424
 32
0.0
 13
347.689408
 23
377.873424
 33
0.0
  0
MTEXT
  5
192
330
18A
100
AcDbEntity
  8
0
 62
   254
370
    13
100
AcDbMText
 10
354.932128
 20
383.123424
 30
0.0
 40
3.5
 41
0.0
 71
     5
 72
     1
  1
\A1;14.49
  7
cesky
 73
     1
 44
1.0
  0
POINT
  5
193
330
18A
100
AcDbEntity
  8
Defpoints
 62
     0
100
AcDbPoint
 10
362.174849
 20
375.508075
 30
0.0
  0
POINT
  5
194
330
18A
100
AcDbEntity
  8
Defpoints
 62
     0
100
AcDbPoint
 10
347.689408
 20
373.543529
 30
0.0
  0
POINT
  5
195
330
18A
100
AcDbEntity
  8
Defpoints
 62
     0
100
AcDbPoint
 10
347.689408
 20
377.873424
 30
0.0
  0
ENDBLK
  5
18C
330
18A
100
AcDbEntity
  8
0
100
AcDbBlockEnd
  0
BLOCK
  5
19D
330
196
100
AcDbEntity
  8
0
100
AcDbBlockBegin
  2
_U0
 70
     0
 10
0.0
 20
0.0
 30
0.0
  3
_U0
  1

  0
ENDBLK
  5
19E
330
196
100
AcDbEntity
  8
0
100
AcDbBlockEnd
  0
BLOCK
  5
1A3
330
1A2
100
AcDbEntity
  8
0
100
AcDbBlockBegin
  2
*D4
 70
     1
 10
0.0
 20
0.0
 30
0.0
  3
*D4
  1

  0
LINE
  5
1A5
330
1A2
100
AcDbEntity
  8
0
 62
    95
370
    -2
100
AcDbLine
 10
362.174849
 20
375.508075
 30
0.0
 11
362.174849
 21
402.2244149999999
 31
0.0
  0
LINE
  5
1A6
330
1A2
100
AcDbEntity
  8
0
 62
    95
370
    -2
100
AcDbLine
 10
202.174849
 20
373.008075
 30
0.0
 11
202.174849
 21
402.2244149999999
 31
0.0
  0
LINE
  5
1A7
330
1A2
100
AcDbEntity
  8
0
 62
    95
370
    -2
100
AcDbLine
 10
358.674849
 20
401.2244149999999
 30
0.0
 11
205.674849
 21
401.2244149999999
 31
0.0
  0
SOLID
  5
1A8
330
1A2
100
AcDbEntity
  8
0
 62
    95
100
AcDbTrace
 10
358.674849
 20
400.641082
 30
0.0
 11
358.674849
 21
401.807749
 31
0.0
 12
362.174849
 22
401.2244149999999
 32
0.0
 13
362.174849
 23
401.2244149999999
 33
0.0
  0
SOLID
  5
1A9
330
1A2
100
AcDbEntity
  8
0
 62
    95
100
AcDbTrace
 10
205.674849
 20
401.807749
 30
0.0
 11
205.674849
 21
400.641082
 31
0.0
 12
202.174849
 22
401.2244149999999
 32
0.0
 13
202.174849
 23
401.2244149999999
 33
0.0
  0
MTEXT
  5
1AA
330
1A2
100
AcDbEntity
  8
0
 62
    95
370
    13
100
AcDbMText
 10
282.174849
 20
406.474415
 30
0.0
 40
3.5
 41
0.0
 71
     5
 72
     1
  1
\A1;160
  7
cesky
 73
     1
 44
1.0
  0
POINT
  5
1AB
330
1A2
100
AcDbEntity
  8
Defpoints
 62
     0
100
AcDbPoint
 10
362.174849
 20
375.508075
 30
0.0
  0
POINT
  5
1AC
330
1A2
100
AcDbEntity
  8
Defpoints
 62
     0
100
AcDbPoint
 10
202.174849
 20
373.008075
 30
0.0
  0
POINT
  5
1AD
330
1A2
100
AcDbEntity
  8
Defpoints
 62
     0
100
AcDbPoint
 10
202.174849
 20
401.2244149999999
 30
0.0
  0
ENDBLK
  5
1A4
330
1A2
100
AcDbEntity
  8
0
100
AcDbBlockEnd
  0
BLOCK
  5
1B5
330
1AE
100
AcDbEntity
  8
0
100
AcDbBlockBegin
  2
_U1
 70
     0
 10
0.0
 20
0.0
 30
0.0
  3
_U1
  1

  0
MTEXT
  5
1AF
330
1AE
100
AcDbEntity
  8
96
  6
Continuous
 62
    95
440
 16777216
370
    13
100
AcDbMText
 10
279.097849
 20
401.098582
 30
0.0
 40
3.5
 41
0.0
 71
     7
 72
     5
  1
\W0.7809;160
  7
cesky
 73
     2
 44
0.8433729999999998
  0
LINE
  5
1B0
330
1AE
100
AcDbEntity
  8
96
 62
    95
440
 16777216
370
    13
100
AcDbLine
 10
362.174849
 20
375.508075
 30
0.0
 11
362.174849
 21
402.2244149999999
 31
0.0
  0
LINE
  5
1B1
330
1AE
100
AcDbEntity
  8
96
 62
    95
440
 16777216
370
    13
100
AcDbLine
 10
202.174849
 20
373.008075
 30
0.0
 11
202.174849
 21
402.2244149999999
 31
0.0
  0
LINE
  5
1B2
330
1AE
100
AcDbEntity
  8
96
 62
    95
440
 16777216
370
    13
100
AcDbLine
 10
362.174849
 20
401.2244149999999
 30
0.0
 11
202.174849
 21
401.2244149999999
 31
0.0
  0
SOLID
  5
1B3
330
1AE
100
AcDbEntity
  8
96
 62
    95
440
 16777216
370
    13
100
AcDbTrace
 10
362.174849
 20
401.2244149999999
 30
0.0
 11
358.674851
 21
400.6072709999999
 31
0.0
 12
358.674846
 22
401.8415599999999
 32
0.0
 13
358.674846
 23
401.8415599999999
 33
0.0
  0
SOLID
  5
1B4
330
1AE
100
AcDbEntity
  8
96
 62
    95
440
 16777216
370
    13
100
AcDbTrace
 10
202.174849
 20
401.2244149999999
 30
0.0
 11
205.674846
 21
401.8415599999999
 31
0.0
 12
205.674851
 22
400.6072709999999
 32
0.0
 13
205.674851
 23
400.6072709999999
 33
0.0
  0
ENDBLK
  5
1B6
330
1AE
100
AcDbEntity
  8
0
100
AcDbBlockEnd
  0
BLOCK
  5
1BB
330
1BA
100
AcDbEntity
  8
0
100
AcDbBlockBegin
  2
*D6
 70
     1
 10
0.0
 20
0.0
 30
0.0
  3
*D6
  1

  0
LINE
  5
1BD
330
1BA
100
AcDbEntity
  8
0
 62
   254
370
    -2
100
AcDbLine
 10
362.174849
 20
375.508075
 30
0.0
 11
362.174849
 21
387.394977
 31
0.0
  0
LINE
  5
1BE
330
1BA
100
AcDbEntity
  8
0
 62
   254
370
    -2
100
AcDbLine
 10
322.134849
 20
366.008075
 30
0.0
 11
322.134849
 21
387.394977
 31
0.0
  0
LINE
  5
1BF
330
1BA
100
AcDbEntity
  8
0
 62
   254
370
    -2
100
AcDbLine
 10
358.674849
 20
386.394977
 30
0.0
 11
325.6348490000001
 21
386.394977
 31
0.0
  0
SOLID
  5
1C0
330
1BA
100
AcDbEntity
  8
0
 62
   254
100
AcDbTrace
 10
358.674849
 20
385.811644
 30
0.0
 11
358.674849
 21
386.97831
 31
0.0
 12
362.174849
 22
386.394977
 32
0.0
 13
362.174849
 23
386.394977
 33
0.0
  0
SOLID
  5
1C1
330
1BA
100
AcDbEntity
  8
0
 62
   254
100
AcDbTrace
 10
325.6348490000001
 20
386.97831
 30
0.0
 11
325.6348490000001
 21
385.811644
 31
0.0
 12
322.134849
 22
386.394977
 32
0.0
 13
322.134849
 23
386.394977
 33
0.0
  0
MTEXT
  5
1C2
330
1BA
100
AcDbEntity
  8
0
 62
   254
370
    13
100
AcDbMText
 10
342.154849
 20
391.644977
 30
0.0
 40
3.5
 41
0.0
 71
     5
 72
     1
  1
\A1;40
  7
cesky
 73
     1
 44
1.0
  0
POINT
  5
1C3
330
1BA
100
AcDbEntity
  8
Defpoints
 62
     0
100
AcDbPoint
 10
362.174849
 20
375.508075
 30
0.0
  0
POINT
  5
1C4
330
1BA
100
AcDbEntity
  8
Defpoints
 62
     0
100
AcDbPoint
 10
322.134849
 20
366.008075
 30
0.0
  0
POINT
  5
1C5
330
1BA
100
AcDbEntity
  8
Defpoints
 62
     0
100
AcDbPoint
 10
322.134849
 20
386.394977
 30
0.0
  0
ENDBLK
  5
1BC
330
1BA
100
AcDbEntity
  8
0
100
AcDbBlockEnd
  0
BLOCK
  5
1CD
330
1C6
100
AcDbEntity
  8
0
100
AcDbBlockBegin
  2
_U2
 70
     0
 10
0.0
 20
0.0
 30
0.0
  3
_U2
  1

  0
MTEXT
  5
1C7
330
1C6
100
AcDbEntity
  8
96
  6
Continuous
 62
   254
440
 16777216
370
    13
100
AcDbMText
 10
340.340349
 20
386.269144
 30
0.0
 40
3.5
 41
0.0
 71
     7
 72
     5
  1
\W0.7045;40
  7
cesky
 73
     2
 44
0.8433729999999998
  0
LINE
  5
1C8
330
1C6
100
AcDbEntity
  8
96
 62
   254
440
 16777216
370
    13
100
AcDbLine
 10
362.174849
 20
375.508075
 30
0.0
 11
362.174849
 21
387.394977
 31
0.0
  0
LINE
  5
1C9
330
1C6
100
AcDbEntity
  8
96
 62
   254
440
 16777216
370
    13
100
AcDbLine
 10
322.134849
 20
366.008075
 30
0.0
 11
322.134849
 21
387.394977
 31
0.0
  0
LINE
  5
1CA
330
1C6
100
AcDbEntity
  8
96
 62
   254
440
 16777216
370
    13
100
AcDbLine
 10
362.174849
 20
386.394977
 30
0.0
 11
322.134849
 21
386.394977
 31
0.0
  0
SOLID
  5
1CB
330
1C6
100
AcDbEntity
  8
96
 62
   254
440
 16777216
370
    13
100
AcDbTrace
 10
362.174849
 20
386.394977
 30
0.0
 11
358.674851
 21
385.777832
 31
0.0
 12
358.674846
 22
387.012121
 32
0.0
 13
358.674846
 23
387.012121
 33
0.0
  0
SOLID
  5
1CC
330
1C6
100
AcDbEntity
  8
96
 62
   254
440
 16777216
370
    13
100
AcDbTrace
 10
322.134849
 20
386.394977
 30
0.0
 11
325.634846
 21
387.012121
 31
0.0
 12
325.634851
 22
385.777832
 32
0.0
 13
325.634851
 23
385.777832
 33
0.0
  0
ENDBLK
  5
1CE
330
1C6
100
AcDbEntity
  8
0
100
AcDbBlockEnd
  0
BLOCK
  5
1D3
330
1D2
100
AcDbEntity
  8
0
100
AcDbBlockBegin
  2
*D8
 70
     1
 10
0.0
 20
0.0
 30
0.0
  3
*D8
  1

  0
LINE
  5
1D5
330
1D2
100
AcDbEntity
  8
0
 62
    95
370
    -2
100
AcDbLine
 10
362.174849
 20
372.508075
 30
0.0
 11
362.174849
 21
396.271586
 31
0.0
  0
LINE
  5
1D6
330
1D2
100
AcDbEntity
  8
0
 62
    95
370
    -2
100
AcDbLine
 10
250.174849
 20
366.008075
 30
0.0
 11
250.174849
 21
396.271586
 31
0.0
  0
LINE
  5
1D7
330
1D2
100
AcDbEntity
  8
0
 62
    95
370
    -2
100
AcDbLine
 10
358.674849
 20
395.271586
 30
0.0
 11
253.674849
 21
395.271586
 31
0.0
  0
SOLID
  5
1D8
330
1D2
100
AcDbEntity
  8
0
 62
    95
100
AcDbTrace
 10
358.674849
 20
394.688253
 30
0.0
 11
358.674849
 21
395.85492
 31
0.0
 12
362.174849
 22
395.271586
 32
0.0
 13
362.174849
 23
395.271586
 33
0.0
  0
SOLID
  5
1D9
330
1D2
100
AcDbEntity
  8
0
 62
    95
100
AcDbTrace
 10
253.674849
 20
395.85492
 30
0.0
 11
253.674849
 21
394.688253
 31
0.0
 12
250.174849
 22
395.271586
 32
0.0
 13
250.174849
 23
395.271586
 33
0.0
  0
MTEXT
  5
1DA
330
1D2
100
AcDbEntity
  8
0
 62
    95
370
    13
100
AcDbMText
 10
306.174849
 20
400.5215859999999
 30
0.0
 40
3.5
 41
0.0
 71
     5
 72
     1
  1
\A1;112
  7
cesky
 73
     1
 44
1.0
  0
POINT
  5
1DB
330
1D2
100
AcDbEntity
  8
Defpoints
 62
     0
100
AcDbPoint
 10
362.174849
 20
372.508075
 30
0.0
  0
POINT
  5
1DC
330
1D2
100
AcDbEntity
  8
Defpoints
 62
     0
100
AcDbPoint
 10
250.174849
 20
366.008075
 30
0.0
  0
POINT
  5
1DD
330
1D2
100
AcDbEntity
  8
Defpoints
 62
     0
100
AcDbPoint
 10
250.174849
 20
395.271586
 30
0.0
  0
ENDBLK
  5
1D4
330
1D2
100
AcDbEntity
  8
0
100
AcDbBlockEnd
  0
BLOCK
  5
1E5
330
1DE
100
AcDbEntity
  8
0
100
AcDbBlockBegin
  2
_U3
 70
     0
 10
0.0
 20
0.0
 30
0.0
  3
_U3
  1

  0
ENDBLK
  5
1E6
330
1DE
100
AcDbEntity
  8
0
100
AcDbBlockEnd
  0
BLOCK
  5
1EB
330
1EA
100
AcDbEntity
  8
0
100
AcDbBlockBegin
  2
*D10
 70
     1
 10
0.0
 20
0.0
 30
0.0
  3
*D10
  1

  0
LINE
  5
1ED
330
1EA
100
AcDbEntity
  8
0
 62
   254
370
    -2
100
AcDbLine
 10
356.736942
 20
366.008075
 30
0.0
 11
386.576801
 21
366.008075
 31
0.0
  0
LINE
  5
1EE
330
1EA
100
AcDbEntity
  8
0
 62
   254
370
    -2
100
AcDbLine
 10
363.674849
 20
374.008075
 30
0.0
 11
386.576801
 21
374.008075
 31
0.0
  0
LINE
  5
1EF
330
1EA
100
AcDbEntity
  8
0
 62
   254
370
    -2
100
AcDbLine
 10
385.576801
 20
377.508075
 30
0.0
 11
385.576801
 21
381.008075
 31
0.0
  0
SOLID
  5
1F0
330
1EA
100
AcDbEntity
  8
0
 62
   254
100
AcDbTrace
 10
384.993467
 20
377.508075
 30
0.0
 11
386.160134
 21
377.508075
 31
0.0
 12
385.576801
 22
374.008075
 32
0.0
 13
385.576801
 23
374.008075
 33
0.0
  0
MTEXT
  5
1F1
330
1EA
100
AcDbEntity
  8
0
 62
   254
370
    13
100
AcDbMText
 10
380.326801
 20
353.091408
 30
0.0
 40
3.5
 41
0.0
 71
     5
 72
     1
  1
\A1;16
  7
cesky
 11
0.0
 21
1.0
 31
0.0
 73
     1
 44
1.0
  0
POINT
  5
1F2
330
1EA
100
AcDbEntity
  8
Defpoints
 62
     0
100
AcDbPoint
 10
356.736942
 20
366.008075
 30
0.0
  0
POINT
  5
1F3
330
1EA
100
AcDbEntity
  8
Defpoints
 62
     0
100
AcDbPoint
 10
363.674849
 20
374.008075
 30
0.0
  0
POINT
  5
1F4
330
1EA
100
AcDbEntity
  8
Defpoints
 62
     0
100
AcDbPoint
 10
385.576801
 20
374.008075
 30
0.0
  0
ENDBLK
  5
1EC
330
1EA
100
AcDbEntity
  8
0
100
AcDbBlockEnd
  0
BLOCK
  5
1FB
330
1F5
100
AcDbEntity
  8
0
100
AcDbBlockBegin
  2
_U4
 70
     0
 10
0.0
 20
0.0
 30
0.0
  3
_U4
  1

  0
ENDBLK
  5
1FC
330
1F5
100
AcDbEntity
  8
0
100
AcDbBlockEnd
  0
BLOCK
  5
201
330
200
100
AcDbEntity
  8
0
100
AcDbBlockBegin
  2
*D12
 70
     1
 10
0.0
 20
0.0
 30
0.0
  3
*D12
  1

  0
LINE
  5
203
330
200
100
AcDbEntity
  8
0
 62
    95
370
    -2
100
AcDbLine
 10
229.290008
 20
374.008075
 30
0.0
 11
190.639658
 21
374.008075
 31
0.0
  0
LINE
  5
204
330
200
100
AcDbEntity
  8
0
 62
    95
370
    -2
100
AcDbLine
 10
233.447408
 20
358.008075
 30
0.0
 11
190.639658
 21
358.008075
 31
0.0
  0
LINE
  5
205
330
200
100
AcDbEntity
  8
0
 62
    95
370
    -2
100
AcDbLine
 10
191.639658
 20
370.508075
 30
0.0
 11
191.639658
 21
361.508075
 31
0.0
  0
SOLID
  5
206
330
200
100
AcDbEntity
  8
0
 62
    95
100
AcDbTrace
 10
192.222991
 20
370.508075
 30
0.0
 11
191.056324
 21
370.508075
 31
0.0
 12
191.639658
 22
374.008075
 32
0.0
 13
191.639658
 23
374.008075
 33
0.0
  0
SOLID
  5
207
330
200
100
AcDbEntity
  8
0
 62
    95
100
AcDbTrace
 10
191.056324
 20
361.508075
 30
0.0
 11
192.222991
 21
361.508075
 31
0.0
 12
191.639658
 22
358.008075
 32
0.0
 13
191.639658
 23
358.008075
 33
0.0
  0
MTEXT
  5
208
330
200
100
AcDbEntity
  8
0
 62
    95
370
    13
100
AcDbMText
 10
186.389658
 20
366.008075
 30
0.0
 40
3.5
 41
0.0
 71
     5
 72
     1
  1
\A1;16
  7
cesky
 11
0.0
 21
1.0
 31
0.0
 73
     1
 44
1.0
  0
POINT
  5
209
330
200
100
AcDbEntity
  8
Defpoints
 62
     0
100
AcDbPoint
 10
229.290008
 20
374.008075
 30
0.0
  0
POINT
  5
20A
330
200
100
AcDbEntity
  8
Defpoints
 62
     0
100
AcDbPoint
 10
233.447408
 20
358.008075
 30
0.0
  0
POINT
  5
20B
330
200
100
AcDbEntity
  8
Defpoints
 62
     0
100
AcDbPoint
 10
191.639658
 20
358.008075
 30
0.0
  0
ENDBLK
  5
202
330
200
100
AcDbEntity
  8
0
100
AcDbBlockEnd
  0
BLOCK
  5
214
330
20C
100
AcDbEntity
  8
0
100
AcDbBlockBegin
  2
_U5
 70
     0
 10
0.0
 20
0.0
 30
0.0
  3
_U5
  1

  0
MTEXT
  5
20D
330
20C
100
AcDbEntity
  8
96
  6
Continuous
 62
    95
440
 16777216
370
    13
100
AcDbMText
 10
191.452241
 20
367.534325
 30
0.0
 40
3.5
 41
0.0
 71
     7
 72
     5
  1
\W0.8260;16
  7
cesky
 11
0.0000000000000001
 21
1.0
 31
0.0
 73
     2
 44
0.8433729999999998
  0
MTEXT
  5
20E
330
20C
100
AcDbEntity
  8
96
  6
Continuous
 62
    95
440
 16777216
370
    13
100
AcDbMText
 10
191.452241
 20
360.796825
 30
0.0
 40
3.5
 41
0.0
 71
     7
 72
     5
  1
\W3.0115;\H2.63;%%c\H3.50;
  7
cesky
 11
0.0000000000000001
 21
1.0
 31
0.0
 73
     2
 44
0.8433729999999998
  0
LINE
  5
20F
330
20C
100
AcDbEntity
  8
96
 62
    95
440
 16777216
370
    13
100
AcDbLine
 10
203.174849
 20
374.008075
 30
0.0
 11
190.639658
 21
374.008075
 31
0.0
  0
LINE
  5
210
330
20C
100
AcDbEntity
  8
96
 62
    95
440
 16777216
370
    13
100
AcDbLine
 10
203.174849
 20
358.008075
 30
0.0
 11
190.639658
 21
358.008075
 31
0.0
  0
LINE
  5
211
330
20C
100
AcDbEntity
  8
96
 62
    95
440
 16777216
370
    13
100
AcDbLine
 10
191.639658
 20
382.758075
 30
0.0
 11
191.639658
 21
349.258075
 31
0.0
  0
SOLID
  5
212
330
20C
100
AcDbEntity
  8
96
 62
    95
440
 16777216
370
    13
100
AcDbTrace
 10
191.639658
 20
374.008075
 30
0.0
 11
191.0225129999999
 21
377.508073
 31
0.0
 12
192.256802
 22
377.508077
 32
0.0
 13
192.256802
 23
377.508077
 33
0.0
  0
SOLID
  5
213
330
20C
100
AcDbEntity
  8
96
 62
    95
440
 16777216
370
    13
100
AcDbTrace
 10
191.639658
 20
358.008075
 30
0.0
 11
192.256802
 21
354.508077
 31
0.0
 12
191.0225129999999
 22
354.508073
 32
0.0
 13
191.0225129999999
 23
354.508073
 33
0.0
  0
ENDBLK
  5
215
330
20C
100
AcDbEntity
  8
0
100
AcDbBlockEnd
  0
BLOCK
  5
2D0
330
2CE
100
AcDbEntity
  8
0
370
    13
100
AcDbBlockBegin
  2
GENAXEH
 70
     0
 10
0.0
 20
0.0
 30
0.0
  3
GENAXEH
  1

  0
LINE
  5
2CF
330
2CE
100
AcDbEntity
  8
0
100
AcDbLine
 10
-1.0
 20
0.0
 30
0.0
 11
1.0
 21
0.0
 31
0.0
  0
ENDBLK
  5
2D1
330
2CE
100
AcDbEntity
  8
0
370
    13
100
AcDbBlockEnd
  0
ENDSEC
  0
SECTION
  2
ENTITIES
  0
POINT
  5
73
102
{ACAD_REACTORS
330
33C
102
}
330
1F
100
AcDbEntity
  8
80
100
AcDbPoint
 10
250.174849
 20
366.008075
 30
0.0
  0
POINT
  5
75
330
1F
100
AcDbEntity
  8
SK6
 60
     1
100
AcDbPoint
 10
202.174849
 20
366.008075
 30
0.0
  0
POINT
  5
77
330
1F
100
AcDbEntity
  8
SK6
 60
     1
100
AcDbPoint
 10
322.134849
 20
366.008075
 30
0.0
  0
POINT
  5
78
330
1F
100
AcDbEntity
  8
SK6
 60
     1
100
AcDbPoint
 10
322.134849
 20
366.008075
 30
0.0
  0
POINT
  5
79
330
1F
100
AcDbEntity
  8
SK6
 60
     1
100
AcDbPoint
 10
356.736942
 20
366.008075
 30
0.0
  0
LINE
  5
7F
330
1F
100
AcDbEntity
  8
1
100
AcDbLine
 10
361.170454
 20
364.189041
 30
0.0
 11
361.170454
 21
364.400835
 31
0.0
  0
LINE
  5
81
330
1F
100
AcDbEntity
  8
1
100
AcDbLine
 10
347.161898
 20
373.255108
 30
0.0
 11
347.156953
 21
373.288531
 31
0.0
  0
LINE
  5
82
330
1F
100
AcDbEntity
  8
1
100
AcDbLine
 10
361.170454
 20
365.437537
 30
0.0
 11
361.170454
 21
365.78828
 31
0.0
  0
LINE
  5
83
330
1F
100
AcDbEntity
  8
1
100
AcDbLine
 10
347.3521740000001
 20
370.681201
 30
0.0
 11
347.082141
 21
372.506322
 31
0.0
  0
LINE
  5
84
330
1F
100
AcDbEntity
  8
1
100
AcDbLine
 10
347.024188
 20
372.898024
 30
0.0
 11
347.002199
 21
373.04664
 31
0.0
  0
LINE
  5
85
330
1F
100
AcDbEntity
  8
1
100
AcDbLine
 10
358.814518
 20
365.781334
 30
0.0
 11
358.872579
 21
365.772861
 31
0.0
  0
LINE
  5
86
330
1F
100
AcDbEntity
  8
1
100
AcDbLine
 10
358.960626
 20
365.760012
 30
0.0
 11
361.170454
 21
365.437532
 31
0.0
  0
LINE
  5
87
330
1F
100
AcDbEntity
  8
1
100
AcDbLine
 10
361.051924
 20
363.920479
 30
0.0
 11
360.541746
 21
363.857937
 31
0.0
  0
LINE
  5
88
330
1F
100
AcDbEntity
  8
1
100
AcDbLine
 10
361.170454
 20
364.400835
 30
0.0
 11
361.170454
 21
365.437532
 31
0.0
  0
LINE
  5
89
330
1F
100
AcDbEntity
  8
1
100
AcDbLine
 10
347.8419370000001
 20
359.258162
 30
0.0
 11
353.589467
 21
358.99886
 31
0.0
  0
LINE
  5
8B
330
1F
100
AcDbEntity
  8
1
100
AcDbLine
 10
359.240936
 20
361.555963
 30
0.0
 11
359.231477
 21
361.544329
 31
0.0
  0
LINE
  5
8C
330
1F
100
AcDbEntity
  8
1
100
AcDbLine
 10
359.753418
 20
363.133691
 30
0.0
 11
359.291729
 21
361.650781
 31
0.0
  0
LINE
  5
8D
330
1F
100
AcDbEntity
  8
1
100
AcDbLine
 10
354.9445970000001
 20
370.702244
 30
0.0
 11
355.129383
 21
370.702244
 31
0.0
  0
LINE
  5
8F
330
1F
100
AcDbEntity
  8
1
100
AcDbLine
 10
354.0098700000001
 20
368.463317
 30
0.0
 11
354.205347
 21
368.463317
 31
0.0
  0
LINE
  5
90
330
1F
100
AcDbEntity
  8
1
100
AcDbLine
 10
354.205347
 20
371.913317
 30
0.0
 11
354.0098700000001
 21
371.913317
 31
0.0
  0
LINE
  5
91
330
1F
100
AcDbEntity
  8
1
100
AcDbLine
 10
354.614614
 20
369.317101
 30
0.0
 11
354.425318
 21
369.317101
 31
0.0
  0
LINE
  5
92
330
1F
100
AcDbEntity
  8
1
100
AcDbLine
 10
353.719108
 20
371.059533
 30
0.0
 11
353.908705
 21
371.059533
 31
0.0
  0
LINE
  5
93
330
1F
100
AcDbEntity
  8
1
100
AcDbLine
 10
359.839382
 20
363.808585
 30
0.0
 11
360.113855
 21
363.751658
 31
0.0
  0
LINE
  5
94
330
1F
100
AcDbEntity
  8
1
100
AcDbLine
 10
360.261479
 20
363.503728
 30
0.0
 11
359.625659
 21
361.461522
 31
0.0
  0
LINE
  5
95
330
1F
100
AcDbEntity
  8
1
100
AcDbLine
 10
359.88328
 20
363.949485
 30
0.0
 11
359.109324
 21
361.463596
 31
0.0
  0
LINE
  5
96
330
1F
100
AcDbEntity
  8
1
100
AcDbLine
 10
359.88328
 20
363.949485
 30
0.0
 11
360.541746
 21
363.857937
 31
0.0
  0
LINE
  5
97
330
1F
100
AcDbEntity
  8
1
100
AcDbLine
 10
356.736942
 20
366.036515
 30
0.0
 11
356.736942
 21
359.525027
 31
0.0
  0
LINE
  5
98
330
1F
100
AcDbEntity
  8
1
100
AcDbLine
 10
358.902005
 20
361.1775399999999
 30
0.0
 11
358.902005
 21
361.054216
 31
0.0
  0
LINE
  5
99
330
1F
100
AcDbEntity
  8
1
100
AcDbLine
 10
356.677273
 20
366.041133
 30
0.0
 11
356.677273
 21
359.630894
 31
0.0
  0
LINE
  5
9A
330
1F
100
AcDbEntity
  8
1
100
AcDbLine
 10
347.689408
 20
373.543529
 30
0.0
 11
354.103686
 21
373.832911
 31
0.0
  0
LINE
  5
9B
330
1F
100
AcDbEntity
  8
1
100
AcDbLine
 10
353.721503
 20
366.574265
 30
0.0
 11
360.896874
 21
365.749787
 31
0.0
  0
LINE
  5
9C
330
1F
100
AcDbEntity
  8
1
100
AcDbLine
 10
361.114489
 20
365.775701
 30
0.0
 11
361.022979
 21
365.755973
 31
0.0
  0
LINE
  5
9D
330
1F
100
AcDbEntity
  8
1
100
AcDbLine
 10
355.313285
 20
370.179818
 30
0.0
 11
355.131517
 21
370.179818
 31
0.0
  0
LINE
  5
9E
330
1F
100
AcDbEntity
  8
1
100
AcDbLine
 10
353.393936
 20
369.67439
 30
0.0
 11
353.235164
 21
369.67439
 31
0.0
  0
LINE
  5
9F
330
1F
100
AcDbEntity
  8
1
100
AcDbLine
 10
346.681093
 20
358.571223
 30
0.0
 11
346.768437
 21
358.5372
 31
0.0
  0
LINE
  5
A0
330
1F
100
AcDbEntity
  8
1
100
AcDbLine
 10
346.408862
 20
358.682654
 30
0.0
 11
346.5313720000001
 21
358.631556
 31
0.0
  0
LINE
  5
A1
330
1F
100
AcDbEntity
  8
1
100
AcDbLine
 10
354.106084
 20
358.185596
 30
0.0
 11
346.892037
 21
358.51106
 31
0.0
  0
LINE
  5
A2
330
1F
100
AcDbEntity
  8
1
100
AcDbLine
 10
347.5096220000001
 20
358.918947
 30
0.0
 11
353.62402
 21
358.643094
 31
0.0
  0
LINE
  5
A3
330
1F
100
AcDbEntity
  8
80
100
AcDbLine
 10
250.174849
 20
366.008075
 30
0.0
 11
251.174849
 21
366.008075
 31
0.0
  0
LINE
  5
A4
330
1F
100
AcDbEntity
  8
1
100
AcDbLine
 10
361.940596
 20
365.995726
 30
0.0
 11
361.2648430000001
 21
365.812054
 31
0.0
  0
LINE
  5
A5
330
1F
100
AcDbEntity
  8
1
100
AcDbLine
 10
347.585646
 20
371.062555
 30
0.0
 11
347.655129
 21
370.918355
 31
0.0
  0
LINE
  5
A6
330
1F
100
AcDbEntity
  8
1
100
AcDbLine
 10
347.100789
 20
373.1518680000001
 30
0.0
 11
347.073433
 21
373.095095
 31
0.0
  0
LINE
  5
A7
330
1F
100
AcDbEntity
  8
1
100
AcDbLine
 10
323.610484
 20
358.658075
 30
0.0
 11
344.948639
 21
358.658075
 31
0.0
  0
LINE
  5
A8
330
1F
100
AcDbEntity
  8
1
100
AcDbLine
 10
346.640591
 20
373.358075
 30
0.0
 11
344.837796
 21
373.358075
 31
0.0
  0
LINE
  5
A9
330
1F
100
AcDbEntity
  8
1
100
AcDbLine
 10
343.519086
 20
373.358075
 30
0.0
 11
323.610484
 21
373.358075
 31
0.0
  0
LINE
  5
AA
330
1F
100
AcDbEntity
  8
1
100
AcDbLine
 10
347.887088
 20
368.450828
 30
0.0
 11
347.887088
 21
359.304357
 31
0.0
  0
LINE
  5
AB
330
1F
100
AcDbEntity
  8
1
100
AcDbLine
 10
347.278272
 20
368.723793
 30
0.0
 11
347.278272
 21
358.682802
 31
0.0
  0
LINE
  5
AC
330
1F
100
AcDbEntity
  8
SK1
100
AcDbLine
 10
322.134849
 20
358.008075
 30
0.0
 11
322.134849
 21
374.008075
 31
0.0
  0
LINE
  5
AD
330
1F
100
AcDbEntity
  8
SK1
100
AcDbLine
 10
322.134849
 20
374.008075
 30
0.0
 11
203.174849
 21
374.008075
 31
0.0
  0
LINE
  5
AE
330
1F
100
AcDbEntity
  8
SK1
100
AcDbLine
 10
203.174849
 20
358.008075
 30
0.0
 11
322.134849
 21
358.008075
 31
0.0
  0
LINE
  5
AF
330
1F
100
AcDbEntity
  8
SK1
100
AcDbLine
 10
203.174849
 20
374.008075
 30
0.0
 11
203.174849
 21
358.008075
 31
0.0
  0
LINE
  5
B0
330
1F
100
AcDbEntity
  8
SK1
100
AcDbLine
 10
202.174849
 20
373.008075
 30
0.0
 11
202.174849
 21
359.008075
 31
0.0
  0
LINE
  5
B1
330
1F
100
AcDbEntity
  8
SK1
100
AcDbLine
 10
202.174849
 20
359.008075
 30
0.0
 11
203.174849
 21
358.008075
 31
0.0
  0
LINE
  5
B2
330
1F
100
AcDbEntity
  8
SK1
100
AcDbLine
 10
203.174849
 20
374.008075
 30
0.0
 11
202.174849
 21
373.008075
 31
0.0
  0
LINE
  5
B3
330
1F
100
AcDbEntity
  8
1
100
AcDbLine
 10
353.776345
 20
363.08019
 30
0.0
 11
353.065885
 21
363.08019
 31
0.0
  0
LINE
  5
B4
330
1F
100
AcDbEntity
  8
80
100
AcDbLine
 10
250.174849
 20
366.008075
 30
0.0
 11
250.174849
 21
365.008075
 31
0.0
  0
LINE
  5
B5
330
1F
100
AcDbEntity
  8
81
100
AcDbLine
 10
360.674849
 20
374.008075
 30
0.0
 11
363.674849
 21
374.008075
 31
0.0
  0
LINE
  5
B6
330
1F
100
AcDbEntity
  8
81
100
AcDbLine
 10
362.174849
 20
372.508075
 30
0.0
 11
362.174849
 21
375.508075
 31
0.0
  0
LINE
  5
B7
330
1F
100
AcDbEntity
  8
NOCUT
100
AcDbLine
 10
336.677
 20
366.008075
 30
0.0
 11
335.174849
 21
368.508075
 31
0.0
  0
LINE
  5
B9
330
1F
100
AcDbEntity
  8
NOCUT
100
AcDbLine
 10
335.174849
 20
368.508075
 30
0.0
 11
204.772925
 21
368.508075
 31
0.0
  0
LINE
  5
BA
330
1F
100
AcDbEntity
  8
NOCUT
100
AcDbLine
 10
204.772925
 20
368.508075
 30
0.0
 11
202.174849
 21
370.008075
 31
0.0
  0
LINE
  5
BB
330
1F
100
AcDbEntity
  8
NOCUT
100
AcDbLine
 10
202.174849
 20
370.008075
 30
0.0
 11
202.174849
 21
373.008075
 31
0.0
  0
LINE
  5
BC
330
1F
100
AcDbEntity
  8
NOCUT
100
AcDbLine
 10
202.174849
 20
373.008075
 30
0.0
 11
203.174849
 21
374.008075
 31
0.0
  0
LINE
  5
BD
330
1F
100
AcDbEntity
  8
NOCUT
100
AcDbLine
 10
203.174849
 20
374.008075
 30
0.0
 11
322.134849
 21
374.008075
 31
0.0
  0
LINE
  5
BE
330
1F
100
AcDbEntity
  8
NOCUT
100
AcDbLine
 10
323.610484
 20
373.358075
 30
0.0
 11
347.278272
 21
373.358075
 31
0.0
  0
LINE
  5
BF
330
1F
100
AcDbEntity
  8
NOCUT
100
AcDbLine
 10
347.278272
 20
373.358075
 30
0.0
 11
347.887088
 21
372.749259
 31
0.0
  0
LINE
  5
C0
330
1F
100
AcDbEntity
  8
NOCUT
100
AcDbLine
 10
347.887088
 20
372.749259
 30
0.0
 11
353.670454
 21
373.187493
 31
0.0
  0
LINE
  5
C1
330
1F
100
AcDbEntity
  8
NOCUT
100
AcDbLine
 10
356.677273
 20
372.773769
 30
0.0
 11
356.778773
 21
372.949571
 31
0.0
  0
LINE
  5
C2
330
1F
100
AcDbEntity
  8
NOCUT
100
AcDbLine
 10
358.943836
 20
371.699571
 30
0.0
 11
358.842337
 21
371.523769
 31
0.0
  0
LINE
  5
C3
330
1F
100
AcDbEntity
  8
NOCUT
100
AcDbLine
 10
361.170454
 20
367.86666
 30
0.0
 11
361.170454
 21
366.008075
 31
0.0
  0
LINE
  5
C4
330
1F
100
AcDbEntity
  8
NOCUT
100
AcDbLine
 10
336.677
 20
366.008075
 30
0.0
 11
361.170454
 21
366.008075
 31
0.0
  0
ARC
  5
D2
330
1F
100
AcDbEntity
  8
1
100
AcDbCircle
 10
323.610484
 20
375.358075
 30
0.0
 40
1.999999999999996
100
AcDbArc
 50
222.45415
 51
270.0
  0
ARC
  5
D3
330
1F
100
AcDbEntity
  8
1
100
AcDbCircle
 10
323.610484
 20
356.658075
 30
0.0
 40
1.999999999999996
100
AcDbArc
 50
90.0
 51
137.54585
  0
ARC
  5
D8
330
1F
100
AcDbEntity
  8
NOCUT
100
AcDbCircle
 10
323.610484
 20
375.358075
 30
0.0
 40
1.999999999999996
100
AcDbArc
 50
222.45415
 51
270.0
  0
ARC
  5
D9
330
1F
100
AcDbEntity
  8
NOCUT
100
AcDbCircle
 10
354.214474
 20
366.008075
 30
0.0
 40
7.2
100
AcDbArc
 50
69.997843
 51
94.33329999999999
  0
ARC
  5
DA
330
1F
100
AcDbEntity
  8
NOCUT
100
AcDbCircle
 10
354.214474
 20
366.008075
 30
0.0
 40
7.4
100
AcDbArc
 50
50.275031
 51
69.72496899999999
  0
ARC
  5
DB
330
1F
100
AcDbEntity
  8
NOCUT
100
AcDbCircle
 10
354.214474
 20
366.008075
 30
0.0
 40
7.2
100
AcDbArc
 50
14.959531
 51
50.002157
  0
ELLIPSE
  5
DC
330
1F
100
AcDbEntity
  8
1
100
AcDbEllipse
 10
354.08243
 20
370.188317
 30
0.0
 11
-0.0000000000000001
 21
-1.938834786589108
 31
0.0
210
0.0
220
0.0
230
0.9999999999999998
 40
0.9848079999999999
 41
5.78517045477778
 42
6.005572807195261
  0
ELLIPSE
  5
DD
330
1F
100
AcDbEntity
  8
1
100
AcDbEllipse
 10
354.08243
 20
370.188317
 30
0.0
 11
-0.0000000000000001
 21
-1.938834786589108
 31
0.0
210
0.0
220
0.0
230
0.9999999999999998
 40
0.9848079999999999
 41
3.434669912044198
 42
3.639560771554767
  0
ELLIPSE
  5
E4
330
1F
100
AcDbEntity
  8
1
100
AcDbEllipse
 10
354.094001
 20
365.318322
 30
0.0
 11
7.057881080341869
 21
-1.232736028961324
 31
0.0
210
0.0
220
0.0
230
1.0
 40
0.179933
 41
6.143225096507118
 42
6.212142925259223
  0
ELLIPSE
  5
E5
330
1F
100
AcDbEntity
  8
1
100
AcDbEllipse
 10
354.359002
 20
366.008075
 30
0.0
 11
0.0
 21
7.151731891901519
 31
0.0
210
0.0
220
0.0
230
1.0
 40
0.9848079999999999
 41
4.427569587216893
 42
4.455214796480754
  0
ELLIPSE
  5
E6
330
1F
100
AcDbEntity
  8
1
100
AcDbEllipse
 10
354.067214
 20
374.392619
 30
0.0
 11
0.0
 21
7.545715889936879
 31
0.0
210
0.0
220
0.0
230
0.9999999999999998
 40
0.9848079999999999
 41
2.507184049499532
 42
2.530963564220779
  0
ELLIPSE
  5
E7
330
1F
100
AcDbEntity
  8
1
100
AcDbEllipse
 10
348.65675
 20
370.565129
 30
0.0
 11
-0.2177642224921199
 21
2.24740201877584
 31
0.0
210
0.0
220
0.0
230
1.0
 40
0.4963779999999999
 41
1.330531641056377
 42
1.447763657580028
  0
ELLIPSE
  5
E8
330
1F
100
AcDbEntity
  8
1
100
AcDbEllipse
 10
354.306849
 20
374.392619
 30
0.0
 11
-0.0000000000000005
 21
-7.751958271798682
 31
0.0
210
0.0
220
0.0
230
1.0
 40
0.9848079999999999
 41
5.606612206825428
 42
5.893484588890572
  0
ELLIPSE
  5
E9
330
1F
100
AcDbEntity
  8
1
100
AcDbEllipse
 10
349.905633
 20
370.565129
 30
0.0
 11
-0.0000000000000001
 21
-2.25
 31
0.0
210
0.0
220
0.0
230
1.0
 40
0.9848079999999999
 41
5.258916092129087
 42
6.111417217679358
  0
ELLIPSE
  5
EA
330
1F
100
AcDbEntity
  8
1
100
AcDbEllipse
 10
349.519972
 20
371.011906
 30
0.0
 11
0.0
 21
2.225943073687929
 31
0.0
210
0.0
220
0.0
230
1.0
 40
0.9848079999999999
 41
1.71991678933999
 42
2.38336227253316
  0
ELLIPSE
  5
EB
330
1F
100
AcDbEntity
  8
1
100
AcDbEllipse
 10
353.902307
 20
366.008075
 30
0.0
 11
0.0
 21
6.971964661918647
 31
0.0
210
0.0
220
0.0
230
0.9999999999999998
 40
0.9848079999999999
 41
3.955607536364487
 42
4.002404637317066
  0
ELLIPSE
  5
EC
330
1F
100
AcDbEntity
  8
1
100
AcDbEllipse
 10
353.53482
 20
362.118064
 30
0.0
 11
0.0
 21
1.25
 31
0.0
210
0.0
220
0.0
230
1.0
 40
0.9848079999999999
 41
0.1833908459702639
 42
0.7681195603348322
  0
ELLIPSE
  5
ED
330
1F
100
AcDbEntity
  8
1
100
AcDbEllipse
 10
353.085824
 20
362.118064
 30
0.0
 11
-0.0000000000000001
 21
-1.25
 31
0.0
210
0.0
220
0.0
230
1.0
 40
0.9848079999999999
 41
4.712388976986325
 42
4.757942251853068
  0
ELLIPSE
  5
EE
330
1F
100
AcDbEntity
  8
1
100
AcDbEllipse
 10
353.085824
 20
362.118064
 30
0.0
 11
-0.0000000000000001
 21
-1.25
 31
0.0
210
0.0
220
0.0
230
1.0
 40
0.9848079999999999
 41
2.066873758949676
 42
4.712388976986327
  0
ELLIPSE
  5
EF
330
1F
100
AcDbEntity
  8
1
100
AcDbEllipse
 10
354.233681
 20
366.180435
 30
0.0
 11
7.153627983065891
 21
-0.7971939303834103
 31
0.0
210
0.0
220
0.0
230
0.9999999999999998
 40
0.019525
 41
0.8511223955397653
 42
0.8674075556362822
  0
ELLIPSE
  5
F0
330
1F
100
AcDbEntity
  8
1
100
AcDbEllipse
 10
359.67864
 20
364.127383
 30
0.0
 11
0.9064344732287247
 21
2.633556312247696
 31
0.0
210
0.0
220
0.0
230
1.0
 40
0.4924100000000001
 41
4.802736944242356
 42
4.982828130976547
  0
ELLIPSE
  5
F1
330
1F
100
AcDbEntity
  8
1
100
AcDbEllipse
 10
359.67864
 20
364.127383
 30
0.0
 11
0.9064344732287313
 21
2.633556312247715
 31
0.0
210
0.0
220
0.0
230
1.0
 40
0.4924100000000001
 41
1.081084241082154
 42
1.166967032872262
  0
ELLIPSE
  5
F2
330
1F
100
AcDbEntity
  8
1
100
AcDbEllipse
 10
354.176524
 20
370.188317
 30
0.0
 11
0.0
 21
1.986242064468146
 31
0.0
210
0.0
220
0.0
230
1.0
 40
0.9848079999999999
 41
0.0
 42
6.283185307179585
  0
ELLIPSE
  5
F3
330
1F
100
AcDbEntity
  8
1
100
AcDbEllipse
 10
353.812779
 20
365.759513
 30
0.0
 11
-6.600384544158133
 21
3.065010544188103
 31
0.0
210
0.0
220
0.0
230
0.9999999999999998
 40
0.9484999999999999
 41
2.905952280192899
 42
2.911510227239357
  0
ELLIPSE
  5
F4
330
1F
100
AcDbEntity
  8
1
100
AcDbEllipse
 10
353.946662
 20
366.01694
 30
0.0
 11
0.0
 21
7.381120675492776
 31
0.0
210
0.0
220
0.0
230
1.0
 40
0.9848079999999999
 41
3.097191946164356
 42
4.02221644972135
  0
ELLIPSE
  5
F5
330
1F
100
AcDbEntity
  8
1
100
AcDbEllipse
 10
354.448744
 20
366.01694
 30
0.0
 11
0.0
 21
7.839069713977174
 31
0.0
210
0.0
220
0.0
230
1.0
 40
0.9848079999999999
 41
3.097191946164348
 42
4.340839463484449
  0
ELLIPSE
  5
F6
330
1F
100
AcDbEntity
  8
1
100
AcDbEllipse
 10
353.6440859999999
 20
361.83019
 30
0.0
 11
0.0
 21
1.45
 31
0.0
210
0.0
220
0.0
230
1.0
 40
0.9848079999999999
 41
0.0678132948866425
 42
0.5464151205196261
  0
ELLIPSE
  5
F7
330
1F
100
AcDbEntity
  8
1
100
AcDbEllipse
 10
353.896543
 20
366.01694
 30
0.0
 11
0.0
 21
7.025003303826361
 31
0.0
210
0.0
220
0.0
230
0.9999999999999998
 40
0.9848079999999999
 41
3.951784501084228
 42
4.02221644972135
  0
ELLIPSE
  5
F8
330
1F
100
AcDbEntity
  8
1
100
AcDbEllipse
 10
353.896543
 20
366.01694
 30
0.0
 11
0.0
 21
7.025003303826361
 31
0.0
210
0.0
220
0.0
230
0.9999999999999998
 40
0.9848079999999999
 41
3.625351983644379
 42
3.873648805471757
  0
ELLIPSE
  5
F9
330
1F
100
AcDbEntity
  8
1
100
AcDbEllipse
 10
353.896543
 20
366.01694
 30
0.0
 11
0.0
 21
7.025003303826361
 31
0.0
210
0.0
220
0.0
230
0.9999999999999998
 40
0.9848079999999999
 41
3.097191946164355
 42
3.558403344588021
  0
ELLIPSE
  5
FA
330
1F
100
AcDbEntity
  8
1
100
AcDbEllipse
 10
358.776871
 20
361.873722
 30
0.0
 11
-0.4904886335279257
 21
0.2791629385653345
 31
0.0
210
0.0
220
0.0
230
1.0
 40
0.7061970000000001
 41
3.024367570270865
 42
3.295037730164958
  0
ELLIPSE
  5
FB
330
1F
100
AcDbEntity
  8
1
100
AcDbEllipse
 10
359.128988
 20
363.004693
 30
0.0
 11
-0.6083897362417805
 21
-0.3683271461158623
 31
0.0
210
0.0
220
0.0
230
1.0
 40
0.560175
 41
2.57738796019922
 42
3.241344372488647
  0
ELLIPSE
  5
FC
330
1F
100
AcDbEntity
  8
1
100
AcDbEllipse
 10
354.0098700000001
 20
370.188317
 30
0.0
 11
-0.0000000000000001
 21
-1.725
 31
0.0
210
0.0
220
0.0
230
1.0
 40
0.9848079999999999
 41
3.141618453240401
 42
6.28311290284726
  0
ELLIPSE
  5
FD
330
1F
100
AcDbEntity
  8
1
100
AcDbEllipse
 10
360.017501
 20
363.549509
 30
0.0
 11
-0.2025911778376019
 21
-0.1334824027699522
 31
0.0
210
0.0
220
0.0
230
1.0
 40
0.778543
 41
3.382450350087093
 42
3.801470703066471
  0
ELLIPSE
  5
FE
330
1F
100
AcDbEntity
  8
1
100
AcDbEllipse
 10
359.67864
 20
364.127383
 30
0.0
 11
0.9064344732287313
 21
2.633556312247715
 31
0.0
210
0.0
220
0.0
230
1.0
 40
0.4924100000000001
 41
3.194712472315921
 42
3.383549678189865
  0
ELLIPSE
  5
FF
330
1F
100
AcDbEntity
  8
1
100
AcDbEllipse
 10
353.085824
 20
362.118064
 30
0.0
 11
0.0
 21
1.5
 31
0.0
210
0.0
220
0.0
230
1.0
 40
0.9848079999999999
 41
0.1136864606839349
 42
1.256637071692291
  0
ELLIPSE
  5
100
330
1F
100
AcDbEntity
  8
1
100
AcDbEllipse
 10
353.085824
 20
362.118064
 30
0.0
 11
0.0
 21
1.5
 31
0.0
210
0.0
220
0.0
230
1.0
 40
0.9848079999999999
 41
1.256637071692291
 42
2.598588146259436
  0
ELLIPSE
  5
101
330
1F
100
AcDbEntity
  8
1
100
AcDbEllipse
 10
361.08272
 20
365.141671
 30
0.0
 11
-2.248684112527462
 21
-3.928123605342046
 31
0.0
210
0.0
220
0.0
230
1.0
 40
0.509195
 41
4.839042993167943
 42
6.316547823863322
  0
ELLIPSE
  5
102
330
1F
100
AcDbEntity
  8
1
100
AcDbEllipse
 10
353.902307
 20
366.008075
 30
0.0
 11
0.0
 21
6.971964661918647
 31
0.0
210
0.0
220
0.0
230
0.9999999999999998
 40
0.9848079999999999
 41
3.107818169977213
 42
3.557650647252116
  0
ELLIPSE
  5
103
330
1F
100
AcDbEntity
  8
1
100
AcDbEllipse
 10
354.233681
 20
366.180435
 30
0.0
 11
7.153627983065896
 21
-0.7971939303834105
 31
0.0
210
0.0
220
0.0
230
0.9999999999999998
 40
0.019525
 41
1.22436725390688
 42
1.522066326135744
  0
ELLIPSE
  5
104
330
1F
100
AcDbEntity
  8
1
100
AcDbEllipse
 10
356.861555
 20
364.555194
 30
0.0
 11
-19.21753075161239
 21
7.408010465074656
 31
0.0
210
0.0
220
0.0
230
1.0
 40
0.022448
 41
4.977240083570285
 42
5.206910335494386
  0
ELLIPSE
  5
105
330
1F
100
AcDbEntity
  8
1
100
AcDbEllipse
 10
363.101127
 20
366.008075
 30
0.0
 11
-44.76924685386078
 21
0.0000000000000524
 31
0.0
210
0.0
220
0.0
230
1.0
 40
0.159215
 41
1.224057685695564
 42
1.358555788443952
  0
ELLIPSE
  5
106
330
1F
100
AcDbEntity
  8
1
100
AcDbEllipse
 10
354.446346
 20
366.001567
 30
0.0
 11
0.0
 21
7.839069713977176
 31
0.0
210
0.0
220
0.0
230
1.0
 40
0.9848079999999999
 41
5.100276318531356
 42
6.327586014605014
  0
ELLIPSE
  5
107
330
1F
100
AcDbEntity
  8
1
100
AcDbEllipse
 10
347.720007
 20
372.844219
 30
0.0
 11
0.0
 21
0.7000000000000001
 31
0.0
210
0.0
220
0.0
230
1.0
 40
0.9848079999999999
 41
0.0444007074254298
 42
1.785266211015648
  0
ELLIPSE
  5
108
330
1F
100
AcDbEntity
  8
1
100
AcDbEllipse
 10
354.589542
 20
374.363623
 30
0.0
 11
0.0
 21
7.839069713977174
 31
0.0
210
0.0
220
0.0
230
1.0
 40
0.9848079999999999
 41
1.785266211015646
 42
3.028913728335748
  0
ELLIPSE
  5
109
330
1F
100
AcDbEntity
  8
1
100
AcDbEllipse
 10
354.174319
 20
371.256939
 30
0.0
 11
0.0
 21
-0.0971906295548313
 31
0.0
210
0.0
220
0.0
230
1.0
 40
0.9848080000000001
 41
0.7115126273316981
 42
1.562837156660501
  0
ELLIPSE
  5
10A
330
1F
100
AcDbEntity
  8
1
100
AcDbEllipse
 10
354.365741
 20
371.255392
 30
0.0
 11
0.0
 21
-0.0971906295548319
 31
0.0
210
0.0
220
0.0
230
1.0
 40
0.9848079999999999
 41
3.329506505323156
 42
4.704429810250294
  0
ELLIPSE
  5
10B
330
1F
100
AcDbEntity
  8
1
100
AcDbEllipse
 10
354.44173
 20
370.849617
 30
0.0
 11
0.0
 21
-0.5102374061617939
 31
0.0
210
0.0
220
0.0
230
1.0
 40
0.9848080000000001
 41
2.414161685989311
 42
3.329506505323187
  0
ELLIPSE
  5
10C
330
1F
100
AcDbEntity
  8
1
100
AcDbEllipse
 10
354.712214
 20
371.158115
 30
0.0
 11
0.0
 21
-0.0971906295548315
 31
0.0
210
0.0
220
0.0
230
1.0
 40
0.9848079999999999
 41
1.039238381062224
 42
2.414161685989292
  0
ELLIPSE
  5
10D
330
1F
100
AcDbEntity
  8
1
100
AcDbEllipse
 10
354.877228
 20
371.059588
 30
0.0
 11
0.0
 21
-0.0971906295548315
 31
0.0
210
0.0
220
0.0
230
1.0
 40
0.9848079999999999
 41
4.180831034652008
 42
5.032155563980857
  0
ELLIPSE
  5
10E
330
1F
100
AcDbEntity
  8
1
100
AcDbEllipse
 10
355.26338
 20
371.189427
 30
0.0
 11
0.0
 21
-0.5102374061617935
 31
0.0
210
0.0
220
0.0
230
1.0
 40
0.9848080000000001
 41
5.032155563980813
 42
5.947500383314665
  0
ELLIPSE
  5
10F
330
1F
100
AcDbEntity
  8
1
100
AcDbEllipse
 10
355.129383
 20
370.7994339999999
 30
0.0
 11
0.0
 21
-0.0971906295548313
 31
0.0
210
0.0
220
0.0
230
1.0
 40
0.9848080000000001
 41
5.947500383314692
 42
6.79882491264353
  0
ELLIPSE
  5
110
330
1F
100
AcDbEntity
  8
1
100
AcDbEllipse
 10
355.223775
 20
370.630327
 30
0.0
 11
0.0
 21
-0.0971906295548319
 31
0.0
210
0.0
220
0.0
230
1.0
 40
0.9848079999999999
 41
2.282308954126575
 42
3.657232259053732
  0
ELLIPSE
  5
111
330
1F
100
AcDbEntity
  8
1
100
AcDbEllipse
 10
354.915696
 20
370.360616
 30
0.0
 11
0.0
 21
-0.5102374061617939
 31
0.0
210
0.0
220
0.0
230
1.0
 40
0.9848080000000001
 41
1.36696413479272
 42
2.282308954126596
  0
ELLIPSE
  5
112
330
1F
100
AcDbEntity
  8
1
100
AcDbEllipse
 10
355.314047
 20
370.277005
 30
0.0
 11
0.0
 21
-0.0971906295548315
 31
0.0
210
0.0
220
0.0
230
1.0
 40
0.9848079999999999
 41
6.275226137045147
 42
7.650149441972316
  0
ELLIPSE
  5
113
330
1F
100
AcDbEntity
  8
1
100
AcDbEllipse
 10
355.312523
 20
370.08263
 30
0.0
 11
0.0
 21
-0.0971906295548315
 31
0.0
210
0.0
220
0.0
230
1.0
 40
0.9848079999999999
 41
3.133633483455428
 42
3.984958012784234
  0
ELLIPSE
  5
114
330
1F
100
AcDbEntity
  8
1
100
AcDbEllipse
 10
355.616335
 20
369.807973
 30
0.0
 11
0.0
 21
-0.5102374061617935
 31
0.0
210
0.0
220
0.0
230
1.0
 40
0.9848080000000001
 41
3.984958012784221
 42
4.900302832118089
  0
ELLIPSE
  5
115
330
1F
100
AcDbEntity
  8
1
100
AcDbEllipse
 10
355.216724
 20
369.730812
 30
0.0
 11
0.0
 21
-0.0971906295548313
 31
0.0
210
0.0
220
0.0
230
1.0
 40
0.9848080000000001
 41
4.900302832118079
 42
5.751627361446851
  0
ELLIPSE
  5
116
330
1F
100
AcDbEntity
  8
1
100
AcDbEllipse
 10
355.1196930000001
 20
369.563252
 30
0.0
 11
0.0
 21
-0.0971906295548319
 31
0.0
210
0.0
220
0.0
230
1.0
 40
0.9848079999999999
 41
1.23511140293
 42
2.61003470785714
  0
ELLIPSE
  5
117
330
1F
100
AcDbEntity
  8
1
100
AcDbEllipse
 10
354.735626
 20
369.699316
 30
0.0
 11
0.0
 21
-0.5102374061617939
 31
0.0
210
0.0
220
0.0
230
1.0
 40
0.9848080000000001
 41
0.3197665835961179
 42
1.235111402929998
  0
ELLIPSE
  5
118
330
1F
100
AcDbEntity
  8
1
100
AcDbEllipse
 10
354.863492
 20
369.307207
 30
0.0
 11
0.0
 21
-0.0971906295548315
 31
0.0
210
0.0
220
0.0
230
1.0
 40
0.9848079999999999
 41
5.228028585848608
 42
6.602951890775699
  0
ELLIPSE
  5
119
330
1F
100
AcDbEntity
  8
1
100
AcDbEllipse
 10
354.696954
 20
369.2113589999999
 30
0.0
 11
0.0
 21
-0.0971906295548315
 31
0.0
210
0.0
220
0.0
230
1.0
 40
0.9848079999999999
 41
2.086435932258769
 42
2.937760461587581
  0
ELLIPSE
  5
11A
330
1F
100
AcDbEntity
  8
1
100
AcDbEllipse
 10
354.614614
 20
368.806864
 30
0.0
 11
0.0
 21
-0.5102374061617935
 31
0.0
210
0.0
220
0.0
230
1.0
 40
0.9848080000000001
 41
2.937760461587624
 42
3.85310528092149
  0
ELLIPSE
  5
11B
330
1F
100
AcDbEntity
  8
1
100
AcDbEllipse
 10
354.349
 20
369.1196950000001
 30
0.0
 11
0.0
 21
-0.0971906295548313
 31
0.0
210
0.0
220
0.0
230
1.0
 40
0.9848080000000001
 41
3.853105280921435
 42
4.704429810250294
  0
ELLIPSE
  5
11C
330
1F
100
AcDbEntity
  8
1
100
AcDbEllipse
 10
354.157578
 20
369.121242
 30
0.0
 11
0.0
 21
-0.0971906295548319
 31
0.0
210
0.0
220
0.0
230
1.0
 40
0.9848079999999999
 41
0.1879138517334735
 42
1.56283715666051
  0
ELLIPSE
  5
11D
330
1F
100
AcDbEntity
  8
1
100
AcDbEllipse
 10
354.081589
 20
369.527017
 30
0.0
 11
0.0
 21
-0.5102374061617939
 31
0.0
210
0.0
220
0.0
230
1.0
 40
0.9848080000000001
 41
5.55575433957911
 42
6.471099158912994
  0
ELLIPSE
  5
11E
330
1F
100
AcDbEntity
  8
1
100
AcDbEllipse
 10
353.811105
 20
369.218519
 30
0.0
 11
0.0
 21
-0.0971906295548315
 31
0.0
210
0.0
220
0.0
230
1.0
 40
0.9848079999999999
 41
4.180831034651992
 42
5.555754339579073
  0
ELLIPSE
  5
11F
330
1F
100
AcDbEntity
  8
1
100
AcDbEllipse
 10
353.64609
 20
369.317046
 30
0.0
 11
0.0
 21
-0.0971906295548315
 31
0.0
210
0.0
220
0.0
230
1.0
 40
0.9848079999999999
 41
1.039238381062207
 42
1.890562910391044
  0
ELLIPSE
  5
120
330
1F
100
AcDbEntity
  8
1
100
AcDbEllipse
 10
353.259938
 20
369.187207
 30
0.0
 11
0.0
 21
-0.5102374061617935
 31
0.0
210
0.0
220
0.0
230
1.0
 40
0.9848080000000001
 41
1.890562910391023
 42
2.805907729724899
  0
ELLIPSE
  5
121
330
1F
100
AcDbEntity
  8
1
100
AcDbEllipse
 10
353.393936
 20
369.5772
 30
0.0
 11
0.0
 21
-0.0971906295548313
 31
0.0
210
0.0
220
0.0
230
1.0
 40
0.9848080000000001
 41
2.805907729724901
 42
3.657232259053705
  0
ELLIPSE
  5
122
330
1F
100
AcDbEntity
  8
1
100
AcDbEllipse
 10
353.299544
 20
369.746307
 30
0.0
 11
0.0
 21
-0.0971906295548319
 31
0.0
210
0.0
220
0.0
230
1.0
 40
0.9848079999999999
 41
5.423901607716378
 42
6.798824912643512
  0
ELLIPSE
  5
123
330
1F
100
AcDbEntity
  8
1
100
AcDbEllipse
 10
353.607623
 20
370.0160180000001
 30
0.0
 11
0.0
 21
-0.5102374061617939
 31
0.0
210
0.0
220
0.0
230
1.0
 40
0.9848080000000001
 41
4.508556788382517
 42
5.423901607716393
  0
ELLIPSE
  5
124
330
1F
100
AcDbEntity
  8
1
100
AcDbEllipse
 10
353.209272
 20
370.099629
 30
0.0
 11
0.0
 21
-0.0971906295548315
 31
0.0
210
0.0
220
0.0
230
1.0
 40
0.9848079999999999
 41
3.133633483455428
 42
4.508556788382511
  0
ELLIPSE
  5
125
330
1F
100
AcDbEntity
  8
1
100
AcDbEllipse
 10
353.210796
 20
370.294004
 30
0.0
 11
0.0
 21
-0.0971906295548315
 31
0.0
210
0.0
220
0.0
230
1.0
 40
0.9848079999999999
 41
6.275226137045183
 42
7.126550666374022
  0
ELLIPSE
  5
126
330
1F
100
AcDbEntity
  8
1
100
AcDbEllipse
 10
352.996425
 20
361.83019
 30
0.0
 11
0.0
 21
0.8499999999999989
 31
0.0
210
0.0
220
0.0
230
0.9999999999999998
 40
0.9848079999999999
 41
0.0
 42
6.283185307179585
  0
ELLIPSE
  5
127
330
1F
100
AcDbEntity
  8
1
100
AcDbEllipse
 10
354.493085
 20
365.930423
 30
0.0
 11
-0.5031185643830291
 21
8.280548867435008
 31
0.0
210
0.0
220
0.0
230
1.0
 40
0.923273
 41
4.724321661577142
 42
5.006603757385096
  0
ELLIPSE
  5
128
330
1F
100
AcDbEntity
  8
1
100
AcDbEllipse
 10
352.906984
 20
370.568661
 30
0.0
 11
0.0
 21
-0.5102374061617935
 31
0.0
210
0.0
220
0.0
230
1.0
 40
0.9848080000000001
 41
0.8433653591944302
 42
1.758710178528296
  0
ELLIPSE
  5
129
330
1F
100
AcDbEntity
  8
1
100
AcDbEllipse
 10
353.306595
 20
370.645822
 30
0.0
 11
0.0
 21
-0.0971906295548313
 31
0.0
210
0.0
220
0.0
230
1.0
 40
0.9848080000000001
 41
1.758710178528299
 42
2.61003470785713
  0
ELLIPSE
  5
12A
330
1F
100
AcDbEntity
  8
1
100
AcDbEllipse
 10
353.403625
 20
370.813382
 30
0.0
 11
0.0
 21
-0.0971906295548319
 31
0.0
210
0.0
220
0.0
230
1.0
 40
0.9848079999999999
 41
4.376704056519773
 42
5.751627361446915
  0
ELLIPSE
  5
12B
330
1F
100
AcDbEntity
  8
1
100
AcDbEllipse
 10
353.787693
 20
370.677318
 30
0.0
 11
0.0
 21
-0.5102374061617939
 31
0.0
210
0.0
220
0.0
230
1.0
 40
0.9848080000000001
 41
3.461359237185918
 42
4.376704056519795
  0
ELLIPSE
  5
12C
330
1F
100
AcDbEntity
  8
1
100
AcDbEllipse
 10
353.6598259999999
 20
371.069427
 30
0.0
 11
0.0
 21
-0.0971906295548315
 31
0.0
210
0.0
220
0.0
230
1.0
 40
0.9848079999999999
 41
2.086435932258813
 42
3.461359237185865
  0
ELLIPSE
  5
12D
330
1F
100
AcDbEntity
  8
1
100
AcDbEllipse
 10
353.826365
 20
371.165275
 30
0.0
 11
0.0
 21
-0.0971906295548315
 31
0.0
210
0.0
220
0.0
230
1.0
 40
0.9848079999999999
 41
5.228028585848605
 42
6.079353115177482
  0
ELLIPSE
  5
12E
330
1F
100
AcDbEntity
  8
1
100
AcDbEllipse
 10
353.908705
 20
371.56977
 30
0.0
 11
0.0
 21
-0.5102374061617935
 31
0.0
210
0.0
220
0.0
230
1.0
 40
0.9848080000000001
 41
6.07935311517741
 42
6.994697934511287
  0
ELLIPSE
  5
12F
330
1F
100
AcDbEntity
  8
1
100
AcDbEllipse
 10
354.261659
 20
370.188317
 30
0.0
 11
0.0
 21
1.199999999999999
 31
0.0
210
0.0
220
0.0
230
1.0
 40
0.9848079999999999
 41
0.0
 42
6.283185307179585
  0
ELLIPSE
  5
130
330
1F
100
AcDbEntity
  8
1
100
AcDbEllipse
 10
354.205347
 20
370.188317
 30
0.0
 11
0.0
 21
1.725
 31
0.0
210
0.0
220
0.0
230
1.0
 40
0.9848079999999999
 41
0.0
 42
6.283185307179585
  0
ELLIPSE
  5
131
330
1F
100
AcDbEntity
  8
1
100
AcDbEllipse
 10
346.627916
 20
358.605196
 30
0.0
 11
-0.2724877157526246
 21
0.1089396973773617
 31
0.0
210
0.0
220
0.0
230
0.9999999999999998
 40
0.041155
 41
1.225129421809949
 42
1.783634782320094
  0
ELLIPSE
  5
132
330
1F
100
AcDbEntity
  8
1
100
AcDbEllipse
 10
360.999628
 20
363.425032
 30
0.0
 11
0.0
 21
0.7000000000000001
 31
0.0
210
0.0
220
0.0
230
1.0
 40
0.9848079999999999
 41
4.340839463484451
 42
6.064649327422369
  0
ELLIPSE
  5
133
330
1F
100
AcDbEntity
  8
1
100
AcDbEllipse
 10
354.509422
 20
366.648604
 30
0.0
 11
-3.331328627011398
 21
-7.804675482181687
 31
0.0
210
0.0
220
0.0
230
1.0
 40
0.8857459999999999
 41
1.877222567179225
 42
1.902560425693736
  0
ELLIPSE
  5
134
330
1F
100
AcDbEntity
  8
1
100
AcDbEllipse
 10
361.127375
 20
365.804395
 30
0.0
 11
-0.2802777090520853
 21
-0.0621215879875114
 31
0.0
210
0.0
220
0.0
230
1.0
 40
0.088058
 41
1.505300622061398
 42
2.063805982691194
  0
ELLIPSE
  5
135
330
1F
100
AcDbEntity
  8
1
100
AcDbEllipse
 10
356.788427
 20
366.006904
 30
0.0
 11
-60.01437734715949
 21
-0.6446421310648134
 31
0.0
210
0.0
220
0.0
230
0.9999999999999998
 40
0.121979
 41
1.402181501365926
 42
1.406457543710988
  0
ELLIPSE
  5
136
330
1F
100
AcDbEntity
  8
1
100
AcDbEllipse
 10
343.861847
 20
366.008322
 30
0.0
 11
-41.68462873177357
 21
0.0000202471079998
 31
0.0
210
0.0
220
0.0
230
1.0
 40
0.17633
 41
1.647297205041869
 42
1.65284732578076
  0
ELLIPSE
  5
137
330
1F
100
AcDbEntity
  8
1
100
AcDbEllipse
 10
353.090373
 20
366.008075
 30
0.0
 11
-19.03306684562464
 21
7.337073110378876
 31
0.0
210
0.0
220
0.0
230
0.9999999999999998
 40
0.022893
 41
5.03152686544391
 42
5.283980843192628
  0
ELLIPSE
  5
138
330
1F
100
AcDbEntity
  8
1
100
AcDbEllipse
 10
359.007525
 20
366.008075
 30
0.0
 11
-41.68392146058478
 21
0.0000000000000488
 31
0.0
210
0.0
220
0.0
230
1.0
 40
0.176327
 41
5.004535595075617
 42
5.04741850816663
  0
ELLIPSE
  5
139
330
1F
100
AcDbEntity
  8
1
100
AcDbEllipse
 10
348.374105
 20
366.008075
 30
0.0
 11
-1.085420272467503
 21
7.347753187362928
 31
0.0
210
0.0
220
0.0
230
0.9999999999999998
 40
0.167422
 41
0.1129452975849344
 42
0.2674199171248202
  0
ELLIPSE
  5
13A
330
1F
100
AcDbEntity
  8
1
100
AcDbEllipse
 10
353.065885
 20
361.83019
 30
0.0
 11
0.0
 21
1.25
 31
0.0
210
0.0
220
0.0
230
1.0
 40
0.9848079999999999
 41
0.0
 42
6.283185307179585
  0
SPLINE
  5
13F
330
1F
100
AcDbEntity
  8
1
100
AcDbSpline
210
0.0
220
0.0
230
1.0
 70
     8
 71
     3
 72
    10
 73
     6
 74
     0
 42
0.000000001
 43
0.0000000001
 40
0.0
 40
0.0
 40
0.0
 40
0.0
 40
0.5
 40
0.5
 40
1.0
 40
1.0
 40
1.0
 40
1.0
 10
349.5268949320572
 20
368.3482395815478
 30
0.0
 10
349.5557252713496
 20
368.3361726730373
 30
0.0
 10
349.5809210561889
 20
368.3280455692442
 30
0.0
 10
349.6257755054087
 20
368.3175572763377
 30
0.0
 10
349.6454182925524
 20
368.3152153901405
 30
0.0
 10
349.6628038495001
 20
368.3151311380259
 30
0.0
  0
SPLINE
  5
140
330
1F
100
AcDbEntity
  8
1
100
AcDbSpline
210
0.0
220
0.0
230
1.0
 70
     8
 71
     3
 72
    18
 73
    14
 74
     0
 42
0.000000001
 43
0.0000000001
 40
0.0
 40
0.0
 40
0.0
 40
0.0
 40
0.2499999999999984
 40
0.2499999999999984
 40
0.4999999999999969
 40
0.4999999999999969
 40
0.5624999999999967
 40
0.5624999999999967
 40
0.6249999999999966
 40
0.6249999999999966
 40
0.7499999999999979
 40
0.7499999999999979
 40
1.0
 40
1.0
 40
1.0
 40
1.0
 10
347.5228963690351
 20
370.7336592311545
 30
0.0
 10
347.5271950202635
 20
370.6119023999093
 30
0.0
 10
347.541844490463
 20
370.4928012408308
 30
0.0
 10
347.589424699294
 20
370.2588759175474
 30
0.0
 10
347.622381451016
 20
370.1440620603843
 30
0.0
 10
347.6746728603846
 20
370.0029855058012
 30
0.0
 10
347.6856895634198
 20
369.9748934549139
 30
0.0
 10
347.7088449200241
 20
369.9189544041798
 30
0.0
 10
347.7209576341559
 20
369.8911737051564
 30
0.0
 10
347.7587409303472
 20
369.8086951648629
 30
0.0
 10
347.7859069333982
 20
369.7547311468398
 30
0.0
 10
347.8731841944864
 20
369.5958102150744
 30
0.0
 10
347.9390431757206
 20
369.493804742422
 30
0.0
 10
348.0125832968056
 20
369.3957512388091
 30
0.0
  0
SPLINE
  5
141
330
1F
100
AcDbEntity
  8
1
100
AcDbSpline
210
0.0
220
0.0
230
1.0
 70
     8
 71
     3
 72
    12
 73
     8
 74
     0
 42
0.000000001
 43
0.0000000001
 40
0.0
 40
0.0
 40
0.0
 40
0.0
 40
0.0975752423543466
 40
0.0975752423543466
 40
0.5487876211771733
 40
0.5487876211771733
 40
1.0
 40
1.0
 40
1.0
 40
1.0
 10
347.4598116408442
 20
371.3391095581306
 30
0.0
 10
347.46176905774
 20
371.327861361336
 30
0.0
 10
347.4637306741137
 20
371.3166177465804
 30
0.0
 10
347.4747873225286
 20
371.2534070538295
 30
0.0
 10
347.483969834192
 20
371.2015354246112
 30
0.0
 10
347.5025394440496
 20
371.0980153899778
 30
0.0
 10
347.5119298791601
 20
371.046349170502
 30
0.0
 10
347.5214138109558
 20
370.9949314645951
 30
0.0
  0
SPLINE
  5
142
330
1F
100
AcDbEntity
  8
1
100
AcDbSpline
210
0.0
220
0.0
230
1.0
 70
     8
 71
     3
 72
     8
 73
     4
 74
     0
 42
0.000000001
 43
0.0000000001
 40
0.0
 40
0.0
 40
0.0
 40
0.0
 40
1.0
 40
1.0
 40
1.0
 40
1.0
 10
359.615888959147
 20
361.4267755126508
 30
0.0
 10
359.6145543509162
 20
361.4214602007213
 30
0.0
 10
359.6130392504323
 20
361.4162110163824
 30
0.0
 10
359.6113475891852
 20
361.4110275993113
 30
0.0
  0
SPLINE
  5
143
330
1F
100
AcDbEntity
  8
1
100
AcDbSpline
210
0.0
220
0.0
230
1.0
 70
     8
 71
     3
 72
    10
 73
     6
 74
     0
 42
0.000000001
 43
0.0000000001
 40
0.0
 40
0.0
 40
0.0
 40
0.0
 40
0.5
 40
0.5
 40
1.0
 40
1.0
 40
1.0
 40
1.0
 10
359.6113475891852
 20
361.4110275993112
 30
0.0
 10
359.6076063236232
 20
361.3995639922708
 30
0.0
 10
359.6027106149262
 20
361.3885533800835
 30
0.0
 10
359.5908858274058
 20
361.3673300349401
 30
0.0
 10
359.5839350550945
 20
361.3571197775144
 30
0.0
 10
359.5762261474206
 20
361.3475250496392
 30
0.0
  0
SPLINE
  5
144
330
1F
100
AcDbEntity
  8
1
100
AcDbSpline
210
0.0
220
0.0
230
1.0
 70
     8
 71
     3
 72
    21
 73
    17
 74
     0
 42
0.000000001
 43
0.0000000001
 40
0.0
 40
0.0
 40
0.0
 40
0.0
 40
0.2500000000000017
 40
0.2500000000000017
 40
0.312500000000003
 40
0.312500000000003
 40
0.3750000000000043
 40
0.3750000000000043
 40
0.500000000000007
 40
0.625000000000015
 40
0.625000000000015
 40
0.6875000000000189
 40
0.6875000000000189
 40
0.7500000000000228
 40
0.7500000000000228
 40
1.0
 40
1.0
 40
1.0
 40
1.0
 10
354.936341762722
 20
369.7126559844708
 30
0.0
 10
354.9276877433461
 20
369.7506072476298
 30
0.0
 10
354.9235999962797
 20
369.7889960944924
 30
0.0
 10
354.9244000816169
 20
369.8376130505959
 30
0.0
 10
354.9248593428912
 20
369.8473683152084
 30
0.0
 10
354.9263973005392
 20
369.8669460418151
 30
0.0
 10
354.9274806195414
 20
369.8767832351243
 30
0.0
 10
354.9316235810636
 20
369.905954126456
 30
0.0
 10
354.9395366224782
 20
369.9442293246103
 30
0.0
 10
354.9521335632303
 20
369.9812921664454
 30
0.0
 10
354.9633673796427
 20
370.0086262858156
 30
0.0
 10
354.9674268733562
 20
370.0176930745911
 30
0.0
 10
354.9760663348527
 20
370.0354882145492
 30
0.0
 10
354.9806385147821
 20
370.0442070887929
 30
0.0
 10
355.0047190198172
 20
370.0869397343109
 30
0.0
 10
355.0278366360915
 20
370.1184027227383
 30
0.0
 10
355.0546826521077
 20
370.147257296801
 30
0.0
  0
SPLINE
  5
145
330
1F
100
AcDbEntity
  8
1
100
AcDbSpline
210
0.0
220
0.0
230
1.0
 70
     8
 71
     3
 72
    10
 73
     6
 74
     0
 42
0.000000001
 43
0.0000000001
 40
0.0
 40
0.0
 40
0.0
 40
0.0
 40
0.359644752465095
 40
0.359644752465095
 40
1.0
 40
1.0
 40
1.0
 40
1.0
 10
354.9446195090658
 20
370.7022465502334
 30
0.0
 10
354.9405729710674
 20
370.7022460123066
 30
0.0
 10
354.9365207798575
 20
370.7024770136637
 30
0.0
 10
354.9254127080494
 20
370.7037702805487
 30
0.0
 10
354.9184015350987
 20
370.7053244286346
 30
0.0
 10
354.9115003498501
 20
370.7076683785483
 30
0.0
  0
SPLINE
  5
146
330
1F
100
AcDbEntity
  8
1
100
AcDbSpline
210
0.0
220
0.0
230
1.0
 70
     8
 71
     3
 72
    21
 73
    17
 74
     0
 42
0.000000001
 43
0.0000000001
 40
0.0
 40
0.0
 40
0.0
 40
0.0
 40
0.2952516603075873
 40
0.2952516603075873
 40
0.3690645753844983
 40
0.3690645753844983
 40
0.4428774904614093
 40
0.4428774904614093
 40
0.5905033206152016
 40
0.7381291507689939
 40
0.7381291507689939
 40
0.8119420658459103
 40
0.8119420658459103
 40
0.8857549809228267
 40
0.8857549809228267
 40
1.0
 40
1.0
 40
1.0
 40
1.0
 10
355.0344890812212
 20
369.5312357836072
 30
0.0
 10
355.0224372978726
 20
369.4942877498722
 30
0.0
 10
355.0062521047197
 20
369.4592761708496
 30
0.0
 10
354.9808605160351
 20
369.4179396433818
 30
0.0
 10
354.9755113515223
 20
369.4097843117794
 30
0.0
 10
354.9644120661219
 20
369.3939067188021
 30
0.0
 10
354.9586489292771
 20
369.3861614842039
 30
0.0
 10
354.9407304496135
 20
369.3634962922188
 30
0.0
 10
354.9151656798862
 20
369.3347937690715
 30
0.0
 10
354.8862742776393
 20
369.3091090409577
 30
0.0
 10
354.8633156257246
 20
369.291015537841
 30
0.0
 10
354.8554662481982
 20
369.2851974635117
 30
0.0
 10
354.8395402889991
 20
369.2740999285464
 30
0.0
 10
354.8314410977718
 20
369.2688023183134
 30
0.0
 10
354.8104652491302
 20
369.255933806991
 30
0.0
 10
354.7974057432388
 20
369.2487000165426
 30
0.0
 10
354.7840259228763
 20
369.2420561121902
 30
0.0
  0
SPLINE
  5
147
330
1F
100
AcDbEntity
  8
1
100
AcDbSpline
210
0.0
220
0.0
230
1.0
 70
     8
 71
     3
 72
    21
 73
    17
 74
     0
 42
0.000000001
 43
0.0000000001
 40
0.0
 40
0.0
 40
0.0
 40
0.0
 40
0.249999999999989
 40
0.249999999999989
 40
0.3124999999999876
 40
0.3124999999999876
 40
0.3749999999999865
 40
0.3749999999999865
 40
0.4999999999999806
 40
0.6249999999999745
 40
0.6249999999999745
 40
0.6874999999999823
 40
0.6874999999999823
 40
0.7499999999999902
 40
0.7499999999999902
 40
1.0
 40
1.0
 40
1.0
 40
1.0
 10
354.9115003498501
 20
370.7076683785483
 30
0.0
 10
354.874032145081
 20
370.7203942498547
 30
0.0
 10
354.8386296498855
 20
370.7370808297773
 30
0.0
 10
354.7970308380846
 20
370.7630339684245
 30
0.0
 10
354.7888454993419
 20
370.7684826144363
 30
0.0
 10
354.7727527155918
 20
370.7799134147496
 30
0.0
 10
354.7648349706405
 20
370.7859070071311
 30
0.0
 10
354.741861422607
 20
370.8044277638808
 30
0.0
 10
354.7130637472624
 20
370.8307183564675
 30
0.0
 10
354.6878628412618
 20
370.8601333124697
 30
0.0
 10
354.6703330336921
 20
370.8833878669566
 30
0.0
 10
354.6646993954102
 20
370.8913690878792
 30
0.0
 10
354.6540068223572
 20
370.9075745540254
 30
0.0
 10
354.6489519312796
 20
370.9157874932187
 30
0.0
 10
354.6250821880365
 20
370.9573883709252
 30
0.0
 10
354.6104255863198
 20
370.9923616453888
 30
0.0
 10
354.6000130113113
 20
371.0290362663138
 30
0.0
  0
SPLINE
  5
148
330
1F
100
AcDbEntity
  8
1
100
AcDbSpline
210
0.0
220
0.0
230
1.0
 70
     8
 71
     3
 72
    14
 73
    10
 74
     0
 42
0.000000001
 43
0.0000000001
 40
0.0
 40
0.0
 40
0.0
 40
0.0
 40
0.25
 40
0.25
 40
0.5
 40
0.5
 40
0.75
 40
0.75
 40
1.0
 40
1.0
 40
1.0
 40
1.0
 10
354.6000130113113
 20
371.0290362663138
 30
0.0
 10
354.5980938278453
 20
371.0357959128037
 30
0.0
 10
354.596968917835
 20
371.0427603701866
 30
0.0
 10
354.5962704776073
 20
371.0565768050738
 30
0.0
 10
354.5966777319886
 20
371.0634432261449
 30
0.0
 10
354.5989545067977
 20
371.0770993189187
 30
0.0
 10
354.6008449571762
 20
371.0838799694929
 30
0.0
 10
354.6059109084751
 20
371.0967584131782
 30
0.0
 10
354.6090957333023
 20
371.1029384168251
 30
0.0
 10
354.6129533136108
 20
371.1088513415937
 30
0.0
  0
SPLINE
  5
149
330
1F
100
AcDbEntity
  8
1
100
AcDbSpline
210
0.0
220
0.0
230
1.0
 70
     8
 71
     3
 72
    20
 73
    16
 74
     0
 42
0.000000001
 43
0.0000000001
 40
0.0
 40
0.0
 40
0.0
 40
0.0
 40
0.1250000000000067
 40
0.1250000000000067
 40
0.2500000000000133
 40
0.2500000000000133
 40
0.3750000000000199
 40
0.3750000000000199
 40
0.5000000000000265
 40
0.5000000000000265
 40
0.6250000000000331
 40
0.6250000000000331
 40
0.7500000000000396
 40
0.7500000000000396
 40
1.0
 40
1.0
 40
1.0
 40
1.0
 10
354.6002829041709
 20
371.2307052679325
 30
0.0
 10
354.6044636837307
 20
371.2268393098681
 30
0.0
 10
354.6082035979439
 20
371.2226544668304
 30
0.0
 10
354.6148488826768
 20
371.2136825245263
 30
0.0
 10
354.6177763713895
 20
371.2088437633175
 30
0.0
 10
354.6226389752558
 20
371.1988198034147
 30
0.0
 10
354.6245770294246
 20
371.1936575803205
 30
0.0
 10
354.6275153380345
 20
371.1830494485846
 30
0.0
 10
354.6285186022265
 20
371.1775533965766
 30
0.0
 10
354.6295330983699
 20
371.1665186558728
 30
0.0
 10
354.6295506162214
 20
371.1610237120499
 30
0.0
 10
354.6286569351991
 20
371.1500781425956
 30
0.0
 10
354.6277385962778
 20
371.144601318625
 30
0.0
 10
354.623589925768
 20
371.1284133193227
 30
0.0
 10
354.6191157112486
 20
371.1182971057028
 30
0.0
 10
354.6129533136108
 20
371.1088513415937
 30
0.0
  0
SPLINE
  5
14A
330
1F
100
AcDbEntity
  8
1
100
AcDbSpline
210
0.0
220
0.0
230
1.0
 70
     8
 71
     3
 72
    15
 73
    11
 74
     0
 42
0.000000001
 43
0.0000000001
 40
0.0
 40
0.0
 40
0.0
 40
0.0
 40
0.1797174690664561
 40
0.3847881017998976
 40
0.3847881017998976
 40
0.4873234181665835
 40
0.4873234181665835
 40
0.5898587345332694
 40
0.5898587345332694
 40
1.0
 40
1.0
 40
1.0
 40
1.0
 10
354.3531021996884
 20
371.3524813138944
 30
0.0
 10
354.3696727794307
 20
371.3496006950102
 30
0.0
 10
354.4046762565258
 20
371.3416587741373
 30
0.0
 10
354.4386677645168
 20
371.3299373216257
 30
0.0
 10
354.4653950816169
 20
371.3189021170693
 30
0.0
 10
354.4742050225202
 20
371.3149535401121
 30
0.0
 10
354.4914499963448
 20
371.3066043882145
 30
0.0
 10
354.4999116081552
 20
371.3021931177718
 30
0.0
 10
354.5414290404722
 20
371.2789743966973
 30
0.0
 10
354.5721443826462
 20
371.2567248995953
 30
0.0
 10
354.6002829041709
 20
371.2307052679325
 30
0.0
  0
SPLINE
  5
14B
330
1F
100
AcDbEntity
  8
1
100
AcDbSpline
210
0.0
220
0.0
230
1.0
 70
     8
 71
     3
 72
    21
 73
    17
 74
     0
 42
0.000000001
 43
0.0000000001
 40
0.0
 40
0.0
 40
0.0
 40
0.0
 40
0.3223532771297656
 40
0.3223532771297656
 40
0.4029415964121958
 40
0.4029415964121958
 40
0.4835299156946262
 40
0.4835299156946262
 40
0.6447065542594355
 40
0.8058831928242449
 40
0.8058831928242449
 40
0.8864715121066776
 40
0.8864715121066776
 40
0.9670598313891105
 40
0.9670598313891105
 40
1.0
 40
1.0
 40
1.0
 40
1.0
 10
354.1001477093465
 20
369.1933046155728
 30
0.0
 10
354.1274144918055
 20
369.2185299433468
 30
0.0
 10
354.1574932659437
 20
369.2402323121768
 30
0.0
 10
354.198822216772
 20
369.2628961870445
 30
0.0
 10
354.2072767998156
 20
369.2672028135174
 30
0.0
 10
354.224578489454
 20
369.2753497401184
 30
0.0
 10
354.2334403922052
 20
369.2791933397497
 30
0.0
 10
354.2602246343083
 20
369.2898435021385
 30
0.0
 10
354.2967142703998
 20
369.3018281856536
 30
0.0
 10
354.3347328493337
 20
369.3094760439949
 30
0.0
 10
354.3638279346205
 20
369.3135555248429
 30
0.0
 10
354.3736599057533
 20
369.3146410344235
 30
0.0
 10
354.3933210700163
 20
369.3162307827465
 30
0.0
 10
354.4031382457536
 20
369.316736751704
 30
0.0
 10
354.4169498053843
 20
369.3170556649135
 30
0.0
 10
354.4209550674137
 20
369.3171020869988
 30
0.0
 10
354.424958182952
 20
369.3171025116875
 30
0.0
  0
SPLINE
  5
14C
330
1F
100
AcDbEntity
  8
1
100
AcDbSpline
210
0.0
220
0.0
230
1.0
 70
     8
 71
     3
 72
    14
 73
    10
 74
     0
 42
0.000000001
 43
0.0000000001
 40
0.0
 40
0.0
 40
0.0
 40
0.0
 40
0.25
 40
0.25
 40
0.5
 40
0.5
 40
0.75
 40
0.75
 40
1.0
 40
1.0
 40
1.0
 40
1.0
 10
354.0715214355406
 20
369.1204684084584
 30
0.0
 10
354.0711418578837
 20
369.1273241546655
 30
0.0
 10
354.0714798036666
 20
369.1341648889374
 30
0.0
 10
354.0735650750121
 20
369.1475131086018
 30
0.0
 10
354.0752933756611
 20
369.1539686488998
 30
0.0
 10
354.0801373958891
 20
369.1664410214592
 30
0.0
 10
354.0832869643846
 20
369.1724781323032
 30
0.0
 10
354.0907718043437
 20
369.1835501075853
 30
0.0
 10
354.0951258086821
 20
369.1886587028952
 30
0.0
 10
354.1001477093465
 20
369.1933046155728
 30
0.0
  0
SPLINE
  5
14D
330
1F
100
AcDbEntity
  8
1
100
AcDbSpline
210
0.0
220
0.0
230
1.0
 70
     8
 71
     3
 72
    22
 73
    18
 74
     0
 42
0.000000001
 43
0.0000000001
 40
0.0
 40
0.0
 40
0.0
 40
0.0
 40
0.125
 40
0.125
 40
0.25
 40
0.25
 40
0.375
 40
0.375
 40
0.5
 40
0.5
 40
0.625
 40
0.625
 40
0.75
 40
0.75
 40
0.875
 40
0.875
 40
1.0
 40
1.0
 40
1.0
 40
1.0
 10
354.0715214355406
 20
369.1204684084584
 30
0.0
 10
354.0718245577957
 20
369.1149935623706
 30
0.0
 10
354.0716688714778
 20
369.1095398608754
 30
0.0
 10
354.0704732185505
 20
369.0988689947325
 30
0.0
 10
354.0694357169706
 20
369.0936247325002
 30
0.0
 10
354.0664571875778
 20
369.0833248071931
 30
0.0
 10
354.0645058587287
 20
369.078272237838
 30
0.0
 10
354.0598064976844
 20
369.0687134464696
 30
0.0
 10
354.0570478495616
 20
369.0641606479511
 30
0.0
 10
354.0506786528395
 20
369.0555298231083
 30
0.0
 10
354.0470715926966
 20
369.0514743236155
 30
0.0
 10
354.0392374411506
 20
369.0441517395076
 30
0.0
 10
354.0349835452277
 20
369.0408447008517
 30
0.0
 10
354.025765184311
 20
369.0349816293
 30
0.0
 10
354.0208658909892
 20
369.0324758493959
 30
0.0
 10
354.0107009340342
 20
369.0284187303679
 30
0.0
 10
354.0054049388377
 20
369.0268470742446
 30
0.0
 10
353.9998822407485
 20
369.0257622630117
 30
0.0
  0
SPLINE
  5
14E
330
1F
100
AcDbEntity
  8
1
100
AcDbSpline
210
0.0
220
0.0
230
1.0
 70
     8
 71
     3
 72
     8
 73
     4
 74
     0
 42
0.000000001
 43
0.0000000001
 40
0.0
 40
0.0
 40
0.0
 40
0.0
 40
1.0
 40
1.0
 40
1.0
 40
1.0
 10
353.7188666080263
 20
371.0595315046843
 30
0.0
 10
353.6853910070169
 20
371.0595317424848
 30
0.0
 10
353.6526813573595
 20
371.0630787023443
 30
0.0
 10
353.6206366556784
 20
371.0700959791631
 30
0.0
  0
SPLINE
  5
14F
330
1F
100
AcDbEntity
  8
1
100
AcDbSpline
210
0.0
220
0.0
230
1.0
 70
     8
 71
     3
 72
    14
 73
    10
 74
     0
 42
0.000000001
 43
0.0000000001
 40
0.0
 40
0.0
 40
0.0
 40
0.0
 40
0.25
 40
0.25
 40
0.5
 40
0.5
 40
0.75
 40
0.75
 40
1.0
 40
1.0
 40
1.0
 40
1.0
 10
353.6206366556784
 20
371.0700959791631
 30
0.0
 10
353.6140543492146
 20
371.0715373989341
 30
0.0
 10
353.6077146375815
 20
371.073744665582
 30
0.0
 10
353.5959297314556
 20
371.0794258172944
 30
0.0
 10
353.5904636509829
 20
371.0828895390484
 30
0.0
 10
353.5803507215803
 20
371.0910249877439
 30
0.0
 10
353.5757209366469
 20
371.0957115556356
 30
0.0
 10
353.5676895930952
 20
371.1058684159916
 30
0.0
 10
353.5642247779978
 20
371.1113839011695
 30
0.0
 10
353.5613277321137
 20
371.1173507097629
 30
0.0
  0
SPLINE
  5
150
330
1F
100
AcDbEntity
  8
1
100
AcDbSpline
210
0.0
220
0.0
230
1.0
 70
     8
 71
     3
 72
     8
 73
     4
 74
     0
 42
0.000000001
 43
0.0000000001
 40
0.0
 40
0.0
 40
0.0
 40
0.0
 40
1.0
 40
1.0
 40
1.0
 40
1.0
 10
359.6256592830687
 20
361.461521922472
 30
0.0
 10
359.6220637653117
 20
361.4499733918774
 30
0.0
 10
359.6188055621706
 20
361.4383913969889
 30
0.0
 10
359.615888959147
 20
361.4267755126508
 30
0.0
  0
SPLINE
  5
151
330
1F
100
AcDbEntity
  8
1
100
AcDbSpline
210
0.0
220
0.0
230
1.0
 70
     8
 71
     3
 72
     8
 73
     4
 74
     0
 42
0.000000001
 43
0.0000000001
 40
0.0
 40
0.0
 40
0.0
 40
0.0
 40
1.0
 40
1.0
 40
1.0
 40
1.0
 10
360.261479410825
 20
363.5037279951429
 30
0.0
 10
360.2646826207413
 20
363.5140164626789
 30
0.0
 10
360.2668054974517
 20
363.5244471571764
 30
0.0
 10
360.2678147246065
 20
363.535022125165
 30
0.0
  0
SPLINE
  5
152
330
1F
100
AcDbEntity
  8
1
100
AcDbSpline
210
0.0
220
0.0
230
1.0
 70
     8
 71
     3
 72
    17
 73
    13
 74
     0
 42
0.000000001
 43
0.0000000001
 40
0.0
 40
0.0
 40
0.0
 40
0.0
 40
0.2500000000000464
 40
0.2500000000000464
 40
0.3750000000000369
 40
0.3750000000000369
 40
0.5000000000000274
 40
0.6250000000000178
 40
0.6250000000000178
 40
0.7500000000000082
 40
0.7500000000000082
 40
1.0
 40
1.0
 40
1.0
 40
1.0
 10
360.1894546876833
 20
363.7167616361711
 30
0.0
 10
360.2026035024116
 20
363.7062504347862
 30
0.0
 10
360.2142394312027
 20
363.6941743496639
 30
0.0
 10
360.2296483919606
 20
363.6738219708931
 30
0.0
 10
360.2344671773833
 20
363.666603666972
 30
0.0
 10
360.2431714033971
 20
363.6517390081834
 30
0.0
 10
360.2509780588123
 20
363.636426407222
 30
0.0
 10
360.2570069169286
 20
363.620229924313
 30
0.0
 10
360.2620906246851
 20
363.6035687942289
 30
0.0
 10
360.2641371567426
 20
363.5950500347968
 30
0.0
 10
360.2686045497228
 20
363.5695514062529
 30
0.0
 10
360.2694728370424
 20
363.5523962969252
 30
0.0
 10
360.2678147246065
 20
363.535022125165
 30
0.0
  0
SPLINE
  5
153
330
1F
100
AcDbEntity
  8
1
100
AcDbSpline
210
0.0
220
0.0
230
1.0
 70
     8
 71
     3
 72
    10
 73
     6
 74
     0
 42
0.000000001
 43
0.0000000001
 40
0.0
 40
0.0
 40
0.0
 40
0.0
 40
0.3983801200918529
 40
0.3983801200918529
 40
1.0
 40
1.0
 40
1.0
 40
1.0
 10
360.1716367022973
 20
363.7161177342447
 30
0.0
 10
360.17400280905
 20
363.7162040937188
 30
0.0
 10
360.1763689132277
 20
363.7162910311004
 30
0.0
 10
360.1823082390325
 20
363.7165063570221
 30
0.0
 10
360.1858814613515
 20
363.7166346017231
 30
0.0
 10
360.1894546876833
 20
363.7167616361711
 30
0.0
  0
SPLINE
  5
154
330
1F
100
AcDbEntity
  8
1
100
AcDbSpline
210
0.0
220
0.0
230
1.0
 70
     8
 71
     3
 72
     8
 73
     4
 74
     0
 42
0.000000001
 43
0.0000000001
 40
0.0
 40
0.0
 40
0.0
 40
0.0
 40
1.0
 40
1.0
 40
1.0
 40
1.0
 10
358.8725790271919
 20
365.7728608860109
 30
0.0
 10
358.8620986177037
 20
365.7059056170021
 30
0.0
 10
358.8520163170539
 20
365.6391692885891
 30
0.0
 10
358.8423368668243
 20
365.5726545084128
 30
0.0
  0
SPLINE
  5
155
330
1F
100
AcDbEntity
  8
1
100
AcDbSpline
210
0.0
220
0.0
230
1.0
 70
     8
 71
     3
 72
     8
 73
     4
 74
     0
 42
0.000000001
 43
0.0000000001
 40
0.0
 40
0.0
 40
0.0
 40
0.0
 40
1.0
 40
1.0
 40
1.0
 40
1.0
 10
358.8423368668243
 20
361.473843108851
 30
0.0
 10
358.8608812512059
 20
361.3732031295647
 30
0.0
 10
358.8807960489073
 20
361.274470584327
 30
0.0
 10
358.9020054295677
 20
361.1775399273077
 30
0.0
  0
SPLINE
  5
156
330
1F
100
AcDbEntity
  8
1
100
AcDbSpline
210
0.0
220
0.0
230
1.0
 70
     8
 71
     3
 72
     8
 73
     4
 74
     0
 42
0.000000001
 43
0.0000000001
 40
0.0
 40
0.0
 40
0.0
 40
0.0
 40
1.0
 40
1.0
 40
1.0
 40
1.0
 10
356.6772733573632
 20
366.0411327540413
 30
0.0
 10
356.697162603262
 20
366.0395933869568
 30
0.0
 10
356.7170521283037
 20
366.0380539855668
 30
0.0
 10
356.7369419201066
 20
366.0365145513929
 30
0.0
  0
SPLINE
  5
157
330
1F
100
AcDbEntity
  8
1
100
AcDbSpline
210
0.0
220
0.0
230
1.0
 70
     8
 71
     3
 72
     8
 73
     4
 74
     0
 42
0.000000001
 43
0.0000000001
 40
0.0
 40
0.0
 40
0.0
 40
0.0
 40
1.0
 40
1.0
 40
1.0
 40
1.0
 10
356.6772733573632
 20
359.6308940570946
 30
0.0
 10
356.6971558314459
 20
359.5956008380751
 30
0.0
 10
356.7170454625588
 20
359.5603118374116
 30
0.0
 10
356.7369419201066
 20
359.525026860251
 30
0.0
  0
SPLINE
  5
158
330
1F
100
AcDbEntity
  8
1
100
AcDbSpline
210
0.0
220
0.0
230
1.0
 70
     8
 71
     3
 72
     8
 73
     4
 74
     0
 42
0.000000001
 43
0.0000000001
 40
0.0
 40
0.0
 40
0.0
 40
0.0
 40
1.0
 40
1.0
 40
1.0
 40
1.0
 10
356.7369419201066
 20
366.0365145513929
 30
0.0
 10
357.4302839142081
 20
365.9513901881459
 30
0.0
 10
358.1229810664646
 20
365.866316432878
 30
0.0
 10
358.8145178341124
 20
365.7813337460182
 30
0.0
  0
SPLINE
  5
159
330
1F
100
AcDbEntity
  8
1
100
AcDbSpline
210
0.0
220
0.0
230
1.0
 70
     8
 71
     3
 72
    10
 73
     6
 74
     0
 42
0.000000001
 43
0.0000000001
 40
0.0
 40
0.0
 40
0.0
 40
0.0
 40
0.5
 40
0.5
 40
1.0
 40
1.0
 40
1.0
 40
1.0
 10
356.7369419201066
 20
359.525026860251
 30
0.0
 10
357.1033744489075
 20
359.771808410979
 30
0.0
 10
357.4676197861808
 20
360.0217534777312
 30
0.0
 10
358.1900324871138
 20
360.5304346872243
 30
0.0
 10
358.5482227673312
 20
360.7891376838527
 30
0.0
 10
358.9020054295677
 20
361.0542157829514
 30
0.0
  0
SPLINE
  5
15A
330
1F
100
AcDbEntity
  8
1
100
AcDbSpline
210
0.0
220
0.0
230
1.0
 70
     8
 71
     3
 72
    63
 73
    59
 74
     0
 42
0.000000001
 43
0.0000000001
 40
0.0
 40
0.0
 40
0.0
 40
0.0
 40
0.041235076136672
 40
0.041235076136672
 40
0.0858859068228959
 40
0.0858859068228959
 40
0.108211322166008
 40
0.108211322166008
 40
0.1305367375091201
 40
0.1305367375091201
 40
0.1751875681953444
 40
0.1751875681953444
 40
0.2198383988815686
 40
0.2198383988815686
 40
0.2644892295677929
 40
0.2644892295677929
 40
0.286814644910905
 40
0.286814644910905
 40
0.3091400602540171
 40
0.3091400602540171
 40
0.3984417216264685
 40
0.3984417216264685
 40
0.4430925523126957
 40
0.4430925523126957
 40
0.4877433829989228
 40
0.4877433829989228
 40
0.57704504437138
 40
0.57704504437138
 40
0.5993704597144953
 40
0.5993704597144953
 40
0.6216958750576103
 40
0.6216958750576103
 40
0.6663467057438373
 40
0.6663467057438373
 40
0.7109975364300642
 40
0.7109975364300642
 40
0.755648367116291
 40
0.755648367116291
 40
0.7779737824594046
 40
0.7779737824594046
 40
0.8002991978025178
 40
0.8002991978025178
 40
0.8449500284887472
 40
0.8449500284887472
 40
0.8672754438318614
 40
0.8672754438318614
 40
0.889600859174976
 40
0.9119262745180904
 40
0.9119262745180904
 40
0.9230889821896466
 40
0.9230889821896466
 40
0.9342516898612029
 40
0.9342516898612029
 40
0.9789025205474263
 40
0.9789025205474263
 40
0.9900652282189824
 40
0.9900652282189824
 40
1.0
 40
1.0
 40
1.0
 40
1.0
 10
346.2213666464585
 20
369.1200876833852
 30
0.0
 10
346.1974283110275
 20
369.1542021562001
 30
0.0
 10
346.1734391857238
 20
369.18882675203
 30
0.0
 10
346.1223387882484
 20
369.2611962683249
 30
0.0
 10
346.0951365163932
 20
369.2989637460444
 30
0.0
 10
346.0526770415848
 20
369.3552659617523
 30
0.0
 10
346.0382500726172
 20
369.3739768798343
 30
0.0
 10
346.008754059047
 20
369.4112094802556
 30
0.0
 10
345.9936402925646
 20
369.4297839040757
 30
0.0
 10
345.9475713158026
 20
369.4846992126185
 30
0.0
 10
345.9159670760882
 20
369.5201411621251
 30
0.0
 10
345.8507049060906
 20
369.5884715227762
 30
0.0
 10
345.8170497267586
 20
369.6213626892893
 30
0.0
 10
345.7475528454034
 20
369.6844978826306
 30
0.0
 10
345.7117128209011
 20
369.7147435727587
 30
0.0
 10
345.6562617945922
 20
369.7580945377014
 30
0.0
 10
345.6374920375047
 20
369.7722087215622
 30
0.0
 10
345.5997680528262
 20
369.7994966611692
 30
0.0
 10
345.5807670852668
 20
369.8127080115826
 30
0.0
 10
345.4850838047108
 20
369.8766849840136
 30
0.0
 10
345.4063641298025
 20
369.9212507860202
 30
0.0
 10
345.2853994125987
 20
369.9793036848541
 30
0.0
 10
345.2445094066064
 20
369.997205473979
 30
0.0
 10
345.1629891078852
 20
370.0297331504448
 30
0.0
 10
345.1222265918973
 20
370.0444296743219
 30
0.0
 10
345.0000239977466
 20
370.084134449597
 30
0.0
 10
344.918657028516
 20
370.1048002662183
 30
0.0
 10
344.8175256271475
 20
370.1237611804592
 30
0.0
 10
344.7972933697657
 20
370.1272114930725
 30
0.0
 10
344.757113529595
 20
370.1333827413161
 30
0.0
 10
344.7371687339564
 20
370.1361048419823
 30
0.0
 10
344.6777954547439
 20
370.1431970819207
 30
0.0
 10
344.6388253498802
 20
370.1464966237223
 30
0.0
 10
344.5623035417387
 20
370.1502457689439
 30
0.0
 10
344.524750278071
 20
370.1506963009086
 30
0.0
 10
344.4513597413741
 20
370.1486339701747
 30
0.0
 10
344.4155191579741
 20
370.1461234970898
 30
0.0
 10
344.3633983797352
 20
370.1399246073944
 30
0.0
 10
344.3463205604567
 20
370.13745066385
 30
0.0
 10
344.3131527119563
 20
370.1317063710759
 30
0.0
 10
344.2970187693334
 20
370.1284313887759
 30
0.0
 10
344.2501123282907
 20
370.1173558886405
 30
0.0
 10
344.2208146746052
 20
370.1083146688634
 30
0.0
 10
344.1806953317227
 20
370.091955064294
 30
0.0
 10
344.1679253835256
 20
370.0860077195148
 30
0.0
 10
344.1442364095876
 20
370.0732915906949
 30
0.0
 10
344.1223244687519
 20
370.0597346659948
 30
0.0
 10
344.104337517925
 20
370.0444608875214
 30
0.0
 10
344.0924997669977
 20
370.0323385151643
 30
0.0
 10
344.0888298273936
 20
370.0281864269883
 30
0.0
 10
344.0820791993327
 20
370.0196542278574
 30
0.0
 10
344.0789907699677
 20
370.0152609439609
 30
0.0
 10
344.0652279112831
 20
369.9928743181869
 30
0.0
 10
344.0596388172831
 20
369.9737985238273
 30
0.0
 10
344.0600063370217
 20
369.948767706683
 30
0.0
 10
344.060448932368
 20
369.9437021289646
 30
0.0
 10
344.062002273689
 20
369.9340220681334
 30
0.0
 10
344.0630365377493
 20
369.9294213661191
 30
0.0
 10
344.064358174785
 20
369.9248316449222
 30
0.0
  0
SPLINE
  5
15B
330
1F
100
AcDbEntity
  8
1
100
AcDbSpline
210
0.0
220
0.0
230
1.0
 70
     8
 71
     2
 72
    12
 73
     9
 74
     0
 42
0.000000001
 43
0.0000000001
 40
0.0
 40
0.0
 40
0.0
 40
0.1212898830119915
 40
0.1212898830119915
 40
0.4422297875776853
 40
0.4422297875776853
 40
0.7631696921433788
 40
0.7631696921433788
 40
1.0
 40
1.0
 40
1.0
 10
345.3019789060649
 20
372.9494056304119
 30
0.0
 10
345.419967211589
 20
372.6030486205922
 30
0.0
 10
345.5632221377347
 20
372.2650491911651
 30
0.0
 10
345.9528599060823
 20
371.3457276227688
 30
0.0
 10
346.5135210105881
 20
370.5238523827262
 30
0.0
 10
347.0785434084572
 20
369.6955839061968
 30
0.0
 10
347.7941430279441
 20
368.9990443222054
 30
0.0
 10
348.3157081248621
 20
368.4913711405284
 30
0.0
 10
348.9018794403204
 20
368.0682372309667
 30
0.0
  0
SPLINE
  5
15C
330
1F
100
AcDbEntity
  8
1
100
AcDbSpline
210
0.0
220
0.0
230
1.0
 70
     8
 71
     3
 72
     9
 73
     5
 74
     0
 42
0.000000001
 43
0.0000000001
 40
0.0
 40
0.0
 40
0.0
 40
0.0
 40
0.5
 40
1.0
 40
1.0
 40
1.0
 40
1.0
 10
353.6704541107788
 20
366.42685009404
 30
0.0
 10
353.8236051311319
 20
366.3959934814833
 30
0.0
 10
354.1312658374029
 20
366.3406665509888
 30
0.0
 10
354.4417277090747
 20
366.2986434710514
 30
0.0
 10
354.5976865381908
 20
366.2811131918974
 30
0.0
  0
SPLINE
  5
15D
330
1F
100
AcDbEntity
  8
1
100
AcDbSpline
210
0.0
220
0.0
230
1.0
 70
     8
 71
     3
 72
    51
 73
    47
 74
     0
 42
0.000000001
 43
0.0000000001
 40
0.0
 40
0.0
 40
0.0
 40
0.0
 40
0.0625000000000048
 40
0.0625000000000048
 40
0.1250000000000095
 40
0.1250000000000095
 40
0.1562500000000119
 40
0.1562500000000119
 40
0.1718750000000131
 40
0.1718750000000131
 40
0.1875000000000143
 40
0.1875000000000143
 40
0.2500000000000176
 40
0.2500000000000176
 40
0.3125000000000209
 40
0.3125000000000209
 40
0.3437500000000225
 40
0.3437500000000225
 40
0.3750000000000242
 40
0.3750000000000242
 40
0.4375000000000275
 40
0.5000000000000308
 40
0.5000000000000308
 40
0.5312500000000325
 40
0.5312500000000325
 40
0.5625000000000342
 40
0.5625000000000342
 40
0.6250000000000368
 40
0.6250000000000368
 40
0.6875000000000393
 40
0.6875000000000393
 40
0.7187500000000397
 40
0.7187500000000397
 40
0.7343750000000386
 40
0.7343750000000386
 40
0.7500000000000374
 40
0.7500000000000374
 40
0.8125000000000307
 40
0.8125000000000307
 40
0.8750000000000239
 40
0.8750000000000239
 40
0.9062500000000188
 40
0.9062500000000188
 40
0.937500000000014
 40
0.937500000000014
 40
1.0
 40
1.0
 40
1.0
 40
1.0
 10
353.6704541107788
 20
360.7490525193134
 30
0.0
 10
353.7288109913765
 20
360.7776883079982
 30
0.0
 10
353.7829565340626
 20
360.8099371479572
 30
0.0
 10
353.884045429316
 20
360.8807859589967
 30
0.0
 10
353.9309793374205
 20
360.919393424839
 30
0.0
 10
353.9964211709833
 20
360.9817966289807
 30
0.0
 10
354.0174047391404
 20
361.0033495368348
 30
0.0
 10
354.0476606247041
 20
361.0367970139222
 30
0.0
 10
354.0575499936671
 20
361.0481428926662
 30
0.0
 10
354.0768081447094
 20
361.0710651563242
 30
0.0
 10
354.086191773388
 20
361.0826572039579
 30
0.0
 10
354.1319178553654
 20
361.141257744268
 30
0.0
 10
354.1647029701468
 20
361.1901784420938
 30
0.0
 10
354.2232530847492
 20
361.2918862004882
 30
0.0
 10
354.2490147061339
 20
361.344674658007
 30
0.0
 10
354.2825065331468
 20
361.4267432749285
 30
0.0
 10
354.2928121134557
 20
361.4546082732303
 30
0.0
 10
354.3115135759272
 20
361.5107265014296
 30
0.0
 10
354.3199399647336
 20
361.5390484576772
 30
0.0
 10
354.3425163631237
 20
361.6247881071043
 30
0.0
 10
354.3654313792511
 20
361.7411665538937
 30
0.0
 10
354.3741837822512
 20
361.861623484089
 30
0.0
 10
354.3752652518751
 20
361.9535372529158
 30
0.0
 10
354.374702036374
 20
361.9845028067254
 30
0.0
 10
354.371729558591
 20
362.046294166191
 30
0.0
 10
354.3693248975554
 20
362.0771882382245
 30
0.0
 10
354.3593744522476
 20
362.1698601750048
 30
0.0
 10
354.3491023231018
 20
362.2316282440873
 30
0.0
 10
354.3211379781712
 20
362.3550977495544
 30
0.0
 10
354.3034478796882
 20
362.4167993528085
 30
0.0
 10
354.2709796717152
 20
362.5092586900789
 30
0.0
 10
354.2591651963318
 20
362.5400628077599
 30
0.0
 10
354.239878608236
 20
362.5862384049377
 30
0.0
 10
354.233198032043
 20
362.6016004220979
 30
0.0
 10
354.2194041396109
 20
362.6320961265906
 30
0.0
 10
354.2122807945821
 20
362.6472541296765
 30
0.0
 10
354.1755317170664
 20
362.72259260101
 30
0.0
 10
354.1425226441672
 20
362.7814241597355
 30
0.0
 10
354.0690602912873
 20
362.896060730464
 30
0.0
 10
354.028610533138
 20
362.9518673921414
 30
0.0
 10
353.9618901064762
 20
363.0330717460655
 30
0.0
 10
353.9386389628577
 20
363.0597208139302
 30
0.0
 10
353.8899864440101
 20
363.1121194058472
 30
0.0
 10
353.8645349086413
 20
363.1379060185898
 30
0.0
 10
353.7858428753053
 20
363.2127701156867
 30
0.0
 10
353.7299800104337
 20
363.2597114475117
 30
0.0
 10
353.6704541107788
 20
363.3034307928063
 30
0.0
  0
SPLINE
  5
15E
330
1F
100
AcDbEntity
  8
1
100
AcDbSpline
210
0.0
220
0.0
230
1.0
 70
     8
 71
     3
 72
    10
 73
     6
 74
     0
 42
0.000000001
 43
0.0000000001
 40
0.0
 40
0.0
 40
0.0
 40
0.0
 40
0.5
 40
0.5
 40
1.0
 40
1.0
 40
1.0
 40
1.0
 10
351.991564833828
 20
366.9107118812623
 30
0.0
 10
352.2644350176195
 20
366.8074291204197
 30
0.0
 10
352.5408441080578
 20
366.7153693527361
 30
0.0
 10
353.1005231135728
 20
366.5539595479136
 30
0.0
 10
353.3837924018774
 20
366.4846062178063
 30
0.0
 10
353.6704541107788
 20
366.4268500940402
 30
0.0
  0
SPLINE
  5
15F
330
1F
100
AcDbEntity
  8
1
100
AcDbSpline
210
0.0
220
0.0
230
1.0
 70
     8
 71
     3
 72
    87
 73
    83
 74
     0
 42
0.000000001
 43
0.0000000001
 40
0.0
 40
0.0
 40
0.0
 40
0.0
 40
0.0380916124031916
 40
0.0380916124031916
 40
0.0761832248063832
 40
0.0761832248063832
 40
0.0857061279071807
 40
0.0857061279071807
 40
0.0952290310079783
 40
0.0952290310079783
 40
0.1142748372095734
 40
0.1142748372095734
 40
0.1523664496127636
 40
0.1523664496127636
 40
0.1714122558143578
 40
0.1714122558143578
 40
0.1809351589151549
 40
0.1809351589151549
 40
0.190458062015952
 40
0.190458062015952
 40
0.2285496744191458
 40
0.2285496744191458
 40
0.2475954806207428
 40
0.2475954806207428
 40
0.2571183837215404
 40
0.2571183837215404
 40
0.266641286822338
 40
0.266641286822338
 40
0.3047328992255265
 40
0.3047328992255265
 40
0.3428245116287151
 40
0.3428245116287151
 40
0.3523474147295119
 40
0.3523474147295119
 40
0.3618703178303086
 40
0.3809161240319034
 40
0.3809161240319034
 40
0.4190077364350926
 40
0.4190077364350926
 40
0.4380535426366873
 40
0.4380535426366873
 40
0.4570993488382817
 40
0.4570993488382817
 40
0.4951909612414715
 40
0.4951909612414715
 40
0.5142367674430661
 40
0.5142367674430661
 40
0.5332825736446609
 40
0.5332825736446609
 40
0.5713741860478504
 40
0.5713741860478504
 40
0.5904199922494452
 40
0.5904199922494452
 40
0.60946579845104
 40
0.60946579845104
 40
0.6475574108542297
 40
0.6475574108542297
 40
0.6856490232574197
 40
0.6856490232574197
 40
0.7046948294590142
 40
0.7046948294590142
 40
0.7237406356606085
 40
0.7237406356606085
 40
0.7618322480637981
 40
0.7999238604669876
 40
0.7999238604669876
 40
0.8380154728701771
 40
0.8380154728701771
 40
0.8570612790717721
 40
0.8570612790717721
 40
0.876107085273367
 40
0.876107085273367
 40
0.914198697676557
 40
0.914198697676557
 40
0.9522903100797471
 40
0.9522903100797471
 40
0.9618132131805447
 40
0.9618132131805447
 40
0.971336116281342
 40
0.9903819224829369
 40
0.9903819224829369
 40
1.0
 40
1.0
 40
1.0
 40
1.0
 10
353.6704541107788
 20
363.3034307928063
 30
0.0
 10
353.6125689460029
 20
363.3459450852562
 30
0.0
 10
353.5523389393907
 20
363.3844866857204
 30
0.0
 10
353.4272091988648
 20
363.4535578749251
 30
0.0
 10
353.3623107734132
 20
363.4840899826636
 30
0.0
 10
353.2781237329948
 20
363.5169445545102
 30
0.0
 10
353.2611324274362
 20
363.5232487700308
 30
0.0
 10
353.2268353440247
 20
363.5353110880274
 30
0.0
 10
353.2095230611564
 20
363.5410695350332
 30
0.0
 10
353.1575480004162
 20
363.5573734555429
 30
0.0
 10
353.1227034114254
 20
363.5670013815899
 30
0.0
 10
353.0175915540624
 20
363.5922029425066
 30
0.0
 10
352.9467489895637
 20
363.604112706363
 30
0.0
 10
352.8393059425606
 20
363.6144823558615
 30
0.0
 10
352.8032943832148
 20
363.6166852891762
 30
0.0
 10
352.7489710236433
 20
363.6180448904724
 30
0.0
 10
352.7307735691254
 20
363.6181729110622
 30
0.0
 10
352.6944749593493
 20
363.6177682452218
 30
0.0
 10
352.6763969478911
 20
363.617237485235
 30
0.0
 10
352.5863588986702
 20
363.6129636720678
 30
0.0
 10
352.5154485358415
 20
363.6043858239064
 30
0.0
 10
352.4107556959606
 20
363.583893302743
 30
0.0
 10
352.3761381126599
 20
363.5757865447558
 30
0.0
 10
352.3246423794228
 20
363.5616812046563
 30
0.0
 10
352.3075489906188
 20
363.5566549037229
 30
0.0
 10
352.2735087295422
 20
363.5459439994328
 30
0.0
 10
352.256530764873
 20
363.5402481400463
 30
0.0
 10
352.1723868055081
 20
363.5102266112069
 30
0.0
 10
352.1081102312066
 20
363.4815598017084
 30
0.0
 10
351.9854397227882
 20
363.4154221764928
 30
0.0
 10
351.9270467919147
 20
363.3779490577489
 30
0.0
 10
351.8578508998227
 20
363.3255783056946
 30
0.0
 10
351.8441762931098
 20
363.3148038904043
 30
0.0
 10
351.817424280096
 20
363.2928699255913
 30
0.0
 10
351.7781391033212
 20
363.2593557412739
 30
0.0
 10
351.7413318740462
 20
363.2240562459025
 30
0.0
 10
351.6709340795468
 20
363.1511858775483
 30
0.0
 10
351.6282780453543
 20
363.0995863994197
 30
0.0
 10
351.5706221662936
 20
363.0179010687912
 30
0.0
 10
351.5524038811822
 20
362.9898486716788
 30
0.0
 10
351.5185530977043
 20
362.9331098406859
 30
0.0
 10
351.502875850326
 20
362.9043775376731
 30
0.0
 10
351.4594196084009
 20
362.8171832428317
 30
0.0
 10
351.4352031628131
 20
362.7577287268183
 30
0.0
 10
351.4056126018886
 20
362.6668172565041
 30
0.0
 10
351.3968743151821
 20
362.6362214957053
 30
0.0
 10
351.3816231382498
 20
362.5744891911133
 30
0.0
 10
351.3751830890416
 20
362.5436503799064
 30
0.0
 10
351.3592118575421
 20
362.451241219369
 30
0.0
 10
351.3530169967373
 20
362.3897793867391
 30
0.0
 10
351.3498491784202
 20
362.2978761231843
 30
0.0
 10
351.3498173856253
 20
362.2672896100584
 30
0.0
 10
351.3517458214155
 20
362.2062210516197
 30
0.0
 10
351.3537122499984
 20
362.1756797934491
 30
0.0
 10
351.3625038038314
 20
362.0846376053129
 30
0.0
 10
351.3721531582514
 20
362.0251023288296
 30
0.0
 10
351.3983320761908
 20
361.9081730997223
 30
0.0
 10
351.4148645431967
 20
361.8507797721409
 30
0.0
 10
351.4445621988662
 20
361.7662059853072
 30
0.0
 10
351.4552802964994
 20
361.7382678064636
 30
0.0
 10
351.4783375006007
 20
361.6828866865598
 30
0.0
 10
351.490698769497
 20
361.6554048853362
 30
0.0
 10
351.5298663580082
 20
361.5743708601456
 30
0.0
 10
351.5877811205585
 20
361.4696629850881
 30
0.0
 10
351.6566172176805
 20
361.3711420772308
 30
0.0
 10
351.7309606371159
 20
361.2755823350752
 30
0.0
 10
351.7708837909939
 20
361.2292827137845
 30
0.0
 10
351.8351619993205
 20
361.1620368044996
 30
0.0
 10
351.8572998670538
 20
361.1400200552187
 30
0.0
 10
351.9026771577117
 20
361.0971224101054
 30
0.0
 10
351.9259630401019
 20
361.0761918230259
 30
0.0
 10
351.9976612839237
 20
361.0149451123694
 30
0.0
 10
352.0479019527136
 20
360.9761661373734
 30
0.0
 10
352.1537853051804
 20
360.902832623918
 30
0.0
 10
352.209420007874
 20
360.8682735622492
 30
0.0
 10
352.2829604181228
 20
360.8279772133306
 30
0.0
 10
352.2978946963498
 20
360.8200517842092
 30
0.0
 10
352.3280124995368
 20
360.8045931926814
 30
0.0
 10
352.3735909473468
 20
360.781976453686
 30
0.0
 10
352.4204073573137
 20
360.7610963070205
 30
0.0
 10
352.4682682253704
 20
360.7413616862775
 30
0.0
 10
352.48447712452
 20
360.7349440609212
 30
0.0
 10
352.5008435198533
 20
360.7287392880156
 30
0.0
  0
SPLINE
  5
160
330
1F
100
AcDbEntity
  8
1
100
AcDbSpline
210
0.0
220
0.0
230
1.0
 70
     8
 71
     3
 72
    16
 73
    12
 74
     0
 42
0.000000001
 43
0.0000000001
 40
0.0
 40
0.0
 40
0.0
 40
0.0
 40
0.3262594951339556
 40
0.3262594951339556
 40
0.4104770582422192
 40
0.4104770582422192
 40
0.4946946213504829
 40
0.4946946213504829
 40
0.6631297475669993
 40
0.6631297475669993
 40
1.0
 40
1.0
 40
1.0
 40
1.0
 10
353.0850968454457
 20
360.6180638303625
 30
0.0
 10
353.1550279052366
 20
360.6180485550148
 30
0.0
 10
353.2233442389999
 20
360.6229496728525
 30
0.0
 10
353.307362433308
 20
360.6351452158748
 30
0.0
 10
353.3244977738261
 20
360.6379683108329
 30
0.0
 10
353.3585645731619
 20
360.6442585354244
 30
0.0
 10
353.3755334128185
 20
360.6477342776261
 30
0.0
 10
353.4258688477188
 20
360.6590734628825
 30
0.0
 10
353.4584616525508
 20
360.6677936697179
 30
0.0
 10
353.5536091689318
 20
360.6972057514952
 30
0.0
 10
353.6135487982474
 20
360.7211290167546
 30
0.0
 10
353.6704541107788
 20
360.7490525193134
 30
0.0
  0
SPLINE
  5
161
330
1F
100
AcDbEntity
  8
1
100
AcDbSpline
210
0.0
220
0.0
230
1.0
 70
     8
 71
     3
 72
    30
 73
    26
 74
     0
 42
0.000000001
 43
0.0000000001
 40
0.0
 40
0.0
 40
0.0
 40
0.0
 40
0.0765544436165929
 40
0.0765544436165929
 40
0.2166991791546672
 40
0.2166991791546672
 40
0.2867715469237042
 40
0.2867715469237042
 40
0.3568439146927412
 40
0.3568439146927412
 40
0.4269162824617784
 40
0.4269162824617784
 40
0.4969886502308153
 40
0.4969886502308153
 40
0.6371333857688835
 40
0.6371333857688835
 40
0.7072057535379156
 40
0.7072057535379156
 40
0.7772781213069474
 40
0.7772781213069474
 40
0.8473504890759791
 40
0.8473504890759791
 40
0.9174228568450113
 40
0.9174228568450113
 40
1.0
 40
1.0
 40
1.0
 40
1.0
 10
347.2166419429364
 20
373.3118382010839
 30
0.0
 10
347.1923289198604
 20
373.3130423397087
 30
0.0
 10
347.1685162879726
 20
373.3143457072287
 30
0.0
 10
347.1024909579362
 20
373.3182658155066
 30
0.0
 10
347.0619083779038
 20
373.3210456798968
 30
0.0
 10
347.0042744589593
 20
373.3253867926417
 30
0.0
 10
346.9856400304371
 20
373.3268599146707
 30
0.0
 10
346.9496969944089
 20
373.3298117556826
 30
0.0
 10
346.9323564076681
 20
373.3312928947088
 30
0.0
 10
346.8989173697466
 20
373.3342361953615
 30
0.0
 10
346.8828433390478
 20
373.3356964243005
 30
0.0
 10
346.8522622782647
 20
373.3385375322624
 30
0.0
 10
346.8377078618304
 20
373.3399225702893
 30
0.0
 10
346.7961875138015
 20
373.3439342287699
 30
0.0
 10
346.7713528462882
 20
373.3464174898807
 30
0.0
 10
346.7383338157211
 20
373.3497121254689
 30
0.0
 10
346.7280176492411
 20
373.350740392818
 30
0.0
 10
346.7090113131642
 20
373.3526114102677
 30
0.0
 10
346.7002975738761
 20
373.3534565418013
 30
0.0
 10
346.6844322157963
 20
373.3549497028898
 30
0.0
 10
346.6772681747523
 20
373.3555987891273
 30
0.0
 10
346.6645687058539
 20
373.3566785994899
 30
0.0
 10
346.6590533026194
 20
373.3571077642582
 30
0.0
 10
346.6488054139862
 20
373.3577954782047
 30
0.0
 10
346.6443840824908
 20
373.3580099297034
 30
0.0
 10
346.6410792549297
 20
373.3580623780065
 30
0.0
  0
SPLINE
  5
162
330
1F
100
AcDbEntity
  8
1
100
AcDbSpline
210
0.0
220
0.0
230
1.0
 70
     8
 71
     3
 72
    28
 73
    24
 74
     0
 42
0.000000001
 43
0.0000000001
 40
0.0
 40
0.0
 40
0.0
 40
0.0
 40
0.0032328009614922
 40
0.0032328009614922
 40
0.0696839475640595
 40
0.0696839475640595
 40
0.2025862407691942
 40
0.2025862407691942
 40
0.3354885339743292
 40
0.3354885339743292
 40
0.4019396805768947
 40
0.4019396805768947
 40
0.4683908271794603
 40
0.4683908271794603
 40
0.6012931203845962
 40
0.6012931203845962
 40
0.6677442669871614
 40
0.6677442669871614
 40
0.7341954135897265
 40
0.7341954135897265
 40
0.8670977067948633
 40
0.8670977067948633
 40
1.0
 40
1.0
 40
1.0
 40
1.0
 10
346.6337492083194
 20
373.3571839079707
 30
0.0
 10
346.6337520272353
 20
373.3571655305902
 30
0.0
 10
346.6337567835956
 20
373.3571468654689
 30
0.0
 10
346.6339011083515
 20
373.3567383240832
 30
0.0
 10
346.6348677777478
 20
373.3562242881086
 30
0.0
 10
346.6402204158284
 20
373.3543362420659
 30
0.0
 10
346.6470225669008
 20
373.3526171751558
 30
0.0
 10
346.6669645980047
 20
373.3483387195936
 30
0.0
 10
346.6801035720422
 20
373.3457790336777
 30
0.0
 10
346.7047719161473
 20
373.3413705015972
 30
0.0
 10
346.713863309027
 20
373.3398000329739
 30
0.0
 10
346.7334714443084
 20
373.3365318556215
 30
0.0
 10
346.7440042622098
 20
373.3348308777175
 30
0.0
 10
346.7777663405712
 20
373.3295622235951
 30
0.0
 10
346.8031466907708
 20
373.3258283430513
 30
0.0
 10
346.8456556999557
 20
373.3200382559444
 30
0.0
 10
346.8605681353
 20
373.3180767637729
 30
0.0
 10
346.8919413756336
 20
373.3141167602327
 30
0.0
 10
346.908452256365
 20
373.3121131402607
 30
0.0
 10
346.959494444983
 20
373.3061959642826
 30
0.0
 10
346.9957659813887
 20
373.3023434398428
 30
0.0
 10
347.0728520048754
 20
373.2950579235023
 30
0.0
 10
347.1136636221543
 20
373.291623779894
 30
0.0
 10
347.1569533326051
 20
373.2885306339053
 30
0.0
  0
SPLINE
  5
163
330
1F
100
AcDbEntity
  8
1
100
AcDbSpline
210
0.0
220
0.0
230
1.0
 70
     8
 71
     3
 72
    26
 73
    22
 74
     0
 42
0.000000001
 43
0.0000000001
 40
0.0
 40
0.0
 40
0.0
 40
0.0
 40
0.1464879971531983
 40
0.1464879971531983
 40
0.2929759943063966
 40
0.2929759943063966
 40
0.4394639914595949
 40
0.4394639914595949
 40
0.5859519886127932
 40
0.5859519886127932
 40
0.6591959871893959
 40
0.6591959871893959
 40
0.7324399857659985
 40
0.7324399857659985
 40
0.8056839843426011
 40
0.8056839843426011
 40
0.8789279829192039
 40
0.8789279829192039
 40
0.9521719814958068
 40
0.9521719814958068
 40
1.0
 40
1.0
 40
1.0
 40
1.0
 10
345.8996366453945
 20
358.6826496636388
 30
0.0
 10
345.8416229935901
 20
358.6826495874861
 30
0.0
 10
345.7840334270199
 20
358.6822292504558
 30
0.0
 10
345.6697500839609
 20
358.680644803261
 30
0.0
 10
345.6138055475471
 20
358.6794916870347
 30
0.0
 10
345.5043787123802
 20
358.6766586047978
 30
0.0
 10
345.4515249146589
 20
358.6749954187709
 30
0.0
 10
345.349668957609
 20
358.6714392864084
 30
0.0
 10
345.3011917039224
 20
358.6695650620443
 30
0.0
 10
345.2323379804014
 20
358.6668407975204
 30
0.0
 10
345.2101560892339
 20
358.6659523834454
 30
0.0
 10
345.1673279043201
 20
358.6642540635939
 30
0.0
 10
345.1466606905734
 20
358.6634433163284
 30
0.0
 10
345.1069857363613
 20
358.6619451980553
 30
0.0
 10
345.0880600310501
 20
358.6612609318807
 30
0.0
 10
345.0520434597657
 20
358.6600613489118
 30
0.0
 10
345.0349317124271
 20
358.6595454602457
 30
0.0
 10
345.0026893285618
 20
358.6587269897795
 30
0.0
 10
344.9876212054972
 20
358.6584258539291
 30
0.0
 10
344.9644737810855
 20
358.6581367070524
 30
0.0
 10
344.9557747741941
 20
358.658076376144
 30
0.0
 10
344.9475503563074
 20
358.6580751684544
 30
0.0
  0
SPLINE
  5
164
330
1F
100
AcDbEntity
  8
1
100
AcDbSpline
210
0.0
220
0.0
230
1.0
 70
    24
 71
     3
 72
     8
 73
     4
 74
     0
 42
0.000000001
 43
0.0000000001
 40
0.0
 40
0.0
 40
0.0
 40
0.0
 40
1.0
 40
1.0
 40
1.0
 40
1.0
 10
345.8996366453945
 20
358.6826496636388
 30
0.0
 10
346.1574060151843
 20
358.6826500020043
 30
0.0
 10
346.4151753849741
 20
358.6826503403731
 30
0.0
 10
346.6729447547639
 20
358.6826506787458
 30
0.0
  0
SPLINE
  5
165
330
1F
100
AcDbEntity
  8
1
100
AcDbSpline
210
0.0
220
0.0
230
1.0
 70
     8
 71
     3
 72
     8
 73
     4
 74
     0
 42
0.000000001
 43
0.0000000001
 40
0.0
 40
0.0
 40
0.0
 40
0.0
 40
1.0
 40
1.0
 40
1.0
 40
1.0
 10
346.7945128179908
 20
358.6820400245285
 30
0.0
 10
346.7541451957791
 20
358.6824445463828
 30
0.0
 10
346.7136225671382
 20
358.6826507321434
 30
0.0
 10
346.6729447547639
 20
358.6826506787458
 30
0.0
  0
SPLINE
  5
166
330
1F
100
AcDbEntity
  8
1
100
AcDbSpline
210
0.0
220
0.0
230
1.0
 70
     8
 71
     3
 72
     9
 73
     5
 74
     0
 42
0.000000001
 43
0.0000000001
 40
0.0
 40
0.0
 40
0.0
 40
0.0
 40
0.5
 40
1.0
 40
1.0
 40
1.0
 40
1.0
 10
360.8968738588052
 20
365.7497874978088
 30
0.0
 10
360.9180562555367
 20
365.7473535581234
 30
0.0
 10
360.9602530162204
 20
365.7460180888838
 30
0.0
 10
361.0021265746072
 20
365.7514770264908
 30
0.0
 10
361.0229793374108
 20
365.75597270036
 30
0.0
  0
SPLINE
  5
167
330
1F
100
AcDbEntity
  8
1
100
AcDbSpline
210
0.0
220
0.0
230
1.0
 70
     8
 71
     3
 72
    20
 73
    16
 74
     0
 42
0.000000001
 43
0.0000000001
 40
0.0
 40
0.0
 40
0.0
 40
0.0
 40
0.125
 40
0.125
 40
0.2499999999999999
 40
0.2499999999999999
 40
0.3749999999999999
 40
0.3749999999999999
 40
0.4999999999999999
 40
0.4999999999999999
 40
0.6249999999999999
 40
0.6249999999999999
 40
0.7499999999999997
 40
0.7499999999999997
 40
1.0
 40
1.0
 40
1.0
 40
1.0
 10
355.2322031964179
 20
370.2573315090717
 30
0.0
 10
355.2309486135056
 20
370.2516377942105
 30
0.0
 10
355.2291879354233
 20
370.2461483519456
 30
0.0
 10
355.2247094381199
 20
370.2355561774543
 30
0.0
 10
355.2219575625354
 20
370.2304063083598
 30
0.0
 10
355.2156400682899
 20
370.2207671355202
 30
0.0
 10
355.2120961366978
 20
370.2162878399303
 30
0.0
 10
355.2042770748189
 20
370.2079762830471
 30
0.0
 10
355.1999593937488
 20
370.2041140372958
 30
0.0
 10
355.1907763533866
 20
370.1972136675798
 30
0.0
 10
355.1859526857338
 20
370.1941940772078
 30
0.0
 10
355.1758661430938
 20
370.1889715011911
 30
0.0
 10
355.1705765490239
 20
370.1867602834034
 30
0.0
 10
355.1542027928008
 20
370.1814470923218
 30
0.0
 10
355.1430006893127
 20
370.1797304283133
 30
0.0
 10
355.1315172607065
 20
370.1798176414811
 30
0.0
  0
SPLINE
  5
168
330
1F
100
AcDbEntity
  8
1
100
AcDbSpline
210
0.0
220
0.0
230
1.0
 70
     8
 71
     3
 72
    21
 73
    17
 74
     0
 42
0.000000001
 43
0.0000000001
 40
0.0
 40
0.0
 40
0.0
 40
0.0
 40
0.2499999999999752
 40
0.2499999999999752
 40
0.3124999999999792
 40
0.3124999999999792
 40
0.3749999999999833
 40
0.3749999999999833
 40
0.4999999999999809
 40
0.6249999999999782
 40
0.6249999999999782
 40
0.6874999999999796
 40
0.6874999999999796
 40
0.7499999999999809
 40
0.7499999999999809
 40
1.0
 40
1.0
 40
1.0
 40
1.0
 10
355.1206900420063
 20
370.693790530246
 30
0.0
 10
355.1464972714352
 20
370.6641530861603
 30
0.0
 10
355.1685044139907
 20
370.6319932870235
 30
0.0
 10
355.1912656701887
 20
370.5886400089337
 30
0.0
 10
355.1955820186818
 20
370.5797959249047
 30
0.0
 10
355.2036342590071
 20
370.5619904354865
 30
0.0
 10
355.2073833886061
 20
370.5530058123865
 30
0.0
 10
355.2178145389213
 20
370.5258106185677
 30
0.0
 10
355.2295513476525
 20
370.488908367123
 30
0.0
 10
355.2369713208201
 20
370.4507296132621
 30
0.0
 10
355.2408622473912
 20
370.421600598261
 30
0.0
 10
355.2418740134095
 20
370.411834120942
 30
0.0
 10
355.2433148764921
 20
370.3923875865813
 30
0.0
 10
355.2437480763816
 20
370.3826787611686
 30
0.0
 10
355.2445030074574
 20
370.3342057078464
 30
0.0
 10
355.240646879513
 20
370.2956517535534
 30
0.0
 10
355.2322031964179
 20
370.2573315090717
 30
0.0
  0
SPLINE
  5
169
330
1F
100
AcDbEntity
  8
1
100
AcDbSpline
210
0.0
220
0.0
230
1.0
 70
     8
 71
     3
 72
    14
 73
    10
 74
     0
 42
0.000000001
 43
0.0000000001
 40
0.0
 40
0.0
 40
0.0
 40
0.0
 40
0.25
 40
0.25
 40
0.5
 40
0.5
 40
0.75
 40
0.75
 40
1.0
 40
1.0
 40
1.0
 40
1.0
 10
355.0546826521077
 20
370.147257296801
 30
0.0
 10
355.0596307770364
 20
370.1525756292172
 30
0.0
 10
355.0651705302787
 20
370.1573327689085
 30
0.0
 10
355.0769536546009
 20
370.165468539944
 30
0.0
 10
355.0831997806948
 20
370.1688713559365
 30
0.0
 10
355.0963797255827
 20
370.1743914427241
 30
0.0
 10
355.1033164146913
 20
370.1764859770307
 30
0.0
 10
355.1172523892869
 20
370.1792078882224
 30
0.0
 10
355.1243287627225
 20
370.1798722359496
 30
0.0
 10
355.1315172607065
 20
370.1798176414811
 30
0.0
  0
SPLINE
  5
16A
330
1F
100
AcDbEntity
  8
1
100
AcDbSpline
210
0.0
220
0.0
230
1.0
 70
     8
 71
     3
 72
     8
 73
     4
 74
     0
 42
0.000000001
 43
0.0000000001
 40
0.0
 40
0.0
 40
0.0
 40
0.0
 40
1.0
 40
1.0
 40
1.0
 40
1.0
 10
355.1112275938341
 20
370.7032304862466
 30
0.0
 10
355.1145792016434
 20
370.7003251550962
 30
0.0
 10
355.11773653399
 20
370.6971823871258
 30
0.0
 10
355.1206900420063
 20
370.693790530246
 30
0.0
  0
SPLINE
  5
16B
330
1F
100
AcDbEntity
  8
1
100
AcDbSpline
210
0.0
220
0.0
230
1.0
 70
     8
 71
     3
 72
    22
 73
    18
 74
     0
 42
0.000000001
 43
0.0000000001
 40
0.0
 40
0.0
 40
0.0
 40
0.0
 40
0.125
 40
0.125
 40
0.25
 40
0.25
 40
0.375
 40
0.375
 40
0.5
 40
0.5
 40
0.625
 40
0.625
 40
0.75
 40
0.75
 40
0.875
 40
0.875
 40
1.0
 40
1.0
 40
1.0
 40
1.0
 10
354.9864410262212
 20
369.6470320403037
 30
0.0
 10
354.9914349321392
 20
369.644256877732
 30
0.0
 10
354.9961806471542
 20
369.6410899339199
 30
0.0
 10
355.0050213327195
 20
369.6341091395994
 30
0.0
 10
355.0091414473349
 20
369.6302824196979
 30
0.0
 10
355.0167638460728
 20
369.6219379161592
 30
0.0
 10
355.0202579746332
 20
369.6174131151507
 30
0.0
 10
355.0263658717588
 20
369.6079644671844
 30
0.0
 10
355.0290155094063
 20
369.6030053926188
 30
0.0
 10
355.0334706301247
 20
369.5925986911155
 30
0.0
 10
355.0352577698646
 20
369.5871671215436
 30
0.0
 10
355.0378269782563
 20
369.5761927028093
 30
0.0
 10
355.0386309492569
 20
369.5706041259589
 30
0.0
 10
355.0392222086214
 20
369.5592139948047
 30
0.0
 10
355.0389975709098
 20
369.5534985570242
 30
0.0
 10
355.0375238460007
 20
369.5422699040465
 30
0.0
 10
355.0362775829188
 20
369.5367189240809
 30
0.0
 10
355.0344890812212
 20
369.5312357836072
 30
0.0
  0
SPLINE
  5
16C
330
1F
100
AcDbEntity
  8
1
100
AcDbSpline
210
0.0
220
0.0
230
1.0
 70
     8
 71
     3
 72
    14
 73
    10
 74
     0
 42
0.000000001
 43
0.0000000001
 40
0.0
 40
0.0
 40
0.0
 40
0.0
 40
0.25
 40
0.25
 40
0.5
 40
0.5
 40
0.75
 40
0.75
 40
1.0
 40
1.0
 40
1.0
 40
1.0
 10
354.9864410262212
 20
369.6470320403037
 30
0.0
 10
354.9801875354462
 20
369.6505071665526
 30
0.0
 10
354.9743057346048
 20
369.6546054146133
 30
0.0
 10
354.9635419900678
 20
369.6638559029671
 30
0.0
 10
354.9586960841804
 20
369.6689628405323
 30
0.0
 10
354.9500865901771
 20
369.6801520251291
 30
0.0
 10
354.9463222030183
 20
369.6862749927457
 30
0.0
 10
354.9402746874106
 20
369.6990032422267
 30
0.0
 10
354.9379356687702
 20
369.7056660824082
 30
0.0
 10
354.936341762722
 20
369.7126559844708
 30
0.0
  0
SPLINE
  5
16D
330
1F
100
AcDbEntity
  8
1
100
AcDbSpline
210
0.0
220
0.0
230
1.0
 70
     8
 71
     3
 72
    12
 73
     8
 74
     0
 42
0.000000001
 43
0.0000000001
 40
0.0
 40
0.0
 40
0.0
 40
0.0
 40
0.4999999999999986
 40
0.4999999999999986
 40
0.7499999999999992
 40
0.7499999999999992
 40
1.0
 40
1.0
 40
1.0
 40
1.0
 10
362.131747035951
 20
366.4937126196343
 30
0.0
 10
362.1328998623177
 20
366.4776620892111
 30
0.0
 10
362.133355439907
 20
366.4618617917434
 30
0.0
 10
362.1330355493857
 20
366.4385231578348
 30
0.0
 10
362.1327578849411
 20
366.4307721539777
 30
0.0
 10
362.131861182704
 20
366.4155572223148
 30
0.0
 10
362.1312457668607
 20
366.408125660278
 30
0.0
 10
362.1304645341368
 20
366.4008702867335
 30
0.0
  0
SPLINE
  5
16E
330
1F
100
AcDbEntity
  8
1
100
AcDbSpline
210
0.0
220
0.0
230
1.0
 70
     8
 71
     3
 72
     8
 73
     4
 74
     0
 42
0.000000001
 43
0.0000000001
 40
0.0
 40
0.0
 40
0.0
 40
0.0
 40
1.0
 40
1.0
 40
1.0
 40
1.0
 10
361.5928073462273
 20
368.9665662505914
 30
0.0
 10
361.6181838140933
 20
368.9035003330778
 30
0.0
 10
361.6417784401233
 20
368.8400520250589
 30
0.0
 10
361.6638825863827
 20
368.7762422949788
 30
0.0
  0
SPLINE
  5
16F
330
1F
100
AcDbEntity
  8
1
100
AcDbSpline
210
0.0
220
0.0
230
1.0
 70
     8
 71
     3
 72
     9
 73
     5
 74
     0
 42
0.000000001
 43
0.0000000001
 40
0.0
 40
0.0
 40
0.0
 40
0.0
 40
0.5
 40
1.0
 40
1.0
 40
1.0
 40
1.0
 10
346.8920366504709
 20
358.5110598779987
 30
0.0
 10
346.8707400766199
 20
358.5120206795495
 30
0.0
 10
346.82885708853
 20
358.5174045113285
 30
0.0
 10
346.7883400554542
 20
358.5294477595835
 30
0.0
 10
346.7684366187223
 20
358.5372004980497
 30
0.0
  0
SPLINE
  5
170
330
1F
100
AcDbEntity
  8
1
100
AcDbSpline
210
0.0
220
0.0
230
1.0
 70
     8
 71
     3
 72
    11
 73
     7
 74
     0
 42
0.000000001
 43
0.0000000001
 40
0.0
 40
0.0
 40
0.0
 40
0.0
 40
0.1675269469271406
 40
0.502830706155049
 40
0.8403010407806695
 40
1.0
 40
1.0
 40
1.0
 40
1.0
 10
353.1395078771883
 20
363.0822264281935
 30
0.0
 10
353.162427175341
 20
363.0960888655068
 30
0.0
 10
353.2322812504278
 20
363.1356203969243
 30
0.0
 10
353.3537669672664
 20
363.1909651456252
 30
0.0
 10
353.4789013721232
 20
363.2315639675768
 30
0.0
 10
353.5550507524809
 20
363.2486031736016
 30
0.0
 10
353.5796285601602
 20
363.253468746013
 30
0.0
  0
SPLINE
  5
171
330
1F
100
AcDbEntity
  8
1
100
AcDbSpline
210
0.0
220
0.0
230
1.0
 70
     8
 71
     3
 72
    26
 73
    22
 74
     0
 42
0.000000001
 43
0.0000000001
 40
0.0
 40
0.0
 40
0.0
 40
0.0
 40
0.1250000000000461
 40
0.1250000000000461
 40
0.1875000000000366
 40
0.1875000000000366
 40
0.2500000000000271
 40
0.2500000000000271
 40
0.3750000000000081
 40
0.3750000000000081
 40
0.4375000000000266
 40
0.4375000000000266
 40
0.500000000000045
 40
0.500000000000045
 40
0.6250000000000338
 40
0.6250000000000338
 40
0.7500000000000224
 40
0.7500000000000224
 40
0.8750000000000113
 40
0.8750000000000113
 40
1.0
 40
1.0
 40
1.0
 40
1.0
 10
361.940595832865
 20
365.9957262874244
 30
0.0
 10
361.950869613088
 20
365.9985187363143
 30
0.0
 10
361.9609674107692
 20
366.0021967823063
 30
0.0
 10
361.975856463003
 20
366.0090103948758
 30
0.0
 10
361.9807762988306
 20
366.0114989017881
 30
0.0
 10
361.9905277351672
 20
366.0169199422851
 30
0.0
 10
361.9953844056705
 20
366.019869937467
 30
0.0
 10
362.009587461103
 20
366.0292594688588
 30
0.0
 10
362.0185774781188
 20
366.0362251133295
 30
0.0
 10
362.0313673048094
 20
366.0476988445632
 30
0.0
 10
362.0355140506912
 20
366.0516952771495
 30
0.0
 10
362.0435703720918
 20
366.0600379161545
 30
0.0
 10
362.0474769154496
 20
366.0643849580935
 30
0.0
 10
362.058608280829
 20
366.0776847904827
 30
0.0
 10
362.0653337323131
 20
366.0869784276199
 30
0.0
 10
362.0774413596774
 20
366.1063906093376
 30
0.0
 10
362.0828437354788
 20
366.1165833064824
 30
0.0
 10
362.0919494438965
 20
366.1370843619764
 30
0.0
 10
362.0957080040769
 20
366.1474631460827
 30
0.0
 10
362.1016808138468
 20
366.1684700774364
 30
0.0
 10
362.1038870168896
 20
366.1791160417583
 30
0.0
 10
362.1052663396944
 20
366.1896506041762
 30
0.0
  0
SPLINE
  5
172
330
1F
100
AcDbEntity
  8
1
100
AcDbSpline
210
0.0
220
0.0
230
1.0
 70
     8
 71
     3
 72
    27
 73
    23
 74
     0
 42
0.000000001
 43
0.0000000001
 40
0.0
 40
0.0
 40
0.0
 40
0.0
 40
0.0875771895057501
 40
0.0875771895057501
 40
0.1313657842586254
 40
0.1313657842586254
 40
0.1751543790115008
 40
0.1751543790115008
 40
0.2627315685172524
 40
0.2627315685172524
 40
0.3503087580230041
 40
0.3503087580230041
 40
0.5254631370345083
 40
0.5254631370345083
 40
0.5692517317873832
 40
0.5692517317873832
 40
0.6130403265402582
 40
0.7006175160460085
 40
0.7006175160460085
 40
0.8757718950575073
 40
0.8757718950575073
 40
1.0
 40
1.0
 40
1.0
 40
1.0
 10
347.035944622831
 20
372.7118841213881
 30
0.0
 10
347.0501533101538
 20
372.6442336300497
 30
0.0
 10
347.0648123731217
 20
372.5786626487149
 30
0.0
 10
347.0873881394966
 20
372.4830160563572
 30
0.0
 10
347.095011513993
 20
372.4515866912865
 30
0.0
 10
347.1104424160873
 20
372.3895776067349
 30
0.0
 10
347.118267443376
 20
372.3589320664693
 30
0.0
 10
347.1418484785386
 20
372.2687793603978
 30
0.0
 10
347.1577063285558
 20
372.211043179286
 30
0.0
 10
347.1896512047435
 20
372.0995157798179
 30
0.0
 10
347.2057384023598
 20
372.0457275301998
 30
0.0
 10
347.2542945006591
 20
371.8894207456432
 30
0.0
 10
347.287055485873
 20
371.7919181610511
 30
0.0
 10
347.3283826916812
 20
371.6764605604162
 30
0.0
 10
347.3366756205024
 20
371.6536707910648
 30
0.0
 10
347.3532566790578
 20
371.6088138976237
 30
0.0
 10
347.3780891439766
 20
371.5426973749351
 30
0.0
 10
347.4028134297531
 20
371.4798204197967
 30
0.0
 10
347.4521372492575
 20
371.3578208577601
 30
0.0
 10
347.4848543515054
 20
371.2814675709348
 30
0.0
 10
347.5405561308357
 20
371.1576543352105
 30
0.0
 10
347.5636045153813
 20
371.1082549228903
 30
0.0
 10
347.5865967610197
 20
371.0605787100924
 30
0.0
  0
SPLINE
  5
173
330
1F
100
AcDbEntity
  8
1
100
AcDbSpline
210
0.0
220
0.0
230
1.0
 70
     8
 71
     3
 72
    34
 73
    30
 74
     0
 42
0.000000001
 43
0.0000000001
 40
0.0
 40
0.0
 40
0.0
 40
0.0
 40
0.0791060536391541
 40
0.0791060536391541
 40
0.1711954482752371
 40
0.1711954482752371
 40
0.2632848429113197
 40
0.2632848429113197
 40
0.3553742375474033
 40
0.3553742375474033
 40
0.447463632183487
 40
0.447463632183487
 40
0.5395530268195709
 40
0.5395530268195709
 40
0.6316424214556545
 40
0.6316424214556545
 40
0.6776871187736959
 40
0.6776871187736959
 40
0.7237318160917368
 40
0.7237318160917368
 40
0.815821210727822
 40
0.815821210727822
 40
0.8618659080458666
 40
0.8618659080458666
 40
0.9079106053639112
 40
0.9079106053639112
 40
0.9539553026819554
 40
0.9539553026819554
 40
1.0
 40
1.0
 40
1.0
 40
1.0
 10
347.0742972247118
 20
373.0968862312869
 30
0.0
 10
347.071397517037
 20
373.0909254180813
 30
0.0
 10
347.068562457348
 20
373.0847533476492
 30
0.0
 10
347.0625748596778
 20
373.0708883216299
 30
0.0
 10
347.0594409841577
 20
373.0630925574951
 30
0.0
 10
347.0534128027045
 20
373.0468288112937
 30
0.0
 10
347.0505216303312
 20
373.0383725637204
 30
0.0
 10
347.0450140700011
 20
373.0206960963679
 30
0.0
 10
347.0423974293884
 20
373.0114767517791
 30
0.0
 10
347.0374827769284
 20
372.9921083334616
 30
0.0
 10
347.0351842319565
 20
372.9819493068641
 30
0.0
 10
347.0310221868421
 20
372.9607310286906
 30
0.0
 10
347.0291509558911
 20
372.9496481159052
 30
0.0
 10
347.0259224549533
 20
372.9262798165744
 30
0.0
 10
347.0245635928634
 20
372.9139984669057
 30
0.0
 10
347.0230297750871
 20
372.8943612515441
 30
0.0
 10
347.0226032084805
 20
372.8876113925851
 30
0.0
 10
347.0219518521349
 20
372.8736194816089
 30
0.0
 10
347.0217274220486
 20
372.8663437082576
 30
0.0
 10
347.0214267368953
 20
372.844089007257
 30
0.0
 10
347.0217083513457
 20
372.8285912203511
 30
0.0
 10
347.0230970127408
 20
372.8039988524534
 30
0.0
 10
347.0237174754879
 20
372.795692250549
 30
0.0
 10
347.0252774332016
 20
372.779035785657
 30
0.0
 10
347.0262184502882
 20
372.7706574566243
 30
0.0
 10
347.0284408896115
 20
372.7537945971027
 30
0.0
 10
347.0297332589802
 20
372.7452493074779
 30
0.0
 10
347.0326235645685
 20
372.7283748200825
 30
0.0
 10
347.0342147280204
 20
372.7200677692368
 30
0.0
 10
347.0359446228084
 20
372.7118841213172
 30
0.0
  0
SPLINE
  5
174
330
1F
100
AcDbEntity
  8
1
100
AcDbSpline
210
0.0
220
0.0
230
1.0
 70
     8
 71
     3
 72
    70
 73
    66
 74
     0
 42
0.000000001
 43
0.0000000001
 40
0.0
 40
0.0
 40
0.0
 40
0.0
 40
0.0624999999999997
 40
0.0624999999999997
 40
0.0937499999999996
 40
0.0937499999999996
 40
0.1249999999999994
 40
0.1249999999999994
 40
0.140625
 40
0.140625
 40
0.1562500000000006
 40
0.1562500000000006
 40
0.1875000000000007
 40
0.1875000000000007
 40
0.2031250000000014
 40
0.2031250000000014
 40
0.2187500000000021
 40
0.2187500000000021
 40
0.2500000000000027
 40
0.2500000000000027
 40
0.2656250000000032
 40
0.2656250000000032
 40
0.2734375000000033
 40
0.2734375000000033
 40
0.2812500000000034
 40
0.2812500000000034
 40
0.3125000000000034
 40
0.3125000000000034
 40
0.3281250000000033
 40
0.3281250000000033
 40
0.3359375000000033
 40
0.3359375000000033
 40
0.3437500000000033
 40
0.3437500000000033
 40
0.3750000000000034
 40
0.3750000000000034
 40
0.4062500000000035
 40
0.4062500000000035
 40
0.4218750000000037
 40
0.4218750000000037
 40
0.4375000000000038
 40
0.4375000000000038
 40
0.4687500000000029
 40
0.4687500000000029
 40
0.5000000000000023
 40
0.5000000000000023
 40
0.5312500000000016
 40
0.5312500000000016
 40
0.5468750000000018
 40
0.5468750000000018
 40
0.5625000000000019
 40
0.5625000000000019
 40
0.6250000000000017
 40
0.6250000000000017
 40
0.6875000000000014
 40
0.6875000000000014
 40
0.7500000000000011
 40
0.7500000000000011
 40
0.8125000000000007
 40
0.8125000000000007
 40
0.8750000000000005
 40
0.8750000000000005
 40
0.9375000000000001
 40
0.9375000000000001
 40
1.0
 40
1.0
 40
1.0
 40
1.0
 10
342.9352941399882
 20
370.3436873175298
 30
0.0
 10
342.8043568567915
 20
370.3919603358522
 30
0.0
 10
342.6783669651022
 20
370.4456083198678
 30
0.0
 10
342.4985457575882
 20
370.5355507249588
 30
0.0
 10
342.4401426554055
 20
370.5671187750822
 30
0.0
 10
342.3268963881055
 20
370.6338362961405
 30
0.0
 10
342.2720490755045
 20
370.6689820882606
 30
0.0
 10
342.1929839518593
 20
370.7248441836796
 30
0.0
 10
342.1671653914291
 20
370.743990707676
 30
0.0
 10
342.1167272210338
 20
370.7834441211852
 30
0.0
 10
342.092074375253
 20
370.8037889883048
 30
0.0
 10
342.0211874554166
 20
370.8658129770523
 30
0.0
 10
341.97765623455
 20
370.9087357913221
 30
0.0
 10
341.9188460960179
 20
370.9757519257755
 30
0.0
 10
341.9003274654236
 20
370.9985306234465
 30
0.0
 10
341.8656661000758
 20
371.0450340590701
 30
0.0
 10
341.8494896863572
 20
371.0688346725647
 30
0.0
 10
341.8056633933602
 20
371.1404269108644
 30
0.0
 10
341.7823980985684
 20
371.1887675277166
 30
0.0
 10
341.7569746796469
 20
371.2621540223001
 30
0.0
 10
341.7500823023314
 20
371.2867625139147
 30
0.0
 10
341.7422153298957
 20
371.3238930438142
 30
0.0
 10
341.7400051646348
 20
371.3363062121047
 30
0.0
 10
341.7364284628734
 20
371.3612052404075
 30
0.0
 10
341.7350721981088
 20
371.3736309281788
 30
0.0
 10
341.7304446808208
 20
371.4352879952317
 30
0.0
 10
341.7335634382277
 20
371.4834617124349
 30
0.0
 10
341.7475695870657
 20
371.5540903742064
 30
0.0
 10
341.7537966865563
 20
371.5773609804654
 30
0.0
 10
341.7653900766331
 20
371.6118682117833
 30
0.0
 10
341.7696399563698
 20
371.6233253746405
 30
0.0
 10
341.7787976716202
 20
371.6459202378683
 30
0.0
 10
341.7837100431594
 20
371.6570760650821
 30
0.0
 10
341.8098501111519
 20
371.7121835985843
 30
0.0
 10
341.8357843452165
 20
371.754131461295
 30
0.0
 10
341.895921348187
 20
371.834484131938
 30
0.0
 10
341.9301335263613
 20
371.8728853445475
 30
0.0
 10
341.9867385798375
 20
371.928215896761
 30
0.0
 10
342.0063859139109
 20
371.9461745085633
 30
0.0
 10
342.0469164485709
 20
371.9810873580539
 30
0.0
 10
342.0678250289139
 20
371.9980660643309
 30
0.0
 10
342.1322810825193
 20
372.0477175362516
 30
0.0
 10
342.1775507101604
 20
372.0791116460653
 30
0.0
 10
342.2718798725172
 20
372.1390904035067
 30
0.0
 10
342.3209429368774
 20
372.1676724924698
 30
0.0
 10
342.4222831271484
 20
372.222460829066
 30
0.0
 10
342.4745622377328
 20
372.2486656301996
 30
0.0
 10
342.5550655595928
 20
372.286437613433
 30
0.0
 10
342.5821907213005
 20
372.2987440633103
 30
0.0
 10
342.6368280995579
 20
372.3227709667975
 30
0.0
 10
342.6643639320675
 20
372.3345024859557
 30
0.0
 10
342.8030405542795
 20
372.3918677467548
 30
0.0
 10
342.9171398144041
 20
372.4336694247287
 30
0.0
 10
343.1500402699981
 20
372.5112411957272
 30
0.0
 10
343.2688548173079
 20
372.5469936864483
 30
0.0
 10
343.5101999299258
 20
372.6137821029678
 30
0.0
 10
343.6327365003198
 20
372.6448100693998
 30
0.0
 10
343.8808497895652
 20
372.7030499843102
 30
0.0
 10
344.0064295696855
 20
372.7302578557034
 30
0.0
 10
344.2601409271495
 20
372.7815065671288
 30
0.0
 10
344.3882742144065
 20
372.8055451201802
 30
0.0
 10
344.6467252255668
 20
372.8509414545617
 30
0.0
 10
344.7768935877413
 20
372.8722706227006
 30
0.0
 10
345.038492872888
 20
372.912542150815
 30
0.0
 10
345.1699852388942
 20
372.9314942046566
 30
0.0
 10
345.302081375664
 20
372.9494260867436
 30
0.0
  0
SPLINE
  5
175
330
1F
100
AcDbEntity
  8
1
100
AcDbSpline
210
0.0
220
0.0
230
1.0
 70
     8
 71
     3
 72
    63
 73
    59
 74
     0
 42
0.000000001
 43
0.0000000001
 40
0.0
 40
0.0
 40
0.0
 40
0.0
 40
0.0306400228747062
 40
0.0306400228747062
 40
0.0618970700682142
 40
0.0618970700682142
 40
0.1244111644552304
 40
0.1244111644552304
 40
0.1556682116487385
 40
0.1556682116487385
 40
0.1869252588422465
 40
0.2181823060357546
 40
0.2181823060357546
 40
0.2338108296325104
 40
0.2338108296325104
 40
0.2494393532292662
 40
0.2494393532292662
 40
0.3119534476162968
 40
0.3119534476162968
 40
0.3432104948098099
 40
0.3432104948098099
 40
0.3744675420033231
 40
0.3744675420033231
 40
0.4369816363903496
 40
0.4369816363903496
 40
0.4994957307773758
 40
0.4994957307773758
 40
0.530752777970889
 40
0.530752777970889
 40
0.5463813015676457
 40
0.5463813015676457
 40
0.5620098251644022
 40
0.5620098251644022
 40
0.6245239195514234
 40
0.6245239195514234
 40
0.6557809667449368
 40
0.6557809667449368
 40
0.6870380139384499
 40
0.6870380139384499
 40
0.7495521083254806
 40
0.7495521083254806
 40
0.780809155518996
 40
0.780809155518996
 40
0.7964376791157556
 40
0.7964376791157556
 40
0.8120662027125147
 40
0.8120662027125147
 40
0.8745802970995432
 40
0.8745802970995432
 40
0.8902088206963021
 40
0.8902088206963021
 40
0.9058373442930612
 40
0.9058373442930612
 40
0.9370943914865783
 40
0.9370943914865783
 40
0.9996084858736141
 40
0.9996084858736141
 40
1.0
 40
1.0
 40
1.0
 40
1.0
 10
343.5114515301738
 20
373.3580750566323
 30
0.0
 10
343.5114753934125
 20
373.358073185392
 30
0.0
 10
343.512596270143
 20
373.357985486065
 30
0.0
 10
343.5171578823242
 20
373.357631209108
 30
0.0
 10
343.5206055525922
 20
373.3573641635236
 30
0.0
 10
343.5342125464091
 20
373.3563234612974
 30
0.0
 10
343.547610481433
 20
373.355309657454
 30
0.0
 10
343.5742056451474
 20
373.3533987540702
 30
0.0
 10
343.5840647872652
 20
373.352703953038
 30
0.0
 10
343.6055155622408
 20
373.3512356854015
 30
0.0
 10
343.6287472681998
 20
373.3496853622587
 30
0.0
 10
343.6554529615918
 20
373.348019342731
 30
0.0
 10
343.6767914717912
 20
373.3467444704891
 30
0.0
 10
343.6841323483413
 20
373.346314802426
 30
0.0
 10
343.699096820512
 20
373.3454590512176
 30
0.0
 10
343.7067377743322
 20
373.3450319058258
 30
0.0
 10
343.7457160432738
 20
373.3429073425918
 30
0.0
 10
343.7793515890744
 20
373.3412437990397
 30
0.0
 10
343.8333827219413
 20
373.3389385639751
 30
0.0
 10
343.8520690510563
 20
373.3381995053112
 30
0.0
 10
343.8899541448408
 20
373.3368318961727
 30
0.0
 10
343.9092174230305
 20
373.336200131794
 30
0.0
 10
343.9679401112234
 20
373.334481889367
 30
0.0
 10
344.0083241141427
 20
373.3335723084734
 30
0.0
 10
344.0916140930742
 20
373.3323338553336
 30
0.0
 10
344.1333640554816
 20
373.3320231102508
 30
0.0
 10
344.1959959486336
 20
373.3320251250283
 30
0.0
 10
344.216882623693
 20
373.3321036811836
 30
0.0
 10
344.2482269291472
 20
373.3323386211734
 30
0.0
 10
344.2586774169887
 20
373.3324364513851
 30
0.0
 10
344.2795832518438
 20
373.3326711839528
 30
0.0
 10
344.2900559660384
 20
373.3328084288522
 30
0.0
 10
344.3419241494564
 20
373.333583994385
 30
0.0
 10
344.382200379995
 20
373.3344931508839
 30
0.0
 10
344.4408144232793
 20
373.3362107904143
 30
0.0
 10
344.4600504082178
 20
373.336842350961
 30
0.0
 10
344.4978977003595
 20
373.3382098857866
 30
0.0
 10
344.5165870328305
 20
373.3389496533721
 30
0.0
 10
344.5705687369172
 20
373.3412544082548
 30
0.0
 10
344.6040955607947
 20
373.3429137204888
 30
0.0
 10
344.650639133876
 20
373.345450427568
 30
0.0
 10
344.665524974338
 20
373.3463039581172
 30
0.0
 10
344.6868603908967
 20
373.3475779740071
 30
0.0
 10
344.6938204640876
 20
373.3480025019138
 30
0.0
 10
344.707243672886
 20
373.3488365458977
 30
0.0
 10
344.7137244529098
 20
373.3492470775993
 30
0.0
 10
344.7449846412031
 20
373.3512600868302
 30
0.0
 10
344.7663679707194
 20
373.3527439816587
 30
0.0
 10
344.7883846494212
 20
373.3543249598969
 30
0.0
 10
344.7925501176902
 20
373.354627425783
 30
0.0
 10
344.8003911606334
 20
373.3552017761907
 30
0.0
 10
344.8040756495863
 20
373.3554743330719
 30
0.0
 10
344.8142519174573
 20
373.3562326334401
 30
0.0
 10
344.8199044182149
 20
373.356661555133
 30
0.0
 10
344.8335319249175
 20
373.3577036553736
 30
0.0
 10
344.8382124359349
 20
373.3580724626215
 30
0.0
 10
344.83824518674
 20
373.3580750190047
 30
0.0
 10
344.8382471138018
 20
373.3580751695805
 30
0.0
 10
344.838245052658
 20
373.3580750080488
 30
0.0
  0
SPLINE
  5
176
330
1F
100
AcDbEntity
  8
1
100
AcDbSpline
210
0.0
220
0.0
230
1.0
 70
     9
 71
     3
 72
   120
 73
   116
 74
     0
 42
0.000000001
 43
0.0000000001
 40
0.0
 40
0.0
 40
0.0
 40
0.0
 40
0.031249999999997
 40
0.031249999999997
 40
0.039062499999997
 40
0.039062499999997
 40
0.0468749999999971
 40
0.0468749999999971
 40
0.0624999999999972
 40
0.0624999999999972
 40
0.0937499999999986
 40
0.0937499999999986
 40
0.101562499999999
 40
0.101562499999999
 40
0.1093749999999993
 40
0.1250000000000001
 40
0.1406250000000008
 40
0.1406250000000008
 40
0.1484375000000009
 40
0.1484375000000009
 40
0.156250000000001
 40
0.156250000000001
 40
0.1875000000000022
 40
0.1875000000000022
 40
0.195312500000002
 40
0.195312500000002
 40
0.2031250000000018
 40
0.2187500000000027
 40
0.2343750000000037
 40
0.2343750000000037
 40
0.2500000000000047
 40
0.2500000000000047
 40
0.2812500000000086
 40
0.2812500000000086
 40
0.2890625000000078
 40
0.2890625000000078
 40
0.296875000000007
 40
0.296875000000007
 40
0.3125000000000054
 40
0.3125000000000054
 40
0.3437500000000047
 40
0.3437500000000047
 40
0.3593750000000031
 40
0.3593750000000031
 40
0.3750000000000015
 40
0.3750000000000015
 40
0.4062500000000008
 40
0.4062500000000008
 40
0.4218750000000006
 40
0.4218750000000006
 40
0.4375000000000002
 40
0.453125
 40
0.453125
 40
0.4687499999999997
 40
0.4687499999999997
 40
0.499999999999999
 40
0.499999999999999
 40
0.5156249999999988
 40
0.5156249999999988
 40
0.5234374999999996
 40
0.5234374999999996
 40
0.5312500000000004
 40
0.5312500000000004
 40
0.5625000000000039
 40
0.5625000000000039
 40
0.5781250000000057
 40
0.5781250000000057
 40
0.5859375000000063
 40
0.5859375000000063
 40
0.5937500000000068
 40
0.5937500000000068
 40
0.6250000000000091
 40
0.6250000000000091
 40
0.6328125000000098
 40
0.6328125000000098
 40
0.6406250000000103
 40
0.6562500000000118
 40
0.6718750000000132
 40
0.6718750000000132
 40
0.6875000000000146
 40
0.6875000000000146
 40
0.7187500000000185
 40
0.7187500000000185
 40
0.7343750000000204
 40
0.7343750000000204
 40
0.7500000000000223
 40
0.7656250000000244
 40
0.7656250000000244
 40
0.7734375000000242
 40
0.7734375000000242
 40
0.7812500000000241
 40
0.7812500000000241
 40
0.8125000000000216
 40
0.8125000000000216
 40
0.8281250000000206
 40
0.8281250000000206
 40
0.8359375000000211
 40
0.8359375000000211
 40
0.8437500000000216
 40
0.8437500000000216
 40
0.8750000000000191
 40
0.8750000000000191
 40
0.8906250000000165
 40
0.8906250000000165
 40
0.906250000000014
 40
0.906250000000014
 40
0.9375000000000063
 40
0.9375000000000063
 40
0.9453125000000044
 40
0.9453125000000044
 40
0.9531250000000024
 40
0.9531250000000024
 40
0.9687500000000007
 40
0.9687500000000007
 40
1.0
 40
1.0
 40
1.0
 40
1.0
 10
342.6416404551332
 20
358.6815145807707
 30
0.0
 10
342.67271394249
 20
358.6838097180467
 30
0.0
 10
342.7005780951831
 20
358.6864815287187
 30
0.0
 10
342.7313180774338
 20
358.6904249980565
 30
0.0
 10
342.7372596461903
 20
358.691244117058
 30
0.0
 10
342.7487198961625
 20
358.692947618367
 30
0.0
 10
342.7542490744553
 20
358.6938341074426
 30
0.0
 10
342.7700227942535
 20
358.696569671628
 30
0.0
 10
342.7795057403707
 20
358.6985011056569
 30
0.0
 10
342.8048944322227
 20
358.7046441482659
 30
0.0
 10
342.8177736027346
 20
358.7092020509223
 30
0.0
 10
342.8284638004478
 20
358.7155915850534
 30
0.0
 10
342.8303233705015
 20
358.716902673283
 30
0.0
 10
342.8334471679828
 20
358.7195618112505
 30
0.0
 10
342.8372583098954
 20
358.7236180076767
 30
0.0
 10
342.8393188982811
 20
358.7307164392399
 30
0.0
 10
342.8364180163697
 20
358.7367575292244
 30
0.0
 10
342.8324936947205
 20
358.7414250232937
 30
0.0
 10
342.8308869422793
 20
358.7430085976641
 30
0.0
 10
342.8271177149318
 20
358.7461881051952
 30
0.0
 10
342.8249560764814
 20
358.747785373866
 30
0.0
 10
342.8127961827497
 20
358.7558053062947
 30
0.0
 10
342.7987836741347
 20
358.7623303887288
 30
0.0
 10
342.7760174853016
 20
358.7705443222835
 30
0.0
 10
342.7711853393511
 20
358.7721942732652
 30
0.0
 10
342.7610552450994
 20
358.7754744754707
 30
0.0
 10
342.7451885723193
 20
358.7803570133601
 30
0.0
 10
342.7155000571715
 20
358.7882923332789
 30
0.0
 10
342.6884046532911
 20
358.7943880534944
 30
0.0
 10
342.6596439329879
 20
358.8003342943618
 30
0.0
 10
342.6443604211964
 20
358.8032433172098
 30
0.0
 10
342.5969040539132
 20
358.8115458560075
 30
0.0
 10
342.5629462170514
 20
358.8165663763595
 30
0.0
 10
342.5177258850425
 20
358.8221169023045
 30
0.0
 10
342.5085418749743
 20
358.8231905160924
 30
0.0
 10
342.4898920808045
 20
358.8252617245591
 30
0.0
 10
342.4804024161505
 20
358.8262616209814
 30
0.0
 10
342.4517130882309
 20
358.8291217714963
 30
0.0
 10
342.4323049691468
 20
358.8308429442383
 30
0.0
 10
342.3732676472428
 20
358.8354466537112
 30
0.0
 10
342.3328324601883
 20
358.8377726921308
 30
0.0
 10
342.2705584749989
 20
358.8400744577721
 30
0.0
 10
342.2494908185668
 20
358.8406413871653
 30
0.0
 10
342.2076214900242
 20
358.8413496686521
 30
0.0
 10
342.1867206838489
 20
358.8414956370644
 30
0.0
 10
342.1241179258037
 20
358.8413186056599
 30
0.0
 10
342.0825147314358
 20
358.8403840913857
 30
0.0
 10
342.0203162654815
 20
358.8377347319171
 30
0.0
 10
341.9997929010482
 20
358.8366488693583
 30
0.0
 10
341.9595675668017
 20
358.8341115733324
 30
0.0
 10
341.9200327338046
 20
358.8312032804531
 30
0.0
 10
341.8818740426917
 20
358.8275835059948
 30
0.0
 10
341.844420219325
 20
358.8236167747413
 30
0.0
 10
341.8260000808938
 20
358.8214540088658
 30
0.0
 10
341.7721479276598
 20
358.8144867460988
 30
0.0
 10
341.7389048060815
 20
358.8093148567504
 30
0.0
 10
341.6930041540911
 20
358.8009081236478
 30
0.0
 10
341.6783692145609
 20
358.7979969525846
 30
0.0
 10
341.6574566516076
 20
358.7934781571764
 30
0.0
 10
341.6506594362739
 20
358.7919465111984
 30
0.0
 10
341.637423724592
 20
358.7888338441033
 30
0.0
 10
341.6309994936814
 20
358.7872557263324
 30
0.0
 10
341.6001698014786
 20
358.7793436269913
 30
0.0
 10
341.5792959306937
 20
358.7728766569069
 30
0.0
 10
341.5537606159008
 20
358.7630930858661
 30
0.0
 10
341.5462182819585
 20
358.759817540988
 30
0.0
 10
341.536440265107
 20
358.7548941487847
 30
0.0
 10
341.5334467505267
 20
358.7532550884029
 30
0.0
 10
341.5280513043795
 20
358.7500173174272
 30
0.0
 10
341.5256392537033
 20
358.7484136474509
 30
0.0
 10
341.5149903497686
 20
358.7404738995218
 30
0.0
 10
341.5109441998804
 20
358.7343742842072
 30
0.0
 10
341.5116405443113
 20
358.7270978288105
 30
0.0
 10
341.5120730534528
 20
358.7256554400441
 30
0.0
 10
341.5135196177195
 20
358.7228307679978
 30
0.0
 10
341.5165560836998
 20
358.7186874278287
 30
0.0
 10
341.5258299361394
 20
358.7122339951722
 30
0.0
 10
341.5376422767255
 20
358.7075259475747
 30
0.0
 10
341.5516684793983
 20
358.7030336528916
 30
0.0
 10
341.5598285010982
 20
358.7008904730729
 30
0.0
 10
341.5870554610188
 20
358.6949013077245
 30
0.0
 10
341.60896612456
 20
358.6914407902823
 30
0.0
 10
341.6472514408238
 20
358.6868886067585
 30
0.0
 10
341.660994340908
 20
358.6854732304593
 30
0.0
 10
341.6897621673742
 20
358.6828849842711
 30
0.0
 10
341.7198863275393
 20
358.6805263200142
 30
0.0
 10
341.7526209679824
 20
358.6785619932194
 30
0.0
 10
341.7781418164242
 20
358.6772176200658
 30
0.0
 10
341.7868107050315
 20
358.6767910257418
 30
0.0
 10
341.8044743785962
 20
358.675978298603
 30
0.0
 10
341.8134911023146
 20
358.6755913525678
 30
0.0
 10
341.8590058730577
 20
358.6737673016259
 30
0.0
 10
341.8969233264715
 20
358.6726483936816
 30
0.0
 10
341.9559412172119
 20
358.6713457812088
 30
0.0
 10
341.9759734365095
 20
358.670975200458
 30
0.0
 10
342.0065692888138
 20
358.6705058664276
 30
0.0
 10
342.0168823356337
 20
358.6703636541738
 30
0.0
 10
342.0375135709069
 20
358.6701093532473
 30
0.0
 10
342.0478451471897
 20
358.6699969868745
 30
0.0
 10
342.0995812912872
 20
358.6695048948044
 30
0.0
 10
342.1412186020852
 20
358.6693300067453
 30
0.0
 10
342.2040433309434
 20
358.6693706767484
 30
0.0
 10
342.2250686328139
 20
358.6694357087031
 30
0.0
 10
342.2671573419674
 20
358.6696743640475
 30
0.0
 10
342.2879469813331
 20
358.669846351002
 30
0.0
 10
342.3495732935685
 20
358.6705261136921
 30
0.0
 10
342.3896739600457
 20
358.6711941538326
 30
0.0
 10
342.4385410336542
 20
358.6723681852884
 30
0.0
 10
342.4482509789342
 20
358.6726202237965
 30
0.0
 10
342.4675409470503
 20
358.6731617544839
 30
0.0
 10
342.4771378845879
 20
358.6734518837817
 30
0.0
 10
342.5054577715555
 20
358.6743745145467
 30
0.0
 10
342.5237882860481
 20
358.6750609409994
 30
0.0
 10
342.5771448499854
 20
358.6773634547321
 30
0.0
 10
342.6105669677762
 20
358.6792194434946
 30
0.0
 10
342.6416404551332
 20
358.6815145807707
 30
0.0
  0
SPLINE
  5
177
330
1F
100
AcDbEntity
  8
1
100
AcDbSpline
210
0.0
220
0.0
230
1.0
 70
     8
 71
     3
 72
     8
 73
     4
 74
     0
 42
0.000000001
 43
0.0000000001
 40
0.0
 40
0.0
 40
0.0
 40
0.0
 40
1.0
 40
1.0
 40
1.0
 40
1.0
 10
347.8870881642468
 20
368.4508276666547
 30
0.0
 10
347.6841842291954
 20
368.5418058327768
 30
0.0
 10
347.4812428060453
 20
368.6327952778988
 30
0.0
 10
347.2782722744494
 20
368.7237934779749
 30
0.0
  0
SPLINE
  5
178
330
1F
100
AcDbEntity
  8
1
100
AcDbSpline
210
0.0
220
0.0
230
1.0
 70
     8
 71
     3
 72
     8
 73
     4
 74
     0
 42
0.000000001
 43
0.0000000001
 40
0.0
 40
0.0
 40
0.0
 40
0.0
 40
1.0
 40
1.0
 40
1.0
 40
1.0
 10
347.8870881642468
 20
359.3043571779979
 30
0.0
 10
347.6844796340519
 20
359.0968339652885
 30
0.0
 10
347.481513938897
 20
358.8896765691113
 30
0.0
 10
347.2782722744494
 20
358.6828018270046
 30
0.0
  0
SPLINE
  5
179
330
1F
100
AcDbEntity
  8
1
100
AcDbSpline
210
0.0
220
0.0
230
1.0
 70
     8
 71
     3
 72
     8
 73
     4
 74
     0
 42
0.000000001
 43
0.0000000001
 40
0.0
 40
0.0
 40
0.0
 40
0.0
 40
1.0
 40
1.0
 40
1.0
 40
1.0
 10
353.7620860549542
 20
363.0795040640314
 30
0.0
 10
353.7691325066926
 20
363.079257259175
 30
0.0
 10
353.7761799142649
 20
363.0788960460393
 30
0.0
 10
353.7832306573606
 20
363.0784422854815
 30
0.0
  0
LINE
  5
17A
330
1F
100
AcDbEntity
  8
SK4
100
AcDbLine
 10
200.174849
 20
366.008075
 30
0.0
 11
325.134849
 21
366.008075
 31
0.0
  0
LINE
  5
17B
330
1F
100
AcDbEntity
  8
4
100
AcDbLine
 10
320.134849
 20
366.008075
 30
0.0
 11
361.736942
 21
366.008075
 31
0.0
  0
MTEXT
  5
17F
330
1F
100
AcDbEntity
  8
SK6
100
AcDbMText
 10
274.54456
 20
342.410728
 30
0.0
 40
3.5
 41
0.0
 71
     7
 72
     5
  1
\W0.7488;16L2R040A16-SZP16-C
  7
cesky
 73
     2
 44
0.8433729999999998
  0
MTEXT
  5
2F4
330
1F
100
AcDbEntity
  8
2
100
AcDbMText
 10
350.592628
 20
377.747591
 30
0.0
 40
3.5
 41
0.0
 71
     7
 72
     5
  1
\W0.8876;14,4
  7
cesky
 73
     2
 44
0.8433729999999998
  0
LINE
  5
2F5
330
1F
100
AcDbEntity
  8
2
100
AcDbLine
 10
362.174849
 20
375.508075
 30
0.0
 11
362.174849
 21
378.873424
 31
0.0
  0
LINE
  5
2F6
330
1F
100
AcDbEntity
  8
2
100
AcDbLine
 10
347.689408
 20
373.543529
 30
0.0
 11
347.689408
 21
378.873424
 31
0.0
  0
LINE
  5
2F7
330
1F
100
AcDbEntity
  8
2
100
AcDbLine
 10
370.924849
 20
377.873424
 30
0.0
 11
338.939408
 21
377.873424
 31
0.0
  0
SOLID
  5
2F8
330
1F
100
AcDbEntity
  8
2
100
AcDbTrace
 10
362.174849
 20
377.873424
 30
0.0
 11
365.674846
 21
378.490569
 31
0.0
 12
365.674851
 22
377.25628
 32
0.0
 13
365.674851
 23
377.25628
 33
0.0
  0
SOLID
  5
2F9
330
1F
100
AcDbEntity
  8
2
100
AcDbTrace
 10
347.689408
 20
377.873424
 30
0.0
 11
344.189411
 21
377.25628
 31
0.0
 12
344.189406
 22
378.490569
 32
0.0
 13
344.189406
 23
378.490569
 33
0.0
  0
MTEXT
  5
2FA
330
1F
100
AcDbEntity
  8
2
100
AcDbMText
 10
340.340349
 20
386.269144
 30
0.0
 40
3.5
 41
0.0
 71
     7
 72
     5
  1
\W0.7045;40
  7
cesky
 73
     2
 44
0.8433729999999998
  0
LINE
  5
2FB
330
1F
100
AcDbEntity
  8
2
100
AcDbLine
 10
362.174849
 20
375.508075
 30
0.0
 11
362.174849
 21
387.394977
 31
0.0
  0
LINE
  5
2FC
330
1F
100
AcDbEntity
  8
2
100
AcDbLine
 10
322.134849
 20
366.008075
 30
0.0
 11
322.134849
 21
387.394977
 31
0.0
  0
LINE
  5
2FD
330
1F
100
AcDbEntity
  8
2
100
AcDbLine
 10
362.174849
 20
386.394977
 30
0.0
 11
322.134849
 21
386.394977
 31
0.0
  0
SOLID
  5
2FE
330
1F
100
AcDbEntity
  8
2
100
AcDbTrace
 10
362.174849
 20
386.394977
 30
0.0
 11
358.674851
 21
385.777832
 31
0.0
 12
358.674846
 22
387.012121
 32
0.0
 13
358.674846
 23
387.012121
 33
0.0
  0
SOLID
  5
2FF
330
1F
100
AcDbEntity
  8
2
100
AcDbTrace
 10
322.134849
 20
386.394977
 30
0.0
 11
325.634846
 21
387.012121
 31
0.0
 12
325.634851
 22
385.777832
 32
0.0
 13
325.634851
 23
385.777832
 33
0.0
  0
MTEXT
  5
300
330
1F
100
AcDbEntity
  8
2
100
AcDbMText
 10
385.389384
 20
364.6846
 30
0.0
 40
3.5
 41
0.0
 71
     7
 72
     5
  1
\W0.8260;16
  7
cesky
 11
0.0000000000000001
 21
1.0
 31
0.0
 73
     2
 44
0.8433729999999998
  0
MTEXT
  5
301
330
1F
100
AcDbEntity
  8
2
100
AcDbMText
 10
385.389384
 20
357.9471
 30
0.0
 40
3.5
 41
0.0
 71
     7
 72
     5
  1
\W3.0115;\H2.63;%%c\H3.50;
  7
cesky
 11
0.0000000000000001
 21
1.0
 31
0.0
 73
     2
 44
0.8433729999999998
  0
LINE
  5
302
330
1F
100
AcDbEntity
  8
2
100
AcDbLine
 10
363.674849
 20
374.008075
 30
0.0
 11
386.576801
 21
374.008075
 31
0.0
  0
LINE
  5
303
330
1F
100
AcDbEntity
  8
2
100
AcDbLine
 10
385.576801
 20
374.008075
 30
0.0
 11
385.576801
 21
357.7896
 31
0.0
  0
SOLID
  5
304
330
1F
100
AcDbEntity
  8
2
100
AcDbTrace
 10
385.576801
 20
374.008075
 30
0.0
 11
386.193945
 21
370.508077
 31
0.0
 12
384.959656
 22
370.508073
 32
0.0
 13
384.959656
 23
370.508073
 33
0.0
  0
MTEXT
  5
305
330
1F
100
AcDbEntity
  8
SK2
100
AcDbMText
 10
279.097849
 20
401.098582
 30
0.0
 40
3.5
 41
0.0
 71
     7
 72
     5
  1
\W0.7809;160
  7
cesky
 73
     2
 44
0.8433729999999998
  0
LINE
  5
306
330
1F
100
AcDbEntity
  8
SK2
100
AcDbLine
 10
362.174849
 20
375.508075
 30
0.0
 11
362.174849
 21
402.2244149999999
 31
0.0
  0
LINE
  5
307
330
1F
100
AcDbEntity
  8
SK2
100
AcDbLine
 10
202.174849
 20
373.008075
 30
0.0
 11
202.174849
 21
402.2244149999999
 31
0.0
  0
LINE
  5
308
330
1F
100
AcDbEntity
  8
SK2
100
AcDbLine
 10
362.174849
 20
401.2244149999999
 30
0.0
 11
202.174849
 21
401.2244149999999
 31
0.0
  0
SOLID
  5
309
330
1F
100
AcDbEntity
  8
SK2
100
AcDbTrace
 10
362.174849
 20
401.2244149999999
 30
0.0
 11
358.674851
 21
400.6072709999999
 31
0.0
 12
358.674846
 22
401.8415599999999
 32
0.0
 13
358.674846
 23
401.8415599999999
 33
0.0
  0
SOLID
  5
30A
330
1F
100
AcDbEntity
  8
SK2
100
AcDbTrace
 10
202.174849
 20
401.2244149999999
 30
0.0
 11
205.674846
 21
401.8415599999999
 31
0.0
 12
205.674851
 22
400.6072709999999
 32
0.0
 13
205.674851
 23
400.6072709999999
 33
0.0
  0
MTEXT
  5
30B
330
1F
100
AcDbEntity
  8
SK2
100
AcDbMText
 10
303.097849
 20
395.1457529999999
 30
0.0
 40
3.5
 41
0.0
 71
     7
 72
     5
  1
\W0.8488;112
  7
cesky
 73
     2
 44
0.8433729999999998
  0
LINE
  5
30C
330
1F
100
AcDbEntity
  8
SK2
100
AcDbLine
 10
362.174849
 20
375.508075
 30
0.0
 11
362.174849
 21
396.271586
 31
0.0
  0
LINE
  5
30D
330
1F
100
AcDbEntity
  8
SK2
100
AcDbLine
 10
250.174849
 20
366.008075
 30
0.0
 11
250.174849
 21
396.271586
 31
0.0
  0
LINE
  5
30E
330
1F
100
AcDbEntity
  8
SK2
100
AcDbLine
 10
362.174849
 20
395.271586
 30
0.0
 11
250.174849
 21
395.271586
 31
0.0
  0
SOLID
  5
30F
330
1F
100
AcDbEntity
  8
SK2
100
AcDbTrace
 10
362.174849
 20
395.271586
 30
0.0
 11
358.674851
 21
394.654442
 31
0.0
 12
358.674846
 22
395.888731
 32
0.0
 13
358.674846
 23
395.888731
 33
0.0
  0
SOLID
  5
310
330
1F
100
AcDbEntity
  8
SK2
100
AcDbTrace
 10
250.174849
 20
395.271586
 30
0.0
 11
253.674846
 21
395.888731
 31
0.0
 12
253.674851
 22
394.654442
 32
0.0
 13
253.674851
 23
394.654442
 33
0.0
  0
MTEXT
  5
311
330
1F
100
AcDbEntity
  8
SK2
100
AcDbMText
 10
191.452241
 20
367.534325
 30
0.0
 40
3.5
 41
0.0
 71
     7
 72
     5
  1
\W0.8260;16
  7
cesky
 11
0.0000000000000001
 21
1.0
 31
0.0
 73
     2
 44
0.8433729999999998
  0
MTEXT
  5
312
330
1F
100
AcDbEntity
  8
SK2
100
AcDbMText
 10
191.452241
 20
360.796825
 30
0.0
 40
3.5
 41
0.0
 71
     7
 72
     5
  1
\W3.0115;\H2.63;%%c\H3.50;
  7
cesky
 11
0.0000000000000001
 21
1.0
 31
0.0
 73
     2
 44
0.8433729999999998
  0
LINE
  5
313
330
1F
100
AcDbEntity
  8
SK2
100
AcDbLine
 10
203.174849
 20
374.008075
 30
0.0
 11
190.639658
 21
374.008075
 31
0.0
  0
LINE
  5
314
330
1F
100
AcDbEntity
  8
SK2
100
AcDbLine
 10
203.174849
 20
358.008075
 30
0.0
 11
190.639658
 21
358.008075
 31
0.0
  0
LINE
  5
315
330
1F
100
AcDbEntity
  8
SK2
100
AcDbLine
 10
191.639658
 20
382.758075
 30
0.0
 11
191.639658
 21
349.258075
 31
0.0
  0
SOLID
  5
316
330
1F
100
AcDbEntity
  8
SK2
100
AcDbTrace
 10
191.639658
 20
374.008075
 30
0.0
 11
191.0225129999999
 21
377.508073
 31
0.0
 12
192.256802
 22
377.508077
 32
0.0
 13
192.256802
 23
377.508077
 33
0.0
  0
SOLID
  5
317
330
1F
100
AcDbEntity
  8
SK2
100
AcDbTrace
 10
191.639658
 20
358.008075
 30
0.0
 11
192.256802
 21
354.508077
 31
0.0
 12
191.0225129999999
 22
354.508073
 32
0.0
 13
191.0225129999999
 23
354.508073
 33
0.0
  0
ELLIPSE
  5
31C
330
1F
100
AcDbEntity
  8
CUT
100
AcDbEllipse
 10
361.127375
 20
365.804395
 30
0.0
 11
-0.2802777091052073
 21
-0.0621215879971921
 31
0.0
210
0.0
220
0.0
230
1.0
 40
0.088058
 41
1.505300622155053
 42
2.063805982682227
  0
ELLIPSE
  5
31D
330
1F
100
AcDbEntity
  8
CUT
100
AcDbEllipse
 10
354.446346
 20
366.001567
 30
0.0
 11
0.0
 21
7.839069713977176
 31
0.0
210
0.0
220
0.0
230
1.0
 40
0.9848079999999999
 41
5.100276318531356
 42
6.327586014605016
  0
ELLIPSE
  5
31E
330
1F
100
AcDbEntity
  8
CUT
100
AcDbEllipse
 10
347.720007
 20
372.844219
 30
0.0
 11
0.0
 21
0.7000000000000001
 31
0.0
210
0.0
220
0.0
230
1.0
 40
0.9848079999999999
 41
0.0444007074254349
 42
1.785266211015644
  0
ELLIPSE
  5
31F
330
1F
100
AcDbEntity
  8
CUT
100
AcDbEllipse
 10
354.509423
 20
366.648604
 30
0.0
 11
-3.331327435355234
 21
-7.804675459414941
 31
0.0
210
0.0
220
0.0
230
0.9999999999999998
 40
0.8857459999999999
 41
1.877222437532235
 42
1.90256029737626
  0
ELLIPSE
  5
320
330
1F
100
AcDbEntity
  8
CUT
100
AcDbEllipse
 10
354.589542
 20
374.363623
 30
0.0
 11
0.0
 21
7.839069713977174
 31
0.0
210
0.0
220
0.0
230
1.0
 40
0.9848079999999999
 41
1.785266211015646
 42
3.028913728335748
  0
ELLIPSE
  5
321
330
1F
100
AcDbEntity
  8
CUT
100
AcDbEllipse
 10
354.493085
 20
365.930423
 30
0.0
 11
-0.5031185650264916
 21
8.28054886699188
 31
0.0
210
0.0
220
0.0
230
1.0
 40
0.923273
 41
4.7243216614903
 42
5.006603757311826
  0
LINE
  5
322
330
1F
100
AcDbEntity
  8
CUT
100
AcDbLine
 10
361.2648430000001
 20
365.812054
 30
0.0
 11
361.940596
 21
365.995726
 31
0.0
  0
LINE
  5
323
330
1F
100
AcDbEntity
  8
CUT
100
AcDbLine
 10
354.103686
 20
373.832911
 30
0.0
 11
347.689408
 21
373.543529
 31
0.0
  0
LINE
  5
324
330
1F
100
AcDbEntity
  8
CUT
100
AcDbLine
 10
361.022979
 20
365.755973
 30
0.0
 11
361.114489
 21
365.775701
 31
0.0
  0
LINE
  5
325
330
1F
100
AcDbEntity
  8
CUT
100
AcDbLine
 10
353.721503
 20
366.574265
 30
0.0
 11
360.896874
 21
365.749787
 31
0.0
  0
ARC
  5
326
330
1F
100
AcDbEntity
  8
CUT
100
AcDbCircle
 10
361.6414110407744
 20
366.4525983631544
 30
0.0
 40
0.4917815706797349
100
AcDbArc
 50
353.9621709590023
 51
359.9294645956211
  0
ARC
  5
327
330
1F
100
AcDbEntity
  8
CUT
100
AcDbCircle
 10
361.5756074283711
 20
366.4535626306526
 30
0.0
 40
0.5575870198761304
100
AcDbArc
 50
359.8387039569665
 51
4.129252336573954
  0
ARC
  5
328
330
1F
100
AcDbEntity
  8
CUT
100
AcDbCircle
 10
361.8793505781598
 20
366.2077228430584
 30
0.0
 40
0.2206660844456636
100
AcDbArc
 50
286.1138685627611
 51
315.4349389326251
  0
ARC
  5
329
330
1F
100
AcDbEntity
  8
CUT
100
AcDbCircle
 10
361.8645228094163
 20
366.2252667247526
 30
0.0
 40
0.2435500638008177
100
AcDbArc
 50
314.9422464155173
 51
347.8039506006096
  0
ARC
  5
32A
330
1F
100
AcDbEntity
  8
CUT
100
AcDbCircle
 10
361.8920488010037
 20
366.2177272934691
 30
0.0
 40
0.2150581765173391
100
AcDbArc
 50
348.21802411482
 51
352.4983972487377
  0
LINE
  5
32B
330
1F
100
AcDbEntity
  8
CUT
100
AcDbLine
 10
360.8968738588052
 20
365.7497874978088
 30
0.0
 11
360.8968738588052
 21
365.7497874978088
 31
0.0
  0
ARC
  5
32C
330
1F
100
AcDbEntity
  8
CUT
100
AcDbCircle
 10
360.9412999542943
 20
366.1326448381534
 30
0.0
 40
0.3854262848018082
100
AcDbArc
 50
263.3810996880853
 51
282.2348693226771
  0
LINE
  5
32D
330
1F
100
AcDbEntity
  8
CUT
100
AcDbLine
 10
361.6638825863827
 20
368.7762422949788
 30
0.0
 11
361.6638825863827
 21
368.7762422949788
 31
0.0
  0
ARC
  5
32E
330
1F
100
AcDbEntity
  8
CUT
100
AcDbCircle
 10
357.7048860604398
 20
367.4062141285579
 30
0.0
 40
4.189347284388579
100
AcDbArc
 50
19.08840366362001
 51
21.86723276302617
  0
ENDSEC
  0
SECTION
  2
OBJECTS
  0
DICTIONARY
  5
C
330
0
100
AcDbDictionary
281
     1
  3
ACAD_CIP_PREVIOUS_PRODUCT_INFO
350
277
  3
ACAD_COLOR
350
271
  3
ACAD_DETAILVIEWSTYLE
350
26D
  3
ACAD_FIELDLIST
350
2E1
  3
ACAD_GROUP
350
D
  3
ACAD_IMAGE_DICT
350
CD
  3
ACAD_IMAGE_VARS
350
276
  3
ACAD_LAYOUT
350
1A
  3
ACAD_MATERIAL
350
43
  3
ACAD_MLEADERSTYLE
350
6B
  3
ACAD_MLINESTYLE
350
17
  3
ACAD_PLOTSETTINGS
350
19
  3
ACAD_PLOTSTYLENAME
350
E
  3
ACAD_SCALELIST
350
47
  3
ACAD_SECTIONVIEWSTYLE
350
26E
  3
ACAD_TABLESTYLE
350
69
  3
ACAD_VISUALSTYLE
350
2A
  3
ACDB_RECOMPOSE_DATA
350
35B
  3
AcDbVariableDictionary
350
22A
  3
AcmDictionary
350
2A3
  3
AMG
350
278
  3
AMGSNAPSETTINGS
350
2EB
  0
DICTIONARY
  5
33D
330
10
100
AcDbDictionary
280
     1
281
     1
  3
ADSK_XREC_LAYER_RECONCILED
360
33E
  0
DICTIONARY
  5
33F
330
76
100
AcDbDictionary
280
     1
281
     1
  3
ADSK_XREC_LAYER_RECONCILED
360
340
  0
DICTIONARY
  5
341
330
32F
100
AcDbDictionary
280
     1
281
     1
  3
ADSK_XREC_LAYER_RECONCILED
360
342
  0
DICTIONARY
  5
343
330
330
100
AcDbDictionary
280
     1
281
     1
  3
ADSK_XREC_LAYER_RECONCILED
360
344
  0
DICTIONARY
  5
345
330
331
100
AcDbDictionary
280
     1
281
     1
  3
ADSK_XREC_LAYER_RECONCILED
360
346
  0
DICTIONARY
  5
347
330
333
100
AcDbDictionary
280
     1
281
     1
  3
ADSK_XREC_LAYER_RECONCILED
360
348
  0
DICTIONARY
  5
349
330
334
100
AcDbDictionary
280
     1
281
     1
  3
ADSK_XREC_LAYER_RECONCILED
360
34A
  0
DICTIONARY
  5
34B
330
336
100
AcDbDictionary
280
     1
281
     1
  3
ADSK_XREC_LAYER_RECONCILED
360
34C
  0
DICTIONARY
  5
34D
330
337
100
AcDbDictionary
280
     1
281
     1
  3
ADSK_XREC_LAYER_RECONCILED
360
34E
  0
DICTIONARY
  5
34F
330
338
100
AcDbDictionary
280
     1
281
     1
  3
ADSK_XREC_LAYER_RECONCILED
360
350
  0
DICTIONARY
  5
351
330
339
100
AcDbDictionary
280
     1
281
     1
  3
ADSK_XREC_LAYER_RECONCILED
360
352
  0
DICTIONARY
  5
353
330
33A
100
AcDbDictionary
280
     1
281
     1
  3
ADSK_XREC_LAYER_RECONCILED
360
354
  0
DICTIONARY
  5
355
330
33B
100
AcDbDictionary
280
     1
281
     1
  3
ADSK_XREC_LAYER_RECONCILED
360
356
  0
DICTIONARY
  5
2F2
330
1F
100
AcDbDictionary
280
     1
281
     1
  3
ACAD_SORTENTS
360
2F3
  0
XRECORD
  5
277
102
{ACAD_REACTORS
330
C
102
}
330
C
100
AcDbXrecord
280
     1
300
AMECH_PP
300
2019
300
87089AMECH_PP_2019_0F
  0
DICTIONARY
  5
271
102
{ACAD_REACTORS
330
C
102
}
330
C
100
AcDbDictionary
281
     1
  0
DICTIONARY
  5
26D
102
{ACAD_REACTORS
330
C
102
}
330
C
100
AcDbDictionary
281
     1
  3
Metric50
350
273
  0
FIELDLIST
  5
2E1
102
{ACAD_REACTORS
330
C
102
}
330
C
100
AcDbIdSet
 90
        3
330
2DF
330
2E0
330
2E2
100
AcDbFieldList
  0
DICTIONARY
  5
D
102
{ACAD_REACTORS
330
C
102
}
330
C
100
AcDbDictionary
281
     1
  3
NULOVY_BOD
350
33C
  0
DICTIONARY
  5
CD
102
{ACAD_REACTORS
330
C
102
}
330
C
100
AcDbDictionary
281
     1
  3
16L2R040A16-SZP16-C_115009227ndi000_00-2D_DormerPramet_jpg
350
CE
  0
RASTERVARIABLES
  5
276
102
{ACAD_REACTORS
330
C
102
}
330
C
100
AcDbRasterVariables
 90
        0
 70
     1
 71
     1
 72
     1
  0
DICTIONARY
  5
1A
102
{ACAD_REACTORS
330
C
102
}
330
C
100
AcDbDictionary
281
     1
  3
Layout1
350
1E
  3
Layout2
350
26
  3
Model
350
22
  0
DICTIONARY
  5
43
102
{ACAD_REACTORS
330
C
102
}
330
C
100
AcDbDictionary
281
     1
  3
ByBlock
350
45
  3
ByLayer
350
44
  3
Global
350
46
  0
DICTIONARY
  5
6B
102
{ACAD_REACTORS
330
C
102
}
330
C
100
AcDbDictionary
281
     1
  3
Standard
350
6C
  0
DICTIONARY
  5
17
102
{ACAD_REACTORS
330
C
102
}
330
C
100
AcDbDictionary
281
     1
  3
Standard
350
18
  0
DICTIONARY
  5
19
102
{ACAD_REACTORS
330
C
102
}
330
C
100
AcDbDictionary
281
     1
  0
ACDBDICTIONARYWDFLT
  5
E
102
{ACAD_REACTORS
330
C
102
}
330
C
100
AcDbDictionary
281
     1
  3
Normal
350
F
100
AcDbDictionaryWithDefault
340
F
  0
DICTIONARY
  5
47
102
{ACAD_REACTORS
330
C
102
}
330
C
100
AcDbDictionary
281
     1
  3
A0
350
48
  3
A1
350
49
  3
A2
350
4A
  3
A3
350
4B
  3
A4
350
4C
  3
A5
350
4D
  3
A6
350
4E
  3
A7
350
4F
  3
A8
350
50
  3
A9
350
51
  3
B0
350
52
  3
B1
350
53
  3
B2
350
54
  3
B3
350
55
  3
B4
350
56
  3
B5
350
57
  3
B6
350
58
  3
B7
350
59
  3
B8
350
5A
  3
B9
350
5B
  3
C0
350
5C
  3
C1
350
5D
  3
C2
350
5E
  3
C3
350
5F
  3
C4
350
60
  3
C5
350
61
  3
C6
350
62
  3
C7
350
63
  3
C8
350
64
  3
C9
350
65
  3
D0
350
66
  3
D1
350
67
  3
D2
350
68
  0
DICTIONARY
  5
26E
102
{ACAD_REACTORS
330
C
102
}
330
C
100
AcDbDictionary
281
     1
  3
Metric50
350
272
  0
DICTIONARY
  5
69
102
{ACAD_REACTORS
330
C
102
}
330
C
100
AcDbDictionary
281
     1
  3
Standard
350
6A
  0
DICTIONARY
  5
2A
102
{ACAD_REACTORS
330
C
102
}
330
C
100
AcDbDictionary
281
     1
  3
2dWireframe
350
2F
  3
Basic
350
32
  3
Brighten
350
36
  3
ColorChange
350
3A
  3
Conceptual
350
34
  3
Dim
350
35
  3
EdgeColorOff
350
3D
  3
Facepattern
350
39
  3
Flat
350
2B
  3
FlatWithEdges
350
2C
  3
Gouraud
350
2D
  3
GouraudWithEdges
350
2E
  3
Hidden
350
31
  3
JitterOff
350
3B
  3
Linepattern
350
38
  3
OverhangOff
350
3C
  3
Realistic
350
33
  3
Shaded
350
42
  3
Shaded with edges
350
41
  3
Shades of Gray
350
3E
  3
Sketchy
350
3F
  3
Thicken
350
37
  3
Wireframe
350
30
  3
X-Ray
350
40
  0
XRECORD
  5
35B
102
{ACAD_REACTORS
330
C
102
}
330
C
100
AcDbXrecord
280
     1
 90
        1
330
6A
  0
DICTIONARY
  5
22A
102
{ACAD_REACTORS
330
C
102
}
330
C
100
AcDbDictionary
281
     1
  3
CANNOSCALE
350
22B
  3
CMLEADERSTYLE
350
26C
  3
CTABLESTYLE
350
26B
  3
CVIEWDETAILSTYLE
350
357
  3
CVIEWSECTIONSTYLE
350
358
  3
MSLTSCALE
350
22C
  3
XCLIPFRAME
350
359
  0
DICTIONARY
  5
2A3
102
{ACAD_REACTORS
330
C
102
}
330
C
100
AcDbDictionary
281
     1
  3
AcmStdDictionary
350
2AA
  0
DICTIONARY
  5
278
102
{ACAD_REACTORS
330
C
102
}
330
C
100
AcDbDictionary
281
     1
  0
DICTIONARY
  5
2EB
102
{ACAD_REACTORS
330
C
102
}
330
C
100
AcDbDictionary
281
     1
  0
XRECORD
  5
33E
102
{ACAD_REACTORS
330
33D
102
}
330
33D
100
AcDbXrecord
280
     1
290
     1
  0
XRECORD
  5
340
102
{ACAD_REACTORS
330
33F
102
}
330
33F
100
AcDbXrecord
280
     1
290
     1
  0
XRECORD
  5
342
102
{ACAD_REACTORS
330
341
102
}
330
341
100
AcDbXrecord
280
     1
290
     1
  0
XRECORD
  5
344
102
{ACAD_REACTORS
330
343
102
}
330
343
100
AcDbXrecord
280
     1
290
     1
  0
XRECORD
  5
346
102
{ACAD_REACTORS
330
345
102
}
330
345
100
AcDbXrecord
280
     1
290
     1
  0
XRECORD
  5
348
102
{ACAD_REACTORS
330
347
102
}
330
347
100
AcDbXrecord
280
     1
290
     1
  0
XRECORD
  5
34A
102
{ACAD_REACTORS
330
349
102
}
330
349
100
AcDbXrecord
280
     1
290
     1
  0
XRECORD
  5
34C
102
{ACAD_REACTORS
330
34B
102
}
330
34B
100
AcDbXrecord
280
     1
290
     1
  0
XRECORD
  5
34E
102
{ACAD_REACTORS
330
34D
102
}
330
34D
100
AcDbXrecord
280
     1
290
     1
  0
XRECORD
  5
350
102
{ACAD_REACTORS
330
34F
102
}
330
34F
100
AcDbXrecord
280
     1
290
     1
  0
XRECORD
  5
352
102
{ACAD_REACTORS
330
351
102
}
330
351
100
AcDbXrecord
280
     1
290
     1
  0
XRECORD
  5
354
102
{ACAD_REACTORS
330
353
102
}
330
353
100
AcDbXrecord
280
     1
290
     1
  0
XRECORD
  5
356
102
{ACAD_REACTORS
330
355
102
}
330
355
100
AcDbXrecord
280
     1
290
     1
  0
SORTENTSTABLE
  5
2F3
102
{ACAD_REACTORS
330
2F2
102
}
330
2F2
100
AcDbSortentsTable
330
1F
331
2F4
  5
19F
331
2F5
  5
1CF
331
2F6
  5
1FD
331
2F7
  5
2F4
331
2F8
  5
2F5
331
2F9
  5
2F6
331
2FA
  5
2FF
331
2FB
  5
300
331
2FC
  5
301
331
2FD
  5
302
331
2FE
  5
303
331
2FF
  5
305
331
300
  5
30C
331
301
  5
30D
331
302
  5
30E
331
303
  5
30F
331
304
  5
310
331
305
  5
2F8
331
306
  5
2F9
331
307
  5
2FA
331
308
  5
2FB
331
309
  5
2FC
331
30A
  5
2FD
331
30B
  5
306
331
30C
  5
307
331
30D
  5
308
331
30E
  5
309
331
30F
  5
30A
331
310
  5
30B
331
322
  5
32B
331
323
  5
32C
331
324
  5
32D
331
325
  5
32E
331
326
  5
322
331
327
  5
323
331
328
  5
324
331
329
  5
325
331
32A
  5
326
331
32B
  5
327
331
32C
  5
328
331
32D
  5
329
331
32E
  5
32A
  0
ACDBDETAILVIEWSTYLE
  5
273
102
{ACAD_XDICTIONARY
360
38F
102
}
102
{ACAD_REACTORS
330
26D
330
2D5
102
}
330
26D
100
AcDbModelDocViewStyle
 70
     0
  3
Metric50
290
     0
100
AcDbDetailViewStyle
 70
     0
 71
     0
 90
        3
 71
     1
340
11
 62
   256
 40
5.0
340
0
 62
   256
 40
5.0
300

 40
0.0
280
     1
 71
     2
340
16
 90
       25
 62
   256
 71
     3
340
11
 62
   256
 40
5.0
 90
        0
 40
15.0
 90
        1
300
%<\AcVar ViewDetailId>% (%<\AcVar ViewScale \f "%sn">%)
 71
     4
340
16
 90
       25
 62
   256
340
16
 90
       25
 62
   256
280
     0
  0
GROUP
  5
33C
102
{ACAD_REACTORS
330
D
102
}
330
D
100
AcDbGroup
300

 70
     0
 71
     1
340
73
  0
IMAGEDEF
  5
CE
102
{ACAD_REACTORS
330
CD
330
D1
102
}
330
CD
100
AcDbRasterImageDef
 90
        0
  1
R:\Katalog\Data\ZP\16L2R040A16-SZP16-C\16L2R040A16-SZP16-C_115009227ndi000_00-2D_DormerPramet.jpg
 10
2089.0
 20
531.0
 11
0.0004786979415989
 21
0.0004786979415989
280
     1
281
     0
  0
LAYOUT
  5
1E
102
{ACAD_REACTORS
330
1A
102
}
330
1A
100
AcDbPlotSettings
  1

  2
none_device
  4

  6

 40
0.0
 41
0.0
 42
0.0
 43
0.0
 44
0.0
 45
0.0
 46
0.0
 47
0.0
 48
0.0
 49
0.0
140
0.0
141
0.0
142
1.0
143
1.0
 70
   688
 72
     0
 73
     0
 74
     5
  7

 75
    16
147
1.0
 76
     0
 77
     2
 78
   300
148
0.0
149
0.0
100
AcDbLayout
  1
Layout1
 70
     1
 71
     1
 10
-0.5
 20
-0.5
 11
5.0
 21
5.0
 12
0.0
 22
0.0
 32
0.0
 14
-0.5
 24
-0.5
 34
-0.5
 15
5.0
 25
5.0
 35
5.0
146
0.0
 13
0.0
 23
0.0
 33
0.0
 16
1.0
 26
0.0
 36
0.0
 17
0.0
 27
1.0
 37
0.0
 76
     0
330
1B
  0
LAYOUT
  5
26
102
{ACAD_REACTORS
330
1A
102
}
330
1A
100
AcDbPlotSettings
  1

  2
none_device
  4

  6

 40
0.0
 41
0.0
 42
0.0
 43
0.0
 44
0.0
 45
0.0
 46
0.0
 47
0.0
 48
0.0
 49
0.0
140
0.0
141
0.0
142
1.0
143
1.0
 70
   688
 72
     0
 73
     0
 74
     5
  7

 75
    16
147
1.0
 76
     0
 77
     2
 78
   300
148
0.0
149
0.0
100
AcDbLayout
  1
Layout2
 70
     1
 71
     2
 10
0.0
 20
0.0
 11
0.0
 21
0.0
 12
0.0
 22
0.0
 32
0.0
 14
0.0
 24
0.0
 34
0.0
 15
0.0
 25
0.0
 35
0.0
146
0.0
 13
0.0
 23
0.0
 33
0.0
 16
1.0
 26
0.0
 36
0.0
 17
0.0
 27
1.0
 37
0.0
 76
     0
330
23
  0
LAYOUT
  5
22
102
{ACAD_REACTORS
330
1A
102
}
330
1A
100
AcDbPlotSettings
  1

  2
none_device
  4
Letter_(8.50_x_11.00_Inches)
  6

 40
6.349999999999999
 41
6.349999999999999
 42
6.350005
 43
6.350005
 44
215.9
 45
279.4
 46
0.0
 47
0.0
 48
0.0
 49
0.0
140
0.0
141
0.0
142
1.0
143
1.0
 70
  1712
 72
     0
 73
     0
 74
     0
  7

 75
     0
147
1.0
 76
     0
 77
     2
 78
   300
148
0.0
149
0.0
100
AcDbLayout
  1
Model
 70
     1
 71
     0
 10
-0.5
 20
-0.5
 11
5.0
 21
5.0
 12
0.0
 22
0.0
 32
0.0
 14
-0.5
 24
-0.5
 34
-0.5
 15
5.0
 25
5.0
 35
5.0
146
0.0
 13
0.0
 23
0.0
 33
0.0
 16
1.0
 26
0.0
 36
0.0
 17
0.0
 27
1.0
 37
0.0
 76
     0
330
1F
331
29
  0
MATERIAL
  5
45
102
{ACAD_XDICTIONARY
360
260
102
}
102
{ACAD_REACTORS
330
43
102
}
330
43
100
AcDbMaterial
  1
ByBlock
  0
MATERIAL
  5
44
102
{ACAD_XDICTIONARY
360
25E
102
}
102
{ACAD_REACTORS
330
43
102
}
330
43
100
AcDbMaterial
  1
ByLayer
  0
MATERIAL
  5
46
102
{ACAD_XDICTIONARY
360
262
102
}
102
{ACAD_REACTORS
330
43
102
}
330
43
100
AcDbMaterial
  1
Global
  0
MLEADERSTYLE
  5
6C
102
{ACAD_REACTORS
330
6B
102
}
330
6B
100
AcDbMLeaderStyle
170
     2
171
     1
172
     0
 90
        2
 40
0.0
 41
0.0
173
     1
 91
-1056964608
340
14
 92
       -2
290
     1
 42
0.09
291
     1
 43
0.36
  3
Standard
 44
0.18
300

342
11
174
     1
178
     6
175
     1
176
     0
 93
-1056964608
 45
0.18
292
     0
297
     0
 46
0.18
 94
-1056964608
 47
1.0
 49
1.0
140
1.0
293
     1
141
0.0
294
     1
177
     0
142
1.0
295
     0
296
     0
143
0.125
1001
ACAD_MLEADERVER
1070
     2
  0
MLINESTYLE
  5
18
102
{ACAD_REACTORS
330
17
102
}
330
17
100
AcDbMlineStyle
  2
STANDARD
 70
     0
  3

 62
   256
 51
90.0
 52
90.0
 71
     2
 49
0.5
 62
   256
  6
BYLAYER
 49
-0.5
 62
   256
  6
BYLAYER
  0
ACDBPLACEHOLDER
  5
F
102
{ACAD_REACTORS
330
E
102
}
330
E
  0
SCALE
  5
48
102
{ACAD_REACTORS
330
47
102
}
330
47
100
AcDbScale
 70
     0
300
1:1
140
1.0
141
1.0
290
     1
  0
SCALE
  5
49
102
{ACAD_REACTORS
330
47
102
}
330
47
100
AcDbScale
 70
     0
300
1:2
140
1.0
141
2.0
290
     0
  0
SCALE
  5
4A
102
{ACAD_REACTORS
330
47
102
}
330
47
100
AcDbScale
 70
     0
300
1:4
140
1.0
141
4.0
290
     0
  0
SCALE
  5
4B
102
{ACAD_REACTORS
330
47
102
}
330
47
100
AcDbScale
 70
     0
300
1:5
140
1.0
141
5.0
290
     0
  0
SCALE
  5
4C
102
{ACAD_REACTORS
330
47
102
}
330
47
100
AcDbScale
 70
     0
300
1:8
140
1.0
141
8.0
290
     0
  0
SCALE
  5
4D
102
{ACAD_REACTORS
330
47
102
}
330
47
100
AcDbScale
 70
     0
300
1:10
140
1.0
141
10.0
290
     0
  0
SCALE
  5
4E
102
{ACAD_REACTORS
330
47
102
}
330
47
100
AcDbScale
 70
     0
300
1:16
140
1.0
141
16.0
290
     0
  0
SCALE
  5
4F
102
{ACAD_REACTORS
330
47
102
}
330
47
100
AcDbScale
 70
     0
300
1:20
140
1.0
141
20.0
290
     0
  0
SCALE
  5
50
102
{ACAD_REACTORS
330
47
102
}
330
47
100
AcDbScale
 70
     0
300
1:30
140
1.0
141
30.0
290
     0
  0
SCALE
  5
51
102
{ACAD_REACTORS
330
47
102
}
330
47
100
AcDbScale
 70
     0
300
1:40
140
1.0
141
40.0
290
     0
  0
SCALE
  5
52
102
{ACAD_REACTORS
330
47
102
}
330
47
100
AcDbScale
 70
     0
300
1:50
140
1.0
141
50.0
290
     0
  0
SCALE
  5
53
102
{ACAD_REACTORS
330
47
102
}
330
47
100
AcDbScale
 70
     0
300
1:100
140
1.0
141
100.0
290
     0
  0
SCALE
  5
54
102
{ACAD_REACTORS
330
47
102
}
330
47
100
AcDbScale
 70
     0
300
2:1
140
2.0
141
1.0
290
     0
  0
SCALE
  5
55
102
{ACAD_REACTORS
330
47
102
}
330
47
100
AcDbScale
 70
     0
300
4:1
140
4.0
141
1.0
290
     0
  0
SCALE
  5
56
102
{ACAD_REACTORS
330
47
102
}
330
47
100
AcDbScale
 70
     0
300
8:1
140
8.0
141
1.0
290
     0
  0
SCALE
  5
57
102
{ACAD_REACTORS
330
47
102
}
330
47
100
AcDbScale
 70
     0
300
10:1
140
10.0
141
1.0
290
     0
  0
SCALE
  5
58
102
{ACAD_REACTORS
330
47
102
}
330
47
100
AcDbScale
 70
     0
300
100:1
140
100.0
141
1.0
290
     0
  0
SCALE
  5
59
102
{ACAD_REACTORS
330
47
102
}
330
47
100
AcDbScale
 70
     0
300
1/128" = 1'-0"
140
0.007812
141
12.0
290
     0
  0
SCALE
  5
5A
102
{ACAD_REACTORS
330
47
102
}
330
47
100
AcDbScale
 70
     0
300
1/64" = 1'-0"
140
0.015625
141
12.0
290
     0
  0
SCALE
  5
5B
102
{ACAD_REACTORS
330
47
102
}
330
47
100
AcDbScale
 70
     0
300
1/32" = 1'-0"
140
0.03125
141
12.0
290
     0
  0
SCALE
  5
5C
102
{ACAD_REACTORS
330
47
102
}
330
47
100
AcDbScale
 70
     0
300
1/16" = 1'-0"
140
0.0625
141
12.0
290
     0
  0
SCALE
  5
5D
102
{ACAD_REACTORS
330
47
102
}
330
47
100
AcDbScale
 70
     0
300
3/32" = 1'-0"
140
0.09375
141
12.0
290
     0
  0
SCALE
  5
5E
102
{ACAD_REACTORS
330
47
102
}
330
47
100
AcDbScale
 70
     0
300
1/8" = 1'-0"
140
0.125
141
12.0
290
     0
  0
SCALE
  5
5F
102
{ACAD_REACTORS
330
47
102
}
330
47
100
AcDbScale
 70
     0
300
3/16" = 1'-0"
140
0.1875
141
12.0
290
     0
  0
SCALE
  5
60
102
{ACAD_REACTORS
330
47
102
}
330
47
100
AcDbScale
 70
     0
300
1/4" = 1'-0"
140
0.25
141
12.0
290
     0
  0
SCALE
  5
61
102
{ACAD_REACTORS
330
47
102
}
330
47
100
AcDbScale
 70
     0
300
3/8" = 1'-0"
140
0.375
141
12.0
290
     0
  0
SCALE
  5
62
102
{ACAD_REACTORS
330
47
102
}
330
47
100
AcDbScale
 70
     0
300
1/2" = 1'-0"
140
0.5
141
12.0
290
     0
  0
SCALE
  5
63
102
{ACAD_REACTORS
330
47
102
}
330
47
100
AcDbScale
 70
     0
300
3/4" = 1'-0"
140
0.75
141
12.0
290
     0
  0
SCALE
  5
64
102
{ACAD_REACTORS
330
47
102
}
330
47
100
AcDbScale
 70
     0
300
1" = 1'-0"
140
1.0
141
12.0
290
     0
  0
SCALE
  5
65
102
{ACAD_REACTORS
330
47
102
}
330
47
100
AcDbScale
 70
     0
300
1-1/2" = 1'-0"
140
1.5
141
12.0
290
     0
  0
SCALE
  5
66
102
{ACAD_REACTORS
330
47
102
}
330
47
100
AcDbScale
 70
     0
300
3" = 1'-0"
140
3.0
141
12.0
290
     0
  0
SCALE
  5
67
102
{ACAD_REACTORS
330
47
102
}
330
47
100
AcDbScale
 70
     0
300
6" = 1'-0"
140
6.0
141
12.0
290
     0
  0
SCALE
  5
68
102
{ACAD_REACTORS
330
47
102
}
330
47
100
AcDbScale
 70
     0
300
1'-0" = 1'-0"
140
12.0
141
12.0
290
     0
  0
ACDBSECTIONVIEWSTYLE
  5
272
102
{ACAD_XDICTIONARY
360
38D
102
}
102
{ACAD_REACTORS
330
26E
330
2D4
102
}
330
26E
100
AcDbModelDocViewStyle
 70
     0
  3
Metric50
290
     0
100
AcDbSectionViewStyle
 70
     0
 71
     0
 90
      102
 71
     1
340
11
 62
   256
 40
5.0
340
0
340
0
 62
   256
 40
5.0
300
I, O, Q, S, X, Z
 40
10.0
 90
        0
 40
2.5
 90
        0
 71
     2
340
16
 90
       25
 62
   256
340
16
 90
       50
 62
   256
 40
5.0
 40
2.5
 40
5.0
 71
     3
340
11
 62
   256
 40
5.0
 90
        0
 40
15.0
 90
        1
300
%<\AcVar ViewSectionStartId>%-%<\AcVar ViewSectionEndId>% (%<\AcVar ViewScale \f "%sn">%)
 71
     4
 62
   256
 62
   257
300
ANSI31
 40
1.0
 90
        0
290
     0
290
     0
 90
        6
 40
0.0
 40
1.570796326794896
 40
0.2617993877991494
 40
1.308996938995747
 40
-0.2617993877991494
 40
1.832595714594046
  0
TABLESTYLE
  5
6A
102
{ACAD_XDICTIONARY
360
264
102
}
102
{ACAD_REACTORS
330
69
102
}
330
69
100
AcDbTableStyle
  3
Standard
 70
     0
 71
     0
 40
0.06
 41
0.06
280
     0
281
     0
  7
Standard
140
0.18
170
     2
 62
     0
 63
     7
283
     0
274
    -2
284
     1
 64
     0
275
    -2
285
     1
 65
     0
276
    -2
286
     1
 66
     0
277
    -2
287
     1
 67
     0
278
    -2
288
     1
 68
     0
279
    -2
289
     1
 69
     0
  7
Standard
140
0.25
170
     5
 62
     0
 63
     7
283
     0
274
    -2
284
     1
 64
     0
275
    -2
285
     1
 65
     0
276
    -2
286
     1
 66
     0
277
    -2
287
     1
 67
     0
278
    -2
288
     1
 68
     0
279
    -2
289
     1
 69
     0
  7
Standard
140
0.18
170
     5
 62
     0
 63
     7
283
     0
274
    -2
284
     1
 64
     0
275
    -2
285
     1
 65
     0
276
    -2
286
     1
 66
     0
277
    -2
287
     1
 67
     0
278
    -2
288
     1
 68
     0
279
    -2
289
     1
 69
     0
  0
VISUALSTYLE
  5
2F
102
{ACAD_XDICTIONARY
360
364
102
}
102
{ACAD_REACTORS
330
2A
102
}
330
2A
100
AcDbVisualStyle
  2

 70
     4
 71
     0
 72
     2
 73
     0
 90
        0
 40
-0.6
 41
-30.0
 62
     5
 63
     7
421
 16777215
 74
     1
 91
        4
 64
     7
 65
   257
 75
     1
175
     1
 42
1.0
 92
        0
 66
   257
 43
1.0
 76
     1
 77
     6
 78
     2
 67
     7
 79
     5
170
     0
171
     0
290
     0
174
     0
 93
        1
 44
0.0
173
     0
291
     0
 45
0.0
1001
ACAD
1000
AcDbSavedByObjectVersion
1070
     0
  0
VISUALSTYLE
  5
32
102
{ACAD_XDICTIONARY
360
36A
102
}
102
{ACAD_REACTORS
330
2A
102
}
330
2A
100
AcDbVisualStyle
  2

 70
     7
 71
     1
 72
     0
 73
     1
 90
        0
 40
-0.6
 41
-30.0
 62
     5
 63
     7
421
 16777215
 74
     0
 91
        4
 64
     7
 65
   257
 75
     1
175
     1
 42
1.0
 92
        8
 66
     7
 43
1.0
 76
     1
 77
     6
 78
     2
 67
     7
 79
     5
170
     0
171
     0
290
     0
174
     0
 93
        1
 44
0.0
173
     0
291
     1
 45
0.0
1001
ACAD
1000
AcDbSavedByObjectVersion
1070
     0
  0
VISUALSTYLE
  5
36
102
{ACAD_XDICTIONARY
360
372
102
}
102
{ACAD_REACTORS
330
2A
102
}
330
2A
100
AcDbVisualStyle
  2

 70
    12
 71
     2
 72
     2
 73
     0
 90
        0
 40
-0.6
 41
-30.0
 62
     5
 63
     7
421
 16777215
 74
     1
 91
        4
 64
     7
 65
   257
 75
     1
175
     1
 42
1.0
 92
        8
 66
     7
 43
1.0
 76
     1
 77
     6
 78
     2
 67
     7
 79
     5
170
     0
171
     0
290
     0
174
     0
 93
        1
 44
50.0
173
     0
291
     1
 45
0.0
1001
ACAD
1000
AcDbSavedByObjectVersion
1070
     0
  0
VISUALSTYLE
  5
3A
102
{ACAD_XDICTIONARY
360
37A
102
}
102
{ACAD_REACTORS
330
2A
102
}
330
2A
100
AcDbVisualStyle
  2

 70
    16
 71
     2
 72
     2
 73
     3
 90
        0
 40
-0.6
 41
-30.0
 62
     5
 63
     8
421
  8421504
 74
     1
 91
        4
 64
     7
 65
   257
 75
     1
175
     1
 42
1.0
 92
        8
 66
     8
424
  8421504
 43
1.0
 76
     1
 77
     6
 78
     2
 67
     7
 79
     5
170
     0
171
     0
290
     0
174
     0
 93
        1
 44
0.0
173
     0
291
     1
 45
0.0
1001
ACAD
1000
AcDbSavedByObjectVersion
1070
     0
  0
VISUALSTYLE
  5
34
102
{ACAD_XDICTIONARY
360
36E
102
}
102
{ACAD_REACTORS
330
2A
102
}
330
2A
100
AcDbVisualStyle
  2

 70
     9
 71
     3
 72
     2
 73
     0
 90
        0
 40
-0.6
 41
-30.0
 62
     5
 63
     7
421
 16777215
 74
     2
 91
        2
 64
     7
 65
   257
 75
     1
175
     1
 42
179.0
 92
        8
 66
     7
 43
1.0
 76
     1
 77
     6
 78
     2
 67
     7
 79
     3
170
     0
171
     0
290
     0
174
     0
 93
        1
 44
0.0
173
     0
291
     0
 45
0.0
1001
ACAD
1000
AcDbSavedByObjectVersion
1070
     0
  0
VISUALSTYLE
  5
35
102
{ACAD_XDICTIONARY
360
370
102
}
102
{ACAD_REACTORS
330
2A
102
}
330
2A
100
AcDbVisualStyle
  2

 70
    11
 71
     2
 72
     2
 73
     0
 90
        0
 40
-0.6
 41
-30.0
 62
     5
 63
     7
421
 16777215
 74
     1
 91
        4
 64
     7
 65
   257
 75
     1
175
     1
 42
1.0
 92
        8
 66
     7
 43
1.0
 76
     1
 77
     6
 78
     2
 67
     7
 79
     5
170
     0
171
     0
290
     0
174
     0
 93
        1
 44
-50.0
173
     0
291
     1
 45
0.0
1001
ACAD
1000
AcDbSavedByObjectVersion
1070
     0
  0
VISUALSTYLE
  5
3D
102
{ACAD_XDICTIONARY
360
380
102
}
102
{ACAD_REACTORS
330
2A
102
}
330
2A
100
AcDbVisualStyle
  2

 70
    22
 71
     2
 72
     2
 73
     0
 90
        0
 40
-0.6
 41
-30.0
 62
     5
 63
     7
421
 16777215
 74
     1
 91
        4
 64
     7
 65
   257
 75
     1
175
     1
 42
1.0
 92
        8
 66
     7
 43
1.0
 76
     1
 77
     6
 78
     2
 67
     7
 79
     5
170
     0
171
     0
290
     0
174
     0
 93
        1
 44
0.0
173
     0
291
     1
 45
0.0
1001
ACAD
1000
AcDbSavedByObjectVersion
1070
     0
  0
VISUALSTYLE
  5
39
102
{ACAD_XDICTIONARY
360
378
102
}
102
{ACAD_REACTORS
330
2A
102
}
330
2A
100
AcDbVisualStyle
  2

 70
    15
 71
     2
 72
     2
 73
     0
 90
        0
 40
-0.6
 41
-30.0
 62
     5
 63
     7
421
 16777215
 74
     1
 91
        4
 64
     7
 65
   257
 75
     1
175
     1
 42
1.0
 92
        8
 66
     7
 43
1.0
 76
     1
 77
     6
 78
     2
 67
     7
 79
     5
170
     0
171
     0
290
     0
174
     0
 93
        1
 44
0.0
173
     0
291
     1
 45
0.0
1001
ACAD
1000
AcDbSavedByObjectVersion
1070
     0
  0
VISUALSTYLE
  5
2B
102
{ACAD_XDICTIONARY
360
35C
102
}
102
{ACAD_REACTORS
330
2A
102
}
330
2A
100
AcDbVisualStyle
  2

 70
     0
 71
     2
 72
     1
 73
     1
 90
        2
 40
-0.6
 41
30.0
 62
     5
 63
     7
421
 16777215
 74
     0
 91
        0
 64
     7
 65
   257
 75
     1
175
     1
 42
1.0
 92
        8
 66
     7
 43
1.0
 76
     1
 77
     6
 78
     2
 67
     7
 79
     5
170
     0
171
     0
290
     0
174
     0
 93
       13
 44
0.0
173
     0
291
     1
 45
0.0
1001
ACAD
1000
AcDbSavedByObjectVersion
1070
     0
  0
VISUALSTYLE
  5
2C
102
{ACAD_XDICTIONARY
360
35E
102
}
102
{ACAD_REACTORS
330
2A
102
}
330
2A
100
AcDbVisualStyle
  2

 70
     1
 71
     2
 72
     1
 73
     1
 90
        2
 40
-0.6
 41
30.0
 62
     5
 63
     7
421
 16777215
 74
     1
 91
        0
 64
     7
 65
   257
 75
     1
175
     1
 42
1.0
 92
        0
 66
   257
 43
1.0
 76
     1
 77
     6
 78
     2
 67
     7
 79
     5
170
     0
171
     0
290
     0
174
     0
 93
       13
 44
0.0
173
     0
291
     1
 45
0.0
1001
ACAD
1000
AcDbSavedByObjectVersion
1070
     0
  0
VISUALSTYLE
  5
2D
102
{ACAD_XDICTIONARY
360
360
102
}
102
{ACAD_REACTORS
330
2A
102
}
330
2A
100
AcDbVisualStyle
  2

 70
     2
 71
     2
 72
     2
 73
     1
 90
        2
 40
-0.6
 41
30.0
 62
     5
 63
     7
421
 16777215
 74
     0
 91
        0
 64
     7
 65
   257
 75
     1
175
     1
 42
1.0
 92
        0
 66
     7
 43
1.0
 76
     1
 77
     6
 78
     2
 67
     7
 79
     5
170
     0
171
     0
290
     0
174
     0
 93
       13
 44
0.0
173
     0
291
     1
 45
0.0
1001
ACAD
1000
AcDbSavedByObjectVersion
1070
     0
  0
VISUALSTYLE
  5
2E
102
{ACAD_XDICTIONARY
360
362
102
}
102
{ACAD_REACTORS
330
2A
102
}
330
2A
100
AcDbVisualStyle
  2

 70
     3
 71
     2
 72
     2
 73
     1
 90
        2
 40
-0.6
 41
30.0
 62
     5
 63
     7
421
 16777215
 74
     1
 91
        0
 64
     7
 65
   257
 75
     1
175
     1
 42
1.0
 92
        0
 66
   257
 43
1.0
 76
     1
 77
     6
 78
     2
 67
     7
 79
     5
170
     0
171
     0
290
     0
174
     0
 93
       13
 44
0.0
173
     0
291
     1
 45
0.0
1001
ACAD
1000
AcDbSavedByObjectVersion
1070
     0
  0
VISUALSTYLE
  5
31
102
{ACAD_XDICTIONARY
360
368
102
}
102
{ACAD_REACTORS
330
2A
102
}
330
2A
100
AcDbVisualStyle
  2

 70
     6
 71
     1
 72
     2
 73
     2
 90
        0
 40
-0.6
 41
-30.0
 62
     5
 63
     7
421
 16777215
 74
     2
 91
        2
 64
     7
 65
   257
 75
     2
175
     1
 42
40.0
 92
        0
 66
   257
 43
1.0
 76
     1
 77
     6
 78
     2
 67
     7
 79
     3
170
     0
171
     0
290
     0
174
     0
 93
        1
 44
0.0
173
     0
291
     0
 45
0.0
1001
ACAD
1000
AcDbSavedByObjectVersion
1070
     0
  0
VISUALSTYLE
  5
3B
102
{ACAD_XDICTIONARY
360
37C
102
}
102
{ACAD_REACTORS
330
2A
102
}
330
2A
100
AcDbVisualStyle
  2

 70
    20
 71
     2
 72
     2
 73
     0
 90
        0
 40
-0.6
 41
-30.0
 62
     5
 63
     7
421
 16777215
 74
     1
 91
        4
 64
     7
 65
   257
 75
     1
175
     1
 42
1.0
 92
       10
 66
     7
 43
1.0
 76
     1
 77
     6
 78
     2
 67
     7
 79
     5
170
     0
171
     0
290
     0
174
     0
 93
        1
 44
0.0
173
     0
291
     1
 45
0.0
1001
ACAD
1000
AcDbSavedByObjectVersion
1070
     0
  0
VISUALSTYLE
  5
38
102
{ACAD_XDICTIONARY
360
376
102
}
102
{ACAD_REACTORS
330
2A
102
}
330
2A
100
AcDbVisualStyle
  2

 70
    14
 71
     2
 72
     2
 73
     0
 90
        0
 40
-0.6
 41
-30.0
 62
     5
 63
     7
421
 16777215
 74
     1
 91
        4
 64
     7
 65
   257
 75
     7
175
     7
 42
1.0
 92
        8
 66
     7
 43
1.0
 76
     1
 77
     6
 78
     2
 67
     7
 79
     5
170
     0
171
     0
290
     0
174
     0
 93
        1
 44
0.0
173
     0
291
     1
 45
0.0
1001
ACAD
1000
AcDbSavedByObjectVersion
1070
     0
  0
VISUALSTYLE
  5
3C
102
{ACAD_XDICTIONARY
360
37E
102
}
102
{ACAD_REACTORS
330
2A
102
}
330
2A
100
AcDbVisualStyle
  2

 70
    21
 71
     2
 72
     2
 73
     0
 90
        0
 40
-0.6
 41
-30.0
 62
     5
 63
     7
421
 16777215
 74
     1
 91
        4
 64
     7
 65
   257
 75
     1
175
     1
 42
1.0
 92
        9
 66
     7
 43
1.0
 76
     1
 77
     6
 78
     2
 67
     7
 79
     5
170
     0
171
     0
290
     0
174
     0
 93
        1
 44
0.0
173
     0
291
     1
 45
0.0
1001
ACAD
1000
AcDbSavedByObjectVersion
1070
     0
  0
VISUALSTYLE
  5
33
102
{ACAD_XDICTIONARY
360
36C
102
}
102
{ACAD_REACTORS
330
2A
102
}
330
2A
100
AcDbVisualStyle
  2

 70
     8
 71
     2
 72
     3
 73
     0
 90
        2
 40
-0.6
 41
30.0
 62
     5
 63
     7
421
 16777215
 74
     0
 91
        0
 64
     7
 65
   257
 75
     1
175
     1
 42
1.0
 92
        8
 66
   257
 43
1.0
 76
     1
 77
     6
 78
     2
 67
     7
 79
     3
170
     0
171
     0
290
     0
174
     0
 93
       13
 44
0.0
173
     0
291
     0
 45
0.0
1001
ACAD
1000
AcDbSavedByObjectVersion
1070
     0
  0
VISUALSTYLE
  5
42
102
{ACAD_XDICTIONARY
360
38A
102
}
102
{ACAD_REACTORS
330
2A
102
}
330
2A
100
AcDbVisualStyle
  2

 70
    27
 71
     2
 72
     2
 73
     1
 90
        2
 40
-0.6
 41
30.0
 62
     5
 63
     7
421
 16777215
 74
     0
 91
        4
 64
     7
 65
   257
 75
     1
175
     1
 42
1.0
 92
        8
 66
   257
 43
1.0
 76
     1
 77
     6
 78
     2
 67
     8
425
  7895160
 79
     3
170
     0
171
     0
290
     0
174
     0
 93
        5
 44
0.0
173
     0
291
     0
 45
0.0
1001
ACAD
1000
AcDbSavedByObjectVersion
1070
     0
  0
VISUALSTYLE
  5
41
102
{ACAD_XDICTIONARY
360
388
102
}
102
{ACAD_REACTORS
330
2A
102
}
330
2A
100
AcDbVisualStyle
  2

 70
    26
 71
     2
 72
     2
 73
     1
 90
        2
 40
-0.6
 41
30.0
 62
     5
 63
     7
421
 16777215
 74
     1
 91
       10
 64
     7
 65
   257
 75
     2
175
     1
 42
1.0
 92
        8
 66
   257
 43
1.0
 76
     1
 77
     6
 78
     2
 67
     7
 79
     3
170
     0
171
     0
290
     0
174
     0
 93
        5
 44
0.0
173
     0
291
     0
 45
0.0
1001
ACAD
1000
AcDbSavedByObjectVersion
1070
     0
  0
VISUALSTYLE
  5
3E
102
{ACAD_XDICTIONARY
360
382
102
}
102
{ACAD_REACTORS
330
2A
102
}
330
2A
100
AcDbVisualStyle
  2

 70
    23
 71
     2
 72
     2
 73
     3
 90
        0
 40
-0.6
 41
-30.0
 62
     5
 63
     7
421
 16777215
 74
     2
 91
        2
 64
     7
 65
     7
 75
     1
175
     1
 42
40.0
 92
        8
 66
     7
 43
1.0
 76
     1
 77
     6
 78
     2
 67
     7
 79
     3
170
     0
171
     0
290
     0
174
     0
 93
        1
 44
0.0
173
     0
291
     0
 45
0.0
1001
ACAD
1000
AcDbSavedByObjectVersion
1070
     0
  0
VISUALSTYLE
  5
3F
102
{ACAD_XDICTIONARY
360
384
102
}
102
{ACAD_REACTORS
330
2A
102
}
330
2A
100
AcDbVisualStyle
  2

 70
    24
 71
     1
 72
     2
 73
     2
 90
        0
 40
-0.6
 41
-30.0
 62
     5
 63
     7
421
 16777215
 74
     2
 91
        2
 64
     7
 65
     7
 75
     1
175
     1
 42
40.0
 92
       11
 66
     7
 43
1.0
 76
     1
 77
     6
 78
     2
 67
     7
 79
     6
170
     0
171
     0
290
     0
174
     0
 93
        1
 44
0.0
173
     0
291
     0
 45
0.0
1001
ACAD
1000
AcDbSavedByObjectVersion
1070
     0
  0
VISUALSTYLE
  5
37
102
{ACAD_XDICTIONARY
360
374
102
}
102
{ACAD_REACTORS
330
2A
102
}
330
2A
100
AcDbVisualStyle
  2

 70
    13
 71
     2
 72
     2
 73
     0
 90
        0
 40
-0.6
 41
-30.0
 62
     5
 63
     7
421
 16777215
 74
     1
 91
        4
 64
     7
 65
   257
 75
     1
175
     1
 42
1.0
 92
       12
 66
     7
 43
1.0
 76
     1
 77
     6
 78
     2
 67
     7
 79
     5
170
     0
171
     0
290
     0
174
     0
 93
        1
 44
0.0
173
     0
291
     1
 45
0.0
1001
ACAD
1000
AcDbSavedByObjectVersion
1070
     0
  0
VISUALSTYLE
  5
30
102
{ACAD_XDICTIONARY
360
366
102
}
102
{ACAD_REACTORS
330
2A
102
}
330
2A
100
AcDbVisualStyle
  2

 70
     5
 71
     0
 72
     2
 73
     0
 90
        0
 40
-0.6
 41
-30.0
 62
     5
 63
     7
421
 16777215
 74
     1
 91
        4
 64
     7
 65
   257
 75
     1
175
     1
 42
1.0
 92
        0
 66
   257
 43
1.0
 76
     1
 77
     6
 78
     2
 67
     7
 79
     3
170
     0
171
     0
290
     0
174
     0
 93
        1
 44
0.0
173
     0
291
     0
 45
0.0
1001
ACAD
1000
AcDbSavedByObjectVersion
1070
     0
  0
VISUALSTYLE
  5
40
102
{ACAD_XDICTIONARY
360
386
102
}
102
{ACAD_REACTORS
330
2A
102
}
330
2A
100
AcDbVisualStyle
  2

 70
    25
 71
     2
 72
     2
 73
     1
 90
        1
 40
0.5
 41
-30.0
 62
     5
 63
     7
421
 16777215
 74
     1
 91
        0
 64
     7
 65
   257
 75
     1
175
     1
 42
1.0
 92
        8
 66
     7
 43
1.0
 76
     1
 77
     6
 78
     2
 67
     7
 79
     3
170
     0
171
     0
290
     0
174
     0
 93
       13
 44
0.0
173
     0
291
     0
 45
0.0
1001
ACAD
1000
AcDbSavedByObjectVersion
1070
     0
  0
DICTIONARYVAR
  5
22B
102
{ACAD_REACTORS
330
22A
102
}
330
22A
100
DictionaryVariables
280
     0
  1
1:1
  0
DICTIONARYVAR
  5
26C
102
{ACAD_REACTORS
330
22A
102
}
330
22A
100
DictionaryVariables
280
     0
  1
STANDARD
  0
DICTIONARYVAR
  5
26B
102
{ACAD_REACTORS
330
22A
102
}
330
22A
100
DictionaryVariables
280
     0
  1
STANDARD
  0
DICTIONARYVAR
  5
357
102
{ACAD_REACTORS
330
22A
102
}
330
22A
100
DictionaryVariables
280
     0
  1
Metric50
  0
DICTIONARYVAR
  5
358
102
{ACAD_REACTORS
330
22A
102
}
330
22A
100
DictionaryVariables
280
     0
  1
Metric50
  0
DICTIONARYVAR
  5
22C
102
{ACAD_REACTORS
330
22A
102
}
330
22A
100
DictionaryVariables
280
     0
  1
1
  0
DICTIONARYVAR
  5
359
102
{ACAD_REACTORS
330
22A
102
}
330
22A
100
DictionaryVariables
280
     0
  1
2
  0
DICTIONARY
  5
2AA
102
{ACAD_REACTORS
330
2A3
102
}
330
2A3
100
AcDbDictionary
281
     1
  0
DICTIONARY
  5
38F
330
273
100
AcDbDictionary
280
     1
281
     1
  3
ACAD_XREC_ROUNDTRIP
360
390
  0
DICTIONARY
  5
260
330
45
100
AcDbDictionary
280
     1
281
     1
  3
ACAD_XREC_ROUNDTRIP
360
261
  0
DICTIONARY
  5
25E
330
44
100
AcDbDictionary
280
     1
281
     1
  3
ACAD_XREC_ROUNDTRIP
360
25F
  0
DICTIONARY
  5
262
330
46
100
AcDbDictionary
280
     1
281
     1
  3
ACAD_XREC_ROUNDTRIP
360
263
  0
DICTIONARY
  5
38D
330
272
100
AcDbDictionary
280
     1
281
     1
  3
ACAD_XREC_ROUNDTRIP
360
38E
  0
DICTIONARY
  5
264
330
6A
100
AcDbDictionary
280
     1
281
     1
  3
ACAD_ROUNDTRIP_2008_TABLESTYLE_CELLSTYLEMAP
360
35A
  3
ACAD_XREC_ROUNDTRIP
360
38C
  0
DICTIONARY
  5
364
330
2F
100
AcDbDictionary
280
     1
281
     1
  3
ACAD_XREC_ROUNDTRIP
360
365
  0
DICTIONARY
  5
36A
330
32
100
AcDbDictionary
280
     1
281
     1
  3
ACAD_XREC_ROUNDTRIP
360
36B
  0
DICTIONARY
  5
372
330
36
100
AcDbDictionary
280
     1
281
     1
  3
ACAD_XREC_ROUNDTRIP
360
373
  0
DICTIONARY
  5
37A
330
3A
100
AcDbDictionary
280
     1
281
     1
  3
ACAD_XREC_ROUNDTRIP
360
37B
  0
DICTIONARY
  5
36E
330
34
100
AcDbDictionary
280
     1
281
     1
  3
ACAD_XREC_ROUNDTRIP
360
36F
  0
DICTIONARY
  5
370
330
35
100
AcDbDictionary
280
     1
281
     1
  3
ACAD_XREC_ROUNDTRIP
360
371
  0
DICTIONARY
  5
380
330
3D
100
AcDbDictionary
280
     1
281
     1
  3
ACAD_XREC_ROUNDTRIP
360
381
  0
DICTIONARY
  5
378
330
39
100
AcDbDictionary
280
     1
281
     1
  3
ACAD_XREC_ROUNDTRIP
360
379
  0
DICTIONARY
  5
35C
330
2B
100
AcDbDictionary
280
     1
281
     1
  3
ACAD_XREC_ROUNDTRIP
360
35D
  0
DICTIONARY
  5
35E
330
2C
100
AcDbDictionary
280
     1
281
     1
  3
ACAD_XREC_ROUNDTRIP
360
35F
  0
DICTIONARY
  5
360
330
2D
100
AcDbDictionary
280
     1
281
     1
  3
ACAD_XREC_ROUNDTRIP
360
361
  0
DICTIONARY
  5
362
330
2E
100
AcDbDictionary
280
     1
281
     1
  3
ACAD_XREC_ROUNDTRIP
360
363
  0
DICTIONARY
  5
368
330
31
100
AcDbDictionary
280
     1
281
     1
  3
ACAD_XREC_ROUNDTRIP
360
369
  0
DICTIONARY
  5
37C
330
3B
100
AcDbDictionary
280
     1
281
     1
  3
ACAD_XREC_ROUNDTRIP
360
37D
  0
DICTIONARY
  5
376
330
38
100
AcDbDictionary
280
     1
281
     1
  3
ACAD_XREC_ROUNDTRIP
360
377
  0
DICTIONARY
  5
37E
330
3C
100
AcDbDictionary
280
     1
281
     1
  3
ACAD_XREC_ROUNDTRIP
360
37F
  0
DICTIONARY
  5
36C
330
33
100
AcDbDictionary
280
     1
281
     1
  3
ACAD_XREC_ROUNDTRIP
360
36D
  0
DICTIONARY
  5
38A
330
42
100
AcDbDictionary
280
     1
281
     1
  3
ACAD_XREC_ROUNDTRIP
360
38B
  0
DICTIONARY
  5
388
330
41
100
AcDbDictionary
280
     1
281
     1
  3
ACAD_XREC_ROUNDTRIP
360
389
  0
DICTIONARY
  5
382
330
3E
100
AcDbDictionary
280
     1
281
     1
  3
ACAD_XREC_ROUNDTRIP
360
383
  0
DICTIONARY
  5
384
330
3F
100
AcDbDictionary
280
     1
281
     1
  3
ACAD_XREC_ROUNDTRIP
360
385
  0
DICTIONARY
  5
374
330
37
100
AcDbDictionary
280
     1
281
     1
  3
ACAD_XREC_ROUNDTRIP
360
375
  0
DICTIONARY
  5
366
330
30
100
AcDbDictionary
280
     1
281
     1
  3
ACAD_XREC_ROUNDTRIP
360
367
  0
DICTIONARY
  5
386
330
40
100
AcDbDictionary
280
     1
281
     1
  3
ACAD_XREC_ROUNDTRIP
360
387
  0
XRECORD
  5
390
102
{ACAD_REACTORS
330
38F
102
}
330
38F
100
AcDbXrecord
280
     1
102
DISPLAYNAME
  1
Metric50
102
FLAGS
 90
        0
  0
XRECORD
  5
261
102
{ACAD_REACTORS
330
260
102
}
330
260
100
AcDbXrecord
280
     1
102
MATERIAL
148
0.0
149
0.0
149
0.0
 93
        0
 94
      127
282
     0
 72
     1
 77
     1
171
     1
175
     1
179
     1
273
     0
  0
XRECORD
  5
25F
102
{ACAD_REACTORS
330
25E
102
}
330
25E
100
AcDbXrecord
280
     1
102
MATERIAL
148
0.0
149
0.0
149
0.0
 93
        0
 94
      127
282
     0
 72
     1
 77
     1
171
     1
175
     1
179
     1
273
     0
  0
XRECORD
  5
263
102
{ACAD_REACTORS
330
262
102
}
330
262
100
AcDbXrecord
280
     1
102
MATERIAL
148
0.0
149
0.0
149
0.0
 93
        0
 94
      127
282
     0
 72
     1
 77
     1
171
     1
175
     1
179
     1
273
     0
  0
XRECORD
  5
38E
102
{ACAD_REACTORS
330
38D
102
}
330
38D
100
AcDbXrecord
280
     1
102
DISPLAYNAME
  1
Metric50
102
FLAGS
 90
        0
  0
CELLSTYLEMAP
  5
35A
102
{ACAD_REACTORS
330
264
102
}
330
264
100
AcDbCellStyleMap
 90
        3
300
CELLSTYLE
  1
TABLEFORMAT_BEGIN
 90
        5
170
     1
 91
        0
 92
    32768
 62
   257
 93
        1
300
CONTENTFORMAT
  1
CONTENTFORMAT_BEGIN
 90
        0
 91
        0
 92
        4
 93
        0
300

 40
0.0
140
1.0
 94
        5
 62
     0
340
11
144
0.25
309
CONTENTFORMAT_END
171
     1
301
MARGIN
  1
CELLMARGIN_BEGIN
 40
0.06
 40
0.06
 40
0.06
 40
0.06
 40
0.18
 40
0.18
309
CELLMARGIN_END
 94
        6
 95
        1
302
GRIDFORMAT
  1
GRIDFORMAT_BEGIN
 90
        0
 91
        1
 62
     0
 92
       -2
340
14
 93
        0
 40
0.045
309
GRIDFORMAT_END
 95
        2
302
GRIDFORMAT
  1
GRIDFORMAT_BEGIN
 90
        0
 91
        1
 62
     0
 92
       -2
340
14
 93
        0
 40
0.045
309
GRIDFORMAT_END
 95
        4
302
GRIDFORMAT
  1
GRIDFORMAT_BEGIN
 90
        0
 91
        1
 62
     0
 92
       -2
340
14
 93
        0
 40
0.045
309
GRIDFORMAT_END
 95
        8
302
GRIDFORMAT
  1
GRIDFORMAT_BEGIN
 90
        0
 91
        1
 62
     0
 92
       -2
340
14
 93
        0
 40
0.045
309
GRIDFORMAT_END
 95
       16
302
GRIDFORMAT
  1
GRIDFORMAT_BEGIN
 90
        0
 91
        1
 62
     0
 92
       -2
340
14
 93
        0
 40
0.045
309
GRIDFORMAT_END
 95
       32
302
GRIDFORMAT
  1
GRIDFORMAT_BEGIN
 90
        0
 91
        1
 62
     0
 92
       -2
340
14
 93
        0
 40
0.045
309
GRIDFORMAT_END
309
TABLEFORMAT_END
  1
CELLSTYLE_BEGIN
 90
        1
 91
        1
300
_TITLE
309
CELLSTYLE_END
300
CELLSTYLE
  1
TABLEFORMAT_BEGIN
 90
        5
170
     1
 91
        0
 92
        0
 62
   257
 93
        1
300
CONTENTFORMAT
  1
CONTENTFORMAT_BEGIN
 90
        0
 91
        0
 92
        4
 93
        0
300

 40
0.0
140
1.0
 94
        5
 62
     0
340
11
144
0.18
309
CONTENTFORMAT_END
171
     1
301
MARGIN
  1
CELLMARGIN_BEGIN
 40
0.06
 40
0.06
 40
0.06
 40
0.06
 40
0.18
 40
0.18
309
CELLMARGIN_END
 94
        6
 95
        1
302
GRIDFORMAT
  1
GRIDFORMAT_BEGIN
 90
        0
 91
        1
 62
     0
 92
       -2
340
14
 93
        0
 40
0.045
309
GRIDFORMAT_END
 95
        2
302
GRIDFORMAT
  1
GRIDFORMAT_BEGIN
 90
        0
 91
        1
 62
     0
 92
       -2
340
14
 93
        0
 40
0.045
309
GRIDFORMAT_END
 95
        4
302
GRIDFORMAT
  1
GRIDFORMAT_BEGIN
 90
        0
 91
        1
 62
     0
 92
       -2
340
14
 93
        0
 40
0.045
309
GRIDFORMAT_END
 95
        8
302
GRIDFORMAT
  1
GRIDFORMAT_BEGIN
 90
        0
 91
        1
 62
     0
 92
       -2
340
14
 93
        0
 40
0.045
309
GRIDFORMAT_END
 95
       16
302
GRIDFORMAT
  1
GRIDFORMAT_BEGIN
 90
        0
 91
        1
 62
     0
 92
       -2
340
14
 93
        0
 40
0.045
309
GRIDFORMAT_END
 95
       32
302
GRIDFORMAT
  1
GRIDFORMAT_BEGIN
 90
        0
 91
        1
 62
     0
 92
       -2
340
14
 93
        0
 40
0.045
309
GRIDFORMAT_END
309
TABLEFORMAT_END
  1
CELLSTYLE_BEGIN
 90
        2
 91
        1
300
_HEADER
309
CELLSTYLE_END
300
CELLSTYLE
  1
TABLEFORMAT_BEGIN
 90
        5
170
     1
 91
        0
 92
        0
 62
   257
 93
        1
300
CONTENTFORMAT
  1
CONTENTFORMAT_BEGIN
 90
        0
 91
        0
 92
        4
 93
        0
300

 40
0.0
140
1.0
 94
        2
 62
     0
340
11
144
0.18
309
CONTENTFORMAT_END
171
     1
301
MARGIN
  1
CELLMARGIN_BEGIN
 40
0.06
 40
0.06
 40
0.06
 40
0.06
 40
0.18
 40
0.18
309
CELLMARGIN_END
 94
        6
 95
        1
302
GRIDFORMAT
  1
GRIDFORMAT_BEGIN
 90
        0
 91
        1
 62
     0
 92
       -2
340
14
 93
        0
 40
0.045
309
GRIDFORMAT_END
 95
        2
302
GRIDFORMAT
  1
GRIDFORMAT_BEGIN
 90
        0
 91
        1
 62
     0
 92
       -2
340
14
 93
        0
 40
0.045
309
GRIDFORMAT_END
 95
        4
302
GRIDFORMAT
  1
GRIDFORMAT_BEGIN
 90
        0
 91
        1
 62
     0
 92
       -2
340
14
 93
        0
 40
0.045
309
GRIDFORMAT_END
 95
        8
302
GRIDFORMAT
  1
GRIDFORMAT_BEGIN
 90
        0
 91
        1
 62
     0
 92
       -2
340
14
 93
        0
 40
0.045
309
GRIDFORMAT_END
 95
       16
302
GRIDFORMAT
  1
GRIDFORMAT_BEGIN
 90
        0
 91
        1
 62
     0
 92
       -2
340
14
 93
        0
 40
0.045
309
GRIDFORMAT_END
 95
       32
302
GRIDFORMAT
  1
GRIDFORMAT_BEGIN
 90
        0
 91
        1
 62
     0
 92
       -2
340
14
 93
        0
 40
0.045
309
GRIDFORMAT_END
309
TABLEFORMAT_END
  1
CELLSTYLE_BEGIN
 90
        3
 91
        2
300
_DATA
309
CELLSTYLE_END
  0
XRECORD
  5
38C
102
{ACAD_REACTORS
330
264
102
}
330
264
100
AcDbXrecord
280
     1
102
ACAD_ROUNDTRIP_PRE2007_TABLESTYLE
 90
        4
 91
        0
  1

 92
        4
 93
        0
  2

 94
        4
 95
        0
  3

  0
XRECORD
  5
365
102
{ACAD_REACTORS
330
364
102
}
330
364
100
AcDbXrecord
280
     1
102
RTVSPost2010Prop28
280
     1
102
RTVSPost2010PropOp28
 70
     1
102
RTVSPost2010Prop29
280
     1
102
RTVSPost2010PropOp29
 70
     1
102
RTVSPost2010Prop30
280
     0
102
RTVSPost2010PropOp30
 70
     1
102
RTVSPost2010Prop31
280
     0
102
RTVSPost2010PropOp31
 70
     1
102
RTVSPost2010Prop32
280
     0
102
RTVSPost2010PropOp32
 70
     1
102
RTVSPost2010Prop33
280
     0
102
RTVSPost2010PropOp33
 70
     1
102
RTVSPost2010Prop34
280
     0
102
RTVSPost2010PropOp34
 70
     1
102
RTVSPost2010Prop35
280
     0
102
RTVSPost2010PropOp35
 70
     1
102
RTVSPost2010Prop36
280
     0
102
RTVSPost2010PropOp36
 70
     1
102
RTVSPost2010Prop37
 90
       50
102
RTVSPost2010PropOp37
 70
     1
102
RTVSPost2010Prop38
140
0.0
102
RTVSPost2010PropOp38
 70
     1
102
RTVSPost2010Prop39
140
1.0
102
RTVSPost2010PropOp39
 70
     1
102
RTVSPost2010Prop40
 90
        0
102
RTVSPost2010PropOp40
 70
     1
102
RTVSPost2010Prop41ColorIndex
 90
       18
102
RTVSPost2010Prop41ColorRGB
 90
        0
102
RTVSPost2010PropOp41
 70
     1
102
RTVSPost2010Prop42
 90
       50
102
RTVSPost2010PropOp42
 70
     1
102
RTVSPost2010Prop43
 90
        3
102
RTVSPost2010PropOp43
 70
     1
102
RTVSPost2010Prop44ColorIndex
 90
        5
102
RTVSPost2010Prop44ColorRGB
 90
      255
102
RTVSPost2010PropOp44
 70
     1
102
RTVSPost2010Prop45
280
     0
102
RTVSPost2010PropOp45
 70
     1
102
RTVSPost2010Prop46
 90
       50
102
RTVSPost2010PropOp46
 70
     1
102
RTVSPost2010Prop47
 90
       50
102
RTVSPost2010PropOp47
 70
     1
102
RTVSPost2010Prop48
 90
       50
102
RTVSPost2010PropOp48
 70
     1
102
RTVSPost2010Prop49
280
     0
102
RTVSPost2010PropOp49
 70
     1
102
RTVSPost2010Prop50
 90
       50
102
RTVSPost2010PropOp50
 70
     1
102
RTVSPost2010Prop51ColorIndex
 90
      256
102
RTVSPost2010Prop51ColorRGB
 90
-16777216
102
RTVSPost2010PropOp51
 70
     0
102
RTVSPost2010Prop52
140
1.0
102
RTVSPost2010PropOp52
 70
     0
102
RTVSPost2010Prop53
 90
        2
102
RTVSPost2010PropOp53
 70
     1
102
RTVSPost2010Prop54
  1
strokes_ogs.tif
102
RTVSPost2010PropOp54
 70
     1
102
RTVSPost2010Prop55
280
     0
102
RTVSPost2010PropOp55
 70
     1
102
RTVSPost2010Prop56
140
1.0
102
RTVSPost2010PropOp56
 70
     1
102
RTVSPost2010Prop57
140
1.0
102
RTVSPost2010PropOp57
 70
     1
102
RTVSPropertyOp0
 70
     1
102
RTVSPropertyOp1
 70
     1
102
RTVSPropertyOp2
 70
     1
102
RTVSPropertyOp3
 70
     1
102
RTVSPropertyOp4
 70
     1
102
RTVSPropertyOp5
 70
     1
102
RTVSPropertyOp6
 70
     1
102
RTVSPropertyOp7
 70
     1
102
RTVSPropertyOp8
 70
     1
102
RTVSPropertyOp9
 70
     1
102
RTVSPropertyOp10
 70
     1
102
RTVSPropertyOp11
 70
     1
102
RTVSPropertyOp12
 70
     1
102
RTVSPropertyOp13
 70
     1
102
RTVSPropertyOp14
 70
     1
102
RTVSPropertyOp15
 70
     1
102
RTVSPropertyOp16
 70
     1
102
RTVSPropertyOp17
 70
     1
102
RTVSPropertyOp18
 70
     1
102
RTVSPropertyOp19
 70
     1
102
RTVSPropertyOp20
 70
     1
102
RTVSPropertyOp21
 70
     1
102
RTVSPropertyOp22
 70
     1
102
RTVSPropertyOp23
 70
     1
102
RTVSPropertyOp24
 70
     1
102
RTVSPropertyOp25
 70
     1
102
RTVSPropertyOp26
 70
     1
102
RTVSPropertyOp27
 70
     1
102
RTVSPropertyOp28
 70
     1
102
RTVSPropertyOp29
 70
     1
102
RTVSPropertyOp30
 70
     1
102
RTVSPropertyOp31
 70
     1
102
RTVSPropertyOp32
 70
     1
102
RTVSPropertyOp33
 70
     1
102
RTVSPropertyOp34
 70
     1
102
RTVSPropertyOp35
 70
     1
102
RTVSPropertyOp36
 70
     1
102
RTVSPropertyOp37
 70
     1
102
RTVSPropertyOp38
 70
     1
102
RTVSPropertyOp39
 70
     1
102
RTVSPropertyOp40
 70
     1
102
RTVSPropertyOp41
 70
     1
102
RTVSPropertyOp42
 70
     1
102
RTVSPropertyOp43
 70
     1
102
RTVSPropertyOp44
 70
     1
102
RTVSPropertyOp45
 70
     1
102
RTVSPropertyOp46
 70
     1
102
RTVSPropertyOp47
 70
     1
102
RTVSPropertyOp48
 70
     1
102
RTVSPropertyOp49
 70
     1
102
RTVSPropertyOp50
 70
     1
102
RTVSPropertyOp51
 70
     0
102
RTVSPropertyOp52
 70
     0
102
RTVSPropertyOp53
 70
     1
102
RTVSPropertyOp54
 70
     1
102
RTVSPropertyOp55
 70
     1
102
RTVSPropertyOp56
 70
     1
102
RTVSPropertyOp57
 70
     1
102
RTVSPropertyOp58
 70
     1
102
RTVSPropertyOp59
 70
     1
102
RTVSPropertyOp60
 70
     1
102
RTVSPropertyOp61
 70
     1
102
RTVSPropertyOp62
 70
     1
  0
XRECORD
  5
36B
102
{ACAD_REACTORS
330
36A
102
}
330
36A
100
AcDbXrecord
280
     1
102
RTVSPost2010Prop28
280
     0
102
RTVSPost2010PropOp28
 70
     1
102
RTVSPost2010Prop29
280
     1
102
RTVSPost2010PropOp29
 70
     1
102
RTVSPost2010Prop30
280
     1
102
RTVSPost2010PropOp30
 70
     1
102
RTVSPost2010Prop31
280
     0
102
RTVSPost2010PropOp31
 70
     1
102
RTVSPost2010Prop32
280
     0
102
RTVSPost2010PropOp32
 70
     1
102
RTVSPost2010Prop33
280
     0
102
RTVSPost2010PropOp33
 70
     1
102
RTVSPost2010Prop34
280
     0
102
RTVSPost2010PropOp34
 70
     1
102
RTVSPost2010Prop35
280
     0
102
RTVSPost2010PropOp35
 70
     1
102
RTVSPost2010Prop36
280
     0
102
RTVSPost2010PropOp36
 70
     1
102
RTVSPost2010Prop37
 90
       50
102
RTVSPost2010PropOp37
 70
     1
102
RTVSPost2010Prop38
140
0.0
102
RTVSPost2010PropOp38
 70
     1
102
RTVSPost2010Prop39
140
1.0
102
RTVSPost2010PropOp39
 70
     1
102
RTVSPost2010Prop40
 90
        0
102
RTVSPost2010PropOp40
 70
     1
102
RTVSPost2010Prop41ColorIndex
 90
       18
102
RTVSPost2010Prop41ColorRGB
 90
        0
102
RTVSPost2010PropOp41
 70
     1
102
RTVSPost2010Prop42
 90
       50
102
RTVSPost2010PropOp42
 70
     1
102
RTVSPost2010Prop43
 90
        3
102
RTVSPost2010PropOp43
 70
     1
102
RTVSPost2010Prop44ColorIndex
 90
        5
102
RTVSPost2010Prop44ColorRGB
 90
      255
102
RTVSPost2010PropOp44
 70
     1
102
RTVSPost2010Prop45
280
     0
102
RTVSPost2010PropOp45
 70
     1
102
RTVSPost2010Prop46
 90
       50
102
RTVSPost2010PropOp46
 70
     1
102
RTVSPost2010Prop47
 90
       50
102
RTVSPost2010PropOp47
 70
     1
102
RTVSPost2010Prop48
 90
       50
102
RTVSPost2010PropOp48
 70
     1
102
RTVSPost2010Prop49
280
     0
102
RTVSPost2010PropOp49
 70
     1
102
RTVSPost2010Prop50
 90
       50
102
RTVSPost2010PropOp50
 70
     1
102
RTVSPost2010Prop51ColorIndex
 90
      256
102
RTVSPost2010Prop51ColorRGB
 90
-16777216
102
RTVSPost2010PropOp51
 70
     0
102
RTVSPost2010Prop52
140
1.0
102
RTVSPost2010PropOp52
 70
     0
102
RTVSPost2010Prop53
 90
        2
102
RTVSPost2010PropOp53
 70
     1
102
RTVSPost2010Prop54
  1
strokes_ogs.tif
102
RTVSPost2010PropOp54
 70
     1
102
RTVSPost2010Prop55
280
     0
102
RTVSPost2010PropOp55
 70
     1
102
RTVSPost2010Prop56
140
1.0
102
RTVSPost2010PropOp56
 70
     1
102
RTVSPost2010Prop57
140
1.0
102
RTVSPost2010PropOp57
 70
     1
102
RTVSPropertyOp0
 70
     1
102
RTVSPropertyOp1
 70
     1
102
RTVSPropertyOp2
 70
     1
102
RTVSPropertyOp3
 70
     1
102
RTVSPropertyOp4
 70
     1
102
RTVSPropertyOp5
 70
     1
102
RTVSPropertyOp6
 70
     1
102
RTVSPropertyOp7
 70
     1
102
RTVSPropertyOp8
 70
     1
102
RTVSPropertyOp9
 70
     1
102
RTVSPropertyOp10
 70
     1
102
RTVSPropertyOp11
 70
     1
102
RTVSPropertyOp12
 70
     1
102
RTVSPropertyOp13
 70
     1
102
RTVSPropertyOp14
 70
     1
102
RTVSPropertyOp15
 70
     1
102
RTVSPropertyOp16
 70
     1
102
RTVSPropertyOp17
 70
     1
102
RTVSPropertyOp18
 70
     1
102
RTVSPropertyOp19
 70
     1
102
RTVSPropertyOp20
 70
     1
102
RTVSPropertyOp21
 70
     1
102
RTVSPropertyOp22
 70
     1
102
RTVSPropertyOp23
 70
     1
102
RTVSPropertyOp24
 70
     1
102
RTVSPropertyOp25
 70
     1
102
RTVSPropertyOp26
 70
     1
102
RTVSPropertyOp27
 70
     1
102
RTVSPropertyOp28
 70
     1
102
RTVSPropertyOp29
 70
     1
102
RTVSPropertyOp30
 70
     1
102
RTVSPropertyOp31
 70
     1
102
RTVSPropertyOp32
 70
     1
102
RTVSPropertyOp33
 70
     1
102
RTVSPropertyOp34
 70
     1
102
RTVSPropertyOp35
 70
     1
102
RTVSPropertyOp36
 70
     1
102
RTVSPropertyOp37
 70
     1
102
RTVSPropertyOp38
 70
     1
102
RTVSPropertyOp39
 70
     1
102
RTVSPropertyOp40
 70
     1
102
RTVSPropertyOp41
 70
     1
102
RTVSPropertyOp42
 70
     1
102
RTVSPropertyOp43
 70
     1
102
RTVSPropertyOp44
 70
     1
102
RTVSPropertyOp45
 70
     1
102
RTVSPropertyOp46
 70
     1
102
RTVSPropertyOp47
 70
     1
102
RTVSPropertyOp48
 70
     1
102
RTVSPropertyOp49
 70
     1
102
RTVSPropertyOp50
 70
     1
102
RTVSPropertyOp51
 70
     0
102
RTVSPropertyOp52
 70
     0
102
RTVSPropertyOp53
 70
     1
102
RTVSPropertyOp54
 70
     1
102
RTVSPropertyOp55
 70
     1
102
RTVSPropertyOp56
 70
     1
102
RTVSPropertyOp57
 70
     1
102
RTVSPropertyOp58
 70
     1
102
RTVSPropertyOp59
 70
     1
102
RTVSPropertyOp60
 70
     1
102
RTVSPropertyOp61
 70
     1
102
RTVSPropertyOp62
 70
     1
  0
XRECORD
  5
373
102
{ACAD_REACTORS
330
372
102
}
330
372
100
AcDbXrecord
280
     1
102
RTVSPost2010Prop28
280
     0
102
RTVSPost2010PropOp28
 70
     1
102
RTVSPost2010Prop29
280
     1
102
RTVSPost2010PropOp29
 70
     1
102
RTVSPost2010Prop30
280
     1
102
RTVSPost2010PropOp30
 70
     1
102
RTVSPost2010Prop31
280
     0
102
RTVSPost2010PropOp31
 70
     1
102
RTVSPost2010Prop32
280
     0
102
RTVSPost2010PropOp32
 70
     1
102
RTVSPost2010Prop33
280
     0
102
RTVSPost2010PropOp33
 70
     1
102
RTVSPost2010Prop34
280
     0
102
RTVSPost2010PropOp34
 70
     1
102
RTVSPost2010Prop35
280
     0
102
RTVSPost2010PropOp35
 70
     1
102
RTVSPost2010Prop36
280
     0
102
RTVSPost2010PropOp36
 70
     1
102
RTVSPost2010Prop37
 90
       50
102
RTVSPost2010PropOp37
 70
     1
102
RTVSPost2010Prop38
140
0.0
102
RTVSPost2010PropOp38
 70
     1
102
RTVSPost2010Prop39
140
1.0
102
RTVSPost2010PropOp39
 70
     1
102
RTVSPost2010Prop40
 90
        0
102
RTVSPost2010PropOp40
 70
     1
102
RTVSPost2010Prop41ColorIndex
 90
       18
102
RTVSPost2010Prop41ColorRGB
 90
        0
102
RTVSPost2010PropOp41
 70
     1
102
RTVSPost2010Prop42
 90
       50
102
RTVSPost2010PropOp42
 70
     1
102
RTVSPost2010Prop43
 90
        3
102
RTVSPost2010PropOp43
 70
     1
102
RTVSPost2010Prop44ColorIndex
 90
        5
102
RTVSPost2010Prop44ColorRGB
 90
      255
102
RTVSPost2010PropOp44
 70
     1
102
RTVSPost2010Prop45
280
     0
102
RTVSPost2010PropOp45
 70
     1
102
RTVSPost2010Prop46
 90
       50
102
RTVSPost2010PropOp46
 70
     1
102
RTVSPost2010Prop47
 90
       50
102
RTVSPost2010PropOp47
 70
     1
102
RTVSPost2010Prop48
 90
       50
102
RTVSPost2010PropOp48
 70
     1
102
RTVSPost2010Prop49
280
     0
102
RTVSPost2010PropOp49
 70
     1
102
RTVSPost2010Prop50
 90
       50
102
RTVSPost2010PropOp50
 70
     1
102
RTVSPost2010Prop51ColorIndex
 90
      256
102
RTVSPost2010Prop51ColorRGB
 90
-16777216
102
RTVSPost2010PropOp51
 70
     0
102
RTVSPost2010Prop52
140
1.0
102
RTVSPost2010PropOp52
 70
     0
102
RTVSPost2010Prop53
 90
        2
102
RTVSPost2010PropOp53
 70
     1
102
RTVSPost2010Prop54
  1
strokes_ogs.tif
102
RTVSPost2010PropOp54
 70
     1
102
RTVSPost2010Prop55
280
     0
102
RTVSPost2010PropOp55
 70
     1
102
RTVSPost2010Prop56
140
1.0
102
RTVSPost2010PropOp56
 70
     1
102
RTVSPost2010Prop57
140
1.0
102
RTVSPost2010PropOp57
 70
     1
102
RTVSPropertyOp0
 70
     1
102
RTVSPropertyOp1
 70
     1
102
RTVSPropertyOp2
 70
     1
102
RTVSPropertyOp3
 70
     1
102
RTVSPropertyOp4
 70
     1
102
RTVSPropertyOp5
 70
     1
102
RTVSPropertyOp6
 70
     1
102
RTVSPropertyOp7
 70
     1
102
RTVSPropertyOp8
 70
     1
102
RTVSPropertyOp9
 70
     1
102
RTVSPropertyOp10
 70
     1
102
RTVSPropertyOp11
 70
     1
102
RTVSPropertyOp12
 70
     1
102
RTVSPropertyOp13
 70
     1
102
RTVSPropertyOp14
 70
     1
102
RTVSPropertyOp15
 70
     1
102
RTVSPropertyOp16
 70
     1
102
RTVSPropertyOp17
 70
     1
102
RTVSPropertyOp18
 70
     1
102
RTVSPropertyOp19
 70
     1
102
RTVSPropertyOp20
 70
     1
102
RTVSPropertyOp21
 70
     1
102
RTVSPropertyOp22
 70
     1
102
RTVSPropertyOp23
 70
     1
102
RTVSPropertyOp24
 70
     1
102
RTVSPropertyOp25
 70
     1
102
RTVSPropertyOp26
 70
     1
102
RTVSPropertyOp27
 70
     1
102
RTVSPropertyOp28
 70
     1
102
RTVSPropertyOp29
 70
     1
102
RTVSPropertyOp30
 70
     1
102
RTVSPropertyOp31
 70
     1
102
RTVSPropertyOp32
 70
     1
102
RTVSPropertyOp33
 70
     1
102
RTVSPropertyOp34
 70
     1
102
RTVSPropertyOp35
 70
     1
102
RTVSPropertyOp36
 70
     1
102
RTVSPropertyOp37
 70
     1
102
RTVSPropertyOp38
 70
     1
102
RTVSPropertyOp39
 70
     1
102
RTVSPropertyOp40
 70
     1
102
RTVSPropertyOp41
 70
     1
102
RTVSPropertyOp42
 70
     1
102
RTVSPropertyOp43
 70
     1
102
RTVSPropertyOp44
 70
     1
102
RTVSPropertyOp45
 70
     1
102
RTVSPropertyOp46
 70
     1
102
RTVSPropertyOp47
 70
     1
102
RTVSPropertyOp48
 70
     1
102
RTVSPropertyOp49
 70
     1
102
RTVSPropertyOp50
 70
     1
102
RTVSPropertyOp51
 70
     0
102
RTVSPropertyOp52
 70
     0
102
RTVSPropertyOp53
 70
     1
102
RTVSPropertyOp54
 70
     1
102
RTVSPropertyOp55
 70
     1
102
RTVSPropertyOp56
 70
     1
102
RTVSPropertyOp57
 70
     1
102
RTVSPropertyOp58
 70
     1
102
RTVSPropertyOp59
 70
     1
102
RTVSPropertyOp60
 70
     1
102
RTVSPropertyOp61
 70
     1
102
RTVSPropertyOp62
 70
     1
  0
XRECORD
  5
37B
102
{ACAD_REACTORS
330
37A
102
}
330
37A
100
AcDbXrecord
280
     1
102
RTVSPost2010Prop28
280
     0
102
RTVSPost2010PropOp28
 70
     1
102
RTVSPost2010Prop29
280
     1
102
RTVSPost2010PropOp29
 70
     1
102
RTVSPost2010Prop30
280
     1
102
RTVSPost2010PropOp30
 70
     1
102
RTVSPost2010Prop31
280
     0
102
RTVSPost2010PropOp31
 70
     1
102
RTVSPost2010Prop32
280
     0
102
RTVSPost2010PropOp32
 70
     1
102
RTVSPost2010Prop33
280
     0
102
RTVSPost2010PropOp33
 70
     1
102
RTVSPost2010Prop34
280
     0
102
RTVSPost2010PropOp34
 70
     1
102
RTVSPost2010Prop35
280
     0
102
RTVSPost2010PropOp35
 70
     1
102
RTVSPost2010Prop36
280
     0
102
RTVSPost2010PropOp36
 70
     1
102
RTVSPost2010Prop37
 90
       50
102
RTVSPost2010PropOp37
 70
     1
102
RTVSPost2010Prop38
140
0.0
102
RTVSPost2010PropOp38
 70
     1
102
RTVSPost2010Prop39
140
1.0
102
RTVSPost2010PropOp39
 70
     1
102
RTVSPost2010Prop40
 90
        0
102
RTVSPost2010PropOp40
 70
     1
102
RTVSPost2010Prop41ColorIndex
 90
       18
102
RTVSPost2010Prop41ColorRGB
 90
        0
102
RTVSPost2010PropOp41
 70
     1
102
RTVSPost2010Prop42
 90
       50
102
RTVSPost2010PropOp42
 70
     1
102
RTVSPost2010Prop43
 90
        3
102
RTVSPost2010PropOp43
 70
     1
102
RTVSPost2010Prop44ColorIndex
 90
        5
102
RTVSPost2010Prop44ColorRGB
 90
      255
102
RTVSPost2010PropOp44
 70
     1
102
RTVSPost2010Prop45
280
     0
102
RTVSPost2010PropOp45
 70
     1
102
RTVSPost2010Prop46
 90
       50
102
RTVSPost2010PropOp46
 70
     1
102
RTVSPost2010Prop47
 90
       50
102
RTVSPost2010PropOp47
 70
     1
102
RTVSPost2010Prop48
 90
       50
102
RTVSPost2010PropOp48
 70
     1
102
RTVSPost2010Prop49
280
     0
102
RTVSPost2010PropOp49
 70
     1
102
RTVSPost2010Prop50
 90
       50
102
RTVSPost2010PropOp50
 70
     1
102
RTVSPost2010Prop51ColorIndex
 90
      256
102
RTVSPost2010Prop51ColorRGB
 90
-16777216
102
RTVSPost2010PropOp51
 70
     0
102
RTVSPost2010Prop52
140
1.0
102
RTVSPost2010PropOp52
 70
     0
102
RTVSPost2010Prop53
 90
        2
102
RTVSPost2010PropOp53
 70
     1
102
RTVSPost2010Prop54
  1
strokes_ogs.tif
102
RTVSPost2010PropOp54
 70
     1
102
RTVSPost2010Prop55
280
     0
102
RTVSPost2010PropOp55
 70
     1
102
RTVSPost2010Prop56
140
1.0
102
RTVSPost2010PropOp56
 70
     1
102
RTVSPost2010Prop57
140
1.0
102
RTVSPost2010PropOp57
 70
     1
102
RTVSPropertyOp0
 70
     1
102
RTVSPropertyOp1
 70
     1
102
RTVSPropertyOp2
 70
     1
102
RTVSPropertyOp3
 70
     1
102
RTVSPropertyOp4
 70
     1
102
RTVSPropertyOp5
 70
     1
102
RTVSPropertyOp6
 70
     1
102
RTVSPropertyOp7
 70
     1
102
RTVSPropertyOp8
 70
     1
102
RTVSPropertyOp9
 70
     1
102
RTVSPropertyOp10
 70
     1
102
RTVSPropertyOp11
 70
     1
102
RTVSPropertyOp12
 70
     1
102
RTVSPropertyOp13
 70
     1
102
RTVSPropertyOp14
 70
     1
102
RTVSPropertyOp15
 70
     1
102
RTVSPropertyOp16
 70
     1
102
RTVSPropertyOp17
 70
     1
102
RTVSPropertyOp18
 70
     1
102
RTVSPropertyOp19
 70
     1
102
RTVSPropertyOp20
 70
     1
102
RTVSPropertyOp21
 70
     1
102
RTVSPropertyOp22
 70
     1
102
RTVSPropertyOp23
 70
     1
102
RTVSPropertyOp24
 70
     1
102
RTVSPropertyOp25
 70
     1
102
RTVSPropertyOp26
 70
     1
102
RTVSPropertyOp27
 70
     1
102
RTVSPropertyOp28
 70
     1
102
RTVSPropertyOp29
 70
     1
102
RTVSPropertyOp30
 70
     1
102
RTVSPropertyOp31
 70
     1
102
RTVSPropertyOp32
 70
     1
102
RTVSPropertyOp33
 70
     1
102
RTVSPropertyOp34
 70
     1
102
RTVSPropertyOp35
 70
     1
102
RTVSPropertyOp36
 70
     1
102
RTVSPropertyOp37
 70
     1
102
RTVSPropertyOp38
 70
     1
102
RTVSPropertyOp39
 70
     1
102
RTVSPropertyOp40
 70
     1
102
RTVSPropertyOp41
 70
     1
102
RTVSPropertyOp42
 70
     1
102
RTVSPropertyOp43
 70
     1
102
RTVSPropertyOp44
 70
     1
102
RTVSPropertyOp45
 70
     1
102
RTVSPropertyOp46
 70
     1
102
RTVSPropertyOp47
 70
     1
102
RTVSPropertyOp48
 70
     1
102
RTVSPropertyOp49
 70
     1
102
RTVSPropertyOp50
 70
     1
102
RTVSPropertyOp51
 70
     0
102
RTVSPropertyOp52
 70
     0
102
RTVSPropertyOp53
 70
     1
102
RTVSPropertyOp54
 70
     1
102
RTVSPropertyOp55
 70
     1
102
RTVSPropertyOp56
 70
     1
102
RTVSPropertyOp57
 70
     1
102
RTVSPropertyOp58
 70
     1
102
RTVSPropertyOp59
 70
     1
102
RTVSPropertyOp60
 70
     1
102
RTVSPropertyOp61
 70
     1
102
RTVSPropertyOp62
 70
     1
  0
XRECORD
  5
36F
102
{ACAD_REACTORS
330
36E
102
}
330
36E
100
AcDbXrecord
280
     1
102
RTVSPost2010Prop28
280
     0
102
RTVSPost2010PropOp28
 70
     1
102
RTVSPost2010Prop29
280
     1
102
RTVSPost2010PropOp29
 70
     1
102
RTVSPost2010Prop30
280
     1
102
RTVSPost2010PropOp30
 70
     1
102
RTVSPost2010Prop31
280
     0
102
RTVSPost2010PropOp31
 70
     1
102
RTVSPost2010Prop32
280
     0
102
RTVSPost2010PropOp32
 70
     1
102
RTVSPost2010Prop33
280
     0
102
RTVSPost2010PropOp33
 70
     1
102
RTVSPost2010Prop34
280
     0
102
RTVSPost2010PropOp34
 70
     1
102
RTVSPost2010Prop35
280
     0
102
RTVSPost2010PropOp35
 70
     1
102
RTVSPost2010Prop36
280
     0
102
RTVSPost2010PropOp36
 70
     1
102
RTVSPost2010Prop37
 90
       50
102
RTVSPost2010PropOp37
 70
     1
102
RTVSPost2010Prop38
140
0.0
102
RTVSPost2010PropOp38
 70
     1
102
RTVSPost2010Prop39
140
1.0
102
RTVSPost2010PropOp39
 70
     1
102
RTVSPost2010Prop40
 90
        0
102
RTVSPost2010PropOp40
 70
     1
102
RTVSPost2010Prop41ColorIndex
 90
       18
102
RTVSPost2010Prop41ColorRGB
 90
        0
102
RTVSPost2010PropOp41
 70
     1
102
RTVSPost2010Prop42
 90
       50
102
RTVSPost2010PropOp42
 70
     1
102
RTVSPost2010Prop43
 90
        3
102
RTVSPost2010PropOp43
 70
     1
102
RTVSPost2010Prop44ColorIndex
 90
        5
102
RTVSPost2010Prop44ColorRGB
 90
      255
102
RTVSPost2010PropOp44
 70
     1
102
RTVSPost2010Prop45
280
     0
102
RTVSPost2010PropOp45
 70
     1
102
RTVSPost2010Prop46
 90
       50
102
RTVSPost2010PropOp46
 70
     1
102
RTVSPost2010Prop47
 90
       50
102
RTVSPost2010PropOp47
 70
     1
102
RTVSPost2010Prop48
 90
       50
102
RTVSPost2010PropOp48
 70
     1
102
RTVSPost2010Prop49
280
     0
102
RTVSPost2010PropOp49
 70
     1
102
RTVSPost2010Prop50
 90
       50
102
RTVSPost2010PropOp50
 70
     1
102
RTVSPost2010Prop51ColorIndex
 90
      256
102
RTVSPost2010Prop51ColorRGB
 90
-16777216
102
RTVSPost2010PropOp51
 70
     0
102
RTVSPost2010Prop52
140
1.0
102
RTVSPost2010PropOp52
 70
     0
102
RTVSPost2010Prop53
 90
        2
102
RTVSPost2010PropOp53
 70
     1
102
RTVSPost2010Prop54
  1
strokes_ogs.tif
102
RTVSPost2010PropOp54
 70
     1
102
RTVSPost2010Prop55
280
     0
102
RTVSPost2010PropOp55
 70
     1
102
RTVSPost2010Prop56
140
1.0
102
RTVSPost2010PropOp56
 70
     1
102
RTVSPost2010Prop57
140
1.0
102
RTVSPost2010PropOp57
 70
     1
102
RTVSPropertyOp0
 70
     1
102
RTVSPropertyOp1
 70
     1
102
RTVSPropertyOp2
 70
     1
102
RTVSPropertyOp3
 70
     1
102
RTVSPropertyOp4
 70
     1
102
RTVSPropertyOp5
 70
     1
102
RTVSPropertyOp6
 70
     1
102
RTVSPropertyOp7
 70
     1
102
RTVSPropertyOp8
 70
     1
102
RTVSPropertyOp9
 70
     1
102
RTVSPropertyOp10
 70
     1
102
RTVSPropertyOp11
 70
     1
102
RTVSPropertyOp12
 70
     1
102
RTVSPropertyOp13
 70
     1
102
RTVSPropertyOp14
 70
     1
102
RTVSPropertyOp15
 70
     1
102
RTVSPropertyOp16
 70
     1
102
RTVSPropertyOp17
 70
     1
102
RTVSPropertyOp18
 70
     1
102
RTVSPropertyOp19
 70
     1
102
RTVSPropertyOp20
 70
     1
102
RTVSPropertyOp21
 70
     1
102
RTVSPropertyOp22
 70
     1
102
RTVSPropertyOp23
 70
     1
102
RTVSPropertyOp24
 70
     1
102
RTVSPropertyOp25
 70
     1
102
RTVSPropertyOp26
 70
     1
102
RTVSPropertyOp27
 70
     1
102
RTVSPropertyOp28
 70
     1
102
RTVSPropertyOp29
 70
     1
102
RTVSPropertyOp30
 70
     1
102
RTVSPropertyOp31
 70
     1
102
RTVSPropertyOp32
 70
     1
102
RTVSPropertyOp33
 70
     1
102
RTVSPropertyOp34
 70
     1
102
RTVSPropertyOp35
 70
     1
102
RTVSPropertyOp36
 70
     1
102
RTVSPropertyOp37
 70
     1
102
RTVSPropertyOp38
 70
     1
102
RTVSPropertyOp39
 70
     1
102
RTVSPropertyOp40
 70
     1
102
RTVSPropertyOp41
 70
     1
102
RTVSPropertyOp42
 70
     1
102
RTVSPropertyOp43
 70
     1
102
RTVSPropertyOp44
 70
     1
102
RTVSPropertyOp45
 70
     1
102
RTVSPropertyOp46
 70
     1
102
RTVSPropertyOp47
 70
     1
102
RTVSPropertyOp48
 70
     1
102
RTVSPropertyOp49
 70
     1
102
RTVSPropertyOp50
 70
     1
102
RTVSPropertyOp51
 70
     0
102
RTVSPropertyOp52
 70
     0
102
RTVSPropertyOp53
 70
     1
102
RTVSPropertyOp54
 70
     1
102
RTVSPropertyOp55
 70
     1
102
RTVSPropertyOp56
 70
     1
102
RTVSPropertyOp57
 70
     1
102
RTVSPropertyOp58
 70
     1
102
RTVSPropertyOp59
 70
     1
102
RTVSPropertyOp60
 70
     1
102
RTVSPropertyOp61
 70
     1
102
RTVSPropertyOp62
 70
     1
  0
XRECORD
  5
371
102
{ACAD_REACTORS
330
370
102
}
330
370
100
AcDbXrecord
280
     1
102
RTVSPost2010Prop28
280
     0
102
RTVSPost2010PropOp28
 70
     1
102
RTVSPost2010Prop29
280
     1
102
RTVSPost2010PropOp29
 70
     1
102
RTVSPost2010Prop30
280
     1
102
RTVSPost2010PropOp30
 70
     1
102
RTVSPost2010Prop31
280
     0
102
RTVSPost2010PropOp31
 70
     1
102
RTVSPost2010Prop32
280
     0
102
RTVSPost2010PropOp32
 70
     1
102
RTVSPost2010Prop33
280
     0
102
RTVSPost2010PropOp33
 70
     1
102
RTVSPost2010Prop34
280
     0
102
RTVSPost2010PropOp34
 70
     1
102
RTVSPost2010Prop35
280
     0
102
RTVSPost2010PropOp35
 70
     1
102
RTVSPost2010Prop36
280
     0
102
RTVSPost2010PropOp36
 70
     1
102
RTVSPost2010Prop37
 90
       50
102
RTVSPost2010PropOp37
 70
     1
102
RTVSPost2010Prop38
140
0.0
102
RTVSPost2010PropOp38
 70
     1
102
RTVSPost2010Prop39
140
1.0
102
RTVSPost2010PropOp39
 70
     1
102
RTVSPost2010Prop40
 90
        0
102
RTVSPost2010PropOp40
 70
     1
102
RTVSPost2010Prop41ColorIndex
 90
       18
102
RTVSPost2010Prop41ColorRGB
 90
        0
102
RTVSPost2010PropOp41
 70
     1
102
RTVSPost2010Prop42
 90
       50
102
RTVSPost2010PropOp42
 70
     1
102
RTVSPost2010Prop43
 90
        3
102
RTVSPost2010PropOp43
 70
     1
102
RTVSPost2010Prop44ColorIndex
 90
        5
102
RTVSPost2010Prop44ColorRGB
 90
      255
102
RTVSPost2010PropOp44
 70
     1
102
RTVSPost2010Prop45
280
     0
102
RTVSPost2010PropOp45
 70
     1
102
RTVSPost2010Prop46
 90
       50
102
RTVSPost2010PropOp46
 70
     1
102
RTVSPost2010Prop47
 90
       50
102
RTVSPost2010PropOp47
 70
     1
102
RTVSPost2010Prop48
 90
       50
102
RTVSPost2010PropOp48
 70
     1
102
RTVSPost2010Prop49
280
     0
102
RTVSPost2010PropOp49
 70
     1
102
RTVSPost2010Prop50
 90
       50
102
RTVSPost2010PropOp50
 70
     1
102
RTVSPost2010Prop51ColorIndex
 90
      256
102
RTVSPost2010Prop51ColorRGB
 90
-16777216
102
RTVSPost2010PropOp51
 70
     0
102
RTVSPost2010Prop52
140
1.0
102
RTVSPost2010PropOp52
 70
     0
102
RTVSPost2010Prop53
 90
        2
102
RTVSPost2010PropOp53
 70
     1
102
RTVSPost2010Prop54
  1
strokes_ogs.tif
102
RTVSPost2010PropOp54
 70
     1
102
RTVSPost2010Prop55
280
     0
102
RTVSPost2010PropOp55
 70
     1
102
RTVSPost2010Prop56
140
1.0
102
RTVSPost2010PropOp56
 70
     1
102
RTVSPost2010Prop57
140
1.0
102
RTVSPost2010PropOp57
 70
     1
102
RTVSPropertyOp0
 70
     1
102
RTVSPropertyOp1
 70
     1
102
RTVSPropertyOp2
 70
     1
102
RTVSPropertyOp3
 70
     1
102
RTVSPropertyOp4
 70
     1
102
RTVSPropertyOp5
 70
     1
102
RTVSPropertyOp6
 70
     1
102
RTVSPropertyOp7
 70
     1
102
RTVSPropertyOp8
 70
     1
102
RTVSPropertyOp9
 70
     1
102
RTVSPropertyOp10
 70
     1
102
RTVSPropertyOp11
 70
     1
102
RTVSPropertyOp12
 70
     1
102
RTVSPropertyOp13
 70
     1
102
RTVSPropertyOp14
 70
     1
102
RTVSPropertyOp15
 70
     1
102
RTVSPropertyOp16
 70
     1
102
RTVSPropertyOp17
 70
     1
102
RTVSPropertyOp18
 70
     1
102
RTVSPropertyOp19
 70
     1
102
RTVSPropertyOp20
 70
     1
102
RTVSPropertyOp21
 70
     1
102
RTVSPropertyOp22
 70
     1
102
RTVSPropertyOp23
 70
     1
102
RTVSPropertyOp24
 70
     1
102
RTVSPropertyOp25
 70
     1
102
RTVSPropertyOp26
 70
     1
102
RTVSPropertyOp27
 70
     1
102
RTVSPropertyOp28
 70
     1
102
RTVSPropertyOp29
 70
     1
102
RTVSPropertyOp30
 70
     1
102
RTVSPropertyOp31
 70
     1
102
RTVSPropertyOp32
 70
     1
102
RTVSPropertyOp33
 70
     1
102
RTVSPropertyOp34
 70
     1
102
RTVSPropertyOp35
 70
     1
102
RTVSPropertyOp36
 70
     1
102
RTVSPropertyOp37
 70
     1
102
RTVSPropertyOp38
 70
     1
102
RTVSPropertyOp39
 70
     1
102
RTVSPropertyOp40
 70
     1
102
RTVSPropertyOp41
 70
     1
102
RTVSPropertyOp42
 70
     1
102
RTVSPropertyOp43
 70
     1
102
RTVSPropertyOp44
 70
     1
102
RTVSPropertyOp45
 70
     1
102
RTVSPropertyOp46
 70
     1
102
RTVSPropertyOp47
 70
     1
102
RTVSPropertyOp48
 70
     1
102
RTVSPropertyOp49
 70
     1
102
RTVSPropertyOp50
 70
     1
102
RTVSPropertyOp51
 70
     0
102
RTVSPropertyOp52
 70
     0
102
RTVSPropertyOp53
 70
     1
102
RTVSPropertyOp54
 70
     1
102
RTVSPropertyOp55
 70
     1
102
RTVSPropertyOp56
 70
     1
102
RTVSPropertyOp57
 70
     1
102
RTVSPropertyOp58
 70
     1
102
RTVSPropertyOp59
 70
     1
102
RTVSPropertyOp60
 70
     1
102
RTVSPropertyOp61
 70
     1
102
RTVSPropertyOp62
 70
     1
  0
XRECORD
  5
381
102
{ACAD_REACTORS
330
380
102
}
330
380
100
AcDbXrecord
280
     1
102
RTVSPost2010Prop28
280
     0
102
RTVSPost2010PropOp28
 70
     0
102
RTVSPost2010Prop29
280
     1
102
RTVSPost2010PropOp29
 70
     0
102
RTVSPost2010Prop30
280
     1
102
RTVSPost2010PropOp30
 70
     0
102
RTVSPost2010Prop31
280
     0
102
RTVSPost2010PropOp31
 70
     0
102
RTVSPost2010Prop32
280
     0
102
RTVSPost2010PropOp32
 70
     0
102
RTVSPost2010Prop33
280
     0
102
RTVSPost2010PropOp33
 70
     0
102
RTVSPost2010Prop34
280
     0
102
RTVSPost2010PropOp34
 70
     0
102
RTVSPost2010Prop35
280
     0
102
RTVSPost2010PropOp35
 70
     0
102
RTVSPost2010Prop36
280
     0
102
RTVSPost2010PropOp36
 70
     0
102
RTVSPost2010Prop37
 90
       50
102
RTVSPost2010PropOp37
 70
     0
102
RTVSPost2010Prop38
140
0.0
102
RTVSPost2010PropOp38
 70
     0
102
RTVSPost2010Prop39
140
1.0
102
RTVSPost2010PropOp39
 70
     0
102
RTVSPost2010Prop40
 90
        0
102
RTVSPost2010PropOp40
 70
     0
102
RTVSPost2010Prop41ColorIndex
 90
       18
102
RTVSPost2010Prop41ColorRGB
 90
        0
102
RTVSPost2010PropOp41
 70
     0
102
RTVSPost2010Prop42
 90
       50
102
RTVSPost2010PropOp42
 70
     0
102
RTVSPost2010Prop43
 90
        3
102
RTVSPost2010PropOp43
 70
     0
102
RTVSPost2010Prop44ColorIndex
 90
        5
102
RTVSPost2010Prop44ColorRGB
 90
      255
102
RTVSPost2010PropOp44
 70
     0
102
RTVSPost2010Prop45
280
     0
102
RTVSPost2010PropOp45
 70
     0
102
RTVSPost2010Prop46
 90
       50
102
RTVSPost2010PropOp46
 70
     0
102
RTVSPost2010Prop47
 90
       50
102
RTVSPost2010PropOp47
 70
     0
102
RTVSPost2010Prop48
 90
       50
102
RTVSPost2010PropOp48
 70
     0
102
RTVSPost2010Prop49
280
     0
102
RTVSPost2010PropOp49
 70
     0
102
RTVSPost2010Prop50
 90
       50
102
RTVSPost2010PropOp50
 70
     0
102
RTVSPost2010Prop51ColorIndex
 90
      256
102
RTVSPost2010Prop51ColorRGB
 90
-16777216
102
RTVSPost2010PropOp51
 70
     0
102
RTVSPost2010Prop52
140
1.0
102
RTVSPost2010PropOp52
 70
     0
102
RTVSPost2010Prop53
 90
        2
102
RTVSPost2010PropOp53
 70
     0
102
RTVSPost2010Prop54
  1
strokes_ogs.tif
102
RTVSPost2010PropOp54
 70
     0
102
RTVSPost2010Prop55
280
     0
102
RTVSPost2010PropOp55
 70
     0
102
RTVSPost2010Prop56
140
1.0
102
RTVSPost2010PropOp56
 70
     0
102
RTVSPost2010Prop57
140
1.0
102
RTVSPost2010PropOp57
 70
     0
102
RTVSPropertyOp0
 70
     0
102
RTVSPropertyOp1
 70
     0
102
RTVSPropertyOp2
 70
     0
102
RTVSPropertyOp3
 70
     0
102
RTVSPropertyOp4
 70
     0
102
RTVSPropertyOp5
 70
     0
102
RTVSPropertyOp6
 70
     0
102
RTVSPropertyOp7
 70
     0
102
RTVSPropertyOp8
 70
     0
102
RTVSPropertyOp9
 70
     0
102
RTVSPropertyOp10
 70
     0
102
RTVSPropertyOp11
 70
     0
102
RTVSPropertyOp12
 70
     0
102
RTVSPropertyOp13
 70
     0
102
RTVSPropertyOp14
 70
     2
102
RTVSPropertyOp15
 70
     0
102
RTVSPropertyOp16
 70
     0
102
RTVSPropertyOp17
 70
     0
102
RTVSPropertyOp18
 70
     0
102
RTVSPropertyOp19
 70
     0
102
RTVSPropertyOp20
 70
     0
102
RTVSPropertyOp21
 70
     0
102
RTVSPropertyOp22
 70
     0
102
RTVSPropertyOp23
 70
     0
102
RTVSPropertyOp24
 70
     0
102
RTVSPropertyOp25
 70
     0
102
RTVSPropertyOp26
 70
     0
102
RTVSPropertyOp27
 70
     0
102
RTVSPropertyOp28
 70
     0
102
RTVSPropertyOp29
 70
     0
102
RTVSPropertyOp30
 70
     0
102
RTVSPropertyOp31
 70
     0
102
RTVSPropertyOp32
 70
     0
102
RTVSPropertyOp33
 70
     0
102
RTVSPropertyOp34
 70
     0
102
RTVSPropertyOp35
 70
     0
102
RTVSPropertyOp36
 70
     0
102
RTVSPropertyOp37
 70
     0
102
RTVSPropertyOp38
 70
     0
102
RTVSPropertyOp39
 70
     0
102
RTVSPropertyOp40
 70
     0
102
RTVSPropertyOp41
 70
     0
102
RTVSPropertyOp42
 70
     0
102
RTVSPropertyOp43
 70
     0
102
RTVSPropertyOp44
 70
     0
102
RTVSPropertyOp45
 70
     0
102
RTVSPropertyOp46
 70
     0
102
RTVSPropertyOp47
 70
     0
102
RTVSPropertyOp48
 70
     0
102
RTVSPropertyOp49
 70
     0
102
RTVSPropertyOp50
 70
     0
102
RTVSPropertyOp51
 70
     0
102
RTVSPropertyOp52
 70
     0
102
RTVSPropertyOp53
 70
     0
102
RTVSPropertyOp54
 70
     0
102
RTVSPropertyOp55
 70
     0
102
RTVSPropertyOp56
 70
     0
102
RTVSPropertyOp57
 70
     0
102
RTVSPropertyOp58
 70
     1
102
RTVSPropertyOp59
 70
     1
102
RTVSPropertyOp60
 70
     1
102
RTVSPropertyOp61
 70
     1
102
RTVSPropertyOp62
 70
     1
  0
XRECORD
  5
379
102
{ACAD_REACTORS
330
378
102
}
330
378
100
AcDbXrecord
280
     1
102
RTVSPost2010Prop28
280
     0
102
RTVSPost2010PropOp28
 70
     1
102
RTVSPost2010Prop29
280
     1
102
RTVSPost2010PropOp29
 70
     1
102
RTVSPost2010Prop30
280
     1
102
RTVSPost2010PropOp30
 70
     1
102
RTVSPost2010Prop31
280
     0
102
RTVSPost2010PropOp31
 70
     1
102
RTVSPost2010Prop32
280
     0
102
RTVSPost2010PropOp32
 70
     1
102
RTVSPost2010Prop33
280
     0
102
RTVSPost2010PropOp33
 70
     1
102
RTVSPost2010Prop34
280
     0
102
RTVSPost2010PropOp34
 70
     1
102
RTVSPost2010Prop35
280
     0
102
RTVSPost2010PropOp35
 70
     1
102
RTVSPost2010Prop36
280
     0
102
RTVSPost2010PropOp36
 70
     1
102
RTVSPost2010Prop37
 90
       50
102
RTVSPost2010PropOp37
 70
     1
102
RTVSPost2010Prop38
140
0.0
102
RTVSPost2010PropOp38
 70
     1
102
RTVSPost2010Prop39
140
1.0
102
RTVSPost2010PropOp39
 70
     1
102
RTVSPost2010Prop40
 90
        0
102
RTVSPost2010PropOp40
 70
     1
102
RTVSPost2010Prop41ColorIndex
 90
       18
102
RTVSPost2010Prop41ColorRGB
 90
        0
102
RTVSPost2010PropOp41
 70
     1
102
RTVSPost2010Prop42
 90
       50
102
RTVSPost2010PropOp42
 70
     1
102
RTVSPost2010Prop43
 90
        3
102
RTVSPost2010PropOp43
 70
     1
102
RTVSPost2010Prop44ColorIndex
 90
        5
102
RTVSPost2010Prop44ColorRGB
 90
      255
102
RTVSPost2010PropOp44
 70
     1
102
RTVSPost2010Prop45
280
     0
102
RTVSPost2010PropOp45
 70
     1
102
RTVSPost2010Prop46
 90
       50
102
RTVSPost2010PropOp46
 70
     1
102
RTVSPost2010Prop47
 90
       50
102
RTVSPost2010PropOp47
 70
     1
102
RTVSPost2010Prop48
 90
       50
102
RTVSPost2010PropOp48
 70
     1
102
RTVSPost2010Prop49
280
     0
102
RTVSPost2010PropOp49
 70
     1
102
RTVSPost2010Prop50
 90
       50
102
RTVSPost2010PropOp50
 70
     1
102
RTVSPost2010Prop51ColorIndex
 90
      256
102
RTVSPost2010Prop51ColorRGB
 90
-16777216
102
RTVSPost2010PropOp51
 70
     0
102
RTVSPost2010Prop52
140
1.0
102
RTVSPost2010PropOp52
 70
     0
102
RTVSPost2010Prop53
 90
        2
102
RTVSPost2010PropOp53
 70
     1
102
RTVSPost2010Prop54
  1
strokes_ogs.tif
102
RTVSPost2010PropOp54
 70
     1
102
RTVSPost2010Prop55
280
     0
102
RTVSPost2010PropOp55
 70
     1
102
RTVSPost2010Prop56
140
1.0
102
RTVSPost2010PropOp56
 70
     1
102
RTVSPost2010Prop57
140
1.0
102
RTVSPost2010PropOp57
 70
     1
102
RTVSPropertyOp0
 70
     1
102
RTVSPropertyOp1
 70
     1
102
RTVSPropertyOp2
 70
     1
102
RTVSPropertyOp3
 70
     1
102
RTVSPropertyOp4
 70
     1
102
RTVSPropertyOp5
 70
     1
102
RTVSPropertyOp6
 70
     1
102
RTVSPropertyOp7
 70
     1
102
RTVSPropertyOp8
 70
     1
102
RTVSPropertyOp9
 70
     1
102
RTVSPropertyOp10
 70
     1
102
RTVSPropertyOp11
 70
     1
102
RTVSPropertyOp12
 70
     1
102
RTVSPropertyOp13
 70
     1
102
RTVSPropertyOp14
 70
     1
102
RTVSPropertyOp15
 70
     1
102
RTVSPropertyOp16
 70
     1
102
RTVSPropertyOp17
 70
     1
102
RTVSPropertyOp18
 70
     1
102
RTVSPropertyOp19
 70
     1
102
RTVSPropertyOp20
 70
     1
102
RTVSPropertyOp21
 70
     1
102
RTVSPropertyOp22
 70
     1
102
RTVSPropertyOp23
 70
     1
102
RTVSPropertyOp24
 70
     1
102
RTVSPropertyOp25
 70
     1
102
RTVSPropertyOp26
 70
     1
102
RTVSPropertyOp27
 70
     1
102
RTVSPropertyOp28
 70
     1
102
RTVSPropertyOp29
 70
     1
102
RTVSPropertyOp30
 70
     1
102
RTVSPropertyOp31
 70
     1
102
RTVSPropertyOp32
 70
     1
102
RTVSPropertyOp33
 70
     1
102
RTVSPropertyOp34
 70
     1
102
RTVSPropertyOp35
 70
     1
102
RTVSPropertyOp36
 70
     1
102
RTVSPropertyOp37
 70
     1
102
RTVSPropertyOp38
 70
     1
102
RTVSPropertyOp39
 70
     1
102
RTVSPropertyOp40
 70
     1
102
RTVSPropertyOp41
 70
     1
102
RTVSPropertyOp42
 70
     1
102
RTVSPropertyOp43
 70
     1
102
RTVSPropertyOp44
 70
     1
102
RTVSPropertyOp45
 70
     1
102
RTVSPropertyOp46
 70
     1
102
RTVSPropertyOp47
 70
     1
102
RTVSPropertyOp48
 70
     1
102
RTVSPropertyOp49
 70
     1
102
RTVSPropertyOp50
 70
     1
102
RTVSPropertyOp51
 70
     0
102
RTVSPropertyOp52
 70
     0
102
RTVSPropertyOp53
 70
     1
102
RTVSPropertyOp54
 70
     1
102
RTVSPropertyOp55
 70
     1
102
RTVSPropertyOp56
 70
     1
102
RTVSPropertyOp57
 70
     1
102
RTVSPropertyOp58
 70
     1
102
RTVSPropertyOp59
 70
     1
102
RTVSPropertyOp60
 70
     1
102
RTVSPropertyOp61
 70
     1
102
RTVSPropertyOp62
 70
     1
  0
XRECORD
  5
35D
102
{ACAD_REACTORS
330
35C
102
}
330
35C
100
AcDbXrecord
280
     1
102
RTVSPost2010Prop28
280
     0
102
RTVSPost2010PropOp28
 70
     1
102
RTVSPost2010Prop29
280
     1
102
RTVSPost2010PropOp29
 70
     1
102
RTVSPost2010Prop30
280
     1
102
RTVSPost2010PropOp30
 70
     1
102
RTVSPost2010Prop31
280
     0
102
RTVSPost2010PropOp31
 70
     1
102
RTVSPost2010Prop32
280
     0
102
RTVSPost2010PropOp32
 70
     1
102
RTVSPost2010Prop33
280
     0
102
RTVSPost2010PropOp33
 70
     1
102
RTVSPost2010Prop34
280
     0
102
RTVSPost2010PropOp34
 70
     1
102
RTVSPost2010Prop35
280
     0
102
RTVSPost2010PropOp35
 70
     1
102
RTVSPost2010Prop36
280
     0
102
RTVSPost2010PropOp36
 70
     1
102
RTVSPost2010Prop37
 90
       50
102
RTVSPost2010PropOp37
 70
     1
102
RTVSPost2010Prop38
140
0.0
102
RTVSPost2010PropOp38
 70
     1
102
RTVSPost2010Prop39
140
1.0
102
RTVSPost2010PropOp39
 70
     1
102
RTVSPost2010Prop40
 90
        0
102
RTVSPost2010PropOp40
 70
     1
102
RTVSPost2010Prop41ColorIndex
 90
       18
102
RTVSPost2010Prop41ColorRGB
 90
        0
102
RTVSPost2010PropOp41
 70
     1
102
RTVSPost2010Prop42
 90
       50
102
RTVSPost2010PropOp42
 70
     1
102
RTVSPost2010Prop43
 90
        3
102
RTVSPost2010PropOp43
 70
     1
102
RTVSPost2010Prop44ColorIndex
 90
        5
102
RTVSPost2010Prop44ColorRGB
 90
      255
102
RTVSPost2010PropOp44
 70
     1
102
RTVSPost2010Prop45
280
     0
102
RTVSPost2010PropOp45
 70
     1
102
RTVSPost2010Prop46
 90
       50
102
RTVSPost2010PropOp46
 70
     1
102
RTVSPost2010Prop47
 90
       50
102
RTVSPost2010PropOp47
 70
     1
102
RTVSPost2010Prop48
 90
       50
102
RTVSPost2010PropOp48
 70
     1
102
RTVSPost2010Prop49
280
     0
102
RTVSPost2010PropOp49
 70
     1
102
RTVSPost2010Prop50
 90
       50
102
RTVSPost2010PropOp50
 70
     1
102
RTVSPost2010Prop51ColorIndex
 90
      256
102
RTVSPost2010Prop51ColorRGB
 90
-16777216
102
RTVSPost2010PropOp51
 70
     0
102
RTVSPost2010Prop52
140
1.0
102
RTVSPost2010PropOp52
 70
     0
102
RTVSPost2010Prop53
 90
        2
102
RTVSPost2010PropOp53
 70
     1
102
RTVSPost2010Prop54
  1
strokes_ogs.tif
102
RTVSPost2010PropOp54
 70
     1
102
RTVSPost2010Prop55
280
     0
102
RTVSPost2010PropOp55
 70
     1
102
RTVSPost2010Prop56
140
1.0
102
RTVSPost2010PropOp56
 70
     1
102
RTVSPost2010Prop57
140
1.0
102
RTVSPost2010PropOp57
 70
     1
102
RTVSPropertyOp0
 70
     1
102
RTVSPropertyOp1
 70
     1
102
RTVSPropertyOp2
 70
     1
102
RTVSPropertyOp3
 70
     1
102
RTVSPropertyOp4
 70
     1
102
RTVSPropertyOp5
 70
     1
102
RTVSPropertyOp6
 70
     1
102
RTVSPropertyOp7
 70
     1
102
RTVSPropertyOp8
 70
     1
102
RTVSPropertyOp9
 70
     1
102
RTVSPropertyOp10
 70
     1
102
RTVSPropertyOp11
 70
     1
102
RTVSPropertyOp12
 70
     1
102
RTVSPropertyOp13
 70
     1
102
RTVSPropertyOp14
 70
     1
102
RTVSPropertyOp15
 70
     1
102
RTVSPropertyOp16
 70
     1
102
RTVSPropertyOp17
 70
     1
102
RTVSPropertyOp18
 70
     1
102
RTVSPropertyOp19
 70
     1
102
RTVSPropertyOp20
 70
     1
102
RTVSPropertyOp21
 70
     1
102
RTVSPropertyOp22
 70
     1
102
RTVSPropertyOp23
 70
     1
102
RTVSPropertyOp24
 70
     1
102
RTVSPropertyOp25
 70
     1
102
RTVSPropertyOp26
 70
     1
102
RTVSPropertyOp27
 70
     1
102
RTVSPropertyOp28
 70
     1
102
RTVSPropertyOp29
 70
     1
102
RTVSPropertyOp30
 70
     1
102
RTVSPropertyOp31
 70
     1
102
RTVSPropertyOp32
 70
     1
102
RTVSPropertyOp33
 70
     1
102
RTVSPropertyOp34
 70
     1
102
RTVSPropertyOp35
 70
     1
102
RTVSPropertyOp36
 70
     1
102
RTVSPropertyOp37
 70
     1
102
RTVSPropertyOp38
 70
     1
102
RTVSPropertyOp39
 70
     1
102
RTVSPropertyOp40
 70
     1
102
RTVSPropertyOp41
 70
     1
102
RTVSPropertyOp42
 70
     1
102
RTVSPropertyOp43
 70
     1
102
RTVSPropertyOp44
 70
     1
102
RTVSPropertyOp45
 70
     1
102
RTVSPropertyOp46
 70
     1
102
RTVSPropertyOp47
 70
     1
102
RTVSPropertyOp48
 70
     1
102
RTVSPropertyOp49
 70
     1
102
RTVSPropertyOp50
 70
     1
102
RTVSPropertyOp51
 70
     0
102
RTVSPropertyOp52
 70
     0
102
RTVSPropertyOp53
 70
     1
102
RTVSPropertyOp54
 70
     1
102
RTVSPropertyOp55
 70
     1
102
RTVSPropertyOp56
 70
     1
102
RTVSPropertyOp57
 70
     1
102
RTVSPropertyOp58
 70
     1
102
RTVSPropertyOp59
 70
     1
102
RTVSPropertyOp60
 70
     1
102
RTVSPropertyOp61
 70
     1
102
RTVSPropertyOp62
 70
     1
  0
XRECORD
  5
35F
102
{ACAD_REACTORS
330
35E
102
}
330
35E
100
AcDbXrecord
280
     1
102
RTVSPost2010Prop28
280
     0
102
RTVSPost2010PropOp28
 70
     1
102
RTVSPost2010Prop29
280
     1
102
RTVSPost2010PropOp29
 70
     1
102
RTVSPost2010Prop30
280
     1
102
RTVSPost2010PropOp30
 70
     1
102
RTVSPost2010Prop31
280
     0
102
RTVSPost2010PropOp31
 70
     1
102
RTVSPost2010Prop32
280
     0
102
RTVSPost2010PropOp32
 70
     1
102
RTVSPost2010Prop33
280
     0
102
RTVSPost2010PropOp33
 70
     1
102
RTVSPost2010Prop34
280
     0
102
RTVSPost2010PropOp34
 70
     1
102
RTVSPost2010Prop35
280
     0
102
RTVSPost2010PropOp35
 70
     1
102
RTVSPost2010Prop36
280
     0
102
RTVSPost2010PropOp36
 70
     1
102
RTVSPost2010Prop37
 90
       50
102
RTVSPost2010PropOp37
 70
     1
102
RTVSPost2010Prop38
140
0.0
102
RTVSPost2010PropOp38
 70
     1
102
RTVSPost2010Prop39
140
1.0
102
RTVSPost2010PropOp39
 70
     1
102
RTVSPost2010Prop40
 90
        0
102
RTVSPost2010PropOp40
 70
     1
102
RTVSPost2010Prop41ColorIndex
 90
       18
102
RTVSPost2010Prop41ColorRGB
 90
        0
102
RTVSPost2010PropOp41
 70
     1
102
RTVSPost2010Prop42
 90
       50
102
RTVSPost2010PropOp42
 70
     1
102
RTVSPost2010Prop43
 90
        3
102
RTVSPost2010PropOp43
 70
     1
102
RTVSPost2010Prop44ColorIndex
 90
        5
102
RTVSPost2010Prop44ColorRGB
 90
      255
102
RTVSPost2010PropOp44
 70
     1
102
RTVSPost2010Prop45
280
     0
102
RTVSPost2010PropOp45
 70
     1
102
RTVSPost2010Prop46
 90
       50
102
RTVSPost2010PropOp46
 70
     1
102
RTVSPost2010Prop47
 90
       50
102
RTVSPost2010PropOp47
 70
     1
102
RTVSPost2010Prop48
 90
       50
102
RTVSPost2010PropOp48
 70
     1
102
RTVSPost2010Prop49
280
     0
102
RTVSPost2010PropOp49
 70
     1
102
RTVSPost2010Prop50
 90
       50
102
RTVSPost2010PropOp50
 70
     1
102
RTVSPost2010Prop51ColorIndex
 90
      256
102
RTVSPost2010Prop51ColorRGB
 90
-16777216
102
RTVSPost2010PropOp51
 70
     0
102
RTVSPost2010Prop52
140
1.0
102
RTVSPost2010PropOp52
 70
     0
102
RTVSPost2010Prop53
 90
        2
102
RTVSPost2010PropOp53
 70
     1
102
RTVSPost2010Prop54
  1
strokes_ogs.tif
102
RTVSPost2010PropOp54
 70
     1
102
RTVSPost2010Prop55
280
     0
102
RTVSPost2010PropOp55
 70
     1
102
RTVSPost2010Prop56
140
1.0
102
RTVSPost2010PropOp56
 70
     1
102
RTVSPost2010Prop57
140
1.0
102
RTVSPost2010PropOp57
 70
     1
102
RTVSPropertyOp0
 70
     1
102
RTVSPropertyOp1
 70
     1
102
RTVSPropertyOp2
 70
     1
102
RTVSPropertyOp3
 70
     1
102
RTVSPropertyOp4
 70
     1
102
RTVSPropertyOp5
 70
     1
102
RTVSPropertyOp6
 70
     1
102
RTVSPropertyOp7
 70
     1
102
RTVSPropertyOp8
 70
     1
102
RTVSPropertyOp9
 70
     1
102
RTVSPropertyOp10
 70
     1
102
RTVSPropertyOp11
 70
     1
102
RTVSPropertyOp12
 70
     1
102
RTVSPropertyOp13
 70
     1
102
RTVSPropertyOp14
 70
     1
102
RTVSPropertyOp15
 70
     1
102
RTVSPropertyOp16
 70
     1
102
RTVSPropertyOp17
 70
     1
102
RTVSPropertyOp18
 70
     1
102
RTVSPropertyOp19
 70
     1
102
RTVSPropertyOp20
 70
     1
102
RTVSPropertyOp21
 70
     1
102
RTVSPropertyOp22
 70
     1
102
RTVSPropertyOp23
 70
     1
102
RTVSPropertyOp24
 70
     1
102
RTVSPropertyOp25
 70
     1
102
RTVSPropertyOp26
 70
     1
102
RTVSPropertyOp27
 70
     1
102
RTVSPropertyOp28
 70
     1
102
RTVSPropertyOp29
 70
     1
102
RTVSPropertyOp30
 70
     1
102
RTVSPropertyOp31
 70
     1
102
RTVSPropertyOp32
 70
     1
102
RTVSPropertyOp33
 70
     1
102
RTVSPropertyOp34
 70
     1
102
RTVSPropertyOp35
 70
     1
102
RTVSPropertyOp36
 70
     1
102
RTVSPropertyOp37
 70
     1
102
RTVSPropertyOp38
 70
     1
102
RTVSPropertyOp39
 70
     1
102
RTVSPropertyOp40
 70
     1
102
RTVSPropertyOp41
 70
     1
102
RTVSPropertyOp42
 70
     1
102
RTVSPropertyOp43
 70
     1
102
RTVSPropertyOp44
 70
     1
102
RTVSPropertyOp45
 70
     1
102
RTVSPropertyOp46
 70
     1
102
RTVSPropertyOp47
 70
     1
102
RTVSPropertyOp48
 70
     1
102
RTVSPropertyOp49
 70
     1
102
RTVSPropertyOp50
 70
     1
102
RTVSPropertyOp51
 70
     0
102
RTVSPropertyOp52
 70
     0
102
RTVSPropertyOp53
 70
     1
102
RTVSPropertyOp54
 70
     1
102
RTVSPropertyOp55
 70
     1
102
RTVSPropertyOp56
 70
     1
102
RTVSPropertyOp57
 70
     1
102
RTVSPropertyOp58
 70
     1
102
RTVSPropertyOp59
 70
     1
102
RTVSPropertyOp60
 70
     1
102
RTVSPropertyOp61
 70
     1
102
RTVSPropertyOp62
 70
     1
  0
XRECORD
  5
361
102
{ACAD_REACTORS
330
360
102
}
330
360
100
AcDbXrecord
280
     1
102
RTVSPost2010Prop28
280
     0
102
RTVSPost2010PropOp28
 70
     1
102
RTVSPost2010Prop29
280
     1
102
RTVSPost2010PropOp29
 70
     1
102
RTVSPost2010Prop30
280
     1
102
RTVSPost2010PropOp30
 70
     1
102
RTVSPost2010Prop31
280
     0
102
RTVSPost2010PropOp31
 70
     1
102
RTVSPost2010Prop32
280
     0
102
RTVSPost2010PropOp32
 70
     1
102
RTVSPost2010Prop33
280
     0
102
RTVSPost2010PropOp33
 70
     1
102
RTVSPost2010Prop34
280
     0
102
RTVSPost2010PropOp34
 70
     1
102
RTVSPost2010Prop35
280
     0
102
RTVSPost2010PropOp35
 70
     1
102
RTVSPost2010Prop36
280
     0
102
RTVSPost2010PropOp36
 70
     1
102
RTVSPost2010Prop37
 90
       50
102
RTVSPost2010PropOp37
 70
     1
102
RTVSPost2010Prop38
140
0.0
102
RTVSPost2010PropOp38
 70
     1
102
RTVSPost2010Prop39
140
1.0
102
RTVSPost2010PropOp39
 70
     1
102
RTVSPost2010Prop40
 90
        0
102
RTVSPost2010PropOp40
 70
     1
102
RTVSPost2010Prop41ColorIndex
 90
       18
102
RTVSPost2010Prop41ColorRGB
 90
        0
102
RTVSPost2010PropOp41
 70
     1
102
RTVSPost2010Prop42
 90
       50
102
RTVSPost2010PropOp42
 70
     1
102
RTVSPost2010Prop43
 90
        3
102
RTVSPost2010PropOp43
 70
     1
102
RTVSPost2010Prop44ColorIndex
 90
        5
102
RTVSPost2010Prop44ColorRGB
 90
      255
102
RTVSPost2010PropOp44
 70
     1
102
RTVSPost2010Prop45
280
     0
102
RTVSPost2010PropOp45
 70
     1
102
RTVSPost2010Prop46
 90
       50
102
RTVSPost2010PropOp46
 70
     1
102
RTVSPost2010Prop47
 90
       50
102
RTVSPost2010PropOp47
 70
     1
102
RTVSPost2010Prop48
 90
       50
102
RTVSPost2010PropOp48
 70
     1
102
RTVSPost2010Prop49
280
     0
102
RTVSPost2010PropOp49
 70
     1
102
RTVSPost2010Prop50
 90
       50
102
RTVSPost2010PropOp50
 70
     1
102
RTVSPost2010Prop51ColorIndex
 90
      256
102
RTVSPost2010Prop51ColorRGB
 90
-16777216
102
RTVSPost2010PropOp51
 70
     0
102
RTVSPost2010Prop52
140
1.0
102
RTVSPost2010PropOp52
 70
     0
102
RTVSPost2010Prop53
 90
        2
102
RTVSPost2010PropOp53
 70
     1
102
RTVSPost2010Prop54
  1
strokes_ogs.tif
102
RTVSPost2010PropOp54
 70
     1
102
RTVSPost2010Prop55
280
     0
102
RTVSPost2010PropOp55
 70
     1
102
RTVSPost2010Prop56
140
1.0
102
RTVSPost2010PropOp56
 70
     1
102
RTVSPost2010Prop57
140
1.0
102
RTVSPost2010PropOp57
 70
     1
102
RTVSPropertyOp0
 70
     1
102
RTVSPropertyOp1
 70
     1
102
RTVSPropertyOp2
 70
     1
102
RTVSPropertyOp3
 70
     1
102
RTVSPropertyOp4
 70
     1
102
RTVSPropertyOp5
 70
     1
102
RTVSPropertyOp6
 70
     1
102
RTVSPropertyOp7
 70
     1
102
RTVSPropertyOp8
 70
     1
102
RTVSPropertyOp9
 70
     1
102
RTVSPropertyOp10
 70
     1
102
RTVSPropertyOp11
 70
     1
102
RTVSPropertyOp12
 70
     1
102
RTVSPropertyOp13
 70
     1
102
RTVSPropertyOp14
 70
     1
102
RTVSPropertyOp15
 70
     1
102
RTVSPropertyOp16
 70
     1
102
RTVSPropertyOp17
 70
     1
102
RTVSPropertyOp18
 70
     1
102
RTVSPropertyOp19
 70
     1
102
RTVSPropertyOp20
 70
     1
102
RTVSPropertyOp21
 70
     1
102
RTVSPropertyOp22
 70
     1
102
RTVSPropertyOp23
 70
     1
102
RTVSPropertyOp24
 70
     1
102
RTVSPropertyOp25
 70
     1
102
RTVSPropertyOp26
 70
     1
102
RTVSPropertyOp27
 70
     1
102
RTVSPropertyOp28
 70
     1
102
RTVSPropertyOp29
 70
     1
102
RTVSPropertyOp30
 70
     1
102
RTVSPropertyOp31
 70
     1
102
RTVSPropertyOp32
 70
     1
102
RTVSPropertyOp33
 70
     1
102
RTVSPropertyOp34
 70
     1
102
RTVSPropertyOp35
 70
     1
102
RTVSPropertyOp36
 70
     1
102
RTVSPropertyOp37
 70
     1
102
RTVSPropertyOp38
 70
     1
102
RTVSPropertyOp39
 70
     1
102
RTVSPropertyOp40
 70
     1
102
RTVSPropertyOp41
 70
     1
102
RTVSPropertyOp42
 70
     1
102
RTVSPropertyOp43
 70
     1
102
RTVSPropertyOp44
 70
     1
102
RTVSPropertyOp45
 70
     1
102
RTVSPropertyOp46
 70
     1
102
RTVSPropertyOp47
 70
     1
102
RTVSPropertyOp48
 70
     1
102
RTVSPropertyOp49
 70
     1
102
RTVSPropertyOp50
 70
     1
102
RTVSPropertyOp51
 70
     0
102
RTVSPropertyOp52
 70
     0
102
RTVSPropertyOp53
 70
     1
102
RTVSPropertyOp54
 70
     1
102
RTVSPropertyOp55
 70
     1
102
RTVSPropertyOp56
 70
     1
102
RTVSPropertyOp57
 70
     1
102
RTVSPropertyOp58
 70
     1
102
RTVSPropertyOp59
 70
     1
102
RTVSPropertyOp60
 70
     1
102
RTVSPropertyOp61
 70
     1
102
RTVSPropertyOp62
 70
     1
  0
XRECORD
  5
363
102
{ACAD_REACTORS
330
362
102
}
330
362
100
AcDbXrecord
280
     1
102
RTVSPost2010Prop28
280
     0
102
RTVSPost2010PropOp28
 70
     1
102
RTVSPost2010Prop29
280
     1
102
RTVSPost2010PropOp29
 70
     1
102
RTVSPost2010Prop30
280
     1
102
RTVSPost2010PropOp30
 70
     1
102
RTVSPost2010Prop31
280
     0
102
RTVSPost2010PropOp31
 70
     1
102
RTVSPost2010Prop32
280
     0
102
RTVSPost2010PropOp32
 70
     1
102
RTVSPost2010Prop33
280
     0
102
RTVSPost2010PropOp33
 70
     1
102
RTVSPost2010Prop34
280
     0
102
RTVSPost2010PropOp34
 70
     1
102
RTVSPost2010Prop35
280
     0
102
RTVSPost2010PropOp35
 70
     1
102
RTVSPost2010Prop36
280
     0
102
RTVSPost2010PropOp36
 70
     1
102
RTVSPost2010Prop37
 90
       50
102
RTVSPost2010PropOp37
 70
     1
102
RTVSPost2010Prop38
140
0.0
102
RTVSPost2010PropOp38
 70
     1
102
RTVSPost2010Prop39
140
1.0
102
RTVSPost2010PropOp39
 70
     1
102
RTVSPost2010Prop40
 90
        0
102
RTVSPost2010PropOp40
 70
     1
102
RTVSPost2010Prop41ColorIndex
 90
       18
102
RTVSPost2010Prop41ColorRGB
 90
        0
102
RTVSPost2010PropOp41
 70
     1
102
RTVSPost2010Prop42
 90
       50
102
RTVSPost2010PropOp42
 70
     1
102
RTVSPost2010Prop43
 90
        3
102
RTVSPost2010PropOp43
 70
     1
102
RTVSPost2010Prop44ColorIndex
 90
        5
102
RTVSPost2010Prop44ColorRGB
 90
      255
102
RTVSPost2010PropOp44
 70
     1
102
RTVSPost2010Prop45
280
     0
102
RTVSPost2010PropOp45
 70
     1
102
RTVSPost2010Prop46
 90
       50
102
RTVSPost2010PropOp46
 70
     1
102
RTVSPost2010Prop47
 90
       50
102
RTVSPost2010PropOp47
 70
     1
102
RTVSPost2010Prop48
 90
       50
102
RTVSPost2010PropOp48
 70
     1
102
RTVSPost2010Prop49
280
     0
102
RTVSPost2010PropOp49
 70
     1
102
RTVSPost2010Prop50
 90
       50
102
RTVSPost2010PropOp50
 70
     1
102
RTVSPost2010Prop51ColorIndex
 90
      256
102
RTVSPost2010Prop51ColorRGB
 90
-16777216
102
RTVSPost2010PropOp51
 70
     0
102
RTVSPost2010Prop52
140
1.0
102
RTVSPost2010PropOp52
 70
     0
102
RTVSPost2010Prop53
 90
        2
102
RTVSPost2010PropOp53
 70
     1
102
RTVSPost2010Prop54
  1
strokes_ogs.tif
102
RTVSPost2010PropOp54
 70
     1
102
RTVSPost2010Prop55
280
     0
102
RTVSPost2010PropOp55
 70
     1
102
RTVSPost2010Prop56
140
1.0
102
RTVSPost2010PropOp56
 70
     1
102
RTVSPost2010Prop57
140
1.0
102
RTVSPost2010PropOp57
 70
     1
102
RTVSPropertyOp0
 70
     1
102
RTVSPropertyOp1
 70
     1
102
RTVSPropertyOp2
 70
     1
102
RTVSPropertyOp3
 70
     1
102
RTVSPropertyOp4
 70
     1
102
RTVSPropertyOp5
 70
     1
102
RTVSPropertyOp6
 70
     1
102
RTVSPropertyOp7
 70
     1
102
RTVSPropertyOp8
 70
     1
102
RTVSPropertyOp9
 70
     1
102
RTVSPropertyOp10
 70
     1
102
RTVSPropertyOp11
 70
     1
102
RTVSPropertyOp12
 70
     1
102
RTVSPropertyOp13
 70
     1
102
RTVSPropertyOp14
 70
     1
102
RTVSPropertyOp15
 70
     1
102
RTVSPropertyOp16
 70
     1
102
RTVSPropertyOp17
 70
     1
102
RTVSPropertyOp18
 70
     1
102
RTVSPropertyOp19
 70
     1
102
RTVSPropertyOp20
 70
     1
102
RTVSPropertyOp21
 70
     1
102
RTVSPropertyOp22
 70
     1
102
RTVSPropertyOp23
 70
     1
102
RTVSPropertyOp24
 70
     1
102
RTVSPropertyOp25
 70
     1
102
RTVSPropertyOp26
 70
     1
102
RTVSPropertyOp27
 70
     1
102
RTVSPropertyOp28
 70
     1
102
RTVSPropertyOp29
 70
     1
102
RTVSPropertyOp30
 70
     1
102
RTVSPropertyOp31
 70
     1
102
RTVSPropertyOp32
 70
     1
102
RTVSPropertyOp33
 70
     1
102
RTVSPropertyOp34
 70
     1
102
RTVSPropertyOp35
 70
     1
102
RTVSPropertyOp36
 70
     1
102
RTVSPropertyOp37
 70
     1
102
RTVSPropertyOp38
 70
     1
102
RTVSPropertyOp39
 70
     1
102
RTVSPropertyOp40
 70
     1
102
RTVSPropertyOp41
 70
     1
102
RTVSPropertyOp42
 70
     1
102
RTVSPropertyOp43
 70
     1
102
RTVSPropertyOp44
 70
     1
102
RTVSPropertyOp45
 70
     1
102
RTVSPropertyOp46
 70
     1
102
RTVSPropertyOp47
 70
     1
102
RTVSPropertyOp48
 70
     1
102
RTVSPropertyOp49
 70
     1
102
RTVSPropertyOp50
 70
     1
102
RTVSPropertyOp51
 70
     0
102
RTVSPropertyOp52
 70
     0
102
RTVSPropertyOp53
 70
     1
102
RTVSPropertyOp54
 70
     1
102
RTVSPropertyOp55
 70
     1
102
RTVSPropertyOp56
 70
     1
102
RTVSPropertyOp57
 70
     1
102
RTVSPropertyOp58
 70
     1
102
RTVSPropertyOp59
 70
     1
102
RTVSPropertyOp60
 70
     1
102
RTVSPropertyOp61
 70
     1
102
RTVSPropertyOp62
 70
     1
  0
XRECORD
  5
369
102
{ACAD_REACTORS
330
368
102
}
330
368
100
AcDbXrecord
280
     1
102
RTVSPost2010Prop28
280
     0
102
RTVSPost2010PropOp28
 70
     1
102
RTVSPost2010Prop29
280
     1
102
RTVSPost2010PropOp29
 70
     1
102
RTVSPost2010Prop30
280
     1
102
RTVSPost2010PropOp30
 70
     1
102
RTVSPost2010Prop31
280
     0
102
RTVSPost2010PropOp31
 70
     1
102
RTVSPost2010Prop32
280
     0
102
RTVSPost2010PropOp32
 70
     1
102
RTVSPost2010Prop33
280
     0
102
RTVSPost2010PropOp33
 70
     1
102
RTVSPost2010Prop34
280
     0
102
RTVSPost2010PropOp34
 70
     1
102
RTVSPost2010Prop35
280
     0
102
RTVSPost2010PropOp35
 70
     1
102
RTVSPost2010Prop36
280
     0
102
RTVSPost2010PropOp36
 70
     1
102
RTVSPost2010Prop37
 90
       50
102
RTVSPost2010PropOp37
 70
     1
102
RTVSPost2010Prop38
140
0.0
102
RTVSPost2010PropOp38
 70
     1
102
RTVSPost2010Prop39
140
1.0
102
RTVSPost2010PropOp39
 70
     1
102
RTVSPost2010Prop40
 90
        0
102
RTVSPost2010PropOp40
 70
     1
102
RTVSPost2010Prop41ColorIndex
 90
       18
102
RTVSPost2010Prop41ColorRGB
 90
        0
102
RTVSPost2010PropOp41
 70
     1
102
RTVSPost2010Prop42
 90
       50
102
RTVSPost2010PropOp42
 70
     1
102
RTVSPost2010Prop43
 90
        3
102
RTVSPost2010PropOp43
 70
     1
102
RTVSPost2010Prop44ColorIndex
 90
        5
102
RTVSPost2010Prop44ColorRGB
 90
      255
102
RTVSPost2010PropOp44
 70
     1
102
RTVSPost2010Prop45
280
     0
102
RTVSPost2010PropOp45
 70
     1
102
RTVSPost2010Prop46
 90
       50
102
RTVSPost2010PropOp46
 70
     1
102
RTVSPost2010Prop47
 90
       50
102
RTVSPost2010PropOp47
 70
     1
102
RTVSPost2010Prop48
 90
       50
102
RTVSPost2010PropOp48
 70
     1
102
RTVSPost2010Prop49
280
     0
102
RTVSPost2010PropOp49
 70
     1
102
RTVSPost2010Prop50
 90
       50
102
RTVSPost2010PropOp50
 70
     1
102
RTVSPost2010Prop51ColorIndex
 90
      256
102
RTVSPost2010Prop51ColorRGB
 90
-16777216
102
RTVSPost2010PropOp51
 70
     0
102
RTVSPost2010Prop52
140
1.0
102
RTVSPost2010PropOp52
 70
     0
102
RTVSPost2010Prop53
 90
        2
102
RTVSPost2010PropOp53
 70
     1
102
RTVSPost2010Prop54
  1
strokes_ogs.tif
102
RTVSPost2010PropOp54
 70
     1
102
RTVSPost2010Prop55
280
     0
102
RTVSPost2010PropOp55
 70
     1
102
RTVSPost2010Prop56
140
1.0
102
RTVSPost2010PropOp56
 70
     1
102
RTVSPost2010Prop57
140
1.0
102
RTVSPost2010PropOp57
 70
     1
102
RTVSPropertyOp0
 70
     1
102
RTVSPropertyOp1
 70
     1
102
RTVSPropertyOp2
 70
     1
102
RTVSPropertyOp3
 70
     1
102
RTVSPropertyOp4
 70
     1
102
RTVSPropertyOp5
 70
     1
102
RTVSPropertyOp6
 70
     1
102
RTVSPropertyOp7
 70
     1
102
RTVSPropertyOp8
 70
     1
102
RTVSPropertyOp9
 70
     1
102
RTVSPropertyOp10
 70
     1
102
RTVSPropertyOp11
 70
     1
102
RTVSPropertyOp12
 70
     1
102
RTVSPropertyOp13
 70
     1
102
RTVSPropertyOp14
 70
     1
102
RTVSPropertyOp15
 70
     1
102
RTVSPropertyOp16
 70
     1
102
RTVSPropertyOp17
 70
     1
102
RTVSPropertyOp18
 70
     1
102
RTVSPropertyOp19
 70
     1
102
RTVSPropertyOp20
 70
     1
102
RTVSPropertyOp21
 70
     1
102
RTVSPropertyOp22
 70
     1
102
RTVSPropertyOp23
 70
     1
102
RTVSPropertyOp24
 70
     1
102
RTVSPropertyOp25
 70
     1
102
RTVSPropertyOp26
 70
     1
102
RTVSPropertyOp27
 70
     1
102
RTVSPropertyOp28
 70
     1
102
RTVSPropertyOp29
 70
     1
102
RTVSPropertyOp30
 70
     1
102
RTVSPropertyOp31
 70
     1
102
RTVSPropertyOp32
 70
     1
102
RTVSPropertyOp33
 70
     1
102
RTVSPropertyOp34
 70
     1
102
RTVSPropertyOp35
 70
     1
102
RTVSPropertyOp36
 70
     1
102
RTVSPropertyOp37
 70
     1
102
RTVSPropertyOp38
 70
     1
102
RTVSPropertyOp39
 70
     1
102
RTVSPropertyOp40
 70
     1
102
RTVSPropertyOp41
 70
     1
102
RTVSPropertyOp42
 70
     1
102
RTVSPropertyOp43
 70
     1
102
RTVSPropertyOp44
 70
     1
102
RTVSPropertyOp45
 70
     1
102
RTVSPropertyOp46
 70
     1
102
RTVSPropertyOp47
 70
     1
102
RTVSPropertyOp48
 70
     1
102
RTVSPropertyOp49
 70
     1
102
RTVSPropertyOp50
 70
     1
102
RTVSPropertyOp51
 70
     0
102
RTVSPropertyOp52
 70
     0
102
RTVSPropertyOp53
 70
     1
102
RTVSPropertyOp54
 70
     1
102
RTVSPropertyOp55
 70
     1
102
RTVSPropertyOp56
 70
     1
102
RTVSPropertyOp57
 70
     1
102
RTVSPropertyOp58
 70
     1
102
RTVSPropertyOp59
 70
     1
102
RTVSPropertyOp60
 70
     1
102
RTVSPropertyOp61
 70
     1
102
RTVSPropertyOp62
 70
     1
  0
XRECORD
  5
37D
102
{ACAD_REACTORS
330
37C
102
}
330
37C
100
AcDbXrecord
280
     1
102
RTVSPost2010Prop28
280
     0
102
RTVSPost2010PropOp28
 70
     0
102
RTVSPost2010Prop29
280
     1
102
RTVSPost2010PropOp29
 70
     0
102
RTVSPost2010Prop30
280
     1
102
RTVSPost2010PropOp30
 70
     0
102
RTVSPost2010Prop31
280
     0
102
RTVSPost2010PropOp31
 70
     0
102
RTVSPost2010Prop32
280
     0
102
RTVSPost2010PropOp32
 70
     0
102
RTVSPost2010Prop33
280
     0
102
RTVSPost2010PropOp33
 70
     0
102
RTVSPost2010Prop34
280
     0
102
RTVSPost2010PropOp34
 70
     0
102
RTVSPost2010Prop35
280
     0
102
RTVSPost2010PropOp35
 70
     0
102
RTVSPost2010Prop36
280
     0
102
RTVSPost2010PropOp36
 70
     0
102
RTVSPost2010Prop37
 90
       50
102
RTVSPost2010PropOp37
 70
     0
102
RTVSPost2010Prop38
140
0.0
102
RTVSPost2010PropOp38
 70
     0
102
RTVSPost2010Prop39
140
1.0
102
RTVSPost2010PropOp39
 70
     0
102
RTVSPost2010Prop40
 90
        0
102
RTVSPost2010PropOp40
 70
     0
102
RTVSPost2010Prop41ColorIndex
 90
       18
102
RTVSPost2010Prop41ColorRGB
 90
        0
102
RTVSPost2010PropOp41
 70
     0
102
RTVSPost2010Prop42
 90
       50
102
RTVSPost2010PropOp42
 70
     0
102
RTVSPost2010Prop43
 90
        3
102
RTVSPost2010PropOp43
 70
     0
102
RTVSPost2010Prop44ColorIndex
 90
        5
102
RTVSPost2010Prop44ColorRGB
 90
      255
102
RTVSPost2010PropOp44
 70
     0
102
RTVSPost2010Prop45
280
     0
102
RTVSPost2010PropOp45
 70
     0
102
RTVSPost2010Prop46
 90
       50
102
RTVSPost2010PropOp46
 70
     0
102
RTVSPost2010Prop47
 90
       50
102
RTVSPost2010PropOp47
 70
     0
102
RTVSPost2010Prop48
 90
       50
102
RTVSPost2010PropOp48
 70
     0
102
RTVSPost2010Prop49
280
     0
102
RTVSPost2010PropOp49
 70
     0
102
RTVSPost2010Prop50
 90
       50
102
RTVSPost2010PropOp50
 70
     0
102
RTVSPost2010Prop51ColorIndex
 90
      256
102
RTVSPost2010Prop51ColorRGB
 90
-16777216
102
RTVSPost2010PropOp51
 70
     0
102
RTVSPost2010Prop52
140
1.0
102
RTVSPost2010PropOp52
 70
     0
102
RTVSPost2010Prop53
 90
        2
102
RTVSPost2010PropOp53
 70
     0
102
RTVSPost2010Prop54
  1
strokes_ogs.tif
102
RTVSPost2010PropOp54
 70
     0
102
RTVSPost2010Prop55
280
     0
102
RTVSPost2010PropOp55
 70
     0
102
RTVSPost2010Prop56
140
1.0
102
RTVSPost2010PropOp56
 70
     0
102
RTVSPost2010Prop57
140
1.0
102
RTVSPost2010PropOp57
 70
     0
102
RTVSPropertyOp0
 70
     0
102
RTVSPropertyOp1
 70
     0
102
RTVSPropertyOp2
 70
     0
102
RTVSPropertyOp3
 70
     0
102
RTVSPropertyOp4
 70
     0
102
RTVSPropertyOp5
 70
     0
102
RTVSPropertyOp6
 70
     0
102
RTVSPropertyOp7
 70
     0
102
RTVSPropertyOp8
 70
     0
102
RTVSPropertyOp9
 70
     0
102
RTVSPropertyOp10
 70
     0
102
RTVSPropertyOp11
 70
     0
102
RTVSPropertyOp12
 70
     0
102
RTVSPropertyOp13
 70
     0
102
RTVSPropertyOp14
 70
     2
102
RTVSPropertyOp15
 70
     0
102
RTVSPropertyOp16
 70
     0
102
RTVSPropertyOp17
 70
     0
102
RTVSPropertyOp18
 70
     0
102
RTVSPropertyOp19
 70
     0
102
RTVSPropertyOp20
 70
     0
102
RTVSPropertyOp21
 70
     0
102
RTVSPropertyOp22
 70
     0
102
RTVSPropertyOp23
 70
     0
102
RTVSPropertyOp24
 70
     0
102
RTVSPropertyOp25
 70
     0
102
RTVSPropertyOp26
 70
     0
102
RTVSPropertyOp27
 70
     0
102
RTVSPropertyOp28
 70
     0
102
RTVSPropertyOp29
 70
     0
102
RTVSPropertyOp30
 70
     0
102
RTVSPropertyOp31
 70
     0
102
RTVSPropertyOp32
 70
     0
102
RTVSPropertyOp33
 70
     0
102
RTVSPropertyOp34
 70
     0
102
RTVSPropertyOp35
 70
     0
102
RTVSPropertyOp36
 70
     0
102
RTVSPropertyOp37
 70
     0
102
RTVSPropertyOp38
 70
     0
102
RTVSPropertyOp39
 70
     0
102
RTVSPropertyOp40
 70
     0
102
RTVSPropertyOp41
 70
     0
102
RTVSPropertyOp42
 70
     0
102
RTVSPropertyOp43
 70
     0
102
RTVSPropertyOp44
 70
     0
102
RTVSPropertyOp45
 70
     0
102
RTVSPropertyOp46
 70
     0
102
RTVSPropertyOp47
 70
     0
102
RTVSPropertyOp48
 70
     0
102
RTVSPropertyOp49
 70
     0
102
RTVSPropertyOp50
 70
     0
102
RTVSPropertyOp51
 70
     0
102
RTVSPropertyOp52
 70
     0
102
RTVSPropertyOp53
 70
     0
102
RTVSPropertyOp54
 70
     0
102
RTVSPropertyOp55
 70
     0
102
RTVSPropertyOp56
 70
     0
102
RTVSPropertyOp57
 70
     0
102
RTVSPropertyOp58
 70
     1
102
RTVSPropertyOp59
 70
     1
102
RTVSPropertyOp60
 70
     1
102
RTVSPropertyOp61
 70
     1
102
RTVSPropertyOp62
 70
     1
  0
XRECORD
  5
377
102
{ACAD_REACTORS
330
376
102
}
330
376
100
AcDbXrecord
280
     1
102
RTVSPost2010Prop28
280
     0
102
RTVSPost2010PropOp28
 70
     1
102
RTVSPost2010Prop29
280
     1
102
RTVSPost2010PropOp29
 70
     1
102
RTVSPost2010Prop30
280
     1
102
RTVSPost2010PropOp30
 70
     1
102
RTVSPost2010Prop31
280
     0
102
RTVSPost2010PropOp31
 70
     1
102
RTVSPost2010Prop32
280
     0
102
RTVSPost2010PropOp32
 70
     1
102
RTVSPost2010Prop33
280
     0
102
RTVSPost2010PropOp33
 70
     1
102
RTVSPost2010Prop34
280
     0
102
RTVSPost2010PropOp34
 70
     1
102
RTVSPost2010Prop35
280
     0
102
RTVSPost2010PropOp35
 70
     1
102
RTVSPost2010Prop36
280
     0
102
RTVSPost2010PropOp36
 70
     1
102
RTVSPost2010Prop37
 90
       50
102
RTVSPost2010PropOp37
 70
     1
102
RTVSPost2010Prop38
140
0.0
102
RTVSPost2010PropOp38
 70
     1
102
RTVSPost2010Prop39
140
1.0
102
RTVSPost2010PropOp39
 70
     1
102
RTVSPost2010Prop40
 90
        0
102
RTVSPost2010PropOp40
 70
     1
102
RTVSPost2010Prop41ColorIndex
 90
       18
102
RTVSPost2010Prop41ColorRGB
 90
        0
102
RTVSPost2010PropOp41
 70
     1
102
RTVSPost2010Prop42
 90
       50
102
RTVSPost2010PropOp42
 70
     1
102
RTVSPost2010Prop43
 90
        3
102
RTVSPost2010PropOp43
 70
     1
102
RTVSPost2010Prop44ColorIndex
 90
        5
102
RTVSPost2010Prop44ColorRGB
 90
      255
102
RTVSPost2010PropOp44
 70
     1
102
RTVSPost2010Prop45
280
     0
102
RTVSPost2010PropOp45
 70
     1
102
RTVSPost2010Prop46
 90
       50
102
RTVSPost2010PropOp46
 70
     1
102
RTVSPost2010Prop47
 90
       50
102
RTVSPost2010PropOp47
 70
     1
102
RTVSPost2010Prop48
 90
       50
102
RTVSPost2010PropOp48
 70
     1
102
RTVSPost2010Prop49
280
     0
102
RTVSPost2010PropOp49
 70
     1
102
RTVSPost2010Prop50
 90
       50
102
RTVSPost2010PropOp50
 70
     1
102
RTVSPost2010Prop51ColorIndex
 90
      256
102
RTVSPost2010Prop51ColorRGB
 90
-16777216
102
RTVSPost2010PropOp51
 70
     0
102
RTVSPost2010Prop52
140
1.0
102
RTVSPost2010PropOp52
 70
     0
102
RTVSPost2010Prop53
 90
        2
102
RTVSPost2010PropOp53
 70
     1
102
RTVSPost2010Prop54
  1
strokes_ogs.tif
102
RTVSPost2010PropOp54
 70
     1
102
RTVSPost2010Prop55
280
     0
102
RTVSPost2010PropOp55
 70
     1
102
RTVSPost2010Prop56
140
1.0
102
RTVSPost2010PropOp56
 70
     1
102
RTVSPost2010Prop57
140
1.0
102
RTVSPost2010PropOp57
 70
     1
102
RTVSPropertyOp0
 70
     1
102
RTVSPropertyOp1
 70
     1
102
RTVSPropertyOp2
 70
     1
102
RTVSPropertyOp3
 70
     1
102
RTVSPropertyOp4
 70
     1
102
RTVSPropertyOp5
 70
     1
102
RTVSPropertyOp6
 70
     1
102
RTVSPropertyOp7
 70
     1
102
RTVSPropertyOp8
 70
     1
102
RTVSPropertyOp9
 70
     1
102
RTVSPropertyOp10
 70
     1
102
RTVSPropertyOp11
 70
     1
102
RTVSPropertyOp12
 70
     1
102
RTVSPropertyOp13
 70
     1
102
RTVSPropertyOp14
 70
     1
102
RTVSPropertyOp15
 70
     1
102
RTVSPropertyOp16
 70
     1
102
RTVSPropertyOp17
 70
     1
102
RTVSPropertyOp18
 70
     1
102
RTVSPropertyOp19
 70
     1
102
RTVSPropertyOp20
 70
     1
102
RTVSPropertyOp21
 70
     1
102
RTVSPropertyOp22
 70
     1
102
RTVSPropertyOp23
 70
     1
102
RTVSPropertyOp24
 70
     1
102
RTVSPropertyOp25
 70
     1
102
RTVSPropertyOp26
 70
     1
102
RTVSPropertyOp27
 70
     1
102
RTVSPropertyOp28
 70
     1
102
RTVSPropertyOp29
 70
     1
102
RTVSPropertyOp30
 70
     1
102
RTVSPropertyOp31
 70
     1
102
RTVSPropertyOp32
 70
     1
102
RTVSPropertyOp33
 70
     1
102
RTVSPropertyOp34
 70
     1
102
RTVSPropertyOp35
 70
     1
102
RTVSPropertyOp36
 70
     1
102
RTVSPropertyOp37
 70
     1
102
RTVSPropertyOp38
 70
     1
102
RTVSPropertyOp39
 70
     1
102
RTVSPropertyOp40
 70
     1
102
RTVSPropertyOp41
 70
     1
102
RTVSPropertyOp42
 70
     1
102
RTVSPropertyOp43
 70
     1
102
RTVSPropertyOp44
 70
     1
102
RTVSPropertyOp45
 70
     1
102
RTVSPropertyOp46
 70
     1
102
RTVSPropertyOp47
 70
     1
102
RTVSPropertyOp48
 70
     1
102
RTVSPropertyOp49
 70
     1
102
RTVSPropertyOp50
 70
     1
102
RTVSPropertyOp51
 70
     0
102
RTVSPropertyOp52
 70
     0
102
RTVSPropertyOp53
 70
     1
102
RTVSPropertyOp54
 70
     1
102
RTVSPropertyOp55
 70
     1
102
RTVSPropertyOp56
 70
     1
102
RTVSPropertyOp57
 70
     1
102
RTVSPropertyOp58
 70
     1
102
RTVSPropertyOp59
 70
     1
102
RTVSPropertyOp60
 70
     1
102
RTVSPropertyOp61
 70
     1
102
RTVSPropertyOp62
 70
     1
  0
XRECORD
  5
37F
102
{ACAD_REACTORS
330
37E
102
}
330
37E
100
AcDbXrecord
280
     1
102
RTVSPost2010Prop28
280
     0
102
RTVSPost2010PropOp28
 70
     0
102
RTVSPost2010Prop29
280
     1
102
RTVSPost2010PropOp29
 70
     0
102
RTVSPost2010Prop30
280
     1
102
RTVSPost2010PropOp30
 70
     0
102
RTVSPost2010Prop31
280
     0
102
RTVSPost2010PropOp31
 70
     0
102
RTVSPost2010Prop32
280
     0
102
RTVSPost2010PropOp32
 70
     0
102
RTVSPost2010Prop33
280
     0
102
RTVSPost2010PropOp33
 70
     0
102
RTVSPost2010Prop34
280
     0
102
RTVSPost2010PropOp34
 70
     0
102
RTVSPost2010Prop35
280
     0
102
RTVSPost2010PropOp35
 70
     0
102
RTVSPost2010Prop36
280
     0
102
RTVSPost2010PropOp36
 70
     0
102
RTVSPost2010Prop37
 90
       50
102
RTVSPost2010PropOp37
 70
     0
102
RTVSPost2010Prop38
140
0.0
102
RTVSPost2010PropOp38
 70
     0
102
RTVSPost2010Prop39
140
1.0
102
RTVSPost2010PropOp39
 70
     0
102
RTVSPost2010Prop40
 90
        0
102
RTVSPost2010PropOp40
 70
     0
102
RTVSPost2010Prop41ColorIndex
 90
       18
102
RTVSPost2010Prop41ColorRGB
 90
        0
102
RTVSPost2010PropOp41
 70
     0
102
RTVSPost2010Prop42
 90
       50
102
RTVSPost2010PropOp42
 70
     0
102
RTVSPost2010Prop43
 90
        3
102
RTVSPost2010PropOp43
 70
     0
102
RTVSPost2010Prop44ColorIndex
 90
        5
102
RTVSPost2010Prop44ColorRGB
 90
      255
102
RTVSPost2010PropOp44
 70
     0
102
RTVSPost2010Prop45
280
     0
102
RTVSPost2010PropOp45
 70
     0
102
RTVSPost2010Prop46
 90
       50
102
RTVSPost2010PropOp46
 70
     0
102
RTVSPost2010Prop47
 90
       50
102
RTVSPost2010PropOp47
 70
     0
102
RTVSPost2010Prop48
 90
       50
102
RTVSPost2010PropOp48
 70
     0
102
RTVSPost2010Prop49
280
     0
102
RTVSPost2010PropOp49
 70
     0
102
RTVSPost2010Prop50
 90
       50
102
RTVSPost2010PropOp50
 70
     0
102
RTVSPost2010Prop51ColorIndex
 90
      256
102
RTVSPost2010Prop51ColorRGB
 90
-16777216
102
RTVSPost2010PropOp51
 70
     0
102
RTVSPost2010Prop52
140
1.0
102
RTVSPost2010PropOp52
 70
     0
102
RTVSPost2010Prop53
 90
        2
102
RTVSPost2010PropOp53
 70
     0
102
RTVSPost2010Prop54
  1
strokes_ogs.tif
102
RTVSPost2010PropOp54
 70
     0
102
RTVSPost2010Prop55
280
     0
102
RTVSPost2010PropOp55
 70
     0
102
RTVSPost2010Prop56
140
1.0
102
RTVSPost2010PropOp56
 70
     0
102
RTVSPost2010Prop57
140
1.0
102
RTVSPost2010PropOp57
 70
     0
102
RTVSPropertyOp0
 70
     0
102
RTVSPropertyOp1
 70
     0
102
RTVSPropertyOp2
 70
     0
102
RTVSPropertyOp3
 70
     0
102
RTVSPropertyOp4
 70
     0
102
RTVSPropertyOp5
 70
     0
102
RTVSPropertyOp6
 70
     0
102
RTVSPropertyOp7
 70
     0
102
RTVSPropertyOp8
 70
     0
102
RTVSPropertyOp9
 70
     0
102
RTVSPropertyOp10
 70
     0
102
RTVSPropertyOp11
 70
     0
102
RTVSPropertyOp12
 70
     0
102
RTVSPropertyOp13
 70
     0
102
RTVSPropertyOp14
 70
     2
102
RTVSPropertyOp15
 70
     0
102
RTVSPropertyOp16
 70
     0
102
RTVSPropertyOp17
 70
     0
102
RTVSPropertyOp18
 70
     0
102
RTVSPropertyOp19
 70
     0
102
RTVSPropertyOp20
 70
     0
102
RTVSPropertyOp21
 70
     0
102
RTVSPropertyOp22
 70
     0
102
RTVSPropertyOp23
 70
     0
102
RTVSPropertyOp24
 70
     0
102
RTVSPropertyOp25
 70
     0
102
RTVSPropertyOp26
 70
     0
102
RTVSPropertyOp27
 70
     0
102
RTVSPropertyOp28
 70
     0
102
RTVSPropertyOp29
 70
     0
102
RTVSPropertyOp30
 70
     0
102
RTVSPropertyOp31
 70
     0
102
RTVSPropertyOp32
 70
     0
102
RTVSPropertyOp33
 70
     0
102
RTVSPropertyOp34
 70
     0
102
RTVSPropertyOp35
 70
     0
102
RTVSPropertyOp36
 70
     0
102
RTVSPropertyOp37
 70
     0
102
RTVSPropertyOp38
 70
     0
102
RTVSPropertyOp39
 70
     0
102
RTVSPropertyOp40
 70
     0
102
RTVSPropertyOp41
 70
     0
102
RTVSPropertyOp42
 70
     0
102
RTVSPropertyOp43
 70
     0
102
RTVSPropertyOp44
 70
     0
102
RTVSPropertyOp45
 70
     0
102
RTVSPropertyOp46
 70
     0
102
RTVSPropertyOp47
 70
     0
102
RTVSPropertyOp48
 70
     0
102
RTVSPropertyOp49
 70
     0
102
RTVSPropertyOp50
 70
     0
102
RTVSPropertyOp51
 70
     0
102
RTVSPropertyOp52
 70
     0
102
RTVSPropertyOp53
 70
     0
102
RTVSPropertyOp54
 70
     0
102
RTVSPropertyOp55
 70
     0
102
RTVSPropertyOp56
 70
     0
102
RTVSPropertyOp57
 70
     0
102
RTVSPropertyOp58
 70
     1
102
RTVSPropertyOp59
 70
     1
102
RTVSPropertyOp60
 70
     1
102
RTVSPropertyOp61
 70
     1
102
RTVSPropertyOp62
 70
     1
  0
XRECORD
  5
36D
102
{ACAD_REACTORS
330
36C
102
}
330
36C
100
AcDbXrecord
280
     1
102
RTVSPost2010Prop28
280
     0
102
RTVSPost2010PropOp28
 70
     1
102
RTVSPost2010Prop29
280
     1
102
RTVSPost2010PropOp29
 70
     1
102
RTVSPost2010Prop30
280
     1
102
RTVSPost2010PropOp30
 70
     1
102
RTVSPost2010Prop31
280
     0
102
RTVSPost2010PropOp31
 70
     1
102
RTVSPost2010Prop32
280
     0
102
RTVSPost2010PropOp32
 70
     1
102
RTVSPost2010Prop33
280
     0
102
RTVSPost2010PropOp33
 70
     1
102
RTVSPost2010Prop34
280
     0
102
RTVSPost2010PropOp34
 70
     1
102
RTVSPost2010Prop35
280
     0
102
RTVSPost2010PropOp35
 70
     1
102
RTVSPost2010Prop36
280
     0
102
RTVSPost2010PropOp36
 70
     1
102
RTVSPost2010Prop37
 90
       50
102
RTVSPost2010PropOp37
 70
     1
102
RTVSPost2010Prop38
140
0.0
102
RTVSPost2010PropOp38
 70
     1
102
RTVSPost2010Prop39
140
1.0
102
RTVSPost2010PropOp39
 70
     1
102
RTVSPost2010Prop40
 90
        0
102
RTVSPost2010PropOp40
 70
     1
102
RTVSPost2010Prop41ColorIndex
 90
       18
102
RTVSPost2010Prop41ColorRGB
 90
        0
102
RTVSPost2010PropOp41
 70
     1
102
RTVSPost2010Prop42
 90
       50
102
RTVSPost2010PropOp42
 70
     1
102
RTVSPost2010Prop43
 90
        3
102
RTVSPost2010PropOp43
 70
     1
102
RTVSPost2010Prop44ColorIndex
 90
        5
102
RTVSPost2010Prop44ColorRGB
 90
      255
102
RTVSPost2010PropOp44
 70
     1
102
RTVSPost2010Prop45
280
     0
102
RTVSPost2010PropOp45
 70
     1
102
RTVSPost2010Prop46
 90
       50
102
RTVSPost2010PropOp46
 70
     1
102
RTVSPost2010Prop47
 90
       50
102
RTVSPost2010PropOp47
 70
     1
102
RTVSPost2010Prop48
 90
       50
102
RTVSPost2010PropOp48
 70
     1
102
RTVSPost2010Prop49
280
     0
102
RTVSPost2010PropOp49
 70
     1
102
RTVSPost2010Prop50
 90
       50
102
RTVSPost2010PropOp50
 70
     1
102
RTVSPost2010Prop51ColorIndex
 90
      256
102
RTVSPost2010Prop51ColorRGB
 90
-16777216
102
RTVSPost2010PropOp51
 70
     0
102
RTVSPost2010Prop52
140
1.0
102
RTVSPost2010PropOp52
 70
     0
102
RTVSPost2010Prop53
 90
        2
102
RTVSPost2010PropOp53
 70
     1
102
RTVSPost2010Prop54
  1
strokes_ogs.tif
102
RTVSPost2010PropOp54
 70
     1
102
RTVSPost2010Prop55
280
     0
102
RTVSPost2010PropOp55
 70
     1
102
RTVSPost2010Prop56
140
1.0
102
RTVSPost2010PropOp56
 70
     1
102
RTVSPost2010Prop57
140
1.0
102
RTVSPost2010PropOp57
 70
     1
102
RTVSPropertyOp0
 70
     1
102
RTVSPropertyOp1
 70
     1
102
RTVSPropertyOp2
 70
     1
102
RTVSPropertyOp3
 70
     1
102
RTVSPropertyOp4
 70
     1
102
RTVSPropertyOp5
 70
     1
102
RTVSPropertyOp6
 70
     1
102
RTVSPropertyOp7
 70
     1
102
RTVSPropertyOp8
 70
     1
102
RTVSPropertyOp9
 70
     1
102
RTVSPropertyOp10
 70
     1
102
RTVSPropertyOp11
 70
     1
102
RTVSPropertyOp12
 70
     1
102
RTVSPropertyOp13
 70
     1
102
RTVSPropertyOp14
 70
     1
102
RTVSPropertyOp15
 70
     1
102
RTVSPropertyOp16
 70
     1
102
RTVSPropertyOp17
 70
     1
102
RTVSPropertyOp18
 70
     1
102
RTVSPropertyOp19
 70
     1
102
RTVSPropertyOp20
 70
     1
102
RTVSPropertyOp21
 70
     1
102
RTVSPropertyOp22
 70
     1
102
RTVSPropertyOp23
 70
     1
102
RTVSPropertyOp24
 70
     1
102
RTVSPropertyOp25
 70
     1
102
RTVSPropertyOp26
 70
     1
102
RTVSPropertyOp27
 70
     1
102
RTVSPropertyOp28
 70
     1
102
RTVSPropertyOp29
 70
     1
102
RTVSPropertyOp30
 70
     1
102
RTVSPropertyOp31
 70
     1
102
RTVSPropertyOp32
 70
     1
102
RTVSPropertyOp33
 70
     1
102
RTVSPropertyOp34
 70
     1
102
RTVSPropertyOp35
 70
     1
102
RTVSPropertyOp36
 70
     1
102
RTVSPropertyOp37
 70
     1
102
RTVSPropertyOp38
 70
     1
102
RTVSPropertyOp39
 70
     1
102
RTVSPropertyOp40
 70
     1
102
RTVSPropertyOp41
 70
     1
102
RTVSPropertyOp42
 70
     1
102
RTVSPropertyOp43
 70
     1
102
RTVSPropertyOp44
 70
     1
102
RTVSPropertyOp45
 70
     1
102
RTVSPropertyOp46
 70
     1
102
RTVSPropertyOp47
 70
     1
102
RTVSPropertyOp48
 70
     1
102
RTVSPropertyOp49
 70
     1
102
RTVSPropertyOp50
 70
     1
102
RTVSPropertyOp51
 70
     0
102
RTVSPropertyOp52
 70
     0
102
RTVSPropertyOp53
 70
     1
102
RTVSPropertyOp54
 70
     1
102
RTVSPropertyOp55
 70
     1
102
RTVSPropertyOp56
 70
     1
102
RTVSPropertyOp57
 70
     1
102
RTVSPropertyOp58
 70
     1
102
RTVSPropertyOp59
 70
     1
102
RTVSPropertyOp60
 70
     1
102
RTVSPropertyOp61
 70
     1
102
RTVSPropertyOp62
 70
     1
  0
XRECORD
  5
38B
102
{ACAD_REACTORS
330
38A
102
}
330
38A
100
AcDbXrecord
280
     1
102
RTVSPost2010Prop28
280
     0
102
RTVSPost2010PropOp28
 70
     1
102
RTVSPost2010Prop29
280
     1
102
RTVSPost2010PropOp29
 70
     1
102
RTVSPost2010Prop30
280
     1
102
RTVSPost2010PropOp30
 70
     1
102
RTVSPost2010Prop31
280
     0
102
RTVSPost2010PropOp31
 70
     1
102
RTVSPost2010Prop32
280
     0
102
RTVSPost2010PropOp32
 70
     1
102
RTVSPost2010Prop33
280
     0
102
RTVSPost2010PropOp33
 70
     1
102
RTVSPost2010Prop34
280
     0
102
RTVSPost2010PropOp34
 70
     1
102
RTVSPost2010Prop35
280
     0
102
RTVSPost2010PropOp35
 70
     1
102
RTVSPost2010Prop36
280
     0
102
RTVSPost2010PropOp36
 70
     1
102
RTVSPost2010Prop37
 90
       50
102
RTVSPost2010PropOp37
 70
     1
102
RTVSPost2010Prop38
140
0.0
102
RTVSPost2010PropOp38
 70
     1
102
RTVSPost2010Prop39
140
1.0
102
RTVSPost2010PropOp39
 70
     1
102
RTVSPost2010Prop40
 90
        0
102
RTVSPost2010PropOp40
 70
     1
102
RTVSPost2010Prop41ColorIndex
 90
       18
102
RTVSPost2010Prop41ColorRGB
 90
        0
102
RTVSPost2010PropOp41
 70
     1
102
RTVSPost2010Prop42
 90
       50
102
RTVSPost2010PropOp42
 70
     1
102
RTVSPost2010Prop43
 90
        3
102
RTVSPost2010PropOp43
 70
     1
102
RTVSPost2010Prop44ColorIndex
 90
        5
102
RTVSPost2010Prop44ColorRGB
 90
      255
102
RTVSPost2010PropOp44
 70
     1
102
RTVSPost2010Prop45
280
     0
102
RTVSPost2010PropOp45
 70
     1
102
RTVSPost2010Prop46
 90
       50
102
RTVSPost2010PropOp46
 70
     1
102
RTVSPost2010Prop47
 90
       50
102
RTVSPost2010PropOp47
 70
     1
102
RTVSPost2010Prop48
 90
       50
102
RTVSPost2010PropOp48
 70
     1
102
RTVSPost2010Prop49
280
     0
102
RTVSPost2010PropOp49
 70
     1
102
RTVSPost2010Prop50
 90
       50
102
RTVSPost2010PropOp50
 70
     1
102
RTVSPost2010Prop51ColorIndex
 90
      256
102
RTVSPost2010Prop51ColorRGB
 90
-16777216
102
RTVSPost2010PropOp51
 70
     0
102
RTVSPost2010Prop52
140
1.0
102
RTVSPost2010PropOp52
 70
     0
102
RTVSPost2010Prop53
 90
        2
102
RTVSPost2010PropOp53
 70
     1
102
RTVSPost2010Prop54
  1
strokes_ogs.tif
102
RTVSPost2010PropOp54
 70
     1
102
RTVSPost2010Prop55
280
     0
102
RTVSPost2010PropOp55
 70
     1
102
RTVSPost2010Prop56
140
1.0
102
RTVSPost2010PropOp56
 70
     1
102
RTVSPost2010Prop57
140
1.0
102
RTVSPost2010PropOp57
 70
     1
102
RTVSPropertyOp0
 70
     1
102
RTVSPropertyOp1
 70
     1
102
RTVSPropertyOp2
 70
     1
102
RTVSPropertyOp3
 70
     1
102
RTVSPropertyOp4
 70
     1
102
RTVSPropertyOp5
 70
     1
102
RTVSPropertyOp6
 70
     1
102
RTVSPropertyOp7
 70
     1
102
RTVSPropertyOp8
 70
     1
102
RTVSPropertyOp9
 70
     1
102
RTVSPropertyOp10
 70
     1
102
RTVSPropertyOp11
 70
     1
102
RTVSPropertyOp12
 70
     1
102
RTVSPropertyOp13
 70
     1
102
RTVSPropertyOp14
 70
     1
102
RTVSPropertyOp15
 70
     1
102
RTVSPropertyOp16
 70
     1
102
RTVSPropertyOp17
 70
     1
102
RTVSPropertyOp18
 70
     1
102
RTVSPropertyOp19
 70
     1
102
RTVSPropertyOp20
 70
     1
102
RTVSPropertyOp21
 70
     1
102
RTVSPropertyOp22
 70
     1
102
RTVSPropertyOp23
 70
     1
102
RTVSPropertyOp24
 70
     1
102
RTVSPropertyOp25
 70
     1
102
RTVSPropertyOp26
 70
     1
102
RTVSPropertyOp27
 70
     1
102
RTVSPropertyOp28
 70
     1
102
RTVSPropertyOp29
 70
     1
102
RTVSPropertyOp30
 70
     1
102
RTVSPropertyOp31
 70
     1
102
RTVSPropertyOp32
 70
     1
102
RTVSPropertyOp33
 70
     1
102
RTVSPropertyOp34
 70
     1
102
RTVSPropertyOp35
 70
     1
102
RTVSPropertyOp36
 70
     1
102
RTVSPropertyOp37
 70
     1
102
RTVSPropertyOp38
 70
     1
102
RTVSPropertyOp39
 70
     1
102
RTVSPropertyOp40
 70
     1
102
RTVSPropertyOp41
 70
     1
102
RTVSPropertyOp42
 70
     1
102
RTVSPropertyOp43
 70
     1
102
RTVSPropertyOp44
 70
     1
102
RTVSPropertyOp45
 70
     1
102
RTVSPropertyOp46
 70
     1
102
RTVSPropertyOp47
 70
     1
102
RTVSPropertyOp48
 70
     1
102
RTVSPropertyOp49
 70
     1
102
RTVSPropertyOp50
 70
     1
102
RTVSPropertyOp51
 70
     0
102
RTVSPropertyOp52
 70
     0
102
RTVSPropertyOp53
 70
     1
102
RTVSPropertyOp54
 70
     1
102
RTVSPropertyOp55
 70
     1
102
RTVSPropertyOp56
 70
     1
102
RTVSPropertyOp57
 70
     1
102
RTVSPropertyOp58
 70
     1
102
RTVSPropertyOp59
 70
     1
102
RTVSPropertyOp60
 70
     1
102
RTVSPropertyOp61
 70
     1
102
RTVSPropertyOp62
 70
     1
  0
XRECORD
  5
389
102
{ACAD_REACTORS
330
388
102
}
330
388
100
AcDbXrecord
280
     1
102
RTVSPost2010Prop28
280
     0
102
RTVSPost2010PropOp28
 70
     1
102
RTVSPost2010Prop29
280
     1
102
RTVSPost2010PropOp29
 70
     1
102
RTVSPost2010Prop30
280
     1
102
RTVSPost2010PropOp30
 70
     1
102
RTVSPost2010Prop31
280
     0
102
RTVSPost2010PropOp31
 70
     1
102
RTVSPost2010Prop32
280
     0
102
RTVSPost2010PropOp32
 70
     1
102
RTVSPost2010Prop33
280
     0
102
RTVSPost2010PropOp33
 70
     1
102
RTVSPost2010Prop34
280
     0
102
RTVSPost2010PropOp34
 70
     1
102
RTVSPost2010Prop35
280
     0
102
RTVSPost2010PropOp35
 70
     1
102
RTVSPost2010Prop36
280
     0
102
RTVSPost2010PropOp36
 70
     1
102
RTVSPost2010Prop37
 90
       50
102
RTVSPost2010PropOp37
 70
     1
102
RTVSPost2010Prop38
140
0.0
102
RTVSPost2010PropOp38
 70
     1
102
RTVSPost2010Prop39
140
1.0
102
RTVSPost2010PropOp39
 70
     1
102
RTVSPost2010Prop40
 90
        0
102
RTVSPost2010PropOp40
 70
     1
102
RTVSPost2010Prop41ColorIndex
 90
       18
102
RTVSPost2010Prop41ColorRGB
 90
        0
102
RTVSPost2010PropOp41
 70
     1
102
RTVSPost2010Prop42
 90
       50
102
RTVSPost2010PropOp42
 70
     1
102
RTVSPost2010Prop43
 90
        3
102
RTVSPost2010PropOp43
 70
     1
102
RTVSPost2010Prop44ColorIndex
 90
        5
102
RTVSPost2010Prop44ColorRGB
 90
      255
102
RTVSPost2010PropOp44
 70
     1
102
RTVSPost2010Prop45
280
     0
102
RTVSPost2010PropOp45
 70
     1
102
RTVSPost2010Prop46
 90
       50
102
RTVSPost2010PropOp46
 70
     1
102
RTVSPost2010Prop47
 90
       50
102
RTVSPost2010PropOp47
 70
     1
102
RTVSPost2010Prop48
 90
       50
102
RTVSPost2010PropOp48
 70
     1
102
RTVSPost2010Prop49
280
     0
102
RTVSPost2010PropOp49
 70
     1
102
RTVSPost2010Prop50
 90
       50
102
RTVSPost2010PropOp50
 70
     1
102
RTVSPost2010Prop51ColorIndex
 90
      256
102
RTVSPost2010Prop51ColorRGB
 90
-16777216
102
RTVSPost2010PropOp51
 70
     0
102
RTVSPost2010Prop52
140
1.0
102
RTVSPost2010PropOp52
 70
     0
102
RTVSPost2010Prop53
 90
        2
102
RTVSPost2010PropOp53
 70
     1
102
RTVSPost2010Prop54
  1
strokes_ogs.tif
102
RTVSPost2010PropOp54
 70
     1
102
RTVSPost2010Prop55
280
     0
102
RTVSPost2010PropOp55
 70
     1
102
RTVSPost2010Prop56
140
1.0
102
RTVSPost2010PropOp56
 70
     1
102
RTVSPost2010Prop57
140
1.0
102
RTVSPost2010PropOp57
 70
     1
102
RTVSPropertyOp0
 70
     1
102
RTVSPropertyOp1
 70
     1
102
RTVSPropertyOp2
 70
     1
102
RTVSPropertyOp3
 70
     1
102
RTVSPropertyOp4
 70
     1
102
RTVSPropertyOp5
 70
     1
102
RTVSPropertyOp6
 70
     1
102
RTVSPropertyOp7
 70
     1
102
RTVSPropertyOp8
 70
     1
102
RTVSPropertyOp9
 70
     1
102
RTVSPropertyOp10
 70
     1
102
RTVSPropertyOp11
 70
     1
102
RTVSPropertyOp12
 70
     1
102
RTVSPropertyOp13
 70
     1
102
RTVSPropertyOp14
 70
     1
102
RTVSPropertyOp15
 70
     1
102
RTVSPropertyOp16
 70
     1
102
RTVSPropertyOp17
 70
     1
102
RTVSPropertyOp18
 70
     1
102
RTVSPropertyOp19
 70
     1
102
RTVSPropertyOp20
 70
     1
102
RTVSPropertyOp21
 70
     1
102
RTVSPropertyOp22
 70
     1
102
RTVSPropertyOp23
 70
     1
102
RTVSPropertyOp24
 70
     1
102
RTVSPropertyOp25
 70
     1
102
RTVSPropertyOp26
 70
     1
102
RTVSPropertyOp27
 70
     1
102
RTVSPropertyOp28
 70
     1
102
RTVSPropertyOp29
 70
     1
102
RTVSPropertyOp30
 70
     1
102
RTVSPropertyOp31
 70
     1
102
RTVSPropertyOp32
 70
     1
102
RTVSPropertyOp33
 70
     1
102
RTVSPropertyOp34
 70
     1
102
RTVSPropertyOp35
 70
     1
102
RTVSPropertyOp36
 70
     1
102
RTVSPropertyOp37
 70
     1
102
RTVSPropertyOp38
 70
     1
102
RTVSPropertyOp39
 70
     1
102
RTVSPropertyOp40
 70
     1
102
RTVSPropertyOp41
 70
     1
102
RTVSPropertyOp42
 70
     1
102
RTVSPropertyOp43
 70
     1
102
RTVSPropertyOp44
 70
     1
102
RTVSPropertyOp45
 70
     1
102
RTVSPropertyOp46
 70
     1
102
RTVSPropertyOp47
 70
     1
102
RTVSPropertyOp48
 70
     1
102
RTVSPropertyOp49
 70
     1
102
RTVSPropertyOp50
 70
     1
102
RTVSPropertyOp51
 70
     0
102
RTVSPropertyOp52
 70
     0
102
RTVSPropertyOp53
 70
     1
102
RTVSPropertyOp54
 70
     1
102
RTVSPropertyOp55
 70
     1
102
RTVSPropertyOp56
 70
     1
102
RTVSPropertyOp57
 70
     1
102
RTVSPropertyOp58
 70
     1
102
RTVSPropertyOp59
 70
     1
102
RTVSPropertyOp60
 70
     1
102
RTVSPropertyOp61
 70
     1
102
RTVSPropertyOp62
 70
     1
  0
XRECORD
  5
383
102
{ACAD_REACTORS
330
382
102
}
330
382
100
AcDbXrecord
280
     1
102
RTVSPost2010Prop28
280
     0
102
RTVSPost2010PropOp28
 70
     1
102
RTVSPost2010Prop29
280
     1
102
RTVSPost2010PropOp29
 70
     1
102
RTVSPost2010Prop30
280
     1
102
RTVSPost2010PropOp30
 70
     1
102
RTVSPost2010Prop31
280
     0
102
RTVSPost2010PropOp31
 70
     1
102
RTVSPost2010Prop32
280
     0
102
RTVSPost2010PropOp32
 70
     1
102
RTVSPost2010Prop33
280
     0
102
RTVSPost2010PropOp33
 70
     1
102
RTVSPost2010Prop34
280
     0
102
RTVSPost2010PropOp34
 70
     1
102
RTVSPost2010Prop35
280
     0
102
RTVSPost2010PropOp35
 70
     1
102
RTVSPost2010Prop36
280
     0
102
RTVSPost2010PropOp36
 70
     1
102
RTVSPost2010Prop37
 90
       50
102
RTVSPost2010PropOp37
 70
     1
102
RTVSPost2010Prop38
140
0.0
102
RTVSPost2010PropOp38
 70
     1
102
RTVSPost2010Prop39
140
1.0
102
RTVSPost2010PropOp39
 70
     1
102
RTVSPost2010Prop40
 90
        0
102
RTVSPost2010PropOp40
 70
     1
102
RTVSPost2010Prop41ColorIndex
 90
       18
102
RTVSPost2010Prop41ColorRGB
 90
        0
102
RTVSPost2010PropOp41
 70
     1
102
RTVSPost2010Prop42
 90
       50
102
RTVSPost2010PropOp42
 70
     1
102
RTVSPost2010Prop43
 90
        3
102
RTVSPost2010PropOp43
 70
     1
102
RTVSPost2010Prop44ColorIndex
 90
        5
102
RTVSPost2010Prop44ColorRGB
 90
      255
102
RTVSPost2010PropOp44
 70
     1
102
RTVSPost2010Prop45
280
     0
102
RTVSPost2010PropOp45
 70
     1
102
RTVSPost2010Prop46
 90
       50
102
RTVSPost2010PropOp46
 70
     1
102
RTVSPost2010Prop47
 90
       50
102
RTVSPost2010PropOp47
 70
     1
102
RTVSPost2010Prop48
 90
       50
102
RTVSPost2010PropOp48
 70
     1
102
RTVSPost2010Prop49
280
     0
102
RTVSPost2010PropOp49
 70
     1
102
RTVSPost2010Prop50
 90
       50
102
RTVSPost2010PropOp50
 70
     1
102
RTVSPost2010Prop51ColorIndex
 90
      256
102
RTVSPost2010Prop51ColorRGB
 90
-16777216
102
RTVSPost2010PropOp51
 70
     0
102
RTVSPost2010Prop52
140
1.0
102
RTVSPost2010PropOp52
 70
     0
102
RTVSPost2010Prop53
 90
        2
102
RTVSPost2010PropOp53
 70
     1
102
RTVSPost2010Prop54
  1
strokes_ogs.tif
102
RTVSPost2010PropOp54
 70
     1
102
RTVSPost2010Prop55
280
     0
102
RTVSPost2010PropOp55
 70
     1
102
RTVSPost2010Prop56
140
1.0
102
RTVSPost2010PropOp56
 70
     1
102
RTVSPost2010Prop57
140
1.0
102
RTVSPost2010PropOp57
 70
     1
102
RTVSPropertyOp0
 70
     1
102
RTVSPropertyOp1
 70
     1
102
RTVSPropertyOp2
 70
     1
102
RTVSPropertyOp3
 70
     1
102
RTVSPropertyOp4
 70
     1
102
RTVSPropertyOp5
 70
     1
102
RTVSPropertyOp6
 70
     1
102
RTVSPropertyOp7
 70
     1
102
RTVSPropertyOp8
 70
     1
102
RTVSPropertyOp9
 70
     1
102
RTVSPropertyOp10
 70
     1
102
RTVSPropertyOp11
 70
     1
102
RTVSPropertyOp12
 70
     1
102
RTVSPropertyOp13
 70
     1
102
RTVSPropertyOp14
 70
     1
102
RTVSPropertyOp15
 70
     1
102
RTVSPropertyOp16
 70
     1
102
RTVSPropertyOp17
 70
     1
102
RTVSPropertyOp18
 70
     1
102
RTVSPropertyOp19
 70
     1
102
RTVSPropertyOp20
 70
     1
102
RTVSPropertyOp21
 70
     1
102
RTVSPropertyOp22
 70
     1
102
RTVSPropertyOp23
 70
     1
102
RTVSPropertyOp24
 70
     1
102
RTVSPropertyOp25
 70
     1
102
RTVSPropertyOp26
 70
     1
102
RTVSPropertyOp27
 70
     1
102
RTVSPropertyOp28
 70
     1
102
RTVSPropertyOp29
 70
     1
102
RTVSPropertyOp30
 70
     1
102
RTVSPropertyOp31
 70
     1
102
RTVSPropertyOp32
 70
     1
102
RTVSPropertyOp33
 70
     1
102
RTVSPropertyOp34
 70
     1
102
RTVSPropertyOp35
 70
     1
102
RTVSPropertyOp36
 70
     1
102
RTVSPropertyOp37
 70
     1
102
RTVSPropertyOp38
 70
     1
102
RTVSPropertyOp39
 70
     1
102
RTVSPropertyOp40
 70
     1
102
RTVSPropertyOp41
 70
     1
102
RTVSPropertyOp42
 70
     1
102
RTVSPropertyOp43
 70
     1
102
RTVSPropertyOp44
 70
     1
102
RTVSPropertyOp45
 70
     1
102
RTVSPropertyOp46
 70
     1
102
RTVSPropertyOp47
 70
     1
102
RTVSPropertyOp48
 70
     1
102
RTVSPropertyOp49
 70
     1
102
RTVSPropertyOp50
 70
     1
102
RTVSPropertyOp51
 70
     0
102
RTVSPropertyOp52
 70
     0
102
RTVSPropertyOp53
 70
     1
102
RTVSPropertyOp54
 70
     1
102
RTVSPropertyOp55
 70
     1
102
RTVSPropertyOp56
 70
     1
102
RTVSPropertyOp57
 70
     1
102
RTVSPropertyOp58
 70
     1
102
RTVSPropertyOp59
 70
     1
102
RTVSPropertyOp60
 70
     1
102
RTVSPropertyOp61
 70
     1
102
RTVSPropertyOp62
 70
     1
  0
XRECORD
  5
385
102
{ACAD_REACTORS
330
384
102
}
330
384
100
AcDbXrecord
280
     1
102
RTVSPost2010Prop28
280
     0
102
RTVSPost2010PropOp28
 70
     1
102
RTVSPost2010Prop29
280
     1
102
RTVSPost2010PropOp29
 70
     1
102
RTVSPost2010Prop30
280
     1
102
RTVSPost2010PropOp30
 70
     1
102
RTVSPost2010Prop31
280
     0
102
RTVSPost2010PropOp31
 70
     1
102
RTVSPost2010Prop32
280
     0
102
RTVSPost2010PropOp32
 70
     1
102
RTVSPost2010Prop33
280
     0
102
RTVSPost2010PropOp33
 70
     1
102
RTVSPost2010Prop34
280
     0
102
RTVSPost2010PropOp34
 70
     1
102
RTVSPost2010Prop35
280
     0
102
RTVSPost2010PropOp35
 70
     1
102
RTVSPost2010Prop36
280
     0
102
RTVSPost2010PropOp36
 70
     1
102
RTVSPost2010Prop37
 90
       50
102
RTVSPost2010PropOp37
 70
     1
102
RTVSPost2010Prop38
140
0.0
102
RTVSPost2010PropOp38
 70
     1
102
RTVSPost2010Prop39
140
1.0
102
RTVSPost2010PropOp39
 70
     1
102
RTVSPost2010Prop40
 90
        0
102
RTVSPost2010PropOp40
 70
     1
102
RTVSPost2010Prop41ColorIndex
 90
       18
102
RTVSPost2010Prop41ColorRGB
 90
        0
102
RTVSPost2010PropOp41
 70
     1
102
RTVSPost2010Prop42
 90
       50
102
RTVSPost2010PropOp42
 70
     1
102
RTVSPost2010Prop43
 90
        3
102
RTVSPost2010PropOp43
 70
     1
102
RTVSPost2010Prop44ColorIndex
 90
        5
102
RTVSPost2010Prop44ColorRGB
 90
      255
102
RTVSPost2010PropOp44
 70
     1
102
RTVSPost2010Prop45
280
     0
102
RTVSPost2010PropOp45
 70
     1
102
RTVSPost2010Prop46
 90
       50
102
RTVSPost2010PropOp46
 70
     1
102
RTVSPost2010Prop47
 90
       50
102
RTVSPost2010PropOp47
 70
     1
102
RTVSPost2010Prop48
 90
       50
102
RTVSPost2010PropOp48
 70
     1
102
RTVSPost2010Prop49
280
     0
102
RTVSPost2010PropOp49
 70
     1
102
RTVSPost2010Prop50
 90
       50
102
RTVSPost2010PropOp50
 70
     1
102
RTVSPost2010Prop51ColorIndex
 90
      256
102
RTVSPost2010Prop51ColorRGB
 90
-16777216
102
RTVSPost2010PropOp51
 70
     0
102
RTVSPost2010Prop52
140
1.0
102
RTVSPost2010PropOp52
 70
     0
102
RTVSPost2010Prop53
 90
        2
102
RTVSPost2010PropOp53
 70
     1
102
RTVSPost2010Prop54
  1
strokes_ogs.tif
102
RTVSPost2010PropOp54
 70
     1
102
RTVSPost2010Prop55
280
     0
102
RTVSPost2010PropOp55
 70
     1
102
RTVSPost2010Prop56
140
1.0
102
RTVSPost2010PropOp56
 70
     1
102
RTVSPost2010Prop57
140
1.0
102
RTVSPost2010PropOp57
 70
     1
102
RTVSPropertyOp0
 70
     1
102
RTVSPropertyOp1
 70
     1
102
RTVSPropertyOp2
 70
     1
102
RTVSPropertyOp3
 70
     1
102
RTVSPropertyOp4
 70
     1
102
RTVSPropertyOp5
 70
     1
102
RTVSPropertyOp6
 70
     1
102
RTVSPropertyOp7
 70
     1
102
RTVSPropertyOp8
 70
     1
102
RTVSPropertyOp9
 70
     1
102
RTVSPropertyOp10
 70
     1
102
RTVSPropertyOp11
 70
     1
102
RTVSPropertyOp12
 70
     1
102
RTVSPropertyOp13
 70
     1
102
RTVSPropertyOp14
 70
     1
102
RTVSPropertyOp15
 70
     1
102
RTVSPropertyOp16
 70
     1
102
RTVSPropertyOp17
 70
     1
102
RTVSPropertyOp18
 70
     1
102
RTVSPropertyOp19
 70
     1
102
RTVSPropertyOp20
 70
     1
102
RTVSPropertyOp21
 70
     1
102
RTVSPropertyOp22
 70
     1
102
RTVSPropertyOp23
 70
     1
102
RTVSPropertyOp24
 70
     1
102
RTVSPropertyOp25
 70
     1
102
RTVSPropertyOp26
 70
     1
102
RTVSPropertyOp27
 70
     1
102
RTVSPropertyOp28
 70
     1
102
RTVSPropertyOp29
 70
     1
102
RTVSPropertyOp30
 70
     1
102
RTVSPropertyOp31
 70
     1
102
RTVSPropertyOp32
 70
     1
102
RTVSPropertyOp33
 70
     1
102
RTVSPropertyOp34
 70
     1
102
RTVSPropertyOp35
 70
     1
102
RTVSPropertyOp36
 70
     1
102
RTVSPropertyOp37
 70
     1
102
RTVSPropertyOp38
 70
     1
102
RTVSPropertyOp39
 70
     1
102
RTVSPropertyOp40
 70
     1
102
RTVSPropertyOp41
 70
     1
102
RTVSPropertyOp42
 70
     1
102
RTVSPropertyOp43
 70
     1
102
RTVSPropertyOp44
 70
     1
102
RTVSPropertyOp45
 70
     1
102
RTVSPropertyOp46
 70
     1
102
RTVSPropertyOp47
 70
     1
102
RTVSPropertyOp48
 70
     1
102
RTVSPropertyOp49
 70
     1
102
RTVSPropertyOp50
 70
     1
102
RTVSPropertyOp51
 70
     0
102
RTVSPropertyOp52
 70
     0
102
RTVSPropertyOp53
 70
     1
102
RTVSPropertyOp54
 70
     1
102
RTVSPropertyOp55
 70
     1
102
RTVSPropertyOp56
 70
     1
102
RTVSPropertyOp57
 70
     1
102
RTVSPropertyOp58
 70
     1
102
RTVSPropertyOp59
 70
     1
102
RTVSPropertyOp60
 70
     1
102
RTVSPropertyOp61
 70
     1
102
RTVSPropertyOp62
 70
     1
  0
XRECORD
  5
375
102
{ACAD_REACTORS
330
374
102
}
330
374
100
AcDbXrecord
280
     1
102
RTVSPost2010Prop28
280
     0
102
RTVSPost2010PropOp28
 70
     1
102
RTVSPost2010Prop29
280
     1
102
RTVSPost2010PropOp29
 70
     1
102
RTVSPost2010Prop30
280
     1
102
RTVSPost2010PropOp30
 70
     1
102
RTVSPost2010Prop31
280
     0
102
RTVSPost2010PropOp31
 70
     1
102
RTVSPost2010Prop32
280
     0
102
RTVSPost2010PropOp32
 70
     1
102
RTVSPost2010Prop33
280
     0
102
RTVSPost2010PropOp33
 70
     1
102
RTVSPost2010Prop34
280
     0
102
RTVSPost2010PropOp34
 70
     1
102
RTVSPost2010Prop35
280
     0
102
RTVSPost2010PropOp35
 70
     1
102
RTVSPost2010Prop36
280
     0
102
RTVSPost2010PropOp36
 70
     1
102
RTVSPost2010Prop37
 90
       50
102
RTVSPost2010PropOp37
 70
     1
102
RTVSPost2010Prop38
140
0.0
102
RTVSPost2010PropOp38
 70
     1
102
RTVSPost2010Prop39
140
1.0
102
RTVSPost2010PropOp39
 70
     1
102
RTVSPost2010Prop40
 90
        0
102
RTVSPost2010PropOp40
 70
     1
102
RTVSPost2010Prop41ColorIndex
 90
       18
102
RTVSPost2010Prop41ColorRGB
 90
        0
102
RTVSPost2010PropOp41
 70
     1
102
RTVSPost2010Prop42
 90
       50
102
RTVSPost2010PropOp42
 70
     1
102
RTVSPost2010Prop43
 90
        3
102
RTVSPost2010PropOp43
 70
     1
102
RTVSPost2010Prop44ColorIndex
 90
        5
102
RTVSPost2010Prop44ColorRGB
 90
      255
102
RTVSPost2010PropOp44
 70
     1
102
RTVSPost2010Prop45
280
     0
102
RTVSPost2010PropOp45
 70
     1
102
RTVSPost2010Prop46
 90
       50
102
RTVSPost2010PropOp46
 70
     1
102
RTVSPost2010Prop47
 90
       50
102
RTVSPost2010PropOp47
 70
     1
102
RTVSPost2010Prop48
 90
       50
102
RTVSPost2010PropOp48
 70
     1
102
RTVSPost2010Prop49
280
     0
102
RTVSPost2010PropOp49
 70
     1
102
RTVSPost2010Prop50
 90
       50
102
RTVSPost2010PropOp50
 70
     1
102
RTVSPost2010Prop51ColorIndex
 90
      256
102
RTVSPost2010Prop51ColorRGB
 90
-16777216
102
RTVSPost2010PropOp51
 70
     0
102
RTVSPost2010Prop52
140
1.0
102
RTVSPost2010PropOp52
 70
     0
102
RTVSPost2010Prop53
 90
        2
102
RTVSPost2010PropOp53
 70
     1
102
RTVSPost2010Prop54
  1
strokes_ogs.tif
102
RTVSPost2010PropOp54
 70
     1
102
RTVSPost2010Prop55
280
     0
102
RTVSPost2010PropOp55
 70
     1
102
RTVSPost2010Prop56
140
1.0
102
RTVSPost2010PropOp56
 70
     1
102
RTVSPost2010Prop57
140
1.0
102
RTVSPost2010PropOp57
 70
     1
102
RTVSPropertyOp0
 70
     1
102
RTVSPropertyOp1
 70
     1
102
RTVSPropertyOp2
 70
     1
102
RTVSPropertyOp3
 70
     1
102
RTVSPropertyOp4
 70
     1
102
RTVSPropertyOp5
 70
     1
102
RTVSPropertyOp6
 70
     1
102
RTVSPropertyOp7
 70
     1
102
RTVSPropertyOp8
 70
     1
102
RTVSPropertyOp9
 70
     1
102
RTVSPropertyOp10
 70
     1
102
RTVSPropertyOp11
 70
     1
102
RTVSPropertyOp12
 70
     1
102
RTVSPropertyOp13
 70
     1
102
RTVSPropertyOp14
 70
     1
102
RTVSPropertyOp15
 70
     1
102
RTVSPropertyOp16
 70
     1
102
RTVSPropertyOp17
 70
     1
102
RTVSPropertyOp18
 70
     1
102
RTVSPropertyOp19
 70
     1
102
RTVSPropertyOp20
 70
     1
102
RTVSPropertyOp21
 70
     1
102
RTVSPropertyOp22
 70
     1
102
RTVSPropertyOp23
 70
     1
102
RTVSPropertyOp24
 70
     1
102
RTVSPropertyOp25
 70
     1
102
RTVSPropertyOp26
 70
     1
102
RTVSPropertyOp27
 70
     1
102
RTVSPropertyOp28
 70
     1
102
RTVSPropertyOp29
 70
     1
102
RTVSPropertyOp30
 70
     1
102
RTVSPropertyOp31
 70
     1
102
RTVSPropertyOp32
 70
     1
102
RTVSPropertyOp33
 70
     1
102
RTVSPropertyOp34
 70
     1
102
RTVSPropertyOp35
 70
     1
102
RTVSPropertyOp36
 70
     1
102
RTVSPropertyOp37
 70
     1
102
RTVSPropertyOp38
 70
     1
102
RTVSPropertyOp39
 70
     1
102
RTVSPropertyOp40
 70
     1
102
RTVSPropertyOp41
 70
     1
102
RTVSPropertyOp42
 70
     1
102
RTVSPropertyOp43
 70
     1
102
RTVSPropertyOp44
 70
     1
102
RTVSPropertyOp45
 70
     1
102
RTVSPropertyOp46
 70
     1
102
RTVSPropertyOp47
 70
     1
102
RTVSPropertyOp48
 70
     1
102
RTVSPropertyOp49
 70
     1
102
RTVSPropertyOp50
 70
     1
102
RTVSPropertyOp51
 70
     0
102
RTVSPropertyOp52
 70
     0
102
RTVSPropertyOp53
 70
     1
102
RTVSPropertyOp54
 70
     1
102
RTVSPropertyOp55
 70
     1
102
RTVSPropertyOp56
 70
     1
102
RTVSPropertyOp57
 70
     1
102
RTVSPropertyOp58
 70
     1
102
RTVSPropertyOp59
 70
     1
102
RTVSPropertyOp60
 70
     1
102
RTVSPropertyOp61
 70
     1
102
RTVSPropertyOp62
 70
     1
  0
XRECORD
  5
367
102
{ACAD_REACTORS
330
366
102
}
330
366
100
AcDbXrecord
280
     1
102
RTVSPost2010Prop28
280
     0
102
RTVSPost2010PropOp28
 70
     1
102
RTVSPost2010Prop29
280
     1
102
RTVSPost2010PropOp29
 70
     1
102
RTVSPost2010Prop30
280
     1
102
RTVSPost2010PropOp30
 70
     1
102
RTVSPost2010Prop31
280
     0
102
RTVSPost2010PropOp31
 70
     1
102
RTVSPost2010Prop32
280
     0
102
RTVSPost2010PropOp32
 70
     1
102
RTVSPost2010Prop33
280
     0
102
RTVSPost2010PropOp33
 70
     1
102
RTVSPost2010Prop34
280
     0
102
RTVSPost2010PropOp34
 70
     1
102
RTVSPost2010Prop35
280
     0
102
RTVSPost2010PropOp35
 70
     1
102
RTVSPost2010Prop36
280
     0
102
RTVSPost2010PropOp36
 70
     1
102
RTVSPost2010Prop37
 90
       50
102
RTVSPost2010PropOp37
 70
     1
102
RTVSPost2010Prop38
140
0.0
102
RTVSPost2010PropOp38
 70
     1
102
RTVSPost2010Prop39
140
1.0
102
RTVSPost2010PropOp39
 70
     1
102
RTVSPost2010Prop40
 90
        0
102
RTVSPost2010PropOp40
 70
     1
102
RTVSPost2010Prop41ColorIndex
 90
       18
102
RTVSPost2010Prop41ColorRGB
 90
        0
102
RTVSPost2010PropOp41
 70
     1
102
RTVSPost2010Prop42
 90
       50
102
RTVSPost2010PropOp42
 70
     1
102
RTVSPost2010Prop43
 90
        3
102
RTVSPost2010PropOp43
 70
     1
102
RTVSPost2010Prop44ColorIndex
 90
        5
102
RTVSPost2010Prop44ColorRGB
 90
      255
102
RTVSPost2010PropOp44
 70
     1
102
RTVSPost2010Prop45
280
     0
102
RTVSPost2010PropOp45
 70
     1
102
RTVSPost2010Prop46
 90
       50
102
RTVSPost2010PropOp46
 70
     1
102
RTVSPost2010Prop47
 90
       50
102
RTVSPost2010PropOp47
 70
     1
102
RTVSPost2010Prop48
 90
       50
102
RTVSPost2010PropOp48
 70
     1
102
RTVSPost2010Prop49
280
     0
102
RTVSPost2010PropOp49
 70
     1
102
RTVSPost2010Prop50
 90
       50
102
RTVSPost2010PropOp50
 70
     1
102
RTVSPost2010Prop51ColorIndex
 90
      256
102
RTVSPost2010Prop51ColorRGB
 90
-16777216
102
RTVSPost2010PropOp51
 70
     0
102
RTVSPost2010Prop52
140
1.0
102
RTVSPost2010PropOp52
 70
     0
102
RTVSPost2010Prop53
 90
        2
102
RTVSPost2010PropOp53
 70
     1
102
RTVSPost2010Prop54
  1
strokes_ogs.tif
102
RTVSPost2010PropOp54
 70
     1
102
RTVSPost2010Prop55
280
     0
102
RTVSPost2010PropOp55
 70
     1
102
RTVSPost2010Prop56
140
1.0
102
RTVSPost2010PropOp56
 70
     1
102
RTVSPost2010Prop57
140
1.0
102
RTVSPost2010PropOp57
 70
     1
102
RTVSPropertyOp0
 70
     1
102
RTVSPropertyOp1
 70
     1
102
RTVSPropertyOp2
 70
     1
102
RTVSPropertyOp3
 70
     1
102
RTVSPropertyOp4
 70
     1
102
RTVSPropertyOp5
 70
     1
102
RTVSPropertyOp6
 70
     1
102
RTVSPropertyOp7
 70
     1
102
RTVSPropertyOp8
 70
     1
102
RTVSPropertyOp9
 70
     1
102
RTVSPropertyOp10
 70
     1
102
RTVSPropertyOp11
 70
     1
102
RTVSPropertyOp12
 70
     1
102
RTVSPropertyOp13
 70
     1
102
RTVSPropertyOp14
 70
     1
102
RTVSPropertyOp15
 70
     1
102
RTVSPropertyOp16
 70
     1
102
RTVSPropertyOp17
 70
     1
102
RTVSPropertyOp18
 70
     1
102
RTVSPropertyOp19
 70
     1
102
RTVSPropertyOp20
 70
     1
102
RTVSPropertyOp21
 70
     1
102
RTVSPropertyOp22
 70
     1
102
RTVSPropertyOp23
 70
     1
102
RTVSPropertyOp24
 70
     1
102
RTVSPropertyOp25
 70
     1
102
RTVSPropertyOp26
 70
     1
102
RTVSPropertyOp27
 70
     1
102
RTVSPropertyOp28
 70
     1
102
RTVSPropertyOp29
 70
     1
102
RTVSPropertyOp30
 70
     1
102
RTVSPropertyOp31
 70
     1
102
RTVSPropertyOp32
 70
     1
102
RTVSPropertyOp33
 70
     1
102
RTVSPropertyOp34
 70
     1
102
RTVSPropertyOp35
 70
     1
102
RTVSPropertyOp36
 70
     1
102
RTVSPropertyOp37
 70
     1
102
RTVSPropertyOp38
 70
     1
102
RTVSPropertyOp39
 70
     1
102
RTVSPropertyOp40
 70
     1
102
RTVSPropertyOp41
 70
     1
102
RTVSPropertyOp42
 70
     1
102
RTVSPropertyOp43
 70
     1
102
RTVSPropertyOp44
 70
     1
102
RTVSPropertyOp45
 70
     1
102
RTVSPropertyOp46
 70
     1
102
RTVSPropertyOp47
 70
     1
102
RTVSPropertyOp48
 70
     1
102
RTVSPropertyOp49
 70
     1
102
RTVSPropertyOp50
 70
     1
102
RTVSPropertyOp51
 70
     0
102
RTVSPropertyOp52
 70
     0
102
RTVSPropertyOp53
 70
     1
102
RTVSPropertyOp54
 70
     1
102
RTVSPropertyOp55
 70
     1
102
RTVSPropertyOp56
 70
     1
102
RTVSPropertyOp57
 70
     1
102
RTVSPropertyOp58
 70
     1
102
RTVSPropertyOp59
 70
     1
102
RTVSPropertyOp60
 70
     1
102
RTVSPropertyOp61
 70
     1
102
RTVSPropertyOp62
 70
     1
  0
XRECORD
  5
387
102
{ACAD_REACTORS
330
386
102
}
330
386
100
AcDbXrecord
280
     1
102
RTVSPost2010Prop28
280
     0
102
RTVSPost2010PropOp28
 70
     1
102
RTVSPost2010Prop29
280
     1
102
RTVSPost2010PropOp29
 70
     1
102
RTVSPost2010Prop30
280
     1
102
RTVSPost2010PropOp30
 70
     1
102
RTVSPost2010Prop31
280
     0
102
RTVSPost2010PropOp31
 70
     1
102
RTVSPost2010Prop32
280
     0
102
RTVSPost2010PropOp32
 70
     1
102
RTVSPost2010Prop33
280
     0
102
RTVSPost2010PropOp33
 70
     1
102
RTVSPost2010Prop34
280
     0
102
RTVSPost2010PropOp34
 70
     1
102
RTVSPost2010Prop35
280
     0
102
RTVSPost2010PropOp35
 70
     1
102
RTVSPost2010Prop36
280
     0
102
RTVSPost2010PropOp36
 70
     1
102
RTVSPost2010Prop37
 90
       50
102
RTVSPost2010PropOp37
 70
     1
102
RTVSPost2010Prop38
140
0.0
102
RTVSPost2010PropOp38
 70
     1
102
RTVSPost2010Prop39
140
1.0
102
RTVSPost2010PropOp39
 70
     1
102
RTVSPost2010Prop40
 90
        0
102
RTVSPost2010PropOp40
 70
     1
102
RTVSPost2010Prop41ColorIndex
 90
       18
102
RTVSPost2010Prop41ColorRGB
 90
        0
102
RTVSPost2010PropOp41
 70
     1
102
RTVSPost2010Prop42
 90
       50
102
RTVSPost2010PropOp42
 70
     1
102
RTVSPost2010Prop43
 90
        3
102
RTVSPost2010PropOp43
 70
     1
102
RTVSPost2010Prop44ColorIndex
 90
        5
102
RTVSPost2010Prop44ColorRGB
 90
      255
102
RTVSPost2010PropOp44
 70
     1
102
RTVSPost2010Prop45
280
     0
102
RTVSPost2010PropOp45
 70
     1
102
RTVSPost2010Prop46
 90
       50
102
RTVSPost2010PropOp46
 70
     1
102
RTVSPost2010Prop47
 90
       50
102
RTVSPost2010PropOp47
 70
     1
102
RTVSPost2010Prop48
 90
       50
102
RTVSPost2010PropOp48
 70
     1
102
RTVSPost2010Prop49
280
     0
102
RTVSPost2010PropOp49
 70
     1
102
RTVSPost2010Prop50
 90
       50
102
RTVSPost2010PropOp50
 70
     1
102
RTVSPost2010Prop51ColorIndex
 90
      256
102
RTVSPost2010Prop51ColorRGB
 90
-16777216
102
RTVSPost2010PropOp51
 70
     0
102
RTVSPost2010Prop52
140
1.0
102
RTVSPost2010PropOp52
 70
     0
102
RTVSPost2010Prop53
 90
        2
102
RTVSPost2010PropOp53
 70
     1
102
RTVSPost2010Prop54
  1
strokes_ogs.tif
102
RTVSPost2010PropOp54
 70
     1
102
RTVSPost2010Prop55
280
     0
102
RTVSPost2010PropOp55
 70
     1
102
RTVSPost2010Prop56
140
1.0
102
RTVSPost2010PropOp56
 70
     1
102
RTVSPost2010Prop57
140
1.0
102
RTVSPost2010PropOp57
 70
     1
102
RTVSPropertyOp0
 70
     1
102
RTVSPropertyOp1
 70
     1
102
RTVSPropertyOp2
 70
     1
102
RTVSPropertyOp3
 70
     1
102
RTVSPropertyOp4
 70
     1
102
RTVSPropertyOp5
 70
     1
102
RTVSPropertyOp6
 70
     1
102
RTVSPropertyOp7
 70
     1
102
RTVSPropertyOp8
 70
     1
102
RTVSPropertyOp9
 70
     1
102
RTVSPropertyOp10
 70
     1
102
RTVSPropertyOp11
 70
     1
102
RTVSPropertyOp12
 70
     1
102
RTVSPropertyOp13
 70
     1
102
RTVSPropertyOp14
 70
     1
102
RTVSPropertyOp15
 70
     1
102
RTVSPropertyOp16
 70
     1
102
RTVSPropertyOp17
 70
     1
102
RTVSPropertyOp18
 70
     1
102
RTVSPropertyOp19
 70
     1
102
RTVSPropertyOp20
 70
     1
102
RTVSPropertyOp21
 70
     1
102
RTVSPropertyOp22
 70
     1
102
RTVSPropertyOp23
 70
     1
102
RTVSPropertyOp24
 70
     1
102
RTVSPropertyOp25
 70
     1
102
RTVSPropertyOp26
 70
     1
102
RTVSPropertyOp27
 70
     1
102
RTVSPropertyOp28
 70
     1
102
RTVSPropertyOp29
 70
     1
102
RTVSPropertyOp30
 70
     1
102
RTVSPropertyOp31
 70
     1
102
RTVSPropertyOp32
 70
     1
102
RTVSPropertyOp33
 70
     1
102
RTVSPropertyOp34
 70
     1
102
RTVSPropertyOp35
 70
     1
102
RTVSPropertyOp36
 70
     1
102
RTVSPropertyOp37
 70
     1
102
RTVSPropertyOp38
 70
     1
102
RTVSPropertyOp39
 70
     1
102
RTVSPropertyOp40
 70
     1
102
RTVSPropertyOp41
 70
     1
102
RTVSPropertyOp42
 70
     1
102
RTVSPropertyOp43
 70
     1
102
RTVSPropertyOp44
 70
     1
102
RTVSPropertyOp45
 70
     1
102
RTVSPropertyOp46
 70
     1
102
RTVSPropertyOp47
 70
     1
102
RTVSPropertyOp48
 70
     1
102
RTVSPropertyOp49
 70
     1
102
RTVSPropertyOp50
 70
     1
102
RTVSPropertyOp51
 70
     0
102
RTVSPropertyOp52
 70
     0
102
RTVSPropertyOp53
 70
     1
102
RTVSPropertyOp54
 70
     1
102
RTVSPropertyOp55
 70
     1
102
RTVSPropertyOp56
 70
     1
102
RTVSPropertyOp57
 70
     1
102
RTVSPropertyOp58
 70
     1
102
RTVSPropertyOp59
 70
     1
102
RTVSPropertyOp60
 70
     1
102
RTVSPropertyOp61
 70
     1
102
RTVSPropertyOp62
 70
     1
  0
ENDSEC
  0
EOF
