  0
SECTION
  2
HEADER
  9
$ACADVER
  1
AC1018
  9
$ACADMAINTVER
 70
   104
  9
$DWGCODEPAGE
  3
ANSI_1250
  9
$LASTSAVEDBY
  1
hm1535
  9
$INSBASE
 10
0.0
 20
0.0
 30
0.0
  9
$EXTMIN
 10
293.3493513333333
 20
21.404126
 30
0.0
  9
$EXTMAX
 10
587.478648
 20
405.7652486666667
 30
0.0
  9
$LIMMIN
 10
-0.5
 20
-0.5
  9
$LIMMAX
 10
5.0
 20
5.0
  9
$ORTHOMODE
 70
     0
  9
$REGENMODE
 70
     1
  9
$FILLMODE
 70
     1
  9
$QTEXTMODE
 70
     0
  9
$MIRRTEXT
 70
     1
  9
$LTSCALE
 40
1.0
  9
$ATTMODE
 70
     1
  9
$TEXTSIZE
 40
0.2
  9
$TRACEWID
 40
0.05
  9
$TEXTSTYLE
  7
Standard
  9
$CLAYER
  8
0
  9
$CELTYPE
  6
ByLayer
  9
$CECOLOR
 62
   256
  9
$CELTSCALE
 40
1.0
  9
$DISPSILH
 70
     0
  9
$DIMSCALE
 40
1.0
  9
$DIMASZ
 40
0.18
  9
$DIMEXO
 40
0.0625
  9
$DIMDLI
 40
0.38
  9
$DIMRND
 40
0.0
  9
$DIMDLE
 40
0.0
  9
$DIMEXE
 40
0.18
  9
$DIMTP
 40
0.0
  9
$DIMTM
 40
0.0
  9
$DIMTXT
 40
0.18
  9
$DIMCEN
 40
0.09
  9
$DIMTSZ
 40
0.0
  9
$DIMTOL
 70
     0
  9
$DIMLIM
 70
     0
  9
$DIMTIH
 70
     1
  9
$DIMTOH
 70
     1
  9
$DIMSE1
 70
     0
  9
$DIMSE2
 70
     0
  9
$DIMTAD
 70
     0
  9
$DIMZIN
 70
     0
  9
$DIMBLK
  1

  9
$DIMASO
 70
     1
  9
$DIMSHO
 70
     1
  9
$DIMPOST
  1

  9
$DIMAPOST
  1

  9
$DIMALT
 70
     0
  9
$DIMALTD
 70
     2
  9
$DIMALTF
 40
25.4
  9
$DIMLFAC
 40
1.0
  9
$DIMTOFL
 70
     0
  9
$DIMTVP
 40
0.0
  9
$DIMTIX
 70
     0
  9
$DIMSOXD
 70
     0
  9
$DIMSAH
 70
     0
  9
$DIMBLK1
  1

  9
$DIMBLK2
  1

  9
$DIMSTYLE
  2
Standard
  9
$DIMCLRD
 70
     0
  9
$DIMCLRE
 70
     0
  9
$DIMCLRT
 70
     0
  9
$DIMTFAC
 40
1.0
  9
$DIMGAP
 40
0.09
  9
$DIMJUST
 70
     0
  9
$DIMSD1
 70
     0
  9
$DIMSD2
 70
     0
  9
$DIMTOLJ
 70
     1
  9
$DIMTZIN
 70
     0
  9
$DIMALTZ
 70
     0
  9
$DIMALTTZ
 70
     0
  9
$DIMUPT
 70
     0
  9
$DIMDEC
 70
     4
  9
$DIMTDEC
 70
     4
  9
$DIMALTU
 70
     2
  9
$DIMALTTD
 70
     2
  9
$DIMTXSTY
  7
Standard
  9
$DIMAUNIT
 70
     0
  9
$DIMADEC
 70
     0
  9
$DIMALTRND
 40
0.0
  9
$DIMAZIN
 70
     0
  9
$DIMDSEP
 70
    46
  9
$DIMATFIT
 70
     3
  9
$DIMFRAC
 70
     0
  9
$DIMLDRBLK
  1

  9
$DIMLUNIT
 70
     2
  9
$DIMLWD
 70
    -2
  9
$DIMLWE
 70
    -2
  9
$DIMTMOVE
 70
     0
  9
$LUNITS
 70
     2
  9
$LUPREC
 70
     2
  9
$SKETCHINC
 40
0.1
  9
$FILLETRAD
 40
0.5
  9
$AUNITS
 70
     0
  9
$AUPREC
 70
     0
  9
$MENU
  1
.
  9
$ELEVATION
 40
0.0
  9
$PELEVATION
 40
0.0
  9
$THICKNESS
 40
0.0
  9
$LIMCHECK
 70
     0
  9
$CHAMFERA
 40
0.0
  9
$CHAMFERB
 40
0.0
  9
$CHAMFERC
 40
0.0
  9
$CHAMFERD
 40
0.0
  9
$SKPOLY
 70
     0
  9
$TDCREATE
 40
2458870.511203704
  9
$TDUCREATE
 40
2458870.469537442
  9
$TDUPDATE
 40
2458870.512303241
  9
$TDUUPDATE
 40
2458870.470636574
  9
$TDINDWG
 40
0.0010069560
  9
$TDUSRTIMER
 40
0.0010069560
  9
$USRTIMER
 70
     1
  9
$ANGBASE
 50
0.0
  9
$ANGDIR
 70
     0
  9
$PDMODE
 70
     0
  9
$PDSIZE
 40
0.0
  9
$PLINEWID
 40
0.0
  9
$SPLFRAME
 70
     0
  9
$SPLINETYPE
 70
     6
  9
$SPLINESEGS
 70
     8
  9
$HANDSEED
  5
3C9
  9
$SURFTAB1
 70
     6
  9
$SURFTAB2
 70
     6
  9
$SURFTYPE
 70
     6
  9
$SURFU
 70
     6
  9
$SURFV
 70
     6
  9
$UCSBASE
  2

  9
$UCSNAME
  2

  9
$UCSORG
 10
322.174849
 20
366.008075
 30
0.0
  9
$UCSXDIR
 10
1.0
 20
0.0
 30
0.0
  9
$UCSYDIR
 10
0.0
 20
1.0
 30
0.0
  9
$UCSORTHOREF
  2

  9
$UCSORTHOVIEW
 70
     0
  9
$UCSORGTOP
 10
0.0
 20
0.0
 30
0.0
  9
$UCSORGBOTTOM
 10
0.0
 20
0.0
 30
0.0
  9
$UCSORGLEFT
 10
0.0
 20
0.0
 30
0.0
  9
$UCSORGRIGHT
 10
0.0
 20
0.0
 30
0.0
  9
$UCSORGFRONT
 10
0.0
 20
0.0
 30
0.0
  9
$UCSORGBACK
 10
0.0
 20
0.0
 30
0.0
  9
$PUCSBASE
  2

  9
$PUCSNAME
  2

  9
$PUCSORG
 10
0.0
 20
0.0
 30
0.0
  9
$PUCSXDIR
 10
1.0
 20
0.0
 30
0.0
  9
$PUCSYDIR
 10
0.0
 20
1.0
 30
0.0
  9
$PUCSORTHOREF
  2

  9
$PUCSORTHOVIEW
 70
     0
  9
$PUCSORGTOP
 10
0.0
 20
0.0
 30
0.0
  9
$PUCSORGBOTTOM
 10
0.0
 20
0.0
 30
0.0
  9
$PUCSORGLEFT
 10
0.0
 20
0.0
 30
0.0
  9
$PUCSORGRIGHT
 10
0.0
 20
0.0
 30
0.0
  9
$PUCSORGFRONT
 10
0.0
 20
0.0
 30
0.0
  9
$PUCSORGBACK
 10
0.0
 20
0.0
 30
0.0
  9
$USERI1
 70
     0
  9
$USERI2
 70
     0
  9
$USERI3
 70
     0
  9
$USERI4
 70
     0
  9
$USERI5
 70
     0
  9
$USERR1
 40
0.0
  9
$USERR2
 40
0.0
  9
$USERR3
 40
0.0
  9
$USERR4
 40
0.0
  9
$USERR5
 40
0.0
  9
$WORLDVIEW
 70
     1
  9
$SHADEDGE
 70
     3
  9
$SHADEDIF
 70
    70
  9
$TILEMODE
 70
     1
  9
$MAXACTVP
 70
    64
  9
$PINSBASE
 10
0.0
 20
0.0
 30
0.0
  9
$PLIMCHECK
 70
     0
  9
$PEXTMIN
 10
-0.5
 20
-0.5
 30
-0.5
  9
$PEXTMAX
 10
5.0
 20
5.0
 30
5.0
  9
$PLIMMIN
 10
-0.5
 20
-0.5
  9
$PLIMMAX
 10
5.0
 20
5.0
  9
$UNITMODE
 70
     0
  9
$VISRETAIN
 70
     1
  9
$PLINEGEN
 70
     0
  9
$PSLTSCALE
 70
     1
  9
$TREEDEPTH
 70
  3020
  9
$CMLSTYLE
  2
Standard
  9
$CMLJUST
 70
     0
  9
$CMLSCALE
 40
1.0
  9
$PROXYGRAPHICS
 70
     1
  9
$MEASUREMENT
 70
     1
  9
$CELWEIGHT
370
    13
  9
$ENDCAPS
280
     0
  9
$JOINSTYLE
280
     0
  9
$LWDISPLAY
290
     0
  9
$INSUNITS
 70
     4
  9
$HYPERLINKBASE
  1

  9
$STYLESHEET
  1

  9
$XEDIT
290
     1
  9
$CEPSNTYPE
380
     0
  9
$PSTYLEMODE
290
     1
  9
$FINGERPRINTGUID
  2
{22775A43-1ED1-47B1-BB7B-7324636CDE86}
  9
$VERSIONGUID
  2
{FCA36856-8686-CD4B-A07D-7B7DF3C828E5}
  9
$EXTNAMES
290
     1
  9
$PSVPSCALE
 40
0.0
  9
$OLESTARTUP
290
     0
  9
$SORTENTS
280
   127
  9
$INDEXCTL
280
     0
  9
$HIDETEXT
280
     1
  9
$XCLIPFRAME
290
     0
  9
$HALOGAP
280
     0
  9
$OBSCOLOR
 70
   257
  9
$OBSLTYPE
280
     0
  9
$INTERSECTIONDISPLAY
280
     0
  9
$INTERSECTIONCOLOR
 70
   257
  9
$DIMASSOC
280
     2
  9
$PROJECTNAME
  1

  0
ENDSEC
  0
SECTION
  2
CLASSES
  0
CLASS
  1
ACDBDICTIONARYWDFLT
  2
AcDbDictionaryWithDefault
  3
ObjectDBX Classes
 90
        0
 91
        1
280
     0
281
     0
  0
CLASS
  1
VISUALSTYLE
  2
AcDbVisualStyle
  3
ObjectDBX Classes
 90
     4095
 91
       24
280
     0
281
     0
  0
CLASS
  1
MATERIAL
  2
AcDbMaterial
  3
ObjectDBX Classes
 90
     1153
 91
        3
280
     0
281
     0
  0
CLASS
  1
SCALE
  2
AcDbScale
  3
ObjectDBX Classes
 90
     1153
 91
       33
280
     0
281
     0
  0
CLASS
  1
TABLESTYLE
  2
AcDbTableStyle
  3
ObjectDBX Classes
 90
     4095
 91
        1
280
     0
281
     0
  0
CLASS
  1
MLEADERSTYLE
  2
AcDbMLeaderStyle
  3
ACDB_MLEADERSTYLE_CLASS
 90
     4095
 91
        1
280
     0
281
     0
  0
CLASS
  1
SUN
  2
AcDbSun
  3
SCENEOE
 90
     1153
 91
        0
280
     0
281
     0
  0
CLASS
  1
IMAGEDEF
  2
AcDbRasterImageDef
  3
ISM
 90
        0
 91
        1
280
     0
281
     0
  0
CLASS
  1
IMAGE
  2
AcDbRasterImage
  3
ISM
 90
     2175
 91
        1
280
     0
281
     1
  0
CLASS
  1
IMAGEDEF_REACTOR
  2
AcDbRasterImageDefReactor
  3
ISM
 90
        1
 91
        1
280
     0
281
     0
  0
CLASS
  1
DIMASSOC
  2
AcDbDimAssoc
  3
"AcDbDimAssoc|Product Desc:     AcDim ARX App For Dimension|Company:          Autodesk, Inc.|WEB Address:      www.autodesk.com"
 90
        0
 91
        6
280
     0
281
     0
  0
CLASS
  1
DICTIONARYVAR
  2
AcDbDictionaryVar
  3
ObjectDBX Classes
 90
        0
 91
        8
280
     0
281
     0
  0
CLASS
  1
CELLSTYLEMAP
  2
AcDbCellStyleMap
  3
ObjectDBX Classes
 90
     1152
 91
        2
280
     0
281
     0
  0
CLASS
  1
ACDBSECTIONVIEWSTYLE
  2
AcDbSectionViewStyle
  3
ObjectDBX Classes
 90
     1025
 91
        2
280
     0
281
     0
  0
CLASS
  1
ACDBDETAILVIEWSTYLE
  2
AcDbDetailViewStyle
  3
ObjectDBX Classes
 90
     1025
 91
        2
280
     0
281
     0
  0
CLASS
  1
RASTERVARIABLES
  2
AcDbRasterVariables
  3
ISM
 90
        0
 91
        1
280
     0
281
     0
  0
CLASS
  1
AMGSETTINGSOBJ
  2
AmgSettingsObj
  3
"AcadM|Product Description: AutoCAD Mechanical|Company: Autodesk, Inc."
 90
     1024
 91
        2
280
     0
281
     0
  0
CLASS
  1
ACME_DOCUMENT
  2
AcMeDbDoc
  3
AcMeServices
 90
     1024
 91
        1
280
     0
281
     0
  0
CLASS
  1
ACMESCOPE
  2
AcMeScope
  3
AcMeServices
 90
     1024
 91
        1
280
     0
281
     0
  0
CLASS
  1
ACMECOMMANDHISTORY
  2
AcMeCommandHistory
  3
AcMeServices
 90
     1024
 91
        1
280
     0
281
     0
  0
CLASS
  1
ACIMSYSVARMAN
  2
AcImSysVarManager
  3
AcMeServices
 90
     1024
 91
        3
280
     0
281
     0
  0
CLASS
  1
ACIMINTSYSVAR
  2
AcImIntSysVar
  3
AcMeServices
 90
     1024
 91
        2
280
     0
281
     0
  0
CLASS
  1
ACMESTATEMGR
  2
AcMeStateMgr
  3
AcMeServices
 90
     1024
 91
        1
280
     0
281
     0
  0
CLASS
  1
ACDBENTITYCACHE
  2
AcMeEntityCache
  3
AcMeServices
 90
     1024
 91
        1
280
     0
281
     0
  0
CLASS
  1
ACGREFMASTER
  2
AcGrefMaster
  3
AcAttribServices
 90
     1024
 91
        1
280
     0
281
     0
  0
CLASS
  1
ACME_DATABASE
  2
AcMeDbDatabase
  3
AcMeServices
 90
     1024
 91
        1
280
     0
281
     0
  0
CLASS
  1
ACRFINSADJUSTERMGR
  2
AcRfInsAdjusterMgr
  3
AcMeServices
 90
     1024
 91
        1
280
     0
281
     0
  0
CLASS
  1
ACGREFACADMASTER
  2
AcGrefacadMaster
  3
AcGrefServices
 90
     1024
 91
        1
280
     0
281
     0
  0
CLASS
  1
AMIMASTER
  2
AmiMaster
  3
AmiServices
 90
     1024
 91
        1
280
     0
281
     0
  0
CLASS
  1
AMDTMENUSTATEMGR
  2
AmdtMenuStateMgr
  3
McadcomServices
 90
     1024
 91
        1
280
     0
281
     0
  0
CLASS
  1
AMDTMCOMMENUSTATE
  2
AmdtMcomMenuState
  3
McadcomServices
 90
     1024
 91
        1
280
     0
281
     0
  0
CLASS
  1
MAPIAMMOUDLE
  2
MApiAmModule
  3
MApiAmServices
 90
     1024
 91
        1
280
     0
281
     0
  0
CLASS
  1
ACIMSTRSYSVAR
  2
AcImStrSysVar
  3
AcMeServices
 90
     1024
 91
        5
280
     0
281
     0
  0
CLASS
  1
AMDTAMMENUSTATE
  2
AmdtAmMenuState
  3
DesignerAssemblies_arx
 90
     1024
 91
        1
280
     0
281
     0
  0
CLASS
  1
ACAMPROJECT
  2
AcAmProject
  3
DesignerAssemblies
 90
     1024
 91
        1
280
     0
281
     0
  0
CLASS
  1
ACAMGRCOMPDEF
  2
AcAmGrCompDef
  3
DesignerAssemblies
 90
     1024
 91
        1
280
     0
281
     0
  0
CLASS
  1
ACAMCOMPDEF
  2
AcAmCompDef
  3
DesignerAssemblies
 90
     1024
 91
        1
280
     0
281
     0
  0
CLASS
  1
ACAMCOMPDEFMGR
  2
AcAmCompDefMgr
  3
DesignerAssemblies
 90
     1024
 91
        1
280
     0
281
     0
  0
CLASS
  1
AMCONTEXTMGR
  2
AcAmContextMgr
  3
DesignerAssemblies
 90
     1024
 91
        1
280
     0
281
     0
  0
CLASS
  1
ACAMCONTEXTMODELER
  2
AcAmContextModeler
  3
DesignerAssemblies
 90
     1024
 91
        1
280
     0
281
     0
  0
CLASS
  1
ACMDATADICTIONARY
  2
AcmDataDictionary
  3
"AcmSymBB|Product Description: AutoCAD Mechanical|Company: Autodesk, Inc."
 90
     1024
 91
        1
280
     0
281
     0
  0
CLASS
  1
ACAMGRCOMPDEFSET
  2
AcAmGrCompDefSet
  3
DesignerAssemblies
 90
     1024
 91
        1
280
     0
281
     0
  0
CLASS
  1
AMDTBROWSERDBTAB
  2
AmdtBrowserDbTab
  3
McadcomServices
 90
     1024
 91
        1
280
     0
281
     0
  0
CLASS
  1
CBROWSERAPPOBJECT
  2
CBrowserAppObject
  3
McadcomServices
 90
     1024
 91
        2
280
     0
281
     0
  0
CLASS
  1
DM_PLACEHOLDER
  2
AcDmSelsetPlaceholder
  3
McadcomServices
 90
     1024
 91
        1
280
     0
281
     0
  0
CLASS
  1
ACMSTANDARDISO
  2
AcmStandardISO
  3
"Amdt_StdImp|Product Description: AutoCAD Mechanical|Company: Autodesk, Inc."
 90
     1024
 91
        1
280
     0
281
     0
  0
CLASS
  1
AMDTEDGESTANDARDISO13715
  2
AmdtEdgeStdISO13715
  3
"Amdt_StdImp|Product Description: AutoCAD Mechanical|Company: Autodesk, Inc."
 90
     1024
 91
        1
280
     0
281
     0
  0
CLASS
  1
ACMSURFSTANDARDISO2002
  2
AcmSurfTextStdISO2002
  3
"Amdt_StdImp|Product Description: AutoCAD Mechanical|Company: Autodesk, Inc."
 90
     1024
 91
        1
280
     0
281
     0
  0
CLASS
  1
ACMFCFSTANDARDISO2012
  2
AcmFCFStdISO2012
  3
"Amdt_StdImp|Product Description: AutoCAD Mechanical|Company: Autodesk, Inc."
 90
     1024
 91
        1
280
     0
281
     0
  0
CLASS
  1
ACMWELDSTANDARDISO
  2
AcmWeldingStdISO
  3
"Amdt_StdImp|Product Description: AutoCAD Mechanical|Company: Autodesk, Inc."
 90
     1024
 91
        1
280
     0
281
     0
  0
CLASS
  1
ACMIDSTANDARDISO2012
  2
AcmIdStdISO2012
  3
"Amdt_StdImp|Product Description: AutoCAD Mechanical|Company: Autodesk, Inc."
 90
     1024
 91
        1
280
     0
281
     0
  0
CLASS
  1
ACMDATUMSTANDARDISO2012
  2
AcmDatumStdISO2012
  3
"Amdt_StdImp|Product Description: AutoCAD Mechanical|Company: Autodesk, Inc."
 90
     1024
 91
        1
280
     0
281
     0
  0
CLASS
  1
ACMBOMSTANDARDISO
  2
AcmBOMStdISO
  3
"Amdt_StdImp|Product Description: AutoCAD Mechanical|Company: Autodesk, Inc."
 90
     1024
 91
        1
280
     0
281
     0
  0
CLASS
  1
ACMDETAILSTANDARDISO
  2
AmdtDetailSymStdISO
  3
"Amdt_StdImp|Product Description: AutoCAD Mechanical|Company: Autodesk, Inc."
 90
     1024
 91
        1
280
     0
281
     0
  0
CLASS
  1
ACMSECTIONSTANDARDISO2001
  2
AmdtSectionSymStdISO2001
  3
"Amdt_StdImp|Product Description: AutoCAD Mechanical|Company: Autodesk, Inc."
 90
     1024
 91
        1
280
     0
281
     0
  0
CLASS
  1
ACMCENTERLINESTANDARDISO
  2
AmdtCenterLineStdISO
  3
"Amdt_StdImp|Product Description: AutoCAD Mechanical|Company: Autodesk, Inc."
 90
     1024
 91
        1
280
     0
281
     0
  0
CLASS
  1
ACMTHREADLINESTANDARDISO
  2
AmdtThreadLineStdISO
  3
"Amdt_StdImp|Product Description: AutoCAD Mechanical|Company: Autodesk, Inc."
 90
     1024
 91
        1
280
     0
281
     0
  0
CLASS
  1
ACMNOTESTANDARDISO
  2
AmdtNoteStdISO
  3
"Amdt_StdImp|Product Description: AutoCAD Mechanical|Company: Autodesk, Inc."
 90
     1024
 91
        1
280
     0
281
     0
  0
CLASS
  1
ACMTAPERSTANDARDISO
  2
AcmTaperStdISO
  3
"Amdt_StdImp|Product Description: AutoCAD Mechanical|Company: Autodesk, Inc."
 90
     1024
 91
        1
280
     0
281
     0
  0
CLASS
  1
ACMANOOTATIONVIEWSTANDARDISO
  2
AmdtAnViewStdISO
  3
"Amdt_StdImp|Product Description: AutoCAD Mechanical|Company: Autodesk, Inc."
 90
     1024
 91
        1
280
     0
281
     0
  0
CLASS
  1
ACAMGLAYSTD
  2
AcAmgLayStd
  3
"AmgLay|Product Description: AutoCAD Mechanical|Company: Autodesk, Inc."
 90
     1024
 91
        1
280
     0
281
     0
  0
CLASS
  1
ACAMGTITLESTD
  2
AcAmgTitleStd
  3
"AmgTitle|Product Description: AutoCAD Mechanical|Company: Autodesk, Inc."
 90
     1024
 91
        1
280
     0
281
     0
  0
CLASS
  1
ACAMGDIMSTD
  2
AcAmgDimStd
  3
"AmgDim|Product Description: AutoCAD Mechanical|Company: Autodesk, Inc."
 90
     1024
 91
        1
280
     0
281
     0
  0
CLASS
  1
AMGOBJPROPCFG
  2
AmgObjPropCfg
  3
"AmgLay|Product Description: AutoCAD Mechanical|Company: Autodesk, Inc."
 90
     1024
 91
        1
280
     0
281
     0
  0
CLASS
  1
ACAMGHOLECHARTSTDISO
  2
AcAmgHoleChartStdISO
  3
"AmgDim" "Product Description: AutoCAD Mechanical|Company: Autodesk, Inc."
 90
     1024
 91
        1
280
     0
281
     0
  0
CLASS
  1
ACMSECTIONSTANDARDCUSTOM
  2
AmdtSectionSymStdCustom
  3
"Amdt_StdImp|Product Description: AutoCAD Mechanical|Company: Autodesk, Inc."
 90
     1024
 91
        1
280
     0
281
     0
  0
CLASS
  1
ACMDETAILTANDARDCUSTOM
  2
AmdtDetailSymStdCustom
  3
"Amdt_StdImp|Product Description: AutoCAD Mechanical|Company: Autodesk, Inc."
 90
     1024
 91
        1
280
     0
281
     0
  0
CLASS
  1
FIELD
  2
AcDbField
  3
ObjectDBX Classes
 90
     1152
 91
        3
280
     0
281
     0
  0
CLASS
  1
FIELDLIST
  2
AcDbFieldList
  3
ObjectDBX Classes
 90
     1152
 91
        1
280
     0
281
     0
  0
CLASS
  1
AMDTNOTETEMPLATEDB
  2
AmdtNoteTemplateDB
  3
"AcmSymBB" "Product Description: AutoCAD Mechanical|Company: Autodesk, Inc."
 90
     1024
 91
        7
280
     0
281
     0
  0
CLASS
  1
ACAMGFILTERDAT
  2
AcAmgFilterDat
  3
"AcadM|Product Description: AutoCAD Mechanical|Company: Autodesk, Inc."
 90
     1024
 91
        6
280
     0
281
     0
  0
CLASS
  1
SORTENTSTABLE
  2
AcDbSortentsTable
  3
ObjectDBX Classes
 90
        0
 91
        1
280
     0
281
     0
  0
ENDSEC
  0
SECTION
  2
TABLES
  0
TABLE
  2
VPORT
  5
8
330
0
100
AcDbSymbolTable
 70
    16
  0
VPORT
  5
29
330
8
100
AcDbSymbolTableRecord
100
AcDbViewportTableRecord
  2
*Active
 70
     0
 10
0.0
 20
0.0
 11
1.0
 21
1.0
 12
421.7180202281923
 22
405.2370912322668
 13
0.0
 23
0.0
 14
0.5
 24
0.5
 15
0.5
 25
0.5
 16
0.0
 26
0.0
 36
1.0
 17
0.0
 27
0.0
 37
0.0
 40
204.1510369515552
 41
2.292712066905615
 42
50.0
 43
716.146678
 44
-716.146678
 50
0.0
 51
0.0
 71
     0
 72
   100
 73
     1
 74
     3
 75
     0
 76
     0
 77
     0
 78
     0
281
     0
 65
     0
110
0.0
120
0.0
130
0.0
111
1.0
121
0.0
131
0.0
112
0.0
122
1.0
132
0.0
 79
     0
146
0.0
1001
ACAD_NAV_VCDISPLAY
1070
     3
  0
VPORT
  5
24F
330
8
100
AcDbSymbolTableRecord
100
AcDbViewportTableRecord
  2
L1
 70
     0
 10
0.0
 20
0.0
 11
1.0
 21
1.0
 12
440.23792
 22
213.58927
 13
0.0
 23
0.0
 14
0.5
 24
0.5
 15
0.5
 25
0.5
 16
0.0
 26
0.0
 36
1.0
 17
0.0
 27
0.0
 37
0.0
 40
207.433333
 41
0.085602
 42
50.0
 43
716.146678
 44
-716.146678
 50
0.0
 51
0.0
 71
     0
 72
   100
 73
     1
 74
     3
 75
     0
 76
     0
 77
     0
 78
     0
281
     0
 65
     1
110
0.0
120
0.0
130
0.0
111
1.0
121
0.0
131
0.0
112
0.0
122
1.0
132
0.0
 79
     0
146
0.0
  0
VPORT
  5
250
330
8
100
AcDbSymbolTableRecord
100
AcDbViewportTableRecord
  2
L2
 70
     0
 10
0.0
 20
0.0
 11
0.5
 21
1.0
 12
0.0
 22
0.0
 13
0.0
 23
0.0
 14
0.5
 24
0.5
 15
0.5
 25
0.5
 16
0.0
 26
-1.0
 36
0.0
 17
0.0
 27
0.0
 37
0.0
 40
1478.660809
 41
0.012009
 42
50.0
 43
765.39502
 44
-765.39502
 50
0.0
 51
0.0
 71
     0
 72
   100
 73
     1
 74
     3
 75
     0
 76
     0
 77
     0
 78
     0
281
     0
 65
     1
110
0.0
120
0.0
130
0.0
111
1.0
121
0.0
131
0.0
112
0.0
122
1.0
132
0.0
 79
     0
146
0.0
  0
VPORT
  5
251
330
8
100
AcDbSymbolTableRecord
100
AcDbViewportTableRecord
  2
L2
 70
     0
 10
0.5
 20
0.0
 11
1.0
 21
1.0
 12
0.0
 22
0.0
 13
0.0
 23
0.0
 14
0.5
 24
0.5
 15
0.5
 25
0.5
 16
1.0
 26
0.0
 36
0.0
 17
0.0
 27
0.0
 37
0.0
 40
1478.660809
 41
0.012009
 42
50.0
 43
746.5698859999999
 44
-746.5698859999999
 50
0.0
 51
0.0
 71
     0
 72
   100
 73
     1
 74
     3
 75
     0
 76
     0
 77
     0
 78
     0
281
     0
 65
     1
110
0.0
120
0.0
130
0.0
111
1.0
121
0.0
131
0.0
112
0.0
122
1.0
132
0.0
 79
     0
146
0.0
  0
VPORT
  5
252
330
8
100
AcDbSymbolTableRecord
100
AcDbViewportTableRecord
  2
L3
 70
     0
 10
0.0
 20
0.5
 11
1.0
 21
1.0
 12
440.23792
 22
213.58927
 13
0.0
 23
0.0
 14
0.5
 24
0.5
 15
0.5
 25
0.5
 16
0.0
 26
0.0
 36
1.0
 17
0.0
 27
0.0
 37
0.0
 40
207.433333
 41
0.085602
 42
50.0
 43
716.146678
 44
-716.146678
 50
0.0
 51
0.0
 71
     0
 72
   100
 73
     1
 74
     3
 75
     0
 76
     0
 77
     0
 78
     0
281
     0
 65
     1
110
0.0
120
0.0
130
0.0
111
1.0
121
0.0
131
0.0
112
0.0
122
1.0
132
0.0
 79
     0
146
0.0
  0
VPORT
  5
253
330
8
100
AcDbSymbolTableRecord
100
AcDbViewportTableRecord
  2
L3
 70
     0
 10
0.0
 20
0.0
 11
1.0
 21
0.5
 12
0.0
 22
0.0
 13
0.0
 23
0.0
 14
0.5
 24
0.5
 15
0.5
 25
0.5
 16
0.0
 26
-1.0
 36
0.0
 17
0.0
 27
0.0
 37
0.0
 40
1478.660809
 41
0.012009
 42
50.0
 43
765.39502
 44
-765.39502
 50
0.0
 51
0.0
 71
     0
 72
   100
 73
     1
 74
     3
 75
     0
 76
     0
 77
     0
 78
     0
281
     0
 65
     1
110
0.0
120
0.0
130
0.0
111
1.0
121
0.0
131
0.0
112
0.0
122
1.0
132
0.0
 79
     0
146
0.0
  0
VPORT
  5
254
330
8
100
AcDbSymbolTableRecord
100
AcDbViewportTableRecord
  2
L4
 70
     0
 10
0.0
 20
0.5
 11
0.5
 21
1.0
 12
440.23792
 22
213.58927
 13
0.0
 23
0.0
 14
0.5
 24
0.5
 15
0.5
 25
0.5
 16
0.0
 26
0.0
 36
1.0
 17
0.0
 27
0.0
 37
0.0
 40
207.433333
 41
0.085602
 42
50.0
 43
716.146678
 44
-716.146678
 50
0.0
 51
0.0
 71
     0
 72
   100
 73
     1
 74
     3
 75
     0
 76
     0
 77
     0
 78
     0
281
     0
 65
     1
110
0.0
120
0.0
130
0.0
111
1.0
121
0.0
131
0.0
112
0.0
122
1.0
132
0.0
 79
     0
146
0.0
  0
VPORT
  5
255
330
8
100
AcDbSymbolTableRecord
100
AcDbViewportTableRecord
  2
L4
 70
     0
 10
0.0
 20
0.0
 11
0.5
 21
0.5
 12
0.0
 22
0.0
 13
0.0
 23
0.0
 14
0.5
 24
0.5
 15
0.5
 25
0.5
 16
0.0
 26
-1.0
 36
0.0
 17
0.0
 27
0.0
 37
0.0
 40
1478.660809
 41
0.012009
 42
50.0
 43
765.39502
 44
-765.39502
 50
0.0
 51
0.0
 71
     0
 72
   100
 73
     1
 74
     3
 75
     0
 76
     0
 77
     0
 78
     0
281
     0
 65
     1
110
0.0
120
0.0
130
0.0
111
1.0
121
0.0
131
0.0
112
0.0
122
1.0
132
0.0
 79
     0
146
0.0
  0
VPORT
  5
256
330
8
100
AcDbSymbolTableRecord
100
AcDbViewportTableRecord
  2
L4
 70
     0
 10
0.5
 20
0.0
 11
1.0
 21
0.5
 12
0.0
 22
0.0
 13
0.0
 23
0.0
 14
0.5
 24
0.5
 15
0.5
 25
0.5
 16
1.0
 26
0.0
 36
0.0
 17
0.0
 27
0.0
 37
0.0
 40
1478.660809
 41
0.012009
 42
50.0
 43
746.5698859999999
 44
-746.5698859999999
 50
0.0
 51
0.0
 71
     0
 72
   100
 73
     1
 74
     3
 75
     0
 76
     0
 77
     0
 78
     0
281
     0
 65
     1
110
0.0
120
0.0
130
0.0
111
1.0
121
0.0
131
0.0
112
0.0
122
1.0
132
0.0
 79
     0
146
0.0
  0
VPORT
  5
257
330
8
100
AcDbSymbolTableRecord
100
AcDbViewportTableRecord
  2
L4
 70
     0
 10
0.5
 20
0.5
 11
1.0
 21
1.0
 12
0.0
 22
0.0
 13
0.0
 23
0.0
 14
0.5
 24
0.5
 15
0.5
 25
0.5
 16
0.5773502691896259
 26
-0.5773502691896259
 36
0.5773502691896259
 17
0.0
 27
0.0
 37
0.0
 40
1453.705292
 41
0.012215
 42
50.0
 43
757.5245879999999
 44
-757.5245879999999
 50
0.0
 51
0.0
 71
     0
 72
   100
 73
     1
 74
     3
 75
     0
 76
     0
 77
     0
 78
     0
281
     0
 65
     1
110
0.0
120
0.0
130
0.0
111
1.0
121
0.0
131
0.0
112
0.0
122
1.0
132
0.0
 79
     0
146
0.0
  0
VPORT
  5
258
330
8
100
AcDbSymbolTableRecord
100
AcDbViewportTableRecord
  2
L6
 70
     0
 10
0.0
 20
0.5
 11
0.333333
 21
1.0
 12
0.0
 22
0.0
 13
0.0
 23
0.0
 14
0.5
 24
0.5
 15
0.5
 25
0.5
 16
0.7188730927569434
 26
-0.5850486126764433
 36
0.3754192287502549
 17
0.0
 27
0.0
 37
0.0
 40
1534.989881
 41
0.011568
 42
50.0
 43
794.5176169999999
 44
-794.5176169999999
 50
0.0
 51
0.0
 71
     0
 72
   100
 73
     1
 74
     3
 75
     0
 76
     0
 77
     0
 78
     0
281
     0
 65
     1
110
0.0
120
0.0
130
0.0
111
1.0
121
0.0
131
0.0
112
0.0
122
1.0
132
0.0
 79
     0
146
0.0
  0
VPORT
  5
259
330
8
100
AcDbSymbolTableRecord
100
AcDbViewportTableRecord
  2
L6
 70
     0
 10
0.0
 20
0.0
 11
0.333333
 21
0.5
 12
0.0
 22
0.0
 13
0.0
 23
0.0
 14
0.5
 24
0.5
 15
0.5
 25
0.5
 16
-1.0
 26
0.0
 36
0.0
 17
0.0
 27
0.0
 37
0.0
 40
1478.660809
 41
0.012009
 42
50.0
 43
746.5698859999999
 44
-746.5698859999999
 50
0.0
 51
0.0
 71
     0
 72
   100
 73
     1
 74
     3
 75
     0
 76
     0
 77
     0
 78
     0
281
     0
 65
     1
110
0.0
120
0.0
130
0.0
111
1.0
121
0.0
131
0.0
112
0.0
122
1.0
132
0.0
 79
     0
146
0.0
  0
VPORT
  5
25A
330
8
100
AcDbSymbolTableRecord
100
AcDbViewportTableRecord
  2
L6
 70
     0
 10
0.333333
 20
0.5
 11
0.666667
 21
1.0
 12
440.23792
 22
213.58927
 13
0.0
 23
0.0
 14
0.5
 24
0.5
 15
0.5
 25
0.5
 16
0.0
 26
0.0
 36
1.0
 17
0.0
 27
0.0
 37
0.0
 40
207.433333
 41
0.085602
 42
50.0
 43
716.146678
 44
-716.146678
 50
0.0
 51
0.0
 71
     0
 72
   100
 73
     1
 74
     3
 75
     0
 76
     0
 77
     0
 78
     0
281
     0
 65
     1
110
0.0
120
0.0
130
0.0
111
1.0
121
0.0
131
0.0
112
0.0
122
1.0
132
0.0
 79
     0
146
0.0
  0
VPORT
  5
25B
330
8
100
AcDbSymbolTableRecord
100
AcDbViewportTableRecord
  2
L6
 70
     0
 10
0.333333
 20
0.0
 11
0.666667
 21
0.5
 12
0.0
 22
0.0
 13
0.0
 23
0.0
 14
0.5
 24
0.5
 15
0.5
 25
0.5
 16
0.0
 26
-1.0
 36
0.0
 17
0.0
 27
0.0
 37
0.0
 40
1478.660809
 41
0.012009
 42
50.0
 43
765.39502
 44
-765.39502
 50
0.0
 51
0.0
 71
     0
 72
   100
 73
     1
 74
     3
 75
     0
 76
     0
 77
     0
 78
     0
281
     0
 65
     1
110
0.0
120
0.0
130
0.0
111
1.0
121
0.0
131
0.0
112
0.0
122
1.0
132
0.0
 79
     0
146
0.0
  0
VPORT
  5
25C
330
8
100
AcDbSymbolTableRecord
100
AcDbViewportTableRecord
  2
L6
 70
     0
 10
0.666667
 20
0.5
 11
1.0
 21
1.0
 12
0.0
 22
0.0
 13
0.0
 23
0.0
 14
0.5
 24
0.5
 15
0.5
 25
0.5
 16
0.5773502691896259
 26
-0.5773502691896259
 36
0.5773502691896259
 17
0.0
 27
0.0
 37
0.0
 40
1453.705292
 41
0.012215
 42
50.0
 43
757.5245879999999
 44
-757.5245879999999
 50
0.0
 51
0.0
 71
     0
 72
   100
 73
     1
 74
     3
 75
     0
 76
     0
 77
     0
 78
     0
281
     0
 65
     1
110
0.0
120
0.0
130
0.0
111
1.0
121
0.0
131
0.0
112
0.0
122
1.0
132
0.0
 79
     0
146
0.0
  0
VPORT
  5
25D
330
8
100
AcDbSymbolTableRecord
100
AcDbViewportTableRecord
  2
L6
 70
     0
 10
0.666667
 20
0.0
 11
1.0
 21
0.5
 12
0.0
 22
0.0
 13
0.0
 23
0.0
 14
0.5
 24
0.5
 15
0.5
 25
0.5
 16
1.0
 26
0.0
 36
0.0
 17
0.0
 27
0.0
 37
0.0
 40
1478.660809
 41
0.012009
 42
50.0
 43
746.5698859999999
 44
-746.5698859999999
 50
0.0
 51
0.0
 71
     0
 72
   100
 73
     1
 74
     3
 75
     0
 76
     0
 77
     0
 78
     0
281
     0
 65
     1
110
0.0
120
0.0
130
0.0
111
1.0
121
0.0
131
0.0
112
0.0
122
1.0
132
0.0
 79
     0
146
0.0
  0
ENDTAB
  0
TABLE
  2
LTYPE
  5
5
330
0
100
AcDbSymbolTable
 70
    19
  0
LTYPE
  5
14
330
5
100
AcDbSymbolTableRecord
100
AcDbLinetypeTableRecord
  2
ByBlock
 70
     0
  3

 72
    65
 73
     0
 40
0.0
  0
LTYPE
  5
15
330
5
100
AcDbSymbolTableRecord
100
AcDbLinetypeTableRecord
  2
ByLayer
 70
     0
  3

 72
    65
 73
     0
 40
0.0
  0
LTYPE
  5
16
330
5
100
AcDbSymbolTableRecord
100
AcDbLinetypeTableRecord
  2
Continuous
 70
     0
  3
Solid line
 72
    65
 73
     0
 40
0.0
  0
LTYPE
  5
6E
330
5
100
AcDbSymbolTableRecord
100
AcDbLinetypeTableRecord
  2
CENTER
 70
     0
  3
____ _ ____ _ ____ _ ____
 72
    65
 73
     4
 40
47.4
 49
22.0
 74
     4
 75
     0
340
0
 46
0.0
 50
0.0
 44
0.0
 45
0.0
 49
-8.5
 74
     4
 75
     0
340
0
 46
0.0
 50
0.0
 44
0.0
 45
0.0
 49
8.5
 74
     4
 75
     0
340
0
 46
0.0
 50
0.0
 44
0.0
 45
0.0
 49
-8.5
 74
     4
 75
     0
340
0
 46
0.0
 50
0.0
 44
0.0
 45
0.0
  0
LTYPE
  5
6F
330
5
100
AcDbSymbolTableRecord
100
AcDbLinetypeTableRecord
  2
DASHDOT
 70
     0
  3
_._._._._._._._._._._._._._._._.
 72
    65
 73
     4
 40
70.0
 49
31.0
 74
     4
 75
     0
340
0
 46
0.0
 50
0.0
 44
0.0
 45
0.0
 49
-13.0
 74
     4
 75
     0
340
0
 46
0.0
 50
0.0
 44
0.0
 45
0.0
 49
13.0
 74
     4
 75
     0
340
0
 46
0.0
 50
0.0
 44
0.0
 45
0.0
 49
-13.0
 74
     4
 75
     0
340
0
 46
0.0
 50
0.0
 44
0.0
 45
0.0
  0
LTYPE
  5
70
330
5
100
AcDbSymbolTableRecord
100
AcDbLinetypeTableRecord
  2
DASHED
 70
     0
  3
__ __ __ __ __ __ __ __ __
 72
    65
 73
     2
 40
25.72
 49
12.86
 74
     4
 75
     0
340
0
 46
0.0
 50
0.0
 44
0.0
 45
0.0
 49
-12.86
 74
     4
 75
     0
340
0
 46
0.0
 50
0.0
 44
0.0
 45
0.0
  0
LTYPE
  5
71
330
5
100
AcDbSymbolTableRecord
100
AcDbLinetypeTableRecord
  2
DOT
 70
     0
  3
.........................
 72
    65
 73
     2
 40
10.0
 49
0.0
 74
     4
 75
     0
340
0
 46
0.0
 50
0.0
 44
0.0
 45
0.0
 49
-10.0
 74
     4
 75
     0
340
0
 46
0.0
 50
0.0
 44
0.0
 45
0.0
  0
LTYPE
  5
72
330
5
100
AcDbSymbolTableRecord
100
AcDbLinetypeTableRecord
  2
PHANTOM
 70
     0
  3
____ _ _ ____ _ _ _____ _ _ ____
 72
    65
 73
     6
 40
50.5
 49
18.0
 74
     4
 75
     0
340
0
 46
0.0
 50
0.0
 44
0.0
 45
0.0
 49
-6.5
 74
     4
 75
     0
340
0
 46
0.0
 50
0.0
 44
0.0
 45
0.0
 49
6.5
 74
     4
 75
     0
340
0
 46
0.0
 50
0.0
 44
0.0
 45
0.0
 49
-6.5
 74
     4
 75
     0
340
0
 46
0.0
 50
0.0
 44
0.0
 45
0.0
 49
6.5
 74
     4
 75
     0
340
0
 46
0.0
 50
0.0
 44
0.0
 45
0.0
 49
-6.5
 74
     4
 75
     0
340
0
 46
0.0
 50
0.0
 44
0.0
 45
0.0
  0
LTYPE
  5
2BD
330
5
100
AcDbSymbolTableRecord
100
AcDbLinetypeTableRecord
  2
HIDDEN
 70
     0
  3
Hidden __ __ __ __ __ __ __ __ __ __ __ __ __ _
 72
    65
 73
     2
 40
9.524999999999998
 49
6.349999999999999
 74
     0
 49
-3.174999999999999
 74
     0
  0
LTYPE
  5
2BE
330
5
100
AcDbSymbolTableRecord
100
AcDbLinetypeTableRecord
  2
PHANTOM2
 70
     0
  3
Phantom (.5x) ___ _ _ ___ _ _ ___ _ _ ___ _ _
 72
    65
 73
     6
 40
31.75
 49
15.875
 74
     0
 49
-3.174999999999999
 74
     0
 49
3.174999999999999
 74
     0
 49
-3.174999999999999
 74
     0
 49
3.174999999999999
 74
     0
 49
-3.174999999999999
 74
     0
  0
LTYPE
  5
2F9
330
5
100
AcDbSymbolTableRecord
100
AcDbLinetypeTableRecord
  2
AM_ISO02W050
 70
     0
  3
__ __ __ __ __ __ __ __ __ __ __ __ __ __ __
 72
    65
 73
     2
 40
7.5
 49
6.0
 74
     0
 49
-1.5
 74
     0
  0
LTYPE
  5
2FA
330
5
100
AcDbSymbolTableRecord
100
AcDbLinetypeTableRecord
  2
AM_ISO08W050
 70
     0
  3
____ . ____ . ____ . ____ . ____ . ____ . ____
 72
    65
 73
     4
 40
18.0
 49
12.0
 74
     0
 49
-1.5
 74
     0
 49
3.0
 74
     0
 49
-1.5
 74
     0
  0
LTYPE
  5
2FB
330
5
100
AcDbSymbolTableRecord
100
AcDbLinetypeTableRecord
  2
AM_ISO09W050
 70
     0
  3
_____ . . _____ . . _____ . . ____ .. ____
 72
    65
 73
     6
 40
22.5
 49
12.0
 74
     0
 49
-1.5
 74
     0
 49
3.0
 74
     0
 49
-1.5
 74
     0
 49
3.0
 74
     0
 49
-1.5
 74
     0
  0
LTYPE
  5
2FC
330
5
100
AcDbSymbolTableRecord
100
AcDbLinetypeTableRecord
  2
Amconstr
 70
     0
  3
_______________________
 72
    65
 73
     2
 40
9999.0
 49
9999.0
 74
     0
 49
0.0
 74
     0
  0
LTYPE
  5
2FD
330
5
100
AcDbSymbolTableRecord
100
AcDbLinetypeTableRecord
  2
AM_ISO08W050x2
 70
     0
  3
__ . __ . __ . __ . __ . __
 72
    65
 73
     4
 40
9.0
 49
6.0
 74
     0
 49
-0.75
 74
     0
 49
1.5
 74
     0
 49
-0.75
 74
     0
  0
LTYPE
  5
2FE
330
5
100
AcDbSymbolTableRecord
100
AcDbLinetypeTableRecord
  2
AM_ISO02W050x2
 70
     0
  3
 _ _ _ _ _ _ _ _ _ _ _ _
 72
    65
 73
     2
 40
3.75
 49
3.0
 74
     0
 49
-0.75
 74
     0
  0
LTYPE
  5
301
330
5
100
AcDbSymbolTableRecord
100
AcDbLinetypeTableRecord
  2
Amzigzag
 70
     0
  3
/\/-/\/-/\/-/\/-/\/-/\/
 72
    65
 73
     2
 40
11.0001
 49
0.0001
 74
     4
 75
   136
340
300
 46
0.04
 50
0.0
 44
0.0
 45
0.0
 49
-11.0
 74
     0
  0
LTYPE
  5
311
330
5
100
AcDbSymbolTableRecord
100
AcDbLinetypeTableRecord
  2
ACISOWELD
 70
     0
  3
_ _ _ _ _
 72
    65
 73
     2
 40
2.0
 49
2.0
 74
     0
 49
-1.0
 74
     0
  0
LTYPE
  5
312
330
5
100
AcDbSymbolTableRecord
100
AcDbLinetypeTableRecord
  2
ACISOTGL
 70
     0
  3
_ _ _ _ _
 72
    65
 73
     2
 40
3.0
 49
2.0
 74
     0
 49
-1.0
 74
     0
  0
LTYPE
  5
313
330
5
100
AcDbSymbolTableRecord
100
AcDbLinetypeTableRecord
  2
ACISOTGB
 70
     0
  3
__ . . __ . .
 72
    65
 73
     6
 40
9.0
 49
4.0
 74
     0
 49
-1.0
 74
     0
 49
1.0
 74
     0
 49
-1.0
 74
     0
 49
1.0
 74
     0
 49
-1.0
 74
     0
  0
LTYPE
  5
369
330
5
100
AcDbSymbolTableRecord
100
AcDbLinetypeTableRecord
  2
CENTER2
 70
     0
  3
Center (.5x) ___ _ ___ _ ___ _ ___ _ ___ _ ___
 72
    65
 73
     4
 40
1.125
 49
0.75
 74
     0
 49
-0.125
 74
     0
 49
0.125
 74
     0
 49
-0.125
 74
     0
  0
ENDTAB
  0
TABLE
  2
LAYER
  5
2
330
0
100
AcDbSymbolTable
 70
    23
  0
LAYER
  5
10
102
{ACAD_XDICTIONARY
360
374
102
}
330
2
100
AcDbSymbolTableRecord
100
AcDbLayerTableRecord
  2
0
 70
     0
 62
     7
  6
Continuous
370
    -3
390
F
  0
LAYER
  5
76
102
{ACAD_XDICTIONARY
360
376
102
}
330
2
100
AcDbSymbolTableRecord
100
AcDbLayerTableRecord
  2
96
 70
     0
 62
     7
420
 16777215
  6
Continuous
370
    -3
390
F
  0
LAYER
  5
1C0
330
2
100
AcDbSymbolTableRecord
100
AcDbLayerTableRecord
  2
Defpoints
 70
     0
 62
     7
  6
Continuous
290
     0
370
    -3
390
F
  0
LAYER
  5
366
102
{ACAD_XDICTIONARY
360
378
102
}
330
2
100
AcDbSymbolTableRecord
100
AcDbLayerTableRecord
  2
1
 70
     0
 62
     4
  6
Continuous
370
    -3
390
F
  0
LAYER
  5
367
102
{ACAD_XDICTIONARY
360
37A
102
}
330
2
100
AcDbSymbolTableRecord
100
AcDbLayerTableRecord
  2
2
 70
     0
 62
     7
  6
Continuous
370
    -3
390
F
  0
LAYER
  5
368
102
{ACAD_XDICTIONARY
360
37C
102
}
330
2
100
AcDbSymbolTableRecord
100
AcDbLayerTableRecord
  2
4
 70
     0
 62
     2
  6
CENTER2
370
    -3
390
F
  0
LAYER
  5
36A
102
{ACAD_XDICTIONARY
360
37E
102
}
330
2
100
AcDbSymbolTableRecord
100
AcDbLayerTableRecord
  2
SK1
 70
     0
 62
     4
  6
Continuous
370
    -3
390
F
  0
LAYER
  5
36B
102
{ACAD_XDICTIONARY
360
380
102
}
330
2
100
AcDbSymbolTableRecord
100
AcDbLayerTableRecord
  2
SK2
 70
     0
 62
     7
  6
Continuous
370
    -3
390
F
  0
LAYER
  5
36D
102
{ACAD_XDICTIONARY
360
382
102
}
330
2
100
AcDbSymbolTableRecord
100
AcDbLayerTableRecord
  2
SK4
 70
     0
 62
     2
  6
CENTER2
370
    -3
390
F
  0
LAYER
  5
36E
102
{ACAD_XDICTIONARY
360
384
102
}
330
2
100
AcDbSymbolTableRecord
100
AcDbLayerTableRecord
  2
SK6
 70
     0
 62
     5
  6
Continuous
370
    -3
390
F
  0
LAYER
  5
36F
102
{ACAD_XDICTIONARY
360
386
102
}
330
2
100
AcDbSymbolTableRecord
100
AcDbLayerTableRecord
  2
CUT
 70
     0
 62
     1
  6
Continuous
370
    -3
390
F
  0
LAYER
  5
370
102
{ACAD_XDICTIONARY
360
388
102
}
330
2
100
AcDbSymbolTableRecord
100
AcDbLayerTableRecord
  2
NOCUT
 70
     0
 62
     7
  6
Continuous
370
    -3
390
F
  0
LAYER
  5
371
102
{ACAD_XDICTIONARY
360
38A
102
}
330
2
100
AcDbSymbolTableRecord
100
AcDbLayerTableRecord
  2
80
 70
     0
 62
     6
  6
Continuous
370
    -3
390
F
  0
LAYER
  5
372
102
{ACAD_XDICTIONARY
360
38C
102
}
330
2
100
AcDbSymbolTableRecord
100
AcDbLayerTableRecord
  2
81
 70
     0
 62
     3
  6
Continuous
370
    -3
390
F
  0
ENDTAB
  0
TABLE
  2
STYLE
  5
3
330
0
100
AcDbSymbolTable
 70
     6
  0
STYLE
  5
11
330
3
100
AcDbSymbolTableRecord
100
AcDbTextStyleTableRecord
  2
Standard
 70
     0
 40
0.0
 41
1.0
 50
0.0
 71
     0
 42
0.2
  3
txt
  4

  0
STYLE
  5
1B4
330
3
100
AcDbSymbolTableRecord
100
AcDbTextStyleTableRecord
  2
cesky
 70
     0
 40
0.0
 41
1.0
 50
0.0
 71
     0
 42
0.2
  3
simplex.shx
  4

  0
STYLE
  5
1B5
330
3
100
AcDbSymbolTableRecord
100
AcDbTextStyleTableRecord
  2
DWGDirectTextStyle
 70
     0
 40
0.0
 41
1.0
 50
0.0
 71
     0
 42
0.2
  3
simplex
  4

  0
STYLE
  5
300
330
3
100
AcDbSymbolTableRecord
100
AcDbTextStyleTableRecord
  2

 70
     1
 40
0.0
 41
1.0
 50
0.0
 71
     0
 42
0.2
  3
genltshp.shx
  4

  0
STYLE
  5
30F
330
3
100
AcDbSymbolTableRecord
100
AcDbTextStyleTableRecord
  2
ACISOTS
 70
     0
 40
0.0
 41
1.0
 50
0.0
 71
     0
 42
0.2
  3
isocp.shx
  4

  0
STYLE
  5
310
330
3
100
AcDbSymbolTableRecord
100
AcDbTextStyleTableRecord
  2
ACISOGDT
 70
     0
 40
0.0
 41
1.0
 50
0.0
 71
     0
 42
0.2
  3
amgdt.shx
  4

  0
ENDTAB
  0
TABLE
  2
VIEW
  5
6
330
0
100
AcDbSymbolTable
 70
     0
  0
ENDTAB
  0
TABLE
  2
UCS
  5
7
330
0
100
AcDbSymbolTable
 70
     0
  0
ENDTAB
  0
TABLE
  2
APPID
  5
9
330
0
100
AcDbSymbolTable
 70
    13
  0
APPID
  5
12
330
9
100
AcDbSymbolTableRecord
100
AcDbRegAppTableRecord
  2
ACAD
 70
     0
  0
APPID
  5
1BC
330
9
100
AcDbSymbolTableRecord
100
AcDbRegAppTableRecord
  2
ACAD_DSTYLE_DIMBREAK
 70
     0
  0
APPID
  5
25E
330
9
100
AcDbSymbolTableRecord
100
AcDbRegAppTableRecord
  2
ACAD_DSTYLE_DIM_LINETYPE
 70
     0
  0
APPID
  5
25F
330
9
100
AcDbSymbolTableRecord
100
AcDbRegAppTableRecord
  2
ACAD_DSTYLE_DIM_EXT1_LINETYPE
 70
     0
  0
APPID
  5
260
330
9
100
AcDbSymbolTableRecord
100
AcDbRegAppTableRecord
  2
ACAD_DSTYLE_DIM_EXT2_LINETYPE
 70
     0
  0
APPID
  5
2A0
330
9
100
AcDbSymbolTableRecord
100
AcDbRegAppTableRecord
  2
ACAD_MLEADERVER
 70
     0
  0
APPID
  5
2B6
330
9
100
AcDbSymbolTableRecord
100
AcDbRegAppTableRecord
  2
MCAD_NO_VIS
 70
     0
  0
APPID
  5
2B7
330
9
100
AcDbSymbolTableRecord
100
AcDbRegAppTableRecord
  2
ACAD_TEMP_GRAPHIC
 70
     0
  0
APPID
  5
2C3
330
9
100
AcDbSymbolTableRecord
100
AcDbRegAppTableRecord
  2
ACATTRIBSERVICES
 70
     0
  0
APPID
  5
2DB
330
9
100
AcDbSymbolTableRecord
100
AcDbRegAppTableRecord
  2
DESIGNERASSEMBLIES
 70
     0
  0
APPID
  5
2F7
330
9
100
AcDbSymbolTableRecord
100
AcDbRegAppTableRecord
  2
ACAD_DSTYLE_DIMJAG
 70
     0
  0
APPID
  5
323
330
9
100
AcDbSymbolTableRecord
100
AcDbRegAppTableRecord
  2
ACAD_NAV_VCDISPLAY
 70
     0
  0
APPID
  5
3C8
330
9
100
AcDbSymbolTableRecord
100
AcDbRegAppTableRecord
  2
ACAD_DSTYLE_DIMARC_LENGTH_SYMBOL
 70
     0
  0
ENDTAB
  0
TABLE
  2
DIMSTYLE
  5
A
330
0
100
AcDbSymbolTable
 70
     8
100
AcDbDimStyleTable
 71
     0
  0
DIMSTYLE
105
27
330
A
100
AcDbSymbolTableRecord
100
AcDbDimStyleTableRecord
  2
Standard
 70
     0
340
11
1001
ACAD_DSTYLE_DIMBREAK
1070
   391
1040
6.349999999999999
  0
DIMSTYLE
105
2F6
102
{ACAD_REACTORS
330
2E4
102
}
330
A
100
AcDbSymbolTableRecord
100
AcDbDimStyleTableRecord
  2
AM_ISO
 70
     0
  4
"
 41
3.5
 42
1.0
 43
10.0
 44
1.0
 47
0.1
 48
0.1
 73
     0
 74
     0
 77
     1
 78
     8
 79
     2
140
3.5
141
0.0
143
0.0393701
146
0.71
147
1.5
172
     1
176
   256
177
   256
178
     2
271
     2
272
     3
274
     4
283
     0
284
     8
340
11
371
    -1
372
    -1
1001
ACAD_DSTYLE_DIMJAG
1070
   388
1040
1.5
1001
ACAD_DSTYLE_DIMBREAK
1070
   391
1040
3.75
1001
ACAD_DSTYLE_DIMARC_LENGTH_SYMBOL
1070
   379
1070
     1
1001
ACAD_DSTYLE_DIM_LINETYPE
1070
   380
1005
14
1001
ACAD_DSTYLE_DIM_EXT1_LINETYPE
1070
   381
1005
14
1001
ACAD_DSTYLE_DIM_EXT2_LINETYPE
1070
   382
1005
14
  0
DIMSTYLE
105
302
330
A
100
AcDbSymbolTableRecord
100
AcDbDimStyleTableRecord
  2
AM_ISO$3
 70
     0
  4
"
 41
3.5
 42
1.0
 43
10.0
 44
1.0
 47
0.1
 48
0.1
 73
     0
 77
     1
 78
     8
 79
     2
140
3.5
141
0.0
143
0.0393701
146
0.71
147
1.5
176
   256
177
   256
178
     2
271
     2
272
     3
274
     4
283
     0
284
     8
288
     1
289
     0
340
11
371
    -1
372
    -1
1001
ACAD_DSTYLE_DIMBREAK
1070
   391
1040
3.75
1001
ACAD_DSTYLE_DIMJAG
1070
   388
1040
1.5
1001
ACAD_DSTYLE_DIMARC_LENGTH_SYMBOL
1070
   379
1070
     1
1001
ACAD_DSTYLE_DIM_LINETYPE
1070
   380
1005
14
1001
ACAD_DSTYLE_DIM_EXT1_LINETYPE
1070
   381
1005
14
1001
ACAD_DSTYLE_DIM_EXT2_LINETYPE
1070
   382
1005
14
  0
DIMSTYLE
105
303
330
A
100
AcDbSymbolTableRecord
100
AcDbDimStyleTableRecord
  2
AM_ISO$4
 70
     0
  4
"
 41
3.5
 42
1.0
 43
10.0
 44
1.0
 47
0.1
 48
0.1
 73
     0
 77
     1
 78
     8
 79
     2
140
3.5
141
0.0
143
0.0393701
146
0.71
147
1.5
176
   256
177
   256
178
     2
271
     2
272
     3
274
     4
283
     0
284
     8
288
     1
289
     0
340
11
371
    -1
372
    -1
1001
ACAD_DSTYLE_DIMBREAK
1070
   391
1040
3.75
1001
ACAD_DSTYLE_DIMJAG
1070
   388
1040
1.5
1001
ACAD_DSTYLE_DIMARC_LENGTH_SYMBOL
1070
   379
1070
     1
1001
ACAD_DSTYLE_DIM_LINETYPE
1070
   380
1005
14
1001
ACAD_DSTYLE_DIM_EXT1_LINETYPE
1070
   381
1005
14
1001
ACAD_DSTYLE_DIM_EXT2_LINETYPE
1070
   382
1005
14
  0
DIMSTYLE
105
304
330
A
100
AcDbSymbolTableRecord
100
AcDbDimStyleTableRecord
  2
AM_ISO$6
 70
     0
  4
"
 41
3.5
 42
1.0
 43
10.0
 44
1.0
 47
0.1
 48
0.1
 73
     0
 74
     0
 78
     8
 79
     2
140
3.5
141
0.0
143
0.0393701
146
0.71
147
1.5
172
     1
176
   256
177
   256
178
     2
271
     2
272
     3
274
     4
283
     0
284
     8
340
11
371
    -1
372
    -1
1001
ACAD_DSTYLE_DIMBREAK
1070
   391
1040
3.75
1001
ACAD_DSTYLE_DIMJAG
1070
   388
1040
1.5
1001
ACAD_DSTYLE_DIMARC_LENGTH_SYMBOL
1070
   379
1070
     1
1001
ACAD_DSTYLE_DIM_LINETYPE
1070
   380
1005
14
1001
ACAD_DSTYLE_DIM_EXT1_LINETYPE
1070
   381
1005
14
1001
ACAD_DSTYLE_DIM_EXT2_LINETYPE
1070
   382
1005
14
  0
DIMSTYLE
105
305
330
A
100
AcDbSymbolTableRecord
100
AcDbDimStyleTableRecord
  2
AM_ISO$7
 70
     0
  4
"
 41
3.5
 42
1.0
 43
10.0
 44
1.0
 47
0.1
 48
0.1
 73
     0
 74
     0
 77
     1
 78
     8
 79
     2
140
3.5
141
0.0
143
0.0393701
146
0.71
147
1.5
172
     1
176
   256
177
   256
178
     2
271
     2
272
     3
274
     4
283
     0
284
     8
340
11
371
    -1
372
    -1
1001
ACAD_DSTYLE_DIMBREAK
1070
   391
1040
3.75
1001
ACAD_DSTYLE_DIMJAG
1070
   388
1040
1.5
1001
ACAD_DSTYLE_DIMARC_LENGTH_SYMBOL
1070
   379
1070
     1
1001
ACAD_DSTYLE_DIM_LINETYPE
1070
   380
1005
14
1001
ACAD_DSTYLE_DIM_EXT1_LINETYPE
1070
   381
1005
14
1001
ACAD_DSTYLE_DIM_EXT2_LINETYPE
1070
   382
1005
14
  0
DIMSTYLE
105
306
330
A
100
AcDbSymbolTableRecord
100
AcDbDimStyleTableRecord
  2
AM_ISO$SF
 70
     0
  4
"
 41
3.5
 42
1.0
 43
10.0
 44
1.0
 47
0.1
 48
0.1
 73
     0
 74
     0
 75
     1
 76
     1
 77
     1
 78
     8
 79
     2
140
3.5
141
0.0
143
0.0393701
146
0.71
147
1.5
172
     1
176
   256
177
   256
178
     2
271
     2
272
     3
274
     4
283
     0
284
     8
340
11
371
    -1
372
    -1
1001
ACAD_DSTYLE_DIMBREAK
1070
   391
1040
3.75
1001
ACAD_DSTYLE_DIMJAG
1070
   388
1040
1.5
1001
ACAD_DSTYLE_DIMARC_LENGTH_SYMBOL
1070
   379
1070
     1
1001
ACAD_DSTYLE_DIM_LINETYPE
1070
   380
1005
14
1001
ACAD_DSTYLE_DIM_EXT1_LINETYPE
1070
   381
1005
14
1001
ACAD_DSTYLE_DIM_EXT2_LINETYPE
1070
   382
1005
14
  0
DIMSTYLE
105
30B
330
A
100
AcDbSymbolTableRecord
100
AcDbDimStyleTableRecord
  2
AM_ISO$SH
 70
     0
  4
"
 41
3.5
 42
1.0
 43
10.0
 44
1.0
 47
0.1
 48
0.1
 73
     0
 74
     0
 75
     1
 76
     1
 77
     1
 78
     8
 79
     2
140
3.5
141
0.0
143
0.0393701
144
2.0
146
0.71
147
1.5
172
     1
173
     1
176
   256
177
   256
178
     2
271
     2
272
     3
274
     4
283
     0
284
     8
340
11
343
307
371
    -1
372
    -1
1001
ACAD_DSTYLE_DIMBREAK
1070
   391
1040
3.75
1001
ACAD_DSTYLE_DIMJAG
1070
   388
1040
1.5
1001
ACAD_DSTYLE_DIMARC_LENGTH_SYMBOL
1070
   379
1070
     1
1001
ACAD_DSTYLE_DIM_LINETYPE
1070
   380
1005
14
1001
ACAD_DSTYLE_DIM_EXT1_LINETYPE
1070
   381
1005
14
1001
ACAD_DSTYLE_DIM_EXT2_LINETYPE
1070
   382
1005
14
  0
ENDTAB
  0
TABLE
  2
BLOCK_RECORD
  5
1
330
0
100
AcDbSymbolTable
 70
    16
  0
BLOCK_RECORD
  5
1F
102
{ACAD_XDICTIONARY
360
32B
102
}
330
1
100
AcDbSymbolTableRecord
100
AcDbBlockTableRecord
  2
*Model_Space
340
22
  0
BLOCK_RECORD
  5
1B
330
1
100
AcDbSymbolTableRecord
100
AcDbBlockTableRecord
  2
*Paper_Space
340
1E
  0
BLOCK_RECORD
  5
23
330
1
100
AcDbSymbolTableRecord
100
AcDbBlockTableRecord
  2
*Paper_Space0
340
26
  0
BLOCK_RECORD
  5
1B7
330
1
100
AcDbSymbolTableRecord
100
AcDbBlockTableRecord
  2
ASSORTED_DRAFT1
340
0
  0
BLOCK_RECORD
  5
1C1
330
1
100
AcDbSymbolTableRecord
100
AcDbBlockTableRecord
  2
*D2
340
0
  0
BLOCK_RECORD
  5
1CE
330
1
100
AcDbSymbolTableRecord
100
AcDbBlockTableRecord
  2
_U0
340
0
  0
BLOCK_RECORD
  5
1DB
330
1
100
AcDbSymbolTableRecord
100
AcDbBlockTableRecord
  2
*D4
340
0
  0
BLOCK_RECORD
  5
1E6
330
1
100
AcDbSymbolTableRecord
100
AcDbBlockTableRecord
  2
_U1
340
0
  0
BLOCK_RECORD
  5
1F1
330
1
100
AcDbSymbolTableRecord
100
AcDbBlockTableRecord
  2
*D6
340
0
  0
BLOCK_RECORD
  5
1FF
330
1
100
AcDbSymbolTableRecord
100
AcDbBlockTableRecord
  2
_U2
340
0
  0
BLOCK_RECORD
  5
20A
330
1
100
AcDbSymbolTableRecord
100
AcDbBlockTableRecord
  2
*D8
340
0
  0
BLOCK_RECORD
  5
216
330
1
100
AcDbSymbolTableRecord
100
AcDbBlockTableRecord
  2
_U3
340
0
  0
BLOCK_RECORD
  5
222
330
1
100
AcDbSymbolTableRecord
100
AcDbBlockTableRecord
  2
*D10
340
0
  0
BLOCK_RECORD
  5
22E
330
1
100
AcDbSymbolTableRecord
100
AcDbBlockTableRecord
  2
_U4
340
0
  0
BLOCK_RECORD
  5
23A
330
1
100
AcDbSymbolTableRecord
100
AcDbBlockTableRecord
  2
*D12
340
0
  0
BLOCK_RECORD
  5
246
330
1
100
AcDbSymbolTableRecord
100
AcDbBlockTableRecord
  2
_U5
340
0
  0
BLOCK_RECORD
  5
307
330
1
100
AcDbSymbolTableRecord
100
AcDbBlockTableRecord
  2
GENAXEH
340
0
  0
ENDTAB
  0
ENDSEC
  0
SECTION
  2
BLOCKS
  0
BLOCK
  5
20
330
1F
100
AcDbEntity
  8
0
100
AcDbBlockBegin
  2
*Model_Space
 70
     0
 10
0.0
 20
0.0
 30
0.0
  3
*Model_Space
  1

  0
ENDBLK
  5
21
330
1F
100
AcDbEntity
  8
0
100
AcDbBlockEnd
  0
BLOCK
  5
1C
330
1B
100
AcDbEntity
 67
     1
  8
0
100
AcDbBlockBegin
  2
*Paper_Space
 70
     0
 10
0.0
 20
0.0
 30
0.0
  3
*Paper_Space
  1

  0
ENDBLK
  5
1D
330
1B
100
AcDbEntity
 67
     1
  8
0
100
AcDbBlockEnd
  0
BLOCK
  5
24
330
23
100
AcDbEntity
 67
     1
  8
0
100
AcDbBlockBegin
  2
*Paper_Space0
 70
     0
 10
0.0
 20
0.0
 30
0.0
  3
*Paper_Space0
  1

  0
ENDBLK
  5
25
330
23
100
AcDbEntity
 67
     1
  8
0
100
AcDbBlockEnd
  0
BLOCK
  5
1BA
330
1B7
100
AcDbEntity
  8
0
100
AcDbBlockBegin
  2
ASSORTED_DRAFT1
 70
     0
 10
0.0
 20
0.0
 30
0.0
  3
ASSORTED_DRAFT1
  1

  0
SOLID
  5
1B8
330
1B7
100
AcDbEntity
  8
0
 62
   254
370
    13
100
AcDbTrace
 10
476.517572
 20
269.186216
 30
0.0
 11
481.517568
 21
270.29469
 31
0.0
 12
481.5175759999999
 22
268.077743
 32
0.0
 13
476.517572
 23
269.186216
 33
0.0
  0
ENDBLK
  5
1BB
330
1B7
100
AcDbEntity
  8
0
100
AcDbBlockEnd
  0
BLOCK
  5
1C2
330
1C1
100
AcDbEntity
  8
0
100
AcDbBlockBegin
  2
*D2
 70
     1
 10
0.0
 20
0.0
 30
0.0
  3
*D2
  1

  0
LINE
  5
1C4
330
1C1
100
AcDbEntity
  8
0
 62
    95
370
    -2
100
AcDbLine
 10
305.924849
 20
370.008075
 30
0.0
 11
296.547184
 21
370.008075
 31
0.0
  0
LINE
  5
1C5
330
1C1
100
AcDbEntity
  8
0
 62
    95
370
    -2
100
AcDbLine
 10
305.924849
 20
362.008075
 30
0.0
 11
296.547184
 21
362.008075
 31
0.0
  0
LINE
  5
1C6
330
1C1
100
AcDbEntity
  8
0
 62
    95
370
    -2
100
AcDbLine
 10
297.5471839999999
 20
373.508075
 30
0.0
 11
297.5471839999999
 21
377.008075
 31
0.0
  0
LINE
  5
1C7
330
1C1
100
AcDbEntity
  8
0
 62
    95
370
    -2
100
AcDbLine
 10
297.5471839999999
 20
358.508075
 30
0.0
 11
297.5471839999999
 21
355.008075
 31
0.0
  0
SOLID
  5
1C8
330
1C1
100
AcDbEntity
  8
0
 62
    95
100
AcDbTrace
 10
296.963851
 20
373.508075
 30
0.0
 11
298.130518
 21
373.508075
 31
0.0
 12
297.5471839999999
 22
370.008075
 32
0.0
 13
297.5471839999999
 23
370.008075
 33
0.0
  0
SOLID
  5
1C9
330
1C1
100
AcDbEntity
  8
0
 62
    95
100
AcDbTrace
 10
298.130518
 20
358.508075
 30
0.0
 11
296.963851
 21
358.508075
 31
0.0
 12
297.5471839999999
 22
362.008075
 32
0.0
 13
297.5471839999999
 23
362.008075
 33
0.0
  0
MTEXT
  5
1CA
330
1C1
100
AcDbEntity
  8
0
 62
    95
370
    13
100
AcDbMText
 10
292.297184
 20
366.008075
 30
0.0
 40
3.5
 41
0.0
 71
     5
 72
     1
  1
\A1;8
  7
cesky
 11
0.0
 21
1.0
 31
0.0
 73
     1
 44
1.0
  0
POINT
  5
1CB
330
1C1
100
AcDbEntity
  8
Defpoints
 62
     0
100
AcDbPoint
 10
305.924849
 20
370.008075
 30
0.0
  0
POINT
  5
1CC
330
1C1
100
AcDbEntity
  8
Defpoints
 62
     0
100
AcDbPoint
 10
305.924849
 20
362.008075
 30
0.0
  0
POINT
  5
1CD
330
1C1
100
AcDbEntity
  8
Defpoints
 62
     0
100
AcDbPoint
 10
297.5471839999999
 20
362.008075
 30
0.0
  0
ENDBLK
  5
1C3
330
1C1
100
AcDbEntity
  8
0
100
AcDbBlockEnd
  0
BLOCK
  5
1D6
330
1CE
100
AcDbEntity
  8
0
100
AcDbBlockBegin
  2
_U0
 70
     0
 10
0.0
 20
0.0
 30
0.0
  3
_U0
  1

  0
MTEXT
  5
1CF
330
1CE
100
AcDbEntity
  8
96
  6
Continuous
 62
    95
440
 16777216
370
    13
100
AcDbMText
 10
298.016018
 20
367.040575
 30
0.0
 40
3.5
 41
0.0
 71
     7
 72
     5
  1
\W0.6094;8
  7
cesky
 11
0.0000000000000001
 21
1.0
 31
0.0
 73
     2
 44
0.8433729999999998
  0
MTEXT
  5
1D0
330
1CE
100
AcDbEntity
  8
96
  6
Continuous
 62
    95
440
 16777216
370
    13
100
AcDbMText
 10
298.016018
 20
363.815575
 30
0.0
 40
3.5
 41
0.0
 71
     7
 72
     5
  1
\W0.5332;M
  7
cesky
 11
0.0000000000000001
 21
1.0
 31
0.0
 73
     2
 44
0.8433729999999998
  0
LINE
  5
1D1
330
1CE
100
AcDbEntity
  8
96
 62
    95
440
 16777216
370
    13
100
AcDbLine
 10
305.924849
 20
370.008075
 30
0.0
 11
296.547184
 21
370.008075
 31
0.0
  0
LINE
  5
1D2
330
1CE
100
AcDbEntity
  8
96
 62
    95
440
 16777216
370
    13
100
AcDbLine
 10
305.924849
 20
362.008075
 30
0.0
 11
296.547184
 21
362.008075
 31
0.0
  0
LINE
  5
1D3
330
1CE
100
AcDbEntity
  8
96
 62
    95
440
 16777216
370
    13
100
AcDbLine
 10
297.5471839999999
 20
378.758075
 30
0.0
 11
297.5471839999999
 21
353.258075
 31
0.0
  0
SOLID
  5
1D4
330
1CE
100
AcDbEntity
  8
96
 62
    95
440
 16777216
370
    13
100
AcDbTrace
 10
297.5471839999999
 20
370.008075
 30
0.0
 11
296.93004
 21
373.508073
 31
0.0
 12
298.164329
 22
373.508077
 32
0.0
 13
298.164329
 23
373.508077
 33
0.0
  0
SOLID
  5
1D5
330
1CE
100
AcDbEntity
  8
96
 62
    95
440
 16777216
370
    13
100
AcDbTrace
 10
297.5471839999999
 20
362.008075
 30
0.0
 11
298.164329
 21
358.508077
 31
0.0
 12
296.93004
 22
358.508073
 32
0.0
 13
296.93004
 23
358.508073
 33
0.0
  0
ENDBLK
  5
1D7
330
1CE
100
AcDbEntity
  8
0
100
AcDbBlockEnd
  0
BLOCK
  5
1DC
330
1DB
100
AcDbEntity
  8
0
100
AcDbBlockBegin
  2
*D4
 70
     1
 10
0.0
 20
0.0
 30
0.0
  3
*D4
  1

  0
LINE
  5
1DE
330
1DB
100
AcDbEntity
  8
0
 62
   254
370
    -2
100
AcDbLine
 10
341.616185
 20
366.008072
 30
0.0
 11
357.905768
 21
366.00807
 31
0.0
  0
LINE
  5
1DF
330
1DB
100
AcDbEntity
  8
0
 62
   254
370
    -2
100
AcDbLine
 10
348.674849
 20
374.008075
 30
0.0
 11
357.905769
 21
374.008074
 31
0.0
  0
LINE
  5
1E0
330
1DB
100
AcDbEntity
  8
0
 62
   254
370
    -2
100
AcDbLine
 10
356.90577
 20
377.508074
 30
0.0
 11
356.90577
 21
381.008074
 31
0.0
  0
SOLID
  5
1E1
330
1DB
100
AcDbEntity
  8
0
 62
   254
100
AcDbTrace
 10
356.322436
 20
377.508074
 30
0.0
 11
357.489103
 21
377.508074
 31
0.0
 12
356.905769
 22
374.008074
 32
0.0
 13
356.905769
 23
374.008074
 33
0.0
  0
MTEXT
  5
1E2
330
1DB
100
AcDbEntity
  8
0
 62
   254
370
    13
100
AcDbMText
 10
351.655766
 20
353.091404
 30
0.0
 40
3.5
 41
0.0
 71
     5
 72
     1
  1
\A1;16
  7
cesky
 11
0.0000001535223078
 21
0.9999999999999882
 31
0.0
 73
     1
 44
1.0
  0
POINT
  5
1E3
330
1DB
100
AcDbEntity
  8
Defpoints
 62
     0
100
AcDbPoint
 10
341.616185
 20
366.008072
 30
0.0
  0
POINT
  5
1E4
330
1DB
100
AcDbEntity
  8
Defpoints
 62
     0
100
AcDbPoint
 10
348.674849
 20
374.008075
 30
0.0
  0
POINT
  5
1E5
330
1DB
100
AcDbEntity
  8
Defpoints
 62
     0
100
AcDbPoint
 10
356.905769
 20
374.008074
 30
0.0
  0
ENDBLK
  5
1DD
330
1DB
100
AcDbEntity
  8
0
100
AcDbBlockEnd
  0
BLOCK
  5
1EC
330
1E6
100
AcDbEntity
  8
0
100
AcDbBlockBegin
  2
_U1
 70
     0
 10
0.0
 20
0.0
 30
0.0
  3
_U1
  1

  0
ENDBLK
  5
1ED
330
1E6
100
AcDbEntity
  8
0
100
AcDbBlockEnd
  0
BLOCK
  5
1F2
330
1F1
100
AcDbEntity
  8
0
100
AcDbBlockBegin
  2
*D6
 70
     1
 10
0.0
 20
0.0
 30
0.0
  3
*D6
  1

  0
LINE
  5
1F4
330
1F1
100
AcDbEntity
  8
0
 62
    95
370
    -2
100
AcDbLine
 10
317.797889
 20
361.758075
 30
0.0
 11
319.128193
 21
361.758075
 31
0.0
  0
LINE
  5
1F5
330
1F1
100
AcDbEntity
  8
0
 62
    95
370
    -2
100
AcDbLine
 10
317.835623
 20
370.258075
 30
0.0
 11
319.128193
 21
370.258075
 31
0.0
  0
LINE
  5
1F6
330
1F1
100
AcDbEntity
  8
0
 62
    95
370
    -2
100
AcDbLine
 10
318.128193
 20
370.258075
 30
0.0
 11
318.128193
 21
391.591408
 31
0.0
  0
LINE
  5
1F7
330
1F1
100
AcDbEntity
  8
0
 62
    95
370
    -2
100
AcDbLine
 10
318.128193
 20
358.258075
 30
0.0
 11
318.128193
 21
354.758075
 31
0.0
  0
LINE
  5
1F8
330
1F1
100
AcDbEntity
  8
0
 62
    95
370
    -2
100
AcDbLine
 10
318.128193
 20
373.758075
 30
0.0
 11
318.128193
 21
377.258075
 31
0.0
  0
SOLID
  5
1F9
330
1F1
100
AcDbEntity
  8
0
 62
    95
100
AcDbTrace
 10
318.711526
 20
358.258075
 30
0.0
 11
317.544859
 21
358.258075
 31
0.0
 12
318.128193
 22
361.758075
 32
0.0
 13
318.128193
 23
361.758075
 33
0.0
  0
SOLID
  5
1FA
330
1F1
100
AcDbEntity
  8
0
 62
    95
100
AcDbTrace
 10
317.544859
 20
373.758075
 30
0.0
 11
318.711526
 21
373.758075
 31
0.0
 12
318.128193
 22
370.258075
 32
0.0
 13
318.128193
 23
370.258075
 33
0.0
  0
MTEXT
  5
1FB
330
1F1
100
AcDbEntity
  8
0
 62
    95
370
    13
100
AcDbMText
 10
312.878193
 20
384.424742
 30
0.0
 40
3.5
 41
0.0
 71
     5
 72
     1
  1
\A1;8.5
  7
cesky
 11
0.0
 21
1.0
 31
0.0
 73
     1
 44
1.0
  0
POINT
  5
1FC
330
1F1
100
AcDbEntity
  8
Defpoints
 62
     0
100
AcDbPoint
 10
317.797889
 20
361.758075
 30
0.0
  0
POINT
  5
1FD
330
1F1
100
AcDbEntity
  8
Defpoints
 62
     0
100
AcDbPoint
 10
317.835623
 20
370.258075
 30
0.0
  0
POINT
  5
1FE
330
1F1
100
AcDbEntity
  8
Defpoints
 62
     0
100
AcDbPoint
 10
318.128193
 20
370.258075
 30
0.0
  0
ENDBLK
  5
1F3
330
1F1
100
AcDbEntity
  8
0
100
AcDbBlockEnd
  0
BLOCK
  5
205
330
1FF
100
AcDbEntity
  8
0
100
AcDbBlockBegin
  2
_U2
 70
     0
 10
0.0
 20
0.0
 30
0.0
  3
_U2
  1

  0
MTEXT
  5
200
330
1FF
100
AcDbEntity
  8
96
  6
Continuous
 62
    95
440
 16777216
370
    13
100
AcDbMText
 10
317.940776
 20
383.653075
 30
0.0
 40
3.5
 41
0.0
 71
     7
 72
     5
  1
\W0.8874;8,5
  7
cesky
 11
0.0000000000000001
 21
1.0
 31
0.0
 73
     2
 44
0.8433729999999998
  0
MTEXT
  5
201
330
1FF
100
AcDbEntity
  8
96
  6
Continuous
 62
    95
440
 16777216
370
    13
100
AcDbMText
 10
317.940776
 20
376.915575
 30
0.0
 40
3.5
 41
0.0
 71
     7
 72
     5
  1
\W3.0115;\H2.63;%%c\H3.50;
  7
cesky
 11
0.0000000000000001
 21
1.0
 31
0.0
 73
     2
 44
0.8433729999999998
  0
LINE
  5
202
330
1FF
100
AcDbEntity
  8
96
 62
    95
440
 16777216
370
    13
100
AcDbLine
 10
318.128193
 20
361.758075
 30
0.0
 11
318.128193
 21
390.020575
 31
0.0
  0
SOLID
  5
203
330
1FF
100
AcDbEntity
  8
96
 62
    95
440
 16777216
370
    13
100
AcDbTrace
 10
318.128193
 20
361.758075
 30
0.0
 11
317.511048
 21
365.258073
 31
0.0
 12
318.745337
 22
365.258077
 32
0.0
 13
318.745337
 23
365.258077
 33
0.0
  0
SOLID
  5
204
330
1FF
100
AcDbEntity
  8
96
 62
    95
440
 16777216
370
    13
100
AcDbTrace
 10
318.128193
 20
370.258075
 30
0.0
 11
318.745337
 21
366.758077
 31
0.0
 12
317.511048
 22
366.758073
 32
0.0
 13
317.511048
 23
366.758073
 33
0.0
  0
ENDBLK
  5
206
330
1FF
100
AcDbEntity
  8
0
100
AcDbBlockEnd
  0
BLOCK
  5
20B
330
20A
100
AcDbEntity
  8
0
100
AcDbBlockBegin
  2
*D8
 70
     1
 10
0.0
 20
0.0
 30
0.0
  3
*D8
  1

  0
LINE
  5
20D
330
20A
100
AcDbEntity
  8
0
 62
   254
370
    -2
100
AcDbLine
 10
347.174849
 20
375.508075
 30
0.0
 11
347.174849
 21
378.873424
 31
0.0
  0
LINE
  5
20E
330
20A
100
AcDbEntity
  8
0
 62
   254
370
    -2
100
AcDbLine
 10
332.568652
 20
373.543526
 30
0.0
 11
332.568652
 21
378.873424
 31
0.0
  0
LINE
  5
20F
330
20A
100
AcDbEntity
  8
0
 62
   254
370
    -2
100
AcDbLine
 10
343.674849
 20
377.873424
 30
0.0
 11
336.068652
 21
377.873424
 31
0.0
  0
SOLID
  5
210
330
20A
100
AcDbEntity
  8
0
 62
   254
100
AcDbTrace
 10
343.674849
 20
377.290091
 30
0.0
 11
343.674849
 21
378.456758
 31
0.0
 12
347.174849
 22
377.873424
 32
0.0
 13
347.174849
 23
377.873424
 33
0.0
  0
SOLID
  5
211
330
20A
100
AcDbEntity
  8
0
 62
   254
100
AcDbTrace
 10
336.068652
 20
378.456758
 30
0.0
 11
336.068652
 21
377.290091
 31
0.0
 12
332.568652
 22
377.873424
 32
0.0
 13
332.568652
 23
377.873424
 33
0.0
  0
MTEXT
  5
212
330
20A
100
AcDbEntity
  8
0
 62
   254
370
    13
100
AcDbMText
 10
339.87175
 20
383.123424
 30
0.0
 40
3.5
 41
0.0
 71
     5
 72
     1
  1
\A1;14.61
  7
cesky
 73
     1
 44
1.0
  0
POINT
  5
213
330
20A
100
AcDbEntity
  8
Defpoints
 62
     0
100
AcDbPoint
 10
347.174849
 20
375.508075
 30
0.0
  0
POINT
  5
214
330
20A
100
AcDbEntity
  8
Defpoints
 62
     0
100
AcDbPoint
 10
332.568652
 20
373.543526
 30
0.0
  0
POINT
  5
215
330
20A
100
AcDbEntity
  8
Defpoints
 62
     0
100
AcDbPoint
 10
332.568652
 20
377.873424
 30
0.0
  0
ENDBLK
  5
20C
330
20A
100
AcDbEntity
  8
0
100
AcDbBlockEnd
  0
BLOCK
  5
21D
330
216
100
AcDbEntity
  8
0
100
AcDbBlockBegin
  2
_U3
 70
     0
 10
0.0
 20
0.0
 30
0.0
  3
_U3
  1

  0
ENDBLK
  5
21E
330
216
100
AcDbEntity
  8
0
100
AcDbBlockEnd
  0
BLOCK
  5
223
330
222
100
AcDbEntity
  8
0
100
AcDbBlockBegin
  2
*D10
 70
     1
 10
0.0
 20
0.0
 30
0.0
  3
*D10
  1

  0
LINE
  5
225
330
222
100
AcDbEntity
  8
0
 62
    95
370
    -2
100
AcDbLine
 10
347.174849
 20
375.508075
 30
0.0
 11
347.174849
 21
402.2244149999999
 31
0.0
  0
LINE
  5
226
330
222
100
AcDbEntity
  8
0
 62
    95
370
    -2
100
AcDbLine
 10
304.674849
 20
368.758075
 30
0.0
 11
304.674849
 21
402.2244149999999
 31
0.0
  0
LINE
  5
227
330
222
100
AcDbEntity
  8
0
 62
    95
370
    -2
100
AcDbLine
 10
343.674849
 20
401.2244149999999
 30
0.0
 11
308.174849
 21
401.2244149999999
 31
0.0
  0
SOLID
  5
228
330
222
100
AcDbEntity
  8
0
 62
    95
100
AcDbTrace
 10
343.674849
 20
400.641082
 30
0.0
 11
343.674849
 21
401.807749
 31
0.0
 12
347.174849
 22
401.2244149999999
 32
0.0
 13
347.174849
 23
401.2244149999999
 33
0.0
  0
SOLID
  5
229
330
222
100
AcDbEntity
  8
0
 62
    95
100
AcDbTrace
 10
308.174849
 20
401.807749
 30
0.0
 11
308.174849
 21
400.641082
 31
0.0
 12
304.674849
 22
401.2244149999999
 32
0.0
 13
304.674849
 23
401.2244149999999
 33
0.0
  0
MTEXT
  5
22A
330
222
100
AcDbEntity
  8
0
 62
    95
370
    13
100
AcDbMText
 10
325.924849
 20
406.474415
 30
0.0
 40
3.5
 41
0.0
 71
     5
 72
     1
  1
\A1;42.5
  7
cesky
 73
     1
 44
1.0
  0
POINT
  5
22B
330
222
100
AcDbEntity
  8
Defpoints
 62
     0
100
AcDbPoint
 10
347.174849
 20
375.508075
 30
0.0
  0
POINT
  5
22C
330
222
100
AcDbEntity
  8
Defpoints
 62
     0
100
AcDbPoint
 10
304.674849
 20
368.758075
 30
0.0
  0
POINT
  5
22D
330
222
100
AcDbEntity
  8
Defpoints
 62
     0
100
AcDbPoint
 10
304.674849
 20
401.2244149999999
 30
0.0
  0
ENDBLK
  5
224
330
222
100
AcDbEntity
  8
0
100
AcDbBlockEnd
  0
BLOCK
  5
235
330
22E
100
AcDbEntity
  8
0
100
AcDbBlockBegin
  2
_U4
 70
     0
 10
0.0
 20
0.0
 30
0.0
  3
_U4
  1

  0
MTEXT
  5
22F
330
22E
100
AcDbEntity
  8
96
  6
Continuous
 62
    95
440
 16777216
370
    13
100
AcDbMText
 10
321.585349
 20
401.098582
 30
0.0
 40
3.5
 41
0.0
 71
     7
 72
     5
  1
\W0.8459;42,5
  7
cesky
 73
     2
 44
0.8433729999999998
  0
LINE
  5
230
330
22E
100
AcDbEntity
  8
96
 62
    95
440
 16777216
370
    13
100
AcDbLine
 10
347.174849
 20
375.508075
 30
0.0
 11
347.174849
 21
402.2244149999999
 31
0.0
  0
LINE
  5
231
330
22E
100
AcDbEntity
  8
96
 62
    95
440
 16777216
370
    13
100
AcDbLine
 10
304.674849
 20
368.758075
 30
0.0
 11
304.674849
 21
402.2244149999999
 31
0.0
  0
LINE
  5
232
330
22E
100
AcDbEntity
  8
96
 62
    95
440
 16777216
370
    13
100
AcDbLine
 10
347.174849
 20
401.2244149999999
 30
0.0
 11
304.674849
 21
401.2244149999999
 31
0.0
  0
SOLID
  5
233
330
22E
100
AcDbEntity
  8
96
 62
    95
440
 16777216
370
    13
100
AcDbTrace
 10
347.174849
 20
401.2244149999999
 30
0.0
 11
343.674851
 21
400.6072709999999
 31
0.0
 12
343.674846
 22
401.8415599999999
 32
0.0
 13
343.674846
 23
401.8415599999999
 33
0.0
  0
SOLID
  5
234
330
22E
100
AcDbEntity
  8
96
 62
    95
440
 16777216
370
    13
100
AcDbTrace
 10
304.674849
 20
401.2244149999999
 30
0.0
 11
308.174846
 21
401.8415599999999
 31
0.0
 12
308.174851
 22
400.6072709999999
 32
0.0
 13
308.174851
 23
400.6072709999999
 33
0.0
  0
ENDBLK
  5
236
330
22E
100
AcDbEntity
  8
0
100
AcDbBlockEnd
  0
BLOCK
  5
23B
330
23A
100
AcDbEntity
  8
0
100
AcDbBlockBegin
  2
*D12
 70
     1
 10
0.0
 20
0.0
 30
0.0
  3
*D12
  1

  0
LINE
  5
23D
330
23A
100
AcDbEntity
  8
0
 62
   254
370
    -2
100
AcDbLine
 10
347.174849
 20
375.508075
 30
0.0
 11
347.174849
 21
387.394977
 31
0.0
  0
LINE
  5
23E
330
23A
100
AcDbEntity
  8
0
 62
   254
370
    -2
100
AcDbLine
 10
322.174849
 20
366.008075
 30
0.0
 11
322.174849
 21
387.394977
 31
0.0
  0
LINE
  5
23F
330
23A
100
AcDbEntity
  8
0
 62
   254
370
    -2
100
AcDbLine
 10
343.674849
 20
386.394977
 30
0.0
 11
325.674849
 21
386.394977
 31
0.0
  0
SOLID
  5
240
330
23A
100
AcDbEntity
  8
0
 62
   254
100
AcDbTrace
 10
343.674849
 20
385.811644
 30
0.0
 11
343.674849
 21
386.97831
 31
0.0
 12
347.174849
 22
386.394977
 32
0.0
 13
347.174849
 23
386.394977
 33
0.0
  0
SOLID
  5
241
330
23A
100
AcDbEntity
  8
0
 62
   254
100
AcDbTrace
 10
325.674849
 20
386.97831
 30
0.0
 11
325.674849
 21
385.811644
 31
0.0
 12
322.174849
 22
386.394977
 32
0.0
 13
322.174849
 23
386.394977
 33
0.0
  0
MTEXT
  5
242
330
23A
100
AcDbEntity
  8
0
 62
   254
370
    13
100
AcDbMText
 10
334.674849
 20
391.644977
 30
0.0
 40
3.5
 41
0.0
 71
     5
 72
     1
  1
\A1;25
  7
cesky
 73
     1
 44
1.0
  0
POINT
  5
243
330
23A
100
AcDbEntity
  8
Defpoints
 62
     0
100
AcDbPoint
 10
347.174849
 20
375.508075
 30
0.0
  0
POINT
  5
244
330
23A
100
AcDbEntity
  8
Defpoints
 62
     0
100
AcDbPoint
 10
322.174849
 20
366.008075
 30
0.0
  0
POINT
  5
245
330
23A
100
AcDbEntity
  8
Defpoints
 62
     0
100
AcDbPoint
 10
322.174849
 20
386.394977
 30
0.0
  0
ENDBLK
  5
23C
330
23A
100
AcDbEntity
  8
0
100
AcDbBlockEnd
  0
BLOCK
  5
24D
330
246
100
AcDbEntity
  8
0
100
AcDbBlockBegin
  2
_U5
 70
     0
 10
0.0
 20
0.0
 30
0.0
  3
_U5
  1

  0
MTEXT
  5
247
330
246
100
AcDbEntity
  8
96
  6
Continuous
 62
   254
440
 16777216
370
    13
100
AcDbMText
 10
332.860349
 20
386.269144
 30
0.0
 40
3.5
 41
0.0
 71
     7
 72
     5
  1
\W0.7045;25
  7
cesky
 73
     2
 44
0.8433729999999998
  0
LINE
  5
248
330
246
100
AcDbEntity
  8
96
 62
   254
440
 16777216
370
    13
100
AcDbLine
 10
347.174849
 20
375.508075
 30
0.0
 11
347.174849
 21
387.394977
 31
0.0
  0
LINE
  5
249
330
246
100
AcDbEntity
  8
96
 62
   254
440
 16777216
370
    13
100
AcDbLine
 10
322.174849
 20
366.008075
 30
0.0
 11
322.174849
 21
387.394977
 31
0.0
  0
LINE
  5
24A
330
246
100
AcDbEntity
  8
96
 62
   254
440
 16777216
370
    13
100
AcDbLine
 10
347.174849
 20
386.394977
 30
0.0
 11
322.174849
 21
386.394977
 31
0.0
  0
SOLID
  5
24B
330
246
100
AcDbEntity
  8
96
 62
   254
440
 16777216
370
    13
100
AcDbTrace
 10
347.174849
 20
386.394977
 30
0.0
 11
343.674851
 21
385.777832
 31
0.0
 12
343.674846
 22
387.012121
 32
0.0
 13
343.674846
 23
387.012121
 33
0.0
  0
SOLID
  5
24C
330
246
100
AcDbEntity
  8
96
 62
   254
440
 16777216
370
    13
100
AcDbTrace
 10
322.174849
 20
386.394977
 30
0.0
 11
325.674846
 21
387.012121
 31
0.0
 12
325.674851
 22
385.777832
 32
0.0
 13
325.674851
 23
385.777832
 33
0.0
  0
ENDBLK
  5
24E
330
246
100
AcDbEntity
  8
0
100
AcDbBlockEnd
  0
BLOCK
  5
309
330
307
100
AcDbEntity
  8
0
370
    13
100
AcDbBlockBegin
  2
GENAXEH
 70
     0
 10
0.0
 20
0.0
 30
0.0
  3
GENAXEH
  1

  0
LINE
  5
308
330
307
100
AcDbEntity
  8
0
100
AcDbLine
 10
-1.0
 20
0.0
 30
0.0
 11
1.0
 21
0.0
 31
0.0
  0
ENDBLK
  5
30A
330
307
100
AcDbEntity
  8
0
370
    13
100
AcDbBlockEnd
  0
ENDSEC
  0
SECTION
  2
ENTITIES
  0
POINT
  5
73
102
{ACAD_REACTORS
330
373
102
}
330
1F
100
AcDbEntity
  8
80
100
AcDbPoint
 10
322.174849
 20
366.008075
 30
0.0
  0
POINT
  5
75
330
1F
100
AcDbEntity
  8
SK6
 60
     1
100
AcDbPoint
 10
322.174849
 20
366.008075
 30
0.0
  0
POINT
  5
77
330
1F
100
AcDbEntity
  8
SK6
 60
     1
100
AcDbPoint
 10
341.616185
 20
366.008072
 30
0.0
  0
POINT
  5
78
330
1F
100
AcDbEntity
  8
SK6
 60
     1
100
AcDbPoint
 10
304.674849
 20
366.008075
 30
0.0
  0
POINT
  5
79
330
1F
100
AcDbEntity
  8
SK6
 60
     1
100
AcDbPoint
 10
322.174849
 20
366.008075
 30
0.0
  0
LINE
  5
7E
330
1F
100
AcDbEntity
  8
1
100
AcDbLine
 10
331.560336
 20
358.5712200000001
 30
0.0
 11
331.64768
 21
358.537198
 31
0.0
  0
LINE
  5
80
330
1F
100
AcDbEntity
  8
1
100
AcDbLine
 10
331.288105
 20
358.682651
 30
0.0
 11
331.410616
 21
358.631553
 31
0.0
  0
LINE
  5
81
330
1F
100
AcDbEntity
  8
1
100
AcDbLine
 10
338.985328
 20
358.1855930000001
 30
0.0
 11
331.77128
 21
358.511057
 31
0.0
  0
LINE
  5
82
330
1F
100
AcDbEntity
  8
1
100
AcDbLine
 10
332.388866
 20
358.918944
 30
0.0
 11
338.503263
 21
358.643091
 31
0.0
  0
LINE
  5
83
330
1F
100
AcDbEntity
  8
1
100
AcDbLine
 10
332.231417
 20
370.681198
 30
0.0
 11
331.961385
 21
372.506319
 31
0.0
  0
LINE
  5
85
330
1F
100
AcDbEntity
  8
1
100
AcDbLine
 10
331.903431
 20
372.898021
 30
0.0
 11
331.881443
 21
373.046637
 31
0.0
  0
LINE
  5
86
330
1F
100
AcDbEntity
  8
SK1
100
AcDbLine
 10
314.282028
 20
362.820075
 30
0.0
 11
315.774849
 21
362.820075
 31
0.0
  0
LINE
  5
87
330
1F
100
AcDbEntity
  8
SK1
100
AcDbLine
 10
315.774849
 20
369.196075
 30
0.0
 11
314.282028
 21
369.196075
 31
0.0
  0
LINE
  5
88
330
1F
100
AcDbEntity
  8
SK1
100
AcDbLine
 10
314.082028
 20
369.249665
 30
0.0
 11
312.768423
 21
370.008075
 31
0.0
  0
LINE
  5
89
330
1F
100
AcDbEntity
  8
SK1
100
AcDbLine
 10
312.768423
 20
362.008075
 30
0.0
 11
314.082028
 21
362.766485
 31
0.0
  0
LINE
  5
8A
330
1F
100
AcDbEntity
  8
SK1
100
AcDbLine
 10
304.674849
 20
368.758075
 30
0.0
 11
304.674849
 21
363.258075
 31
0.0
  0
LINE
  5
8B
330
1F
100
AcDbEntity
  8
SK1
100
AcDbLine
 10
304.674849
 20
363.258075
 30
0.0
 11
305.924849
 21
362.008075
 31
0.0
  0
LINE
  5
8C
330
1F
100
AcDbEntity
  8
SK1
100
AcDbLine
 10
305.924849
 20
370.008075
 30
0.0
 11
304.674849
 21
368.758075
 31
0.0
  0
LINE
  5
8D
330
1F
100
AcDbEntity
  8
SK1
100
AcDbLine
 10
305.924849
 20
370.008075
 30
0.0
 11
305.924849
 21
362.008075
 31
0.0
  0
LINE
  5
8E
330
1F
100
AcDbEntity
  8
SK1
100
AcDbLine
 10
312.768423
 20
370.008075
 30
0.0
 11
312.768423
 21
362.008075
 31
0.0
  0
LINE
  5
8F
330
1F
100
AcDbEntity
  8
SK1
100
AcDbLine
 10
305.924849
 20
362.008075
 30
0.0
 11
312.768423
 21
362.008075
 31
0.0
  0
LINE
  5
90
330
1F
100
AcDbEntity
  8
SK1
100
AcDbLine
 10
312.768423
 20
370.008075
 30
0.0
 11
305.924849
 21
370.008075
 31
0.0
  0
LINE
  5
91
330
1F
100
AcDbEntity
  8
SK1
100
AcDbLine
 10
320.97392
 20
361.958075
 30
0.0
 11
321.814701
 21
361.958075
 31
0.0
  0
LINE
  5
92
330
1F
100
AcDbEntity
  8
SK1
100
AcDbLine
 10
321.814701
 20
370.058075
 30
0.0
 11
320.97392
 21
370.058075
 31
0.0
  0
LINE
  5
93
330
1F
100
AcDbEntity
  8
SK1
100
AcDbLine
 10
320.870392
 20
370.071705
 30
0.0
 11
320.174849
 21
370.258075
 31
0.0
  0
LINE
  5
94
330
1F
100
AcDbEntity
  8
SK1
100
AcDbLine
 10
320.174849
 20
361.758075
 30
0.0
 11
320.870392
 21
361.944445
 31
0.0
  0
LINE
  5
95
330
1F
100
AcDbEntity
  8
SK1
100
AcDbLine
 10
320.174849
 20
370.258075
 30
0.0
 11
320.174849
 21
361.758075
 31
0.0
  0
LINE
  5
97
330
1F
100
AcDbEntity
  8
1
100
AcDbLine
 10
332.721181
 20
359.258159
 30
0.0
 11
338.468711
 21
358.998857
 31
0.0
  0
LINE
  5
98
330
1F
100
AcDbEntity
  8
1
100
AcDbLine
 10
344.12018
 20
361.55596
 30
0.0
 11
344.110721
 21
361.544326
 31
0.0
  0
LINE
  5
99
330
1F
100
AcDbEntity
  8
1
100
AcDbLine
 10
344.632661
 20
363.133688
 30
0.0
 11
344.170972
 21
361.650778
 31
0.0
  0
LINE
  5
9A
330
1F
100
AcDbEntity
  8
1
100
AcDbLine
 10
338.6555879999999
 20
363.080187
 30
0.0
 11
337.945128
 21
363.080187
 31
0.0
  0
LINE
  5
9C
330
1F
100
AcDbEntity
  8
1
100
AcDbLine
 10
346.049698
 20
364.189038
 30
0.0
 11
346.049698
 21
364.400832
 31
0.0
  0
LINE
  5
9D
330
1F
100
AcDbEntity
  8
1
100
AcDbLine
 10
332.041142
 20
373.255105
 30
0.0
 11
332.036197
 21
373.288528
 31
0.0
  0
LINE
  5
9E
330
1F
100
AcDbEntity
  8
1
100
AcDbLine
 10
346.049698
 20
365.437534
 30
0.0
 11
346.049698
 21
365.788277
 31
0.0
  0
LINE
  5
9F
330
1F
100
AcDbEntity
  8
1
100
AcDbLine
 10
344.718625
 20
363.808582
 30
0.0
 11
344.993098
 21
363.751655
 31
0.0
  0
LINE
  5
A0
330
1F
100
AcDbEntity
  8
1
100
AcDbLine
 10
345.140723
 20
363.503725
 30
0.0
 11
344.504903
 21
361.461519
 31
0.0
  0
LINE
  5
A1
330
1F
100
AcDbEntity
  8
80
100
AcDbLine
 10
322.174849
 20
366.008075
 30
0.0
 11
322.174849
 21
365.008075
 31
0.0
  0
LINE
  5
A2
330
1F
100
AcDbEntity
  8
81
100
AcDbLine
 10
345.674849
 20
374.008075
 30
0.0
 11
348.674849
 21
374.008075
 31
0.0
  0
LINE
  5
A3
330
1F
100
AcDbEntity
  8
81
100
AcDbLine
 10
347.174849
 20
372.508075
 30
0.0
 11
347.174849
 21
375.508075
 31
0.0
  0
LINE
  5
A4
330
1F
100
AcDbEntity
  8
80
100
AcDbLine
 10
322.174849
 20
366.008075
 30
0.0
 11
323.174849
 21
366.008075
 31
0.0
  0
LINE
  5
A5
330
1F
100
AcDbEntity
  8
1
100
AcDbLine
 10
338.889113
 20
368.463314
 30
0.0
 11
339.084591
 21
368.463314
 31
0.0
  0
LINE
  5
A6
330
1F
100
AcDbEntity
  8
1
100
AcDbLine
 10
339.084591
 20
371.913314
 30
0.0
 11
338.889113
 21
371.913314
 31
0.0
  0
LINE
  5
A7
330
1F
100
AcDbEntity
  8
1
100
AcDbLine
 10
339.493857
 20
369.317098
 30
0.0
 11
339.304261
 21
369.317098
 31
0.0
  0
LINE
  5
A8
330
1F
100
AcDbEntity
  8
1
100
AcDbLine
 10
338.598652
 20
371.05953
 30
0.0
 11
338.787948
 21
371.05953
 31
0.0
  0
LINE
  5
A9
330
1F
100
AcDbEntity
  8
1
100
AcDbLine
 10
338.273179
 20
369.674387
 30
0.0
 11
338.114407
 21
369.674387
 31
0.0
  0
LINE
  5
AA
330
1F
100
AcDbEntity
  8
SK1
100
AcDbLine
 10
316.974849
 20
361.758075
 30
0.0
 11
320.174849
 21
361.758075
 31
0.0
  0
LINE
  5
AB
330
1F
100
AcDbEntity
  8
SK1
100
AcDbLine
 10
320.174849
 20
370.258075
 30
0.0
 11
316.974849
 21
370.258075
 31
0.0
  0
LINE
  5
AC
330
1F
100
AcDbEntity
  8
SK1
100
AcDbLine
 10
316.974849
 20
370.258075
 30
0.0
 11
316.974849
 21
361.758075
 31
0.0
  0
LINE
  5
AD
330
1F
100
AcDbEntity
  8
SK1
100
AcDbLine
 10
316.174849
 20
369.796195
 30
0.0
 11
316.174849
 21
362.219955
 31
0.0
  0
LINE
  5
AE
330
1F
100
AcDbEntity
  8
SK1
100
AcDbLine
 10
316.174849
 20
362.219955
 30
0.0
 11
316.974849
 21
361.758075
 31
0.0
  0
LINE
  5
AF
330
1F
100
AcDbEntity
  8
SK1
100
AcDbLine
 10
316.974849
 20
370.258075
 30
0.0
 11
316.174849
 21
369.796195
 31
0.0
  0
LINE
  5
B0
330
1F
100
AcDbEntity
  8
1
100
AcDbLine
 10
324.174092
 20
359.608075
 30
0.0
 11
326.324092
 21
358.658075
 31
0.0
  0
LINE
  5
B1
330
1F
100
AcDbEntity
  8
1
100
AcDbLine
 10
343.751823
 20
365.772858
 30
0.0
 11
343.693761
 21
365.781331
 31
0.0
  0
LINE
  5
B2
330
1F
100
AcDbEntity
  8
1
100
AcDbLine
 10
346.049698
 20
365.437529
 30
0.0
 11
343.839869
 21
365.760009
 31
0.0
  0
LINE
  5
B3
330
1F
100
AcDbEntity
  8
1
100
AcDbLine
 10
345.931167
 20
363.920476
 30
0.0
 11
345.420989
 21
363.857934
 31
0.0
  0
LINE
  5
B4
330
1F
100
AcDbEntity
  8
1
100
AcDbLine
 10
346.049698
 20
364.400832
 30
0.0
 11
346.049698
 21
365.437529
 31
0.0
  0
LINE
  5
B5
330
1F
100
AcDbEntity
  8
1
100
AcDbLine
 10
344.7625240000001
 20
363.949482
 30
0.0
 11
343.988567
 21
361.463593
 31
0.0
  0
LINE
  5
B6
330
1F
100
AcDbEntity
  8
1
100
AcDbLine
 10
344.7625240000001
 20
363.949482
 30
0.0
 11
345.420989
 21
363.857934
 31
0.0
  0
LINE
  5
B7
330
1F
100
AcDbEntity
  8
1
100
AcDbLine
 10
322.174849
 20
359.808075
 30
0.0
 11
322.174849
 21
372.208075
 31
0.0
  0
LINE
  5
B8
330
1F
100
AcDbEntity
  8
1
100
AcDbLine
 10
322.174849
 20
359.808075
 30
0.0
 11
322.3748490000001
 21
359.608075
 31
0.0
  0
LINE
  5
B9
330
1F
100
AcDbEntity
  8
1
100
AcDbLine
 10
322.3748490000001
 20
372.408075
 30
0.0
 11
322.174849
 21
372.208075
 31
0.0
  0
LINE
  5
BA
330
1F
100
AcDbEntity
  8
1
100
AcDbLine
 10
324.174092
 20
361.863159
 30
0.0
 11
324.174092
 21
359.608075
 31
0.0
  0
LINE
  5
BB
330
1F
100
AcDbEntity
  8
1
100
AcDbLine
 10
322.3748490000001
 20
372.408075
 30
0.0
 11
322.3748490000001
 21
359.608075
 31
0.0
  0
LINE
  5
BC
330
1F
100
AcDbEntity
  8
1
100
AcDbLine
 10
322.3748490000001
 20
359.608075
 30
0.0
 11
324.174092
 21
359.608075
 31
0.0
  0
LINE
  5
BD
330
1F
100
AcDbEntity
  8
1
100
AcDbLine
 10
324.174092
 20
372.408075
 30
0.0
 11
322.3748490000001
 21
372.408075
 31
0.0
  0
LINE
  5
BE
330
1F
100
AcDbEntity
  8
1
100
AcDbLine
 10
340.192528
 20
370.179815
 30
0.0
 11
340.010761
 21
370.179815
 31
0.0
  0
LINE
  5
BF
330
1F
100
AcDbEntity
  8
1
100
AcDbLine
 10
339.82384
 20
370.702241
 30
0.0
 11
340.008627
 21
370.702241
 31
0.0
  0
LINE
  5
C0
330
1F
100
AcDbEntity
  8
1
100
AcDbLine
 10
346.819839
 20
365.995723
 30
0.0
 11
346.144087
 21
365.812051
 31
0.0
  0
LINE
  5
C1
330
1F
100
AcDbEntity
  8
1
100
AcDbLine
 10
332.464889
 20
371.062552
 30
0.0
 11
332.534372
 21
370.918353
 31
0.0
  0
LINE
  5
C2
330
1F
100
AcDbEntity
  8
1
100
AcDbLine
 10
331.980033
 20
373.151865
 30
0.0
 11
331.952676
 21
373.095092
 31
0.0
  0
LINE
  5
C3
330
1F
100
AcDbEntity
  8
1
100
AcDbLine
 10
332.568652
 20
373.543526
 30
0.0
 11
338.98293
 21
373.832908
 31
0.0
  0
LINE
  5
C4
330
1F
100
AcDbEntity
  8
1
100
AcDbLine
 10
338.600746
 20
366.574263
 30
0.0
 11
345.776117
 21
365.749785
 31
0.0
  0
LINE
  5
C5
330
1F
100
AcDbEntity
  8
1
100
AcDbLine
 10
345.993733
 20
365.775698
 30
0.0
 11
345.902223
 21
365.75597
 31
0.0
  0
LINE
  5
C6
330
1F
100
AcDbEntity
  8
1
100
AcDbLine
 10
341.616185
 20
366.036512
 30
0.0
 11
341.616185
 21
359.525024
 31
0.0
  0
LINE
  5
C7
330
1F
100
AcDbEntity
  8
1
100
AcDbLine
 10
343.781249
 20
361.177537
 30
0.0
 11
343.781249
 21
361.054213
 31
0.0
  0
LINE
  5
C8
330
1F
100
AcDbEntity
  8
1
100
AcDbLine
 10
341.556517
 20
366.04113
 30
0.0
 11
341.556517
 21
359.630891
 31
0.0
  0
LINE
  5
C9
330
1F
100
AcDbEntity
  8
1
100
AcDbLine
 10
324.074092
 20
366.048749
 30
0.0
 11
324.174092
 21
366.048749
 31
0.0
  0
LINE
  5
CA
330
1F
100
AcDbEntity
  8
1
100
AcDbLine
 10
324.174092
 20
361.863159
 30
0.0
 11
324.074092
 21
361.863159
 31
0.0
  0
LINE
  5
CB
330
1F
100
AcDbEntity
  8
1
100
AcDbLine
 10
324.174092
 20
366.048749
 30
0.0
 11
324.174092
 21
372.408075
 31
0.0
  0
LINE
  5
CC
330
1F
100
AcDbEntity
  8
1
100
AcDbLine
 10
326.324092
 20
373.358075
 30
0.0
 11
324.174092
 21
372.408075
 31
0.0
  0
LINE
  5
CD
330
1F
100
AcDbEntity
  8
1
100
AcDbLine
 10
330.274092
 20
367.945222
 30
0.0
 11
326.324092
 21
367.945222
 31
0.0
  0
LINE
  5
CE
330
1F
100
AcDbEntity
  8
1
100
AcDbLine
 10
330.674092
 20
360.422897
 30
0.0
 11
330.674092
 21
367.21539
 31
0.0
  0
LINE
  5
CF
330
1F
100
AcDbEntity
  8
1
100
AcDbLine
 10
326.324092
 20
359.966681
 30
0.0
 11
330.274092
 21
359.966681
 31
0.0
  0
LINE
  5
D0
330
1F
100
AcDbEntity
  8
1
100
AcDbLine
 10
326.324092
 20
358.658075
 30
0.0
 11
326.324092
 21
359.966685
 31
0.0
  0
LINE
  5
D1
330
1F
100
AcDbEntity
  8
1
100
AcDbLine
 10
326.324092
 20
373.358075
 30
0.0
 11
326.324092
 21
367.945223
 31
0.0
  0
LINE
  5
D2
330
1F
100
AcDbEntity
  8
1
100
AcDbLine
 10
332.157516
 20
358.6827990000001
 30
0.0
 11
332.157516
 21
369.768909
 31
0.0
  0
LINE
  5
D3
330
1F
100
AcDbEntity
  8
1
100
AcDbLine
 10
326.324092
 20
358.658072
 30
0.0
 11
329.827883
 21
358.658072
 31
0.0
  0
LINE
  5
D4
330
1F
100
AcDbEntity
  8
1
100
AcDbLine
 10
331.519834
 20
373.358072
 30
0.0
 11
329.717039
 21
373.358072
 31
0.0
  0
LINE
  5
D5
330
1F
100
AcDbEntity
  8
1
100
AcDbLine
 10
328.398329
 20
373.358072
 30
0.0
 11
326.324092
 21
373.358072
 31
0.0
  0
LINE
  5
D6
330
1F
100
AcDbEntity
  8
1
100
AcDbLine
 10
332.766332
 20
369.077226
 30
0.0
 11
332.766332
 21
359.304354
 31
0.0
  0
LINE
  5
D7
330
1F
100
AcDbEntity
  8
NOCUT
100
AcDbLine
 10
322.174849
 20
370.769612
 30
0.0
 11
322.174849
 21
372.208075
 31
0.0
  0
LINE
  5
D9
330
1F
100
AcDbEntity
  8
NOCUT
100
AcDbLine
 10
322.174849
 20
372.208075
 30
0.0
 11
322.3748490000001
 21
372.408075
 31
0.0
  0
LINE
  5
DA
330
1F
100
AcDbEntity
  8
NOCUT
100
AcDbLine
 10
322.3748490000001
 20
372.408075
 30
0.0
 11
324.174092
 21
372.408075
 31
0.0
  0
LINE
  5
DB
330
1F
100
AcDbEntity
  8
NOCUT
100
AcDbLine
 10
324.174092
 20
372.408075
 30
0.0
 11
326.324092
 21
373.358075
 31
0.0
  0
LINE
  5
DC
330
1F
100
AcDbEntity
  8
NOCUT
100
AcDbLine
 10
326.324092
 20
373.358078
 30
0.0
 11
332.157516
 21
373.358078
 31
0.0
  0
LINE
  5
DD
330
1F
100
AcDbEntity
  8
NOCUT
100
AcDbLine
 10
332.157516
 20
373.358078
 30
0.0
 11
332.766332
 21
372.749262
 31
0.0
  0
LINE
  5
DE
330
1F
100
AcDbEntity
  8
NOCUT
100
AcDbLine
 10
332.766332
 20
372.749262
 30
0.0
 11
338.549698
 21
373.187496
 31
0.0
  0
LINE
  5
DF
330
1F
100
AcDbEntity
  8
NOCUT
100
AcDbLine
 10
341.556517
 20
372.773772
 30
0.0
 11
341.616185
 21
372.877121
 31
0.0
  0
LINE
  5
E0
330
1F
100
AcDbEntity
  8
NOCUT
100
AcDbLine
 10
341.616185
 20
372.877121
 30
0.0
 11
343.781249
 21
371.627121
 31
0.0
  0
LINE
  5
E1
330
1F
100
AcDbEntity
  8
NOCUT
100
AcDbLine
 10
343.781249
 20
371.627121
 30
0.0
 11
343.72158
 21
371.523772
 31
0.0
  0
LINE
  5
E2
330
1F
100
AcDbEntity
  8
NOCUT
100
AcDbLine
 10
346.049698
 20
367.866662
 30
0.0
 11
346.049698
 21
366.008075
 31
0.0
  0
LINE
  5
E3
330
1F
100
AcDbEntity
  8
NOCUT
100
AcDbLine
 10
304.674849
 20
366.008075
 30
0.0
 11
304.674849
 21
368.758075
 31
0.0
  0
LINE
  5
E4
330
1F
100
AcDbEntity
  8
NOCUT
100
AcDbLine
 10
304.674849
 20
368.758075
 30
0.0
 11
305.924849
 21
370.008075
 31
0.0
  0
LINE
  5
E5
330
1F
100
AcDbEntity
  8
NOCUT
100
AcDbLine
 10
305.924849
 20
370.008075
 30
0.0
 11
312.768423
 21
370.008075
 31
0.0
  0
LINE
  5
E6
330
1F
100
AcDbEntity
  8
NOCUT
100
AcDbLine
 10
312.768423
 20
370.008075
 30
0.0
 11
314.082028
 21
369.249665
 31
0.0
  0
LINE
  5
E7
330
1F
100
AcDbEntity
  8
NOCUT
100
AcDbLine
 10
314.282028
 20
369.196075
 30
0.0
 11
315.774849
 21
369.196075
 31
0.0
  0
LINE
  5
E8
330
1F
100
AcDbEntity
  8
NOCUT
100
AcDbLine
 10
316.174849
 20
369.596075
 30
0.0
 11
316.174849
 21
369.796195
 31
0.0
  0
LINE
  5
E9
330
1F
100
AcDbEntity
  8
NOCUT
100
AcDbLine
 10
316.174849
 20
369.796195
 30
0.0
 11
316.974849
 21
370.258075
 31
0.0
  0
LINE
  5
EA
330
1F
100
AcDbEntity
  8
NOCUT
100
AcDbLine
 10
316.974849
 20
370.258075
 30
0.0
 11
320.174849
 21
370.258075
 31
0.0
  0
LINE
  5
EB
330
1F
100
AcDbEntity
  8
NOCUT
100
AcDbLine
 10
320.174849
 20
370.258075
 30
0.0
 11
320.870392
 21
370.071705
 31
0.0
  0
LINE
  5
EC
330
1F
100
AcDbEntity
  8
NOCUT
100
AcDbLine
 10
320.97392
 20
370.058075
 30
0.0
 11
321.814701
 21
370.058075
 31
0.0
  0
LINE
  5
ED
330
1F
100
AcDbEntity
  8
NOCUT
100
AcDbLine
 10
322.210808
 20
370.513744
 30
0.0
 11
322.174849
 21
370.769612
 31
0.0
  0
LINE
  5
EE
330
1F
100
AcDbEntity
  8
NOCUT
100
AcDbLine
 10
304.674849
 20
366.008075
 30
0.0
 11
346.049698
 21
366.008075
 31
0.0
  0
ARC
  5
FC
330
1F
100
AcDbEntity
  8
SK1
100
AcDbCircle
 10
314.282028
 20
362.420075
 30
0.0
 40
0.4
100
AcDbArc
 50
90.0
 51
120.0
  0
ARC
  5
FD
330
1F
100
AcDbEntity
  8
SK1
100
AcDbCircle
 10
314.282028
 20
369.596075
 30
0.0
 40
0.4
100
AcDbArc
 50
240.0
 51
270.0
  0
ARC
  5
FE
330
1F
100
AcDbEntity
  8
SK1
100
AcDbCircle
 10
315.774849
 20
369.596075
 30
0.0
 40
0.4
100
AcDbArc
 50
270.0
 51
0.0
  0
ARC
  5
FF
330
1F
100
AcDbEntity
  8
SK1
100
AcDbCircle
 10
315.774849
 20
362.420075
 30
0.0
 40
0.4
100
AcDbArc
 50
0.0
 51
90.0
  0
ARC
  5
100
330
1F
100
AcDbEntity
  8
SK1
100
AcDbCircle
 10
320.97392
 20
361.558075
 30
0.0
 40
0.4
100
AcDbArc
 50
90.0
 51
105.0
  0
ARC
  5
101
330
1F
100
AcDbEntity
  8
SK1
100
AcDbCircle
 10
320.97392
 20
370.458075
 30
0.0
 40
0.4
100
AcDbArc
 50
255.0
 51
270.0
  0
ARC
  5
102
330
1F
100
AcDbEntity
  8
SK1
100
AcDbCircle
 10
321.814701
 20
361.558075
 30
0.0
 40
0.4
100
AcDbArc
 50
25.794779
 51
90.0
  0
ARC
  5
103
330
1F
100
AcDbEntity
  8
SK1
100
AcDbCircle
 10
321.814701
 20
370.458075
 30
0.0
 40
0.4
100
AcDbArc
 50
270.0
 51
334.205221
  0
ARC
  5
10C
330
1F
100
AcDbEntity
  8
NOCUT
100
AcDbCircle
 10
339.093717
 20
366.0080779999999
 30
0.0
 40
7.199999999999969
100
AcDbArc
 50
69.997843
 51
94.33329999999999
  0
ARC
  5
10D
330
1F
100
AcDbEntity
  8
NOCUT
100
AcDbCircle
 10
339.093717
 20
366.0080779999999
 30
0.0
 40
7.199999999999969
100
AcDbArc
 50
14.959531
 51
50.002157
  0
ARC
  5
10E
330
1F
100
AcDbEntity
  8
NOCUT
100
AcDbCircle
 10
314.282028
 20
369.596075
 30
0.0
 40
0.4
100
AcDbArc
 50
240.0
 51
270.0
  0
ARC
  5
10F
330
1F
100
AcDbEntity
  8
NOCUT
100
AcDbCircle
 10
315.774849
 20
369.596075
 30
0.0
 40
0.4
100
AcDbArc
 50
270.0
 51
360.0
  0
ARC
  5
110
330
1F
100
AcDbEntity
  8
NOCUT
100
AcDbCircle
 10
320.97392
 20
370.458075
 30
0.0
 40
0.4
100
AcDbArc
 50
255.0
 51
270.0
  0
ARC
  5
111
330
1F
100
AcDbEntity
  8
NOCUT
100
AcDbCircle
 10
321.814701
 20
370.458075
 30
0.0
 40
0.4
100
AcDbArc
 50
270.0
 51
8.0
  0
ELLIPSE
  5
116
330
1F
100
AcDbEntity
  8
1
100
AcDbEllipse
 10
331.507159
 20
358.605193
 30
0.0
 11
-0.2724877155693917
 21
0.1089396973050519
 31
0.0
210
0.0
220
0.0
230
1.0
 40
0.041155
 41
1.225129421643957
 42
1.783634782538081
  0
ELLIPSE
  5
117
330
1F
100
AcDbEntity
  8
1
100
AcDbEllipse
 10
345.878871
 20
363.425029
 30
0.0
 11
0.0
 21
0.7000000000000001
 31
0.0
210
0.0
220
0.0
230
1.0
 40
0.9848079999999999
 41
4.340839463484448
 42
6.064649327422364
  0
ELLIPSE
  5
118
330
1F
100
AcDbEntity
  8
1
100
AcDbEllipse
 10
339.186092
 20
374.392616
 30
0.0
 11
-0.0000000000000005
 21
-7.751958271798682
 31
0.0
210
0.0
220
0.0
230
1.0
 40
0.9848079999999999
 41
5.606612206825428
 42
5.893484588890576
  0
ELLIPSE
  5
119
330
1F
100
AcDbEntity
  8
1
100
AcDbEllipse
 10
334.784876
 20
370.565126
 30
0.0
 11
-0.0000000000000001
 21
-2.25
 31
0.0
210
0.0
220
0.0
230
1.0
 40
0.9848079999999999
 41
5.258916092129086
 42
6.111417217679358
  0
ELLIPSE
  5
11A
330
1F
100
AcDbEntity
  8
1
100
AcDbEllipse
 10
334.399215
 20
371.0119029999999
 30
0.0
 11
0.0
 21
2.225943073687929
 31
0.0
210
0.0
220
0.0
230
1.0
 40
0.9848079999999999
 41
1.71991678933999
 42
2.383362272533158
  0
ELLIPSE
  5
11B
330
1F
100
AcDbEntity
  8
1
100
AcDbEllipse
 10
338.781551
 20
366.008072
 30
0.0
 11
0.0
 21
6.971964661918647
 31
0.0
210
0.0
220
0.0
230
0.9999999999999998
 40
0.9848079999999999
 41
3.955607536364486
 42
4.002404637317066
  0
ELLIPSE
  5
11E
330
1F
100
AcDbEntity
  8
1
100
AcDbEllipse
 10
338.523329
 20
361.830187
 30
0.0
 11
0.0
 21
1.45
 31
0.0
210
0.0
220
0.0
230
1.0
 40
0.9848079999999999
 41
0.0678132948866425
 42
0.5464151205196261
  0
ELLIPSE
  5
11F
330
1F
100
AcDbEntity
  8
1
100
AcDbEllipse
 10
338.775786
 20
366.016937
 30
0.0
 11
0.0
 21
7.025003303826361
 31
0.0
210
0.0
220
0.0
230
0.9999999999999998
 40
0.9848079999999999
 41
3.951784501084228
 42
4.02221644972135
  0
ELLIPSE
  5
120
330
1F
100
AcDbEntity
  8
1
100
AcDbEllipse
 10
338.775786
 20
366.016937
 30
0.0
 11
0.0
 21
7.025003303826361
 31
0.0
210
0.0
220
0.0
230
0.9999999999999998
 40
0.9848079999999999
 41
3.625351983644379
 42
3.873648805471757
  0
ELLIPSE
  5
121
330
1F
100
AcDbEntity
  8
1
100
AcDbEllipse
 10
338.775786
 20
366.016937
 30
0.0
 11
0.0
 21
7.025003303826361
 31
0.0
210
0.0
220
0.0
230
0.9999999999999998
 40
0.9848079999999999
 41
3.097191946164355
 42
3.558403344588021
  0
ELLIPSE
  5
122
330
1F
100
AcDbEntity
  8
1
100
AcDbEllipse
 10
343.656115
 20
361.873719
 30
0.0
 11
-0.490488634155784
 21
0.2791629389027475
 31
0.0
210
0.0
220
0.0
230
0.9999999999999998
 40
0.7061970000000001
 41
3.024367570323278
 42
3.295037730046181
  0
ELLIPSE
  5
123
330
1F
100
AcDbEntity
  8
1
100
AcDbEllipse
 10
344.008231
 20
363.00469
 30
0.0
 11
-0.608389736241048
 21
-0.3683271461154782
 31
0.0
210
0.0
220
0.0
230
1.0
 40
0.560175
 41
2.577387960198862
 42
3.241344372488663
  0
ELLIPSE
  5
124
330
1F
100
AcDbEntity
  8
1
100
AcDbEllipse
 10
337.945128
 20
361.830187
 30
0.0
 11
0.0
 21
1.25
 31
0.0
210
0.0
220
0.0
230
1.0
 40
0.9848079999999999
 41
0.0
 42
6.283185307179585
  0
ELLIPSE
  5
125
330
1F
100
AcDbEntity
  8
1
100
AcDbEllipse
 10
337.875669
 20
361.830187
 30
0.0
 11
0.0
 21
0.8499999999999989
 31
0.0
210
0.0
220
0.0
230
0.9999999999999998
 40
0.9848079999999999
 41
0.0
 42
6.283185307179585
  0
ELLIPSE
  5
126
330
1F
100
AcDbEntity
  8
1
100
AcDbEllipse
 10
338.973244
 20
365.318319
 30
0.0
 11
7.057881080341869
 21
-1.232736028961324
 31
0.0
210
0.0
220
0.0
230
1.0
 40
0.179933
 41
6.143225096507118
 42
6.212142925259226
  0
ELLIPSE
  5
127
330
1F
100
AcDbEntity
  8
1
100
AcDbEllipse
 10
339.238245
 20
366.008072
 30
0.0
 11
0.0
 21
7.151731891901519
 31
0.0
210
0.0
220
0.0
230
1.0
 40
0.9848079999999999
 41
4.427569587216893
 42
4.455214796480754
  0
ELLIPSE
  5
128
330
1F
100
AcDbEntity
  8
1
100
AcDbEllipse
 10
338.946458
 20
374.392616
 30
0.0
 11
0.0
 21
7.545715889936879
 31
0.0
210
0.0
220
0.0
230
0.9999999999999998
 40
0.9848079999999999
 41
2.507184049499532
 42
2.530963564220779
  0
ELLIPSE
  5
129
330
1F
100
AcDbEntity
  8
1
100
AcDbEllipse
 10
333.535994
 20
370.565126
 30
0.0
 11
-0.2177642201585874
 21
2.247402011606947
 31
0.0
210
0.0
220
0.0
230
1.0
 40
0.4963780000000001
 41
1.330531641762209
 42
1.447763658656975
  0
ELLIPSE
  5
12A
330
1F
100
AcDbEntity
  8
1
100
AcDbEllipse
 10
344.896744
 20
363.549506
 30
0.0
 11
-0.2025911778768788
 21
-0.1334824029046996
 31
0.0
210
0.0
220
0.0
230
0.9999999999999998
 40
0.778543
 41
3.382450349749258
 42
3.801470702626581
  0
ELLIPSE
  5
12B
330
1F
100
AcDbEntity
  8
1
100
AcDbEllipse
 10
338.690958
 20
365.760329
 30
0.0
 11
-6.600373217999978
 21
3.068145435034115
 31
0.0
210
0.0
220
0.0
230
1.0
 40
0.948422
 41
2.906344415617473
 42
2.911901848636763
  0
ELLIPSE
  5
12C
330
1F
100
AcDbEntity
  8
1
100
AcDbEllipse
 10
338.825905
 20
366.016937
 30
0.0
 11
0.0
 21
7.381120675492776
 31
0.0
210
0.0
220
0.0
230
1.0
 40
0.9848079999999999
 41
3.097191946164356
 42
4.022216449721349
  0
ELLIPSE
  5
12D
330
1F
100
AcDbEntity
  8
1
100
AcDbEllipse
 10
339.327987
 20
366.016937
 30
0.0
 11
0.0
 21
7.839069713977174
 31
0.0
210
0.0
220
0.0
230
1.0
 40
0.9848079999999999
 41
3.097191946164348
 42
4.340839463484448
  0
ELLIPSE
  5
12E
330
1F
100
AcDbEntity
  8
1
100
AcDbEllipse
 10
338.889113
 20
370.188314
 30
0.0
 11
-0.0000000000000001
 21
-1.725
 31
0.0
210
0.0
220
0.0
230
1.0
 40
0.9848079999999999
 41
3.141618453240401
 42
6.28311290284726
  0
ELLIPSE
  5
12F
330
1F
100
AcDbEntity
  8
1
100
AcDbEllipse
 10
339.053562
 20
371.256936
 30
0.0
 11
0.0
 21
-0.0971906295548313
 31
0.0
210
0.0
220
0.0
230
1.0
 40
0.9848080000000001
 41
0.7115126273316759
 42
1.562837156660509
  0
ELLIPSE
  5
130
330
1F
100
AcDbEntity
  8
1
100
AcDbEllipse
 10
339.244984
 20
371.2553890000001
 30
0.0
 11
0.0
 21
-0.0971906295548319
 31
0.0
210
0.0
220
0.0
230
1.0
 40
0.9848079999999999
 41
3.329506505323192
 42
4.704429810250311
  0
ELLIPSE
  5
131
330
1F
100
AcDbEntity
  8
1
100
AcDbEllipse
 10
339.320973
 20
370.849614
 30
0.0
 11
0.0
 21
-0.5102374061617939
 31
0.0
210
0.0
220
0.0
230
1.0
 40
0.9848080000000001
 41
2.414161685989323
 42
3.329506505323201
  0
ELLIPSE
  5
132
330
1F
100
AcDbEntity
  8
1
100
AcDbEllipse
 10
339.591457
 20
371.158112
 30
0.0
 11
0.0
 21
-0.0971906295548315
 31
0.0
210
0.0
220
0.0
230
1.0
 40
0.9848079999999999
 41
1.039238381062199
 42
2.414161685989326
  0
ELLIPSE
  5
133
330
1F
100
AcDbEntity
  8
1
100
AcDbEllipse
 10
339.756472
 20
371.059585
 30
0.0
 11
0.0
 21
-0.0971906295548315
 31
0.0
210
0.0
220
0.0
230
1.0
 40
0.9848079999999999
 41
4.180831034652001
 42
5.03215556398083
  0
ELLIPSE
  5
134
330
1F
100
AcDbEntity
  8
1
100
AcDbEllipse
 10
340.142624
 20
371.189424
 30
0.0
 11
0.0
 21
-0.5102374061617935
 31
0.0
210
0.0
220
0.0
230
1.0
 40
0.9848080000000001
 41
5.032155563980816
 42
5.947500383314692
  0
ELLIPSE
  5
135
330
1F
100
AcDbEntity
  8
1
100
AcDbEllipse
 10
340.008627
 20
370.799431
 30
0.0
 11
0.0
 21
-0.0971906295548313
 31
0.0
210
0.0
220
0.0
230
1.0
 40
0.9848080000000001
 41
5.947500383314703
 42
6.798824912643497
  0
ELLIPSE
  5
136
330
1F
100
AcDbEntity
  8
1
100
AcDbEllipse
 10
340.103018
 20
370.630324
 30
0.0
 11
0.0
 21
-0.0971906295548319
 31
0.0
210
0.0
220
0.0
230
1.0
 40
0.9848079999999999
 41
2.282308954126584
 42
3.657232259053686
  0
ELLIPSE
  5
137
330
1F
100
AcDbEntity
  8
1
100
AcDbEllipse
 10
339.79494
 20
370.360613
 30
0.0
 11
0.0
 21
-0.5102374061617939
 31
0.0
210
0.0
220
0.0
230
1.0
 40
0.9848080000000001
 41
1.366964134792724
 42
2.282308954126601
  0
ELLIPSE
  5
138
330
1F
100
AcDbEntity
  8
1
100
AcDbEllipse
 10
340.19329
 20
370.277002
 30
0.0
 11
0.0
 21
-0.0971906295548315
 31
0.0
210
0.0
220
0.0
230
1.0
 40
0.9848079999999999
 41
6.275226137045221
 42
7.650149441972295
  0
ELLIPSE
  5
139
330
1F
100
AcDbEntity
  8
1
100
AcDbEllipse
 10
338.414063
 20
362.118061
 30
0.0
 11
0.0
 21
1.25
 31
0.0
210
0.0
220
0.0
230
1.0
 40
0.9848079999999999
 41
0.1833908459702639
 42
0.7681195603348322
  0
ELLIPSE
  5
13A
330
1F
100
AcDbEntity
  8
1
100
AcDbEllipse
 10
337.9650680000001
 20
362.118061
 30
0.0
 11
-0.0000000000000001
 21
-1.25
 31
0.0
210
0.0
220
0.0
230
1.0
 40
0.9848079999999999
 41
4.712388976986325
 42
4.757942251853068
  0
ELLIPSE
  5
13B
330
1F
100
AcDbEntity
  8
1
100
AcDbEllipse
 10
337.9650680000001
 20
362.118061
 30
0.0
 11
-0.0000000000000001
 21
-1.25
 31
0.0
210
0.0
220
0.0
230
1.0
 40
0.9848079999999999
 41
2.066873758949676
 42
4.712388976986327
  0
ELLIPSE
  5
13C
330
1F
100
AcDbEntity
  8
1
100
AcDbEllipse
 10
339.112925
 20
366.180433
 30
0.0
 11
7.153627983065891
 21
-0.7971939303834103
 31
0.0
210
0.0
220
0.0
230
0.9999999999999998
 40
0.019525
 41
0.8511223955397632
 42
0.8674075556362835
  0
ELLIPSE
  5
13D
330
1F
100
AcDbEntity
  8
1
100
AcDbEllipse
 10
344.557883
 20
364.12738
 30
0.0
 11
0.9064344732287247
 21
2.633556312247696
 31
0.0
210
0.0
220
0.0
230
1.0
 40
0.4924100000000001
 41
4.802736944242356
 42
4.982828130976545
  0
ELLIPSE
  5
13E
330
1F
100
AcDbEntity
  8
1
100
AcDbEllipse
 10
344.557883
 20
364.12738
 30
0.0
 11
0.9064344732287313
 21
2.633556312247715
 31
0.0
210
0.0
220
0.0
230
1.0
 40
0.4924100000000001
 41
1.081084241082155
 42
1.166967032872262
  0
ELLIPSE
  5
13F
330
1F
100
AcDbEntity
  8
1
100
AcDbEllipse
 10
344.557883
 20
364.12738
 30
0.0
 11
0.9064344732287313
 21
2.633556312247715
 31
0.0
210
0.0
220
0.0
230
1.0
 40
0.4924100000000001
 41
3.194712472315923
 42
3.383549678189863
  0
ELLIPSE
  5
140
330
1F
100
AcDbEntity
  8
1
100
AcDbEllipse
 10
339.055768
 20
370.188314
 30
0.0
 11
0.0
 21
1.986242064468146
 31
0.0
210
0.0
220
0.0
230
1.0
 40
0.9848079999999999
 41
0.0
 42
6.283185307179585
  0
ELLIPSE
  5
141
330
1F
100
AcDbEntity
  8
1
100
AcDbEllipse
 10
339.372328
 20
365.93042
 30
0.0
 11
-0.5031185646746441
 21
8.280548867220174
 31
0.0
210
0.0
220
0.0
230
0.9999999999999998
 40
0.923273
 41
4.724321661537707
 42
5.006603757352302
  0
ELLIPSE
  5
142
330
1F
100
AcDbEntity
  8
1
100
AcDbEllipse
 10
339.388663
 20
366.648602
 30
0.0
 11
-3.331332848870306
 21
-7.804675551247161
 31
0.0
210
0.0
220
0.0
230
1.0
 40
0.8857459999999999
 41
1.877223027650764
 42
1.902560881492661
  0
ELLIPSE
  5
143
330
1F
100
AcDbEntity
  8
1
100
AcDbEllipse
 10
346.006618
 20
365.804392
 30
0.0
 11
-0.2802777090563651
 21
-0.0621215879883957
 31
0.0
210
0.0
220
0.0
230
1.0
 40
0.088058
 41
1.505300622064373
 42
2.063805982685251
  0
ELLIPSE
  5
144
330
1F
100
AcDbEntity
  8
1
100
AcDbEllipse
 10
339.32559
 20
366.0015640000001
 30
0.0
 11
0.0
 21
7.839069713977176
 31
0.0
210
0.0
220
0.0
230
1.0
 40
0.9848079999999999
 41
5.100276318531356
 42
6.327586014605016
  0
ELLIPSE
  5
145
330
1F
100
AcDbEntity
  8
1
100
AcDbEllipse
 10
332.59925
 20
372.844216
 30
0.0
 11
0.0
 21
0.7000000000000001
 31
0.0
210
0.0
220
0.0
230
1.0
 40
0.9848079999999999
 41
0.0444007074254323
 42
1.785266211015643
  0
ELLIPSE
  5
146
330
1F
100
AcDbEntity
  8
1
100
AcDbEllipse
 10
339.468785
 20
374.36362
 30
0.0
 11
0.0
 21
7.839069713977174
 31
0.0
210
0.0
220
0.0
230
1.0
 40
0.9848079999999999
 41
1.785266211015646
 42
3.028913728335748
  0
ELLIPSE
  5
147
330
1F
100
AcDbEntity
  8
1
100
AcDbEllipse
 10
338.961673
 20
370.188314
 30
0.0
 11
-0.0000000000000001
 21
-1.938834786589108
 31
0.0
210
0.0
220
0.0
230
0.9999999999999998
 40
0.9848079999999999
 41
5.78517045477778
 42
6.005572807195261
  0
ELLIPSE
  5
148
330
1F
100
AcDbEntity
  8
1
100
AcDbEllipse
 10
338.961673
 20
370.188314
 30
0.0
 11
-0.0000000000000001
 21
-1.938834786589108
 31
0.0
210
0.0
220
0.0
230
0.9999999999999998
 40
0.9848079999999999
 41
3.434669912044198
 42
3.639560771554767
  0
ELLIPSE
  5
149
330
1F
100
AcDbEntity
  8
1
100
AcDbEllipse
 10
340.191767
 20
370.082627
 30
0.0
 11
0.0
 21
-0.0971906295548315
 31
0.0
210
0.0
220
0.0
230
1.0
 40
0.9848079999999999
 41
3.133633483455428
 42
3.984958012784256
  0
ELLIPSE
  5
14A
330
1F
100
AcDbEntity
  8
1
100
AcDbEllipse
 10
340.495578
 20
369.80797
 30
0.0
 11
0.0
 21
-0.5102374061617935
 31
0.0
210
0.0
220
0.0
230
1.0
 40
0.9848080000000001
 41
3.98495801278422
 42
4.900302832118091
  0
ELLIPSE
  5
14B
330
1F
100
AcDbEntity
  8
1
100
AcDbEllipse
 10
340.095967
 20
369.730809
 30
0.0
 11
0.0
 21
-0.0971906295548313
 31
0.0
210
0.0
220
0.0
230
1.0
 40
0.9848080000000001
 41
4.900302832118092
 42
5.751627361446919
  0
ELLIPSE
  5
14C
330
1F
100
AcDbEntity
  8
1
100
AcDbEllipse
 10
339.998937
 20
369.563249
 30
0.0
 11
0.0
 21
-0.0971906295548319
 31
0.0
210
0.0
220
0.0
230
1.0
 40
0.9848079999999999
 41
1.235111402930009
 42
2.61003470785709
  0
ELLIPSE
  5
14D
330
1F
100
AcDbEntity
  8
1
100
AcDbEllipse
 10
339.614869
 20
369.699313
 30
0.0
 11
0.0
 21
-0.5102374061617939
 31
0.0
210
0.0
220
0.0
230
1.0
 40
0.9848080000000001
 41
0.3197665835961246
 42
1.235111402930001
  0
ELLIPSE
  5
14E
330
1F
100
AcDbEntity
  8
1
100
AcDbEllipse
 10
339.742736
 20
369.307204
 30
0.0
 11
0.0
 21
-0.0971906295548315
 31
0.0
210
0.0
220
0.0
230
1.0
 40
0.9848079999999999
 41
5.228028585848596
 42
6.602951890775699
  0
ELLIPSE
  5
14F
330
1F
100
AcDbEntity
  8
1
100
AcDbEllipse
 10
339.576198
 20
369.211356
 30
0.0
 11
0.0
 21
-0.0971906295548315
 31
0.0
210
0.0
220
0.0
230
1.0
 40
0.9848079999999999
 41
2.086435932258813
 42
2.93776046158762
  0
ELLIPSE
  5
150
330
1F
100
AcDbEntity
  8
1
100
AcDbEllipse
 10
339.493857
 20
368.806861
 30
0.0
 11
0.0
 21
-0.5102374061617935
 31
0.0
210
0.0
220
0.0
230
1.0
 40
0.9848080000000001
 41
2.937760461587624
 42
3.853105280921498
  0
ELLIPSE
  5
151
330
1F
100
AcDbEntity
  8
1
100
AcDbEllipse
 10
339.228244
 20
369.119692
 30
0.0
 11
0.0
 21
-0.0971906295548313
 31
0.0
210
0.0
220
0.0
230
1.0
 40
0.9848080000000001
 41
3.853105280921497
 42
4.704429810250298
  0
ELLIPSE
  5
152
330
1F
100
AcDbEntity
  8
1
100
AcDbEllipse
 10
339.036822
 20
369.121239
 30
0.0
 11
0.0
 21
-0.0971906295548319
 31
0.0
210
0.0
220
0.0
230
1.0
 40
0.9848079999999999
 41
0.1879138517334006
 42
1.562837156660505
  0
ELLIPSE
  5
153
330
1F
100
AcDbEntity
  8
1
100
AcDbEllipse
 10
338.960833
 20
369.527015
 30
0.0
 11
0.0
 21
-0.5102374061617939
 31
0.0
210
0.0
220
0.0
230
1.0
 40
0.9848080000000001
 41
5.55575433957911
 42
6.471099158912987
  0
ELLIPSE
  5
154
330
1F
100
AcDbEntity
  8
1
100
AcDbEllipse
 10
338.690349
 20
369.218516
 30
0.0
 11
0.0
 21
-0.0971906295548315
 31
0.0
210
0.0
220
0.0
230
1.0
 40
0.9848079999999999
 41
4.180831034652005
 42
5.555754339579093
  0
ELLIPSE
  5
155
330
1F
100
AcDbEntity
  8
1
100
AcDbEllipse
 10
338.525334
 20
369.317043
 30
0.0
 11
0.0
 21
-0.0971906295548315
 31
0.0
210
0.0
220
0.0
230
1.0
 40
0.9848079999999999
 41
1.039238381062222
 42
1.890562910391004
  0
ELLIPSE
  5
156
330
1F
100
AcDbEntity
  8
1
100
AcDbEllipse
 10
338.139182
 20
369.187204
 30
0.0
 11
0.0
 21
-0.5102374061617935
 31
0.0
210
0.0
220
0.0
230
1.0
 40
0.9848080000000001
 41
1.890562910391023
 42
2.805907729724894
  0
ELLIPSE
  5
157
330
1F
100
AcDbEntity
  8
1
100
AcDbEllipse
 10
338.273179
 20
369.577197
 30
0.0
 11
0.0
 21
-0.0971906295548313
 31
0.0
210
0.0
220
0.0
230
1.0
 40
0.9848080000000001
 41
2.805907729724908
 42
3.657232259053736
  0
ELLIPSE
  5
158
330
1F
100
AcDbEntity
  8
1
100
AcDbEllipse
 10
338.178787
 20
369.746304
 30
0.0
 11
0.0
 21
-0.0971906295548319
 31
0.0
210
0.0
220
0.0
230
1.0
 40
0.9848079999999999
 41
5.42390160771638
 42
6.798824912643488
  0
ELLIPSE
  5
159
330
1F
100
AcDbEntity
  8
1
100
AcDbEllipse
 10
338.486866
 20
370.016015
 30
0.0
 11
0.0
 21
-0.5102374061617939
 31
0.0
210
0.0
220
0.0
230
1.0
 40
0.9848080000000001
 41
4.508556788382516
 42
5.423901607716393
  0
ELLIPSE
  5
15A
330
1F
100
AcDbEntity
  8
1
100
AcDbEllipse
 10
338.088515
 20
370.099626
 30
0.0
 11
0.0
 21
-0.0971906295548315
 31
0.0
210
0.0
220
0.0
230
1.0
 40
0.9848079999999999
 41
3.13363348345541
 42
4.508556788382528
  0
ELLIPSE
  5
15B
330
1F
100
AcDbEntity
  8
1
100
AcDbEllipse
 10
338.090039
 20
370.294001
 30
0.0
 11
0.0
 21
-0.0971906295548315
 31
0.0
210
0.0
220
0.0
230
1.0
 40
0.9848079999999999
 41
6.275226137045221
 42
7.12655066637401
  0
ELLIPSE
  5
15C
330
1F
100
AcDbEntity
  8
1
100
AcDbEllipse
 10
337.786227
 20
370.568658
 30
0.0
 11
0.0
 21
-0.5102374061617935
 31
0.0
210
0.0
220
0.0
230
1.0
 40
0.9848080000000001
 41
0.8433653591944208
 42
1.758710178528301
  0
ELLIPSE
  5
15D
330
1F
100
AcDbEntity
  8
1
100
AcDbEllipse
 10
338.185838
 20
370.645819
 30
0.0
 11
0.0
 21
-0.0971906295548313
 31
0.0
210
0.0
220
0.0
230
1.0
 40
0.9848080000000001
 41
1.758710178528299
 42
2.610034707857121
  0
ELLIPSE
  5
15E
330
1F
100
AcDbEntity
  8
1
100
AcDbEllipse
 10
338.282869
 20
370.813379
 30
0.0
 11
0.0
 21
-0.0971906295548319
 31
0.0
210
0.0
220
0.0
230
1.0
 40
0.9848079999999999
 41
4.376704056519793
 42
5.751627361446878
  0
ELLIPSE
  5
15F
330
1F
100
AcDbEntity
  8
1
100
AcDbEllipse
 10
338.6669359999999
 20
370.677315
 30
0.0
 11
0.0
 21
-0.5102374061617939
 31
0.0
210
0.0
220
0.0
230
1.0
 40
0.9848080000000001
 41
3.461359237185916
 42
4.376704056519795
  0
ELLIPSE
  5
160
330
1F
100
AcDbEntity
  8
1
100
AcDbEllipse
 10
338.53907
 20
371.069424
 30
0.0
 11
0.0
 21
-0.0971906295548315
 31
0.0
210
0.0
220
0.0
230
1.0
 40
0.9848079999999999
 41
2.086435932258805
 42
3.461359237185941
  0
ELLIPSE
  5
161
330
1F
100
AcDbEntity
  8
1
100
AcDbEllipse
 10
338.705608
 20
371.165272
 30
0.0
 11
0.0
 21
-0.0971906295548315
 31
0.0
210
0.0
220
0.0
230
1.0
 40
0.9848079999999999
 41
5.228028585848605
 42
6.079353115177451
  0
ELLIPSE
  5
162
330
1F
100
AcDbEntity
  8
1
100
AcDbEllipse
 10
338.787948
 20
371.569767
 30
0.0
 11
0.0
 21
-0.5102374061617935
 31
0.0
210
0.0
220
0.0
230
1.0
 40
0.9848080000000001
 41
6.07935311517741
 42
6.994697934511287
  0
ELLIPSE
  5
163
330
1F
100
AcDbEntity
  8
1
100
AcDbEllipse
 10
339.140903
 20
370.188314
 30
0.0
 11
0.0
 21
1.199999999999999
 31
0.0
210
0.0
220
0.0
230
1.0
 40
0.9848079999999999
 41
0.0
 42
6.283185307179585
  0
ELLIPSE
  5
164
330
1F
100
AcDbEntity
  8
1
100
AcDbEllipse
 10
339.084591
 20
370.188314
 30
0.0
 11
0.0
 21
1.725
 31
0.0
210
0.0
220
0.0
230
1.0
 40
0.9848079999999999
 41
0.0
 42
6.283185307179585
  0
ELLIPSE
  5
165
330
1F
100
AcDbEntity
  8
1
100
AcDbEllipse
 10
337.9650680000001
 20
362.118061
 30
0.0
 11
0.0
 21
1.5
 31
0.0
210
0.0
220
0.0
230
1.0
 40
0.9848079999999999
 41
0.1136864606839349
 42
1.256637071692291
  0
ELLIPSE
  5
166
330
1F
100
AcDbEntity
  8
1
100
AcDbEllipse
 10
337.9650680000001
 20
362.118061
 30
0.0
 11
0.0
 21
1.5
 31
0.0
210
0.0
220
0.0
230
1.0
 40
0.9848079999999999
 41
1.256637071692291
 42
2.598588146259436
  0
ELLIPSE
  5
167
330
1F
100
AcDbEntity
  8
1
100
AcDbEllipse
 10
345.961963
 20
365.141668
 30
0.0
 11
-2.24868411252747
 21
-3.928123605342049
 31
0.0
210
0.0
220
0.0
230
1.0
 40
0.509195
 41
4.839042993167943
 42
6.316547823863322
  0
ELLIPSE
  5
168
330
1F
100
AcDbEntity
  8
1
100
AcDbEllipse
 10
339.112925
 20
366.180433
 30
0.0
 11
-7.153627983065892
 21
0.7971939303834263
 31
0.0
210
0.0
220
0.0
230
1.0
 40
0.019525
 41
4.365959907496674
 42
4.74821770448236
  0
ELLIPSE
  5
169
330
1F
100
AcDbEntity
  8
1
100
AcDbEllipse
 10
338.781551
 20
366.008072
 30
0.0
 11
0.0
 21
6.971964661918647
 31
0.0
210
0.0
220
0.0
230
0.9999999999999998
 40
0.9848079999999999
 41
3.107818169977213
 42
3.557650647252116
  0
ELLIPSE
  5
16A
330
1F
100
AcDbEntity
  8
1
100
AcDbEllipse
 10
343.886768
 20
366.008072
 30
0.0
 11
-41.68392136954678
 21
0.0000000000000488
 31
0.0
210
0.0
220
0.0
230
1.0
 40
0.176327
 41
5.004535595583329
 42
5.061466493708643
  0
ELLIPSE
  5
16B
330
1F
100
AcDbEntity
  8
1
100
AcDbEllipse
 10
333.253348
 20
366.008072
 30
0.0
 11
-1.085420271897693
 21
7.347753184231314
 31
0.0
210
0.0
220
0.0
230
0.9999999999999998
 40
0.167422
 41
0.1129452976109661
 42
0.2674199171845677
  0
ELLIPSE
  5
16C
330
1F
100
AcDbEntity
  8
1
100
AcDbEllipse
 10
341.667024
 20
366.006423
 30
0.0
 11
-60.01236636415901
 21
-0.6445410597470475
 31
0.0
210
0.0
220
0.0
230
0.9999999999999998
 40
0.121975
 41
1.402186956756327
 42
1.406463138596462
  0
ELLIPSE
  5
16D
330
1F
100
AcDbEntity
  8
1
100
AcDbEllipse
 10
328.741089
 20
366.008322
 30
0.0
 11
-41.68463570553996
 21
0.0000204414985237
 31
0.0
210
0.0
220
0.0
230
1.0
 40
0.17633
 41
1.647297218816804
 42
1.652847338632675
  0
ELLIPSE
  5
16E
330
1F
100
AcDbEntity
  8
1
100
AcDbEllipse
 10
347.98037
 20
366.008072
 30
0.0
 11
-44.76924685252568
 21
0.0000000000000524
 31
0.0
210
0.0
220
0.0
230
1.0
 40
0.159215
 41
1.224057685686185
 42
1.358555788438865
  0
SPLINE
  5
170
330
1F
100
AcDbEntity
  8
1
100
AcDbSpline
210
0.0
220
0.0
230
1.0
 70
     8
 71
     3
 72
     9
 73
     5
 74
     0
 42
0.000000001
 43
0.0000000001
 40
0.0
 40
0.0
 40
0.0
 40
0.0
 40
0.5
 40
1.0
 40
1.0
 40
1.0
 40
1.0
 10
331.7712801284816
 20
358.5110568933194
 30
0.0
 10
331.7499835546307
 20
358.5120176948702
 30
0.0
 10
331.7081005665407
 20
358.5174015266493
 30
0.0
 10
331.6675835334649
 20
358.5294447749043
 30
0.0
 10
331.647680096733
 20
358.5371975133705
 30
0.0
  0
SPLINE
  5
171
330
1F
100
AcDbEntity
  8
1
100
AcDbSpline
210
0.0
220
0.0
230
1.0
 70
     8
 71
     3
 72
    11
 73
     7
 74
     0
 42
0.000000001
 43
0.0000000001
 40
0.0
 40
0.0
 40
0.0
 40
0.0
 40
0.1675269468778862
 40
0.502830706105957
 40
0.8403010407316299
 40
1.0
 40
1.0
 40
1.0
 40
1.0
 10
338.0187513552194
 20
363.0822234435266
 30
0.0
 10
338.0416706533654
 20
363.0960858808354
 30
0.0
 10
338.1115247284456
 20
363.1356174122485
 30
0.0
 10
338.2330104452773
 20
363.1909621609459
 30
0.0
 10
338.3581448501413
 20
363.2315609829
 30
0.0
 10
338.4342942305066
 20
363.2486001889257
 30
0.0
 10
338.4588720381935
 20
363.2534657613384
 30
0.0
  0
SPLINE
  5
175
330
1F
100
AcDbEntity
  8
1
100
AcDbSpline
210
0.0
220
0.0
230
1.0
 70
     8
 71
     3
 72
     8
 73
     4
 74
     0
 42
0.000000001
 43
0.0000000001
 40
0.0
 40
0.0
 40
0.0
 40
0.0
 40
1.0
 40
1.0
 40
1.0
 40
1.0
 10
344.4951324371576
 20
361.4267725279717
 30
0.0
 10
344.4937978289269
 20
361.4214572160421
 30
0.0
 10
344.4922827284432
 20
361.4162080317031
 30
0.0
 10
344.4905910671959
 20
361.4110246146321
 30
0.0
  0
SPLINE
  5
176
330
1F
100
AcDbEntity
  8
1
100
AcDbSpline
210
0.0
220
0.0
230
1.0
 70
     8
 71
     3
 72
    10
 73
     6
 74
     0
 42
0.000000001
 43
0.0000000001
 40
0.0
 40
0.0
 40
0.0
 40
0.0
 40
0.5
 40
0.5
 40
1.0
 40
1.0
 40
1.0
 40
1.0
 10
344.4905910671959
 20
361.411024614632
 30
0.0
 10
344.4868498016339
 20
361.3995610075917
 30
0.0
 10
344.4819540929369
 20
361.3885503954043
 30
0.0
 10
344.4701293054165
 20
361.3673270502608
 30
0.0
 10
344.4631785331052
 20
361.3571167928351
 30
0.0
 10
344.4554696254314
 20
361.34752206496
 30
0.0
  0
SPLINE
  5
177
330
1F
100
AcDbEntity
  8
1
100
AcDbSpline
210
0.0
220
0.0
230
1.0
 70
     8
 71
     3
 72
     8
 73
     4
 74
     0
 42
0.000000001
 43
0.0000000001
 40
0.0
 40
0.0
 40
0.0
 40
0.0
 40
1.0
 40
1.0
 40
1.0
 40
1.0
 10
338.6413295330223
 20
363.0795010793503
 30
0.0
 10
338.6483759847416
 20
363.0792542744938
 30
0.0
 10
338.6554233922948
 20
363.0788930613589
 30
0.0
 10
338.6624741353714
 20
363.0784393008023
 30
0.0
  0
SPLINE
  5
178
330
1F
100
AcDbEntity
  8
1
100
AcDbSpline
210
0.0
220
0.0
230
1.0
 70
     8
 71
     3
 72
    10
 73
     6
 74
     0
 42
0.000000001
 43
0.0000000001
 40
0.0
 40
0.0
 40
0.0
 40
0.0
 40
0.5
 40
0.5
 40
1.0
 40
1.0
 40
1.0
 40
1.0
 10
334.4061384100679
 20
368.3482365968687
 30
0.0
 10
334.4349687493604
 20
368.3361696883582
 30
0.0
 10
334.4601645341996
 20
368.328042584565
 30
0.0
 10
334.5050189834193
 20
368.3175542916584
 30
0.0
 10
334.5246617705631
 20
368.3152124054612
 30
0.0
 10
334.5420473275108
 20
368.3151281533468
 30
0.0
  0
SPLINE
  5
179
330
1F
100
AcDbEntity
  8
1
100
AcDbSpline
210
0.0
220
0.0
230
1.0
 70
     8
 71
     3
 72
    18
 73
    14
 74
     0
 42
0.000000001
 43
0.0000000001
 40
0.0
 40
0.0
 40
0.0
 40
0.0
 40
0.2500000000000027
 40
0.2500000000000027
 40
0.5000000000000057
 40
0.5000000000000057
 40
0.5625000000000058
 40
0.5625000000000058
 40
0.6250000000000061
 40
0.6250000000000061
 40
0.7500000000000047
 40
0.7500000000000047
 40
1.0
 40
1.0
 40
1.0
 40
1.0
 10
332.4021398470458
 20
370.7336562464753
 30
0.0
 10
332.4064384982742
 20
370.6118994152301
 30
0.0
 10
332.4210879684737
 20
370.4927982561517
 30
0.0
 10
332.4686681773047
 20
370.2588729328682
 30
0.0
 10
332.5016249290267
 20
370.1440590757051
 30
0.0
 10
332.5539163383953
 20
370.002982521122
 30
0.0
 10
332.5649330414305
 20
369.9748904702346
 30
0.0
 10
332.5880883980348
 20
369.9189514195007
 30
0.0
 10
332.6002011121667
 20
369.8911707204771
 30
0.0
 10
332.6379844083579
 20
369.8086921801837
 30
0.0
 10
332.6651504114088
 20
369.7547281621606
 30
0.0
 10
332.7524276724972
 20
369.5958072303952
 30
0.0
 10
332.8182866537313
 20
369.4938017577428
 30
0.0
 10
332.8918267748164
 20
369.3957482541298
 30
0.0
  0
SPLINE
  5
17A
330
1F
100
AcDbEntity
  8
1
100
AcDbSpline
210
0.0
220
0.0
230
1.0
 70
     8
 71
     3
 72
    12
 73
     8
 74
     0
 42
0.000000001
 43
0.0000000001
 40
0.0
 40
0.0
 40
0.0
 40
0.0
 40
0.0975752423475481
 40
0.0975752423475481
 40
0.5487876211737738
 40
0.5487876211737738
 40
1.0
 40
1.0
 40
1.0
 40
1.0
 10
332.3390551188554
 20
371.3391065734487
 30
0.0
 10
332.341012535751
 20
371.3278583766551
 30
0.0
 10
332.3429741521246
 20
371.3166147619004
 30
0.0
 10
332.3540308005393
 20
371.2534040691503
 30
0.0
 10
332.3632133122027
 20
371.201532439932
 30
0.0
 10
332.3817829220603
 20
371.0980124052986
 30
0.0
 10
332.3911733571708
 20
371.0463461858228
 30
0.0
 10
332.4006572889665
 20
370.994928479916
 30
0.0
  0
SPLINE
  5
17B
330
1F
100
AcDbEntity
  8
1
100
AcDbSpline
210
0.0
220
0.0
230
1.0
 70
     8
 71
     3
 72
     8
 73
     4
 74
     0
 42
0.000000001
 43
0.0000000001
 40
0.0
 40
0.0
 40
0.0
 40
0.0
 40
1.0
 40
1.0
 40
1.0
 40
1.0
 10
344.5049027610794
 20
361.4615189377928
 30
0.0
 10
344.5013072433223
 20
361.4499704071982
 30
0.0
 10
344.4980490401813
 20
361.4383884123098
 30
0.0
 10
344.4951324371577
 20
361.4267725279717
 30
0.0
  0
SPLINE
  5
17C
330
1F
100
AcDbEntity
  8
1
100
AcDbSpline
210
0.0
220
0.0
230
1.0
 70
     8
 71
     3
 72
     8
 73
     4
 74
     0
 42
0.000000001
 43
0.0000000001
 40
0.0
 40
0.0
 40
0.0
 40
0.0
 40
1.0
 40
1.0
 40
1.0
 40
1.0
 10
345.1407228888357
 20
363.5037250104637
 30
0.0
 10
345.143926098752
 20
363.5140134779997
 30
0.0
 10
345.1460489754623
 20
363.5244441724974
 30
0.0
 10
345.1470582026172
 20
363.5350191404858
 30
0.0
  0
SPLINE
  5
17D
330
1F
100
AcDbEntity
  8
1
100
AcDbSpline
210
0.0
220
0.0
230
1.0
 70
     8
 71
     3
 72
    17
 73
    13
 74
     0
 42
0.000000001
 43
0.0000000001
 40
0.0
 40
0.0
 40
0.0
 40
0.0
 40
0.2500000000000046
 40
0.2500000000000046
 40
0.3750000000000063
 40
0.3750000000000063
 40
0.500000000000008
 40
0.6250000000000097
 40
0.6250000000000097
 40
0.7500000000000115
 40
0.7500000000000115
 40
1.0
 40
1.0
 40
1.0
 40
1.0
 10
345.0686981656941
 20
363.7167586514918
 30
0.0
 10
345.0818469804223
 20
363.7062474501068
 30
0.0
 10
345.0934829092134
 20
363.6941713649848
 30
0.0
 10
345.1088918699714
 20
363.673818986214
 30
0.0
 10
345.113710655394
 20
363.6666006822928
 30
0.0
 10
345.1224148814077
 20
363.6517360235042
 30
0.0
 10
345.1302215368231
 20
363.6364234225427
 30
0.0
 10
345.1362503949393
 20
363.6202269396338
 30
0.0
 10
345.1413341026959
 20
363.6035658095497
 30
0.0
 10
345.1433806347533
 20
363.5950470501177
 30
0.0
 10
345.1478480277335
 20
363.5695484215738
 30
0.0
 10
345.1487163150531
 20
363.552393312246
 30
0.0
 10
345.1470582026171
 20
363.5350191404858
 30
0.0
  0
SPLINE
  5
17E
330
1F
100
AcDbEntity
  8
1
100
AcDbSpline
210
0.0
220
0.0
230
1.0
 70
     8
 71
     3
 72
    10
 73
     6
 74
     0
 42
0.000000001
 43
0.0000000001
 40
0.0
 40
0.0
 40
0.0
 40
0.0
 40
0.3983801200918448
 40
0.3983801200918448
 40
1.0
 40
1.0
 40
1.0
 40
1.0
 10
345.0508801803081
 20
363.7161147495656
 30
0.0
 10
345.0532462870607
 20
363.7162011090396
 30
0.0
 10
345.0556123912385
 20
363.7162880464212
 30
0.0
 10
345.0615517170431
 20
363.716503372343
 30
0.0
 10
345.0651249393622
 20
363.7166316170438
 30
0.0
 10
345.0686981656941
 20
363.7167586514918
 30
0.0
  0
SPLINE
  5
17F
330
1F
100
AcDbEntity
  8
1
100
AcDbSpline
210
0.0
220
0.0
230
1.0
 70
     8
 71
     3
 72
    20
 73
    16
 74
     0
 42
0.000000001
 43
0.0000000001
 40
0.0
 40
0.0
 40
0.0
 40
0.0
 40
0.1250000000000022
 40
0.1250000000000022
 40
0.2500000000000046
 40
0.2500000000000046
 40
0.3750000000000067
 40
0.3750000000000067
 40
0.500000000000009
 40
0.500000000000009
 40
0.6250000000000114
 40
0.6250000000000114
 40
0.7500000000000135
 40
0.7500000000000135
 40
1.0
 40
1.0
 40
1.0
 40
1.0
 10
339.4795263821816
 20
371.2307022832534
 30
0.0
 10
339.4837071617414
 20
371.2268363251889
 30
0.0
 10
339.4874470759547
 20
371.2226514821513
 30
0.0
 10
339.4940923606875
 20
371.2136795398472
 30
0.0
 10
339.4970198494003
 20
371.2088407786383
 30
0.0
 10
339.5018824532665
 20
371.1988168187357
 30
0.0
 10
339.5038205074355
 20
371.1936545956414
 30
0.0
 10
339.5067588160452
 20
371.1830464639055
 30
0.0
 10
339.5077620802372
 20
371.1775504118975
 30
0.0
 10
339.5087765763807
 20
371.1665156711937
 30
0.0
 10
339.5087940942322
 20
371.1610207273708
 30
0.0
 10
339.5079004132099
 20
371.1500751579165
 30
0.0
 10
339.5069820742886
 20
371.1445983339459
 30
0.0
 10
339.5028334037788
 20
371.1284103346434
 30
0.0
 10
339.4983591892593
 20
371.1182941210236
 30
0.0
 10
339.4921967916216
 20
371.1088483569146
 30
0.0
  0
SPLINE
  5
180
330
1F
100
AcDbEntity
  8
1
100
AcDbSpline
210
0.0
220
0.0
230
1.0
 70
     8
 71
     3
 72
    17
 73
    13
 74
     0
 42
0.000000001
 43
0.0000000001
 40
0.0
 40
0.0
 40
0.0
 40
0.0
 40
0.0128565412803108
 40
0.0128565412803108
 40
0.2102852330242639
 40
0.4077139247682171
 40
0.4077139247682171
 40
0.5064282706401795
 40
0.5064282706401795
 40
0.6051426165121418
 40
0.6051426165121418
 40
1.0
 40
1.0
 40
1.0
 40
1.0
 10
339.2216078993718
 20
371.3542241931471
 30
0.0
 10
339.2228463207545
 20
371.3540367148915
 30
0.0
 10
339.2240835093402
 20
371.3538446360758
 30
0.0
 10
339.244299201356
 20
371.3506278668902
 30
0.0
 10
339.2816800803962
 20
371.3424280999912
 30
0.0
 10
339.3179112425275
 20
371.3299343369466
 30
0.0
 10
339.3446385596276
 20
371.3188991323901
 30
0.0
 10
339.353448500531
 20
371.3149505554331
 30
0.0
 10
339.3706934743556
 20
371.3066014035353
 30
0.0
 10
339.379155086166
 20
371.3021901330927
 30
0.0
 10
339.4206725184828
 20
371.2789714120182
 30
0.0
 10
339.451387860657
 20
371.2567219149162
 30
0.0
 10
339.4795263821816
 20
371.2307022832534
 30
0.0
  0
SPLINE
  5
181
330
1F
100
AcDbEntity
  8
1
100
AcDbSpline
210
0.0
220
0.0
230
1.0
 70
     8
 71
     3
 72
    21
 73
    17
 74
     0
 42
0.000000001
 43
0.0000000001
 40
0.0
 40
0.0
 40
0.0
 40
0.0
 40
0.3223011178884219
 40
0.3223011178884219
 40
0.402876397360534
 40
0.402876397360534
 40
0.4834516768326463
 40
0.4834516768326463
 40
0.6446022357768948
 40
0.8057527947211433
 40
0.8057527947211433
 40
0.8863280741932815
 40
0.8863280741932815
 40
0.9669033536654195
 40
0.9669033536654195
 40
1.0
 40
1.0
 40
1.0
 40
1.0
 10
338.9793911873572
 20
369.1933016308936
 30
0.0
 10
339.0066579698161
 20
369.2185269586676
 30
0.0
 10
339.0367367439543
 20
369.2402293274976
 30
0.0
 10
339.0780656947827
 20
369.2628932023653
 30
0.0
 10
339.0865202778264
 20
369.2671998288383
 30
0.0
 10
339.1038219674647
 20
369.2753467554393
 30
0.0
 10
339.112683870216
 20
369.2791903550705
 30
0.0
 10
339.1394681123191
 20
369.2898405174594
 30
0.0
 10
339.1759577546892
 20
369.3018251794325
 30
0.0
 10
339.2139763273444
 20
369.3094730593158
 30
0.0
 10
339.2430714126313
 20
369.3135525401638
 30
0.0
 10
339.252903383764
 20
369.3146380497444
 30
0.0
 10
339.272564548027
 20
369.3162277980673
 30
0.0
 10
339.2823817237643
 20
369.3167337670248
 30
0.0
 10
339.2962129716545
 20
369.3170531348424
 30
0.0
 10
339.3002379007938
 20
369.3170995573468
 30
0.0
 10
339.3042606623022
 20
369.317099529937
 30
0.0
  0
SPLINE
  5
182
330
1F
100
AcDbEntity
  8
1
100
AcDbSpline
210
0.0
220
0.0
230
1.0
 70
     8
 71
     3
 72
    14
 73
    10
 74
     0
 42
0.000000001
 43
0.0000000001
 40
0.0
 40
0.0
 40
0.0
 40
0.0
 40
0.25
 40
0.25
 40
0.5
 40
0.5
 40
0.75
 40
0.75
 40
1.0
 40
1.0
 40
1.0
 40
1.0
 10
338.9507649135514
 20
369.1204654237791
 30
0.0
 10
338.9503853358945
 20
369.1273211699863
 30
0.0
 10
338.9507232816773
 20
369.1341619042583
 30
0.0
 10
338.9528085530228
 20
369.1475101239226
 30
0.0
 10
338.9545368536718
 20
369.1539656642208
 30
0.0
 10
338.9593808738998
 20
369.1664380367801
 30
0.0
 10
338.9625304423954
 20
369.1724751476239
 30
0.0
 10
338.9700152823544
 20
369.1835471229062
 30
0.0
 10
338.974369286693
 20
369.188655718216
 30
0.0
 10
338.9793911873572
 20
369.1933016308936
 30
0.0
  0
SPLINE
  5
183
330
1F
100
AcDbEntity
  8
1
100
AcDbSpline
210
0.0
220
0.0
230
1.0
 70
     8
 71
     3
 72
    22
 73
    18
 74
     0
 42
0.000000001
 43
0.0000000001
 40
0.0
 40
0.0
 40
0.0
 40
0.0
 40
0.125
 40
0.125
 40
0.25
 40
0.25
 40
0.375
 40
0.375
 40
0.5
 40
0.5
 40
0.625
 40
0.625
 40
0.75
 40
0.75
 40
0.875
 40
0.875
 40
1.0
 40
1.0
 40
1.0
 40
1.0
 10
338.9507649135514
 20
369.1204654237791
 30
0.0
 10
338.9510680358064
 20
369.1149905776914
 30
0.0
 10
338.9509123494885
 20
369.1095368761962
 30
0.0
 10
338.9497166965613
 20
369.0988660100533
 30
0.0
 10
338.9486791949813
 20
369.093621747821
 30
0.0
 10
338.9457006655886
 20
369.0833218225139
 30
0.0
 10
338.9437493367394
 20
369.0782692531588
 30
0.0
 10
338.9390499756951
 20
369.0687104617905
 30
0.0
 10
338.9362913275724
 20
369.0641576632719
 30
0.0
 10
338.9299221308503
 20
369.0555268384291
 30
0.0
 10
338.9263150707074
 20
369.0514713389364
 30
0.0
 10
338.9184809191613
 20
369.0441487548283
 30
0.0
 10
338.9142270232384
 20
369.0408417161726
 30
0.0
 10
338.9050086623217
 20
369.0349786446208
 30
0.0
 10
338.9001093689998
 20
369.0324728647167
 30
0.0
 10
338.889944412045
 20
369.0284157456888
 30
0.0
 10
338.8846484168483
 20
369.0268440895654
 30
0.0
 10
338.8791257187593
 20
369.0257592783324
 30
0.0
  0
SPLINE
  5
184
330
1F
100
AcDbEntity
  8
1
100
AcDbSpline
210
0.0
220
0.0
230
1.0
 70
     8
 71
     3
 72
     8
 73
     4
 74
     0
 42
0.000000001
 43
0.0000000001
 40
0.0
 40
0.0
 40
0.0
 40
0.0
 40
1.0
 40
1.0
 40
1.0
 40
1.0
 10
338.5981660860434
 20
371.0595285229156
 30
0.0
 10
338.5646709638868
 20
371.0595248032226
 30
0.0
 10
338.5319427039128
 20
371.0630718047403
 30
0.0
 10
338.4998801336892
 20
371.0700929944838
 30
0.0
  0
SPLINE
  5
185
330
1F
100
AcDbEntity
  8
1
100
AcDbSpline
210
0.0
220
0.0
230
1.0
 70
     8
 71
     3
 72
    14
 73
    10
 74
     0
 42
0.000000001
 43
0.0000000001
 40
0.0
 40
0.0
 40
0.0
 40
0.0
 40
0.25
 40
0.25
 40
0.5
 40
0.5
 40
0.75
 40
0.75
 40
1.0
 40
1.0
 40
1.0
 40
1.0
 10
338.4998801336892
 20
371.0700929944838
 30
0.0
 10
338.4932978272253
 20
371.071534414255
 30
0.0
 10
338.4869581155922
 20
371.0737416809028
 30
0.0
 10
338.4751732094664
 20
371.0794228326153
 30
0.0
 10
338.4697071289937
 20
371.0828865543692
 30
0.0
 10
338.459594199591
 20
371.0910220030648
 30
0.0
 10
338.4549644146576
 20
371.0957085709563
 30
0.0
 10
338.446933071106
 20
371.1058654313124
 30
0.0
 10
338.4434682560085
 20
371.1113809164904
 30
0.0
 10
338.4405712101245
 20
371.1173477250837
 30
0.0
  0
SPLINE
  5
186
330
1F
100
AcDbEntity
  8
1
100
AcDbSpline
210
0.0
220
0.0
230
1.0
 70
     8
 71
     3
 72
     8
 73
     4
 74
     0
 42
0.000000001
 43
0.0000000001
 40
0.0
 40
0.0
 40
0.0
 40
0.0
 40
1.0
 40
1.0
 40
1.0
 40
1.0
 10
343.7518225052024
 20
365.7728579013317
 30
0.0
 10
343.7413420957145
 20
365.7059026323228
 30
0.0
 10
343.7312597950645
 20
365.63916630391
 30
0.0
 10
343.721580344835
 20
365.5726515237336
 30
0.0
  0
SPLINE
  5
187
330
1F
100
AcDbEntity
  8
1
100
AcDbSpline
210
0.0
220
0.0
230
1.0
 70
     8
 71
     3
 72
     8
 73
     4
 74
     0
 42
0.000000001
 43
0.0000000001
 40
0.0
 40
0.0
 40
0.0
 40
0.0
 40
1.0
 40
1.0
 40
1.0
 40
1.0
 10
343.721580344835
 20
361.4738401241718
 30
0.0
 10
343.7401247292165
 20
361.3732001448854
 30
0.0
 10
343.7600395269179
 20
361.2744675996478
 30
0.0
 10
343.7812489075783
 20
361.1775369426284
 30
0.0
  0
SPLINE
  5
188
330
1F
100
AcDbEntity
  8
1
100
AcDbSpline
210
0.0
220
0.0
230
1.0
 70
     8
 71
     3
 72
    78
 73
    74
 74
     0
 42
0.000000001
 43
0.0000000001
 40
0.0
 40
0.0
 40
0.0
 40
0.0
 40
0.0078125000000004
 40
0.0078125000000004
 40
0.0117187500000006
 40
0.0117187500000006
 40
0.0156250000000007
 40
0.0156250000000007
 40
0.023437500000001
 40
0.023437500000001
 40
0.0312500000000012
 40
0.0312500000000012
 40
0.0390625000000014
 40
0.0390625000000014
 40
0.0468750000000016
 40
0.0468750000000016
 40
0.062500000000002
 40
0.062500000000002
 40
0.0781250000000024
 40
0.0781250000000024
 40
0.0937500000000028
 40
0.0937500000000028
 40
0.1093750000000031
 40
0.1093750000000031
 40
0.1250000000000033
 40
0.1250000000000033
 40
0.1562500000000035
 40
0.1562500000000035
 40
0.1875000000000036
 40
0.1875000000000036
 40
0.2500000000000034
 40
0.2500000000000034
 40
0.3125000000000033
 40
0.3125000000000033
 40
0.3750000000000031
 40
0.3750000000000031
 40
0.4375000000000029
 40
0.5000000000000027
 40
0.5000000000000027
 40
0.5625000000000026
 40
0.6250000000000023
 40
0.6250000000000023
 40
0.6562500000000022
 40
0.6875000000000019
 40
0.6875000000000019
 40
0.7500000000000014
 40
0.7500000000000014
 40
0.8125000000000008
 40
0.8125000000000008
 40
0.8437500000000007
 40
0.8437500000000007
 40
0.8750000000000005
 40
0.8750000000000005
 40
0.9062500000000003
 40
0.9062500000000003
 40
0.9218750000000001
 40
0.9218750000000001
 40
0.9375
 40
0.9375
 40
0.953125
 40
0.953125
 40
0.96875
 40
0.96875
 40
0.9765624999999998
 40
0.9765624999999998
 40
0.9843749999999996
 40
0.9843749999999996
 40
0.9882812499999998
 40
0.9882812499999998
 40
0.9921875
 40
0.99609375
 40
0.99609375
 40
1.0
 40
1.0
 40
1.0
 40
1.0
 10
324.0740920791962
 20
361.8631593928656
 30
0.0
 10
324.0611803511942
 20
361.8631593928656
 30
0.0
 10
324.0486005453357
 20
361.8645203003733
 30
0.0
 10
324.0301685643547
 20
361.8683601514937
 30
0.0
 10
324.0240597462792
 20
361.8699540004637
 30
0.0
 10
324.0121822767277
 20
361.8736524031601
 30
0.0
 10
324.0064311460487
 20
361.87574599428
 30
0.0
 10
323.9896620231142
 20
361.8826601368418
 30
0.0
 10
323.9791244413572
 20
361.8881090578017
 30
0.0
 10
323.9590555068281
 20
361.9003373271246
 30
0.0
 10
323.9497132731648
 20
361.9070037895128
 30
0.0
 10
323.9321792345941
 20
361.9210693462908
 30
0.0
 10
323.9239635494965
 20
361.9284881314538
 30
0.0
 10
323.9083939815441
 20
361.9439417244129
 30
0.0
 10
323.9010227163292
 20
361.9520006833725
 30
0.0
 10
323.8801029026319
 20
361.9767962481031
 30
0.0
 10
323.8678566471609
 20
361.9939607826235
 30
0.0
 10
323.8455869975428
 20
362.0291864014009
 30
0.0
 10
323.8355818343743
 20
362.0472533908715
 30
0.0
 10
323.817224925194
 20
362.0841077096551
 30
0.0
 10
323.8088791468251
 20
362.102896962228
 30
0.0
 10
323.793487458273
 20
362.1410882374584
 30
0.0
 10
323.7864319982782
 20
362.1605327683678
 30
0.0
 10
323.7734862688626
 20
362.1996251289564
 30
0.0
 10
323.767581940048
 20
362.2193035670512
 30
0.0
 10
323.7512442412386
 20
362.2787061790694
 30
0.0
 10
323.7421704194797
 20
362.3187962327042
 30
0.0
 10
323.7265495524433
 20
362.3998548589358
 30
0.0
 10
323.7200133867026
 20
362.4408244157992
 30
0.0
 10
323.7032033520941
 20
362.5649643421147
 30
0.0
 10
323.6956827620443
 20
362.649361799003
 30
0.0
 10
323.6847556621385
 20
362.8211543087237
 30
0.0
 10
323.681383404108
 20
362.9086825964596
 30
0.0
 10
323.6768781321454
 20
363.0855322737932
 30
0.0
 10
323.675744964913
 20
363.1749476437253
 30
0.0
 10
323.6744224825873
 20
363.3557403228788
 30
0.0
 10
323.6740507393702
 20
363.5384942175104
 30
0.0
 10
323.6740920791961
 20
363.7251690669519
 30
0.0
 10
323.6740920791964
 20
363.9138140951845
 30
0.0
 10
323.6740511229872
 20
364.1037952973453
 30
0.0
 10
323.6744254690882
 20
364.2964322962789
 30
0.0
 10
323.6754252973755
 20
364.4419048729442
 30
0.0
 10
323.6763391438835
 20
364.5392176195003
 30
0.0
 10
323.6780377366612
 20
364.6371967197526
 30
0.0
 10
323.6814388037122
 20
364.7843316171369
 30
0.0
 10
323.6848152490904
 20
364.8827507068468
 30
0.0
 10
323.6957891938298
 20
365.0801298820984
 30
0.0
 10
323.703346491558
 20
365.1790923131114
 30
0.0
 10
323.7203571130432
 20
365.3277981757891
 30
0.0
 10
323.7269852190489
 20
365.3773753120335
 30
0.0
 10
323.7428032878178
 20
365.4761167155788
 30
0.0
 10
323.7519942885458
 20
365.5253572156927
 30
0.0
 10
323.7739943286603
 20
365.6232097075779
 30
0.0
 10
323.786732803399
 20
365.6716208980569
 30
0.0
 10
323.809804650444
 20
365.7430380459094
 30
0.0
 10
323.8181631767184
 20
365.7666415528601
 30
0.0
 10
323.8366286685378
 20
365.8133144043377
 30
0.0
 10
323.8467620975309
 20
365.8364443541708
 30
0.0
 10
323.8692070669662
 20
365.8814603845349
 30
0.0
 10
323.8815299098011
 20
365.903415566491
 30
0.0
 10
323.9093290098144
 20
365.9455027668687
 30
0.0
 10
323.9245961429443
 20
365.9653741405779
 30
0.0
 10
323.9507414718711
 20
365.9923989403565
 30
0.0
 10
323.9600669638242
 20
366.0009850343856
 30
0.0
 10
323.9799296214484
 20
366.016632392023
 30
0.0
 10
323.9903787359692
 20
366.0236386320307
 30
0.0
 10
324.0070601180471
 20
366.032557137787
 30
0.0
 10
324.0128235060702
 20
366.035275769115
 30
0.0
 10
324.0245667738681
 20
366.0400169858754
 30
0.0
 10
324.0364919545835
 20
366.0440570918991
 30
0.0
 10
324.048807910097
 20
366.0465911365232
 30
0.0
 10
324.0613364403662
 20
366.0483059177919
 30
0.0
 10
324.0677196129912
 20
366.0487490616865
 30
0.0
 10
324.0740920791962
 20
366.0487490616865
 30
0.0
  0
SPLINE
  5
189
330
1F
100
AcDbEntity
  8
1
100
AcDbSpline
210
0.0
220
0.0
230
1.0
 70
     8
 71
     3
 72
    20
 73
    16
 74
     0
 42
0.000000001
 43
0.0000000001
 40
0.0
 40
0.0
 40
0.0
 40
0.0
 40
0.1249999999999912
 40
0.1249999999999912
 40
0.2499999999999826
 40
0.2499999999999826
 40
0.3749999999999738
 40
0.3749999999999738
 40
0.4999999999999651
 40
0.4999999999999651
 40
0.6249999999999563
 40
0.6249999999999563
 40
0.7499999999999476
 40
0.7499999999999476
 40
1.0
 40
1.0
 40
1.0
 40
1.0
 10
340.1114466744286
 20
370.2573285243924
 30
0.0
 10
340.1101920915163
 20
370.2516348095313
 30
0.0
 10
340.1084314134341
 20
370.2461453672664
 30
0.0
 10
340.1039529161307
 20
370.2355531927751
 30
0.0
 10
340.1012010405463
 20
370.2304033236807
 30
0.0
 10
340.0948835463007
 20
370.220764150841
 30
0.0
 10
340.0913396147087
 20
370.216284855251
 30
0.0
 10
340.0835205528296
 20
370.207973298368
 30
0.0
 10
340.0792028717595
 20
370.2041110526167
 30
0.0
 10
340.0700198313974
 20
370.1972106829007
 30
0.0
 10
340.0651961637445
 20
370.1941910925287
 30
0.0
 10
340.0551096211046
 20
370.188968516512
 30
0.0
 10
340.0498200270347
 20
370.1867572987243
 30
0.0
 10
340.0334462708115
 20
370.1814441076427
 30
0.0
 10
340.0222441673234
 20
370.1797274436341
 30
0.0
 10
340.0107607387172
 20
370.179814656802
 30
0.0
  0
SPLINE
  5
18A
330
1F
100
AcDbEntity
  8
1
100
AcDbSpline
210
0.0
220
0.0
230
1.0
 70
     8
 71
     3
 72
    21
 73
    17
 74
     0
 42
0.000000001
 43
0.0000000001
 40
0.0
 40
0.0
 40
0.0
 40
0.0
 40
0.2499999999999831
 40
0.2499999999999831
 40
0.31249999999998
 40
0.31249999999998
 40
0.3749999999999771
 40
0.3749999999999771
 40
0.4999999999999761
 40
0.624999999999975
 40
0.624999999999975
 40
0.6874999999999773
 40
0.6874999999999773
 40
0.7499999999999795
 40
0.7499999999999795
 40
1.0
 40
1.0
 40
1.0
 40
1.0
 10
339.9999335200171
 20
370.6937875455668
 30
0.0
 10
340.025740749446
 20
370.6641501014811
 30
0.0
 10
340.0477478920014
 20
370.6319903023443
 30
0.0
 10
340.0705091481994
 20
370.5886370242545
 30
0.0
 10
340.0748254966925
 20
370.5797929402255
 30
0.0
 10
340.0828777370179
 20
370.5619874508073
 30
0.0
 10
340.0866268666168
 20
370.5530028277074
 30
0.0
 10
340.0970580169321
 20
370.5258076338885
 30
0.0
 10
340.1087948256633
 20
370.4889053824439
 30
0.0
 10
340.1162147988308
 20
370.450726628583
 30
0.0
 10
340.120105725402
 20
370.4215976135819
 30
0.0
 10
340.1211174914203
 20
370.4118311362628
 30
0.0
 10
340.1225583545029
 20
370.3923846019023
 30
0.0
 10
340.1229915543924
 20
370.3826757764894
 30
0.0
 10
340.1237464854682
 20
370.3342027231672
 30
0.0
 10
340.1198903575238
 20
370.2956487688743
 30
0.0
 10
340.1114466744286
 20
370.2573285243924
 30
0.0
  0
SPLINE
  5
18B
330
1F
100
AcDbEntity
  8
1
100
AcDbSpline
210
0.0
220
0.0
230
1.0
 70
     8
 71
     3
 72
    14
 73
    10
 74
     0
 42
0.000000001
 43
0.0000000001
 40
0.0
 40
0.0
 40
0.0
 40
0.0
 40
0.25
 40
0.25
 40
0.5
 40
0.5
 40
0.75
 40
0.75
 40
1.0
 40
1.0
 40
1.0
 40
1.0
 10
339.9339261301185
 20
370.1472543121218
 30
0.0
 10
339.9388742550472
 20
370.1525726445381
 30
0.0
 10
339.9444140082894
 20
370.1573297842293
 30
0.0
 10
339.9561971326116
 20
370.1654655552649
 30
0.0
 10
339.9624432587055
 20
370.1688683712572
 30
0.0
 10
339.9756232035934
 20
370.174388458045
 30
0.0
 10
339.9825598927021
 20
370.1764829923516
 30
0.0
 10
339.9964958672977
 20
370.1792049035433
 30
0.0
 10
340.0035722407332
 20
370.1798692512705
 30
0.0
 10
340.0107607387172
 20
370.179814656802
 30
0.0
  0
SPLINE
  5
18C
330
1F
100
AcDbEntity
  8
1
100
AcDbSpline
210
0.0
220
0.0
230
1.0
 70
     8
 71
     3
 72
     8
 73
     4
 74
     0
 42
0.000000001
 43
0.0000000001
 40
0.0
 40
0.0
 40
0.0
 40
0.0
 40
1.0
 40
1.0
 40
1.0
 40
1.0
 10
339.9904710718512
 20
370.703227501562
 30
0.0
 10
339.9938226796582
 20
370.7003221704131
 30
0.0
 10
339.9969800120027
 20
370.6971794024446
 30
0.0
 10
339.9999335200171
 20
370.6937875455668
 30
0.0
  0
SPLINE
  5
18D
330
1F
100
AcDbEntity
  8
1
100
AcDbSpline
210
0.0
220
0.0
230
1.0
 70
     8
 71
     3
 72
    22
 73
    18
 74
     0
 42
0.000000001
 43
0.0000000001
 40
0.0
 40
0.0
 40
0.0
 40
0.0
 40
0.125
 40
0.125
 40
0.25
 40
0.25
 40
0.375
 40
0.375
 40
0.5
 40
0.5
 40
0.625
 40
0.625
 40
0.75
 40
0.75
 40
0.875
 40
0.875
 40
1.0
 40
1.0
 40
1.0
 40
1.0
 10
339.8656845042318
 20
369.6470290556246
 30
0.0
 10
339.8706784101499
 20
369.6442538930528
 30
0.0
 10
339.875424125165
 20
369.6410869492407
 30
0.0
 10
339.8842648107303
 20
369.6341061549202
 30
0.0
 10
339.8883849253456
 20
369.6302794350187
 30
0.0
 10
339.8960073240837
 20
369.6219349314799
 30
0.0
 10
339.899501452644
 20
369.6174101304716
 30
0.0
 10
339.9056093497696
 20
369.6079614825054
 30
0.0
 10
339.9082589874171
 20
369.6030024079396
 30
0.0
 10
339.9127141081354
 20
369.5925957064364
 30
0.0
 10
339.9145012478754
 20
369.5871641368644
 30
0.0
 10
339.917070456267
 20
369.5761897181303
 30
0.0
 10
339.9178744272677
 20
369.5706011412799
 30
0.0
 10
339.9184656866321
 20
369.5592110101255
 30
0.0
 10
339.9182410489205
 20
369.553495572345
 30
0.0
 10
339.9167673240114
 20
369.5422669193674
 30
0.0
 10
339.9155210609296
 20
369.5367159394017
 30
0.0
 10
339.913732559232
 20
369.531232798928
 30
0.0
  0
SPLINE
  5
18E
330
1F
100
AcDbEntity
  8
1
100
AcDbSpline
210
0.0
220
0.0
230
1.0
 70
     8
 71
     3
 72
    14
 73
    10
 74
     0
 42
0.000000001
 43
0.0000000001
 40
0.0
 40
0.0
 40
0.0
 40
0.0
 40
0.25
 40
0.25
 40
0.5
 40
0.5
 40
0.75
 40
0.75
 40
1.0
 40
1.0
 40
1.0
 40
1.0
 10
339.8656845042318
 20
369.6470290556246
 30
0.0
 10
339.859431013457
 20
369.6505041818735
 30
0.0
 10
339.8535492126155
 20
369.6546024299342
 30
0.0
 10
339.8427854680785
 20
369.6638529182879
 30
0.0
 10
339.8379395621911
 20
369.6689598558531
 30
0.0
 10
339.8293300681879
 20
369.6801490404499
 30
0.0
 10
339.825565681029
 20
369.6862720080666
 30
0.0
 10
339.8195181654215
 20
369.6990002575475
 30
0.0
 10
339.8171791467809
 20
369.705663097729
 30
0.0
 10
339.8155852407327
 20
369.7126529997917
 30
0.0
  0
SPLINE
  5
18F
330
1F
100
AcDbEntity
  8
1
100
AcDbSpline
210
0.0
220
0.0
230
1.0
 70
     8
 71
     3
 72
    21
 73
    17
 74
     0
 42
0.000000001
 43
0.0000000001
 40
0.0
 40
0.0
 40
0.0
 40
0.0
 40
0.249999999999996
 40
0.249999999999996
 40
0.3124999999999952
 40
0.3124999999999952
 40
0.3749999999999944
 40
0.3749999999999944
 40
0.4999999999999957
 40
0.6249999999999967
 40
0.6249999999999967
 40
0.6874999999999973
 40
0.6874999999999973
 40
0.7499999999999978
 40
0.7499999999999978
 40
1.0
 40
1.0
 40
1.0
 40
1.0
 10
339.8155852407327
 20
369.7126529997917
 30
0.0
 10
339.8069312213569
 20
369.7506042629508
 30
0.0
 10
339.8028434742905
 20
369.7889931098131
 30
0.0
 10
339.8036435596276
 20
369.8376100659167
 30
0.0
 10
339.8041028209018
 20
369.8473653305291
 30
0.0
 10
339.80564077855
 20
369.866943057136
 30
0.0
 10
339.8067240975521
 20
369.8767802504451
 30
0.0
 10
339.8108670590743
 20
369.9059511417768
 30
0.0
 10
339.8187801226839
 20
369.9442263338531
 30
0.0
 10
339.8313770412411
 20
369.9812891817663
 30
0.0
 10
339.8426108576533
 20
370.0086233011365
 30
0.0
 10
339.8466703513669
 20
370.017690089912
 30
0.0
 10
339.8553098128635
 20
370.03548522987
 30
0.0
 10
339.8598819927928
 20
370.0442041041139
 30
0.0
 10
339.883962497828
 20
370.0869367496318
 30
0.0
 10
339.9070801141023
 20
370.1183997380594
 30
0.0
 10
339.9339261301185
 20
370.1472543121218
 30
0.0
  0
SPLINE
  5
190
330
1F
100
AcDbEntity
  8
1
100
AcDbSpline
210
0.0
220
0.0
230
1.0
 70
     8
 71
     3
 72
    10
 73
     6
 74
     0
 42
0.000000001
 43
0.0000000001
 40
0.0
 40
0.0
 40
0.0
 40
0.0
 40
0.3596447524756626
 40
0.3596447524756626
 40
1.0
 40
1.0
 40
1.0
 40
1.0
 10
339.8238629870772
 20
370.7022435655542
 30
0.0
 10
339.8198164490785
 20
370.7022430276273
 30
0.0
 10
339.8157642578684
 20
370.7024740289845
 30
0.0
 10
339.8046561860601
 20
370.7037672958695
 30
0.0
 10
339.7976450131095
 20
370.7053214439554
 30
0.0
 10
339.7907438278608
 20
370.7076653938691
 30
0.0
  0
SPLINE
  5
191
330
1F
100
AcDbEntity
  8
1
100
AcDbSpline
210
0.0
220
0.0
230
1.0
 70
     8
 71
     3
 72
    21
 73
    17
 74
     0
 42
0.000000001
 43
0.0000000001
 40
0.0
 40
0.0
 40
0.0
 40
0.0
 40
0.3067837436649689
 40
0.3067837436649689
 40
0.3834796795812146
 40
0.3834796795812146
 40
0.4601756154974602
 40
0.4601756154974602
 40
0.6135674873299709
 40
0.7669593591624816
 40
0.7669593591624816
 40
0.8436552950787369
 40
0.8436552950787369
 40
0.9203512309949923
 40
0.9203512309949923
 40
1.0
 40
1.0
 40
1.0
 40
1.0
 10
339.913732559232
 20
369.531232798928
 30
0.0
 10
339.9016807758834
 20
369.494284765193
 30
0.0
 10
339.8854955827305
 20
369.4592731861703
 30
0.0
 10
339.8601039940459
 20
369.4179366587026
 30
0.0
 10
339.8547548295332
 20
369.4097813271003
 30
0.0
 10
339.8436555441326
 20
369.3939037341228
 30
0.0
 10
339.8378924072878
 20
369.3861584995249
 30
0.0
 10
339.8199739276242
 20
369.3634933075397
 30
0.0
 10
339.7944091578969
 20
369.3347907843923
 30
0.0
 10
339.76551775565
 20
369.3091060562784
 30
0.0
 10
339.7425591037354
 20
369.2910125531619
 30
0.0
 10
339.734709726209
 20
369.2851944788325
 30
0.0
 10
339.7187837670098
 20
369.2740969438673
 30
0.0
 10
339.7106845757826
 20
369.2687993336343
 30
0.0
 10
339.6939015190603
 20
369.2585030658098
 30
0.0
 10
339.6852089259748
 20
369.2535205345
 30
0.0
 10
339.6763726637286
 20
369.2488026699098
 30
0.0
  0
SPLINE
  5
192
330
1F
100
AcDbEntity
  8
1
100
AcDbSpline
210
0.0
220
0.0
230
1.0
 70
     8
 71
     3
 72
    21
 73
    17
 74
     0
 42
0.000000001
 43
0.0000000001
 40
0.0
 40
0.0
 40
0.0
 40
0.0
 40
0.2500000000000724
 40
0.2500000000000724
 40
0.3125000000000749
 40
0.3125000000000749
 40
0.3750000000000775
 40
0.3750000000000775
 40
0.5000000000000689
 40
0.6250000000000603
 40
0.6250000000000603
 40
0.6875000000000538
 40
0.6875000000000538
 40
0.7500000000000472
 40
0.7500000000000472
 40
1.0
 40
1.0
 40
1.0
 40
1.0
 10
339.7907438278608
 20
370.7076653938691
 30
0.0
 10
339.7532756230917
 20
370.7203912651755
 30
0.0
 10
339.7178731278961
 20
370.7370778450982
 30
0.0
 10
339.6762743160954
 20
370.7630309837453
 30
0.0
 10
339.6680889773526
 20
370.7684796297572
 30
0.0
 10
339.6519961936025
 20
370.7799104300704
 30
0.0
 10
339.6440784486513
 20
370.785904022452
 30
0.0
 10
339.6211049006178
 20
370.8044247792019
 30
0.0
 10
339.5923072084082
 20
370.8307153559376
 30
0.0
 10
339.5671063192725
 20
370.8601303277905
 30
0.0
 10
339.5495765117028
 20
370.8833848822774
 30
0.0
 10
339.5439428734209
 20
370.8913661032
 30
0.0
 10
339.5332503003679
 20
370.9075715693463
 30
0.0
 10
339.5281954092904
 20
370.9157845085395
 30
0.0
 10
339.5043256660472
 20
370.957385386246
 30
0.0
 10
339.4896690643305
 20
370.9923586607097
 30
0.0
 10
339.4792564893222
 20
371.0290332816346
 30
0.0
  0
SPLINE
  5
193
330
1F
100
AcDbEntity
  8
1
100
AcDbSpline
210
0.0
220
0.0
230
1.0
 70
     8
 71
     3
 72
    14
 73
    10
 74
     0
 42
0.000000001
 43
0.0000000001
 40
0.0
 40
0.0
 40
0.0
 40
0.0
 40
0.25
 40
0.25
 40
0.5
 40
0.5
 40
0.75
 40
0.75
 40
1.0
 40
1.0
 40
1.0
 40
1.0
 10
339.4792564893222
 20
371.0290332816346
 30
0.0
 10
339.477337305856
 20
371.0357929281244
 30
0.0
 10
339.4762123958457
 20
371.0427573855073
 30
0.0
 10
339.4755139556181
 20
371.0565738203947
 30
0.0
 10
339.4759212099993
 20
371.0634402414657
 30
0.0
 10
339.4781979848084
 20
371.0770963342395
 30
0.0
 10
339.480088435187
 20
371.0838769848137
 30
0.0
 10
339.4851543864858
 20
371.096755428499
 30
0.0
 10
339.4883392113131
 20
371.102935432146
 30
0.0
 10
339.4921967916216
 20
371.1088483569146
 30
0.0
  0
SPLINE
  5
194
330
1F
100
AcDbEntity
  8
1
100
AcDbSpline
210
0.0
220
0.0
230
1.0
 70
     8
 71
     3
 72
     8
 73
     4
 74
     0
 42
0.000000001
 43
0.0000000001
 40
0.0
 40
0.0
 40
0.0
 40
0.0
 40
1.0
 40
1.0
 40
1.0
 40
1.0
 10
346.4720508242381
 20
368.9665632659123
 30
0.0
 10
346.497427292104
 20
368.9034973483986
 30
0.0
 10
346.521021918134
 20
368.8400490403798
 30
0.0
 10
346.5431260643933
 20
368.7762393102996
 30
0.0
  0
SPLINE
  5
195
330
1F
100
AcDbEntity
  8
1
100
AcDbSpline
210
0.0
220
0.0
230
1.0
 70
     8
 71
     3
 72
    26
 73
    22
 74
     0
 42
0.000000001
 43
0.0000000001
 40
0.0
 40
0.0
 40
0.0
 40
0.0
 40
0.1249999999999652
 40
0.1249999999999652
 40
0.1874999999999478
 40
0.1874999999999478
 40
0.2499999999999303
 40
0.2499999999999303
 40
0.374999999999926
 40
0.374999999999926
 40
0.4374999999999238
 40
0.4374999999999238
 40
0.4999999999999217
 40
0.4999999999999217
 40
0.6249999999999412
 40
0.6249999999999412
 40
0.7499999999999608
 40
0.7499999999999608
 40
0.8749999999999802
 40
0.8749999999999802
 40
1.0
 40
1.0
 40
1.0
 40
1.0
 10
346.8198393108756
 20
365.9957233027452
 30
0.0
 10
346.8301130910987
 20
365.9985157516352
 30
0.0
 10
346.8402108887799
 20
366.0021937976272
 30
0.0
 10
346.8550999410137
 20
366.0090074101966
 30
0.0
 10
346.8600197768412
 20
366.0114959171088
 30
0.0
 10
346.8697712131777
 20
366.0169169576059
 30
0.0
 10
346.8746278836812
 20
366.0198669527878
 30
0.0
 10
346.8888309391136
 20
366.0292564841797
 30
0.0
 10
346.8978209561295
 20
366.0362221286504
 30
0.0
 10
346.9106107828201
 20
366.047695859884
 30
0.0
 10
346.9147575287018
 20
366.0516922924703
 30
0.0
 10
346.9228138501026
 20
366.0600349314753
 30
0.0
 10
346.9267203934602
 20
366.0643819734143
 30
0.0
 10
346.9378517588397
 20
366.0776818058035
 30
0.0
 10
346.9445772103238
 20
366.0869754429407
 30
0.0
 10
346.9566848376882
 20
366.1063876246585
 30
0.0
 10
346.9620872134894
 20
366.1165803218032
 30
0.0
 10
346.9711929219071
 20
366.1370813772973
 30
0.0
 10
346.9749514820875
 20
366.1474601614037
 30
0.0
 10
346.9809242918576
 20
366.1684670927572
 30
0.0
 10
346.9831304949003
 20
366.1791130570792
 30
0.0
 10
346.9845098177052
 20
366.1896476194971
 30
0.0
  0
SPLINE
  5
196
330
1F
100
AcDbEntity
  8
1
100
AcDbSpline
210
0.0
220
0.0
230
1.0
 70
     8
 71
     3
 72
    27
 73
    23
 74
     0
 42
0.000000001
 43
0.0000000001
 40
0.0
 40
0.0
 40
0.0
 40
0.0
 40
0.0875771895045423
 40
0.0875771895045423
 40
0.1313657842568129
 40
0.1313657842568129
 40
0.1751543790090835
 40
0.1751543790090835
 40
0.2627315685136246
 40
0.2627315685136246
 40
0.3503087580181656
 40
0.3503087580181656
 40
0.5254631370272484
 40
0.5254631370272484
 40
0.5692517317795192
 40
0.5692517317795192
 40
0.6130403265317899
 40
0.7006175160363317
 40
0.7006175160363317
 40
0.8757718950454158
 40
0.8757718950454158
 40
1.0
 40
1.0
 40
1.0
 40
1.0
 10
331.9151881008418
 20
372.711881136709
 30
0.0
 10
331.9293967881645
 20
372.6442306453705
 30
0.0
 10
331.9440558511323
 20
372.5786596640357
 30
0.0
 10
331.9666316175072
 20
372.4830130716779
 30
0.0
 10
331.9742549920037
 20
372.4515837066073
 30
0.0
 10
331.9896858940982
 20
372.3895746220557
 30
0.0
 10
331.9975109213867
 20
372.3589290817904
 30
0.0
 10
332.0210919565493
 20
372.2687763757187
 30
0.0
 10
332.0369498065664
 20
372.2110401946069
 30
0.0
 10
332.0688946827541
 20
372.0995127951387
 30
0.0
 10
332.0849818803705
 20
372.0457245455207
 30
0.0
 10
332.1335379786698
 20
371.889417760964
 30
0.0
 10
332.1662989638837
 20
371.7919151763719
 30
0.0
 10
332.2076261696919
 20
371.676457575737
 30
0.0
 10
332.215919098513
 20
371.6536678063857
 30
0.0
 10
332.2325001570686
 20
371.6088109129445
 30
0.0
 10
332.2573326219872
 20
371.542694390256
 30
0.0
 10
332.2820569077638
 20
371.4798174351177
 30
0.0
 10
332.3313807272681
 20
371.357817873081
 30
0.0
 10
332.3640978295161
 20
371.2814645862557
 30
0.0
 10
332.419799608849
 20
371.1576513505256
 30
0.0
 10
332.4428479933971
 20
371.1082519382002
 30
0.0
 10
332.465840239038
 20
371.0605757253973
 30
0.0
  0
SPLINE
  5
197
330
1F
100
AcDbEntity
  8
1
100
AcDbSpline
210
0.0
220
0.0
230
1.0
 70
     8
 71
     3
 72
    34
 73
    30
 74
     0
 42
0.000000001
 43
0.0000000001
 40
0.0
 40
0.0
 40
0.0
 40
0.0
 40
0.0791060536441419
 40
0.0791060536441419
 40
0.171195448279729
 40
0.171195448279729
 40
0.2632848429153157
 40
0.2632848429153157
 40
0.3553742375509034
 40
0.3553742375509034
 40
0.4474636321864914
 40
0.4474636321864914
 40
0.5395530268220793
 40
0.5395530268220793
 40
0.6316424214576672
 40
0.6316424214576672
 40
0.6776871187754593
 40
0.6776871187754593
 40
0.7237318160932517
 40
0.7237318160932517
 40
0.8158212107288312
 40
0.8158212107288312
 40
0.8618659080466235
 40
0.8618659080466235
 40
0.907910605364416
 40
0.907910605364416
 40
0.953955302682208
 40
0.953955302682208
 40
1.0
 40
1.0
 40
1.0
 40
1.0
 10
331.9535407027231
 20
373.0968832466089
 30
0.0
 10
331.950640995048
 20
373.090922433403
 30
0.0
 10
331.9478059353589
 20
373.0847503629703
 30
0.0
 10
331.9418183376884
 20
373.0708853369507
 30
0.0
 10
331.9386844621685
 20
373.063089572816
 30
0.0
 10
331.9326562807152
 20
373.0468258266145
 30
0.0
 10
331.9297651083419
 20
373.0383695790412
 30
0.0
 10
331.9242575480118
 20
373.0206931116888
 30
0.0
 10
331.9216409073991
 20
373.0114737671
 30
0.0
 10
331.916726254939
 20
372.9921053487823
 30
0.0
 10
331.9144277099672
 20
372.981946322185
 30
0.0
 10
331.9102656648528
 20
372.9607280440116
 30
0.0
 10
331.9083944339017
 20
372.949645131226
 30
0.0
 10
331.905165932964
 20
372.9262768318952
 30
0.0
 10
331.9038070708742
 20
372.9139954822267
 30
0.0
 10
331.9022732530978
 20
372.894358266865
 30
0.0
 10
331.9018466864912
 20
372.8876084079061
 30
0.0
 10
331.9011953301455
 20
372.8736164969299
 30
0.0
 10
331.9009709000593
 20
372.8663407235783
 30
0.0
 10
331.9006702149061
 20
372.8440860225778
 30
0.0
 10
331.9009518293563
 20
372.8285882356718
 30
0.0
 10
331.9023404907516
 20
372.8039958677743
 30
0.0
 10
331.9029609534987
 20
372.7956892658699
 30
0.0
 10
331.9045209112122
 20
372.7790328009779
 30
0.0
 10
331.9054619282988
 20
372.7706544719451
 30
0.0
 10
331.9076843676222
 20
372.7537916124236
 30
0.0
 10
331.9089767369909
 20
372.7452463227987
 30
0.0
 10
331.9118670425792
 20
372.7283718354033
 30
0.0
 10
331.913458206031
 20
372.7200647845577
 30
0.0
 10
331.915188100819
 20
372.7118811366381
 30
0.0
  0
SPLINE
  5
198
330
1F
100
AcDbEntity
  8
1
100
AcDbSpline
210
0.0
220
0.0
230
1.0
 70
     8
 71
     3
 72
     9
 73
     5
 74
     0
 42
0.000000001
 43
0.0000000001
 40
0.0
 40
0.0
 40
0.0
 40
0.0
 40
0.5
 40
1.0
 40
1.0
 40
1.0
 40
1.0
 10
345.7761173368158
 20
365.7497845131297
 30
0.0
 10
345.7972997335474
 20
365.7473505734441
 30
0.0
 10
345.839496494231
 20
365.7460151042046
 30
0.0
 10
345.8813700526178
 20
365.7514740418116
 30
0.0
 10
345.9022228154215
 20
365.7559697156809
 30
0.0
  0
SPLINE
  5
199
330
1F
100
AcDbEntity
  8
1
100
AcDbSpline
210
0.0
220
0.0
230
1.0
 70
     8
 71
     3
 72
     8
 73
     4
 74
     0
 42
0.000000001
 43
0.0000000001
 40
0.0
 40
0.0
 40
0.0
 40
0.0
 40
1.0
 40
1.0
 40
1.0
 40
1.0
 10
341.5565168353739
 20
366.0411297693621
 30
0.0
 10
341.5764060812727
 20
366.0395904022776
 30
0.0
 10
341.5962956063145
 20
366.0380510008876
 30
0.0
 10
341.6161853981173
 20
366.0365115667137
 30
0.0
  0
SPLINE
  5
19A
330
1F
100
AcDbEntity
  8
1
100
AcDbSpline
210
0.0
220
0.0
230
1.0
 70
     8
 71
     3
 72
     8
 73
     4
 74
     0
 42
0.000000001
 43
0.0000000001
 40
0.0
 40
0.0
 40
0.0
 40
0.0
 40
1.0
 40
1.0
 40
1.0
 40
1.0
 10
341.5565168353739
 20
359.6308910724155
 30
0.0
 10
341.5763993094565
 20
359.5955978533958
 30
0.0
 10
341.5962889405695
 20
359.5603088527324
 30
0.0
 10
341.6161853981173
 20
359.5250238755718
 30
0.0
  0
SPLINE
  5
19B
330
1F
100
AcDbEntity
  8
1
100
AcDbSpline
210
0.0
220
0.0
230
1.0
 70
     8
 71
     3
 72
     8
 73
     4
 74
     0
 42
0.000000001
 43
0.0000000001
 40
0.0
 40
0.0
 40
0.0
 40
0.0
 40
1.0
 40
1.0
 40
1.0
 40
1.0
 10
341.6161853981173
 20
366.0365115667137
 30
0.0
 10
342.3095273922188
 20
365.9513872034667
 30
0.0
 10
343.0022245444753
 20
365.8663134481989
 30
0.0
 10
343.6937613121229
 20
365.7813307613389
 30
0.0
  0
SPLINE
  5
19C
330
1F
100
AcDbEntity
  8
1
100
AcDbSpline
210
0.0
220
0.0
230
1.0
 70
     8
 71
     3
 72
    10
 73
     6
 74
     0
 42
0.000000001
 43
0.0000000001
 40
0.0
 40
0.0
 40
0.0
 40
0.0
 40
0.5
 40
0.5
 40
1.0
 40
1.0
 40
1.0
 40
1.0
 10
341.6161853981173
 20
359.5250238755718
 30
0.0
 10
341.9826179269182
 20
359.7718054262998
 30
0.0
 10
342.3468632641915
 20
360.021750493052
 30
0.0
 10
343.0692759651246
 20
360.5304317025451
 30
0.0
 10
343.4274662453418
 20
360.7891346991735
 30
0.0
 10
343.7812489075783
 20
361.0542127982721
 30
0.0
  0
SPLINE
  5
19D
330
1F
100
AcDbEntity
  8
1
100
AcDbSpline
210
0.0
220
0.0
230
1.0
 70
     8
 71
     3
 72
     8
 73
     4
 74
     0
 42
0.000000001
 43
0.0000000001
 40
0.0
 40
0.0
 40
0.0
 40
0.0
 40
1.0
 40
1.0
 40
1.0
 40
1.0
 10
338.5496975887895
 20
366.3891927520167
 30
0.0
 10
338.6568237252324
 20
366.3740806200597
 30
0.0
 10
338.7643317107811
 20
366.3605221921063
 30
0.0
 10
338.8722296242673
 20
366.3485745899131
 30
0.0
  0
SPLINE
  5
19E
330
1F
100
AcDbEntity
  8
1
100
AcDbSpline
210
0.0
220
0.0
230
1.0
 70
     8
 71
     3
 72
    51
 73
    47
 74
     0
 42
0.000000001
 43
0.0000000001
 40
0.0
 40
0.0
 40
0.0
 40
0.0
 40
0.0624999999999994
 40
0.0624999999999994
 40
0.1249999999999988
 40
0.1249999999999988
 40
0.1562499999999976
 40
0.1562499999999976
 40
0.1718749999999971
 40
0.1718749999999971
 40
0.1874999999999964
 40
0.1874999999999964
 40
0.249999999999996
 40
0.249999999999996
 40
0.3124999999999956
 40
0.3124999999999956
 40
0.3437499999999952
 40
0.3437499999999952
 40
0.3749999999999947
 40
0.3749999999999947
 40
0.4374999999999939
 40
0.4999999999999933
 40
0.4999999999999933
 40
0.531249999999993
 40
0.531249999999993
 40
0.5624999999999929
 40
0.5624999999999929
 40
0.6249999999999929
 40
0.6249999999999929
 40
0.6874999999999931
 40
0.6874999999999931
 40
0.7187499999999929
 40
0.7187499999999929
 40
0.7343749999999929
 40
0.7343749999999929
 40
0.7499999999999931
 40
0.7499999999999931
 40
0.8124999999999937
 40
0.8124999999999937
 40
0.8749999999999944
 40
0.8749999999999944
 40
0.906249999999996
 40
0.906249999999996
 40
0.9374999999999971
 40
0.9374999999999971
 40
1.0
 40
1.0
 40
1.0
 40
1.0
 10
338.5496975887895
 20
360.7490495346342
 30
0.0
 10
338.6080544693872
 20
360.777685323319
 30
0.0
 10
338.6622000120735
 20
360.8099341632779
 30
0.0
 10
338.7632889073267
 20
360.8807829743176
 30
0.0
 10
338.8102228154312
 20
360.9193904401598
 30
0.0
 10
338.8756646489941
 20
360.9817936443016
 30
0.0
 10
338.8966482171511
 20
361.0033465521556
 30
0.0
 10
338.9269041027147
 20
361.036794029243
 30
0.0
 10
338.9367934716779
 20
361.048139907987
 30
0.0
 10
338.9560516227201
 20
361.0710621716449
 30
0.0
 10
338.9654352513987
 20
361.0826542192787
 30
0.0
 10
339.011161333376
 20
361.1412547595888
 30
0.0
 10
339.0439464481575
 20
361.1901754574146
 30
0.0
 10
339.1024965627599
 20
361.291883215809
 30
0.0
 10
339.1282581841447
 20
361.3446716733278
 30
0.0
 10
339.1617500111574
 20
361.4267402902493
 30
0.0
 10
339.1720555914665
 20
361.4546052885511
 30
0.0
 10
339.1907570539379
 20
361.5107235167504
 30
0.0
 10
339.1991834427442
 20
361.539045472998
 30
0.0
 10
339.2217598411343
 20
361.6247851224252
 30
0.0
 10
339.2446748572618
 20
361.7411635692144
 30
0.0
 10
339.2534272602619
 20
361.8616204994098
 30
0.0
 10
339.254508729886
 20
361.9535342682366
 30
0.0
 10
339.2539455143847
 20
361.9844998220463
 30
0.0
 10
339.2509730366017
 20
362.0462911815118
 30
0.0
 10
339.248568375566
 20
362.0771852535451
 30
0.0
 10
339.2386179302584
 20
362.1698571903257
 30
0.0
 10
339.2283458011125
 20
362.231625259408
 30
0.0
 10
339.2003814561818
 20
362.3550947648752
 30
0.0
 10
339.1826913576988
 20
362.4167963681293
 30
0.0
 10
339.1502231497259
 20
362.5092557053997
 30
0.0
 10
339.1384086743424
 20
362.5400598230806
 30
0.0
 10
339.1191220862467
 20
362.5862354202584
 30
0.0
 10
339.1124415100537
 20
362.6015974374187
 30
0.0
 10
339.0986476176217
 20
362.6320931419115
 30
0.0
 10
339.0915242725928
 20
362.6472511449973
 30
0.0
 10
339.0547751950771
 20
362.7225896163308
 30
0.0
 10
339.021766122178
 20
362.7814211750563
 30
0.0
 10
338.948303769298
 20
362.8960577457848
 30
0.0
 10
338.9078540111487
 20
362.9518644074622
 30
0.0
 10
338.841133584487
 20
363.0330687613863
 30
0.0
 10
338.8178824408684
 20
363.0597178292512
 30
0.0
 10
338.7692299220209
 20
363.112116421168
 30
0.0
 10
338.743778386652
 20
363.1379030339106
 30
0.0
 10
338.665086353316
 20
363.2127671310075
 30
0.0
 10
338.6092234884443
 20
363.2597084628326
 30
0.0
 10
338.5496975887895
 20
363.3034278081272
 30
0.0
  0
SPLINE
  5
19F
330
1F
100
AcDbEntity
  8
1
100
AcDbSpline
210
0.0
220
0.0
230
1.0
 70
     8
 71
     3
 72
    16
 73
    12
 74
     0
 42
0.000000001
 43
0.0000000001
 40
0.0
 40
0.0
 40
0.0
 40
0.0
 40
0.1249999999999998
 40
0.1249999999999998
 40
0.2499999999999995
 40
0.2499999999999995
 40
0.4999999999999998
 40
0.4999999999999998
 40
0.7499999999999999
 40
0.7499999999999999
 40
1.0
 40
1.0
 40
1.0
 40
1.0
 10
324.1740920791962
 20
361.8631593928656
 30
0.0
 10
324.251203441604
 20
361.7711507819877
 30
0.0
 10
324.3306899723183
 20
361.6816157740512
 30
0.0
 10
324.4935527006587
 20
361.5065966254316
 30
0.0
 10
324.5769316992145
 20
361.4211154017577
 30
0.0
 10
324.8319429854124
 20
361.1697480275861
 30
0.0
 10
325.0084026726215
 20
361.0088893396626
 30
0.0
 10
325.3706795190666
 20
360.6969172396625
 30
0.0
 10
325.5565217489422
 20
360.5458299372336
 30
0.0
 10
325.9353326421392
 20
360.2510771082073
 30
0.0
 10
326.1283136851026
 20
360.1074244743041
 30
0.0
 10
326.3240920791962
 20
359.9666851227839
 30
0.0
  0
SPLINE
  5
1A0
330
1F
100
AcDbEntity
  8
1
100
AcDbSpline
210
0.0
220
0.0
230
1.0
 70
     8
 71
     3
 72
    21
 73
    17
 74
     0
 42
0.000000001
 43
0.0000000001
 40
0.0
 40
0.0
 40
0.0
 40
0.0
 40
0.0625000000000001
 40
0.0625000000000001
 40
0.1250000000000001
 40
0.1250000000000001
 40
0.25
 40
0.25
 40
0.4999999999999999
 40
0.4999999999999999
 40
0.5624999999999999
 40
0.6249999999999999
 40
0.6249999999999999
 40
0.7499999999999999
 40
0.7499999999999999
 40
1.0
 40
1.0
 40
1.0
 40
1.0
 10
324.1740920791963
 20
366.0487490616865
 30
0.0
 10
324.2123126790269
 20
366.0943535509282
 30
0.0
 10
324.2512458880979
 20
366.1394968092746
 30
0.0
 10
324.3301786783873
 20
366.2286704575552
 30
0.0
 10
324.3702142595883
 20
366.2727439347252
 30
0.0
 10
324.4918793723011
 20
366.4035588784311
 30
0.0
 10
324.57506230323
 20
366.4888993393109
 30
0.0
 10
324.8298489913256
 20
366.7401966819698
 30
0.0
 10
325.0066442241355
 20
366.9014713895069
 30
0.0
 10
325.2340160339787
 20
367.0973126858917
 30
0.0
 10
325.3256467694079
 20
367.1750973173113
 30
0.0
 10
325.4182640100767
 20
367.2516158039564
 30
0.0
 10
325.5578758633848
 20
367.3655133361851
 30
0.0
 10
325.65186404338
 20
367.4402726297056
 30
0.0
 10
325.9362086096957
 20
367.6614963332514
 30
0.0
 10
326.1289294070139
 20
367.8049266046903
 30
0.0
 10
326.3240920791962
 20
367.9452233317682
 30
0.0
  0
SPLINE
  5
1A1
330
1F
100
AcDbEntity
  8
1
100
AcDbSpline
210
0.0
220
0.0
230
1.0
 70
     8
 71
     3
 72
    10
 73
     6
 74
     0
 42
0.000000001
 43
0.0000000001
 40
0.0
 40
0.0
 40
0.0
 40
0.0
 40
0.5
 40
0.5
 40
1.0
 40
1.0
 40
1.0
 40
1.0
 10
332.15751575246
 20
369.768909118144
 30
0.0
 10
332.2563985369842
 20
369.6469663253854
 30
0.0
 10
332.356547627535
 20
369.5284719645273
 30
0.0
 10
332.5594593144367
 20
369.2980162077455
 30
0.0
 10
332.6622217282987
 20
369.18605549209
 30
0.0
 10
332.7663316422575
 20
369.0772260342594
 30
0.0
  0
SPLINE
  5
1A2
330
1F
100
AcDbEntity
  8
1
100
AcDbSpline
210
0.0
220
0.0
230
1.0
 70
     8
 71
     3
 72
     8
 73
     4
 74
     0
 42
0.000000001
 43
0.0000000001
 40
0.0
 40
0.0
 40
0.0
 40
0.0
 40
1.0
 40
1.0
 40
1.0
 40
1.0
 10
332.7663316422575
 20
359.3043541933187
 30
0.0
 10
332.5637231120627
 20
359.0968309806092
 30
0.0
 10
332.3607574169077
 20
358.8896735844322
 30
0.0
 10
332.15751575246
 20
358.6827988423254
 30
0.0
  0
SPLINE
  5
1A3
330
1F
100
AcDbEntity
  8
1
100
AcDbSpline
210
0.0
220
0.0
230
1.0
 70
     8
 71
     3
 72
    27
 73
    23
 74
     0
 42
0.000000001
 43
0.0000000001
 40
0.0
 40
0.0
 40
0.0
 40
0.0
 40
0.1249999999999999
 40
0.1249999999999999
 40
0.2499999999999997
 40
0.2499999999999997
 40
0.3749999999999999
 40
0.3749999999999999
 40
0.4375000000000003
 40
0.4375000000000003
 40
0.4687500000000004
 40
0.4687500000000004
 40
0.5000000000000006
 40
0.5000000000000006
 40
0.7500000000000009
 40
0.7500000000000009
 40
0.8750000000000008
 40
0.8750000000000008
 40
0.9062500000000007
 40
0.9062500000000007
 40
0.9375000000000007
 40
1.0
 40
1.0
 40
1.0
 40
1.0
 10
329.6295707152489
 20
372.9147835461144
 30
0.0
 10
329.6959882837892
 20
372.8364555808139
 30
0.0
 10
329.7656580813538
 20
372.7491040939379
 30
0.0
 10
329.9127754193131
 20
372.5577773653253
 30
0.0
 10
329.9902229523598
 20
372.4537974121205
 30
0.0
 10
330.1545053795237
 20
372.2303521433551
 30
0.0
 10
330.2413391394893
 20
372.1108832495152
 30
0.0
 10
330.3801012185303
 20
371.9208065862139
 30
0.0
 10
330.4277766788321
 20
371.8556346150486
 30
0.0
 10
330.5016337411927
 20
371.7552456261068
 30
0.0
 10
330.5266588593449
 20
371.7213238506034
 30
0.0
 10
330.5772559864629
 20
371.6529848287426
 30
0.0
 10
330.6028587906654
 20
371.6185255921589
 30
0.0
 10
330.836117373303
 20
371.3059261601503
 30
0.0
 10
331.0635650828014
 20
371.0105893881995
 30
0.0
 10
331.4434220945056
 20
370.5525362347676
 30
0.0
 10
331.5764963267526
 20
370.3973313261652
 30
0.0
 10
331.7518696515156
 20
370.2013121939996
 30
0.0
 10
331.7874181309564
 20
370.16198375194
 30
0.0
 10
331.8593384744112
 20
370.0832696226021
 30
0.0
 10
331.9683635174547
 20
369.9652100061214
 30
0.0
 10
332.0808872115374
 20
369.8473164860467
 30
0.0
 10
332.15751575246
 20
369.768909118144
 30
0.0
  0
SPLINE
  5
1A4
330
1F
100
AcDbEntity
  8
1
100
AcDbSpline
210
0.0
220
0.0
230
1.0
 70
     8
 71
     3
 72
    34
 73
    30
 74
     0
 42
0.000000001
 43
0.0000000001
 40
0.0
 40
0.0
 40
0.0
 40
0.0
 40
0.0625000000000076
 40
0.0625000000000076
 40
0.0937500000000114
 40
0.0937500000000114
 40
0.1250000000000153
 40
0.1250000000000153
 40
0.1875000000000231
 40
0.1875000000000231
 40
0.218750000000027
 40
0.218750000000027
 40
0.2500000000000308
 40
0.2500000000000308
 40
0.3125000000000342
 40
0.3125000000000342
 40
0.343750000000034
 40
0.343750000000034
 40
0.3750000000000337
 40
0.3750000000000337
 40
0.5000000000000269
 40
0.5000000000000269
 40
0.6250000000000201
 40
0.6250000000000201
 40
0.7500000000000135
 40
0.7500000000000135
 40
0.8750000000000067
 40
0.8750000000000067
 40
1.0
 40
1.0
 40
1.0
 40
1.0
 10
330.2740920791962
 20
367.9452220519776
 30
0.0
 10
330.2937275715327
 20
367.9452220519776
 30
0.0
 10
330.3128563602728
 20
367.9428260422065
 30
0.0
 10
330.3408719571975
 20
367.9360253664826
 30
0.0
 10
330.3500968509865
 20
367.9332206336257
 30
0.0
 10
330.3683260106443
 20
367.926565921251
 30
0.0
 10
330.3773057418194
 20
367.9227168298905
 30
0.0
 10
330.4032791947028
 20
367.9099996895974
 30
0.0
 10
330.4195529476508
 20
367.8998904941374
 30
0.0
 10
330.4426726314007
 20
367.882697317415
 30
0.0
 10
330.4501848266402
 20
367.8766026993554
 30
0.0
 10
330.4645890876152
 20
367.8639760960726
 30
0.0
 10
330.471506818369
 20
367.8574281388787
 30
0.0
 10
330.491506288938
 20
367.8371602654291
 30
0.0
 10
330.5038392241292
 20
367.8228203425733
 30
0.0
 10
330.5211064078489
 20
367.8002825859518
 30
0.0
 10
330.5266553198015
 20
367.7925975131533
 30
0.0
 10
330.5373706341242
 20
367.7769070970096
 30
0.0
 10
330.5425475438822
 20
367.7688831374903
 30
0.0
 10
330.5673223851429
 20
367.7283775612758
 30
0.0
 10
330.5838009893695
 20
367.6945872398492
 30
0.0
 10
330.6120044514122
 20
367.6249840514103
 30
0.0
 10
330.6236982299667
 20
367.5891589211176
 30
0.0
 10
330.643201912613
 20
367.5158175771119
 30
0.0
 10
330.6508681199692
 20
367.4788236018626
 30
0.0
 10
330.6628225355853
 20
367.4043639256266
 30
0.0
 10
330.6671068666727
 20
367.3668833728682
 30
0.0
 10
330.6727431032918
 20
367.2914700577094
 30
0.0
 10
330.6740920791963
 20
367.2535369678332
 30
0.0
 10
330.6740920791963
 20
367.2153898898906
 30
0.0
  0
SPLINE
  5
1A5
330
1F
100
AcDbEntity
  8
1
100
AcDbSpline
210
0.0
220
0.0
230
1.0
 70
     8
 71
     3
 72
    32
 73
    28
 74
     0
 42
0.000000001
 43
0.0000000001
 40
0.0
 40
0.0
 40
0.0
 40
0.0
 40
0.1250000000000019
 40
0.1250000000000019
 40
0.2500000000000039
 40
0.2500000000000039
 40
0.3750000000000058
 40
0.3750000000000058
 40
0.4375000000000072
 40
0.4375000000000072
 40
0.5000000000000086
 40
0.5000000000000086
 40
0.5625000000000099
 40
0.5625000000000099
 40
0.6250000000000112
 40
0.6250000000000112
 40
0.7500000000000077
 40
0.7500000000000077
 40
0.7812500000000067
 40
0.7812500000000067
 40
0.8125000000000056
 40
0.8125000000000056
 40
0.8750000000000037
 40
0.8750000000000037
 40
0.9375000000000019
 40
0.9375000000000019
 40
1.0
 40
1.0
 40
1.0
 40
1.0
 10
330.6740920791963
 20
360.4228971789249
 30
0.0
 10
330.6740920791963
 20
360.3977704053871
 30
0.0
 10
330.6727442308057
 20
360.3730061314839
 30
0.0
 10
330.6671298268739
 20
360.3242080032174
 30
0.0
 10
330.6628659266485
 20
360.3001739646252
 30
0.0
 10
330.6509978771329
 20
360.2528582612508
 30
0.0
 10
330.6434006239389
 20
360.2295760731697
 30
0.0
 10
330.628935094098
 20
360.1952532231662
 30
0.0
 10
330.6235985566702
 20
360.1839125876763
 30
0.0
 10
330.6117431599867
 20
360.1614425760337
 30
0.0
 10
330.605262884751
 20
360.1503886116008
 30
0.0
 10
330.5910870875317
 20
360.1287164406628
 30
0.0
 10
330.583388392048
 20
360.1180902767576
 30
0.0
 10
330.5665761022035
 20
360.0972974677643
 30
0.0
 10
330.5574252508399
 20
360.087094256058
 30
0.0
 10
330.5277618765145
 20
360.0575895160331
 30
0.0
 10
330.5051559777399
 20
360.0393605614822
 30
0.0
 10
330.4717050787505
 20
360.0190029615986
 30
0.0
 10
330.4647200620197
 20
360.015041537903
 30
0.0
 10
330.4503167448557
 20
360.0074880004101
 30
0.0
 10
330.442898170934
 20
360.0038929376047
 30
0.0
 10
330.4199334638296
 20
359.9936937626267
 30
0.0
 10
330.4036879513134
 20
359.987668008796
 30
0.0
 10
330.3688418563377
 20
359.9775200092706
 30
0.0
 10
330.3507533646102
 20
359.973555937767
 30
0.0
 10
330.3132641573635
 20
359.9681310159273
 30
0.0
 10
330.2936885541539
 20
359.9666811314985
 30
0.0
 10
330.2740920791962
 20
359.9666811314985
 30
0.0
  0
SPLINE
  5
1A6
330
1F
100
AcDbEntity
  8
1
100
AcDbSpline
210
0.0
220
0.0
230
1.0
 70
     8
 71
     3
 72
    63
 73
    59
 74
     0
 42
0.000000001
 43
0.0000000001
 40
0.0
 40
0.0
 40
0.0
 40
0.0
 40
0.0306400028578623
 40
0.0306400028578623
 40
0.0618970495254167
 40
0.0618970495254167
 40
0.1244111428605258
 40
0.1244111428605258
 40
0.1556681895280802
 40
0.1556681895280802
 40
0.1869252361956349
 40
0.2181822828631894
 40
0.2181822828631894
 40
0.2338108061969668
 40
0.2338108061969668
 40
0.2494393295307441
 40
0.2494393295307441
 40
0.3119534228658541
 40
0.3119534228658541
 40
0.3432104695334093
 40
0.3432104695334093
 40
0.3744675162009644
 40
0.3744675162009644
 40
0.4369816095360743
 40
0.4369816095360743
 40
0.4994957028711847
 40
0.4994957028711847
 40
0.5307527495387389
 40
0.5307527495387389
 40
0.5463812728725163
 40
0.5463812728725163
 40
0.5620097962062935
 40
0.5620097962062935
 40
0.6245238895414012
 40
0.6245238895414012
 40
0.6557809362089544
 40
0.6557809362089544
 40
0.6870379828765076
 40
0.6870379828765076
 40
0.7495520762116152
 40
0.7495520762116152
 40
0.7808091228791693
 40
0.7808091228791693
 40
0.7964376462129464
 40
0.7964376462129464
 40
0.8120661695467234
 40
0.8120661695467234
 40
0.874580262881831
 40
0.874580262881831
 40
0.8902087862156077
 40
0.8902087862156077
 40
0.9058373095493841
 40
0.9058373095493841
 40
0.9370943562169376
 40
0.9370943562169376
 40
0.9996084495520445
 40
0.9996084495520445
 40
1.0
 40
1.0
 40
1.0
 40
1.0
 10
328.3906950082299
 20
373.3580720719498
 30
0.0
 10
328.39071887285
 20
373.3580702006012
 30
0.0
 10
328.3918397495909
 20
373.3579825012744
 30
0.0
 10
328.3964013603348
 20
373.3576282244288
 30
0.0
 10
328.3998490306029
 20
373.3573611788444
 30
0.0
 10
328.4134560244198
 20
373.3563204766182
 30
0.0
 10
328.4268539594437
 20
373.3553066727748
 30
0.0
 10
328.4534491231581
 20
373.3533957693909
 30
0.0
 10
328.4633082652759
 20
373.3527009683588
 30
0.0
 10
328.4847590402514
 20
373.3512327007223
 30
0.0
 10
328.5079907462106
 20
373.3496823775795
 30
0.0
 10
328.5346964396023
 20
373.3480163580519
 30
0.0
 10
328.5560349498019
 20
373.3467414858098
 30
0.0
 10
328.563375826352
 20
373.3463118177468
 30
0.0
 10
328.5783402985227
 20
373.3454560665385
 30
0.0
 10
328.5859812523428
 20
373.3450289211467
 30
0.0
 10
328.6249595212847
 20
373.3429043579126
 30
0.0
 10
328.658595067085
 20
373.3412408143605
 30
0.0
 10
328.7126261999518
 20
373.3389355792959
 30
0.0
 10
328.7313125290669
 20
373.338196520632
 30
0.0
 10
328.7691976228517
 20
373.3368289114935
 30
0.0
 10
328.7884609010412
 20
373.3361971471148
 30
0.0
 10
328.847183589234
 20
373.3344789046878
 30
0.0
 10
328.8875675921533
 20
373.3335693237942
 30
0.0
 10
328.9708575710848
 20
373.3323308706543
 30
0.0
 10
329.0126075334923
 20
373.3320201255716
 30
0.0
 10
329.0752394266444
 20
373.3320221403491
 30
0.0
 10
329.0961261017037
 20
373.3321006965044
 30
0.0
 10
329.1274704071578
 20
373.3323356364942
 30
0.0
 10
329.1379208949994
 20
373.3324334667059
 30
0.0
 10
329.1588267298545
 20
373.3326681992736
 30
0.0
 10
329.1692994440491
 20
373.3328054441729
 30
0.0
 10
329.2211676274671
 20
373.3335810097058
 30
0.0
 10
329.2614438580057
 20
373.3344901662047
 30
0.0
 10
329.32005790129
 20
373.3362078057352
 30
0.0
 10
329.3392938862285
 20
373.3368393662818
 30
0.0
 10
329.3771411783703
 20
373.3382069011074
 30
0.0
 10
329.3958305108412
 20
373.3389466686929
 30
0.0
 10
329.4498122149279
 20
373.3412514235756
 30
0.0
 10
329.4833390388054
 20
373.3429107358095
 30
0.0
 10
329.5298826118866
 20
373.3454474428888
 30
0.0
 10
329.5447684523487
 20
373.346300973438
 30
0.0
 10
329.5661038689074
 20
373.3475749893278
 30
0.0
 10
329.5730639420982
 20
373.3479995172345
 30
0.0
 10
329.5864871508967
 20
373.3488335612185
 30
0.0
 10
329.5929679309206
 20
373.3492440929202
 30
0.0
 10
329.6242281192139
 20
373.3512571021511
 30
0.0
 10
329.6456114487301
 20
373.3527409969794
 30
0.0
 10
329.6676281274319
 20
373.3543219752176
 30
0.0
 10
329.6717935957009
 20
373.3546244411038
 30
0.0
 10
329.679634638644
 20
373.3551987915114
 30
0.0
 10
329.6833191275969
 20
373.3554713483927
 30
0.0
 10
329.693495395468
 20
373.3562296487609
 30
0.0
 10
329.6991478962256
 20
373.3566585704538
 30
0.0
 10
329.7127754029281
 20
373.3577006706943
 30
0.0
 10
329.7174559139457
 20
373.3580694779423
 30
0.0
 10
329.7174886647873
 20
373.3580720343285
 30
0.0
 10
329.7174905918171
 20
373.3580721849016
 30
0.0
 10
329.7174885306414
 20
373.3580720233679
 30
0.0
  0
SPLINE
  5
1A7
330
1F
100
AcDbEntity
  8
1
100
AcDbSpline
210
0.0
220
0.0
230
1.0
 70
     9
 71
     3
 72
   120
 73
   116
 74
     0
 42
0.000000001
 43
0.0000000001
 40
0.0
 40
0.0
 40
0.0
 40
0.0
 40
0.031249999999999
 40
0.031249999999999
 40
0.0390624999999987
 40
0.0390624999999987
 40
0.0468749999999984
 40
0.0468749999999984
 40
0.0624999999999981
 40
0.0624999999999981
 40
0.0937499999999975
 40
0.0937499999999975
 40
0.1015624999999973
 40
0.1015624999999973
 40
0.1093749999999971
 40
0.1249999999999968
 40
0.1406249999999966
 40
0.1406249999999966
 40
0.1484374999999964
 40
0.1484374999999964
 40
0.1562499999999963
 40
0.1562499999999963
 40
0.1874999999999962
 40
0.1874999999999962
 40
0.1953124999999959
 40
0.1953124999999959
 40
0.2031249999999957
 40
0.2187499999999951
 40
0.2343749999999945
 40
0.2343749999999945
 40
0.2499999999999939
 40
0.2499999999999939
 40
0.2812499999999934
 40
0.2812499999999934
 40
0.2890624999999931
 40
0.2890624999999931
 40
0.2968749999999927
 40
0.2968749999999927
 40
0.3124999999999927
 40
0.3124999999999927
 40
0.3437499999999928
 40
0.3437499999999928
 40
0.3593749999999931
 40
0.3593749999999931
 40
0.3749999999999934
 40
0.3749999999999934
 40
0.4062499999999942
 40
0.4062499999999942
 40
0.4218749999999944
 40
0.4218749999999944
 40
0.4374999999999948
 40
0.4531249999999952
 40
0.4531249999999952
 40
0.4687499999999957
 40
0.4687499999999957
 40
0.4999999999999963
 40
0.4999999999999963
 40
0.5156249999999965
 40
0.5156249999999965
 40
0.5234374999999967
 40
0.5234374999999967
 40
0.5312499999999969
 40
0.5312499999999969
 40
0.5624999999999976
 40
0.5624999999999976
 40
0.5781249999999978
 40
0.5781249999999978
 40
0.5859374999999979
 40
0.5859374999999979
 40
0.5937499999999979
 40
0.5937499999999979
 40
0.6249999999999991
 40
0.6249999999999991
 40
0.6328124999999995
 40
0.6328124999999995
 40
0.640625
 40
0.6562500000000005
 40
0.671875000000001
 40
0.671875000000001
 40
0.6875000000000017
 40
0.6875000000000017
 40
0.7187500000000028
 40
0.7187500000000028
 40
0.7343750000000031
 40
0.7343750000000031
 40
0.7500000000000035
 40
0.7656250000000039
 40
0.7656250000000039
 40
0.7734375000000038
 40
0.7734375000000038
 40
0.7812500000000036
 40
0.7812500000000036
 40
0.8125000000000026
 40
0.8125000000000026
 40
0.8281250000000024
 40
0.8281250000000024
 40
0.8359375000000021
 40
0.8359375000000021
 40
0.8437500000000017
 40
0.8437500000000017
 40
0.8750000000000001
 40
0.8750000000000001
 40
0.8906249999999996
 40
0.8906249999999996
 40
0.9062499999999992
 40
0.9062499999999992
 40
0.9374999999999982
 40
0.9374999999999982
 40
0.9453124999999984
 40
0.9453124999999984
 40
0.9531249999999987
 40
0.9531249999999987
 40
0.9687499999999992
 40
0.9687499999999992
 40
1.0
 40
1.0
 40
1.0
 40
1.0
 10
327.5208839331439
 20
358.6815115960915
 30
0.0
 10
327.5519574205006
 20
358.6838067333675
 30
0.0
 10
327.5798215731937
 20
358.6864785440395
 30
0.0
 10
327.6105615554445
 20
358.6904220133773
 30
0.0
 10
327.6165031242011
 20
358.6912411323788
 30
0.0
 10
327.6279633741731
 20
358.6929446336878
 30
0.0
 10
327.633492552466
 20
358.6938311227634
 30
0.0
 10
327.6492662722642
 20
358.6965666869488
 30
0.0
 10
327.6587492183814
 20
358.6984981209777
 30
0.0
 10
327.6841379102335
 20
358.7046411635867
 30
0.0
 10
327.6970170807454
 20
358.7091990662431
 30
0.0
 10
327.7077072784586
 20
358.7155886003742
 30
0.0
 10
327.7095668485122
 20
358.7168996886037
 30
0.0
 10
327.7126906459936
 20
358.7195588265714
 30
0.0
 10
327.7165017879062
 20
358.7236150229975
 30
0.0
 10
327.7185623762918
 20
358.7307134545607
 30
0.0
 10
327.7156614943804
 20
358.7367545445454
 30
0.0
 10
327.7117371727312
 20
358.7414220386145
 30
0.0
 10
327.7101304202902
 20
358.7430056129849
 30
0.0
 10
327.7063611929425
 20
358.7461851205159
 30
0.0
 10
327.7041995544921
 20
358.7477823891868
 30
0.0
 10
327.6920396607603
 20
358.7558023216155
 30
0.0
 10
327.6780271521454
 20
358.7623274040495
 30
0.0
 10
327.6552609633123
 20
358.7705413376042
 30
0.0
 10
327.6504288173618
 20
358.772191288586
 30
0.0
 10
327.6402987231101
 20
358.7754714907914
 30
0.0
 10
327.62443205033
 20
358.7803540286809
 30
0.0
 10
327.5947435351822
 20
358.7882893485997
 30
0.0
 10
327.5676481313018
 20
358.7943850688152
 30
0.0
 10
327.5388874109987
 20
358.8003313096824
 30
0.0
 10
327.5236038992071
 20
358.8032403325305
 30
0.0
 10
327.476147531924
 20
358.8115428713282
 30
0.0
 10
327.4421896950622
 20
358.8165633916803
 30
0.0
 10
327.3969693630531
 20
358.8221139176252
 30
0.0
 10
327.3877853529851
 20
358.8231875314132
 30
0.0
 10
327.3691355588151
 20
358.8252587398798
 30
0.0
 10
327.3596458941612
 20
358.8262586363021
 30
0.0
 10
327.3309565662416
 20
358.829118786817
 30
0.0
 10
327.3115484471575
 20
358.8308399595591
 30
0.0
 10
327.2525111252535
 20
358.835443669032
 30
0.0
 10
327.212075938199
 20
358.8377697074516
 30
0.0
 10
327.1498019530097
 20
358.8400714730929
 30
0.0
 10
327.1287342965774
 20
358.8406384024861
 30
0.0
 10
327.0868649680348
 20
358.8413466839729
 30
0.0
 10
327.0659641618595
 20
358.8414926523852
 30
0.0
 10
327.0033614038144
 20
358.8413156209807
 30
0.0
 10
326.9617582094465
 20
358.8403811067065
 30
0.0
 10
326.8995597434921
 20
358.8377317472378
 30
0.0
 10
326.8790363790588
 20
358.8366458846791
 30
0.0
 10
326.8388110834315
 20
358.8341085961848
 30
0.0
 10
326.7992762118152
 20
358.8312002957739
 30
0.0
 10
326.7611175207024
 20
358.8275805213156
 30
0.0
 10
326.7236636973357
 20
358.8236137900621
 30
0.0
 10
326.7052435589047
 20
358.8214510241866
 30
0.0
 10
326.6513914056706
 20
358.8144837614196
 30
0.0
 10
326.6181482840922
 20
358.8093118720711
 30
0.0
 10
326.5722476321018
 20
358.8009051389686
 30
0.0
 10
326.5576126925716
 20
358.7979939679054
 30
0.0
 10
326.5367001296182
 20
358.7934751724972
 30
0.0
 10
326.5299029142847
 20
358.791943526519
 30
0.0
 10
326.5166672026027
 20
358.7888308594241
 30
0.0
 10
326.510242971692
 20
358.7872527416532
 30
0.0
 10
326.4794132794892
 20
358.7793406423121
 30
0.0
 10
326.4585394087044
 20
358.7728736722277
 30
0.0
 10
326.4330040939115
 20
358.7630901011869
 30
0.0
 10
326.4254617599692
 20
358.7598145563088
 30
0.0
 10
326.4156837431178
 20
358.7548911641055
 30
0.0
 10
326.4126902285374
 20
358.7532521037236
 30
0.0
 10
326.4072947823902
 20
358.750014332748
 30
0.0
 10
326.404882731714
 20
358.7484106627717
 30
0.0
 10
326.3942338277793
 20
358.7404709148426
 30
0.0
 10
326.3901876778911
 20
358.734371299528
 30
0.0
 10
326.390884022322
 20
358.7270948441313
 30
0.0
 10
326.3913165314635
 20
358.7256524553648
 30
0.0
 10
326.3927630957302
 20
358.7228277833186
 30
0.0
 10
326.3957994535349
 20
358.7186844080599
 30
0.0
 10
326.4050734141501
 20
358.712231010493
 30
0.0
 10
326.4168857547362
 20
358.7075229628954
 30
0.0
 10
326.430911957409
 20
358.7030306682124
 30
0.0
 10
326.4390719791088
 20
358.7008874883937
 30
0.0
 10
326.4662989390295
 20
358.6948983230453
 30
0.0
 10
326.4882096025707
 20
358.6914378056031
 30
0.0
 10
326.5264949188345
 20
358.6868856220793
 30
0.0
 10
326.5402378189187
 20
358.6854702457799
 30
0.0
 10
326.5690054851829
 20
358.6828819330739
 30
0.0
 10
326.59912980555
 20
358.680523335335
 30
0.0
 10
326.631864445993
 20
358.6785590085402
 30
0.0
 10
326.6573852944349
 20
358.6772146353866
 30
0.0
 10
326.6660541830421
 20
358.6767880410627
 30
0.0
 10
326.6837178566068
 20
358.6759753139238
 30
0.0
 10
326.6927345803253
 20
358.6755883678886
 30
0.0
 10
326.7382493510684
 20
358.6737643169467
 30
0.0
 10
326.7761668044822
 20
358.6726454090024
 30
0.0
 10
326.8351846952227
 20
358.6713427965297
 30
0.0
 10
326.8552169145202
 20
358.6709722157788
 30
0.0
 10
326.8858127668245
 20
358.6705028817483
 30
0.0
 10
326.8961258136443
 20
358.6703606694947
 30
0.0
 10
326.9167570489177
 20
358.670106368568
 30
0.0
 10
326.9270886252004
 20
358.6699940021953
 30
0.0
 10
326.9788247692979
 20
358.6695019101251
 30
0.0
 10
327.0204620800959
 20
358.6693270220661
 30
0.0
 10
327.0832868089541
 20
358.6693676920692
 30
0.0
 10
327.1043121108247
 20
358.6694327240239
 30
0.0
 10
327.1464008199782
 20
358.6696713793683
 30
0.0
 10
327.1671904593438
 20
358.6698433663228
 30
0.0
 10
327.2288167715792
 20
358.6705231290129
 30
0.0
 10
327.2689174380563
 20
358.6711911691534
 30
0.0
 10
327.3177845116649
 20
358.6723652006093
 30
0.0
 10
327.3274944569448
 20
358.6726172391172
 30
0.0
 10
327.346784425061
 20
358.6731587698047
 30
0.0
 10
327.3563813625986
 20
358.6734488991024
 30
0.0
 10
327.3847012495662
 20
358.6743715298674
 30
0.0
 10
327.4030317640588
 20
358.6750579563202
 30
0.0
 10
327.4563883279961
 20
358.6773604700529
 30
0.0
 10
327.4898104457869
 20
358.6792164588154
 30
0.0
 10
327.5208839331438
 20
358.6815115960915
 30
0.0
  0
SPLINE
  5
1A8
330
1F
100
AcDbEntity
  8
1
100
AcDbSpline
210
0.0
220
0.0
230
1.0
 70
     8
 71
     3
 72
    30
 73
    26
 74
     0
 42
0.000000001
 43
0.0000000001
 40
0.0
 40
0.0
 40
0.0
 40
0.0
 40
0.0765544436336727
 40
0.0765544436336727
 40
0.2166991791812608
 40
0.2166991791812608
 40
0.2867715469550549
 40
0.2867715469550549
 40
0.356843914728849
 40
0.356843914728849
 40
0.4269162825026431
 40
0.4269162825026431
 40
0.4969886502764372
 40
0.4969886502764372
 40
0.6371333858240226
 40
0.6371333858240226
 40
0.7072057535978144
 40
0.7072057535978144
 40
0.777278121371606
 40
0.777278121371606
 40
0.8473504891453977
 40
0.8473504891453977
 40
0.9174228569191893
 40
0.9174228569191893
 40
1.0
 40
1.0
 40
1.0
 40
1.0
 10
332.0958854209583
 20
373.3118352164041
 30
0.0
 10
332.0715723978785
 20
373.3130393550291
 30
0.0
 10
332.0477597659869
 20
373.3143427225494
 30
0.0
 10
331.9817344359468
 20
373.3182628308275
 30
0.0
 10
331.9411518559145
 20
373.3210426952176
 30
0.0
 10
331.8835179369701
 20
373.3253838079625
 30
0.0
 10
331.8648835084477
 20
373.3268569299914
 30
0.0
 10
331.8289404724196
 20
373.3298087710033
 30
0.0
 10
331.8115998856788
 20
373.3312899100296
 30
0.0
 10
331.7781608477573
 20
373.3342332106823
 30
0.0
 10
331.7620868170586
 20
373.3356934396212
 30
0.0
 10
331.7315057562753
 20
373.3385345475832
 30
0.0
 10
331.716951339841
 20
373.3399195856101
 30
0.0
 10
331.6754309918122
 20
373.3439312440907
 30
0.0
 10
331.6505963242989
 20
373.3464145052015
 30
0.0
 10
331.6175772937319
 20
373.3497091407897
 30
0.0
 10
331.6072611272517
 20
373.3507374081387
 30
0.0
 10
331.588254791175
 20
373.3526084255885
 30
0.0
 10
331.5795410518869
 20
373.3534535571221
 30
0.0
 10
331.5636756938071
 20
373.3549467182106
 30
0.0
 10
331.556511652763
 20
373.3555958044481
 30
0.0
 10
331.5438121838647
 20
373.3566756148106
 30
0.0
 10
331.5382967806302
 20
373.357104779579
 30
0.0
 10
331.5280488920022
 20
373.3577924935251
 30
0.0
 10
331.52362756051
 20
373.3580069450238
 30
0.0
 10
331.5203227329498
 20
373.3580593933272
 30
0.0
  0
SPLINE
  5
1A9
330
1F
100
AcDbEntity
  8
1
100
AcDbSpline
210
0.0
220
0.0
230
1.0
 70
     8
 71
     3
 72
    28
 73
    24
 74
     0
 42
0.000000001
 43
0.0000000001
 40
0.0
 40
0.0
 40
0.0
 40
0.0
 40
0.0032328018452258
 40
0.0032328018452258
 40
0.0696839483888768
 40
0.0696839483888768
 40
0.2025862414761786
 40
0.2025862414761786
 40
0.3354885345634806
 40
0.3354885345634806
 40
0.4019396811071319
 40
0.4019396811071319
 40
0.4683908276507829
 40
0.4683908276507829
 40
0.6012931207380873
 40
0.6012931207380873
 40
0.6677442672817396
 40
0.6677442672817396
 40
0.7341954138253917
 40
0.7341954138253917
 40
0.8670977069126958
 40
0.8670977069126958
 40
1.0
 40
1.0
 40
1.0
 40
1.0
 10
331.5129926863277
 20
373.3571809233065
 30
0.0
 10
331.5129955052433
 20
373.3571625459213
 30
0.0
 10
331.5130002616045
 20
373.357143880795
 30
0.0
 10
331.5131445863622
 20
373.3567353394038
 30
0.0
 10
331.5141112557585
 20
373.3562213034294
 30
0.0
 10
331.5194638938391
 20
373.3543332573867
 30
0.0
 10
331.5262660449115
 20
373.3526141904766
 30
0.0
 10
331.5462080760154
 20
373.3483357349145
 30
0.0
 10
331.5593470500528
 20
373.3457760489987
 30
0.0
 10
331.584015394158
 20
373.341367516918
 30
0.0
 10
331.5931067870376
 20
373.3397970482946
 30
0.0
 10
331.6127149223191
 20
373.3365288709423
 30
0.0
 10
331.6232477402205
 20
373.3348278930383
 30
0.0
 10
331.6570098185818
 20
373.3295592389159
 30
0.0
 10
331.6823901687815
 20
373.3258253583721
 30
0.0
 10
331.7248991779663
 20
373.3200352712652
 30
0.0
 10
331.7398116133107
 20
373.3180737790937
 30
0.0
 10
331.7711848536442
 20
373.3141137755534
 30
0.0
 10
331.7876957343756
 20
373.3121101555815
 30
0.0
 10
331.8387379229937
 20
373.3061929796033
 30
0.0
 10
331.8750094593993
 20
373.3023404551636
 30
0.0
 10
331.952095482886
 20
373.2950549388232
 30
0.0
 10
331.992907100165
 20
373.2916207952148
 30
0.0
 10
332.0361968106158
 20
373.2885276492261
 30
0.0
  0
SPLINE
  5
1AA
330
1F
100
AcDbEntity
  8
1
100
AcDbSpline
210
0.0
220
0.0
230
1.0
 70
     8
 71
     3
 72
    26
 73
    22
 74
     0
 42
0.000000001
 43
0.0000000001
 40
0.0
 40
0.0
 40
0.0
 40
0.0
 40
0.1464879971510972
 40
0.1464879971510972
 40
0.2929759943021944
 40
0.2929759943021944
 40
0.4394639914532917
 40
0.4394639914532917
 40
0.5859519886043888
 40
0.5859519886043888
 40
0.6591959871799374
 40
0.6591959871799374
 40
0.7324399857554859
 40
0.7324399857554859
 40
0.8056839843310346
 40
0.8056839843310346
 40
0.8789279829065831
 40
0.8789279829065831
 40
0.9521719814821317
 40
0.9521719814821317
 40
1.0
 40
1.0
 40
1.0
 40
1.0
 10
330.7788801234052
 20
358.6826466789597
 30
0.0
 10
330.7208664716007
 20
358.6826466028069
 30
0.0
 10
330.6632769050306
 20
358.6822262657766
 30
0.0
 10
330.5489935619716
 20
358.6806418185819
 30
0.0
 10
330.4930490255579
 20
358.6794887023556
 30
0.0
 10
330.383622190391
 20
358.6766556201187
 30
0.0
 10
330.3307683926697
 20
358.6749924340916
 30
0.0
 10
330.2289124356197
 20
358.6714363017292
 30
0.0
 10
330.1804351819332
 20
358.6695620773651
 30
0.0
 10
330.1115814584121
 20
358.6668378128413
 30
0.0
 10
330.0893995672446
 20
358.6659493987662
 30
0.0
 10
330.0465713823308
 20
358.6642510789147
 30
0.0
 10
330.025904168584
 20
358.6634403316491
 30
0.0
 10
329.986229214372
 20
358.6619422133761
 30
0.0
 10
329.9673035090608
 20
358.6612579472015
 30
0.0
 10
329.9312869377764
 20
358.6600583642326
 30
0.0
 10
329.9141751904378
 20
358.6595424755665
 30
0.0
 10
329.8819328065725
 20
358.6587240051003
 30
0.0
 10
329.866864683508
 20
358.6584228692499
 30
0.0
 10
329.8437172590935
 20
358.6581337223732
 30
0.0
 10
329.8350182521996
 20
358.6580733914648
 30
0.0
 10
329.8267938343106
 20
358.6580721837754
 30
0.0
  0
SPLINE
  5
1AB
330
1F
100
AcDbEntity
  8
1
100
AcDbSpline
210
0.0
220
0.0
230
1.0
 70
    24
 71
     3
 72
     8
 73
     4
 74
     0
 42
0.000000001
 43
0.0000000001
 40
0.0
 40
0.0
 40
0.0
 40
0.0
 40
1.0
 40
1.0
 40
1.0
 40
1.0
 10
330.7788801234052
 20
358.6826466789597
 30
0.0
 10
331.036649493195
 20
358.6826470173251
 30
0.0
 10
331.2944188629848
 20
358.682647355694
 30
0.0
 10
331.5521882327746
 20
358.6826476940666
 30
0.0
  0
SPLINE
  5
1AC
330
1F
100
AcDbEntity
  8
1
100
AcDbSpline
210
0.0
220
0.0
230
1.0
 70
     8
 71
     3
 72
     8
 73
     4
 74
     0
 42
0.000000001
 43
0.0000000001
 40
0.0
 40
0.0
 40
0.0
 40
0.0
 40
1.0
 40
1.0
 40
1.0
 40
1.0
 10
331.6737562960015
 20
358.6820370398493
 30
0.0
 10
331.6333886737898
 20
358.6824415617036
 30
0.0
 10
331.5928660451489
 20
358.6826477474642
 30
0.0
 10
331.5521882327746
 20
358.6826476940666
 30
0.0
  0
SPLINE
  5
1AD
330
1F
100
AcDbEntity
  8
1
100
AcDbSpline
210
0.0
220
0.0
230
1.0
 70
     8
 71
     3
 72
    25
 73
    21
 74
     0
 42
0.000000001
 43
0.0000000001
 40
0.0
 40
0.0
 40
0.0
 40
0.0
 40
0.1250000000000002
 40
0.1250000000000002
 40
0.2500000000000005
 40
0.2500000000000005
 40
0.3750000000000008
 40
0.3750000000000008
 40
0.4375000000000009
 40
0.4687500000000013
 40
0.4687500000000013
 40
0.5000000000000017
 40
0.5000000000000017
 40
0.6250000000000013
 40
0.6250000000000013
 40
0.7500000000000008
 40
0.7500000000000008
 40
0.8750000000000003
 40
0.8750000000000003
 40
1.0
 40
1.0
 40
1.0
 40
1.0
 10
332.7663316422575
 20
369.0772260342594
 30
0.0
 10
332.9620738025326
 20
368.9089975361392
 30
0.0
 10
333.1642003713285
 20
368.7451085719053
 30
0.0
 10
333.5813710842972
 20
368.4281778468908
 30
0.0
 10
333.7964136563904
 20
368.2751309278271
 30
0.0
 10
334.2395417217814
 20
367.9817557428811
 30
0.0
 10
334.467625711508
 20
367.8414235781626
 30
0.0
 10
334.8196469858461
 20
367.6417555713634
 30
0.0
 10
334.9981319467878
 20
367.5446278899826
 30
0.0
 10
335.1803569427725
 20
367.4517966611653
 30
0.0
 10
335.3026752459164
 20
367.3908902391096
 30
0.0
 10
335.3643024074744
 20
367.3609047072577
 30
0.0
 10
335.6732587778865
 20
367.2140911250216
 30
0.0
 10
335.923856318864
 20
367.1061822190372
 30
0.0
 10
336.4316357186054
 20
366.9096783935442
 30
0.0
 10
336.6888172569792
 20
366.8210809619578
 30
0.0
 10
337.2095831643477
 20
366.663503779545
 30
0.0
 10
337.4731670109926
 20
366.5945215053907
 30
0.0
 10
338.0066678066582
 20
366.4766314160521
 30
0.0
 10
338.2765839064307
 20
366.4277205113867
 30
0.0
 10
338.5496975887895
 20
366.3891927520167
 30
0.0
  0
SPLINE
  5
1AE
330
1F
100
AcDbEntity
  8
1
100
AcDbSpline
210
0.0
220
0.0
230
1.0
 70
     8
 71
     3
 72
    87
 73
    83
 74
     0
 42
0.000000001
 43
0.0000000001
 40
0.0
 40
0.0
 40
0.0
 40
0.0
 40
0.0380916124025831
 40
0.0380916124025831
 40
0.0761832248051661
 40
0.0761832248051661
 40
0.0857061279058114
 40
0.0857061279058114
 40
0.0952290310064567
 40
0.0952290310064567
 40
0.1142748372077474
 40
0.1142748372077474
 40
0.1523664496103287
 40
0.1523664496103287
 40
0.1714122558116198
 40
0.1714122558116198
 40
0.1809351589122654
 40
0.1809351589122654
 40
0.1904580620129109
 40
0.1904580620129109
 40
0.2285496744154949
 40
0.2285496744154949
 40
0.2475954806167869
 40
0.2475954806167869
 40
0.257118383717433
 40
0.257118383717433
 40
0.266641286818079
 40
0.266641286818079
 40
0.3047328992206656
 40
0.3047328992206656
 40
0.3428245116232521
 40
0.3428245116232521
 40
0.3523474147238984
 40
0.3523474147238984
 40
0.3618703178245447
 40
0.3809161240258379
 40
0.3809161240258379
 40
0.4190077364284254
 40
0.4190077364284254
 40
0.4380535426297191
 40
0.4380535426297191
 40
0.4570993488310128
 40
0.4570993488310128
 40
0.4951909612336002
 40
0.4951909612336002
 40
0.514236767434894
 40
0.514236767434894
 40
0.5332825736361876
 40
0.5332825736361876
 40
0.5713741860387748
 40
0.5713741860387748
 40
0.5904199922400684
 40
0.5904199922400684
 40
0.6094657984413617
 40
0.6094657984413617
 40
0.647557410843949
 40
0.647557410843949
 40
0.6856490232465362
 40
0.6856490232465362
 40
0.7046948294478299
 40
0.7046948294478299
 40
0.7237406356491232
 40
0.7237406356491232
 40
0.7618322480517095
 40
0.7999238604542958
 40
0.7999238604542958
 40
0.8380154728568818
 40
0.8380154728568818
 40
0.8570612790581751
 40
0.8570612790581751
 40
0.8761070852594677
 40
0.8761070852594677
 40
0.914198697662054
 40
0.914198697662054
 40
0.9522903100646404
 40
0.9522903100646404
 40
0.9618132131652876
 40
0.9618132131652876
 40
0.9713361162659344
 40
0.9903819224672288
 40
0.9903819224672288
 40
1.0
 40
1.0
 40
1.0
 40
1.0
 10
338.5496975887895
 20
363.3034278081272
 30
0.0
 10
338.4918124240136
 20
363.345942100577
 30
0.0
 10
338.4315824174014
 20
363.3844837010412
 30
0.0
 10
338.3064526768756
 20
363.453554890246
 30
0.0
 10
338.2415542514238
 20
363.4840869979845
 30
0.0
 10
338.1573672110056
 20
363.5169415698308
 30
0.0
 10
338.1403759054468
 20
363.5232457853517
 30
0.0
 10
338.1060788220353
 20
363.5353081033481
 30
0.0
 10
338.0887665391671
 20
363.5410665503542
 30
0.0
 10
338.0367914784268
 20
363.5573704708637
 30
0.0
 10
338.0019468894361
 20
363.5669983969108
 30
0.0
 10
337.8968350320731
 20
363.5921999578274
 30
0.0
 10
337.8259924675745
 20
363.6041097216838
 30
0.0
 10
337.7185494205713
 20
363.6144793711823
 30
0.0
 10
337.6825378612256
 20
363.616682304497
 30
0.0
 10
337.6282145016542
 20
363.6180419057932
 30
0.0
 10
337.6100170471361
 20
363.6181699263831
 30
0.0
 10
337.5737184373601
 20
363.6177652605426
 30
0.0
 10
337.555640425902
 20
363.6172345005558
 30
0.0
 10
337.4656023766809
 20
363.6129606873887
 30
0.0
 10
337.3946920138522
 20
363.6043828392272
 30
0.0
 10
337.2899991739712
 20
363.5838903180638
 30
0.0
 10
337.2553815906706
 20
363.5757835600766
 30
0.0
 10
337.2038858574334
 20
363.5616782199771
 30
0.0
 10
337.1867924686295
 20
363.5566519190437
 30
0.0
 10
337.1527522075528
 20
363.5459410147536
 30
0.0
 10
337.1357742428837
 20
363.5402451553671
 30
0.0
 10
337.0516302835188
 20
363.5102236265277
 30
0.0
 10
336.9873537092173
 20
363.4815568170292
 30
0.0
 10
336.8646832007988
 20
363.4154191918137
 30
0.0
 10
336.8062902699254
 20
363.3779460730697
 30
0.0
 10
336.7370943778334
 20
363.3255753210154
 30
0.0
 10
336.7234197711205
 20
363.3148009057251
 30
0.0
 10
336.6966677581067
 20
363.2928669409122
 30
0.0
 10
336.6573825813319
 20
363.2593527565946
 30
0.0
 10
336.6205753520569
 20
363.2240532612232
 30
0.0
 10
336.5501775575574
 20
363.1511828928691
 30
0.0
 10
336.507521523365
 20
363.0995834147404
 30
0.0
 10
336.4498656443043
 20
363.017898084112
 30
0.0
 10
336.4316473591928
 20
362.9898456869996
 30
0.0
 10
336.3977965757149
 20
362.9331068560067
 30
0.0
 10
336.3821193283367
 20
362.9043745529938
 30
0.0
 10
336.3386630864117
 20
362.8171802581525
 30
0.0
 10
336.3144466408239
 20
362.7577257421391
 30
0.0
 10
336.2848560798994
 20
362.666814271825
 30
0.0
 10
336.2761177931929
 20
362.6362185110261
 30
0.0
 10
336.2608666162607
 20
362.5744862064341
 30
0.0
 10
336.2544265670523
 20
362.5436473952272
 30
0.0
 10
336.2384553355529
 20
362.4512382346898
 30
0.0
 10
336.232260474748
 20
362.3897764020599
 30
0.0
 10
336.2290926564309
 20
362.2978731385051
 30
0.0
 10
336.229060863636
 20
362.2672866253791
 30
0.0
 10
336.2309892994263
 20
362.2062180669406
 30
0.0
 10
336.2329557280091
 20
362.17567680877
 30
0.0
 10
336.2417472818421
 20
362.0846346206337
 30
0.0
 10
336.2513966362621
 20
362.0250993441505
 30
0.0
 10
336.2775755542015
 20
361.9081701150431
 30
0.0
 10
336.2941080212073
 20
361.8507767874617
 30
0.0
 10
336.3238056768769
 20
361.766203000628
 30
0.0
 10
336.3345237745102
 20
361.7382648217843
 30
0.0
 10
336.3575809786113
 20
361.6828837018805
 30
0.0
 10
336.3699422475078
 20
361.6554019006569
 30
0.0
 10
336.4091098360189
 20
361.5743678754664
 30
0.0
 10
336.4670245985692
 20
361.469660000409
 30
0.0
 10
336.5358606956912
 20
361.3711390925516
 30
0.0
 10
336.6102041151266
 20
361.275579350396
 30
0.0
 10
336.6501272690046
 20
361.2292797291053
 30
0.0
 10
336.7144054773312
 20
361.1620338198204
 30
0.0
 10
336.7365433450645
 20
361.1400170705395
 30
0.0
 10
336.7819206357223
 20
361.0971194254263
 30
0.0
 10
336.8052065181126
 20
361.0761888383466
 30
0.0
 10
336.8769047619343
 20
361.0149421276902
 30
0.0
 10
336.9271454307243
 20
360.9761631526941
 30
0.0
 10
337.0330287831911
 20
360.9028296392388
 30
0.0
 10
337.0886634858848
 20
360.86827057757
 30
0.0
 10
337.1622038961335
 20
360.8279742286513
 30
0.0
 10
337.1771381743605
 20
360.82004879953
 30
0.0
 10
337.2072559775476
 20
360.8045902080023
 30
0.0
 10
337.2528344253575
 20
360.7819734690066
 30
0.0
 10
337.2996508353244
 20
360.7610933223413
 30
0.0
 10
337.3475117034077
 20
360.7413587015874
 30
0.0
 10
337.3637206025842
 20
360.7349410762209
 30
0.0
 10
337.380086997945
 20
360.7287363033056
 30
0.0
  0
SPLINE
  5
1AF
330
1F
100
AcDbEntity
  8
1
100
AcDbSpline
210
0.0
220
0.0
230
1.0
 70
     8
 71
     3
 72
    16
 73
    12
 74
     0
 42
0.000000001
 43
0.0000000001
 40
0.0
 40
0.0
 40
0.0
 40
0.0
 40
0.3262594951112336
 40
0.3262594951112336
 40
0.4104770582223319
 40
0.4104770582223319
 40
0.4946946213334303
 40
0.4946946213334303
 40
0.6631297475556234
 40
0.6631297475556234
 40
1.0
 40
1.0
 40
1.0
 40
1.0
 10
337.9643403234779
 20
360.6180608456832
 30
0.0
 10
338.0342713832616
 20
360.6180455703365
 30
0.0
 10
338.1025877170175
 20
360.6229466881743
 30
0.0
 10
338.1866059113187
 20
360.6351422311956
 30
0.0
 10
338.2037412518368
 20
360.6379653261536
 30
0.0
 10
338.2378080511724
 20
360.6442555507452
 30
0.0
 10
338.2547768908292
 20
360.6477312929468
 30
0.0
 10
338.3051123257295
 20
360.6590704782032
 30
0.0
 10
338.3377051305615
 20
360.6677906850387
 30
0.0
 10
338.4328526469425
 20
360.697202766816
 30
0.0
 10
338.4927922762581
 20
360.7211260320753
 30
0.0
 10
338.5496975887895
 20
360.7490495346342
 30
0.0
  0
SPLINE
  5
1B0
330
1F
100
AcDbEntity
  8
1
100
AcDbSpline
210
0.0
220
0.0
230
1.0
 70
     8
 71
     3
 72
    12
 73
     8
 74
     0
 42
0.000000001
 43
0.0000000001
 40
0.0
 40
0.0
 40
0.0
 40
0.0
 40
0.5000000000000001
 40
0.5000000000000001
 40
0.7500000000000002
 40
0.7500000000000002
 40
1.0
 40
1.0
 40
1.0
 40
1.0
 10
347.0109905139618
 20
366.4937096349552
 30
0.0
 10
347.0121433403282
 20
366.4776591045319
 30
0.0
 10
347.0125989179177
 20
366.4618588070642
 30
0.0
 10
347.0122790273963
 20
366.4385201731556
 30
0.0
 10
347.0120013629518
 20
366.4307691692985
 30
0.0
 10
347.0111046607148
 20
366.4155542376357
 30
0.0
 10
347.0104892448712
 20
366.4081226755988
 30
0.0
 10
347.0097080121476
 20
366.4008673020543
 30
0.0
  0
LINE
  5
1B1
330
1F
100
AcDbEntity
  8
4
100
AcDbLine
 10
320.174849
 20
366.008075
 30
0.0
 11
349.616185
 21
366.008071
 31
0.0
  0
LINE
  5
1B2
330
1F
100
AcDbEntity
  8
SK4
100
AcDbLine
 10
302.674849
 20
366.008075
 30
0.0
 11
325.174849
 21
366.008075
 31
0.0
  0
MTEXT
  5
1B6
330
1F
100
AcDbEntity
  8
SK6
100
AcDbMText
 10
306.93896
 20
338.718141
 30
0.0
 40
3.5
 41
0.0
 71
     7
 72
     5
  1
\W0.7515;16L2R025M08-SZP16
  7
cesky
 73
     2
 44
0.8433729999999998
  0
MTEXT
  5
32D
330
1F
100
AcDbEntity
  8
2
100
AcDbMText
 10
356.718351
 20
365.155426
 30
0.0
 40
3.5
 41
0.0
 71
     7
 72
     5
  1
\W0.8260;16
  7
cesky
 11
0.000000153522322
 21
0.9999999999999882
 31
0.0
 73
     2
 44
0.8433729999999998
  0
MTEXT
  5
32E
330
1F
100
AcDbEntity
  8
2
100
AcDbMText
 10
356.71835
 20
358.4179259999999
 30
0.0
 40
3.5
 41
0.0
 71
     7
 72
     5
  1
\W3.0115;\H2.63;%%c\H3.50;
  7
cesky
 11
0.000000153522322
 21
0.9999999999999882
 31
0.0
 73
     2
 44
0.8433729999999998
  0
LINE
  5
32F
330
1F
100
AcDbEntity
  8
2
100
AcDbLine
 10
348.674849
 20
374.008075
 30
0.0
 11
357.905769
 21
374.008074
 31
0.0
  0
LINE
  5
330
330
1F
100
AcDbEntity
  8
2
100
AcDbLine
 10
356.905769
 20
374.008074
 30
0.0
 11
356.905767
 21
358.260426
 31
0.0
  0
SOLID
  5
331
330
1F
100
AcDbEntity
  8
2
100
AcDbTrace
 10
356.905769
 20
374.008074
 30
0.0
 11
357.522913
 21
370.5080759999999
 31
0.0
 12
356.288624
 22
370.508072
 32
0.0
 13
356.288624
 23
370.508072
 33
0.0
  0
MTEXT
  5
332
330
1F
100
AcDbEntity
  8
2
100
AcDbMText
 10
335.53225
 20
377.747591
 30
0.0
 40
3.5
 41
0.0
 71
     7
 72
     5
  1
\W0.8876;14,4
  7
cesky
 73
     2
 44
0.8433729999999998
  0
LINE
  5
333
330
1F
100
AcDbEntity
  8
2
100
AcDbLine
 10
347.174849
 20
375.508075
 30
0.0
 11
347.174849
 21
378.873424
 31
0.0
  0
LINE
  5
334
330
1F
100
AcDbEntity
  8
2
100
AcDbLine
 10
332.568652
 20
373.543526
 30
0.0
 11
332.568652
 21
378.873424
 31
0.0
  0
LINE
  5
335
330
1F
100
AcDbEntity
  8
2
100
AcDbLine
 10
355.924849
 20
377.873424
 30
0.0
 11
323.818652
 21
377.873424
 31
0.0
  0
SOLID
  5
336
330
1F
100
AcDbEntity
  8
2
100
AcDbTrace
 10
347.174849
 20
377.873424
 30
0.0
 11
350.674846
 21
378.490569
 31
0.0
 12
350.674851
 22
377.25628
 32
0.0
 13
350.674851
 23
377.25628
 33
0.0
  0
SOLID
  5
337
330
1F
100
AcDbEntity
  8
2
100
AcDbTrace
 10
332.568652
 20
377.873424
 30
0.0
 11
329.068654
 21
377.25628
 31
0.0
 12
329.06865
 22
378.490569
 32
0.0
 13
329.06865
 23
378.490569
 33
0.0
  0
MTEXT
  5
338
330
1F
100
AcDbEntity
  8
2
100
AcDbMText
 10
332.860349
 20
386.269144
 30
0.0
 40
3.5
 41
0.0
 71
     7
 72
     5
  1
\W0.7045;25
  7
cesky
 73
     2
 44
0.8433729999999998
  0
LINE
  5
339
330
1F
100
AcDbEntity
  8
2
100
AcDbLine
 10
347.174849
 20
375.508075
 30
0.0
 11
347.174849
 21
387.394977
 31
0.0
  0
LINE
  5
33A
330
1F
100
AcDbEntity
  8
2
100
AcDbLine
 10
322.174849
 20
366.008075
 30
0.0
 11
322.174849
 21
387.394977
 31
0.0
  0
LINE
  5
33B
330
1F
100
AcDbEntity
  8
2
100
AcDbLine
 10
347.174849
 20
386.394977
 30
0.0
 11
322.174849
 21
386.394977
 31
0.0
  0
SOLID
  5
33C
330
1F
100
AcDbEntity
  8
2
100
AcDbTrace
 10
347.174849
 20
386.394977
 30
0.0
 11
343.674851
 21
385.777832
 31
0.0
 12
343.674846
 22
387.012121
 32
0.0
 13
343.674846
 23
387.012121
 33
0.0
  0
SOLID
  5
33D
330
1F
100
AcDbEntity
  8
2
100
AcDbTrace
 10
322.174849
 20
386.394977
 30
0.0
 11
325.674846
 21
387.012121
 31
0.0
 12
325.674851
 22
385.777832
 32
0.0
 13
325.674851
 23
385.777832
 33
0.0
  0
MTEXT
  5
33E
330
1F
100
AcDbEntity
  8
SK2
100
AcDbMText
 10
298.016018
 20
367.040575
 30
0.0
 40
3.5
 41
0.0
 71
     7
 72
     5
  1
\W0.6094;8
  7
cesky
 11
0.0000000000000001
 21
1.0
 31
0.0
 73
     2
 44
0.8433729999999998
  0
MTEXT
  5
33F
330
1F
100
AcDbEntity
  8
SK2
100
AcDbMText
 10
298.016018
 20
363.815575
 30
0.0
 40
3.5
 41
0.0
 71
     7
 72
     5
  1
\W0.5332;M
  7
cesky
 11
0.0000000000000001
 21
1.0
 31
0.0
 73
     2
 44
0.8433729999999998
  0
LINE
  5
340
330
1F
100
AcDbEntity
  8
SK2
100
AcDbLine
 10
305.924849
 20
370.008075
 30
0.0
 11
296.547184
 21
370.008075
 31
0.0
  0
LINE
  5
341
330
1F
100
AcDbEntity
  8
SK2
100
AcDbLine
 10
305.924849
 20
362.008075
 30
0.0
 11
296.547184
 21
362.008075
 31
0.0
  0
LINE
  5
342
330
1F
100
AcDbEntity
  8
SK2
100
AcDbLine
 10
297.5471839999999
 20
378.758075
 30
0.0
 11
297.5471839999999
 21
353.258075
 31
0.0
  0
SOLID
  5
343
330
1F
100
AcDbEntity
  8
SK2
100
AcDbTrace
 10
297.5471839999999
 20
370.008075
 30
0.0
 11
296.93004
 21
373.508073
 31
0.0
 12
298.164329
 22
373.508077
 32
0.0
 13
298.164329
 23
373.508077
 33
0.0
  0
SOLID
  5
344
330
1F
100
AcDbEntity
  8
SK2
100
AcDbTrace
 10
297.5471839999999
 20
362.008075
 30
0.0
 11
298.164329
 21
358.508077
 31
0.0
 12
296.93004
 22
358.508073
 32
0.0
 13
296.93004
 23
358.508073
 33
0.0
  0
MTEXT
  5
345
330
1F
100
AcDbEntity
  8
SK2
100
AcDbMText
 10
317.940776
 20
383.653075
 30
0.0
 40
3.5
 41
0.0
 71
     7
 72
     5
  1
\W0.8874;8,5
  7
cesky
 11
0.0000000000000001
 21
1.0
 31
0.0
 73
     2
 44
0.8433729999999998
  0
MTEXT
  5
346
330
1F
100
AcDbEntity
  8
SK2
100
AcDbMText
 10
317.940776
 20
376.915575
 30
0.0
 40
3.5
 41
0.0
 71
     7
 72
     5
  1
\W3.0115;\H2.63;%%c\H3.50;
  7
cesky
 11
0.0000000000000001
 21
1.0
 31
0.0
 73
     2
 44
0.8433729999999998
  0
LINE
  5
347
330
1F
100
AcDbEntity
  8
SK2
100
AcDbLine
 10
318.128193
 20
361.758075
 30
0.0
 11
318.128193
 21
390.020575
 31
0.0
  0
SOLID
  5
348
330
1F
100
AcDbEntity
  8
SK2
100
AcDbTrace
 10
318.128193
 20
361.758075
 30
0.0
 11
317.511048
 21
365.258073
 31
0.0
 12
318.745337
 22
365.258077
 32
0.0
 13
318.745337
 23
365.258077
 33
0.0
  0
SOLID
  5
349
330
1F
100
AcDbEntity
  8
SK2
100
AcDbTrace
 10
318.128193
 20
370.258075
 30
0.0
 11
318.745337
 21
366.758077
 31
0.0
 12
317.511048
 22
366.758073
 32
0.0
 13
317.511048
 23
366.758073
 33
0.0
  0
MTEXT
  5
34A
330
1F
100
AcDbEntity
  8
SK2
100
AcDbMText
 10
321.585349
 20
401.098582
 30
0.0
 40
3.5
 41
0.0
 71
     7
 72
     5
  1
\W0.8459;42,5
  7
cesky
 73
     2
 44
0.8433729999999998
  0
LINE
  5
34B
330
1F
100
AcDbEntity
  8
SK2
100
AcDbLine
 10
347.174849
 20
375.508075
 30
0.0
 11
347.174849
 21
402.2244149999999
 31
0.0
  0
LINE
  5
34C
330
1F
100
AcDbEntity
  8
SK2
100
AcDbLine
 10
304.674849
 20
368.758075
 30
0.0
 11
304.674849
 21
402.2244149999999
 31
0.0
  0
LINE
  5
34D
330
1F
100
AcDbEntity
  8
SK2
100
AcDbLine
 10
347.174849
 20
401.2244149999999
 30
0.0
 11
304.674849
 21
401.2244149999999
 31
0.0
  0
SOLID
  5
34E
330
1F
100
AcDbEntity
  8
SK2
100
AcDbTrace
 10
347.174849
 20
401.2244149999999
 30
0.0
 11
343.674851
 21
400.6072709999999
 31
0.0
 12
343.674846
 22
401.8415599999999
 32
0.0
 13
343.674846
 23
401.8415599999999
 33
0.0
  0
SOLID
  5
34F
330
1F
100
AcDbEntity
  8
SK2
100
AcDbTrace
 10
304.674849
 20
401.2244149999999
 30
0.0
 11
308.174846
 21
401.8415599999999
 31
0.0
 12
308.174851
 22
400.6072709999999
 32
0.0
 13
308.174851
 23
400.6072709999999
 33
0.0
  0
ELLIPSE
  5
354
330
1F
100
AcDbEntity
  8
CUT
100
AcDbEllipse
 10
339.372328
 20
365.93042
 30
0.0
 11
-0.5031185649544434
 21
8.280548867064824
 31
0.0
210
0.0
220
0.0
230
0.9999999999999998
 40
0.923273
 41
4.724321661500157
 42
5.006603757319346
  0
ELLIPSE
  5
355
330
1F
100
AcDbEntity
  8
CUT
100
AcDbEllipse
 10
339.388664
 20
366.648602
 30
0.0
 11
-3.331330429705356
 21
-7.804675514703378
 31
0.0
210
0.0
220
0.0
230
0.9999999999999996
 40
0.8857459999999999
 41
1.877222763493548
 42
1.902560620003036
  0
ELLIPSE
  5
356
330
1F
100
AcDbEntity
  8
CUT
100
AcDbEllipse
 10
339.468785
 20
374.36362
 30
0.0
 11
-0.0000000000000005
 21
-7.839069713977174
 31
0.0
210
0.0
220
0.0
230
1.0
 40
0.9848079999999999
 41
4.926858864605441
 42
6.170506381925543
  0
ELLIPSE
  5
357
330
1F
100
AcDbEntity
  8
CUT
100
AcDbEllipse
 10
332.59925
 20
372.844216
 30
0.0
 11
0.0
 21
-0.7000000000000001
 31
0.0
210
0.0
220
0.0
230
1.0
 40
0.9848079999999999
 41
3.18599336101523
 42
4.926858864605441
  0
ELLIPSE
  5
358
330
1F
100
AcDbEntity
  8
CUT
100
AcDbEllipse
 10
339.32559
 20
366.0015640000001
 30
0.0
 11
-0.0000000000000005
 21
-7.839069713977176
 31
0.0
210
0.0
220
0.0
230
1.0
 40
0.9848079999999999
 41
1.958683664941564
 42
3.185993361015223
  0
ELLIPSE
  5
359
330
1F
100
AcDbEntity
  8
CUT
100
AcDbEllipse
 10
346.006618
 20
365.804392
 30
0.0
 11
-0.2802777090341158
 21
-0.0621215879842047
 31
0.0
210
0.0
220
0.0
230
1.0
 40
0.088058
 41
1.505300622030606
 42
2.063805982695238
  0
LINE
  5
35A
330
1F
100
AcDbEntity
  8
CUT
100
AcDbLine
 10
345.776117
 20
365.749785
 30
0.0
 11
338.600746
 21
366.574263
 31
0.0
  0
LINE
  5
35B
330
1F
100
AcDbEntity
  8
CUT
100
AcDbLine
 10
332.568652
 20
373.543526
 30
0.0
 11
338.98293
 21
373.832908
 31
0.0
  0
LINE
  5
35C
330
1F
100
AcDbEntity
  8
CUT
100
AcDbLine
 10
346.819839
 20
365.995723
 30
0.0
 11
346.144087
 21
365.812051
 31
0.0
  0
LINE
  5
35D
330
1F
100
AcDbEntity
  8
CUT
100
AcDbLine
 10
345.993733
 20
365.775698
 30
0.0
 11
345.902223
 21
365.75597
 31
0.0
  0
LINE
  5
35E
330
1F
100
AcDbEntity
  8
CUT
100
AcDbLine
 10
345.9022228154216
 20
365.7559697156809
 30
0.0
 11
345.9022228154216
 21
365.7559697156809
 31
0.0
  0
ARC
  5
35F
330
1F
100
AcDbEntity
  8
CUT
100
AcDbCircle
 10
345.8205422933023
 20
366.132665075753
 30
0.0
 40
0.3854492210311972
100
AcDbArc
 50
263.3816657532507
 51
282.2343032574901
  0
ARC
  5
360
330
1F
100
AcDbEntity
  8
CUT
100
AcDbCircle
 10
346.4638707317704
 20
366.4539639750837
 30
0.0
 40
0.5485615494579934
100
AcDbArc
 50
357.3702195102118
 51
4.154968114863983
  0
ARC
  5
361
330
1F
100
AcDbEntity
  8
CUT
100
AcDbCircle
 10
346.5357229323214
 20
366.4513448818831
 30
0.0
 40
0.4766653353907533
100
AcDbArc
 50
353.921132752318
 51
357.2884341574249
  0
ARC
  5
362
330
1F
100
AcDbEntity
  8
CUT
100
AcDbCircle
 10
346.7458689253494
 20
366.2240255066768
 30
0.0
 40
0.2411043646044199
100
AcDbArc
 50
298.6327838296261
 51
351.8025380824281
  0
ARC
  5
363
330
1F
100
AcDbEntity
  8
CUT
100
AcDbCircle
 10
346.766142438275
 20
366.189632088186
 30
0.0
 40
0.2012062901557053
100
AcDbArc
 50
285.4783788519589
 51
298.2588557601402
  0
LINE
  5
364
330
1F
100
AcDbEntity
  8
CUT
100
AcDbLine
 10
346.4720508242381
 20
368.9665632659123
 30
0.0
 11
346.4720508242381
 21
368.9665632659123
 31
0.0
  0
ARC
  5
365
330
1F
100
AcDbEntity
  8
CUT
100
AcDbCircle
 10
342.6802087763427
 20
367.4420913087562
 30
0.0
 40
4.086817938732212
100
AcDbArc
 50
19.05353919016756
 51
21.90209723642728
  0
ENDSEC
  0
SECTION
  2
OBJECTS
  0
DICTIONARY
  5
C
330
0
100
AcDbDictionary
281
     1
  3
ACAD_CIP_PREVIOUS_PRODUCT_INFO
350
2B0
  3
ACAD_COLOR
350
2AA
  3
ACAD_DETAILVIEWSTYLE
350
2A6
  3
ACAD_FIELDLIST
350
31A
  3
ACAD_GROUP
350
D
  3
ACAD_IMAGE_DICT
350
F7
  3
ACAD_IMAGE_VARS
350
2AF
  3
ACAD_LAYOUT
350
1A
  3
ACAD_MATERIAL
350
43
  3
ACAD_MLEADERSTYLE
350
6B
  3
ACAD_MLINESTYLE
350
17
  3
ACAD_PLOTSETTINGS
350
19
  3
ACAD_PLOTSTYLENAME
350
E
  3
ACAD_SCALELIST
350
47
  3
ACAD_SECTIONVIEWSTYLE
350
2A7
  3
ACAD_TABLESTYLE
350
69
  3
ACAD_VISUALSTYLE
350
2A
  3
ACDB_RECOMPOSE_DATA
350
392
  3
AcDbVariableDictionary
350
263
  3
AcmDictionary
350
2DC
  3
AMG
350
2B1
  3
AMGSNAPSETTINGS
350
324
  0
DICTIONARY
  5
374
330
10
100
AcDbDictionary
280
     1
281
     1
  3
ADSK_XREC_LAYER_RECONCILED
360
375
  0
DICTIONARY
  5
376
330
76
100
AcDbDictionary
280
     1
281
     1
  3
ADSK_XREC_LAYER_RECONCILED
360
377
  0
DICTIONARY
  5
378
330
366
100
AcDbDictionary
280
     1
281
     1
  3
ADSK_XREC_LAYER_RECONCILED
360
379
  0
DICTIONARY
  5
37A
330
367
100
AcDbDictionary
280
     1
281
     1
  3
ADSK_XREC_LAYER_RECONCILED
360
37B
  0
DICTIONARY
  5
37C
330
368
100
AcDbDictionary
280
     1
281
     1
  3
ADSK_XREC_LAYER_RECONCILED
360
37D
  0
DICTIONARY
  5
37E
330
36A
100
AcDbDictionary
280
     1
281
     1
  3
ADSK_XREC_LAYER_RECONCILED
360
37F
  0
DICTIONARY
  5
380
330
36B
100
AcDbDictionary
280
     1
281
     1
  3
ADSK_XREC_LAYER_RECONCILED
360
381
  0
DICTIONARY
  5
382
330
36D
100
AcDbDictionary
280
     1
281
     1
  3
ADSK_XREC_LAYER_RECONCILED
360
383
  0
DICTIONARY
  5
384
330
36E
100
AcDbDictionary
280
     1
281
     1
  3
ADSK_XREC_LAYER_RECONCILED
360
385
  0
DICTIONARY
  5
386
330
36F
100
AcDbDictionary
280
     1
281
     1
  3
ADSK_XREC_LAYER_RECONCILED
360
387
  0
DICTIONARY
  5
388
330
370
100
AcDbDictionary
280
     1
281
     1
  3
ADSK_XREC_LAYER_RECONCILED
360
389
  0
DICTIONARY
  5
38A
330
371
100
AcDbDictionary
280
     1
281
     1
  3
ADSK_XREC_LAYER_RECONCILED
360
38B
  0
DICTIONARY
  5
38C
330
372
100
AcDbDictionary
280
     1
281
     1
  3
ADSK_XREC_LAYER_RECONCILED
360
38D
  0
DICTIONARY
  5
32B
330
1F
100
AcDbDictionary
280
     1
281
     1
  3
ACAD_SORTENTS
360
32C
  0
XRECORD
  5
2B0
102
{ACAD_REACTORS
330
C
102
}
330
C
100
AcDbXrecord
280
     1
300
AMECH_PP
300
2019
300
87089AMECH_PP_2019_0F
  0
DICTIONARY
  5
2AA
102
{ACAD_REACTORS
330
C
102
}
330
C
100
AcDbDictionary
281
     1
  0
DICTIONARY
  5
2A6
102
{ACAD_REACTORS
330
C
102
}
330
C
100
AcDbDictionary
281
     1
  3
Metric50
350
2AC
  0
FIELDLIST
  5
31A
102
{ACAD_REACTORS
330
C
102
}
330
C
100
AcDbIdSet
 90
        3
330
318
330
319
330
31B
100
AcDbFieldList
  0
DICTIONARY
  5
D
102
{ACAD_REACTORS
330
C
102
}
330
C
100
AcDbDictionary
281
     1
  3
NULOVY_BOD
350
373
  0
DICTIONARY
  5
F7
102
{ACAD_REACTORS
330
C
102
}
330
C
100
AcDbDictionary
281
     1
  3
16L2R025M08-SZP16_115009225ndi000_00-2D_DormerPramet_jpg
350
F8
  0
RASTERVARIABLES
  5
2AF
102
{ACAD_REACTORS
330
C
102
}
330
C
100
AcDbRasterVariables
 90
        0
 70
     1
 71
     1
 72
     1
  0
DICTIONARY
  5
1A
102
{ACAD_REACTORS
330
C
102
}
330
C
100
AcDbDictionary
281
     1
  3
Layout1
350
1E
  3
Layout2
350
26
  3
Model
350
22
  0
DICTIONARY
  5
43
102
{ACAD_REACTORS
330
C
102
}
330
C
100
AcDbDictionary
281
     1
  3
ByBlock
350
45
  3
ByLayer
350
44
  3
Global
350
46
  0
DICTIONARY
  5
6B
102
{ACAD_REACTORS
330
C
102
}
330
C
100
AcDbDictionary
281
     1
  3
Standard
350
6C
  0
DICTIONARY
  5
17
102
{ACAD_REACTORS
330
C
102
}
330
C
100
AcDbDictionary
281
     1
  3
Standard
350
18
  0
DICTIONARY
  5
19
102
{ACAD_REACTORS
330
C
102
}
330
C
100
AcDbDictionary
281
     1
  0
ACDBDICTIONARYWDFLT
  5
E
102
{ACAD_REACTORS
330
C
102
}
330
C
100
AcDbDictionary
281
     1
  3
Normal
350
F
100
AcDbDictionaryWithDefault
340
F
  0
DICTIONARY
  5
47
102
{ACAD_REACTORS
330
C
102
}
330
C
100
AcDbDictionary
281
     1
  3
A0
350
48
  3
A1
350
49
  3
A2
350
4A
  3
A3
350
4B
  3
A4
350
4C
  3
A5
350
4D
  3
A6
350
4E
  3
A7
350
4F
  3
A8
350
50
  3
A9
350
51
  3
B0
350
52
  3
B1
350
53
  3
B2
350
54
  3
B3
350
55
  3
B4
350
56
  3
B5
350
57
  3
B6
350
58
  3
B7
350
59
  3
B8
350
5A
  3
B9
350
5B
  3
C0
350
5C
  3
C1
350
5D
  3
C2
350
5E
  3
C3
350
5F
  3
C4
350
60
  3
C5
350
61
  3
C6
350
62
  3
C7
350
63
  3
C8
350
64
  3
C9
350
65
  3
D0
350
66
  3
D1
350
67
  3
D2
350
68
  0
DICTIONARY
  5
2A7
102
{ACAD_REACTORS
330
C
102
}
330
C
100
AcDbDictionary
281
     1
  3
Metric50
350
2AB
  0
DICTIONARY
  5
69
102
{ACAD_REACTORS
330
C
102
}
330
C
100
AcDbDictionary
281
     1
  3
Standard
350
6A
  0
DICTIONARY
  5
2A
102
{ACAD_REACTORS
330
C
102
}
330
C
100
AcDbDictionary
281
     1
  3
2dWireframe
350
2F
  3
Basic
350
32
  3
Brighten
350
36
  3
ColorChange
350
3A
  3
Conceptual
350
34
  3
Dim
350
35
  3
EdgeColorOff
350
3D
  3
Facepattern
350
39
  3
Flat
350
2B
  3
FlatWithEdges
350
2C
  3
Gouraud
350
2D
  3
GouraudWithEdges
350
2E
  3
Hidden
350
31
  3
JitterOff
350
3B
  3
Linepattern
350
38
  3
OverhangOff
350
3C
  3
Realistic
350
33
  3
Shaded
350
42
  3
Shaded with edges
350
41
  3
Shades of Gray
350
3E
  3
Sketchy
350
3F
  3
Thicken
350
37
  3
Wireframe
350
30
  3
X-Ray
350
40
  0
XRECORD
  5
392
102
{ACAD_REACTORS
330
C
102
}
330
C
100
AcDbXrecord
280
     1
 90
        1
330
6A
  0
DICTIONARY
  5
263
102
{ACAD_REACTORS
330
C
102
}
330
C
100
AcDbDictionary
281
     1
  3
CANNOSCALE
350
264
  3
CMLEADERSTYLE
350
2A5
  3
CTABLESTYLE
350
2A4
  3
CVIEWDETAILSTYLE
350
38E
  3
CVIEWSECTIONSTYLE
350
38F
  3
MSLTSCALE
350
265
  3
XCLIPFRAME
350
390
  0
DICTIONARY
  5
2DC
102
{ACAD_REACTORS
330
C
102
}
330
C
100
AcDbDictionary
281
     1
  3
AcmStdDictionary
350
2E3
  0
DICTIONARY
  5
2B1
102
{ACAD_REACTORS
330
C
102
}
330
C
100
AcDbDictionary
281
     1
  0
DICTIONARY
  5
324
102
{ACAD_REACTORS
330
C
102
}
330
C
100
AcDbDictionary
281
     1
  0
XRECORD
  5
375
102
{ACAD_REACTORS
330
374
102
}
330
374
100
AcDbXrecord
280
     1
290
     1
  0
XRECORD
  5
377
102
{ACAD_REACTORS
330
376
102
}
330
376
100
AcDbXrecord
280
     1
290
     1
  0
XRECORD
  5
379
102
{ACAD_REACTORS
330
378
102
}
330
378
100
AcDbXrecord
280
     1
290
     1
  0
XRECORD
  5
37B
102
{ACAD_REACTORS
330
37A
102
}
330
37A
100
AcDbXrecord
280
     1
290
     1
  0
XRECORD
  5
37D
102
{ACAD_REACTORS
330
37C
102
}
330
37C
100
AcDbXrecord
280
     1
290
     1
  0
XRECORD
  5
37F
102
{ACAD_REACTORS
330
37E
102
}
330
37E
100
AcDbXrecord
280
     1
290
     1
  0
XRECORD
  5
381
102
{ACAD_REACTORS
330
380
102
}
330
380
100
AcDbXrecord
280
     1
290
     1
  0
XRECORD
  5
383
102
{ACAD_REACTORS
330
382
102
}
330
382
100
AcDbXrecord
280
     1
290
     1
  0
XRECORD
  5
385
102
{ACAD_REACTORS
330
384
102
}
330
384
100
AcDbXrecord
280
     1
290
     1
  0
XRECORD
  5
387
102
{ACAD_REACTORS
330
386
102
}
330
386
100
AcDbXrecord
280
     1
290
     1
  0
XRECORD
  5
389
102
{ACAD_REACTORS
330
388
102
}
330
388
100
AcDbXrecord
280
     1
290
     1
  0
XRECORD
  5
38B
102
{ACAD_REACTORS
330
38A
102
}
330
38A
100
AcDbXrecord
280
     1
290
     1
  0
XRECORD
  5
38D
102
{ACAD_REACTORS
330
38C
102
}
330
38C
100
AcDbXrecord
280
     1
290
     1
  0
SORTENTSTABLE
  5
32C
102
{ACAD_REACTORS
330
32B
102
}
330
32B
100
AcDbSortentsTable
330
1F
331
32D
  5
333
331
32E
  5
334
331
32F
  5
335
331
330
  5
336
331
331
  5
338
331
332
  5
33E
331
333
  5
33F
331
334
  5
340
331
335
  5
341
331
336
  5
342
331
337
  5
343
331
338
  5
34A
331
339
  5
34B
331
33A
  5
34C
331
33B
  5
34D
331
33C
  5
34E
331
33D
  5
34F
331
33E
  5
1EE
331
33F
  5
21F
331
340
  5
32D
331
341
  5
32E
331
342
  5
32F
331
343
  5
331
331
344
  5
332
331
345
  5
339
331
346
  5
33A
331
347
  5
33B
331
348
  5
33C
331
349
  5
33D
331
34A
  5
344
331
34B
  5
345
331
34C
  5
346
331
34D
  5
347
331
34E
  5
348
331
34F
  5
349
331
35A
  5
362
331
35B
  5
363
331
35C
  5
364
331
35D
  5
365
331
35E
  5
35A
331
35F
  5
35B
331
360
  5
35C
331
361
  5
35D
331
362
  5
35E
331
363
  5
35F
331
364
  5
360
331
365
  5
361
  0
ACDBDETAILVIEWSTYLE
  5
2AC
102
{ACAD_XDICTIONARY
360
3C6
102
}
102
{ACAD_REACTORS
330
2A6
330
30E
102
}
330
2A6
100
AcDbModelDocViewStyle
 70
     0
  3
Metric50
290
     0
100
AcDbDetailViewStyle
 70
     0
 71
     0
 90
        3
 71
     1
340
11
 62
   256
 40
5.0
340
0
 62
   256
 40
5.0
300

 40
0.0
280
     1
 71
     2
340
16
 90
       25
 62
   256
 71
     3
340
11
 62
   256
 40
5.0
 90
        0
 40
15.0
 90
        1
300
%<\AcVar ViewDetailId>% (%<\AcVar ViewScale \f "%sn">%)
 71
     4
340
16
 90
       25
 62
   256
340
16
 90
       25
 62
   256
280
     0
  0
GROUP
  5
373
102
{ACAD_REACTORS
330
D
102
}
330
D
100
AcDbGroup
300

 70
     0
 71
     1
340
73
  0
IMAGEDEF
  5
F8
102
{ACAD_REACTORS
330
F7
330
FB
102
}
330
F7
100
AcDbRasterImageDef
 90
        0
  1
R:\Katalog\Data\ZP\16L2R025M08-SZP16\16L2R025M08-SZP16_115009225ndi000_00-2D_DormerPramet.jpg
 10
2089.0
 20
531.0
 11
0.0004786979415989
 21
0.0004786979415989
280
     1
281
     0
  0
LAYOUT
  5
1E
102
{ACAD_REACTORS
330
1A
102
}
330
1A
100
AcDbPlotSettings
  1

  2
none_device
  4

  6

 40
0.0
 41
0.0
 42
0.0
 43
0.0
 44
0.0
 45
0.0
 46
0.0
 47
0.0
 48
0.0
 49
0.0
140
0.0
141
0.0
142
1.0
143
1.0
 70
   688
 72
     0
 73
     0
 74
     5
  7

 75
    16
147
1.0
 76
     0
 77
     2
 78
   300
148
0.0
149
0.0
100
AcDbLayout
  1
Layout1
 70
     1
 71
     1
 10
-0.5
 20
-0.5
 11
5.0
 21
5.0
 12
0.0
 22
0.0
 32
0.0
 14
-0.5
 24
-0.5
 34
-0.5
 15
5.0
 25
5.0
 35
5.0
146
0.0
 13
0.0
 23
0.0
 33
0.0
 16
1.0
 26
0.0
 36
0.0
 17
0.0
 27
1.0
 37
0.0
 76
     0
330
1B
  0
LAYOUT
  5
26
102
{ACAD_REACTORS
330
1A
102
}
330
1A
100
AcDbPlotSettings
  1

  2
none_device
  4

  6

 40
0.0
 41
0.0
 42
0.0
 43
0.0
 44
0.0
 45
0.0
 46
0.0
 47
0.0
 48
0.0
 49
0.0
140
0.0
141
0.0
142
1.0
143
1.0
 70
   688
 72
     0
 73
     0
 74
     5
  7

 75
    16
147
1.0
 76
     0
 77
     2
 78
   300
148
0.0
149
0.0
100
AcDbLayout
  1
Layout2
 70
     1
 71
     2
 10
0.0
 20
0.0
 11
0.0
 21
0.0
 12
0.0
 22
0.0
 32
0.0
 14
0.0
 24
0.0
 34
0.0
 15
0.0
 25
0.0
 35
0.0
146
0.0
 13
0.0
 23
0.0
 33
0.0
 16
1.0
 26
0.0
 36
0.0
 17
0.0
 27
1.0
 37
0.0
 76
     0
330
23
  0
LAYOUT
  5
22
102
{ACAD_REACTORS
330
1A
102
}
330
1A
100
AcDbPlotSettings
  1

  2
none_device
  4
Letter_(8.50_x_11.00_Inches)
  6

 40
6.349999999999999
 41
6.349999999999999
 42
6.350005
 43
6.350005
 44
215.9
 45
279.4
 46
0.0
 47
0.0
 48
0.0
 49
0.0
140
0.0
141
0.0
142
1.0
143
1.0
 70
  1712
 72
     0
 73
     0
 74
     0
  7

 75
     0
147
1.0
 76
     0
 77
     2
 78
   300
148
0.0
149
0.0
100
AcDbLayout
  1
Model
 70
     1
 71
     0
 10
-0.5
 20
-0.5
 11
5.0
 21
5.0
 12
0.0
 22
0.0
 32
0.0
 14
-0.5
 24
-0.5
 34
-0.5
 15
5.0
 25
5.0
 35
5.0
146
0.0
 13
0.0
 23
0.0
 33
0.0
 16
1.0
 26
0.0
 36
0.0
 17
0.0
 27
1.0
 37
0.0
 76
     0
330
1F
331
29
  0
MATERIAL
  5
45
102
{ACAD_XDICTIONARY
360
299
102
}
102
{ACAD_REACTORS
330
43
102
}
330
43
100
AcDbMaterial
  1
ByBlock
  0
MATERIAL
  5
44
102
{ACAD_XDICTIONARY
360
297
102
}
102
{ACAD_REACTORS
330
43
102
}
330
43
100
AcDbMaterial
  1
ByLayer
  0
MATERIAL
  5
46
102
{ACAD_XDICTIONARY
360
29B
102
}
102
{ACAD_REACTORS
330
43
102
}
330
43
100
AcDbMaterial
  1
Global
  0
MLEADERSTYLE
  5
6C
102
{ACAD_REACTORS
330
6B
102
}
330
6B
100
AcDbMLeaderStyle
170
     2
171
     1
172
     0
 90
        2
 40
0.0
 41
0.0
173
     1
 91
-1056964608
340
14
 92
       -2
290
     1
 42
0.09
291
     1
 43
0.36
  3
Standard
 44
0.18
300

342
11
174
     1
178
     6
175
     1
176
     0
 93
-1056964608
 45
0.18
292
     0
297
     0
 46
0.18
 94
-1056964608
 47
1.0
 49
1.0
140
1.0
293
     1
141
0.0
294
     1
177
     0
142
1.0
295
     0
296
     0
143
0.125
1001
ACAD_MLEADERVER
1070
     2
  0
MLINESTYLE
  5
18
102
{ACAD_REACTORS
330
17
102
}
330
17
100
AcDbMlineStyle
  2
STANDARD
 70
     0
  3

 62
   256
 51
90.0
 52
90.0
 71
     2
 49
0.5
 62
   256
  6
BYLAYER
 49
-0.5
 62
   256
  6
BYLAYER
  0
ACDBPLACEHOLDER
  5
F
102
{ACAD_REACTORS
330
E
102
}
330
E
  0
SCALE
  5
48
102
{ACAD_REACTORS
330
47
102
}
330
47
100
AcDbScale
 70
     0
300
1:1
140
1.0
141
1.0
290
     1
  0
SCALE
  5
49
102
{ACAD_REACTORS
330
47
102
}
330
47
100
AcDbScale
 70
     0
300
1:2
140
1.0
141
2.0
290
     0
  0
SCALE
  5
4A
102
{ACAD_REACTORS
330
47
102
}
330
47
100
AcDbScale
 70
     0
300
1:4
140
1.0
141
4.0
290
     0
  0
SCALE
  5
4B
102
{ACAD_REACTORS
330
47
102
}
330
47
100
AcDbScale
 70
     0
300
1:5
140
1.0
141
5.0
290
     0
  0
SCALE
  5
4C
102
{ACAD_REACTORS
330
47
102
}
330
47
100
AcDbScale
 70
     0
300
1:8
140
1.0
141
8.0
290
     0
  0
SCALE
  5
4D
102
{ACAD_REACTORS
330
47
102
}
330
47
100
AcDbScale
 70
     0
300
1:10
140
1.0
141
10.0
290
     0
  0
SCALE
  5
4E
102
{ACAD_REACTORS
330
47
102
}
330
47
100
AcDbScale
 70
     0
300
1:16
140
1.0
141
16.0
290
     0
  0
SCALE
  5
4F
102
{ACAD_REACTORS
330
47
102
}
330
47
100
AcDbScale
 70
     0
300
1:20
140
1.0
141
20.0
290
     0
  0
SCALE
  5
50
102
{ACAD_REACTORS
330
47
102
}
330
47
100
AcDbScale
 70
     0
300
1:30
140
1.0
141
30.0
290
     0
  0
SCALE
  5
51
102
{ACAD_REACTORS
330
47
102
}
330
47
100
AcDbScale
 70
     0
300
1:40
140
1.0
141
40.0
290
     0
  0
SCALE
  5
52
102
{ACAD_REACTORS
330
47
102
}
330
47
100
AcDbScale
 70
     0
300
1:50
140
1.0
141
50.0
290
     0
  0
SCALE
  5
53
102
{ACAD_REACTORS
330
47
102
}
330
47
100
AcDbScale
 70
     0
300
1:100
140
1.0
141
100.0
290
     0
  0
SCALE
  5
54
102
{ACAD_REACTORS
330
47
102
}
330
47
100
AcDbScale
 70
     0
300
2:1
140
2.0
141
1.0
290
     0
  0
SCALE
  5
55
102
{ACAD_REACTORS
330
47
102
}
330
47
100
AcDbScale
 70
     0
300
4:1
140
4.0
141
1.0
290
     0
  0
SCALE
  5
56
102
{ACAD_REACTORS
330
47
102
}
330
47
100
AcDbScale
 70
     0
300
8:1
140
8.0
141
1.0
290
     0
  0
SCALE
  5
57
102
{ACAD_REACTORS
330
47
102
}
330
47
100
AcDbScale
 70
     0
300
10:1
140
10.0
141
1.0
290
     0
  0
SCALE
  5
58
102
{ACAD_REACTORS
330
47
102
}
330
47
100
AcDbScale
 70
     0
300
100:1
140
100.0
141
1.0
290
     0
  0
SCALE
  5
59
102
{ACAD_REACTORS
330
47
102
}
330
47
100
AcDbScale
 70
     0
300
1/128" = 1'-0"
140
0.007812
141
12.0
290
     0
  0
SCALE
  5
5A
102
{ACAD_REACTORS
330
47
102
}
330
47
100
AcDbScale
 70
     0
300
1/64" = 1'-0"
140
0.015625
141
12.0
290
     0
  0
SCALE
  5
5B
102
{ACAD_REACTORS
330
47
102
}
330
47
100
AcDbScale
 70
     0
300
1/32" = 1'-0"
140
0.03125
141
12.0
290
     0
  0
SCALE
  5
5C
102
{ACAD_REACTORS
330
47
102
}
330
47
100
AcDbScale
 70
     0
300
1/16" = 1'-0"
140
0.0625
141
12.0
290
     0
  0
SCALE
  5
5D
102
{ACAD_REACTORS
330
47
102
}
330
47
100
AcDbScale
 70
     0
300
3/32" = 1'-0"
140
0.09375
141
12.0
290
     0
  0
SCALE
  5
5E
102
{ACAD_REACTORS
330
47
102
}
330
47
100
AcDbScale
 70
     0
300
1/8" = 1'-0"
140
0.125
141
12.0
290
     0
  0
SCALE
  5
5F
102
{ACAD_REACTORS
330
47
102
}
330
47
100
AcDbScale
 70
     0
300
3/16" = 1'-0"
140
0.1875
141
12.0
290
     0
  0
SCALE
  5
60
102
{ACAD_REACTORS
330
47
102
}
330
47
100
AcDbScale
 70
     0
300
1/4" = 1'-0"
140
0.25
141
12.0
290
     0
  0
SCALE
  5
61
102
{ACAD_REACTORS
330
47
102
}
330
47
100
AcDbScale
 70
     0
300
3/8" = 1'-0"
140
0.375
141
12.0
290
     0
  0
SCALE
  5
62
102
{ACAD_REACTORS
330
47
102
}
330
47
100
AcDbScale
 70
     0
300
1/2" = 1'-0"
140
0.5
141
12.0
290
     0
  0
SCALE
  5
63
102
{ACAD_REACTORS
330
47
102
}
330
47
100
AcDbScale
 70
     0
300
3/4" = 1'-0"
140
0.75
141
12.0
290
     0
  0
SCALE
  5
64
102
{ACAD_REACTORS
330
47
102
}
330
47
100
AcDbScale
 70
     0
300
1" = 1'-0"
140
1.0
141
12.0
290
     0
  0
SCALE
  5
65
102
{ACAD_REACTORS
330
47
102
}
330
47
100
AcDbScale
 70
     0
300
1-1/2" = 1'-0"
140
1.5
141
12.0
290
     0
  0
SCALE
  5
66
102
{ACAD_REACTORS
330
47
102
}
330
47
100
AcDbScale
 70
     0
300
3" = 1'-0"
140
3.0
141
12.0
290
     0
  0
SCALE
  5
67
102
{ACAD_REACTORS
330
47
102
}
330
47
100
AcDbScale
 70
     0
300
6" = 1'-0"
140
6.0
141
12.0
290
     0
  0
SCALE
  5
68
102
{ACAD_REACTORS
330
47
102
}
330
47
100
AcDbScale
 70
     0
300
1'-0" = 1'-0"
140
12.0
141
12.0
290
     0
  0
ACDBSECTIONVIEWSTYLE
  5
2AB
102
{ACAD_XDICTIONARY
360
3C4
102
}
102
{ACAD_REACTORS
330
2A7
330
30D
102
}
330
2A7
100
AcDbModelDocViewStyle
 70
     0
  3
Metric50
290
     0
100
AcDbSectionViewStyle
 70
     0
 71
     0
 90
      102
 71
     1
340
11
 62
   256
 40
5.0
340
0
340
0
 62
   256
 40
5.0
300
I, O, Q, S, X, Z
 40
10.0
 90
        0
 40
2.5
 90
        0
 71
     2
340
16
 90
       25
 62
   256
340
16
 90
       50
 62
   256
 40
5.0
 40
2.5
 40
5.0
 71
     3
340
11
 62
   256
 40
5.0
 90
        0
 40
15.0
 90
        1
300
%<\AcVar ViewSectionStartId>%-%<\AcVar ViewSectionEndId>% (%<\AcVar ViewScale \f "%sn">%)
 71
     4
 62
   256
 62
   257
300
ANSI31
 40
1.0
 90
        0
290
     0
290
     0
 90
        6
 40
0.0
 40
1.570796326794896
 40
0.2617993877991494
 40
1.308996938995747
 40
-0.2617993877991494
 40
1.832595714594046
  0
TABLESTYLE
  5
6A
102
{ACAD_XDICTIONARY
360
29D
102
}
102
{ACAD_REACTORS
330
69
102
}
330
69
100
AcDbTableStyle
  3
Standard
 70
     0
 71
     0
 40
0.06
 41
0.06
280
     0
281
     0
  7
Standard
140
0.18
170
     2
 62
     0
 63
     7
283
     0
274
    -2
284
     1
 64
     0
275
    -2
285
     1
 65
     0
276
    -2
286
     1
 66
     0
277
    -2
287
     1
 67
     0
278
    -2
288
     1
 68
     0
279
    -2
289
     1
 69
     0
  7
Standard
140
0.25
170
     5
 62
     0
 63
     7
283
     0
274
    -2
284
     1
 64
     0
275
    -2
285
     1
 65
     0
276
    -2
286
     1
 66
     0
277
    -2
287
     1
 67
     0
278
    -2
288
     1
 68
     0
279
    -2
289
     1
 69
     0
  7
Standard
140
0.18
170
     5
 62
     0
 63
     7
283
     0
274
    -2
284
     1
 64
     0
275
    -2
285
     1
 65
     0
276
    -2
286
     1
 66
     0
277
    -2
287
     1
 67
     0
278
    -2
288
     1
 68
     0
279
    -2
289
     1
 69
     0
  0
VISUALSTYLE
  5
2F
102
{ACAD_XDICTIONARY
360
39B
102
}
102
{ACAD_REACTORS
330
2A
102
}
330
2A
100
AcDbVisualStyle
  2

 70
     4
 71
     0
 72
     2
 73
     0
 90
        0
 40
-0.6
 41
-30.0
 62
     5
 63
     7
421
 16777215
 74
     1
 91
        4
 64
     7
 65
   257
 75
     1
175
     1
 42
1.0
 92
        0
 66
   257
 43
1.0
 76
     1
 77
     6
 78
     2
 67
     7
 79
     5
170
     0
171
     0
290
     0
174
     0
 93
        1
 44
0.0
173
     0
291
     0
 45
0.0
1001
ACAD
1000
AcDbSavedByObjectVersion
1070
     0
  0
VISUALSTYLE
  5
32
102
{ACAD_XDICTIONARY
360
3A1
102
}
102
{ACAD_REACTORS
330
2A
102
}
330
2A
100
AcDbVisualStyle
  2

 70
     7
 71
     1
 72
     0
 73
     1
 90
        0
 40
-0.6
 41
-30.0
 62
     5
 63
     7
421
 16777215
 74
     0
 91
        4
 64
     7
 65
   257
 75
     1
175
     1
 42
1.0
 92
        8
 66
     7
 43
1.0
 76
     1
 77
     6
 78
     2
 67
     7
 79
     5
170
     0
171
     0
290
     0
174
     0
 93
        1
 44
0.0
173
     0
291
     1
 45
0.0
1001
ACAD
1000
AcDbSavedByObjectVersion
1070
     0
  0
VISUALSTYLE
  5
36
102
{ACAD_XDICTIONARY
360
3A9
102
}
102
{ACAD_REACTORS
330
2A
102
}
330
2A
100
AcDbVisualStyle
  2

 70
    12
 71
     2
 72
     2
 73
     0
 90
        0
 40
-0.6
 41
-30.0
 62
     5
 63
     7
421
 16777215
 74
     1
 91
        4
 64
     7
 65
   257
 75
     1
175
     1
 42
1.0
 92
        8
 66
     7
 43
1.0
 76
     1
 77
     6
 78
     2
 67
     7
 79
     5
170
     0
171
     0
290
     0
174
     0
 93
        1
 44
50.0
173
     0
291
     1
 45
0.0
1001
ACAD
1000
AcDbSavedByObjectVersion
1070
     0
  0
VISUALSTYLE
  5
3A
102
{ACAD_XDICTIONARY
360
3B1
102
}
102
{ACAD_REACTORS
330
2A
102
}
330
2A
100
AcDbVisualStyle
  2

 70
    16
 71
     2
 72
     2
 73
     3
 90
        0
 40
-0.6
 41
-30.0
 62
     5
 63
     8
421
  8421504
 74
     1
 91
        4
 64
     7
 65
   257
 75
     1
175
     1
 42
1.0
 92
        8
 66
     8
424
  8421504
 43
1.0
 76
     1
 77
     6
 78
     2
 67
     7
 79
     5
170
     0
171
     0
290
     0
174
     0
 93
        1
 44
0.0
173
     0
291
     1
 45
0.0
1001
ACAD
1000
AcDbSavedByObjectVersion
1070
     0
  0
VISUALSTYLE
  5
34
102
{ACAD_XDICTIONARY
360
3A5
102
}
102
{ACAD_REACTORS
330
2A
102
}
330
2A
100
AcDbVisualStyle
  2

 70
     9
 71
     3
 72
     2
 73
     0
 90
        0
 40
-0.6
 41
-30.0
 62
     5
 63
     7
421
 16777215
 74
     2
 91
        2
 64
     7
 65
   257
 75
     1
175
     1
 42
179.0
 92
        8
 66
     7
 43
1.0
 76
     1
 77
     6
 78
     2
 67
     7
 79
     3
170
     0
171
     0
290
     0
174
     0
 93
        1
 44
0.0
173
     0
291
     0
 45
0.0
1001
ACAD
1000
AcDbSavedByObjectVersion
1070
     0
  0
VISUALSTYLE
  5
35
102
{ACAD_XDICTIONARY
360
3A7
102
}
102
{ACAD_REACTORS
330
2A
102
}
330
2A
100
AcDbVisualStyle
  2

 70
    11
 71
     2
 72
     2
 73
     0
 90
        0
 40
-0.6
 41
-30.0
 62
     5
 63
     7
421
 16777215
 74
     1
 91
        4
 64
     7
 65
   257
 75
     1
175
     1
 42
1.0
 92
        8
 66
     7
 43
1.0
 76
     1
 77
     6
 78
     2
 67
     7
 79
     5
170
     0
171
     0
290
     0
174
     0
 93
        1
 44
-50.0
173
     0
291
     1
 45
0.0
1001
ACAD
1000
AcDbSavedByObjectVersion
1070
     0
  0
VISUALSTYLE
  5
3D
102
{ACAD_XDICTIONARY
360
3B7
102
}
102
{ACAD_REACTORS
330
2A
102
}
330
2A
100
AcDbVisualStyle
  2

 70
    22
 71
     2
 72
     2
 73
     0
 90
        0
 40
-0.6
 41
-30.0
 62
     5
 63
     7
421
 16777215
 74
     1
 91
        4
 64
     7
 65
   257
 75
     1
175
     1
 42
1.0
 92
        8
 66
     7
 43
1.0
 76
     1
 77
     6
 78
     2
 67
     7
 79
     5
170
     0
171
     0
290
     0
174
     0
 93
        1
 44
0.0
173
     0
291
     1
 45
0.0
1001
ACAD
1000
AcDbSavedByObjectVersion
1070
     0
  0
VISUALSTYLE
  5
39
102
{ACAD_XDICTIONARY
360
3AF
102
}
102
{ACAD_REACTORS
330
2A
102
}
330
2A
100
AcDbVisualStyle
  2

 70
    15
 71
     2
 72
     2
 73
     0
 90
        0
 40
-0.6
 41
-30.0
 62
     5
 63
     7
421
 16777215
 74
     1
 91
        4
 64
     7
 65
   257
 75
     1
175
     1
 42
1.0
 92
        8
 66
     7
 43
1.0
 76
     1
 77
     6
 78
     2
 67
     7
 79
     5
170
     0
171
     0
290
     0
174
     0
 93
        1
 44
0.0
173
     0
291
     1
 45
0.0
1001
ACAD
1000
AcDbSavedByObjectVersion
1070
     0
  0
VISUALSTYLE
  5
2B
102
{ACAD_XDICTIONARY
360
393
102
}
102
{ACAD_REACTORS
330
2A
102
}
330
2A
100
AcDbVisualStyle
  2

 70
     0
 71
     2
 72
     1
 73
     1
 90
        2
 40
-0.6
 41
30.0
 62
     5
 63
     7
421
 16777215
 74
     0
 91
        0
 64
     7
 65
   257
 75
     1
175
     1
 42
1.0
 92
        8
 66
     7
 43
1.0
 76
     1
 77
     6
 78
     2
 67
     7
 79
     5
170
     0
171
     0
290
     0
174
     0
 93
       13
 44
0.0
173
     0
291
     1
 45
0.0
1001
ACAD
1000
AcDbSavedByObjectVersion
1070
     0
  0
VISUALSTYLE
  5
2C
102
{ACAD_XDICTIONARY
360
395
102
}
102
{ACAD_REACTORS
330
2A
102
}
330
2A
100
AcDbVisualStyle
  2

 70
     1
 71
     2
 72
     1
 73
     1
 90
        2
 40
-0.6
 41
30.0
 62
     5
 63
     7
421
 16777215
 74
     1
 91
        0
 64
     7
 65
   257
 75
     1
175
     1
 42
1.0
 92
        0
 66
   257
 43
1.0
 76
     1
 77
     6
 78
     2
 67
     7
 79
     5
170
     0
171
     0
290
     0
174
     0
 93
       13
 44
0.0
173
     0
291
     1
 45
0.0
1001
ACAD
1000
AcDbSavedByObjectVersion
1070
     0
  0
VISUALSTYLE
  5
2D
102
{ACAD_XDICTIONARY
360
397
102
}
102
{ACAD_REACTORS
330
2A
102
}
330
2A
100
AcDbVisualStyle
  2

 70
     2
 71
     2
 72
     2
 73
     1
 90
        2
 40
-0.6
 41
30.0
 62
     5
 63
     7
421
 16777215
 74
     0
 91
        0
 64
     7
 65
   257
 75
     1
175
     1
 42
1.0
 92
        0
 66
     7
 43
1.0
 76
     1
 77
     6
 78
     2
 67
     7
 79
     5
170
     0
171
     0
290
     0
174
     0
 93
       13
 44
0.0
173
     0
291
     1
 45
0.0
1001
ACAD
1000
AcDbSavedByObjectVersion
1070
     0
  0
VISUALSTYLE
  5
2E
102
{ACAD_XDICTIONARY
360
399
102
}
102
{ACAD_REACTORS
330
2A
102
}
330
2A
100
AcDbVisualStyle
  2

 70
     3
 71
     2
 72
     2
 73
     1
 90
        2
 40
-0.6
 41
30.0
 62
     5
 63
     7
421
 16777215
 74
     1
 91
        0
 64
     7
 65
   257
 75
     1
175
     1
 42
1.0
 92
        0
 66
   257
 43
1.0
 76
     1
 77
     6
 78
     2
 67
     7
 79
     5
170
     0
171
     0
290
     0
174
     0
 93
       13
 44
0.0
173
     0
291
     1
 45
0.0
1001
ACAD
1000
AcDbSavedByObjectVersion
1070
     0
  0
VISUALSTYLE
  5
31
102
{ACAD_XDICTIONARY
360
39F
102
}
102
{ACAD_REACTORS
330
2A
102
}
330
2A
100
AcDbVisualStyle
  2

 70
     6
 71
     1
 72
     2
 73
     2
 90
        0
 40
-0.6
 41
-30.0
 62
     5
 63
     7
421
 16777215
 74
     2
 91
        2
 64
     7
 65
   257
 75
     2
175
     1
 42
40.0
 92
        0
 66
   257
 43
1.0
 76
     1
 77
     6
 78
     2
 67
     7
 79
     3
170
     0
171
     0
290
     0
174
     0
 93
        1
 44
0.0
173
     0
291
     0
 45
0.0
1001
ACAD
1000
AcDbSavedByObjectVersion
1070
     0
  0
VISUALSTYLE
  5
3B
102
{ACAD_XDICTIONARY
360
3B3
102
}
102
{ACAD_REACTORS
330
2A
102
}
330
2A
100
AcDbVisualStyle
  2

 70
    20
 71
     2
 72
     2
 73
     0
 90
        0
 40
-0.6
 41
-30.0
 62
     5
 63
     7
421
 16777215
 74
     1
 91
        4
 64
     7
 65
   257
 75
     1
175
     1
 42
1.0
 92
       10
 66
     7
 43
1.0
 76
     1
 77
     6
 78
     2
 67
     7
 79
     5
170
     0
171
     0
290
     0
174
     0
 93
        1
 44
0.0
173
     0
291
     1
 45
0.0
1001
ACAD
1000
AcDbSavedByObjectVersion
1070
     0
  0
VISUALSTYLE
  5
38
102
{ACAD_XDICTIONARY
360
3AD
102
}
102
{ACAD_REACTORS
330
2A
102
}
330
2A
100
AcDbVisualStyle
  2

 70
    14
 71
     2
 72
     2
 73
     0
 90
        0
 40
-0.6
 41
-30.0
 62
     5
 63
     7
421
 16777215
 74
     1
 91
        4
 64
     7
 65
   257
 75
     7
175
     7
 42
1.0
 92
        8
 66
     7
 43
1.0
 76
     1
 77
     6
 78
     2
 67
     7
 79
     5
170
     0
171
     0
290
     0
174
     0
 93
        1
 44
0.0
173
     0
291
     1
 45
0.0
1001
ACAD
1000
AcDbSavedByObjectVersion
1070
     0
  0
VISUALSTYLE
  5
3C
102
{ACAD_XDICTIONARY
360
3B5
102
}
102
{ACAD_REACTORS
330
2A
102
}
330
2A
100
AcDbVisualStyle
  2

 70
    21
 71
     2
 72
     2
 73
     0
 90
        0
 40
-0.6
 41
-30.0
 62
     5
 63
     7
421
 16777215
 74
     1
 91
        4
 64
     7
 65
   257
 75
     1
175
     1
 42
1.0
 92
        9
 66
     7
 43
1.0
 76
     1
 77
     6
 78
     2
 67
     7
 79
     5
170
     0
171
     0
290
     0
174
     0
 93
        1
 44
0.0
173
     0
291
     1
 45
0.0
1001
ACAD
1000
AcDbSavedByObjectVersion
1070
     0
  0
VISUALSTYLE
  5
33
102
{ACAD_XDICTIONARY
360
3A3
102
}
102
{ACAD_REACTORS
330
2A
102
}
330
2A
100
AcDbVisualStyle
  2

 70
     8
 71
     2
 72
     3
 73
     0
 90
        2
 40
-0.6
 41
30.0
 62
     5
 63
     7
421
 16777215
 74
     0
 91
        0
 64
     7
 65
   257
 75
     1
175
     1
 42
1.0
 92
        8
 66
   257
 43
1.0
 76
     1
 77
     6
 78
     2
 67
     7
 79
     3
170
     0
171
     0
290
     0
174
     0
 93
       13
 44
0.0
173
     0
291
     0
 45
0.0
1001
ACAD
1000
AcDbSavedByObjectVersion
1070
     0
  0
VISUALSTYLE
  5
42
102
{ACAD_XDICTIONARY
360
3C1
102
}
102
{ACAD_REACTORS
330
2A
102
}
330
2A
100
AcDbVisualStyle
  2

 70
    27
 71
     2
 72
     2
 73
     1
 90
        2
 40
-0.6
 41
30.0
 62
     5
 63
     7
421
 16777215
 74
     0
 91
        4
 64
     7
 65
   257
 75
     1
175
     1
 42
1.0
 92
        8
 66
   257
 43
1.0
 76
     1
 77
     6
 78
     2
 67
     8
425
  7895160
 79
     3
170
     0
171
     0
290
     0
174
     0
 93
        5
 44
0.0
173
     0
291
     0
 45
0.0
1001
ACAD
1000
AcDbSavedByObjectVersion
1070
     0
  0
VISUALSTYLE
  5
41
102
{ACAD_XDICTIONARY
360
3BF
102
}
102
{ACAD_REACTORS
330
2A
102
}
330
2A
100
AcDbVisualStyle
  2

 70
    26
 71
     2
 72
     2
 73
     1
 90
        2
 40
-0.6
 41
30.0
 62
     5
 63
     7
421
 16777215
 74
     1
 91
       10
 64
     7
 65
   257
 75
     2
175
     1
 42
1.0
 92
        8
 66
   257
 43
1.0
 76
     1
 77
     6
 78
     2
 67
     7
 79
     3
170
     0
171
     0
290
     0
174
     0
 93
        5
 44
0.0
173
     0
291
     0
 45
0.0
1001
ACAD
1000
AcDbSavedByObjectVersion
1070
     0
  0
VISUALSTYLE
  5
3E
102
{ACAD_XDICTIONARY
360
3B9
102
}
102
{ACAD_REACTORS
330
2A
102
}
330
2A
100
AcDbVisualStyle
  2

 70
    23
 71
     2
 72
     2
 73
     3
 90
        0
 40
-0.6
 41
-30.0
 62
     5
 63
     7
421
 16777215
 74
     2
 91
        2
 64
     7
 65
     7
 75
     1
175
     1
 42
40.0
 92
        8
 66
     7
 43
1.0
 76
     1
 77
     6
 78
     2
 67
     7
 79
     3
170
     0
171
     0
290
     0
174
     0
 93
        1
 44
0.0
173
     0
291
     0
 45
0.0
1001
ACAD
1000
AcDbSavedByObjectVersion
1070
     0
  0
VISUALSTYLE
  5
3F
102
{ACAD_XDICTIONARY
360
3BB
102
}
102
{ACAD_REACTORS
330
2A
102
}
330
2A
100
AcDbVisualStyle
  2

 70
    24
 71
     1
 72
     2
 73
     2
 90
        0
 40
-0.6
 41
-30.0
 62
     5
 63
     7
421
 16777215
 74
     2
 91
        2
 64
     7
 65
     7
 75
     1
175
     1
 42
40.0
 92
       11
 66
     7
 43
1.0
 76
     1
 77
     6
 78
     2
 67
     7
 79
     6
170
     0
171
     0
290
     0
174
     0
 93
        1
 44
0.0
173
     0
291
     0
 45
0.0
1001
ACAD
1000
AcDbSavedByObjectVersion
1070
     0
  0
VISUALSTYLE
  5
37
102
{ACAD_XDICTIONARY
360
3AB
102
}
102
{ACAD_REACTORS
330
2A
102
}
330
2A
100
AcDbVisualStyle
  2

 70
    13
 71
     2
 72
     2
 73
     0
 90
        0
 40
-0.6
 41
-30.0
 62
     5
 63
     7
421
 16777215
 74
     1
 91
        4
 64
     7
 65
   257
 75
     1
175
     1
 42
1.0
 92
       12
 66
     7
 43
1.0
 76
     1
 77
     6
 78
     2
 67
     7
 79
     5
170
     0
171
     0
290
     0
174
     0
 93
        1
 44
0.0
173
     0
291
     1
 45
0.0
1001
ACAD
1000
AcDbSavedByObjectVersion
1070
     0
  0
VISUALSTYLE
  5
30
102
{ACAD_XDICTIONARY
360
39D
102
}
102
{ACAD_REACTORS
330
2A
102
}
330
2A
100
AcDbVisualStyle
  2

 70
     5
 71
     0
 72
     2
 73
     0
 90
        0
 40
-0.6
 41
-30.0
 62
     5
 63
     7
421
 16777215
 74
     1
 91
        4
 64
     7
 65
   257
 75
     1
175
     1
 42
1.0
 92
        0
 66
   257
 43
1.0
 76
     1
 77
     6
 78
     2
 67
     7
 79
     3
170
     0
171
     0
290
     0
174
     0
 93
        1
 44
0.0
173
     0
291
     0
 45
0.0
1001
ACAD
1000
AcDbSavedByObjectVersion
1070
     0
  0
VISUALSTYLE
  5
40
102
{ACAD_XDICTIONARY
360
3BD
102
}
102
{ACAD_REACTORS
330
2A
102
}
330
2A
100
AcDbVisualStyle
  2

 70
    25
 71
     2
 72
     2
 73
     1
 90
        1
 40
0.5
 41
-30.0
 62
     5
 63
     7
421
 16777215
 74
     1
 91
        0
 64
     7
 65
   257
 75
     1
175
     1
 42
1.0
 92
        8
 66
     7
 43
1.0
 76
     1
 77
     6
 78
     2
 67
     7
 79
     3
170
     0
171
     0
290
     0
174
     0
 93
       13
 44
0.0
173
     0
291
     0
 45
0.0
1001
ACAD
1000
AcDbSavedByObjectVersion
1070
     0
  0
DICTIONARYVAR
  5
264
102
{ACAD_REACTORS
330
263
102
}
330
263
100
DictionaryVariables
280
     0
  1
1:1
  0
DICTIONARYVAR
  5
2A5
102
{ACAD_REACTORS
330
263
102
}
330
263
100
DictionaryVariables
280
     0
  1
STANDARD
  0
DICTIONARYVAR
  5
2A4
102
{ACAD_REACTORS
330
263
102
}
330
263
100
DictionaryVariables
280
     0
  1
STANDARD
  0
DICTIONARYVAR
  5
38E
102
{ACAD_REACTORS
330
263
102
}
330
263
100
DictionaryVariables
280
     0
  1
Metric50
  0
DICTIONARYVAR
  5
38F
102
{ACAD_REACTORS
330
263
102
}
330
263
100
DictionaryVariables
280
     0
  1
Metric50
  0
DICTIONARYVAR
  5
265
102
{ACAD_REACTORS
330
263
102
}
330
263
100
DictionaryVariables
280
     0
  1
1
  0
DICTIONARYVAR
  5
390
102
{ACAD_REACTORS
330
263
102
}
330
263
100
DictionaryVariables
280
     0
  1
2
  0
DICTIONARY
  5
2E3
102
{ACAD_REACTORS
330
2DC
102
}
330
2DC
100
AcDbDictionary
281
     1
  0
DICTIONARY
  5
3C6
330
2AC
100
AcDbDictionary
280
     1
281
     1
  3
ACAD_XREC_ROUNDTRIP
360
3C7
  0
DICTIONARY
  5
299
330
45
100
AcDbDictionary
280
     1
281
     1
  3
ACAD_XREC_ROUNDTRIP
360
29A
  0
DICTIONARY
  5
297
330
44
100
AcDbDictionary
280
     1
281
     1
  3
ACAD_XREC_ROUNDTRIP
360
298
  0
DICTIONARY
  5
29B
330
46
100
AcDbDictionary
280
     1
281
     1
  3
ACAD_XREC_ROUNDTRIP
360
29C
  0
DICTIONARY
  5
3C4
330
2AB
100
AcDbDictionary
280
     1
281
     1
  3
ACAD_XREC_ROUNDTRIP
360
3C5
  0
DICTIONARY
  5
29D
330
6A
100
AcDbDictionary
280
     1
281
     1
  3
ACAD_ROUNDTRIP_2008_TABLESTYLE_CELLSTYLEMAP
360
391
  3
ACAD_XREC_ROUNDTRIP
360
3C3
  0
DICTIONARY
  5
39B
330
2F
100
AcDbDictionary
280
     1
281
     1
  3
ACAD_XREC_ROUNDTRIP
360
39C
  0
DICTIONARY
  5
3A1
330
32
100
AcDbDictionary
280
     1
281
     1
  3
ACAD_XREC_ROUNDTRIP
360
3A2
  0
DICTIONARY
  5
3A9
330
36
100
AcDbDictionary
280
     1
281
     1
  3
ACAD_XREC_ROUNDTRIP
360
3AA
  0
DICTIONARY
  5
3B1
330
3A
100
AcDbDictionary
280
     1
281
     1
  3
ACAD_XREC_ROUNDTRIP
360
3B2
  0
DICTIONARY
  5
3A5
330
34
100
AcDbDictionary
280
     1
281
     1
  3
ACAD_XREC_ROUNDTRIP
360
3A6
  0
DICTIONARY
  5
3A7
330
35
100
AcDbDictionary
280
     1
281
     1
  3
ACAD_XREC_ROUNDTRIP
360
3A8
  0
DICTIONARY
  5
3B7
330
3D
100
AcDbDictionary
280
     1
281
     1
  3
ACAD_XREC_ROUNDTRIP
360
3B8
  0
DICTIONARY
  5
3AF
330
39
100
AcDbDictionary
280
     1
281
     1
  3
ACAD_XREC_ROUNDTRIP
360
3B0
  0
DICTIONARY
  5
393
330
2B
100
AcDbDictionary
280
     1
281
     1
  3
ACAD_XREC_ROUNDTRIP
360
394
  0
DICTIONARY
  5
395
330
2C
100
AcDbDictionary
280
     1
281
     1
  3
ACAD_XREC_ROUNDTRIP
360
396
  0
DICTIONARY
  5
397
330
2D
100
AcDbDictionary
280
     1
281
     1
  3
ACAD_XREC_ROUNDTRIP
360
398
  0
DICTIONARY
  5
399
330
2E
100
AcDbDictionary
280
     1
281
     1
  3
ACAD_XREC_ROUNDTRIP
360
39A
  0
DICTIONARY
  5
39F
330
31
100
AcDbDictionary
280
     1
281
     1
  3
ACAD_XREC_ROUNDTRIP
360
3A0
  0
DICTIONARY
  5
3B3
330
3B
100
AcDbDictionary
280
     1
281
     1
  3
ACAD_XREC_ROUNDTRIP
360
3B4
  0
DICTIONARY
  5
3AD
330
38
100
AcDbDictionary
280
     1
281
     1
  3
ACAD_XREC_ROUNDTRIP
360
3AE
  0
DICTIONARY
  5
3B5
330
3C
100
AcDbDictionary
280
     1
281
     1
  3
ACAD_XREC_ROUNDTRIP
360
3B6
  0
DICTIONARY
  5
3A3
330
33
100
AcDbDictionary
280
     1
281
     1
  3
ACAD_XREC_ROUNDTRIP
360
3A4
  0
DICTIONARY
  5
3C1
330
42
100
AcDbDictionary
280
     1
281
     1
  3
ACAD_XREC_ROUNDTRIP
360
3C2
  0
DICTIONARY
  5
3BF
330
41
100
AcDbDictionary
280
     1
281
     1
  3
ACAD_XREC_ROUNDTRIP
360
3C0
  0
DICTIONARY
  5
3B9
330
3E
100
AcDbDictionary
280
     1
281
     1
  3
ACAD_XREC_ROUNDTRIP
360
3BA
  0
DICTIONARY
  5
3BB
330
3F
100
AcDbDictionary
280
     1
281
     1
  3
ACAD_XREC_ROUNDTRIP
360
3BC
  0
DICTIONARY
  5
3AB
330
37
100
AcDbDictionary
280
     1
281
     1
  3
ACAD_XREC_ROUNDTRIP
360
3AC
  0
DICTIONARY
  5
39D
330
30
100
AcDbDictionary
280
     1
281
     1
  3
ACAD_XREC_ROUNDTRIP
360
39E
  0
DICTIONARY
  5
3BD
330
40
100
AcDbDictionary
280
     1
281
     1
  3
ACAD_XREC_ROUNDTRIP
360
3BE
  0
XRECORD
  5
3C7
102
{ACAD_REACTORS
330
3C6
102
}
330
3C6
100
AcDbXrecord
280
     1
102
DISPLAYNAME
  1
Metric50
102
FLAGS
 90
        0
  0
XRECORD
  5
29A
102
{ACAD_REACTORS
330
299
102
}
330
299
100
AcDbXrecord
280
     1
102
MATERIAL
148
0.0
149
0.0
149
0.0
 93
        0
 94
      127
282
     0
 72
     1
 77
     1
171
     1
175
     1
179
     1
273
     0
  0
XRECORD
  5
298
102
{ACAD_REACTORS
330
297
102
}
330
297
100
AcDbXrecord
280
     1
102
MATERIAL
148
0.0
149
0.0
149
0.0
 93
        0
 94
      127
282
     0
 72
     1
 77
     1
171
     1
175
     1
179
     1
273
     0
  0
XRECORD
  5
29C
102
{ACAD_REACTORS
330
29B
102
}
330
29B
100
AcDbXrecord
280
     1
102
MATERIAL
148
0.0
149
0.0
149
0.0
 93
        0
 94
      127
282
     0
 72
     1
 77
     1
171
     1
175
     1
179
     1
273
     0
  0
XRECORD
  5
3C5
102
{ACAD_REACTORS
330
3C4
102
}
330
3C4
100
AcDbXrecord
280
     1
102
DISPLAYNAME
  1
Metric50
102
FLAGS
 90
        0
  0
CELLSTYLEMAP
  5
391
102
{ACAD_REACTORS
330
29D
102
}
330
29D
100
AcDbCellStyleMap
 90
        3
300
CELLSTYLE
  1
TABLEFORMAT_BEGIN
 90
        5
170
     1
 91
        0
 92
    32768
 62
   257
 93
        1
300
CONTENTFORMAT
  1
CONTENTFORMAT_BEGIN
 90
        0
 91
        0
 92
        4
 93
        0
300

 40
0.0
140
1.0
 94
        5
 62
     0
340
11
144
0.25
309
CONTENTFORMAT_END
171
     1
301
MARGIN
  1
CELLMARGIN_BEGIN
 40
0.06
 40
0.06
 40
0.06
 40
0.06
 40
0.18
 40
0.18
309
CELLMARGIN_END
 94
        6
 95
        1
302
GRIDFORMAT
  1
GRIDFORMAT_BEGIN
 90
        0
 91
        1
 62
     0
 92
       -2
340
14
 93
        0
 40
0.045
309
GRIDFORMAT_END
 95
        2
302
GRIDFORMAT
  1
GRIDFORMAT_BEGIN
 90
        0
 91
        1
 62
     0
 92
       -2
340
14
 93
        0
 40
0.045
309
GRIDFORMAT_END
 95
        4
302
GRIDFORMAT
  1
GRIDFORMAT_BEGIN
 90
        0
 91
        1
 62
     0
 92
       -2
340
14
 93
        0
 40
0.045
309
GRIDFORMAT_END
 95
        8
302
GRIDFORMAT
  1
GRIDFORMAT_BEGIN
 90
        0
 91
        1
 62
     0
 92
       -2
340
14
 93
        0
 40
0.045
309
GRIDFORMAT_END
 95
       16
302
GRIDFORMAT
  1
GRIDFORMAT_BEGIN
 90
        0
 91
        1
 62
     0
 92
       -2
340
14
 93
        0
 40
0.045
309
GRIDFORMAT_END
 95
       32
302
GRIDFORMAT
  1
GRIDFORMAT_BEGIN
 90
        0
 91
        1
 62
     0
 92
       -2
340
14
 93
        0
 40
0.045
309
GRIDFORMAT_END
309
TABLEFORMAT_END
  1
CELLSTYLE_BEGIN
 90
        1
 91
        1
300
_TITLE
309
CELLSTYLE_END
300
CELLSTYLE
  1
TABLEFORMAT_BEGIN
 90
        5
170
     1
 91
        0
 92
        0
 62
   257
 93
        1
300
CONTENTFORMAT
  1
CONTENTFORMAT_BEGIN
 90
        0
 91
        0
 92
        4
 93
        0
300

 40
0.0
140
1.0
 94
        5
 62
     0
340
11
144
0.18
309
CONTENTFORMAT_END
171
     1
301
MARGIN
  1
CELLMARGIN_BEGIN
 40
0.06
 40
0.06
 40
0.06
 40
0.06
 40
0.18
 40
0.18
309
CELLMARGIN_END
 94
        6
 95
        1
302
GRIDFORMAT
  1
GRIDFORMAT_BEGIN
 90
        0
 91
        1
 62
     0
 92
       -2
340
14
 93
        0
 40
0.045
309
GRIDFORMAT_END
 95
        2
302
GRIDFORMAT
  1
GRIDFORMAT_BEGIN
 90
        0
 91
        1
 62
     0
 92
       -2
340
14
 93
        0
 40
0.045
309
GRIDFORMAT_END
 95
        4
302
GRIDFORMAT
  1
GRIDFORMAT_BEGIN
 90
        0
 91
        1
 62
     0
 92
       -2
340
14
 93
        0
 40
0.045
309
GRIDFORMAT_END
 95
        8
302
GRIDFORMAT
  1
GRIDFORMAT_BEGIN
 90
        0
 91
        1
 62
     0
 92
       -2
340
14
 93
        0
 40
0.045
309
GRIDFORMAT_END
 95
       16
302
GRIDFORMAT
  1
GRIDFORMAT_BEGIN
 90
        0
 91
        1
 62
     0
 92
       -2
340
14
 93
        0
 40
0.045
309
GRIDFORMAT_END
 95
       32
302
GRIDFORMAT
  1
GRIDFORMAT_BEGIN
 90
        0
 91
        1
 62
     0
 92
       -2
340
14
 93
        0
 40
0.045
309
GRIDFORMAT_END
309
TABLEFORMAT_END
  1
CELLSTYLE_BEGIN
 90
        2
 91
        1
300
_HEADER
309
CELLSTYLE_END
300
CELLSTYLE
  1
TABLEFORMAT_BEGIN
 90
        5
170
     1
 91
        0
 92
        0
 62
   257
 93
        1
300
CONTENTFORMAT
  1
CONTENTFORMAT_BEGIN
 90
        0
 91
        0
 92
        4
 93
        0
300

 40
0.0
140
1.0
 94
        2
 62
     0
340
11
144
0.18
309
CONTENTFORMAT_END
171
     1
301
MARGIN
  1
CELLMARGIN_BEGIN
 40
0.06
 40
0.06
 40
0.06
 40
0.06
 40
0.18
 40
0.18
309
CELLMARGIN_END
 94
        6
 95
        1
302
GRIDFORMAT
  1
GRIDFORMAT_BEGIN
 90
        0
 91
        1
 62
     0
 92
       -2
340
14
 93
        0
 40
0.045
309
GRIDFORMAT_END
 95
        2
302
GRIDFORMAT
  1
GRIDFORMAT_BEGIN
 90
        0
 91
        1
 62
     0
 92
       -2
340
14
 93
        0
 40
0.045
309
GRIDFORMAT_END
 95
        4
302
GRIDFORMAT
  1
GRIDFORMAT_BEGIN
 90
        0
 91
        1
 62
     0
 92
       -2
340
14
 93
        0
 40
0.045
309
GRIDFORMAT_END
 95
        8
302
GRIDFORMAT
  1
GRIDFORMAT_BEGIN
 90
        0
 91
        1
 62
     0
 92
       -2
340
14
 93
        0
 40
0.045
309
GRIDFORMAT_END
 95
       16
302
GRIDFORMAT
  1
GRIDFORMAT_BEGIN
 90
        0
 91
        1
 62
     0
 92
       -2
340
14
 93
        0
 40
0.045
309
GRIDFORMAT_END
 95
       32
302
GRIDFORMAT
  1
GRIDFORMAT_BEGIN
 90
        0
 91
        1
 62
     0
 92
       -2
340
14
 93
        0
 40
0.045
309
GRIDFORMAT_END
309
TABLEFORMAT_END
  1
CELLSTYLE_BEGIN
 90
        3
 91
        2
300
_DATA
309
CELLSTYLE_END
  0
XRECORD
  5
3C3
102
{ACAD_REACTORS
330
29D
102
}
330
29D
100
AcDbXrecord
280
     1
102
ACAD_ROUNDTRIP_PRE2007_TABLESTYLE
 90
        4
 91
        0
  1

 92
        4
 93
        0
  2

 94
        4
 95
        0
  3

  0
XRECORD
  5
39C
102
{ACAD_REACTORS
330
39B
102
}
330
39B
100
AcDbXrecord
280
     1
102
RTVSPost2010Prop28
280
     1
102
RTVSPost2010PropOp28
 70
     1
102
RTVSPost2010Prop29
280
     1
102
RTVSPost2010PropOp29
 70
     1
102
RTVSPost2010Prop30
280
     0
102
RTVSPost2010PropOp30
 70
     1
102
RTVSPost2010Prop31
280
     0
102
RTVSPost2010PropOp31
 70
     1
102
RTVSPost2010Prop32
280
     0
102
RTVSPost2010PropOp32
 70
     1
102
RTVSPost2010Prop33
280
     0
102
RTVSPost2010PropOp33
 70
     1
102
RTVSPost2010Prop34
280
     0
102
RTVSPost2010PropOp34
 70
     1
102
RTVSPost2010Prop35
280
     0
102
RTVSPost2010PropOp35
 70
     1
102
RTVSPost2010Prop36
280
     0
102
RTVSPost2010PropOp36
 70
     1
102
RTVSPost2010Prop37
 90
       50
102
RTVSPost2010PropOp37
 70
     1
102
RTVSPost2010Prop38
140
0.0
102
RTVSPost2010PropOp38
 70
     1
102
RTVSPost2010Prop39
140
1.0
102
RTVSPost2010PropOp39
 70
     1
102
RTVSPost2010Prop40
 90
        0
102
RTVSPost2010PropOp40
 70
     1
102
RTVSPost2010Prop41ColorIndex
 90
       18
102
RTVSPost2010Prop41ColorRGB
 90
        0
102
RTVSPost2010PropOp41
 70
     1
102
RTVSPost2010Prop42
 90
       50
102
RTVSPost2010PropOp42
 70
     1
102
RTVSPost2010Prop43
 90
        3
102
RTVSPost2010PropOp43
 70
     1
102
RTVSPost2010Prop44ColorIndex
 90
        5
102
RTVSPost2010Prop44ColorRGB
 90
      255
102
RTVSPost2010PropOp44
 70
     1
102
RTVSPost2010Prop45
280
     0
102
RTVSPost2010PropOp45
 70
     1
102
RTVSPost2010Prop46
 90
       50
102
RTVSPost2010PropOp46
 70
     1
102
RTVSPost2010Prop47
 90
       50
102
RTVSPost2010PropOp47
 70
     1
102
RTVSPost2010Prop48
 90
       50
102
RTVSPost2010PropOp48
 70
     1
102
RTVSPost2010Prop49
280
     0
102
RTVSPost2010PropOp49
 70
     1
102
RTVSPost2010Prop50
 90
       50
102
RTVSPost2010PropOp50
 70
     1
102
RTVSPost2010Prop51ColorIndex
 90
      256
102
RTVSPost2010Prop51ColorRGB
 90
-16777216
102
RTVSPost2010PropOp51
 70
     0
102
RTVSPost2010Prop52
140
1.0
102
RTVSPost2010PropOp52
 70
     0
102
RTVSPost2010Prop53
 90
        2
102
RTVSPost2010PropOp53
 70
     1
102
RTVSPost2010Prop54
  1
strokes_ogs.tif
102
RTVSPost2010PropOp54
 70
     1
102
RTVSPost2010Prop55
280
     0
102
RTVSPost2010PropOp55
 70
     1
102
RTVSPost2010Prop56
140
1.0
102
RTVSPost2010PropOp56
 70
     1
102
RTVSPost2010Prop57
140
1.0
102
RTVSPost2010PropOp57
 70
     1
102
RTVSPropertyOp0
 70
     1
102
RTVSPropertyOp1
 70
     1
102
RTVSPropertyOp2
 70
     1
102
RTVSPropertyOp3
 70
     1
102
RTVSPropertyOp4
 70
     1
102
RTVSPropertyOp5
 70
     1
102
RTVSPropertyOp6
 70
     1
102
RTVSPropertyOp7
 70
     1
102
RTVSPropertyOp8
 70
     1
102
RTVSPropertyOp9
 70
     1
102
RTVSPropertyOp10
 70
     1
102
RTVSPropertyOp11
 70
     1
102
RTVSPropertyOp12
 70
     1
102
RTVSPropertyOp13
 70
     1
102
RTVSPropertyOp14
 70
     1
102
RTVSPropertyOp15
 70
     1
102
RTVSPropertyOp16
 70
     1
102
RTVSPropertyOp17
 70
     1
102
RTVSPropertyOp18
 70
     1
102
RTVSPropertyOp19
 70
     1
102
RTVSPropertyOp20
 70
     1
102
RTVSPropertyOp21
 70
     1
102
RTVSPropertyOp22
 70
     1
102
RTVSPropertyOp23
 70
     1
102
RTVSPropertyOp24
 70
     1
102
RTVSPropertyOp25
 70
     1
102
RTVSPropertyOp26
 70
     1
102
RTVSPropertyOp27
 70
     1
102
RTVSPropertyOp28
 70
     1
102
RTVSPropertyOp29
 70
     1
102
RTVSPropertyOp30
 70
     1
102
RTVSPropertyOp31
 70
     1
102
RTVSPropertyOp32
 70
     1
102
RTVSPropertyOp33
 70
     1
102
RTVSPropertyOp34
 70
     1
102
RTVSPropertyOp35
 70
     1
102
RTVSPropertyOp36
 70
     1
102
RTVSPropertyOp37
 70
     1
102
RTVSPropertyOp38
 70
     1
102
RTVSPropertyOp39
 70
     1
102
RTVSPropertyOp40
 70
     1
102
RTVSPropertyOp41
 70
     1
102
RTVSPropertyOp42
 70
     1
102
RTVSPropertyOp43
 70
     1
102
RTVSPropertyOp44
 70
     1
102
RTVSPropertyOp45
 70
     1
102
RTVSPropertyOp46
 70
     1
102
RTVSPropertyOp47
 70
     1
102
RTVSPropertyOp48
 70
     1
102
RTVSPropertyOp49
 70
     1
102
RTVSPropertyOp50
 70
     1
102
RTVSPropertyOp51
 70
     0
102
RTVSPropertyOp52
 70
     0
102
RTVSPropertyOp53
 70
     1
102
RTVSPropertyOp54
 70
     1
102
RTVSPropertyOp55
 70
     1
102
RTVSPropertyOp56
 70
     1
102
RTVSPropertyOp57
 70
     1
102
RTVSPropertyOp58
 70
     1
102
RTVSPropertyOp59
 70
     1
102
RTVSPropertyOp60
 70
     1
102
RTVSPropertyOp61
 70
     1
102
RTVSPropertyOp62
 70
     1
  0
XRECORD
  5
3A2
102
{ACAD_REACTORS
330
3A1
102
}
330
3A1
100
AcDbXrecord
280
     1
102
RTVSPost2010Prop28
280
     0
102
RTVSPost2010PropOp28
 70
     1
102
RTVSPost2010Prop29
280
     1
102
RTVSPost2010PropOp29
 70
     1
102
RTVSPost2010Prop30
280
     1
102
RTVSPost2010PropOp30
 70
     1
102
RTVSPost2010Prop31
280
     0
102
RTVSPost2010PropOp31
 70
     1
102
RTVSPost2010Prop32
280
     0
102
RTVSPost2010PropOp32
 70
     1
102
RTVSPost2010Prop33
280
     0
102
RTVSPost2010PropOp33
 70
     1
102
RTVSPost2010Prop34
280
     0
102
RTVSPost2010PropOp34
 70
     1
102
RTVSPost2010Prop35
280
     0
102
RTVSPost2010PropOp35
 70
     1
102
RTVSPost2010Prop36
280
     0
102
RTVSPost2010PropOp36
 70
     1
102
RTVSPost2010Prop37
 90
       50
102
RTVSPost2010PropOp37
 70
     1
102
RTVSPost2010Prop38
140
0.0
102
RTVSPost2010PropOp38
 70
     1
102
RTVSPost2010Prop39
140
1.0
102
RTVSPost2010PropOp39
 70
     1
102
RTVSPost2010Prop40
 90
        0
102
RTVSPost2010PropOp40
 70
     1
102
RTVSPost2010Prop41ColorIndex
 90
       18
102
RTVSPost2010Prop41ColorRGB
 90
        0
102
RTVSPost2010PropOp41
 70
     1
102
RTVSPost2010Prop42
 90
       50
102
RTVSPost2010PropOp42
 70
     1
102
RTVSPost2010Prop43
 90
        3
102
RTVSPost2010PropOp43
 70
     1
102
RTVSPost2010Prop44ColorIndex
 90
        5
102
RTVSPost2010Prop44ColorRGB
 90
      255
102
RTVSPost2010PropOp44
 70
     1
102
RTVSPost2010Prop45
280
     0
102
RTVSPost2010PropOp45
 70
     1
102
RTVSPost2010Prop46
 90
       50
102
RTVSPost2010PropOp46
 70
     1
102
RTVSPost2010Prop47
 90
       50
102
RTVSPost2010PropOp47
 70
     1
102
RTVSPost2010Prop48
 90
       50
102
RTVSPost2010PropOp48
 70
     1
102
RTVSPost2010Prop49
280
     0
102
RTVSPost2010PropOp49
 70
     1
102
RTVSPost2010Prop50
 90
       50
102
RTVSPost2010PropOp50
 70
     1
102
RTVSPost2010Prop51ColorIndex
 90
      256
102
RTVSPost2010Prop51ColorRGB
 90
-16777216
102
RTVSPost2010PropOp51
 70
     0
102
RTVSPost2010Prop52
140
1.0
102
RTVSPost2010PropOp52
 70
     0
102
RTVSPost2010Prop53
 90
        2
102
RTVSPost2010PropOp53
 70
     1
102
RTVSPost2010Prop54
  1
strokes_ogs.tif
102
RTVSPost2010PropOp54
 70
     1
102
RTVSPost2010Prop55
280
     0
102
RTVSPost2010PropOp55
 70
     1
102
RTVSPost2010Prop56
140
1.0
102
RTVSPost2010PropOp56
 70
     1
102
RTVSPost2010Prop57
140
1.0
102
RTVSPost2010PropOp57
 70
     1
102
RTVSPropertyOp0
 70
     1
102
RTVSPropertyOp1
 70
     1
102
RTVSPropertyOp2
 70
     1
102
RTVSPropertyOp3
 70
     1
102
RTVSPropertyOp4
 70
     1
102
RTVSPropertyOp5
 70
     1
102
RTVSPropertyOp6
 70
     1
102
RTVSPropertyOp7
 70
     1
102
RTVSPropertyOp8
 70
     1
102
RTVSPropertyOp9
 70
     1
102
RTVSPropertyOp10
 70
     1
102
RTVSPropertyOp11
 70
     1
102
RTVSPropertyOp12
 70
     1
102
RTVSPropertyOp13
 70
     1
102
RTVSPropertyOp14
 70
     1
102
RTVSPropertyOp15
 70
     1
102
RTVSPropertyOp16
 70
     1
102
RTVSPropertyOp17
 70
     1
102
RTVSPropertyOp18
 70
     1
102
RTVSPropertyOp19
 70
     1
102
RTVSPropertyOp20
 70
     1
102
RTVSPropertyOp21
 70
     1
102
RTVSPropertyOp22
 70
     1
102
RTVSPropertyOp23
 70
     1
102
RTVSPropertyOp24
 70
     1
102
RTVSPropertyOp25
 70
     1
102
RTVSPropertyOp26
 70
     1
102
RTVSPropertyOp27
 70
     1
102
RTVSPropertyOp28
 70
     1
102
RTVSPropertyOp29
 70
     1
102
RTVSPropertyOp30
 70
     1
102
RTVSPropertyOp31
 70
     1
102
RTVSPropertyOp32
 70
     1
102
RTVSPropertyOp33
 70
     1
102
RTVSPropertyOp34
 70
     1
102
RTVSPropertyOp35
 70
     1
102
RTVSPropertyOp36
 70
     1
102
RTVSPropertyOp37
 70
     1
102
RTVSPropertyOp38
 70
     1
102
RTVSPropertyOp39
 70
     1
102
RTVSPropertyOp40
 70
     1
102
RTVSPropertyOp41
 70
     1
102
RTVSPropertyOp42
 70
     1
102
RTVSPropertyOp43
 70
     1
102
RTVSPropertyOp44
 70
     1
102
RTVSPropertyOp45
 70
     1
102
RTVSPropertyOp46
 70
     1
102
RTVSPropertyOp47
 70
     1
102
RTVSPropertyOp48
 70
     1
102
RTVSPropertyOp49
 70
     1
102
RTVSPropertyOp50
 70
     1
102
RTVSPropertyOp51
 70
     0
102
RTVSPropertyOp52
 70
     0
102
RTVSPropertyOp53
 70
     1
102
RTVSPropertyOp54
 70
     1
102
RTVSPropertyOp55
 70
     1
102
RTVSPropertyOp56
 70
     1
102
RTVSPropertyOp57
 70
     1
102
RTVSPropertyOp58
 70
     1
102
RTVSPropertyOp59
 70
     1
102
RTVSPropertyOp60
 70
     1
102
RTVSPropertyOp61
 70
     1
102
RTVSPropertyOp62
 70
     1
  0
XRECORD
  5
3AA
102
{ACAD_REACTORS
330
3A9
102
}
330
3A9
100
AcDbXrecord
280
     1
102
RTVSPost2010Prop28
280
     0
102
RTVSPost2010PropOp28
 70
     1
102
RTVSPost2010Prop29
280
     1
102
RTVSPost2010PropOp29
 70
     1
102
RTVSPost2010Prop30
280
     1
102
RTVSPost2010PropOp30
 70
     1
102
RTVSPost2010Prop31
280
     0
102
RTVSPost2010PropOp31
 70
     1
102
RTVSPost2010Prop32
280
     0
102
RTVSPost2010PropOp32
 70
     1
102
RTVSPost2010Prop33
280
     0
102
RTVSPost2010PropOp33
 70
     1
102
RTVSPost2010Prop34
280
     0
102
RTVSPost2010PropOp34
 70
     1
102
RTVSPost2010Prop35
280
     0
102
RTVSPost2010PropOp35
 70
     1
102
RTVSPost2010Prop36
280
     0
102
RTVSPost2010PropOp36
 70
     1
102
RTVSPost2010Prop37
 90
       50
102
RTVSPost2010PropOp37
 70
     1
102
RTVSPost2010Prop38
140
0.0
102
RTVSPost2010PropOp38
 70
     1
102
RTVSPost2010Prop39
140
1.0
102
RTVSPost2010PropOp39
 70
     1
102
RTVSPost2010Prop40
 90
        0
102
RTVSPost2010PropOp40
 70
     1
102
RTVSPost2010Prop41ColorIndex
 90
       18
102
RTVSPost2010Prop41ColorRGB
 90
        0
102
RTVSPost2010PropOp41
 70
     1
102
RTVSPost2010Prop42
 90
       50
102
RTVSPost2010PropOp42
 70
     1
102
RTVSPost2010Prop43
 90
        3
102
RTVSPost2010PropOp43
 70
     1
102
RTVSPost2010Prop44ColorIndex
 90
        5
102
RTVSPost2010Prop44ColorRGB
 90
      255
102
RTVSPost2010PropOp44
 70
     1
102
RTVSPost2010Prop45
280
     0
102
RTVSPost2010PropOp45
 70
     1
102
RTVSPost2010Prop46
 90
       50
102
RTVSPost2010PropOp46
 70
     1
102
RTVSPost2010Prop47
 90
       50
102
RTVSPost2010PropOp47
 70
     1
102
RTVSPost2010Prop48
 90
       50
102
RTVSPost2010PropOp48
 70
     1
102
RTVSPost2010Prop49
280
     0
102
RTVSPost2010PropOp49
 70
     1
102
RTVSPost2010Prop50
 90
       50
102
RTVSPost2010PropOp50
 70
     1
102
RTVSPost2010Prop51ColorIndex
 90
      256
102
RTVSPost2010Prop51ColorRGB
 90
-16777216
102
RTVSPost2010PropOp51
 70
     0
102
RTVSPost2010Prop52
140
1.0
102
RTVSPost2010PropOp52
 70
     0
102
RTVSPost2010Prop53
 90
        2
102
RTVSPost2010PropOp53
 70
     1
102
RTVSPost2010Prop54
  1
strokes_ogs.tif
102
RTVSPost2010PropOp54
 70
     1
102
RTVSPost2010Prop55
280
     0
102
RTVSPost2010PropOp55
 70
     1
102
RTVSPost2010Prop56
140
1.0
102
RTVSPost2010PropOp56
 70
     1
102
RTVSPost2010Prop57
140
1.0
102
RTVSPost2010PropOp57
 70
     1
102
RTVSPropertyOp0
 70
     1
102
RTVSPropertyOp1
 70
     1
102
RTVSPropertyOp2
 70
     1
102
RTVSPropertyOp3
 70
     1
102
RTVSPropertyOp4
 70
     1
102
RTVSPropertyOp5
 70
     1
102
RTVSPropertyOp6
 70
     1
102
RTVSPropertyOp7
 70
     1
102
RTVSPropertyOp8
 70
     1
102
RTVSPropertyOp9
 70
     1
102
RTVSPropertyOp10
 70
     1
102
RTVSPropertyOp11
 70
     1
102
RTVSPropertyOp12
 70
     1
102
RTVSPropertyOp13
 70
     1
102
RTVSPropertyOp14
 70
     1
102
RTVSPropertyOp15
 70
     1
102
RTVSPropertyOp16
 70
     1
102
RTVSPropertyOp17
 70
     1
102
RTVSPropertyOp18
 70
     1
102
RTVSPropertyOp19
 70
     1
102
RTVSPropertyOp20
 70
     1
102
RTVSPropertyOp21
 70
     1
102
RTVSPropertyOp22
 70
     1
102
RTVSPropertyOp23
 70
     1
102
RTVSPropertyOp24
 70
     1
102
RTVSPropertyOp25
 70
     1
102
RTVSPropertyOp26
 70
     1
102
RTVSPropertyOp27
 70
     1
102
RTVSPropertyOp28
 70
     1
102
RTVSPropertyOp29
 70
     1
102
RTVSPropertyOp30
 70
     1
102
RTVSPropertyOp31
 70
     1
102
RTVSPropertyOp32
 70
     1
102
RTVSPropertyOp33
 70
     1
102
RTVSPropertyOp34
 70
     1
102
RTVSPropertyOp35
 70
     1
102
RTVSPropertyOp36
 70
     1
102
RTVSPropertyOp37
 70
     1
102
RTVSPropertyOp38
 70
     1
102
RTVSPropertyOp39
 70
     1
102
RTVSPropertyOp40
 70
     1
102
RTVSPropertyOp41
 70
     1
102
RTVSPropertyOp42
 70
     1
102
RTVSPropertyOp43
 70
     1
102
RTVSPropertyOp44
 70
     1
102
RTVSPropertyOp45
 70
     1
102
RTVSPropertyOp46
 70
     1
102
RTVSPropertyOp47
 70
     1
102
RTVSPropertyOp48
 70
     1
102
RTVSPropertyOp49
 70
     1
102
RTVSPropertyOp50
 70
     1
102
RTVSPropertyOp51
 70
     0
102
RTVSPropertyOp52
 70
     0
102
RTVSPropertyOp53
 70
     1
102
RTVSPropertyOp54
 70
     1
102
RTVSPropertyOp55
 70
     1
102
RTVSPropertyOp56
 70
     1
102
RTVSPropertyOp57
 70
     1
102
RTVSPropertyOp58
 70
     1
102
RTVSPropertyOp59
 70
     1
102
RTVSPropertyOp60
 70
     1
102
RTVSPropertyOp61
 70
     1
102
RTVSPropertyOp62
 70
     1
  0
XRECORD
  5
3B2
102
{ACAD_REACTORS
330
3B1
102
}
330
3B1
100
AcDbXrecord
280
     1
102
RTVSPost2010Prop28
280
     0
102
RTVSPost2010PropOp28
 70
     1
102
RTVSPost2010Prop29
280
     1
102
RTVSPost2010PropOp29
 70
     1
102
RTVSPost2010Prop30
280
     1
102
RTVSPost2010PropOp30
 70
     1
102
RTVSPost2010Prop31
280
     0
102
RTVSPost2010PropOp31
 70
     1
102
RTVSPost2010Prop32
280
     0
102
RTVSPost2010PropOp32
 70
     1
102
RTVSPost2010Prop33
280
     0
102
RTVSPost2010PropOp33
 70
     1
102
RTVSPost2010Prop34
280
     0
102
RTVSPost2010PropOp34
 70
     1
102
RTVSPost2010Prop35
280
     0
102
RTVSPost2010PropOp35
 70
     1
102
RTVSPost2010Prop36
280
     0
102
RTVSPost2010PropOp36
 70
     1
102
RTVSPost2010Prop37
 90
       50
102
RTVSPost2010PropOp37
 70
     1
102
RTVSPost2010Prop38
140
0.0
102
RTVSPost2010PropOp38
 70
     1
102
RTVSPost2010Prop39
140
1.0
102
RTVSPost2010PropOp39
 70
     1
102
RTVSPost2010Prop40
 90
        0
102
RTVSPost2010PropOp40
 70
     1
102
RTVSPost2010Prop41ColorIndex
 90
       18
102
RTVSPost2010Prop41ColorRGB
 90
        0
102
RTVSPost2010PropOp41
 70
     1
102
RTVSPost2010Prop42
 90
       50
102
RTVSPost2010PropOp42
 70
     1
102
RTVSPost2010Prop43
 90
        3
102
RTVSPost2010PropOp43
 70
     1
102
RTVSPost2010Prop44ColorIndex
 90
        5
102
RTVSPost2010Prop44ColorRGB
 90
      255
102
RTVSPost2010PropOp44
 70
     1
102
RTVSPost2010Prop45
280
     0
102
RTVSPost2010PropOp45
 70
     1
102
RTVSPost2010Prop46
 90
       50
102
RTVSPost2010PropOp46
 70
     1
102
RTVSPost2010Prop47
 90
       50
102
RTVSPost2010PropOp47
 70
     1
102
RTVSPost2010Prop48
 90
       50
102
RTVSPost2010PropOp48
 70
     1
102
RTVSPost2010Prop49
280
     0
102
RTVSPost2010PropOp49
 70
     1
102
RTVSPost2010Prop50
 90
       50
102
RTVSPost2010PropOp50
 70
     1
102
RTVSPost2010Prop51ColorIndex
 90
      256
102
RTVSPost2010Prop51ColorRGB
 90
-16777216
102
RTVSPost2010PropOp51
 70
     0
102
RTVSPost2010Prop52
140
1.0
102
RTVSPost2010PropOp52
 70
     0
102
RTVSPost2010Prop53
 90
        2
102
RTVSPost2010PropOp53
 70
     1
102
RTVSPost2010Prop54
  1
strokes_ogs.tif
102
RTVSPost2010PropOp54
 70
     1
102
RTVSPost2010Prop55
280
     0
102
RTVSPost2010PropOp55
 70
     1
102
RTVSPost2010Prop56
140
1.0
102
RTVSPost2010PropOp56
 70
     1
102
RTVSPost2010Prop57
140
1.0
102
RTVSPost2010PropOp57
 70
     1
102
RTVSPropertyOp0
 70
     1
102
RTVSPropertyOp1
 70
     1
102
RTVSPropertyOp2
 70
     1
102
RTVSPropertyOp3
 70
     1
102
RTVSPropertyOp4
 70
     1
102
RTVSPropertyOp5
 70
     1
102
RTVSPropertyOp6
 70
     1
102
RTVSPropertyOp7
 70
     1
102
RTVSPropertyOp8
 70
     1
102
RTVSPropertyOp9
 70
     1
102
RTVSPropertyOp10
 70
     1
102
RTVSPropertyOp11
 70
     1
102
RTVSPropertyOp12
 70
     1
102
RTVSPropertyOp13
 70
     1
102
RTVSPropertyOp14
 70
     1
102
RTVSPropertyOp15
 70
     1
102
RTVSPropertyOp16
 70
     1
102
RTVSPropertyOp17
 70
     1
102
RTVSPropertyOp18
 70
     1
102
RTVSPropertyOp19
 70
     1
102
RTVSPropertyOp20
 70
     1
102
RTVSPropertyOp21
 70
     1
102
RTVSPropertyOp22
 70
     1
102
RTVSPropertyOp23
 70
     1
102
RTVSPropertyOp24
 70
     1
102
RTVSPropertyOp25
 70
     1
102
RTVSPropertyOp26
 70
     1
102
RTVSPropertyOp27
 70
     1
102
RTVSPropertyOp28
 70
     1
102
RTVSPropertyOp29
 70
     1
102
RTVSPropertyOp30
 70
     1
102
RTVSPropertyOp31
 70
     1
102
RTVSPropertyOp32
 70
     1
102
RTVSPropertyOp33
 70
     1
102
RTVSPropertyOp34
 70
     1
102
RTVSPropertyOp35
 70
     1
102
RTVSPropertyOp36
 70
     1
102
RTVSPropertyOp37
 70
     1
102
RTVSPropertyOp38
 70
     1
102
RTVSPropertyOp39
 70
     1
102
RTVSPropertyOp40
 70
     1
102
RTVSPropertyOp41
 70
     1
102
RTVSPropertyOp42
 70
     1
102
RTVSPropertyOp43
 70
     1
102
RTVSPropertyOp44
 70
     1
102
RTVSPropertyOp45
 70
     1
102
RTVSPropertyOp46
 70
     1
102
RTVSPropertyOp47
 70
     1
102
RTVSPropertyOp48
 70
     1
102
RTVSPropertyOp49
 70
     1
102
RTVSPropertyOp50
 70
     1
102
RTVSPropertyOp51
 70
     0
102
RTVSPropertyOp52
 70
     0
102
RTVSPropertyOp53
 70
     1
102
RTVSPropertyOp54
 70
     1
102
RTVSPropertyOp55
 70
     1
102
RTVSPropertyOp56
 70
     1
102
RTVSPropertyOp57
 70
     1
102
RTVSPropertyOp58
 70
     1
102
RTVSPropertyOp59
 70
     1
102
RTVSPropertyOp60
 70
     1
102
RTVSPropertyOp61
 70
     1
102
RTVSPropertyOp62
 70
     1
  0
XRECORD
  5
3A6
102
{ACAD_REACTORS
330
3A5
102
}
330
3A5
100
AcDbXrecord
280
     1
102
RTVSPost2010Prop28
280
     0
102
RTVSPost2010PropOp28
 70
     1
102
RTVSPost2010Prop29
280
     1
102
RTVSPost2010PropOp29
 70
     1
102
RTVSPost2010Prop30
280
     1
102
RTVSPost2010PropOp30
 70
     1
102
RTVSPost2010Prop31
280
     0
102
RTVSPost2010PropOp31
 70
     1
102
RTVSPost2010Prop32
280
     0
102
RTVSPost2010PropOp32
 70
     1
102
RTVSPost2010Prop33
280
     0
102
RTVSPost2010PropOp33
 70
     1
102
RTVSPost2010Prop34
280
     0
102
RTVSPost2010PropOp34
 70
     1
102
RTVSPost2010Prop35
280
     0
102
RTVSPost2010PropOp35
 70
     1
102
RTVSPost2010Prop36
280
     0
102
RTVSPost2010PropOp36
 70
     1
102
RTVSPost2010Prop37
 90
       50
102
RTVSPost2010PropOp37
 70
     1
102
RTVSPost2010Prop38
140
0.0
102
RTVSPost2010PropOp38
 70
     1
102
RTVSPost2010Prop39
140
1.0
102
RTVSPost2010PropOp39
 70
     1
102
RTVSPost2010Prop40
 90
        0
102
RTVSPost2010PropOp40
 70
     1
102
RTVSPost2010Prop41ColorIndex
 90
       18
102
RTVSPost2010Prop41ColorRGB
 90
        0
102
RTVSPost2010PropOp41
 70
     1
102
RTVSPost2010Prop42
 90
       50
102
RTVSPost2010PropOp42
 70
     1
102
RTVSPost2010Prop43
 90
        3
102
RTVSPost2010PropOp43
 70
     1
102
RTVSPost2010Prop44ColorIndex
 90
        5
102
RTVSPost2010Prop44ColorRGB
 90
      255
102
RTVSPost2010PropOp44
 70
     1
102
RTVSPost2010Prop45
280
     0
102
RTVSPost2010PropOp45
 70
     1
102
RTVSPost2010Prop46
 90
       50
102
RTVSPost2010PropOp46
 70
     1
102
RTVSPost2010Prop47
 90
       50
102
RTVSPost2010PropOp47
 70
     1
102
RTVSPost2010Prop48
 90
       50
102
RTVSPost2010PropOp48
 70
     1
102
RTVSPost2010Prop49
280
     0
102
RTVSPost2010PropOp49
 70
     1
102
RTVSPost2010Prop50
 90
       50
102
RTVSPost2010PropOp50
 70
     1
102
RTVSPost2010Prop51ColorIndex
 90
      256
102
RTVSPost2010Prop51ColorRGB
 90
-16777216
102
RTVSPost2010PropOp51
 70
     0
102
RTVSPost2010Prop52
140
1.0
102
RTVSPost2010PropOp52
 70
     0
102
RTVSPost2010Prop53
 90
        2
102
RTVSPost2010PropOp53
 70
     1
102
RTVSPost2010Prop54
  1
strokes_ogs.tif
102
RTVSPost2010PropOp54
 70
     1
102
RTVSPost2010Prop55
280
     0
102
RTVSPost2010PropOp55
 70
     1
102
RTVSPost2010Prop56
140
1.0
102
RTVSPost2010PropOp56
 70
     1
102
RTVSPost2010Prop57
140
1.0
102
RTVSPost2010PropOp57
 70
     1
102
RTVSPropertyOp0
 70
     1
102
RTVSPropertyOp1
 70
     1
102
RTVSPropertyOp2
 70
     1
102
RTVSPropertyOp3
 70
     1
102
RTVSPropertyOp4
 70
     1
102
RTVSPropertyOp5
 70
     1
102
RTVSPropertyOp6
 70
     1
102
RTVSPropertyOp7
 70
     1
102
RTVSPropertyOp8
 70
     1
102
RTVSPropertyOp9
 70
     1
102
RTVSPropertyOp10
 70
     1
102
RTVSPropertyOp11
 70
     1
102
RTVSPropertyOp12
 70
     1
102
RTVSPropertyOp13
 70
     1
102
RTVSPropertyOp14
 70
     1
102
RTVSPropertyOp15
 70
     1
102
RTVSPropertyOp16
 70
     1
102
RTVSPropertyOp17
 70
     1
102
RTVSPropertyOp18
 70
     1
102
RTVSPropertyOp19
 70
     1
102
RTVSPropertyOp20
 70
     1
102
RTVSPropertyOp21
 70
     1
102
RTVSPropertyOp22
 70
     1
102
RTVSPropertyOp23
 70
     1
102
RTVSPropertyOp24
 70
     1
102
RTVSPropertyOp25
 70
     1
102
RTVSPropertyOp26
 70
     1
102
RTVSPropertyOp27
 70
     1
102
RTVSPropertyOp28
 70
     1
102
RTVSPropertyOp29
 70
     1
102
RTVSPropertyOp30
 70
     1
102
RTVSPropertyOp31
 70
     1
102
RTVSPropertyOp32
 70
     1
102
RTVSPropertyOp33
 70
     1
102
RTVSPropertyOp34
 70
     1
102
RTVSPropertyOp35
 70
     1
102
RTVSPropertyOp36
 70
     1
102
RTVSPropertyOp37
 70
     1
102
RTVSPropertyOp38
 70
     1
102
RTVSPropertyOp39
 70
     1
102
RTVSPropertyOp40
 70
     1
102
RTVSPropertyOp41
 70
     1
102
RTVSPropertyOp42
 70
     1
102
RTVSPropertyOp43
 70
     1
102
RTVSPropertyOp44
 70
     1
102
RTVSPropertyOp45
 70
     1
102
RTVSPropertyOp46
 70
     1
102
RTVSPropertyOp47
 70
     1
102
RTVSPropertyOp48
 70
     1
102
RTVSPropertyOp49
 70
     1
102
RTVSPropertyOp50
 70
     1
102
RTVSPropertyOp51
 70
     0
102
RTVSPropertyOp52
 70
     0
102
RTVSPropertyOp53
 70
     1
102
RTVSPropertyOp54
 70
     1
102
RTVSPropertyOp55
 70
     1
102
RTVSPropertyOp56
 70
     1
102
RTVSPropertyOp57
 70
     1
102
RTVSPropertyOp58
 70
     1
102
RTVSPropertyOp59
 70
     1
102
RTVSPropertyOp60
 70
     1
102
RTVSPropertyOp61
 70
     1
102
RTVSPropertyOp62
 70
     1
  0
XRECORD
  5
3A8
102
{ACAD_REACTORS
330
3A7
102
}
330
3A7
100
AcDbXrecord
280
     1
102
RTVSPost2010Prop28
280
     0
102
RTVSPost2010PropOp28
 70
     1
102
RTVSPost2010Prop29
280
     1
102
RTVSPost2010PropOp29
 70
     1
102
RTVSPost2010Prop30
280
     1
102
RTVSPost2010PropOp30
 70
     1
102
RTVSPost2010Prop31
280
     0
102
RTVSPost2010PropOp31
 70
     1
102
RTVSPost2010Prop32
280
     0
102
RTVSPost2010PropOp32
 70
     1
102
RTVSPost2010Prop33
280
     0
102
RTVSPost2010PropOp33
 70
     1
102
RTVSPost2010Prop34
280
     0
102
RTVSPost2010PropOp34
 70
     1
102
RTVSPost2010Prop35
280
     0
102
RTVSPost2010PropOp35
 70
     1
102
RTVSPost2010Prop36
280
     0
102
RTVSPost2010PropOp36
 70
     1
102
RTVSPost2010Prop37
 90
       50
102
RTVSPost2010PropOp37
 70
     1
102
RTVSPost2010Prop38
140
0.0
102
RTVSPost2010PropOp38
 70
     1
102
RTVSPost2010Prop39
140
1.0
102
RTVSPost2010PropOp39
 70
     1
102
RTVSPost2010Prop40
 90
        0
102
RTVSPost2010PropOp40
 70
     1
102
RTVSPost2010Prop41ColorIndex
 90
       18
102
RTVSPost2010Prop41ColorRGB
 90
        0
102
RTVSPost2010PropOp41
 70
     1
102
RTVSPost2010Prop42
 90
       50
102
RTVSPost2010PropOp42
 70
     1
102
RTVSPost2010Prop43
 90
        3
102
RTVSPost2010PropOp43
 70
     1
102
RTVSPost2010Prop44ColorIndex
 90
        5
102
RTVSPost2010Prop44ColorRGB
 90
      255
102
RTVSPost2010PropOp44
 70
     1
102
RTVSPost2010Prop45
280
     0
102
RTVSPost2010PropOp45
 70
     1
102
RTVSPost2010Prop46
 90
       50
102
RTVSPost2010PropOp46
 70
     1
102
RTVSPost2010Prop47
 90
       50
102
RTVSPost2010PropOp47
 70
     1
102
RTVSPost2010Prop48
 90
       50
102
RTVSPost2010PropOp48
 70
     1
102
RTVSPost2010Prop49
280
     0
102
RTVSPost2010PropOp49
 70
     1
102
RTVSPost2010Prop50
 90
       50
102
RTVSPost2010PropOp50
 70
     1
102
RTVSPost2010Prop51ColorIndex
 90
      256
102
RTVSPost2010Prop51ColorRGB
 90
-16777216
102
RTVSPost2010PropOp51
 70
     0
102
RTVSPost2010Prop52
140
1.0
102
RTVSPost2010PropOp52
 70
     0
102
RTVSPost2010Prop53
 90
        2
102
RTVSPost2010PropOp53
 70
     1
102
RTVSPost2010Prop54
  1
strokes_ogs.tif
102
RTVSPost2010PropOp54
 70
     1
102
RTVSPost2010Prop55
280
     0
102
RTVSPost2010PropOp55
 70
     1
102
RTVSPost2010Prop56
140
1.0
102
RTVSPost2010PropOp56
 70
     1
102
RTVSPost2010Prop57
140
1.0
102
RTVSPost2010PropOp57
 70
     1
102
RTVSPropertyOp0
 70
     1
102
RTVSPropertyOp1
 70
     1
102
RTVSPropertyOp2
 70
     1
102
RTVSPropertyOp3
 70
     1
102
RTVSPropertyOp4
 70
     1
102
RTVSPropertyOp5
 70
     1
102
RTVSPropertyOp6
 70
     1
102
RTVSPropertyOp7
 70
     1
102
RTVSPropertyOp8
 70
     1
102
RTVSPropertyOp9
 70
     1
102
RTVSPropertyOp10
 70
     1
102
RTVSPropertyOp11
 70
     1
102
RTVSPropertyOp12
 70
     1
102
RTVSPropertyOp13
 70
     1
102
RTVSPropertyOp14
 70
     1
102
RTVSPropertyOp15
 70
     1
102
RTVSPropertyOp16
 70
     1
102
RTVSPropertyOp17
 70
     1
102
RTVSPropertyOp18
 70
     1
102
RTVSPropertyOp19
 70
     1
102
RTVSPropertyOp20
 70
     1
102
RTVSPropertyOp21
 70
     1
102
RTVSPropertyOp22
 70
     1
102
RTVSPropertyOp23
 70
     1
102
RTVSPropertyOp24
 70
     1
102
RTVSPropertyOp25
 70
     1
102
RTVSPropertyOp26
 70
     1
102
RTVSPropertyOp27
 70
     1
102
RTVSPropertyOp28
 70
     1
102
RTVSPropertyOp29
 70
     1
102
RTVSPropertyOp30
 70
     1
102
RTVSPropertyOp31
 70
     1
102
RTVSPropertyOp32
 70
     1
102
RTVSPropertyOp33
 70
     1
102
RTVSPropertyOp34
 70
     1
102
RTVSPropertyOp35
 70
     1
102
RTVSPropertyOp36
 70
     1
102
RTVSPropertyOp37
 70
     1
102
RTVSPropertyOp38
 70
     1
102
RTVSPropertyOp39
 70
     1
102
RTVSPropertyOp40
 70
     1
102
RTVSPropertyOp41
 70
     1
102
RTVSPropertyOp42
 70
     1
102
RTVSPropertyOp43
 70
     1
102
RTVSPropertyOp44
 70
     1
102
RTVSPropertyOp45
 70
     1
102
RTVSPropertyOp46
 70
     1
102
RTVSPropertyOp47
 70
     1
102
RTVSPropertyOp48
 70
     1
102
RTVSPropertyOp49
 70
     1
102
RTVSPropertyOp50
 70
     1
102
RTVSPropertyOp51
 70
     0
102
RTVSPropertyOp52
 70
     0
102
RTVSPropertyOp53
 70
     1
102
RTVSPropertyOp54
 70
     1
102
RTVSPropertyOp55
 70
     1
102
RTVSPropertyOp56
 70
     1
102
RTVSPropertyOp57
 70
     1
102
RTVSPropertyOp58
 70
     1
102
RTVSPropertyOp59
 70
     1
102
RTVSPropertyOp60
 70
     1
102
RTVSPropertyOp61
 70
     1
102
RTVSPropertyOp62
 70
     1
  0
XRECORD
  5
3B8
102
{ACAD_REACTORS
330
3B7
102
}
330
3B7
100
AcDbXrecord
280
     1
102
RTVSPost2010Prop28
280
     0
102
RTVSPost2010PropOp28
 70
     0
102
RTVSPost2010Prop29
280
     1
102
RTVSPost2010PropOp29
 70
     0
102
RTVSPost2010Prop30
280
     1
102
RTVSPost2010PropOp30
 70
     0
102
RTVSPost2010Prop31
280
     0
102
RTVSPost2010PropOp31
 70
     0
102
RTVSPost2010Prop32
280
     0
102
RTVSPost2010PropOp32
 70
     0
102
RTVSPost2010Prop33
280
     0
102
RTVSPost2010PropOp33
 70
     0
102
RTVSPost2010Prop34
280
     0
102
RTVSPost2010PropOp34
 70
     0
102
RTVSPost2010Prop35
280
     0
102
RTVSPost2010PropOp35
 70
     0
102
RTVSPost2010Prop36
280
     0
102
RTVSPost2010PropOp36
 70
     0
102
RTVSPost2010Prop37
 90
       50
102
RTVSPost2010PropOp37
 70
     0
102
RTVSPost2010Prop38
140
0.0
102
RTVSPost2010PropOp38
 70
     0
102
RTVSPost2010Prop39
140
1.0
102
RTVSPost2010PropOp39
 70
     0
102
RTVSPost2010Prop40
 90
        0
102
RTVSPost2010PropOp40
 70
     0
102
RTVSPost2010Prop41ColorIndex
 90
       18
102
RTVSPost2010Prop41ColorRGB
 90
        0
102
RTVSPost2010PropOp41
 70
     0
102
RTVSPost2010Prop42
 90
       50
102
RTVSPost2010PropOp42
 70
     0
102
RTVSPost2010Prop43
 90
        3
102
RTVSPost2010PropOp43
 70
     0
102
RTVSPost2010Prop44ColorIndex
 90
        5
102
RTVSPost2010Prop44ColorRGB
 90
      255
102
RTVSPost2010PropOp44
 70
     0
102
RTVSPost2010Prop45
280
     0
102
RTVSPost2010PropOp45
 70
     0
102
RTVSPost2010Prop46
 90
       50
102
RTVSPost2010PropOp46
 70
     0
102
RTVSPost2010Prop47
 90
       50
102
RTVSPost2010PropOp47
 70
     0
102
RTVSPost2010Prop48
 90
       50
102
RTVSPost2010PropOp48
 70
     0
102
RTVSPost2010Prop49
280
     0
102
RTVSPost2010PropOp49
 70
     0
102
RTVSPost2010Prop50
 90
       50
102
RTVSPost2010PropOp50
 70
     0
102
RTVSPost2010Prop51ColorIndex
 90
      256
102
RTVSPost2010Prop51ColorRGB
 90
-16777216
102
RTVSPost2010PropOp51
 70
     0
102
RTVSPost2010Prop52
140
1.0
102
RTVSPost2010PropOp52
 70
     0
102
RTVSPost2010Prop53
 90
        2
102
RTVSPost2010PropOp53
 70
     0
102
RTVSPost2010Prop54
  1
strokes_ogs.tif
102
RTVSPost2010PropOp54
 70
     0
102
RTVSPost2010Prop55
280
     0
102
RTVSPost2010PropOp55
 70
     0
102
RTVSPost2010Prop56
140
1.0
102
RTVSPost2010PropOp56
 70
     0
102
RTVSPost2010Prop57
140
1.0
102
RTVSPost2010PropOp57
 70
     0
102
RTVSPropertyOp0
 70
     0
102
RTVSPropertyOp1
 70
     0
102
RTVSPropertyOp2
 70
     0
102
RTVSPropertyOp3
 70
     0
102
RTVSPropertyOp4
 70
     0
102
RTVSPropertyOp5
 70
     0
102
RTVSPropertyOp6
 70
     0
102
RTVSPropertyOp7
 70
     0
102
RTVSPropertyOp8
 70
     0
102
RTVSPropertyOp9
 70
     0
102
RTVSPropertyOp10
 70
     0
102
RTVSPropertyOp11
 70
     0
102
RTVSPropertyOp12
 70
     0
102
RTVSPropertyOp13
 70
     0
102
RTVSPropertyOp14
 70
     2
102
RTVSPropertyOp15
 70
     0
102
RTVSPropertyOp16
 70
     0
102
RTVSPropertyOp17
 70
     0
102
RTVSPropertyOp18
 70
     0
102
RTVSPropertyOp19
 70
     0
102
RTVSPropertyOp20
 70
     0
102
RTVSPropertyOp21
 70
     0
102
RTVSPropertyOp22
 70
     0
102
RTVSPropertyOp23
 70
     0
102
RTVSPropertyOp24
 70
     0
102
RTVSPropertyOp25
 70
     0
102
RTVSPropertyOp26
 70
     0
102
RTVSPropertyOp27
 70
     0
102
RTVSPropertyOp28
 70
     0
102
RTVSPropertyOp29
 70
     0
102
RTVSPropertyOp30
 70
     0
102
RTVSPropertyOp31
 70
     0
102
RTVSPropertyOp32
 70
     0
102
RTVSPropertyOp33
 70
     0
102
RTVSPropertyOp34
 70
     0
102
RTVSPropertyOp35
 70
     0
102
RTVSPropertyOp36
 70
     0
102
RTVSPropertyOp37
 70
     0
102
RTVSPropertyOp38
 70
     0
102
RTVSPropertyOp39
 70
     0
102
RTVSPropertyOp40
 70
     0
102
RTVSPropertyOp41
 70
     0
102
RTVSPropertyOp42
 70
     0
102
RTVSPropertyOp43
 70
     0
102
RTVSPropertyOp44
 70
     0
102
RTVSPropertyOp45
 70
     0
102
RTVSPropertyOp46
 70
     0
102
RTVSPropertyOp47
 70
     0
102
RTVSPropertyOp48
 70
     0
102
RTVSPropertyOp49
 70
     0
102
RTVSPropertyOp50
 70
     0
102
RTVSPropertyOp51
 70
     0
102
RTVSPropertyOp52
 70
     0
102
RTVSPropertyOp53
 70
     0
102
RTVSPropertyOp54
 70
     0
102
RTVSPropertyOp55
 70
     0
102
RTVSPropertyOp56
 70
     0
102
RTVSPropertyOp57
 70
     0
102
RTVSPropertyOp58
 70
     1
102
RTVSPropertyOp59
 70
     1
102
RTVSPropertyOp60
 70
     1
102
RTVSPropertyOp61
 70
     1
102
RTVSPropertyOp62
 70
     1
  0
XRECORD
  5
3B0
102
{ACAD_REACTORS
330
3AF
102
}
330
3AF
100
AcDbXrecord
280
     1
102
RTVSPost2010Prop28
280
     0
102
RTVSPost2010PropOp28
 70
     1
102
RTVSPost2010Prop29
280
     1
102
RTVSPost2010PropOp29
 70
     1
102
RTVSPost2010Prop30
280
     1
102
RTVSPost2010PropOp30
 70
     1
102
RTVSPost2010Prop31
280
     0
102
RTVSPost2010PropOp31
 70
     1
102
RTVSPost2010Prop32
280
     0
102
RTVSPost2010PropOp32
 70
     1
102
RTVSPost2010Prop33
280
     0
102
RTVSPost2010PropOp33
 70
     1
102
RTVSPost2010Prop34
280
     0
102
RTVSPost2010PropOp34
 70
     1
102
RTVSPost2010Prop35
280
     0
102
RTVSPost2010PropOp35
 70
     1
102
RTVSPost2010Prop36
280
     0
102
RTVSPost2010PropOp36
 70
     1
102
RTVSPost2010Prop37
 90
       50
102
RTVSPost2010PropOp37
 70
     1
102
RTVSPost2010Prop38
140
0.0
102
RTVSPost2010PropOp38
 70
     1
102
RTVSPost2010Prop39
140
1.0
102
RTVSPost2010PropOp39
 70
     1
102
RTVSPost2010Prop40
 90
        0
102
RTVSPost2010PropOp40
 70
     1
102
RTVSPost2010Prop41ColorIndex
 90
       18
102
RTVSPost2010Prop41ColorRGB
 90
        0
102
RTVSPost2010PropOp41
 70
     1
102
RTVSPost2010Prop42
 90
       50
102
RTVSPost2010PropOp42
 70
     1
102
RTVSPost2010Prop43
 90
        3
102
RTVSPost2010PropOp43
 70
     1
102
RTVSPost2010Prop44ColorIndex
 90
        5
102
RTVSPost2010Prop44ColorRGB
 90
      255
102
RTVSPost2010PropOp44
 70
     1
102
RTVSPost2010Prop45
280
     0
102
RTVSPost2010PropOp45
 70
     1
102
RTVSPost2010Prop46
 90
       50
102
RTVSPost2010PropOp46
 70
     1
102
RTVSPost2010Prop47
 90
       50
102
RTVSPost2010PropOp47
 70
     1
102
RTVSPost2010Prop48
 90
       50
102
RTVSPost2010PropOp48
 70
     1
102
RTVSPost2010Prop49
280
     0
102
RTVSPost2010PropOp49
 70
     1
102
RTVSPost2010Prop50
 90
       50
102
RTVSPost2010PropOp50
 70
     1
102
RTVSPost2010Prop51ColorIndex
 90
      256
102
RTVSPost2010Prop51ColorRGB
 90
-16777216
102
RTVSPost2010PropOp51
 70
     0
102
RTVSPost2010Prop52
140
1.0
102
RTVSPost2010PropOp52
 70
     0
102
RTVSPost2010Prop53
 90
        2
102
RTVSPost2010PropOp53
 70
     1
102
RTVSPost2010Prop54
  1
strokes_ogs.tif
102
RTVSPost2010PropOp54
 70
     1
102
RTVSPost2010Prop55
280
     0
102
RTVSPost2010PropOp55
 70
     1
102
RTVSPost2010Prop56
140
1.0
102
RTVSPost2010PropOp56
 70
     1
102
RTVSPost2010Prop57
140
1.0
102
RTVSPost2010PropOp57
 70
     1
102
RTVSPropertyOp0
 70
     1
102
RTVSPropertyOp1
 70
     1
102
RTVSPropertyOp2
 70
     1
102
RTVSPropertyOp3
 70
     1
102
RTVSPropertyOp4
 70
     1
102
RTVSPropertyOp5
 70
     1
102
RTVSPropertyOp6
 70
     1
102
RTVSPropertyOp7
 70
     1
102
RTVSPropertyOp8
 70
     1
102
RTVSPropertyOp9
 70
     1
102
RTVSPropertyOp10
 70
     1
102
RTVSPropertyOp11
 70
     1
102
RTVSPropertyOp12
 70
     1
102
RTVSPropertyOp13
 70
     1
102
RTVSPropertyOp14
 70
     1
102
RTVSPropertyOp15
 70
     1
102
RTVSPropertyOp16
 70
     1
102
RTVSPropertyOp17
 70
     1
102
RTVSPropertyOp18
 70
     1
102
RTVSPropertyOp19
 70
     1
102
RTVSPropertyOp20
 70
     1
102
RTVSPropertyOp21
 70
     1
102
RTVSPropertyOp22
 70
     1
102
RTVSPropertyOp23
 70
     1
102
RTVSPropertyOp24
 70
     1
102
RTVSPropertyOp25
 70
     1
102
RTVSPropertyOp26
 70
     1
102
RTVSPropertyOp27
 70
     1
102
RTVSPropertyOp28
 70
     1
102
RTVSPropertyOp29
 70
     1
102
RTVSPropertyOp30
 70
     1
102
RTVSPropertyOp31
 70
     1
102
RTVSPropertyOp32
 70
     1
102
RTVSPropertyOp33
 70
     1
102
RTVSPropertyOp34
 70
     1
102
RTVSPropertyOp35
 70
     1
102
RTVSPropertyOp36
 70
     1
102
RTVSPropertyOp37
 70
     1
102
RTVSPropertyOp38
 70
     1
102
RTVSPropertyOp39
 70
     1
102
RTVSPropertyOp40
 70
     1
102
RTVSPropertyOp41
 70
     1
102
RTVSPropertyOp42
 70
     1
102
RTVSPropertyOp43
 70
     1
102
RTVSPropertyOp44
 70
     1
102
RTVSPropertyOp45
 70
     1
102
RTVSPropertyOp46
 70
     1
102
RTVSPropertyOp47
 70
     1
102
RTVSPropertyOp48
 70
     1
102
RTVSPropertyOp49
 70
     1
102
RTVSPropertyOp50
 70
     1
102
RTVSPropertyOp51
 70
     0
102
RTVSPropertyOp52
 70
     0
102
RTVSPropertyOp53
 70
     1
102
RTVSPropertyOp54
 70
     1
102
RTVSPropertyOp55
 70
     1
102
RTVSPropertyOp56
 70
     1
102
RTVSPropertyOp57
 70
     1
102
RTVSPropertyOp58
 70
     1
102
RTVSPropertyOp59
 70
     1
102
RTVSPropertyOp60
 70
     1
102
RTVSPropertyOp61
 70
     1
102
RTVSPropertyOp62
 70
     1
  0
XRECORD
  5
394
102
{ACAD_REACTORS
330
393
102
}
330
393
100
AcDbXrecord
280
     1
102
RTVSPost2010Prop28
280
     0
102
RTVSPost2010PropOp28
 70
     1
102
RTVSPost2010Prop29
280
     1
102
RTVSPost2010PropOp29
 70
     1
102
RTVSPost2010Prop30
280
     1
102
RTVSPost2010PropOp30
 70
     1
102
RTVSPost2010Prop31
280
     0
102
RTVSPost2010PropOp31
 70
     1
102
RTVSPost2010Prop32
280
     0
102
RTVSPost2010PropOp32
 70
     1
102
RTVSPost2010Prop33
280
     0
102
RTVSPost2010PropOp33
 70
     1
102
RTVSPost2010Prop34
280
     0
102
RTVSPost2010PropOp34
 70
     1
102
RTVSPost2010Prop35
280
     0
102
RTVSPost2010PropOp35
 70
     1
102
RTVSPost2010Prop36
280
     0
102
RTVSPost2010PropOp36
 70
     1
102
RTVSPost2010Prop37
 90
       50
102
RTVSPost2010PropOp37
 70
     1
102
RTVSPost2010Prop38
140
0.0
102
RTVSPost2010PropOp38
 70
     1
102
RTVSPost2010Prop39
140
1.0
102
RTVSPost2010PropOp39
 70
     1
102
RTVSPost2010Prop40
 90
        0
102
RTVSPost2010PropOp40
 70
     1
102
RTVSPost2010Prop41ColorIndex
 90
       18
102
RTVSPost2010Prop41ColorRGB
 90
        0
102
RTVSPost2010PropOp41
 70
     1
102
RTVSPost2010Prop42
 90
       50
102
RTVSPost2010PropOp42
 70
     1
102
RTVSPost2010Prop43
 90
        3
102
RTVSPost2010PropOp43
 70
     1
102
RTVSPost2010Prop44ColorIndex
 90
        5
102
RTVSPost2010Prop44ColorRGB
 90
      255
102
RTVSPost2010PropOp44
 70
     1
102
RTVSPost2010Prop45
280
     0
102
RTVSPost2010PropOp45
 70
     1
102
RTVSPost2010Prop46
 90
       50
102
RTVSPost2010PropOp46
 70
     1
102
RTVSPost2010Prop47
 90
       50
102
RTVSPost2010PropOp47
 70
     1
102
RTVSPost2010Prop48
 90
       50
102
RTVSPost2010PropOp48
 70
     1
102
RTVSPost2010Prop49
280
     0
102
RTVSPost2010PropOp49
 70
     1
102
RTVSPost2010Prop50
 90
       50
102
RTVSPost2010PropOp50
 70
     1
102
RTVSPost2010Prop51ColorIndex
 90
      256
102
RTVSPost2010Prop51ColorRGB
 90
-16777216
102
RTVSPost2010PropOp51
 70
     0
102
RTVSPost2010Prop52
140
1.0
102
RTVSPost2010PropOp52
 70
     0
102
RTVSPost2010Prop53
 90
        2
102
RTVSPost2010PropOp53
 70
     1
102
RTVSPost2010Prop54
  1
strokes_ogs.tif
102
RTVSPost2010PropOp54
 70
     1
102
RTVSPost2010Prop55
280
     0
102
RTVSPost2010PropOp55
 70
     1
102
RTVSPost2010Prop56
140
1.0
102
RTVSPost2010PropOp56
 70
     1
102
RTVSPost2010Prop57
140
1.0
102
RTVSPost2010PropOp57
 70
     1
102
RTVSPropertyOp0
 70
     1
102
RTVSPropertyOp1
 70
     1
102
RTVSPropertyOp2
 70
     1
102
RTVSPropertyOp3
 70
     1
102
RTVSPropertyOp4
 70
     1
102
RTVSPropertyOp5
 70
     1
102
RTVSPropertyOp6
 70
     1
102
RTVSPropertyOp7
 70
     1
102
RTVSPropertyOp8
 70
     1
102
RTVSPropertyOp9
 70
     1
102
RTVSPropertyOp10
 70
     1
102
RTVSPropertyOp11
 70
     1
102
RTVSPropertyOp12
 70
     1
102
RTVSPropertyOp13
 70
     1
102
RTVSPropertyOp14
 70
     1
102
RTVSPropertyOp15
 70
     1
102
RTVSPropertyOp16
 70
     1
102
RTVSPropertyOp17
 70
     1
102
RTVSPropertyOp18
 70
     1
102
RTVSPropertyOp19
 70
     1
102
RTVSPropertyOp20
 70
     1
102
RTVSPropertyOp21
 70
     1
102
RTVSPropertyOp22
 70
     1
102
RTVSPropertyOp23
 70
     1
102
RTVSPropertyOp24
 70
     1
102
RTVSPropertyOp25
 70
     1
102
RTVSPropertyOp26
 70
     1
102
RTVSPropertyOp27
 70
     1
102
RTVSPropertyOp28
 70
     1
102
RTVSPropertyOp29
 70
     1
102
RTVSPropertyOp30
 70
     1
102
RTVSPropertyOp31
 70
     1
102
RTVSPropertyOp32
 70
     1
102
RTVSPropertyOp33
 70
     1
102
RTVSPropertyOp34
 70
     1
102
RTVSPropertyOp35
 70
     1
102
RTVSPropertyOp36
 70
     1
102
RTVSPropertyOp37
 70
     1
102
RTVSPropertyOp38
 70
     1
102
RTVSPropertyOp39
 70
     1
102
RTVSPropertyOp40
 70
     1
102
RTVSPropertyOp41
 70
     1
102
RTVSPropertyOp42
 70
     1
102
RTVSPropertyOp43
 70
     1
102
RTVSPropertyOp44
 70
     1
102
RTVSPropertyOp45
 70
     1
102
RTVSPropertyOp46
 70
     1
102
RTVSPropertyOp47
 70
     1
102
RTVSPropertyOp48
 70
     1
102
RTVSPropertyOp49
 70
     1
102
RTVSPropertyOp50
 70
     1
102
RTVSPropertyOp51
 70
     0
102
RTVSPropertyOp52
 70
     0
102
RTVSPropertyOp53
 70
     1
102
RTVSPropertyOp54
 70
     1
102
RTVSPropertyOp55
 70
     1
102
RTVSPropertyOp56
 70
     1
102
RTVSPropertyOp57
 70
     1
102
RTVSPropertyOp58
 70
     1
102
RTVSPropertyOp59
 70
     1
102
RTVSPropertyOp60
 70
     1
102
RTVSPropertyOp61
 70
     1
102
RTVSPropertyOp62
 70
     1
  0
XRECORD
  5
396
102
{ACAD_REACTORS
330
395
102
}
330
395
100
AcDbXrecord
280
     1
102
RTVSPost2010Prop28
280
     0
102
RTVSPost2010PropOp28
 70
     1
102
RTVSPost2010Prop29
280
     1
102
RTVSPost2010PropOp29
 70
     1
102
RTVSPost2010Prop30
280
     1
102
RTVSPost2010PropOp30
 70
     1
102
RTVSPost2010Prop31
280
     0
102
RTVSPost2010PropOp31
 70
     1
102
RTVSPost2010Prop32
280
     0
102
RTVSPost2010PropOp32
 70
     1
102
RTVSPost2010Prop33
280
     0
102
RTVSPost2010PropOp33
 70
     1
102
RTVSPost2010Prop34
280
     0
102
RTVSPost2010PropOp34
 70
     1
102
RTVSPost2010Prop35
280
     0
102
RTVSPost2010PropOp35
 70
     1
102
RTVSPost2010Prop36
280
     0
102
RTVSPost2010PropOp36
 70
     1
102
RTVSPost2010Prop37
 90
       50
102
RTVSPost2010PropOp37
 70
     1
102
RTVSPost2010Prop38
140
0.0
102
RTVSPost2010PropOp38
 70
     1
102
RTVSPost2010Prop39
140
1.0
102
RTVSPost2010PropOp39
 70
     1
102
RTVSPost2010Prop40
 90
        0
102
RTVSPost2010PropOp40
 70
     1
102
RTVSPost2010Prop41ColorIndex
 90
       18
102
RTVSPost2010Prop41ColorRGB
 90
        0
102
RTVSPost2010PropOp41
 70
     1
102
RTVSPost2010Prop42
 90
       50
102
RTVSPost2010PropOp42
 70
     1
102
RTVSPost2010Prop43
 90
        3
102
RTVSPost2010PropOp43
 70
     1
102
RTVSPost2010Prop44ColorIndex
 90
        5
102
RTVSPost2010Prop44ColorRGB
 90
      255
102
RTVSPost2010PropOp44
 70
     1
102
RTVSPost2010Prop45
280
     0
102
RTVSPost2010PropOp45
 70
     1
102
RTVSPost2010Prop46
 90
       50
102
RTVSPost2010PropOp46
 70
     1
102
RTVSPost2010Prop47
 90
       50
102
RTVSPost2010PropOp47
 70
     1
102
RTVSPost2010Prop48
 90
       50
102
RTVSPost2010PropOp48
 70
     1
102
RTVSPost2010Prop49
280
     0
102
RTVSPost2010PropOp49
 70
     1
102
RTVSPost2010Prop50
 90
       50
102
RTVSPost2010PropOp50
 70
     1
102
RTVSPost2010Prop51ColorIndex
 90
      256
102
RTVSPost2010Prop51ColorRGB
 90
-16777216
102
RTVSPost2010PropOp51
 70
     0
102
RTVSPost2010Prop52
140
1.0
102
RTVSPost2010PropOp52
 70
     0
102
RTVSPost2010Prop53
 90
        2
102
RTVSPost2010PropOp53
 70
     1
102
RTVSPost2010Prop54
  1
strokes_ogs.tif
102
RTVSPost2010PropOp54
 70
     1
102
RTVSPost2010Prop55
280
     0
102
RTVSPost2010PropOp55
 70
     1
102
RTVSPost2010Prop56
140
1.0
102
RTVSPost2010PropOp56
 70
     1
102
RTVSPost2010Prop57
140
1.0
102
RTVSPost2010PropOp57
 70
     1
102
RTVSPropertyOp0
 70
     1
102
RTVSPropertyOp1
 70
     1
102
RTVSPropertyOp2
 70
     1
102
RTVSPropertyOp3
 70
     1
102
RTVSPropertyOp4
 70
     1
102
RTVSPropertyOp5
 70
     1
102
RTVSPropertyOp6
 70
     1
102
RTVSPropertyOp7
 70
     1
102
RTVSPropertyOp8
 70
     1
102
RTVSPropertyOp9
 70
     1
102
RTVSPropertyOp10
 70
     1
102
RTVSPropertyOp11
 70
     1
102
RTVSPropertyOp12
 70
     1
102
RTVSPropertyOp13
 70
     1
102
RTVSPropertyOp14
 70
     1
102
RTVSPropertyOp15
 70
     1
102
RTVSPropertyOp16
 70
     1
102
RTVSPropertyOp17
 70
     1
102
RTVSPropertyOp18
 70
     1
102
RTVSPropertyOp19
 70
     1
102
RTVSPropertyOp20
 70
     1
102
RTVSPropertyOp21
 70
     1
102
RTVSPropertyOp22
 70
     1
102
RTVSPropertyOp23
 70
     1
102
RTVSPropertyOp24
 70
     1
102
RTVSPropertyOp25
 70
     1
102
RTVSPropertyOp26
 70
     1
102
RTVSPropertyOp27
 70
     1
102
RTVSPropertyOp28
 70
     1
102
RTVSPropertyOp29
 70
     1
102
RTVSPropertyOp30
 70
     1
102
RTVSPropertyOp31
 70
     1
102
RTVSPropertyOp32
 70
     1
102
RTVSPropertyOp33
 70
     1
102
RTVSPropertyOp34
 70
     1
102
RTVSPropertyOp35
 70
     1
102
RTVSPropertyOp36
 70
     1
102
RTVSPropertyOp37
 70
     1
102
RTVSPropertyOp38
 70
     1
102
RTVSPropertyOp39
 70
     1
102
RTVSPropertyOp40
 70
     1
102
RTVSPropertyOp41
 70
     1
102
RTVSPropertyOp42
 70
     1
102
RTVSPropertyOp43
 70
     1
102
RTVSPropertyOp44
 70
     1
102
RTVSPropertyOp45
 70
     1
102
RTVSPropertyOp46
 70
     1
102
RTVSPropertyOp47
 70
     1
102
RTVSPropertyOp48
 70
     1
102
RTVSPropertyOp49
 70
     1
102
RTVSPropertyOp50
 70
     1
102
RTVSPropertyOp51
 70
     0
102
RTVSPropertyOp52
 70
     0
102
RTVSPropertyOp53
 70
     1
102
RTVSPropertyOp54
 70
     1
102
RTVSPropertyOp55
 70
     1
102
RTVSPropertyOp56
 70
     1
102
RTVSPropertyOp57
 70
     1
102
RTVSPropertyOp58
 70
     1
102
RTVSPropertyOp59
 70
     1
102
RTVSPropertyOp60
 70
     1
102
RTVSPropertyOp61
 70
     1
102
RTVSPropertyOp62
 70
     1
  0
XRECORD
  5
398
102
{ACAD_REACTORS
330
397
102
}
330
397
100
AcDbXrecord
280
     1
102
RTVSPost2010Prop28
280
     0
102
RTVSPost2010PropOp28
 70
     1
102
RTVSPost2010Prop29
280
     1
102
RTVSPost2010PropOp29
 70
     1
102
RTVSPost2010Prop30
280
     1
102
RTVSPost2010PropOp30
 70
     1
102
RTVSPost2010Prop31
280
     0
102
RTVSPost2010PropOp31
 70
     1
102
RTVSPost2010Prop32
280
     0
102
RTVSPost2010PropOp32
 70
     1
102
RTVSPost2010Prop33
280
     0
102
RTVSPost2010PropOp33
 70
     1
102
RTVSPost2010Prop34
280
     0
102
RTVSPost2010PropOp34
 70
     1
102
RTVSPost2010Prop35
280
     0
102
RTVSPost2010PropOp35
 70
     1
102
RTVSPost2010Prop36
280
     0
102
RTVSPost2010PropOp36
 70
     1
102
RTVSPost2010Prop37
 90
       50
102
RTVSPost2010PropOp37
 70
     1
102
RTVSPost2010Prop38
140
0.0
102
RTVSPost2010PropOp38
 70
     1
102
RTVSPost2010Prop39
140
1.0
102
RTVSPost2010PropOp39
 70
     1
102
RTVSPost2010Prop40
 90
        0
102
RTVSPost2010PropOp40
 70
     1
102
RTVSPost2010Prop41ColorIndex
 90
       18
102
RTVSPost2010Prop41ColorRGB
 90
        0
102
RTVSPost2010PropOp41
 70
     1
102
RTVSPost2010Prop42
 90
       50
102
RTVSPost2010PropOp42
 70
     1
102
RTVSPost2010Prop43
 90
        3
102
RTVSPost2010PropOp43
 70
     1
102
RTVSPost2010Prop44ColorIndex
 90
        5
102
RTVSPost2010Prop44ColorRGB
 90
      255
102
RTVSPost2010PropOp44
 70
     1
102
RTVSPost2010Prop45
280
     0
102
RTVSPost2010PropOp45
 70
     1
102
RTVSPost2010Prop46
 90
       50
102
RTVSPost2010PropOp46
 70
     1
102
RTVSPost2010Prop47
 90
       50
102
RTVSPost2010PropOp47
 70
     1
102
RTVSPost2010Prop48
 90
       50
102
RTVSPost2010PropOp48
 70
     1
102
RTVSPost2010Prop49
280
     0
102
RTVSPost2010PropOp49
 70
     1
102
RTVSPost2010Prop50
 90
       50
102
RTVSPost2010PropOp50
 70
     1
102
RTVSPost2010Prop51ColorIndex
 90
      256
102
RTVSPost2010Prop51ColorRGB
 90
-16777216
102
RTVSPost2010PropOp51
 70
     0
102
RTVSPost2010Prop52
140
1.0
102
RTVSPost2010PropOp52
 70
     0
102
RTVSPost2010Prop53
 90
        2
102
RTVSPost2010PropOp53
 70
     1
102
RTVSPost2010Prop54
  1
strokes_ogs.tif
102
RTVSPost2010PropOp54
 70
     1
102
RTVSPost2010Prop55
280
     0
102
RTVSPost2010PropOp55
 70
     1
102
RTVSPost2010Prop56
140
1.0
102
RTVSPost2010PropOp56
 70
     1
102
RTVSPost2010Prop57
140
1.0
102
RTVSPost2010PropOp57
 70
     1
102
RTVSPropertyOp0
 70
     1
102
RTVSPropertyOp1
 70
     1
102
RTVSPropertyOp2
 70
     1
102
RTVSPropertyOp3
 70
     1
102
RTVSPropertyOp4
 70
     1
102
RTVSPropertyOp5
 70
     1
102
RTVSPropertyOp6
 70
     1
102
RTVSPropertyOp7
 70
     1
102
RTVSPropertyOp8
 70
     1
102
RTVSPropertyOp9
 70
     1
102
RTVSPropertyOp10
 70
     1
102
RTVSPropertyOp11
 70
     1
102
RTVSPropertyOp12
 70
     1
102
RTVSPropertyOp13
 70
     1
102
RTVSPropertyOp14
 70
     1
102
RTVSPropertyOp15
 70
     1
102
RTVSPropertyOp16
 70
     1
102
RTVSPropertyOp17
 70
     1
102
RTVSPropertyOp18
 70
     1
102
RTVSPropertyOp19
 70
     1
102
RTVSPropertyOp20
 70
     1
102
RTVSPropertyOp21
 70
     1
102
RTVSPropertyOp22
 70
     1
102
RTVSPropertyOp23
 70
     1
102
RTVSPropertyOp24
 70
     1
102
RTVSPropertyOp25
 70
     1
102
RTVSPropertyOp26
 70
     1
102
RTVSPropertyOp27
 70
     1
102
RTVSPropertyOp28
 70
     1
102
RTVSPropertyOp29
 70
     1
102
RTVSPropertyOp30
 70
     1
102
RTVSPropertyOp31
 70
     1
102
RTVSPropertyOp32
 70
     1
102
RTVSPropertyOp33
 70
     1
102
RTVSPropertyOp34
 70
     1
102
RTVSPropertyOp35
 70
     1
102
RTVSPropertyOp36
 70
     1
102
RTVSPropertyOp37
 70
     1
102
RTVSPropertyOp38
 70
     1
102
RTVSPropertyOp39
 70
     1
102
RTVSPropertyOp40
 70
     1
102
RTVSPropertyOp41
 70
     1
102
RTVSPropertyOp42
 70
     1
102
RTVSPropertyOp43
 70
     1
102
RTVSPropertyOp44
 70
     1
102
RTVSPropertyOp45
 70
     1
102
RTVSPropertyOp46
 70
     1
102
RTVSPropertyOp47
 70
     1
102
RTVSPropertyOp48
 70
     1
102
RTVSPropertyOp49
 70
     1
102
RTVSPropertyOp50
 70
     1
102
RTVSPropertyOp51
 70
     0
102
RTVSPropertyOp52
 70
     0
102
RTVSPropertyOp53
 70
     1
102
RTVSPropertyOp54
 70
     1
102
RTVSPropertyOp55
 70
     1
102
RTVSPropertyOp56
 70
     1
102
RTVSPropertyOp57
 70
     1
102
RTVSPropertyOp58
 70
     1
102
RTVSPropertyOp59
 70
     1
102
RTVSPropertyOp60
 70
     1
102
RTVSPropertyOp61
 70
     1
102
RTVSPropertyOp62
 70
     1
  0
XRECORD
  5
39A
102
{ACAD_REACTORS
330
399
102
}
330
399
100
AcDbXrecord
280
     1
102
RTVSPost2010Prop28
280
     0
102
RTVSPost2010PropOp28
 70
     1
102
RTVSPost2010Prop29
280
     1
102
RTVSPost2010PropOp29
 70
     1
102
RTVSPost2010Prop30
280
     1
102
RTVSPost2010PropOp30
 70
     1
102
RTVSPost2010Prop31
280
     0
102
RTVSPost2010PropOp31
 70
     1
102
RTVSPost2010Prop32
280
     0
102
RTVSPost2010PropOp32
 70
     1
102
RTVSPost2010Prop33
280
     0
102
RTVSPost2010PropOp33
 70
     1
102
RTVSPost2010Prop34
280
     0
102
RTVSPost2010PropOp34
 70
     1
102
RTVSPost2010Prop35
280
     0
102
RTVSPost2010PropOp35
 70
     1
102
RTVSPost2010Prop36
280
     0
102
RTVSPost2010PropOp36
 70
     1
102
RTVSPost2010Prop37
 90
       50
102
RTVSPost2010PropOp37
 70
     1
102
RTVSPost2010Prop38
140
0.0
102
RTVSPost2010PropOp38
 70
     1
102
RTVSPost2010Prop39
140
1.0
102
RTVSPost2010PropOp39
 70
     1
102
RTVSPost2010Prop40
 90
        0
102
RTVSPost2010PropOp40
 70
     1
102
RTVSPost2010Prop41ColorIndex
 90
       18
102
RTVSPost2010Prop41ColorRGB
 90
        0
102
RTVSPost2010PropOp41
 70
     1
102
RTVSPost2010Prop42
 90
       50
102
RTVSPost2010PropOp42
 70
     1
102
RTVSPost2010Prop43
 90
        3
102
RTVSPost2010PropOp43
 70
     1
102
RTVSPost2010Prop44ColorIndex
 90
        5
102
RTVSPost2010Prop44ColorRGB
 90
      255
102
RTVSPost2010PropOp44
 70
     1
102
RTVSPost2010Prop45
280
     0
102
RTVSPost2010PropOp45
 70
     1
102
RTVSPost2010Prop46
 90
       50
102
RTVSPost2010PropOp46
 70
     1
102
RTVSPost2010Prop47
 90
       50
102
RTVSPost2010PropOp47
 70
     1
102
RTVSPost2010Prop48
 90
       50
102
RTVSPost2010PropOp48
 70
     1
102
RTVSPost2010Prop49
280
     0
102
RTVSPost2010PropOp49
 70
     1
102
RTVSPost2010Prop50
 90
       50
102
RTVSPost2010PropOp50
 70
     1
102
RTVSPost2010Prop51ColorIndex
 90
      256
102
RTVSPost2010Prop51ColorRGB
 90
-16777216
102
RTVSPost2010PropOp51
 70
     0
102
RTVSPost2010Prop52
140
1.0
102
RTVSPost2010PropOp52
 70
     0
102
RTVSPost2010Prop53
 90
        2
102
RTVSPost2010PropOp53
 70
     1
102
RTVSPost2010Prop54
  1
strokes_ogs.tif
102
RTVSPost2010PropOp54
 70
     1
102
RTVSPost2010Prop55
280
     0
102
RTVSPost2010PropOp55
 70
     1
102
RTVSPost2010Prop56
140
1.0
102
RTVSPost2010PropOp56
 70
     1
102
RTVSPost2010Prop57
140
1.0
102
RTVSPost2010PropOp57
 70
     1
102
RTVSPropertyOp0
 70
     1
102
RTVSPropertyOp1
 70
     1
102
RTVSPropertyOp2
 70
     1
102
RTVSPropertyOp3
 70
     1
102
RTVSPropertyOp4
 70
     1
102
RTVSPropertyOp5
 70
     1
102
RTVSPropertyOp6
 70
     1
102
RTVSPropertyOp7
 70
     1
102
RTVSPropertyOp8
 70
     1
102
RTVSPropertyOp9
 70
     1
102
RTVSPropertyOp10
 70
     1
102
RTVSPropertyOp11
 70
     1
102
RTVSPropertyOp12
 70
     1
102
RTVSPropertyOp13
 70
     1
102
RTVSPropertyOp14
 70
     1
102
RTVSPropertyOp15
 70
     1
102
RTVSPropertyOp16
 70
     1
102
RTVSPropertyOp17
 70
     1
102
RTVSPropertyOp18
 70
     1
102
RTVSPropertyOp19
 70
     1
102
RTVSPropertyOp20
 70
     1
102
RTVSPropertyOp21
 70
     1
102
RTVSPropertyOp22
 70
     1
102
RTVSPropertyOp23
 70
     1
102
RTVSPropertyOp24
 70
     1
102
RTVSPropertyOp25
 70
     1
102
RTVSPropertyOp26
 70
     1
102
RTVSPropertyOp27
 70
     1
102
RTVSPropertyOp28
 70
     1
102
RTVSPropertyOp29
 70
     1
102
RTVSPropertyOp30
 70
     1
102
RTVSPropertyOp31
 70
     1
102
RTVSPropertyOp32
 70
     1
102
RTVSPropertyOp33
 70
     1
102
RTVSPropertyOp34
 70
     1
102
RTVSPropertyOp35
 70
     1
102
RTVSPropertyOp36
 70
     1
102
RTVSPropertyOp37
 70
     1
102
RTVSPropertyOp38
 70
     1
102
RTVSPropertyOp39
 70
     1
102
RTVSPropertyOp40
 70
     1
102
RTVSPropertyOp41
 70
     1
102
RTVSPropertyOp42
 70
     1
102
RTVSPropertyOp43
 70
     1
102
RTVSPropertyOp44
 70
     1
102
RTVSPropertyOp45
 70
     1
102
RTVSPropertyOp46
 70
     1
102
RTVSPropertyOp47
 70
     1
102
RTVSPropertyOp48
 70
     1
102
RTVSPropertyOp49
 70
     1
102
RTVSPropertyOp50
 70
     1
102
RTVSPropertyOp51
 70
     0
102
RTVSPropertyOp52
 70
     0
102
RTVSPropertyOp53
 70
     1
102
RTVSPropertyOp54
 70
     1
102
RTVSPropertyOp55
 70
     1
102
RTVSPropertyOp56
 70
     1
102
RTVSPropertyOp57
 70
     1
102
RTVSPropertyOp58
 70
     1
102
RTVSPropertyOp59
 70
     1
102
RTVSPropertyOp60
 70
     1
102
RTVSPropertyOp61
 70
     1
102
RTVSPropertyOp62
 70
     1
  0
XRECORD
  5
3A0
102
{ACAD_REACTORS
330
39F
102
}
330
39F
100
AcDbXrecord
280
     1
102
RTVSPost2010Prop28
280
     0
102
RTVSPost2010PropOp28
 70
     1
102
RTVSPost2010Prop29
280
     1
102
RTVSPost2010PropOp29
 70
     1
102
RTVSPost2010Prop30
280
     1
102
RTVSPost2010PropOp30
 70
     1
102
RTVSPost2010Prop31
280
     0
102
RTVSPost2010PropOp31
 70
     1
102
RTVSPost2010Prop32
280
     0
102
RTVSPost2010PropOp32
 70
     1
102
RTVSPost2010Prop33
280
     0
102
RTVSPost2010PropOp33
 70
     1
102
RTVSPost2010Prop34
280
     0
102
RTVSPost2010PropOp34
 70
     1
102
RTVSPost2010Prop35
280
     0
102
RTVSPost2010PropOp35
 70
     1
102
RTVSPost2010Prop36
280
     0
102
RTVSPost2010PropOp36
 70
     1
102
RTVSPost2010Prop37
 90
       50
102
RTVSPost2010PropOp37
 70
     1
102
RTVSPost2010Prop38
140
0.0
102
RTVSPost2010PropOp38
 70
     1
102
RTVSPost2010Prop39
140
1.0
102
RTVSPost2010PropOp39
 70
     1
102
RTVSPost2010Prop40
 90
        0
102
RTVSPost2010PropOp40
 70
     1
102
RTVSPost2010Prop41ColorIndex
 90
       18
102
RTVSPost2010Prop41ColorRGB
 90
        0
102
RTVSPost2010PropOp41
 70
     1
102
RTVSPost2010Prop42
 90
       50
102
RTVSPost2010PropOp42
 70
     1
102
RTVSPost2010Prop43
 90
        3
102
RTVSPost2010PropOp43
 70
     1
102
RTVSPost2010Prop44ColorIndex
 90
        5
102
RTVSPost2010Prop44ColorRGB
 90
      255
102
RTVSPost2010PropOp44
 70
     1
102
RTVSPost2010Prop45
280
     0
102
RTVSPost2010PropOp45
 70
     1
102
RTVSPost2010Prop46
 90
       50
102
RTVSPost2010PropOp46
 70
     1
102
RTVSPost2010Prop47
 90
       50
102
RTVSPost2010PropOp47
 70
     1
102
RTVSPost2010Prop48
 90
       50
102
RTVSPost2010PropOp48
 70
     1
102
RTVSPost2010Prop49
280
     0
102
RTVSPost2010PropOp49
 70
     1
102
RTVSPost2010Prop50
 90
       50
102
RTVSPost2010PropOp50
 70
     1
102
RTVSPost2010Prop51ColorIndex
 90
      256
102
RTVSPost2010Prop51ColorRGB
 90
-16777216
102
RTVSPost2010PropOp51
 70
     0
102
RTVSPost2010Prop52
140
1.0
102
RTVSPost2010PropOp52
 70
     0
102
RTVSPost2010Prop53
 90
        2
102
RTVSPost2010PropOp53
 70
     1
102
RTVSPost2010Prop54
  1
strokes_ogs.tif
102
RTVSPost2010PropOp54
 70
     1
102
RTVSPost2010Prop55
280
     0
102
RTVSPost2010PropOp55
 70
     1
102
RTVSPost2010Prop56
140
1.0
102
RTVSPost2010PropOp56
 70
     1
102
RTVSPost2010Prop57
140
1.0
102
RTVSPost2010PropOp57
 70
     1
102
RTVSPropertyOp0
 70
     1
102
RTVSPropertyOp1
 70
     1
102
RTVSPropertyOp2
 70
     1
102
RTVSPropertyOp3
 70
     1
102
RTVSPropertyOp4
 70
     1
102
RTVSPropertyOp5
 70
     1
102
RTVSPropertyOp6
 70
     1
102
RTVSPropertyOp7
 70
     1
102
RTVSPropertyOp8
 70
     1
102
RTVSPropertyOp9
 70
     1
102
RTVSPropertyOp10
 70
     1
102
RTVSPropertyOp11
 70
     1
102
RTVSPropertyOp12
 70
     1
102
RTVSPropertyOp13
 70
     1
102
RTVSPropertyOp14
 70
     1
102
RTVSPropertyOp15
 70
     1
102
RTVSPropertyOp16
 70
     1
102
RTVSPropertyOp17
 70
     1
102
RTVSPropertyOp18
 70
     1
102
RTVSPropertyOp19
 70
     1
102
RTVSPropertyOp20
 70
     1
102
RTVSPropertyOp21
 70
     1
102
RTVSPropertyOp22
 70
     1
102
RTVSPropertyOp23
 70
     1
102
RTVSPropertyOp24
 70
     1
102
RTVSPropertyOp25
 70
     1
102
RTVSPropertyOp26
 70
     1
102
RTVSPropertyOp27
 70
     1
102
RTVSPropertyOp28
 70
     1
102
RTVSPropertyOp29
 70
     1
102
RTVSPropertyOp30
 70
     1
102
RTVSPropertyOp31
 70
     1
102
RTVSPropertyOp32
 70
     1
102
RTVSPropertyOp33
 70
     1
102
RTVSPropertyOp34
 70
     1
102
RTVSPropertyOp35
 70
     1
102
RTVSPropertyOp36
 70
     1
102
RTVSPropertyOp37
 70
     1
102
RTVSPropertyOp38
 70
     1
102
RTVSPropertyOp39
 70
     1
102
RTVSPropertyOp40
 70
     1
102
RTVSPropertyOp41
 70
     1
102
RTVSPropertyOp42
 70
     1
102
RTVSPropertyOp43
 70
     1
102
RTVSPropertyOp44
 70
     1
102
RTVSPropertyOp45
 70
     1
102
RTVSPropertyOp46
 70
     1
102
RTVSPropertyOp47
 70
     1
102
RTVSPropertyOp48
 70
     1
102
RTVSPropertyOp49
 70
     1
102
RTVSPropertyOp50
 70
     1
102
RTVSPropertyOp51
 70
     0
102
RTVSPropertyOp52
 70
     0
102
RTVSPropertyOp53
 70
     1
102
RTVSPropertyOp54
 70
     1
102
RTVSPropertyOp55
 70
     1
102
RTVSPropertyOp56
 70
     1
102
RTVSPropertyOp57
 70
     1
102
RTVSPropertyOp58
 70
     1
102
RTVSPropertyOp59
 70
     1
102
RTVSPropertyOp60
 70
     1
102
RTVSPropertyOp61
 70
     1
102
RTVSPropertyOp62
 70
     1
  0
XRECORD
  5
3B4
102
{ACAD_REACTORS
330
3B3
102
}
330
3B3
100
AcDbXrecord
280
     1
102
RTVSPost2010Prop28
280
     0
102
RTVSPost2010PropOp28
 70
     0
102
RTVSPost2010Prop29
280
     1
102
RTVSPost2010PropOp29
 70
     0
102
RTVSPost2010Prop30
280
     1
102
RTVSPost2010PropOp30
 70
     0
102
RTVSPost2010Prop31
280
     0
102
RTVSPost2010PropOp31
 70
     0
102
RTVSPost2010Prop32
280
     0
102
RTVSPost2010PropOp32
 70
     0
102
RTVSPost2010Prop33
280
     0
102
RTVSPost2010PropOp33
 70
     0
102
RTVSPost2010Prop34
280
     0
102
RTVSPost2010PropOp34
 70
     0
102
RTVSPost2010Prop35
280
     0
102
RTVSPost2010PropOp35
 70
     0
102
RTVSPost2010Prop36
280
     0
102
RTVSPost2010PropOp36
 70
     0
102
RTVSPost2010Prop37
 90
       50
102
RTVSPost2010PropOp37
 70
     0
102
RTVSPost2010Prop38
140
0.0
102
RTVSPost2010PropOp38
 70
     0
102
RTVSPost2010Prop39
140
1.0
102
RTVSPost2010PropOp39
 70
     0
102
RTVSPost2010Prop40
 90
        0
102
RTVSPost2010PropOp40
 70
     0
102
RTVSPost2010Prop41ColorIndex
 90
       18
102
RTVSPost2010Prop41ColorRGB
 90
        0
102
RTVSPost2010PropOp41
 70
     0
102
RTVSPost2010Prop42
 90
       50
102
RTVSPost2010PropOp42
 70
     0
102
RTVSPost2010Prop43
 90
        3
102
RTVSPost2010PropOp43
 70
     0
102
RTVSPost2010Prop44ColorIndex
 90
        5
102
RTVSPost2010Prop44ColorRGB
 90
      255
102
RTVSPost2010PropOp44
 70
     0
102
RTVSPost2010Prop45
280
     0
102
RTVSPost2010PropOp45
 70
     0
102
RTVSPost2010Prop46
 90
       50
102
RTVSPost2010PropOp46
 70
     0
102
RTVSPost2010Prop47
 90
       50
102
RTVSPost2010PropOp47
 70
     0
102
RTVSPost2010Prop48
 90
       50
102
RTVSPost2010PropOp48
 70
     0
102
RTVSPost2010Prop49
280
     0
102
RTVSPost2010PropOp49
 70
     0
102
RTVSPost2010Prop50
 90
       50
102
RTVSPost2010PropOp50
 70
     0
102
RTVSPost2010Prop51ColorIndex
 90
      256
102
RTVSPost2010Prop51ColorRGB
 90
-16777216
102
RTVSPost2010PropOp51
 70
     0
102
RTVSPost2010Prop52
140
1.0
102
RTVSPost2010PropOp52
 70
     0
102
RTVSPost2010Prop53
 90
        2
102
RTVSPost2010PropOp53
 70
     0
102
RTVSPost2010Prop54
  1
strokes_ogs.tif
102
RTVSPost2010PropOp54
 70
     0
102
RTVSPost2010Prop55
280
     0
102
RTVSPost2010PropOp55
 70
     0
102
RTVSPost2010Prop56
140
1.0
102
RTVSPost2010PropOp56
 70
     0
102
RTVSPost2010Prop57
140
1.0
102
RTVSPost2010PropOp57
 70
     0
102
RTVSPropertyOp0
 70
     0
102
RTVSPropertyOp1
 70
     0
102
RTVSPropertyOp2
 70
     0
102
RTVSPropertyOp3
 70
     0
102
RTVSPropertyOp4
 70
     0
102
RTVSPropertyOp5
 70
     0
102
RTVSPropertyOp6
 70
     0
102
RTVSPropertyOp7
 70
     0
102
RTVSPropertyOp8
 70
     0
102
RTVSPropertyOp9
 70
     0
102
RTVSPropertyOp10
 70
     0
102
RTVSPropertyOp11
 70
     0
102
RTVSPropertyOp12
 70
     0
102
RTVSPropertyOp13
 70
     0
102
RTVSPropertyOp14
 70
     2
102
RTVSPropertyOp15
 70
     0
102
RTVSPropertyOp16
 70
     0
102
RTVSPropertyOp17
 70
     0
102
RTVSPropertyOp18
 70
     0
102
RTVSPropertyOp19
 70
     0
102
RTVSPropertyOp20
 70
     0
102
RTVSPropertyOp21
 70
     0
102
RTVSPropertyOp22
 70
     0
102
RTVSPropertyOp23
 70
     0
102
RTVSPropertyOp24
 70
     0
102
RTVSPropertyOp25
 70
     0
102
RTVSPropertyOp26
 70
     0
102
RTVSPropertyOp27
 70
     0
102
RTVSPropertyOp28
 70
     0
102
RTVSPropertyOp29
 70
     0
102
RTVSPropertyOp30
 70
     0
102
RTVSPropertyOp31
 70
     0
102
RTVSPropertyOp32
 70
     0
102
RTVSPropertyOp33
 70
     0
102
RTVSPropertyOp34
 70
     0
102
RTVSPropertyOp35
 70
     0
102
RTVSPropertyOp36
 70
     0
102
RTVSPropertyOp37
 70
     0
102
RTVSPropertyOp38
 70
     0
102
RTVSPropertyOp39
 70
     0
102
RTVSPropertyOp40
 70
     0
102
RTVSPropertyOp41
 70
     0
102
RTVSPropertyOp42
 70
     0
102
RTVSPropertyOp43
 70
     0
102
RTVSPropertyOp44
 70
     0
102
RTVSPropertyOp45
 70
     0
102
RTVSPropertyOp46
 70
     0
102
RTVSPropertyOp47
 70
     0
102
RTVSPropertyOp48
 70
     0
102
RTVSPropertyOp49
 70
     0
102
RTVSPropertyOp50
 70
     0
102
RTVSPropertyOp51
 70
     0
102
RTVSPropertyOp52
 70
     0
102
RTVSPropertyOp53
 70
     0
102
RTVSPropertyOp54
 70
     0
102
RTVSPropertyOp55
 70
     0
102
RTVSPropertyOp56
 70
     0
102
RTVSPropertyOp57
 70
     0
102
RTVSPropertyOp58
 70
     1
102
RTVSPropertyOp59
 70
     1
102
RTVSPropertyOp60
 70
     1
102
RTVSPropertyOp61
 70
     1
102
RTVSPropertyOp62
 70
     1
  0
XRECORD
  5
3AE
102
{ACAD_REACTORS
330
3AD
102
}
330
3AD
100
AcDbXrecord
280
     1
102
RTVSPost2010Prop28
280
     0
102
RTVSPost2010PropOp28
 70
     1
102
RTVSPost2010Prop29
280
     1
102
RTVSPost2010PropOp29
 70
     1
102
RTVSPost2010Prop30
280
     1
102
RTVSPost2010PropOp30
 70
     1
102
RTVSPost2010Prop31
280
     0
102
RTVSPost2010PropOp31
 70
     1
102
RTVSPost2010Prop32
280
     0
102
RTVSPost2010PropOp32
 70
     1
102
RTVSPost2010Prop33
280
     0
102
RTVSPost2010PropOp33
 70
     1
102
RTVSPost2010Prop34
280
     0
102
RTVSPost2010PropOp34
 70
     1
102
RTVSPost2010Prop35
280
     0
102
RTVSPost2010PropOp35
 70
     1
102
RTVSPost2010Prop36
280
     0
102
RTVSPost2010PropOp36
 70
     1
102
RTVSPost2010Prop37
 90
       50
102
RTVSPost2010PropOp37
 70
     1
102
RTVSPost2010Prop38
140
0.0
102
RTVSPost2010PropOp38
 70
     1
102
RTVSPost2010Prop39
140
1.0
102
RTVSPost2010PropOp39
 70
     1
102
RTVSPost2010Prop40
 90
        0
102
RTVSPost2010PropOp40
 70
     1
102
RTVSPost2010Prop41ColorIndex
 90
       18
102
RTVSPost2010Prop41ColorRGB
 90
        0
102
RTVSPost2010PropOp41
 70
     1
102
RTVSPost2010Prop42
 90
       50
102
RTVSPost2010PropOp42
 70
     1
102
RTVSPost2010Prop43
 90
        3
102
RTVSPost2010PropOp43
 70
     1
102
RTVSPost2010Prop44ColorIndex
 90
        5
102
RTVSPost2010Prop44ColorRGB
 90
      255
102
RTVSPost2010PropOp44
 70
     1
102
RTVSPost2010Prop45
280
     0
102
RTVSPost2010PropOp45
 70
     1
102
RTVSPost2010Prop46
 90
       50
102
RTVSPost2010PropOp46
 70
     1
102
RTVSPost2010Prop47
 90
       50
102
RTVSPost2010PropOp47
 70
     1
102
RTVSPost2010Prop48
 90
       50
102
RTVSPost2010PropOp48
 70
     1
102
RTVSPost2010Prop49
280
     0
102
RTVSPost2010PropOp49
 70
     1
102
RTVSPost2010Prop50
 90
       50
102
RTVSPost2010PropOp50
 70
     1
102
RTVSPost2010Prop51ColorIndex
 90
      256
102
RTVSPost2010Prop51ColorRGB
 90
-16777216
102
RTVSPost2010PropOp51
 70
     0
102
RTVSPost2010Prop52
140
1.0
102
RTVSPost2010PropOp52
 70
     0
102
RTVSPost2010Prop53
 90
        2
102
RTVSPost2010PropOp53
 70
     1
102
RTVSPost2010Prop54
  1
strokes_ogs.tif
102
RTVSPost2010PropOp54
 70
     1
102
RTVSPost2010Prop55
280
     0
102
RTVSPost2010PropOp55
 70
     1
102
RTVSPost2010Prop56
140
1.0
102
RTVSPost2010PropOp56
 70
     1
102
RTVSPost2010Prop57
140
1.0
102
RTVSPost2010PropOp57
 70
     1
102
RTVSPropertyOp0
 70
     1
102
RTVSPropertyOp1
 70
     1
102
RTVSPropertyOp2
 70
     1
102
RTVSPropertyOp3
 70
     1
102
RTVSPropertyOp4
 70
     1
102
RTVSPropertyOp5
 70
     1
102
RTVSPropertyOp6
 70
     1
102
RTVSPropertyOp7
 70
     1
102
RTVSPropertyOp8
 70
     1
102
RTVSPropertyOp9
 70
     1
102
RTVSPropertyOp10
 70
     1
102
RTVSPropertyOp11
 70
     1
102
RTVSPropertyOp12
 70
     1
102
RTVSPropertyOp13
 70
     1
102
RTVSPropertyOp14
 70
     1
102
RTVSPropertyOp15
 70
     1
102
RTVSPropertyOp16
 70
     1
102
RTVSPropertyOp17
 70
     1
102
RTVSPropertyOp18
 70
     1
102
RTVSPropertyOp19
 70
     1
102
RTVSPropertyOp20
 70
     1
102
RTVSPropertyOp21
 70
     1
102
RTVSPropertyOp22
 70
     1
102
RTVSPropertyOp23
 70
     1
102
RTVSPropertyOp24
 70
     1
102
RTVSPropertyOp25
 70
     1
102
RTVSPropertyOp26
 70
     1
102
RTVSPropertyOp27
 70
     1
102
RTVSPropertyOp28
 70
     1
102
RTVSPropertyOp29
 70
     1
102
RTVSPropertyOp30
 70
     1
102
RTVSPropertyOp31
 70
     1
102
RTVSPropertyOp32
 70
     1
102
RTVSPropertyOp33
 70
     1
102
RTVSPropertyOp34
 70
     1
102
RTVSPropertyOp35
 70
     1
102
RTVSPropertyOp36
 70
     1
102
RTVSPropertyOp37
 70
     1
102
RTVSPropertyOp38
 70
     1
102
RTVSPropertyOp39
 70
     1
102
RTVSPropertyOp40
 70
     1
102
RTVSPropertyOp41
 70
     1
102
RTVSPropertyOp42
 70
     1
102
RTVSPropertyOp43
 70
     1
102
RTVSPropertyOp44
 70
     1
102
RTVSPropertyOp45
 70
     1
102
RTVSPropertyOp46
 70
     1
102
RTVSPropertyOp47
 70
     1
102
RTVSPropertyOp48
 70
     1
102
RTVSPropertyOp49
 70
     1
102
RTVSPropertyOp50
 70
     1
102
RTVSPropertyOp51
 70
     0
102
RTVSPropertyOp52
 70
     0
102
RTVSPropertyOp53
 70
     1
102
RTVSPropertyOp54
 70
     1
102
RTVSPropertyOp55
 70
     1
102
RTVSPropertyOp56
 70
     1
102
RTVSPropertyOp57
 70
     1
102
RTVSPropertyOp58
 70
     1
102
RTVSPropertyOp59
 70
     1
102
RTVSPropertyOp60
 70
     1
102
RTVSPropertyOp61
 70
     1
102
RTVSPropertyOp62
 70
     1
  0
XRECORD
  5
3B6
102
{ACAD_REACTORS
330
3B5
102
}
330
3B5
100
AcDbXrecord
280
     1
102
RTVSPost2010Prop28
280
     0
102
RTVSPost2010PropOp28
 70
     0
102
RTVSPost2010Prop29
280
     1
102
RTVSPost2010PropOp29
 70
     0
102
RTVSPost2010Prop30
280
     1
102
RTVSPost2010PropOp30
 70
     0
102
RTVSPost2010Prop31
280
     0
102
RTVSPost2010PropOp31
 70
     0
102
RTVSPost2010Prop32
280
     0
102
RTVSPost2010PropOp32
 70
     0
102
RTVSPost2010Prop33
280
     0
102
RTVSPost2010PropOp33
 70
     0
102
RTVSPost2010Prop34
280
     0
102
RTVSPost2010PropOp34
 70
     0
102
RTVSPost2010Prop35
280
     0
102
RTVSPost2010PropOp35
 70
     0
102
RTVSPost2010Prop36
280
     0
102
RTVSPost2010PropOp36
 70
     0
102
RTVSPost2010Prop37
 90
       50
102
RTVSPost2010PropOp37
 70
     0
102
RTVSPost2010Prop38
140
0.0
102
RTVSPost2010PropOp38
 70
     0
102
RTVSPost2010Prop39
140
1.0
102
RTVSPost2010PropOp39
 70
     0
102
RTVSPost2010Prop40
 90
        0
102
RTVSPost2010PropOp40
 70
     0
102
RTVSPost2010Prop41ColorIndex
 90
       18
102
RTVSPost2010Prop41ColorRGB
 90
        0
102
RTVSPost2010PropOp41
 70
     0
102
RTVSPost2010Prop42
 90
       50
102
RTVSPost2010PropOp42
 70
     0
102
RTVSPost2010Prop43
 90
        3
102
RTVSPost2010PropOp43
 70
     0
102
RTVSPost2010Prop44ColorIndex
 90
        5
102
RTVSPost2010Prop44ColorRGB
 90
      255
102
RTVSPost2010PropOp44
 70
     0
102
RTVSPost2010Prop45
280
     0
102
RTVSPost2010PropOp45
 70
     0
102
RTVSPost2010Prop46
 90
       50
102
RTVSPost2010PropOp46
 70
     0
102
RTVSPost2010Prop47
 90
       50
102
RTVSPost2010PropOp47
 70
     0
102
RTVSPost2010Prop48
 90
       50
102
RTVSPost2010PropOp48
 70
     0
102
RTVSPost2010Prop49
280
     0
102
RTVSPost2010PropOp49
 70
     0
102
RTVSPost2010Prop50
 90
       50
102
RTVSPost2010PropOp50
 70
     0
102
RTVSPost2010Prop51ColorIndex
 90
      256
102
RTVSPost2010Prop51ColorRGB
 90
-16777216
102
RTVSPost2010PropOp51
 70
     0
102
RTVSPost2010Prop52
140
1.0
102
RTVSPost2010PropOp52
 70
     0
102
RTVSPost2010Prop53
 90
        2
102
RTVSPost2010PropOp53
 70
     0
102
RTVSPost2010Prop54
  1
strokes_ogs.tif
102
RTVSPost2010PropOp54
 70
     0
102
RTVSPost2010Prop55
280
     0
102
RTVSPost2010PropOp55
 70
     0
102
RTVSPost2010Prop56
140
1.0
102
RTVSPost2010PropOp56
 70
     0
102
RTVSPost2010Prop57
140
1.0
102
RTVSPost2010PropOp57
 70
     0
102
RTVSPropertyOp0
 70
     0
102
RTVSPropertyOp1
 70
     0
102
RTVSPropertyOp2
 70
     0
102
RTVSPropertyOp3
 70
     0
102
RTVSPropertyOp4
 70
     0
102
RTVSPropertyOp5
 70
     0
102
RTVSPropertyOp6
 70
     0
102
RTVSPropertyOp7
 70
     0
102
RTVSPropertyOp8
 70
     0
102
RTVSPropertyOp9
 70
     0
102
RTVSPropertyOp10
 70
     0
102
RTVSPropertyOp11
 70
     0
102
RTVSPropertyOp12
 70
     0
102
RTVSPropertyOp13
 70
     0
102
RTVSPropertyOp14
 70
     2
102
RTVSPropertyOp15
 70
     0
102
RTVSPropertyOp16
 70
     0
102
RTVSPropertyOp17
 70
     0
102
RTVSPropertyOp18
 70
     0
102
RTVSPropertyOp19
 70
     0
102
RTVSPropertyOp20
 70
     0
102
RTVSPropertyOp21
 70
     0
102
RTVSPropertyOp22
 70
     0
102
RTVSPropertyOp23
 70
     0
102
RTVSPropertyOp24
 70
     0
102
RTVSPropertyOp25
 70
     0
102
RTVSPropertyOp26
 70
     0
102
RTVSPropertyOp27
 70
     0
102
RTVSPropertyOp28
 70
     0
102
RTVSPropertyOp29
 70
     0
102
RTVSPropertyOp30
 70
     0
102
RTVSPropertyOp31
 70
     0
102
RTVSPropertyOp32
 70
     0
102
RTVSPropertyOp33
 70
     0
102
RTVSPropertyOp34
 70
     0
102
RTVSPropertyOp35
 70
     0
102
RTVSPropertyOp36
 70
     0
102
RTVSPropertyOp37
 70
     0
102
RTVSPropertyOp38
 70
     0
102
RTVSPropertyOp39
 70
     0
102
RTVSPropertyOp40
 70
     0
102
RTVSPropertyOp41
 70
     0
102
RTVSPropertyOp42
 70
     0
102
RTVSPropertyOp43
 70
     0
102
RTVSPropertyOp44
 70
     0
102
RTVSPropertyOp45
 70
     0
102
RTVSPropertyOp46
 70
     0
102
RTVSPropertyOp47
 70
     0
102
RTVSPropertyOp48
 70
     0
102
RTVSPropertyOp49
 70
     0
102
RTVSPropertyOp50
 70
     0
102
RTVSPropertyOp51
 70
     0
102
RTVSPropertyOp52
 70
     0
102
RTVSPropertyOp53
 70
     0
102
RTVSPropertyOp54
 70
     0
102
RTVSPropertyOp55
 70
     0
102
RTVSPropertyOp56
 70
     0
102
RTVSPropertyOp57
 70
     0
102
RTVSPropertyOp58
 70
     1
102
RTVSPropertyOp59
 70
     1
102
RTVSPropertyOp60
 70
     1
102
RTVSPropertyOp61
 70
     1
102
RTVSPropertyOp62
 70
     1
  0
XRECORD
  5
3A4
102
{ACAD_REACTORS
330
3A3
102
}
330
3A3
100
AcDbXrecord
280
     1
102
RTVSPost2010Prop28
280
     0
102
RTVSPost2010PropOp28
 70
     1
102
RTVSPost2010Prop29
280
     1
102
RTVSPost2010PropOp29
 70
     1
102
RTVSPost2010Prop30
280
     1
102
RTVSPost2010PropOp30
 70
     1
102
RTVSPost2010Prop31
280
     0
102
RTVSPost2010PropOp31
 70
     1
102
RTVSPost2010Prop32
280
     0
102
RTVSPost2010PropOp32
 70
     1
102
RTVSPost2010Prop33
280
     0
102
RTVSPost2010PropOp33
 70
     1
102
RTVSPost2010Prop34
280
     0
102
RTVSPost2010PropOp34
 70
     1
102
RTVSPost2010Prop35
280
     0
102
RTVSPost2010PropOp35
 70
     1
102
RTVSPost2010Prop36
280
     0
102
RTVSPost2010PropOp36
 70
     1
102
RTVSPost2010Prop37
 90
       50
102
RTVSPost2010PropOp37
 70
     1
102
RTVSPost2010Prop38
140
0.0
102
RTVSPost2010PropOp38
 70
     1
102
RTVSPost2010Prop39
140
1.0
102
RTVSPost2010PropOp39
 70
     1
102
RTVSPost2010Prop40
 90
        0
102
RTVSPost2010PropOp40
 70
     1
102
RTVSPost2010Prop41ColorIndex
 90
       18
102
RTVSPost2010Prop41ColorRGB
 90
        0
102
RTVSPost2010PropOp41
 70
     1
102
RTVSPost2010Prop42
 90
       50
102
RTVSPost2010PropOp42
 70
     1
102
RTVSPost2010Prop43
 90
        3
102
RTVSPost2010PropOp43
 70
     1
102
RTVSPost2010Prop44ColorIndex
 90
        5
102
RTVSPost2010Prop44ColorRGB
 90
      255
102
RTVSPost2010PropOp44
 70
     1
102
RTVSPost2010Prop45
280
     0
102
RTVSPost2010PropOp45
 70
     1
102
RTVSPost2010Prop46
 90
       50
102
RTVSPost2010PropOp46
 70
     1
102
RTVSPost2010Prop47
 90
       50
102
RTVSPost2010PropOp47
 70
     1
102
RTVSPost2010Prop48
 90
       50
102
RTVSPost2010PropOp48
 70
     1
102
RTVSPost2010Prop49
280
     0
102
RTVSPost2010PropOp49
 70
     1
102
RTVSPost2010Prop50
 90
       50
102
RTVSPost2010PropOp50
 70
     1
102
RTVSPost2010Prop51ColorIndex
 90
      256
102
RTVSPost2010Prop51ColorRGB
 90
-16777216
102
RTVSPost2010PropOp51
 70
     0
102
RTVSPost2010Prop52
140
1.0
102
RTVSPost2010PropOp52
 70
     0
102
RTVSPost2010Prop53
 90
        2
102
RTVSPost2010PropOp53
 70
     1
102
RTVSPost2010Prop54
  1
strokes_ogs.tif
102
RTVSPost2010PropOp54
 70
     1
102
RTVSPost2010Prop55
280
     0
102
RTVSPost2010PropOp55
 70
     1
102
RTVSPost2010Prop56
140
1.0
102
RTVSPost2010PropOp56
 70
     1
102
RTVSPost2010Prop57
140
1.0
102
RTVSPost2010PropOp57
 70
     1
102
RTVSPropertyOp0
 70
     1
102
RTVSPropertyOp1
 70
     1
102
RTVSPropertyOp2
 70
     1
102
RTVSPropertyOp3
 70
     1
102
RTVSPropertyOp4
 70
     1
102
RTVSPropertyOp5
 70
     1
102
RTVSPropertyOp6
 70
     1
102
RTVSPropertyOp7
 70
     1
102
RTVSPropertyOp8
 70
     1
102
RTVSPropertyOp9
 70
     1
102
RTVSPropertyOp10
 70
     1
102
RTVSPropertyOp11
 70
     1
102
RTVSPropertyOp12
 70
     1
102
RTVSPropertyOp13
 70
     1
102
RTVSPropertyOp14
 70
     1
102
RTVSPropertyOp15
 70
     1
102
RTVSPropertyOp16
 70
     1
102
RTVSPropertyOp17
 70
     1
102
RTVSPropertyOp18
 70
     1
102
RTVSPropertyOp19
 70
     1
102
RTVSPropertyOp20
 70
     1
102
RTVSPropertyOp21
 70
     1
102
RTVSPropertyOp22
 70
     1
102
RTVSPropertyOp23
 70
     1
102
RTVSPropertyOp24
 70
     1
102
RTVSPropertyOp25
 70
     1
102
RTVSPropertyOp26
 70
     1
102
RTVSPropertyOp27
 70
     1
102
RTVSPropertyOp28
 70
     1
102
RTVSPropertyOp29
 70
     1
102
RTVSPropertyOp30
 70
     1
102
RTVSPropertyOp31
 70
     1
102
RTVSPropertyOp32
 70
     1
102
RTVSPropertyOp33
 70
     1
102
RTVSPropertyOp34
 70
     1
102
RTVSPropertyOp35
 70
     1
102
RTVSPropertyOp36
 70
     1
102
RTVSPropertyOp37
 70
     1
102
RTVSPropertyOp38
 70
     1
102
RTVSPropertyOp39
 70
     1
102
RTVSPropertyOp40
 70
     1
102
RTVSPropertyOp41
 70
     1
102
RTVSPropertyOp42
 70
     1
102
RTVSPropertyOp43
 70
     1
102
RTVSPropertyOp44
 70
     1
102
RTVSPropertyOp45
 70
     1
102
RTVSPropertyOp46
 70
     1
102
RTVSPropertyOp47
 70
     1
102
RTVSPropertyOp48
 70
     1
102
RTVSPropertyOp49
 70
     1
102
RTVSPropertyOp50
 70
     1
102
RTVSPropertyOp51
 70
     0
102
RTVSPropertyOp52
 70
     0
102
RTVSPropertyOp53
 70
     1
102
RTVSPropertyOp54
 70
     1
102
RTVSPropertyOp55
 70
     1
102
RTVSPropertyOp56
 70
     1
102
RTVSPropertyOp57
 70
     1
102
RTVSPropertyOp58
 70
     1
102
RTVSPropertyOp59
 70
     1
102
RTVSPropertyOp60
 70
     1
102
RTVSPropertyOp61
 70
     1
102
RTVSPropertyOp62
 70
     1
  0
XRECORD
  5
3C2
102
{ACAD_REACTORS
330
3C1
102
}
330
3C1
100
AcDbXrecord
280
     1
102
RTVSPost2010Prop28
280
     0
102
RTVSPost2010PropOp28
 70
     1
102
RTVSPost2010Prop29
280
     1
102
RTVSPost2010PropOp29
 70
     1
102
RTVSPost2010Prop30
280
     1
102
RTVSPost2010PropOp30
 70
     1
102
RTVSPost2010Prop31
280
     0
102
RTVSPost2010PropOp31
 70
     1
102
RTVSPost2010Prop32
280
     0
102
RTVSPost2010PropOp32
 70
     1
102
RTVSPost2010Prop33
280
     0
102
RTVSPost2010PropOp33
 70
     1
102
RTVSPost2010Prop34
280
     0
102
RTVSPost2010PropOp34
 70
     1
102
RTVSPost2010Prop35
280
     0
102
RTVSPost2010PropOp35
 70
     1
102
RTVSPost2010Prop36
280
     0
102
RTVSPost2010PropOp36
 70
     1
102
RTVSPost2010Prop37
 90
       50
102
RTVSPost2010PropOp37
 70
     1
102
RTVSPost2010Prop38
140
0.0
102
RTVSPost2010PropOp38
 70
     1
102
RTVSPost2010Prop39
140
1.0
102
RTVSPost2010PropOp39
 70
     1
102
RTVSPost2010Prop40
 90
        0
102
RTVSPost2010PropOp40
 70
     1
102
RTVSPost2010Prop41ColorIndex
 90
       18
102
RTVSPost2010Prop41ColorRGB
 90
        0
102
RTVSPost2010PropOp41
 70
     1
102
RTVSPost2010Prop42
 90
       50
102
RTVSPost2010PropOp42
 70
     1
102
RTVSPost2010Prop43
 90
        3
102
RTVSPost2010PropOp43
 70
     1
102
RTVSPost2010Prop44ColorIndex
 90
        5
102
RTVSPost2010Prop44ColorRGB
 90
      255
102
RTVSPost2010PropOp44
 70
     1
102
RTVSPost2010Prop45
280
     0
102
RTVSPost2010PropOp45
 70
     1
102
RTVSPost2010Prop46
 90
       50
102
RTVSPost2010PropOp46
 70
     1
102
RTVSPost2010Prop47
 90
       50
102
RTVSPost2010PropOp47
 70
     1
102
RTVSPost2010Prop48
 90
       50
102
RTVSPost2010PropOp48
 70
     1
102
RTVSPost2010Prop49
280
     0
102
RTVSPost2010PropOp49
 70
     1
102
RTVSPost2010Prop50
 90
       50
102
RTVSPost2010PropOp50
 70
     1
102
RTVSPost2010Prop51ColorIndex
 90
      256
102
RTVSPost2010Prop51ColorRGB
 90
-16777216
102
RTVSPost2010PropOp51
 70
     0
102
RTVSPost2010Prop52
140
1.0
102
RTVSPost2010PropOp52
 70
     0
102
RTVSPost2010Prop53
 90
        2
102
RTVSPost2010PropOp53
 70
     1
102
RTVSPost2010Prop54
  1
strokes_ogs.tif
102
RTVSPost2010PropOp54
 70
     1
102
RTVSPost2010Prop55
280
     0
102
RTVSPost2010PropOp55
 70
     1
102
RTVSPost2010Prop56
140
1.0
102
RTVSPost2010PropOp56
 70
     1
102
RTVSPost2010Prop57
140
1.0
102
RTVSPost2010PropOp57
 70
     1
102
RTVSPropertyOp0
 70
     1
102
RTVSPropertyOp1
 70
     1
102
RTVSPropertyOp2
 70
     1
102
RTVSPropertyOp3
 70
     1
102
RTVSPropertyOp4
 70
     1
102
RTVSPropertyOp5
 70
     1
102
RTVSPropertyOp6
 70
     1
102
RTVSPropertyOp7
 70
     1
102
RTVSPropertyOp8
 70
     1
102
RTVSPropertyOp9
 70
     1
102
RTVSPropertyOp10
 70
     1
102
RTVSPropertyOp11
 70
     1
102
RTVSPropertyOp12
 70
     1
102
RTVSPropertyOp13
 70
     1
102
RTVSPropertyOp14
 70
     1
102
RTVSPropertyOp15
 70
     1
102
RTVSPropertyOp16
 70
     1
102
RTVSPropertyOp17
 70
     1
102
RTVSPropertyOp18
 70
     1
102
RTVSPropertyOp19
 70
     1
102
RTVSPropertyOp20
 70
     1
102
RTVSPropertyOp21
 70
     1
102
RTVSPropertyOp22
 70
     1
102
RTVSPropertyOp23
 70
     1
102
RTVSPropertyOp24
 70
     1
102
RTVSPropertyOp25
 70
     1
102
RTVSPropertyOp26
 70
     1
102
RTVSPropertyOp27
 70
     1
102
RTVSPropertyOp28
 70
     1
102
RTVSPropertyOp29
 70
     1
102
RTVSPropertyOp30
 70
     1
102
RTVSPropertyOp31
 70
     1
102
RTVSPropertyOp32
 70
     1
102
RTVSPropertyOp33
 70
     1
102
RTVSPropertyOp34
 70
     1
102
RTVSPropertyOp35
 70
     1
102
RTVSPropertyOp36
 70
     1
102
RTVSPropertyOp37
 70
     1
102
RTVSPropertyOp38
 70
     1
102
RTVSPropertyOp39
 70
     1
102
RTVSPropertyOp40
 70
     1
102
RTVSPropertyOp41
 70
     1
102
RTVSPropertyOp42
 70
     1
102
RTVSPropertyOp43
 70
     1
102
RTVSPropertyOp44
 70
     1
102
RTVSPropertyOp45
 70
     1
102
RTVSPropertyOp46
 70
     1
102
RTVSPropertyOp47
 70
     1
102
RTVSPropertyOp48
 70
     1
102
RTVSPropertyOp49
 70
     1
102
RTVSPropertyOp50
 70
     1
102
RTVSPropertyOp51
 70
     0
102
RTVSPropertyOp52
 70
     0
102
RTVSPropertyOp53
 70
     1
102
RTVSPropertyOp54
 70
     1
102
RTVSPropertyOp55
 70
     1
102
RTVSPropertyOp56
 70
     1
102
RTVSPropertyOp57
 70
     1
102
RTVSPropertyOp58
 70
     1
102
RTVSPropertyOp59
 70
     1
102
RTVSPropertyOp60
 70
     1
102
RTVSPropertyOp61
 70
     1
102
RTVSPropertyOp62
 70
     1
  0
XRECORD
  5
3C0
102
{ACAD_REACTORS
330
3BF
102
}
330
3BF
100
AcDbXrecord
280
     1
102
RTVSPost2010Prop28
280
     0
102
RTVSPost2010PropOp28
 70
     1
102
RTVSPost2010Prop29
280
     1
102
RTVSPost2010PropOp29
 70
     1
102
RTVSPost2010Prop30
280
     1
102
RTVSPost2010PropOp30
 70
     1
102
RTVSPost2010Prop31
280
     0
102
RTVSPost2010PropOp31
 70
     1
102
RTVSPost2010Prop32
280
     0
102
RTVSPost2010PropOp32
 70
     1
102
RTVSPost2010Prop33
280
     0
102
RTVSPost2010PropOp33
 70
     1
102
RTVSPost2010Prop34
280
     0
102
RTVSPost2010PropOp34
 70
     1
102
RTVSPost2010Prop35
280
     0
102
RTVSPost2010PropOp35
 70
     1
102
RTVSPost2010Prop36
280
     0
102
RTVSPost2010PropOp36
 70
     1
102
RTVSPost2010Prop37
 90
       50
102
RTVSPost2010PropOp37
 70
     1
102
RTVSPost2010Prop38
140
0.0
102
RTVSPost2010PropOp38
 70
     1
102
RTVSPost2010Prop39
140
1.0
102
RTVSPost2010PropOp39
 70
     1
102
RTVSPost2010Prop40
 90
        0
102
RTVSPost2010PropOp40
 70
     1
102
RTVSPost2010Prop41ColorIndex
 90
       18
102
RTVSPost2010Prop41ColorRGB
 90
        0
102
RTVSPost2010PropOp41
 70
     1
102
RTVSPost2010Prop42
 90
       50
102
RTVSPost2010PropOp42
 70
     1
102
RTVSPost2010Prop43
 90
        3
102
RTVSPost2010PropOp43
 70
     1
102
RTVSPost2010Prop44ColorIndex
 90
        5
102
RTVSPost2010Prop44ColorRGB
 90
      255
102
RTVSPost2010PropOp44
 70
     1
102
RTVSPost2010Prop45
280
     0
102
RTVSPost2010PropOp45
 70
     1
102
RTVSPost2010Prop46
 90
       50
102
RTVSPost2010PropOp46
 70
     1
102
RTVSPost2010Prop47
 90
       50
102
RTVSPost2010PropOp47
 70
     1
102
RTVSPost2010Prop48
 90
       50
102
RTVSPost2010PropOp48
 70
     1
102
RTVSPost2010Prop49
280
     0
102
RTVSPost2010PropOp49
 70
     1
102
RTVSPost2010Prop50
 90
       50
102
RTVSPost2010PropOp50
 70
     1
102
RTVSPost2010Prop51ColorIndex
 90
      256
102
RTVSPost2010Prop51ColorRGB
 90
-16777216
102
RTVSPost2010PropOp51
 70
     0
102
RTVSPost2010Prop52
140
1.0
102
RTVSPost2010PropOp52
 70
     0
102
RTVSPost2010Prop53
 90
        2
102
RTVSPost2010PropOp53
 70
     1
102
RTVSPost2010Prop54
  1
strokes_ogs.tif
102
RTVSPost2010PropOp54
 70
     1
102
RTVSPost2010Prop55
280
     0
102
RTVSPost2010PropOp55
 70
     1
102
RTVSPost2010Prop56
140
1.0
102
RTVSPost2010PropOp56
 70
     1
102
RTVSPost2010Prop57
140
1.0
102
RTVSPost2010PropOp57
 70
     1
102
RTVSPropertyOp0
 70
     1
102
RTVSPropertyOp1
 70
     1
102
RTVSPropertyOp2
 70
     1
102
RTVSPropertyOp3
 70
     1
102
RTVSPropertyOp4
 70
     1
102
RTVSPropertyOp5
 70
     1
102
RTVSPropertyOp6
 70
     1
102
RTVSPropertyOp7
 70
     1
102
RTVSPropertyOp8
 70
     1
102
RTVSPropertyOp9
 70
     1
102
RTVSPropertyOp10
 70
     1
102
RTVSPropertyOp11
 70
     1
102
RTVSPropertyOp12
 70
     1
102
RTVSPropertyOp13
 70
     1
102
RTVSPropertyOp14
 70
     1
102
RTVSPropertyOp15
 70
     1
102
RTVSPropertyOp16
 70
     1
102
RTVSPropertyOp17
 70
     1
102
RTVSPropertyOp18
 70
     1
102
RTVSPropertyOp19
 70
     1
102
RTVSPropertyOp20
 70
     1
102
RTVSPropertyOp21
 70
     1
102
RTVSPropertyOp22
 70
     1
102
RTVSPropertyOp23
 70
     1
102
RTVSPropertyOp24
 70
     1
102
RTVSPropertyOp25
 70
     1
102
RTVSPropertyOp26
 70
     1
102
RTVSPropertyOp27
 70
     1
102
RTVSPropertyOp28
 70
     1
102
RTVSPropertyOp29
 70
     1
102
RTVSPropertyOp30
 70
     1
102
RTVSPropertyOp31
 70
     1
102
RTVSPropertyOp32
 70
     1
102
RTVSPropertyOp33
 70
     1
102
RTVSPropertyOp34
 70
     1
102
RTVSPropertyOp35
 70
     1
102
RTVSPropertyOp36
 70
     1
102
RTVSPropertyOp37
 70
     1
102
RTVSPropertyOp38
 70
     1
102
RTVSPropertyOp39
 70
     1
102
RTVSPropertyOp40
 70
     1
102
RTVSPropertyOp41
 70
     1
102
RTVSPropertyOp42
 70
     1
102
RTVSPropertyOp43
 70
     1
102
RTVSPropertyOp44
 70
     1
102
RTVSPropertyOp45
 70
     1
102
RTVSPropertyOp46
 70
     1
102
RTVSPropertyOp47
 70
     1
102
RTVSPropertyOp48
 70
     1
102
RTVSPropertyOp49
 70
     1
102
RTVSPropertyOp50
 70
     1
102
RTVSPropertyOp51
 70
     0
102
RTVSPropertyOp52
 70
     0
102
RTVSPropertyOp53
 70
     1
102
RTVSPropertyOp54
 70
     1
102
RTVSPropertyOp55
 70
     1
102
RTVSPropertyOp56
 70
     1
102
RTVSPropertyOp57
 70
     1
102
RTVSPropertyOp58
 70
     1
102
RTVSPropertyOp59
 70
     1
102
RTVSPropertyOp60
 70
     1
102
RTVSPropertyOp61
 70
     1
102
RTVSPropertyOp62
 70
     1
  0
XRECORD
  5
3BA
102
{ACAD_REACTORS
330
3B9
102
}
330
3B9
100
AcDbXrecord
280
     1
102
RTVSPost2010Prop28
280
     0
102
RTVSPost2010PropOp28
 70
     1
102
RTVSPost2010Prop29
280
     1
102
RTVSPost2010PropOp29
 70
     1
102
RTVSPost2010Prop30
280
     1
102
RTVSPost2010PropOp30
 70
     1
102
RTVSPost2010Prop31
280
     0
102
RTVSPost2010PropOp31
 70
     1
102
RTVSPost2010Prop32
280
     0
102
RTVSPost2010PropOp32
 70
     1
102
RTVSPost2010Prop33
280
     0
102
RTVSPost2010PropOp33
 70
     1
102
RTVSPost2010Prop34
280
     0
102
RTVSPost2010PropOp34
 70
     1
102
RTVSPost2010Prop35
280
     0
102
RTVSPost2010PropOp35
 70
     1
102
RTVSPost2010Prop36
280
     0
102
RTVSPost2010PropOp36
 70
     1
102
RTVSPost2010Prop37
 90
       50
102
RTVSPost2010PropOp37
 70
     1
102
RTVSPost2010Prop38
140
0.0
102
RTVSPost2010PropOp38
 70
     1
102
RTVSPost2010Prop39
140
1.0
102
RTVSPost2010PropOp39
 70
     1
102
RTVSPost2010Prop40
 90
        0
102
RTVSPost2010PropOp40
 70
     1
102
RTVSPost2010Prop41ColorIndex
 90
       18
102
RTVSPost2010Prop41ColorRGB
 90
        0
102
RTVSPost2010PropOp41
 70
     1
102
RTVSPost2010Prop42
 90
       50
102
RTVSPost2010PropOp42
 70
     1
102
RTVSPost2010Prop43
 90
        3
102
RTVSPost2010PropOp43
 70
     1
102
RTVSPost2010Prop44ColorIndex
 90
        5
102
RTVSPost2010Prop44ColorRGB
 90
      255
102
RTVSPost2010PropOp44
 70
     1
102
RTVSPost2010Prop45
280
     0
102
RTVSPost2010PropOp45
 70
     1
102
RTVSPost2010Prop46
 90
       50
102
RTVSPost2010PropOp46
 70
     1
102
RTVSPost2010Prop47
 90
       50
102
RTVSPost2010PropOp47
 70
     1
102
RTVSPost2010Prop48
 90
       50
102
RTVSPost2010PropOp48
 70
     1
102
RTVSPost2010Prop49
280
     0
102
RTVSPost2010PropOp49
 70
     1
102
RTVSPost2010Prop50
 90
       50
102
RTVSPost2010PropOp50
 70
     1
102
RTVSPost2010Prop51ColorIndex
 90
      256
102
RTVSPost2010Prop51ColorRGB
 90
-16777216
102
RTVSPost2010PropOp51
 70
     0
102
RTVSPost2010Prop52
140
1.0
102
RTVSPost2010PropOp52
 70
     0
102
RTVSPost2010Prop53
 90
        2
102
RTVSPost2010PropOp53
 70
     1
102
RTVSPost2010Prop54
  1
strokes_ogs.tif
102
RTVSPost2010PropOp54
 70
     1
102
RTVSPost2010Prop55
280
     0
102
RTVSPost2010PropOp55
 70
     1
102
RTVSPost2010Prop56
140
1.0
102
RTVSPost2010PropOp56
 70
     1
102
RTVSPost2010Prop57
140
1.0
102
RTVSPost2010PropOp57
 70
     1
102
RTVSPropertyOp0
 70
     1
102
RTVSPropertyOp1
 70
     1
102
RTVSPropertyOp2
 70
     1
102
RTVSPropertyOp3
 70
     1
102
RTVSPropertyOp4
 70
     1
102
RTVSPropertyOp5
 70
     1
102
RTVSPropertyOp6
 70
     1
102
RTVSPropertyOp7
 70
     1
102
RTVSPropertyOp8
 70
     1
102
RTVSPropertyOp9
 70
     1
102
RTVSPropertyOp10
 70
     1
102
RTVSPropertyOp11
 70
     1
102
RTVSPropertyOp12
 70
     1
102
RTVSPropertyOp13
 70
     1
102
RTVSPropertyOp14
 70
     1
102
RTVSPropertyOp15
 70
     1
102
RTVSPropertyOp16
 70
     1
102
RTVSPropertyOp17
 70
     1
102
RTVSPropertyOp18
 70
     1
102
RTVSPropertyOp19
 70
     1
102
RTVSPropertyOp20
 70
     1
102
RTVSPropertyOp21
 70
     1
102
RTVSPropertyOp22
 70
     1
102
RTVSPropertyOp23
 70
     1
102
RTVSPropertyOp24
 70
     1
102
RTVSPropertyOp25
 70
     1
102
RTVSPropertyOp26
 70
     1
102
RTVSPropertyOp27
 70
     1
102
RTVSPropertyOp28
 70
     1
102
RTVSPropertyOp29
 70
     1
102
RTVSPropertyOp30
 70
     1
102
RTVSPropertyOp31
 70
     1
102
RTVSPropertyOp32
 70
     1
102
RTVSPropertyOp33
 70
     1
102
RTVSPropertyOp34
 70
     1
102
RTVSPropertyOp35
 70
     1
102
RTVSPropertyOp36
 70
     1
102
RTVSPropertyOp37
 70
     1
102
RTVSPropertyOp38
 70
     1
102
RTVSPropertyOp39
 70
     1
102
RTVSPropertyOp40
 70
     1
102
RTVSPropertyOp41
 70
     1
102
RTVSPropertyOp42
 70
     1
102
RTVSPropertyOp43
 70
     1
102
RTVSPropertyOp44
 70
     1
102
RTVSPropertyOp45
 70
     1
102
RTVSPropertyOp46
 70
     1
102
RTVSPropertyOp47
 70
     1
102
RTVSPropertyOp48
 70
     1
102
RTVSPropertyOp49
 70
     1
102
RTVSPropertyOp50
 70
     1
102
RTVSPropertyOp51
 70
     0
102
RTVSPropertyOp52
 70
     0
102
RTVSPropertyOp53
 70
     1
102
RTVSPropertyOp54
 70
     1
102
RTVSPropertyOp55
 70
     1
102
RTVSPropertyOp56
 70
     1
102
RTVSPropertyOp57
 70
     1
102
RTVSPropertyOp58
 70
     1
102
RTVSPropertyOp59
 70
     1
102
RTVSPropertyOp60
 70
     1
102
RTVSPropertyOp61
 70
     1
102
RTVSPropertyOp62
 70
     1
  0
XRECORD
  5
3BC
102
{ACAD_REACTORS
330
3BB
102
}
330
3BB
100
AcDbXrecord
280
     1
102
RTVSPost2010Prop28
280
     0
102
RTVSPost2010PropOp28
 70
     1
102
RTVSPost2010Prop29
280
     1
102
RTVSPost2010PropOp29
 70
     1
102
RTVSPost2010Prop30
280
     1
102
RTVSPost2010PropOp30
 70
     1
102
RTVSPost2010Prop31
280
     0
102
RTVSPost2010PropOp31
 70
     1
102
RTVSPost2010Prop32
280
     0
102
RTVSPost2010PropOp32
 70
     1
102
RTVSPost2010Prop33
280
     0
102
RTVSPost2010PropOp33
 70
     1
102
RTVSPost2010Prop34
280
     0
102
RTVSPost2010PropOp34
 70
     1
102
RTVSPost2010Prop35
280
     0
102
RTVSPost2010PropOp35
 70
     1
102
RTVSPost2010Prop36
280
     0
102
RTVSPost2010PropOp36
 70
     1
102
RTVSPost2010Prop37
 90
       50
102
RTVSPost2010PropOp37
 70
     1
102
RTVSPost2010Prop38
140
0.0
102
RTVSPost2010PropOp38
 70
     1
102
RTVSPost2010Prop39
140
1.0
102
RTVSPost2010PropOp39
 70
     1
102
RTVSPost2010Prop40
 90
        0
102
RTVSPost2010PropOp40
 70
     1
102
RTVSPost2010Prop41ColorIndex
 90
       18
102
RTVSPost2010Prop41ColorRGB
 90
        0
102
RTVSPost2010PropOp41
 70
     1
102
RTVSPost2010Prop42
 90
       50
102
RTVSPost2010PropOp42
 70
     1
102
RTVSPost2010Prop43
 90
        3
102
RTVSPost2010PropOp43
 70
     1
102
RTVSPost2010Prop44ColorIndex
 90
        5
102
RTVSPost2010Prop44ColorRGB
 90
      255
102
RTVSPost2010PropOp44
 70
     1
102
RTVSPost2010Prop45
280
     0
102
RTVSPost2010PropOp45
 70
     1
102
RTVSPost2010Prop46
 90
       50
102
RTVSPost2010PropOp46
 70
     1
102
RTVSPost2010Prop47
 90
       50
102
RTVSPost2010PropOp47
 70
     1
102
RTVSPost2010Prop48
 90
       50
102
RTVSPost2010PropOp48
 70
     1
102
RTVSPost2010Prop49
280
     0
102
RTVSPost2010PropOp49
 70
     1
102
RTVSPost2010Prop50
 90
       50
102
RTVSPost2010PropOp50
 70
     1
102
RTVSPost2010Prop51ColorIndex
 90
      256
102
RTVSPost2010Prop51ColorRGB
 90
-16777216
102
RTVSPost2010PropOp51
 70
     0
102
RTVSPost2010Prop52
140
1.0
102
RTVSPost2010PropOp52
 70
     0
102
RTVSPost2010Prop53
 90
        2
102
RTVSPost2010PropOp53
 70
     1
102
RTVSPost2010Prop54
  1
strokes_ogs.tif
102
RTVSPost2010PropOp54
 70
     1
102
RTVSPost2010Prop55
280
     0
102
RTVSPost2010PropOp55
 70
     1
102
RTVSPost2010Prop56
140
1.0
102
RTVSPost2010PropOp56
 70
     1
102
RTVSPost2010Prop57
140
1.0
102
RTVSPost2010PropOp57
 70
     1
102
RTVSPropertyOp0
 70
     1
102
RTVSPropertyOp1
 70
     1
102
RTVSPropertyOp2
 70
     1
102
RTVSPropertyOp3
 70
     1
102
RTVSPropertyOp4
 70
     1
102
RTVSPropertyOp5
 70
     1
102
RTVSPropertyOp6
 70
     1
102
RTVSPropertyOp7
 70
     1
102
RTVSPropertyOp8
 70
     1
102
RTVSPropertyOp9
 70
     1
102
RTVSPropertyOp10
 70
     1
102
RTVSPropertyOp11
 70
     1
102
RTVSPropertyOp12
 70
     1
102
RTVSPropertyOp13
 70
     1
102
RTVSPropertyOp14
 70
     1
102
RTVSPropertyOp15
 70
     1
102
RTVSPropertyOp16
 70
     1
102
RTVSPropertyOp17
 70
     1
102
RTVSPropertyOp18
 70
     1
102
RTVSPropertyOp19
 70
     1
102
RTVSPropertyOp20
 70
     1
102
RTVSPropertyOp21
 70
     1
102
RTVSPropertyOp22
 70
     1
102
RTVSPropertyOp23
 70
     1
102
RTVSPropertyOp24
 70
     1
102
RTVSPropertyOp25
 70
     1
102
RTVSPropertyOp26
 70
     1
102
RTVSPropertyOp27
 70
     1
102
RTVSPropertyOp28
 70
     1
102
RTVSPropertyOp29
 70
     1
102
RTVSPropertyOp30
 70
     1
102
RTVSPropertyOp31
 70
     1
102
RTVSPropertyOp32
 70
     1
102
RTVSPropertyOp33
 70
     1
102
RTVSPropertyOp34
 70
     1
102
RTVSPropertyOp35
 70
     1
102
RTVSPropertyOp36
 70
     1
102
RTVSPropertyOp37
 70
     1
102
RTVSPropertyOp38
 70
     1
102
RTVSPropertyOp39
 70
     1
102
RTVSPropertyOp40
 70
     1
102
RTVSPropertyOp41
 70
     1
102
RTVSPropertyOp42
 70
     1
102
RTVSPropertyOp43
 70
     1
102
RTVSPropertyOp44
 70
     1
102
RTVSPropertyOp45
 70
     1
102
RTVSPropertyOp46
 70
     1
102
RTVSPropertyOp47
 70
     1
102
RTVSPropertyOp48
 70
     1
102
RTVSPropertyOp49
 70
     1
102
RTVSPropertyOp50
 70
     1
102
RTVSPropertyOp51
 70
     0
102
RTVSPropertyOp52
 70
     0
102
RTVSPropertyOp53
 70
     1
102
RTVSPropertyOp54
 70
     1
102
RTVSPropertyOp55
 70
     1
102
RTVSPropertyOp56
 70
     1
102
RTVSPropertyOp57
 70
     1
102
RTVSPropertyOp58
 70
     1
102
RTVSPropertyOp59
 70
     1
102
RTVSPropertyOp60
 70
     1
102
RTVSPropertyOp61
 70
     1
102
RTVSPropertyOp62
 70
     1
  0
XRECORD
  5
3AC
102
{ACAD_REACTORS
330
3AB
102
}
330
3AB
100
AcDbXrecord
280
     1
102
RTVSPost2010Prop28
280
     0
102
RTVSPost2010PropOp28
 70
     1
102
RTVSPost2010Prop29
280
     1
102
RTVSPost2010PropOp29
 70
     1
102
RTVSPost2010Prop30
280
     1
102
RTVSPost2010PropOp30
 70
     1
102
RTVSPost2010Prop31
280
     0
102
RTVSPost2010PropOp31
 70
     1
102
RTVSPost2010Prop32
280
     0
102
RTVSPost2010PropOp32
 70
     1
102
RTVSPost2010Prop33
280
     0
102
RTVSPost2010PropOp33
 70
     1
102
RTVSPost2010Prop34
280
     0
102
RTVSPost2010PropOp34
 70
     1
102
RTVSPost2010Prop35
280
     0
102
RTVSPost2010PropOp35
 70
     1
102
RTVSPost2010Prop36
280
     0
102
RTVSPost2010PropOp36
 70
     1
102
RTVSPost2010Prop37
 90
       50
102
RTVSPost2010PropOp37
 70
     1
102
RTVSPost2010Prop38
140
0.0
102
RTVSPost2010PropOp38
 70
     1
102
RTVSPost2010Prop39
140
1.0
102
RTVSPost2010PropOp39
 70
     1
102
RTVSPost2010Prop40
 90
        0
102
RTVSPost2010PropOp40
 70
     1
102
RTVSPost2010Prop41ColorIndex
 90
       18
102
RTVSPost2010Prop41ColorRGB
 90
        0
102
RTVSPost2010PropOp41
 70
     1
102
RTVSPost2010Prop42
 90
       50
102
RTVSPost2010PropOp42
 70
     1
102
RTVSPost2010Prop43
 90
        3
102
RTVSPost2010PropOp43
 70
     1
102
RTVSPost2010Prop44ColorIndex
 90
        5
102
RTVSPost2010Prop44ColorRGB
 90
      255
102
RTVSPost2010PropOp44
 70
     1
102
RTVSPost2010Prop45
280
     0
102
RTVSPost2010PropOp45
 70
     1
102
RTVSPost2010Prop46
 90
       50
102
RTVSPost2010PropOp46
 70
     1
102
RTVSPost2010Prop47
 90
       50
102
RTVSPost2010PropOp47
 70
     1
102
RTVSPost2010Prop48
 90
       50
102
RTVSPost2010PropOp48
 70
     1
102
RTVSPost2010Prop49
280
     0
102
RTVSPost2010PropOp49
 70
     1
102
RTVSPost2010Prop50
 90
       50
102
RTVSPost2010PropOp50
 70
     1
102
RTVSPost2010Prop51ColorIndex
 90
      256
102
RTVSPost2010Prop51ColorRGB
 90
-16777216
102
RTVSPost2010PropOp51
 70
     0
102
RTVSPost2010Prop52
140
1.0
102
RTVSPost2010PropOp52
 70
     0
102
RTVSPost2010Prop53
 90
        2
102
RTVSPost2010PropOp53
 70
     1
102
RTVSPost2010Prop54
  1
strokes_ogs.tif
102
RTVSPost2010PropOp54
 70
     1
102
RTVSPost2010Prop55
280
     0
102
RTVSPost2010PropOp55
 70
     1
102
RTVSPost2010Prop56
140
1.0
102
RTVSPost2010PropOp56
 70
     1
102
RTVSPost2010Prop57
140
1.0
102
RTVSPost2010PropOp57
 70
     1
102
RTVSPropertyOp0
 70
     1
102
RTVSPropertyOp1
 70
     1
102
RTVSPropertyOp2
 70
     1
102
RTVSPropertyOp3
 70
     1
102
RTVSPropertyOp4
 70
     1
102
RTVSPropertyOp5
 70
     1
102
RTVSPropertyOp6
 70
     1
102
RTVSPropertyOp7
 70
     1
102
RTVSPropertyOp8
 70
     1
102
RTVSPropertyOp9
 70
     1
102
RTVSPropertyOp10
 70
     1
102
RTVSPropertyOp11
 70
     1
102
RTVSPropertyOp12
 70
     1
102
RTVSPropertyOp13
 70
     1
102
RTVSPropertyOp14
 70
     1
102
RTVSPropertyOp15
 70
     1
102
RTVSPropertyOp16
 70
     1
102
RTVSPropertyOp17
 70
     1
102
RTVSPropertyOp18
 70
     1
102
RTVSPropertyOp19
 70
     1
102
RTVSPropertyOp20
 70
     1
102
RTVSPropertyOp21
 70
     1
102
RTVSPropertyOp22
 70
     1
102
RTVSPropertyOp23
 70
     1
102
RTVSPropertyOp24
 70
     1
102
RTVSPropertyOp25
 70
     1
102
RTVSPropertyOp26
 70
     1
102
RTVSPropertyOp27
 70
     1
102
RTVSPropertyOp28
 70
     1
102
RTVSPropertyOp29
 70
     1
102
RTVSPropertyOp30
 70
     1
102
RTVSPropertyOp31
 70
     1
102
RTVSPropertyOp32
 70
     1
102
RTVSPropertyOp33
 70
     1
102
RTVSPropertyOp34
 70
     1
102
RTVSPropertyOp35
 70
     1
102
RTVSPropertyOp36
 70
     1
102
RTVSPropertyOp37
 70
     1
102
RTVSPropertyOp38
 70
     1
102
RTVSPropertyOp39
 70
     1
102
RTVSPropertyOp40
 70
     1
102
RTVSPropertyOp41
 70
     1
102
RTVSPropertyOp42
 70
     1
102
RTVSPropertyOp43
 70
     1
102
RTVSPropertyOp44
 70
     1
102
RTVSPropertyOp45
 70
     1
102
RTVSPropertyOp46
 70
     1
102
RTVSPropertyOp47
 70
     1
102
RTVSPropertyOp48
 70
     1
102
RTVSPropertyOp49
 70
     1
102
RTVSPropertyOp50
 70
     1
102
RTVSPropertyOp51
 70
     0
102
RTVSPropertyOp52
 70
     0
102
RTVSPropertyOp53
 70
     1
102
RTVSPropertyOp54
 70
     1
102
RTVSPropertyOp55
 70
     1
102
RTVSPropertyOp56
 70
     1
102
RTVSPropertyOp57
 70
     1
102
RTVSPropertyOp58
 70
     1
102
RTVSPropertyOp59
 70
     1
102
RTVSPropertyOp60
 70
     1
102
RTVSPropertyOp61
 70
     1
102
RTVSPropertyOp62
 70
     1
  0
XRECORD
  5
39E
102
{ACAD_REACTORS
330
39D
102
}
330
39D
100
AcDbXrecord
280
     1
102
RTVSPost2010Prop28
280
     0
102
RTVSPost2010PropOp28
 70
     1
102
RTVSPost2010Prop29
280
     1
102
RTVSPost2010PropOp29
 70
     1
102
RTVSPost2010Prop30
280
     1
102
RTVSPost2010PropOp30
 70
     1
102
RTVSPost2010Prop31
280
     0
102
RTVSPost2010PropOp31
 70
     1
102
RTVSPost2010Prop32
280
     0
102
RTVSPost2010PropOp32
 70
     1
102
RTVSPost2010Prop33
280
     0
102
RTVSPost2010PropOp33
 70
     1
102
RTVSPost2010Prop34
280
     0
102
RTVSPost2010PropOp34
 70
     1
102
RTVSPost2010Prop35
280
     0
102
RTVSPost2010PropOp35
 70
     1
102
RTVSPost2010Prop36
280
     0
102
RTVSPost2010PropOp36
 70
     1
102
RTVSPost2010Prop37
 90
       50
102
RTVSPost2010PropOp37
 70
     1
102
RTVSPost2010Prop38
140
0.0
102
RTVSPost2010PropOp38
 70
     1
102
RTVSPost2010Prop39
140
1.0
102
RTVSPost2010PropOp39
 70
     1
102
RTVSPost2010Prop40
 90
        0
102
RTVSPost2010PropOp40
 70
     1
102
RTVSPost2010Prop41ColorIndex
 90
       18
102
RTVSPost2010Prop41ColorRGB
 90
        0
102
RTVSPost2010PropOp41
 70
     1
102
RTVSPost2010Prop42
 90
       50
102
RTVSPost2010PropOp42
 70
     1
102
RTVSPost2010Prop43
 90
        3
102
RTVSPost2010PropOp43
 70
     1
102
RTVSPost2010Prop44ColorIndex
 90
        5
102
RTVSPost2010Prop44ColorRGB
 90
      255
102
RTVSPost2010PropOp44
 70
     1
102
RTVSPost2010Prop45
280
     0
102
RTVSPost2010PropOp45
 70
     1
102
RTVSPost2010Prop46
 90
       50
102
RTVSPost2010PropOp46
 70
     1
102
RTVSPost2010Prop47
 90
       50
102
RTVSPost2010PropOp47
 70
     1
102
RTVSPost2010Prop48
 90
       50
102
RTVSPost2010PropOp48
 70
     1
102
RTVSPost2010Prop49
280
     0
102
RTVSPost2010PropOp49
 70
     1
102
RTVSPost2010Prop50
 90
       50
102
RTVSPost2010PropOp50
 70
     1
102
RTVSPost2010Prop51ColorIndex
 90
      256
102
RTVSPost2010Prop51ColorRGB
 90
-16777216
102
RTVSPost2010PropOp51
 70
     0
102
RTVSPost2010Prop52
140
1.0
102
RTVSPost2010PropOp52
 70
     0
102
RTVSPost2010Prop53
 90
        2
102
RTVSPost2010PropOp53
 70
     1
102
RTVSPost2010Prop54
  1
strokes_ogs.tif
102
RTVSPost2010PropOp54
 70
     1
102
RTVSPost2010Prop55
280
     0
102
RTVSPost2010PropOp55
 70
     1
102
RTVSPost2010Prop56
140
1.0
102
RTVSPost2010PropOp56
 70
     1
102
RTVSPost2010Prop57
140
1.0
102
RTVSPost2010PropOp57
 70
     1
102
RTVSPropertyOp0
 70
     1
102
RTVSPropertyOp1
 70
     1
102
RTVSPropertyOp2
 70
     1
102
RTVSPropertyOp3
 70
     1
102
RTVSPropertyOp4
 70
     1
102
RTVSPropertyOp5
 70
     1
102
RTVSPropertyOp6
 70
     1
102
RTVSPropertyOp7
 70
     1
102
RTVSPropertyOp8
 70
     1
102
RTVSPropertyOp9
 70
     1
102
RTVSPropertyOp10
 70
     1
102
RTVSPropertyOp11
 70
     1
102
RTVSPropertyOp12
 70
     1
102
RTVSPropertyOp13
 70
     1
102
RTVSPropertyOp14
 70
     1
102
RTVSPropertyOp15
 70
     1
102
RTVSPropertyOp16
 70
     1
102
RTVSPropertyOp17
 70
     1
102
RTVSPropertyOp18
 70
     1
102
RTVSPropertyOp19
 70
     1
102
RTVSPropertyOp20
 70
     1
102
RTVSPropertyOp21
 70
     1
102
RTVSPropertyOp22
 70
     1
102
RTVSPropertyOp23
 70
     1
102
RTVSPropertyOp24
 70
     1
102
RTVSPropertyOp25
 70
     1
102
RTVSPropertyOp26
 70
     1
102
RTVSPropertyOp27
 70
     1
102
RTVSPropertyOp28
 70
     1
102
RTVSPropertyOp29
 70
     1
102
RTVSPropertyOp30
 70
     1
102
RTVSPropertyOp31
 70
     1
102
RTVSPropertyOp32
 70
     1
102
RTVSPropertyOp33
 70
     1
102
RTVSPropertyOp34
 70
     1
102
RTVSPropertyOp35
 70
     1
102
RTVSPropertyOp36
 70
     1
102
RTVSPropertyOp37
 70
     1
102
RTVSPropertyOp38
 70
     1
102
RTVSPropertyOp39
 70
     1
102
RTVSPropertyOp40
 70
     1
102
RTVSPropertyOp41
 70
     1
102
RTVSPropertyOp42
 70
     1
102
RTVSPropertyOp43
 70
     1
102
RTVSPropertyOp44
 70
     1
102
RTVSPropertyOp45
 70
     1
102
RTVSPropertyOp46
 70
     1
102
RTVSPropertyOp47
 70
     1
102
RTVSPropertyOp48
 70
     1
102
RTVSPropertyOp49
 70
     1
102
RTVSPropertyOp50
 70
     1
102
RTVSPropertyOp51
 70
     0
102
RTVSPropertyOp52
 70
     0
102
RTVSPropertyOp53
 70
     1
102
RTVSPropertyOp54
 70
     1
102
RTVSPropertyOp55
 70
     1
102
RTVSPropertyOp56
 70
     1
102
RTVSPropertyOp57
 70
     1
102
RTVSPropertyOp58
 70
     1
102
RTVSPropertyOp59
 70
     1
102
RTVSPropertyOp60
 70
     1
102
RTVSPropertyOp61
 70
     1
102
RTVSPropertyOp62
 70
     1
  0
XRECORD
  5
3BE
102
{ACAD_REACTORS
330
3BD
102
}
330
3BD
100
AcDbXrecord
280
     1
102
RTVSPost2010Prop28
280
     0
102
RTVSPost2010PropOp28
 70
     1
102
RTVSPost2010Prop29
280
     1
102
RTVSPost2010PropOp29
 70
     1
102
RTVSPost2010Prop30
280
     1
102
RTVSPost2010PropOp30
 70
     1
102
RTVSPost2010Prop31
280
     0
102
RTVSPost2010PropOp31
 70
     1
102
RTVSPost2010Prop32
280
     0
102
RTVSPost2010PropOp32
 70
     1
102
RTVSPost2010Prop33
280
     0
102
RTVSPost2010PropOp33
 70
     1
102
RTVSPost2010Prop34
280
     0
102
RTVSPost2010PropOp34
 70
     1
102
RTVSPost2010Prop35
280
     0
102
RTVSPost2010PropOp35
 70
     1
102
RTVSPost2010Prop36
280
     0
102
RTVSPost2010PropOp36
 70
     1
102
RTVSPost2010Prop37
 90
       50
102
RTVSPost2010PropOp37
 70
     1
102
RTVSPost2010Prop38
140
0.0
102
RTVSPost2010PropOp38
 70
     1
102
RTVSPost2010Prop39
140
1.0
102
RTVSPost2010PropOp39
 70
     1
102
RTVSPost2010Prop40
 90
        0
102
RTVSPost2010PropOp40
 70
     1
102
RTVSPost2010Prop41ColorIndex
 90
       18
102
RTVSPost2010Prop41ColorRGB
 90
        0
102
RTVSPost2010PropOp41
 70
     1
102
RTVSPost2010Prop42
 90
       50
102
RTVSPost2010PropOp42
 70
     1
102
RTVSPost2010Prop43
 90
        3
102
RTVSPost2010PropOp43
 70
     1
102
RTVSPost2010Prop44ColorIndex
 90
        5
102
RTVSPost2010Prop44ColorRGB
 90
      255
102
RTVSPost2010PropOp44
 70
     1
102
RTVSPost2010Prop45
280
     0
102
RTVSPost2010PropOp45
 70
     1
102
RTVSPost2010Prop46
 90
       50
102
RTVSPost2010PropOp46
 70
     1
102
RTVSPost2010Prop47
 90
       50
102
RTVSPost2010PropOp47
 70
     1
102
RTVSPost2010Prop48
 90
       50
102
RTVSPost2010PropOp48
 70
     1
102
RTVSPost2010Prop49
280
     0
102
RTVSPost2010PropOp49
 70
     1
102
RTVSPost2010Prop50
 90
       50
102
RTVSPost2010PropOp50
 70
     1
102
RTVSPost2010Prop51ColorIndex
 90
      256
102
RTVSPost2010Prop51ColorRGB
 90
-16777216
102
RTVSPost2010PropOp51
 70
     0
102
RTVSPost2010Prop52
140
1.0
102
RTVSPost2010PropOp52
 70
     0
102
RTVSPost2010Prop53
 90
        2
102
RTVSPost2010PropOp53
 70
     1
102
RTVSPost2010Prop54
  1
strokes_ogs.tif
102
RTVSPost2010PropOp54
 70
     1
102
RTVSPost2010Prop55
280
     0
102
RTVSPost2010PropOp55
 70
     1
102
RTVSPost2010Prop56
140
1.0
102
RTVSPost2010PropOp56
 70
     1
102
RTVSPost2010Prop57
140
1.0
102
RTVSPost2010PropOp57
 70
     1
102
RTVSPropertyOp0
 70
     1
102
RTVSPropertyOp1
 70
     1
102
RTVSPropertyOp2
 70
     1
102
RTVSPropertyOp3
 70
     1
102
RTVSPropertyOp4
 70
     1
102
RTVSPropertyOp5
 70
     1
102
RTVSPropertyOp6
 70
     1
102
RTVSPropertyOp7
 70
     1
102
RTVSPropertyOp8
 70
     1
102
RTVSPropertyOp9
 70
     1
102
RTVSPropertyOp10
 70
     1
102
RTVSPropertyOp11
 70
     1
102
RTVSPropertyOp12
 70
     1
102
RTVSPropertyOp13
 70
     1
102
RTVSPropertyOp14
 70
     1
102
RTVSPropertyOp15
 70
     1
102
RTVSPropertyOp16
 70
     1
102
RTVSPropertyOp17
 70
     1
102
RTVSPropertyOp18
 70
     1
102
RTVSPropertyOp19
 70
     1
102
RTVSPropertyOp20
 70
     1
102
RTVSPropertyOp21
 70
     1
102
RTVSPropertyOp22
 70
     1
102
RTVSPropertyOp23
 70
     1
102
RTVSPropertyOp24
 70
     1
102
RTVSPropertyOp25
 70
     1
102
RTVSPropertyOp26
 70
     1
102
RTVSPropertyOp27
 70
     1
102
RTVSPropertyOp28
 70
     1
102
RTVSPropertyOp29
 70
     1
102
RTVSPropertyOp30
 70
     1
102
RTVSPropertyOp31
 70
     1
102
RTVSPropertyOp32
 70
     1
102
RTVSPropertyOp33
 70
     1
102
RTVSPropertyOp34
 70
     1
102
RTVSPropertyOp35
 70
     1
102
RTVSPropertyOp36
 70
     1
102
RTVSPropertyOp37
 70
     1
102
RTVSPropertyOp38
 70
     1
102
RTVSPropertyOp39
 70
     1
102
RTVSPropertyOp40
 70
     1
102
RTVSPropertyOp41
 70
     1
102
RTVSPropertyOp42
 70
     1
102
RTVSPropertyOp43
 70
     1
102
RTVSPropertyOp44
 70
     1
102
RTVSPropertyOp45
 70
     1
102
RTVSPropertyOp46
 70
     1
102
RTVSPropertyOp47
 70
     1
102
RTVSPropertyOp48
 70
     1
102
RTVSPropertyOp49
 70
     1
102
RTVSPropertyOp50
 70
     1
102
RTVSPropertyOp51
 70
     0
102
RTVSPropertyOp52
 70
     0
102
RTVSPropertyOp53
 70
     1
102
RTVSPropertyOp54
 70
     1
102
RTVSPropertyOp55
 70
     1
102
RTVSPropertyOp56
 70
     1
102
RTVSPropertyOp57
 70
     1
102
RTVSPropertyOp58
 70
     1
102
RTVSPropertyOp59
 70
     1
102
RTVSPropertyOp60
 70
     1
102
RTVSPropertyOp61
 70
     1
102
RTVSPropertyOp62
 70
     1
  0
ENDSEC
  0
EOF
