  0
SECTION
  2
HEADER
  9
$ACADVER
  1
AC1018
  9
$ACADMAINTVER
 70
   104
  9
$DWGCODEPAGE
  3
ANSI_1250
  9
$LASTSAVEDBY
  1
hc7230
  9
$INSBASE
 10
0.0
 20
0.0
 30
0.0
  9
$EXTMIN
 10
152.7943831000234
 20
21.404126
 30
0.0
  9
$EXTMAX
 10
587.478648
 20
305.0764388999766
 30
0.0
  9
$LIMMIN
 10
-0.5
 20
-0.5
  9
$LIMMAX
 10
5.0
 20
5.0
  9
$ORTHOMODE
 70
     0
  9
$REGENMODE
 70
     1
  9
$FILLMODE
 70
     1
  9
$QTEXTMODE
 70
     0
  9
$MIRRTEXT
 70
     1
  9
$LTSCALE
 40
1.0
  9
$ATTMODE
 70
     1
  9
$TEXTSIZE
 40
0.2
  9
$TRACEWID
 40
0.05
  9
$TEXTSTYLE
  7
Standard
  9
$CLAYER
  8
0
  9
$CELTYPE
  6
ByLayer
  9
$CECOLOR
 62
   256
  9
$CELTSCALE
 40
1.0
  9
$DISPSILH
 70
     0
  9
$DIMSCALE
 40
1.0
  9
$DIMASZ
 40
0.18
  9
$DIMEXO
 40
0.0625
  9
$DIMDLI
 40
0.38
  9
$DIMRND
 40
0.0
  9
$DIMDLE
 40
0.0
  9
$DIMEXE
 40
0.18
  9
$DIMTP
 40
0.0
  9
$DIMTM
 40
0.0
  9
$DIMTXT
 40
0.18
  9
$DIMCEN
 40
0.09
  9
$DIMTSZ
 40
0.0
  9
$DIMTOL
 70
     0
  9
$DIMLIM
 70
     0
  9
$DIMTIH
 70
     1
  9
$DIMTOH
 70
     1
  9
$DIMSE1
 70
     0
  9
$DIMSE2
 70
     0
  9
$DIMTAD
 70
     0
  9
$DIMZIN
 70
     0
  9
$DIMBLK
  1

  9
$DIMASO
 70
     1
  9
$DIMSHO
 70
     1
  9
$DIMPOST
  1

  9
$DIMAPOST
  1

  9
$DIMALT
 70
     0
  9
$DIMALTD
 70
     2
  9
$DIMALTF
 40
25.4
  9
$DIMLFAC
 40
1.0
  9
$DIMTOFL
 70
     0
  9
$DIMTVP
 40
0.0
  9
$DIMTIX
 70
     0
  9
$DIMSOXD
 70
     0
  9
$DIMSAH
 70
     0
  9
$DIMBLK1
  1

  9
$DIMBLK2
  1

  9
$DIMSTYLE
  2
Standard
  9
$DIMCLRD
 70
     0
  9
$DIMCLRE
 70
     0
  9
$DIMCLRT
 70
     0
  9
$DIMTFAC
 40
1.0
  9
$DIMGAP
 40
0.09
  9
$DIMJUST
 70
     0
  9
$DIMSD1
 70
     0
  9
$DIMSD2
 70
     0
  9
$DIMTOLJ
 70
     1
  9
$DIMTZIN
 70
     0
  9
$DIMALTZ
 70
     0
  9
$DIMALTTZ
 70
     0
  9
$DIMUPT
 70
     0
  9
$DIMDEC
 70
     4
  9
$DIMTDEC
 70
     4
  9
$DIMALTU
 70
     2
  9
$DIMALTTD
 70
     2
  9
$DIMTXSTY
  7
Standard
  9
$DIMAUNIT
 70
     0
  9
$DIMADEC
 70
     0
  9
$DIMALTRND
 40
0.0
  9
$DIMAZIN
 70
     0
  9
$DIMDSEP
 70
    46
  9
$DIMATFIT
 70
     3
  9
$DIMFRAC
 70
     0
  9
$DIMLDRBLK
  1

  9
$DIMLUNIT
 70
     2
  9
$DIMLWD
 70
    -2
  9
$DIMLWE
 70
    -2
  9
$DIMTMOVE
 70
     0
  9
$LUNITS
 70
     2
  9
$LUPREC
 70
     4
  9
$SKETCHINC
 40
0.1
  9
$FILLETRAD
 40
0.5
  9
$AUNITS
 70
     0
  9
$AUPREC
 70
     0
  9
$MENU
  1
.
  9
$ELEVATION
 40
0.0
  9
$PELEVATION
 40
0.0
  9
$THICKNESS
 40
0.0
  9
$LIMCHECK
 70
     0
  9
$CHAMFERA
 40
0.0
  9
$CHAMFERB
 40
0.0
  9
$CHAMFERC
 40
0.0
  9
$CHAMFERD
 40
0.0
  9
$SKPOLY
 70
     0
  9
$TDCREATE
 40
2458834.538611111
  9
$TDUCREATE
 40
2458834.496946689
  9
$TDUPDATE
 40
2458834.542557871
  9
$TDUUPDATE
 40
2458834.500891204
  9
$TDINDWG
 40
0.0025463079
  9
$TDUSRTIMER
 40
0.0025463079
  9
$USRTIMER
 70
     1
  9
$ANGBASE
 50
0.0
  9
$ANGDIR
 70
     0
  9
$PDMODE
 70
     0
  9
$PDSIZE
 40
0.0
  9
$PLINEWID
 40
0.0
  9
$SPLFRAME
 70
     0
  9
$SPLINETYPE
 70
     6
  9
$SPLINESEGS
 70
     8
  9
$HANDSEED
  5
371
  9
$SURFTAB1
 70
     6
  9
$SURFTAB2
 70
     6
  9
$SURFTYPE
 70
     6
  9
$SURFU
 70
     6
  9
$SURFV
 70
     6
  9
$UCSBASE
  2

  9
$UCSNAME
  2

  9
$UCSORG
 10
215.144248
 20
243.731161
 30
0.0
  9
$UCSXDIR
 10
1.0
 20
0.0
 30
0.0
  9
$UCSYDIR
 10
0.0
 20
1.0
 30
0.0
  9
$UCSORTHOREF
  2

  9
$UCSORTHOVIEW
 70
     0
  9
$UCSORGTOP
 10
0.0
 20
0.0
 30
0.0
  9
$UCSORGBOTTOM
 10
0.0
 20
0.0
 30
0.0
  9
$UCSORGLEFT
 10
0.0
 20
0.0
 30
0.0
  9
$UCSORGRIGHT
 10
0.0
 20
0.0
 30
0.0
  9
$UCSORGFRONT
 10
0.0
 20
0.0
 30
0.0
  9
$UCSORGBACK
 10
0.0
 20
0.0
 30
0.0
  9
$PUCSBASE
  2

  9
$PUCSNAME
  2

  9
$PUCSORG
 10
0.0
 20
0.0
 30
0.0
  9
$PUCSXDIR
 10
1.0
 20
0.0
 30
0.0
  9
$PUCSYDIR
 10
0.0
 20
1.0
 30
0.0
  9
$PUCSORTHOREF
  2

  9
$PUCSORTHOVIEW
 70
     0
  9
$PUCSORGTOP
 10
0.0
 20
0.0
 30
0.0
  9
$PUCSORGBOTTOM
 10
0.0
 20
0.0
 30
0.0
  9
$PUCSORGLEFT
 10
0.0
 20
0.0
 30
0.0
  9
$PUCSORGRIGHT
 10
0.0
 20
0.0
 30
0.0
  9
$PUCSORGFRONT
 10
0.0
 20
0.0
 30
0.0
  9
$PUCSORGBACK
 10
0.0
 20
0.0
 30
0.0
  9
$USERI1
 70
     0
  9
$USERI2
 70
     0
  9
$USERI3
 70
     0
  9
$USERI4
 70
     0
  9
$USERI5
 70
     0
  9
$USERR1
 40
0.0
  9
$USERR2
 40
0.0
  9
$USERR3
 40
0.0
  9
$USERR4
 40
0.0
  9
$USERR5
 40
0.0
  9
$WORLDVIEW
 70
     1
  9
$SHADEDGE
 70
     3
  9
$SHADEDIF
 70
    70
  9
$TILEMODE
 70
     1
  9
$MAXACTVP
 70
    64
  9
$PINSBASE
 10
0.0
 20
0.0
 30
0.0
  9
$PLIMCHECK
 70
     0
  9
$PEXTMIN
 10
-0.5
 20
-0.5
 30
-0.5
  9
$PEXTMAX
 10
5.0
 20
5.0
 30
5.0
  9
$PLIMMIN
 10
-0.5
 20
-0.5
  9
$PLIMMAX
 10
5.0
 20
5.0
  9
$UNITMODE
 70
     0
  9
$VISRETAIN
 70
     1
  9
$PLINEGEN
 70
     0
  9
$PSLTSCALE
 70
     1
  9
$TREEDEPTH
 70
  3020
  9
$CMLSTYLE
  2
Standard
  9
$CMLJUST
 70
     0
  9
$CMLSCALE
 40
1.0
  9
$PROXYGRAPHICS
 70
     1
  9
$MEASUREMENT
 70
     1
  9
$CELWEIGHT
370
    13
  9
$ENDCAPS
280
     0
  9
$JOINSTYLE
280
     0
  9
$LWDISPLAY
290
     0
  9
$INSUNITS
 70
     4
  9
$HYPERLINKBASE
  1

  9
$STYLESHEET
  1

  9
$XEDIT
290
     1
  9
$CEPSNTYPE
380
     0
  9
$PSTYLEMODE
290
     1
  9
$FINGERPRINTGUID
  2
{776C6164-C242-4865-9835-7DB1102B3FC8}
  9
$VERSIONGUID
  2
{F117C23F-0AC6-0843-BEF6-051B400C6E96}
  9
$EXTNAMES
290
     1
  9
$PSVPSCALE
 40
0.0
  9
$OLESTARTUP
290
     0
  9
$SORTENTS
280
   127
  9
$INDEXCTL
280
     0
  9
$HIDETEXT
280
     1
  9
$XCLIPFRAME
290
     0
  9
$HALOGAP
280
     0
  9
$OBSCOLOR
 70
   257
  9
$OBSLTYPE
280
     0
  9
$INTERSECTIONDISPLAY
280
     0
  9
$INTERSECTIONCOLOR
 70
   257
  9
$DIMASSOC
280
     2
  9
$PROJECTNAME
  1

  0
ENDSEC
  0
SECTION
  2
CLASSES
  0
CLASS
  1
ACDBDICTIONARYWDFLT
  2
AcDbDictionaryWithDefault
  3
ObjectDBX Classes
 90
        0
 91
        1
280
     0
281
     0
  0
CLASS
  1
VISUALSTYLE
  2
AcDbVisualStyle
  3
ObjectDBX Classes
 90
     4095
 91
       24
280
     0
281
     0
  0
CLASS
  1
MATERIAL
  2
AcDbMaterial
  3
ObjectDBX Classes
 90
     1153
 91
        3
280
     0
281
     0
  0
CLASS
  1
SCALE
  2
AcDbScale
  3
ObjectDBX Classes
 90
     1153
 91
       33
280
     0
281
     0
  0
CLASS
  1
TABLESTYLE
  2
AcDbTableStyle
  3
ObjectDBX Classes
 90
     4095
 91
        1
280
     0
281
     0
  0
CLASS
  1
MLEADERSTYLE
  2
AcDbMLeaderStyle
  3
ACDB_MLEADERSTYLE_CLASS
 90
     4095
 91
        1
280
     0
281
     0
  0
CLASS
  1
SUN
  2
AcDbSun
  3
SCENEOE
 90
     1153
 91
        0
280
     0
281
     0
  0
CLASS
  1
IMAGEDEF
  2
AcDbRasterImageDef
  3
ISM
 90
        0
 91
        1
280
     0
281
     0
  0
CLASS
  1
IMAGE
  2
AcDbRasterImage
  3
ISM
 90
     2175
 91
        1
280
     0
281
     1
  0
CLASS
  1
IMAGEDEF_REACTOR
  2
AcDbRasterImageDefReactor
  3
ISM
 90
        1
 91
        1
280
     0
281
     0
  0
CLASS
  1
DIMASSOC
  2
AcDbDimAssoc
  3
"AcDbDimAssoc|Product Desc:     AcDim ARX App For Dimension|Company:          Autodesk, Inc.|WEB Address:      www.autodesk.com"
 90
        0
 91
        6
280
     0
281
     0
  0
CLASS
  1
DICTIONARYVAR
  2
AcDbDictionaryVar
  3
ObjectDBX Classes
 90
        0
 91
        8
280
     0
281
     0
  0
CLASS
  1
CELLSTYLEMAP
  2
AcDbCellStyleMap
  3
ObjectDBX Classes
 90
     1152
 91
        2
280
     0
281
     0
  0
CLASS
  1
ACDBSECTIONVIEWSTYLE
  2
AcDbSectionViewStyle
  3
ObjectDBX Classes
 90
     1025
 91
        1
280
     0
281
     0
  0
CLASS
  1
ACDBDETAILVIEWSTYLE
  2
AcDbDetailViewStyle
  3
ObjectDBX Classes
 90
     1025
 91
        1
280
     0
281
     0
  0
CLASS
  1
RASTERVARIABLES
  2
AcDbRasterVariables
  3
ISM
 90
        0
 91
        1
280
     0
281
     0
  0
CLASS
  1
SORTENTSTABLE
  2
AcDbSortentsTable
  3
ObjectDBX Classes
 90
        0
 91
        1
280
     0
281
     0
  0
ENDSEC
  0
SECTION
  2
TABLES
  0
TABLE
  2
VPORT
  5
8
330
0
100
AcDbSymbolTable
 70
    16
  0
VPORT
  5
29
330
8
100
AcDbSymbolTableRecord
100
AcDbViewportTableRecord
  2
*Active
 70
     0
 10
0.0
 20
0.0
 11
1.0
 21
1.0
 12
229.208880996146
 22
243.0243508056269
 13
0.0
 23
0.0
 14
0.5
 24
0.5
 15
0.5
 25
0.5
 16
0.0
 26
0.0
 36
1.0
 17
0.0
 27
0.0
 37
0.0
 40
214.8898417835708
 41
2.283154121863799
 42
50.0
 43
759.6316309999999
 44
-759.6316309999999
 50
0.0
 51
0.0
 71
     0
 72
   100
 73
     1
 74
     3
 75
     0
 76
     0
 77
     0
 78
     0
281
     0
 65
     1
110
215.144248
120
243.731161
130
0.0
111
1.0
121
0.0
131
0.0
112
0.0
122
1.0
132
0.0
 79
     0
146
0.0
1001
ACAD_NAV_VCDISPLAY
1070
     3
  0
VPORT
  5
23B
330
8
100
AcDbSymbolTableRecord
100
AcDbViewportTableRecord
  2
L1
 70
     0
 10
0.0
 20
0.0
 11
1.0
 21
1.0
 12
370.307462
 22
162.569708
 13
0.0
 23
0.0
 14
0.5
 24
0.5
 15
0.5
 25
0.5
 16
0.0
 26
0.0
 36
1.0
 17
0.0
 27
0.0
 37
0.0
 40
209.020833
 41
0.084952
 42
50.0
 43
759.6316309999999
 44
-759.6316309999999
 50
0.0
 51
0.0
 71
     0
 72
   100
 73
     1
 74
     3
 75
     0
 76
     0
 77
     0
 78
     0
281
     0
 65
     1
110
0.0
120
0.0
130
0.0
111
1.0
121
0.0
131
0.0
112
0.0
122
1.0
132
0.0
 79
     0
146
0.0
  0
VPORT
  5
23C
330
8
100
AcDbSymbolTableRecord
100
AcDbViewportTableRecord
  2
L2
 70
     0
 10
0.0
 20
0.0
 11
0.5
 21
1.0
 12
0.0
 22
0.0
 13
0.0
 23
0.0
 14
0.5
 24
0.5
 15
0.5
 25
0.5
 16
0.0
 26
-1.0
 36
0.0
 17
0.0
 27
0.0
 37
0.0
 40
1485.861838
 41
0.01195
 42
50.0
 43
769.0441269999999
 44
-769.0441269999999
 50
0.0
 51
0.0
 71
     0
 72
   100
 73
     1
 74
     3
 75
     0
 76
     0
 77
     0
 78
     0
281
     0
 65
     1
110
0.0
120
0.0
130
0.0
111
1.0
121
0.0
131
0.0
112
0.0
122
1.0
132
0.0
 79
     0
146
0.0
  0
VPORT
  5
23D
330
8
100
AcDbSymbolTableRecord
100
AcDbViewportTableRecord
  2
L2
 70
     0
 10
0.5
 20
0.0
 11
1.0
 21
1.0
 12
0.0
 22
0.0
 13
0.0
 23
0.0
 14
0.5
 24
0.5
 15
0.5
 25
0.5
 16
1.0
 26
0.0
 36
0.0
 17
0.0
 27
0.0
 37
0.0
 40
1485.861838
 41
0.01195
 42
50.0
 43
750.245812
 44
-750.245812
 50
0.0
 51
0.0
 71
     0
 72
   100
 73
     1
 74
     3
 75
     0
 76
     0
 77
     0
 78
     0
281
     0
 65
     1
110
0.0
120
0.0
130
0.0
111
1.0
121
0.0
131
0.0
112
0.0
122
1.0
132
0.0
 79
     0
146
0.0
  0
VPORT
  5
23E
330
8
100
AcDbSymbolTableRecord
100
AcDbViewportTableRecord
  2
L3
 70
     0
 10
0.0
 20
0.5
 11
1.0
 21
1.0
 12
370.307462
 22
162.569708
 13
0.0
 23
0.0
 14
0.5
 24
0.5
 15
0.5
 25
0.5
 16
0.0
 26
0.0
 36
1.0
 17
0.0
 27
0.0
 37
0.0
 40
209.020833
 41
0.084952
 42
50.0
 43
759.6316309999999
 44
-759.6316309999999
 50
0.0
 51
0.0
 71
     0
 72
   100
 73
     1
 74
     3
 75
     0
 76
     0
 77
     0
 78
     0
281
     0
 65
     1
110
0.0
120
0.0
130
0.0
111
1.0
121
0.0
131
0.0
112
0.0
122
1.0
132
0.0
 79
     0
146
0.0
  0
VPORT
  5
23F
330
8
100
AcDbSymbolTableRecord
100
AcDbViewportTableRecord
  2
L3
 70
     0
 10
0.0
 20
0.0
 11
1.0
 21
0.5
 12
0.0
 22
0.0
 13
0.0
 23
0.0
 14
0.5
 24
0.5
 15
0.5
 25
0.5
 16
0.0
 26
-1.0
 36
0.0
 17
0.0
 27
0.0
 37
0.0
 40
1485.861838
 41
0.01195
 42
50.0
 43
769.0441269999999
 44
-769.0441269999999
 50
0.0
 51
0.0
 71
     0
 72
   100
 73
     1
 74
     3
 75
     0
 76
     0
 77
     0
 78
     0
281
     0
 65
     1
110
0.0
120
0.0
130
0.0
111
1.0
121
0.0
131
0.0
112
0.0
122
1.0
132
0.0
 79
     0
146
0.0
  0
VPORT
  5
240
330
8
100
AcDbSymbolTableRecord
100
AcDbViewportTableRecord
  2
L4
 70
     0
 10
0.0
 20
0.5
 11
0.5
 21
1.0
 12
370.307462
 22
162.569708
 13
0.0
 23
0.0
 14
0.5
 24
0.5
 15
0.5
 25
0.5
 16
0.0
 26
0.0
 36
1.0
 17
0.0
 27
0.0
 37
0.0
 40
209.020833
 41
0.084952
 42
50.0
 43
759.6316309999999
 44
-759.6316309999999
 50
0.0
 51
0.0
 71
     0
 72
   100
 73
     1
 74
     3
 75
     0
 76
     0
 77
     0
 78
     0
281
     0
 65
     1
110
0.0
120
0.0
130
0.0
111
1.0
121
0.0
131
0.0
112
0.0
122
1.0
132
0.0
 79
     0
146
0.0
  0
VPORT
  5
241
330
8
100
AcDbSymbolTableRecord
100
AcDbViewportTableRecord
  2
L4
 70
     0
 10
0.0
 20
0.0
 11
0.5
 21
0.5
 12
0.0
 22
0.0
 13
0.0
 23
0.0
 14
0.5
 24
0.5
 15
0.5
 25
0.5
 16
0.0
 26
-1.0
 36
0.0
 17
0.0
 27
0.0
 37
0.0
 40
1485.861838
 41
0.01195
 42
50.0
 43
769.0441269999999
 44
-769.0441269999999
 50
0.0
 51
0.0
 71
     0
 72
   100
 73
     1
 74
     3
 75
     0
 76
     0
 77
     0
 78
     0
281
     0
 65
     1
110
0.0
120
0.0
130
0.0
111
1.0
121
0.0
131
0.0
112
0.0
122
1.0
132
0.0
 79
     0
146
0.0
  0
VPORT
  5
242
330
8
100
AcDbSymbolTableRecord
100
AcDbViewportTableRecord
  2
L4
 70
     0
 10
0.5
 20
0.0
 11
1.0
 21
0.5
 12
0.0
 22
0.0
 13
0.0
 23
0.0
 14
0.5
 24
0.5
 15
0.5
 25
0.5
 16
1.0
 26
0.0
 36
0.0
 17
0.0
 27
0.0
 37
0.0
 40
1485.861838
 41
0.01195
 42
50.0
 43
750.245812
 44
-750.245812
 50
0.0
 51
0.0
 71
     0
 72
   100
 73
     1
 74
     3
 75
     0
 76
     0
 77
     0
 78
     0
281
     0
 65
     1
110
0.0
120
0.0
130
0.0
111
1.0
121
0.0
131
0.0
112
0.0
122
1.0
132
0.0
 79
     0
146
0.0
  0
VPORT
  5
243
330
8
100
AcDbSymbolTableRecord
100
AcDbViewportTableRecord
  2
L4
 70
     0
 10
0.5
 20
0.5
 11
1.0
 21
1.0
 12
0.0
 22
0.0
 13
0.0
 23
0.0
 14
0.5
 24
0.5
 15
0.5
 25
0.5
 16
0.5773502691896259
 26
-0.5773502691896259
 36
0.5773502691896259
 17
0.0
 27
0.0
 37
0.0
 40
1460.77308
 41
0.012156
 42
50.0
 43
761.2052339999999
 44
-761.2052339999999
 50
0.0
 51
0.0
 71
     0
 72
   100
 73
     1
 74
     3
 75
     0
 76
     0
 77
     0
 78
     0
281
     0
 65
     1
110
0.0
120
0.0
130
0.0
111
1.0
121
0.0
131
0.0
112
0.0
122
1.0
132
0.0
 79
     0
146
0.0
  0
VPORT
  5
244
330
8
100
AcDbSymbolTableRecord
100
AcDbViewportTableRecord
  2
L6
 70
     0
 10
0.0
 20
0.5
 11
0.333333
 21
1.0
 12
0.0
 22
0.0
 13
0.0
 23
0.0
 14
0.5
 24
0.5
 15
0.5
 25
0.5
 16
0.7188730927569434
 26
-0.5850486126764433
 36
0.3754192287502549
 17
0.0
 27
0.0
 37
0.0
 40
1542.425587
 41
0.011512
 42
50.0
 43
798.3761809999999
 44
-798.3761809999999
 50
0.0
 51
0.0
 71
     0
 72
   100
 73
     1
 74
     3
 75
     0
 76
     0
 77
     0
 78
     0
281
     0
 65
     1
110
0.0
120
0.0
130
0.0
111
1.0
121
0.0
131
0.0
112
0.0
122
1.0
132
0.0
 79
     0
146
0.0
  0
VPORT
  5
245
330
8
100
AcDbSymbolTableRecord
100
AcDbViewportTableRecord
  2
L6
 70
     0
 10
0.0
 20
0.0
 11
0.333333
 21
0.5
 12
0.0
 22
0.0
 13
0.0
 23
0.0
 14
0.5
 24
0.5
 15
0.5
 25
0.5
 16
-1.0
 26
0.0
 36
0.0
 17
0.0
 27
0.0
 37
0.0
 40
1485.861838
 41
0.01195
 42
50.0
 43
750.245812
 44
-750.245812
 50
0.0
 51
0.0
 71
     0
 72
   100
 73
     1
 74
     3
 75
     0
 76
     0
 77
     0
 78
     0
281
     0
 65
     1
110
0.0
120
0.0
130
0.0
111
1.0
121
0.0
131
0.0
112
0.0
122
1.0
132
0.0
 79
     0
146
0.0
  0
VPORT
  5
246
330
8
100
AcDbSymbolTableRecord
100
AcDbViewportTableRecord
  2
L6
 70
     0
 10
0.333333
 20
0.5
 11
0.666667
 21
1.0
 12
370.307462
 22
162.569708
 13
0.0
 23
0.0
 14
0.5
 24
0.5
 15
0.5
 25
0.5
 16
0.0
 26
0.0
 36
1.0
 17
0.0
 27
0.0
 37
0.0
 40
209.020833
 41
0.084952
 42
50.0
 43
759.6316309999999
 44
-759.6316309999999
 50
0.0
 51
0.0
 71
     0
 72
   100
 73
     1
 74
     3
 75
     0
 76
     0
 77
     0
 78
     0
281
     0
 65
     1
110
0.0
120
0.0
130
0.0
111
1.0
121
0.0
131
0.0
112
0.0
122
1.0
132
0.0
 79
     0
146
0.0
  0
VPORT
  5
247
330
8
100
AcDbSymbolTableRecord
100
AcDbViewportTableRecord
  2
L6
 70
     0
 10
0.333333
 20
0.0
 11
0.666667
 21
0.5
 12
0.0
 22
0.0
 13
0.0
 23
0.0
 14
0.5
 24
0.5
 15
0.5
 25
0.5
 16
0.0
 26
-1.0
 36
0.0
 17
0.0
 27
0.0
 37
0.0
 40
1485.861838
 41
0.01195
 42
50.0
 43
769.0441269999999
 44
-769.0441269999999
 50
0.0
 51
0.0
 71
     0
 72
   100
 73
     1
 74
     3
 75
     0
 76
     0
 77
     0
 78
     0
281
     0
 65
     1
110
0.0
120
0.0
130
0.0
111
1.0
121
0.0
131
0.0
112
0.0
122
1.0
132
0.0
 79
     0
146
0.0
  0
VPORT
  5
248
330
8
100
AcDbSymbolTableRecord
100
AcDbViewportTableRecord
  2
L6
 70
     0
 10
0.666667
 20
0.5
 11
1.0
 21
1.0
 12
0.0
 22
0.0
 13
0.0
 23
0.0
 14
0.5
 24
0.5
 15
0.5
 25
0.5
 16
0.5773502691896259
 26
-0.5773502691896259
 36
0.5773502691896259
 17
0.0
 27
0.0
 37
0.0
 40
1460.77308
 41
0.012156
 42
50.0
 43
761.2052339999999
 44
-761.2052339999999
 50
0.0
 51
0.0
 71
     0
 72
   100
 73
     1
 74
     3
 75
     0
 76
     0
 77
     0
 78
     0
281
     0
 65
     1
110
0.0
120
0.0
130
0.0
111
1.0
121
0.0
131
0.0
112
0.0
122
1.0
132
0.0
 79
     0
146
0.0
  0
VPORT
  5
249
330
8
100
AcDbSymbolTableRecord
100
AcDbViewportTableRecord
  2
L6
 70
     0
 10
0.666667
 20
0.0
 11
1.0
 21
0.5
 12
0.0
 22
0.0
 13
0.0
 23
0.0
 14
0.5
 24
0.5
 15
0.5
 25
0.5
 16
1.0
 26
0.0
 36
0.0
 17
0.0
 27
0.0
 37
0.0
 40
1485.861838
 41
0.01195
 42
50.0
 43
750.245812
 44
-750.245812
 50
0.0
 51
0.0
 71
     0
 72
   100
 73
     1
 74
     3
 75
     0
 76
     0
 77
     0
 78
     0
281
     0
 65
     1
110
0.0
120
0.0
130
0.0
111
1.0
121
0.0
131
0.0
112
0.0
122
1.0
132
0.0
 79
     0
146
0.0
  0
ENDTAB
  0
TABLE
  2
LTYPE
  5
5
330
0
100
AcDbSymbolTable
 70
     7
  0
LTYPE
  5
14
330
5
100
AcDbSymbolTableRecord
100
AcDbLinetypeTableRecord
  2
ByBlock
 70
     0
  3

 72
    65
 73
     0
 40
0.0
  0
LTYPE
  5
15
330
5
100
AcDbSymbolTableRecord
100
AcDbLinetypeTableRecord
  2
ByLayer
 70
     0
  3

 72
    65
 73
     0
 40
0.0
  0
LTYPE
  5
16
330
5
100
AcDbSymbolTableRecord
100
AcDbLinetypeTableRecord
  2
Continuous
 70
     0
  3
Solid line
 72
    65
 73
     0
 40
0.0
  0
LTYPE
  5
6E
330
5
100
AcDbSymbolTableRecord
100
AcDbLinetypeTableRecord
  2
CENTER
 70
     0
  3
____ _ ____ _ ____ _ ____
 72
    65
 73
     4
 40
47.4
 49
22.0
 74
     4
 75
     0
340
0
 46
0.0
 50
0.0
 44
0.0
 45
0.0
 49
-8.5
 74
     4
 75
     0
340
0
 46
0.0
 50
0.0
 44
0.0
 45
0.0
 49
8.5
 74
     4
 75
     0
340
0
 46
0.0
 50
0.0
 44
0.0
 45
0.0
 49
-8.5
 74
     4
 75
     0
340
0
 46
0.0
 50
0.0
 44
0.0
 45
0.0
  0
LTYPE
  5
6F
330
5
100
AcDbSymbolTableRecord
100
AcDbLinetypeTableRecord
  2
DASHDOT
 70
     0
  3
_._._._._._._._._._._._._._._._.
 72
    65
 73
     4
 40
70.0
 49
31.0
 74
     4
 75
     0
340
0
 46
0.0
 50
0.0
 44
0.0
 45
0.0
 49
-13.0
 74
     4
 75
     0
340
0
 46
0.0
 50
0.0
 44
0.0
 45
0.0
 49
13.0
 74
     4
 75
     0
340
0
 46
0.0
 50
0.0
 44
0.0
 45
0.0
 49
-13.0
 74
     4
 75
     0
340
0
 46
0.0
 50
0.0
 44
0.0
 45
0.0
  0
LTYPE
  5
70
330
5
100
AcDbSymbolTableRecord
100
AcDbLinetypeTableRecord
  2
DASHED
 70
     0
  3
__ __ __ __ __ __ __ __ __
 72
    65
 73
     2
 40
25.72
 49
12.86
 74
     4
 75
     0
340
0
 46
0.0
 50
0.0
 44
0.0
 45
0.0
 49
-12.86
 74
     4
 75
     0
340
0
 46
0.0
 50
0.0
 44
0.0
 45
0.0
  0
LTYPE
  5
71
330
5
100
AcDbSymbolTableRecord
100
AcDbLinetypeTableRecord
  2
DOT
 70
     0
  3
.........................
 72
    65
 73
     2
 40
10.0
 49
0.0
 74
     4
 75
     0
340
0
 46
0.0
 50
0.0
 44
0.0
 45
0.0
 49
-10.0
 74
     4
 75
     0
340
0
 46
0.0
 50
0.0
 44
0.0
 45
0.0
  0
LTYPE
  5
72
330
5
100
AcDbSymbolTableRecord
100
AcDbLinetypeTableRecord
  2
PHANTOM
 70
     0
  3
____ _ _ ____ _ _ _____ _ _ ____
 72
    65
 73
     6
 40
50.5
 49
18.0
 74
     4
 75
     0
340
0
 46
0.0
 50
0.0
 44
0.0
 45
0.0
 49
-6.5
 74
     4
 75
     0
340
0
 46
0.0
 50
0.0
 44
0.0
 45
0.0
 49
6.5
 74
     4
 75
     0
340
0
 46
0.0
 50
0.0
 44
0.0
 45
0.0
 49
-6.5
 74
     4
 75
     0
340
0
 46
0.0
 50
0.0
 44
0.0
 45
0.0
 49
6.5
 74
     4
 75
     0
340
0
 46
0.0
 50
0.0
 44
0.0
 45
0.0
 49
-6.5
 74
     4
 75
     0
340
0
 46
0.0
 50
0.0
 44
0.0
 45
0.0
  0
LTYPE
  5
313
330
5
100
AcDbSymbolTableRecord
100
AcDbLinetypeTableRecord
  2
CENTER2
 70
     0
  3
Center (.5x) ___ _ ___ _ ___ _ ___ _ ___ _ ___
 72
    65
 73
     4
 40
1.125
 49
0.75
 74
     0
 49
-0.125
 74
     0
 49
0.125
 74
     0
 49
-0.125
 74
     0
  0
ENDTAB
  0
TABLE
  2
LAYER
  5
2
330
0
100
AcDbSymbolTable
 70
    22
  0
LAYER
  5
10
102
{ACAD_XDICTIONARY
360
31E
102
}
330
2
100
AcDbSymbolTableRecord
100
AcDbLayerTableRecord
  2
0
 70
     0
 62
     7
  6
Continuous
370
    -3
390
F
  0
LAYER
  5
1AC
330
2
100
AcDbSymbolTableRecord
100
AcDbLayerTableRecord
  2
Defpoints
 70
     0
 62
     7
  6
Continuous
290
     0
370
    -3
390
F
  0
LAYER
  5
310
102
{ACAD_XDICTIONARY
360
320
102
}
330
2
100
AcDbSymbolTableRecord
100
AcDbLayerTableRecord
  2
1
 70
     0
 62
     4
  6
Continuous
370
    -3
390
F
  0
LAYER
  5
311
102
{ACAD_XDICTIONARY
360
322
102
}
330
2
100
AcDbSymbolTableRecord
100
AcDbLayerTableRecord
  2
2
 70
     0
 62
     7
  6
Continuous
370
    -3
390
F
  0
LAYER
  5
312
102
{ACAD_XDICTIONARY
360
324
102
}
330
2
100
AcDbSymbolTableRecord
100
AcDbLayerTableRecord
  2
4
 70
     0
 62
     2
  6
CENTER2
370
    -3
390
F
  0
LAYER
  5
314
102
{ACAD_XDICTIONARY
360
326
102
}
330
2
100
AcDbSymbolTableRecord
100
AcDbLayerTableRecord
  2
SK1
 70
     0
 62
     4
  6
Continuous
370
    -3
390
F
  0
LAYER
  5
315
102
{ACAD_XDICTIONARY
360
328
102
}
330
2
100
AcDbSymbolTableRecord
100
AcDbLayerTableRecord
  2
SK2
 70
     0
 62
     7
  6
Continuous
370
    -3
390
F
  0
LAYER
  5
317
102
{ACAD_XDICTIONARY
360
32A
102
}
330
2
100
AcDbSymbolTableRecord
100
AcDbLayerTableRecord
  2
SK4
 70
     0
 62
     2
  6
CENTER2
370
    -3
390
F
  0
LAYER
  5
318
102
{ACAD_XDICTIONARY
360
32C
102
}
330
2
100
AcDbSymbolTableRecord
100
AcDbLayerTableRecord
  2
SK6
 70
     0
 62
     5
  6
Continuous
370
    -3
390
F
  0
LAYER
  5
319
102
{ACAD_XDICTIONARY
360
32E
102
}
330
2
100
AcDbSymbolTableRecord
100
AcDbLayerTableRecord
  2
CUT
 70
     0
 62
     1
  6
Continuous
370
    -3
390
F
  0
LAYER
  5
31A
102
{ACAD_XDICTIONARY
360
330
102
}
330
2
100
AcDbSymbolTableRecord
100
AcDbLayerTableRecord
  2
NOCUT
 70
     0
 62
     7
  6
Continuous
370
    -3
390
F
  0
LAYER
  5
31B
102
{ACAD_XDICTIONARY
360
332
102
}
330
2
100
AcDbSymbolTableRecord
100
AcDbLayerTableRecord
  2
80
 70
     0
 62
     6
  6
Continuous
370
    -3
390
F
  0
LAYER
  5
31C
102
{ACAD_XDICTIONARY
360
334
102
}
330
2
100
AcDbSymbolTableRecord
100
AcDbLayerTableRecord
  2
81
 70
     0
 62
     3
  6
Continuous
370
    -3
390
F
  0
ENDTAB
  0
TABLE
  2
STYLE
  5
3
330
0
100
AcDbSymbolTable
 70
     3
  0
STYLE
  5
11
330
3
100
AcDbSymbolTableRecord
100
AcDbTextStyleTableRecord
  2
Standard
 70
     0
 40
0.0
 41
1.0
 50
0.0
 71
     0
 42
0.2
  3
txt
  4

  0
STYLE
  5
1A6
330
3
100
AcDbSymbolTableRecord
100
AcDbTextStyleTableRecord
  2
cesky
 70
     0
 40
0.0
 41
1.0
 50
0.0
 71
     0
 42
0.2
  3
Monospac821 BT
  4

1001
ACAD
1000
Monospac821 BT
1071
        0
  0
STYLE
  5
1A7
330
3
100
AcDbSymbolTableRecord
100
AcDbTextStyleTableRecord
  2
DWGDirectTextStyle
 70
     0
 40
0.0
 41
1.0
 50
0.0
 71
     0
 42
0.2
  3
Monospac821 BT
  4

  0
ENDTAB
  0
TABLE
  2
VIEW
  5
6
330
0
100
AcDbSymbolTable
 70
     0
  0
ENDTAB
  0
TABLE
  2
UCS
  5
7
330
0
100
AcDbSymbolTable
 70
     0
  0
ENDTAB
  0
TABLE
  2
APPID
  5
9
330
0
100
AcDbSymbolTable
 70
     7
  0
APPID
  5
12
330
9
100
AcDbSymbolTableRecord
100
AcDbRegAppTableRecord
  2
ACAD
 70
     0
  0
APPID
  5
1A8
330
9
100
AcDbSymbolTableRecord
100
AcDbRegAppTableRecord
  2
ACAD_DSTYLE_DIMBREAK
 70
     0
  0
APPID
  5
24A
330
9
100
AcDbSymbolTableRecord
100
AcDbRegAppTableRecord
  2
ACAD_DSTYLE_DIM_LINETYPE
 70
     0
  0
APPID
  5
24B
330
9
100
AcDbSymbolTableRecord
100
AcDbRegAppTableRecord
  2
ACAD_DSTYLE_DIM_EXT1_LINETYPE
 70
     0
  0
APPID
  5
24C
330
9
100
AcDbSymbolTableRecord
100
AcDbRegAppTableRecord
  2
ACAD_DSTYLE_DIM_EXT2_LINETYPE
 70
     0
  0
APPID
  5
28C
330
9
100
AcDbSymbolTableRecord
100
AcDbRegAppTableRecord
  2
ACAD_MLEADERVER
 70
     0
  0
APPID
  5
339
330
9
100
AcDbSymbolTableRecord
100
AcDbRegAppTableRecord
  2
ACAD_NAV_VCDISPLAY
 70
     0
  0
ENDTAB
  0
TABLE
  2
DIMSTYLE
  5
A
330
0
100
AcDbSymbolTable
 70
     1
100
AcDbDimStyleTable
 71
     0
  0
DIMSTYLE
105
27
330
A
100
AcDbSymbolTableRecord
100
AcDbDimStyleTableRecord
  2
Standard
 70
     0
340
11
1001
ACAD_DSTYLE_DIMBREAK
1070
   391
1040
6.349999999999999
  0
ENDTAB
  0
TABLE
  2
BLOCK_RECORD
  5
1
330
0
100
AcDbSymbolTable
 70
    13
  0
BLOCK_RECORD
  5
1F
102
{ACAD_XDICTIONARY
360
2A0
102
}
330
1
100
AcDbSymbolTableRecord
100
AcDbBlockTableRecord
  2
*Model_Space
340
22
  0
BLOCK_RECORD
  5
1B
330
1
100
AcDbSymbolTableRecord
100
AcDbBlockTableRecord
  2
*Paper_Space
340
1E
  0
BLOCK_RECORD
  5
23
330
1
100
AcDbSymbolTableRecord
100
AcDbBlockTableRecord
  2
*Paper_Space0
340
26
  0
BLOCK_RECORD
  5
1AD
330
1
100
AcDbSymbolTableRecord
100
AcDbBlockTableRecord
  2
*D1
340
0
  0
BLOCK_RECORD
  5
1B9
330
1
100
AcDbSymbolTableRecord
100
AcDbBlockTableRecord
  2
_U0
340
0
  0
BLOCK_RECORD
  5
1C6
330
1
100
AcDbSymbolTableRecord
100
AcDbBlockTableRecord
  2
*D3
340
0
  0
BLOCK_RECORD
  5
1D1
330
1
100
AcDbSymbolTableRecord
100
AcDbBlockTableRecord
  2
_U1
340
0
  0
BLOCK_RECORD
  5
1DC
330
1
100
AcDbSymbolTableRecord
100
AcDbBlockTableRecord
  2
*D5
340
0
  0
BLOCK_RECORD
  5
1E8
330
1
100
AcDbSymbolTableRecord
100
AcDbBlockTableRecord
  2
_U2
340
0
  0
BLOCK_RECORD
  5
1F4
330
1
100
AcDbSymbolTableRecord
100
AcDbBlockTableRecord
  2
*D7
340
0
  0
BLOCK_RECORD
  5
200
330
1
100
AcDbSymbolTableRecord
100
AcDbBlockTableRecord
  2
_U3
340
0
  0
BLOCK_RECORD
  5
20C
330
1
100
AcDbSymbolTableRecord
100
AcDbBlockTableRecord
  2
*D9
340
0
  0
BLOCK_RECORD
  5
21A
330
1
100
AcDbSymbolTableRecord
100
AcDbBlockTableRecord
  2
_U4
340
0
  0
BLOCK_RECORD
  5
226
330
1
100
AcDbSymbolTableRecord
100
AcDbBlockTableRecord
  2
*D11
340
0
  0
BLOCK_RECORD
  5
232
330
1
100
AcDbSymbolTableRecord
100
AcDbBlockTableRecord
  2
_U5
340
0
  0
ENDTAB
  0
ENDSEC
  0
SECTION
  2
BLOCKS
  0
BLOCK
  5
20
330
1F
100
AcDbEntity
  8
0
100
AcDbBlockBegin
  2
*Model_Space
 70
     0
 10
0.0
 20
0.0
 30
0.0
  3
*Model_Space
  1

  0
ENDBLK
  5
21
330
1F
100
AcDbEntity
  8
0
100
AcDbBlockEnd
  0
BLOCK
  5
1C
330
1B
100
AcDbEntity
 67
     1
  8
0
100
AcDbBlockBegin
  2
*Paper_Space
 70
     0
 10
0.0
 20
0.0
 30
0.0
  3
*Paper_Space
  1

  0
ENDBLK
  5
1D
330
1B
100
AcDbEntity
 67
     1
  8
0
100
AcDbBlockEnd
  0
BLOCK
  5
24
330
23
100
AcDbEntity
 67
     1
  8
0
100
AcDbBlockBegin
  2
*Paper_Space0
 70
     0
 10
0.0
 20
0.0
 30
0.0
  3
*Paper_Space0
  1

  0
ENDBLK
  5
25
330
23
100
AcDbEntity
 67
     1
  8
0
100
AcDbBlockEnd
  0
BLOCK
  5
1AE
330
1AD
100
AcDbEntity
  8
0
100
AcDbBlockBegin
  2
*D1
 70
     1
 10
0.0
 20
0.0
 30
0.0
  3
*D1
  1

  0
LINE
  5
1B0
330
1AD
100
AcDbEntity
  8
0
 62
    95
370
    -2
100
AcDbLine
 10
179.4985669999999
 20
251.731161
 30
0.0
 11
157.998783
 21
251.731161
 31
0.0
  0
LINE
  5
1B1
330
1AD
100
AcDbEntity
  8
0
 62
    95
370
    -2
100
AcDbLine
 10
181.161452
 20
235.731161
 30
0.0
 11
157.998783
 21
235.731161
 31
0.0
  0
LINE
  5
1B2
330
1AD
100
AcDbEntity
  8
0
 62
    95
370
    -2
100
AcDbLine
 10
158.998783
 20
248.231161
 30
0.0
 11
158.998783
 21
239.231161
 31
0.0
  0
SOLID
  5
1B3
330
1AD
100
AcDbEntity
  8
0
 62
    95
100
AcDbTrace
 10
159.582116
 20
248.231161
 30
0.0
 11
158.41545
 21
248.231161
 31
0.0
 12
158.998783
 22
251.731161
 32
0.0
 13
158.998783
 23
251.731161
 33
0.0
  0
SOLID
  5
1B4
330
1AD
100
AcDbEntity
  8
0
 62
    95
100
AcDbTrace
 10
158.41545
 20
239.231161
 30
0.0
 11
159.582116
 21
239.231161
 31
0.0
 12
158.998783
 22
235.731161
 32
0.0
 13
158.998783
 23
235.731161
 33
0.0
  0
MTEXT
  5
1B5
330
1AD
100
AcDbEntity
  8
0
 62
    95
370
    13
100
AcDbMText
 10
153.687533
 20
243.731161
 30
0.0
 40
3.5
 41
0.0
 71
     5
 72
     1
  1
\A1;16
  7
cesky
 11
0.0
 21
1.0
 31
0.0
 73
     1
 44
1.0
  0
POINT
  5
1B6
330
1AD
100
AcDbEntity
  8
Defpoints
 62
     0
100
AcDbPoint
 10
179.4985669999999
 20
251.731161
 30
0.0
  0
POINT
  5
1B7
330
1AD
100
AcDbEntity
  8
Defpoints
 62
     0
100
AcDbPoint
 10
181.161452
 20
235.731161
 30
0.0
  0
POINT
  5
1B8
330
1AD
100
AcDbEntity
  8
Defpoints
 62
     0
100
AcDbPoint
 10
158.998783
 20
235.731161
 30
0.0
  0
ENDBLK
  5
1AF
330
1AD
100
AcDbEntity
  8
0
100
AcDbBlockEnd
  0
BLOCK
  5
1C1
330
1B9
100
AcDbEntity
  8
0
100
AcDbBlockBegin
  2
_U0
 70
     0
 10
0.0
 20
0.0
 30
0.0
  3
_U0
  1

  0
ENDBLK
  5
1C2
330
1B9
100
AcDbEntity
  8
0
100
AcDbBlockEnd
  0
BLOCK
  5
1C7
330
1C6
100
AcDbEntity
  8
0
100
AcDbBlockBegin
  2
*D3
 70
     1
 10
0.0
 20
0.0
 30
0.0
  3
*D3
  1

  0
LINE
  5
1C9
330
1C6
100
AcDbEntity
  8
0
 62
   254
370
    -2
100
AcDbLine
 10
168.144248
 20
243.731161
 30
0.0
 11
284.935839
 21
243.731161
 31
0.0
  0
LINE
  5
1CA
330
1C6
100
AcDbEntity
  8
0
 62
   254
370
    -2
100
AcDbLine
 10
269.144248
 20
251.731161
 30
0.0
 11
284.935839
 21
251.731161
 31
0.0
  0
LINE
  5
1CB
330
1C6
100
AcDbEntity
  8
0
 62
   254
370
    -2
100
AcDbLine
 10
283.935839
 20
255.231161
 30
0.0
 11
283.935839
 21
258.731161
 31
0.0
  0
SOLID
  5
1CC
330
1C6
100
AcDbEntity
  8
0
 62
   254
100
AcDbTrace
 10
283.352506
 20
255.231161
 30
0.0
 11
284.519172
 21
255.231161
 31
0.0
 12
283.935839
 22
251.731161
 32
0.0
 13
283.935839
 23
251.731161
 33
0.0
  0
MTEXT
  5
1CD
330
1C6
100
AcDbEntity
  8
0
 62
   254
370
    13
100
AcDbMText
 10
278.624589
 20
230.644661
 30
0.0
 40
3.5
 41
0.0
 71
     5
 72
     1
  1
\A1;16
  7
cesky
 11
0.0
 21
1.0
 31
0.0
 73
     1
 44
1.0
  0
POINT
  5
1CE
330
1C6
100
AcDbEntity
  8
Defpoints
 62
     0
100
AcDbPoint
 10
168.144248
 20
243.731161
 30
0.0
  0
POINT
  5
1CF
330
1C6
100
AcDbEntity
  8
Defpoints
 62
     0
100
AcDbPoint
 10
269.144248
 20
251.731161
 30
0.0
  0
POINT
  5
1D0
330
1C6
100
AcDbEntity
  8
Defpoints
 62
     0
100
AcDbPoint
 10
283.935839
 20
251.731161
 30
0.0
  0
ENDBLK
  5
1C8
330
1C6
100
AcDbEntity
  8
0
100
AcDbBlockEnd
  0
BLOCK
  5
1D7
330
1D1
100
AcDbEntity
  8
0
100
AcDbBlockBegin
  2
_U1
 70
     0
 10
0.0
 20
0.0
 30
0.0
  3
_U1
  1

  0
ENDBLK
  5
1D8
330
1D1
100
AcDbEntity
  8
0
100
AcDbBlockEnd
  0
BLOCK
  5
1DD
330
1DC
100
AcDbEntity
  8
0
100
AcDbBlockBegin
  2
*D5
 70
     1
 10
0.0
 20
0.0
 30
0.0
  3
*D5
  1

  0
LINE
  5
1DF
330
1DC
100
AcDbEntity
  8
0
 62
    95
370
    -2
100
AcDbLine
 10
167.144248
 20
250.731161
 30
0.0
 11
167.144248
 21
300.185289
 31
0.0
  0
LINE
  5
1E0
330
1DC
100
AcDbEntity
  8
0
 62
    95
370
    -2
100
AcDbLine
 10
267.144248
 20
251.731161
 30
0.0
 11
267.144248
 21
300.185289
 31
0.0
  0
LINE
  5
1E1
330
1DC
100
AcDbEntity
  8
0
 62
    95
370
    -2
100
AcDbLine
 10
170.644248
 20
299.185289
 30
0.0
 11
263.644248
 21
299.185289
 31
0.0
  0
SOLID
  5
1E2
330
1DC
100
AcDbEntity
  8
0
 62
    95
100
AcDbTrace
 10
170.644248
 20
299.768623
 30
0.0
 11
170.644248
 21
298.601956
 31
0.0
 12
167.144248
 22
299.185289
 32
0.0
 13
167.144248
 23
299.185289
 33
0.0
  0
SOLID
  5
1E3
330
1DC
100
AcDbEntity
  8
0
 62
    95
100
AcDbTrace
 10
263.644248
 20
298.601956
 30
0.0
 11
263.644248
 21
299.768623
 31
0.0
 12
267.144248
 22
299.185289
 32
0.0
 13
267.144248
 23
299.185289
 33
0.0
  0
MTEXT
  5
1E4
330
1DC
100
AcDbEntity
  8
0
 62
    95
370
    13
100
AcDbMText
 10
217.144248
 20
304.4965390000001
 30
0.0
 40
3.5
 41
0.0
 71
     5
 72
     1
  1
\A1;100
  7
cesky
 73
     1
 44
1.0
  0
POINT
  5
1E5
330
1DC
100
AcDbEntity
  8
Defpoints
 62
     0
100
AcDbPoint
 10
167.144248
 20
250.731161
 30
0.0
  0
POINT
  5
1E6
330
1DC
100
AcDbEntity
  8
Defpoints
 62
     0
100
AcDbPoint
 10
267.144248
 20
251.731161
 30
0.0
  0
POINT
  5
1E7
330
1DC
100
AcDbEntity
  8
Defpoints
 62
     0
100
AcDbPoint
 10
267.144248
 20
299.185289
 30
0.0
  0
ENDBLK
  5
1DE
330
1DC
100
AcDbEntity
  8
0
100
AcDbBlockEnd
  0
BLOCK
  5
1EF
330
1E8
100
AcDbEntity
  8
0
100
AcDbBlockBegin
  2
_U2
 70
     0
 10
0.0
 20
0.0
 30
0.0
  3
_U2
  1

  0
ENDBLK
  5
1F0
330
1E8
100
AcDbEntity
  8
0
100
AcDbBlockEnd
  0
BLOCK
  5
1F5
330
1F4
100
AcDbEntity
  8
0
100
AcDbBlockBegin
  2
*D7
 70
     1
 10
0.0
 20
0.0
 30
0.0
  3
*D7
  1

  0
LINE
  5
1F7
330
1F4
100
AcDbEntity
  8
0
 62
    95
370
    -2
100
AcDbLine
 10
267.144248
 20
253.731161
 30
0.0
 11
267.144248
 21
286.792925
 31
0.0
  0
LINE
  5
1F8
330
1F4
100
AcDbEntity
  8
0
 62
    95
370
    -2
100
AcDbLine
 10
215.144248
 20
242.731588
 30
0.0
 11
215.144248
 21
286.792925
 31
0.0
  0
LINE
  5
1F9
330
1F4
100
AcDbEntity
  8
0
 62
    95
370
    -2
100
AcDbLine
 10
263.644248
 20
285.792925
 30
0.0
 11
218.644248
 21
285.792925
 31
0.0
  0
SOLID
  5
1FA
330
1F4
100
AcDbEntity
  8
0
 62
    95
100
AcDbTrace
 10
263.644248
 20
285.209591
 30
0.0
 11
263.644248
 21
286.376258
 31
0.0
 12
267.144248
 22
285.792925
 32
0.0
 13
267.144248
 23
285.792925
 33
0.0
  0
SOLID
  5
1FB
330
1F4
100
AcDbEntity
  8
0
 62
    95
100
AcDbTrace
 10
218.644248
 20
286.376258
 30
0.0
 11
218.644248
 21
285.209591
 31
0.0
 12
215.144248
 22
285.792925
 32
0.0
 13
215.144248
 23
285.792925
 33
0.0
  0
MTEXT
  5
1FC
330
1F4
100
AcDbEntity
  8
0
 62
    95
370
    13
100
AcDbMText
 10
241.144248
 20
291.104175
 30
0.0
 40
3.5
 41
0.0
 71
     5
 72
     1
  1
\A1;52
  7
cesky
 73
     1
 44
1.0
  0
POINT
  5
1FD
330
1F4
100
AcDbEntity
  8
Defpoints
 62
     0
100
AcDbPoint
 10
267.144248
 20
253.731161
 30
0.0
  0
POINT
  5
1FE
330
1F4
100
AcDbEntity
  8
Defpoints
 62
     0
100
AcDbPoint
 10
215.144248
 20
242.731588
 30
0.0
  0
POINT
  5
1FF
330
1F4
100
AcDbEntity
  8
Defpoints
 62
     0
100
AcDbPoint
 10
215.144248
 20
285.792925
 30
0.0
  0
ENDBLK
  5
1F6
330
1F4
100
AcDbEntity
  8
0
100
AcDbBlockEnd
  0
BLOCK
  5
207
330
200
100
AcDbEntity
  8
0
100
AcDbBlockBegin
  2
_U3
 70
     0
 10
0.0
 20
0.0
 30
0.0
  3
_U3
  1

  0
ENDBLK
  5
208
330
200
100
AcDbEntity
  8
0
100
AcDbBlockEnd
  0
BLOCK
  5
20D
330
20C
100
AcDbEntity
  8
0
100
AcDbBlockBegin
  2
*D9
 70
     1
 10
0.0
 20
0.0
 30
0.0
  3
*D9
  1

  0
LINE
  5
20F
330
20C
100
AcDbEntity
  8
0
 62
   254
370
    -2
100
AcDbLine
 10
267.144248
 20
249.731161
 30
0.0
 11
267.144248
 21
261.208648
 31
0.0
  0
LINE
  5
210
330
20C
100
AcDbEntity
  8
0
 62
   254
370
    -2
100
AcDbLine
 10
266.129152
 20
251.436772
 30
0.0
 11
266.129152
 21
261.208648
 31
0.0
  0
LINE
  5
211
330
20C
100
AcDbEntity
  8
0
 62
   254
370
    -2
100
AcDbLine
 10
266.129152
 20
260.208648
 30
0.0
 11
250.855152
 21
260.208648
 31
0.0
  0
LINE
  5
212
330
20C
100
AcDbEntity
  8
0
 62
   254
370
    -2
100
AcDbLine
 10
270.644248
 20
260.208648
 30
0.0
 11
274.144248
 21
260.208648
 31
0.0
  0
LINE
  5
213
330
20C
100
AcDbEntity
  8
0
 62
   254
370
    -2
100
AcDbLine
 10
262.629152
 20
260.208648
 30
0.0
 11
259.129152
 21
260.208648
 31
0.0
  0
SOLID
  5
214
330
20C
100
AcDbEntity
  8
0
 62
   254
100
AcDbTrace
 10
270.644248
 20
260.791981
 30
0.0
 11
270.644248
 21
259.625315
 31
0.0
 12
267.144248
 22
260.208648
 32
0.0
 13
267.144248
 23
260.208648
 33
0.0
  0
SOLID
  5
215
330
20C
100
AcDbEntity
  8
0
 62
   254
100
AcDbTrace
 10
262.629152
 20
259.625315
 30
0.0
 11
262.629152
 21
260.791981
 31
0.0
 12
266.129152
 22
260.208648
 32
0.0
 13
266.129152
 23
260.208648
 33
0.0
  0
MTEXT
  5
216
330
20C
100
AcDbEntity
  8
0
 62
   254
370
    13
100
AcDbMText
 10
254.992152
 20
265.469148
 30
0.0
 40
3.5
 41
0.0
 71
     5
 72
     1
  1
\A1;1
  7
cesky
 73
     1
 44
1.0
  0
POINT
  5
217
330
20C
100
AcDbEntity
  8
Defpoints
 62
     0
100
AcDbPoint
 10
267.144248
 20
249.731161
 30
0.0
  0
POINT
  5
218
330
20C
100
AcDbEntity
  8
Defpoints
 62
     0
100
AcDbPoint
 10
266.129152
 20
251.436772
 30
0.0
  0
POINT
  5
219
330
20C
100
AcDbEntity
  8
Defpoints
 62
     0
100
AcDbPoint
 10
266.129152
 20
260.208648
 30
0.0
  0
ENDBLK
  5
20E
330
20C
100
AcDbEntity
  8
0
100
AcDbBlockEnd
  0
BLOCK
  5
221
330
21A
100
AcDbEntity
  8
0
100
AcDbBlockBegin
  2
_U4
 70
     0
 10
0.0
 20
0.0
 30
0.0
  3
_U4
  1

  0
ENDBLK
  5
222
330
21A
100
AcDbEntity
  8
0
100
AcDbBlockEnd
  0
BLOCK
  5
227
330
226
100
AcDbEntity
  8
0
100
AcDbBlockBegin
  2
*D11
 70
     1
 10
0.0
 20
0.0
 30
0.0
  3
*D11
  1

  0
LINE
  5
229
330
226
100
AcDbEntity
  8
0
 62
   254
370
    -2
100
AcDbLine
 10
237.144248
 20
243.731161
 30
0.0
 11
237.144248
 21
277.644584
 31
0.0
  0
LINE
  5
22A
330
226
100
AcDbEntity
  8
0
 62
   254
370
    -2
100
AcDbLine
 10
267.144248
 20
253.731161
 30
0.0
 11
267.144248
 21
277.644584
 31
0.0
  0
LINE
  5
22B
330
226
100
AcDbEntity
  8
0
 62
   254
370
    -2
100
AcDbLine
 10
240.644248
 20
276.644584
 30
0.0
 11
263.644248
 21
276.644584
 31
0.0
  0
SOLID
  5
22C
330
226
100
AcDbEntity
  8
0
 62
   254
100
AcDbTrace
 10
240.644248
 20
277.227918
 30
0.0
 11
240.644248
 21
276.061251
 31
0.0
 12
237.144248
 22
276.644584
 32
0.0
 13
237.144248
 23
276.644584
 33
0.0
  0
SOLID
  5
22D
330
226
100
AcDbEntity
  8
0
 62
   254
100
AcDbTrace
 10
263.644248
 20
276.061251
 30
0.0
 11
263.644248
 21
277.227918
 31
0.0
 12
267.144248
 22
276.644584
 32
0.0
 13
267.144248
 23
276.644584
 33
0.0
  0
MTEXT
  5
22E
330
226
100
AcDbEntity
  8
0
 62
   254
370
    13
100
AcDbMText
 10
252.144248
 20
281.955834
 30
0.0
 40
3.5
 41
0.0
 71
     5
 72
     1
  1
\A1;30
  7
cesky
 73
     1
 44
1.0
  0
POINT
  5
22F
330
226
100
AcDbEntity
  8
Defpoints
 62
     0
100
AcDbPoint
 10
237.144248
 20
243.731161
 30
0.0
  0
POINT
  5
230
330
226
100
AcDbEntity
  8
Defpoints
 62
     0
100
AcDbPoint
 10
267.144248
 20
253.731161
 30
0.0
  0
POINT
  5
231
330
226
100
AcDbEntity
  8
Defpoints
 62
     0
100
AcDbPoint
 10
267.144248
 20
276.644584
 30
0.0
  0
ENDBLK
  5
228
330
226
100
AcDbEntity
  8
0
100
AcDbBlockEnd
  0
BLOCK
  5
239
330
232
100
AcDbEntity
  8
0
100
AcDbBlockBegin
  2
_U5
 70
     0
 10
0.0
 20
0.0
 30
0.0
  3
_U5
  1

  0
ENDBLK
  5
23A
330
232
100
AcDbEntity
  8
0
100
AcDbBlockEnd
  0
ENDSEC
  0
SECTION
  2
ENTITIES
  0
POINT
  5
73
102
{ACAD_REACTORS
330
31D
102
}
330
1F
100
AcDbEntity
  8
80
100
AcDbPoint
 10
215.144248
 20
243.731161
 30
0.0
  0
POINT
  5
75
330
1F
100
AcDbEntity
  8
SK6
 60
     1
100
AcDbPoint
 10
168.144248
 20
243.731161
 30
0.0
  0
POINT
  5
77
330
1F
100
AcDbEntity
  8
SK6
 60
     1
100
AcDbPoint
 10
237.144248
 20
243.731161
 30
0.0
  0
POINT
  5
78
330
1F
100
AcDbEntity
  8
SK6
 60
     1
100
AcDbPoint
 10
168.144248
 20
243.731161
 30
0.0
  0
POINT
  5
79
330
1F
100
AcDbEntity
  8
SK6
 60
     1
100
AcDbPoint
 10
237.144248
 20
243.731161
 30
0.0
  0
LINE
  5
7A
330
1F
100
AcDbEntity
  8
1
100
AcDbLine
 10
267.150319
 20
240.754427
 30
0.0
 11
266.992531
 21
240.821578
 31
0.0
  0
LINE
  5
7C
330
1F
100
AcDbEntity
  8
1
100
AcDbLine
 10
265.131805
 20
235.737861
 30
0.0
 11
265.305356
 21
236.136706
 31
0.0
  0
LINE
  5
7D
330
1F
100
AcDbEntity
  8
1
100
AcDbLine
 10
267.079338
 20
239.757988
 30
0.0
 11
267.029594
 21
239.794995
 31
0.0
  0
LINE
  5
7E
330
1F
100
AcDbEntity
  8
1
100
AcDbLine
 10
264.143166
 20
235.816702
 30
0.0
 11
264.214334
 21
235.943991
 31
0.0
  0
LINE
  5
7F
330
1F
100
AcDbEntity
  8
1
100
AcDbLine
 10
266.617583
 20
241.25232
 30
0.0
 11
265.9396529999999
 21
236.940986
 31
0.0
  0
LINE
  5
80
330
1F
100
AcDbEntity
  8
1
100
AcDbLine
 10
266.480731
 20
241.311493
 30
0.0
 11
266.551624
 21
241.299649
 31
0.0
  0
LINE
  5
81
330
1F
100
AcDbEntity
  8
1
100
AcDbLine
 10
261.546954
 20
237.637219
 30
0.0
 11
261.570808
 21
237.788924
 31
0.0
  0
LINE
  5
82
330
1F
100
AcDbEntity
  8
1
100
AcDbLine
 10
265.89323
 20
236.874808
 30
0.0
 11
261.612914
 21
237.58989
 31
0.0
  0
LINE
  5
83
330
1F
100
AcDbEntity
  8
1
100
AcDbLine
 10
260.302512
 20
250.335558
 30
0.0
 11
260.191019
 21
250.349555
 31
0.0
  0
LINE
  5
84
330
1F
100
AcDbEntity
  8
1
100
AcDbLine
 10
260.255173
 20
249.655446
 30
0.0
 11
260.142408
 21
249.652309
 31
0.0
  0
LINE
  5
85
330
1F
100
AcDbEntity
  8
1
100
AcDbLine
 10
260.324935
 20
248.676118
 30
0.0
 11
260.213389
 21
248.655871
 31
0.0
  0
LINE
  5
86
330
1F
100
AcDbEntity
  8
1
100
AcDbLine
 10
260.472787
 20
250.550749
 30
0.0
 11
260.436834
 21
250.660217
 31
0.0
  0
LINE
  5
87
330
1F
100
AcDbEntity
  8
1
100
AcDbLine
 10
264.154072
 20
251.529403
 30
0.0
 11
264.143166
 21
251.645621
 31
0.0
  0
LINE
  5
88
330
1F
100
AcDbEntity
  8
1
100
AcDbLine
 10
265.125734
 20
251.606889
 30
0.0
 11
265.131805
 21
251.724461
 31
0.0
  0
LINE
  5
89
330
1F
100
AcDbEntity
  8
1
100
AcDbLine
 10
265.799823
 20
251.564086
 30
0.0
 11
265.822871
 21
251.680496
 31
0.0
  0
LINE
  5
8A
330
1F
100
AcDbEntity
  8
1
100
AcDbLine
 10
266.011985
 20
251.393937
 30
0.0
 11
266.129152
 21
251.434868
 31
0.0
  0
LINE
  5
8B
330
1F
100
AcDbEntity
  8
1
100
AcDbLine
 10
266.955651
 20
247.688615
 30
0.0
 11
267.079338
 21
247.704334
 31
0.0
  0
LINE
  5
8C
330
1F
100
AcDbEntity
  8
1
100
AcDbLine
 10
267.150319
 20
246.707896
 30
0.0
 11
267.025413
 21
246.709286
 31
0.0
  0
LINE
  5
8D
330
1F
100
AcDbEntity
  8
1
100
AcDbLine
 10
266.978073
 20
246.029174
 30
0.0
 11
267.101702
 21
246.010652
 31
0.0
  0
LINE
  5
8E
330
1F
100
AcDbEntity
  8
1
100
AcDbLine
 10
266.807798
 20
245.813984
 30
0.0
 11
266.855887
 21
245.69999
 31
0.0
  0
LINE
  5
8F
330
1F
100
AcDbEntity
  8
1
100
AcDbLine
 10
262.638271
 20
248.374375
 30
0.0
 11
262.778656
 21
248.322025
 31
0.0
  0
LINE
  5
91
330
1F
100
AcDbEntity
  8
1
100
AcDbLine
 10
262.7381689999999
 20
248.407911
 30
0.0
 11
262.882835
 21
248.353965
 31
0.0
  0
LINE
  5
92
330
1F
100
AcDbEntity
  8
1
100
AcDbLine
 10
262.597772
 20
247.985519
 30
0.0
 11
262.738158
 21
247.933169
 31
0.0
  0
LINE
  5
93
330
1F
100
AcDbEntity
  8
1
100
AcDbLine
 10
263.016206
 20
248.795859
 30
0.0
 11
263.160872
 21
248.741913
 31
0.0
  0
LINE
  5
94
330
1F
100
AcDbEntity
  8
1
100
AcDbLine
 10
262.8060200000001
 20
248.412039
 30
0.0
 11
262.953833
 21
248.35692
 31
0.0
  0
LINE
  5
95
330
1F
100
AcDbEntity
  8
1
100
AcDbLine
 10
263.03375
 20
248.729794
 30
0.0
 11
263.181563
 21
248.674674
 31
0.0
  0
LINE
  5
96
330
1F
100
AcDbEntity
  8
1
100
AcDbLine
 10
262.877961
 20
247.874367
 30
0.0
 11
262.7312
 21
247.929094
 31
0.0
  0
LINE
  5
97
330
1F
100
AcDbEntity
  8
1
100
AcDbLine
 10
263.016273
 20
248.901805
 30
0.0
 11
263.156658
 21
248.849456
 31
0.0
  0
LINE
  5
98
330
1F
100
AcDbEntity
  8
1
100
AcDbLine
 10
262.754344
 20
247.915862
 30
0.0
 11
262.902157
 21
247.860742
 31
0.0
  0
LINE
  5
99
330
1F
100
AcDbEntity
  8
1
100
AcDbLine
 10
263.370215
 20
249.063317
 30
0.0
 11
263.417757
 21
249.045588
 31
0.0
  0
LINE
  5
9A
330
1F
100
AcDbEntity
  8
1
100
AcDbLine
 10
262.911929
 20
247.560098
 30
0.0
 11
263.059742
 21
247.504979
 31
0.0
  0
LINE
  5
9B
330
1F
100
AcDbEntity
  8
1
100
AcDbLine
 10
262.881121
 20
247.498802
 30
0.0
 11
263.025787
 21
247.444856
 31
0.0
  0
LINE
  5
9C
330
1F
100
AcDbEntity
  8
1
100
AcDbLine
 10
264.300024
 20
249.687366
 30
0.0
 11
264.299881
 21
249.687419
 31
0.0
  0
LINE
  5
9D
330
1F
100
AcDbEntity
  8
1
100
AcDbLine
 10
264.300024
 20
249.687366
 30
0.0
 11
264.240898
 21
249.709414
 31
0.0
  0
LINE
  5
9E
330
1F
100
AcDbEntity
  8
1
100
AcDbLine
 10
263.018004
 20
246.430004
 30
0.0
 11
263.07713
 21
246.407956
 31
0.0
  0
LINE
  5
9F
330
1F
100
AcDbEntity
  8
1
100
AcDbLine
 10
262.859343
 20
247.394998
 30
0.0
 11
262.999728
 21
247.342648
 31
0.0
  0
LINE
  5
A0
330
1F
100
AcDbEntity
  8
1
100
AcDbLine
 10
263.566975
 20
248.894927
 30
0.0
 11
263.716942
 21
248.839004
 31
0.0
  0
LINE
  5
A1
330
1F
100
AcDbEntity
  8
1
100
AcDbLine
 10
263.870693
 20
248.897872
 30
0.0
 11
264.018506
 21
248.842753
 31
0.0
  0
LINE
  5
A2
330
1F
100
AcDbEntity
  8
1
100
AcDbLine
 10
263.918768
 20
248.946644
 30
0.0
 11
264.063434
 21
248.892698
 31
0.0
  0
LINE
  5
A3
330
1F
100
AcDbEntity
  8
1
100
AcDbLine
 10
263.765567
 20
247.21703
 30
0.0
 11
263.615599
 21
247.272953
 31
0.0
  0
LINE
  5
A4
330
1F
100
AcDbEntity
  8
1
100
AcDbLine
 10
264.009787
 20
249.000227
 30
0.0
 11
264.150172
 21
248.947877
 31
0.0
  0
LINE
  5
A5
330
1F
100
AcDbEntity
  8
1
100
AcDbLine
 10
263.697197
 20
247.231999
 30
0.0
 11
263.84501
 21
247.17688
 31
0.0
  0
LINE
  5
A6
330
1F
100
AcDbEntity
  8
1
100
AcDbLine
 10
263.734239
 20
247.174831
 30
0.0
 11
263.878905
 21
247.120885
 31
0.0
  0
LINE
  5
A7
330
1F
100
AcDbEntity
  8
1
100
AcDbLine
 10
264.451374
 20
248.238786
 30
0.0
 11
264.58128
 21
248.190344
 31
0.0
  0
LINE
  5
A8
330
1F
100
AcDbEntity
  8
1
100
AcDbLine
 10
264.493849
 20
248.234725
 30
0.0
 11
264.571087
 21
248.205923
 31
0.0
  0
LINE
  5
A9
330
1F
100
AcDbEntity
  8
1
100
AcDbLine
 10
266.494248
 20
245.570432
 30
0.0
 11
266.494248
 21
245.047293
 31
0.0
  0
LINE
  5
AB
330
1F
100
AcDbEntity
  8
1
100
AcDbLine
 10
260.425913
 20
246.7757
 30
0.0
 11
259.849171
 21
250.496097
 31
0.0
  0
LINE
  5
AC
330
1F
100
AcDbEntity
  8
1
100
AcDbLine
 10
260.451692
 20
245.728888
 30
0.0
 11
259.806212
 21
250.567038
 31
0.0
  0
LINE
  5
AD
330
1F
100
AcDbEntity
  8
1
100
AcDbLine
 10
260.580458
 20
246.80117
 30
0.0
 11
260.425913
 21
246.7757
 31
0.0
  0
LINE
  5
AE
330
1F
100
AcDbEntity
  8
1
100
AcDbLine
 10
266.494248
 20
244.963562
 30
0.0
 11
266.494248
 21
245.047289
 31
0.0
  0
LINE
  5
AF
330
1F
100
AcDbEntity
  8
1
100
AcDbLine
 10
266.494248
 20
244.965639
 30
0.0
 11
266.494248
 21
241.547334
 31
0.0
  0
LINE
  5
B0
330
1F
100
AcDbEntity
  8
1
100
AcDbLine
 10
261.418766
 20
245.728821
 30
0.0
 11
259.114647
 21
245.728821
 31
0.0
  0
LINE
  5
B1
330
1F
100
AcDbEntity
  8
1
100
AcDbLine
 10
256.6687990000001
 20
245.919798
 30
0.0
 11
256.6687990000001
 21
236.97982
 31
0.0
  0
LINE
  5
B2
330
1F
100
AcDbEntity
  8
1
100
AcDbLine
 10
261.418766
 20
237.79133
 30
0.0
 11
261.418766
 21
245.728821
 31
0.0
  0
LINE
  5
B3
330
1F
100
AcDbEntity
  8
1
100
AcDbLine
 10
266.463864
 20
241.13514
 30
0.0
 11
266.463864
 21
245.042519
 31
0.0
  0
LINE
  5
B4
330
1F
100
AcDbEntity
  8
1
100
AcDbLine
 10
261.897995
 20
245.733891
 30
0.0
 11
261.897995
 21
237.737402
 31
0.0
  0
LINE
  5
B5
330
1F
100
AcDbEntity
  8
1
100
AcDbLine
 10
265.568208
 20
237.056685
 30
0.0
 11
265.568208
 21
245.81172
 31
0.0
  0
LINE
  5
B6
330
1F
100
AcDbEntity
  8
1
100
AcDbLine
 10
265.892404
 20
245.75743
 30
0.0
 11
265.892404
 21
237.303564
 31
0.0
  0
LINE
  5
B7
330
1F
100
AcDbEntity
  8
1
100
AcDbLine
 10
256.319804
 20
236.98398
 30
0.0
 11
256.319804
 21
245.979758
 31
0.0
  0
LINE
  5
B8
330
1F
100
AcDbEntity
  8
1
100
AcDbLine
 10
247.009866
 20
251.161863
 30
0.0
 11
238.056781
 21
251.474512
 31
0.0
  0
LINE
  5
B9
330
1F
100
AcDbEntity
  8
1
100
AcDbLine
 10
238.056781
 20
235.987811
 30
0.0
 11
247.009913
 21
236.300461
 31
0.0
  0
LINE
  5
BA
330
1F
100
AcDbEntity
  8
SK1
100
AcDbLine
 10
167.144248
 20
236.731161
 30
0.0
 11
167.144248
 21
250.731161
 31
0.0
  0
LINE
  5
BB
330
1F
100
AcDbEntity
  8
SK1
100
AcDbLine
 10
167.144248
 20
236.731161
 30
0.0
 11
168.144248
 21
235.731161
 31
0.0
  0
LINE
  5
BC
330
1F
100
AcDbEntity
  8
SK1
100
AcDbLine
 10
168.144248
 20
251.731161
 30
0.0
 11
167.144248
 21
250.731161
 31
0.0
  0
LINE
  5
BD
330
1F
100
AcDbEntity
  8
1
100
AcDbLine
 10
238.056781
 20
235.987811
 30
0.0
 11
238.056781
 21
251.474512
 31
0.0
  0
LINE
  5
BE
330
1F
100
AcDbEntity
  8
SK1
100
AcDbLine
 10
237.144248
 20
235.731161
 30
0.0
 11
237.144248
 21
251.731161
 31
0.0
  0
LINE
  5
BF
330
1F
100
AcDbEntity
  8
SK1
100
AcDbLine
 10
168.144248
 20
235.731161
 30
0.0
 11
168.144248
 21
251.731161
 31
0.0
  0
LINE
  5
C0
330
1F
100
AcDbEntity
  8
SK1
100
AcDbLine
 10
168.144248
 20
235.731161
 30
0.0
 11
237.144248
 21
235.731161
 31
0.0
  0
LINE
  5
C1
330
1F
100
AcDbEntity
  8
SK1
100
AcDbLine
 10
237.144248
 20
251.731161
 30
0.0
 11
168.144248
 21
251.731161
 31
0.0
  0
LINE
  5
C2
330
1F
100
AcDbEntity
  8
81
100
AcDbLine
 10
267.144248
 20
249.731161
 30
0.0
 11
267.144248
 21
253.731161
 31
0.0
  0
LINE
  5
C3
330
1F
100
AcDbEntity
  8
81
100
AcDbLine
 10
265.144248
 20
251.731161
 30
0.0
 11
269.144248
 21
251.731161
 31
0.0
  0
LINE
  5
C4
330
1F
100
AcDbEntity
  8
80
100
AcDbLine
 10
214.144675
 20
243.731161
 30
0.0
 11
216.143822
 21
243.731161
 31
0.0
  0
LINE
  5
C5
330
1F
100
AcDbEntity
  8
80
100
AcDbLine
 10
215.144248
 20
242.731588
 30
0.0
 11
215.144248
 21
244.730735
 31
0.0
  0
LINE
  5
C6
330
1F
100
AcDbEntity
  8
NOCUT
100
AcDbLine
 10
238.587624
 20
243.731161
 30
0.0
 11
266.494248
 21
243.731161
 31
0.0
  0
LINE
  5
C8
330
1F
100
AcDbEntity
  8
NOCUT
100
AcDbLine
 10
238.587624
 20
243.731161
 30
0.0
 11
237.144248
 21
246.231161
 31
0.0
  0
LINE
  5
C9
330
1F
100
AcDbEntity
  8
NOCUT
100
AcDbLine
 10
237.144248
 20
246.231161
 30
0.0
 11
168.644248
 21
246.231161
 31
0.0
  0
LINE
  5
CA
330
1F
100
AcDbEntity
  8
NOCUT
100
AcDbLine
 10
168.644248
 20
246.231161
 30
0.0
 11
167.144248
 21
247.097187
 31
0.0
  0
LINE
  5
CB
330
1F
100
AcDbEntity
  8
NOCUT
100
AcDbLine
 10
167.144248
 20
247.097187
 30
0.0
 11
167.144248
 21
250.731161
 31
0.0
  0
LINE
  5
CC
330
1F
100
AcDbEntity
  8
NOCUT
100
AcDbLine
 10
167.144248
 20
250.731161
 30
0.0
 11
168.144248
 21
251.731161
 31
0.0
  0
LINE
  5
CD
330
1F
100
AcDbEntity
  8
NOCUT
100
AcDbLine
 10
168.144248
 20
251.731161
 30
0.0
 11
237.144248
 21
251.731161
 31
0.0
  0
LINE
  5
CE
330
1F
100
AcDbEntity
  8
NOCUT
100
AcDbLine
 10
238.056781
 20
251.474512
 30
0.0
 11
256.319804
 21
250.836753
 31
0.0
  0
LINE
  5
CF
330
1F
100
AcDbEntity
  8
NOCUT
100
AcDbLine
 10
256.6687990000001
 20
250.830661
 30
0.0
 11
261.418766
 21
250.830661
 31
0.0
  0
LINE
  5
D0
330
1F
100
AcDbEntity
  8
NOCUT
100
AcDbLine
 10
261.897995
 20
250.85368
 30
0.0
 11
265.568208
 21
251.207082
 31
0.0
  0
LINE
  5
D1
330
1F
100
AcDbEntity
  8
NOCUT
100
AcDbLine
 10
265.892404
 20
250.960557
 30
0.0
 11
266.463864
 21
247.719647
 31
0.0
  0
LINE
  5
D2
330
1F
100
AcDbEntity
  8
NOCUT
100
AcDbLine
 10
266.494248
 20
247.372351
 30
0.0
 11
266.494248
 21
243.731161
 31
0.0
  0
ARC
  5
D8
330
1F
100
AcDbEntity
  8
1
100
AcDbCircle
 10
238.12658
 20
233.989029
 30
0.0
 40
1.999999999999999
100
AcDbArc
 50
92.0
 51
119.417235
  0
ARC
  5
D9
330
1F
100
AcDbEntity
  8
1
100
AcDbCircle
 10
238.12658
 20
253.473294
 30
0.0
 40
1.999999999999999
100
AcDbArc
 50
240.582765
 51
268.0
  0
ARC
  5
DA
330
1F
100
AcDbEntity
  8
NOCUT
100
AcDbCircle
 10
238.12658
 20
253.473294
 30
0.0
 40
1.999999999999999
100
AcDbArc
 50
240.582765
 51
268.0
  0
ARC
  5
DB
330
1F
100
AcDbEntity
  8
NOCUT
100
AcDbCircle
 10
256.6687990000001
 20
260.830661
 30
0.0
 40
10.0
100
AcDbArc
 50
268.0
 51
270.0
  0
ARC
  5
DC
330
1F
100
AcDbEntity
  8
NOCUT
100
AcDbCircle
 10
261.418766
 20
255.830661
 30
0.0
 40
5.0
100
AcDbArc
 50
270.0
 51
275.5
  0
ARC
  5
DD
330
1F
100
AcDbEntity
  8
NOCUT
100
AcDbCircle
 10
265.596962
 20
250.908463
 30
0.0
 40
0.3
100
AcDbArc
 50
10.0
 51
95.5
  0
ARC
  5
DE
330
1F
100
AcDbEntity
  8
NOCUT
100
AcDbCircle
 10
264.494248
 20
247.372351
 30
0.0
 40
2.0
100
AcDbArc
 50
360.0
 51
10.0
  0
ELLIPSE
  5
DF
330
1F
100
AcDbEntity
  8
1
100
AcDbEllipse
 10
260.853226
 20
242.701335
 30
0.0
 11
-3.520092806366743
 21
7.114321886339141
 31
0.0
210
0.0
220
0.0
230
1.0
 40
0.723603
 41
3.505938679421679
 42
3.973790044887176
  0
ELLIPSE
  5
E0
330
1F
100
AcDbEntity
  8
1
100
AcDbEllipse
 10
264.6529
 20
240.913368
 30
0.0
 11
-1.354547589652775
 21
2.737623151739255
 31
0.0
210
0.0
220
0.0
230
0.9999999999999998
 40
0.723603
 41
3.973790044880026
 42
4.337005089331091
  0
ELLIPSE
  5
E1
330
1F
100
AcDbEntity
  8
1
100
AcDbEllipse
 10
265.356156
 20
240.885777
 30
0.0
 11
-0.9473920414747352
 21
1.914736997332653
 31
0.0
210
0.0
220
0.0
230
1.0
 40
0.723603
 41
4.337005089047863
 42
4.50299777808089
  0
ELLIPSE
  5
E2
330
1F
100
AcDbEntity
  8
1
100
AcDbEllipse
 10
265.7667879999999
 20
233.945358
 30
0.0
 11
-5.3252534484059
 21
8.162589296487558
 31
0.0
210
0.0
220
0.0
230
1.0
 40
0.5952539999999999
 41
5.349668436517706
 42
5.352219750094379
  0
ELLIPSE
  5
E3
330
1F
100
AcDbEntity
  8
1
100
AcDbEllipse
 10
266.248409
 20
240.426482
 30
0.0
 11
-2.600354368033078
 21
-4.297503951590811
 31
0.0
210
0.0
220
0.0
230
0.9999999999999998
 40
0.5018470000000001
 41
0.2322729881793687
 42
0.5954880326329026
  0
ELLIPSE
  5
E4
330
1F
100
AcDbEntity
  8
1
100
AcDbEllipse
 10
265.964942
 20
239.137043
 30
0.0
 11
-1.818729035082597
 21
-3.005742336549166
 31
0.0
210
0.0
220
0.0
230
1.0
 40
0.5018470000000001
 41
0.5954880327044652
 42
0.7614792270710246
  0
ELLIPSE
  5
E5
330
1F
100
AcDbEntity
  8
1
100
AcDbEllipse
 10
269.50033
 20
247.592739
 30
0.0
 11
-6.757598459487517
 21
-11.16801865161068
 31
0.0
210
0.0
220
0.0
230
1.0
 40
0.5018470000000001
 41
6.047604195784649
 42
6.515458295357849
  0
ELLIPSE
  5
E6
330
1F
100
AcDbEntity
  8
1
100
AcDbEllipse
 10
264.327913
 20
239.653071
 30
0.0
 11
0.2445788680597518
 21
-0.6558819842766014
 31
0.0
210
0.0
220
0.0
230
0.9999999999999998
 40
0.9889370000000001
 41
0.0
 42
6.283185307179585
  0
ELLIPSE
  5
E7
330
1F
100
AcDbEntity
  8
1
100
AcDbEllipse
 10
263.786593
 20
248.127811
 30
0.0
 11
-0.6407304471295197
 21
-1.718233306022921
 31
0.0
210
0.0
220
0.0
230
0.9999999999999998
 40
0.9889370000000001
 41
0.360586379338187
 42
0.8219096378895622
  0
ELLIPSE
  5
E8
330
1F
100
AcDbEntity
  8
1
100
AcDbEllipse
 10
263.786593
 20
248.127811
 30
0.0
 11
-0.6407304471295197
 21
-1.718233306022921
 31
0.0
210
0.0
220
0.0
230
0.9999999999999998
 40
0.9889370000000001
 41
2.319859800116148
 42
4.407644696230464
  0
ELLIPSE
  5
E9
330
1F
100
AcDbEntity
  8
1
100
AcDbEllipse
 10
263.786593
 20
248.127811
 30
0.0
 11
-0.6407304471295197
 21
-1.718233306022921
 31
0.0
210
0.0
220
0.0
230
0.9999999999999998
 40
0.9889370000000001
 41
0.2902928167543029
 42
0.3605858286959552
  0
ELLIPSE
  5
EA
330
1F
100
AcDbEntity
  8
1
100
AcDbEllipse
 10
263.766785
 20
248.135197
 30
0.0
 11
-0.6655030193667292
 21
-1.784665389724459
 31
0.0
210
0.0
220
0.0
230
0.9999999999999996
 40
0.9889370000000001
 41
2.818097063390763
 42
3.501491665966963
  0
ELLIPSE
  5
EB
330
1F
100
AcDbEntity
  8
1
100
AcDbEllipse
 10
263.766785
 20
248.135197
 30
0.0
 11
-0.6655030193667292
 21
-1.784665389724459
 31
0.0
210
0.0
220
0.0
230
0.9999999999999996
 40
0.9889370000000001
 41
3.501491665966959
 42
5.968132736130162
  0
ELLIPSE
  5
EC
330
1F
100
AcDbEntity
  8
1
100
AcDbEllipse
 10
263.766785
 20
248.135197
 30
0.0
 11
-0.6655030193667292
 21
-1.784665389724459
 31
0.0
210
0.0
220
0.0
230
0.9999999999999996
 40
0.9889370000000001
 41
5.968132736130168
 42
6.283185307179585
  0
ELLIPSE
  5
ED
330
1F
100
AcDbEntity
  8
1
100
AcDbEllipse
 10
263.766785
 20
248.135197
 30
0.0
 11
-0.6655030193667292
 21
-1.784665389724459
 31
0.0
210
0.0
220
0.0
230
0.9999999999999996
 40
0.9889370000000001
 41
0.0
 42
0.3234758515949504
  0
ELLIPSE
  5
EE
330
1F
100
AcDbEntity
  8
1
100
AcDbEllipse
 10
263.640293
 20
248.182366
 30
0.0
 11
0.6821681209259875
 21
1.829355840561711
 31
0.0
210
0.0
220
0.0
230
1.0
 40
0.9889370000000001
 41
0.0
 42
6.283185307179585
  0
ELLIPSE
  5
EF
330
1F
100
AcDbEntity
  8
1
100
AcDbEllipse
 10
263.688577
 20
248.047661
 30
0.0
 11
0.6114471701494965
 21
1.639704960691456
 31
0.0
210
0.0
220
0.0
230
1.0
 40
0.9889370000000001
 41
3.141582773081591
 42
6.015452995409451
  0
ELLIPSE
  5
F0
330
1F
100
AcDbEntity
  8
1
100
AcDbEllipse
 10
263.688577
 20
248.047661
 30
0.0
 11
0.6114471701494965
 21
1.639704960691456
 31
0.0
210
0.0
220
0.0
230
1.0
 40
0.9889370000000001
 41
6.015452995409461
 42
6.283185307179585
  0
ELLIPSE
  5
F1
330
1F
100
AcDbEntity
  8
1
100
AcDbEllipse
 10
263.6294509999999
 20
248.069709
 30
0.0
 11
-0.6114471701494963
 21
-1.639704960691456
 31
0.0
210
0.0
220
0.0
230
1.0
 40
0.9889370000000001
 41
0.0
 42
6.283185307179585
  0
ELLIPSE
  5
F2
330
1F
100
AcDbEntity
  8
1
100
AcDbEllipse
 10
263.840901
 20
248.976214
 30
0.0
 11
0.0294277820958358
 21
0.0789158616481806
 31
0.0
210
0.0
220
0.0
230
1.0
 40
0.9889370000000001
 41
3.867427808851408
 42
4.706456001029138
  0
ELLIPSE
  5
F3
330
1F
100
AcDbEntity
  8
1
100
AcDbEllipse
 10
263.996635
 20
248.917074
 30
0.0
 11
0.0294277820958359
 21
0.0789158616481807
 31
0.0
210
0.0
220
0.0
230
0.9999999999999998
 40
0.9889370000000001
 41
0.2022363796633317
 42
1.564863347439346
  0
ELLIPSE
  5
F4
330
1F
100
AcDbEntity
  8
1
100
AcDbEllipse
 10
263.942333
 20
248.573759
 30
0.0
 11
0.1509266977232207
 21
0.4047369372844399
 31
0.0
210
0.0
220
0.0
230
1.0
 40
0.9889370000000001
 41
5.54548419320681
 42
6.485421686842912
  0
ELLIPSE
  5
F5
330
1F
100
AcDbEntity
  8
1
100
AcDbEllipse
 10
264.248963
 20
248.734057
 30
0.0
 11
0.0294277820958358
 21
0.0789158616481805
 31
0.0
210
0.0
220
0.0
230
1.0
 40
0.9889370000000001
 41
4.182857225430806
 42
5.545484193206826
  0
ELLIPSE
  5
F6
330
1F
100
AcDbEntity
  8
1
100
AcDbEllipse
 10
264.353942
 20
248.604099
 30
0.0
 11
0.0294277820958358
 21
0.0789158616481805
 31
0.0
210
0.0
220
0.0
230
0.9999999999999998
 40
0.9889370000000001
 41
1.041264571841129
 42
1.880292764018765
  0
ELLIPSE
  5
F7
330
1F
100
AcDbEntity
  8
1
100
AcDbEllipse
 10
264.697856
 20
248.588891
 30
0.0
 11
0.1509266977232206
 21
0.4047369372844397
 31
0.0
210
0.0
220
0.0
230
1.0
 40
0.9889370000000001
 41
1.880292764018729
 42
2.820230257654833
  0
ELLIPSE
  5
F8
330
1F
100
AcDbEntity
  8
1
100
AcDbEllipse
 10
264.480801
 20
248.317702
 30
0.0
 11
0.0294277820958358
 21
0.0789158616481806
 31
0.0
210
0.0
220
0.0
230
1.0
 40
0.9889370000000001
 41
2.82023025765483
 42
3.659258449832536
  0
ELLIPSE
  5
F9
330
1F
100
AcDbEntity
  8
1
100
AcDbEllipse
 10
264.506897
 20
248.151747
 30
0.0
 11
0.0294277820958359
 21
0.0789158616481807
 31
0.0
210
0.0
220
0.0
230
0.9999999999999998
 40
0.9889370000000001
 41
5.438224135646275
 42
6.800851103422329
  0
ELLIPSE
  5
FA
330
1F
100
AcDbEntity
  8
1
100
AcDbEllipse
 10
264.18525
 20
248.02535
 30
0.0
 11
0.1509266977232207
 21
0.4047369372844399
 31
0.0
210
0.0
220
0.0
230
1.0
 40
0.9889370000000001
 41
4.498286642010228
 42
5.438224135646335
  0
ELLIPSE
  5
FB
330
1F
100
AcDbEntity
  8
1
100
AcDbEllipse
 10
264.474295
 20
247.838711
 30
0.0
 11
0.0294277820958358
 21
0.0789158616481805
 31
0.0
210
0.0
220
0.0
230
1.0
 40
0.9889370000000001
 41
3.135659674234201
 42
4.498286642010223
  0
ELLIPSE
  5
FC
330
1F
100
AcDbEntity
  8
1
100
AcDbEllipse
 10
264.414514
 20
247.681227
 30
0.0
 11
0.0294277820958358
 21
0.0789158616481805
 31
0.0
210
0.0
220
0.0
230
0.9999999999999998
 40
0.9889370000000001
 41
6.277252327824081
 42
7.116280520001731
  0
ELLIPSE
  5
FD
330
1F
100
AcDbEntity
  8
1
100
AcDbEllipse
 10
264.5712410000001
 20
247.373167
 30
0.0
 11
0.1509266977232206
 21
0.4047369372844397
 31
0.0
210
0.0
220
0.0
230
1.0
 40
0.9889370000000001
 41
0.8330952128221319
 42
1.773032706458233
  0
ELLIPSE
  5
FE
330
1F
100
AcDbEntity
  8
1
100
AcDbEllipse
 10
264.231187
 20
247.425429
 30
0.0
 11
0.0294277820958358
 21
0.0789158616481806
 31
0.0
210
0.0
220
0.0
230
1.0
 40
0.9889370000000001
 41
1.773032706458219
 42
2.61206089863594
  0
ELLIPSE
  5
FF
330
1F
100
AcDbEntity
  8
1
100
AcDbEllipse
 10
264.101549
 20
247.318614
 30
0.0
 11
0.0294277820958359
 21
0.0789158616481807
 31
0.0
210
0.0
220
0.0
230
0.9999999999999998
 40
0.9889370000000001
 41
4.391026584449766
 42
5.753653552225745
  0
ELLIPSE
  5
100
330
1F
100
AcDbEntity
  8
1
100
AcDbEllipse
 10
263.834204
 20
247.535531
 30
0.0
 11
0.1509266977232207
 21
0.4047369372844399
 31
0.0
210
0.0
220
0.0
230
1.0
 40
0.9889370000000001
 41
3.451089090813631
 42
4.391026584449725
  0
ELLIPSE
  5
101
330
1F
100
AcDbEntity
  8
1
100
AcDbEllipse
 10
263.816619
 20
247.188594
 30
0.0
 11
0.0294277820958358
 21
0.0789158616481805
 31
0.0
210
0.0
220
0.0
230
1.0
 40
0.9889370000000001
 41
2.088462123037628
 42
3.451089090813602
  0
ELLIPSE
  5
102
330
1F
100
AcDbEntity
  8
1
100
AcDbEllipse
 10
263.651859
 20
247.161069
 30
0.0
 11
0.0294277820958358
 21
0.0789158616481805
 31
0.0
210
0.0
220
0.0
230
0.9999999999999998
 40
0.9889370000000001
 41
5.230054776627421
 42
6.069082968805118
  0
ELLIPSE
  5
103
330
1F
100
AcDbEntity
  8
1
100
AcDbEllipse
 10
263.464673
 20
246.868216
 30
0.0
 11
0.1509266977232206
 21
0.4047369372844397
 31
0.0
210
0.0
220
0.0
230
1.0
 40
0.9889370000000001
 41
6.069082968805107
 42
7.009020462441214
  0
ELLIPSE
  5
104
330
1F
100
AcDbEntity
  8
1
100
AcDbEllipse
 10
263.341673
 20
247.191667
 30
0.0
 11
0.0294277820958358
 21
0.0789158616481806
 31
0.0
210
0.0
220
0.0
230
1.0
 40
0.9889370000000001
 41
0.7258351552615835
 42
1.564863347439324
  0
ELLIPSE
  5
105
330
1F
100
AcDbEntity
  8
1
100
AcDbEllipse
 10
263.185939
 20
247.250806
 30
0.0
 11
0.0294277820958359
 21
0.0789158616481807
 31
0.0
210
0.0
220
0.0
230
0.9999999999999998
 40
0.9889370000000001
 41
3.343829033253165
 42
4.706456001029138
  0
ELLIPSE
  5
106
330
1F
100
AcDbEntity
  8
1
100
AcDbEllipse
 10
263.240241
 20
247.594122
 30
0.0
 11
0.1509266977232207
 21
0.4047369372844399
 31
0.0
210
0.0
220
0.0
230
1.0
 40
0.9889370000000001
 41
2.403891539617022
 42
3.343829033253127
  0
ELLIPSE
  5
107
330
1F
100
AcDbEntity
  8
1
100
AcDbEllipse
 10
262.933611
 20
247.433823
 30
0.0
 11
0.0294277820958358
 21
0.0789158616481805
 31
0.0
210
0.0
220
0.0
230
1.0
 40
0.9889370000000001
 41
1.041264571841014
 42
2.403891539617033
  0
ELLIPSE
  5
108
330
1F
100
AcDbEntity
  8
1
100
AcDbEllipse
 10
262.828632
 20
247.563782
 30
0.0
 11
0.0294277820958358
 21
0.0789158616481805
 31
0.0
210
0.0
220
0.0
230
0.9999999999999998
 40
0.9889370000000001
 41
4.182857225430803
 42
5.021885417608498
  0
ELLIPSE
  5
109
330
1F
100
AcDbEntity
  8
1
100
AcDbEllipse
 10
262.4847180000001
 20
247.578989
 30
0.0
 11
0.1509266977232206
 21
0.4047369372844397
 31
0.0
210
0.0
220
0.0
230
1.0
 40
0.9889370000000001
 41
5.021885417608518
 42
5.961822911244622
  0
ELLIPSE
  5
10A
330
1F
100
AcDbEntity
  8
1
100
AcDbEllipse
 10
262.701773
 20
247.850178
 30
0.0
 11
0.0294277820958358
 21
0.0789158616481806
 31
0.0
210
0.0
220
0.0
230
1.0
 40
0.9889370000000001
 41
5.961822911244629
 42
6.800851103422329
  0
ELLIPSE
  5
10B
330
1F
100
AcDbEntity
  8
1
100
AcDbEllipse
 10
262.675677
 20
248.016133
 30
0.0
 11
0.0294277820958359
 21
0.0789158616481807
 31
0.0
210
0.0
220
0.0
230
0.9999999999999998
 40
0.9889370000000001
 41
2.29663148205654
 42
3.659258449832498
  0
ELLIPSE
  5
10C
330
1F
100
AcDbEntity
  8
1
100
AcDbEllipse
 10
262.997324
 20
248.142531
 30
0.0
 11
0.1509266977232207
 21
0.4047369372844399
 31
0.0
210
0.0
220
0.0
230
1.0
 40
0.9889370000000001
 41
1.356693988420427
 42
2.296631482056524
  0
ELLIPSE
  5
10D
330
1F
100
AcDbEntity
  8
1
100
AcDbEllipse
 10
262.708279
 20
248.32917
 30
0.0
 11
0.0294277820958358
 21
0.0789158616481805
 31
0.0
210
0.0
220
0.0
230
1.0
 40
0.9889370000000001
 41
6.277252327823952
 42
7.639879295600049
  0
ELLIPSE
  5
10E
330
1F
100
AcDbEntity
  8
1
100
AcDbEllipse
 10
262.76806
 20
248.486653
 30
0.0
 11
0.0294277820958358
 21
0.0789158616481805
 31
0.0
210
0.0
220
0.0
230
0.9999999999999998
 40
0.9889370000000001
 41
3.135659674234201
 42
3.974687866411877
  0
ELLIPSE
  5
10F
330
1F
100
AcDbEntity
  8
1
100
AcDbEllipse
 10
262.611333
 20
248.794713
 30
0.0
 11
0.1509266977232206
 21
0.4047369372844397
 31
0.0
210
0.0
220
0.0
230
1.0
 40
0.9889370000000001
 41
3.974687866411917
 42
4.914625360048029
  0
ELLIPSE
  5
110
330
1F
100
AcDbEntity
  8
1
100
AcDbEllipse
 10
262.951387
 20
248.742452
 30
0.0
 11
0.0294277820958358
 21
0.0789158616481806
 31
0.0
210
0.0
220
0.0
230
1.0
 40
0.9889370000000001
 41
4.914625360048012
 42
5.753653552225706
  0
ELLIPSE
  5
111
330
1F
100
AcDbEntity
  8
1
100
AcDbEllipse
 10
263.081025
 20
248.849267
 30
0.0
 11
0.0294277820958359
 21
0.0789158616481807
 31
0.0
210
0.0
220
0.0
230
0.9999999999999998
 40
0.9889370000000001
 41
1.249433930859886
 42
2.612060898635951
  0
ELLIPSE
  5
112
330
1F
100
AcDbEntity
  8
1
100
AcDbEllipse
 10
263.3483700000001
 20
248.632349
 30
0.0
 11
0.1509266977232207
 21
0.4047369372844399
 31
0.0
210
0.0
220
0.0
230
1.0
 40
0.9889370000000001
 41
0.30949643722383
 42
1.249433930859932
  0
ELLIPSE
  5
113
330
1F
100
AcDbEntity
  8
1
100
AcDbEllipse
 10
263.365955
 20
248.979286
 30
0.0
 11
0.0294277820958358
 21
0.0789158616481805
 31
0.0
210
0.0
220
0.0
230
1.0
 40
0.9889370000000001
 41
5.2300547766274
 42
6.592681744403437
  0
ELLIPSE
  5
114
330
1F
100
AcDbEntity
  8
1
100
AcDbEllipse
 10
263.530715
 20
249.006812
 30
0.0
 11
0.0294277820958358
 21
0.0789158616481805
 31
0.0
210
0.0
220
0.0
230
0.9999999999999998
 40
0.9889370000000001
 41
2.088462123037607
 42
2.927490315215283
  0
ELLIPSE
  5
115
330
1F
100
AcDbEntity
  8
1
100
AcDbEllipse
 10
263.717901
 20
249.299664
 30
0.0
 11
0.1509266977232206
 21
0.4047369372844397
 31
0.0
210
0.0
220
0.0
230
1.0
 40
0.9889370000000001
 41
2.927490315215321
 42
3.867427808851433
  0
ELLIPSE
  5
116
330
1F
100
AcDbEntity
  8
1
100
AcDbEllipse
 10
263.591287
 20
248.08394
 30
0.0
 11
-0.4018081403839546
 21
-1.077520402740099
 31
0.0
210
0.0
220
0.0
230
1.0
 40
0.9889370000000001
 41
0.0
 42
6.283185307179585
  0
ELLIPSE
  5
117
330
1F
100
AcDbEntity
  8
1
100
AcDbEllipse
 10
272.651115
 20
243.731155
 30
0.0
 11
-50.58488994400923
 21
-0.3790020815152698
 31
0.0
210
0.0
220
0.0
230
1.0
 40
0.140148
 41
4.958797730289056
 42
4.967199737111474
  0
ELLIPSE
  5
118
330
1F
100
AcDbEntity
  8
1
100
AcDbEllipse
 10
263.7649169999999
 20
243.731162
 30
0.0
 11
-76.53290293186104
 21
-1.573408305630458
 31
0.0
210
0.0
220
0.0
230
1.0
 40
0.090457
 41
4.762277847105175
 42
4.803382352194776
  0
ELLIPSE
  5
119
330
1F
100
AcDbEntity
  8
1
100
AcDbEllipse
 10
260.680004
 20
243.731162
 30
0.0
 11
-1.189932626832624
 21
7.097856607696322
 31
0.0
210
0.0
220
0.0
230
1.0
 40
0.128357
 41
5.953449394035847
 42
5.988303152736203
  0
ELLIPSE
  5
11A
330
1F
100
AcDbEntity
  8
1
100
AcDbEllipse
 10
260.217434
 20
246.853442
 30
0.0
 11
-0.2439220612318993
 21
1.480034468532535
 31
0.0
210
0.0
220
0.0
230
1.0
 40
0.129059
 41
3.828295355565838
 42
4.638582661288412
  0
ELLIPSE
  5
11B
330
1F
100
AcDbEntity
  8
1
100
AcDbEllipse
 10
259.805959
 20
258.723867
 30
0.0
 11
-12.34563386254549
 21
-5.210117516138204
 31
0.0
210
0.0
220
0.0
230
1.0
 40
0.9713729999999999
 41
0.2716925866231463
 42
0.9975350763509855
  0
ELLIPSE
  5
11C
330
1F
100
AcDbEntity
  8
1
100
AcDbEllipse
 10
273.391798
 20
246.281813
 30
0.0
 11
-11.00198335619979
 21
-1.820377860598023
 31
0.0
210
0.0
220
0.0
230
1.0
 40
0.010606
 41
0.8878738687187384
 42
0.8914274268358475
  0
ELLIPSE
  5
11D
330
1F
100
AcDbEntity
  8
1
100
AcDbEllipse
 10
263.7649169999999
 20
243.731161
 30
0.0
 11
-76.53290293186104
 21
1.573408305630468
 31
0.0
210
0.0
220
0.0
230
1.0
 40
0.090457
 41
1.47980295498481
 42
1.520907460074411
  0
ELLIPSE
  5
11E
330
1F
100
AcDbEntity
  8
1
100
AcDbEllipse
 10
260.680004
 20
243.731162
 30
0.0
 11
-1.189932701267245
 21
-7.097857194160527
 31
0.0
210
0.0
220
0.0
230
1.0
 40
0.128357
 41
0.2948821421722655
 42
0.3297358993720664
  0
ELLIPSE
  5
11F
330
1F
100
AcDbEntity
  8
1
100
AcDbEllipse
 10
272.651086
 20
243.731152
 30
0.0
 11
-50.5848273124516
 21
0.3790056269094448
 31
0.0
210
0.0
220
0.0
230
0.9999999999999996
 40
0.140148
 41
1.315985850567872
 42
1.328187541151764
  0
ELLIPSE
  5
120
330
1F
100
AcDbEntity
  8
1
100
AcDbEllipse
 10
260.682835
 20
243.731161
 30
0.0
 11
-1.83984113408983
 21
-7.040543116498854
 31
0.0
210
0.0
220
0.0
230
0.9999999999999998
 40
0.496263
 41
0.4249831500494567
 42
0.5774283261135468
  0
ELLIPSE
  5
121
330
1F
100
AcDbEntity
  8
1
100
AcDbEllipse
 10
261.6968700000001
 20
243.731161
 30
0.0
 11
-1.189932655401132
 21
-7.097856826307826
 31
0.0
210
0.0
220
0.0
230
1.0
 40
0.128357
 41
0.4699794020669225
 42
0.5616588631303224
  0
ELLIPSE
  5
122
330
1F
100
AcDbEntity
  8
1
100
AcDbEllipse
 10
375.179573
 20
243.083761
 30
0.0
 11
-128.4682348451395
 21
0.9535463964431631
 31
0.0
210
0.0
220
0.0
230
0.9999999999999996
 40
0.101963
 41
0.491916623706136
 42
0.5494297592864222
  0
ELLIPSE
  5
123
330
1F
100
AcDbEntity
  8
1
100
AcDbEllipse
 10
231.397699
 20
244.391138
 30
0.0
 11
-85.98045510675092
 21
1.765571546189911
 31
0.0
210
0.0
220
0.0
230
0.9999999999999998
 40
0.083803
 41
1.781924496774179
 42
1.866594978785708
  0
ELLIPSE
  5
124
330
1F
100
AcDbEntity
  8
1
100
AcDbEllipse
 10
231.3977
 20
243.071184
 30
0.0
 11
-85.98045498089915
 21
-1.76557153878962
 31
0.0
210
0.0
220
0.0
230
1.0
 40
0.083803
 41
4.41659032866766
 42
4.501260810796107
  0
SPLINE
  5
127
330
1F
100
AcDbEntity
  8
1
100
AcDbSpline
210
0.0
220
0.0
230
1.0
 70
     8
 71
     3
 72
     8
 73
     4
 74
     0
 42
0.000000001
 43
0.0000000001
 40
0.0
 40
0.0
 40
0.0
 40
0.0
 40
1.0
 40
1.0
 40
1.0
 40
1.0
 10
267.1503186994728
 20
240.7544269287243
 30
0.0
 10
267.1503186994728
 20
240.4209025945397
 30
0.0
 10
267.1265862812808
 20
240.087744770392
 30
0.0
 10
267.079337634494
 20
239.7579883432574
 30
0.0
  0
SPLINE
  5
128
330
1F
100
AcDbEntity
  8
1
100
AcDbSpline
210
0.0
220
0.0
230
1.0
 70
     8
 71
     3
 72
     8
 73
     4
 74
     0
 42
0.000000001
 43
0.0000000001
 40
0.0
 40
0.0
 40
0.0
 40
0.0
 40
1.0
 40
1.0
 40
1.0
 40
1.0
 10
265.1318047838412
 20
235.737861310191
 30
0.0
 10
264.8010642556496
 20
235.740290684946
 30
0.0
 10
264.470514312609
 20
235.7666508311024
 30
0.0
 10
264.1431660853148
 20
235.816701621886
 30
0.0
  0
SPLINE
  5
129
330
1F
100
AcDbEntity
  8
1
100
AcDbSpline
210
0.0
220
0.0
230
1.0
 70
     8
 71
     3
 72
    10
 73
     6
 74
     0
 42
0.000000001
 43
0.0000000001
 40
0.0
 40
0.0
 40
0.0
 40
0.0
 40
0.5
 40
0.5
 40
1.0
 40
1.0
 40
1.0
 40
1.0
 10
267.1027768242691
 20
241.4442338134995
 30
0.0
 10
267.1186018322066
 20
241.3299238431603
 30
0.0
 10
267.1304822857659
 20
241.2152166233685
 30
0.0
 10
267.1463486308148
 20
240.9850405683254
 30
0.0
 10
267.1503186994728
 20
240.8697363783267
 30
0.0
 10
267.1503186994728
 20
240.7544269287243
 30
0.0
  0
SPLINE
  5
12A
330
1F
100
AcDbEntity
  8
1
100
AcDbSpline
210
0.0
220
0.0
230
1.0
 70
     8
 71
     3
 72
    10
 73
     6
 74
     0
 42
0.000000001
 43
0.0000000001
 40
0.0
 40
0.0
 40
0.0
 40
0.0
 40
0.5
 40
0.5
 40
1.0
 40
1.0
 40
1.0
 40
1.0
 10
265.8155074670846
 20
235.7807817950596
 30
0.0
 10
265.7022668953431
 20
235.7656550728553
 30
0.0
 10
265.5886034985768
 20
235.7545089795718
 30
0.0
 10
265.3604643266361
 20
235.7401847647127
 30
0.0
 10
265.246151724585
 20
235.7370214023252
 30
0.0
 10
265.1318047838412
 20
235.737861310191
 30
0.0
  0
SPLINE
  5
12B
330
1F
100
AcDbEntity
  8
1
100
AcDbSpline
210
0.0
220
0.0
230
1.0
 70
     8
 71
     3
 72
     8
 73
     4
 74
     0
 42
0.000000001
 43
0.0000000001
 40
0.0
 40
0.0
 40
0.0
 40
0.0
 40
1.0
 40
1.0
 40
1.0
 40
1.0
 10
266.4961709462768
 20
241.8965449271149
 30
0.0
 10
266.6142938807713
 20
241.8539329580588
 30
0.0
 10
266.7320194476696
 20
241.8100542847867
 30
0.0
 10
266.849346996434
 20
241.7649068805049
 30
0.0
  0
SPLINE
  5
12C
330
1F
100
AcDbEntity
  8
1
100
AcDbSpline
210
0.0
220
0.0
230
1.0
 70
     8
 71
     3
 72
    16
 73
    12
 74
     0
 42
0.000000001
 43
0.0000000001
 40
0.0
 40
0.0
 40
0.0
 40
0.0
 40
0.1164001393918208
 40
0.231477914084452
 40
0.3452333439861192
 40
0.4576664655147399
 40
0.5687773325417948
 40
0.678566017372845
 40
0.7870326117681401
 40
0.8941772280069951
 40
1.0
 40
1.0
 40
1.0
 40
1.0
 10
267.1027768244004
 20
241.4442338137027
 30
0.0
 10
267.0956265084959
 20
241.4331944612619
 30
0.0
 10
267.0814071079071
 20
241.4112411690306
 30
0.0
 10
267.0598645301961
 20
241.3784527597538
 30
0.0
 10
267.0383182073914
 20
241.3460086749781
 30
0.0
 10
267.0167449273987
 20
241.3139071109489
 30
0.0
 10
266.9951502674917
 20
241.2821501641896
 30
0.0
 10
266.9735348444589
 20
241.2507388121815
 30
0.0
 10
266.9518918405003
 20
241.2196729474448
 30
0.0
 10
266.9302492500373
 20
241.1889560745636
 30
0.0
 10
266.9156634394978
 20
241.1685767577257
 30
0.0
 10
266.9084157997729
 20
241.1584503443954
 30
0.0
  0
SPLINE
  5
12D
330
1F
100
AcDbEntity
  8
1
100
AcDbSpline
210
0.0
220
0.0
230
1.0
 70
     8
 71
     3
 72
     8
 73
     4
 74
     0
 42
0.000000001
 43
0.0000000001
 40
0.0
 40
0.0
 40
0.0
 40
0.0
 40
1.0
 40
1.0
 40
1.0
 40
1.0
 10
267.1017024743933
 20
241.4516707232105
 30
0.0
 10
267.1020905072867
 20
241.4491963347306
 30
0.0
 10
267.1024564654434
 20
241.4467182363048
 30
0.0
 10
267.1028001983447
 20
241.4442370316452
 30
0.0
  0
SPLINE
  5
12E
330
1F
100
AcDbEntity
  8
1
100
AcDbSpline
210
0.0
220
0.0
230
1.0
 70
     8
 71
     3
 72
    19
 73
    15
 74
     0
 42
0.000000001
 43
0.0000000001
 40
0.0
 40
0.0
 40
0.0
 40
0.0
 40
0.2499999999999691
 40
0.2499999999999691
 40
0.3749999999999626
 40
0.3749999999999626
 40
0.4999999999999563
 40
0.6249999999999499
 40
0.6249999999999499
 40
0.6874999999999543
 40
0.6874999999999543
 40
0.7499999999999587
 40
0.7499999999999587
 40
1.0
 40
1.0
 40
1.0
 40
1.0
 10
266.8558873601654
 20
241.762332137831
 30
0.0
 10
266.8880647411975
 20
241.7493148984384
 30
0.0
 10
266.9179082538743
 20
241.7324209388009
 30
0.0
 10
266.9592748675418
 20
241.7014232300244
 30
0.0
 10
266.9725747495778
 20
241.6900427964058
 30
0.0
 10
266.9973445391776
 20
241.665887361234
 30
0.0
 10
267.0203851192542
 20
241.6403055693026
 30
0.0
 10
267.0400295674046
 20
241.6119184251812
 30
0.0
 10
267.0534524135797
 20
241.5895470226342
 30
0.0
 10
267.0577107005736
 20
241.5818978026173
 30
0.0
 10
267.0656587856693
 20
241.5664697042992
 30
0.0
 10
267.0693663538813
 20
241.5586631487107
 30
0.0
 10
267.0866009787154
 20
241.5191779353823
 30
0.0
 10
267.0962840425368
 20
241.4861647906866
 30
0.0
 10
267.1017024743933
 20
241.4516707232105
 30
0.0
  0
SPLINE
  5
12F
330
1F
100
AcDbEntity
  8
1
100
AcDbSpline
210
0.0
220
0.0
230
1.0
 70
     8
 71
     3
 72
     8
 73
     4
 74
     0
 42
0.000000001
 43
0.0000000001
 40
0.0
 40
0.0
 40
0.0
 40
0.0
 40
1.0
 40
1.0
 40
1.0
 40
1.0
 10
266.8493490702335
 20
241.7649111888177
 30
0.0
 10
266.8515361246877
 20
241.7640695703604
 30
0.0
 10
266.8537157072955
 20
241.7632098073998
 30
0.0
 10
266.8558873601654
 20
241.762332137831
 30
0.0
  0
SPLINE
  5
130
330
1F
100
AcDbEntity
  8
1
100
AcDbSpline
210
0.0
220
0.0
230
1.0
 70
     8
 71
     3
 72
    24
 73
    20
 74
     0
 42
0.000000001
 43
0.0000000001
 40
0.0
 40
0.0
 40
0.0
 40
0.0
 40
0.0549546209824733
 40
0.1103919402534601
 40
0.1663121591845138
 40
0.2227154734456225
 40
0.2796020731999954
 40
0.3369721432908277
 40
0.3948258634204379
 40
0.4531634083221301
 40
0.5119849479251353
 40
0.5712906475129714
 40
0.6310806678755087
 40
0.6913551654550658
 40
0.7521142924867866
 40
0.8133581971335772
 40
0.8750870236158464
 40
0.9373009123363036
 40
1.0
 40
1.0
 40
1.0
 40
1.0
 10
266.5033221195382
 20
241.3498808317497
 30
0.0
 10
266.5102921973276
 20
241.3573883201441
 30
0.0
 10
266.5242935751396
 20
241.3724692395548
 30
0.0
 10
266.5450670527664
 20
241.3952379689232
 30
0.0
 10
266.5657921469515
 20
241.4182396278102
 30
0.0
 10
266.5864462555286
 20
241.4414776913616
 30
0.0
 10
266.6070368883401
 20
241.4649510821232
 30
0.0
 10
266.6275633605449
 20
241.4886599615849
 30
0.0
 10
266.6480271901781
 20
241.5126041583401
 30
0.0
 10
266.6684292768912
 20
241.5367835947423
 30
0.0
 10
266.6887706651323
 20
241.5611981716389
 30
0.0
 10
266.7090523464315
 20
241.5858477983946
 30
0.0
 10
266.7292752777783
 20
241.6107323901818
 30
0.0
 10
266.7494405100118
 20
241.6358518488732
 30
0.0
 10
266.7695486493223
 20
241.6612061438618
 30
0.0
 10
266.7896019058736
 20
241.6867950051336
 30
0.0
 10
266.8095963528394
 20
241.7126190835792
 30
0.0
 10
266.8295511606497
 20
241.7386755695415
 30
0.0
 10
266.8427313192984
 20
241.7561404972076
 30
0.0
 10
266.8493469964398
 20
241.7649068805128
 30
0.0
  0
SPLINE
  5
131
330
1F
100
AcDbEntity
  8
1
100
AcDbSpline
210
0.0
220
0.0
230
1.0
 70
     8
 71
     3
 72
    16
 73
    12
 74
     0
 42
0.000000001
 43
0.0000000001
 40
0.0
 40
0.0
 40
0.0
 40
0.0
 40
0.1249999999999998
 40
0.1249999999999998
 40
0.2499999999999995
 40
0.2499999999999995
 40
0.4999999999999998
 40
0.4999999999999998
 40
0.7499999999999999
 40
0.7499999999999999
 40
1.0
 40
1.0
 40
1.0
 40
1.0
 10
267.079337634494
 20
239.7579883432574
 30
0.0
 10
267.0565461349587
 20
239.5989225505434
 30
0.0
 10
267.0316393638278
 20
239.4402199793089
 30
0.0
 10
266.9775968448841
 20
239.1235410563812
 30
0.0
 10
266.9484587196106
 20
238.9655593990809
 30
0.0
 10
266.8547889809505
 20
238.493167252208
 30
0.0
 10
266.7839817251688
 20
238.1801536763864
 30
0.0
 10
266.6256250753991
 20
237.5579604106331
 30
0.0
 10
266.5382342472763
 20
237.2494161217977
 30
0.0
 10
266.3471862925369
 20
236.6377421436096
 30
0.0
 10
266.2435153359387
 20
236.3345578867535
 30
0.0
 10
266.1316639433018
 20
236.0340370630993
 30
0.0
  0
SPLINE
  5
132
330
1F
100
AcDbEntity
  8
1
100
AcDbSpline
210
0.0
220
0.0
230
1.0
 70
     8
 71
     3
 72
    24
 73
    20
 74
     0
 42
0.000000001
 43
0.0000000001
 40
0.0
 40
0.0
 40
0.0
 40
0.0
 40
0.0312500000000003
 40
0.0312500000000003
 40
0.0625000000000005
 40
0.0625000000000005
 40
0.1250000000000004
 40
0.1250000000000004
 40
0.1875000000000002
 40
0.1875000000000002
 40
0.25
 40
0.25
 40
0.3749999999999998
 40
0.3749999999999998
 40
0.4999999999999997
 40
0.4999999999999997
 40
0.7499999999999999
 40
0.7499999999999999
 40
1.0
 40
1.0
 40
1.0
 40
1.0
 10
266.9087127086795
 20
241.1586440447837
 30
0.0
 10
266.906658831791
 20
241.165073055627
 30
0.0
 10
266.9044070485507
 20
241.1704934836269
 30
0.0
 10
266.8996876511809
 20
241.1802344847362
 30
0.0
 10
266.8972160043348
 20
241.184534481936
 30
0.0
 10
266.8895807339672
 20
241.1963116421657
 30
0.0
 10
266.8842010366744
 20
241.2026876632915
 30
0.0
 10
266.8731222364589
 20
241.2138119701528
 30
0.0
 10
266.8674185642317
 20
241.2185265289066
 30
0.0
 10
266.8558719309242
 20
241.2267907808543
 30
0.0
 10
266.850015313172
 20
241.2303446321205
 30
0.0
 10
266.8322661562175
 20
241.2397614630156
 30
0.0
 10
266.820197506029
 20
241.2444018834171
 30
0.0
 10
266.7957704325515
 20
241.2516711246877
 30
0.0
 10
266.7834087167614
 20
241.2542770890743
 30
0.0
 10
266.7460091562788
 20
241.259912332237
 30
0.0
 10
266.7206623333697
 20
241.2607966899276
 30
0.0
 10
266.6694596017533
 20
241.2590313410894
 30
0.0
 10
266.6435966159649
 20
241.256337032571
 30
0.0
 10
266.6175780316786
 20
241.252348988912
 30
0.0
  0
SPLINE
  5
133
330
1F
100
AcDbEntity
  8
1
100
AcDbSpline
210
0.0
220
0.0
230
1.0
 70
     8
 71
     3
 72
    12
 73
     8
 74
     0
 42
0.000000001
 43
0.0000000001
 40
0.0
 40
0.0
 40
0.0
 40
0.0
 40
0.5000000000000117
 40
0.5000000000000117
 40
0.7500000000000058
 40
0.7500000000000058
 40
1.0
 40
1.0
 40
1.0
 40
1.0
 10
265.9396518112897
 20
236.9409910262878
 30
0.0
 10
265.9454776819043
 20
236.9412517135134
 30
0.0
 10
265.9513981071652
 20
236.9423913323565
 30
0.0
 10
265.9605560961921
 20
236.9466788748776
 30
0.0
 10
265.9636555930442
 20
236.9485433991595
 30
0.0
 10
265.9700086992861
 20
236.953704999033
 30
0.0
 10
265.973257143203
 20
236.9569540590286
 30
0.0
 10
265.9766623816243
 20
236.9616606005181
 30
0.0
  0
SPLINE
  5
134
330
1F
100
AcDbEntity
  8
1
100
AcDbSpline
210
0.0
220
0.0
230
1.0
 70
     8
 71
     3
 72
    16
 73
    12
 74
     0
 42
0.000000001
 43
0.0000000001
 40
0.0
 40
0.0
 40
0.0
 40
0.0
 40
0.116394487692593
 40
0.2314680280303261
 40
0.3452206391271647
 40
0.4576523555409026
 40
0.5687632292165228
 40
0.6785533304659582
 40
0.7870227489876502
 40
0.8941715949296135
 40
1.0
 40
1.0
 40
1.0
 40
1.0
 10
265.8155074670863
 20
235.780781795052
 30
0.0
 10
265.810672178122
 20
235.8017803573676
 30
0.0
 10
265.8010564753193
 20
235.8435391717841
 30
0.0
 10
265.7866585534531
 20
235.9061416171573
 30
0.0
 10
265.7723859490505
 20
235.9682665436108
 30
0.0
 10
265.7582361955223
 20
236.0299362378315
 30
0.0
 10
265.7442115959412
 20
236.0911453626993
 30
0.0
 10
265.7303131810227
 20
236.1518933356586
 30
0.0
 10
265.7165406787089
 20
236.2121866927397
 30
0.0
 10
265.7028984513754
 20
236.2719985965056
 30
0.0
 10
265.6938246959459
 20
236.3118637496019
 30
0.0
 10
265.6893159464877
 20
236.331672745868
 30
0.0
  0
SPLINE
  5
135
330
1F
100
AcDbEntity
  8
1
100
AcDbSpline
210
0.0
220
0.0
230
1.0
 70
     8
 71
     3
 72
     8
 73
     4
 74
     0
 42
0.000000001
 43
0.0000000001
 40
0.0
 40
0.0
 40
0.0
 40
0.0
 40
1.0
 40
1.0
 40
1.0
 40
1.0
 10
265.8228705540994
 20
235.781826761157
 30
0.0
 10
265.8204207191063
 20
235.7814563954229
 30
0.0
 10
265.8179664250673
 20
235.781106944851
 30
0.0
 10
265.8155082678384
 20
235.7807785522776
 30
0.0
  0
SPLINE
  5
136
330
1F
100
AcDbEntity
  8
1
100
AcDbSpline
210
0.0
220
0.0
230
1.0
 70
     8
 71
     3
 72
    19
 73
    15
 74
     0
 42
0.000000001
 43
0.0000000001
 40
0.0
 40
0.0
 40
0.0
 40
0.0
 40
0.2499999999999882
 40
0.2499999999999882
 40
0.3749999999999872
 40
0.3749999999999872
 40
0.4999999999999862
 40
0.6249999999999853
 40
0.6249999999999853
 40
0.6874999999999848
 40
0.6874999999999848
 40
0.7499999999999842
 40
0.7499999999999842
 40
1.0
 40
1.0
 40
1.0
 40
1.0
 10
266.1291518347427
 20
236.0274548075928
 30
0.0
 10
266.1164670141944
 20
235.9950757173122
 30
0.0
 10
266.0999283742934
 20
235.9650570849726
 30
0.0
 10
266.0694747083475
 20
235.9235268377861
 30
0.0
 10
266.0582785545394
 20
235.9101889106055
 30
0.0
 10
266.0344934548802
 20
235.8853783544381
 30
0.0
 10
266.009282462712
 20
235.8623286929908
 30
0.0
 10
265.981276556408
 20
235.8427287800525
 30
0.0
 10
265.9591916529642
 20
235.8293617084406
 30
0.0
 10
265.9516395919661
 20
235.8251266589845
 30
0.0
 10
265.9364036875468
 20
235.8172324267531
 30
0.0
 10
265.9286922184804
 20
235.8135554036393
 30
0.0
 10
265.8896774861531
 20
235.7964925652855
 30
0.0
 10
265.8570263734837
 20
235.7870122527907
 30
0.0
 10
265.8228705540994
 20
235.781826761157
 30
0.0
  0
SPLINE
  5
137
330
1F
100
AcDbEntity
  8
1
100
AcDbSpline
210
0.0
220
0.0
230
1.0
 70
     8
 71
     3
 72
     8
 73
     4
 74
     0
 42
0.000000001
 43
0.0000000001
 40
0.0
 40
0.0
 40
0.0
 40
0.0
 40
1.0
 40
1.0
 40
1.0
 40
1.0
 10
266.1316645942239
 20
236.0340367425883
 30
0.0
 10
266.1308455783981
 20
236.0318362380975
 30
0.0
 10
266.1300079137569
 20
236.0296421049131
 30
0.0
 10
266.1291518347427
 20
236.0274548075928
 30
0.0
  0
SPLINE
  5
138
330
1F
100
AcDbEntity
  8
1
100
AcDbSpline
210
0.0
220
0.0
230
1.0
 70
     8
 71
     3
 72
    24
 73
    20
 74
     0
 42
0.000000001
 43
0.0000000001
 40
0.0
 40
0.0
 40
0.0
 40
0.0
 40
0.0549531386250685
 40
0.1103891671077045
 40
0.166308285443021
 40
0.222710687962467
 40
0.2795965635273164
 40
0.3369660957141608
 40
0.3948194629928361
 40
0.4531568388971007
 40
0.5119783921884656
 40
0.5712842870134358
 40
0.6310746830545499
 40
0.6913497356754458
 40
0.7521095960602621
 40
0.8133544113476322
 40
0.8750843247595149
 40
0.9372994757250967
 40
1.0
 40
1.0
 40
1.0
 40
1.0
 10
265.9766603265606
 20
236.9616641184281
 30
0.0
 10
265.9794236788674
 20
236.9440669995235
 30
0.0
 10
265.9849746658939
 20
236.9087181305059
 30
0.0
 10
265.9933762117851
 20
236.8557695676861
 30
0.0
 10
266.0018785955965
 20
236.802579194873
 30
0.0
 10
266.0104845651016
 20
236.7491685803656
 30
0.0
 10
266.0191932362793
 20
236.6955304731563
 30
0.0
 10
266.0280047138396
 20
236.6416654660244
 30
0.0
 10
266.0369188372237
 20
236.5875720440418
 30
0.0
 10
266.0459355210143
 20
236.5332492848081
 30
0.0
 10
266.0550546629993
 20
236.4786961280085
 30
0.0
 10
266.0642761681412
 20
236.4239115646201
 30
0.0
 10
266.0735999464554
 20
236.3688946194262
 30
0.0
 10
266.0830258977126
 20
236.3136442277238
 30
0.0
 10
266.092553976227
 20
236.2581597522683
 30
0.0
 10
266.1021839449126
 20
236.2024390166686
 30
0.0
 10
266.1119163051537
 20
236.1464857364501
 30
0.0
 10
266.1217487856049
 20
236.0902814550447
 30
0.0
 10
266.1283503403855
 20
236.0528336961809
 30
0.0
 10
266.1316639433018
 20
236.034037063099
 30
0.0
  0
SPLINE
  5
139
330
1F
100
AcDbEntity
  8
1
100
AcDbSpline
210
0.0
220
0.0
230
1.0
 70
     8
 71
     3
 72
    12
 73
     8
 74
     0
 42
0.000000001
 43
0.0000000001
 40
0.0
 40
0.0
 40
0.0
 40
0.0
 40
0.5000000000000038
 40
0.5000000000000038
 40
0.7500000000000019
 40
0.7500000000000019
 40
1.0
 40
1.0
 40
1.0
 40
1.0
 10
266.5516379663223
 20
241.2996394138246
 30
0.0
 10
266.5466177791778
 20
241.3077058518045
 30
0.0
 10
266.5407611332623
 20
241.3158575459469
 30
0.0
 10
266.5295222578631
 20
241.3283352018844
 30
0.0
 10
266.5253615971987
 20
241.3325366551279
 30
0.0
 10
266.5156765974304
 20
241.3410785547064
 30
0.0
 10
266.5101979937513
 20
241.345414339453
 30
0.0
 10
266.5033317447163
 20
241.3498915601225
 30
0.0
  0
SPLINE
  5
13A
330
1F
100
AcDbEntity
  8
1
100
AcDbSpline
210
0.0
220
0.0
230
1.0
 70
     8
 71
     3
 72
    24
 73
    20
 74
     0
 42
0.000000001
 43
0.0000000001
 40
0.0
 40
0.0
 40
0.0
 40
0.0
 40
0.0312499999999992
 40
0.0312499999999992
 40
0.0624999999999983
 40
0.0624999999999983
 40
0.1249999999999993
 40
0.1249999999999993
 40
0.1875000000000002
 40
0.1875000000000002
 40
0.2500000000000011
 40
0.2500000000000011
 40
0.3750000000000015
 40
0.3750000000000015
 40
0.5000000000000019
 40
0.5000000000000019
 40
0.7500000000000009
 40
0.7500000000000009
 40
1.0
 40
1.0
 40
1.0
 40
1.0
 10
265.6893730606317
 20
236.3316819133781
 30
0.0
 10
265.696886624672
 20
236.3362063378059
 30
0.0
 10
265.7034051637897
 20
236.3409723640044
 30
0.0
 10
265.7153605361572
 20
236.3507670626524
 30
0.0
 10
265.7207768957079
 20
236.3558007071092
 30
0.0
 10
265.7359229233766
 20
236.3711694711352
 30
0.0
 10
265.7445708349789
 20
236.3817672508729
 30
0.0
 10
265.760270187903
 20
236.4033504476271
 30
0.0
 10
265.7672874583226
 20
236.4143400024976
 30
0.0
 10
265.7801475204562
 20
236.4364324379871
 30
0.0
 10
265.7859996641178
 20
236.4475609153774
 30
0.0
 10
265.8023129136783
 20
236.4811233087883
 30
0.0
 10
265.8115529965343
 20
236.5037310318939
 30
0.0
 10
265.8280254386333
 20
236.5492322684436
 30
0.0
 10
265.8352349081984
 20
236.5721290401294
 30
0.0
 10
265.8546854921831
 20
236.6411293586504
 30
0.0
 10
265.8647864597494
 20
236.6875375456725
 30
0.0
 10
265.8814630761053
 20
236.7808557328387
 30
0.0
 10
265.8879940960136
 20
236.8277715191562
 30
0.0
 10
265.8932232782662
 20
236.8748143547624
 30
0.0
  0
SPLINE
  5
13B
330
1F
100
AcDbEntity
  8
1
100
AcDbSpline
210
0.0
220
0.0
230
1.0
 70
     8
 71
     3
 72
    16
 73
    12
 74
     0
 42
0.000000001
 43
0.0000000001
 40
0.0
 40
0.0
 40
0.0
 40
0.0
 40
0.1250000000000011
 40
0.1250000000000011
 40
0.2500000000000021
 40
0.2500000000000021
 40
0.5000000000000015
 40
0.5000000000000015
 40
0.7500000000000008
 40
0.7500000000000008
 40
1.0
 40
1.0
 40
1.0
 40
1.0
 10
264.1431660853148
 20
235.816701621886
 30
0.0
 10
263.9852612868473
 20
235.840844902261
 30
0.0
 10
263.8277012337167
 20
235.8671186550262
 30
0.0
 10
263.5132704601576
 20
235.9239256430976
 30
0.0
 10
263.3563944622448
 20
235.9544613144281
 30
0.0
 10
262.8872607971904
 20
236.0523654527323
 30
0.0
 10
262.5763427066765
 20
236.1260526474445
 30
0.0
 10
261.9581866755849
 20
236.2902836075676
 30
0.0
 10
261.6515800188982
 20
236.3806628265797
 30
0.0
 10
261.0436177266521
 20
236.577786202128
 30
0.0
 10
260.742207888773
 20
236.6845447005137
 30
0.0
 10
260.4433795553076
 20
236.7995332905516
 30
0.0
  0
SPLINE
  5
13C
330
1F
100
AcDbEntity
  8
1
100
AcDbSpline
210
0.0
220
0.0
230
1.0
 70
     8
 71
     2
 72
     7
 73
     4
 74
     0
 42
0.000000001
 43
0.0000000001
 40
0.0
 40
0.0
 40
0.0
 40
0.376016849189758
 40
1.0
 40
1.0
 40
1.0
 10
266.6175735253584
 20
241.2523283644623
 30
0.0
 10
266.6059528693753
 20
241.262571790879
 30
0.0
 10
266.5735736275892
 20
241.2871412169101
 30
0.0
 10
266.5516300137833
 20
241.299645353907
 30
0.0
  0
SPLINE
  5
13D
330
1F
100
AcDbEntity
  8
1
100
AcDbSpline
210
0.0
220
0.0
230
1.0
 70
     8
 71
     2
 72
     8
 73
     5
 74
     0
 42
0.000000001
 43
0.0000000001
 40
0.0
 40
0.0
 40
0.0
 40
0.3809847559250121
 40
0.9925842274251884
 40
1.0
 40
1.0
 40
1.0
 10
265.8932301095837
 20
236.8748082055362
 30
0.0
 10
265.9030817100698
 20
236.8862086928075
 30
0.0
 10
265.9265374938004
 20
236.9177787421727
 30
0.0
 10
265.9395192156229
 20
236.9407490027981
 30
0.0
 10
265.9396525552286
 20
236.9409859412259
 30
0.0
  0
SPLINE
  5
13E
330
1F
100
AcDbEntity
  8
1
100
AcDbSpline
210
0.0
220
0.0
230
1.0
 70
     8
 71
     3
 72
    12
 73
     8
 74
     0
 42
0.000000001
 43
0.0000000001
 40
0.0
 40
0.0
 40
0.0
 40
0.0
 40
0.1788559624895616
 40
0.1788559624895616
 40
0.5894279812447808
 40
0.5894279812447808
 40
1.0
 40
1.0
 40
1.0
 40
1.0
 10
261.1406493818814
 20
237.5578766251822
 30
0.0
 10
261.1645226421145
 20
237.5598585046707
 30
0.0
 10
261.1884923931833
 20
237.5625874089626
 30
0.0
 10
261.2677195175503
 20
237.573390053544
 30
0.0
 10
261.3232748364015
 20
237.5837704659191
 30
0.0
 10
261.4348392961695
 20
237.608044747003
 30
0.0
 10
261.4908555896613
 20
237.621983245853
 30
0.0
 10
261.5469707845467
 20
237.6371943374524
 30
0.0
  0
SPLINE
  5
13F
330
1F
100
AcDbEntity
  8
1
100
AcDbSpline
210
0.0
220
0.0
230
1.0
 70
     8
 71
     3
 72
    13
 73
     9
 74
     0
 42
0.000000001
 43
0.0000000001
 40
0.0
 40
0.0
 40
0.0
 40
0.0
 40
0.4435073081149706
 40
0.4435073081149706
 40
0.6652609621724562
 40
0.6652609621724562
 40
0.8870146162299413
 40
1.0
 40
1.0
 40
1.0
 40
1.0
 10
260.43683401432
 20
236.8021061026232
 30
0.0
 10
260.4046204673656
 20
236.8151098557171
 30
0.0
 10
260.3747358519814
 20
236.8319884881253
 30
0.0
 10
260.3333173272594
 20
236.8629668392319
 30
0.0
 10
260.3200012794488
 20
236.8743412446215
 30
0.0
 10
260.2952069159891
 20
236.8984875161832
 30
0.0
 10
260.2778042197132
 20
236.9177907652485
 30
0.0
 10
260.2623546971232
 20
236.938698974659
 30
0.0
 10
260.2573652239759
 20
236.9459413965874
 30
0.0
  0
SPLINE
  5
140
330
1F
100
AcDbEntity
  8
1
100
AcDbSpline
210
0.0
220
0.0
230
1.0
 70
     8
 71
     3
 72
     8
 73
     4
 74
     0
 42
0.000000001
 43
0.0000000001
 40
0.0
 40
0.0
 40
0.0
 40
0.0
 40
1.0
 40
1.0
 40
1.0
 40
1.0
 10
260.443377949201
 20
236.7995291566419
 30
0.0
 10
260.4411908911707
 20
236.8003707737657
 30
0.0
 10
260.4390094250371
 20
236.8012298343582
 30
0.0
 10
260.43683401432
 20
236.8021061026232
 30
0.0
  0
SPLINE
  5
141
330
1F
100
AcDbEntity
  8
1
100
AcDbSpline
210
0.0
220
0.0
230
1.0
 70
     8
 71
     3
 72
    24
 73
    20
 74
     0
 42
0.000000001
 43
0.0000000001
 40
0.0
 40
0.0
 40
0.0
 40
0.0
 40
0.0549546209746059
 40
0.110391940238708
 40
0.1663121591638603
 40
0.2227154734200515
 40
0.2796020731704869
 40
0.3369721432583675
 40
0.3948258633860079
 40
0.4531634082867134
 40
0.5119849478897177
 40
0.5712906474785351
 40
0.6310806678430386
 40
0.6913551654255468
 40
0.7521142924612024
 40
0.813358197112911
 40
0.8750870236010845
 40
0.9373009123284303
 40
1.0
 40
1.0
 40
1.0
 40
1.0
 10
261.6212049152316
 20
237.5247383432566
 30
0.0
 10
261.5990373635765
 20
237.5115637058261
 30
0.0
 10
261.554507549811
 20
237.485098710488
 30
0.0
 10
261.4877204411991
 20
237.4451714647243
 30
0.0
 10
261.4205662276343
 20
237.4048563535177
 30
0.0
 10
261.3530659735551
 20
237.3641493283028
 30
0.0
 10
261.2852125863507
 20
237.3230516221194
 30
0.0
 10
261.2170066374502
 20
237.2815630311866
 30
0.0
 10
261.1484466394274
 20
237.2396837383248
 30
0.0
 10
261.0795316841924
 20
237.197413818034
 30
0.0
 10
261.0102607293451
 20
237.1547533702305
 30
0.0
 10
260.9406327829996
 20
237.1117024854167
 30
0.0
 10
260.8706468868243
 20
237.0682612479201
 30
0.0
 10
260.8003019951203
 20
237.0244297577845
 30
0.0
 10
260.7295974816304
 20
236.980208038134
 30
0.0
 10
260.6585312115523
 20
236.9355963870851
 30
0.0
 10
260.5871068266343
 20
236.8905940474413
 30
0.0
 10
260.515306232542
 20
236.8452042301366
 30
0.0
 10
260.4674171195309
 20
236.8147963081916
 30
0.0
 10
260.443379555286
 20
236.7995332905379
 30
0.0
  0
SPLINE
  5
142
330
1F
100
AcDbEntity
  8
1
100
AcDbSpline
210
0.0
220
0.0
230
1.0
 70
     8
 71
     3
 72
    12
 73
     8
 74
     0
 42
0.000000001
 43
0.0000000001
 40
0.0
 40
0.0
 40
0.0
 40
0.0
 40
0.5000000000000082
 40
0.5000000000000082
 40
0.7500000000000041
 40
0.7500000000000041
 40
1.0
 40
1.0
 40
1.0
 40
1.0
 10
261.6129059257395
 20
237.5899020763158
 30
0.0
 10
261.6110680114502
 20
237.5792782473327
 30
0.0
 10
261.6101182543821
 20
237.5685884405767
 30
0.0
 10
261.6112991922727
 20
237.5523601724407
 30
0.0
 10
261.6121328177213
 20
237.5469180653501
 30
0.0
 10
261.6152480310233
 20
237.5359262876291
 30
0.0
 10
261.6174810567131
 20
237.5303802244941
 30
0.0
 10
261.6211874930312
 20
237.5247247073686
 30
0.0
  0
SPLINE
  5
143
330
1F
100
AcDbEntity
  8
1
100
AcDbSpline
210
0.0
220
0.0
230
1.0
 70
     8
 71
     2
 72
     7
 73
     4
 74
     0
 42
0.000000001
 43
0.0000000001
 40
0.0
 40
0.0
 40
0.0
 40
0.3760168491812106
 40
1.0
 40
1.0
 40
1.0
 10
261.5469635145194
 20
237.6372105704936
 30
0.0
 10
261.5585841705021
 20
237.626967144077
 30
0.0
 10
261.5909634122881
 20
237.6023977180459
 30
0.0
 10
261.6129070260943
 20
237.5898935810488
 30
0.0
  0
SPLINE
  5
144
330
1F
100
AcDbEntity
  8
1
100
AcDbSpline
210
0.0
220
0.0
230
1.0
 70
     8
 71
     3
 72
    19
 73
    15
 74
     0
 42
0.000000001
 43
0.0000000001
 40
0.0
 40
0.0
 40
0.0
 40
0.0
 40
0.2500000000000109
 40
0.2500000000000109
 40
0.3750000000000145
 40
0.3750000000000145
 40
0.5000000000000182
 40
0.6250000000000217
 40
0.6250000000000217
 40
0.6875000000000198
 40
0.6875000000000198
 40
0.7500000000000178
 40
0.7500000000000178
 40
1.0
 40
1.0
 40
1.0
 40
1.0
 10
260.4368340143201
 20
250.6602165177587
 30
0.0
 10
260.4046204673656
 20
250.6472127646648
 30
0.0
 10
260.3747358519814
 20
250.6303341322566
 30
0.0
 10
260.3333173272594
 20
250.5993557811501
 30
0.0
 10
260.3200012794488
 20
250.5879813757605
 30
0.0
 10
260.2952069159892
 20
250.5638351041987
 30
0.0
 10
260.2721494828634
 20
250.5382595630656
 30
0.0
 10
260.2525207514061
 20
250.5098665918938
 30
0.0
 10
260.2391158651816
 20
250.487488492068
 30
0.0
 10
260.2348646316378
 20
250.4798366418144
 30
0.0
 10
260.2269318669694
 20
250.4644028304977
 30
0.0
 10
260.2232325858511
 20
250.456593184646
 30
0.0
 10
260.2060415592231
 20
250.4170917135146
 30
0.0
 10
260.1964011264902
 20
250.3840626716549
 30
0.0
 10
260.1910185055196
 20
250.3495552502732
 30
0.0
  0
SPLINE
  5
145
330
1F
100
AcDbEntity
  8
1
100
AcDbSpline
210
0.0
220
0.0
230
1.0
 70
     8
 71
     3
 72
     8
 73
     4
 74
     0
 42
0.000000001
 43
0.0000000001
 40
0.0
 40
0.0
 40
0.0
 40
0.0
 40
1.0
 40
1.0
 40
1.0
 40
1.0
 10
260.1910185055196
 20
250.3495552502732
 30
0.0
 10
260.1906345010988
 20
250.347079359573
 30
0.0
 10
260.1902705800154
 20
250.344600501521
 30
0.0
 10
260.1899268864692
 20
250.3421192821858
 30
0.0
  0
SPLINE
  5
146
330
1F
100
AcDbEntity
  8
1
100
AcDbSpline
210
0.0
220
0.0
230
1.0
 70
     8
 71
     3
 72
    10
 73
     6
 74
     0
 42
0.000000001
 43
0.0000000001
 40
0.0
 40
0.0
 40
0.0
 40
0.0
 40
0.5
 40
0.5
 40
1.0
 40
1.0
 40
1.0
 40
1.0
 10
260.1899479699539
 20
250.342116918201
 30
0.0
 10
260.1741237275052
 20
250.2278066624108
 30
0.0
 10
260.1622431064437
 20
250.1130995050812
 30
0.0
 10
260.1463772580886
 20
249.8829232648212
 30
0.0
 10
260.142407853632
 20
249.7676188271416
 30
0.0
 10
260.142407853632
 20
249.6523093775396
 30
0.0
  0
SPLINE
  5
147
330
1F
100
AcDbEntity
  8
1
100
AcDbSpline
210
0.0
220
0.0
230
1.0
 70
     8
 71
     3
 72
     8
 73
     4
 74
     0
 42
0.000000001
 43
0.0000000001
 40
0.0
 40
0.0
 40
0.0
 40
0.0
 40
1.0
 40
1.0
 40
1.0
 40
1.0
 10
260.142407853632
 20
249.6523093775396
 30
0.0
 10
260.142407853632
 20
249.3187850433549
 30
0.0
 10
260.166140271824
 20
248.9856272192073
 30
0.0
 10
260.2133889186108
 20
248.6558707920726
 30
0.0
  0
SPLINE
  5
148
330
1F
100
AcDbEntity
  8
1
100
AcDbSpline
210
0.0
220
0.0
230
1.0
 70
     8
 71
     3
 72
    16
 73
    12
 74
     0
 42
0.000000001
 43
0.0000000001
 40
0.0
 40
0.0
 40
0.0
 40
0.0
 40
0.160067248408141
 40
0.160067248408141
 40
0.320134496816282
 40
0.320134496816282
 40
0.6402689936325646
 40
0.6402689936325646
 40
0.9604034904488472
 40
0.9604034904488472
 40
1.0
 40
1.0
 40
1.0
 40
1.0
 10
260.2133889186108
 20
248.6558707920726
 30
0.0
 10
260.2361805130862
 20
248.4968043367554
 30
0.0
 10
260.2610872689793
 20
248.3381011535998
 30
0.0
 10
260.3151297045791
 20
248.0214210457487
 30
0.0
 10
260.3442677615282
 20
247.8634388166291
 30
0.0
 10
260.4379373970387
 20
247.3910449489273
 30
0.0
 10
260.5087447434437
 20
247.0780302083255
 30
0.0
 10
260.6671022995045
 20
246.4558344270269
 30
0.0
 10
260.7544939344269
 20
246.1472888188587
 30
0.0
 10
260.8618341083385
 20
245.8036222234215
 30
0.0
 10
260.8737739544304
 20
245.7658345471176
 30
0.0
 10
260.8858385021096
 20
245.7280874740079
 30
0.0
  0
SPLINE
  5
149
330
1F
100
AcDbEntity
  8
1
100
AcDbSpline
210
0.0
220
0.0
230
1.0
 70
     8
 71
     3
 72
     8
 73
     4
 74
     0
 42
0.000000001
 43
0.0000000001
 40
0.0
 40
0.0
 40
0.0
 40
0.0
 40
1.0
 40
1.0
 40
1.0
 40
1.0
 10
260.443377949201
 20
250.66279346374
 30
0.0
 10
260.4411908911707
 20
250.6619518466162
 30
0.0
 10
260.4390094250371
 20
250.6610927860237
 30
0.0
 10
260.4368340143201
 20
250.6602165177587
 30
0.0
  0
SPLINE
  5
14A
330
1F
100
AcDbEntity
  8
1
100
AcDbSpline
210
0.0
220
0.0
230
1.0
 70
     8
 71
     3
 72
    16
 73
    12
 74
     0
 42
0.000000001
 43
0.0000000001
 40
0.0
 40
0.0
 40
0.0
 40
0.0
 40
0.1250000000000011
 40
0.1250000000000011
 40
0.2500000000000021
 40
0.2500000000000021
 40
0.5000000000000015
 40
0.5000000000000015
 40
0.7500000000000008
 40
0.7500000000000008
 40
1.0
 40
1.0
 40
1.0
 40
1.0
 10
264.1431660853148
 20
251.645620998496
 30
0.0
 10
263.9852612868473
 20
251.621477718121
 30
0.0
 10
263.8277012337167
 20
251.5952039653558
 30
0.0
 10
263.5132704601576
 20
251.5383969772843
 30
0.0
 10
263.3563944622448
 20
251.5078613059539
 30
0.0
 10
262.8872607971904
 20
251.4099571676496
 30
0.0
 10
262.5763427066765
 20
251.3362699729375
 30
0.0
 10
261.9581866755849
 20
251.1720390128143
 30
0.0
 10
261.6515800188982
 20
251.0816597938022
 30
0.0
 10
261.0436177266521
 20
250.8845364182539
 30
0.0
 10
260.742207888773
 20
250.7777779198682
 30
0.0
 10
260.4433795553076
 20
250.6627893298303
 30
0.0
  0
SPLINE
  5
14B
330
1F
100
AcDbEntity
  8
1
100
AcDbSpline
210
0.0
220
0.0
230
1.0
 70
     8
 71
     3
 72
     8
 73
     4
 74
     0
 42
0.000000001
 43
0.0000000001
 40
0.0
 40
0.0
 40
0.0
 40
0.0
 40
1.0
 40
1.0
 40
1.0
 40
1.0
 10
265.1318047838412
 20
251.724461310191
 30
0.0
 10
264.8010642556496
 20
251.722031935436
 30
0.0
 10
264.470514312609
 20
251.6956717892795
 30
0.0
 10
264.1431660853148
 20
251.645620998496
 30
0.0
  0
SPLINE
  5
14C
330
1F
100
AcDbEntity
  8
1
100
AcDbSpline
210
0.0
220
0.0
230
1.0
 70
     8
 71
     3
 72
     8
 73
     4
 74
     0
 42
0.000000001
 43
0.0000000001
 40
0.0
 40
0.0
 40
0.0
 40
0.0
 40
1.0
 40
1.0
 40
1.0
 40
1.0
 10
265.8228705540994
 20
251.680495859225
 30
0.0
 10
265.8204207191063
 20
251.6808662249591
 30
0.0
 10
265.8179664250673
 20
251.6812156755309
 30
0.0
 10
265.8155082678384
 20
251.6815440681043
 30
0.0
  0
SPLINE
  5
14D
330
1F
100
AcDbEntity
  8
1
100
AcDbSpline
210
0.0
220
0.0
230
1.0
 70
     8
 71
     3
 72
    10
 73
     6
 74
     0
 42
0.000000001
 43
0.0000000001
 40
0.0
 40
0.0
 40
0.0
 40
0.0
 40
0.5
 40
0.5
 40
1.0
 40
1.0
 40
1.0
 40
1.0
 10
265.8155074670846
 20
251.6815408253223
 30
0.0
 10
265.7022668953431
 20
251.6966675475266
 30
0.0
 10
265.5886034985768
 20
251.7078136408101
 30
0.0
 10
265.3604643266361
 20
251.7221378556691
 30
0.0
 10
265.246151724585
 20
251.7253012180567
 30
0.0
 10
265.1318047838412
 20
251.724461310191
 30
0.0
  0
SPLINE
  5
14E
330
1F
100
AcDbEntity
  8
1
100
AcDbSpline
210
0.0
220
0.0
230
1.0
 70
     8
 71
     3
 72
    19
 73
    15
 74
     0
 42
0.000000001
 43
0.0000000001
 40
0.0
 40
0.0
 40
0.0
 40
0.0
 40
0.2500000000000146
 40
0.2500000000000146
 40
0.3750000000000244
 40
0.3750000000000244
 40
0.5000000000000342
 40
0.6250000000000441
 40
0.6250000000000441
 40
0.6875000000000489
 40
0.6875000000000489
 40
0.7500000000000539
 40
0.7500000000000539
 40
1.0
 40
1.0
 40
1.0
 40
1.0
 10
266.1291518347428
 20
251.4348678127892
 30
0.0
 10
266.1164670141944
 20
251.4672469030697
 30
0.0
 10
266.0999283742935
 20
251.4972655354094
 30
0.0
 10
266.0694747083475
 20
251.5387957825959
 30
0.0
 10
266.0582785545394
 20
251.5521337097764
 30
0.0
 10
266.0344934548802
 20
251.5769442659438
 30
0.0
 10
266.009282462712
 20
251.5999939273911
 30
0.0
 10
265.981276556408
 20
251.6195938403294
 30
0.0
 10
265.9591916529642
 20
251.6329609119413
 30
0.0
 10
265.9516395919661
 20
251.6371959613974
 30
0.0
 10
265.9364036875468
 20
251.6450901936288
 30
0.0
 10
265.9286922184804
 20
251.6487672167426
 30
0.0
 10
265.8896774861531
 20
251.6658300550964
 30
0.0
 10
265.8570263734837
 20
251.6753103675913
 30
0.0
 10
265.8228705540994
 20
251.680495859225
 30
0.0
  0
SPLINE
  5
14F
330
1F
100
AcDbEntity
  8
1
100
AcDbSpline
210
0.0
220
0.0
230
1.0
 70
     8
 71
     3
 72
     8
 73
     4
 74
     0
 42
0.000000001
 43
0.0000000001
 40
0.0
 40
0.0
 40
0.0
 40
0.0
 40
1.0
 40
1.0
 40
1.0
 40
1.0
 10
267.1503186994728
 20
246.7078956916576
 30
0.0
 10
267.1503186994728
 20
247.0414200258422
 30
0.0
 10
267.1265862812808
 20
247.3745778499899
 30
0.0
 10
267.079337634494
 20
247.7043342771245
 30
0.0
  0
SPLINE
  5
150
330
1F
100
AcDbEntity
  8
1
100
AcDbSpline
210
0.0
220
0.0
230
1.0
 70
     8
 71
     3
 72
     8
 73
     4
 74
     0
 42
0.000000001
 43
0.0000000001
 40
0.0
 40
0.0
 40
0.0
 40
0.0
 40
1.0
 40
1.0
 40
1.0
 40
1.0
 10
266.1316645942239
 20
251.4282858777937
 30
0.0
 10
266.1308455783982
 20
251.4304863822845
 30
0.0
 10
266.1300079137569
 20
251.4326805154689
 30
0.0
 10
266.1291518347428
 20
251.4348678127892
 30
0.0
  0
SPLINE
  5
151
330
1F
100
AcDbEntity
  8
1
100
AcDbSpline
210
0.0
220
0.0
230
1.0
 70
     8
 71
     3
 72
    16
 73
    12
 74
     0
 42
0.000000001
 43
0.0000000001
 40
0.0
 40
0.0
 40
0.0
 40
0.0
 40
0.1249999999999998
 40
0.1249999999999998
 40
0.2499999999999995
 40
0.2499999999999995
 40
0.4999999999999998
 40
0.4999999999999998
 40
0.7499999999999999
 40
0.7499999999999999
 40
1.0
 40
1.0
 40
1.0
 40
1.0
 10
267.079337634494
 20
247.7043342771245
 30
0.0
 10
267.0565461349588
 20
247.8634000698386
 30
0.0
 10
267.0316393638278
 20
248.022102641073
 30
0.0
 10
266.9775968448841
 20
248.3387815640008
 30
0.0
 10
266.9484587196106
 20
248.496763221301
 30
0.0
 10
266.8547889809505
 20
248.9691553681739
 30
0.0
 10
266.7839817251688
 20
249.2821689439955
 30
0.0
 10
266.6256250753991
 20
249.9043622097488
 30
0.0
 10
266.5382342472763
 20
250.2129064985842
 30
0.0
 10
266.347186292537
 20
250.8245804767724
 30
0.0
 10
266.2435153359387
 20
251.1277647336284
 30
0.0
 10
266.1316639433018
 20
251.4282855572826
 30
0.0
  0
SPLINE
  5
152
330
1F
100
AcDbEntity
  8
1
100
AcDbSpline
210
0.0
220
0.0
230
1.0
 70
     8
 71
     3
 72
     8
 73
     4
 74
     0
 42
0.000000001
 43
0.0000000001
 40
0.0
 40
0.0
 40
0.0
 40
0.0
 40
1.0
 40
1.0
 40
1.0
 40
1.0
 10
267.1017024743933
 20
246.0106518971715
 30
0.0
 10
267.1020905072867
 20
246.0131262856513
 30
0.0
 10
267.1024564654434
 20
246.0156043840772
 30
0.0
 10
267.1028001983447
 20
246.0180855887367
 30
0.0
  0
SPLINE
  5
153
330
1F
100
AcDbEntity
  8
1
100
AcDbSpline
210
0.0
220
0.0
230
1.0
 70
     8
 71
     3
 72
    10
 73
     6
 74
     0
 42
0.000000001
 43
0.0000000001
 40
0.0
 40
0.0
 40
0.0
 40
0.0
 40
0.5
 40
0.5
 40
1.0
 40
1.0
 40
1.0
 40
1.0
 10
267.1027768242691
 20
246.0180888068825
 30
0.0
 10
267.1186018322066
 20
246.1323987772217
 30
0.0
 10
267.1304822857659
 20
246.2471059970134
 30
0.0
 10
267.1463486308148
 20
246.4772820520566
 30
0.0
 10
267.1503186994728
 20
246.5925862420552
 30
0.0
 10
267.1503186994728
 20
246.7078956916576
 30
0.0
  0
SPLINE
  5
154
330
1F
100
AcDbEntity
  8
1
100
AcDbSpline
210
0.0
220
0.0
230
1.0
 70
     8
 71
     3
 72
    19
 73
    15
 74
     0
 42
0.000000001
 43
0.0000000001
 40
0.0
 40
0.0
 40
0.0
 40
0.0
 40
0.249999999999979
 40
0.249999999999979
 40
0.3749999999999776
 40
0.3749999999999776
 40
0.4999999999999762
 40
0.6249999999999748
 40
0.6249999999999748
 40
0.6874999999999819
 40
0.6874999999999819
 40
0.749999999999989
 40
0.749999999999989
 40
1.0
 40
1.0
 40
1.0
 40
1.0
 10
266.8558873601654
 20
245.699990482551
 30
0.0
 10
266.8880647411976
 20
245.7130077219435
 30
0.0
 10
266.9179082538744
 20
245.7299016815811
 30
0.0
 10
266.9592748675418
 20
245.7608993903575
 30
0.0
 10
266.9725747495778
 20
245.7722798239761
 30
0.0
 10
266.9973445391776
 20
245.796435259148
 30
0.0
 10
267.0203851192542
 20
245.8220170510794
 30
0.0
 10
267.0400295674046
 20
245.8504041952007
 30
0.0
 10
267.0534524135797
 20
245.8727755977477
 30
0.0
 10
267.0577107005736
 20
245.8804248177646
 30
0.0
 10
267.0656587856693
 20
245.8958529160827
 30
0.0
 10
267.0693663538813
 20
245.9036594716712
 30
0.0
 10
267.0866009787154
 20
245.9431446849996
 30
0.0
 10
267.0962840425368
 20
245.9761578296953
 30
0.0
 10
267.1017024743933
 20
246.0106518971715
 30
0.0
  0
SPLINE
  5
155
330
1F
100
AcDbEntity
  8
1
100
AcDbSpline
210
0.0
220
0.0
230
1.0
 70
     8
 71
     3
 72
     8
 73
     4
 74
     0
 42
0.000000001
 43
0.0000000001
 40
0.0
 40
0.0
 40
0.0
 40
0.0
 40
1.0
 40
1.0
 40
1.0
 40
1.0
 10
266.1424278794117
 20
245.4423524582942
 30
0.0
 10
266.3796481151514
 20
245.5223351730458
 30
0.0
 10
266.6152895423722
 20
245.6073509033148
 30
0.0
 10
266.849346996434
 20
245.697415739877
 30
0.0
  0
SPLINE
  5
156
330
1F
100
AcDbEntity
  8
1
100
AcDbSpline
210
0.0
220
0.0
230
1.0
 70
     8
 71
     3
 72
     8
 73
     4
 74
     0
 42
0.000000001
 43
0.0000000001
 40
0.0
 40
0.0
 40
0.0
 40
0.0
 40
1.0
 40
1.0
 40
1.0
 40
1.0
 10
266.8493490702335
 20
245.6974114315643
 30
0.0
 10
266.8515361246877
 20
245.6982530500215
 30
0.0
 10
266.8537157072955
 20
245.6991128129821
 30
0.0
 10
266.8558873601654
 20
245.699990482551
 30
0.0
  0
SPLINE
  5
157
330
1F
100
AcDbEntity
  8
1
100
AcDbSpline
210
0.0
220
0.0
230
1.0
 70
     8
 71
     3
 72
    11
 73
     7
 74
     0
 42
0.000000001
 43
0.0000000001
 40
0.0
 40
0.0
 40
0.0
 40
0.0
 40
0.25
 40
0.5
 40
0.7499999999999999
 40
1.0
 40
1.0
 40
1.0
 40
1.0
 10
266.8077983402842
 20
245.8139838486052
 30
0.0
 10
266.8325895388454
 20
245.8237079903064
 30
0.0
 10
266.8729069512046
 20
245.845905122043
 30
0.0
 10
266.9250815478823
 20
245.8958289599767
 30
0.0
 10
266.9617360684285
 20
245.9581151151328
 30
0.0
 10
266.9741937277647
 20
246.0026506772197
 30
0.0
 10
266.9780734065163
 20
246.0291739125559
 30
0.0
  0
SPLINE
  5
158
330
1F
100
AcDbEntity
  8
1
100
AcDbSpline
210
0.0
220
0.0
230
1.0
 70
    12
 71
     3
 72
     8
 73
     4
 74
     0
 42
0.000000001
 43
0.0000000001
 40
0.0
 40
0.0
 40
0.0
 40
0.0
 40
1.0
 40
1.0
 40
1.0
 40
1.0
 10
266.9780734065163
 20
246.0291739125559
 30
0.0
 41
1.0
 10
267.0097954903961
 20
246.2559448629533
 30
0.0
 41
0.9983588147778226
 10
267.0254129644092
 20
246.4800907592326
 30
0.0
 41
0.9983588147778226
 10
267.0254129644092
 20
246.7092864774471
 30
0.0
 41
1.0
  0
SPLINE
  5
159
330
1F
100
AcDbEntity
  8
1
100
AcDbSpline
210
0.0
220
0.0
230
1.0
 70
    12
 71
     3
 72
     8
 73
     4
 74
     0
 42
0.000000001
 43
0.0000000001
 40
0.0
 40
0.0
 40
0.0
 40
0.0
 40
1.0
 40
1.0
 40
1.0
 40
1.0
 10
267.0254129644092
 20
246.7092864774471
 30
0.0
 41
1.0
 10
267.0254129644092
 20
247.0388766714413
 30
0.0
 41
0.9982883558074163
 10
267.0023420732849
 20
247.3627479196988
 30
0.0
 41
0.9982883558074163
 10
266.9556507554514
 20
247.6886146522739
 30
0.0
 41
1.0
  0
SPLINE
  5
15A
330
1F
100
AcDbEntity
  8
1
100
AcDbSpline
210
0.0
220
0.0
230
1.0
 70
    12
 71
     3
 72
     8
 73
     4
 74
     0
 42
0.000000001
 43
0.0000000001
 40
0.0
 40
0.0
 40
0.0
 40
0.0
 40
1.0
 40
1.0
 40
1.0
 40
1.0
 10
266.9556507554514
 20
247.6886146522739
 30
0.0
 41
1.0
 10
266.7736290687909
 20
248.9589752897981
 30
0.0
 41
0.9961442649237252
 10
266.4589698706102
 20
250.1944327865563
 30
0.0
 41
0.9961442649237252
 10
266.0119849450638
 20
251.3939372827663
 30
0.0
 41
1.0
  0
SPLINE
  5
15B
330
1F
100
AcDbEntity
  8
1
100
AcDbSpline
210
0.0
220
0.0
230
1.0
 70
     8
 71
     3
 72
    13
 73
     9
 74
     0
 42
0.000000001
 43
0.0000000001
 40
0.0
 40
0.0
 40
0.0
 40
0.0
 40
0.1249999999999969
 40
0.2500000000000001
 40
0.5
 40
0.75
 40
0.8750000000000031
 40
1.0
 40
1.0
 40
1.0
 40
1.0
 10
266.0119849450638
 20
251.3939372827663
 30
0.0
 10
266.0072173201279
 20
251.4064959879738
 30
0.0
 10
265.9977468834668
 20
251.4275379317448
 30
0.0
 10
265.971965404649
 20
251.4691898780961
 30
0.0
 10
265.9317148664855
 20
251.5114105561386
 30
0.0
 10
265.881544972801
 20
251.5414767670121
 30
0.0
 10
265.8352985513602
 20
251.5576396036855
 30
0.0
 10
265.8129665515926
 20
251.5622266273521
 30
0.0
 10
265.79982324458
 20
251.5640863453411
 30
0.0
  0
SPLINE
  5
15C
330
1F
100
AcDbEntity
  8
1
100
AcDbSpline
210
0.0
220
0.0
230
1.0
 70
    12
 71
     3
 72
     8
 73
     4
 74
     0
 42
0.000000001
 43
0.0000000001
 40
0.0
 40
0.0
 40
0.0
 40
0.0
 40
1.0
 40
1.0
 40
1.0
 40
1.0
 10
265.79982324458
 20
251.5640863453411
 30
0.0
 41
1.0
 10
265.575174044664
 20
251.5944420595789
 30
0.0
 41
0.9983588124248205
 10
265.3530172377623
 20
251.6085588794622
 30
0.0
 41
0.9983588124248207
 10
265.1257343693607
 20
251.6068894279869
 30
0.0
 41
1.0
  0
SPLINE
  5
15D
330
1F
100
AcDbEntity
  8
1
100
AcDbSpline
210
0.0
220
0.0
230
1.0
 70
    12
 71
     3
 72
     8
 73
     4
 74
     0
 42
0.000000001
 43
0.0000000001
 40
0.0
 40
0.0
 40
0.0
 40
0.0
 40
1.0
 40
1.0
 40
1.0
 40
1.0
 10
265.1257343693607
 20
251.6068894279869
 30
0.0
 41
1.0
 10
264.798895144526
 20
251.6044887093145
 30
0.0
 41
0.9982883558074158
 10
264.4775590842434
 20
251.5788633365779
 30
0.0
 41
0.9982883558074158
 10
264.1540721452033
 20
251.5294029278843
 30
0.0
 41
1.0
  0
SPLINE
  5
15E
330
1F
100
AcDbEntity
  8
1
100
AcDbSpline
210
0.0
220
0.0
230
1.0
 70
    12
 71
     3
 72
     8
 73
     4
 74
     0
 42
0.000000001
 43
0.0000000001
 40
0.0
 40
0.0
 40
0.0
 40
0.0
 40
1.0
 40
1.0
 40
1.0
 40
1.0
 10
264.1540721452033
 20
251.5294029278843
 30
0.0
 41
1.0
 10
262.8929848232913
 20
251.3365855779003
 30
0.0
 41
0.996144240068283
 10
261.6655434114492
 20
251.0102605963109
 30
0.0
 41
0.996144240068283
 10
260.4727873838615
 20
250.5507485445256
 30
0.0
 41
1.0
  0
SPLINE
  5
15F
330
1F
100
AcDbEntity
  8
1
100
AcDbSpline
210
0.0
220
0.0
230
1.0
 70
     8
 71
     3
 72
    11
 73
     7
 74
     0
 42
0.000000001
 43
0.0000000001
 40
0.0
 40
0.0
 40
0.0
 40
0.0
 40
0.2499999999999969
 40
0.5
 40
0.7500000000000031
 40
1.0
 40
1.0
 40
1.0
 40
1.0
 10
260.4727873838615
 20
250.5507485445256
 30
0.0
 10
260.4479961852998
 20
250.5410244028244
 30
0.0
 10
260.4076787729399
 20
250.5188272710876
 30
0.0
 10
260.3555041762618
 20
250.468903433154
 30
0.0
 10
260.3188496557152
 20
250.4066172779978
 30
0.0
 10
260.3063919963791
 20
250.362081715911
 30
0.0
 10
260.3025123176275
 20
250.3355584805745
 30
0.0
  0
SPLINE
  5
160
330
1F
100
AcDbEntity
  8
1
100
AcDbSpline
210
0.0
220
0.0
230
1.0
 70
    12
 71
     3
 72
     8
 73
     4
 74
     0
 42
0.000000001
 43
0.0000000001
 40
0.0
 40
0.0
 40
0.0
 40
0.0
 40
1.0
 40
1.0
 40
1.0
 40
1.0
 10
260.3025123176275
 20
250.3355584805745
 30
0.0
 41
1.0
 10
260.2707902337477
 20
250.1087875301769
 30
0.0
 41
0.998358814777822
 10
260.2551727597346
 20
249.8846416338976
 30
0.0
 41
0.998358814777822
 10
260.2551727597346
 20
249.655445915683
 30
0.0
 41
1.0
  0
SPLINE
  5
161
330
1F
100
AcDbEntity
  8
1
100
AcDbSpline
210
0.0
220
0.0
230
1.0
 70
    12
 71
     3
 72
     8
 73
     4
 74
     0
 42
0.000000001
 43
0.0000000001
 40
0.0
 40
0.0
 40
0.0
 40
0.0
 40
1.0
 40
1.0
 40
1.0
 40
1.0
 10
260.2551727597346
 20
249.655445915683
 30
0.0
 41
1.0
 10
260.2551727597346
 20
249.3258557216888
 30
0.0
 41
0.9982883558074163
 10
260.2782436508588
 20
249.0019844734313
 30
0.0
 41
0.9982883558074162
 10
260.3249349686924
 20
248.6761177408562
 30
0.0
 41
1.0
  0
SPLINE
  5
162
330
1F
100
AcDbEntity
  8
1
100
AcDbSpline
210
0.0
220
0.0
230
1.0
 70
    12
 71
     3
 72
     8
 73
     4
 74
     0
 42
0.000000001
 43
0.0000000001
 40
0.0
 40
0.0
 40
0.0
 40
0.0
 40
1.0
 40
1.0
 40
1.0
 40
1.0
 10
260.3249349686924
 20
248.6761177408562
 30
0.0
 41
1.0
 10
260.4687155208399
 20
247.6726485540753
 30
0.0
 41
0.9969518415148687
 10
260.6955604973374
 20
246.6897029530592
 30
0.0
 41
0.996313394815486
 10
261.0056343778256
 20
245.7278833866864
 30
0.0
 41
0.9980846599018512
  0
SPLINE
  5
163
330
1F
100
AcDbEntity
  8
1
100
AcDbSpline
210
0.0
220
0.0
230
1.0
 70
    12
 71
     3
 72
     8
 73
     4
 74
     0
 42
0.000000001
 43
0.0000000001
 40
0.0
 40
0.0
 40
0.0
 40
0.0
 40
1.0
 40
1.0
 40
1.0
 40
1.0
 10
266.0606439328111
 20
245.545124960646
 30
0.0
 41
0.9980949802339059
 10
266.311503843615
 20
245.6291054496037
 30
0.0
 41
0.9985632964686155
 10
266.5605562527953
 20
245.7187332556239
 30
0.0
 41
0.9991983030573136
 10
266.8077983402842
 20
245.8139838486052
 30
0.0
 41
1.0
  0
SPLINE
  5
164
330
1F
100
AcDbEntity
  8
1
100
AcDbSpline
210
0.0
220
0.0
230
1.0
 70
     8
 71
     3
 72
    18
 73
    14
 74
     0
 42
0.000000001
 43
0.0000000001
 40
0.0
 40
0.0
 40
0.0
 40
0.0
 40
0.1249999999999986
 40
0.1249999999999986
 40
0.249999999999997
 40
0.249999999999997
 40
0.3749999999999956
 40
0.3749999999999956
 40
0.499999999999994
 40
0.499999999999994
 40
0.749999999999997
 40
0.749999999999997
 40
1.0
 40
1.0
 40
1.0
 40
1.0
 10
262.7786558261515
 20
248.322024882832
 30
0.0
 10
262.781411467818
 20
248.3262034373429
 30
0.0
 10
262.7845064471974
 20
248.3300681462022
 30
0.0
 10
262.7913399687513
 20
248.3372018673794
 30
0.0
 10
262.7951206084263
 20
248.3404977523025
 30
0.0
 10
262.8031036829866
 20
248.3463034096408
 30
0.0
 10
262.8072997410543
 20
248.3488227470685
 30
0.0
 10
262.8160814669502
 20
248.3531292407993
 30
0.0
 10
262.8207128370062
 20
248.3549280323743
 30
0.0
 10
262.8348553583249
 20
248.3590847251412
 30
0.0
 10
262.8445655571513
 20
248.3602425596469
 30
0.0
 10
262.8641687833504
 20
248.3594058825458
 30
0.0
 10
262.8736575512301
 20
248.357447335251
 30
0.0
 10
262.8828353660197
 20
248.3539653236849
 30
0.0
  0
SPLINE
  5
165
330
1F
100
AcDbEntity
  8
1
100
AcDbSpline
210
0.0
220
0.0
230
1.0
 70
     8
 71
     3
 72
    19
 73
    15
 74
     0
 42
0.000000001
 43
0.0000000001
 40
0.0
 40
0.0
 40
0.0
 40
0.0
 40
0.2500000000000082
 40
0.2500000000000082
 40
0.3750000000000089
 40
0.3750000000000089
 40
0.5000000000000099
 40
0.6250000000000108
 40
0.6250000000000108
 40
0.6875000000000109
 40
0.6875000000000109
 40
0.7500000000000111
 40
0.7500000000000111
 40
1.0
 40
1.0
 40
1.0
 40
1.0
 10
262.7381575549614
 20
247.9331689448473
 30
0.0
 10
262.7256582207223
 20
247.9649852665108
 30
0.0
 10
262.717119666676
 20
247.9977379603568
 30
0.0
 10
262.7102144017121
 20
248.0482634183428
 30
0.0
 10
262.7089213737027
 20
248.0653650780489
 30
0.0
 10
262.7083971123895
 20
248.0991938999256
 30
0.0
 10
262.7098955965942
 20
248.1328603925642
 30
0.0
 10
262.7153941015528
 20
248.1662060224266
 30
0.0
 10
262.7210641604411
 20
248.1910911605481
 30
0.0
 10
262.7232165568452
 20
248.1993717018919
 30
0.0
 10
262.727980661108
 20
248.2156666416676
 30
0.0
 10
262.7305980965147
 20
248.223709477128
 30
0.0
 10
262.744839324082
 20
248.2634105072256
 30
0.0
 10
262.7598777864209
 20
248.2935505483157
 30
0.0
 10
262.7786558261515
 20
248.322024882832
 30
0.0
  0
SPLINE
  5
166
330
1F
100
AcDbEntity
  8
1
100
AcDbSpline
210
0.0
220
0.0
230
1.0
 70
     8
 71
     3
 72
    14
 73
    10
 74
     0
 42
0.000000001
 43
0.0000000001
 40
0.0
 40
0.0
 40
0.0
 40
0.0
 40
0.25
 40
0.25
 40
0.5
 40
0.5
 40
0.75
 40
0.75
 40
1.0
 40
1.0
 40
1.0
 40
1.0
 10
262.9538327865774
 20
248.3569196110844
 30
0.0
 10
262.948274533325
 20
248.3541911900578
 30
0.0
 10
262.9424238961846
 20
248.3520806409057
 30
0.0
 10
262.930597676042
 20
248.3491539474692
 30
0.0
 10
262.9246013327144
 20
248.3483167942518
 30
0.0
 10
262.9124448495993
 20
248.3478598854426
 30
0.0
 10
262.9062991489842
 20
248.3482582662079
 30
0.0
 10
262.8943870174051
 20
248.350229801172
 30
0.0
 10
262.8885499056382
 20
248.3517972593359
 30
0.0
 10
262.8828353660197
 20
248.3539653236849
 30
0.0
  0
SPLINE
  5
167
330
1F
100
AcDbEntity
  8
1
100
AcDbSpline
210
0.0
220
0.0
230
1.0
 70
     8
 71
     3
 72
     8
 73
     4
 74
     0
 42
0.000000001
 43
0.0000000001
 40
0.0
 40
0.0
 40
0.0
 40
0.0
 40
1.0
 40
1.0
 40
1.0
 40
1.0
 10
262.742389948166
 20
247.924058183333
 30
0.0
 10
262.7408058813691
 20
247.9269896610032
 30
0.0
 10
262.7393926419243
 20
247.9300251034763
 30
0.0
 10
262.7381575549614
 20
247.9331689448473
 30
0.0
  0
SPLINE
  5
168
330
1F
100
AcDbEntity
  8
1
100
AcDbSpline
210
0.0
220
0.0
230
1.0
 70
     8
 71
     3
 72
    20
 73
    16
 74
     0
 42
0.000000001
 43
0.0000000001
 40
0.0
 40
0.0
 40
0.0
 40
0.0
 40
0.2499999999999614
 40
0.2499999999999614
 40
0.3749999999999678
 40
0.3749999999999678
 40
0.4999999999999742
 40
0.4999999999999742
 40
0.6249999999999807
 40
0.6249999999999807
 40
0.7499999999999872
 40
0.7499999999999872
 40
0.8749999999999936
 40
0.8749999999999936
 40
1.0
 40
1.0
 40
1.0
 40
1.0
 10
263.1608720466945
 20
248.7419132494906
 30
0.0
 10
263.1545303117877
 20
248.7493521104918
 30
0.0
 10
263.1495436174922
 20
248.7575604541911
 30
0.0
 10
263.144094214471
 20
248.7710231472236
 30
0.0
 10
263.1426370370212
 20
248.7756954153133
 30
0.0
 10
263.1405414265571
 20
248.7851056411475
 30
0.0
 10
263.1398849778626
 20
248.7898834260676
 30
0.0
 10
263.1393911846841
 20
248.7995898525817
 30
0.0
 10
263.1395635016192
 20
248.8044891957191
 30
0.0
 10
263.140742919917
 20
248.8140947287185
 30
0.0
 10
263.14174651094
 20
248.8188415665916
 30
0.0
 10
263.1446302781047
 20
248.8282155355126
 30
0.0
 10
263.1464919886992
 20
248.832763355335
 30
0.0
 10
263.150978225657
 20
248.8414102555444
 30
0.0
 10
263.1536107821218
 20
248.8455375786958
 30
0.0
 10
263.1566579030184
 20
248.8494557287005
 30
0.0
  0
SPLINE
  5
169
330
1F
100
AcDbEntity
  8
1
100
AcDbSpline
210
0.0
220
0.0
230
1.0
 70
     8
 71
     3
 72
    14
 73
    10
 74
     0
 42
0.000000001
 43
0.0000000001
 40
0.0
 40
0.0
 40
0.0
 40
0.0
 40
0.25
 40
0.25
 40
0.5
 40
0.5
 40
0.75
 40
0.75
 40
1.0
 40
1.0
 40
1.0
 40
1.0
 10
263.1608720466945
 20
248.7419132494906
 30
0.0
 10
263.1648188849277
 20
248.7372836045365
 30
0.0
 10
263.168292335481
 20
248.732264370794
 30
0.0
 10
263.1741273581318
 20
248.7217093249815
 30
0.0
 10
263.1764848554082
 20
248.7162024122576
 30
0.0
 10
263.1800636408935
 20
248.7047213341087
 30
0.0
 10
263.1812719536806
 20
248.698722820328
 30
0.0
 10
263.182383535529
 20
248.6867660472767
 30
0.0
 10
263.1823136633591
 20
248.6807444694527
 30
0.0
 10
263.1815629741712
 20
248.6746742818205
 30
0.0
  0
SPLINE
  5
16A
330
1F
100
AcDbEntity
  8
1
100
AcDbSpline
210
0.0
220
0.0
230
1.0
 70
     8
 71
     3
 72
    20
 73
    16
 74
     0
 42
0.000000001
 43
0.0000000001
 40
0.0
 40
0.0
 40
0.0
 40
0.0
 40
0.1250000000000079
 40
0.1250000000000079
 40
0.2500000000000159
 40
0.3125000000000198
 40
0.3125000000000198
 40
0.3750000000000236
 40
0.3750000000000236
 40
0.5000000000000142
 40
0.6250000000000049
 40
0.6250000000000049
 40
0.7499999999999954
 40
0.7499999999999954
 40
1.0
 40
1.0
 40
1.0
 40
1.0
 10
263.1815629741716
 20
248.6746742818208
 30
0.0
 10
263.1794893934571
 20
248.657906990895
 30
0.0
 10
263.1763936640282
 20
248.6412437116205
 30
0.0
 10
263.1682322571464
 20
248.6085999103274
 30
0.0
 10
263.1606259505766
 20
248.5845360253293
 30
0.0
 10
263.1507258895487
 20
248.5611069396018
 30
0.0
 10
263.14359827832
 20
248.5456325000458
 30
0.0
 10
263.1397547220738
 20
248.537938914558
 30
0.0
 10
263.1275539822286
 20
248.5153564447407
 30
0.0
 10
263.1095068911698
 20
248.4865289558978
 30
0.0
 10
263.0879924058266
 20
248.4601989837494
 30
0.0
 10
263.0647217097772
 20
248.435134752704
 30
0.0
 10
263.0521522129116
 20
248.4232100707479
 30
0.0
 10
263.0129426057928
 20
248.3903764334624
 30
0.0
 10
262.984504471656
 20
248.3719756487799
 30
0.0
 10
262.9538327865774
 20
248.3569196110844
 30
0.0
  0
SPLINE
  5
16B
330
1F
100
AcDbEntity
  8
1
100
AcDbSpline
210
0.0
220
0.0
230
1.0
 70
     8
 71
     3
 72
    10
 73
     6
 74
     0
 42
0.000000001
 43
0.0000000001
 40
0.0
 40
0.0
 40
0.0
 40
0.0
 40
0.3418068065944287
 40
0.3418068065944287
 40
1.0
 40
1.0
 40
1.0
 40
1.0
 10
262.8779113290331
 20
247.8743829276317
 30
0.0
 10
262.8808959975806
 20
247.8732721766887
 30
0.0
 10
262.8838246693441
 20
247.872004364174
 30
0.0
 10
262.892115584254
 20
247.8678722117756
 30
0.0
 10
262.8972897558418
 20
247.8646050420162
 30
0.0
 10
262.9021572961945
 20
247.860742349854
 30
0.0
  0
SPLINE
  5
16C
330
1F
100
AcDbEntity
  8
1
100
AcDbSpline
210
0.0
220
0.0
230
1.0
 70
     8
 71
     3
 72
    19
 73
    15
 74
     0
 42
0.000000001
 43
0.0000000001
 40
0.0
 40
0.0
 40
0.0
 40
0.0
 40
0.2929114251277746
 40
0.2929114251277746
 40
0.439367137691662
 40
0.439367137691662
 40
0.5858228502555493
 40
0.7322785628194365
 40
0.7322785628194365
 40
0.8055064191013803
 40
0.8055064191013803
 40
0.878734275383324
 40
0.878734275383324
 40
1.0
 40
1.0
 40
1.0
 40
1.0
 10
263.1566579030184
 20
248.8494557287005
 30
0.0
 10
263.177425486973
 20
248.8761597919548
 30
0.0
 10
263.2010514569465
 20
248.8999609318349
 30
0.0
 10
263.2407422429886
 20
248.9313302758389
 30
0.0
 10
263.2547176824007
 20
248.9410573288727
 30
0.0
 10
263.2834149038675
 20
248.9585628189968
 30
0.0
 10
263.3130198348607
 20
248.974259974068
 30
0.0
 10
263.3444193843358
 20
248.9863809110589
 30
0.0
 10
263.368662852916
 20
248.9940894177245
 30
0.0
 10
263.3768675769358
 20
248.9964277427444
 30
0.0
 10
263.3932869446706
 20
249.000578240319
 30
0.0
 10
263.4015288696349
 20
249.0023998589005
 30
0.0
 10
263.423503507077
 20
249.0065776196679
 30
0.0
 10
263.4372902052888
 20
249.0085092277345
 30
0.0
 10
263.4511636589667
 20
249.0097606822227
 30
0.0
  0
SPLINE
  5
16D
330
1F
100
AcDbEntity
  8
1
100
AcDbSpline
210
0.0
220
0.0
230
1.0
 70
     8
 71
     3
 72
    20
 73
    16
 74
     0
 42
0.000000001
 43
0.0000000001
 40
0.0
 40
0.0
 40
0.0
 40
0.0
 40
0.1249999999999827
 40
0.1249999999999827
 40
0.2499999999999653
 40
0.3124999999999669
 40
0.3124999999999669
 40
0.3749999999999685
 40
0.3749999999999685
 40
0.4999999999999772
 40
0.624999999999986
 40
0.624999999999986
 40
0.7499999999999917
 40
0.7499999999999917
 40
1.0
 40
1.0
 40
1.0
 40
1.0
 10
262.9021572961945
 20
247.8607423498542
 30
0.0
 10
262.9156018932515
 20
247.8500732365213
 30
0.0
 10
262.9284308902554
 20
247.8386165306336
 30
0.0
 10
262.95248303562
 20
247.8144547471534
 30
0.0
 10
262.9693943217458
 20
247.7953409848919
 30
0.0
 10
262.9845725143779
 20
247.7746999424573
 30
0.0
 10
262.9942934405618
 20
247.7605884325441
 30
0.0
 10
262.9989717063473
 20
247.7533288000436
 30
0.0
 10
263.0122290138487
 20
247.731274286782
 30
0.0
 10
263.0278755223972
 20
247.7011153347341
 30
0.0
 10
263.0395673929841
 20
247.6694938722305
 30
0.0
 10
263.049255910262
 20
247.6371292922146
 30
0.0
 10
263.0530916703829
 20
247.6205160916264
 30
0.0
 10
263.0612788706689
 20
247.5710302716742
 30
0.0
 10
263.0625310959128
 20
247.5380389280073
 30
0.0
 10
263.0597424204685
 20
247.5049787791757
 30
0.0
  0
SPLINE
  5
16E
330
1F
100
AcDbEntity
  8
1
100
AcDbSpline
210
0.0
220
0.0
230
1.0
 70
     8
 71
     3
 72
    14
 73
    10
 74
     0
 42
0.000000001
 43
0.0000000001
 40
0.0
 40
0.0
 40
0.0
 40
0.0
 40
0.25
 40
0.25
 40
0.5
 40
0.5
 40
0.75
 40
0.75
 40
1.0
 40
1.0
 40
1.0
 40
1.0
 10
263.0597424204685
 20
247.5049787791757
 30
0.0
 10
263.0592370654363
 20
247.4989877225203
 30
0.0
 10
263.0580484640411
 20
247.4930743464904
 30
0.0
 10
263.0544909754468
 20
247.4818104915174
 30
0.0
 10
263.0521295324305
 20
247.4764320621852
 30
0.0
 10
263.0462730687394
 20
247.4661646991458
 30
0.0
 10
263.0427698379826
 20
247.4612969777609
 30
0.0
 10
263.0349459360472
 20
247.4524762785322
 30
0.0
 10
263.0305938322491
 20
247.448462053156
 30
0.0
 10
263.0257871649274
 20
247.444856440309
 30
0.0
  0
SPLINE
  5
16F
330
1F
100
AcDbEntity
  8
1
100
AcDbSpline
210
0.0
220
0.0
230
1.0
 70
     8
 71
     3
 72
    18
 73
    14
 74
     0
 42
0.000000001
 43
0.0000000001
 40
0.0
 40
0.0
 40
0.0
 40
0.0
 40
0.1250000000000004
 40
0.1250000000000004
 40
0.2500000000000008
 40
0.2500000000000008
 40
0.3750000000000012
 40
0.3750000000000012
 40
0.5000000000000016
 40
0.5000000000000016
 40
0.7500000000000008
 40
0.7500000000000008
 40
1.0
 40
1.0
 40
1.0
 40
1.0
 10
262.9997280779048
 20
247.3426483379355
 30
0.0
 10
262.9975467134544
 20
247.3470450314329
 30
0.0
 10
262.995809841232
 20
247.3515634903994
 30
0.0
 10
262.9931796628903
 20
247.3608305406582
 30
0.0
 10
262.9922848520901
 20
247.365627584195
 30
0.0
 10
262.9913889679972
 20
247.3751710485399
 30
0.0
 10
262.9913763781619
 20
247.3799170383378
 30
0.0
 10
262.9921820791215
 20
247.3893583238755
 30
0.0
 10
262.9930138437846
 20
247.3940972706347
 30
0.0
 10
262.9967047250315
 20
247.4078874629727
 30
0.0
 10
263.0006999257823
 20
247.4164913663475
 30
0.0
 10
263.011500695609
 20
247.4322380633748
 30
0.0
 10
263.018067405363
 20
247.4390656371602
 30
0.0
 10
263.0257871649274
 20
247.444856440309
 30
0.0
  0
SPLINE
  5
170
330
1F
100
AcDbEntity
  8
1
100
AcDbSpline
210
0.0
220
0.0
230
1.0
 70
     8
 71
     3
 72
    17
 73
    13
 74
     0
 42
0.000000001
 43
0.0000000001
 40
0.0
 40
0.0
 40
0.0
 40
0.0
 40
0.0265025294391638
 40
0.0265025294391638
 40
0.2212020235513122
 40
0.4159015176634607
 40
0.4159015176634607
 40
0.5132512647195493
 40
0.5132512647195493
 40
0.6106010117756378
 40
0.6106010117756378
 40
1.0
 40
1.0
 40
1.0
 40
1.0
 10
263.1759806528542
 20
247.1612512557025
 30
0.0
 10
263.173959413314
 20
247.1623359369341
 30
0.0
 10
263.1719499245228
 20
247.1634355033401
 30
0.0
 10
263.1552842345042
 20
247.1727329420825
 30
0.0
 10
263.1271201962356
 20
247.1907238377919
 30
0.0
 10
263.101277223285
 20
247.2119266272101
 30
0.0
 10
263.082792253869
 20
247.2290699692044
 30
0.0
 10
263.0767771246186
 20
247.2349983976356
 30
0.0
 10
263.0652104387775
 20
247.2471099880511
 30
0.0
 10
263.0596373868293
 20
247.253312090133
 30
0.0
 10
263.0328033167741
 20
247.2850395154522
 30
0.0
 10
263.0145932240334
 20
247.3126865902282
 30
0.0
 10
262.9997280779048
 20
247.3426483379355
 30
0.0
  0
SPLINE
  5
171
330
1F
100
AcDbEntity
  8
1
100
AcDbSpline
210
0.0
220
0.0
230
1.0
 70
     8
 71
     3
 72
    20
 73
    16
 74
     0
 42
0.000000001
 43
0.0000000001
 40
0.0
 40
0.0
 40
0.0
 40
0.0
 40
0.1623180769042475
 40
0.1623180769042475
 40
0.3246361538084951
 40
0.4057951922606355
 40
0.4057951922606355
 40
0.4869542307127761
 40
0.4869542307127761
 40
0.6492723076170895
 40
0.8115903845214027
 40
0.8115903845214027
 40
0.9739084614257164
 40
0.9739084614257164
 40
1.0
 40
1.0
 40
1.0
 40
1.0
 10
264.0185056039485
 20
248.8427525846563
 30
0.0
 10
264.0035337401463
 20
248.8364506910262
 30
0.0
 10
263.9881048114026
 20
248.8310592873819
 30
0.0
 10
263.9567555980865
 20
248.8222549774659
 30
0.0
 10
263.9327940077181
 20
248.817097491548
 30
0.0
 10
263.9081185631919
 20
248.8141592064063
 30
0.0
 10
263.8915024057197
 20
248.8127096062382
 30
0.0
 10
263.8830789777949
 20
248.8122389626724
 30
0.0
 10
263.857856551134
 20
248.811623134897
 30
0.0
 10
263.8243186871543
 20
248.812896488421
 30
0.0
 10
263.7909547870451
 20
248.8182466796565
 30
0.0
 10
263.7576817655086
 20
248.8256641158276
 30
0.0
 10
263.7410396546083
 20
248.8304409336935
 30
0.0
 10
263.7223485698495
 20
248.8370153107863
 30
0.0
 10
263.719770762541
 20
248.8379489346811
 30
0.0
 10
263.7172035207624
 20
248.8389056937175
 30
0.0
  0
SPLINE
  5
172
330
1F
100
AcDbEntity
  8
1
100
AcDbSpline
210
0.0
220
0.0
230
1.0
 70
     8
 71
     3
 72
    14
 73
    10
 74
     0
 42
0.000000001
 43
0.0000000001
 40
0.0
 40
0.0
 40
0.0
 40
0.0
 40
0.25
 40
0.25
 40
0.5
 40
0.5
 40
0.75
 40
0.75
 40
1.0
 40
1.0
 40
1.0
 40
1.0
 10
264.0634341835736
 20
248.8926978101068
 30
0.0
 10
264.0616517009473
 20
248.8871110051921
 30
0.0
 10
264.0593009929186
 20
248.8817404817366
 30
0.0
 10
264.0535941331384
 20
248.8716980234994
 30
0.0
 10
264.0502599290025
 20
248.8670437380269
 30
0.0
 10
264.042613788163
 20
248.8584779689674
 30
0.0
 10
264.0382747303516
 20
248.8545656197431
 30
0.0
 10
264.0289498624627
 20
248.8478702575002
 30
0.0
 10
264.0239256485659
 20
248.8450339669281
 30
0.0
 10
264.0185056039477
 20
248.8427525846563
 30
0.0
  0
SPLINE
  5
173
330
1F
100
AcDbEntity
  8
1
100
AcDbSpline
210
0.0
220
0.0
230
1.0
 70
     8
 71
     3
 72
    20
 73
    16
 74
     0
 42
0.000000001
 43
0.0000000001
 40
0.0
 40
0.0
 40
0.0
 40
0.0
 40
0.2500000000000016
 40
0.2500000000000016
 40
0.3750000000000012
 40
0.3750000000000012
 40
0.500000000000001
 40
0.500000000000001
 40
0.6250000000000008
 40
0.6250000000000008
 40
0.7500000000000005
 40
0.7500000000000005
 40
0.8750000000000001
 40
0.8750000000000001
 40
1.0
 40
1.0
 40
1.0
 40
1.0
 10
264.0634341835736
 20
248.8926978101068
 30
0.0
 10
264.0662982726021
 20
248.9016746755328
 30
0.0
 10
264.0705030429085
 20
248.9098665918989
 30
0.0
 10
264.0788152752836
 20
248.9209758056442
 30
0.0
 10
264.0819255642318
 20
248.9244616968968
 30
0.0
 10
264.0886245720471
 20
248.9307663502966
 30
0.0
 10
264.0922369437891
 20
248.9336196892023
 30
0.0
 10
264.1000101310987
 20
248.9386995633155
 30
0.0
 10
264.1041522161802
 20
248.9409040698257
 30
0.0
 10
264.1127075140828
 20
248.9445070142553
 30
0.0
 10
264.1171526422927
 20
248.9459280498116
 30
0.0
 10
264.1263958322237
 20
248.9479633207653
 30
0.0
 10
264.1311195168552
 20
248.9485553631729
 30
0.0
 10
264.1405877169451
 20
248.9488712475962
 30
0.0
 10
264.1453600411411
 20
248.9486018613124
 30
0.0
 10
264.1501724869686
 20
248.9478772637296
 30
0.0
  0
SPLINE
  5
174
330
1F
100
AcDbEntity
  8
1
100
AcDbSpline
210
0.0
220
0.0
230
1.0
 70
     8
 71
     3
 72
     8
 73
     4
 74
     0
 42
0.000000001
 43
0.0000000001
 40
0.0
 40
0.0
 40
0.0
 40
0.0
 40
1.0
 40
1.0
 40
1.0
 40
1.0
 10
263.7658434432886
 20
247.2169281200414
 30
0.0
 10
263.7940221465673
 20
247.2064267509335
 30
0.0
 10
263.820371819223
 20
247.1930626592659
 30
0.0
 10
263.8450095598621
 20
247.1768798207811
 30
0.0
  0
SPLINE
  5
175
330
1F
100
AcDbEntity
  8
1
100
AcDbSpline
210
0.0
220
0.0
230
1.0
 70
     8
 71
     3
 72
    14
 73
    10
 74
     0
 42
0.000000001
 43
0.0000000001
 40
0.0
 40
0.0
 40
0.0
 40
0.0
 40
0.25
 40
0.25
 40
0.5
 40
0.5
 40
0.75
 40
0.75
 40
1.0
 40
1.0
 40
1.0
 40
1.0
 10
263.8450095598621
 20
247.1768798207811
 30
0.0
 10
263.8498646052171
 20
247.1736908751726
 30
0.0
 10
263.854302339424
 20
247.1699716860426
 30
0.0
 10
263.8620918377546
 20
247.1618127368753
 30
0.0
 10
263.8654706579583
 20
247.1573668491328
 30
0.0
 10
263.8712285336618
 20
247.1477591871663
 30
0.0
 10
263.8735860465846
 20
247.1425988049772
 30
0.0
 10
263.8771003582434
 20
247.1320202591464
 30
0.0
 10
263.8782934721975
 20
247.1265476093289
 30
0.0
 10
263.8789048034125
 20
247.1208852586132
 30
0.0
  0
SPLINE
  5
176
330
1F
100
AcDbEntity
  8
1
100
AcDbSpline
210
0.0
220
0.0
230
1.0
 70
     8
 71
     3
 72
     8
 73
     4
 74
     0
 42
0.000000001
 43
0.0000000001
 40
0.0
 40
0.0
 40
0.0
 40
0.0
 40
1.0
 40
1.0
 40
1.0
 40
1.0
 10
256.3198039672495
 20
250.4783430979349
 30
0.0
 10
256.4361182536866
 20
250.4777614283668
 30
0.0
 10
256.5524499225107
 20
250.4791492591376
 30
0.0
 10
256.6687989342745
 20
250.4825021207191
 30
0.0
  0
SPLINE
  5
177
330
1F
100
AcDbEntity
  8
1
100
AcDbSpline
210
0.0
220
0.0
230
1.0
 70
     8
 71
     3
 72
    18
 73
    14
 74
     0
 42
0.000000001
 43
0.0000000001
 40
0.0
 40
0.0
 40
0.0
 40
0.0
 40
0.0736395492164481
 40
0.0736395492164481
 40
0.1802096586466891
 40
0.1802096586466891
 40
0.2867797680769301
 40
0.2867797680769301
 40
0.4999199869374101
 40
0.4999199869374101
 40
0.9262004246583718
 40
0.9262004246583718
 40
1.0
 40
1.0
 40
1.0
 40
1.0
 10
260.7533901007534
 20
246.1738836778987
 30
0.0
 10
260.7497406818876
 20
246.1616082647166
 30
0.0
 10
260.7461763928557
 20
246.1493863388037
 30
0.0
 10
260.7376446317972
 20
246.119615646278
 30
0.0
 10
260.732762846603
 20
246.1021290831066
 30
0.0
 10
260.7232835075425
 20
246.0674141963042
 30
0.0
 10
260.7186804529183
 20
246.0501634104809
 30
0.0
 10
260.7053539111911
 20
245.9993036783063
 30
0.0
 10
260.6970690675248
 20
245.9664351019769
 30
0.0
 10
260.6733848568292
 20
245.8709795501765
 30
0.0
 10
260.6591479473201
 20
245.8115298296819
 30
0.0
 10
260.6425158023984
 20
245.7469681416536
 30
0.0
 10
260.6400607864652
 20
245.7375635585428
 30
0.0
 10
260.6376038429085
 20
245.728306235254
 30
0.0
  0
SPLINE
  5
178
330
1F
100
AcDbEntity
  8
1
100
AcDbSpline
210
0.0
220
0.0
230
1.0
 70
     8
 71
     3
 72
     8
 73
     4
 74
     0
 42
0.000000001
 43
0.0000000001
 40
0.0
 40
0.0
 40
0.0
 40
0.0
 40
1.0
 40
1.0
 40
1.0
 40
1.0
 10
266.4638637910168
 20
245.0425186032996
 30
0.0
 10
266.484289006021
 20
245.0168920060167
 30
0.0
 10
266.4942482849924
 20
244.9912654087337
 30
0.0
 10
266.4942482849924
 20
244.9656388114508
 30
0.0
  0
SPLINE
  5
179
330
1F
100
AcDbEntity
  8
1
100
AcDbSpline
210
0.0
220
0.0
230
1.0
 70
     8
 71
     3
 72
     8
 73
     4
 74
     0
 42
0.000000001
 43
0.0000000001
 40
0.0
 40
0.0
 40
0.0
 40
0.0
 40
1.0
 40
1.0
 40
1.0
 40
1.0
 10
266.4638637910168
 20
241.135139655146
 30
0.0
 10
266.4723858514439
 20
241.2038005359672
 30
0.0
 10
266.4788953671732
 20
241.2726005771041
 30
0.0
 10
266.4836642792725
 20
241.341520974798
 30
0.0
  0
SPLINE
  5
17A
330
1F
100
AcDbEntity
  8
1
100
AcDbSpline
210
0.0
220
0.0
230
1.0
 70
     8
 71
     3
 72
    18
 73
    14
 74
     0
 42
0.000000001
 43
0.0000000001
 40
0.0
 40
0.0
 40
0.0
 40
0.0
 40
0.2500000000000014
 40
0.2500000000000014
 40
0.3750000000000021
 40
0.3750000000000021
 40
0.5000000000000028
 40
0.5000000000000028
 40
0.7500000000000014
 40
0.7500000000000014
 40
0.8750000000000007
 40
0.8750000000000007
 40
1.0
 40
1.0
 40
1.0
 40
1.0
 10
266.4942482849924
 20
241.5473343190097
 30
0.0
 10
266.4942482849924
 20
241.5342176090828
 30
0.0
 10
266.4939562883004
 20
241.5198377026089
 30
0.0
 10
266.4931414537871
 20
241.4965581589671
 30
0.0
 10
266.492806932021
 20
241.4885051253398
 30
0.0
 10
266.4920215145903
 20
241.4717988793062
 30
0.0
 10
266.4915681444276
 20
241.4631074739864
 30
0.0
 10
266.4900821375492
 20
241.4366650719638
 30
0.0
 10
266.4889187403778
 20
241.4184096994007
 30
0.0
 10
266.4870214178734
 20
241.3900884170811
 30
0.0
 10
266.4863619585598
 20
241.380468454747
 30
0.0
 10
266.4850160977889
 20
241.3609940601378
 30
0.0
 10
266.4843379944063
 20
241.3512575172168
 30
0.0
 10
266.4836642792726
 20
241.341520974798
 30
0.0
  0
SPLINE
  5
17B
330
1F
100
AcDbEntity
  8
1
100
AcDbSpline
210
0.0
220
0.0
230
1.0
 70
     8
 71
     3
 72
    10
 73
     6
 74
     0
 42
0.000000001
 43
0.0000000001
 40
0.0
 40
0.0
 40
0.0
 40
0.0
 40
0.5
 40
0.5
 40
1.0
 40
1.0
 40
1.0
 40
1.0
 10
256.6687989342745
 20
245.9197984628834
 30
0.0
 10
257.073707994842
 20
245.8562956900893
 30
0.0
 10
257.4799968484305
 20
245.8085980463786
 30
0.0
 10
258.2952846417628
 20
245.7448599710103
 30
0.0
 10
258.7042837554557
 20
245.7288207236475
 30
0.0
 10
259.1146471072757
 20
245.7288207236475
 30
0.0
  0
SPLINE
  5
17C
330
1F
100
AcDbEntity
  8
1
100
AcDbSpline
210
0.0
220
0.0
230
1.0
 70
     8
 71
     3
 72
    24
 73
    20
 74
     0
 42
0.000000001
 43
0.0000000001
 40
0.0
 40
0.0
 40
0.0
 40
0.0
 40
0.2500000000000397
 40
0.2500000000000397
 40
0.3750000000000593
 40
0.3750000000000593
 40
0.4375000000000677
 40
0.4375000000000677
 40
0.500000000000076
 40
0.500000000000076
 40
0.6250000000000706
 40
0.6250000000000706
 40
0.6875000000000587
 40
0.6875000000000587
 40
0.7500000000000471
 40
0.7500000000000471
 40
0.8750000000000234
 40
0.8750000000000234
 40
1.0
 40
1.0
 40
1.0
 40
1.0
 10
261.1749660638843
 20
237.642382471407
 30
0.0
 10
261.1813465019662
 20
237.6589642861366
 30
0.0
 10
261.1916514696625
 20
237.6748911592148
 30
0.0
 10
261.2125585975677
 20
237.6978154778198
 30
0.0
 10
261.2204506025527
 20
237.7052929366819
 30
0.0
 10
261.2337543799913
 20
237.7162361786155
 30
0.0
 10
261.2384369854033
 20
237.719837656493
 30
0.0
 10
261.2481487556932
 20
237.7268283023123
 30
0.0
 10
261.2531955012403
 20
237.7302326043846
 30
0.0
 10
261.2689067356236
 20
237.7401694844098
 30
0.0
 10
261.280138855522
 20
237.7464277569422
 30
0.0
 10
261.2981755375261
 20
237.7552247792891
 30
0.0
 10
261.3043866505547
 20
237.7580583158516
 30
0.0
 10
261.3172264099004
 20
237.7635152037195
 30
0.0
 10
261.3238846213202
 20
237.7661489464724
 30
0.0
 10
261.3442709971973
 20
237.7736170149704
 30
0.0
 10
261.3583901828895
 20
237.7780222361881
 30
0.0
 10
261.3877248730133
 20
237.7856223322735
 30
0.0
 10
261.4029393884416
 20
237.7888183439631
 30
0.0
 10
261.4187660392708
 20
237.791330137314
 30
0.0
  0
SPLINE
  5
17D
330
1F
100
AcDbEntity
  8
1
100
AcDbSpline
210
0.0
220
0.0
230
1.0
 70
     8
 71
     3
 72
     8
 73
     4
 74
     0
 42
0.000000001
 43
0.0000000001
 40
0.0
 40
0.0
 40
0.0
 40
0.0
 40
1.0
 40
1.0
 40
1.0
 40
1.0
 10
256.3198039672496
 20
245.9797576860932
 30
0.0
 10
256.4359001520115
 20
245.9580735519874
 30
0.0
 10
256.5522311734499
 20
245.9380800395427
 30
0.0
 10
256.6687989342746
 20
245.9197984628835
 30
0.0
  0
SPLINE
  5
17E
330
1F
100
AcDbEntity
  8
1
100
AcDbSpline
210
0.0
220
0.0
230
1.0
 70
     8
 71
     3
 72
     8
 73
     4
 74
     0
 42
0.000000001
 43
0.0000000001
 40
0.0
 40
0.0
 40
0.0
 40
0.0
 40
1.0
 40
1.0
 40
1.0
 40
1.0
 10
256.3198039672495
 20
236.9839795224471
 30
0.0
 10
256.4361182536866
 20
236.9845611920151
 30
0.0
 10
256.5524499225107
 20
236.9831733612443
 30
0.0
 10
256.6687989342745
 20
236.9798204996628
 30
0.0
  0
SPLINE
  5
17F
330
1F
100
AcDbEntity
  8
1
100
AcDbSpline
210
0.0
220
0.0
230
1.0
 70
     8
 71
     3
 72
     8
 73
     4
 74
     0
 42
0.000000001
 43
0.0000000001
 40
0.0
 40
0.0
 40
0.0
 40
0.0
 40
1.0
 40
1.0
 40
1.0
 40
1.0
 10
261.8979948018718
 20
245.7338907215586
 30
0.0
 10
261.738621921407
 20
245.7305107764217
 30
0.0
 10
261.5788790122482
 20
245.7288207236475
 30
0.0
 10
261.4187660392707
 20
245.7288207236475
 30
0.0
  0
SPLINE
  5
180
330
1F
100
AcDbEntity
  8
1
100
AcDbSpline
210
0.0
220
0.0
230
1.0
 70
     8
 71
     3
 72
     8
 73
     4
 74
     0
 42
0.000000001
 43
0.0000000001
 40
0.0
 40
0.0
 40
0.0
 40
0.0
 40
1.0
 40
1.0
 40
1.0
 40
1.0
 10
261.8979948018718
 20
237.7374023298776
 30
0.0
 10
261.7788921162366
 20
237.760982630594
 30
0.0
 10
261.6591618157556
 20
237.7798938438314
 30
0.0
 10
261.5387811376551
 20
237.7939666278616
 30
0.0
  0
SPLINE
  5
181
330
1F
100
AcDbEntity
  8
1
100
AcDbSpline
210
0.0
220
0.0
230
1.0
 70
     8
 71
     3
 72
    12
 73
     8
 74
     0
 42
0.000000001
 43
0.0000000001
 40
0.0
 40
0.0
 40
0.0
 40
0.0
 40
0.5
 40
0.5
 40
0.75
 40
0.75
 40
1.0
 40
1.0
 40
1.0
 40
1.0
 10
261.4187660392707
 20
237.791330137314
 30
0.0
 10
261.4383419249201
 20
237.7944369588357
 30
0.0
 10
261.4581816023871
 20
237.796264497374
 30
0.0
 10
261.4883558801126
 20
237.7969755533024
 30
0.0
 10
261.498514712025
 20
237.7968707628754
 30
0.0
 10
261.5188475261053
 20
237.7959407385543
 30
0.0
 10
261.5288797434315
 20
237.7951241241034
 30
0.0
 10
261.538781137655
 20
237.7939666278614
 30
0.0
  0
SPLINE
  5
182
330
1F
100
AcDbEntity
  8
1
100
AcDbSpline
210
0.0
220
0.0
230
1.0
 70
     8
 71
     3
 72
    14
 73
    10
 74
     0
 42
0.000000001
 43
0.0000000001
 40
0.0
 40
0.0
 40
0.0
 40
0.0
 40
0.25
 40
0.25
 40
0.5
 40
0.5
 40
0.75
 40
0.75
 40
1.0
 40
1.0
 40
1.0
 40
1.0
 10
266.4638637910168
 20
241.135139655146
 30
0.0
 10
266.4240786280536
 20
240.8145969464852
 30
0.0
 10
266.3808939103537
 20
240.4945942203159
 30
0.0
 10
266.290517304911
 20
239.8552252635865
 30
0.0
 10
266.2433023667805
 20
239.5358626943312
 30
0.0
 10
266.1463871619629
 20
238.8975323233741
 30
0.0
 10
266.0966730989014
 20
238.5785667130771
 30
0.0
 10
265.995628438544
 20
237.9408922614575
 30
0.0
 10
265.9442905857805
 20
237.6221845725875
 30
0.0
 10
265.8924039022911
 20
237.3035640595407
 30
0.0
  0
SPLINE
  5
183
330
1F
100
AcDbEntity
  8
1
100
AcDbSpline
210
0.0
220
0.0
230
1.0
 70
     8
 71
     3
 72
    10
 73
     6
 74
     0
 42
0.000000001
 43
0.0000000001
 40
0.0
 40
0.0
 40
0.0
 40
0.0
 40
0.5
 40
0.5
 40
1.0
 40
1.0
 40
1.0
 40
1.0
 10
266.4638637910168
 20
245.0425186032996
 30
0.0
 10
266.3688879854628
 20
245.1616804686725
 30
0.0
 10
266.2736900072165
 20
245.2808340282806
 30
0.0
 10
266.0831483909352
 20
245.5191357021112
 30
0.0
 10
265.9877947837446
 20
245.6382834436441
 30
0.0
 10
265.8924039022911
 20
245.7574297917058
 30
0.0
  0
SPLINE
  5
184
330
1F
100
AcDbEntity
  8
1
100
AcDbSpline
210
0.0
220
0.0
230
1.0
 70
     9
 71
     3
 72
   132
 73
   128
 74
     0
 42
0.000000001
 43
0.0000000001
 40
0.0
 40
0.0
 40
0.0
 40
0.0
 40
0.0312499999999998
 40
0.0312499999999998
 40
0.0468749999999996
 40
0.0468749999999996
 40
0.0546874999999995
 40
0.0546874999999995
 40
0.0624999999999994
 40
0.0624999999999994
 40
0.0937500000000004
 40
0.0937500000000004
 40
0.1015625000000009
 40
0.1015625000000009
 40
0.1093750000000014
 40
0.1093750000000014
 40
0.1250000000000013
 40
0.1250000000000013
 40
0.1406250000000012
 40
0.1406250000000012
 40
0.156250000000001
 40
0.156250000000001
 40
0.1718750000000009
 40
0.1718750000000009
 40
0.1875000000000007
 40
0.1875000000000007
 40
0.2187499999999989
 40
0.2187499999999989
 40
0.2265624999999984
 40
0.2265624999999984
 40
0.2343749999999979
 40
0.2499999999999969
 40
0.2499999999999969
 40
0.2578124999999971
 40
0.2578124999999971
 40
0.2656249999999973
 40
0.2656249999999973
 40
0.2812499999999977
 40
0.2812499999999977
 40
0.3124999999999974
 40
0.3124999999999974
 40
0.3203124999999974
 40
0.3203124999999974
 40
0.3281249999999974
 40
0.3437499999999976
 40
0.3593749999999977
 40
0.3593749999999977
 40
0.3671874999999974
 40
0.3671874999999974
 40
0.3749999999999971
 40
0.3749999999999971
 40
0.4062499999999969
 40
0.4062499999999969
 40
0.4374999999999968
 40
0.4374999999999968
 40
0.4687499999999964
 40
0.4687499999999964
 40
0.4999999999999963
 40
0.4999999999999963
 40
0.5078124999999964
 40
0.5078124999999964
 40
0.5156249999999964
 40
0.5156249999999964
 40
0.5312499999999966
 40
0.5312499999999966
 40
0.5624999999999964
 40
0.5624999999999964
 40
0.5703124999999966
 40
0.5703124999999966
 40
0.5781249999999967
 40
0.5781249999999967
 40
0.5937499999999979
 40
0.5937499999999979
 40
0.6093749999999993
 40
0.6093749999999993
 40
0.6250000000000007
 40
0.6250000000000007
 40
0.6406250000000022
 40
0.6406250000000022
 40
0.6484375000000027
 40
0.6484375000000027
 40
0.6562500000000032
 40
0.6562500000000032
 40
0.6718750000000044
 40
0.6718750000000044
 40
0.6796875000000041
 40
0.6796875000000041
 40
0.6875000000000038
 40
0.6875000000000038
 40
0.7031250000000017
 40
0.7031250000000017
 40
0.7109375000000015
 40
0.7109375000000015
 40
0.7187500000000011
 40
0.7187500000000011
 40
0.7499999999999975
 40
0.7499999999999975
 40
0.7578124999999961
 40
0.7578124999999961
 40
0.7656249999999948
 40
0.7812499999999935
 40
0.7812499999999935
 40
0.8124999999999909
 40
0.8124999999999909
 40
0.8203124999999907
 40
0.8203124999999907
 40
0.8281249999999905
 40
0.8281249999999905
 40
0.8437499999999914
 40
0.8437499999999914
 40
0.8749999999999941
 40
0.8749999999999941
 40
0.8906249999999952
 40
0.8906249999999952
 40
0.8984374999999957
 40
0.8984374999999957
 40
0.9062499999999964
 40
0.9062499999999964
 40
0.9374999999999975
 40
0.9374999999999975
 40
0.9687499999999987
 40
0.9687499999999987
 40
0.9843749999999994
 40
0.9843749999999994
 40
0.9921874999999996
 40
0.9921874999999996
 40
1.0
 40
1.0
 40
1.0
 40
1.0
 10
265.2942963496296
 20
239.8923460347365
 30
0.0
 10
265.2862373911766
 20
239.9495811674878
 30
0.0
 10
265.2723502662874
 20
240.0061103173166
 30
0.0
 10
265.2417006413039
 20
240.0895372767673
 30
0.0
 10
265.2298371778844
 20
240.1171163936943
 30
0.0
 10
265.2093033739782
 20
240.1580743912048
 30
0.0
 10
265.2020175933722
 20
240.1716181636985
 30
0.0
 10
265.1867034222806
 20
240.1981942859164
 30
0.0
 10
265.1786547177084
 20
240.2112681279804
 30
0.0
 10
265.1364334731217
 20
240.2755444721685
 30
0.0
 10
265.0964053962076
 20
240.3235142940302
 30
0.0
 10
265.0375378973675
 20
240.3784016620881
 30
0.0
 10
265.0252748258574
 20
240.3891530911084
 30
0.0
 10
265.0002252931715
 20
240.4097792551424
 30
0.0
 10
264.9874024082876
 20
240.4196922369208
 30
0.0
 10
264.9480503620513
 20
240.4482403960579
 30
0.0
 10
264.9206406028745
 20
240.4656884652751
 30
0.0
 10
264.8634619782598
 20
240.4973791073797
 30
0.0
 10
264.8336536047877
 20
240.5116384447699
 30
0.0
 10
264.7717376164069
 20
240.536723267024
 30
0.0
 10
264.7402851606784
 20
240.5472893815061
 30
0.0
 10
264.6764427589447
 20
240.5646723407419
 30
0.0
 10
264.6440525965423
 20
240.5714883282382
 30
0.0
 10
264.5783467220197
 20
240.5814174516504
 30
0.0
 10
264.5448779158571
 20
240.5845157211184
 30
0.0
 10
264.4456057493389
 20
240.588142820393
 30
0.0
 10
264.3801969664891
 20
240.5832466235691
 30
0.0
 10
264.2993463066912
 20
240.5686357994814
 30
0.0
 10
264.2832996831481
 20
240.5652965936161
 30
0.0
 10
264.2516180505922
 20
240.5578549882843
 30
0.0
 10
264.2046311095725
 20
240.5455283866307
 30
0.0
 10
264.1591888915141
 20
240.5298589723917
 30
0.0
 10
264.1147342846313
 20
240.5120776934413
 30
0.0
 10
264.1000810599946
 20
240.5057978490145
 30
0.0
 10
264.0711016619742
 20
240.4925436863958
 30
0.0
 10
264.0567455690628
 20
240.4855536086392
 30
0.0
 10
264.0143892748184
 20
240.4636671755486
 30
0.0
 10
263.9872106621079
 20
240.4479237393651
 30
0.0
 10
263.9086410936359
 20
240.3975194634187
 30
0.0
 10
263.8601937454044
 20
240.3597086103617
 30
0.0
 10
263.8042878527207
 20
240.3076526231531
 30
0.0
 10
263.7933663836734
 20
240.2970214730262
 30
0.0
 10
263.7721553148786
 20
240.2754611165963
 30
0.0
 10
263.7412300689317
 20
240.2426169400428
 30
0.0
 10
263.6939933612098
 20
240.1854783430829
 30
0.0
 10
263.660606268578
 20
240.1373806334155
 30
0.0
 10
263.6371824913996
 20
240.1004538629296
 30
0.0
 10
263.6296443577456
 20
240.0880024672123
 30
0.0
 10
263.6151062511419
 20
240.0628190860243
 30
0.0
 10
263.6080961449013
 20
240.0500661336253
 30
0.0
 10
263.5746186162211
 20
239.9860511812961
 30
0.0
 10
263.5526805588315
 20
239.9338118438273
 30
0.0
 10
263.5178245182239
 20
239.8275913268942
 30
0.0
 10
263.5049016724994
 20
239.7735664306852
 30
0.0
 10
263.4882416379258
 20
239.6640215723126
 30
0.0
 10
263.484669390453
 20
239.609655971692
 30
0.0
 10
263.4867824751176
 20
239.5017276536728
 30
0.0
 10
263.492460589963
 20
239.4481652135779
 30
0.0
 10
263.5057975507955
 20
239.3816922579325
 30
0.0
 10
263.5087797858678
 20
239.3684215963719
 30
0.0
 10
263.5153984962774
 20
239.341927234716
 30
0.0
 10
263.5190319952507
 20
239.3287218843297
 30
0.0
 10
263.5308451766672
 20
239.2895074665348
 30
0.0
 10
263.5399598588668
 20
239.2637950238085
 30
0.0
 10
263.5711756735399
 20
239.1879528703191
 30
0.0
 10
263.5970772137487
 20
239.1391025457591
 30
0.0
 10
263.6371655210609
 20
239.080380631989
 30
0.0
 10
263.6455983614806
 20
239.0687254568861
 30
0.0
 10
263.6631312781111
 20
239.045884915813
 30
0.0
 10
263.6722398464109
 20
239.0346833025703
 30
0.0
 10
263.7006292209061
 20
239.0017469236874
 30
0.0
 10
263.7209685734703
 20
238.9806778109811
 30
0.0
 10
263.7647793339796
 20
238.9404422385978
 30
0.0
 10
263.7882782420941
 20
238.9212524748378
 30
0.0
 10
263.8387838346919
 20
238.8850960566145
 30
0.0
 10
263.8652761093147
 20
238.8684973229732
 30
0.0
 10
263.9208846325129
 20
238.8383693588832
 30
0.0
 10
263.9499997741058
 20
238.8248388825065
 30
0.0
 10
263.9958375756537
 20
238.8070344916868
 30
0.0
 10
264.0114777719735
 20
238.8015239297363
 30
0.0
 10
264.0428888127466
 20
238.7915585797297
 30
0.0
 10
264.0587336252431
 20
238.7870733882887
 30
0.0
 10
264.1066788173642
 20
238.7750810977298
 30
0.0
 10
264.1391888151214
 20
238.7690328877368
 30
0.0
 10
264.1887666550112
 20
238.7628471626788
 30
0.0
 10
264.2055011302427
 20
238.7612637385573
 30
0.0
 10
264.238849238389
 20
238.7590908003717
 30
0.0
 10
264.2554361305795
 20
238.758497519517
 30
0.0
 10
264.3049512215626
 20
238.7581090867814
 30
0.0
 10
264.3376345970286
 20
238.7597001735226
 30
0.0
 10
264.3862165036202
 20
238.7646221779925
 30
0.0
 10
264.4023815193669
 20
238.766694084557
 30
0.0
 10
264.4343520265489
 20
238.771625841262
 30
0.0
 10
264.4501028020232
 20
238.7744742435068
 30
0.0
 10
264.5277824471416
 20
238.7904823624431
 30
0.0
 10
264.5865409691374
 20
238.8088535770323
 30
0.0
 10
264.656683362016
 20
238.83749660214
 30
0.0
 10
264.6705724020756
 20
238.8435275295016
 30
0.0
 10
264.6978858569398
 20
238.8560856509837
 30
0.0
 10
264.7380712739359
 20
238.8756264465478
 30
0.0
 10
264.7760807255044
 20
238.8971474047065
 30
0.0
 10
264.8495125268915
 20
238.9426145795375
 30
0.0
 10
264.8950428042552
 20
238.9761379265706
 30
0.0
 10
264.9481916016651
 20
239.0217869578686
 30
0.0
 10
264.9586310177585
 20
239.0311058484346
 30
0.0
 10
264.9791341660634
 20
239.0501219482808
 30
0.0
 10
264.9892015446235
 20
239.0598242117801
 30
0.0
 10
265.0186564352069
 20
239.0893067490137
 30
0.0
 10
265.0373659561488
 20
239.1095224569304
 30
0.0
 10
265.0908421681685
 20
239.1718197263353
 30
0.0
 10
265.1229782611755
 20
239.2155398168399
 30
0.0
 10
265.1659810620026
 20
239.2845030798774
 30
0.0
 10
265.179442847287
 20
239.3080576146831
 30
0.0
 10
265.1982842733799
 20
239.3442801056118
 30
0.0
 10
265.2043331096445
 20
239.3564937194601
 30
0.0
 10
265.2158919070219
 20
239.381051554465
 30
0.0
 10
265.2214126590084
 20
239.3934160970523
 30
0.0
 10
265.2477231128424
 20
239.4556697291449
 30
0.0
 10
265.2646645217051
 20
239.5068440582793
 30
0.0
 10
265.2898342120743
 20
239.612123732829
 30
0.0
 10
265.2980758218034
 20
239.6662254889769
 30
0.0
 10
265.3028125806154
 20
239.7498923389595
 30
0.0
 10
265.3031000818055
 20
239.778278958225
 30
0.0
 10
265.3014157116613
 20
239.8209173662752
 30
0.0
 10
265.3005038888193
 20
239.8351606593496
 30
0.0
 10
265.2979533470418
 20
239.8637079163644
 30
0.0
 10
265.2963110892429
 20
239.8780372515487
 30
0.0
 10
265.2942963496296
 20
239.8923460347365
 30
0.0
  0
SPLINE
  5
185
330
1F
100
AcDbEntity
  8
1
100
AcDbSpline
210
0.0
220
0.0
230
1.0
 70
     8
 71
     3
 72
     8
 73
     4
 74
     0
 42
0.000000001
 43
0.0000000001
 40
0.0
 40
0.0
 40
0.0
 40
0.0
 40
1.0
 40
1.0
 40
1.0
 40
1.0
 10
261.8979948018718
 20
245.7338907215587
 30
0.0
 10
263.1213980765472
 20
245.7598363902111
 30
0.0
 10
264.3448024772299
 20
245.7857794936747
 30
0.0
 10
265.5682078506313
 20
245.8117203805394
 30
0.0
  0
SPLINE
  5
186
330
1F
100
AcDbEntity
  8
1
100
AcDbSpline
210
0.0
220
0.0
230
1.0
 70
     8
 71
     3
 72
    28
 73
    24
 74
     0
 42
0.000000001
 43
0.0000000001
 40
0.0
 40
0.0
 40
0.0
 40
0.0
 40
0.1250000000000441
 40
0.1250000000000441
 40
0.1875000000000552
 40
0.1875000000000552
 40
0.2500000000000663
 40
0.2500000000000663
 40
0.3750000000000676
 40
0.3750000000000676
 40
0.500000000000069
 40
0.500000000000069
 40
0.5625000000000626
 40
0.5625000000000626
 40
0.6250000000000561
 40
0.6250000000000561
 40
0.7500000000000328
 40
0.7500000000000328
 40
0.8125000000000213
 40
0.8125000000000213
 40
0.8750000000000099
 40
0.8750000000000099
 40
1.0
 40
1.0
 40
1.0
 40
1.0
 10
265.5682078506313
 20
237.0566852435721
 30
0.0
 10
265.5869023882505
 20
237.0534294818624
 30
0.0
 10
265.6057099807989
 20
237.0520728293923
 30
0.0
 10
265.6340968403329
 20
237.0529854271446
 30
0.0
 10
265.6436455788709
 20
237.0537940535243
 30
0.0
 10
265.6624591034566
 20
237.0564038450273
 30
0.0
 10
265.671726719538
 20
237.0581972630063
 30
0.0
 10
265.6991206497699
 20
237.0650131689544
 30
0.0
 10
265.7168779903565
 20
237.0714756635635
 30
0.0
 10
265.7511159721871
 20
237.0882906744455
 30
0.0
 10
265.7670608740489
 20
237.0983701103333
 30
0.0
 10
265.7893219817722
 20
237.1158477961265
 30
0.0
 10
265.7964642763414
 20
237.1220696762687
 30
0.0
 10
265.8101871648655
 20
237.1353133114487
 30
0.0
 10
265.8167108321546
 20
237.1422853043613
 30
0.0
 10
265.8350845799067
 20
237.1639589708305
 30
0.0
 10
265.8458496007929
 20
237.1795096680093
 30
0.0
 10
265.8598605353621
 20
237.204421574083
 30
0.0
 10
265.8641772291143
 20
237.2130126458821
 30
0.0
 10
265.8719490804027
 20
237.2303988643567
 30
0.0
 10
265.8754273735647
 20
237.2392308362549
 30
0.0
 10
265.8846908459219
 20
237.2661257994203
 30
0.0
 10
265.8893182816623
 20
237.2846161915776
 30
0.0
 10
265.8924039022911
 20
237.3035640595407
 30
0.0
  0
SPLINE
  5
187
330
1F
100
AcDbEntity
  8
1
100
AcDbSpline
210
0.0
220
0.0
230
1.0
 70
     8
 71
     3
 72
    30
 73
    26
 74
     0
 42
0.000000001
 43
0.0000000001
 40
0.0
 40
0.0
 40
0.0
 40
0.0
 40
0.0625000000000026
 40
0.0625000000000026
 40
0.1250000000000051
 40
0.1250000000000051
 40
0.2500000000000017
 40
0.2500000000000017
 40
0.3124999999999999
 40
0.3124999999999999
 40
0.3749999999999981
 40
0.3749999999999981
 40
0.5000000000000139
 40
0.5000000000000139
 40
0.5625000000000215
 40
0.5625000000000215
 40
0.6250000000000293
 40
0.6250000000000293
 40
0.750000000000026
 40
0.750000000000026
 40
0.8125000000000252
 40
0.8125000000000252
 40
0.8750000000000245
 40
0.8750000000000245
 40
1.0
 40
1.0
 40
1.0
 40
1.0
 10
265.8924039022911
 20
245.7574297917058
 30
0.0
 10
265.8907723781403
 20
245.7594676190261
 30
0.0
 10
265.8887124775684
 20
245.7614819125588
 30
0.0
 10
265.8837414289371
 20
245.7654637344977
 30
0.0
 10
265.8808172251962
 20
245.767437604064
 30
0.0
 10
265.8708894467828
 20
245.7732094966103
 30
0.0
 10
265.8627297149259
 20
245.7768776677453
 30
0.0
 10
265.848219276858
 20
245.7821150681431
 30
0.0
 10
265.8430015693679
 20
245.7838164431393
 30
0.0
 10
265.8317809992696
 20
245.7871276176541
 30
0.0
 10
265.8258111317214
 20
245.7887262234246
 30
0.0
 10
265.8070838340967
 20
245.7932911593488
 30
0.0
 10
265.7934259397504
 20
245.796055555009
 30
0.0
 10
265.7711757000035
 20
245.7997828896743
 30
0.0
 10
265.7634254836343
 20
245.8009600227906
 30
0.0
 10
265.7474957084978
 20
245.8031429248524
 30
0.0
 10
265.7393539670919
 20
245.8041447389893
 30
0.0
 10
265.7144129075528
 20
245.8068887345653
 30
0.0
 10
265.6971021717954
 20
245.8083717082429
 30
0.0
 10
265.6700880903017
 20
245.8100650099141
 30
0.0
 10
265.6608893944745
 20
245.8105399485646
 30
0.0
 10
265.6425216656276
 20
245.8112906419274
 30
0.0
 10
265.6333062862514
 20
245.811569786083
 30
0.0
 10
265.6055673066655
 20
245.8121238107728
 30
0.0
 10
265.5869516965664
 20
245.8121178219741
 30
0.0
 10
265.5682078506313
 20
245.8117203805394
 30
0.0
  0
SPLINE
  5
188
330
1F
100
AcDbEntity
  8
1
100
AcDbSpline
210
0.0
220
0.0
230
1.0
 70
     8
 71
     3
 72
    29
 73
    25
 74
     0
 42
0.000000001
 43
0.0000000001
 40
0.0
 40
0.0
 40
0.0
 40
0.0
 40
0.1215805404497949
 40
0.1215805404497949
 40
0.2431610808995898
 40
0.2431610808995898
 40
0.2735562160120386
 40
0.2735562160120386
 40
0.3039513511244873
 40
0.3039513511244873
 40
0.3647416213493847
 40
0.3647416213493847
 40
0.4863221617991796
 40
0.6079027022489747
 40
0.7294832426987698
 40
0.7294832426987698
 40
0.7902735129236671
 40
0.7902735129236671
 40
0.820668648036116
 40
0.820668648036116
 40
0.8510637831485647
 40
0.9726443235983591
 40
0.9726443235983591
 40
1.0
 40
1.0
 40
1.0
 40
1.0
 10
247.0375448644553
 20
236.471207063377
 30
0.0
 10
247.0228576286534
 20
236.4360343601412
 30
0.0
 10
247.0116449478862
 20
236.4061951911185
 30
0.0
 10
246.9963162099811
 20
236.3573043613532
 30
0.0
 10
246.9921992859007
 20
236.3382521124205
 30
0.0
 10
246.9917263452942
 20
236.321353838343
 30
0.0
 10
246.9918660327697
 20
236.3183204550008
 30
0.0
 10
246.9926224808697
 20
236.3129523567034
 30
0.0
 10
246.9932402619415
 20
236.3106156422279
 30
0.0
 10
246.9958160105638
 20
236.304679300613
 30
0.0
 10
246.9984907710847
 20
236.3021558294727
 30
0.0
 10
247.0093971606558
 20
236.2988024996147
 30
0.0
 10
247.0316114486459
 20
236.3055665606636
 30
0.0
 10
247.0885898087838
 20
236.3484409582055
 30
0.0
 10
247.143194806161
 20
236.3984846404528
 30
0.0
 10
247.1908647096856
 20
236.444028840221
 30
0.0
 10
247.2078758060366
 20
236.4605464683631
 30
0.0
 10
247.2351515898099
 20
236.4873314305337
 30
0.0
 10
247.2445375040793
 20
236.4965953571946
 30
0.0
 10
247.2638107994744
 20
236.5156950457703
 30
0.0
 10
247.3133043284131
 20
236.5649291893544
 30
0.0
 10
247.3693658478334
 20
236.6214224006657
 30
0.0
 10
247.4296070338962
 20
236.6820514364745
 30
0.0
 10
247.4408901016853
 20
236.6934046235954
 30
0.0
 10
247.4523939870294
 20
236.7049718712049
 30
0.0
  0
SPLINE
  5
189
330
1F
100
AcDbEntity
  8
1
100
AcDbSpline
210
0.0
220
0.0
230
1.0
 70
     8
 71
     3
 72
    44
 73
    40
 74
     0
 42
0.000000001
 43
0.0000000001
 40
0.0
 40
0.0
 40
0.0
 40
0.0
 40
0.032002551006891
 40
0.032002551006891
 40
0.064005102013782
 40
0.064005102013782
 40
0.1280102040275622
 40
0.1280102040275622
 40
0.2560204080551245
 40
0.2560204080551245
 40
0.3200255100689066
 40
0.3200255100689066
 40
0.3840306120826887
 40
0.3840306120826887
 40
0.5120408161102547
 40
0.5120408161102547
 40
0.5760459181240387
 40
0.5760459181240387
 40
0.6080484691309298
 40
0.6080484691309298
 40
0.6400510201378211
 40
0.6400510201378211
 40
0.7040561221516021
 40
0.7040561221516021
 40
0.7680612241653828
 40
0.7680612241653828
 40
0.8000637751722738
 40
0.8000637751722738
 40
0.8320663261791651
 40
0.8320663261791651
 40
0.8960714281929456
 40
0.8960714281929456
 40
0.9280739791998364
 40
0.9280739791998364
 40
0.9440752547032824
 40
0.9440752547032824
 40
0.9600765302067282
 40
0.9600765302067282
 40
1.0
 40
1.0
 40
1.0
 40
1.0
 10
249.2713598460903
 20
236.975713273377
 30
0.0
 10
249.2410939972162
 20
236.9757911406151
 30
0.0
 10
249.2107321374794
 20
236.975659247459
 30
0.0
 10
249.1498149567316
 20
236.9749700152992
 30
0.0
 10
249.119206427978
 20
236.9744109272497
 30
0.0
 10
249.0276718823839
 20
236.9721020158235
 30
0.0
 10
248.9669371275504
 20
236.9697232471561
 30
0.0
 10
248.7855785958627
 20
236.960130820511
 30
0.0
 10
248.6657941447144
 20
236.950470525483
 30
0.0
 10
248.4878366132357
 20
236.931161286036
 30
0.0
 10
248.4288054896209
 20
236.9239194606013
 30
0.0
 10
248.3113471573744
 20
236.9078065081989
 30
0.0
 10
248.2527411030702
 20
236.8989001114685
 30
0.0
 10
248.0806501190422
 20
236.8701617931266
 30
0.0
 10
247.9700965004741
 20
236.8482379324331
 30
0.0
 10
247.811134213723
 20
236.8114976451642
 30
0.0
 10
247.7592992866242
 20
236.7986060357748
 30
0.0
 10
247.6834486224797
 20
236.7783121885862
 30
0.0
 10
247.6584181155641
 20
236.7713689560105
 30
0.0
 10
247.6094056667449
 20
236.7572708331786
 30
0.0
 10
247.5854315047379
 20
236.7501198839947
 30
0.0
 10
247.5151448700257
 20
236.7283841537316
 30
0.0
 10
247.4704620246704
 20
236.7135168377118
 30
0.0
 10
247.3857899480199
 20
236.6831404345395
 30
0.0
 10
247.3457975820465
 20
236.6676312691739
 30
0.0
 10
247.2897606229694
 20
236.6439622993034
 30
0.0
 10
247.2716991882053
 20
236.635983005766
 30
0.0
 10
247.2374462038441
 20
236.620114655335
 30
0.0
 10
247.2212028000543
 20
236.6122055765619
 30
0.0
 10
247.1751833285698
 20
236.5885871389666
 30
0.0
 10
247.1481067107607
 20
236.572986324358
 30
0.0
 10
247.113322879418
 20
236.549937900671
 30
0.0
 10
247.1027027434505
 20
236.5423139351438
 30
0.0
 10
247.0883160015235
 20
236.5309840276437
 30
0.0
 10
247.0837717118247
 20
236.527218919852
 30
0.0
 10
247.0752844433507
 20
236.5197911971147
 30
0.0
 10
247.0713321289044
 20
236.5161218508919
 30
0.0
 10
247.0585299244992
 20
236.5034549663198
 30
0.0
 10
247.0511863912233
 20
236.4946928578678
 30
0.0
 10
247.0456350420694
 20
236.4862204298948
 30
0.0
  0
SPLINE
  5
18A
330
1F
100
AcDbEntity
  8
1
100
AcDbSpline
210
0.0
220
0.0
230
1.0
 70
     8
 71
     3
 72
    57
 73
    53
 74
     0
 42
0.000000001
 43
0.0000000001
 40
0.0
 40
0.0
 40
0.0
 40
0.0
 40
0.0267980612471879
 40
0.0615552733455025
 40
0.0963124854438171
 40
0.0963124854438171
 40
0.1136910914929744
 40
0.1136910914929744
 40
0.1223803945175531
 40
0.1223803945175531
 40
0.1310696975421318
 40
0.1658269096404467
 40
0.1658269096404467
 40
0.2353413338370764
 40
0.2353413338370764
 40
0.2527199398862339
 40
0.2527199398862339
 40
0.2614092429108126
 40
0.2614092429108126
 40
0.2700985459353913
 40
0.3048557580337061
 40
0.3048557580337061
 40
0.3743701822303358
 40
0.3743701822303358
 40
0.391748788279493
 40
0.391748788279493
 40
0.4004380913040715
 40
0.4004380913040715
 40
0.4091273943286503
 40
0.4438846064269648
 40
0.4438846064269648
 40
0.5133990306235937
 40
0.5133990306235937
 40
0.582913454820223
 40
0.582913454820223
 40
0.5916027578448018
 40
0.5916027578448018
 40
0.6002920608693805
 40
0.6176706669185378
 40
0.6524278790168525
 40
0.6524278790168525
 40
0.7219423032134821
 40
0.7219423032134821
 40
0.7914567274101119
 40
0.7914567274101119
 40
0.8609711516067415
 40
0.8609711516067415
 40
0.8957283637050563
 40
0.8957283637050563
 40
0.9304855758033712
 40
0.9304855758033712
 40
1.0
 40
1.0
 40
1.0
 40
1.0
 10
247.0077094858446
 20
251.1619391762153
 30
0.0
 10
247.014669408058
 20
251.1616910434133
 30
0.0
 10
247.0359258633599
 20
251.1535041411083
 30
0.0
 10
247.0885262144115
 20
251.1139352315201
 30
0.0
 10
247.1431031789805
 20
251.063923122639
 30
0.0
 10
247.1907488878313
 20
251.0184056304866
 30
0.0
 10
247.2077513894297
 20
251.0018974101621
 30
0.0
 10
247.235013414434
 20
250.975127333547
 30
0.0
 10
247.244394941224
 20
250.9658681593173
 30
0.0
 10
247.2636592791967
 20
250.9467781068268
 30
0.0
 10
247.3131298927283
 20
250.8975684542314
 30
0.0
 10
247.3691658401061
 20
250.8411016870787
 30
0.0
 10
247.5166282513306
 20
250.6926893566401
 30
0.0
 10
247.6321807513033
 20
250.576589089521
 30
0.0
 10
247.8003476991588
 20
250.4127912696112
 30
0.0
 10
247.8351719802877
 20
250.3790955133609
 30
0.0
 10
247.8892490608278
 20
250.3271932085794
 30
0.0
 10
247.9075953703333
 20
250.3096529944096
 30
0.0
 10
247.9447501803049
 20
250.274279962054
 30
0.0
 10
248.0388759668723
 20
250.1850349580408
 30
0.0
 10
248.1391837275553
 20
250.0919143628641
 30
0.0
 10
248.3918084138748
 20
249.8622230604538
 30
0.0
 10
248.5760543158729
 20
249.7008529047928
 30
0.0
 10
248.8265627778063
 20
249.4923775027718
 30
0.0
 10
248.8776760505065
 20
249.4503420683398
 30
0.0
 10
248.955875336058
 20
249.3868390937664
 30
0.0
 10
248.982216450066
 20
249.3655807699172
 30
0.0
 10
249.0352257503585
 20
249.3230716576857
 30
0.0
 10
249.1686527629569
 20
249.2167463471351
 30
0.0
 10
249.3065569826763
 20
249.1102839420954
 30
0.0
 10
249.6458738825729
 20
248.855328585601
 30
0.0
 10
249.8832012941367
 20
248.686119941419
 30
0.0
 10
250.3791422353337
 20
248.352840449118
 30
0.0
 10
250.6377595013481
 20
248.1887569817499
 30
0.0
 10
250.9403611188893
 20
248.0087431892901
 30
0.0
 10
250.9741684394007
 20
247.9887917581931
 30
0.0
 10
251.0419608637723
 20
247.949106099898
 30
0.0
 10
251.1439276320238
 20
247.889895804449
 30
0.0
 10
251.383778663358
 20
247.7539887367131
 30
0.0
 10
251.5926115068068
 20
247.6414305929774
 30
0.0
 10
252.0144714704824
 20
247.4217469215259
 30
0.0
 10
252.3012966305174
 20
247.2825356290204
 30
0.0
 10
252.8855991834575
 20
247.0195332797501
 30
0.0
 10
253.183077841063
 20
246.8957392080689
 30
0.0
 10
253.7883887519816
 20
246.6644968434895
 30
0.0
 10
254.0962214444644
 20
246.5570463679258
 30
0.0
 10
254.5656544411895
 20
246.4088829760784
 30
0.0
 10
254.7229199120378
 20
246.3618225077768
 30
0.0
 10
255.0386874270416
 20
246.272483502939
 30
0.0
 10
255.1972424605623
 20
246.2301882016517
 30
0.0
 10
255.6749100776413
 20
246.1104778431467
 30
0.0
 10
255.9960226374523
 20
246.0402326947311
 30
0.0
 10
256.3198039672496
 20
245.9797576860932
 30
0.0
  0
SPLINE
  5
18B
330
1F
100
AcDbEntity
  8
1
100
AcDbSpline
210
0.0
220
0.0
230
1.0
 70
     8
 71
     3
 72
    22
 73
    18
 74
     0
 42
0.000000001
 43
0.0000000001
 40
0.0
 40
0.0
 40
0.0
 40
0.0
 40
0.1844337645910643
 40
0.1844337645910643
 40
0.3688675291821287
 40
0.3688675291821287
 40
0.5533012937731929
 40
0.5533012937731929
 40
0.7377350583642574
 40
0.7377350583642574
 40
0.7838434995120228
 40
0.7838434995120228
 40
0.829951940659788
 40
0.829951940659788
 40
0.9221688229553171
 40
0.9221688229553171
 40
1.0
 40
1.0
 40
1.0
 40
1.0
 10
249.2713598460904
 20
250.4866093470048
 30
0.0
 10
249.150021019309
 20
250.4862971694292
 30
0.0
 10
249.028966316921
 20
250.4893500937144
 30
0.0
 10
248.7874129349165
 20
250.5020636483712
 30
0.0
 10
248.6669140045094
 20
250.5117220432835
 30
0.0
 10
248.4265005518367
 20
250.5378251624625
 30
0.0
 10
248.3095625362595
 20
250.5539469758297
 30
0.0
 10
248.0825225288475
 20
250.591834865358
 30
0.0
 10
247.9723802266338
 20
250.6136025136661
 30
0.0
 10
247.8395120191603
 20
250.6442552410504
 30
0.0
 10
247.8131814424781
 20
250.650558889912
 30
0.0
 10
247.7610332021353
 20
250.6635144966235
 30
0.0
 10
247.7351445665769
 20
250.6701858424833
 30
0.0
 10
247.6589306272029
 20
250.6905572870577
 30
0.0
 10
247.6100567899047
 20
250.704606074938
 30
0.0
 10
247.5237056378976
 20
250.7312758739179
 30
0.0
 10
247.4856385220198
 20
250.7437777762518
 30
0.0
 10
247.4491459060758
 20
250.756546833947
 30
0.0
  0
LINE
  5
1A3
330
1F
100
AcDbEntity
  8
SK4
100
AcDbLine
 10
165.144248
 20
243.731161
 30
0.0
 11
240.144248
 21
243.731161
 31
0.0
  0
LINE
  5
1A4
330
1F
100
AcDbEntity
  8
4
100
AcDbLine
 10
271.643822
 20
243.731161
 30
0.0
 11
211.343865
 21
243.731161
 31
0.0
  0
MTEXT
  5
1A5
330
1F
100
AcDbEntity
  8
SK6
100
AcDbMText
 10
192.513213
 20
212.002455
 30
0.0
 40
3.5
 41
0.0
 71
     7
 72
     5
  1
\fMonospac821 BT|b0|i0;\W0.8127;16E2R030A16-SZD07
  7
cesky
 73
     2
 44
0.8433729999999998
  0
MTEXT
  5
2A2
330
1F
100
AcDbEntity
  8
2
100
AcDbMText
 10
283.748422
 20
242.217631
 30
0.0
 40
3.5
 41
0.0
 71
     7
 72
     5
  1
\fMonospac821 BT|b0|i0;\W0.6598;16
  7
cesky
 11
0.0000000000000001
 21
1.0
 31
0.0
 73
     2
 44
0.8433729999999998
  0
MTEXT
  5
2A3
330
1F
100
AcDbEntity
  8
2
100
AcDbMText
 10
283.748422
 20
235.480131
 30
0.0
 40
3.5
 41
0.0
 71
     7
 72
     5
  1
\fMonospac821 BT|b0|i0;\W2.1528;\H2.63;%%c\H3.50;
  7
cesky
 11
0.0000000000000001
 21
1.0
 31
0.0
 73
     2
 44
0.8433729999999998
  0
LINE
  5
2A4
330
1F
100
AcDbEntity
  8
2
100
AcDbLine
 10
269.144248
 20
251.731161
 30
0.0
 11
284.935839
 21
251.731161
 31
0.0
  0
LINE
  5
2A5
330
1F
100
AcDbEntity
  8
2
100
AcDbLine
 10
283.935839
 20
251.731161
 30
0.0
 11
283.935839
 21
235.322631
 31
0.0
  0
SOLID
  5
2A6
330
1F
100
AcDbEntity
  8
2
100
AcDbTrace
 10
283.935839
 20
251.731161
 30
0.0
 11
284.552983
 21
248.231164
 31
0.0
 12
283.318695
 22
248.231159
 32
0.0
 13
283.318695
 23
248.231159
 33
0.0
  0
MTEXT
  5
2A7
330
1F
100
AcDbEntity
  8
2
100
AcDbMText
 10
258.339652
 20
260.082815
 30
0.0
 40
3.5
 41
0.0
 71
     7
 72
     5
  1
\fMonospac821 BT|b0|i0;\W0.4866;1
  7
cesky
 73
     2
 44
0.8433729999999998
  0
LINE
  5
2A8
330
1F
100
AcDbEntity
  8
2
100
AcDbLine
 10
267.144248
 20
253.731161
 30
0.0
 11
267.144248
 21
261.208648
 31
0.0
  0
LINE
  5
2A9
330
1F
100
AcDbEntity
  8
2
100
AcDbLine
 10
266.129152
 20
251.436772
 30
0.0
 11
266.129152
 21
261.208648
 31
0.0
  0
LINE
  5
2AA
330
1F
100
AcDbEntity
  8
2
100
AcDbLine
 10
258.154152
 20
260.208648
 30
0.0
 11
275.894248
 21
260.208648
 31
0.0
  0
SOLID
  5
2AB
330
1F
100
AcDbEntity
  8
2
100
AcDbTrace
 10
267.144248
 20
260.208648
 30
0.0
 11
270.644246
 21
260.825792
 31
0.0
 12
270.644251
 22
259.591504
 32
0.0
 13
270.644251
 23
259.591504
 33
0.0
  0
SOLID
  5
2AC
330
1F
100
AcDbEntity
  8
2
100
AcDbTrace
 10
266.129152
 20
260.208648
 30
0.0
 11
262.629154
 21
259.591504
 31
0.0
 12
262.62915
 22
260.825792
 32
0.0
 13
262.62915
 23
260.825792
 33
0.0
  0
MTEXT
  5
2AD
330
1F
100
AcDbEntity
  8
2
100
AcDbMText
 10
250.329748
 20
276.518751
 30
0.0
 40
3.5
 41
0.0
 71
     7
 72
     5
  1
\fMonospac821 BT|b0|i0;\W0.6598;30
  7
cesky
 73
     2
 44
0.8433729999999998
  0
LINE
  5
2AE
330
1F
100
AcDbEntity
  8
2
100
AcDbLine
 10
237.144248
 20
243.731161
 30
0.0
 11
237.144248
 21
277.644584
 31
0.0
  0
LINE
  5
2AF
330
1F
100
AcDbEntity
  8
2
100
AcDbLine
 10
267.144248
 20
253.731161
 30
0.0
 11
267.144248
 21
277.644584
 31
0.0
  0
LINE
  5
2B0
330
1F
100
AcDbEntity
  8
2
100
AcDbLine
 10
237.144248
 20
276.644584
 30
0.0
 11
267.144248
 21
276.644584
 31
0.0
  0
SOLID
  5
2B1
330
1F
100
AcDbEntity
  8
2
100
AcDbTrace
 10
237.144248
 20
276.644584
 30
0.0
 11
240.644246
 21
277.261729
 31
0.0
 12
240.644251
 22
276.02744
 32
0.0
 13
240.644251
 23
276.02744
 33
0.0
  0
SOLID
  5
2B2
330
1F
100
AcDbEntity
  8
2
100
AcDbTrace
 10
267.144248
 20
276.644584
 30
0.0
 11
263.644251
 21
276.02744
 31
0.0
 12
263.644246
 22
277.261729
 32
0.0
 13
263.644246
 23
277.261729
 33
0.0
  0
MTEXT
  5
2B3
330
1F
100
AcDbEntity
  8
SK2
100
AcDbMText
 10
158.811366
 20
245.257411
 30
0.0
 40
3.5
 41
0.0
 71
     7
 72
     5
  1
\fMonospac821 BT|b0|i0;\W0.6598;16
  7
cesky
 11
0.0000000000000001
 21
1.0
 31
0.0
 73
     2
 44
0.8433729999999998
  0
MTEXT
  5
2B4
330
1F
100
AcDbEntity
  8
SK2
100
AcDbMText
 10
158.811366
 20
238.519911
 30
0.0
 40
3.5
 41
0.0
 71
     7
 72
     5
  1
\fMonospac821 BT|b0|i0;\W2.1528;\H2.63;%%c\H3.50;
  7
cesky
 11
0.0000000000000001
 21
1.0
 31
0.0
 73
     2
 44
0.8433729999999998
  0
LINE
  5
2B5
330
1F
100
AcDbEntity
  8
SK2
100
AcDbLine
 10
168.144248
 20
251.731161
 30
0.0
 11
157.998783
 21
251.731161
 31
0.0
  0
LINE
  5
2B6
330
1F
100
AcDbEntity
  8
SK2
100
AcDbLine
 10
168.144248
 20
235.731161
 30
0.0
 11
157.998783
 21
235.731161
 31
0.0
  0
LINE
  5
2B7
330
1F
100
AcDbEntity
  8
SK2
100
AcDbLine
 10
158.998783
 20
260.481161
 30
0.0
 11
158.998783
 21
226.981161
 31
0.0
  0
SOLID
  5
2B8
330
1F
100
AcDbEntity
  8
SK2
100
AcDbTrace
 10
158.998783
 20
251.731161
 30
0.0
 11
158.3816389999999
 21
255.231159
 31
0.0
 12
159.615928
 22
255.231164
 32
0.0
 13
159.615928
 23
255.231164
 33
0.0
  0
SOLID
  5
2B9
330
1F
100
AcDbEntity
  8
SK2
100
AcDbTrace
 10
158.998783
 20
235.731161
 30
0.0
 11
159.615928
 21
232.231164
 31
0.0
 12
158.3816389999999
 22
232.231159
 32
0.0
 13
158.3816389999999
 23
232.231159
 33
0.0
  0
MTEXT
  5
2BA
330
1F
100
AcDbEntity
  8
SK2
100
AcDbMText
 10
214.067248
 20
299.059456
 30
0.0
 40
3.5
 41
0.0
 71
     7
 72
     5
  1
\fMonospac821 BT|b0|i0;\W0.7176;100
  7
cesky
 73
     2
 44
0.8433729999999998
  0
LINE
  5
2BB
330
1F
100
AcDbEntity
  8
SK2
100
AcDbLine
 10
167.144248
 20
250.731161
 30
0.0
 11
167.144248
 21
300.185289
 31
0.0
  0
LINE
  5
2BC
330
1F
100
AcDbEntity
  8
SK2
100
AcDbLine
 10
267.144248
 20
253.731161
 30
0.0
 11
267.144248
 21
300.185289
 31
0.0
  0
LINE
  5
2BD
330
1F
100
AcDbEntity
  8
SK2
100
AcDbLine
 10
167.144248
 20
299.185289
 30
0.0
 11
267.144248
 21
299.185289
 31
0.0
  0
SOLID
  5
2BE
330
1F
100
AcDbEntity
  8
SK2
100
AcDbTrace
 10
167.144248
 20
299.185289
 30
0.0
 11
170.644246
 21
299.802434
 31
0.0
 12
170.644251
 22
298.568145
 32
0.0
 13
170.644251
 23
298.568145
 33
0.0
  0
SOLID
  5
2BF
330
1F
100
AcDbEntity
  8
SK2
100
AcDbTrace
 10
267.144248
 20
299.185289
 30
0.0
 11
263.644251
 21
298.568145
 31
0.0
 12
263.644246
 22
299.802434
 32
0.0
 13
263.644246
 23
299.802434
 33
0.0
  0
MTEXT
  5
2C0
330
1F
100
AcDbEntity
  8
SK2
100
AcDbMText
 10
239.329748
 20
285.667092
 30
0.0
 40
3.5
 41
0.0
 71
     7
 72
     5
  1
\fMonospac821 BT|b0|i0;\W0.6598;52
  7
cesky
 73
     2
 44
0.8433729999999998
  0
LINE
  5
2C1
330
1F
100
AcDbEntity
  8
SK2
100
AcDbLine
 10
267.144248
 20
253.731161
 30
0.0
 11
267.144248
 21
286.792925
 31
0.0
  0
LINE
  5
2C2
330
1F
100
AcDbEntity
  8
SK2
100
AcDbLine
 10
215.144248
 20
244.730735
 30
0.0
 11
215.144248
 21
286.792925
 31
0.0
  0
LINE
  5
2C3
330
1F
100
AcDbEntity
  8
SK2
100
AcDbLine
 10
267.144248
 20
285.792925
 30
0.0
 11
215.144248
 21
285.792925
 31
0.0
  0
SOLID
  5
2C4
330
1F
100
AcDbEntity
  8
SK2
100
AcDbTrace
 10
267.144248
 20
285.792925
 30
0.0
 11
263.644251
 21
285.17578
 31
0.0
 12
263.644246
 22
286.410069
 32
0.0
 13
263.644246
 23
286.410069
 33
0.0
  0
SOLID
  5
2C5
330
1F
100
AcDbEntity
  8
SK2
100
AcDbTrace
 10
215.144248
 20
285.792925
 30
0.0
 11
218.644246
 21
286.410069
 31
0.0
 12
218.644251
 22
285.17578
 32
0.0
 13
218.644251
 23
285.17578
 33
0.0
  0
LINE
  5
2DE
330
1F
100
AcDbEntity
  8
CUT
100
AcDbLine
 10
264.1431660853148
 20
251.6590623177831
 30
0.0
 11
264.1431660853148
 21
251.6590623177831
 31
0.0
  0
ARC
  5
2DF
330
1F
100
AcDbEntity
  8
CUT
100
AcDbCircle
 10
265.1432113890447
 20
244.7577040519386
 30
0.0
 40
6.973437927095318
100
AcDbArc
 50
90.09372000367729
 51
98.24508853964399
  0
LINE
  5
2E0
330
1F
100
AcDbEntity
  8
CUT
100
AcDbLine
 10
265.8155082678384
 20
251.684821483723
 30
0.0
 11
265.8155082678384
 21
251.684821483723
 31
0.0
  0
ARC
  5
2E1
330
1F
100
AcDbEntity
  8
CUT
100
AcDbCircle
 10
265.7570786822079
 20
251.2607231506652
 30
0.0
 40
0.4281044412048759
100
AcDbArc
 50
81.15964555925243
 51
82.15553462989269
  0
LINE
  5
2E2
330
1F
100
AcDbEntity
  8
CUT
100
AcDbLine
 10
260.2133889186108
 20
248.7298934758632
 30
0.0
 11
260.2133889186108
 21
248.7298934758632
 31
0.0
  0
ARC
  5
2E3
330
1F
100
AcDbEntity
  8
CUT
100
AcDbCircle
 10
267.1317634562774
 20
249.7234655903056
 30
0.0
 40
6.989355606207984
100
AcDbArc
 50
180.0018293732019
 51
188.172568277824
  0
LINE
  5
2E4
330
1F
100
AcDbEntity
  8
CUT
100
AcDbLine
 10
260.4433795553076
 20
250.7248883309621
 30
0.0
 11
260.4433795553076
 21
250.7248883309621
 31
0.0
  0
ARC
  5
2E5
330
1F
100
AcDbEntity
  8
CUT
100
AcDbCircle
 10
266.8017130144374
 20
233.336343999918
 30
0.0
 40
18.51458555653287
100
AcDbArc
 50
98.25575527371864
 51
110.0855560349207
  0
ARC
  5
2E6
330
1F
100
AcDbEntity
  8
CUT
100
AcDbCircle
 10
266.7674221323415
 20
246.0780218053395
 30
0.0
 40
0.3385692300855165
100
AcDbArc
 50
351.1824845209379
 51
352.127221767306
  0
ARC
  5
2E7
330
1F
100
AcDbEntity
  8
CUT
100
AcDbCircle
 10
266.6196567224735
 20
246.1006150245906
 30
0.0
 40
0.4880516600996659
100
AcDbArc
 50
351.0021147506342
 51
351.2205741407476
  0
ARC
  5
2E8
330
1F
100
AcDbEntity
  8
CUT
100
AcDbCircle
 10
265.3956694295568
 20
249.71818291823
 30
0.0
 40
5.253264012378199
100
AcDbArc
 50
174.7793614314566
 51
179.9448174089904
  0
ARC
  5
2E9
330
1F
100
AcDbEntity
  8
CUT
100
AcDbCircle
 10
264.117204946396
 20
249.8236948653368
 30
0.0
 40
3.970518282017944
100
AcDbArc
 50
172.132325714897
 51
174.6169496270327
  0
ARC
  5
2EA
330
1F
100
AcDbEntity
  8
CUT
100
AcDbCircle
 10
267.3964602090706
 20
249.3933626506882
 30
0.0
 40
7.277846841331664
100
AcDbArc
 50
171.9713619132339
 51
172.3102606254726
  0
ARC
  5
2EB
330
1F
100
AcDbEntity
  8
CUT
100
AcDbCircle
 10
261.5490229421819
 20
245.2042872886166
 30
0.0
 40
0.4211232998820858
100
AcDbArc
 50
211.3019487407823
 51
259.1633749555995
  0
ARC
  5
2EC
330
1F
100
AcDbEntity
  8
CUT
100
AcDbCircle
 10
261.516543373551
 20
245.1809300947282
 30
0.0
 40
0.3812486949942255
100
AcDbArc
 50
202.2054936844184
 51
210.8386695064492
  0
ARC
  5
2ED
330
1F
100
AcDbEntity
  8
CUT
100
AcDbCircle
 10
260.5600039585324
 20
250.3588370479631
 30
0.0
 40
0.3735762784150741
100
AcDbArc
 50
171.2923672138786
 51
172.1518375289931
  0
ARC
  5
2EE
330
1F
100
AcDbEntity
  8
CUT
100
AcDbCircle
 10
260.7227494267613
 20
250.334239943272
 30
0.0
 40
0.538169813325256
100
AcDbArc
 50
171.128082465702
 51
171.3269523095066
  0
LINE
  5
2EF
330
1F
100
AcDbEntity
  8
CUT
100
AcDbLine
 10
261.4772150709176
 20
244.7892571438842
 30
0.0
 11
261.4772150709176
 21
244.7892571438842
 31
0.0
  0
ARC
  5
2F0
330
1F
100
AcDbEntity
  8
CUT
100
AcDbCircle
 10
261.5792481610418
 20
245.3397472447717
 30
0.0
 40
0.5598661470882523
100
AcDbArc
 50
258.7316559905149
 51
259.4994183307932
  0
LINE
  5
2F1
330
1F
100
AcDbEntity
  8
CUT
100
AcDbLine
 10
266.1316639433018
 20
251.4301759561244
 30
0.0
 11
266.1316639433018
 21
251.4301759561244
 31
0.0
  0
ARC
  5
2F2
330
1F
100
AcDbEntity
  8
CUT
100
AcDbCircle
 10
249.1802621814872
 20
245.1329565324117
 30
0.0
 40
18.08327940836054
100
AcDbArc
 50
8.18498445618305
 51
20.37935930284062
  0
ARC
  5
2F3
330
1F
100
AcDbEntity
  8
CUT
100
AcDbCircle
 10
260.6817282635495
 20
261.2356585957163
 30
0.0
 40
16.70502583995948
100
AcDbArc
 50
285.9113753551434
 51
291.6667423305228
  0
ARC
  5
2F4
330
1F
100
AcDbEntity
  8
CUT
100
AcDbCircle
 10
261.5099529026573
 20
258.2661049196413
 30
0.0
 40
13.62219844302934
100
AcDbArc
 50
276.9130481096869
 51
285.9854475149067
  0
LINE
  5
2F5
330
1F
100
AcDbEntity
  8
CUT
100
AcDbLine
 10
262.1609217692636
 20
244.7095032436283
 30
0.0
 11
262.1609217692636
 21
244.7095032436283
 31
0.0
  0
ARC
  5
2F6
330
1F
100
AcDbEntity
  8
CUT
100
AcDbCircle
 10
262.3999951454203
 20
249.728408768439
 30
0.0
 40
5.024596376442842
100
AcDbArc
 50
259.417451552848
 51
267.2728019981006
  0
LINE
  5
2F7
330
1F
100
AcDbEntity
  8
CUT
100
AcDbLine
 10
260.1910185055196
 20
250.4172397948982
 30
0.0
 11
260.1910185055196
 21
250.4172397948982
 31
0.0
  0
ARC
  5
2F8
330
1F
100
AcDbEntity
  8
CUT
100
AcDbCircle
 10
260.5798916457784
 20
250.3556254474921
 30
0.0
 40
0.3937240747288188
100
AcDbArc
 50
111.3057599795299
 51
170.9967096040973
  0
LINE
  5
2F9
330
1F
100
AcDbEntity
  8
CUT
100
AcDbLine
 10
261.1635702350356
 20
245.0368449430943
 30
0.0
 11
261.1635702350356
 21
245.0368449430943
 31
0.0
  0
ARC
  5
2FA
330
1F
100
AcDbEntity
  8
CUT
100
AcDbCircle
 10
261.5875017956542
 20
245.20895099443
 30
0.0
 40
0.4575352019188539
100
AcDbArc
 50
201.2461419399994
 51
202.0959733362036
  0
LINE
  5
2FB
330
1F
100
AcDbEntity
  8
CUT
100
AcDbLine
 10
267.079337634494
 20
247.7074646579387
 30
0.0
 11
267.079337634494
 21
247.7074646579387
 31
0.0
  0
ARC
  5
2FC
330
1F
100
AcDbEntity
  8
CUT
100
AcDbCircle
 10
260.1811705274884
 20
246.715337014781
 30
0.0
 40
6.96914820451482
100
AcDbArc
 50
0.0055359567931823
 51
8.184429923141989
  0
LINE
  5
2FD
330
1F
100
AcDbEntity
  8
CUT
100
AcDbLine
 10
260.4368340143201
 20
250.7224403341891
 30
0.0
 11
260.4368340143201
 21
250.7224403341891
 31
0.0
  0
ARC
  5
2FE
330
1F
100
AcDbEntity
  8
CUT
100
AcDbCircle
 10
260.5892303252446
 20
250.3257427171253
 30
0.0
 40
0.4249630983596863
100
AcDbArc
 50
110.0726793025086
 51
111.0148983761187
  0
LINE
  5
2FF
330
1F
100
AcDbEntity
  8
CUT
100
AcDbLine
 10
263.14956046779
 20
244.7429404433203
 30
0.0
 11
263.14956046779
 21
244.7429404433203
 31
0.0
  0
ARC
  5
300
330
1F
100
AcDbEntity
  8
CUT
100
AcDbCircle
 10
262.4526327903581
 20
250.7167484341057
 30
0.0
 40
6.014323744058167
100
AcDbArc
 50
267.2199084638303
 51
276.6542680826201
  0
ARC
  5
301
330
1F
100
AcDbEntity
  8
CUT
100
AcDbCircle
 10
261.932009214902
 20
246.7209409949822
 30
0.0
 40
5.218311813962414
100
AcDbArc
 50
354.7626538215405
 51
359.945863037161
  0
ARC
  5
302
330
1F
100
AcDbEntity
  8
CUT
100
AcDbCircle
 10
263.2048815894369
 20
246.6155766432931
 30
0.0
 40
3.941151804139647
100
AcDbArc
 50
352.1038824689386
 51
354.5988780550149
  0
ARC
  5
303
330
1F
100
AcDbEntity
  8
CUT
100
AcDbCircle
 10
259.985529488908
 20
247.0395840765769
 30
0.0
 40
7.188264076842545
100
AcDbArc
 50
351.9394572090184
 51
352.2814627349681
  0
LINE
  5
304
330
1F
100
AcDbEntity
  8
CUT
100
AcDbLine
 10
266.1291518347428
 20
251.4367716321385
 30
0.0
 11
266.1291518347428
 21
251.4367716321385
 31
0.0
  0
ARC
  5
305
330
1F
100
AcDbEntity
  8
CUT
100
AcDbCircle
 10
265.7365202542095
 20
251.2834067916764
 30
0.0
 40
0.4215214494211425
100
AcDbArc
 50
20.37663796500938
 51
21.33598939871006
  0
LINE
  5
306
330
1F
100
AcDbEntity
  8
CUT
100
AcDbLine
 10
266.8558873601654
 20
245.7135431577502
 30
0.0
 11
266.8558873601654
 21
245.7135431577502
 31
0.0
  0
ARC
  5
307
330
1F
100
AcDbEntity
  8
CUT
100
AcDbCircle
 10
266.6966211995752
 20
246.096344083348
 30
0.0
 40
0.4146109725365429
100
AcDbArc
 50
291.6147732569829
 51
292.5899868366431
  0
ARC
  5
308
330
1F
100
AcDbEntity
  8
CUT
100
AcDbCircle
 10
275.4509697056054
 20
250.5657146080732
 30
0.0
 40
15.31992094760159
100
AcDbArc
 50
195.7803864523188
 51
201.12982371537
  0
ARC
  5
309
330
1F
100
AcDbEntity
  8
CUT
100
AcDbCircle
 10
277.7641092264288
 20
251.2403434047111
 30
0.0
 40
17.72935819956568
100
AcDbArc
 50
188.1403531666062
 51
195.8454809810365
  0
LINE
  5
30A
330
1F
100
AcDbEntity
  8
CUT
100
AcDbLine
 10
267.1017024743933
 20
246.0242847161798
 30
0.0
 11
267.1017024743933
 21
246.0242847161798
 31
0.0
  0
ARC
  5
30B
330
1F
100
AcDbEntity
  8
CUT
100
AcDbCircle
 10
266.698023534662
 20
246.0910208538473
 30
0.0
 40
0.4091581582387599
100
AcDbArc
 50
292.6950243647608
 51
350.6127760351471
  0
LINE
  5
30C
330
1F
100
AcDbEntity
  8
CUT
100
AcDbLine
 10
265.1318047838412
 20
251.7311326500107
 30
0.0
 11
265.1318047838412
 21
251.7311326500107
 31
0.0
  0
ARC
  5
30D
330
1F
100
AcDbEntity
  8
CUT
100
AcDbCircle
 10
265.13975961944
 20
246.7789314205074
 30
0.0
 40
4.95220761851758
100
AcDbArc
 50
82.157301996761
 51
90.09203545926396
  0
LINE
  5
30E
330
1F
100
AcDbEntity
  8
CUT
100
AcDbLine
 10
265.8228705540994
 20
251.6837418762228
 30
0.0
 11
265.8228705540994
 21
251.6837418762228
 31
0.0
  0
ARC
  5
30F
330
1F
100
AcDbEntity
  8
CUT
100
AcDbCircle
 10
265.7596893890932
 20
251.2919842753945
 30
0.0
 40
0.3968197039188656
100
AcDbArc
 50
21.39954394617708
 51
80.83844333967448
  0
ENDSEC
  0
SECTION
  2
OBJECTS
  0
DICTIONARY
  5
C
330
0
100
AcDbDictionary
281
     1
  3
ACAD_CIP_PREVIOUS_PRODUCT_INFO
350
29F
  3
ACAD_COLOR
350
296
  3
ACAD_DETAILVIEWSTYLE
350
292
  3
ACAD_GROUP
350
D
  3
ACAD_IMAGE_DICT
350
D3
  3
ACAD_IMAGE_VARS
350
29D
  3
ACAD_LAYOUT
350
1A
  3
ACAD_MATERIAL
350
43
  3
ACAD_MLEADERSTYLE
350
6B
  3
ACAD_MLINESTYLE
350
17
  3
ACAD_PLOTSETTINGS
350
19
  3
ACAD_PLOTSTYLENAME
350
E
  3
ACAD_SCALELIST
350
47
  3
ACAD_SECTIONVIEWSTYLE
350
293
  3
ACAD_TABLESTYLE
350
69
  3
ACAD_VISUALSTYLE
350
2A
  3
ACDB_RECOMPOSE_DATA
350
33B
  3
AcDbVariableDictionary
350
24F
  0
DICTIONARY
  5
31E
330
10
100
AcDbDictionary
280
     1
281
     1
  3
ADSK_XREC_LAYER_RECONCILED
360
31F
  0
DICTIONARY
  5
320
330
310
100
AcDbDictionary
280
     1
281
     1
  3
ADSK_XREC_LAYER_RECONCILED
360
321
  0
DICTIONARY
  5
322
330
311
100
AcDbDictionary
280
     1
281
     1
  3
ADSK_XREC_LAYER_RECONCILED
360
323
  0
DICTIONARY
  5
324
330
312
100
AcDbDictionary
280
     1
281
     1
  3
ADSK_XREC_LAYER_RECONCILED
360
325
  0
DICTIONARY
  5
326
330
314
100
AcDbDictionary
280
     1
281
     1
  3
ADSK_XREC_LAYER_RECONCILED
360
327
  0
DICTIONARY
  5
328
330
315
100
AcDbDictionary
280
     1
281
     1
  3
ADSK_XREC_LAYER_RECONCILED
360
329
  0
DICTIONARY
  5
32A
330
317
100
AcDbDictionary
280
     1
281
     1
  3
ADSK_XREC_LAYER_RECONCILED
360
32B
  0
DICTIONARY
  5
32C
330
318
100
AcDbDictionary
280
     1
281
     1
  3
ADSK_XREC_LAYER_RECONCILED
360
32D
  0
DICTIONARY
  5
32E
330
319
100
AcDbDictionary
280
     1
281
     1
  3
ADSK_XREC_LAYER_RECONCILED
360
32F
  0
DICTIONARY
  5
330
330
31A
100
AcDbDictionary
280
     1
281
     1
  3
ADSK_XREC_LAYER_RECONCILED
360
331
  0
DICTIONARY
  5
332
330
31B
100
AcDbDictionary
280
     1
281
     1
  3
ADSK_XREC_LAYER_RECONCILED
360
333
  0
DICTIONARY
  5
334
330
31C
100
AcDbDictionary
280
     1
281
     1
  3
ADSK_XREC_LAYER_RECONCILED
360
335
  0
DICTIONARY
  5
2A0
330
1F
100
AcDbDictionary
280
     1
281
     1
  3
ACAD_SORTENTS
360
2A1
  0
XRECORD
  5
29F
102
{ACAD_REACTORS
330
C
102
}
330
C
100
AcDbXrecord
280
     1
300
ACD
300
2019
300
87084ACD_2019_0F
  0
DICTIONARY
  5
296
102
{ACAD_REACTORS
330
C
102
}
330
C
100
AcDbDictionary
281
     1
  0
DICTIONARY
  5
292
102
{ACAD_REACTORS
330
C
102
}
330
C
100
AcDbDictionary
281
     1
  3
Metric50
350
298
  0
DICTIONARY
  5
D
102
{ACAD_REACTORS
330
C
102
}
330
C
100
AcDbDictionary
281
     1
  3
NULOVY_BOD
350
31D
  0
DICTIONARY
  5
D3
102
{ACAD_REACTORS
330
C
102
}
330
C
100
AcDbDictionary
281
     1
  3
202758871d50001_00_DormerPramet_jpg
350
D4
  0
RASTERVARIABLES
  5
29D
102
{ACAD_REACTORS
330
C
102
}
330
C
100
AcDbRasterVariables
 90
        0
 70
     1
 71
     1
 72
     1
  0
DICTIONARY
  5
1A
102
{ACAD_REACTORS
330
C
102
}
330
C
100
AcDbDictionary
281
     1
  3
Layout1
350
1E
  3
Layout2
350
26
  3
Model
350
22
  0
DICTIONARY
  5
43
102
{ACAD_REACTORS
330
C
102
}
330
C
100
AcDbDictionary
281
     1
  3
ByBlock
350
45
  3
ByLayer
350
44
  3
Global
350
46
  0
DICTIONARY
  5
6B
102
{ACAD_REACTORS
330
C
102
}
330
C
100
AcDbDictionary
281
     1
  3
Standard
350
6C
  0
DICTIONARY
  5
17
102
{ACAD_REACTORS
330
C
102
}
330
C
100
AcDbDictionary
281
     1
  3
Standard
350
18
  0
DICTIONARY
  5
19
102
{ACAD_REACTORS
330
C
102
}
330
C
100
AcDbDictionary
281
     1
  0
ACDBDICTIONARYWDFLT
  5
E
102
{ACAD_REACTORS
330
C
102
}
330
C
100
AcDbDictionary
281
     1
  3
Normal
350
F
100
AcDbDictionaryWithDefault
340
F
  0
DICTIONARY
  5
47
102
{ACAD_REACTORS
330
C
102
}
330
C
100
AcDbDictionary
281
     1
  3
A0
350
48
  3
A1
350
49
  3
A2
350
4A
  3
A3
350
4B
  3
A4
350
4C
  3
A5
350
4D
  3
A6
350
4E
  3
A7
350
4F
  3
A8
350
50
  3
A9
350
51
  3
B0
350
52
  3
B1
350
53
  3
B2
350
54
  3
B3
350
55
  3
B4
350
56
  3
B5
350
57
  3
B6
350
58
  3
B7
350
59
  3
B8
350
5A
  3
B9
350
5B
  3
C0
350
5C
  3
C1
350
5D
  3
C2
350
5E
  3
C3
350
5F
  3
C4
350
60
  3
C5
350
61
  3
C6
350
62
  3
C7
350
63
  3
C8
350
64
  3
C9
350
65
  3
D0
350
66
  3
D1
350
67
  3
D2
350
68
  0
DICTIONARY
  5
293
102
{ACAD_REACTORS
330
C
102
}
330
C
100
AcDbDictionary
281
     1
  3
Metric50
350
297
  0
DICTIONARY
  5
69
102
{ACAD_REACTORS
330
C
102
}
330
C
100
AcDbDictionary
281
     1
  3
Standard
350
6A
  0
DICTIONARY
  5
2A
102
{ACAD_REACTORS
330
C
102
}
330
C
100
AcDbDictionary
281
     1
  3
2dWireframe
350
2F
  3
Basic
350
32
  3
Brighten
350
36
  3
ColorChange
350
3A
  3
Conceptual
350
34
  3
Dim
350
35
  3
EdgeColorOff
350
3D
  3
Facepattern
350
39
  3
Flat
350
2B
  3
FlatWithEdges
350
2C
  3
Gouraud
350
2D
  3
GouraudWithEdges
350
2E
  3
Hidden
350
31
  3
JitterOff
350
3B
  3
Linepattern
350
38
  3
OverhangOff
350
3C
  3
Realistic
350
33
  3
Shaded
350
42
  3
Shaded with edges
350
41
  3
Shades of Gray
350
3E
  3
Sketchy
350
3F
  3
Thicken
350
37
  3
Wireframe
350
30
  3
X-Ray
350
40
  0
XRECORD
  5
33B
102
{ACAD_REACTORS
330
C
102
}
330
C
100
AcDbXrecord
280
     1
 90
        1
330
6A
  0
DICTIONARY
  5
24F
102
{ACAD_REACTORS
330
C
102
}
330
C
100
AcDbDictionary
281
     1
  3
CANNOSCALE
350
250
  3
CMLEADERSTYLE
350
291
  3
CTABLESTYLE
350
290
  3
CVIEWDETAILSTYLE
350
336
  3
CVIEWSECTIONSTYLE
350
337
  3
MSLTSCALE
350
251
  3
XCLIPFRAME
350
338
  0
XRECORD
  5
31F
102
{ACAD_REACTORS
330
31E
102
}
330
31E
100
AcDbXrecord
280
     1
290
     1
  0
XRECORD
  5
321
102
{ACAD_REACTORS
330
320
102
}
330
320
100
AcDbXrecord
280
     1
290
     1
  0
XRECORD
  5
323
102
{ACAD_REACTORS
330
322
102
}
330
322
100
AcDbXrecord
280
     1
290
     1
  0
XRECORD
  5
325
102
{ACAD_REACTORS
330
324
102
}
330
324
100
AcDbXrecord
280
     1
290
     1
  0
XRECORD
  5
327
102
{ACAD_REACTORS
330
326
102
}
330
326
100
AcDbXrecord
280
     1
290
     1
  0
XRECORD
  5
329
102
{ACAD_REACTORS
330
328
102
}
330
328
100
AcDbXrecord
280
     1
290
     1
  0
XRECORD
  5
32B
102
{ACAD_REACTORS
330
32A
102
}
330
32A
100
AcDbXrecord
280
     1
290
     1
  0
XRECORD
  5
32D
102
{ACAD_REACTORS
330
32C
102
}
330
32C
100
AcDbXrecord
280
     1
290
     1
  0
XRECORD
  5
32F
102
{ACAD_REACTORS
330
32E
102
}
330
32E
100
AcDbXrecord
280
     1
290
     1
  0
XRECORD
  5
331
102
{ACAD_REACTORS
330
330
102
}
330
330
100
AcDbXrecord
280
     1
290
     1
  0
XRECORD
  5
333
102
{ACAD_REACTORS
330
332
102
}
330
332
100
AcDbXrecord
280
     1
290
     1
  0
XRECORD
  5
335
102
{ACAD_REACTORS
330
334
102
}
330
334
100
AcDbXrecord
280
     1
290
     1
  0
SORTENTSTABLE
  5
2A1
102
{ACAD_REACTORS
330
2A0
102
}
330
2A0
100
AcDbSortentsTable
330
1F
331
2A2
  5
2A9
331
2A3
  5
2AA
331
2A4
  5
2AB
331
2A5
  5
2AC
331
2A6
  5
2AD
331
2A7
  5
2BA
331
2A8
  5
2BB
331
2A9
  5
2BC
331
2AA
  5
2BD
331
2AB
  5
2BE
331
2AC
  5
2BF
331
2AD
  5
2C0
331
2AE
  5
2C1
331
2AF
  5
2C2
331
2B0
  5
2C3
331
2B1
  5
2C4
331
2B2
  5
2C5
331
2B3
  5
1D9
331
2B4
  5
1F1
331
2B5
  5
2A2
331
2B6
  5
2A3
331
2B7
  5
2A4
331
2B8
  5
2A7
331
2B9
  5
2A8
331
2BA
  5
2AE
331
2BB
  5
2AF
331
2BC
  5
2B0
331
2BD
  5
2B1
331
2BE
  5
2B2
331
2BF
  5
2B3
331
2C0
  5
2B4
331
2C1
  5
2B5
331
2C2
  5
2B6
331
2C3
  5
2B7
331
2C4
  5
2B8
331
2C5
  5
2B9
  0
ACDBDETAILVIEWSTYLE
  5
298
102
{ACAD_XDICTIONARY
360
36F
102
}
102
{ACAD_REACTORS
330
292
102
}
330
292
100
AcDbModelDocViewStyle
 70
     0
  3
Metric50
290
     0
100
AcDbDetailViewStyle
 70
     0
 71
     0
 90
        3
 71
     1
340
11
 62
   256
 40
5.0
340
0
 62
   256
 40
5.0
300

 40
0.0
280
     1
 71
     2
340
16
 90
       25
 62
   256
 71
     3
340
11
 62
   256
 40
5.0
 90
        0
 40
15.0
 90
        1
300
%<\AcVar ViewDetailId>% (%<\AcVar ViewScale \f "%sn">%)
 71
     4
340
16
 90
       25
 62
   256
340
16
 90
       25
 62
   256
280
     0
  0
GROUP
  5
31D
102
{ACAD_REACTORS
330
D
102
}
330
D
100
AcDbGroup
300

 70
     0
 71
     1
340
73
  0
IMAGEDEF
  5
D4
102
{ACAD_REACTORS
330
D3
330
D7
102
}
330
D3
100
AcDbRasterImageDef
 90
        0
  1
R:\202758871d50001_00_DormerPramet.jpg
 10
2089.0
 20
531.0
 11
0.0004786979415989
 21
0.0004786979415989
280
     1
281
     0
  0
LAYOUT
  5
1E
102
{ACAD_REACTORS
330
1A
102
}
330
1A
100
AcDbPlotSettings
  1

  2
none_device
  4

  6

 40
0.0
 41
0.0
 42
0.0
 43
0.0
 44
0.0
 45
0.0
 46
0.0
 47
0.0
 48
0.0
 49
0.0
140
0.0
141
0.0
142
1.0
143
1.0
 70
   688
 72
     0
 73
     0
 74
     5
  7

 75
    16
147
1.0
 76
     0
 77
     2
 78
   300
148
0.0
149
0.0
100
AcDbLayout
  1
Layout1
 70
     1
 71
     1
 10
-0.5
 20
-0.5
 11
5.0
 21
5.0
 12
0.0
 22
0.0
 32
0.0
 14
-0.5
 24
-0.5
 34
-0.5
 15
5.0
 25
5.0
 35
5.0
146
0.0
 13
0.0
 23
0.0
 33
0.0
 16
1.0
 26
0.0
 36
0.0
 17
0.0
 27
1.0
 37
0.0
 76
     0
330
1B
  0
LAYOUT
  5
26
102
{ACAD_REACTORS
330
1A
102
}
330
1A
100
AcDbPlotSettings
  1

  2
none_device
  4

  6

 40
0.0
 41
0.0
 42
0.0
 43
0.0
 44
0.0
 45
0.0
 46
0.0
 47
0.0
 48
0.0
 49
0.0
140
0.0
141
0.0
142
1.0
143
1.0
 70
   688
 72
     0
 73
     0
 74
     5
  7

 75
    16
147
1.0
 76
     0
 77
     2
 78
   300
148
0.0
149
0.0
100
AcDbLayout
  1
Layout2
 70
     1
 71
     2
 10
0.0
 20
0.0
 11
0.0
 21
0.0
 12
0.0
 22
0.0
 32
0.0
 14
0.0
 24
0.0
 34
0.0
 15
0.0
 25
0.0
 35
0.0
146
0.0
 13
0.0
 23
0.0
 33
0.0
 16
1.0
 26
0.0
 36
0.0
 17
0.0
 27
1.0
 37
0.0
 76
     0
330
23
  0
LAYOUT
  5
22
102
{ACAD_REACTORS
330
1A
102
}
330
1A
100
AcDbPlotSettings
  1

  2
none_device
  4
Letter_(8.50_x_11.00_Inches)
  6

 40
6.349999999999999
 41
6.349999999999999
 42
6.350005
 43
6.350005
 44
215.9
 45
279.4
 46
0.0
 47
0.0
 48
0.0
 49
0.0
140
0.0
141
0.0
142
1.0
143
1.0
 70
  1712
 72
     0
 73
     0
 74
     0
  7

 75
     0
147
1.0
 76
     0
 77
     2
 78
   300
148
0.0
149
0.0
100
AcDbLayout
  1
Model
 70
     1
 71
     0
 10
-0.5
 20
-0.5
 11
5.0
 21
5.0
 12
0.0
 22
0.0
 32
0.0
 14
-0.5
 24
-0.5
 34
-0.5
 15
5.0
 25
5.0
 35
5.0
146
0.0
 13
0.0
 23
0.0
 33
0.0
 16
1.0
 26
0.0
 36
0.0
 17
0.0
 27
1.0
 37
0.0
 76
     0
330
1F
331
29
  0
MATERIAL
  5
45
102
{ACAD_XDICTIONARY
360
285
102
}
102
{ACAD_REACTORS
330
43
102
}
330
43
100
AcDbMaterial
  1
ByBlock
  0
MATERIAL
  5
44
102
{ACAD_XDICTIONARY
360
283
102
}
102
{ACAD_REACTORS
330
43
102
}
330
43
100
AcDbMaterial
  1
ByLayer
  0
MATERIAL
  5
46
102
{ACAD_XDICTIONARY
360
287
102
}
102
{ACAD_REACTORS
330
43
102
}
330
43
100
AcDbMaterial
  1
Global
  0
MLEADERSTYLE
  5
6C
102
{ACAD_REACTORS
330
6B
102
}
330
6B
100
AcDbMLeaderStyle
170
     2
171
     1
172
     0
 90
        2
 40
0.0
 41
0.0
173
     1
 91
-1056964608
340
14
 92
       -2
290
     1
 42
0.09
291
     1
 43
0.36
  3
Standard
 44
0.18
300

342
11
174
     1
178
     6
175
     1
176
     0
 93
-1056964608
 45
0.18
292
     0
297
     0
 46
0.18
 94
-1056964608
 47
1.0
 49
1.0
140
1.0
293
     1
141
0.0
294
     1
177
     0
142
1.0
295
     0
296
     0
143
0.125
1001
ACAD_MLEADERVER
1070
     2
  0
MLINESTYLE
  5
18
102
{ACAD_REACTORS
330
17
102
}
330
17
100
AcDbMlineStyle
  2
STANDARD
 70
     0
  3

 62
   256
 51
90.0
 52
90.0
 71
     2
 49
0.5
 62
   256
  6
BYLAYER
 49
-0.5
 62
   256
  6
BYLAYER
  0
ACDBPLACEHOLDER
  5
F
102
{ACAD_REACTORS
330
E
102
}
330
E
  0
SCALE
  5
48
102
{ACAD_REACTORS
330
47
102
}
330
47
100
AcDbScale
 70
     0
300
1:1
140
1.0
141
1.0
290
     1
  0
SCALE
  5
49
102
{ACAD_REACTORS
330
47
102
}
330
47
100
AcDbScale
 70
     0
300
1:2
140
1.0
141
2.0
290
     0
  0
SCALE
  5
4A
102
{ACAD_REACTORS
330
47
102
}
330
47
100
AcDbScale
 70
     0
300
1:4
140
1.0
141
4.0
290
     0
  0
SCALE
  5
4B
102
{ACAD_REACTORS
330
47
102
}
330
47
100
AcDbScale
 70
     0
300
1:5
140
1.0
141
5.0
290
     0
  0
SCALE
  5
4C
102
{ACAD_REACTORS
330
47
102
}
330
47
100
AcDbScale
 70
     0
300
1:8
140
1.0
141
8.0
290
     0
  0
SCALE
  5
4D
102
{ACAD_REACTORS
330
47
102
}
330
47
100
AcDbScale
 70
     0
300
1:10
140
1.0
141
10.0
290
     0
  0
SCALE
  5
4E
102
{ACAD_REACTORS
330
47
102
}
330
47
100
AcDbScale
 70
     0
300
1:16
140
1.0
141
16.0
290
     0
  0
SCALE
  5
4F
102
{ACAD_REACTORS
330
47
102
}
330
47
100
AcDbScale
 70
     0
300
1:20
140
1.0
141
20.0
290
     0
  0
SCALE
  5
50
102
{ACAD_REACTORS
330
47
102
}
330
47
100
AcDbScale
 70
     0
300
1:30
140
1.0
141
30.0
290
     0
  0
SCALE
  5
51
102
{ACAD_REACTORS
330
47
102
}
330
47
100
AcDbScale
 70
     0
300
1:40
140
1.0
141
40.0
290
     0
  0
SCALE
  5
52
102
{ACAD_REACTORS
330
47
102
}
330
47
100
AcDbScale
 70
     0
300
1:50
140
1.0
141
50.0
290
     0
  0
SCALE
  5
53
102
{ACAD_REACTORS
330
47
102
}
330
47
100
AcDbScale
 70
     0
300
1:100
140
1.0
141
100.0
290
     0
  0
SCALE
  5
54
102
{ACAD_REACTORS
330
47
102
}
330
47
100
AcDbScale
 70
     0
300
2:1
140
2.0
141
1.0
290
     0
  0
SCALE
  5
55
102
{ACAD_REACTORS
330
47
102
}
330
47
100
AcDbScale
 70
     0
300
4:1
140
4.0
141
1.0
290
     0
  0
SCALE
  5
56
102
{ACAD_REACTORS
330
47
102
}
330
47
100
AcDbScale
 70
     0
300
8:1
140
8.0
141
1.0
290
     0
  0
SCALE
  5
57
102
{ACAD_REACTORS
330
47
102
}
330
47
100
AcDbScale
 70
     0
300
10:1
140
10.0
141
1.0
290
     0
  0
SCALE
  5
58
102
{ACAD_REACTORS
330
47
102
}
330
47
100
AcDbScale
 70
     0
300
100:1
140
100.0
141
1.0
290
     0
  0
SCALE
  5
59
102
{ACAD_REACTORS
330
47
102
}
330
47
100
AcDbScale
 70
     0
300
1/128" = 1'-0"
140
0.007812
141
12.0
290
     0
  0
SCALE
  5
5A
102
{ACAD_REACTORS
330
47
102
}
330
47
100
AcDbScale
 70
     0
300
1/64" = 1'-0"
140
0.015625
141
12.0
290
     0
  0
SCALE
  5
5B
102
{ACAD_REACTORS
330
47
102
}
330
47
100
AcDbScale
 70
     0
300
1/32" = 1'-0"
140
0.03125
141
12.0
290
     0
  0
SCALE
  5
5C
102
{ACAD_REACTORS
330
47
102
}
330
47
100
AcDbScale
 70
     0
300
1/16" = 1'-0"
140
0.0625
141
12.0
290
     0
  0
SCALE
  5
5D
102
{ACAD_REACTORS
330
47
102
}
330
47
100
AcDbScale
 70
     0
300
3/32" = 1'-0"
140
0.09375
141
12.0
290
     0
  0
SCALE
  5
5E
102
{ACAD_REACTORS
330
47
102
}
330
47
100
AcDbScale
 70
     0
300
1/8" = 1'-0"
140
0.125
141
12.0
290
     0
  0
SCALE
  5
5F
102
{ACAD_REACTORS
330
47
102
}
330
47
100
AcDbScale
 70
     0
300
3/16" = 1'-0"
140
0.1875
141
12.0
290
     0
  0
SCALE
  5
60
102
{ACAD_REACTORS
330
47
102
}
330
47
100
AcDbScale
 70
     0
300
1/4" = 1'-0"
140
0.25
141
12.0
290
     0
  0
SCALE
  5
61
102
{ACAD_REACTORS
330
47
102
}
330
47
100
AcDbScale
 70
     0
300
3/8" = 1'-0"
140
0.375
141
12.0
290
     0
  0
SCALE
  5
62
102
{ACAD_REACTORS
330
47
102
}
330
47
100
AcDbScale
 70
     0
300
1/2" = 1'-0"
140
0.5
141
12.0
290
     0
  0
SCALE
  5
63
102
{ACAD_REACTORS
330
47
102
}
330
47
100
AcDbScale
 70
     0
300
3/4" = 1'-0"
140
0.75
141
12.0
290
     0
  0
SCALE
  5
64
102
{ACAD_REACTORS
330
47
102
}
330
47
100
AcDbScale
 70
     0
300
1" = 1'-0"
140
1.0
141
12.0
290
     0
  0
SCALE
  5
65
102
{ACAD_REACTORS
330
47
102
}
330
47
100
AcDbScale
 70
     0
300
1-1/2" = 1'-0"
140
1.5
141
12.0
290
     0
  0
SCALE
  5
66
102
{ACAD_REACTORS
330
47
102
}
330
47
100
AcDbScale
 70
     0
300
3" = 1'-0"
140
3.0
141
12.0
290
     0
  0
SCALE
  5
67
102
{ACAD_REACTORS
330
47
102
}
330
47
100
AcDbScale
 70
     0
300
6" = 1'-0"
140
6.0
141
12.0
290
     0
  0
SCALE
  5
68
102
{ACAD_REACTORS
330
47
102
}
330
47
100
AcDbScale
 70
     0
300
1'-0" = 1'-0"
140
12.0
141
12.0
290
     0
  0
ACDBSECTIONVIEWSTYLE
  5
297
102
{ACAD_XDICTIONARY
360
36D
102
}
102
{ACAD_REACTORS
330
293
102
}
330
293
100
AcDbModelDocViewStyle
 70
     0
  3
Metric50
290
     0
100
AcDbSectionViewStyle
 70
     0
 71
     0
 90
      102
 71
     1
340
11
 62
   256
 40
5.0
340
0
340
0
 62
   256
 40
5.0
300
I, O, Q, S, X, Z
 40
10.0
 90
        0
 40
2.5
 90
        0
 71
     2
340
16
 90
       25
 62
   256
340
16
 90
       50
 62
   256
 40
5.0
 40
2.5
 40
5.0
 71
     3
340
11
 62
   256
 40
5.0
 90
        0
 40
15.0
 90
        1
300
%<\AcVar ViewSectionStartId>%-%<\AcVar ViewSectionEndId>% (%<\AcVar ViewScale \f "%sn">%)
 71
     4
 62
   256
 62
   257
300
ANSI31
 40
1.0
 90
        0
290
     0
290
     0
 90
        6
 40
0.0
 40
1.570796326794896
 40
0.2617993877991494
 40
1.308996938995747
 40
-0.2617993877991494
 40
1.832595714594046
  0
TABLESTYLE
  5
6A
102
{ACAD_XDICTIONARY
360
289
102
}
102
{ACAD_REACTORS
330
69
102
}
330
69
100
AcDbTableStyle
  3
Standard
 70
     0
 71
     0
 40
0.06
 41
0.06
280
     0
281
     0
  7
Standard
140
0.18
170
     2
 62
     0
 63
     7
283
     0
274
    -2
284
     1
 64
     0
275
    -2
285
     1
 65
     0
276
    -2
286
     1
 66
     0
277
    -2
287
     1
 67
     0
278
    -2
288
     1
 68
     0
279
    -2
289
     1
 69
     0
  7
Standard
140
0.25
170
     5
 62
     0
 63
     7
283
     0
274
    -2
284
     1
 64
     0
275
    -2
285
     1
 65
     0
276
    -2
286
     1
 66
     0
277
    -2
287
     1
 67
     0
278
    -2
288
     1
 68
     0
279
    -2
289
     1
 69
     0
  7
Standard
140
0.18
170
     5
 62
     0
 63
     7
283
     0
274
    -2
284
     1
 64
     0
275
    -2
285
     1
 65
     0
276
    -2
286
     1
 66
     0
277
    -2
287
     1
 67
     0
278
    -2
288
     1
 68
     0
279
    -2
289
     1
 69
     0
  0
VISUALSTYLE
  5
2F
102
{ACAD_XDICTIONARY
360
344
102
}
102
{ACAD_REACTORS
330
2A
102
}
330
2A
100
AcDbVisualStyle
  2

 70
     4
 71
     0
 72
     2
 73
     0
 90
        0
 40
-0.6
 41
-30.0
 62
     5
 63
     7
421
 16777215
 74
     1
 91
        4
 64
     7
 65
   257
 75
     1
175
     1
 42
1.0
 92
        0
 66
   257
 43
1.0
 76
     1
 77
     6
 78
     2
 67
     7
 79
     5
170
     0
171
     0
290
     0
174
     0
 93
        1
 44
0.0
173
     0
291
     0
 45
0.0
1001
ACAD
1000
AcDbSavedByObjectVersion
1070
     0
  0
VISUALSTYLE
  5
32
102
{ACAD_XDICTIONARY
360
34A
102
}
102
{ACAD_REACTORS
330
2A
102
}
330
2A
100
AcDbVisualStyle
  2

 70
     7
 71
     1
 72
     0
 73
     1
 90
        0
 40
-0.6
 41
-30.0
 62
     5
 63
     7
421
 16777215
 74
     0
 91
        4
 64
     7
 65
   257
 75
     1
175
     1
 42
1.0
 92
        8
 66
     7
 43
1.0
 76
     1
 77
     6
 78
     2
 67
     7
 79
     5
170
     0
171
     0
290
     0
174
     0
 93
        1
 44
0.0
173
     0
291
     1
 45
0.0
1001
ACAD
1000
AcDbSavedByObjectVersion
1070
     0
  0
VISUALSTYLE
  5
36
102
{ACAD_XDICTIONARY
360
352
102
}
102
{ACAD_REACTORS
330
2A
102
}
330
2A
100
AcDbVisualStyle
  2

 70
    12
 71
     2
 72
     2
 73
     0
 90
        0
 40
-0.6
 41
-30.0
 62
     5
 63
     7
421
 16777215
 74
     1
 91
        4
 64
     7
 65
   257
 75
     1
175
     1
 42
1.0
 92
        8
 66
     7
 43
1.0
 76
     1
 77
     6
 78
     2
 67
     7
 79
     5
170
     0
171
     0
290
     0
174
     0
 93
        1
 44
50.0
173
     0
291
     1
 45
0.0
1001
ACAD
1000
AcDbSavedByObjectVersion
1070
     0
  0
VISUALSTYLE
  5
3A
102
{ACAD_XDICTIONARY
360
35A
102
}
102
{ACAD_REACTORS
330
2A
102
}
330
2A
100
AcDbVisualStyle
  2

 70
    16
 71
     2
 72
     2
 73
     3
 90
        0
 40
-0.6
 41
-30.0
 62
     5
 63
     8
421
  8421504
 74
     1
 91
        4
 64
     7
 65
   257
 75
     1
175
     1
 42
1.0
 92
        8
 66
     8
424
  8421504
 43
1.0
 76
     1
 77
     6
 78
     2
 67
     7
 79
     5
170
     0
171
     0
290
     0
174
     0
 93
        1
 44
0.0
173
     0
291
     1
 45
0.0
1001
ACAD
1000
AcDbSavedByObjectVersion
1070
     0
  0
VISUALSTYLE
  5
34
102
{ACAD_XDICTIONARY
360
34E
102
}
102
{ACAD_REACTORS
330
2A
102
}
330
2A
100
AcDbVisualStyle
  2

 70
     9
 71
     3
 72
     2
 73
     0
 90
        0
 40
-0.6
 41
-30.0
 62
     5
 63
     7
421
 16777215
 74
     2
 91
        2
 64
     7
 65
   257
 75
     1
175
     1
 42
179.0
 92
        8
 66
     7
 43
1.0
 76
     1
 77
     6
 78
     2
 67
     7
 79
     3
170
     0
171
     0
290
     0
174
     0
 93
        1
 44
0.0
173
     0
291
     0
 45
0.0
1001
ACAD
1000
AcDbSavedByObjectVersion
1070
     0
  0
VISUALSTYLE
  5
35
102
{ACAD_XDICTIONARY
360
350
102
}
102
{ACAD_REACTORS
330
2A
102
}
330
2A
100
AcDbVisualStyle
  2

 70
    11
 71
     2
 72
     2
 73
     0
 90
        0
 40
-0.6
 41
-30.0
 62
     5
 63
     7
421
 16777215
 74
     1
 91
        4
 64
     7
 65
   257
 75
     1
175
     1
 42
1.0
 92
        8
 66
     7
 43
1.0
 76
     1
 77
     6
 78
     2
 67
     7
 79
     5
170
     0
171
     0
290
     0
174
     0
 93
        1
 44
-50.0
173
     0
291
     1
 45
0.0
1001
ACAD
1000
AcDbSavedByObjectVersion
1070
     0
  0
VISUALSTYLE
  5
3D
102
{ACAD_XDICTIONARY
360
360
102
}
102
{ACAD_REACTORS
330
2A
102
}
330
2A
100
AcDbVisualStyle
  2

 70
    22
 71
     2
 72
     2
 73
     0
 90
        0
 40
-0.6
 41
-30.0
 62
     5
 63
     7
421
 16777215
 74
     1
 91
        4
 64
     7
 65
   257
 75
     1
175
     1
 42
1.0
 92
        8
 66
     7
 43
1.0
 76
     1
 77
     6
 78
     2
 67
     7
 79
     5
170
     0
171
     0
290
     0
174
     0
 93
        1
 44
0.0
173
     0
291
     1
 45
0.0
1001
ACAD
1000
AcDbSavedByObjectVersion
1070
     0
  0
VISUALSTYLE
  5
39
102
{ACAD_XDICTIONARY
360
358
102
}
102
{ACAD_REACTORS
330
2A
102
}
330
2A
100
AcDbVisualStyle
  2

 70
    15
 71
     2
 72
     2
 73
     0
 90
        0
 40
-0.6
 41
-30.0
 62
     5
 63
     7
421
 16777215
 74
     1
 91
        4
 64
     7
 65
   257
 75
     1
175
     1
 42
1.0
 92
        8
 66
     7
 43
1.0
 76
     1
 77
     6
 78
     2
 67
     7
 79
     5
170
     0
171
     0
290
     0
174
     0
 93
        1
 44
0.0
173
     0
291
     1
 45
0.0
1001
ACAD
1000
AcDbSavedByObjectVersion
1070
     0
  0
VISUALSTYLE
  5
2B
102
{ACAD_XDICTIONARY
360
33C
102
}
102
{ACAD_REACTORS
330
2A
102
}
330
2A
100
AcDbVisualStyle
  2

 70
     0
 71
     2
 72
     1
 73
     1
 90
        2
 40
-0.6
 41
30.0
 62
     5
 63
     7
421
 16777215
 74
     0
 91
        0
 64
     7
 65
   257
 75
     1
175
     1
 42
1.0
 92
        8
 66
     7
 43
1.0
 76
     1
 77
     6
 78
     2
 67
     7
 79
     5
170
     0
171
     0
290
     0
174
     0
 93
       13
 44
0.0
173
     0
291
     1
 45
0.0
1001
ACAD
1000
AcDbSavedByObjectVersion
1070
     0
  0
VISUALSTYLE
  5
2C
102
{ACAD_XDICTIONARY
360
33E
102
}
102
{ACAD_REACTORS
330
2A
102
}
330
2A
100
AcDbVisualStyle
  2

 70
     1
 71
     2
 72
     1
 73
     1
 90
        2
 40
-0.6
 41
30.0
 62
     5
 63
     7
421
 16777215
 74
     1
 91
        0
 64
     7
 65
   257
 75
     1
175
     1
 42
1.0
 92
        0
 66
   257
 43
1.0
 76
     1
 77
     6
 78
     2
 67
     7
 79
     5
170
     0
171
     0
290
     0
174
     0
 93
       13
 44
0.0
173
     0
291
     1
 45
0.0
1001
ACAD
1000
AcDbSavedByObjectVersion
1070
     0
  0
VISUALSTYLE
  5
2D
102
{ACAD_XDICTIONARY
360
340
102
}
102
{ACAD_REACTORS
330
2A
102
}
330
2A
100
AcDbVisualStyle
  2

 70
     2
 71
     2
 72
     2
 73
     1
 90
        2
 40
-0.6
 41
30.0
 62
     5
 63
     7
421
 16777215
 74
     0
 91
        0
 64
     7
 65
   257
 75
     1
175
     1
 42
1.0
 92
        0
 66
     7
 43
1.0
 76
     1
 77
     6
 78
     2
 67
     7
 79
     5
170
     0
171
     0
290
     0
174
     0
 93
       13
 44
0.0
173
     0
291
     1
 45
0.0
1001
ACAD
1000
AcDbSavedByObjectVersion
1070
     0
  0
VISUALSTYLE
  5
2E
102
{ACAD_XDICTIONARY
360
342
102
}
102
{ACAD_REACTORS
330
2A
102
}
330
2A
100
AcDbVisualStyle
  2

 70
     3
 71
     2
 72
     2
 73
     1
 90
        2
 40
-0.6
 41
30.0
 62
     5
 63
     7
421
 16777215
 74
     1
 91
        0
 64
     7
 65
   257
 75
     1
175
     1
 42
1.0
 92
        0
 66
   257
 43
1.0
 76
     1
 77
     6
 78
     2
 67
     7
 79
     5
170
     0
171
     0
290
     0
174
     0
 93
       13
 44
0.0
173
     0
291
     1
 45
0.0
1001
ACAD
1000
AcDbSavedByObjectVersion
1070
     0
  0
VISUALSTYLE
  5
31
102
{ACAD_XDICTIONARY
360
348
102
}
102
{ACAD_REACTORS
330
2A
102
}
330
2A
100
AcDbVisualStyle
  2

 70
     6
 71
     1
 72
     2
 73
     2
 90
        0
 40
-0.6
 41
-30.0
 62
     5
 63
     7
421
 16777215
 74
     2
 91
        2
 64
     7
 65
   257
 75
     2
175
     1
 42
40.0
 92
        0
 66
   257
 43
1.0
 76
     1
 77
     6
 78
     2
 67
     7
 79
     3
170
     0
171
     0
290
     0
174
     0
 93
        1
 44
0.0
173
     0
291
     0
 45
0.0
1001
ACAD
1000
AcDbSavedByObjectVersion
1070
     0
  0
VISUALSTYLE
  5
3B
102
{ACAD_XDICTIONARY
360
35C
102
}
102
{ACAD_REACTORS
330
2A
102
}
330
2A
100
AcDbVisualStyle
  2

 70
    20
 71
     2
 72
     2
 73
     0
 90
        0
 40
-0.6
 41
-30.0
 62
     5
 63
     7
421
 16777215
 74
     1
 91
        4
 64
     7
 65
   257
 75
     1
175
     1
 42
1.0
 92
       10
 66
     7
 43
1.0
 76
     1
 77
     6
 78
     2
 67
     7
 79
     5
170
     0
171
     0
290
     0
174
     0
 93
        1
 44
0.0
173
     0
291
     1
 45
0.0
1001
ACAD
1000
AcDbSavedByObjectVersion
1070
     0
  0
VISUALSTYLE
  5
38
102
{ACAD_XDICTIONARY
360
356
102
}
102
{ACAD_REACTORS
330
2A
102
}
330
2A
100
AcDbVisualStyle
  2

 70
    14
 71
     2
 72
     2
 73
     0
 90
        0
 40
-0.6
 41
-30.0
 62
     5
 63
     7
421
 16777215
 74
     1
 91
        4
 64
     7
 65
   257
 75
     7
175
     7
 42
1.0
 92
        8
 66
     7
 43
1.0
 76
     1
 77
     6
 78
     2
 67
     7
 79
     5
170
     0
171
     0
290
     0
174
     0
 93
        1
 44
0.0
173
     0
291
     1
 45
0.0
1001
ACAD
1000
AcDbSavedByObjectVersion
1070
     0
  0
VISUALSTYLE
  5
3C
102
{ACAD_XDICTIONARY
360
35E
102
}
102
{ACAD_REACTORS
330
2A
102
}
330
2A
100
AcDbVisualStyle
  2

 70
    21
 71
     2
 72
     2
 73
     0
 90
        0
 40
-0.6
 41
-30.0
 62
     5
 63
     7
421
 16777215
 74
     1
 91
        4
 64
     7
 65
   257
 75
     1
175
     1
 42
1.0
 92
        9
 66
     7
 43
1.0
 76
     1
 77
     6
 78
     2
 67
     7
 79
     5
170
     0
171
     0
290
     0
174
     0
 93
        1
 44
0.0
173
     0
291
     1
 45
0.0
1001
ACAD
1000
AcDbSavedByObjectVersion
1070
     0
  0
VISUALSTYLE
  5
33
102
{ACAD_XDICTIONARY
360
34C
102
}
102
{ACAD_REACTORS
330
2A
102
}
330
2A
100
AcDbVisualStyle
  2

 70
     8
 71
     2
 72
     3
 73
     0
 90
        2
 40
-0.6
 41
30.0
 62
     5
 63
     7
421
 16777215
 74
     0
 91
        0
 64
     7
 65
   257
 75
     1
175
     1
 42
1.0
 92
        8
 66
   257
 43
1.0
 76
     1
 77
     6
 78
     2
 67
     7
 79
     3
170
     0
171
     0
290
     0
174
     0
 93
       13
 44
0.0
173
     0
291
     0
 45
0.0
1001
ACAD
1000
AcDbSavedByObjectVersion
1070
     0
  0
VISUALSTYLE
  5
42
102
{ACAD_XDICTIONARY
360
36A
102
}
102
{ACAD_REACTORS
330
2A
102
}
330
2A
100
AcDbVisualStyle
  2

 70
    27
 71
     2
 72
     2
 73
     1
 90
        2
 40
-0.6
 41
30.0
 62
     5
 63
     7
421
 16777215
 74
     0
 91
        4
 64
     7
 65
   257
 75
     1
175
     1
 42
1.0
 92
        8
 66
   257
 43
1.0
 76
     1
 77
     6
 78
     2
 67
     8
425
  7895160
 79
     3
170
     0
171
     0
290
     0
174
     0
 93
        5
 44
0.0
173
     0
291
     0
 45
0.0
1001
ACAD
1000
AcDbSavedByObjectVersion
1070
     0
  0
VISUALSTYLE
  5
41
102
{ACAD_XDICTIONARY
360
368
102
}
102
{ACAD_REACTORS
330
2A
102
}
330
2A
100
AcDbVisualStyle
  2

 70
    26
 71
     2
 72
     2
 73
     1
 90
        2
 40
-0.6
 41
30.0
 62
     5
 63
     7
421
 16777215
 74
     1
 91
       10
 64
     7
 65
   257
 75
     2
175
     1
 42
1.0
 92
        8
 66
   257
 43
1.0
 76
     1
 77
     6
 78
     2
 67
     7
 79
     3
170
     0
171
     0
290
     0
174
     0
 93
        5
 44
0.0
173
     0
291
     0
 45
0.0
1001
ACAD
1000
AcDbSavedByObjectVersion
1070
     0
  0
VISUALSTYLE
  5
3E
102
{ACAD_XDICTIONARY
360
362
102
}
102
{ACAD_REACTORS
330
2A
102
}
330
2A
100
AcDbVisualStyle
  2

 70
    23
 71
     2
 72
     2
 73
     3
 90
        0
 40
-0.6
 41
-30.0
 62
     5
 63
     7
421
 16777215
 74
     2
 91
        2
 64
     7
 65
     7
 75
     1
175
     1
 42
40.0
 92
        8
 66
     7
 43
1.0
 76
     1
 77
     6
 78
     2
 67
     7
 79
     3
170
     0
171
     0
290
     0
174
     0
 93
        1
 44
0.0
173
     0
291
     0
 45
0.0
1001
ACAD
1000
AcDbSavedByObjectVersion
1070
     0
  0
VISUALSTYLE
  5
3F
102
{ACAD_XDICTIONARY
360
364
102
}
102
{ACAD_REACTORS
330
2A
102
}
330
2A
100
AcDbVisualStyle
  2

 70
    24
 71
     1
 72
     2
 73
     2
 90
        0
 40
-0.6
 41
-30.0
 62
     5
 63
     7
421
 16777215
 74
     2
 91
        2
 64
     7
 65
     7
 75
     1
175
     1
 42
40.0
 92
       11
 66
     7
 43
1.0
 76
     1
 77
     6
 78
     2
 67
     7
 79
     6
170
     0
171
     0
290
     0
174
     0
 93
        1
 44
0.0
173
     0
291
     0
 45
0.0
1001
ACAD
1000
AcDbSavedByObjectVersion
1070
     0
  0
VISUALSTYLE
  5
37
102
{ACAD_XDICTIONARY
360
354
102
}
102
{ACAD_REACTORS
330
2A
102
}
330
2A
100
AcDbVisualStyle
  2

 70
    13
 71
     2
 72
     2
 73
     0
 90
        0
 40
-0.6
 41
-30.0
 62
     5
 63
     7
421
 16777215
 74
     1
 91
        4
 64
     7
 65
   257
 75
     1
175
     1
 42
1.0
 92
       12
 66
     7
 43
1.0
 76
     1
 77
     6
 78
     2
 67
     7
 79
     5
170
     0
171
     0
290
     0
174
     0
 93
        1
 44
0.0
173
     0
291
     1
 45
0.0
1001
ACAD
1000
AcDbSavedByObjectVersion
1070
     0
  0
VISUALSTYLE
  5
30
102
{ACAD_XDICTIONARY
360
346
102
}
102
{ACAD_REACTORS
330
2A
102
}
330
2A
100
AcDbVisualStyle
  2

 70
     5
 71
     0
 72
     2
 73
     0
 90
        0
 40
-0.6
 41
-30.0
 62
     5
 63
     7
421
 16777215
 74
     1
 91
        4
 64
     7
 65
   257
 75
     1
175
     1
 42
1.0
 92
        0
 66
   257
 43
1.0
 76
     1
 77
     6
 78
     2
 67
     7
 79
     3
170
     0
171
     0
290
     0
174
     0
 93
        1
 44
0.0
173
     0
291
     0
 45
0.0
1001
ACAD
1000
AcDbSavedByObjectVersion
1070
     0
  0
VISUALSTYLE
  5
40
102
{ACAD_XDICTIONARY
360
366
102
}
102
{ACAD_REACTORS
330
2A
102
}
330
2A
100
AcDbVisualStyle
  2

 70
    25
 71
     2
 72
     2
 73
     1
 90
        1
 40
0.5
 41
-30.0
 62
     5
 63
     7
421
 16777215
 74
     1
 91
        0
 64
     7
 65
   257
 75
     1
175
     1
 42
1.0
 92
        8
 66
     7
 43
1.0
 76
     1
 77
     6
 78
     2
 67
     7
 79
     3
170
     0
171
     0
290
     0
174
     0
 93
       13
 44
0.0
173
     0
291
     0
 45
0.0
1001
ACAD
1000
AcDbSavedByObjectVersion
1070
     0
  0
DICTIONARYVAR
  5
250
102
{ACAD_REACTORS
330
24F
102
}
330
24F
100
DictionaryVariables
280
     0
  1
1:1
  0
DICTIONARYVAR
  5
291
102
{ACAD_REACTORS
330
24F
102
}
330
24F
100
DictionaryVariables
280
     0
  1
STANDARD
  0
DICTIONARYVAR
  5
290
102
{ACAD_REACTORS
330
24F
102
}
330
24F
100
DictionaryVariables
280
     0
  1
STANDARD
  0
DICTIONARYVAR
  5
336
102
{ACAD_REACTORS
330
24F
102
}
330
24F
100
DictionaryVariables
280
     0
  1
Metric50
  0
DICTIONARYVAR
  5
337
102
{ACAD_REACTORS
330
24F
102
}
330
24F
100
DictionaryVariables
280
     0
  1
Metric50
  0
DICTIONARYVAR
  5
251
102
{ACAD_REACTORS
330
24F
102
}
330
24F
100
DictionaryVariables
280
     0
  1
1
  0
DICTIONARYVAR
  5
338
102
{ACAD_REACTORS
330
24F
102
}
330
24F
100
DictionaryVariables
280
     0
  1
2
  0
DICTIONARY
  5
36F
330
298
100
AcDbDictionary
280
     1
281
     1
  3
ACAD_XREC_ROUNDTRIP
360
370
  0
DICTIONARY
  5
285
330
45
100
AcDbDictionary
280
     1
281
     1
  3
ACAD_XREC_ROUNDTRIP
360
286
  0
DICTIONARY
  5
283
330
44
100
AcDbDictionary
280
     1
281
     1
  3
ACAD_XREC_ROUNDTRIP
360
284
  0
DICTIONARY
  5
287
330
46
100
AcDbDictionary
280
     1
281
     1
  3
ACAD_XREC_ROUNDTRIP
360
288
  0
DICTIONARY
  5
36D
330
297
100
AcDbDictionary
280
     1
281
     1
  3
ACAD_XREC_ROUNDTRIP
360
36E
  0
DICTIONARY
  5
289
330
6A
100
AcDbDictionary
280
     1
281
     1
  3
ACAD_ROUNDTRIP_2008_TABLESTYLE_CELLSTYLEMAP
360
33A
  3
ACAD_XREC_ROUNDTRIP
360
36C
  0
DICTIONARY
  5
344
330
2F
100
AcDbDictionary
280
     1
281
     1
  3
ACAD_XREC_ROUNDTRIP
360
345
  0
DICTIONARY
  5
34A
330
32
100
AcDbDictionary
280
     1
281
     1
  3
ACAD_XREC_ROUNDTRIP
360
34B
  0
DICTIONARY
  5
352
330
36
100
AcDbDictionary
280
     1
281
     1
  3
ACAD_XREC_ROUNDTRIP
360
353
  0
DICTIONARY
  5
35A
330
3A
100
AcDbDictionary
280
     1
281
     1
  3
ACAD_XREC_ROUNDTRIP
360
35B
  0
DICTIONARY
  5
34E
330
34
100
AcDbDictionary
280
     1
281
     1
  3
ACAD_XREC_ROUNDTRIP
360
34F
  0
DICTIONARY
  5
350
330
35
100
AcDbDictionary
280
     1
281
     1
  3
ACAD_XREC_ROUNDTRIP
360
351
  0
DICTIONARY
  5
360
330
3D
100
AcDbDictionary
280
     1
281
     1
  3
ACAD_XREC_ROUNDTRIP
360
361
  0
DICTIONARY
  5
358
330
39
100
AcDbDictionary
280
     1
281
     1
  3
ACAD_XREC_ROUNDTRIP
360
359
  0
DICTIONARY
  5
33C
330
2B
100
AcDbDictionary
280
     1
281
     1
  3
ACAD_XREC_ROUNDTRIP
360
33D
  0
DICTIONARY
  5
33E
330
2C
100
AcDbDictionary
280
     1
281
     1
  3
ACAD_XREC_ROUNDTRIP
360
33F
  0
DICTIONARY
  5
340
330
2D
100
AcDbDictionary
280
     1
281
     1
  3
ACAD_XREC_ROUNDTRIP
360
341
  0
DICTIONARY
  5
342
330
2E
100
AcDbDictionary
280
     1
281
     1
  3
ACAD_XREC_ROUNDTRIP
360
343
  0
DICTIONARY
  5
348
330
31
100
AcDbDictionary
280
     1
281
     1
  3
ACAD_XREC_ROUNDTRIP
360
349
  0
DICTIONARY
  5
35C
330
3B
100
AcDbDictionary
280
     1
281
     1
  3
ACAD_XREC_ROUNDTRIP
360
35D
  0
DICTIONARY
  5
356
330
38
100
AcDbDictionary
280
     1
281
     1
  3
ACAD_XREC_ROUNDTRIP
360
357
  0
DICTIONARY
  5
35E
330
3C
100
AcDbDictionary
280
     1
281
     1
  3
ACAD_XREC_ROUNDTRIP
360
35F
  0
DICTIONARY
  5
34C
330
33
100
AcDbDictionary
280
     1
281
     1
  3
ACAD_XREC_ROUNDTRIP
360
34D
  0
DICTIONARY
  5
36A
330
42
100
AcDbDictionary
280
     1
281
     1
  3
ACAD_XREC_ROUNDTRIP
360
36B
  0
DICTIONARY
  5
368
330
41
100
AcDbDictionary
280
     1
281
     1
  3
ACAD_XREC_ROUNDTRIP
360
369
  0
DICTIONARY
  5
362
330
3E
100
AcDbDictionary
280
     1
281
     1
  3
ACAD_XREC_ROUNDTRIP
360
363
  0
DICTIONARY
  5
364
330
3F
100
AcDbDictionary
280
     1
281
     1
  3
ACAD_XREC_ROUNDTRIP
360
365
  0
DICTIONARY
  5
354
330
37
100
AcDbDictionary
280
     1
281
     1
  3
ACAD_XREC_ROUNDTRIP
360
355
  0
DICTIONARY
  5
346
330
30
100
AcDbDictionary
280
     1
281
     1
  3
ACAD_XREC_ROUNDTRIP
360
347
  0
DICTIONARY
  5
366
330
40
100
AcDbDictionary
280
     1
281
     1
  3
ACAD_XREC_ROUNDTRIP
360
367
  0
XRECORD
  5
370
102
{ACAD_REACTORS
330
36F
102
}
330
36F
100
AcDbXrecord
280
     1
102
DISPLAYNAME
  1
Metric50
102
FLAGS
 90
        0
  0
XRECORD
  5
286
102
{ACAD_REACTORS
330
285
102
}
330
285
100
AcDbXrecord
280
     1
102
MATERIAL
148
0.0
149
0.0
149
0.0
 93
        0
 94
      127
282
     0
 72
     1
 77
     1
171
     1
175
     1
179
     1
273
     0
  0
XRECORD
  5
284
102
{ACAD_REACTORS
330
283
102
}
330
283
100
AcDbXrecord
280
     1
102
MATERIAL
148
0.0
149
0.0
149
0.0
 93
        0
 94
      127
282
     0
 72
     1
 77
     1
171
     1
175
     1
179
     1
273
     0
  0
XRECORD
  5
288
102
{ACAD_REACTORS
330
287
102
}
330
287
100
AcDbXrecord
280
     1
102
MATERIAL
148
0.0
149
0.0
149
0.0
 93
        0
 94
      127
282
     0
 72
     1
 77
     1
171
     1
175
     1
179
     1
273
     0
  0
XRECORD
  5
36E
102
{ACAD_REACTORS
330
36D
102
}
330
36D
100
AcDbXrecord
280
     1
102
DISPLAYNAME
  1
Metric50
102
FLAGS
 90
        0
  0
CELLSTYLEMAP
  5
33A
102
{ACAD_REACTORS
330
289
102
}
330
289
100
AcDbCellStyleMap
 90
        3
300
CELLSTYLE
  1
TABLEFORMAT_BEGIN
 90
        5
170
     1
 91
        0
 92
    32768
 62
   257
 93
        1
300
CONTENTFORMAT
  1
CONTENTFORMAT_BEGIN
 90
        0
 91
        0
 92
        4
 93
        0
300

 40
0.0
140
1.0
 94
        5
 62
     0
340
11
144
0.25
309
CONTENTFORMAT_END
171
     1
301
MARGIN
  1
CELLMARGIN_BEGIN
 40
0.06
 40
0.06
 40
0.06
 40
0.06
 40
0.18
 40
0.18
309
CELLMARGIN_END
 94
        6
 95
        1
302
GRIDFORMAT
  1
GRIDFORMAT_BEGIN
 90
        0
 91
        1
 62
     0
 92
       -2
340
14
 93
        0
 40
0.045
309
GRIDFORMAT_END
 95
        2
302
GRIDFORMAT
  1
GRIDFORMAT_BEGIN
 90
        0
 91
        1
 62
     0
 92
       -2
340
14
 93
        0
 40
0.045
309
GRIDFORMAT_END
 95
        4
302
GRIDFORMAT
  1
GRIDFORMAT_BEGIN
 90
        0
 91
        1
 62
     0
 92
       -2
340
14
 93
        0
 40
0.045
309
GRIDFORMAT_END
 95
        8
302
GRIDFORMAT
  1
GRIDFORMAT_BEGIN
 90
        0
 91
        1
 62
     0
 92
       -2
340
14
 93
        0
 40
0.045
309
GRIDFORMAT_END
 95
       16
302
GRIDFORMAT
  1
GRIDFORMAT_BEGIN
 90
        0
 91
        1
 62
     0
 92
       -2
340
14
 93
        0
 40
0.045
309
GRIDFORMAT_END
 95
       32
302
GRIDFORMAT
  1
GRIDFORMAT_BEGIN
 90
        0
 91
        1
 62
     0
 92
       -2
340
14
 93
        0
 40
0.045
309
GRIDFORMAT_END
309
TABLEFORMAT_END
  1
CELLSTYLE_BEGIN
 90
        1
 91
        1
300
_TITLE
309
CELLSTYLE_END
300
CELLSTYLE
  1
TABLEFORMAT_BEGIN
 90
        5
170
     1
 91
        0
 92
        0
 62
   257
 93
        1
300
CONTENTFORMAT
  1
CONTENTFORMAT_BEGIN
 90
        0
 91
        0
 92
        4
 93
        0
300

 40
0.0
140
1.0
 94
        5
 62
     0
340
11
144
0.18
309
CONTENTFORMAT_END
171
     1
301
MARGIN
  1
CELLMARGIN_BEGIN
 40
0.06
 40
0.06
 40
0.06
 40
0.06
 40
0.18
 40
0.18
309
CELLMARGIN_END
 94
        6
 95
        1
302
GRIDFORMAT
  1
GRIDFORMAT_BEGIN
 90
        0
 91
        1
 62
     0
 92
       -2
340
14
 93
        0
 40
0.045
309
GRIDFORMAT_END
 95
        2
302
GRIDFORMAT
  1
GRIDFORMAT_BEGIN
 90
        0
 91
        1
 62
     0
 92
       -2
340
14
 93
        0
 40
0.045
309
GRIDFORMAT_END
 95
        4
302
GRIDFORMAT
  1
GRIDFORMAT_BEGIN
 90
        0
 91
        1
 62
     0
 92
       -2
340
14
 93
        0
 40
0.045
309
GRIDFORMAT_END
 95
        8
302
GRIDFORMAT
  1
GRIDFORMAT_BEGIN
 90
        0
 91
        1
 62
     0
 92
       -2
340
14
 93
        0
 40
0.045
309
GRIDFORMAT_END
 95
       16
302
GRIDFORMAT
  1
GRIDFORMAT_BEGIN
 90
        0
 91
        1
 62
     0
 92
       -2
340
14
 93
        0
 40
0.045
309
GRIDFORMAT_END
 95
       32
302
GRIDFORMAT
  1
GRIDFORMAT_BEGIN
 90
        0
 91
        1
 62
     0
 92
       -2
340
14
 93
        0
 40
0.045
309
GRIDFORMAT_END
309
TABLEFORMAT_END
  1
CELLSTYLE_BEGIN
 90
        2
 91
        1
300
_HEADER
309
CELLSTYLE_END
300
CELLSTYLE
  1
TABLEFORMAT_BEGIN
 90
        5
170
     1
 91
        0
 92
        0
 62
   257
 93
        1
300
CONTENTFORMAT
  1
CONTENTFORMAT_BEGIN
 90
        0
 91
        0
 92
        4
 93
        0
300

 40
0.0
140
1.0
 94
        2
 62
     0
340
11
144
0.18
309
CONTENTFORMAT_END
171
     1
301
MARGIN
  1
CELLMARGIN_BEGIN
 40
0.06
 40
0.06
 40
0.06
 40
0.06
 40
0.18
 40
0.18
309
CELLMARGIN_END
 94
        6
 95
        1
302
GRIDFORMAT
  1
GRIDFORMAT_BEGIN
 90
        0
 91
        1
 62
     0
 92
       -2
340
14
 93
        0
 40
0.045
309
GRIDFORMAT_END
 95
        2
302
GRIDFORMAT
  1
GRIDFORMAT_BEGIN
 90
        0
 91
        1
 62
     0
 92
       -2
340
14
 93
        0
 40
0.045
309
GRIDFORMAT_END
 95
        4
302
GRIDFORMAT
  1
GRIDFORMAT_BEGIN
 90
        0
 91
        1
 62
     0
 92
       -2
340
14
 93
        0
 40
0.045
309
GRIDFORMAT_END
 95
        8
302
GRIDFORMAT
  1
GRIDFORMAT_BEGIN
 90
        0
 91
        1
 62
     0
 92
       -2
340
14
 93
        0
 40
0.045
309
GRIDFORMAT_END
 95
       16
302
GRIDFORMAT
  1
GRIDFORMAT_BEGIN
 90
        0
 91
        1
 62
     0
 92
       -2
340
14
 93
        0
 40
0.045
309
GRIDFORMAT_END
 95
       32
302
GRIDFORMAT
  1
GRIDFORMAT_BEGIN
 90
        0
 91
        1
 62
     0
 92
       -2
340
14
 93
        0
 40
0.045
309
GRIDFORMAT_END
309
TABLEFORMAT_END
  1
CELLSTYLE_BEGIN
 90
        3
 91
        2
300
_DATA
309
CELLSTYLE_END
  0
XRECORD
  5
36C
102
{ACAD_REACTORS
330
289
102
}
330
289
100
AcDbXrecord
280
     1
102
ACAD_ROUNDTRIP_PRE2007_TABLESTYLE
 90
        4
 91
        0
  1

 92
        4
 93
        0
  2

 94
        4
 95
        0
  3

  0
XRECORD
  5
345
102
{ACAD_REACTORS
330
344
102
}
330
344
100
AcDbXrecord
280
     1
102
RTVSPost2010Prop28
280
     1
102
RTVSPost2010PropOp28
 70
     1
102
RTVSPost2010Prop29
280
     1
102
RTVSPost2010PropOp29
 70
     1
102
RTVSPost2010Prop30
280
     0
102
RTVSPost2010PropOp30
 70
     1
102
RTVSPost2010Prop31
280
     0
102
RTVSPost2010PropOp31
 70
     1
102
RTVSPost2010Prop32
280
     0
102
RTVSPost2010PropOp32
 70
     1
102
RTVSPost2010Prop33
280
     0
102
RTVSPost2010PropOp33
 70
     1
102
RTVSPost2010Prop34
280
     0
102
RTVSPost2010PropOp34
 70
     1
102
RTVSPost2010Prop35
280
     0
102
RTVSPost2010PropOp35
 70
     1
102
RTVSPost2010Prop36
280
     0
102
RTVSPost2010PropOp36
 70
     1
102
RTVSPost2010Prop37
 90
       50
102
RTVSPost2010PropOp37
 70
     1
102
RTVSPost2010Prop38
140
0.0
102
RTVSPost2010PropOp38
 70
     1
102
RTVSPost2010Prop39
140
1.0
102
RTVSPost2010PropOp39
 70
     1
102
RTVSPost2010Prop40
 90
        0
102
RTVSPost2010PropOp40
 70
     1
102
RTVSPost2010Prop41ColorIndex
 90
       18
102
RTVSPost2010Prop41ColorRGB
 90
        0
102
RTVSPost2010PropOp41
 70
     1
102
RTVSPost2010Prop42
 90
       50
102
RTVSPost2010PropOp42
 70
     1
102
RTVSPost2010Prop43
 90
        3
102
RTVSPost2010PropOp43
 70
     1
102
RTVSPost2010Prop44ColorIndex
 90
        5
102
RTVSPost2010Prop44ColorRGB
 90
      255
102
RTVSPost2010PropOp44
 70
     1
102
RTVSPost2010Prop45
280
     0
102
RTVSPost2010PropOp45
 70
     1
102
RTVSPost2010Prop46
 90
       50
102
RTVSPost2010PropOp46
 70
     1
102
RTVSPost2010Prop47
 90
       50
102
RTVSPost2010PropOp47
 70
     1
102
RTVSPost2010Prop48
 90
       50
102
RTVSPost2010PropOp48
 70
     1
102
RTVSPost2010Prop49
280
     0
102
RTVSPost2010PropOp49
 70
     1
102
RTVSPost2010Prop50
 90
       50
102
RTVSPost2010PropOp50
 70
     1
102
RTVSPost2010Prop51ColorIndex
 90
      256
102
RTVSPost2010Prop51ColorRGB
 90
-16777216
102
RTVSPost2010PropOp51
 70
     0
102
RTVSPost2010Prop52
140
1.0
102
RTVSPost2010PropOp52
 70
     0
102
RTVSPost2010Prop53
 90
        2
102
RTVSPost2010PropOp53
 70
     1
102
RTVSPost2010Prop54
  1
strokes_ogs.tif
102
RTVSPost2010PropOp54
 70
     1
102
RTVSPost2010Prop55
280
     0
102
RTVSPost2010PropOp55
 70
     1
102
RTVSPost2010Prop56
140
1.0
102
RTVSPost2010PropOp56
 70
     1
102
RTVSPost2010Prop57
140
1.0
102
RTVSPost2010PropOp57
 70
     1
102
RTVSPropertyOp0
 70
     1
102
RTVSPropertyOp1
 70
     1
102
RTVSPropertyOp2
 70
     1
102
RTVSPropertyOp3
 70
     1
102
RTVSPropertyOp4
 70
     1
102
RTVSPropertyOp5
 70
     1
102
RTVSPropertyOp6
 70
     1
102
RTVSPropertyOp7
 70
     1
102
RTVSPropertyOp8
 70
     1
102
RTVSPropertyOp9
 70
     1
102
RTVSPropertyOp10
 70
     1
102
RTVSPropertyOp11
 70
     1
102
RTVSPropertyOp12
 70
     1
102
RTVSPropertyOp13
 70
     1
102
RTVSPropertyOp14
 70
     1
102
RTVSPropertyOp15
 70
     1
102
RTVSPropertyOp16
 70
     1
102
RTVSPropertyOp17
 70
     1
102
RTVSPropertyOp18
 70
     1
102
RTVSPropertyOp19
 70
     1
102
RTVSPropertyOp20
 70
     1
102
RTVSPropertyOp21
 70
     1
102
RTVSPropertyOp22
 70
     1
102
RTVSPropertyOp23
 70
     1
102
RTVSPropertyOp24
 70
     1
102
RTVSPropertyOp25
 70
     1
102
RTVSPropertyOp26
 70
     1
102
RTVSPropertyOp27
 70
     1
102
RTVSPropertyOp28
 70
     1
102
RTVSPropertyOp29
 70
     1
102
RTVSPropertyOp30
 70
     1
102
RTVSPropertyOp31
 70
     1
102
RTVSPropertyOp32
 70
     1
102
RTVSPropertyOp33
 70
     1
102
RTVSPropertyOp34
 70
     1
102
RTVSPropertyOp35
 70
     1
102
RTVSPropertyOp36
 70
     1
102
RTVSPropertyOp37
 70
     1
102
RTVSPropertyOp38
 70
     1
102
RTVSPropertyOp39
 70
     1
102
RTVSPropertyOp40
 70
     1
102
RTVSPropertyOp41
 70
     1
102
RTVSPropertyOp42
 70
     1
102
RTVSPropertyOp43
 70
     1
102
RTVSPropertyOp44
 70
     1
102
RTVSPropertyOp45
 70
     1
102
RTVSPropertyOp46
 70
     1
102
RTVSPropertyOp47
 70
     1
102
RTVSPropertyOp48
 70
     1
102
RTVSPropertyOp49
 70
     1
102
RTVSPropertyOp50
 70
     1
102
RTVSPropertyOp51
 70
     0
102
RTVSPropertyOp52
 70
     0
102
RTVSPropertyOp53
 70
     1
102
RTVSPropertyOp54
 70
     1
102
RTVSPropertyOp55
 70
     1
102
RTVSPropertyOp56
 70
     1
102
RTVSPropertyOp57
 70
     1
102
RTVSPropertyOp58
 70
     1
102
RTVSPropertyOp59
 70
     1
102
RTVSPropertyOp60
 70
     1
102
RTVSPropertyOp61
 70
     1
102
RTVSPropertyOp62
 70
     1
  0
XRECORD
  5
34B
102
{ACAD_REACTORS
330
34A
102
}
330
34A
100
AcDbXrecord
280
     1
102
RTVSPost2010Prop28
280
     0
102
RTVSPost2010PropOp28
 70
     1
102
RTVSPost2010Prop29
280
     1
102
RTVSPost2010PropOp29
 70
     1
102
RTVSPost2010Prop30
280
     1
102
RTVSPost2010PropOp30
 70
     1
102
RTVSPost2010Prop31
280
     0
102
RTVSPost2010PropOp31
 70
     1
102
RTVSPost2010Prop32
280
     0
102
RTVSPost2010PropOp32
 70
     1
102
RTVSPost2010Prop33
280
     0
102
RTVSPost2010PropOp33
 70
     1
102
RTVSPost2010Prop34
280
     0
102
RTVSPost2010PropOp34
 70
     1
102
RTVSPost2010Prop35
280
     0
102
RTVSPost2010PropOp35
 70
     1
102
RTVSPost2010Prop36
280
     0
102
RTVSPost2010PropOp36
 70
     1
102
RTVSPost2010Prop37
 90
       50
102
RTVSPost2010PropOp37
 70
     1
102
RTVSPost2010Prop38
140
0.0
102
RTVSPost2010PropOp38
 70
     1
102
RTVSPost2010Prop39
140
1.0
102
RTVSPost2010PropOp39
 70
     1
102
RTVSPost2010Prop40
 90
        0
102
RTVSPost2010PropOp40
 70
     1
102
RTVSPost2010Prop41ColorIndex
 90
       18
102
RTVSPost2010Prop41ColorRGB
 90
        0
102
RTVSPost2010PropOp41
 70
     1
102
RTVSPost2010Prop42
 90
       50
102
RTVSPost2010PropOp42
 70
     1
102
RTVSPost2010Prop43
 90
        3
102
RTVSPost2010PropOp43
 70
     1
102
RTVSPost2010Prop44ColorIndex
 90
        5
102
RTVSPost2010Prop44ColorRGB
 90
      255
102
RTVSPost2010PropOp44
 70
     1
102
RTVSPost2010Prop45
280
     0
102
RTVSPost2010PropOp45
 70
     1
102
RTVSPost2010Prop46
 90
       50
102
RTVSPost2010PropOp46
 70
     1
102
RTVSPost2010Prop47
 90
       50
102
RTVSPost2010PropOp47
 70
     1
102
RTVSPost2010Prop48
 90
       50
102
RTVSPost2010PropOp48
 70
     1
102
RTVSPost2010Prop49
280
     0
102
RTVSPost2010PropOp49
 70
     1
102
RTVSPost2010Prop50
 90
       50
102
RTVSPost2010PropOp50
 70
     1
102
RTVSPost2010Prop51ColorIndex
 90
      256
102
RTVSPost2010Prop51ColorRGB
 90
-16777216
102
RTVSPost2010PropOp51
 70
     0
102
RTVSPost2010Prop52
140
1.0
102
RTVSPost2010PropOp52
 70
     0
102
RTVSPost2010Prop53
 90
        2
102
RTVSPost2010PropOp53
 70
     1
102
RTVSPost2010Prop54
  1
strokes_ogs.tif
102
RTVSPost2010PropOp54
 70
     1
102
RTVSPost2010Prop55
280
     0
102
RTVSPost2010PropOp55
 70
     1
102
RTVSPost2010Prop56
140
1.0
102
RTVSPost2010PropOp56
 70
     1
102
RTVSPost2010Prop57
140
1.0
102
RTVSPost2010PropOp57
 70
     1
102
RTVSPropertyOp0
 70
     1
102
RTVSPropertyOp1
 70
     1
102
RTVSPropertyOp2
 70
     1
102
RTVSPropertyOp3
 70
     1
102
RTVSPropertyOp4
 70
     1
102
RTVSPropertyOp5
 70
     1
102
RTVSPropertyOp6
 70
     1
102
RTVSPropertyOp7
 70
     1
102
RTVSPropertyOp8
 70
     1
102
RTVSPropertyOp9
 70
     1
102
RTVSPropertyOp10
 70
     1
102
RTVSPropertyOp11
 70
     1
102
RTVSPropertyOp12
 70
     1
102
RTVSPropertyOp13
 70
     1
102
RTVSPropertyOp14
 70
     1
102
RTVSPropertyOp15
 70
     1
102
RTVSPropertyOp16
 70
     1
102
RTVSPropertyOp17
 70
     1
102
RTVSPropertyOp18
 70
     1
102
RTVSPropertyOp19
 70
     1
102
RTVSPropertyOp20
 70
     1
102
RTVSPropertyOp21
 70
     1
102
RTVSPropertyOp22
 70
     1
102
RTVSPropertyOp23
 70
     1
102
RTVSPropertyOp24
 70
     1
102
RTVSPropertyOp25
 70
     1
102
RTVSPropertyOp26
 70
     1
102
RTVSPropertyOp27
 70
     1
102
RTVSPropertyOp28
 70
     1
102
RTVSPropertyOp29
 70
     1
102
RTVSPropertyOp30
 70
     1
102
RTVSPropertyOp31
 70
     1
102
RTVSPropertyOp32
 70
     1
102
RTVSPropertyOp33
 70
     1
102
RTVSPropertyOp34
 70
     1
102
RTVSPropertyOp35
 70
     1
102
RTVSPropertyOp36
 70
     1
102
RTVSPropertyOp37
 70
     1
102
RTVSPropertyOp38
 70
     1
102
RTVSPropertyOp39
 70
     1
102
RTVSPropertyOp40
 70
     1
102
RTVSPropertyOp41
 70
     1
102
RTVSPropertyOp42
 70
     1
102
RTVSPropertyOp43
 70
     1
102
RTVSPropertyOp44
 70
     1
102
RTVSPropertyOp45
 70
     1
102
RTVSPropertyOp46
 70
     1
102
RTVSPropertyOp47
 70
     1
102
RTVSPropertyOp48
 70
     1
102
RTVSPropertyOp49
 70
     1
102
RTVSPropertyOp50
 70
     1
102
RTVSPropertyOp51
 70
     0
102
RTVSPropertyOp52
 70
     0
102
RTVSPropertyOp53
 70
     1
102
RTVSPropertyOp54
 70
     1
102
RTVSPropertyOp55
 70
     1
102
RTVSPropertyOp56
 70
     1
102
RTVSPropertyOp57
 70
     1
102
RTVSPropertyOp58
 70
     1
102
RTVSPropertyOp59
 70
     1
102
RTVSPropertyOp60
 70
     1
102
RTVSPropertyOp61
 70
     1
102
RTVSPropertyOp62
 70
     1
  0
XRECORD
  5
353
102
{ACAD_REACTORS
330
352
102
}
330
352
100
AcDbXrecord
280
     1
102
RTVSPost2010Prop28
280
     0
102
RTVSPost2010PropOp28
 70
     1
102
RTVSPost2010Prop29
280
     1
102
RTVSPost2010PropOp29
 70
     1
102
RTVSPost2010Prop30
280
     1
102
RTVSPost2010PropOp30
 70
     1
102
RTVSPost2010Prop31
280
     0
102
RTVSPost2010PropOp31
 70
     1
102
RTVSPost2010Prop32
280
     0
102
RTVSPost2010PropOp32
 70
     1
102
RTVSPost2010Prop33
280
     0
102
RTVSPost2010PropOp33
 70
     1
102
RTVSPost2010Prop34
280
     0
102
RTVSPost2010PropOp34
 70
     1
102
RTVSPost2010Prop35
280
     0
102
RTVSPost2010PropOp35
 70
     1
102
RTVSPost2010Prop36
280
     0
102
RTVSPost2010PropOp36
 70
     1
102
RTVSPost2010Prop37
 90
       50
102
RTVSPost2010PropOp37
 70
     1
102
RTVSPost2010Prop38
140
0.0
102
RTVSPost2010PropOp38
 70
     1
102
RTVSPost2010Prop39
140
1.0
102
RTVSPost2010PropOp39
 70
     1
102
RTVSPost2010Prop40
 90
        0
102
RTVSPost2010PropOp40
 70
     1
102
RTVSPost2010Prop41ColorIndex
 90
       18
102
RTVSPost2010Prop41ColorRGB
 90
        0
102
RTVSPost2010PropOp41
 70
     1
102
RTVSPost2010Prop42
 90
       50
102
RTVSPost2010PropOp42
 70
     1
102
RTVSPost2010Prop43
 90
        3
102
RTVSPost2010PropOp43
 70
     1
102
RTVSPost2010Prop44ColorIndex
 90
        5
102
RTVSPost2010Prop44ColorRGB
 90
      255
102
RTVSPost2010PropOp44
 70
     1
102
RTVSPost2010Prop45
280
     0
102
RTVSPost2010PropOp45
 70
     1
102
RTVSPost2010Prop46
 90
       50
102
RTVSPost2010PropOp46
 70
     1
102
RTVSPost2010Prop47
 90
       50
102
RTVSPost2010PropOp47
 70
     1
102
RTVSPost2010Prop48
 90
       50
102
RTVSPost2010PropOp48
 70
     1
102
RTVSPost2010Prop49
280
     0
102
RTVSPost2010PropOp49
 70
     1
102
RTVSPost2010Prop50
 90
       50
102
RTVSPost2010PropOp50
 70
     1
102
RTVSPost2010Prop51ColorIndex
 90
      256
102
RTVSPost2010Prop51ColorRGB
 90
-16777216
102
RTVSPost2010PropOp51
 70
     0
102
RTVSPost2010Prop52
140
1.0
102
RTVSPost2010PropOp52
 70
     0
102
RTVSPost2010Prop53
 90
        2
102
RTVSPost2010PropOp53
 70
     1
102
RTVSPost2010Prop54
  1
strokes_ogs.tif
102
RTVSPost2010PropOp54
 70
     1
102
RTVSPost2010Prop55
280
     0
102
RTVSPost2010PropOp55
 70
     1
102
RTVSPost2010Prop56
140
1.0
102
RTVSPost2010PropOp56
 70
     1
102
RTVSPost2010Prop57
140
1.0
102
RTVSPost2010PropOp57
 70
     1
102
RTVSPropertyOp0
 70
     1
102
RTVSPropertyOp1
 70
     1
102
RTVSPropertyOp2
 70
     1
102
RTVSPropertyOp3
 70
     1
102
RTVSPropertyOp4
 70
     1
102
RTVSPropertyOp5
 70
     1
102
RTVSPropertyOp6
 70
     1
102
RTVSPropertyOp7
 70
     1
102
RTVSPropertyOp8
 70
     1
102
RTVSPropertyOp9
 70
     1
102
RTVSPropertyOp10
 70
     1
102
RTVSPropertyOp11
 70
     1
102
RTVSPropertyOp12
 70
     1
102
RTVSPropertyOp13
 70
     1
102
RTVSPropertyOp14
 70
     1
102
RTVSPropertyOp15
 70
     1
102
RTVSPropertyOp16
 70
     1
102
RTVSPropertyOp17
 70
     1
102
RTVSPropertyOp18
 70
     1
102
RTVSPropertyOp19
 70
     1
102
RTVSPropertyOp20
 70
     1
102
RTVSPropertyOp21
 70
     1
102
RTVSPropertyOp22
 70
     1
102
RTVSPropertyOp23
 70
     1
102
RTVSPropertyOp24
 70
     1
102
RTVSPropertyOp25
 70
     1
102
RTVSPropertyOp26
 70
     1
102
RTVSPropertyOp27
 70
     1
102
RTVSPropertyOp28
 70
     1
102
RTVSPropertyOp29
 70
     1
102
RTVSPropertyOp30
 70
     1
102
RTVSPropertyOp31
 70
     1
102
RTVSPropertyOp32
 70
     1
102
RTVSPropertyOp33
 70
     1
102
RTVSPropertyOp34
 70
     1
102
RTVSPropertyOp35
 70
     1
102
RTVSPropertyOp36
 70
     1
102
RTVSPropertyOp37
 70
     1
102
RTVSPropertyOp38
 70
     1
102
RTVSPropertyOp39
 70
     1
102
RTVSPropertyOp40
 70
     1
102
RTVSPropertyOp41
 70
     1
102
RTVSPropertyOp42
 70
     1
102
RTVSPropertyOp43
 70
     1
102
RTVSPropertyOp44
 70
     1
102
RTVSPropertyOp45
 70
     1
102
RTVSPropertyOp46
 70
     1
102
RTVSPropertyOp47
 70
     1
102
RTVSPropertyOp48
 70
     1
102
RTVSPropertyOp49
 70
     1
102
RTVSPropertyOp50
 70
     1
102
RTVSPropertyOp51
 70
     0
102
RTVSPropertyOp52
 70
     0
102
RTVSPropertyOp53
 70
     1
102
RTVSPropertyOp54
 70
     1
102
RTVSPropertyOp55
 70
     1
102
RTVSPropertyOp56
 70
     1
102
RTVSPropertyOp57
 70
     1
102
RTVSPropertyOp58
 70
     1
102
RTVSPropertyOp59
 70
     1
102
RTVSPropertyOp60
 70
     1
102
RTVSPropertyOp61
 70
     1
102
RTVSPropertyOp62
 70
     1
  0
XRECORD
  5
35B
102
{ACAD_REACTORS
330
35A
102
}
330
35A
100
AcDbXrecord
280
     1
102
RTVSPost2010Prop28
280
     0
102
RTVSPost2010PropOp28
 70
     1
102
RTVSPost2010Prop29
280
     1
102
RTVSPost2010PropOp29
 70
     1
102
RTVSPost2010Prop30
280
     1
102
RTVSPost2010PropOp30
 70
     1
102
RTVSPost2010Prop31
280
     0
102
RTVSPost2010PropOp31
 70
     1
102
RTVSPost2010Prop32
280
     0
102
RTVSPost2010PropOp32
 70
     1
102
RTVSPost2010Prop33
280
     0
102
RTVSPost2010PropOp33
 70
     1
102
RTVSPost2010Prop34
280
     0
102
RTVSPost2010PropOp34
 70
     1
102
RTVSPost2010Prop35
280
     0
102
RTVSPost2010PropOp35
 70
     1
102
RTVSPost2010Prop36
280
     0
102
RTVSPost2010PropOp36
 70
     1
102
RTVSPost2010Prop37
 90
       50
102
RTVSPost2010PropOp37
 70
     1
102
RTVSPost2010Prop38
140
0.0
102
RTVSPost2010PropOp38
 70
     1
102
RTVSPost2010Prop39
140
1.0
102
RTVSPost2010PropOp39
 70
     1
102
RTVSPost2010Prop40
 90
        0
102
RTVSPost2010PropOp40
 70
     1
102
RTVSPost2010Prop41ColorIndex
 90
       18
102
RTVSPost2010Prop41ColorRGB
 90
        0
102
RTVSPost2010PropOp41
 70
     1
102
RTVSPost2010Prop42
 90
       50
102
RTVSPost2010PropOp42
 70
     1
102
RTVSPost2010Prop43
 90
        3
102
RTVSPost2010PropOp43
 70
     1
102
RTVSPost2010Prop44ColorIndex
 90
        5
102
RTVSPost2010Prop44ColorRGB
 90
      255
102
RTVSPost2010PropOp44
 70
     1
102
RTVSPost2010Prop45
280
     0
102
RTVSPost2010PropOp45
 70
     1
102
RTVSPost2010Prop46
 90
       50
102
RTVSPost2010PropOp46
 70
     1
102
RTVSPost2010Prop47
 90
       50
102
RTVSPost2010PropOp47
 70
     1
102
RTVSPost2010Prop48
 90
       50
102
RTVSPost2010PropOp48
 70
     1
102
RTVSPost2010Prop49
280
     0
102
RTVSPost2010PropOp49
 70
     1
102
RTVSPost2010Prop50
 90
       50
102
RTVSPost2010PropOp50
 70
     1
102
RTVSPost2010Prop51ColorIndex
 90
      256
102
RTVSPost2010Prop51ColorRGB
 90
-16777216
102
RTVSPost2010PropOp51
 70
     0
102
RTVSPost2010Prop52
140
1.0
102
RTVSPost2010PropOp52
 70
     0
102
RTVSPost2010Prop53
 90
        2
102
RTVSPost2010PropOp53
 70
     1
102
RTVSPost2010Prop54
  1
strokes_ogs.tif
102
RTVSPost2010PropOp54
 70
     1
102
RTVSPost2010Prop55
280
     0
102
RTVSPost2010PropOp55
 70
     1
102
RTVSPost2010Prop56
140
1.0
102
RTVSPost2010PropOp56
 70
     1
102
RTVSPost2010Prop57
140
1.0
102
RTVSPost2010PropOp57
 70
     1
102
RTVSPropertyOp0
 70
     1
102
RTVSPropertyOp1
 70
     1
102
RTVSPropertyOp2
 70
     1
102
RTVSPropertyOp3
 70
     1
102
RTVSPropertyOp4
 70
     1
102
RTVSPropertyOp5
 70
     1
102
RTVSPropertyOp6
 70
     1
102
RTVSPropertyOp7
 70
     1
102
RTVSPropertyOp8
 70
     1
102
RTVSPropertyOp9
 70
     1
102
RTVSPropertyOp10
 70
     1
102
RTVSPropertyOp11
 70
     1
102
RTVSPropertyOp12
 70
     1
102
RTVSPropertyOp13
 70
     1
102
RTVSPropertyOp14
 70
     1
102
RTVSPropertyOp15
 70
     1
102
RTVSPropertyOp16
 70
     1
102
RTVSPropertyOp17
 70
     1
102
RTVSPropertyOp18
 70
     1
102
RTVSPropertyOp19
 70
     1
102
RTVSPropertyOp20
 70
     1
102
RTVSPropertyOp21
 70
     1
102
RTVSPropertyOp22
 70
     1
102
RTVSPropertyOp23
 70
     1
102
RTVSPropertyOp24
 70
     1
102
RTVSPropertyOp25
 70
     1
102
RTVSPropertyOp26
 70
     1
102
RTVSPropertyOp27
 70
     1
102
RTVSPropertyOp28
 70
     1
102
RTVSPropertyOp29
 70
     1
102
RTVSPropertyOp30
 70
     1
102
RTVSPropertyOp31
 70
     1
102
RTVSPropertyOp32
 70
     1
102
RTVSPropertyOp33
 70
     1
102
RTVSPropertyOp34
 70
     1
102
RTVSPropertyOp35
 70
     1
102
RTVSPropertyOp36
 70
     1
102
RTVSPropertyOp37
 70
     1
102
RTVSPropertyOp38
 70
     1
102
RTVSPropertyOp39
 70
     1
102
RTVSPropertyOp40
 70
     1
102
RTVSPropertyOp41
 70
     1
102
RTVSPropertyOp42
 70
     1
102
RTVSPropertyOp43
 70
     1
102
RTVSPropertyOp44
 70
     1
102
RTVSPropertyOp45
 70
     1
102
RTVSPropertyOp46
 70
     1
102
RTVSPropertyOp47
 70
     1
102
RTVSPropertyOp48
 70
     1
102
RTVSPropertyOp49
 70
     1
102
RTVSPropertyOp50
 70
     1
102
RTVSPropertyOp51
 70
     0
102
RTVSPropertyOp52
 70
     0
102
RTVSPropertyOp53
 70
     1
102
RTVSPropertyOp54
 70
     1
102
RTVSPropertyOp55
 70
     1
102
RTVSPropertyOp56
 70
     1
102
RTVSPropertyOp57
 70
     1
102
RTVSPropertyOp58
 70
     1
102
RTVSPropertyOp59
 70
     1
102
RTVSPropertyOp60
 70
     1
102
RTVSPropertyOp61
 70
     1
102
RTVSPropertyOp62
 70
     1
  0
XRECORD
  5
34F
102
{ACAD_REACTORS
330
34E
102
}
330
34E
100
AcDbXrecord
280
     1
102
RTVSPost2010Prop28
280
     0
102
RTVSPost2010PropOp28
 70
     1
102
RTVSPost2010Prop29
280
     1
102
RTVSPost2010PropOp29
 70
     1
102
RTVSPost2010Prop30
280
     1
102
RTVSPost2010PropOp30
 70
     1
102
RTVSPost2010Prop31
280
     0
102
RTVSPost2010PropOp31
 70
     1
102
RTVSPost2010Prop32
280
     0
102
RTVSPost2010PropOp32
 70
     1
102
RTVSPost2010Prop33
280
     0
102
RTVSPost2010PropOp33
 70
     1
102
RTVSPost2010Prop34
280
     0
102
RTVSPost2010PropOp34
 70
     1
102
RTVSPost2010Prop35
280
     0
102
RTVSPost2010PropOp35
 70
     1
102
RTVSPost2010Prop36
280
     0
102
RTVSPost2010PropOp36
 70
     1
102
RTVSPost2010Prop37
 90
       50
102
RTVSPost2010PropOp37
 70
     1
102
RTVSPost2010Prop38
140
0.0
102
RTVSPost2010PropOp38
 70
     1
102
RTVSPost2010Prop39
140
1.0
102
RTVSPost2010PropOp39
 70
     1
102
RTVSPost2010Prop40
 90
        0
102
RTVSPost2010PropOp40
 70
     1
102
RTVSPost2010Prop41ColorIndex
 90
       18
102
RTVSPost2010Prop41ColorRGB
 90
        0
102
RTVSPost2010PropOp41
 70
     1
102
RTVSPost2010Prop42
 90
       50
102
RTVSPost2010PropOp42
 70
     1
102
RTVSPost2010Prop43
 90
        3
102
RTVSPost2010PropOp43
 70
     1
102
RTVSPost2010Prop44ColorIndex
 90
        5
102
RTVSPost2010Prop44ColorRGB
 90
      255
102
RTVSPost2010PropOp44
 70
     1
102
RTVSPost2010Prop45
280
     0
102
RTVSPost2010PropOp45
 70
     1
102
RTVSPost2010Prop46
 90
       50
102
RTVSPost2010PropOp46
 70
     1
102
RTVSPost2010Prop47
 90
       50
102
RTVSPost2010PropOp47
 70
     1
102
RTVSPost2010Prop48
 90
       50
102
RTVSPost2010PropOp48
 70
     1
102
RTVSPost2010Prop49
280
     0
102
RTVSPost2010PropOp49
 70
     1
102
RTVSPost2010Prop50
 90
       50
102
RTVSPost2010PropOp50
 70
     1
102
RTVSPost2010Prop51ColorIndex
 90
      256
102
RTVSPost2010Prop51ColorRGB
 90
-16777216
102
RTVSPost2010PropOp51
 70
     0
102
RTVSPost2010Prop52
140
1.0
102
RTVSPost2010PropOp52
 70
     0
102
RTVSPost2010Prop53
 90
        2
102
RTVSPost2010PropOp53
 70
     1
102
RTVSPost2010Prop54
  1
strokes_ogs.tif
102
RTVSPost2010PropOp54
 70
     1
102
RTVSPost2010Prop55
280
     0
102
RTVSPost2010PropOp55
 70
     1
102
RTVSPost2010Prop56
140
1.0
102
RTVSPost2010PropOp56
 70
     1
102
RTVSPost2010Prop57
140
1.0
102
RTVSPost2010PropOp57
 70
     1
102
RTVSPropertyOp0
 70
     1
102
RTVSPropertyOp1
 70
     1
102
RTVSPropertyOp2
 70
     1
102
RTVSPropertyOp3
 70
     1
102
RTVSPropertyOp4
 70
     1
102
RTVSPropertyOp5
 70
     1
102
RTVSPropertyOp6
 70
     1
102
RTVSPropertyOp7
 70
     1
102
RTVSPropertyOp8
 70
     1
102
RTVSPropertyOp9
 70
     1
102
RTVSPropertyOp10
 70
     1
102
RTVSPropertyOp11
 70
     1
102
RTVSPropertyOp12
 70
     1
102
RTVSPropertyOp13
 70
     1
102
RTVSPropertyOp14
 70
     1
102
RTVSPropertyOp15
 70
     1
102
RTVSPropertyOp16
 70
     1
102
RTVSPropertyOp17
 70
     1
102
RTVSPropertyOp18
 70
     1
102
RTVSPropertyOp19
 70
     1
102
RTVSPropertyOp20
 70
     1
102
RTVSPropertyOp21
 70
     1
102
RTVSPropertyOp22
 70
     1
102
RTVSPropertyOp23
 70
     1
102
RTVSPropertyOp24
 70
     1
102
RTVSPropertyOp25
 70
     1
102
RTVSPropertyOp26
 70
     1
102
RTVSPropertyOp27
 70
     1
102
RTVSPropertyOp28
 70
     1
102
RTVSPropertyOp29
 70
     1
102
RTVSPropertyOp30
 70
     1
102
RTVSPropertyOp31
 70
     1
102
RTVSPropertyOp32
 70
     1
102
RTVSPropertyOp33
 70
     1
102
RTVSPropertyOp34
 70
     1
102
RTVSPropertyOp35
 70
     1
102
RTVSPropertyOp36
 70
     1
102
RTVSPropertyOp37
 70
     1
102
RTVSPropertyOp38
 70
     1
102
RTVSPropertyOp39
 70
     1
102
RTVSPropertyOp40
 70
     1
102
RTVSPropertyOp41
 70
     1
102
RTVSPropertyOp42
 70
     1
102
RTVSPropertyOp43
 70
     1
102
RTVSPropertyOp44
 70
     1
102
RTVSPropertyOp45
 70
     1
102
RTVSPropertyOp46
 70
     1
102
RTVSPropertyOp47
 70
     1
102
RTVSPropertyOp48
 70
     1
102
RTVSPropertyOp49
 70
     1
102
RTVSPropertyOp50
 70
     1
102
RTVSPropertyOp51
 70
     0
102
RTVSPropertyOp52
 70
     0
102
RTVSPropertyOp53
 70
     1
102
RTVSPropertyOp54
 70
     1
102
RTVSPropertyOp55
 70
     1
102
RTVSPropertyOp56
 70
     1
102
RTVSPropertyOp57
 70
     1
102
RTVSPropertyOp58
 70
     1
102
RTVSPropertyOp59
 70
     1
102
RTVSPropertyOp60
 70
     1
102
RTVSPropertyOp61
 70
     1
102
RTVSPropertyOp62
 70
     1
  0
XRECORD
  5
351
102
{ACAD_REACTORS
330
350
102
}
330
350
100
AcDbXrecord
280
     1
102
RTVSPost2010Prop28
280
     0
102
RTVSPost2010PropOp28
 70
     1
102
RTVSPost2010Prop29
280
     1
102
RTVSPost2010PropOp29
 70
     1
102
RTVSPost2010Prop30
280
     1
102
RTVSPost2010PropOp30
 70
     1
102
RTVSPost2010Prop31
280
     0
102
RTVSPost2010PropOp31
 70
     1
102
RTVSPost2010Prop32
280
     0
102
RTVSPost2010PropOp32
 70
     1
102
RTVSPost2010Prop33
280
     0
102
RTVSPost2010PropOp33
 70
     1
102
RTVSPost2010Prop34
280
     0
102
RTVSPost2010PropOp34
 70
     1
102
RTVSPost2010Prop35
280
     0
102
RTVSPost2010PropOp35
 70
     1
102
RTVSPost2010Prop36
280
     0
102
RTVSPost2010PropOp36
 70
     1
102
RTVSPost2010Prop37
 90
       50
102
RTVSPost2010PropOp37
 70
     1
102
RTVSPost2010Prop38
140
0.0
102
RTVSPost2010PropOp38
 70
     1
102
RTVSPost2010Prop39
140
1.0
102
RTVSPost2010PropOp39
 70
     1
102
RTVSPost2010Prop40
 90
        0
102
RTVSPost2010PropOp40
 70
     1
102
RTVSPost2010Prop41ColorIndex
 90
       18
102
RTVSPost2010Prop41ColorRGB
 90
        0
102
RTVSPost2010PropOp41
 70
     1
102
RTVSPost2010Prop42
 90
       50
102
RTVSPost2010PropOp42
 70
     1
102
RTVSPost2010Prop43
 90
        3
102
RTVSPost2010PropOp43
 70
     1
102
RTVSPost2010Prop44ColorIndex
 90
        5
102
RTVSPost2010Prop44ColorRGB
 90
      255
102
RTVSPost2010PropOp44
 70
     1
102
RTVSPost2010Prop45
280
     0
102
RTVSPost2010PropOp45
 70
     1
102
RTVSPost2010Prop46
 90
       50
102
RTVSPost2010PropOp46
 70
     1
102
RTVSPost2010Prop47
 90
       50
102
RTVSPost2010PropOp47
 70
     1
102
RTVSPost2010Prop48
 90
       50
102
RTVSPost2010PropOp48
 70
     1
102
RTVSPost2010Prop49
280
     0
102
RTVSPost2010PropOp49
 70
     1
102
RTVSPost2010Prop50
 90
       50
102
RTVSPost2010PropOp50
 70
     1
102
RTVSPost2010Prop51ColorIndex
 90
      256
102
RTVSPost2010Prop51ColorRGB
 90
-16777216
102
RTVSPost2010PropOp51
 70
     0
102
RTVSPost2010Prop52
140
1.0
102
RTVSPost2010PropOp52
 70
     0
102
RTVSPost2010Prop53
 90
        2
102
RTVSPost2010PropOp53
 70
     1
102
RTVSPost2010Prop54
  1
strokes_ogs.tif
102
RTVSPost2010PropOp54
 70
     1
102
RTVSPost2010Prop55
280
     0
102
RTVSPost2010PropOp55
 70
     1
102
RTVSPost2010Prop56
140
1.0
102
RTVSPost2010PropOp56
 70
     1
102
RTVSPost2010Prop57
140
1.0
102
RTVSPost2010PropOp57
 70
     1
102
RTVSPropertyOp0
 70
     1
102
RTVSPropertyOp1
 70
     1
102
RTVSPropertyOp2
 70
     1
102
RTVSPropertyOp3
 70
     1
102
RTVSPropertyOp4
 70
     1
102
RTVSPropertyOp5
 70
     1
102
RTVSPropertyOp6
 70
     1
102
RTVSPropertyOp7
 70
     1
102
RTVSPropertyOp8
 70
     1
102
RTVSPropertyOp9
 70
     1
102
RTVSPropertyOp10
 70
     1
102
RTVSPropertyOp11
 70
     1
102
RTVSPropertyOp12
 70
     1
102
RTVSPropertyOp13
 70
     1
102
RTVSPropertyOp14
 70
     1
102
RTVSPropertyOp15
 70
     1
102
RTVSPropertyOp16
 70
     1
102
RTVSPropertyOp17
 70
     1
102
RTVSPropertyOp18
 70
     1
102
RTVSPropertyOp19
 70
     1
102
RTVSPropertyOp20
 70
     1
102
RTVSPropertyOp21
 70
     1
102
RTVSPropertyOp22
 70
     1
102
RTVSPropertyOp23
 70
     1
102
RTVSPropertyOp24
 70
     1
102
RTVSPropertyOp25
 70
     1
102
RTVSPropertyOp26
 70
     1
102
RTVSPropertyOp27
 70
     1
102
RTVSPropertyOp28
 70
     1
102
RTVSPropertyOp29
 70
     1
102
RTVSPropertyOp30
 70
     1
102
RTVSPropertyOp31
 70
     1
102
RTVSPropertyOp32
 70
     1
102
RTVSPropertyOp33
 70
     1
102
RTVSPropertyOp34
 70
     1
102
RTVSPropertyOp35
 70
     1
102
RTVSPropertyOp36
 70
     1
102
RTVSPropertyOp37
 70
     1
102
RTVSPropertyOp38
 70
     1
102
RTVSPropertyOp39
 70
     1
102
RTVSPropertyOp40
 70
     1
102
RTVSPropertyOp41
 70
     1
102
RTVSPropertyOp42
 70
     1
102
RTVSPropertyOp43
 70
     1
102
RTVSPropertyOp44
 70
     1
102
RTVSPropertyOp45
 70
     1
102
RTVSPropertyOp46
 70
     1
102
RTVSPropertyOp47
 70
     1
102
RTVSPropertyOp48
 70
     1
102
RTVSPropertyOp49
 70
     1
102
RTVSPropertyOp50
 70
     1
102
RTVSPropertyOp51
 70
     0
102
RTVSPropertyOp52
 70
     0
102
RTVSPropertyOp53
 70
     1
102
RTVSPropertyOp54
 70
     1
102
RTVSPropertyOp55
 70
     1
102
RTVSPropertyOp56
 70
     1
102
RTVSPropertyOp57
 70
     1
102
RTVSPropertyOp58
 70
     1
102
RTVSPropertyOp59
 70
     1
102
RTVSPropertyOp60
 70
     1
102
RTVSPropertyOp61
 70
     1
102
RTVSPropertyOp62
 70
     1
  0
XRECORD
  5
361
102
{ACAD_REACTORS
330
360
102
}
330
360
100
AcDbXrecord
280
     1
102
RTVSPost2010Prop28
280
     0
102
RTVSPost2010PropOp28
 70
     0
102
RTVSPost2010Prop29
280
     1
102
RTVSPost2010PropOp29
 70
     0
102
RTVSPost2010Prop30
280
     1
102
RTVSPost2010PropOp30
 70
     0
102
RTVSPost2010Prop31
280
     0
102
RTVSPost2010PropOp31
 70
     0
102
RTVSPost2010Prop32
280
     0
102
RTVSPost2010PropOp32
 70
     0
102
RTVSPost2010Prop33
280
     0
102
RTVSPost2010PropOp33
 70
     0
102
RTVSPost2010Prop34
280
     0
102
RTVSPost2010PropOp34
 70
     0
102
RTVSPost2010Prop35
280
     0
102
RTVSPost2010PropOp35
 70
     0
102
RTVSPost2010Prop36
280
     0
102
RTVSPost2010PropOp36
 70
     0
102
RTVSPost2010Prop37
 90
       50
102
RTVSPost2010PropOp37
 70
     0
102
RTVSPost2010Prop38
140
0.0
102
RTVSPost2010PropOp38
 70
     0
102
RTVSPost2010Prop39
140
1.0
102
RTVSPost2010PropOp39
 70
     0
102
RTVSPost2010Prop40
 90
        0
102
RTVSPost2010PropOp40
 70
     0
102
RTVSPost2010Prop41ColorIndex
 90
       18
102
RTVSPost2010Prop41ColorRGB
 90
        0
102
RTVSPost2010PropOp41
 70
     0
102
RTVSPost2010Prop42
 90
       50
102
RTVSPost2010PropOp42
 70
     0
102
RTVSPost2010Prop43
 90
        3
102
RTVSPost2010PropOp43
 70
     0
102
RTVSPost2010Prop44ColorIndex
 90
        5
102
RTVSPost2010Prop44ColorRGB
 90
      255
102
RTVSPost2010PropOp44
 70
     0
102
RTVSPost2010Prop45
280
     0
102
RTVSPost2010PropOp45
 70
     0
102
RTVSPost2010Prop46
 90
       50
102
RTVSPost2010PropOp46
 70
     0
102
RTVSPost2010Prop47
 90
       50
102
RTVSPost2010PropOp47
 70
     0
102
RTVSPost2010Prop48
 90
       50
102
RTVSPost2010PropOp48
 70
     0
102
RTVSPost2010Prop49
280
     0
102
RTVSPost2010PropOp49
 70
     0
102
RTVSPost2010Prop50
 90
       50
102
RTVSPost2010PropOp50
 70
     0
102
RTVSPost2010Prop51ColorIndex
 90
      256
102
RTVSPost2010Prop51ColorRGB
 90
-16777216
102
RTVSPost2010PropOp51
 70
     0
102
RTVSPost2010Prop52
140
1.0
102
RTVSPost2010PropOp52
 70
     0
102
RTVSPost2010Prop53
 90
        2
102
RTVSPost2010PropOp53
 70
     0
102
RTVSPost2010Prop54
  1
strokes_ogs.tif
102
RTVSPost2010PropOp54
 70
     0
102
RTVSPost2010Prop55
280
     0
102
RTVSPost2010PropOp55
 70
     0
102
RTVSPost2010Prop56
140
1.0
102
RTVSPost2010PropOp56
 70
     0
102
RTVSPost2010Prop57
140
1.0
102
RTVSPost2010PropOp57
 70
     0
102
RTVSPropertyOp0
 70
     0
102
RTVSPropertyOp1
 70
     0
102
RTVSPropertyOp2
 70
     0
102
RTVSPropertyOp3
 70
     0
102
RTVSPropertyOp4
 70
     0
102
RTVSPropertyOp5
 70
     0
102
RTVSPropertyOp6
 70
     0
102
RTVSPropertyOp7
 70
     0
102
RTVSPropertyOp8
 70
     0
102
RTVSPropertyOp9
 70
     0
102
RTVSPropertyOp10
 70
     0
102
RTVSPropertyOp11
 70
     0
102
RTVSPropertyOp12
 70
     0
102
RTVSPropertyOp13
 70
     0
102
RTVSPropertyOp14
 70
     2
102
RTVSPropertyOp15
 70
     0
102
RTVSPropertyOp16
 70
     0
102
RTVSPropertyOp17
 70
     0
102
RTVSPropertyOp18
 70
     0
102
RTVSPropertyOp19
 70
     0
102
RTVSPropertyOp20
 70
     0
102
RTVSPropertyOp21
 70
     0
102
RTVSPropertyOp22
 70
     0
102
RTVSPropertyOp23
 70
     0
102
RTVSPropertyOp24
 70
     0
102
RTVSPropertyOp25
 70
     0
102
RTVSPropertyOp26
 70
     0
102
RTVSPropertyOp27
 70
     0
102
RTVSPropertyOp28
 70
     0
102
RTVSPropertyOp29
 70
     0
102
RTVSPropertyOp30
 70
     0
102
RTVSPropertyOp31
 70
     0
102
RTVSPropertyOp32
 70
     0
102
RTVSPropertyOp33
 70
     0
102
RTVSPropertyOp34
 70
     0
102
RTVSPropertyOp35
 70
     0
102
RTVSPropertyOp36
 70
     0
102
RTVSPropertyOp37
 70
     0
102
RTVSPropertyOp38
 70
     0
102
RTVSPropertyOp39
 70
     0
102
RTVSPropertyOp40
 70
     0
102
RTVSPropertyOp41
 70
     0
102
RTVSPropertyOp42
 70
     0
102
RTVSPropertyOp43
 70
     0
102
RTVSPropertyOp44
 70
     0
102
RTVSPropertyOp45
 70
     0
102
RTVSPropertyOp46
 70
     0
102
RTVSPropertyOp47
 70
     0
102
RTVSPropertyOp48
 70
     0
102
RTVSPropertyOp49
 70
     0
102
RTVSPropertyOp50
 70
     0
102
RTVSPropertyOp51
 70
     0
102
RTVSPropertyOp52
 70
     0
102
RTVSPropertyOp53
 70
     0
102
RTVSPropertyOp54
 70
     0
102
RTVSPropertyOp55
 70
     0
102
RTVSPropertyOp56
 70
     0
102
RTVSPropertyOp57
 70
     0
102
RTVSPropertyOp58
 70
     1
102
RTVSPropertyOp59
 70
     1
102
RTVSPropertyOp60
 70
     1
102
RTVSPropertyOp61
 70
     1
102
RTVSPropertyOp62
 70
     1
  0
XRECORD
  5
359
102
{ACAD_REACTORS
330
358
102
}
330
358
100
AcDbXrecord
280
     1
102
RTVSPost2010Prop28
280
     0
102
RTVSPost2010PropOp28
 70
     1
102
RTVSPost2010Prop29
280
     1
102
RTVSPost2010PropOp29
 70
     1
102
RTVSPost2010Prop30
280
     1
102
RTVSPost2010PropOp30
 70
     1
102
RTVSPost2010Prop31
280
     0
102
RTVSPost2010PropOp31
 70
     1
102
RTVSPost2010Prop32
280
     0
102
RTVSPost2010PropOp32
 70
     1
102
RTVSPost2010Prop33
280
     0
102
RTVSPost2010PropOp33
 70
     1
102
RTVSPost2010Prop34
280
     0
102
RTVSPost2010PropOp34
 70
     1
102
RTVSPost2010Prop35
280
     0
102
RTVSPost2010PropOp35
 70
     1
102
RTVSPost2010Prop36
280
     0
102
RTVSPost2010PropOp36
 70
     1
102
RTVSPost2010Prop37
 90
       50
102
RTVSPost2010PropOp37
 70
     1
102
RTVSPost2010Prop38
140
0.0
102
RTVSPost2010PropOp38
 70
     1
102
RTVSPost2010Prop39
140
1.0
102
RTVSPost2010PropOp39
 70
     1
102
RTVSPost2010Prop40
 90
        0
102
RTVSPost2010PropOp40
 70
     1
102
RTVSPost2010Prop41ColorIndex
 90
       18
102
RTVSPost2010Prop41ColorRGB
 90
        0
102
RTVSPost2010PropOp41
 70
     1
102
RTVSPost2010Prop42
 90
       50
102
RTVSPost2010PropOp42
 70
     1
102
RTVSPost2010Prop43
 90
        3
102
RTVSPost2010PropOp43
 70
     1
102
RTVSPost2010Prop44ColorIndex
 90
        5
102
RTVSPost2010Prop44ColorRGB
 90
      255
102
RTVSPost2010PropOp44
 70
     1
102
RTVSPost2010Prop45
280
     0
102
RTVSPost2010PropOp45
 70
     1
102
RTVSPost2010Prop46
 90
       50
102
RTVSPost2010PropOp46
 70
     1
102
RTVSPost2010Prop47
 90
       50
102
RTVSPost2010PropOp47
 70
     1
102
RTVSPost2010Prop48
 90
       50
102
RTVSPost2010PropOp48
 70
     1
102
RTVSPost2010Prop49
280
     0
102
RTVSPost2010PropOp49
 70
     1
102
RTVSPost2010Prop50
 90
       50
102
RTVSPost2010PropOp50
 70
     1
102
RTVSPost2010Prop51ColorIndex
 90
      256
102
RTVSPost2010Prop51ColorRGB
 90
-16777216
102
RTVSPost2010PropOp51
 70
     0
102
RTVSPost2010Prop52
140
1.0
102
RTVSPost2010PropOp52
 70
     0
102
RTVSPost2010Prop53
 90
        2
102
RTVSPost2010PropOp53
 70
     1
102
RTVSPost2010Prop54
  1
strokes_ogs.tif
102
RTVSPost2010PropOp54
 70
     1
102
RTVSPost2010Prop55
280
     0
102
RTVSPost2010PropOp55
 70
     1
102
RTVSPost2010Prop56
140
1.0
102
RTVSPost2010PropOp56
 70
     1
102
RTVSPost2010Prop57
140
1.0
102
RTVSPost2010PropOp57
 70
     1
102
RTVSPropertyOp0
 70
     1
102
RTVSPropertyOp1
 70
     1
102
RTVSPropertyOp2
 70
     1
102
RTVSPropertyOp3
 70
     1
102
RTVSPropertyOp4
 70
     1
102
RTVSPropertyOp5
 70
     1
102
RTVSPropertyOp6
 70
     1
102
RTVSPropertyOp7
 70
     1
102
RTVSPropertyOp8
 70
     1
102
RTVSPropertyOp9
 70
     1
102
RTVSPropertyOp10
 70
     1
102
RTVSPropertyOp11
 70
     1
102
RTVSPropertyOp12
 70
     1
102
RTVSPropertyOp13
 70
     1
102
RTVSPropertyOp14
 70
     1
102
RTVSPropertyOp15
 70
     1
102
RTVSPropertyOp16
 70
     1
102
RTVSPropertyOp17
 70
     1
102
RTVSPropertyOp18
 70
     1
102
RTVSPropertyOp19
 70
     1
102
RTVSPropertyOp20
 70
     1
102
RTVSPropertyOp21
 70
     1
102
RTVSPropertyOp22
 70
     1
102
RTVSPropertyOp23
 70
     1
102
RTVSPropertyOp24
 70
     1
102
RTVSPropertyOp25
 70
     1
102
RTVSPropertyOp26
 70
     1
102
RTVSPropertyOp27
 70
     1
102
RTVSPropertyOp28
 70
     1
102
RTVSPropertyOp29
 70
     1
102
RTVSPropertyOp30
 70
     1
102
RTVSPropertyOp31
 70
     1
102
RTVSPropertyOp32
 70
     1
102
RTVSPropertyOp33
 70
     1
102
RTVSPropertyOp34
 70
     1
102
RTVSPropertyOp35
 70
     1
102
RTVSPropertyOp36
 70
     1
102
RTVSPropertyOp37
 70
     1
102
RTVSPropertyOp38
 70
     1
102
RTVSPropertyOp39
 70
     1
102
RTVSPropertyOp40
 70
     1
102
RTVSPropertyOp41
 70
     1
102
RTVSPropertyOp42
 70
     1
102
RTVSPropertyOp43
 70
     1
102
RTVSPropertyOp44
 70
     1
102
RTVSPropertyOp45
 70
     1
102
RTVSPropertyOp46
 70
     1
102
RTVSPropertyOp47
 70
     1
102
RTVSPropertyOp48
 70
     1
102
RTVSPropertyOp49
 70
     1
102
RTVSPropertyOp50
 70
     1
102
RTVSPropertyOp51
 70
     0
102
RTVSPropertyOp52
 70
     0
102
RTVSPropertyOp53
 70
     1
102
RTVSPropertyOp54
 70
     1
102
RTVSPropertyOp55
 70
     1
102
RTVSPropertyOp56
 70
     1
102
RTVSPropertyOp57
 70
     1
102
RTVSPropertyOp58
 70
     1
102
RTVSPropertyOp59
 70
     1
102
RTVSPropertyOp60
 70
     1
102
RTVSPropertyOp61
 70
     1
102
RTVSPropertyOp62
 70
     1
  0
XRECORD
  5
33D
102
{ACAD_REACTORS
330
33C
102
}
330
33C
100
AcDbXrecord
280
     1
102
RTVSPost2010Prop28
280
     0
102
RTVSPost2010PropOp28
 70
     1
102
RTVSPost2010Prop29
280
     1
102
RTVSPost2010PropOp29
 70
     1
102
RTVSPost2010Prop30
280
     1
102
RTVSPost2010PropOp30
 70
     1
102
RTVSPost2010Prop31
280
     0
102
RTVSPost2010PropOp31
 70
     1
102
RTVSPost2010Prop32
280
     0
102
RTVSPost2010PropOp32
 70
     1
102
RTVSPost2010Prop33
280
     0
102
RTVSPost2010PropOp33
 70
     1
102
RTVSPost2010Prop34
280
     0
102
RTVSPost2010PropOp34
 70
     1
102
RTVSPost2010Prop35
280
     0
102
RTVSPost2010PropOp35
 70
     1
102
RTVSPost2010Prop36
280
     0
102
RTVSPost2010PropOp36
 70
     1
102
RTVSPost2010Prop37
 90
       50
102
RTVSPost2010PropOp37
 70
     1
102
RTVSPost2010Prop38
140
0.0
102
RTVSPost2010PropOp38
 70
     1
102
RTVSPost2010Prop39
140
1.0
102
RTVSPost2010PropOp39
 70
     1
102
RTVSPost2010Prop40
 90
        0
102
RTVSPost2010PropOp40
 70
     1
102
RTVSPost2010Prop41ColorIndex
 90
       18
102
RTVSPost2010Prop41ColorRGB
 90
        0
102
RTVSPost2010PropOp41
 70
     1
102
RTVSPost2010Prop42
 90
       50
102
RTVSPost2010PropOp42
 70
     1
102
RTVSPost2010Prop43
 90
        3
102
RTVSPost2010PropOp43
 70
     1
102
RTVSPost2010Prop44ColorIndex
 90
        5
102
RTVSPost2010Prop44ColorRGB
 90
      255
102
RTVSPost2010PropOp44
 70
     1
102
RTVSPost2010Prop45
280
     0
102
RTVSPost2010PropOp45
 70
     1
102
RTVSPost2010Prop46
 90
       50
102
RTVSPost2010PropOp46
 70
     1
102
RTVSPost2010Prop47
 90
       50
102
RTVSPost2010PropOp47
 70
     1
102
RTVSPost2010Prop48
 90
       50
102
RTVSPost2010PropOp48
 70
     1
102
RTVSPost2010Prop49
280
     0
102
RTVSPost2010PropOp49
 70
     1
102
RTVSPost2010Prop50
 90
       50
102
RTVSPost2010PropOp50
 70
     1
102
RTVSPost2010Prop51ColorIndex
 90
      256
102
RTVSPost2010Prop51ColorRGB
 90
-16777216
102
RTVSPost2010PropOp51
 70
     0
102
RTVSPost2010Prop52
140
1.0
102
RTVSPost2010PropOp52
 70
     0
102
RTVSPost2010Prop53
 90
        2
102
RTVSPost2010PropOp53
 70
     1
102
RTVSPost2010Prop54
  1
strokes_ogs.tif
102
RTVSPost2010PropOp54
 70
     1
102
RTVSPost2010Prop55
280
     0
102
RTVSPost2010PropOp55
 70
     1
102
RTVSPost2010Prop56
140
1.0
102
RTVSPost2010PropOp56
 70
     1
102
RTVSPost2010Prop57
140
1.0
102
RTVSPost2010PropOp57
 70
     1
102
RTVSPropertyOp0
 70
     1
102
RTVSPropertyOp1
 70
     1
102
RTVSPropertyOp2
 70
     1
102
RTVSPropertyOp3
 70
     1
102
RTVSPropertyOp4
 70
     1
102
RTVSPropertyOp5
 70
     1
102
RTVSPropertyOp6
 70
     1
102
RTVSPropertyOp7
 70
     1
102
RTVSPropertyOp8
 70
     1
102
RTVSPropertyOp9
 70
     1
102
RTVSPropertyOp10
 70
     1
102
RTVSPropertyOp11
 70
     1
102
RTVSPropertyOp12
 70
     1
102
RTVSPropertyOp13
 70
     1
102
RTVSPropertyOp14
 70
     1
102
RTVSPropertyOp15
 70
     1
102
RTVSPropertyOp16
 70
     1
102
RTVSPropertyOp17
 70
     1
102
RTVSPropertyOp18
 70
     1
102
RTVSPropertyOp19
 70
     1
102
RTVSPropertyOp20
 70
     1
102
RTVSPropertyOp21
 70
     1
102
RTVSPropertyOp22
 70
     1
102
RTVSPropertyOp23
 70
     1
102
RTVSPropertyOp24
 70
     1
102
RTVSPropertyOp25
 70
     1
102
RTVSPropertyOp26
 70
     1
102
RTVSPropertyOp27
 70
     1
102
RTVSPropertyOp28
 70
     1
102
RTVSPropertyOp29
 70
     1
102
RTVSPropertyOp30
 70
     1
102
RTVSPropertyOp31
 70
     1
102
RTVSPropertyOp32
 70
     1
102
RTVSPropertyOp33
 70
     1
102
RTVSPropertyOp34
 70
     1
102
RTVSPropertyOp35
 70
     1
102
RTVSPropertyOp36
 70
     1
102
RTVSPropertyOp37
 70
     1
102
RTVSPropertyOp38
 70
     1
102
RTVSPropertyOp39
 70
     1
102
RTVSPropertyOp40
 70
     1
102
RTVSPropertyOp41
 70
     1
102
RTVSPropertyOp42
 70
     1
102
RTVSPropertyOp43
 70
     1
102
RTVSPropertyOp44
 70
     1
102
RTVSPropertyOp45
 70
     1
102
RTVSPropertyOp46
 70
     1
102
RTVSPropertyOp47
 70
     1
102
RTVSPropertyOp48
 70
     1
102
RTVSPropertyOp49
 70
     1
102
RTVSPropertyOp50
 70
     1
102
RTVSPropertyOp51
 70
     0
102
RTVSPropertyOp52
 70
     0
102
RTVSPropertyOp53
 70
     1
102
RTVSPropertyOp54
 70
     1
102
RTVSPropertyOp55
 70
     1
102
RTVSPropertyOp56
 70
     1
102
RTVSPropertyOp57
 70
     1
102
RTVSPropertyOp58
 70
     1
102
RTVSPropertyOp59
 70
     1
102
RTVSPropertyOp60
 70
     1
102
RTVSPropertyOp61
 70
     1
102
RTVSPropertyOp62
 70
     1
  0
XRECORD
  5
33F
102
{ACAD_REACTORS
330
33E
102
}
330
33E
100
AcDbXrecord
280
     1
102
RTVSPost2010Prop28
280
     0
102
RTVSPost2010PropOp28
 70
     1
102
RTVSPost2010Prop29
280
     1
102
RTVSPost2010PropOp29
 70
     1
102
RTVSPost2010Prop30
280
     1
102
RTVSPost2010PropOp30
 70
     1
102
RTVSPost2010Prop31
280
     0
102
RTVSPost2010PropOp31
 70
     1
102
RTVSPost2010Prop32
280
     0
102
RTVSPost2010PropOp32
 70
     1
102
RTVSPost2010Prop33
280
     0
102
RTVSPost2010PropOp33
 70
     1
102
RTVSPost2010Prop34
280
     0
102
RTVSPost2010PropOp34
 70
     1
102
RTVSPost2010Prop35
280
     0
102
RTVSPost2010PropOp35
 70
     1
102
RTVSPost2010Prop36
280
     0
102
RTVSPost2010PropOp36
 70
     1
102
RTVSPost2010Prop37
 90
       50
102
RTVSPost2010PropOp37
 70
     1
102
RTVSPost2010Prop38
140
0.0
102
RTVSPost2010PropOp38
 70
     1
102
RTVSPost2010Prop39
140
1.0
102
RTVSPost2010PropOp39
 70
     1
102
RTVSPost2010Prop40
 90
        0
102
RTVSPost2010PropOp40
 70
     1
102
RTVSPost2010Prop41ColorIndex
 90
       18
102
RTVSPost2010Prop41ColorRGB
 90
        0
102
RTVSPost2010PropOp41
 70
     1
102
RTVSPost2010Prop42
 90
       50
102
RTVSPost2010PropOp42
 70
     1
102
RTVSPost2010Prop43
 90
        3
102
RTVSPost2010PropOp43
 70
     1
102
RTVSPost2010Prop44ColorIndex
 90
        5
102
RTVSPost2010Prop44ColorRGB
 90
      255
102
RTVSPost2010PropOp44
 70
     1
102
RTVSPost2010Prop45
280
     0
102
RTVSPost2010PropOp45
 70
     1
102
RTVSPost2010Prop46
 90
       50
102
RTVSPost2010PropOp46
 70
     1
102
RTVSPost2010Prop47
 90
       50
102
RTVSPost2010PropOp47
 70
     1
102
RTVSPost2010Prop48
 90
       50
102
RTVSPost2010PropOp48
 70
     1
102
RTVSPost2010Prop49
280
     0
102
RTVSPost2010PropOp49
 70
     1
102
RTVSPost2010Prop50
 90
       50
102
RTVSPost2010PropOp50
 70
     1
102
RTVSPost2010Prop51ColorIndex
 90
      256
102
RTVSPost2010Prop51ColorRGB
 90
-16777216
102
RTVSPost2010PropOp51
 70
     0
102
RTVSPost2010Prop52
140
1.0
102
RTVSPost2010PropOp52
 70
     0
102
RTVSPost2010Prop53
 90
        2
102
RTVSPost2010PropOp53
 70
     1
102
RTVSPost2010Prop54
  1
strokes_ogs.tif
102
RTVSPost2010PropOp54
 70
     1
102
RTVSPost2010Prop55
280
     0
102
RTVSPost2010PropOp55
 70
     1
102
RTVSPost2010Prop56
140
1.0
102
RTVSPost2010PropOp56
 70
     1
102
RTVSPost2010Prop57
140
1.0
102
RTVSPost2010PropOp57
 70
     1
102
RTVSPropertyOp0
 70
     1
102
RTVSPropertyOp1
 70
     1
102
RTVSPropertyOp2
 70
     1
102
RTVSPropertyOp3
 70
     1
102
RTVSPropertyOp4
 70
     1
102
RTVSPropertyOp5
 70
     1
102
RTVSPropertyOp6
 70
     1
102
RTVSPropertyOp7
 70
     1
102
RTVSPropertyOp8
 70
     1
102
RTVSPropertyOp9
 70
     1
102
RTVSPropertyOp10
 70
     1
102
RTVSPropertyOp11
 70
     1
102
RTVSPropertyOp12
 70
     1
102
RTVSPropertyOp13
 70
     1
102
RTVSPropertyOp14
 70
     1
102
RTVSPropertyOp15
 70
     1
102
RTVSPropertyOp16
 70
     1
102
RTVSPropertyOp17
 70
     1
102
RTVSPropertyOp18
 70
     1
102
RTVSPropertyOp19
 70
     1
102
RTVSPropertyOp20
 70
     1
102
RTVSPropertyOp21
 70
     1
102
RTVSPropertyOp22
 70
     1
102
RTVSPropertyOp23
 70
     1
102
RTVSPropertyOp24
 70
     1
102
RTVSPropertyOp25
 70
     1
102
RTVSPropertyOp26
 70
     1
102
RTVSPropertyOp27
 70
     1
102
RTVSPropertyOp28
 70
     1
102
RTVSPropertyOp29
 70
     1
102
RTVSPropertyOp30
 70
     1
102
RTVSPropertyOp31
 70
     1
102
RTVSPropertyOp32
 70
     1
102
RTVSPropertyOp33
 70
     1
102
RTVSPropertyOp34
 70
     1
102
RTVSPropertyOp35
 70
     1
102
RTVSPropertyOp36
 70
     1
102
RTVSPropertyOp37
 70
     1
102
RTVSPropertyOp38
 70
     1
102
RTVSPropertyOp39
 70
     1
102
RTVSPropertyOp40
 70
     1
102
RTVSPropertyOp41
 70
     1
102
RTVSPropertyOp42
 70
     1
102
RTVSPropertyOp43
 70
     1
102
RTVSPropertyOp44
 70
     1
102
RTVSPropertyOp45
 70
     1
102
RTVSPropertyOp46
 70
     1
102
RTVSPropertyOp47
 70
     1
102
RTVSPropertyOp48
 70
     1
102
RTVSPropertyOp49
 70
     1
102
RTVSPropertyOp50
 70
     1
102
RTVSPropertyOp51
 70
     0
102
RTVSPropertyOp52
 70
     0
102
RTVSPropertyOp53
 70
     1
102
RTVSPropertyOp54
 70
     1
102
RTVSPropertyOp55
 70
     1
102
RTVSPropertyOp56
 70
     1
102
RTVSPropertyOp57
 70
     1
102
RTVSPropertyOp58
 70
     1
102
RTVSPropertyOp59
 70
     1
102
RTVSPropertyOp60
 70
     1
102
RTVSPropertyOp61
 70
     1
102
RTVSPropertyOp62
 70
     1
  0
XRECORD
  5
341
102
{ACAD_REACTORS
330
340
102
}
330
340
100
AcDbXrecord
280
     1
102
RTVSPost2010Prop28
280
     0
102
RTVSPost2010PropOp28
 70
     1
102
RTVSPost2010Prop29
280
     1
102
RTVSPost2010PropOp29
 70
     1
102
RTVSPost2010Prop30
280
     1
102
RTVSPost2010PropOp30
 70
     1
102
RTVSPost2010Prop31
280
     0
102
RTVSPost2010PropOp31
 70
     1
102
RTVSPost2010Prop32
280
     0
102
RTVSPost2010PropOp32
 70
     1
102
RTVSPost2010Prop33
280
     0
102
RTVSPost2010PropOp33
 70
     1
102
RTVSPost2010Prop34
280
     0
102
RTVSPost2010PropOp34
 70
     1
102
RTVSPost2010Prop35
280
     0
102
RTVSPost2010PropOp35
 70
     1
102
RTVSPost2010Prop36
280
     0
102
RTVSPost2010PropOp36
 70
     1
102
RTVSPost2010Prop37
 90
       50
102
RTVSPost2010PropOp37
 70
     1
102
RTVSPost2010Prop38
140
0.0
102
RTVSPost2010PropOp38
 70
     1
102
RTVSPost2010Prop39
140
1.0
102
RTVSPost2010PropOp39
 70
     1
102
RTVSPost2010Prop40
 90
        0
102
RTVSPost2010PropOp40
 70
     1
102
RTVSPost2010Prop41ColorIndex
 90
       18
102
RTVSPost2010Prop41ColorRGB
 90
        0
102
RTVSPost2010PropOp41
 70
     1
102
RTVSPost2010Prop42
 90
       50
102
RTVSPost2010PropOp42
 70
     1
102
RTVSPost2010Prop43
 90
        3
102
RTVSPost2010PropOp43
 70
     1
102
RTVSPost2010Prop44ColorIndex
 90
        5
102
RTVSPost2010Prop44ColorRGB
 90
      255
102
RTVSPost2010PropOp44
 70
     1
102
RTVSPost2010Prop45
280
     0
102
RTVSPost2010PropOp45
 70
     1
102
RTVSPost2010Prop46
 90
       50
102
RTVSPost2010PropOp46
 70
     1
102
RTVSPost2010Prop47
 90
       50
102
RTVSPost2010PropOp47
 70
     1
102
RTVSPost2010Prop48
 90
       50
102
RTVSPost2010PropOp48
 70
     1
102
RTVSPost2010Prop49
280
     0
102
RTVSPost2010PropOp49
 70
     1
102
RTVSPost2010Prop50
 90
       50
102
RTVSPost2010PropOp50
 70
     1
102
RTVSPost2010Prop51ColorIndex
 90
      256
102
RTVSPost2010Prop51ColorRGB
 90
-16777216
102
RTVSPost2010PropOp51
 70
     0
102
RTVSPost2010Prop52
140
1.0
102
RTVSPost2010PropOp52
 70
     0
102
RTVSPost2010Prop53
 90
        2
102
RTVSPost2010PropOp53
 70
     1
102
RTVSPost2010Prop54
  1
strokes_ogs.tif
102
RTVSPost2010PropOp54
 70
     1
102
RTVSPost2010Prop55
280
     0
102
RTVSPost2010PropOp55
 70
     1
102
RTVSPost2010Prop56
140
1.0
102
RTVSPost2010PropOp56
 70
     1
102
RTVSPost2010Prop57
140
1.0
102
RTVSPost2010PropOp57
 70
     1
102
RTVSPropertyOp0
 70
     1
102
RTVSPropertyOp1
 70
     1
102
RTVSPropertyOp2
 70
     1
102
RTVSPropertyOp3
 70
     1
102
RTVSPropertyOp4
 70
     1
102
RTVSPropertyOp5
 70
     1
102
RTVSPropertyOp6
 70
     1
102
RTVSPropertyOp7
 70
     1
102
RTVSPropertyOp8
 70
     1
102
RTVSPropertyOp9
 70
     1
102
RTVSPropertyOp10
 70
     1
102
RTVSPropertyOp11
 70
     1
102
RTVSPropertyOp12
 70
     1
102
RTVSPropertyOp13
 70
     1
102
RTVSPropertyOp14
 70
     1
102
RTVSPropertyOp15
 70
     1
102
RTVSPropertyOp16
 70
     1
102
RTVSPropertyOp17
 70
     1
102
RTVSPropertyOp18
 70
     1
102
RTVSPropertyOp19
 70
     1
102
RTVSPropertyOp20
 70
     1
102
RTVSPropertyOp21
 70
     1
102
RTVSPropertyOp22
 70
     1
102
RTVSPropertyOp23
 70
     1
102
RTVSPropertyOp24
 70
     1
102
RTVSPropertyOp25
 70
     1
102
RTVSPropertyOp26
 70
     1
102
RTVSPropertyOp27
 70
     1
102
RTVSPropertyOp28
 70
     1
102
RTVSPropertyOp29
 70
     1
102
RTVSPropertyOp30
 70
     1
102
RTVSPropertyOp31
 70
     1
102
RTVSPropertyOp32
 70
     1
102
RTVSPropertyOp33
 70
     1
102
RTVSPropertyOp34
 70
     1
102
RTVSPropertyOp35
 70
     1
102
RTVSPropertyOp36
 70
     1
102
RTVSPropertyOp37
 70
     1
102
RTVSPropertyOp38
 70
     1
102
RTVSPropertyOp39
 70
     1
102
RTVSPropertyOp40
 70
     1
102
RTVSPropertyOp41
 70
     1
102
RTVSPropertyOp42
 70
     1
102
RTVSPropertyOp43
 70
     1
102
RTVSPropertyOp44
 70
     1
102
RTVSPropertyOp45
 70
     1
102
RTVSPropertyOp46
 70
     1
102
RTVSPropertyOp47
 70
     1
102
RTVSPropertyOp48
 70
     1
102
RTVSPropertyOp49
 70
     1
102
RTVSPropertyOp50
 70
     1
102
RTVSPropertyOp51
 70
     0
102
RTVSPropertyOp52
 70
     0
102
RTVSPropertyOp53
 70
     1
102
RTVSPropertyOp54
 70
     1
102
RTVSPropertyOp55
 70
     1
102
RTVSPropertyOp56
 70
     1
102
RTVSPropertyOp57
 70
     1
102
RTVSPropertyOp58
 70
     1
102
RTVSPropertyOp59
 70
     1
102
RTVSPropertyOp60
 70
     1
102
RTVSPropertyOp61
 70
     1
102
RTVSPropertyOp62
 70
     1
  0
XRECORD
  5
343
102
{ACAD_REACTORS
330
342
102
}
330
342
100
AcDbXrecord
280
     1
102
RTVSPost2010Prop28
280
     0
102
RTVSPost2010PropOp28
 70
     1
102
RTVSPost2010Prop29
280
     1
102
RTVSPost2010PropOp29
 70
     1
102
RTVSPost2010Prop30
280
     1
102
RTVSPost2010PropOp30
 70
     1
102
RTVSPost2010Prop31
280
     0
102
RTVSPost2010PropOp31
 70
     1
102
RTVSPost2010Prop32
280
     0
102
RTVSPost2010PropOp32
 70
     1
102
RTVSPost2010Prop33
280
     0
102
RTVSPost2010PropOp33
 70
     1
102
RTVSPost2010Prop34
280
     0
102
RTVSPost2010PropOp34
 70
     1
102
RTVSPost2010Prop35
280
     0
102
RTVSPost2010PropOp35
 70
     1
102
RTVSPost2010Prop36
280
     0
102
RTVSPost2010PropOp36
 70
     1
102
RTVSPost2010Prop37
 90
       50
102
RTVSPost2010PropOp37
 70
     1
102
RTVSPost2010Prop38
140
0.0
102
RTVSPost2010PropOp38
 70
     1
102
RTVSPost2010Prop39
140
1.0
102
RTVSPost2010PropOp39
 70
     1
102
RTVSPost2010Prop40
 90
        0
102
RTVSPost2010PropOp40
 70
     1
102
RTVSPost2010Prop41ColorIndex
 90
       18
102
RTVSPost2010Prop41ColorRGB
 90
        0
102
RTVSPost2010PropOp41
 70
     1
102
RTVSPost2010Prop42
 90
       50
102
RTVSPost2010PropOp42
 70
     1
102
RTVSPost2010Prop43
 90
        3
102
RTVSPost2010PropOp43
 70
     1
102
RTVSPost2010Prop44ColorIndex
 90
        5
102
RTVSPost2010Prop44ColorRGB
 90
      255
102
RTVSPost2010PropOp44
 70
     1
102
RTVSPost2010Prop45
280
     0
102
RTVSPost2010PropOp45
 70
     1
102
RTVSPost2010Prop46
 90
       50
102
RTVSPost2010PropOp46
 70
     1
102
RTVSPost2010Prop47
 90
       50
102
RTVSPost2010PropOp47
 70
     1
102
RTVSPost2010Prop48
 90
       50
102
RTVSPost2010PropOp48
 70
     1
102
RTVSPost2010Prop49
280
     0
102
RTVSPost2010PropOp49
 70
     1
102
RTVSPost2010Prop50
 90
       50
102
RTVSPost2010PropOp50
 70
     1
102
RTVSPost2010Prop51ColorIndex
 90
      256
102
RTVSPost2010Prop51ColorRGB
 90
-16777216
102
RTVSPost2010PropOp51
 70
     0
102
RTVSPost2010Prop52
140
1.0
102
RTVSPost2010PropOp52
 70
     0
102
RTVSPost2010Prop53
 90
        2
102
RTVSPost2010PropOp53
 70
     1
102
RTVSPost2010Prop54
  1
strokes_ogs.tif
102
RTVSPost2010PropOp54
 70
     1
102
RTVSPost2010Prop55
280
     0
102
RTVSPost2010PropOp55
 70
     1
102
RTVSPost2010Prop56
140
1.0
102
RTVSPost2010PropOp56
 70
     1
102
RTVSPost2010Prop57
140
1.0
102
RTVSPost2010PropOp57
 70
     1
102
RTVSPropertyOp0
 70
     1
102
RTVSPropertyOp1
 70
     1
102
RTVSPropertyOp2
 70
     1
102
RTVSPropertyOp3
 70
     1
102
RTVSPropertyOp4
 70
     1
102
RTVSPropertyOp5
 70
     1
102
RTVSPropertyOp6
 70
     1
102
RTVSPropertyOp7
 70
     1
102
RTVSPropertyOp8
 70
     1
102
RTVSPropertyOp9
 70
     1
102
RTVSPropertyOp10
 70
     1
102
RTVSPropertyOp11
 70
     1
102
RTVSPropertyOp12
 70
     1
102
RTVSPropertyOp13
 70
     1
102
RTVSPropertyOp14
 70
     1
102
RTVSPropertyOp15
 70
     1
102
RTVSPropertyOp16
 70
     1
102
RTVSPropertyOp17
 70
     1
102
RTVSPropertyOp18
 70
     1
102
RTVSPropertyOp19
 70
     1
102
RTVSPropertyOp20
 70
     1
102
RTVSPropertyOp21
 70
     1
102
RTVSPropertyOp22
 70
     1
102
RTVSPropertyOp23
 70
     1
102
RTVSPropertyOp24
 70
     1
102
RTVSPropertyOp25
 70
     1
102
RTVSPropertyOp26
 70
     1
102
RTVSPropertyOp27
 70
     1
102
RTVSPropertyOp28
 70
     1
102
RTVSPropertyOp29
 70
     1
102
RTVSPropertyOp30
 70
     1
102
RTVSPropertyOp31
 70
     1
102
RTVSPropertyOp32
 70
     1
102
RTVSPropertyOp33
 70
     1
102
RTVSPropertyOp34
 70
     1
102
RTVSPropertyOp35
 70
     1
102
RTVSPropertyOp36
 70
     1
102
RTVSPropertyOp37
 70
     1
102
RTVSPropertyOp38
 70
     1
102
RTVSPropertyOp39
 70
     1
102
RTVSPropertyOp40
 70
     1
102
RTVSPropertyOp41
 70
     1
102
RTVSPropertyOp42
 70
     1
102
RTVSPropertyOp43
 70
     1
102
RTVSPropertyOp44
 70
     1
102
RTVSPropertyOp45
 70
     1
102
RTVSPropertyOp46
 70
     1
102
RTVSPropertyOp47
 70
     1
102
RTVSPropertyOp48
 70
     1
102
RTVSPropertyOp49
 70
     1
102
RTVSPropertyOp50
 70
     1
102
RTVSPropertyOp51
 70
     0
102
RTVSPropertyOp52
 70
     0
102
RTVSPropertyOp53
 70
     1
102
RTVSPropertyOp54
 70
     1
102
RTVSPropertyOp55
 70
     1
102
RTVSPropertyOp56
 70
     1
102
RTVSPropertyOp57
 70
     1
102
RTVSPropertyOp58
 70
     1
102
RTVSPropertyOp59
 70
     1
102
RTVSPropertyOp60
 70
     1
102
RTVSPropertyOp61
 70
     1
102
RTVSPropertyOp62
 70
     1
  0
XRECORD
  5
349
102
{ACAD_REACTORS
330
348
102
}
330
348
100
AcDbXrecord
280
     1
102
RTVSPost2010Prop28
280
     0
102
RTVSPost2010PropOp28
 70
     1
102
RTVSPost2010Prop29
280
     1
102
RTVSPost2010PropOp29
 70
     1
102
RTVSPost2010Prop30
280
     1
102
RTVSPost2010PropOp30
 70
     1
102
RTVSPost2010Prop31
280
     0
102
RTVSPost2010PropOp31
 70
     1
102
RTVSPost2010Prop32
280
     0
102
RTVSPost2010PropOp32
 70
     1
102
RTVSPost2010Prop33
280
     0
102
RTVSPost2010PropOp33
 70
     1
102
RTVSPost2010Prop34
280
     0
102
RTVSPost2010PropOp34
 70
     1
102
RTVSPost2010Prop35
280
     0
102
RTVSPost2010PropOp35
 70
     1
102
RTVSPost2010Prop36
280
     0
102
RTVSPost2010PropOp36
 70
     1
102
RTVSPost2010Prop37
 90
       50
102
RTVSPost2010PropOp37
 70
     1
102
RTVSPost2010Prop38
140
0.0
102
RTVSPost2010PropOp38
 70
     1
102
RTVSPost2010Prop39
140
1.0
102
RTVSPost2010PropOp39
 70
     1
102
RTVSPost2010Prop40
 90
        0
102
RTVSPost2010PropOp40
 70
     1
102
RTVSPost2010Prop41ColorIndex
 90
       18
102
RTVSPost2010Prop41ColorRGB
 90
        0
102
RTVSPost2010PropOp41
 70
     1
102
RTVSPost2010Prop42
 90
       50
102
RTVSPost2010PropOp42
 70
     1
102
RTVSPost2010Prop43
 90
        3
102
RTVSPost2010PropOp43
 70
     1
102
RTVSPost2010Prop44ColorIndex
 90
        5
102
RTVSPost2010Prop44ColorRGB
 90
      255
102
RTVSPost2010PropOp44
 70
     1
102
RTVSPost2010Prop45
280
     0
102
RTVSPost2010PropOp45
 70
     1
102
RTVSPost2010Prop46
 90
       50
102
RTVSPost2010PropOp46
 70
     1
102
RTVSPost2010Prop47
 90
       50
102
RTVSPost2010PropOp47
 70
     1
102
RTVSPost2010Prop48
 90
       50
102
RTVSPost2010PropOp48
 70
     1
102
RTVSPost2010Prop49
280
     0
102
RTVSPost2010PropOp49
 70
     1
102
RTVSPost2010Prop50
 90
       50
102
RTVSPost2010PropOp50
 70
     1
102
RTVSPost2010Prop51ColorIndex
 90
      256
102
RTVSPost2010Prop51ColorRGB
 90
-16777216
102
RTVSPost2010PropOp51
 70
     0
102
RTVSPost2010Prop52
140
1.0
102
RTVSPost2010PropOp52
 70
     0
102
RTVSPost2010Prop53
 90
        2
102
RTVSPost2010PropOp53
 70
     1
102
RTVSPost2010Prop54
  1
strokes_ogs.tif
102
RTVSPost2010PropOp54
 70
     1
102
RTVSPost2010Prop55
280
     0
102
RTVSPost2010PropOp55
 70
     1
102
RTVSPost2010Prop56
140
1.0
102
RTVSPost2010PropOp56
 70
     1
102
RTVSPost2010Prop57
140
1.0
102
RTVSPost2010PropOp57
 70
     1
102
RTVSPropertyOp0
 70
     1
102
RTVSPropertyOp1
 70
     1
102
RTVSPropertyOp2
 70
     1
102
RTVSPropertyOp3
 70
     1
102
RTVSPropertyOp4
 70
     1
102
RTVSPropertyOp5
 70
     1
102
RTVSPropertyOp6
 70
     1
102
RTVSPropertyOp7
 70
     1
102
RTVSPropertyOp8
 70
     1
102
RTVSPropertyOp9
 70
     1
102
RTVSPropertyOp10
 70
     1
102
RTVSPropertyOp11
 70
     1
102
RTVSPropertyOp12
 70
     1
102
RTVSPropertyOp13
 70
     1
102
RTVSPropertyOp14
 70
     1
102
RTVSPropertyOp15
 70
     1
102
RTVSPropertyOp16
 70
     1
102
RTVSPropertyOp17
 70
     1
102
RTVSPropertyOp18
 70
     1
102
RTVSPropertyOp19
 70
     1
102
RTVSPropertyOp20
 70
     1
102
RTVSPropertyOp21
 70
     1
102
RTVSPropertyOp22
 70
     1
102
RTVSPropertyOp23
 70
     1
102
RTVSPropertyOp24
 70
     1
102
RTVSPropertyOp25
 70
     1
102
RTVSPropertyOp26
 70
     1
102
RTVSPropertyOp27
 70
     1
102
RTVSPropertyOp28
 70
     1
102
RTVSPropertyOp29
 70
     1
102
RTVSPropertyOp30
 70
     1
102
RTVSPropertyOp31
 70
     1
102
RTVSPropertyOp32
 70
     1
102
RTVSPropertyOp33
 70
     1
102
RTVSPropertyOp34
 70
     1
102
RTVSPropertyOp35
 70
     1
102
RTVSPropertyOp36
 70
     1
102
RTVSPropertyOp37
 70
     1
102
RTVSPropertyOp38
 70
     1
102
RTVSPropertyOp39
 70
     1
102
RTVSPropertyOp40
 70
     1
102
RTVSPropertyOp41
 70
     1
102
RTVSPropertyOp42
 70
     1
102
RTVSPropertyOp43
 70
     1
102
RTVSPropertyOp44
 70
     1
102
RTVSPropertyOp45
 70
     1
102
RTVSPropertyOp46
 70
     1
102
RTVSPropertyOp47
 70
     1
102
RTVSPropertyOp48
 70
     1
102
RTVSPropertyOp49
 70
     1
102
RTVSPropertyOp50
 70
     1
102
RTVSPropertyOp51
 70
     0
102
RTVSPropertyOp52
 70
     0
102
RTVSPropertyOp53
 70
     1
102
RTVSPropertyOp54
 70
     1
102
RTVSPropertyOp55
 70
     1
102
RTVSPropertyOp56
 70
     1
102
RTVSPropertyOp57
 70
     1
102
RTVSPropertyOp58
 70
     1
102
RTVSPropertyOp59
 70
     1
102
RTVSPropertyOp60
 70
     1
102
RTVSPropertyOp61
 70
     1
102
RTVSPropertyOp62
 70
     1
  0
XRECORD
  5
35D
102
{ACAD_REACTORS
330
35C
102
}
330
35C
100
AcDbXrecord
280
     1
102
RTVSPost2010Prop28
280
     0
102
RTVSPost2010PropOp28
 70
     0
102
RTVSPost2010Prop29
280
     1
102
RTVSPost2010PropOp29
 70
     0
102
RTVSPost2010Prop30
280
     1
102
RTVSPost2010PropOp30
 70
     0
102
RTVSPost2010Prop31
280
     0
102
RTVSPost2010PropOp31
 70
     0
102
RTVSPost2010Prop32
280
     0
102
RTVSPost2010PropOp32
 70
     0
102
RTVSPost2010Prop33
280
     0
102
RTVSPost2010PropOp33
 70
     0
102
RTVSPost2010Prop34
280
     0
102
RTVSPost2010PropOp34
 70
     0
102
RTVSPost2010Prop35
280
     0
102
RTVSPost2010PropOp35
 70
     0
102
RTVSPost2010Prop36
280
     0
102
RTVSPost2010PropOp36
 70
     0
102
RTVSPost2010Prop37
 90
       50
102
RTVSPost2010PropOp37
 70
     0
102
RTVSPost2010Prop38
140
0.0
102
RTVSPost2010PropOp38
 70
     0
102
RTVSPost2010Prop39
140
1.0
102
RTVSPost2010PropOp39
 70
     0
102
RTVSPost2010Prop40
 90
        0
102
RTVSPost2010PropOp40
 70
     0
102
RTVSPost2010Prop41ColorIndex
 90
       18
102
RTVSPost2010Prop41ColorRGB
 90
        0
102
RTVSPost2010PropOp41
 70
     0
102
RTVSPost2010Prop42
 90
       50
102
RTVSPost2010PropOp42
 70
     0
102
RTVSPost2010Prop43
 90
        3
102
RTVSPost2010PropOp43
 70
     0
102
RTVSPost2010Prop44ColorIndex
 90
        5
102
RTVSPost2010Prop44ColorRGB
 90
      255
102
RTVSPost2010PropOp44
 70
     0
102
RTVSPost2010Prop45
280
     0
102
RTVSPost2010PropOp45
 70
     0
102
RTVSPost2010Prop46
 90
       50
102
RTVSPost2010PropOp46
 70
     0
102
RTVSPost2010Prop47
 90
       50
102
RTVSPost2010PropOp47
 70
     0
102
RTVSPost2010Prop48
 90
       50
102
RTVSPost2010PropOp48
 70
     0
102
RTVSPost2010Prop49
280
     0
102
RTVSPost2010PropOp49
 70
     0
102
RTVSPost2010Prop50
 90
       50
102
RTVSPost2010PropOp50
 70
     0
102
RTVSPost2010Prop51ColorIndex
 90
      256
102
RTVSPost2010Prop51ColorRGB
 90
-16777216
102
RTVSPost2010PropOp51
 70
     0
102
RTVSPost2010Prop52
140
1.0
102
RTVSPost2010PropOp52
 70
     0
102
RTVSPost2010Prop53
 90
        2
102
RTVSPost2010PropOp53
 70
     0
102
RTVSPost2010Prop54
  1
strokes_ogs.tif
102
RTVSPost2010PropOp54
 70
     0
102
RTVSPost2010Prop55
280
     0
102
RTVSPost2010PropOp55
 70
     0
102
RTVSPost2010Prop56
140
1.0
102
RTVSPost2010PropOp56
 70
     0
102
RTVSPost2010Prop57
140
1.0
102
RTVSPost2010PropOp57
 70
     0
102
RTVSPropertyOp0
 70
     0
102
RTVSPropertyOp1
 70
     0
102
RTVSPropertyOp2
 70
     0
102
RTVSPropertyOp3
 70
     0
102
RTVSPropertyOp4
 70
     0
102
RTVSPropertyOp5
 70
     0
102
RTVSPropertyOp6
 70
     0
102
RTVSPropertyOp7
 70
     0
102
RTVSPropertyOp8
 70
     0
102
RTVSPropertyOp9
 70
     0
102
RTVSPropertyOp10
 70
     0
102
RTVSPropertyOp11
 70
     0
102
RTVSPropertyOp12
 70
     0
102
RTVSPropertyOp13
 70
     0
102
RTVSPropertyOp14
 70
     2
102
RTVSPropertyOp15
 70
     0
102
RTVSPropertyOp16
 70
     0
102
RTVSPropertyOp17
 70
     0
102
RTVSPropertyOp18
 70
     0
102
RTVSPropertyOp19
 70
     0
102
RTVSPropertyOp20
 70
     0
102
RTVSPropertyOp21
 70
     0
102
RTVSPropertyOp22
 70
     0
102
RTVSPropertyOp23
 70
     0
102
RTVSPropertyOp24
 70
     0
102
RTVSPropertyOp25
 70
     0
102
RTVSPropertyOp26
 70
     0
102
RTVSPropertyOp27
 70
     0
102
RTVSPropertyOp28
 70
     0
102
RTVSPropertyOp29
 70
     0
102
RTVSPropertyOp30
 70
     0
102
RTVSPropertyOp31
 70
     0
102
RTVSPropertyOp32
 70
     0
102
RTVSPropertyOp33
 70
     0
102
RTVSPropertyOp34
 70
     0
102
RTVSPropertyOp35
 70
     0
102
RTVSPropertyOp36
 70
     0
102
RTVSPropertyOp37
 70
     0
102
RTVSPropertyOp38
 70
     0
102
RTVSPropertyOp39
 70
     0
102
RTVSPropertyOp40
 70
     0
102
RTVSPropertyOp41
 70
     0
102
RTVSPropertyOp42
 70
     0
102
RTVSPropertyOp43
 70
     0
102
RTVSPropertyOp44
 70
     0
102
RTVSPropertyOp45
 70
     0
102
RTVSPropertyOp46
 70
     0
102
RTVSPropertyOp47
 70
     0
102
RTVSPropertyOp48
 70
     0
102
RTVSPropertyOp49
 70
     0
102
RTVSPropertyOp50
 70
     0
102
RTVSPropertyOp51
 70
     0
102
RTVSPropertyOp52
 70
     0
102
RTVSPropertyOp53
 70
     0
102
RTVSPropertyOp54
 70
     0
102
RTVSPropertyOp55
 70
     0
102
RTVSPropertyOp56
 70
     0
102
RTVSPropertyOp57
 70
     0
102
RTVSPropertyOp58
 70
     1
102
RTVSPropertyOp59
 70
     1
102
RTVSPropertyOp60
 70
     1
102
RTVSPropertyOp61
 70
     1
102
RTVSPropertyOp62
 70
     1
  0
XRECORD
  5
357
102
{ACAD_REACTORS
330
356
102
}
330
356
100
AcDbXrecord
280
     1
102
RTVSPost2010Prop28
280
     0
102
RTVSPost2010PropOp28
 70
     1
102
RTVSPost2010Prop29
280
     1
102
RTVSPost2010PropOp29
 70
     1
102
RTVSPost2010Prop30
280
     1
102
RTVSPost2010PropOp30
 70
     1
102
RTVSPost2010Prop31
280
     0
102
RTVSPost2010PropOp31
 70
     1
102
RTVSPost2010Prop32
280
     0
102
RTVSPost2010PropOp32
 70
     1
102
RTVSPost2010Prop33
280
     0
102
RTVSPost2010PropOp33
 70
     1
102
RTVSPost2010Prop34
280
     0
102
RTVSPost2010PropOp34
 70
     1
102
RTVSPost2010Prop35
280
     0
102
RTVSPost2010PropOp35
 70
     1
102
RTVSPost2010Prop36
280
     0
102
RTVSPost2010PropOp36
 70
     1
102
RTVSPost2010Prop37
 90
       50
102
RTVSPost2010PropOp37
 70
     1
102
RTVSPost2010Prop38
140
0.0
102
RTVSPost2010PropOp38
 70
     1
102
RTVSPost2010Prop39
140
1.0
102
RTVSPost2010PropOp39
 70
     1
102
RTVSPost2010Prop40
 90
        0
102
RTVSPost2010PropOp40
 70
     1
102
RTVSPost2010Prop41ColorIndex
 90
       18
102
RTVSPost2010Prop41ColorRGB
 90
        0
102
RTVSPost2010PropOp41
 70
     1
102
RTVSPost2010Prop42
 90
       50
102
RTVSPost2010PropOp42
 70
     1
102
RTVSPost2010Prop43
 90
        3
102
RTVSPost2010PropOp43
 70
     1
102
RTVSPost2010Prop44ColorIndex
 90
        5
102
RTVSPost2010Prop44ColorRGB
 90
      255
102
RTVSPost2010PropOp44
 70
     1
102
RTVSPost2010Prop45
280
     0
102
RTVSPost2010PropOp45
 70
     1
102
RTVSPost2010Prop46
 90
       50
102
RTVSPost2010PropOp46
 70
     1
102
RTVSPost2010Prop47
 90
       50
102
RTVSPost2010PropOp47
 70
     1
102
RTVSPost2010Prop48
 90
       50
102
RTVSPost2010PropOp48
 70
     1
102
RTVSPost2010Prop49
280
     0
102
RTVSPost2010PropOp49
 70
     1
102
RTVSPost2010Prop50
 90
       50
102
RTVSPost2010PropOp50
 70
     1
102
RTVSPost2010Prop51ColorIndex
 90
      256
102
RTVSPost2010Prop51ColorRGB
 90
-16777216
102
RTVSPost2010PropOp51
 70
     0
102
RTVSPost2010Prop52
140
1.0
102
RTVSPost2010PropOp52
 70
     0
102
RTVSPost2010Prop53
 90
        2
102
RTVSPost2010PropOp53
 70
     1
102
RTVSPost2010Prop54
  1
strokes_ogs.tif
102
RTVSPost2010PropOp54
 70
     1
102
RTVSPost2010Prop55
280
     0
102
RTVSPost2010PropOp55
 70
     1
102
RTVSPost2010Prop56
140
1.0
102
RTVSPost2010PropOp56
 70
     1
102
RTVSPost2010Prop57
140
1.0
102
RTVSPost2010PropOp57
 70
     1
102
RTVSPropertyOp0
 70
     1
102
RTVSPropertyOp1
 70
     1
102
RTVSPropertyOp2
 70
     1
102
RTVSPropertyOp3
 70
     1
102
RTVSPropertyOp4
 70
     1
102
RTVSPropertyOp5
 70
     1
102
RTVSPropertyOp6
 70
     1
102
RTVSPropertyOp7
 70
     1
102
RTVSPropertyOp8
 70
     1
102
RTVSPropertyOp9
 70
     1
102
RTVSPropertyOp10
 70
     1
102
RTVSPropertyOp11
 70
     1
102
RTVSPropertyOp12
 70
     1
102
RTVSPropertyOp13
 70
     1
102
RTVSPropertyOp14
 70
     1
102
RTVSPropertyOp15
 70
     1
102
RTVSPropertyOp16
 70
     1
102
RTVSPropertyOp17
 70
     1
102
RTVSPropertyOp18
 70
     1
102
RTVSPropertyOp19
 70
     1
102
RTVSPropertyOp20
 70
     1
102
RTVSPropertyOp21
 70
     1
102
RTVSPropertyOp22
 70
     1
102
RTVSPropertyOp23
 70
     1
102
RTVSPropertyOp24
 70
     1
102
RTVSPropertyOp25
 70
     1
102
RTVSPropertyOp26
 70
     1
102
RTVSPropertyOp27
 70
     1
102
RTVSPropertyOp28
 70
     1
102
RTVSPropertyOp29
 70
     1
102
RTVSPropertyOp30
 70
     1
102
RTVSPropertyOp31
 70
     1
102
RTVSPropertyOp32
 70
     1
102
RTVSPropertyOp33
 70
     1
102
RTVSPropertyOp34
 70
     1
102
RTVSPropertyOp35
 70
     1
102
RTVSPropertyOp36
 70
     1
102
RTVSPropertyOp37
 70
     1
102
RTVSPropertyOp38
 70
     1
102
RTVSPropertyOp39
 70
     1
102
RTVSPropertyOp40
 70
     1
102
RTVSPropertyOp41
 70
     1
102
RTVSPropertyOp42
 70
     1
102
RTVSPropertyOp43
 70
     1
102
RTVSPropertyOp44
 70
     1
102
RTVSPropertyOp45
 70
     1
102
RTVSPropertyOp46
 70
     1
102
RTVSPropertyOp47
 70
     1
102
RTVSPropertyOp48
 70
     1
102
RTVSPropertyOp49
 70
     1
102
RTVSPropertyOp50
 70
     1
102
RTVSPropertyOp51
 70
     0
102
RTVSPropertyOp52
 70
     0
102
RTVSPropertyOp53
 70
     1
102
RTVSPropertyOp54
 70
     1
102
RTVSPropertyOp55
 70
     1
102
RTVSPropertyOp56
 70
     1
102
RTVSPropertyOp57
 70
     1
102
RTVSPropertyOp58
 70
     1
102
RTVSPropertyOp59
 70
     1
102
RTVSPropertyOp60
 70
     1
102
RTVSPropertyOp61
 70
     1
102
RTVSPropertyOp62
 70
     1
  0
XRECORD
  5
35F
102
{ACAD_REACTORS
330
35E
102
}
330
35E
100
AcDbXrecord
280
     1
102
RTVSPost2010Prop28
280
     0
102
RTVSPost2010PropOp28
 70
     0
102
RTVSPost2010Prop29
280
     1
102
RTVSPost2010PropOp29
 70
     0
102
RTVSPost2010Prop30
280
     1
102
RTVSPost2010PropOp30
 70
     0
102
RTVSPost2010Prop31
280
     0
102
RTVSPost2010PropOp31
 70
     0
102
RTVSPost2010Prop32
280
     0
102
RTVSPost2010PropOp32
 70
     0
102
RTVSPost2010Prop33
280
     0
102
RTVSPost2010PropOp33
 70
     0
102
RTVSPost2010Prop34
280
     0
102
RTVSPost2010PropOp34
 70
     0
102
RTVSPost2010Prop35
280
     0
102
RTVSPost2010PropOp35
 70
     0
102
RTVSPost2010Prop36
280
     0
102
RTVSPost2010PropOp36
 70
     0
102
RTVSPost2010Prop37
 90
       50
102
RTVSPost2010PropOp37
 70
     0
102
RTVSPost2010Prop38
140
0.0
102
RTVSPost2010PropOp38
 70
     0
102
RTVSPost2010Prop39
140
1.0
102
RTVSPost2010PropOp39
 70
     0
102
RTVSPost2010Prop40
 90
        0
102
RTVSPost2010PropOp40
 70
     0
102
RTVSPost2010Prop41ColorIndex
 90
       18
102
RTVSPost2010Prop41ColorRGB
 90
        0
102
RTVSPost2010PropOp41
 70
     0
102
RTVSPost2010Prop42
 90
       50
102
RTVSPost2010PropOp42
 70
     0
102
RTVSPost2010Prop43
 90
        3
102
RTVSPost2010PropOp43
 70
     0
102
RTVSPost2010Prop44ColorIndex
 90
        5
102
RTVSPost2010Prop44ColorRGB
 90
      255
102
RTVSPost2010PropOp44
 70
     0
102
RTVSPost2010Prop45
280
     0
102
RTVSPost2010PropOp45
 70
     0
102
RTVSPost2010Prop46
 90
       50
102
RTVSPost2010PropOp46
 70
     0
102
RTVSPost2010Prop47
 90
       50
102
RTVSPost2010PropOp47
 70
     0
102
RTVSPost2010Prop48
 90
       50
102
RTVSPost2010PropOp48
 70
     0
102
RTVSPost2010Prop49
280
     0
102
RTVSPost2010PropOp49
 70
     0
102
RTVSPost2010Prop50
 90
       50
102
RTVSPost2010PropOp50
 70
     0
102
RTVSPost2010Prop51ColorIndex
 90
      256
102
RTVSPost2010Prop51ColorRGB
 90
-16777216
102
RTVSPost2010PropOp51
 70
     0
102
RTVSPost2010Prop52
140
1.0
102
RTVSPost2010PropOp52
 70
     0
102
RTVSPost2010Prop53
 90
        2
102
RTVSPost2010PropOp53
 70
     0
102
RTVSPost2010Prop54
  1
strokes_ogs.tif
102
RTVSPost2010PropOp54
 70
     0
102
RTVSPost2010Prop55
280
     0
102
RTVSPost2010PropOp55
 70
     0
102
RTVSPost2010Prop56
140
1.0
102
RTVSPost2010PropOp56
 70
     0
102
RTVSPost2010Prop57
140
1.0
102
RTVSPost2010PropOp57
 70
     0
102
RTVSPropertyOp0
 70
     0
102
RTVSPropertyOp1
 70
     0
102
RTVSPropertyOp2
 70
     0
102
RTVSPropertyOp3
 70
     0
102
RTVSPropertyOp4
 70
     0
102
RTVSPropertyOp5
 70
     0
102
RTVSPropertyOp6
 70
     0
102
RTVSPropertyOp7
 70
     0
102
RTVSPropertyOp8
 70
     0
102
RTVSPropertyOp9
 70
     0
102
RTVSPropertyOp10
 70
     0
102
RTVSPropertyOp11
 70
     0
102
RTVSPropertyOp12
 70
     0
102
RTVSPropertyOp13
 70
     0
102
RTVSPropertyOp14
 70
     2
102
RTVSPropertyOp15
 70
     0
102
RTVSPropertyOp16
 70
     0
102
RTVSPropertyOp17
 70
     0
102
RTVSPropertyOp18
 70
     0
102
RTVSPropertyOp19
 70
     0
102
RTVSPropertyOp20
 70
     0
102
RTVSPropertyOp21
 70
     0
102
RTVSPropertyOp22
 70
     0
102
RTVSPropertyOp23
 70
     0
102
RTVSPropertyOp24
 70
     0
102
RTVSPropertyOp25
 70
     0
102
RTVSPropertyOp26
 70
     0
102
RTVSPropertyOp27
 70
     0
102
RTVSPropertyOp28
 70
     0
102
RTVSPropertyOp29
 70
     0
102
RTVSPropertyOp30
 70
     0
102
RTVSPropertyOp31
 70
     0
102
RTVSPropertyOp32
 70
     0
102
RTVSPropertyOp33
 70
     0
102
RTVSPropertyOp34
 70
     0
102
RTVSPropertyOp35
 70
     0
102
RTVSPropertyOp36
 70
     0
102
RTVSPropertyOp37
 70
     0
102
RTVSPropertyOp38
 70
     0
102
RTVSPropertyOp39
 70
     0
102
RTVSPropertyOp40
 70
     0
102
RTVSPropertyOp41
 70
     0
102
RTVSPropertyOp42
 70
     0
102
RTVSPropertyOp43
 70
     0
102
RTVSPropertyOp44
 70
     0
102
RTVSPropertyOp45
 70
     0
102
RTVSPropertyOp46
 70
     0
102
RTVSPropertyOp47
 70
     0
102
RTVSPropertyOp48
 70
     0
102
RTVSPropertyOp49
 70
     0
102
RTVSPropertyOp50
 70
     0
102
RTVSPropertyOp51
 70
     0
102
RTVSPropertyOp52
 70
     0
102
RTVSPropertyOp53
 70
     0
102
RTVSPropertyOp54
 70
     0
102
RTVSPropertyOp55
 70
     0
102
RTVSPropertyOp56
 70
     0
102
RTVSPropertyOp57
 70
     0
102
RTVSPropertyOp58
 70
     1
102
RTVSPropertyOp59
 70
     1
102
RTVSPropertyOp60
 70
     1
102
RTVSPropertyOp61
 70
     1
102
RTVSPropertyOp62
 70
     1
  0
XRECORD
  5
34D
102
{ACAD_REACTORS
330
34C
102
}
330
34C
100
AcDbXrecord
280
     1
102
RTVSPost2010Prop28
280
     0
102
RTVSPost2010PropOp28
 70
     1
102
RTVSPost2010Prop29
280
     1
102
RTVSPost2010PropOp29
 70
     1
102
RTVSPost2010Prop30
280
     1
102
RTVSPost2010PropOp30
 70
     1
102
RTVSPost2010Prop31
280
     0
102
RTVSPost2010PropOp31
 70
     1
102
RTVSPost2010Prop32
280
     0
102
RTVSPost2010PropOp32
 70
     1
102
RTVSPost2010Prop33
280
     0
102
RTVSPost2010PropOp33
 70
     1
102
RTVSPost2010Prop34
280
     0
102
RTVSPost2010PropOp34
 70
     1
102
RTVSPost2010Prop35
280
     0
102
RTVSPost2010PropOp35
 70
     1
102
RTVSPost2010Prop36
280
     0
102
RTVSPost2010PropOp36
 70
     1
102
RTVSPost2010Prop37
 90
       50
102
RTVSPost2010PropOp37
 70
     1
102
RTVSPost2010Prop38
140
0.0
102
RTVSPost2010PropOp38
 70
     1
102
RTVSPost2010Prop39
140
1.0
102
RTVSPost2010PropOp39
 70
     1
102
RTVSPost2010Prop40
 90
        0
102
RTVSPost2010PropOp40
 70
     1
102
RTVSPost2010Prop41ColorIndex
 90
       18
102
RTVSPost2010Prop41ColorRGB
 90
        0
102
RTVSPost2010PropOp41
 70
     1
102
RTVSPost2010Prop42
 90
       50
102
RTVSPost2010PropOp42
 70
     1
102
RTVSPost2010Prop43
 90
        3
102
RTVSPost2010PropOp43
 70
     1
102
RTVSPost2010Prop44ColorIndex
 90
        5
102
RTVSPost2010Prop44ColorRGB
 90
      255
102
RTVSPost2010PropOp44
 70
     1
102
RTVSPost2010Prop45
280
     0
102
RTVSPost2010PropOp45
 70
     1
102
RTVSPost2010Prop46
 90
       50
102
RTVSPost2010PropOp46
 70
     1
102
RTVSPost2010Prop47
 90
       50
102
RTVSPost2010PropOp47
 70
     1
102
RTVSPost2010Prop48
 90
       50
102
RTVSPost2010PropOp48
 70
     1
102
RTVSPost2010Prop49
280
     0
102
RTVSPost2010PropOp49
 70
     1
102
RTVSPost2010Prop50
 90
       50
102
RTVSPost2010PropOp50
 70
     1
102
RTVSPost2010Prop51ColorIndex
 90
      256
102
RTVSPost2010Prop51ColorRGB
 90
-16777216
102
RTVSPost2010PropOp51
 70
     0
102
RTVSPost2010Prop52
140
1.0
102
RTVSPost2010PropOp52
 70
     0
102
RTVSPost2010Prop53
 90
        2
102
RTVSPost2010PropOp53
 70
     1
102
RTVSPost2010Prop54
  1
strokes_ogs.tif
102
RTVSPost2010PropOp54
 70
     1
102
RTVSPost2010Prop55
280
     0
102
RTVSPost2010PropOp55
 70
     1
102
RTVSPost2010Prop56
140
1.0
102
RTVSPost2010PropOp56
 70
     1
102
RTVSPost2010Prop57
140
1.0
102
RTVSPost2010PropOp57
 70
     1
102
RTVSPropertyOp0
 70
     1
102
RTVSPropertyOp1
 70
     1
102
RTVSPropertyOp2
 70
     1
102
RTVSPropertyOp3
 70
     1
102
RTVSPropertyOp4
 70
     1
102
RTVSPropertyOp5
 70
     1
102
RTVSPropertyOp6
 70
     1
102
RTVSPropertyOp7
 70
     1
102
RTVSPropertyOp8
 70
     1
102
RTVSPropertyOp9
 70
     1
102
RTVSPropertyOp10
 70
     1
102
RTVSPropertyOp11
 70
     1
102
RTVSPropertyOp12
 70
     1
102
RTVSPropertyOp13
 70
     1
102
RTVSPropertyOp14
 70
     1
102
RTVSPropertyOp15
 70
     1
102
RTVSPropertyOp16
 70
     1
102
RTVSPropertyOp17
 70
     1
102
RTVSPropertyOp18
 70
     1
102
RTVSPropertyOp19
 70
     1
102
RTVSPropertyOp20
 70
     1
102
RTVSPropertyOp21
 70
     1
102
RTVSPropertyOp22
 70
     1
102
RTVSPropertyOp23
 70
     1
102
RTVSPropertyOp24
 70
     1
102
RTVSPropertyOp25
 70
     1
102
RTVSPropertyOp26
 70
     1
102
RTVSPropertyOp27
 70
     1
102
RTVSPropertyOp28
 70
     1
102
RTVSPropertyOp29
 70
     1
102
RTVSPropertyOp30
 70
     1
102
RTVSPropertyOp31
 70
     1
102
RTVSPropertyOp32
 70
     1
102
RTVSPropertyOp33
 70
     1
102
RTVSPropertyOp34
 70
     1
102
RTVSPropertyOp35
 70
     1
102
RTVSPropertyOp36
 70
     1
102
RTVSPropertyOp37
 70
     1
102
RTVSPropertyOp38
 70
     1
102
RTVSPropertyOp39
 70
     1
102
RTVSPropertyOp40
 70
     1
102
RTVSPropertyOp41
 70
     1
102
RTVSPropertyOp42
 70
     1
102
RTVSPropertyOp43
 70
     1
102
RTVSPropertyOp44
 70
     1
102
RTVSPropertyOp45
 70
     1
102
RTVSPropertyOp46
 70
     1
102
RTVSPropertyOp47
 70
     1
102
RTVSPropertyOp48
 70
     1
102
RTVSPropertyOp49
 70
     1
102
RTVSPropertyOp50
 70
     1
102
RTVSPropertyOp51
 70
     0
102
RTVSPropertyOp52
 70
     0
102
RTVSPropertyOp53
 70
     1
102
RTVSPropertyOp54
 70
     1
102
RTVSPropertyOp55
 70
     1
102
RTVSPropertyOp56
 70
     1
102
RTVSPropertyOp57
 70
     1
102
RTVSPropertyOp58
 70
     1
102
RTVSPropertyOp59
 70
     1
102
RTVSPropertyOp60
 70
     1
102
RTVSPropertyOp61
 70
     1
102
RTVSPropertyOp62
 70
     1
  0
XRECORD
  5
36B
102
{ACAD_REACTORS
330
36A
102
}
330
36A
100
AcDbXrecord
280
     1
102
RTVSPost2010Prop28
280
     0
102
RTVSPost2010PropOp28
 70
     1
102
RTVSPost2010Prop29
280
     1
102
RTVSPost2010PropOp29
 70
     1
102
RTVSPost2010Prop30
280
     1
102
RTVSPost2010PropOp30
 70
     1
102
RTVSPost2010Prop31
280
     0
102
RTVSPost2010PropOp31
 70
     1
102
RTVSPost2010Prop32
280
     0
102
RTVSPost2010PropOp32
 70
     1
102
RTVSPost2010Prop33
280
     0
102
RTVSPost2010PropOp33
 70
     1
102
RTVSPost2010Prop34
280
     0
102
RTVSPost2010PropOp34
 70
     1
102
RTVSPost2010Prop35
280
     0
102
RTVSPost2010PropOp35
 70
     1
102
RTVSPost2010Prop36
280
     0
102
RTVSPost2010PropOp36
 70
     1
102
RTVSPost2010Prop37
 90
       50
102
RTVSPost2010PropOp37
 70
     1
102
RTVSPost2010Prop38
140
0.0
102
RTVSPost2010PropOp38
 70
     1
102
RTVSPost2010Prop39
140
1.0
102
RTVSPost2010PropOp39
 70
     1
102
RTVSPost2010Prop40
 90
        0
102
RTVSPost2010PropOp40
 70
     1
102
RTVSPost2010Prop41ColorIndex
 90
       18
102
RTVSPost2010Prop41ColorRGB
 90
        0
102
RTVSPost2010PropOp41
 70
     1
102
RTVSPost2010Prop42
 90
       50
102
RTVSPost2010PropOp42
 70
     1
102
RTVSPost2010Prop43
 90
        3
102
RTVSPost2010PropOp43
 70
     1
102
RTVSPost2010Prop44ColorIndex
 90
        5
102
RTVSPost2010Prop44ColorRGB
 90
      255
102
RTVSPost2010PropOp44
 70
     1
102
RTVSPost2010Prop45
280
     0
102
RTVSPost2010PropOp45
 70
     1
102
RTVSPost2010Prop46
 90
       50
102
RTVSPost2010PropOp46
 70
     1
102
RTVSPost2010Prop47
 90
       50
102
RTVSPost2010PropOp47
 70
     1
102
RTVSPost2010Prop48
 90
       50
102
RTVSPost2010PropOp48
 70
     1
102
RTVSPost2010Prop49
280
     0
102
RTVSPost2010PropOp49
 70
     1
102
RTVSPost2010Prop50
 90
       50
102
RTVSPost2010PropOp50
 70
     1
102
RTVSPost2010Prop51ColorIndex
 90
      256
102
RTVSPost2010Prop51ColorRGB
 90
-16777216
102
RTVSPost2010PropOp51
 70
     0
102
RTVSPost2010Prop52
140
1.0
102
RTVSPost2010PropOp52
 70
     0
102
RTVSPost2010Prop53
 90
        2
102
RTVSPost2010PropOp53
 70
     1
102
RTVSPost2010Prop54
  1
strokes_ogs.tif
102
RTVSPost2010PropOp54
 70
     1
102
RTVSPost2010Prop55
280
     0
102
RTVSPost2010PropOp55
 70
     1
102
RTVSPost2010Prop56
140
1.0
102
RTVSPost2010PropOp56
 70
     1
102
RTVSPost2010Prop57
140
1.0
102
RTVSPost2010PropOp57
 70
     1
102
RTVSPropertyOp0
 70
     1
102
RTVSPropertyOp1
 70
     1
102
RTVSPropertyOp2
 70
     1
102
RTVSPropertyOp3
 70
     1
102
RTVSPropertyOp4
 70
     1
102
RTVSPropertyOp5
 70
     1
102
RTVSPropertyOp6
 70
     1
102
RTVSPropertyOp7
 70
     1
102
RTVSPropertyOp8
 70
     1
102
RTVSPropertyOp9
 70
     1
102
RTVSPropertyOp10
 70
     1
102
RTVSPropertyOp11
 70
     1
102
RTVSPropertyOp12
 70
     1
102
RTVSPropertyOp13
 70
     1
102
RTVSPropertyOp14
 70
     1
102
RTVSPropertyOp15
 70
     1
102
RTVSPropertyOp16
 70
     1
102
RTVSPropertyOp17
 70
     1
102
RTVSPropertyOp18
 70
     1
102
RTVSPropertyOp19
 70
     1
102
RTVSPropertyOp20
 70
     1
102
RTVSPropertyOp21
 70
     1
102
RTVSPropertyOp22
 70
     1
102
RTVSPropertyOp23
 70
     1
102
RTVSPropertyOp24
 70
     1
102
RTVSPropertyOp25
 70
     1
102
RTVSPropertyOp26
 70
     1
102
RTVSPropertyOp27
 70
     1
102
RTVSPropertyOp28
 70
     1
102
RTVSPropertyOp29
 70
     1
102
RTVSPropertyOp30
 70
     1
102
RTVSPropertyOp31
 70
     1
102
RTVSPropertyOp32
 70
     1
102
RTVSPropertyOp33
 70
     1
102
RTVSPropertyOp34
 70
     1
102
RTVSPropertyOp35
 70
     1
102
RTVSPropertyOp36
 70
     1
102
RTVSPropertyOp37
 70
     1
102
RTVSPropertyOp38
 70
     1
102
RTVSPropertyOp39
 70
     1
102
RTVSPropertyOp40
 70
     1
102
RTVSPropertyOp41
 70
     1
102
RTVSPropertyOp42
 70
     1
102
RTVSPropertyOp43
 70
     1
102
RTVSPropertyOp44
 70
     1
102
RTVSPropertyOp45
 70
     1
102
RTVSPropertyOp46
 70
     1
102
RTVSPropertyOp47
 70
     1
102
RTVSPropertyOp48
 70
     1
102
RTVSPropertyOp49
 70
     1
102
RTVSPropertyOp50
 70
     1
102
RTVSPropertyOp51
 70
     0
102
RTVSPropertyOp52
 70
     0
102
RTVSPropertyOp53
 70
     1
102
RTVSPropertyOp54
 70
     1
102
RTVSPropertyOp55
 70
     1
102
RTVSPropertyOp56
 70
     1
102
RTVSPropertyOp57
 70
     1
102
RTVSPropertyOp58
 70
     1
102
RTVSPropertyOp59
 70
     1
102
RTVSPropertyOp60
 70
     1
102
RTVSPropertyOp61
 70
     1
102
RTVSPropertyOp62
 70
     1
  0
XRECORD
  5
369
102
{ACAD_REACTORS
330
368
102
}
330
368
100
AcDbXrecord
280
     1
102
RTVSPost2010Prop28
280
     0
102
RTVSPost2010PropOp28
 70
     1
102
RTVSPost2010Prop29
280
     1
102
RTVSPost2010PropOp29
 70
     1
102
RTVSPost2010Prop30
280
     1
102
RTVSPost2010PropOp30
 70
     1
102
RTVSPost2010Prop31
280
     0
102
RTVSPost2010PropOp31
 70
     1
102
RTVSPost2010Prop32
280
     0
102
RTVSPost2010PropOp32
 70
     1
102
RTVSPost2010Prop33
280
     0
102
RTVSPost2010PropOp33
 70
     1
102
RTVSPost2010Prop34
280
     0
102
RTVSPost2010PropOp34
 70
     1
102
RTVSPost2010Prop35
280
     0
102
RTVSPost2010PropOp35
 70
     1
102
RTVSPost2010Prop36
280
     0
102
RTVSPost2010PropOp36
 70
     1
102
RTVSPost2010Prop37
 90
       50
102
RTVSPost2010PropOp37
 70
     1
102
RTVSPost2010Prop38
140
0.0
102
RTVSPost2010PropOp38
 70
     1
102
RTVSPost2010Prop39
140
1.0
102
RTVSPost2010PropOp39
 70
     1
102
RTVSPost2010Prop40
 90
        0
102
RTVSPost2010PropOp40
 70
     1
102
RTVSPost2010Prop41ColorIndex
 90
       18
102
RTVSPost2010Prop41ColorRGB
 90
        0
102
RTVSPost2010PropOp41
 70
     1
102
RTVSPost2010Prop42
 90
       50
102
RTVSPost2010PropOp42
 70
     1
102
RTVSPost2010Prop43
 90
        3
102
RTVSPost2010PropOp43
 70
     1
102
RTVSPost2010Prop44ColorIndex
 90
        5
102
RTVSPost2010Prop44ColorRGB
 90
      255
102
RTVSPost2010PropOp44
 70
     1
102
RTVSPost2010Prop45
280
     0
102
RTVSPost2010PropOp45
 70
     1
102
RTVSPost2010Prop46
 90
       50
102
RTVSPost2010PropOp46
 70
     1
102
RTVSPost2010Prop47
 90
       50
102
RTVSPost2010PropOp47
 70
     1
102
RTVSPost2010Prop48
 90
       50
102
RTVSPost2010PropOp48
 70
     1
102
RTVSPost2010Prop49
280
     0
102
RTVSPost2010PropOp49
 70
     1
102
RTVSPost2010Prop50
 90
       50
102
RTVSPost2010PropOp50
 70
     1
102
RTVSPost2010Prop51ColorIndex
 90
      256
102
RTVSPost2010Prop51ColorRGB
 90
-16777216
102
RTVSPost2010PropOp51
 70
     0
102
RTVSPost2010Prop52
140
1.0
102
RTVSPost2010PropOp52
 70
     0
102
RTVSPost2010Prop53
 90
        2
102
RTVSPost2010PropOp53
 70
     1
102
RTVSPost2010Prop54
  1
strokes_ogs.tif
102
RTVSPost2010PropOp54
 70
     1
102
RTVSPost2010Prop55
280
     0
102
RTVSPost2010PropOp55
 70
     1
102
RTVSPost2010Prop56
140
1.0
102
RTVSPost2010PropOp56
 70
     1
102
RTVSPost2010Prop57
140
1.0
102
RTVSPost2010PropOp57
 70
     1
102
RTVSPropertyOp0
 70
     1
102
RTVSPropertyOp1
 70
     1
102
RTVSPropertyOp2
 70
     1
102
RTVSPropertyOp3
 70
     1
102
RTVSPropertyOp4
 70
     1
102
RTVSPropertyOp5
 70
     1
102
RTVSPropertyOp6
 70
     1
102
RTVSPropertyOp7
 70
     1
102
RTVSPropertyOp8
 70
     1
102
RTVSPropertyOp9
 70
     1
102
RTVSPropertyOp10
 70
     1
102
RTVSPropertyOp11
 70
     1
102
RTVSPropertyOp12
 70
     1
102
RTVSPropertyOp13
 70
     1
102
RTVSPropertyOp14
 70
     1
102
RTVSPropertyOp15
 70
     1
102
RTVSPropertyOp16
 70
     1
102
RTVSPropertyOp17
 70
     1
102
RTVSPropertyOp18
 70
     1
102
RTVSPropertyOp19
 70
     1
102
RTVSPropertyOp20
 70
     1
102
RTVSPropertyOp21
 70
     1
102
RTVSPropertyOp22
 70
     1
102
RTVSPropertyOp23
 70
     1
102
RTVSPropertyOp24
 70
     1
102
RTVSPropertyOp25
 70
     1
102
RTVSPropertyOp26
 70
     1
102
RTVSPropertyOp27
 70
     1
102
RTVSPropertyOp28
 70
     1
102
RTVSPropertyOp29
 70
     1
102
RTVSPropertyOp30
 70
     1
102
RTVSPropertyOp31
 70
     1
102
RTVSPropertyOp32
 70
     1
102
RTVSPropertyOp33
 70
     1
102
RTVSPropertyOp34
 70
     1
102
RTVSPropertyOp35
 70
     1
102
RTVSPropertyOp36
 70
     1
102
RTVSPropertyOp37
 70
     1
102
RTVSPropertyOp38
 70
     1
102
RTVSPropertyOp39
 70
     1
102
RTVSPropertyOp40
 70
     1
102
RTVSPropertyOp41
 70
     1
102
RTVSPropertyOp42
 70
     1
102
RTVSPropertyOp43
 70
     1
102
RTVSPropertyOp44
 70
     1
102
RTVSPropertyOp45
 70
     1
102
RTVSPropertyOp46
 70
     1
102
RTVSPropertyOp47
 70
     1
102
RTVSPropertyOp48
 70
     1
102
RTVSPropertyOp49
 70
     1
102
RTVSPropertyOp50
 70
     1
102
RTVSPropertyOp51
 70
     0
102
RTVSPropertyOp52
 70
     0
102
RTVSPropertyOp53
 70
     1
102
RTVSPropertyOp54
 70
     1
102
RTVSPropertyOp55
 70
     1
102
RTVSPropertyOp56
 70
     1
102
RTVSPropertyOp57
 70
     1
102
RTVSPropertyOp58
 70
     1
102
RTVSPropertyOp59
 70
     1
102
RTVSPropertyOp60
 70
     1
102
RTVSPropertyOp61
 70
     1
102
RTVSPropertyOp62
 70
     1
  0
XRECORD
  5
363
102
{ACAD_REACTORS
330
362
102
}
330
362
100
AcDbXrecord
280
     1
102
RTVSPost2010Prop28
280
     0
102
RTVSPost2010PropOp28
 70
     1
102
RTVSPost2010Prop29
280
     1
102
RTVSPost2010PropOp29
 70
     1
102
RTVSPost2010Prop30
280
     1
102
RTVSPost2010PropOp30
 70
     1
102
RTVSPost2010Prop31
280
     0
102
RTVSPost2010PropOp31
 70
     1
102
RTVSPost2010Prop32
280
     0
102
RTVSPost2010PropOp32
 70
     1
102
RTVSPost2010Prop33
280
     0
102
RTVSPost2010PropOp33
 70
     1
102
RTVSPost2010Prop34
280
     0
102
RTVSPost2010PropOp34
 70
     1
102
RTVSPost2010Prop35
280
     0
102
RTVSPost2010PropOp35
 70
     1
102
RTVSPost2010Prop36
280
     0
102
RTVSPost2010PropOp36
 70
     1
102
RTVSPost2010Prop37
 90
       50
102
RTVSPost2010PropOp37
 70
     1
102
RTVSPost2010Prop38
140
0.0
102
RTVSPost2010PropOp38
 70
     1
102
RTVSPost2010Prop39
140
1.0
102
RTVSPost2010PropOp39
 70
     1
102
RTVSPost2010Prop40
 90
        0
102
RTVSPost2010PropOp40
 70
     1
102
RTVSPost2010Prop41ColorIndex
 90
       18
102
RTVSPost2010Prop41ColorRGB
 90
        0
102
RTVSPost2010PropOp41
 70
     1
102
RTVSPost2010Prop42
 90
       50
102
RTVSPost2010PropOp42
 70
     1
102
RTVSPost2010Prop43
 90
        3
102
RTVSPost2010PropOp43
 70
     1
102
RTVSPost2010Prop44ColorIndex
 90
        5
102
RTVSPost2010Prop44ColorRGB
 90
      255
102
RTVSPost2010PropOp44
 70
     1
102
RTVSPost2010Prop45
280
     0
102
RTVSPost2010PropOp45
 70
     1
102
RTVSPost2010Prop46
 90
       50
102
RTVSPost2010PropOp46
 70
     1
102
RTVSPost2010Prop47
 90
       50
102
RTVSPost2010PropOp47
 70
     1
102
RTVSPost2010Prop48
 90
       50
102
RTVSPost2010PropOp48
 70
     1
102
RTVSPost2010Prop49
280
     0
102
RTVSPost2010PropOp49
 70
     1
102
RTVSPost2010Prop50
 90
       50
102
RTVSPost2010PropOp50
 70
     1
102
RTVSPost2010Prop51ColorIndex
 90
      256
102
RTVSPost2010Prop51ColorRGB
 90
-16777216
102
RTVSPost2010PropOp51
 70
     0
102
RTVSPost2010Prop52
140
1.0
102
RTVSPost2010PropOp52
 70
     0
102
RTVSPost2010Prop53
 90
        2
102
RTVSPost2010PropOp53
 70
     1
102
RTVSPost2010Prop54
  1
strokes_ogs.tif
102
RTVSPost2010PropOp54
 70
     1
102
RTVSPost2010Prop55
280
     0
102
RTVSPost2010PropOp55
 70
     1
102
RTVSPost2010Prop56
140
1.0
102
RTVSPost2010PropOp56
 70
     1
102
RTVSPost2010Prop57
140
1.0
102
RTVSPost2010PropOp57
 70
     1
102
RTVSPropertyOp0
 70
     1
102
RTVSPropertyOp1
 70
     1
102
RTVSPropertyOp2
 70
     1
102
RTVSPropertyOp3
 70
     1
102
RTVSPropertyOp4
 70
     1
102
RTVSPropertyOp5
 70
     1
102
RTVSPropertyOp6
 70
     1
102
RTVSPropertyOp7
 70
     1
102
RTVSPropertyOp8
 70
     1
102
RTVSPropertyOp9
 70
     1
102
RTVSPropertyOp10
 70
     1
102
RTVSPropertyOp11
 70
     1
102
RTVSPropertyOp12
 70
     1
102
RTVSPropertyOp13
 70
     1
102
RTVSPropertyOp14
 70
     1
102
RTVSPropertyOp15
 70
     1
102
RTVSPropertyOp16
 70
     1
102
RTVSPropertyOp17
 70
     1
102
RTVSPropertyOp18
 70
     1
102
RTVSPropertyOp19
 70
     1
102
RTVSPropertyOp20
 70
     1
102
RTVSPropertyOp21
 70
     1
102
RTVSPropertyOp22
 70
     1
102
RTVSPropertyOp23
 70
     1
102
RTVSPropertyOp24
 70
     1
102
RTVSPropertyOp25
 70
     1
102
RTVSPropertyOp26
 70
     1
102
RTVSPropertyOp27
 70
     1
102
RTVSPropertyOp28
 70
     1
102
RTVSPropertyOp29
 70
     1
102
RTVSPropertyOp30
 70
     1
102
RTVSPropertyOp31
 70
     1
102
RTVSPropertyOp32
 70
     1
102
RTVSPropertyOp33
 70
     1
102
RTVSPropertyOp34
 70
     1
102
RTVSPropertyOp35
 70
     1
102
RTVSPropertyOp36
 70
     1
102
RTVSPropertyOp37
 70
     1
102
RTVSPropertyOp38
 70
     1
102
RTVSPropertyOp39
 70
     1
102
RTVSPropertyOp40
 70
     1
102
RTVSPropertyOp41
 70
     1
102
RTVSPropertyOp42
 70
     1
102
RTVSPropertyOp43
 70
     1
102
RTVSPropertyOp44
 70
     1
102
RTVSPropertyOp45
 70
     1
102
RTVSPropertyOp46
 70
     1
102
RTVSPropertyOp47
 70
     1
102
RTVSPropertyOp48
 70
     1
102
RTVSPropertyOp49
 70
     1
102
RTVSPropertyOp50
 70
     1
102
RTVSPropertyOp51
 70
     0
102
RTVSPropertyOp52
 70
     0
102
RTVSPropertyOp53
 70
     1
102
RTVSPropertyOp54
 70
     1
102
RTVSPropertyOp55
 70
     1
102
RTVSPropertyOp56
 70
     1
102
RTVSPropertyOp57
 70
     1
102
RTVSPropertyOp58
 70
     1
102
RTVSPropertyOp59
 70
     1
102
RTVSPropertyOp60
 70
     1
102
RTVSPropertyOp61
 70
     1
102
RTVSPropertyOp62
 70
     1
  0
XRECORD
  5
365
102
{ACAD_REACTORS
330
364
102
}
330
364
100
AcDbXrecord
280
     1
102
RTVSPost2010Prop28
280
     0
102
RTVSPost2010PropOp28
 70
     1
102
RTVSPost2010Prop29
280
     1
102
RTVSPost2010PropOp29
 70
     1
102
RTVSPost2010Prop30
280
     1
102
RTVSPost2010PropOp30
 70
     1
102
RTVSPost2010Prop31
280
     0
102
RTVSPost2010PropOp31
 70
     1
102
RTVSPost2010Prop32
280
     0
102
RTVSPost2010PropOp32
 70
     1
102
RTVSPost2010Prop33
280
     0
102
RTVSPost2010PropOp33
 70
     1
102
RTVSPost2010Prop34
280
     0
102
RTVSPost2010PropOp34
 70
     1
102
RTVSPost2010Prop35
280
     0
102
RTVSPost2010PropOp35
 70
     1
102
RTVSPost2010Prop36
280
     0
102
RTVSPost2010PropOp36
 70
     1
102
RTVSPost2010Prop37
 90
       50
102
RTVSPost2010PropOp37
 70
     1
102
RTVSPost2010Prop38
140
0.0
102
RTVSPost2010PropOp38
 70
     1
102
RTVSPost2010Prop39
140
1.0
102
RTVSPost2010PropOp39
 70
     1
102
RTVSPost2010Prop40
 90
        0
102
RTVSPost2010PropOp40
 70
     1
102
RTVSPost2010Prop41ColorIndex
 90
       18
102
RTVSPost2010Prop41ColorRGB
 90
        0
102
RTVSPost2010PropOp41
 70
     1
102
RTVSPost2010Prop42
 90
       50
102
RTVSPost2010PropOp42
 70
     1
102
RTVSPost2010Prop43
 90
        3
102
RTVSPost2010PropOp43
 70
     1
102
RTVSPost2010Prop44ColorIndex
 90
        5
102
RTVSPost2010Prop44ColorRGB
 90
      255
102
RTVSPost2010PropOp44
 70
     1
102
RTVSPost2010Prop45
280
     0
102
RTVSPost2010PropOp45
 70
     1
102
RTVSPost2010Prop46
 90
       50
102
RTVSPost2010PropOp46
 70
     1
102
RTVSPost2010Prop47
 90
       50
102
RTVSPost2010PropOp47
 70
     1
102
RTVSPost2010Prop48
 90
       50
102
RTVSPost2010PropOp48
 70
     1
102
RTVSPost2010Prop49
280
     0
102
RTVSPost2010PropOp49
 70
     1
102
RTVSPost2010Prop50
 90
       50
102
RTVSPost2010PropOp50
 70
     1
102
RTVSPost2010Prop51ColorIndex
 90
      256
102
RTVSPost2010Prop51ColorRGB
 90
-16777216
102
RTVSPost2010PropOp51
 70
     0
102
RTVSPost2010Prop52
140
1.0
102
RTVSPost2010PropOp52
 70
     0
102
RTVSPost2010Prop53
 90
        2
102
RTVSPost2010PropOp53
 70
     1
102
RTVSPost2010Prop54
  1
strokes_ogs.tif
102
RTVSPost2010PropOp54
 70
     1
102
RTVSPost2010Prop55
280
     0
102
RTVSPost2010PropOp55
 70
     1
102
RTVSPost2010Prop56
140
1.0
102
RTVSPost2010PropOp56
 70
     1
102
RTVSPost2010Prop57
140
1.0
102
RTVSPost2010PropOp57
 70
     1
102
RTVSPropertyOp0
 70
     1
102
RTVSPropertyOp1
 70
     1
102
RTVSPropertyOp2
 70
     1
102
RTVSPropertyOp3
 70
     1
102
RTVSPropertyOp4
 70
     1
102
RTVSPropertyOp5
 70
     1
102
RTVSPropertyOp6
 70
     1
102
RTVSPropertyOp7
 70
     1
102
RTVSPropertyOp8
 70
     1
102
RTVSPropertyOp9
 70
     1
102
RTVSPropertyOp10
 70
     1
102
RTVSPropertyOp11
 70
     1
102
RTVSPropertyOp12
 70
     1
102
RTVSPropertyOp13
 70
     1
102
RTVSPropertyOp14
 70
     1
102
RTVSPropertyOp15
 70
     1
102
RTVSPropertyOp16
 70
     1
102
RTVSPropertyOp17
 70
     1
102
RTVSPropertyOp18
 70
     1
102
RTVSPropertyOp19
 70
     1
102
RTVSPropertyOp20
 70
     1
102
RTVSPropertyOp21
 70
     1
102
RTVSPropertyOp22
 70
     1
102
RTVSPropertyOp23
 70
     1
102
RTVSPropertyOp24
 70
     1
102
RTVSPropertyOp25
 70
     1
102
RTVSPropertyOp26
 70
     1
102
RTVSPropertyOp27
 70
     1
102
RTVSPropertyOp28
 70
     1
102
RTVSPropertyOp29
 70
     1
102
RTVSPropertyOp30
 70
     1
102
RTVSPropertyOp31
 70
     1
102
RTVSPropertyOp32
 70
     1
102
RTVSPropertyOp33
 70
     1
102
RTVSPropertyOp34
 70
     1
102
RTVSPropertyOp35
 70
     1
102
RTVSPropertyOp36
 70
     1
102
RTVSPropertyOp37
 70
     1
102
RTVSPropertyOp38
 70
     1
102
RTVSPropertyOp39
 70
     1
102
RTVSPropertyOp40
 70
     1
102
RTVSPropertyOp41
 70
     1
102
RTVSPropertyOp42
 70
     1
102
RTVSPropertyOp43
 70
     1
102
RTVSPropertyOp44
 70
     1
102
RTVSPropertyOp45
 70
     1
102
RTVSPropertyOp46
 70
     1
102
RTVSPropertyOp47
 70
     1
102
RTVSPropertyOp48
 70
     1
102
RTVSPropertyOp49
 70
     1
102
RTVSPropertyOp50
 70
     1
102
RTVSPropertyOp51
 70
     0
102
RTVSPropertyOp52
 70
     0
102
RTVSPropertyOp53
 70
     1
102
RTVSPropertyOp54
 70
     1
102
RTVSPropertyOp55
 70
     1
102
RTVSPropertyOp56
 70
     1
102
RTVSPropertyOp57
 70
     1
102
RTVSPropertyOp58
 70
     1
102
RTVSPropertyOp59
 70
     1
102
RTVSPropertyOp60
 70
     1
102
RTVSPropertyOp61
 70
     1
102
RTVSPropertyOp62
 70
     1
  0
XRECORD
  5
355
102
{ACAD_REACTORS
330
354
102
}
330
354
100
AcDbXrecord
280
     1
102
RTVSPost2010Prop28
280
     0
102
RTVSPost2010PropOp28
 70
     1
102
RTVSPost2010Prop29
280
     1
102
RTVSPost2010PropOp29
 70
     1
102
RTVSPost2010Prop30
280
     1
102
RTVSPost2010PropOp30
 70
     1
102
RTVSPost2010Prop31
280
     0
102
RTVSPost2010PropOp31
 70
     1
102
RTVSPost2010Prop32
280
     0
102
RTVSPost2010PropOp32
 70
     1
102
RTVSPost2010Prop33
280
     0
102
RTVSPost2010PropOp33
 70
     1
102
RTVSPost2010Prop34
280
     0
102
RTVSPost2010PropOp34
 70
     1
102
RTVSPost2010Prop35
280
     0
102
RTVSPost2010PropOp35
 70
     1
102
RTVSPost2010Prop36
280
     0
102
RTVSPost2010PropOp36
 70
     1
102
RTVSPost2010Prop37
 90
       50
102
RTVSPost2010PropOp37
 70
     1
102
RTVSPost2010Prop38
140
0.0
102
RTVSPost2010PropOp38
 70
     1
102
RTVSPost2010Prop39
140
1.0
102
RTVSPost2010PropOp39
 70
     1
102
RTVSPost2010Prop40
 90
        0
102
RTVSPost2010PropOp40
 70
     1
102
RTVSPost2010Prop41ColorIndex
 90
       18
102
RTVSPost2010Prop41ColorRGB
 90
        0
102
RTVSPost2010PropOp41
 70
     1
102
RTVSPost2010Prop42
 90
       50
102
RTVSPost2010PropOp42
 70
     1
102
RTVSPost2010Prop43
 90
        3
102
RTVSPost2010PropOp43
 70
     1
102
RTVSPost2010Prop44ColorIndex
 90
        5
102
RTVSPost2010Prop44ColorRGB
 90
      255
102
RTVSPost2010PropOp44
 70
     1
102
RTVSPost2010Prop45
280
     0
102
RTVSPost2010PropOp45
 70
     1
102
RTVSPost2010Prop46
 90
       50
102
RTVSPost2010PropOp46
 70
     1
102
RTVSPost2010Prop47
 90
       50
102
RTVSPost2010PropOp47
 70
     1
102
RTVSPost2010Prop48
 90
       50
102
RTVSPost2010PropOp48
 70
     1
102
RTVSPost2010Prop49
280
     0
102
RTVSPost2010PropOp49
 70
     1
102
RTVSPost2010Prop50
 90
       50
102
RTVSPost2010PropOp50
 70
     1
102
RTVSPost2010Prop51ColorIndex
 90
      256
102
RTVSPost2010Prop51ColorRGB
 90
-16777216
102
RTVSPost2010PropOp51
 70
     0
102
RTVSPost2010Prop52
140
1.0
102
RTVSPost2010PropOp52
 70
     0
102
RTVSPost2010Prop53
 90
        2
102
RTVSPost2010PropOp53
 70
     1
102
RTVSPost2010Prop54
  1
strokes_ogs.tif
102
RTVSPost2010PropOp54
 70
     1
102
RTVSPost2010Prop55
280
     0
102
RTVSPost2010PropOp55
 70
     1
102
RTVSPost2010Prop56
140
1.0
102
RTVSPost2010PropOp56
 70
     1
102
RTVSPost2010Prop57
140
1.0
102
RTVSPost2010PropOp57
 70
     1
102
RTVSPropertyOp0
 70
     1
102
RTVSPropertyOp1
 70
     1
102
RTVSPropertyOp2
 70
     1
102
RTVSPropertyOp3
 70
     1
102
RTVSPropertyOp4
 70
     1
102
RTVSPropertyOp5
 70
     1
102
RTVSPropertyOp6
 70
     1
102
RTVSPropertyOp7
 70
     1
102
RTVSPropertyOp8
 70
     1
102
RTVSPropertyOp9
 70
     1
102
RTVSPropertyOp10
 70
     1
102
RTVSPropertyOp11
 70
     1
102
RTVSPropertyOp12
 70
     1
102
RTVSPropertyOp13
 70
     1
102
RTVSPropertyOp14
 70
     1
102
RTVSPropertyOp15
 70
     1
102
RTVSPropertyOp16
 70
     1
102
RTVSPropertyOp17
 70
     1
102
RTVSPropertyOp18
 70
     1
102
RTVSPropertyOp19
 70
     1
102
RTVSPropertyOp20
 70
     1
102
RTVSPropertyOp21
 70
     1
102
RTVSPropertyOp22
 70
     1
102
RTVSPropertyOp23
 70
     1
102
RTVSPropertyOp24
 70
     1
102
RTVSPropertyOp25
 70
     1
102
RTVSPropertyOp26
 70
     1
102
RTVSPropertyOp27
 70
     1
102
RTVSPropertyOp28
 70
     1
102
RTVSPropertyOp29
 70
     1
102
RTVSPropertyOp30
 70
     1
102
RTVSPropertyOp31
 70
     1
102
RTVSPropertyOp32
 70
     1
102
RTVSPropertyOp33
 70
     1
102
RTVSPropertyOp34
 70
     1
102
RTVSPropertyOp35
 70
     1
102
RTVSPropertyOp36
 70
     1
102
RTVSPropertyOp37
 70
     1
102
RTVSPropertyOp38
 70
     1
102
RTVSPropertyOp39
 70
     1
102
RTVSPropertyOp40
 70
     1
102
RTVSPropertyOp41
 70
     1
102
RTVSPropertyOp42
 70
     1
102
RTVSPropertyOp43
 70
     1
102
RTVSPropertyOp44
 70
     1
102
RTVSPropertyOp45
 70
     1
102
RTVSPropertyOp46
 70
     1
102
RTVSPropertyOp47
 70
     1
102
RTVSPropertyOp48
 70
     1
102
RTVSPropertyOp49
 70
     1
102
RTVSPropertyOp50
 70
     1
102
RTVSPropertyOp51
 70
     0
102
RTVSPropertyOp52
 70
     0
102
RTVSPropertyOp53
 70
     1
102
RTVSPropertyOp54
 70
     1
102
RTVSPropertyOp55
 70
     1
102
RTVSPropertyOp56
 70
     1
102
RTVSPropertyOp57
 70
     1
102
RTVSPropertyOp58
 70
     1
102
RTVSPropertyOp59
 70
     1
102
RTVSPropertyOp60
 70
     1
102
RTVSPropertyOp61
 70
     1
102
RTVSPropertyOp62
 70
     1
  0
XRECORD
  5
347
102
{ACAD_REACTORS
330
346
102
}
330
346
100
AcDbXrecord
280
     1
102
RTVSPost2010Prop28
280
     0
102
RTVSPost2010PropOp28
 70
     1
102
RTVSPost2010Prop29
280
     1
102
RTVSPost2010PropOp29
 70
     1
102
RTVSPost2010Prop30
280
     1
102
RTVSPost2010PropOp30
 70
     1
102
RTVSPost2010Prop31
280
     0
102
RTVSPost2010PropOp31
 70
     1
102
RTVSPost2010Prop32
280
     0
102
RTVSPost2010PropOp32
 70
     1
102
RTVSPost2010Prop33
280
     0
102
RTVSPost2010PropOp33
 70
     1
102
RTVSPost2010Prop34
280
     0
102
RTVSPost2010PropOp34
 70
     1
102
RTVSPost2010Prop35
280
     0
102
RTVSPost2010PropOp35
 70
     1
102
RTVSPost2010Prop36
280
     0
102
RTVSPost2010PropOp36
 70
     1
102
RTVSPost2010Prop37
 90
       50
102
RTVSPost2010PropOp37
 70
     1
102
RTVSPost2010Prop38
140
0.0
102
RTVSPost2010PropOp38
 70
     1
102
RTVSPost2010Prop39
140
1.0
102
RTVSPost2010PropOp39
 70
     1
102
RTVSPost2010Prop40
 90
        0
102
RTVSPost2010PropOp40
 70
     1
102
RTVSPost2010Prop41ColorIndex
 90
       18
102
RTVSPost2010Prop41ColorRGB
 90
        0
102
RTVSPost2010PropOp41
 70
     1
102
RTVSPost2010Prop42
 90
       50
102
RTVSPost2010PropOp42
 70
     1
102
RTVSPost2010Prop43
 90
        3
102
RTVSPost2010PropOp43
 70
     1
102
RTVSPost2010Prop44ColorIndex
 90
        5
102
RTVSPost2010Prop44ColorRGB
 90
      255
102
RTVSPost2010PropOp44
 70
     1
102
RTVSPost2010Prop45
280
     0
102
RTVSPost2010PropOp45
 70
     1
102
RTVSPost2010Prop46
 90
       50
102
RTVSPost2010PropOp46
 70
     1
102
RTVSPost2010Prop47
 90
       50
102
RTVSPost2010PropOp47
 70
     1
102
RTVSPost2010Prop48
 90
       50
102
RTVSPost2010PropOp48
 70
     1
102
RTVSPost2010Prop49
280
     0
102
RTVSPost2010PropOp49
 70
     1
102
RTVSPost2010Prop50
 90
       50
102
RTVSPost2010PropOp50
 70
     1
102
RTVSPost2010Prop51ColorIndex
 90
      256
102
RTVSPost2010Prop51ColorRGB
 90
-16777216
102
RTVSPost2010PropOp51
 70
     0
102
RTVSPost2010Prop52
140
1.0
102
RTVSPost2010PropOp52
 70
     0
102
RTVSPost2010Prop53
 90
        2
102
RTVSPost2010PropOp53
 70
     1
102
RTVSPost2010Prop54
  1
strokes_ogs.tif
102
RTVSPost2010PropOp54
 70
     1
102
RTVSPost2010Prop55
280
     0
102
RTVSPost2010PropOp55
 70
     1
102
RTVSPost2010Prop56
140
1.0
102
RTVSPost2010PropOp56
 70
     1
102
RTVSPost2010Prop57
140
1.0
102
RTVSPost2010PropOp57
 70
     1
102
RTVSPropertyOp0
 70
     1
102
RTVSPropertyOp1
 70
     1
102
RTVSPropertyOp2
 70
     1
102
RTVSPropertyOp3
 70
     1
102
RTVSPropertyOp4
 70
     1
102
RTVSPropertyOp5
 70
     1
102
RTVSPropertyOp6
 70
     1
102
RTVSPropertyOp7
 70
     1
102
RTVSPropertyOp8
 70
     1
102
RTVSPropertyOp9
 70
     1
102
RTVSPropertyOp10
 70
     1
102
RTVSPropertyOp11
 70
     1
102
RTVSPropertyOp12
 70
     1
102
RTVSPropertyOp13
 70
     1
102
RTVSPropertyOp14
 70
     1
102
RTVSPropertyOp15
 70
     1
102
RTVSPropertyOp16
 70
     1
102
RTVSPropertyOp17
 70
     1
102
RTVSPropertyOp18
 70
     1
102
RTVSPropertyOp19
 70
     1
102
RTVSPropertyOp20
 70
     1
102
RTVSPropertyOp21
 70
     1
102
RTVSPropertyOp22
 70
     1
102
RTVSPropertyOp23
 70
     1
102
RTVSPropertyOp24
 70
     1
102
RTVSPropertyOp25
 70
     1
102
RTVSPropertyOp26
 70
     1
102
RTVSPropertyOp27
 70
     1
102
RTVSPropertyOp28
 70
     1
102
RTVSPropertyOp29
 70
     1
102
RTVSPropertyOp30
 70
     1
102
RTVSPropertyOp31
 70
     1
102
RTVSPropertyOp32
 70
     1
102
RTVSPropertyOp33
 70
     1
102
RTVSPropertyOp34
 70
     1
102
RTVSPropertyOp35
 70
     1
102
RTVSPropertyOp36
 70
     1
102
RTVSPropertyOp37
 70
     1
102
RTVSPropertyOp38
 70
     1
102
RTVSPropertyOp39
 70
     1
102
RTVSPropertyOp40
 70
     1
102
RTVSPropertyOp41
 70
     1
102
RTVSPropertyOp42
 70
     1
102
RTVSPropertyOp43
 70
     1
102
RTVSPropertyOp44
 70
     1
102
RTVSPropertyOp45
 70
     1
102
RTVSPropertyOp46
 70
     1
102
RTVSPropertyOp47
 70
     1
102
RTVSPropertyOp48
 70
     1
102
RTVSPropertyOp49
 70
     1
102
RTVSPropertyOp50
 70
     1
102
RTVSPropertyOp51
 70
     0
102
RTVSPropertyOp52
 70
     0
102
RTVSPropertyOp53
 70
     1
102
RTVSPropertyOp54
 70
     1
102
RTVSPropertyOp55
 70
     1
102
RTVSPropertyOp56
 70
     1
102
RTVSPropertyOp57
 70
     1
102
RTVSPropertyOp58
 70
     1
102
RTVSPropertyOp59
 70
     1
102
RTVSPropertyOp60
 70
     1
102
RTVSPropertyOp61
 70
     1
102
RTVSPropertyOp62
 70
     1
  0
XRECORD
  5
367
102
{ACAD_REACTORS
330
366
102
}
330
366
100
AcDbXrecord
280
     1
102
RTVSPost2010Prop28
280
     0
102
RTVSPost2010PropOp28
 70
     1
102
RTVSPost2010Prop29
280
     1
102
RTVSPost2010PropOp29
 70
     1
102
RTVSPost2010Prop30
280
     1
102
RTVSPost2010PropOp30
 70
     1
102
RTVSPost2010Prop31
280
     0
102
RTVSPost2010PropOp31
 70
     1
102
RTVSPost2010Prop32
280
     0
102
RTVSPost2010PropOp32
 70
     1
102
RTVSPost2010Prop33
280
     0
102
RTVSPost2010PropOp33
 70
     1
102
RTVSPost2010Prop34
280
     0
102
RTVSPost2010PropOp34
 70
     1
102
RTVSPost2010Prop35
280
     0
102
RTVSPost2010PropOp35
 70
     1
102
RTVSPost2010Prop36
280
     0
102
RTVSPost2010PropOp36
 70
     1
102
RTVSPost2010Prop37
 90
       50
102
RTVSPost2010PropOp37
 70
     1
102
RTVSPost2010Prop38
140
0.0
102
RTVSPost2010PropOp38
 70
     1
102
RTVSPost2010Prop39
140
1.0
102
RTVSPost2010PropOp39
 70
     1
102
RTVSPost2010Prop40
 90
        0
102
RTVSPost2010PropOp40
 70
     1
102
RTVSPost2010Prop41ColorIndex
 90
       18
102
RTVSPost2010Prop41ColorRGB
 90
        0
102
RTVSPost2010PropOp41
 70
     1
102
RTVSPost2010Prop42
 90
       50
102
RTVSPost2010PropOp42
 70
     1
102
RTVSPost2010Prop43
 90
        3
102
RTVSPost2010PropOp43
 70
     1
102
RTVSPost2010Prop44ColorIndex
 90
        5
102
RTVSPost2010Prop44ColorRGB
 90
      255
102
RTVSPost2010PropOp44
 70
     1
102
RTVSPost2010Prop45
280
     0
102
RTVSPost2010PropOp45
 70
     1
102
RTVSPost2010Prop46
 90
       50
102
RTVSPost2010PropOp46
 70
     1
102
RTVSPost2010Prop47
 90
       50
102
RTVSPost2010PropOp47
 70
     1
102
RTVSPost2010Prop48
 90
       50
102
RTVSPost2010PropOp48
 70
     1
102
RTVSPost2010Prop49
280
     0
102
RTVSPost2010PropOp49
 70
     1
102
RTVSPost2010Prop50
 90
       50
102
RTVSPost2010PropOp50
 70
     1
102
RTVSPost2010Prop51ColorIndex
 90
      256
102
RTVSPost2010Prop51ColorRGB
 90
-16777216
102
RTVSPost2010PropOp51
 70
     0
102
RTVSPost2010Prop52
140
1.0
102
RTVSPost2010PropOp52
 70
     0
102
RTVSPost2010Prop53
 90
        2
102
RTVSPost2010PropOp53
 70
     1
102
RTVSPost2010Prop54
  1
strokes_ogs.tif
102
RTVSPost2010PropOp54
 70
     1
102
RTVSPost2010Prop55
280
     0
102
RTVSPost2010PropOp55
 70
     1
102
RTVSPost2010Prop56
140
1.0
102
RTVSPost2010PropOp56
 70
     1
102
RTVSPost2010Prop57
140
1.0
102
RTVSPost2010PropOp57
 70
     1
102
RTVSPropertyOp0
 70
     1
102
RTVSPropertyOp1
 70
     1
102
RTVSPropertyOp2
 70
     1
102
RTVSPropertyOp3
 70
     1
102
RTVSPropertyOp4
 70
     1
102
RTVSPropertyOp5
 70
     1
102
RTVSPropertyOp6
 70
     1
102
RTVSPropertyOp7
 70
     1
102
RTVSPropertyOp8
 70
     1
102
RTVSPropertyOp9
 70
     1
102
RTVSPropertyOp10
 70
     1
102
RTVSPropertyOp11
 70
     1
102
RTVSPropertyOp12
 70
     1
102
RTVSPropertyOp13
 70
     1
102
RTVSPropertyOp14
 70
     1
102
RTVSPropertyOp15
 70
     1
102
RTVSPropertyOp16
 70
     1
102
RTVSPropertyOp17
 70
     1
102
RTVSPropertyOp18
 70
     1
102
RTVSPropertyOp19
 70
     1
102
RTVSPropertyOp20
 70
     1
102
RTVSPropertyOp21
 70
     1
102
RTVSPropertyOp22
 70
     1
102
RTVSPropertyOp23
 70
     1
102
RTVSPropertyOp24
 70
     1
102
RTVSPropertyOp25
 70
     1
102
RTVSPropertyOp26
 70
     1
102
RTVSPropertyOp27
 70
     1
102
RTVSPropertyOp28
 70
     1
102
RTVSPropertyOp29
 70
     1
102
RTVSPropertyOp30
 70
     1
102
RTVSPropertyOp31
 70
     1
102
RTVSPropertyOp32
 70
     1
102
RTVSPropertyOp33
 70
     1
102
RTVSPropertyOp34
 70
     1
102
RTVSPropertyOp35
 70
     1
102
RTVSPropertyOp36
 70
     1
102
RTVSPropertyOp37
 70
     1
102
RTVSPropertyOp38
 70
     1
102
RTVSPropertyOp39
 70
     1
102
RTVSPropertyOp40
 70
     1
102
RTVSPropertyOp41
 70
     1
102
RTVSPropertyOp42
 70
     1
102
RTVSPropertyOp43
 70
     1
102
RTVSPropertyOp44
 70
     1
102
RTVSPropertyOp45
 70
     1
102
RTVSPropertyOp46
 70
     1
102
RTVSPropertyOp47
 70
     1
102
RTVSPropertyOp48
 70
     1
102
RTVSPropertyOp49
 70
     1
102
RTVSPropertyOp50
 70
     1
102
RTVSPropertyOp51
 70
     0
102
RTVSPropertyOp52
 70
     0
102
RTVSPropertyOp53
 70
     1
102
RTVSPropertyOp54
 70
     1
102
RTVSPropertyOp55
 70
     1
102
RTVSPropertyOp56
 70
     1
102
RTVSPropertyOp57
 70
     1
102
RTVSPropertyOp58
 70
     1
102
RTVSPropertyOp59
 70
     1
102
RTVSPropertyOp60
 70
     1
102
RTVSPropertyOp61
 70
     1
102
RTVSPropertyOp62
 70
     1
  0
ENDSEC
  0
EOF
