  0
SECTION
  2
HEADER
  9
$ACADVER
  1
AC1018
  9
$ACADMAINTVER
 70
   104
  9
$DWGCODEPAGE
  3
ANSI_1250
  9
$LASTSAVEDBY
  1
pp0701
  9
$INSBASE
 10
0.0
 20
0.0
 30
0.0
  9
$EXTMIN
 10
222.2471562224171
 20
150.5556603333333
 30
0.0
  9
$EXTMAX
 10
271.1849000000001
 20
340.0325436666667
 30
0.0
  9
$LIMMIN
 10
-0.5
 20
-0.5
  9
$LIMMAX
 10
5.0
 20
5.0
  9
$ORTHOMODE
 70
     0
  9
$REGENMODE
 70
     1
  9
$FILLMODE
 70
     1
  9
$QTEXTMODE
 70
     0
  9
$MIRRTEXT
 70
     1
  9
$LTSCALE
 40
1.0
  9
$ATTMODE
 70
     1
  9
$TEXTSIZE
 40
0.2
  9
$TRACEWID
 40
0.05
  9
$TEXTSTYLE
  7
Standard
  9
$CLAYER
  8
0
  9
$CELTYPE
  6
ByLayer
  9
$CECOLOR
 62
   256
  9
$CELTSCALE
 40
1.0
  9
$DISPSILH
 70
     0
  9
$DIMSCALE
 40
1.0
  9
$DIMASZ
 40
0.18
  9
$DIMEXO
 40
0.0625
  9
$DIMDLI
 40
0.38
  9
$DIMRND
 40
0.0
  9
$DIMDLE
 40
0.0
  9
$DIMEXE
 40
0.18
  9
$DIMTP
 40
0.0
  9
$DIMTM
 40
0.0
  9
$DIMTXT
 40
0.18
  9
$DIMCEN
 40
0.09
  9
$DIMTSZ
 40
0.0
  9
$DIMTOL
 70
     0
  9
$DIMLIM
 70
     0
  9
$DIMTIH
 70
     1
  9
$DIMTOH
 70
     1
  9
$DIMSE1
 70
     0
  9
$DIMSE2
 70
     0
  9
$DIMTAD
 70
     0
  9
$DIMZIN
 70
     0
  9
$DIMBLK
  1

  9
$DIMASO
 70
     1
  9
$DIMSHO
 70
     1
  9
$DIMPOST
  1

  9
$DIMAPOST
  1

  9
$DIMALT
 70
     0
  9
$DIMALTD
 70
     2
  9
$DIMALTF
 40
25.4
  9
$DIMLFAC
 40
1.0
  9
$DIMTOFL
 70
     0
  9
$DIMTVP
 40
0.0
  9
$DIMTIX
 70
     0
  9
$DIMSOXD
 70
     0
  9
$DIMSAH
 70
     0
  9
$DIMBLK1
  1

  9
$DIMBLK2
  1

  9
$DIMSTYLE
  2
Standard
  9
$DIMCLRD
 70
     0
  9
$DIMCLRE
 70
     0
  9
$DIMCLRT
 70
     0
  9
$DIMTFAC
 40
1.0
  9
$DIMGAP
 40
0.09
  9
$DIMJUST
 70
     0
  9
$DIMSD1
 70
     0
  9
$DIMSD2
 70
     0
  9
$DIMTOLJ
 70
     1
  9
$DIMTZIN
 70
     0
  9
$DIMALTZ
 70
     0
  9
$DIMALTTZ
 70
     0
  9
$DIMUPT
 70
     0
  9
$DIMDEC
 70
     4
  9
$DIMTDEC
 70
     4
  9
$DIMALTU
 70
     2
  9
$DIMALTTD
 70
     2
  9
$DIMTXSTY
  7
Standard
  9
$DIMAUNIT
 70
     0
  9
$DIMADEC
 70
     0
  9
$DIMALTRND
 40
0.0
  9
$DIMAZIN
 70
     0
  9
$DIMDSEP
 70
    46
  9
$DIMATFIT
 70
     3
  9
$DIMFRAC
 70
     0
  9
$DIMLDRBLK
  1

  9
$DIMLUNIT
 70
     2
  9
$DIMLWD
 70
    -2
  9
$DIMLWE
 70
    -2
  9
$DIMTMOVE
 70
     0
  9
$LUNITS
 70
     2
  9
$LUPREC
 70
     4
  9
$SKETCHINC
 40
0.1
  9
$FILLETRAD
 40
0.5
  9
$AUNITS
 70
     0
  9
$AUPREC
 70
     0
  9
$MENU
  1
.
  9
$ELEVATION
 40
0.0
  9
$PELEVATION
 40
0.0
  9
$THICKNESS
 40
0.0
  9
$LIMCHECK
 70
     0
  9
$CHAMFERA
 40
0.0
  9
$CHAMFERB
 40
0.0
  9
$CHAMFERC
 40
0.0
  9
$CHAMFERD
 40
0.0
  9
$SKPOLY
 70
     0
  9
$TDCREATE
 40
2458855.538645833
  9
$TDUCREATE
 40
2458855.496989804
  9
$TDUPDATE
 40
2458855.544965278
  9
$TDUUPDATE
 40
2458855.503298611
  9
$TDINDWG
 40
0.0038194560
  9
$TDUSRTIMER
 40
0.0038194560
  9
$USRTIMER
 70
     1
  9
$ANGBASE
 50
0.0
  9
$ANGDIR
 70
     0
  9
$PDMODE
 70
     0
  9
$PDSIZE
 40
0.0
  9
$PLINEWID
 40
0.0
  9
$SPLFRAME
 70
     0
  9
$SPLINETYPE
 70
     6
  9
$SPLINESEGS
 70
     8
  9
$HANDSEED
  5
46B
  9
$SURFTAB1
 70
     6
  9
$SURFTAB2
 70
     6
  9
$SURFTYPE
 70
     6
  9
$SURFU
 70
     6
  9
$SURFV
 70
     6
  9
$UCSBASE
  2

  9
$UCSNAME
  2

  9
$UCSORG
 10
249.444248
 20
244.434018
 30
0.0
  9
$UCSXDIR
 10
1.0
 20
0.0
 30
0.0
  9
$UCSYDIR
 10
0.0
 20
1.0
 30
0.0
  9
$UCSORTHOREF
  2

  9
$UCSORTHOVIEW
 70
     0
  9
$UCSORGTOP
 10
0.0
 20
0.0
 30
0.0
  9
$UCSORGBOTTOM
 10
0.0
 20
0.0
 30
0.0
  9
$UCSORGLEFT
 10
0.0
 20
0.0
 30
0.0
  9
$UCSORGRIGHT
 10
0.0
 20
0.0
 30
0.0
  9
$UCSORGFRONT
 10
0.0
 20
0.0
 30
0.0
  9
$UCSORGBACK
 10
0.0
 20
0.0
 30
0.0
  9
$PUCSBASE
  2

  9
$PUCSNAME
  2

  9
$PUCSORG
 10
0.0
 20
0.0
 30
0.0
  9
$PUCSXDIR
 10
1.0
 20
0.0
 30
0.0
  9
$PUCSYDIR
 10
0.0
 20
1.0
 30
0.0
  9
$PUCSORTHOREF
  2

  9
$PUCSORTHOVIEW
 70
     0
  9
$PUCSORGTOP
 10
0.0
 20
0.0
 30
0.0
  9
$PUCSORGBOTTOM
 10
0.0
 20
0.0
 30
0.0
  9
$PUCSORGLEFT
 10
0.0
 20
0.0
 30
0.0
  9
$PUCSORGRIGHT
 10
0.0
 20
0.0
 30
0.0
  9
$PUCSORGFRONT
 10
0.0
 20
0.0
 30
0.0
  9
$PUCSORGBACK
 10
0.0
 20
0.0
 30
0.0
  9
$USERI1
 70
     0
  9
$USERI2
 70
     0
  9
$USERI3
 70
     0
  9
$USERI4
 70
     0
  9
$USERI5
 70
     0
  9
$USERR1
 40
0.0
  9
$USERR2
 40
0.0
  9
$USERR3
 40
0.0
  9
$USERR4
 40
0.0
  9
$USERR5
 40
0.0
  9
$WORLDVIEW
 70
     1
  9
$SHADEDGE
 70
     3
  9
$SHADEDIF
 70
    70
  9
$TILEMODE
 70
     1
  9
$MAXACTVP
 70
    64
  9
$PINSBASE
 10
0.0
 20
0.0
 30
0.0
  9
$PLIMCHECK
 70
     0
  9
$PEXTMIN
 10
-0.5
 20
-0.5
 30
-0.5
  9
$PEXTMAX
 10
5.0
 20
5.0
 30
5.0
  9
$PLIMMIN
 10
-0.5
 20
-0.5
  9
$PLIMMAX
 10
5.0
 20
5.0
  9
$UNITMODE
 70
     0
  9
$VISRETAIN
 70
     1
  9
$PLINEGEN
 70
     0
  9
$PSLTSCALE
 70
     1
  9
$TREEDEPTH
 70
  3020
  9
$CMLSTYLE
  2
Standard
  9
$CMLJUST
 70
     0
  9
$CMLSCALE
 40
1.0
  9
$PROXYGRAPHICS
 70
     1
  9
$MEASUREMENT
 70
     1
  9
$CELWEIGHT
370
    13
  9
$ENDCAPS
280
     0
  9
$JOINSTYLE
280
     0
  9
$LWDISPLAY
290
     0
  9
$INSUNITS
 70
     4
  9
$HYPERLINKBASE
  1

  9
$STYLESHEET
  1

  9
$XEDIT
290
     1
  9
$CEPSNTYPE
380
     0
  9
$PSTYLEMODE
290
     1
  9
$FINGERPRINTGUID
  2
{16BDFEE0-B3A1-469C-9F31-5EF9FF320049}
  9
$VERSIONGUID
  2
{DA7F7DF9-9461-1B48-AA82-39FBF4ADF187}
  9
$EXTNAMES
290
     1
  9
$PSVPSCALE
 40
0.0
  9
$OLESTARTUP
290
     0
  9
$SORTENTS
280
   127
  9
$INDEXCTL
280
     0
  9
$HIDETEXT
280
     1
  9
$XCLIPFRAME
290
     0
  9
$HALOGAP
280
     0
  9
$OBSCOLOR
 70
   257
  9
$OBSLTYPE
280
     0
  9
$INTERSECTIONDISPLAY
280
     0
  9
$INTERSECTIONCOLOR
 70
   257
  9
$DIMASSOC
280
     2
  9
$PROJECTNAME
  1

  0
ENDSEC
  0
SECTION
  2
CLASSES
  0
CLASS
  1
ACDBDICTIONARYWDFLT
  2
AcDbDictionaryWithDefault
  3
ObjectDBX Classes
 90
        0
 91
        1
280
     0
281
     0
  0
CLASS
  1
VISUALSTYLE
  2
AcDbVisualStyle
  3
ObjectDBX Classes
 90
     4095
 91
       24
280
     0
281
     0
  0
CLASS
  1
MATERIAL
  2
AcDbMaterial
  3
ObjectDBX Classes
 90
     1153
 91
        3
280
     0
281
     0
  0
CLASS
  1
SCALE
  2
AcDbScale
  3
ObjectDBX Classes
 90
     1153
 91
       33
280
     0
281
     0
  0
CLASS
  1
TABLESTYLE
  2
AcDbTableStyle
  3
ObjectDBX Classes
 90
     4095
 91
        1
280
     0
281
     0
  0
CLASS
  1
MLEADERSTYLE
  2
AcDbMLeaderStyle
  3
ACDB_MLEADERSTYLE_CLASS
 90
     4095
 91
        1
280
     0
281
     0
  0
CLASS
  1
SUN
  2
AcDbSun
  3
SCENEOE
 90
     1153
 91
        0
280
     0
281
     0
  0
CLASS
  1
IMAGEDEF
  2
AcDbRasterImageDef
  3
ISM
 90
        0
 91
        1
280
     0
281
     0
  0
CLASS
  1
IMAGE
  2
AcDbRasterImage
  3
ISM
 90
     2175
 91
        1
280
     0
281
     1
  0
CLASS
  1
IMAGEDEF_REACTOR
  2
AcDbRasterImageDefReactor
  3
ISM
 90
        1
 91
        1
280
     0
281
     0
  0
CLASS
  1
DIMASSOC
  2
AcDbDimAssoc
  3
"AcDbDimAssoc|Product Desc:     AcDim ARX App For Dimension|Company:          Autodesk, Inc.|WEB Address:      www.autodesk.com"
 90
        0
 91
        5
280
     0
281
     0
  0
CLASS
  1
DICTIONARYVAR
  2
AcDbDictionaryVar
  3
ObjectDBX Classes
 90
        0
 91
        8
280
     0
281
     0
  0
CLASS
  1
CELLSTYLEMAP
  2
AcDbCellStyleMap
  3
ObjectDBX Classes
 90
     1152
 91
        2
280
     0
281
     0
  0
CLASS
  1
ACDBSECTIONVIEWSTYLE
  2
AcDbSectionViewStyle
  3
ObjectDBX Classes
 90
     1025
 91
        1
280
     0
281
     0
  0
CLASS
  1
ACDBDETAILVIEWSTYLE
  2
AcDbDetailViewStyle
  3
ObjectDBX Classes
 90
     1025
 91
        1
280
     0
281
     0
  0
CLASS
  1
RASTERVARIABLES
  2
AcDbRasterVariables
  3
ISM
 90
        0
 91
        1
280
     0
281
     0
  0
CLASS
  1
SORTENTSTABLE
  2
AcDbSortentsTable
  3
ObjectDBX Classes
 90
        0
 91
        1
280
     0
281
     0
  0
ENDSEC
  0
SECTION
  2
TABLES
  0
TABLE
  2
VPORT
  5
8
330
0
100
AcDbSymbolTable
 70
    16
  0
VPORT
  5
29
330
8
100
AcDbSymbolTableRecord
100
AcDbViewportTableRecord
  2
*Active
 70
     0
 10
0.0
 20
0.0
 11
1.0
 21
1.0
 12
310.8829953520836
 22
227.8598910632983
 13
0.0
 23
0.0
 14
0.5
 24
0.5
 15
0.5
 25
0.5
 16
0.0
 26
0.0
 36
1.0
 17
0.0
 27
0.0
 37
0.0
 40
252.1028184870091
 41
2.292712066905615
 42
50.0
 43
745.177083
 44
-745.177083
 50
0.0
 51
0.0
 71
     0
 72
   100
 73
     1
 74
     3
 75
     0
 76
     0
 77
     0
 78
     0
281
     0
 65
     1
110
249.444248
120
244.434018
130
0.0
111
1.0
121
0.0
131
0.0
112
0.0
122
1.0
132
0.0
 79
     0
146
0.0
1001
ACAD_NAV_VCDISPLAY
1070
     3
  0
VPORT
  5
33D
330
8
100
AcDbSymbolTableRecord
100
AcDbViewportTableRecord
  2
L1
 70
     0
 10
0.0
 20
0.0
 11
1.0
 21
1.0
 12
404.3035559999999
 22
180.722922
 13
0.0
 23
0.0
 14
0.5
 24
0.5
 15
0.5
 25
0.5
 16
0.0
 26
0.0
 36
1.0
 17
0.0
 27
0.0
 37
0.0
 40
207.433333
 41
0.085602
 42
50.0
 43
745.177083
 44
-745.177083
 50
0.0
 51
0.0
 71
     0
 72
   100
 73
     1
 74
     3
 75
     0
 76
     0
 77
     0
 78
     0
281
     0
 65
     1
110
0.0
120
0.0
130
0.0
111
1.0
121
0.0
131
0.0
112
0.0
122
1.0
132
0.0
 79
     0
146
0.0
  0
VPORT
  5
33E
330
8
100
AcDbSymbolTableRecord
100
AcDbViewportTableRecord
  2
L2
 70
     0
 10
0.0
 20
0.0
 11
0.5
 21
1.0
 12
0.0
 22
0.0
 13
0.0
 23
0.0
 14
0.5
 24
0.5
 15
0.5
 25
0.5
 16
0.0
 26
-1.0
 36
0.0
 17
0.0
 27
0.0
 37
0.0
 40
1478.660809
 41
0.012009
 42
50.0
 43
765.39502
 44
-765.39502
 50
0.0
 51
0.0
 71
     0
 72
   100
 73
     1
 74
     3
 75
     0
 76
     0
 77
     0
 78
     0
281
     0
 65
     1
110
0.0
120
0.0
130
0.0
111
1.0
121
0.0
131
0.0
112
0.0
122
1.0
132
0.0
 79
     0
146
0.0
  0
VPORT
  5
33F
330
8
100
AcDbSymbolTableRecord
100
AcDbViewportTableRecord
  2
L2
 70
     0
 10
0.5
 20
0.0
 11
1.0
 21
1.0
 12
0.0
 22
0.0
 13
0.0
 23
0.0
 14
0.5
 24
0.5
 15
0.5
 25
0.5
 16
1.0
 26
0.0
 36
0.0
 17
0.0
 27
0.0
 37
0.0
 40
1478.660809
 41
0.012009
 42
50.0
 43
746.5698859999999
 44
-746.5698859999999
 50
0.0
 51
0.0
 71
     0
 72
   100
 73
     1
 74
     3
 75
     0
 76
     0
 77
     0
 78
     0
281
     0
 65
     1
110
0.0
120
0.0
130
0.0
111
1.0
121
0.0
131
0.0
112
0.0
122
1.0
132
0.0
 79
     0
146
0.0
  0
VPORT
  5
340
330
8
100
AcDbSymbolTableRecord
100
AcDbViewportTableRecord
  2
L3
 70
     0
 10
0.0
 20
0.5
 11
1.0
 21
1.0
 12
404.3035559999999
 22
180.722922
 13
0.0
 23
0.0
 14
0.5
 24
0.5
 15
0.5
 25
0.5
 16
0.0
 26
0.0
 36
1.0
 17
0.0
 27
0.0
 37
0.0
 40
207.433333
 41
0.085602
 42
50.0
 43
745.177083
 44
-745.177083
 50
0.0
 51
0.0
 71
     0
 72
   100
 73
     1
 74
     3
 75
     0
 76
     0
 77
     0
 78
     0
281
     0
 65
     1
110
0.0
120
0.0
130
0.0
111
1.0
121
0.0
131
0.0
112
0.0
122
1.0
132
0.0
 79
     0
146
0.0
  0
VPORT
  5
341
330
8
100
AcDbSymbolTableRecord
100
AcDbViewportTableRecord
  2
L3
 70
     0
 10
0.0
 20
0.0
 11
1.0
 21
0.5
 12
0.0
 22
0.0
 13
0.0
 23
0.0
 14
0.5
 24
0.5
 15
0.5
 25
0.5
 16
0.0
 26
-1.0
 36
0.0
 17
0.0
 27
0.0
 37
0.0
 40
1478.660809
 41
0.012009
 42
50.0
 43
765.39502
 44
-765.39502
 50
0.0
 51
0.0
 71
     0
 72
   100
 73
     1
 74
     3
 75
     0
 76
     0
 77
     0
 78
     0
281
     0
 65
     1
110
0.0
120
0.0
130
0.0
111
1.0
121
0.0
131
0.0
112
0.0
122
1.0
132
0.0
 79
     0
146
0.0
  0
VPORT
  5
342
330
8
100
AcDbSymbolTableRecord
100
AcDbViewportTableRecord
  2
L4
 70
     0
 10
0.0
 20
0.5
 11
0.5
 21
1.0
 12
404.3035559999999
 22
180.722922
 13
0.0
 23
0.0
 14
0.5
 24
0.5
 15
0.5
 25
0.5
 16
0.0
 26
0.0
 36
1.0
 17
0.0
 27
0.0
 37
0.0
 40
207.433333
 41
0.085602
 42
50.0
 43
745.177083
 44
-745.177083
 50
0.0
 51
0.0
 71
     0
 72
   100
 73
     1
 74
     3
 75
     0
 76
     0
 77
     0
 78
     0
281
     0
 65
     1
110
0.0
120
0.0
130
0.0
111
1.0
121
0.0
131
0.0
112
0.0
122
1.0
132
0.0
 79
     0
146
0.0
  0
VPORT
  5
343
330
8
100
AcDbSymbolTableRecord
100
AcDbViewportTableRecord
  2
L4
 70
     0
 10
0.0
 20
0.0
 11
0.5
 21
0.5
 12
0.0
 22
0.0
 13
0.0
 23
0.0
 14
0.5
 24
0.5
 15
0.5
 25
0.5
 16
0.0
 26
-1.0
 36
0.0
 17
0.0
 27
0.0
 37
0.0
 40
1478.660809
 41
0.012009
 42
50.0
 43
765.39502
 44
-765.39502
 50
0.0
 51
0.0
 71
     0
 72
   100
 73
     1
 74
     3
 75
     0
 76
     0
 77
     0
 78
     0
281
     0
 65
     1
110
0.0
120
0.0
130
0.0
111
1.0
121
0.0
131
0.0
112
0.0
122
1.0
132
0.0
 79
     0
146
0.0
  0
VPORT
  5
344
330
8
100
AcDbSymbolTableRecord
100
AcDbViewportTableRecord
  2
L4
 70
     0
 10
0.5
 20
0.0
 11
1.0
 21
0.5
 12
0.0
 22
0.0
 13
0.0
 23
0.0
 14
0.5
 24
0.5
 15
0.5
 25
0.5
 16
1.0
 26
0.0
 36
0.0
 17
0.0
 27
0.0
 37
0.0
 40
1478.660809
 41
0.012009
 42
50.0
 43
746.5698859999999
 44
-746.5698859999999
 50
0.0
 51
0.0
 71
     0
 72
   100
 73
     1
 74
     3
 75
     0
 76
     0
 77
     0
 78
     0
281
     0
 65
     1
110
0.0
120
0.0
130
0.0
111
1.0
121
0.0
131
0.0
112
0.0
122
1.0
132
0.0
 79
     0
146
0.0
  0
VPORT
  5
345
330
8
100
AcDbSymbolTableRecord
100
AcDbViewportTableRecord
  2
L4
 70
     0
 10
0.5
 20
0.5
 11
1.0
 21
1.0
 12
0.0
 22
0.0
 13
0.0
 23
0.0
 14
0.5
 24
0.5
 15
0.5
 25
0.5
 16
0.5773502691896259
 26
-0.5773502691896259
 36
0.5773502691896259
 17
0.0
 27
0.0
 37
0.0
 40
1453.705292
 41
0.012215
 42
50.0
 43
757.5245879999999
 44
-757.5245879999999
 50
0.0
 51
0.0
 71
     0
 72
   100
 73
     1
 74
     3
 75
     0
 76
     0
 77
     0
 78
     0
281
     0
 65
     1
110
0.0
120
0.0
130
0.0
111
1.0
121
0.0
131
0.0
112
0.0
122
1.0
132
0.0
 79
     0
146
0.0
  0
VPORT
  5
346
330
8
100
AcDbSymbolTableRecord
100
AcDbViewportTableRecord
  2
L6
 70
     0
 10
0.0
 20
0.5
 11
0.333333
 21
1.0
 12
0.0
 22
0.0
 13
0.0
 23
0.0
 14
0.5
 24
0.5
 15
0.5
 25
0.5
 16
0.7188730927569434
 26
-0.5850486126764433
 36
0.3754192287502549
 17
0.0
 27
0.0
 37
0.0
 40
1534.989881
 41
0.011568
 42
50.0
 43
794.5176169999999
 44
-794.5176169999999
 50
0.0
 51
0.0
 71
     0
 72
   100
 73
     1
 74
     3
 75
     0
 76
     0
 77
     0
 78
     0
281
     0
 65
     1
110
0.0
120
0.0
130
0.0
111
1.0
121
0.0
131
0.0
112
0.0
122
1.0
132
0.0
 79
     0
146
0.0
  0
VPORT
  5
347
330
8
100
AcDbSymbolTableRecord
100
AcDbViewportTableRecord
  2
L6
 70
     0
 10
0.0
 20
0.0
 11
0.333333
 21
0.5
 12
0.0
 22
0.0
 13
0.0
 23
0.0
 14
0.5
 24
0.5
 15
0.5
 25
0.5
 16
-1.0
 26
0.0
 36
0.0
 17
0.0
 27
0.0
 37
0.0
 40
1478.660809
 41
0.012009
 42
50.0
 43
746.5698859999999
 44
-746.5698859999999
 50
0.0
 51
0.0
 71
     0
 72
   100
 73
     1
 74
     3
 75
     0
 76
     0
 77
     0
 78
     0
281
     0
 65
     1
110
0.0
120
0.0
130
0.0
111
1.0
121
0.0
131
0.0
112
0.0
122
1.0
132
0.0
 79
     0
146
0.0
  0
VPORT
  5
348
330
8
100
AcDbSymbolTableRecord
100
AcDbViewportTableRecord
  2
L6
 70
     0
 10
0.333333
 20
0.5
 11
0.666667
 21
1.0
 12
404.3035559999999
 22
180.722922
 13
0.0
 23
0.0
 14
0.5
 24
0.5
 15
0.5
 25
0.5
 16
0.0
 26
0.0
 36
1.0
 17
0.0
 27
0.0
 37
0.0
 40
207.433333
 41
0.085602
 42
50.0
 43
745.177083
 44
-745.177083
 50
0.0
 51
0.0
 71
     0
 72
   100
 73
     1
 74
     3
 75
     0
 76
     0
 77
     0
 78
     0
281
     0
 65
     1
110
0.0
120
0.0
130
0.0
111
1.0
121
0.0
131
0.0
112
0.0
122
1.0
132
0.0
 79
     0
146
0.0
  0
VPORT
  5
349
330
8
100
AcDbSymbolTableRecord
100
AcDbViewportTableRecord
  2
L6
 70
     0
 10
0.333333
 20
0.0
 11
0.666667
 21
0.5
 12
0.0
 22
0.0
 13
0.0
 23
0.0
 14
0.5
 24
0.5
 15
0.5
 25
0.5
 16
0.0
 26
-1.0
 36
0.0
 17
0.0
 27
0.0
 37
0.0
 40
1478.660809
 41
0.012009
 42
50.0
 43
765.39502
 44
-765.39502
 50
0.0
 51
0.0
 71
     0
 72
   100
 73
     1
 74
     3
 75
     0
 76
     0
 77
     0
 78
     0
281
     0
 65
     1
110
0.0
120
0.0
130
0.0
111
1.0
121
0.0
131
0.0
112
0.0
122
1.0
132
0.0
 79
     0
146
0.0
  0
VPORT
  5
34A
330
8
100
AcDbSymbolTableRecord
100
AcDbViewportTableRecord
  2
L6
 70
     0
 10
0.666667
 20
0.5
 11
1.0
 21
1.0
 12
0.0
 22
0.0
 13
0.0
 23
0.0
 14
0.5
 24
0.5
 15
0.5
 25
0.5
 16
0.5773502691896259
 26
-0.5773502691896259
 36
0.5773502691896259
 17
0.0
 27
0.0
 37
0.0
 40
1453.705292
 41
0.012215
 42
50.0
 43
757.5245879999999
 44
-757.5245879999999
 50
0.0
 51
0.0
 71
     0
 72
   100
 73
     1
 74
     3
 75
     0
 76
     0
 77
     0
 78
     0
281
     0
 65
     1
110
0.0
120
0.0
130
0.0
111
1.0
121
0.0
131
0.0
112
0.0
122
1.0
132
0.0
 79
     0
146
0.0
  0
VPORT
  5
34B
330
8
100
AcDbSymbolTableRecord
100
AcDbViewportTableRecord
  2
L6
 70
     0
 10
0.666667
 20
0.0
 11
1.0
 21
0.5
 12
0.0
 22
0.0
 13
0.0
 23
0.0
 14
0.5
 24
0.5
 15
0.5
 25
0.5
 16
1.0
 26
0.0
 36
0.0
 17
0.0
 27
0.0
 37
0.0
 40
1478.660809
 41
0.012009
 42
50.0
 43
746.5698859999999
 44
-746.5698859999999
 50
0.0
 51
0.0
 71
     0
 72
   100
 73
     1
 74
     3
 75
     0
 76
     0
 77
     0
 78
     0
281
     0
 65
     1
110
0.0
120
0.0
130
0.0
111
1.0
121
0.0
131
0.0
112
0.0
122
1.0
132
0.0
 79
     0
146
0.0
  0
ENDTAB
  0
TABLE
  2
LTYPE
  5
5
330
0
100
AcDbSymbolTable
 70
     9
  0
LTYPE
  5
14
330
5
100
AcDbSymbolTableRecord
100
AcDbLinetypeTableRecord
  2
ByBlock
 70
     0
  3

 72
    65
 73
     0
 40
0.0
  0
LTYPE
  5
15
330
5
100
AcDbSymbolTableRecord
100
AcDbLinetypeTableRecord
  2
ByLayer
 70
     0
  3

 72
    65
 73
     0
 40
0.0
  0
LTYPE
  5
16
330
5
100
AcDbSymbolTableRecord
100
AcDbLinetypeTableRecord
  2
Continuous
 70
     0
  3
Solid line
 72
    65
 73
     0
 40
0.0
  0
LTYPE
  5
6E
330
5
100
AcDbSymbolTableRecord
100
AcDbLinetypeTableRecord
  2
CENTER
 70
     0
  3
____ _ ____ _ ____ _ ____
 72
    65
 73
     4
 40
47.4
 49
22.0
 74
     4
 75
     0
340
0
 46
0.0
 50
0.0
 44
0.0
 45
0.0
 49
-8.5
 74
     4
 75
     0
340
0
 46
0.0
 50
0.0
 44
0.0
 45
0.0
 49
8.5
 74
     4
 75
     0
340
0
 46
0.0
 50
0.0
 44
0.0
 45
0.0
 49
-8.5
 74
     4
 75
     0
340
0
 46
0.0
 50
0.0
 44
0.0
 45
0.0
  0
LTYPE
  5
6F
330
5
100
AcDbSymbolTableRecord
100
AcDbLinetypeTableRecord
  2
DASHDOT
 70
     0
  3
_._._._._._._._._._._._._._._._.
 72
    65
 73
     4
 40
70.0
 49
31.0
 74
     4
 75
     0
340
0
 46
0.0
 50
0.0
 44
0.0
 45
0.0
 49
-13.0
 74
     4
 75
     0
340
0
 46
0.0
 50
0.0
 44
0.0
 45
0.0
 49
13.0
 74
     4
 75
     0
340
0
 46
0.0
 50
0.0
 44
0.0
 45
0.0
 49
-13.0
 74
     4
 75
     0
340
0
 46
0.0
 50
0.0
 44
0.0
 45
0.0
  0
LTYPE
  5
70
330
5
100
AcDbSymbolTableRecord
100
AcDbLinetypeTableRecord
  2
DASHED
 70
     0
  3
__ __ __ __ __ __ __ __ __
 72
    65
 73
     2
 40
25.72
 49
12.86
 74
     4
 75
     0
340
0
 46
0.0
 50
0.0
 44
0.0
 45
0.0
 49
-12.86
 74
     4
 75
     0
340
0
 46
0.0
 50
0.0
 44
0.0
 45
0.0
  0
LTYPE
  5
71
330
5
100
AcDbSymbolTableRecord
100
AcDbLinetypeTableRecord
  2
DOT
 70
     0
  3
.........................
 72
    65
 73
     2
 40
10.0
 49
0.0
 74
     4
 75
     0
340
0
 46
0.0
 50
0.0
 44
0.0
 45
0.0
 49
-10.0
 74
     4
 75
     0
340
0
 46
0.0
 50
0.0
 44
0.0
 45
0.0
  0
LTYPE
  5
72
330
5
100
AcDbSymbolTableRecord
100
AcDbLinetypeTableRecord
  2
PHANTOM
 70
     0
  3
____ _ _ ____ _ _ _____ _ _ ____
 72
    65
 73
     6
 40
50.5
 49
18.0
 74
     4
 75
     0
340
0
 46
0.0
 50
0.0
 44
0.0
 45
0.0
 49
-6.5
 74
     4
 75
     0
340
0
 46
0.0
 50
0.0
 44
0.0
 45
0.0
 49
6.5
 74
     4
 75
     0
340
0
 46
0.0
 50
0.0
 44
0.0
 45
0.0
 49
-6.5
 74
     4
 75
     0
340
0
 46
0.0
 50
0.0
 44
0.0
 45
0.0
 49
6.5
 74
     4
 75
     0
340
0
 46
0.0
 50
0.0
 44
0.0
 45
0.0
 49
-6.5
 74
     4
 75
     0
340
0
 46
0.0
 50
0.0
 44
0.0
 45
0.0
  0
LTYPE
  5
3EF
330
5
100
AcDbSymbolTableRecord
100
AcDbLinetypeTableRecord
  2
CENTER2
 70
     0
  3
Center (.5x) ___ _ ___ _ ___ _ ___ _ ___ _ ___
 72
    65
 73
     4
 40
1.125
 49
0.75
 74
     0
 49
-0.125
 74
     0
 49
0.125
 74
     0
 49
-0.125
 74
     0
  0
ENDTAB
  0
TABLE
  2
LAYER
  5
2
102
{ACAD_XDICTIONARY
360
422
102
}
330
0
100
AcDbSymbolTable
 70
    23
  0
LAYER
  5
10
102
{ACAD_XDICTIONARY
360
403
102
}
330
2
100
AcDbSymbolTableRecord
100
AcDbLayerTableRecord
  2
0
 70
     0
 62
     7
  6
Continuous
370
    -3
390
F
  0
LAYER
  5
79
102
{ACAD_XDICTIONARY
360
405
102
}
330
2
100
AcDbSymbolTableRecord
100
AcDbLayerTableRecord
  2
60
 70
     0
 62
     7
420
 16777215
  6
Continuous
370
    -3
390
F
  0
LAYER
  5
2C6
330
2
100
AcDbSymbolTableRecord
100
AcDbLayerTableRecord
  2
Defpoints
 70
     0
 62
     7
  6
Continuous
290
     0
370
    -3
390
F
  0
LAYER
  5
3EC
102
{ACAD_XDICTIONARY
360
407
102
}
330
2
100
AcDbSymbolTableRecord
100
AcDbLayerTableRecord
  2
1
 70
     0
 62
     4
  6
Continuous
370
    -3
390
F
  0
LAYER
  5
3ED
102
{ACAD_XDICTIONARY
360
409
102
}
330
2
100
AcDbSymbolTableRecord
100
AcDbLayerTableRecord
  2
2
 70
     0
 62
     7
  6
Continuous
370
    -3
390
F
  0
LAYER
  5
3EE
102
{ACAD_XDICTIONARY
360
40B
102
}
330
2
100
AcDbSymbolTableRecord
100
AcDbLayerTableRecord
  2
4
 70
     0
 62
     2
  6
CENTER2
370
    -3
390
F
  0
LAYER
  5
3F1
102
{ACAD_XDICTIONARY
360
40D
102
}
330
2
100
AcDbSymbolTableRecord
100
AcDbLayerTableRecord
  2
SK2
 70
     0
 62
     7
  6
Continuous
370
    -3
390
F
  0
LAYER
  5
3F2
102
{ACAD_XDICTIONARY
360
40F
102
}
330
2
100
AcDbSymbolTableRecord
100
AcDbLayerTableRecord
  2
SK3
 70
     0
 62
     1
  6
DASHED
370
    -3
390
F
  0
LAYER
  5
3F3
102
{ACAD_XDICTIONARY
360
411
102
}
330
2
100
AcDbSymbolTableRecord
100
AcDbLayerTableRecord
  2
SK4
 70
     0
 62
     2
  6
CENTER2
370
    -3
390
F
  0
LAYER
  5
3F4
102
{ACAD_XDICTIONARY
360
413
102
}
330
2
100
AcDbSymbolTableRecord
100
AcDbLayerTableRecord
  2
SK6
 70
     0
 62
     5
  6
Continuous
370
    -3
390
F
  0
LAYER
  5
3F5
102
{ACAD_XDICTIONARY
360
415
102
}
330
2
100
AcDbSymbolTableRecord
100
AcDbLayerTableRecord
  2
CUT
 70
     0
 62
     1
  6
Continuous
370
    -3
390
F
  0
LAYER
  5
3F6
102
{ACAD_XDICTIONARY
360
417
102
}
330
2
100
AcDbSymbolTableRecord
100
AcDbLayerTableRecord
  2
NOCUT
 70
     0
 62
     7
  6
Continuous
370
    -3
390
F
  0
LAYER
  5
3F7
102
{ACAD_XDICTIONARY
360
419
102
}
330
2
100
AcDbSymbolTableRecord
100
AcDbLayerTableRecord
  2
80
 70
     0
 62
     6
  6
Continuous
370
    -3
390
F
  0
LAYER
  5
3F8
102
{ACAD_XDICTIONARY
360
41B
102
}
330
2
100
AcDbSymbolTableRecord
100
AcDbLayerTableRecord
  2
81
 70
     0
 62
     3
  6
Continuous
370
    -3
390
F
  0
LAYER
  5
3F9
102
{ACAD_XDICTIONARY
360
41D
102
}
330
2
100
AcDbSymbolTableRecord
100
AcDbLayerTableRecord
  2
SK1
 70
     0
 62
     4
  6
Continuous
370
    -3
390
F
  0
ENDTAB
  0
TABLE
  2
STYLE
  5
3
330
0
100
AcDbSymbolTable
 70
     3
  0
STYLE
  5
11
330
3
100
AcDbSymbolTableRecord
100
AcDbTextStyleTableRecord
  2
Standard
 70
     0
 40
0.0
 41
1.0
 50
0.0
 71
     0
 42
0.2
  3
txt
  4

  0
STYLE
  5
2C0
330
3
100
AcDbSymbolTableRecord
100
AcDbTextStyleTableRecord
  2
cesky
 70
     0
 40
0.0
 41
1.0
 50
0.0
 71
     0
 42
0.2
  3
simplex.shx
  4

  0
STYLE
  5
2C1
330
3
100
AcDbSymbolTableRecord
100
AcDbTextStyleTableRecord
  2
DWGDirectTextStyle
 70
     0
 40
0.0
 41
1.0
 50
0.0
 71
     0
 42
0.2
  3
simplex
  4

  0
ENDTAB
  0
TABLE
  2
VIEW
  5
6
330
0
100
AcDbSymbolTable
 70
     1
  0
ENDTAB
  0
TABLE
  2
UCS
  5
7
330
0
100
AcDbSymbolTable
 70
     0
  0
ENDTAB
  0
TABLE
  2
APPID
  5
9
330
0
100
AcDbSymbolTable
 70
     8
  0
APPID
  5
12
330
9
100
AcDbSymbolTableRecord
100
AcDbRegAppTableRecord
  2
ACAD
 70
     0
  0
APPID
  5
2C2
330
9
100
AcDbSymbolTableRecord
100
AcDbRegAppTableRecord
  2
ACAD_DSTYLE_DIMBREAK
 70
     0
  0
APPID
  5
34C
330
9
100
AcDbSymbolTableRecord
100
AcDbRegAppTableRecord
  2
ACAD_DSTYLE_DIM_LINETYPE
 70
     0
  0
APPID
  5
34D
330
9
100
AcDbSymbolTableRecord
100
AcDbRegAppTableRecord
  2
ACAD_DSTYLE_DIM_EXT1_LINETYPE
 70
     0
  0
APPID
  5
34E
330
9
100
AcDbSymbolTableRecord
100
AcDbRegAppTableRecord
  2
ACAD_DSTYLE_DIM_EXT2_LINETYPE
 70
     0
  0
APPID
  5
38E
330
9
100
AcDbSymbolTableRecord
100
AcDbRegAppTableRecord
  2
ACAD_MLEADERVER
 70
     0
  0
APPID
  5
3FB
330
9
100
AcDbSymbolTableRecord
100
AcDbRegAppTableRecord
  2
ACAD_EXEMPT_FROM_CAD_STANDARDS
 70
     0
  0
APPID
  5
42B
330
9
100
AcDbSymbolTableRecord
100
AcDbRegAppTableRecord
  2
ACAD_NAV_VCDISPLAY
 70
     0
  0
ENDTAB
  0
TABLE
  2
DIMSTYLE
  5
A
330
0
100
AcDbSymbolTable
 70
     2
100
AcDbDimStyleTable
 71
     1
340
27
  0
DIMSTYLE
105
27
330
A
100
AcDbSymbolTableRecord
100
AcDbDimStyleTableRecord
  2
Standard
 70
     0
340
11
1001
ACAD_DSTYLE_DIMBREAK
1070
   391
1040
6.349999999999999
  0
ENDTAB
  0
TABLE
  2
BLOCK_RECORD
  5
1
330
0
100
AcDbSymbolTable
 70
    12
  0
BLOCK_RECORD
  5
1F
102
{ACAD_XDICTIONARY
360
39F
102
}
330
1
100
AcDbSymbolTableRecord
100
AcDbBlockTableRecord
  2
*Model_Space
340
22
  0
BLOCK_RECORD
  5
1B
330
1
100
AcDbSymbolTableRecord
100
AcDbBlockTableRecord
  2
*Paper_Space
340
1E
  0
BLOCK_RECORD
  5
23
330
1
100
AcDbSymbolTableRecord
100
AcDbBlockTableRecord
  2
*Paper_Space0
340
26
  0
BLOCK_RECORD
  5
2C7
330
1
100
AcDbSymbolTableRecord
100
AcDbBlockTableRecord
  2
*D1
340
0
  0
BLOCK_RECORD
  5
2D4
330
1
100
AcDbSymbolTableRecord
100
AcDbBlockTableRecord
  2
_U0
340
0
  0
BLOCK_RECORD
  5
2E0
330
1
100
AcDbSymbolTableRecord
100
AcDbBlockTableRecord
  2
*D3
340
0
  0
BLOCK_RECORD
  5
2EB
330
1
100
AcDbSymbolTableRecord
100
AcDbBlockTableRecord
  2
_U1
340
0
  0
BLOCK_RECORD
  5
2F6
330
1
100
AcDbSymbolTableRecord
100
AcDbBlockTableRecord
  2
*D5
340
0
  0
BLOCK_RECORD
  5
302
330
1
100
AcDbSymbolTableRecord
100
AcDbBlockTableRecord
  2
_U2
340
0
  0
BLOCK_RECORD
  5
30F
330
1
100
AcDbSymbolTableRecord
100
AcDbBlockTableRecord
  2
*D7
340
0
  0
BLOCK_RECORD
  5
31B
330
1
100
AcDbSymbolTableRecord
100
AcDbBlockTableRecord
  2
_U3
340
0
  0
BLOCK_RECORD
  5
328
330
1
100
AcDbSymbolTableRecord
100
AcDbBlockTableRecord
  2
*D9
340
0
  0
BLOCK_RECORD
  5
334
330
1
100
AcDbSymbolTableRecord
100
AcDbBlockTableRecord
  2
_U4
340
0
  0
ENDTAB
  0
ENDSEC
  0
SECTION
  2
BLOCKS
  0
BLOCK
  5
20
330
1F
100
AcDbEntity
  8
0
100
AcDbBlockBegin
  2
*Model_Space
 70
     0
 10
0.0
 20
0.0
 30
0.0
  3
*Model_Space
  1

  0
ENDBLK
  5
21
330
1F
100
AcDbEntity
  8
0
100
AcDbBlockEnd
  0
BLOCK
  5
1C
330
1B
100
AcDbEntity
 67
     1
  8
0
100
AcDbBlockBegin
  2
*Paper_Space
 70
     0
 10
0.0
 20
0.0
 30
0.0
  3
*Paper_Space
  1

  0
ENDBLK
  5
1D
330
1B
100
AcDbEntity
 67
     1
  8
0
100
AcDbBlockEnd
  0
BLOCK
  5
24
330
23
100
AcDbEntity
 67
     1
  8
0
100
AcDbBlockBegin
  2
*Paper_Space0
 70
     0
 10
0.0
 20
0.0
 30
0.0
  3
*Paper_Space0
  1

  0
ENDBLK
  5
25
330
23
100
AcDbEntity
 67
     1
  8
0
100
AcDbBlockEnd
  0
BLOCK
  5
2C8
330
2C7
100
AcDbEntity
  8
0
100
AcDbBlockBegin
  2
*D1
 70
     1
 10
0.0
 20
0.0
 30
0.0
  3
*D1
  1

  0
LINE
  5
2CA
330
2C7
100
AcDbEntity
  8
0
 62
   254
370
    -2
100
AcDbLine
 10
242.446773
 20
324.273475
 30
0.0
 11
242.446773
 21
336.49171
 31
0.0
  0
LINE
  5
2CB
330
2C7
100
AcDbEntity
  8
0
 62
   254
370
    -2
100
AcDbLine
 10
256.444248
 20
326.434018
 30
0.0
 11
256.444248
 21
336.49171
 31
0.0
  0
LINE
  5
2CC
330
2C7
100
AcDbEntity
  8
0
 62
   254
370
    -2
100
AcDbLine
 10
238.946773
 20
335.49171
 30
0.0
 11
235.446773
 21
335.49171
 31
0.0
  0
LINE
  5
2CD
330
2C7
100
AcDbEntity
  8
0
 62
   254
370
    -2
100
AcDbLine
 10
259.944248
 20
335.49171
 30
0.0
 11
263.444248
 21
335.49171
 31
0.0
  0
SOLID
  5
2CE
330
2C7
100
AcDbEntity
  8
0
 62
   254
100
AcDbTrace
 10
238.946773
 20
334.908377
 30
0.0
 11
238.946773
 21
336.075044
 31
0.0
 12
242.446773
 22
335.49171
 32
0.0
 13
242.446773
 23
335.49171
 33
0.0
  0
SOLID
  5
2CF
330
2C7
100
AcDbEntity
  8
0
 62
   254
100
AcDbTrace
 10
259.944248
 20
336.075044
 30
0.0
 11
259.944248
 21
334.908377
 31
0.0
 12
256.444248
 22
335.49171
 32
0.0
 13
256.444248
 23
335.49171
 33
0.0
  0
MTEXT
  5
2D0
330
2C7
100
AcDbEntity
  8
0
 62
   254
370
    13
100
AcDbMText
 10
249.44551
 20
340.74171
 30
0.0
 40
3.5
 41
0.0
 71
     5
 72
     1
  1
\A1;14
  7
cesky
 73
     1
 44
1.0
  0
POINT
  5
2D1
330
2C7
100
AcDbEntity
  8
Defpoints
 62
     0
100
AcDbPoint
 10
242.446773
 20
324.273475
 30
0.0
  0
POINT
  5
2D2
330
2C7
100
AcDbEntity
  8
Defpoints
 62
     0
100
AcDbPoint
 10
256.444248
 20
326.434018
 30
0.0
  0
POINT
  5
2D3
330
2C7
100
AcDbEntity
  8
Defpoints
 62
     0
100
AcDbPoint
 10
256.444248
 20
335.49171
 30
0.0
  0
ENDBLK
  5
2C9
330
2C7
100
AcDbEntity
  8
0
100
AcDbBlockEnd
  0
BLOCK
  5
2DB
330
2D4
100
AcDbEntity
  8
0
100
AcDbBlockBegin
  2
_U0
 70
     0
 10
0.0
 20
0.0
 30
0.0
  3
_U0
  1

  0
ENDBLK
  5
2DC
330
2D4
100
AcDbEntity
  8
0
100
AcDbBlockEnd
  0
BLOCK
  5
2E1
330
2E0
100
AcDbEntity
  8
0
100
AcDbBlockBegin
  2
*D3
 70
     1
 10
0.0
 20
0.0
 30
0.0
  3
*D3
  1

  0
LINE
  5
2E3
330
2E0
100
AcDbEntity
  8
0
 62
   254
370
    -2
100
AcDbLine
 10
243.944248
 20
244.434018
 30
0.0
 11
267.823544
 21
244.434018
 31
0.0
  0
LINE
  5
2E4
330
2E0
100
AcDbEntity
  8
0
 62
   254
370
    -2
100
AcDbLine
 10
258.444248
 20
324.434018
 30
0.0
 11
267.823544
 21
324.434018
 31
0.0
  0
LINE
  5
2E5
330
2E0
100
AcDbEntity
  8
0
 62
   254
370
    -2
100
AcDbLine
 10
266.823544
 20
244.434018
 30
0.0
 11
266.823544
 21
324.434018
 31
0.0
  0
SOLID
  5
2E6
330
2E0
100
AcDbEntity
  8
0
 62
   254
100
AcDbTrace
 10
267.406877
 20
320.934018
 30
0.0
 11
266.24021
 21
320.934018
 31
0.0
 12
266.823544
 22
324.434018
 32
0.0
 13
266.823544
 23
324.434018
 33
0.0
  0
MTEXT
  5
2E7
330
2E0
100
AcDbEntity
  8
0
 62
   254
370
    13
100
AcDbMText
 10
261.573544
 20
233.267352
 30
0.0
 40
3.5
 41
0.0
 71
     5
 72
     1
  1
\A1;160
  7
cesky
 11
0.0
 21
1.0
 31
0.0
 73
     1
 44
1.0
  0
POINT
  5
2E8
330
2E0
100
AcDbEntity
  8
Defpoints
 62
     0
100
AcDbPoint
 10
243.944248
 20
244.434018
 30
0.0
  0
POINT
  5
2E9
330
2E0
100
AcDbEntity
  8
Defpoints
 62
     0
100
AcDbPoint
 10
258.444248
 20
324.434018
 30
0.0
  0
POINT
  5
2EA
330
2E0
100
AcDbEntity
  8
Defpoints
 62
     0
100
AcDbPoint
 10
266.823544
 20
324.434018
 30
0.0
  0
ENDBLK
  5
2E2
330
2E0
100
AcDbEntity
  8
0
100
AcDbBlockEnd
  0
BLOCK
  5
2F1
330
2EB
100
AcDbEntity
  8
0
100
AcDbBlockBegin
  2
_U1
 70
     0
 10
0.0
 20
0.0
 30
0.0
  3
_U1
  1

  0
ENDBLK
  5
2F2
330
2EB
100
AcDbEntity
  8
0
100
AcDbBlockEnd
  0
BLOCK
  5
2F7
330
2F6
100
AcDbEntity
  8
0
100
AcDbBlockBegin
  2
*D5
 70
     1
 10
0.0
 20
0.0
 30
0.0
  3
*D5
  1

  0
LINE
  5
2F9
330
2F6
100
AcDbEntity
  8
0
 62
    95
370
    -2
100
AcDbLine
 10
251.427449
 20
264.434018
 30
0.0
 11
236.312933
 21
264.434018
 31
0.0
  0
LINE
  5
2FA
330
2F6
100
AcDbEntity
  8
0
 62
    95
370
    -2
100
AcDbLine
 10
254.120532
 20
224.434018
 30
0.0
 11
236.312933
 21
224.434018
 31
0.0
  0
LINE
  5
2FB
330
2F6
100
AcDbEntity
  8
0
 62
    95
370
    -2
100
AcDbLine
 10
237.312933
 20
260.934018
 30
0.0
 11
237.312933
 21
227.934018
 31
0.0
  0
SOLID
  5
2FC
330
2F6
100
AcDbEntity
  8
0
 62
    95
100
AcDbTrace
 10
237.896266
 20
260.934018
 30
0.0
 11
236.7295990000001
 21
260.934018
 31
0.0
 12
237.312933
 22
264.434018
 32
0.0
 13
237.312933
 23
264.434018
 33
0.0
  0
SOLID
  5
2FD
330
2F6
100
AcDbEntity
  8
0
 62
    95
100
AcDbTrace
 10
236.7295990000001
 20
227.934018
 30
0.0
 11
237.896266
 21
227.934018
 31
0.0
 12
237.312933
 22
224.434018
 32
0.0
 13
237.312933
 23
224.434018
 33
0.0
  0
MTEXT
  5
2FE
330
2F6
100
AcDbEntity
  8
0
 62
    95
370
    13
100
AcDbMText
 10
232.062933
 20
244.434018
 30
0.0
 40
3.5
 41
0.0
 71
     5
 72
     1
  1
\A1;40
  7
cesky
 11
0.0
 21
1.0
 31
0.0
 73
     1
 44
1.0
  0
POINT
  5
2FF
330
2F6
100
AcDbEntity
  8
Defpoints
 62
     0
100
AcDbPoint
 10
251.427449
 20
264.434018
 30
0.0
  0
POINT
  5
300
330
2F6
100
AcDbEntity
  8
Defpoints
 62
     0
100
AcDbPoint
 10
254.120532
 20
224.434018
 30
0.0
  0
POINT
  5
301
330
2F6
100
AcDbEntity
  8
Defpoints
 62
     0
100
AcDbPoint
 10
237.312933
 20
224.434018
 30
0.0
  0
ENDBLK
  5
2F8
330
2F6
100
AcDbEntity
  8
0
100
AcDbBlockEnd
  0
BLOCK
  5
30A
330
302
100
AcDbEntity
  8
0
100
AcDbBlockBegin
  2
_U2
 70
     0
 10
0.0
 20
0.0
 30
0.0
  3
_U2
  1

  0
ENDBLK
  5
30B
330
302
100
AcDbEntity
  8
0
100
AcDbBlockEnd
  0
BLOCK
  5
310
330
30F
100
AcDbEntity
  8
0
100
AcDbBlockBegin
  2
*D7
 70
     1
 10
0.0
 20
0.0
 30
0.0
  3
*D7
  1

  0
LINE
  5
312
330
30F
100
AcDbEntity
  8
0
 62
    95
370
    -2
100
AcDbLine
 10
243.944248
 20
278.434018
 30
0.0
 11
226.570041
 21
278.691705
 31
0.0
  0
LINE
  5
313
330
30F
100
AcDbEntity
  8
0
 62
    95
370
    -2
100
AcDbLine
 10
242.944264
 20
211.01136
 30
0.0
 11
225.570057
 21
211.269047
 31
0.0
  0
LINE
  5
314
330
30F
100
AcDbEntity
  8
0
 62
    95
370
    -2
100
AcDbLine
 10
227.518027
 20
275.17726
 30
0.0
 11
226.621852
 21
214.753832
 31
0.0
  0
SOLID
  5
315
330
30F
100
AcDbEntity
  8
0
 62
    95
100
AcDbTrace
 10
228.101296
 20
275.168609
 30
0.0
 11
226.934758
 21
275.185911
 31
0.0
 12
227.569931
 22
278.676875
 32
0.0
 13
227.569931
 23
278.676875
 33
0.0
  0
SOLID
  5
316
330
30F
100
AcDbEntity
  8
0
 62
    95
100
AcDbTrace
 10
226.038583
 20
214.762483
 30
0.0
 11
227.205121
 21
214.745181
 31
0.0
 12
226.569947
 22
211.254217
 32
0.0
 13
226.569947
 23
211.254217
 33
0.0
  0
MTEXT
  5
317
330
30F
100
AcDbEntity
  8
0
 62
    95
370
    13
100
AcDbMText
 10
221.820517
 20
245.043403
 30
0.0
 40
3.5
 41
0.0
 71
     5
 72
     1
  1
\A1;67.43
  7
cesky
 11
0.0148299462751424
 21
0.9998900303000707
 31
0.0
 73
     1
 44
1.0
  0
POINT
  5
318
330
30F
100
AcDbEntity
  8
Defpoints
 62
     0
100
AcDbPoint
 10
243.944248
 20
278.434018
 30
0.0
  0
POINT
  5
319
330
30F
100
AcDbEntity
  8
Defpoints
 62
     0
100
AcDbPoint
 10
242.944264
 20
211.01136
 30
0.0
  0
POINT
  5
31A
330
30F
100
AcDbEntity
  8
Defpoints
 62
     0
100
AcDbPoint
 10
226.569947
 20
211.254217
 30
0.0
  0
ENDBLK
  5
311
330
30F
100
AcDbEntity
  8
0
100
AcDbBlockEnd
  0
BLOCK
  5
323
330
31B
100
AcDbEntity
  8
0
100
AcDbBlockBegin
  2
_U3
 70
     0
 10
0.0
 20
0.0
 30
0.0
  3
_U3
  1

  0
ENDBLK
  5
324
330
31B
100
AcDbEntity
  8
0
100
AcDbBlockEnd
  0
BLOCK
  5
329
330
328
100
AcDbEntity
  8
0
100
AcDbBlockBegin
  2
*D9
 70
     1
 10
0.0
 20
0.0
 30
0.0
  3
*D9
  1

  0
LINE
  5
32B
330
328
100
AcDbEntity
  8
0
 62
   254
370
    -2
100
AcDbLine
 10
243.944248
 20
278.434018
 30
0.0
 11
233.622942
 21
278.434018
 31
0.0
  0
LINE
  5
32C
330
328
100
AcDbEntity
  8
0
 62
   254
370
    -2
100
AcDbLine
 10
256.444248
 20
324.434018
 30
0.0
 11
233.622942
 21
324.434018
 31
0.0
  0
LINE
  5
32D
330
328
100
AcDbEntity
  8
0
 62
   254
370
    -2
100
AcDbLine
 10
234.622942
 20
281.9340180000001
 30
0.0
 11
234.622942
 21
320.934018
 31
0.0
  0
SOLID
  5
32E
330
328
100
AcDbEntity
  8
0
 62
   254
100
AcDbTrace
 10
234.039609
 20
281.9340180000001
 30
0.0
 11
235.206276
 21
281.9340180000001
 31
0.0
 12
234.622942
 22
278.434018
 32
0.0
 13
234.622942
 23
278.434018
 33
0.0
  0
SOLID
  5
32F
330
328
100
AcDbEntity
  8
0
 62
   254
100
AcDbTrace
 10
235.206276
 20
320.934018
 30
0.0
 11
234.039609
 21
320.934018
 31
0.0
 12
234.622942
 22
324.434018
 32
0.0
 13
234.622942
 23
324.434018
 33
0.0
  0
MTEXT
  5
330
330
328
100
AcDbEntity
  8
0
 62
   254
370
    13
100
AcDbMText
 10
229.372942
 20
301.434018
 30
0.0
 40
3.5
 41
0.0
 71
     5
 72
     1
  1
\A1;46
  7
cesky
 11
0.0
 21
1.0
 31
0.0
 73
     1
 44
1.0
  0
POINT
  5
331
330
328
100
AcDbEntity
  8
Defpoints
 62
     0
100
AcDbPoint
 10
243.944248
 20
278.434018
 30
0.0
  0
POINT
  5
332
330
328
100
AcDbEntity
  8
Defpoints
 62
     0
100
AcDbPoint
 10
256.444248
 20
324.434018
 30
0.0
  0
POINT
  5
333
330
328
100
AcDbEntity
  8
Defpoints
 62
     0
100
AcDbPoint
 10
234.622942
 20
324.434018
 30
0.0
  0
ENDBLK
  5
32A
330
328
100
AcDbEntity
  8
0
100
AcDbBlockEnd
  0
BLOCK
  5
33B
330
334
100
AcDbEntity
  8
0
100
AcDbBlockBegin
  2
_U4
 70
     0
 10
0.0
 20
0.0
 30
0.0
  3
_U4
  1

  0
MTEXT
  5
335
330
334
100
AcDbEntity
  8
60
  6
Continuous
 62
   254
440
 16777216
370
    13
100
AcDbMText
 10
235.091776
 20
299.591518
 30
0.0
 40
3.5
 41
0.0
 71
     7
 72
     5
  1
\W0.7259;46
  7
cesky
 11
0.0000000000000001
 21
1.0
 31
0.0
 73
     2
 44
0.8433729999999998
  0
LINE
  5
336
330
334
100
AcDbEntity
  8
60
 62
   254
440
 16777216
370
    13
100
AcDbLine
 10
243.944248
 20
278.434018
 30
0.0
 11
233.622942
 21
278.434018
 31
0.0
  0
LINE
  5
337
330
334
100
AcDbEntity
  8
60
 62
   254
440
 16777216
370
    13
100
AcDbLine
 10
256.444248
 20
324.434018
 30
0.0
 11
233.622942
 21
324.434018
 31
0.0
  0
LINE
  5
338
330
334
100
AcDbEntity
  8
60
 62
   254
440
 16777216
370
    13
100
AcDbLine
 10
234.622942
 20
278.434018
 30
0.0
 11
234.622942
 21
324.434018
 31
0.0
  0
SOLID
  5
339
330
334
100
AcDbEntity
  8
60
 62
   254
440
 16777216
370
    13
100
AcDbTrace
 10
234.622942
 20
278.434018
 30
0.0
 11
234.005798
 21
281.934016
 31
0.0
 12
235.240087
 22
281.934021
 32
0.0
 13
235.240087
 23
281.934021
 33
0.0
  0
SOLID
  5
33A
330
334
100
AcDbEntity
  8
60
 62
   254
440
 16777216
370
    13
100
AcDbTrace
 10
234.622942
 20
324.434018
 30
0.0
 11
235.240087
 21
320.934021
 31
0.0
 12
234.005798
 22
320.934016
 32
0.0
 13
234.005798
 23
320.934016
 33
0.0
  0
ENDBLK
  5
33C
330
334
100
AcDbEntity
  8
0
100
AcDbBlockEnd
  0
ENDSEC
  0
SECTION
  2
ENTITIES
  0
POINT
  5
73
102
{ACAD_REACTORS
330
3FA
102
}
330
1F
100
AcDbEntity
  8
80
100
AcDbPoint
 10
249.444248
 20
244.434018
 30
0.0
  0
POINT
  5
75
330
1F
100
AcDbEntity
  8
4
 60
     1
100
AcDbPoint
 10
242.444248
 20
244.434018
 30
0.0
  0
POINT
  5
77
330
1F
100
AcDbEntity
  8
4
 60
     1
100
AcDbPoint
 10
243.944248
 20
244.434018
 30
0.0
  0
POINT
  5
78
330
1F
100
AcDbEntity
  8
SK6
 60
     1
100
AcDbPoint
 10
242.444248
 20
244.434018
 30
0.0
  0
POINT
  5
7A
330
1F
100
AcDbEntity
  8
SK6
 60
     1
100
AcDbPoint
 10
256.444248
 20
244.434018
 30
0.0
  0
LINE
  5
7B
330
1F
100
AcDbEntity
  8
1
100
AcDbLine
 10
242.98966
 20
174.202168
 30
0.0
 11
242.992498
 21
174.173654
 31
0.0
  0
LINE
  5
7D
330
1F
100
AcDbEntity
  8
1
100
AcDbLine
 10
249.985569
 20
174.252648
 30
0.0
 11
249.890032
 21
174.207671
 31
0.0
  0
LINE
  5
7E
330
1F
100
AcDbEntity
  8
1
100
AcDbLine
 10
243.096762
 20
174.130934
 30
0.0
 11
242.992498
 21
174.173654
 31
0.0
  0
LINE
  5
7F
330
1F
100
AcDbEntity
  8
1
100
AcDbLine
 10
243.096762
 20
174.130934
 30
0.0
 11
249.890032
 21
174.207671
 31
0.0
  0
LINE
  5
80
330
1F
100
AcDbEntity
  8
1
100
AcDbLine
 10
242.989068
 20
174.202162
 30
0.0
 11
249.98214
 21
174.281156
 31
0.0
  0
LINE
  5
81
330
1F
100
AcDbEntity
  8
1
100
AcDbLine
 10
242.656288
 20
190.986543
 30
0.0
 11
242.944259
 21
190.989796
 31
0.0
  0
LINE
  5
82
330
1F
100
AcDbEntity
  8
1
100
AcDbLine
 10
242.56075
 20
190.941566
 30
0.0
 11
242.512618
 21
186.6751439999999
 31
0.0
  0
LINE
  5
83
330
1F
100
AcDbEntity
  8
1
100
AcDbLine
 10
242.677249
 20
190.592773
 30
0.0
 11
242.656288
 21
190.986543
 31
0.0
  0
LINE
  5
84
330
1F
100
AcDbEntity
  8
1
100
AcDbLine
 10
242.656288
 20
190.986543
 30
0.0
 11
242.56075
 21
190.941566
 31
0.0
  0
LINE
  5
85
330
1F
100
AcDbEntity
  8
1
100
AcDbLine
 10
242.512618
 20
186.6751439999999
 30
0.0
 11
242.465542
 21
181.826702
 31
0.0
  0
LINE
  5
86
330
1F
100
AcDbEntity
  8
1
100
AcDbLine
 10
249.447703
 20
189.316782
 30
0.0
 11
249.50569
 21
186.754138
 31
0.0
  0
LINE
  5
87
330
1F
100
AcDbEntity
  8
1
100
AcDbLine
 10
242.677249
 20
190.592773
 30
0.0
 11
242.944316
 21
190.59579
 31
0.0
  0
LINE
  5
88
330
1F
100
AcDbEntity
  8
1
100
AcDbLine
 10
242.512618
 20
186.6751439999999
 30
0.0
 11
242.677249
 21
190.592773
 31
0.0
  0
LINE
  5
89
330
1F
100
AcDbEntity
  8
1
100
AcDbLine
 10
242.656455
 20
177.501206
 30
0.0
 11
242.891746
 21
175.136778
 31
0.0
  0
LINE
  5
8A
330
1F
100
AcDbEntity
  8
1
100
AcDbLine
 10
242.891746
 20
175.136778
 30
0.0
 11
249.884818
 21
175.215772
 31
0.0
  0
LINE
  5
8B
330
1F
100
AcDbEntity
  8
1
100
AcDbLine
 10
242.656455
 20
177.501206
 30
0.0
 11
242.593012
 21
179.41244
 31
0.0
  0
LINE
  5
8C
330
1F
100
AcDbEntity
  8
1
100
AcDbLine
 10
242.447652
 20
179.737677
 30
0.0
 11
242.656455
 21
177.501206
 31
0.0
  0
LINE
  5
8D
330
1F
100
AcDbEntity
  8
1
100
AcDbLine
 10
242.448064
 20
179.80991
 30
0.0
 11
249.441136
 21
179.888904
 31
0.0
  0
LINE
  5
8E
330
1F
100
AcDbEntity
  8
1
100
AcDbLine
 10
242.465542
 20
181.826702
 30
0.0
 11
249.458613
 21
181.905696
 31
0.0
  0
LINE
  5
8F
330
1F
100
AcDbEntity
  8
1
100
AcDbLine
 10
249.522828
 20
188.273318
 30
0.0
 11
249.50569
 21
186.754138
 31
0.0
  0
LINE
  5
90
330
1F
100
AcDbEntity
  8
1
100
AcDbLine
 10
249.50569
 20
186.754138
 30
0.0
 11
249.458613
 21
181.905696
 31
0.0
  0
LINE
  5
91
330
1F
100
AcDbEntity
  8
1
100
AcDbLine
 10
249.441136
 20
179.888904
 30
0.0
 11
249.441596
 21
179.906509
 31
0.0
  0
LINE
  5
92
330
1F
100
AcDbEntity
  8
1
100
AcDbLine
 10
249.649527
 20
177.5802
 30
0.0
 11
249.884818
 21
175.215772
 31
0.0
  0
LINE
  5
93
330
1F
100
AcDbEntity
  8
1
100
AcDbLine
 10
244.444327
 20
240.970899
 30
0.0
 11
247.930997
 21
240.970899
 31
0.0
  0
LINE
  5
95
330
1F
100
AcDbEntity
  8
1
100
AcDbLine
 10
249.41757
 20
270.356632
 30
0.0
 11
246.130153
 21
270.103053
 31
0.0
  0
LINE
  5
96
330
1F
100
AcDbEntity
  8
1
100
AcDbLine
 10
249.495639
 20
242.618817
 30
0.0
 11
252.762625
 21
242.219848
 31
0.0
  0
LINE
  5
97
330
1F
100
AcDbEntity
  8
1
100
AcDbLine
 10
247.114932
 20
214.718227
 30
0.0
 11
250.365411
 21
215.192766
 31
0.0
  0
LINE
  5
98
330
1F
100
AcDbEntity
  8
1
100
AcDbLine
 10
243.44839
 20
204.345532
 30
0.0
 11
243.447652
 21
204.291135
 31
0.0
  0
LINE
  5
99
330
1F
100
AcDbEntity
  8
1
100
AcDbLine
 10
243.54668
 20
204.229613
 30
0.0
 11
243.447652
 21
204.291135
 31
0.0
  0
LINE
  5
9A
330
1F
100
AcDbEntity
  8
1
100
AcDbLine
 10
243.54668
 20
204.229613
 30
0.0
 11
250.33995
 21
204.418715
 31
0.0
  0
LINE
  5
9B
330
1F
100
AcDbEntity
  8
1
100
AcDbLine
 10
243.593012
 20
203.853973
 30
0.0
 11
243.54668
 21
204.229613
 31
0.0
  0
LINE
  5
9C
330
1F
100
AcDbEntity
  8
1
100
AcDbLine
 10
243.593012
 20
203.853973
 30
0.0
 11
250.33287
 21
204.041588
 31
0.0
  0
LINE
  5
9D
330
1F
100
AcDbEntity
  8
1
100
AcDbLine
 10
250.33287
 20
204.041588
 30
0.0
 11
250.649527
 21
200.70931
 31
0.0
  0
LINE
  5
9E
330
1F
100
AcDbEntity
  8
1
100
AcDbLine
 10
250.440724
 20
204.485799
 30
0.0
 11
250.649527
 21
200.70931
 31
0.0
  0
LINE
  5
9F
330
1F
100
AcDbEntity
  8
1
100
AcDbLine
 10
250.440724
 20
204.485799
 30
0.0
 11
250.33995
 21
204.418715
 31
0.0
  0
LINE
  5
A0
330
1F
100
AcDbEntity
  8
1
100
AcDbLine
 10
250.33995
 20
204.418715
 30
0.0
 11
250.33287
 21
204.041588
 31
0.0
  0
LINE
  5
A1
330
1F
100
AcDbEntity
  8
1
100
AcDbLine
 10
243.501515
 20
321.698916
 30
0.0
 11
243.502402
 21
321.599257
 31
0.0
  0
LINE
  5
A2
330
1F
100
AcDbEntity
  8
1
100
AcDbLine
 10
242.944248
 20
166.134018
 30
0.0
 11
242.944248
 21
167.783931
 31
0.0
  0
LINE
  5
A3
330
1F
100
AcDbEntity
  8
1
100
AcDbLine
 10
242.944248
 20
166.134018
 30
0.0
 11
248.89967
 21
166.134018
 31
0.0
  0
LINE
  5
A4
330
1F
100
AcDbEntity
  8
1
100
AcDbLine
 10
242.944248
 20
167.783931
 30
0.0
 11
242.944248
 21
171.46136
 31
0.0
  0
LINE
  5
A5
330
1F
100
AcDbEntity
  8
1
100
AcDbLine
 10
249.379312
 20
171.46136
 30
0.0
 11
249.411362
 21
167.783931
 31
0.0
  0
LINE
  5
A6
330
1F
100
AcDbEntity
  8
1
100
AcDbLine
 10
249.411362
 20
167.783931
 30
0.0
 11
242.944248
 21
167.783931
 31
0.0
  0
LINE
  5
A7
330
1F
100
AcDbEntity
  8
1
100
AcDbLine
 10
255.944248
 20
322.733456
 30
0.0
 11
255.944248
 21
320.156271
 31
0.0
  0
LINE
  5
A8
330
1F
100
AcDbEntity
  8
1
100
AcDbLine
 10
242.944248
 20
321.595181
 30
0.0
 11
242.944248
 21
320.156271
 31
0.0
  0
LINE
  5
A9
330
1F
100
AcDbEntity
  8
1
100
AcDbLine
 10
255.944248
 20
320.156271
 30
0.0
 11
255.944248
 21
317.250913
 31
0.0
  0
LINE
  5
AA
330
1F
100
AcDbEntity
  8
1
100
AcDbLine
 10
242.944248
 20
315.843473
 30
0.0
 11
242.944248
 21
320.156271
 31
0.0
  0
LINE
  5
AB
330
1F
100
AcDbEntity
  8
1
100
AcDbLine
 10
255.944248
 20
240.898075
 30
0.0
 11
255.944248
 21
239.258545
 31
0.0
  0
LINE
  5
AC
330
1F
100
AcDbEntity
  8
1
100
AcDbLine
 10
255.944248
 20
208.765039
 30
0.0
 11
255.944248
 21
205.027382
 31
0.0
  0
LINE
  5
AD
330
1F
100
AcDbEntity
  8
1
100
AcDbLine
 10
250.477134
 20
205.027382
 30
0.0
 11
250.52776
 21
208.765039
 31
0.0
  0
LINE
  5
AE
330
1F
100
AcDbEntity
  8
1
100
AcDbLine
 10
242.944248
 20
189.316795
 30
0.0
 11
255.944248
 21
189.316795
 31
0.0
  0
LINE
  5
AF
330
1F
100
AcDbEntity
  8
1
100
AcDbLine
 10
255.944248
 20
205.027382
 30
0.0
 11
250.477134
 21
205.027382
 31
0.0
  0
LINE
  5
B0
330
1F
100
AcDbEntity
  8
1
100
AcDbLine
 10
252.70904
 20
241.026828
 30
0.0
 11
252.634661
 21
239.389541
 31
0.0
  0
LINE
  5
B1
330
1F
100
AcDbEntity
  8
1
100
AcDbLine
 10
255.905893
 20
240.899705
 30
0.0
 11
255.831536
 21
239.262898
 31
0.0
  0
LINE
  5
B2
330
1F
100
AcDbEntity
  8
1
100
AcDbLine
 10
255.944248
 20
240.898187
 30
0.0
 11
255.944248
 21
241.685888
 31
0.0
  0
LINE
  5
B3
330
1F
100
AcDbEntity
  8
1
100
AcDbLine
 10
255.944248
 20
240.898187
 30
0.0
 11
255.905893
 21
240.899705
 31
0.0
  0
LINE
  5
B4
330
1F
100
AcDbEntity
  8
1
100
AcDbLine
 10
242.944248
 20
255.623479
 30
0.0
 11
242.944248
 21
256.962942
 31
0.0
  0
LINE
  5
B5
330
1F
100
AcDbEntity
  8
1
100
AcDbLine
 10
242.968422
 20
256.964017
 30
0.0
 11
242.944248
 21
256.962942
 31
0.0
  0
LINE
  5
B6
330
1F
100
AcDbEntity
  8
1
100
AcDbLine
 10
255.944248
 20
242.671392
 30
0.0
 11
255.944248
 21
241.685888
 31
0.0
  0
LINE
  5
B7
330
1F
100
AcDbEntity
  8
1
100
AcDbLine
 10
256.43997
 20
317.069166
 30
0.0
 11
256.440845
 21
317.152255
 31
0.0
  0
LINE
  5
B8
330
1F
100
AcDbEntity
  8
1
100
AcDbLine
 10
256.440845
 20
317.152255
 30
0.0
 11
256.232041
 21
314.579788
 31
0.0
  0
LINE
  5
B9
330
1F
100
AcDbEntity
  8
1
100
AcDbLine
 10
256.232041
 20
314.579788
 30
0.0
 11
255.99675
 21
311.567744
 31
0.0
  0
LINE
  5
BA
330
1F
100
AcDbEntity
  8
1
100
AcDbLine
 10
255.899429
 20
310.290358
 30
0.0
 11
255.900359
 21
310.297934
 31
0.0
  0
LINE
  5
BB
330
1F
100
AcDbEntity
  8
1
100
AcDbLine
 10
255.944247
 20
301.808831
 30
0.0
 11
255.991704
 21
302.393504
 31
0.0
  0
LINE
  5
BC
330
1F
100
AcDbEntity
  8
1
100
AcDbLine
 10
255.991704
 20
302.393504
 30
0.0
 11
256.2269950000001
 21
305.405548
 31
0.0
  0
LINE
  5
BD
330
1F
100
AcDbEntity
  8
1
100
AcDbLine
 10
256.324317
 20
306.682934
 30
0.0
 11
256.323387
 21
306.675358
 31
0.0
  0
LINE
  5
BE
330
1F
100
AcDbEntity
  8
1
100
AcDbLine
 10
256.323387
 20
306.675358
 30
0.0
 11
256.327746
 21
306.731169
 31
0.0
  0
LINE
  5
BF
330
1F
100
AcDbEntity
  8
1
100
AcDbLine
 10
249.019426
 20
310.001528
 30
0.0
 11
248.998465
 21
310.404432
 31
0.0
  0
LINE
  5
C0
330
1F
100
AcDbEntity
  8
1
100
AcDbLine
 10
249.019426
 20
310.001528
 30
0.0
 11
251.766761
 21
309.914575
 31
0.0
  0
LINE
  5
C1
330
1F
100
AcDbEntity
  8
1
100
AcDbLine
 10
255.386275
 20
309.800018
 30
0.0
 11
255.759284
 21
309.788213
 31
0.0
  0
LINE
  5
C2
330
1F
100
AcDbEntity
  8
1
100
AcDbLine
 10
255.900359
 20
310.297934
 30
0.0
 11
255.895999
 21
310.242123
 31
0.0
  0
LINE
  5
C3
330
1F
100
AcDbEntity
  8
1
100
AcDbLine
 10
248.906694
 20
310.511676
 30
0.0
 11
248.902927
 21
310.463452
 31
0.0
  0
LINE
  5
C4
330
1F
100
AcDbEntity
  8
1
100
AcDbLine
 10
248.998465
 20
310.404432
 30
0.0
 11
248.902927
 21
310.463452
 31
0.0
  0
LINE
  5
C5
330
1F
100
AcDbEntity
  8
1
100
AcDbLine
 10
248.998465
 20
310.404432
 30
0.0
 11
255.791735
 21
310.189427
 31
0.0
  0
LINE
  5
C6
330
1F
100
AcDbEntity
  8
1
100
AcDbLine
 10
255.759284
 20
309.788213
 30
0.0
 11
255.765938
 21
309.516597
 31
0.0
  0
LINE
  5
C7
330
1F
100
AcDbEntity
  8
1
100
AcDbLine
 10
255.895999
 20
310.242123
 30
0.0
 11
255.887384
 21
309.513625
 31
0.0
  0
LINE
  5
C8
330
1F
100
AcDbEntity
  8
1
100
AcDbLine
 10
255.895999
 20
310.242123
 30
0.0
 11
255.791735
 21
310.189427
 31
0.0
  0
LINE
  5
C9
330
1F
100
AcDbEntity
  8
1
100
AcDbLine
 10
255.791735
 20
310.189427
 30
0.0
 11
255.759284
 21
309.788213
 31
0.0
  0
LINE
  5
CA
330
1F
100
AcDbEntity
  8
1
100
AcDbLine
 10
256.440105
 20
297.959985
 30
0.0
 11
256.440432
 21
297.959991
 31
0.0
  0
LINE
  5
CB
330
1F
100
AcDbEntity
  8
1
100
AcDbLine
 10
256.327746
 20
288.222618
 30
0.0
 11
256.232209
 21
288.159056
 31
0.0
  0
LINE
  5
CC
330
1F
100
AcDbEntity
  8
1
100
AcDbLine
 10
255.944238
 20
288.153296
 30
0.0
 11
256.232209
 21
288.159056
 31
0.0
  0
LINE
  5
CD
330
1F
100
AcDbEntity
  8
1
100
AcDbLine
 10
255.944178
 20
288.257902
 30
0.0
 11
256.324317
 21
288.265506
 31
0.0
  0
LINE
  5
CE
330
1F
100
AcDbEntity
  8
1
100
AcDbLine
 10
255.944213
 20
289.5929
 30
0.0
 11
256.2269950000001
 21
289.598557
 31
0.0
  0
LINE
  5
CF
330
1F
100
AcDbEntity
  8
1
100
AcDbLine
 10
256.327746
 20
288.222618
 30
0.0
 11
256.375879
 21
291.93079
 31
0.0
  0
LINE
  5
D0
330
1F
100
AcDbEntity
  8
1
100
AcDbLine
 10
256.375879
 20
291.93079
 30
0.0
 11
256.422955
 21
296.181625
 31
0.0
  0
LINE
  5
D1
330
1F
100
AcDbEntity
  8
1
100
AcDbLine
 10
256.440432
 20
297.959991
 30
0.0
 11
256.439973
 21
297.945951
 31
0.0
  0
LINE
  5
D2
330
1F
100
AcDbEntity
  8
1
100
AcDbLine
 10
249.440724
 20
269.086415
 30
0.0
 11
249.649527
 21
264.3422319999999
 31
0.0
  0
LINE
  5
D3
330
1F
100
AcDbEntity
  8
1
100
AcDbLine
 10
249.649527
 20
264.3422319999999
 30
0.0
 11
249.884818
 21
259.00551
 31
0.0
  0
LINE
  5
D4
330
1F
100
AcDbEntity
  8
1
100
AcDbLine
 10
249.98214
 20
256.800701
 30
0.0
 11
249.98121
 21
256.822152
 31
0.0
  0
LINE
  5
D5
330
1F
100
AcDbEntity
  8
1
100
AcDbLine
 10
243.129212
 20
256.215699
 30
0.0
 11
243.096762
 21
256.317892
 31
0.0
  0
LINE
  5
D6
330
1F
100
AcDbEntity
  8
1
100
AcDbLine
 10
243.129212
 20
256.215699
 30
0.0
 11
243.502011
 21
256.232271
 31
0.0
  0
LINE
  5
D7
330
1F
100
AcDbEntity
  8
1
100
AcDbLine
 10
246.722715
 20
256.375433
 30
0.0
 11
249.869071
 21
256.51529
 31
0.0
  0
LINE
  5
D8
330
1F
100
AcDbEntity
  8
1
100
AcDbLine
 10
249.869071
 20
256.51529
 30
0.0
 11
249.977436
 21
256.119841
 31
0.0
  0
LINE
  5
D9
330
1F
100
AcDbEntity
  8
1
100
AcDbLine
 10
249.985569
 20
256.723266
 30
0.0
 11
249.990075
 21
256.64756
 31
0.0
  0
LINE
  5
DA
330
1F
100
AcDbEntity
  8
1
100
AcDbLine
 10
249.890032
 20
256.619856
 30
0.0
 11
249.869071
 21
256.51529
 31
0.0
  0
LINE
  5
DB
330
1F
100
AcDbEntity
  8
1
100
AcDbLine
 10
249.985569
 20
256.723266
 30
0.0
 11
249.890032
 21
256.619856
 31
0.0
  0
LINE
  5
DC
330
1F
100
AcDbEntity
  8
1
100
AcDbLine
 10
249.98121
 20
256.822152
 30
0.0
 11
249.985569
 21
256.723266
 31
0.0
  0
LINE
  5
DD
330
1F
100
AcDbEntity
  8
1
100
AcDbLine
 10
242.988138
 20
256.511306
 30
0.0
 11
242.992498
 21
256.41242
 31
0.0
  0
LINE
  5
DE
330
1F
100
AcDbEntity
  8
1
100
AcDbLine
 10
243.096762
 20
256.317892
 30
0.0
 11
242.992498
 21
256.41242
 31
0.0
  0
LINE
  5
DF
330
1F
100
AcDbEntity
  8
1
100
AcDbLine
 10
243.096762
 20
256.317892
 30
0.0
 11
249.890032
 21
256.619856
 31
0.0
  0
LINE
  5
E0
330
1F
100
AcDbEntity
  8
1
100
AcDbLine
 10
256.440314
 20
204.857462
 30
0.0
 11
256.440845
 21
204.836655
 31
0.0
  0
LINE
  5
E1
330
1F
100
AcDbEntity
  8
1
100
AcDbLine
 10
256.440845
 20
204.836655
 30
0.0
 11
256.341817
 21
204.798043
 31
0.0
  0
LINE
  5
E2
330
1F
100
AcDbEntity
  8
1
100
AcDbLine
 10
255.944198
 20
204.780542
 30
0.0
 11
256.341817
 21
204.798043
 31
0.0
  0
LINE
  5
E3
330
1F
100
AcDbEntity
  8
1
100
AcDbLine
 10
255.944143
 20
204.835624
 30
0.0
 11
256.440432
 21
204.857467
 31
0.0
  0
LINE
  5
E4
330
1F
100
AcDbEntity
  8
1
100
AcDbLine
 10
256.375879
 20
207.421312
 30
0.0
 11
256.422955
 21
205.576323
 31
0.0
  0
LINE
  5
E5
330
1F
100
AcDbEntity
  8
1
100
AcDbLine
 10
255.944148
 20
205.55525
 30
0.0
 11
256.422955
 21
205.576323
 31
0.0
  0
LINE
  5
E6
330
1F
100
AcDbEntity
  8
1
100
AcDbLine
 10
255.944178
 20
209.257721
 30
0.0
 11
256.324317
 21
209.274452
 31
0.0
  0
LINE
  5
E7
330
1F
100
AcDbEntity
  8
1
100
AcDbLine
 10
256.211248
 20
208.90598
 30
0.0
 11
256.375879
 21
207.421312
 31
0.0
  0
LINE
  5
E8
330
1F
100
AcDbEntity
  8
1
100
AcDbLine
 10
256.327746
 20
209.199711
 30
0.0
 11
256.375879
 21
207.421312
 31
0.0
  0
LINE
  5
E9
330
1F
100
AcDbEntity
  8
1
100
AcDbLine
 10
256.232209
 20
209.101408
 30
0.0
 11
256.211248
 21
208.90598
 31
0.0
  0
LINE
  5
EA
330
1F
100
AcDbEntity
  8
1
100
AcDbLine
 10
255.944181
 20
208.894225
 30
0.0
 11
256.211248
 21
208.90598
 31
0.0
  0
LINE
  5
EB
330
1F
100
AcDbEntity
  8
1
100
AcDbLine
 10
256.327746
 20
209.199711
 30
0.0
 11
256.232209
 21
209.101408
 31
0.0
  0
LINE
  5
EC
330
1F
100
AcDbEntity
  8
1
100
AcDbLine
 10
256.324274
 20
209.274449
 30
0.0
 11
256.327746
 21
209.199711
 31
0.0
  0
LINE
  5
ED
330
1F
100
AcDbEntity
  8
1
100
AcDbLine
 10
255.944238
 20
209.088733
 30
0.0
 11
256.232209
 21
209.101408
 31
0.0
  0
LINE
  5
EE
330
1F
100
AcDbEntity
  8
1
100
AcDbLine
 10
243.656288
 20
212.342413
 30
0.0
 11
250.449557
 21
212.531515
 31
0.0
  0
LINE
  5
EF
330
1F
100
AcDbEntity
  8
1
100
AcDbLine
 10
243.989341
 20
194.711544
 30
0.0
 11
243.992498
 21
194.656144
 31
0.0
  0
LINE
  5
F0
330
1F
100
AcDbEntity
  8
1
100
AcDbLine
 10
250.985569
 20
194.850808
 30
0.0
 11
250.890032
 21
194.771439
 31
0.0
  0
LINE
  5
F1
330
1F
100
AcDbEntity
  8
1
100
AcDbLine
 10
244.096762
 20
194.582337
 30
0.0
 11
243.992498
 21
194.656144
 31
0.0
  0
LINE
  5
F2
330
1F
100
AcDbEntity
  8
1
100
AcDbLine
 10
244.096762
 20
194.582337
 30
0.0
 11
250.890032
 21
194.771439
 31
0.0
  0
LINE
  5
F3
330
1F
100
AcDbEntity
  8
1
100
AcDbLine
 10
243.989068
 20
194.711537
 30
0.0
 11
250.98214
 21
194.906201
 31
0.0
  0
LINE
  5
F4
330
1F
100
AcDbEntity
  8
1
100
AcDbLine
 10
243.56075
 20
212.263044
 30
0.0
 11
243.512618
 21
209.275186
 31
0.0
  0
LINE
  5
F5
330
1F
100
AcDbEntity
  8
1
100
AcDbLine
 10
243.677249
 20
212.079446
 30
0.0
 11
243.656288
 21
212.342413
 31
0.0
  0
LINE
  5
F6
330
1F
100
AcDbEntity
  8
1
100
AcDbLine
 10
243.656288
 20
212.342413
 30
0.0
 11
243.56075
 21
212.263044
 31
0.0
  0
LINE
  5
F7
330
1F
100
AcDbEntity
  8
1
100
AcDbLine
 10
250.478882
 20
212.510757
 30
0.0
 11
250.449557
 21
212.531515
 31
0.0
  0
LINE
  5
F8
330
1F
100
AcDbEntity
  8
1
100
AcDbLine
 10
250.449557
 20
212.531515
 30
0.0
 11
250.417107
 21
212.267061
 31
0.0
  0
LINE
  5
F9
330
1F
100
AcDbEntity
  8
1
100
AcDbLine
 10
243.512618
 20
209.275186
 30
0.0
 11
243.465542
 21
205.807741
 31
0.0
  0
LINE
  5
FA
330
1F
100
AcDbEntity
  8
1
100
AcDbLine
 10
250.417107
 20
212.267061
 30
0.0
 11
250.50569
 21
209.46985
 31
0.0
  0
LINE
  5
FB
330
1F
100
AcDbEntity
  8
1
100
AcDbLine
 10
243.677249
 20
212.079446
 30
0.0
 11
250.417107
 21
212.267061
 31
0.0
  0
LINE
  5
FC
330
1F
100
AcDbEntity
  8
1
100
AcDbLine
 10
243.512618
 20
209.275186
 30
0.0
 11
243.677249
 21
212.079446
 31
0.0
  0
LINE
  5
FD
330
1F
100
AcDbEntity
  8
1
100
AcDbLine
 10
243.656455
 20
200.514646
 30
0.0
 11
243.891746
 21
196.384762
 31
0.0
  0
LINE
  5
FE
330
1F
100
AcDbEntity
  8
1
100
AcDbLine
 10
243.891746
 20
196.384762
 30
0.0
 11
250.884818
 21
196.579426
 31
0.0
  0
LINE
  5
FF
330
1F
100
AcDbEntity
  8
1
100
AcDbLine
 10
243.656455
 20
200.514646
 30
0.0
 11
243.593012
 21
203.853973
 31
0.0
  0
LINE
  5
100
330
1F
100
AcDbEntity
  8
1
100
AcDbLine
 10
243.447652
 20
204.291135
 30
0.0
 11
243.656455
 21
200.514646
 31
0.0
  0
LINE
  5
101
330
1F
100
AcDbEntity
  8
1
100
AcDbLine
 10
243.448064
 20
204.345523
 30
0.0
 11
250.441136
 21
204.540187
 31
0.0
  0
LINE
  5
102
330
1F
100
AcDbEntity
  8
1
100
AcDbLine
 10
243.465542
 20
205.807741
 30
0.0
 11
250.458613
 21
206.002405
 31
0.0
  0
LINE
  5
103
330
1F
100
AcDbEntity
  8
1
100
AcDbLine
 10
250.522795
 20
210.531707
 30
0.0
 11
250.50569
 21
209.46985
 31
0.0
  0
LINE
  5
104
330
1F
100
AcDbEntity
  8
1
100
AcDbLine
 10
250.50569
 20
209.46985
 30
0.0
 11
250.458613
 21
206.002405
 31
0.0
  0
LINE
  5
105
330
1F
100
AcDbEntity
  8
1
100
AcDbLine
 10
250.441136
 20
204.540187
 30
0.0
 11
250.441596
 21
204.550049
 31
0.0
  0
LINE
  5
106
330
1F
100
AcDbEntity
  8
1
100
AcDbLine
 10
250.649527
 20
200.70931
 30
0.0
 11
250.884818
 21
196.579426
 31
0.0
  0
LINE
  5
107
330
1F
100
AcDbEntity
  8
1
100
AcDbLine
 10
250.98214
 20
194.906201
 30
0.0
 11
250.98121
 21
194.927332
 31
0.0
  0
LINE
  5
108
330
1F
100
AcDbEntity
  8
1
100
AcDbLine
 10
250.98121
 20
194.927332
 30
0.0
 11
250.985569
 21
194.850808
 31
0.0
  0
LINE
  5
109
330
1F
100
AcDbEntity
  8
1
100
AcDbLine
 10
250.985569
 20
194.850808
 30
0.0
 11
250.990075
 21
195.1305
 31
0.0
  0
LINE
  5
10A
330
1F
100
AcDbEntity
  8
1
100
AcDbLine
 10
250.441596
 20
204.550049
 30
0.0
 11
250.440724
 21
204.485799
 31
0.0
  0
LINE
  5
10B
330
1F
100
AcDbEntity
  8
1
100
AcDbLine
 10
256.439973
 20
297.945951
 30
0.0
 11
256.440845
 21
298.024716
 31
0.0
  0
LINE
  5
10C
330
1F
100
AcDbEntity
  8
1
100
AcDbLine
 10
256.440845
 20
298.024716
 30
0.0
 11
256.232041
 21
301.098363
 31
0.0
  0
LINE
  5
10D
330
1F
100
AcDbEntity
  8
1
100
AcDbLine
 10
256.232041
 20
301.098363
 30
0.0
 11
256.069584
 21
303.39046
 31
0.0
  0
LINE
  5
10E
330
1F
100
AcDbEntity
  8
1
100
AcDbLine
 10
255.991704
 20
292.918256
 30
0.0
 11
256.2269950000001
 21
289.598557
 31
0.0
  0
LINE
  5
10F
330
1F
100
AcDbEntity
  8
1
100
AcDbLine
 10
256.324317
 20
288.265506
 30
0.0
 11
256.323387
 21
288.28413
 31
0.0
  0
LINE
  5
110
330
1F
100
AcDbEntity
  8
1
100
AcDbLine
 10
256.323387
 20
288.28413
 30
0.0
 11
256.327746
 21
288.222618
 31
0.0
  0
LINE
  5
111
330
1F
100
AcDbEntity
  8
1
100
AcDbLine
 10
255.944245
 20
293.319751
 30
0.0
 11
255.991704
 21
292.918256
 31
0.0
  0
LINE
  5
112
330
1F
100
AcDbEntity
  8
1
100
AcDbLine
 10
255.944247
 20
293.616838
 30
0.0
 11
255.991704
 21
292.918256
 31
0.0
  0
LINE
  5
113
330
1F
100
AcDbEntity
  8
1
100
AcDbLine
 10
249.455226
 20
268.815648
 30
0.0
 11
249.458613
 21
268.815799
 31
0.0
  0
LINE
  5
114
330
1F
100
AcDbEntity
  8
1
100
AcDbLine
 10
249.440917
 20
269.081603
 30
0.0
 11
249.441136
 21
269.081613
 31
0.0
  0
LINE
  5
115
330
1F
100
AcDbEntity
  8
1
100
AcDbLine
 10
242.54668
 20
268.793932
 30
0.0
 11
249.33995
 21
269.095897
 31
0.0
  0
LINE
  5
116
330
1F
100
AcDbEntity
  8
1
100
AcDbLine
 10
242.447652
 20
268.775569
 30
0.0
 11
242.656455
 21
264.031386
 31
0.0
  0
LINE
  5
117
330
1F
100
AcDbEntity
  8
1
100
AcDbLine
 10
242.593012
 20
268.347607
 30
0.0
 11
242.54668
 21
268.793932
 31
0.0
  0
LINE
  5
118
330
1F
100
AcDbEntity
  8
1
100
AcDbLine
 10
242.54668
 20
268.793932
 30
0.0
 11
242.447652
 21
268.775569
 31
0.0
  0
LINE
  5
119
330
1F
100
AcDbEntity
  8
1
100
AcDbLine
 10
249.440724
 20
269.086415
 30
0.0
 11
249.33995
 21
269.095897
 31
0.0
  0
LINE
  5
11A
330
1F
100
AcDbEntity
  8
1
100
AcDbLine
 10
249.33995
 20
269.095897
 30
0.0
 11
249.33287
 21
268.647198
 31
0.0
  0
LINE
  5
11B
330
1F
100
AcDbEntity
  8
1
100
AcDbLine
 10
242.656455
 20
264.031386
 30
0.0
 11
242.891746
 21
258.694664
 31
0.0
  0
LINE
  5
11C
330
1F
100
AcDbEntity
  8
1
100
AcDbLine
 10
249.33287
 20
268.647198
 30
0.0
 11
249.649527
 21
264.3422319999999
 31
0.0
  0
LINE
  5
11D
330
1F
100
AcDbEntity
  8
1
100
AcDbLine
 10
242.593012
 20
268.347607
 30
0.0
 11
249.33287
 21
268.647198
 31
0.0
  0
LINE
  5
11E
330
1F
100
AcDbEntity
  8
1
100
AcDbLine
 10
242.656455
 20
264.031386
 30
0.0
 11
242.593012
 21
268.347607
 31
0.0
  0
LINE
  5
11F
330
1F
100
AcDbEntity
  8
1
100
AcDbLine
 10
242.989068
 20
256.489854
 30
0.0
 11
249.98214
 21
256.800701
 31
0.0
  0
LINE
  5
120
330
1F
100
AcDbEntity
  8
1
100
AcDbLine
 10
242.891746
 20
258.694664
 30
0.0
 11
249.884818
 21
259.00551
 31
0.0
  0
LINE
  5
121
330
1F
100
AcDbEntity
  8
1
100
AcDbLine
 10
243.04413
 20
255.627855
 30
0.0
 11
243.129212
 21
256.215699
 31
0.0
  0
LINE
  5
122
330
1F
100
AcDbEntity
  8
1
100
AcDbLine
 10
242.992498
 20
256.41242
 30
0.0
 11
243.039203
 21
255.627643
 31
0.0
  0
LINE
  5
123
330
1F
100
AcDbEntity
  8
1
100
AcDbLine
 10
249.487963
 20
268.347739
 30
0.0
 11
249.458613
 21
268.815799
 31
0.0
  0
LINE
  5
124
330
1F
100
AcDbEntity
  8
1
100
AcDbLine
 10
249.441136
 20
269.081613
 30
0.0
 11
249.441596
 21
269.072504
 31
0.0
  0
LINE
  5
125
330
1F
100
AcDbEntity
  8
1
100
AcDbLine
 10
249.441596
 20
269.072504
 30
0.0
 11
249.440724
 21
269.086415
 31
0.0
  0
LINE
  5
126
330
1F
100
AcDbEntity
  8
1
100
AcDbLine
 10
242.944248
 20
320.156271
 30
0.0
 11
255.944248
 21
320.156271
 31
0.0
  0
LINE
  5
127
330
1F
100
AcDbEntity
  8
1
100
AcDbLine
 10
242.944248
 20
174.188359
 30
0.0
 11
242.944248
 21
174.787073
 31
0.0
  0
LINE
  5
128
330
1F
100
AcDbEntity
  8
1
100
AcDbLine
 10
255.383477
 20
309.52586
 30
0.0
 11
255.386981
 21
309.857696
 31
0.0
  0
LINE
  5
129
330
1F
100
AcDbEntity
  8
1
100
AcDbLine
 10
255.944248
 20
186.138943
 30
0.0
 11
255.944248
 21
180.9140689999999
 31
0.0
  0
LINE
  5
12A
330
1F
100
AcDbEntity
  8
1
100
AcDbLine
 10
249.477134
 20
180.9140689999999
 30
0.0
 11
249.52776
 21
186.138943
 31
0.0
  0
LINE
  5
12B
330
1F
100
AcDbEntity
  8
1
100
AcDbLine
 10
242.944248
 20
174.188359
 30
0.0
 11
242.944248
 21
171.461441
 31
0.0
  0
LINE
  5
12C
330
1F
100
AcDbEntity
  8
1
100
AcDbLine
 10
242.944248
 20
171.461441
 30
0.0
 11
255.944248
 21
171.461441
 31
0.0
  0
LINE
  5
12D
330
1F
100
AcDbEntity
  8
1
100
AcDbLine
 10
255.944248
 20
180.9140689999999
 30
0.0
 11
249.477134
 21
180.9140689999999
 31
0.0
  0
LINE
  5
12E
330
1F
100
AcDbEntity
  8
1
100
AcDbLine
 10
242.944248
 20
294.55349
 30
0.0
 11
242.944248
 21
292.319286
 31
0.0
  0
LINE
  5
12F
330
1F
100
AcDbEntity
  8
1
100
AcDbLine
 10
242.944248
 20
292.001129
 30
0.0
 11
242.944248
 21
292.319286
 31
0.0
  0
LINE
  5
130
330
1F
100
AcDbEntity
  8
1
100
AcDbLine
 10
242.944248
 20
292.319286
 30
0.0
 11
243.533839
 21
292.343843
 31
0.0
  0
LINE
  5
131
330
1F
100
AcDbEntity
  8
1
100
AcDbLine
 10
249.323551
 20
315.843451
 30
0.0
 11
242.944248
 21
315.843451
 31
0.0
  0
LINE
  5
132
330
1F
100
AcDbEntity
  8
1
100
AcDbLine
 10
255.944248
 20
305.505256
 30
0.0
 11
255.944248
 21
298.729391
 31
0.0
  0
LINE
  5
133
330
1F
100
AcDbEntity
  8
1
100
AcDbLine
 10
242.944248
 20
298.729391
 30
0.0
 11
242.944248
 21
305.505256
 31
0.0
  0
LINE
  5
134
330
1F
100
AcDbEntity
  8
1
100
AcDbLine
 10
242.944248
 20
305.505256
 30
0.0
 11
255.944248
 21
305.505256
 31
0.0
  0
LINE
  5
135
330
1F
100
AcDbEntity
  8
1
100
AcDbLine
 10
242.944248
 20
286.139939
 30
0.0
 11
242.944248
 21
292.001129
 31
0.0
  0
LINE
  5
136
330
1F
100
AcDbEntity
  8
1
100
AcDbLine
 10
242.944248
 20
292.001129
 30
0.0
 11
243.539568
 21
292.025924
 31
0.0
  0
LINE
  5
137
330
1F
100
AcDbEntity
  8
1
100
AcDbLine
 10
249.98214
 20
174.281156
 30
0.0
 11
249.98121
 21
174.296459
 31
0.0
  0
LINE
  5
138
330
1F
100
AcDbEntity
  8
1
100
AcDbLine
 10
249.98121
 20
174.296459
 30
0.0
 11
249.985569
 21
174.252648
 31
0.0
  0
LINE
  5
139
330
1F
100
AcDbEntity
  8
1
100
AcDbLine
 10
249.985569
 20
174.252648
 30
0.0
 11
249.990075
 21
174.652025
 31
0.0
  0
LINE
  5
13A
330
1F
100
AcDbEntity
  8
1
100
AcDbLine
 10
249.33287
 20
179.488573
 30
0.0
 11
249.649527
 21
177.5802
 31
0.0
  0
LINE
  5
13B
330
1F
100
AcDbEntity
  8
1
100
AcDbLine
 10
249.440724
 20
179.816671
 30
0.0
 11
249.649527
 21
177.5802
 31
0.0
  0
LINE
  5
13C
330
1F
100
AcDbEntity
  8
1
100
AcDbLine
 10
249.33995
 20
179.725629
 30
0.0
 11
249.33287
 21
179.488573
 31
0.0
  0
LINE
  5
13D
330
1F
100
AcDbEntity
  8
1
100
AcDbLine
 10
242.593012
 20
179.41244
 30
0.0
 11
242.54668
 21
179.648892
 31
0.0
  0
LINE
  5
13E
330
1F
100
AcDbEntity
  8
1
100
AcDbLine
 10
242.593012
 20
179.41244
 30
0.0
 11
249.33287
 21
179.488573
 31
0.0
  0
LINE
  5
13F
330
1F
100
AcDbEntity
  8
1
100
AcDbLine
 10
249.440724
 20
179.816671
 30
0.0
 11
249.33995
 21
179.725629
 31
0.0
  0
LINE
  5
140
330
1F
100
AcDbEntity
  8
1
100
AcDbLine
 10
249.441596
 20
179.906509
 30
0.0
 11
249.440724
 21
179.816671
 31
0.0
  0
LINE
  5
141
330
1F
100
AcDbEntity
  8
1
100
AcDbLine
 10
242.448353
 20
179.809913
 30
0.0
 11
242.447652
 21
179.737677
 31
0.0
  0
LINE
  5
142
330
1F
100
AcDbEntity
  8
1
100
AcDbLine
 10
242.54668
 20
179.648892
 30
0.0
 11
242.447652
 21
179.737677
 31
0.0
  0
LINE
  5
143
330
1F
100
AcDbEntity
  8
1
100
AcDbLine
 10
242.54668
 20
179.648892
 30
0.0
 11
249.33995
 21
179.725629
 31
0.0
  0
LINE
  5
144
330
1F
100
AcDbEntity
  8
1
100
AcDbLine
 10
256.32388
 20
306.682948
 30
0.0
 11
256.324317
 21
306.682934
 31
0.0
  0
LINE
  5
145
330
1F
100
AcDbEntity
  8
1
100
AcDbLine
 10
249.548547
 20
317.453358
 30
0.0
 11
256.341817
 21
317.238352
 31
0.0
  0
LINE
  5
146
330
1F
100
AcDbEntity
  8
1
100
AcDbLine
 10
249.447773
 20
317.373584
 30
0.0
 11
249.23897
 21
314.801117
 31
0.0
  0
LINE
  5
147
330
1F
100
AcDbEntity
  8
1
100
AcDbLine
 10
249.555626
 20
317.230007
 30
0.0
 11
249.548547
 21
317.453358
 31
0.0
  0
LINE
  5
148
330
1F
100
AcDbEntity
  8
1
100
AcDbLine
 10
249.548547
 20
317.453358
 30
0.0
 11
249.447773
 21
317.373584
 31
0.0
  0
LINE
  5
149
330
1F
100
AcDbEntity
  8
1
100
AcDbLine
 10
256.440845
 20
317.152255
 30
0.0
 11
256.341817
 21
317.238352
 31
0.0
  0
LINE
  5
14A
330
1F
100
AcDbEntity
  8
1
100
AcDbLine
 10
256.341817
 20
317.238352
 30
0.0
 11
256.295485
 21
317.016692
 31
0.0
  0
LINE
  5
14B
330
1F
100
AcDbEntity
  8
1
100
AcDbLine
 10
249.23897
 20
314.801117
 30
0.0
 11
249.003679
 21
311.789073
 31
0.0
  0
LINE
  5
14C
330
1F
100
AcDbEntity
  8
1
100
AcDbLine
 10
256.295485
 20
317.016692
 30
0.0
 11
256.232041
 21
314.579788
 31
0.0
  0
LINE
  5
14D
330
1F
100
AcDbEntity
  8
1
100
AcDbLine
 10
249.555626
 20
317.230007
 30
0.0
 11
256.295485
 21
317.016692
 31
0.0
  0
LINE
  5
14E
330
1F
100
AcDbEntity
  8
1
100
AcDbLine
 10
249.23897
 20
314.801117
 30
0.0
 11
249.555626
 21
317.230007
 31
0.0
  0
LINE
  5
14F
330
1F
100
AcDbEntity
  8
1
100
AcDbLine
 10
249.009967
 20
309.7942220000001
 30
0.0
 11
249.019426
 21
310.001528
 31
0.0
  0
LINE
  5
150
330
1F
100
AcDbEntity
  8
1
100
AcDbLine
 10
248.902927
 20
310.463452
 30
0.0
 11
248.894954
 21
309.789202
 31
0.0
  0
LINE
  5
151
330
1F
100
AcDbEntity
  8
1
100
AcDbLine
 10
248.906357
 20
310.511687
 30
0.0
 11
255.899429
 21
310.290358
 31
0.0
  0
LINE
  5
152
330
1F
100
AcDbEntity
  8
1
100
AcDbLine
 10
249.003679
 20
311.789073
 30
0.0
 11
255.99675
 21
311.567744
 31
0.0
  0
LINE
  5
153
330
1F
100
AcDbEntity
  8
1
100
AcDbLine
 10
256.327746
 20
306.731169
 30
0.0
 11
256.375879
 21
310.801344
 31
0.0
  0
LINE
  5
154
330
1F
100
AcDbEntity
  8
1
100
AcDbLine
 10
256.375879
 20
310.801344
 30
0.0
 11
256.422955
 21
315.273493
 31
0.0
  0
LINE
  5
155
330
1F
100
AcDbEntity
  8
1
100
AcDbLine
 10
242.944248
 20
200.534145
 30
0.0
 11
242.944248
 21
205.003841
 31
0.0
  0
LINE
  5
156
330
1F
100
AcDbEntity
  8
1
100
AcDbLine
 10
242.944248
 20
205.003841
 30
0.0
 11
242.944248
 21
213.649828
 31
0.0
  0
LINE
  5
157
330
1F
100
AcDbEntity
  8
1
100
AcDbLine
 10
243.464379
 20
205.01832
 30
0.0
 11
242.944248
 21
205.003841
 31
0.0
  0
LINE
  5
158
330
1F
100
AcDbEntity
  8
1
100
AcDbLine
 10
242.944248
 20
194.296718
 30
0.0
 11
242.944248
 21
200.534127
 31
0.0
  0
LINE
  5
159
330
1F
100
AcDbEntity
  8
1
100
AcDbLine
 10
242.944248
 20
200.534127
 30
0.0
 11
243.654296
 21
200.553893
 31
0.0
  0
LINE
  5
15A
330
1F
100
AcDbEntity
  8
1
100
AcDbLine
 10
247.179456
 20
213.76924
 30
0.0
 11
247.255104
 21
212.442456
 31
0.0
  0
LINE
  5
15B
330
1F
100
AcDbEntity
  8
1
100
AcDbLine
 10
243.982603
 20
213.678754
 30
0.0
 11
244.058159
 21
212.353583
 31
0.0
  0
LINE
  5
15C
330
1F
100
AcDbEntity
  8
1
100
AcDbLine
 10
242.944248
 20
214.707267
 30
0.0
 11
242.944248
 21
213.649849
 31
0.0
  0
LINE
  5
15D
330
1F
100
AcDbEntity
  8
1
100
AcDbLine
 10
242.944248
 20
213.649849
 30
0.0
 11
243.982603
 21
213.678754
 31
0.0
  0
LINE
  5
15E
330
1F
100
AcDbEntity
  8
1
100
AcDbLine
 10
242.944248
 20
269.59438
 30
0.0
 11
242.944248
 21
268.811611
 31
0.0
  0
LINE
  5
15F
330
1F
100
AcDbEntity
  8
1
100
AcDbLine
 10
242.944248
 20
269.59438
 30
0.0
 11
242.944248
 21
270.914156
 31
0.0
  0
LINE
  5
160
330
1F
100
AcDbEntity
  8
1
100
AcDbLine
 10
242.944248
 20
256.962942
 30
0.0
 11
242.944248
 21
257.514435
 31
0.0
  0
LINE
  5
161
330
1F
100
AcDbEntity
  8
1
100
AcDbLine
 10
244.509877
 20
286.197632
 30
0.0
 11
244.501515
 21
286.7041270000001
 31
0.0
  0
LINE
  5
162
330
1F
100
AcDbEntity
  8
1
100
AcDbLine
 10
255.944248
 20
280.2944700000001
 30
0.0
 11
255.944248
 21
275.001938
 31
0.0
  0
LINE
  5
163
330
1F
100
AcDbEntity
  8
1
100
AcDbLine
 10
242.944248
 20
275.001938
 30
0.0
 11
242.944248
 21
280.2944700000001
 31
0.0
  0
LINE
  5
164
330
1F
100
AcDbEntity
  8
1
100
AcDbLine
 10
242.944248
 20
280.2944700000001
 30
0.0
 11
255.944248
 21
280.2944700000001
 31
0.0
  0
LINE
  5
165
330
1F
100
AcDbEntity
  8
1
100
AcDbLine
 10
255.944248
 20
296.606106
 30
0.0
 11
250.505495
 21
296.606106
 31
0.0
  0
LINE
  5
166
330
1F
100
AcDbEntity
  8
1
100
AcDbLine
 10
255.944248
 20
224.869042
 30
0.0
 11
255.944248
 21
223.135546
 31
0.0
  0
LINE
  5
167
330
1F
100
AcDbEntity
  8
1
100
AcDbLine
 10
242.944248
 20
235.954462
 30
0.0
 11
242.944248
 21
237.558626
 31
0.0
  0
LINE
  5
168
330
1F
100
AcDbEntity
  8
1
100
AcDbLine
 10
249.360737
 20
237.558626
 30
0.0
 11
249.411362
 21
235.954462
 31
0.0
  0
LINE
  5
169
330
1F
100
AcDbEntity
  8
1
100
AcDbLine
 10
249.411362
 20
235.954462
 30
0.0
 11
242.944248
 21
235.954462
 31
0.0
  0
LINE
  5
16A
330
1F
100
AcDbEntity
  8
1
100
AcDbLine
 10
242.944248
 20
216.702417
 30
0.0
 11
255.944248
 21
216.702417
 31
0.0
  0
LINE
  5
16B
330
1F
100
AcDbEntity
  8
1
100
AcDbLine
 10
255.944248
 20
268.347733
 30
0.0
 11
249.477134
 21
268.347733
 31
0.0
  0
LINE
  5
16C
330
1F
100
AcDbEntity
  8
1
100
AcDbLine
 10
255.944248
 20
248.883086
 30
0.0
 11
255.944248
 21
245.989014
 31
0.0
  0
LINE
  5
16D
330
1F
100
AcDbEntity
  8
1
100
AcDbLine
 10
242.944248
 20
248.883086
 30
0.0
 11
255.944248
 21
248.883086
 31
0.0
  0
LINE
  5
16E
330
1F
100
AcDbEntity
  8
1
100
AcDbLine
 10
242.944248
 20
245.989014
 30
0.0
 11
242.944248
 21
248.883086
 31
0.0
  0
LINE
  5
16F
330
1F
100
AcDbEntity
  8
1
100
AcDbLine
 10
242.860085
 20
277.808045
 30
0.0
 11
242.891746
 21
278.448505
 31
0.0
  0
LINE
  5
170
330
1F
100
AcDbEntity
  8
1
100
AcDbLine
 10
255.796666
 20
165.835774
 30
0.0
 11
255.791735
 21
165.835573
 31
0.0
  0
LINE
  5
171
330
1F
100
AcDbEntity
  8
1
100
AcDbLine
 10
248.998465
 20
165.786677
 30
0.0
 11
248.993946
 21
165.786809
 31
0.0
  0
LINE
  5
172
330
1F
100
AcDbEntity
  8
1
100
AcDbLine
 10
248.906792
 20
165.78937
 30
0.0
 11
248.902927
 21
165.789484
 31
0.0
  0
LINE
  5
173
330
1F
100
AcDbEntity
  8
1
100
AcDbLine
 10
248.998465
 20
165.786677
 30
0.0
 11
255.791735
 21
165.835573
 31
0.0
  0
LINE
  5
174
330
1F
100
AcDbEntity
  8
1
100
AcDbLine
 10
248.906357
 20
165.786179
 30
0.0
 11
255.899429
 21
165.836514
 31
0.0
  0
LINE
  5
175
330
1F
100
AcDbEntity
  8
1
100
AcDbLine
 10
256.324317
 20
178.872724
 30
0.0
 11
256.323882
 21
178.869533
 31
0.0
  0
LINE
  5
176
330
1F
100
AcDbEntity
  8
1
100
AcDbLine
 10
256.236685
 20
178.872093
 30
0.0
 11
256.324317
 21
178.872724
 31
0.0
  0
LINE
  5
177
330
1F
100
AcDbEntity
  8
1
100
AcDbLine
 10
256.327746
 20
178.869419
 30
0.0
 11
256.375879
 21
174.062136
 31
0.0
  0
LINE
  5
178
330
1F
100
AcDbEntity
  8
1
100
AcDbLine
 10
256.327746
 20
178.869419
 30
0.0
 11
256.232209
 21
178.872226
 31
0.0
  0
LINE
  5
179
330
1F
100
AcDbEntity
  8
1
100
AcDbLine
 10
256.232041
 20
166.061058
 30
0.0
 11
255.99675
 21
165.870917
 31
0.0
  0
LINE
  5
17A
330
1F
100
AcDbEntity
  8
1
100
AcDbLine
 10
249.003679
 20
165.820582
 30
0.0
 11
255.99675
 21
165.870917
 31
0.0
  0
LINE
  5
17B
330
1F
100
AcDbEntity
  8
1
100
AcDbLine
 10
256.232209
 20
178.872226
 30
0.0
 11
256.211248
 21
178.415741
 31
0.0
  0
LINE
  5
17C
330
1F
100
AcDbEntity
  8
1
100
AcDbLine
 10
255.944238
 20
178.870154
 30
0.0
 11
256.232209
 21
178.872226
 31
0.0
  0
LINE
  5
17D
330
1F
100
AcDbEntity
  8
1
100
AcDbLine
 10
256.295485
 20
166.213728
 30
0.0
 11
256.232041
 21
166.061058
 31
0.0
  0
LINE
  5
17E
330
1F
100
AcDbEntity
  8
1
100
AcDbLine
 10
256.440845
 20
166.370804
 30
0.0
 11
256.232041
 21
166.061058
 31
0.0
  0
LINE
  5
17F
330
1F
100
AcDbEntity
  8
1
100
AcDbLine
 10
243.54668
 20
297.613774
 30
0.0
 11
243.447652
 21
297.5566
 31
0.0
  0
LINE
  5
180
330
1F
100
AcDbEntity
  8
1
100
AcDbLine
 10
250.649527
 20
293.8433339999999
 30
0.0
 11
250.884818
 21
289.2739029999999
 31
0.0
  0
LINE
  5
181
330
1F
100
AcDbEntity
  8
1
100
AcDbLine
 10
250.33287
 20
297.528896
 30
0.0
 11
250.649527
 21
293.8433339999999
 31
0.0
  0
LINE
  5
182
330
1F
100
AcDbEntity
  8
1
100
AcDbLine
 10
243.593012
 20
297.248173
 30
0.0
 11
250.33287
 21
297.528896
 31
0.0
  0
LINE
  5
183
330
1F
100
AcDbEntity
  8
1
100
AcDbLine
 10
243.656455
 20
293.552065
 30
0.0
 11
243.593012
 21
297.248173
 31
0.0
  0
LINE
  5
184
330
1F
100
AcDbEntity
  8
1
100
AcDbLine
 10
250.869071
 20
286.932605
 30
0.0
 11
250.89241
 21
286.606023
 31
0.0
  0
LINE
  5
185
330
1F
100
AcDbEntity
  8
1
100
AcDbLine
 10
250.985569
 20
287.299254
 30
0.0
 11
250.998193
 21
286.598919
 31
0.0
  0
LINE
  5
186
330
1F
100
AcDbEntity
  8
1
100
AcDbLine
 10
243.989068
 20
287.076765
 30
0.0
 11
250.98214
 21
287.368035
 31
0.0
  0
LINE
  5
187
330
1F
100
AcDbEntity
  8
1
100
AcDbLine
 10
243.891746
 20
288.9826339999999
 30
0.0
 11
250.884818
 21
289.2739029999999
 31
0.0
  0
LINE
  5
188
330
1F
100
AcDbEntity
  8
1
100
AcDbLine
 10
243.512618
 20
293.521618
 30
0.0
 11
243.465542
 21
296.380207
 31
0.0
  0
LINE
  5
189
330
1F
100
AcDbEntity
  8
1
100
AcDbLine
 10
243.56075
 20
290.851294
 30
0.0
 11
243.512618
 21
293.521618
 31
0.0
  0
LINE
  5
18A
330
1F
100
AcDbEntity
  8
1
100
AcDbLine
 10
243.56511
 20
290.766626
 30
0.0
 11
243.56075
 21
290.851294
 31
0.0
  0
LINE
  5
18B
330
1F
100
AcDbEntity
  8
1
100
AcDbLine
 10
243.56418
 20
290.782513
 30
0.0
 11
243.56511
 21
290.766626
 31
0.0
  0
LINE
  5
18C
330
1F
100
AcDbEntity
  8
1
100
AcDbLine
 10
243.800797
 20
286.171469
 30
0.0
 11
243.661502
 21
288.876644
 31
0.0
  0
LINE
  5
18D
330
1F
100
AcDbEntity
  8
1
100
AcDbLine
 10
243.989068
 20
287.076765
 30
0.0
 11
243.988138
 21
287.092652
 31
0.0
  0
LINE
  5
18E
330
1F
100
AcDbEntity
  8
1
100
AcDbLine
 10
243.656455
 20
293.552065
 30
0.0
 11
243.891746
 21
288.9826339999999
 31
0.0
  0
LINE
  5
18F
330
1F
100
AcDbEntity
  8
1
100
AcDbLine
 10
243.447652
 20
297.5566
 30
0.0
 11
243.656455
 21
293.552065
 31
0.0
  0
LINE
  5
190
330
1F
100
AcDbEntity
  8
1
100
AcDbLine
 10
243.448524
 20
297.503633
 30
0.0
 11
243.447652
 21
297.5566
 31
0.0
  0
LINE
  5
191
330
1F
100
AcDbEntity
  8
1
100
AcDbLine
 10
243.448064
 20
297.520687
 30
0.0
 11
243.448524
 21
297.503633
 31
0.0
  0
LINE
  5
192
330
1F
100
AcDbEntity
  8
1
100
AcDbLine
 10
250.985569
 20
287.299254
 30
0.0
 11
250.890032
 21
287.210353
 31
0.0
  0
LINE
  5
193
330
1F
100
AcDbEntity
  8
1
100
AcDbLine
 10
250.982028
 20
287.368029
 30
0.0
 11
250.985569
 21
287.299254
 31
0.0
  0
LINE
  5
194
330
1F
100
AcDbEntity
  8
1
100
AcDbLine
 10
243.988138
 20
287.092652
 30
0.0
 11
243.992498
 21
287.007984
 31
0.0
  0
LINE
  5
195
330
1F
100
AcDbEntity
  8
1
100
AcDbLine
 10
250.890032
 20
287.210353
 30
0.0
 11
250.869071
 21
286.932605
 31
0.0
  0
LINE
  5
196
330
1F
100
AcDbEntity
  8
1
100
AcDbLine
 10
244.096762
 20
286.927406
 30
0.0
 11
250.890032
 21
287.210353
 31
0.0
  0
LINE
  5
197
330
1F
100
AcDbEntity
  8
1
100
AcDbLine
 10
244.129212
 20
286.651882
 30
0.0
 11
244.502221
 21
286.667418
 31
0.0
  0
LINE
  5
198
330
1F
100
AcDbEntity
  8
1
100
AcDbLine
 10
247.874151
 20
286.807863
 30
0.0
 11
250.869071
 21
286.932605
 31
0.0
  0
LINE
  5
199
330
1F
100
AcDbEntity
  8
1
100
AcDbLine
 10
244.11126
 20
286.182891
 30
0.0
 11
244.129212
 21
286.651882
 31
0.0
  0
LINE
  5
19A
330
1F
100
AcDbEntity
  8
1
100
AcDbLine
 10
242.512618
 20
316.605557
 30
0.0
 11
242.465542
 21
321.917991
 31
0.0
  0
LINE
  5
19B
330
1F
100
AcDbEntity
  8
1
100
AcDbLine
 10
242.56075
 20
311.839301
 30
0.0
 11
242.512618
 21
316.605557
 31
0.0
  0
LINE
  5
19C
330
1F
100
AcDbEntity
  8
1
100
AcDbLine
 10
242.56511
 20
311.821997
 30
0.0
 11
242.56075
 21
311.839301
 31
0.0
  0
LINE
  5
19D
330
1F
100
AcDbEntity
  8
1
100
AcDbLine
 10
242.56418
 20
311.819952
 30
0.0
 11
242.56511
 21
311.821997
 31
0.0
  0
LINE
  5
19E
330
1F
100
AcDbEntity
  8
1
100
AcDbLine
 10
242.896792
 20
310.458074
 30
0.0
 11
242.661502
 21
311.391921
 31
0.0
  0
LINE
  5
19F
330
1F
100
AcDbEntity
  8
1
100
AcDbLine
 10
242.94425
 20
310.299978
 30
0.0
 11
242.896792
 21
310.458074
 31
0.0
  0
LINE
  5
1A0
330
1F
100
AcDbEntity
  8
1
100
AcDbLine
 10
242.989068
 20
322.1167910000001
 30
0.0
 11
242.988138
 21
322.114746
 31
0.0
  0
LINE
  5
1A1
330
1F
100
AcDbEntity
  8
1
100
AcDbLine
 10
242.656455
 20
323.47867
 30
0.0
 11
242.891746
 21
322.544822
 31
0.0
  0
LINE
  5
1A2
330
1F
100
AcDbEntity
  8
1
100
AcDbLine
 10
242.447652
 20
324.174265
 30
0.0
 11
242.656455
 21
323.47867
 31
0.0
  0
LINE
  5
1A3
330
1F
100
AcDbEntity
  8
1
100
AcDbLine
 10
242.448526
 20
324.075565
 30
0.0
 11
242.447652
 21
324.174265
 31
0.0
  0
LINE
  5
1A4
330
1F
100
AcDbEntity
  8
1
100
AcDbLine
 10
249.869071
 20
321.733233
 30
0.0
 11
249.871105
 21
321.680224
 31
0.0
  0
LINE
  5
1A5
330
1F
100
AcDbEntity
  8
1
100
AcDbLine
 10
249.890032
 20
322.191628
 30
0.0
 11
249.869071
 21
321.733233
 31
0.0
  0
LINE
  5
1A6
330
1F
100
AcDbEntity
  8
1
100
AcDbLine
 10
243.129212
 20
321.624209
 30
0.0
 11
243.502221
 21
321.630243
 31
0.0
  0
LINE
  5
1A7
330
1F
100
AcDbEntity
  8
1
100
AcDbLine
 10
248.04815
 20
321.703778
 30
0.0
 11
249.869071
 21
321.733233
 31
0.0
  0
LINE
  5
1A8
330
1F
100
AcDbEntity
  8
1
100
AcDbLine
 10
249.985569
 20
322.2105620000001
 30
0.0
 11
249.890032
 21
322.191628
 31
0.0
  0
LINE
  5
1A9
330
1F
100
AcDbEntity
  8
1
100
AcDbLine
 10
249.98121
 20
322.227866
 30
0.0
 11
249.985569
 21
322.2105620000001
 31
0.0
  0
LINE
  5
1AA
330
1F
100
AcDbEntity
  8
1
100
AcDbLine
 10
242.988138
 20
322.114746
 30
0.0
 11
249.98121
 21
322.227866
 31
0.0
  0
LINE
  5
1AB
330
1F
100
AcDbEntity
  8
1
100
AcDbLine
 10
242.988138
 20
322.114746
 30
0.0
 11
242.992498
 21
322.097443
 31
0.0
  0
LINE
  5
1AC
330
1F
100
AcDbEntity
  8
1
100
AcDbLine
 10
243.096762
 20
322.08174
 30
0.0
 11
249.890032
 21
322.191628
 31
0.0
  0
LINE
  5
1AD
330
1F
100
AcDbEntity
  8
1
100
AcDbLine
 10
243.128641
 20
321.596506
 30
0.0
 11
243.129212
 21
321.624209
 31
0.0
  0
LINE
  5
1AE
330
1F
100
AcDbEntity
  8
1
100
AcDbLine
 10
243.129212
 20
321.624209
 30
0.0
 11
243.096762
 21
322.08174
 31
0.0
  0
LINE
  5
1AF
330
1F
100
AcDbEntity
  8
1
100
AcDbLine
 10
243.096762
 20
322.08174
 30
0.0
 11
242.992498
 21
322.097443
 31
0.0
  0
LINE
  5
1B0
330
1F
100
AcDbEntity
  8
1
100
AcDbLine
 10
242.992498
 20
322.097443
 30
0.0
 11
242.997566
 21
321.595571
 31
0.0
  0
LINE
  5
1B1
330
1F
100
AcDbEntity
  8
1
100
AcDbLine
 10
256.211248
 20
178.415741
 30
0.0
 11
256.375879
 21
174.062136
 31
0.0
  0
LINE
  5
1B2
330
1F
100
AcDbEntity
  8
1
100
AcDbLine
 10
255.944181
 20
178.413819
 30
0.0
 11
256.211248
 21
178.415741
 31
0.0
  0
LINE
  5
1B3
330
1F
100
AcDbEntity
  8
1
100
AcDbLine
 10
256.375879
 20
174.062136
 30
0.0
 11
256.422955
 21
168.671036
 31
0.0
  0
LINE
  5
1B4
330
1F
100
AcDbEntity
  8
1
100
AcDbLine
 10
256.341817
 20
166.270108
 30
0.0
 11
256.295485
 21
166.213728
 31
0.0
  0
LINE
  5
1B5
330
1F
100
AcDbEntity
  8
1
100
AcDbLine
 10
249.555626
 20
166.165216
 30
0.0
 11
256.295485
 21
166.213728
 31
0.0
  0
LINE
  5
1B6
330
1F
100
AcDbEntity
  8
1
100
AcDbLine
 10
256.440845
 20
166.370804
 30
0.0
 11
256.341817
 21
166.270108
 31
0.0
  0
LINE
  5
1B7
330
1F
100
AcDbEntity
  8
1
100
AcDbLine
 10
256.440167
 20
166.448389
 30
0.0
 11
256.440845
 21
166.370804
 31
0.0
  0
LINE
  5
1B8
330
1F
100
AcDbEntity
  8
1
100
AcDbLine
 10
249.548547
 20
166.221211
 30
0.0
 11
256.341817
 21
166.270108
 31
0.0
  0
LINE
  5
1B9
330
1F
100
AcDbEntity
  8
1
100
AcDbLine
 10
249.23897
 20
166.010723
 30
0.0
 11
249.555626
 21
166.165216
 31
0.0
  0
LINE
  5
1BA
330
1F
100
AcDbEntity
  8
1
100
AcDbLine
 10
249.555626
 20
166.165216
 30
0.0
 11
249.548547
 21
166.221211
 31
0.0
  0
LINE
  5
1BB
330
1F
100
AcDbEntity
  8
1
100
AcDbLine
 10
249.548547
 20
166.221211
 30
0.0
 11
249.447773
 21
166.32047
 31
0.0
  0
LINE
  5
1BC
330
1F
100
AcDbEntity
  8
1
100
AcDbLine
 10
249.405078
 20
171.46139
 30
0.0
 11
249.429883
 21
168.620701
 31
0.0
  0
LINE
  5
1BD
330
1F
100
AcDbEntity
  8
1
100
AcDbLine
 10
248.902927
 20
165.789484
 30
0.0
 11
248.898422
 21
166.23949
 31
0.0
  0
LINE
  5
1BE
330
1F
100
AcDbEntity
  8
1
100
AcDbLine
 10
248.907287
 20
165.793007
 30
0.0
 11
248.902927
 21
165.789484
 31
0.0
  0
LINE
  5
1BF
330
1F
100
AcDbEntity
  8
1
100
AcDbLine
 10
248.906357
 20
165.786179
 30
0.0
 11
248.907287
 21
165.793007
 31
0.0
  0
LINE
  5
1C0
330
1F
100
AcDbEntity
  8
1
100
AcDbLine
 10
249.23897
 20
166.010723
 30
0.0
 11
249.003679
 21
165.820582
 31
0.0
  0
LINE
  5
1C1
330
1F
100
AcDbEntity
  8
1
100
AcDbLine
 10
249.447773
 20
166.32047
 30
0.0
 11
249.23897
 21
166.010723
 31
0.0
  0
LINE
  5
1C2
330
1F
100
AcDbEntity
  8
1
100
AcDbLine
 10
249.4469009999999
 20
166.420363
 30
0.0
 11
249.447773
 21
166.32047
 31
0.0
  0
LINE
  5
1C3
330
1F
100
AcDbEntity
  8
1
100
AcDbLine
 10
249.447361
 20
166.398057
 30
0.0
 11
249.4469009999999
 21
166.420363
 31
0.0
  0
LINE
  5
1C4
330
1F
100
AcDbEntity
  8
1
100
AcDbLine
 10
249.447361
 20
166.398057
 30
0.0
 11
256.440432
 21
166.448392
 31
0.0
  0
LINE
  5
1C5
330
1F
100
AcDbEntity
  8
1
100
AcDbLine
 10
249.429883
 20
168.620701
 30
0.0
 11
256.422955
 21
168.671036
 31
0.0
  0
LINE
  5
1C6
330
1F
100
AcDbEntity
  8
1
100
AcDbLine
 10
243.56418
 20
290.782513
 30
0.0
 11
243.564398
 21
290.782522
 31
0.0
  0
LINE
  5
1C7
330
1F
100
AcDbEntity
  8
1
100
AcDbLine
 10
243.448064
 20
297.520687
 30
0.0
 11
243.448283
 21
297.520696
 31
0.0
  0
LINE
  5
1C8
330
1F
100
AcDbEntity
  8
1
100
AcDbLine
 10
243.54668
 20
297.613774
 30
0.0
 11
250.33995
 21
297.896721
 31
0.0
  0
LINE
  5
1C9
330
1F
100
AcDbEntity
  8
1
100
AcDbLine
 10
250.440724
 20
297.84787
 30
0.0
 11
250.649527
 21
293.8433339999999
 31
0.0
  0
LINE
  5
1CA
330
1F
100
AcDbEntity
  8
1
100
AcDbLine
 10
250.440724
 20
297.84787
 30
0.0
 11
250.33995
 21
297.896721
 31
0.0
  0
LINE
  5
1CB
330
1F
100
AcDbEntity
  8
1
100
AcDbLine
 10
250.33995
 20
297.896721
 30
0.0
 11
250.33287
 21
297.528896
 31
0.0
  0
LINE
  5
1CC
330
1F
100
AcDbEntity
  8
1
100
AcDbLine
 10
243.593012
 20
297.248173
 30
0.0
 11
243.54668
 21
297.613774
 31
0.0
  0
LINE
  5
1CD
330
1F
100
AcDbEntity
  8
1
100
AcDbLine
 10
244.129212
 20
286.651882
 30
0.0
 11
244.096762
 21
286.927406
 31
0.0
  0
LINE
  5
1CE
330
1F
100
AcDbEntity
  8
1
100
AcDbLine
 10
244.096762
 20
286.927406
 30
0.0
 11
243.992498
 21
287.007984
 31
0.0
  0
LINE
  5
1CF
330
1F
100
AcDbEntity
  8
1
100
AcDbLine
 10
243.992498
 20
287.007984
 30
0.0
 11
244.007439
 21
286.179057
 31
0.0
  0
LINE
  5
1D0
330
1F
100
AcDbEntity
  8
1
100
AcDbLine
 10
242.94425
 20
195.188971
 30
0.0
 11
242.896792
 21
194.424858
 31
0.0
  0
LINE
  5
1D1
330
1F
100
AcDbEntity
  8
1
100
AcDbLine
 10
242.896792
 20
194.424858
 30
0.0
 11
242.688064
 21
190.986932
 31
0.0
  0
LINE
  5
1D2
330
1F
100
AcDbEntity
  8
1
100
AcDbLine
 10
242.896792
 20
194.424858
 30
0.0
 11
242.944251
 21
194.893297
 31
0.0
  0
LINE
  5
1D3
330
1F
100
AcDbEntity
  8
1
100
AcDbLine
 10
249.438939
 20
239.515983
 30
0.0
 11
256.232209
 21
239.247214
 31
0.0
  0
LINE
  5
1D4
330
1F
100
AcDbEntity
  8
1
100
AcDbLine
 10
256.327746
 20
239.147175
 30
0.0
 11
256.375879
 21
237.95451
 31
0.0
  0
LINE
  5
1D5
330
1F
100
AcDbEntity
  8
1
100
AcDbLine
 10
256.327746
 20
239.147175
 30
0.0
 11
256.232209
 21
239.247214
 31
0.0
  0
LINE
  5
1D6
330
1F
100
AcDbEntity
  8
1
100
AcDbLine
 10
256.232209
 20
239.247214
 30
0.0
 11
256.211248
 21
239.160518
 31
0.0
  0
LINE
  5
1D7
330
1F
100
AcDbEntity
  8
1
100
AcDbLine
 10
249.471389
 20
239.427174
 30
0.0
 11
249.438939
 21
239.515983
 31
0.0
  0
LINE
  5
1D8
330
1F
100
AcDbEntity
  8
1
100
AcDbLine
 10
249.438939
 20
239.515983
 30
0.0
 11
249.384143
 21
239.467563
 31
0.0
  0
LINE
  5
1D9
330
1F
100
AcDbEntity
  8
1
100
AcDbLine
 10
255.899301
 20
223.818384
 30
0.0
 11
255.895999
 21
223.745681
 31
0.0
  0
LINE
  5
1DA
330
1F
100
AcDbEntity
  8
1
100
AcDbLine
 10
255.895999
 20
223.745681
 30
0.0
 11
255.791735
 21
223.653548
 31
0.0
  0
LINE
  5
1DB
330
1F
100
AcDbEntity
  8
1
100
AcDbLine
 10
248.998465
 20
223.922318
 30
0.0
 11
248.902927
 21
224.022356
 31
0.0
  0
LINE
  5
1DC
330
1F
100
AcDbEntity
  8
1
100
AcDbLine
 10
248.998465
 20
223.922318
 30
0.0
 11
255.791735
 21
223.653548
 31
0.0
  0
LINE
  5
1DD
330
1F
100
AcDbEntity
  8
1
100
AcDbLine
 10
248.906357
 20
224.095055
 30
0.0
 11
255.899429
 21
223.81838
 31
0.0
  0
LINE
  5
1DE
330
1F
100
AcDbEntity
  8
1
100
AcDbLine
 10
256.375879
 20
237.95451
 30
0.0
 11
256.422955
 21
236.467615
 31
0.0
  0
LINE
  5
1DF
330
1F
100
AcDbEntity
  8
1
100
AcDbLine
 10
256.211248
 20
239.160518
 30
0.0
 11
256.375879
 21
237.95451
 31
0.0
  0
LINE
  5
1E0
330
1F
100
AcDbEntity
  8
1
100
AcDbLine
 10
249.471389
 20
239.427174
 30
0.0
 11
256.211248
 21
239.160518
 31
0.0
  0
LINE
  5
1E1
330
1F
100
AcDbEntity
  8
1
100
AcDbLine
 10
249.382807
 20
238.231185
 30
0.0
 11
249.471389
 21
239.427174
 31
0.0
  0
LINE
  5
1E2
330
1F
100
AcDbEntity
  8
1
100
AcDbLine
 10
249.447361
 20
236.089477
 30
0.0
 11
256.440432
 21
235.812802
 31
0.0
  0
LINE
  5
1E3
330
1F
100
AcDbEntity
  8
1
100
AcDbLine
 10
249.429883
 20
236.74429
 30
0.0
 11
256.422955
 21
236.467615
 31
0.0
  0
LINE
  5
1E4
330
1F
100
AcDbEntity
  8
1
100
AcDbLine
 10
256.440845
 20
235.785663
 30
0.0
 11
256.232041
 21
231.122144
 31
0.0
  0
LINE
  5
1E5
330
1F
100
AcDbEntity
  8
1
100
AcDbLine
 10
249.382807
 20
238.231185
 30
0.0
 11
249.429883
 21
236.74429
 31
0.0
  0
LINE
  5
1E6
330
1F
100
AcDbEntity
  8
1
100
AcDbLine
 10
249.365687
 20
238.655401
 30
0.0
 11
249.382807
 21
238.231185
 31
0.0
  0
LINE
  5
1E7
330
1F
100
AcDbEntity
  8
1
100
AcDbLine
 10
248.902927
 20
224.022356
 30
0.0
 11
248.898422
 21
224.134001
 31
0.0
  0
LINE
  5
1E8
330
1F
100
AcDbEntity
  8
1
100
AcDbLine
 10
248.907287
 20
224.118361
 30
0.0
 11
248.902927
 21
224.022356
 31
0.0
  0
LINE
  5
1E9
330
1F
100
AcDbEntity
  8
1
100
AcDbLine
 10
248.906357
 20
224.095055
 30
0.0
 11
248.907287
 21
224.118361
 31
0.0
  0
LINE
  5
1EA
330
1F
100
AcDbEntity
  8
1
100
AcDbLine
 10
249.447361
 20
236.089477
 30
0.0
 11
249.4469009999999
 21
236.089889
 31
0.0
  0
LINE
  5
1EB
330
1F
100
AcDbEntity
  8
1
100
AcDbLine
 10
256.295485
 20
235.312164
 30
0.0
 11
256.232041
 21
231.122144
 31
0.0
  0
LINE
  5
1EC
330
1F
100
AcDbEntity
  8
1
100
AcDbLine
 10
249.23897
 20
231.398819
 30
0.0
 11
249.003679
 21
226.217573
 31
0.0
  0
LINE
  5
1ED
330
1F
100
AcDbEntity
  8
1
100
AcDbLine
 10
249.003679
 20
226.217573
 30
0.0
 11
255.99675
 21
225.940899
 31
0.0
  0
LINE
  5
1EE
330
1F
100
AcDbEntity
  8
1
100
AcDbLine
 10
256.232041
 20
231.122144
 30
0.0
 11
255.99675
 21
225.940899
 31
0.0
  0
LINE
  5
1EF
330
1F
100
AcDbEntity
  8
1
100
AcDbLine
 10
256.440845
 20
235.785663
 30
0.0
 11
256.341817
 21
235.762041
 31
0.0
  0
LINE
  5
1F0
330
1F
100
AcDbEntity
  8
1
100
AcDbLine
 10
256.439985
 20
235.812819
 30
0.0
 11
256.440845
 21
235.785663
 31
0.0
  0
LINE
  5
1F1
330
1F
100
AcDbEntity
  8
1
100
AcDbLine
 10
249.4469009999999
 20
236.089889
 30
0.0
 11
249.447773
 21
236.062338
 31
0.0
  0
LINE
  5
1F2
330
1F
100
AcDbEntity
  8
1
100
AcDbLine
 10
256.341817
 20
235.762041
 30
0.0
 11
256.295485
 21
235.312164
 31
0.0
  0
LINE
  5
1F3
330
1F
100
AcDbEntity
  8
1
100
AcDbLine
 10
249.548547
 20
236.030811
 30
0.0
 11
256.341817
 21
235.762041
 31
0.0
  0
LINE
  5
1F4
330
1F
100
AcDbEntity
  8
1
100
AcDbLine
 10
249.555626
 20
235.578821
 30
0.0
 11
256.295485
 21
235.312164
 31
0.0
  0
LINE
  5
1F5
330
1F
100
AcDbEntity
  8
1
100
AcDbLine
 10
249.23897
 20
231.398819
 30
0.0
 11
249.555626
 21
235.578821
 31
0.0
  0
LINE
  5
1F6
330
1F
100
AcDbEntity
  8
1
100
AcDbLine
 10
249.555626
 20
235.578821
 30
0.0
 11
249.548547
 21
236.030811
 31
0.0
  0
LINE
  5
1F7
330
1F
100
AcDbEntity
  8
1
100
AcDbLine
 10
249.548547
 20
236.030811
 30
0.0
 11
249.447773
 21
236.062338
 31
0.0
  0
LINE
  5
1F8
330
1F
100
AcDbEntity
  8
1
100
AcDbLine
 10
249.447773
 20
236.062338
 30
0.0
 11
249.23897
 21
231.398819
 31
0.0
  0
LINE
  5
1F9
330
1F
100
AcDbEntity
  8
1
100
AcDbLine
 10
242.56418
 20
311.819952
 30
0.0
 11
242.593026
 21
311.820419
 31
0.0
  0
LINE
  5
1FA
330
1F
100
AcDbEntity
  8
1
100
AcDbLine
 10
242.54668
 20
324.2744
 30
0.0
 11
249.33995
 21
324.384287
 31
0.0
  0
LINE
  5
1FB
330
1F
100
AcDbEntity
  8
1
100
AcDbLine
 10
249.440724
 20
324.287385
 30
0.0
 11
249.649527
 21
323.591789
 31
0.0
  0
LINE
  5
1FC
330
1F
100
AcDbEntity
  8
1
100
AcDbLine
 10
249.440724
 20
324.287385
 30
0.0
 11
249.33995
 21
324.384287
 31
0.0
  0
LINE
  5
1FD
330
1F
100
AcDbEntity
  8
1
100
AcDbLine
 10
249.33995
 20
324.384287
 30
0.0
 11
249.33287
 21
324.344031
 31
0.0
  0
LINE
  5
1FE
330
1F
100
AcDbEntity
  8
1
100
AcDbLine
 10
242.593012
 20
324.235008
 30
0.0
 11
242.54668
 21
324.2744
 31
0.0
  0
LINE
  5
1FF
330
1F
100
AcDbEntity
  8
1
100
AcDbLine
 10
242.54668
 20
324.2744
 30
0.0
 11
242.447652
 21
324.174265
 31
0.0
  0
LINE
  5
200
330
1F
100
AcDbEntity
  8
1
100
AcDbLine
 10
249.649527
 20
323.591789
 30
0.0
 11
249.884818
 21
322.657942
 31
0.0
  0
LINE
  5
201
330
1F
100
AcDbEntity
  8
1
100
AcDbLine
 10
249.33287
 20
324.344031
 30
0.0
 11
249.649527
 21
323.591789
 31
0.0
  0
LINE
  5
202
330
1F
100
AcDbEntity
  8
1
100
AcDbLine
 10
242.593012
 20
324.235008
 30
0.0
 11
249.33287
 21
324.344031
 31
0.0
  0
LINE
  5
203
330
1F
100
AcDbEntity
  8
1
100
AcDbLine
 10
242.656455
 20
323.47867
 30
0.0
 11
242.593012
 21
324.235008
 31
0.0
  0
LINE
  5
204
330
1F
100
AcDbEntity
  8
1
100
AcDbLine
 10
249.985569
 20
322.2105620000001
 30
0.0
 11
249.990941
 21
321.678603
 31
0.0
  0
LINE
  5
205
330
1F
100
AcDbEntity
  8
1
100
AcDbLine
 10
242.891746
 20
322.544822
 30
0.0
 11
249.884818
 21
322.657942
 31
0.0
  0
LINE
  5
206
330
1F
100
AcDbEntity
  8
1
100
AcDbLine
 10
249.98214
 20
322.229911
 30
0.0
 11
249.98121
 21
322.227866
 31
0.0
  0
LINE
  5
207
330
1F
100
AcDbEntity
  8
1
100
AcDbLine
 10
242.989068
 20
322.1167910000001
 30
0.0
 11
249.98214
 21
322.229911
 31
0.0
  0
LINE
  5
208
330
1F
100
AcDbEntity
  8
1
100
AcDbLine
 10
242.944248
 20
315.843451
 30
0.0
 11
242.944248
 21
305.505256
 31
0.0
  0
LINE
  5
209
330
1F
100
AcDbEntity
  8
1
100
AcDbLine
 10
255.944248
 20
180.9140689999999
 30
0.0
 11
255.944248
 21
171.461441
 31
0.0
  0
LINE
  5
20A
330
1F
100
AcDbEntity
  8
1
100
AcDbLine
 10
242.944248
 20
194.296718
 30
0.0
 11
242.944248
 21
189.316795
 31
0.0
  0
LINE
  5
20B
330
1F
100
AcDbEntity
  8
1
100
AcDbLine
 10
242.944248
 20
286.139821
 30
0.0
 11
242.944248
 21
280.2944700000001
 31
0.0
  0
LINE
  5
20C
330
1F
100
AcDbEntity
  8
1
100
AcDbLine
 10
242.944248
 20
235.954462
 30
0.0
 11
242.944248
 21
216.702417
 31
0.0
  0
LINE
  5
20D
330
1F
100
AcDbEntity
  8
1
100
AcDbLine
 10
242.944248
 20
255.623537
 30
0.0
 11
242.944248
 21
248.883086
 31
0.0
  0
LINE
  5
20E
330
1F
100
AcDbEntity
  8
1
100
AcDbLine
 10
255.944248
 20
309.512281
 30
0.0
 11
255.944248
 21
305.505256
 31
0.0
  0
LINE
  5
20F
330
1F
100
AcDbEntity
  8
1
100
AcDbLine
 10
255.944248
 20
322.733456
 30
0.0
 11
249.865869
 21
322.733456
 31
0.0
  0
LINE
  5
210
330
1F
100
AcDbEntity
  8
1
100
AcDbLine
 10
255.944248
 20
205.027382
 30
0.0
 11
255.944248
 21
189.316795
 31
0.0
  0
LINE
  5
211
330
1F
100
AcDbEntity
  8
1
100
AcDbLine
 10
255.944248
 20
296.606106
 30
0.0
 11
255.944248
 21
280.2944700000001
 31
0.0
  0
LINE
  5
212
330
1F
100
AcDbEntity
  8
1
100
AcDbLine
 10
255.944248
 20
223.135546
 30
0.0
 11
255.944248
 21
216.702417
 31
0.0
  0
LINE
  5
213
330
1F
100
AcDbEntity
  8
1
100
AcDbLine
 10
255.944248
 20
268.347733
 30
0.0
 11
255.944248
 21
248.883086
 31
0.0
  0
LINE
  5
214
330
1F
100
AcDbEntity
  8
80
100
AcDbLine
 10
249.444248
 20
243.434445
 30
0.0
 11
249.444248
 21
245.433592
 31
0.0
  0
LINE
  5
215
330
1F
100
AcDbEntity
  8
80
100
AcDbLine
 10
248.444675
 20
244.434018
 30
0.0
 11
250.443822
 21
244.434018
 31
0.0
  0
LINE
  5
216
330
1F
100
AcDbEntity
  8
1
100
AcDbLine
 10
242.944264
 20
277.856677
 30
0.0
 11
242.444248
 21
277.567993
 31
0.0
  0
LINE
  5
217
330
1F
100
AcDbEntity
  8
1
100
AcDbLine
 10
256.444248
 20
277.567993
 30
0.0
 11
255.944233
 21
277.856677
 31
0.0
  0
LINE
  5
218
330
1F
100
AcDbEntity
  8
1
100
AcDbLine
 10
255.944233
 20
211.01136
 30
0.0
 11
256.444248
 21
211.300044
 31
0.0
  0
LINE
  5
219
330
1F
100
AcDbEntity
  8
SK3
100
AcDbLine
 10
256.444248
 20
224.434018
 30
0.0
 11
242.444248
 21
224.434018
 31
0.0
  0
LINE
  5
21A
330
1F
100
AcDbEntity
  8
1
100
AcDbLine
 10
242.444248
 20
211.300044
 30
0.0
 11
242.944264
 21
211.01136
 31
0.0
  0
LINE
  5
21B
330
1F
100
AcDbEntity
  8
81
100
AcDbLine
 10
256.444248
 20
322.434018
 30
0.0
 11
256.444248
 21
326.434018
 31
0.0
  0
LINE
  5
21C
330
1F
100
AcDbEntity
  8
SK3
100
AcDbLine
 10
242.444248
 20
264.434018
 30
0.0
 11
256.444248
 21
264.434018
 31
0.0
  0
LINE
  5
21D
330
1F
100
AcDbEntity
  8
81
100
AcDbLine
 10
254.444248
 20
324.434018
 30
0.0
 11
258.444248
 21
324.434018
 31
0.0
  0
LINE
  5
21E
330
1F
100
AcDbEntity
  8
1
100
AcDbLine
 10
256.444248
 20
211.300044
 30
0.0
 11
256.444248
 21
277.567993
 31
0.0
  0
LINE
  5
21F
330
1F
100
AcDbEntity
  8
1
100
AcDbLine
 10
242.444248
 20
211.300044
 30
0.0
 11
242.444248
 21
277.567993
 31
0.0
  0
LINE
  5
220
330
1F
100
AcDbEntity
  8
NOCUT
100
AcDbLine
 10
243.944248
 20
306.434018
 30
0.0
 11
242.944248
 21
306.434018
 31
0.0
  0
LINE
  5
222
330
1F
100
AcDbEntity
  8
NOCUT
100
AcDbLine
 10
242.944248
 20
306.434018
 30
0.0
 11
242.944248
 21
322.734018
 31
0.0
  0
LINE
  5
223
330
1F
100
AcDbEntity
  8
NOCUT
100
AcDbLine
 10
255.944248
 20
322.734018
 30
0.0
 11
255.944248
 21
306.434018
 31
0.0
  0
LINE
  5
224
330
1F
100
AcDbEntity
  8
NOCUT
100
AcDbLine
 10
255.944248
 20
306.434018
 30
0.0
 11
254.944248
 21
306.434018
 31
0.0
  0
LINE
  5
225
330
1F
100
AcDbEntity
  8
NOCUT
100
AcDbLine
 10
254.944248
 20
306.434018
 30
0.0
 11
254.944248
 21
278.434018
 31
0.0
  0
LINE
  5
226
330
1F
100
AcDbEntity
  8
NOCUT
100
AcDbLine
 10
254.944248
 20
278.434018
 30
0.0
 11
256.444248
 21
277.567993
 31
0.0
  0
LINE
  5
227
330
1F
100
AcDbEntity
  8
NOCUT
100
AcDbLine
 10
256.444248
 20
277.567993
 30
0.0
 11
256.444248
 21
267.934018
 31
0.0
  0
LINE
  5
228
330
1F
100
AcDbEntity
  8
NOCUT
100
AcDbLine
 10
256.444248
 20
267.934018
 30
0.0
 11
242.444248
 21
267.934018
 31
0.0
  0
LINE
  5
229
330
1F
100
AcDbEntity
  8
NOCUT
100
AcDbLine
 10
242.444248
 20
267.934018
 30
0.0
 11
242.444248
 21
277.567993
 31
0.0
  0
LINE
  5
22A
330
1F
100
AcDbEntity
  8
NOCUT
100
AcDbLine
 10
242.944248
 20
322.734018
 30
0.0
 11
255.944248
 21
322.734018
 31
0.0
  0
LINE
  5
22B
330
1F
100
AcDbEntity
  8
NOCUT
100
AcDbLine
 10
242.444248
 20
277.567993
 30
0.0
 11
243.944248
 21
278.434018
 31
0.0
  0
LINE
  5
22C
330
1F
100
AcDbEntity
  8
NOCUT
100
AcDbLine
 10
243.944248
 20
278.434018
 30
0.0
 11
243.944248
 21
306.434018
 31
0.0
  0
ELLIPSE
  5
232
330
1F
100
AcDbEntity
  8
1
100
AcDbEllipse
 10
242.910196
 20
171.183378
 30
0.0
 11
0.0451812807121837
 21
-3.99974482334476
 31
0.0
210
0.0
220
0.0
230
1.0
 40
0.043025
 41
2.425574138325735
 42
2.988728299482951
  0
ELLIPSE
  5
233
330
1F
100
AcDbEntity
  8
1
100
AcDbEllipse
 10
242.288579
 20
182.43382
 30
0.0
 11
0.0451812807121837
 21
-3.99974482334476
 31
0.0
210
0.0
220
0.0
230
1.0
 40
0.043025
 41
0.8547778115308386
 42
1.417931972688048
  0
ELLIPSE
  5
234
330
1F
100
AcDbEntity
  8
1
100
AcDbEllipse
 10
249.281651
 20
182.512814
 30
0.0
 11
0.0451812807121837
 21
-3.99974482334476
 31
0.0
210
0.0
220
0.0
230
1.0
 40
0.043025
 41
0.8547778115308355
 42
1.417931972688047
  0
ELLIPSE
  5
235
330
1F
100
AcDbEntity
  8
1
100
AcDbEllipse
 10
249.903268
 20
171.262372
 30
0.0
 11
0.0451812807121837
 21
-3.99974482334476
 31
0.0
210
0.0
220
0.0
230
1.0
 40
0.043025
 41
2.425574138325729
 42
2.988728299482946
  0
ELLIPSE
  5
236
330
1F
100
AcDbEntity
  8
1
100
AcDbEllipse
 10
248.157102
 20
244.434018
 30
0.0
 11
-0.5646783623614695
 21
78.29999607332327
 31
0.0
210
0.0
220
0.0
230
0.9999999999999998
 40
0.043937
 41
3.186323291331501
 42
3.346926506853126
  0
ELLIPSE
  5
237
330
1F
100
AcDbEntity
  8
1
100
AcDbEllipse
 10
238.912142
 20
244.419125
 30
0.0
 11
-985.5742520937086
 21
-2.752293687819179
 31
0.0
210
0.0
220
0.0
230
0.9999999999999996
 40
0.079382
 41
1.580683551059975
 42
1.580707568591031
  0
ELLIPSE
  5
238
330
1F
100
AcDbEntity
  8
1
100
AcDbEllipse
 10
250.731394
 20
244.434018
 30
0.0
 11
-1.268757726199574
 21
78.29998232474245
 31
0.0
210
0.0
220
0.0
230
1.0
 40
0.041471
 41
6.118121299963138
 42
6.124979559014737
  0
ELLIPSE
  5
239
330
1F
100
AcDbEntity
  8
1
100
AcDbEllipse
 10
259.975392
 20
244.455007
 30
0.0
 11
-985.5336516464099
 21
13.67584089677314
 31
0.0
210
0.0
220
0.0
230
1.0
 40
0.078206
 41
4.723582557247643
 42
4.726946185613308
  0
ELLIPSE
  5
23A
330
1F
100
AcDbEntity
  8
1
100
AcDbEllipse
 10
223.987537
 20
244.107985
 30
0.0
 11
-1828.054869607021
 21
-13.56821628274539
 31
0.0
210
0.0
220
0.0
230
0.9999999999999998
 40
0.042366
 41
4.699650533425491
 42
4.701399609669112
  0
ELLIPSE
  5
23B
330
1F
100
AcDbEntity
  8
1
100
AcDbEllipse
 10
244.22495
 20
244.434497
 30
0.0
 11
-1.268753278995458
 21
78.29950367339307
 31
0.0
210
0.0
220
0.0
230
1.0
 40
0.041471
 41
6.11207542533454
 42
6.119731210626289
  0
ELLIPSE
  5
23C
330
1F
100
AcDbEntity
  8
1
100
AcDbEllipse
 10
251.731394
 20
244.434018
 30
0.0
 11
-2.182245743095906
 21
78.29996333460906
 31
0.0
210
0.0
220
0.0
230
0.9999999999999998
 40
0.034723
 41
2.097216160762355
 42
2.257819376289067
  0
ELLIPSE
  5
23D
330
1F
100
AcDbEntity
  8
1
100
AcDbEllipse
 10
260.979976
 20
244.439808
 30
0.0
 11
-985.7209606412098
 21
60.14220682952497
 31
0.0
210
0.0
220
0.0
230
0.9999999999999998
 40
0.050874
 41
1.563103837870755
 42
1.56378930646434
  0
ELLIPSE
  5
23E
330
1F
100
AcDbEntity
  8
1
100
AcDbEllipse
 10
245.224963
 20
244.43461
 30
0.0
 11
-2.182248070643813
 21
78.30061584402823
 31
0.0
210
0.0
220
0.0
230
0.9999999999999998
 40
0.034723
 41
2.259818460231746
 42
2.263867620682642
  0
ELLIPSE
  5
23F
330
1F
100
AcDbEntity
  8
1
100
AcDbEllipse
 10
255.931978
 20
240.070729
 30
0.0
 11
-0.118599636821137
 21
-2.99765477100781
 31
0.0
210
0.0
220
0.0
230
0.9999999999999998
 40
0.020403
 41
4.144175671381448
 42
4.433002993764682
  0
ELLIPSE
  5
240
330
1F
100
AcDbEntity
  8
1
100
AcDbEllipse
 10
256.599918
 20
318.39047
 30
0.0
 11
-0.1265358027111201
 21
-3.997998085371258
 31
0.0
210
0.0
220
0.0
230
1.0
 40
0.031286
 41
5.050203101942647
 42
5.607460377380106
  0
ELLIPSE
  5
241
330
1F
100
AcDbEntity
  8
1
100
AcDbEllipse
 10
255.9783
 20
314.071433
 30
0.0
 11
-0.1265358027111201
 21
-3.997998085371258
 31
0.0
210
0.0
220
0.0
230
1.0
 40
0.031286
 41
0.3319172358382058
 42
0.8950713969954225
  0
ELLIPSE
  5
242
330
1F
100
AcDbEntity
  8
1
100
AcDbEllipse
 10
256.245445
 20
302.901859
 30
0.0
 11
-0.1265358027111201
 21
-3.997998085371258
 31
0.0
210
0.0
220
0.0
230
1.0
 40
0.031286
 41
3.473509889428004
 42
4.036664050585214
  0
ELLIPSE
  5
243
330
1F
100
AcDbEntity
  8
1
100
AcDbEllipse
 10
256.111873
 20
308.486646
 30
0.0
 11
-0.1233724076433421
 21
-3.898048133236977
 31
0.0
210
0.0
220
0.0
230
0.9999999999999998
 40
0.031286
 41
5.763992984811937
 42
6.283185307179585
  0
ELLIPSE
  5
244
330
1F
100
AcDbEntity
  8
1
100
AcDbEllipse
 10
256.111873
 20
308.486646
 30
0.0
 11
-0.1233724076433421
 21
-3.898048133236977
 31
0.0
210
0.0
220
0.0
230
0.9999999999999998
 40
0.031286
 41
0.0
 42
0.5937164552003255
  0
ELLIPSE
  5
245
330
1F
100
AcDbEntity
  8
1
100
AcDbEllipse
 10
256.111873
 20
308.486646
 30
0.0
 11
-0.1233724076433421
 21
-3.898048133236977
 31
0.0
210
0.0
220
0.0
230
0.9999999999999998
 40
0.031286
 41
0.5937167331345547
 42
5.243077333820554
  0
ELLIPSE
  5
246
330
1F
100
AcDbEntity
  8
1
100
AcDbEllipse
 10
256.599918
 20
294.766585
 30
0.0
 11
0.0799979758564303
 21
-3.999199960474454
 31
0.0
210
0.0
220
0.0
230
1.0
 40
0.039739
 41
3.786776492874187
 42
4.349930654031404
  0
ELLIPSE
  5
247
330
1F
100
AcDbEntity
  8
1
100
AcDbEllipse
 10
249.903268
 20
258.362574
 30
0.0
 11
0.1776269355848955
 21
-3.996054137740717
 31
0.0
210
0.0
220
0.0
230
1.0
 40
0.002563
 41
1.169123254023339
 42
1.732277415180548
  0
ELLIPSE
  5
248
330
1F
100
AcDbEntity
  8
1
100
AcDbEllipse
 10
256.599918
 20
201.584804
 30
0.0
 11
0.1758802543341069
 21
-3.996131396255054
 31
0.0
210
0.0
220
0.0
230
1.0
 40
0.006726
 41
3.189346203076118
 42
3.752500364233323
  0
ELLIPSE
  5
249
330
1F
100
AcDbEntity
  8
1
100
AcDbEllipse
 10
256.245445
 20
211.567647
 30
0.0
 11
0.1758802543341069
 21
-3.996131396255054
 31
0.0
210
0.0
220
0.0
230
1.0
 40
0.006726
 41
4.809339300980096
 42
5.323296691028211
  0
ELLIPSE
  5
24A
330
1F
100
AcDbEntity
  8
1
100
AcDbEllipse
 10
243.910196
 20
193.020657
 30
0.0
 11
0.1113036855827181
 21
-3.998451136324627
 31
0.0
210
0.0
220
0.0
230
1.0
 40
0.034715
 41
2.006454995349976
 42
2.569609156507189
  0
ELLIPSE
  5
24B
330
1F
100
AcDbEntity
  8
1
100
AcDbEllipse
 10
243.288579
 20
207.968858
 30
0.0
 11
0.1113036855827181
 21
-3.998451136324627
 31
0.0
210
0.0
220
0.0
230
1.0
 40
0.034715
 41
0.4356586685550777
 42
0.9988128297122887
  0
ELLIPSE
  5
24C
330
1F
100
AcDbEntity
  8
1
100
AcDbEllipse
 10
250.281651
 20
208.163522
 30
0.0
 11
0.1113036855827181
 21
-3.998451136324627
 31
0.0
210
0.0
220
0.0
230
1.0
 40
0.034715
 41
0.4356586685550798
 42
0.9988128297122917
  0
ELLIPSE
  5
24D
330
1F
100
AcDbEntity
  8
1
100
AcDbEllipse
 10
250.903268
 20
193.215321
 30
0.0
 11
0.1113036855827181
 21
-3.998451136324627
 31
0.0
210
0.0
220
0.0
230
1.0
 40
0.034715
 41
2.006454995349975
 42
2.569609156507188
  0
ELLIPSE
  5
24E
330
1F
100
AcDbEntity
  8
1
100
AcDbEllipse
 10
256.245445
 20
285.858065
 30
0.0
 11
0.0799979758564303
 21
-3.999199960474454
 31
0.0
210
0.0
220
0.0
230
1.0
 40
0.039739
 41
2.215980166079298
 42
2.779134327236511
  0
ELLIPSE
  5
24F
330
1F
100
AcDbEntity
  8
1
100
AcDbEllipse
 10
256.111873
 20
297.008309
 30
0.0
 11
0.0779980264600196
 21
-3.899219961462593
 31
0.0
210
0.0
220
0.0
230
0.9999999999999998
 40
0.039739
 41
4.496841804392175
 42
5.619372178673033
  0
ELLIPSE
  5
250
330
1F
100
AcDbEntity
  8
1
100
AcDbEllipse
 10
256.111873
 20
297.008309
 30
0.0
 11
0.0779980264600196
 21
-3.899219961462593
 31
0.0
210
0.0
220
0.0
230
0.9999999999999998
 40
0.039739
 41
5.619372178673012
 42
6.283185307179585
  0
ELLIPSE
  5
251
330
1F
100
AcDbEntity
  8
1
100
AcDbEllipse
 10
256.111873
 20
297.008309
 30
0.0
 11
0.0779980264600196
 21
-3.899219961462593
 31
0.0
210
0.0
220
0.0
230
0.9999999999999998
 40
0.039739
 41
0.0
 42
3.985547583485784
  0
ELLIPSE
  5
252
330
1F
100
AcDbEntity
  8
1
100
AcDbEllipse
 10
242.910196
 20
258.051728
 30
0.0
 11
0.1776269355848955
 21
-3.996054137740717
 31
0.0
210
0.0
220
0.0
230
1.0
 40
0.002563
 41
1.169123254023314
 42
1.732277415180551
  0
ELLIPSE
  5
253
330
1F
100
AcDbEntity
  8
1
100
AcDbEllipse
 10
249.281651
 20
272.759792
 30
0.0
 11
0.1776269355848955
 21
-3.996054137740717
 31
0.0
210
0.0
220
0.0
230
1.0
 40
0.002563
 41
5.881512234408031
 42
6.444666395565251
  0
ELLIPSE
  5
254
330
1F
100
AcDbEntity
  8
1
100
AcDbEllipse
 10
250.731394
 20
244.434018
 30
0.0
 11
-0.886123292516101
 21
78.29999070305156
 31
0.0
210
0.0
220
0.0
230
0.9999999999999998
 40
0.043062
 41
2.516575583547111
 42
2.677178799071516
  0
ELLIPSE
  5
255
330
1F
100
AcDbEntity
  8
1
100
AcDbEllipse
 10
259.970045
 20
244.382631
 30
0.0
 11
-985.3029966857793
 21
34.48998975953937
 31
0.0
210
0.0
220
0.0
230
0.9999999999999998
 40
0.071285
 41
1.563159854455438
 42
1.56318634962118
  0
ELLIPSE
  5
256
330
1F
100
AcDbEntity
  8
1
100
AcDbEllipse
 10
248.157102
 20
244.434018
 30
0.0
 11
-2.480607758058238
 21
-78.29996153174021
 31
0.0
210
0.0
220
0.0
230
0.9999999999999998
 40
0.031285
 41
3.718996561649055
 42
3.725854828007295
  0
ELLIPSE
  5
257
330
1F
100
AcDbEntity
  8
1
100
AcDbEllipse
 10
254.663532
 20
244.433117
 30
0.0
 11
-2.480621171057185
 21
-78.30087812673332
 31
0.0
210
0.0
220
0.0
230
1.0
 40
0.031285
 41
3.724241254018015
 42
3.731896962707728
  0
ELLIPSE
  5
258
330
1F
100
AcDbEntity
  8
1
100
AcDbEllipse
 10
274.696384
 20
244.795669
 30
0.0
 11
-1819.162821581596
 21
43.64315183825304
 31
0.0
210
0.0
220
0.0
230
1.0
 40
0.035492
 41
4.723855103261163
 42
4.725612727288026
  0
ELLIPSE
  5
259
330
1F
100
AcDbEntity
  8
1
100
AcDbEllipse
 10
238.908166
 20
244.423182
 30
0.0
 11
-985.7455658169079
 21
-43.9767641932152
 31
0.0
210
0.0
220
0.0
230
1.0
 40
0.065734
 41
4.695982384497487
 42
4.699345277370813
  0
ELLIPSE
  5
25A
330
1F
100
AcDbEntity
  8
1
100
AcDbEllipse
 10
248.985228
 20
314.292762
 30
0.0
 11
-0.1265358027111201
 21
-3.997998085371258
 31
0.0
210
0.0
220
0.0
230
1.0
 40
0.031286
 41
0.3319172358382124
 42
0.8950713969954263
  0
ELLIPSE
  5
25B
330
1F
100
AcDbEntity
  8
1
100
AcDbEllipse
 10
243.956519
 20
211.748795
 30
0.0
 11
0.0834777641870386
 21
-2.99883835224347
 31
0.0
210
0.0
220
0.0
230
0.9999999999999998
 40
0.034715
 41
2.268981600761903
 42
3.037792524578316
  0
ELLIPSE
  5
25C
330
1F
100
AcDbEntity
  8
1
100
AcDbEllipse
 10
242.956519
 20
269.147116
 30
0.0
 11
0.1332202016886716
 21
-2.997040603305538
 31
0.0
210
0.0
220
0.0
230
1.0
 40
0.002563
 41
1.459020623545994
 42
1.720477181818494
  0
ELLIPSE
  5
25D
330
1F
100
AcDbEntity
  8
1
100
AcDbEllipse
 10
251.731394
 20
244.434018
 30
0.0
 11
-3.262087957754366
 21
78.29998324469013
 31
0.0
210
0.0
220
0.0
230
1.0
 40
0.015709
 41
5.280380805768011
 42
5.28723906609633
  0
ELLIPSE
  5
25E
330
1F
100
AcDbEntity
  8
1
100
AcDbEllipse
 10
260.988624
 20
244.397308
 30
0.0
 11
-986.0920960021518
 21
66.54738197720767
 31
0.0
210
0.0
220
0.0
230
0.9999999999999996
 40
0.041926
 41
4.725334369909568
 42
4.728696082170388
  0
ELLIPSE
  5
25F
330
1F
100
AcDbEntity
  8
1
100
AcDbEllipse
 10
224.959198
 20
244.202364
 30
0.0
 11
-1829.193787987042
 21
-66.57503889781105
 31
0.0
210
0.0
220
0.0
230
1.0
 40
0.022818
 41
4.699126756269023
 42
4.700874743129155
  0
ELLIPSE
  5
260
330
1F
100
AcDbEntity
  8
1
100
AcDbEllipse
 10
245.224947
 20
244.434495
 30
0.0
 11
-3.262070490884628
 21
78.29941239495152
 31
0.0
210
0.0
220
0.0
230
1.0
 40
0.015709
 41
5.274332862350257
 42
5.281988667218801
  0
ELLIPSE
  5
261
330
1F
100
AcDbEntity
  8
1
100
AcDbEllipse
 10
248.157102
 20
244.434018
 30
0.0
 11
-3.099161937409221
 21
-78.29997449847296
 31
0.0
210
0.0
220
0.0
230
1.0
 40
0.020391
 41
1.302491664711526
 42
1.463094880234113
  0
ELLIPSE
  5
262
330
1F
100
AcDbEntity
  8
1
100
AcDbEllipse
 10
254.663542
 20
244.434022
 30
0.0
 11
-3.099162133410372
 21
-78.2999811422248
 31
0.0
210
0.0
220
0.0
230
1.0
 40
0.020391
 41
1.296446291164534
 42
1.303202984762404
  0
ELLIPSE
  5
263
330
1F
100
AcDbEntity
  8
1
100
AcDbEllipse
 10
238.906464
 20
244.440353
 30
0.0
 11
-985.8175978360927
 21
-75.31469444783695
 31
0.0
210
0.0
220
0.0
230
1.0
 40
0.02177
 41
1.579245278333048
 42
1.581962778248433
  0
ELLIPSE
  5
264
330
1F
100
AcDbEntity
  8
1
100
AcDbEllipse
 10
250.731394
 20
244.434018
 30
0.0
 11
-3.480503478008031
 21
78.29999947605266
 31
0.0
210
0.0
220
0.0
230
1.0
 40
0.00256
 41
1.260312045114165
 42
1.420915260672759
  0
ELLIPSE
  5
265
330
1F
100
AcDbEntity
  8
1
100
AcDbEllipse
 10
259.97943
 20
244.433077
 30
0.0
 11
-985.7070748524787
 21
77.5501532399955
 31
0.0
210
0.0
220
0.0
230
0.9999999999999998
 40
0.010991
 41
4.72336431658153
 42
4.726727353960512
  0
ELLIPSE
  5
266
330
1F
100
AcDbEntity
  8
1
100
AcDbEllipse
 10
242.910196
 20
281.289196
 30
0.0
 11
-0.1377315112280465
 21
-3.99762805058385
 31
0.0
210
0.0
220
0.0
230
1.0
 40
0.028175
 41
0.7814250867128243
 42
1.077881651717375
  0
ELLIPSE
  5
267
330
1F
100
AcDbEntity
  8
1
100
AcDbEllipse
 10
255.9783
 20
162.011801
 30
0.0
 11
0.0287904809574949
 21
-3.999896387183826
 31
0.0
210
0.0
220
0.0
230
1.0
 40
0.043895
 41
3.407999967614563
 42
3.438330986992318
  0
ELLIPSE
  5
268
330
1F
100
AcDbEntity
  8
1
100
AcDbEllipse
 10
250.903268
 20
290.292327
 30
0.0
 11
0.1664601332437017
 21
-3.996534877120489
 31
0.0
210
0.0
220
0.0
230
1.0
 40
0.01572
 41
4.969402713355547
 42
5.532556874512764
  0
ELLIPSE
  5
269
330
1F
100
AcDbEntity
  8
1
100
AcDbEllipse
 10
243.643051
 20
287.85822
 30
0.0
 11
0.1664601332437017
 21
-3.996534877120489
 31
0.0
210
0.0
220
0.0
230
1.0
 40
0.01572
 41
1.827810059765753
 42
2.390964220922965
  0
ELLIPSE
  5
26A
330
1F
100
AcDbEntity
  8
1
100
AcDbEllipse
 10
243.910196
 20
290.001058
 30
0.0
 11
0.1664601332437017
 21
-3.996534877120489
 31
0.0
210
0.0
220
0.0
230
1.0
 40
0.01572
 41
4.969402713355547
 42
5.532556874512753
  0
ELLIPSE
  5
26B
330
1F
100
AcDbEntity
  8
1
100
AcDbEllipse
 10
243.288579
 20
300.244804
 30
0.0
 11
0.1664601332437017
 21
-3.996534877120489
 31
0.0
210
0.0
220
0.0
230
1.0
 40
0.01572
 41
0.2570137329708773
 42
0.8201678941280887
  0
ELLIPSE
  5
26C
330
1F
100
AcDbEntity
  8
1
100
AcDbEllipse
 10
243.776624
 20
288.929639
 30
0.0
 11
0.1622986299126092
 21
-3.896621505192477
 31
0.0
210
0.0
220
0.0
230
1.0
 40
0.01572
 41
5.270757527583519
 42
5.49754139913778
  0
ELLIPSE
  5
26D
330
1F
100
AcDbEntity
  8
1
100
AcDbEllipse
 10
243.776624
 20
288.929639
 30
0.0
 11
0.1622986299126092
 21
-3.896621505192477
 31
0.0
210
0.0
220
0.0
230
1.0
 40
0.01572
 41
0.7855450360133949
 42
5.270757527583563
  0
ELLIPSE
  5
26E
330
1F
100
AcDbEntity
  8
1
100
AcDbEllipse
 10
242.643051
 20
307.835877
 30
0.0
 11
0.0646952573743713
 21
-3.999476781239423
 31
0.0
210
0.0
220
0.0
230
1.0
 40
0.041441
 41
2.665560068236445
 42
3.228714229393657
  0
ELLIPSE
  5
26F
330
1F
100
AcDbEntity
  8
1
100
AcDbEllipse
 10
242.910196
 20
326.100866
 30
0.0
 11
0.0646952573743713
 21
-3.999476781239423
 31
0.0
210
0.0
220
0.0
230
1.0
 40
0.041441
 41
5.807152721826237
 42
6.370306882983455
  0
ELLIPSE
  5
270
330
1F
100
AcDbEntity
  8
1
100
AcDbEllipse
 10
242.288579
 20
323.748394
 30
0.0
 11
0.0646952573743713
 21
-3.999476781239423
 31
0.0
210
0.0
220
0.0
230
1.0
 40
0.041441
 41
1.094763741441548
 42
1.652021016879016
  0
ELLIPSE
  5
271
330
1F
100
AcDbEntity
  8
1
100
AcDbEllipse
 10
242.776624
 20
316.968372
 30
0.0
 11
0.063077875940012
 21
-3.899489861708437
 31
0.0
210
0.0
220
0.0
230
0.9999999999999998
 40
0.041441
 41
6.108507430897552
 42
6.283185307179585
  0
ELLIPSE
  5
272
330
1F
100
AcDbEntity
  8
1
100
AcDbEllipse
 10
242.776624
 20
316.968372
 30
0.0
 11
0.063077875940012
 21
-3.899489861708437
 31
0.0
210
0.0
220
0.0
230
0.9999999999999998
 40
0.041441
 41
0.0
 42
0.9382313682017732
  0
ELLIPSE
  5
273
330
1F
100
AcDbEntity
  8
1
100
AcDbEllipse
 10
242.776624
 20
316.968372
 30
0.0
 11
0.063077875940012
 21
-3.899489861708437
 31
0.0
210
0.0
220
0.0
230
0.9999999999999998
 40
0.041441
 41
1.459146716439346
 42
6.108507430898067
  0
ELLIPSE
  5
274
330
1F
100
AcDbEntity
  8
1
100
AcDbEllipse
 10
248.985228
 20
161.961466
 30
0.0
 11
0.0287904809574949
 21
-3.999896387183826
 31
0.0
210
0.0
220
0.0
230
1.0
 40
0.043895
 41
2.875176825835099
 42
3.438330986992316
  0
ELLIPSE
  5
275
330
1F
100
AcDbEntity
  8
1
100
AcDbEllipse
 10
249.606846
 20
167.568846
 30
0.0
 11
0.0287904809574949
 21
-3.999896387183826
 31
0.0
210
0.0
220
0.0
230
1.0
 40
0.043895
 41
4.44597315262999
 42
5.009127313787212
  0
ELLIPSE
  5
276
330
1F
100
AcDbEntity
  8
1
100
AcDbEllipse
 10
256.599918
 20
167.619181
 30
0.0
 11
0.0287904809574949
 21
-3.999896387183826
 31
0.0
210
0.0
220
0.0
230
1.0
 40
0.043895
 41
4.445973152629997
 42
5.009127313787216
  0
ELLIPSE
  5
277
330
1F
100
AcDbEntity
  8
1
100
AcDbEllipse
 10
255.9783
 20
223.747772
 30
0.0
 11
-0.1581328490948493
 21
-3.996873028010413
 31
0.0
210
0.0
220
0.0
230
1.0
 40
0.020403
 41
4.132375438019391
 42
4.695529599176599
  0
ELLIPSE
  5
278
330
1F
100
AcDbEntity
  8
1
100
AcDbEllipse
 10
256.599918
 20
239.809052
 30
0.0
 11
-0.1581328490948493
 21
-3.996873028010413
 31
0.0
210
0.0
220
0.0
230
1.0
 40
0.020403
 41
5.703171764814292
 42
6.266325925971496
  0
ELLIPSE
  5
279
330
1F
100
AcDbEntity
  8
1
100
AcDbEllipse
 10
248.985228
 20
224.024447
 30
0.0
 11
-0.1581328490948493
 21
-3.996873028010413
 31
0.0
210
0.0
220
0.0
230
1.0
 40
0.020403
 41
4.132375438019388
 42
4.695529599176599
  0
ELLIPSE
  5
27A
330
1F
100
AcDbEntity
  8
1
100
AcDbEllipse
 10
249.606846
 20
240.085727
 30
0.0
 11
-0.1581328490948493
 21
-3.996873028010413
 31
0.0
210
0.0
220
0.0
230
1.0
 40
0.020403
 41
5.703171764814287
 42
6.266325925971498
  0
ELLIPSE
  5
27B
330
1F
100
AcDbEntity
  8
1
100
AcDbEllipse
 10
249.903268
 20
326.213985
 30
0.0
 11
0.0646952573743713
 21
-3.999476781239423
 31
0.0
210
0.0
220
0.0
230
1.0
 40
0.041441
 41
5.807152721826237
 42
6.196062771512795
  0
SPLINE
  5
27C
330
1F
100
AcDbEntity
  8
1
100
AcDbSpline
210
0.0
220
0.0
230
1.0
 70
    12
 71
     2
 72
     6
 73
     3
 74
     0
 42
0.000000001
 43
0.0000000001
 40
0.0
 40
0.0
 40
0.0
 40
1.0
 40
1.0
 40
1.0
 10
243.5276454785373
 20
321.5995045483611
 30
0.0
 41
0.5000003826623272
 10
243.2359470150995
 20
321.5973448514945
 30
0.0
 41
0.4999996173376728
 10
242.9442482849923
 20
321.5951810734858
 30
0.0
 41
0.5000003826623272
  0
SPLINE
  5
27D
330
1F
100
AcDbEntity
  8
1
100
AcDbSpline
210
0.0
220
0.0
230
1.0
 70
     8
 71
     3
 72
     8
 73
     4
 74
     0
 42
0.000000001
 43
0.0000000001
 40
0.0
 40
0.0
 40
0.0
 40
0.0
 40
1.0
 40
1.0
 40
1.0
 40
1.0
 10
243.8842773654815
 20
214.7317922323175
 30
0.0
 10
243.5709345875893
 20
214.7236288003994
 30
0.0
 10
243.2575915492903
 20
214.7154540141961
 30
0.0
 10
242.9442482849925
 20
214.7072673303791
 30
0.0
  0
SPLINE
  5
27E
330
1F
100
AcDbEntity
  8
1
100
AcDbSpline
210
0.0
220
0.0
230
1.0
 70
     8
 71
     3
 72
     8
 73
     4
 74
     0
 42
0.000000001
 43
0.0000000001
 40
0.0
 40
0.0
 40
0.0
 40
0.0
 40
1.0
 40
1.0
 40
1.0
 40
1.0
 10
243.8842773654815
 20
214.7317922323176
 30
0.0
 10
244.9564215842481
 20
214.7605683737993
 30
0.0
 10
246.028561390987
 20
214.7892273854141
 30
0.0
 10
247.1006955438811
 20
214.8177944604293
 30
0.0
  0
SPLINE
  5
27F
330
1F
100
AcDbEntity
  8
1
100
AcDbSpline
210
0.0
220
0.0
230
1.0
 70
     8
 71
     3
 72
     8
 73
     4
 74
     0
 42
0.000000001
 43
0.0000000001
 40
0.0
 40
0.0
 40
0.0
 40
0.0
 40
1.0
 40
1.0
 40
1.0
 40
1.0
 10
247.1006955438811
 20
214.8177944604292
 30
0.0
 10
247.4422993000233
 20
214.8731971950405
 30
0.0
 10
247.7837678551606
 20
214.9282265900072
 30
0.0
 10
248.1251099454007
 20
214.9827941635812
 30
0.0
  0
SPLINE
  5
280
330
1F
100
AcDbEntity
  8
1
100
AcDbSpline
210
0.0
220
0.0
230
1.0
 70
     8
 71
     3
 72
    10
 73
     6
 74
     0
 42
0.000000001
 43
0.0000000001
 40
0.0
 40
0.0
 40
0.0
 40
0.0
 40
0.5
 40
0.5
 40
1.0
 40
1.0
 40
1.0
 40
1.0
 10
248.1251099454004
 20
214.9827941635831
 30
0.0
 10
248.497856487983
 20
215.0423821105965
 30
0.0
 10
248.8702183552383
 20
215.1021449407894
 30
0.0
 10
249.6140506025563
 20
215.2220758939083
 30
0.0
 10
249.9855216593885
 20
215.2822437091576
 30
0.0
 10
250.3564636270533
 20
215.3426520617881
 30
0.0
  0
SPLINE
  5
281
330
1F
100
AcDbEntity
  8
1
100
AcDbSpline
210
0.0
220
0.0
230
1.0
 70
    12
 71
     2
 72
     6
 73
     3
 74
     0
 42
0.000000001
 43
0.0000000001
 40
0.0
 40
0.0
 40
0.0
 40
1.0
 40
1.0
 40
1.0
 10
244.5276454785376
 20
194.3498269420214
 30
0.0
 41
0.4999998758745989
 10
243.7359477710738
 20
194.3232626550781
 30
0.0
 41
0.5000001241254012
 10
242.9442482849924
 20
194.296717891437
 30
0.0
 41
0.4999998758745989
  0
SPLINE
  5
282
330
1F
100
AcDbEntity
  8
1
100
AcDbSpline
210
0.0
220
0.0
230
1.0
 70
    24
 71
     3
 72
    55
 73
    51
 74
     0
 42
0.000000001
 43
0.0000000001
 40
0.0
 40
0.0
 40
0.0
 40
0.0
 40
0.0913116880169154
 40
0.0913116880169154
 40
0.1141396100211429
 40
0.1141396100211429
 40
0.1369675320253704
 40
0.1369675320253704
 40
0.1826233760338254
 40
0.1826233760338254
 40
0.2054512980380523
 40
0.2054512980380523
 40
0.2282792200422792
 40
0.2282792200422792
 40
0.273935064050733
 40
0.273935064050733
 40
0.2967629860549606
 40
0.2967629860549606
 40
0.3195909080591883
 40
0.3195909080591883
 40
0.3652467520676422
 40
0.3652467520676422
 40
0.4565584400845515
 40
0.4565584400845515
 40
0.4793863620887797
 40
0.4908003230908943
 40
0.4908003230908943
 40
0.5022142840930091
 40
0.5022142840930091
 40
0.547870128101466
 40
0.547870128101466
 40
0.639181816118381
 40
0.639181816118381
 40
0.6848376601268385
 40
0.6848376601268385
 40
0.6962516211289546
 40
0.6962516211289546
 40
0.7076655821310708
 40
0.7076655821310708
 40
0.7304935041353042
 40
0.7304935041353042
 40
0.8218051921522292
 40
0.8218051921522292
 40
0.8674610361606921
 40
0.8674610361606921
 40
0.8902889581649219
 40
0.8902889581649219
 40
0.9131168801691515
 40
0.9131168801691515
 40
1.0
 40
1.0
 40
1.0
 40
1.0
 10
255.9442482849925
 20
275.0019382267993
 30
0.0
 10
255.9442482849925
 20
274.8305929837728
 30
0.0
 10
255.9442482849925
 20
274.6485192503067
 30
0.0
 10
255.9442482849925
 20
274.4075497672638
 30
0.0
 10
255.9442482849925
 20
274.3586832943219
 30
0.0
 10
255.9442482849925
 20
274.2600210185381
 30
0.0
 10
255.9442482849925
 20
274.2101740504079
 30
0.0
 10
255.9442482849925
 20
274.0590922915009
 30
0.0
 10
255.9442482849925
 20
273.9563189143403
 30
0.0
 10
255.9442482849925
 20
273.7990661471438
 30
0.0
 10
255.9442482849925
 20
273.7460751472081
 30
0.0
 10
255.9442482849925
 20
273.6394033435094
 30
0.0
 10
255.9442482849925
 20
273.5857200217113
 30
0.0
 10
255.9442482849925
 20
273.4236338033747
 30
0.0
 10
255.9442482849925
 20
273.3141961718007
 30
0.0
 10
255.9442482849925
 20
273.147965941606
 30
0.0
 10
255.9442482849925
 20
273.0922002418843
 30
0.0
 10
255.9442482849925
 20
272.9800105961446
 30
0.0
 10
255.9442482849925
 20
272.9238411788714
 30
0.0
 10
255.9442482849925
 20
272.755112968218
 30
0.0
 10
255.9442482849925
 20
272.6423345395863
 30
0.0
 10
255.9442482849925
 20
272.3031386128787
 30
0.0
 10
255.9442482849925
 20
272.0758653740916
 30
0.0
 10
255.9442482849925
 20
271.7903306217704
 30
0.0
 10
255.9442482849925
 20
271.70456136942
 30
0.0
 10
255.9442482849925
 20
271.6186266409689
 30
0.0
 10
255.9442482849925
 20
271.5612997193529
 30
0.0
 10
255.9442482849925
 20
271.5325865135936
 30
0.0
 10
255.9442482849925
 20
271.3894159139651
 30
0.0
 10
255.9442482849925
 20
271.2760803731847
 30
0.0
 10
255.9442482849925
 20
270.9395748930906
 30
0.0
 10
255.9442482849925
 20
270.7198865303086
 30
0.0
 10
255.9442482849925
 20
270.3972956255511
 30
0.0
 10
255.9442482849925
 20
270.2909271809996
 30
0.0
 10
255.9442482849925
 20
270.1594541771011
 30
0.0
 10
255.9442482849925
 20
270.1332340605402
 30
0.0
 10
255.9442482849925
 20
270.0809441156147
 30
0.0
 10
255.9442482849925
 20
270.0548757076
 30
0.0
 10
255.9442482849925
 20
269.9772360255137
 30
0.0
 10
255.9442482849925
 20
269.9261154626795
 30
0.0
 10
255.9442482849925
 20
269.6736584053923
 30
0.0
 10
255.9442482849925
 20
269.4817046566813
 30
0.0
 10
255.9442482849925
 20
269.2085046522795
 30
0.0
 10
255.9442482849925
 20
269.1199037873156
 30
0.0
 10
255.9442482849925
 20
268.990762434472
 30
0.0
 10
255.9442482849925
 20
268.9483426563127
 30
0.0
 10
255.9442482849925
 20
268.8647765908227
 30
0.0
 10
255.9442482849925
 20
268.8235649529831
 30
0.0
 10
255.9442482849925
 20
268.6301770203468
 30
0.0
 10
255.9442482849925
 20
268.4900426132107
 30
0.0
 10
255.9442482849925
 20
268.3625072262334
 30
0.0
  0
SPLINE
  5
283
330
1F
100
AcDbEntity
  8
1
100
AcDbSpline
210
0.0
220
0.0
230
1.0
 70
    24
 71
     3
 72
    32
 73
    28
 74
     0
 42
0.000000001
 43
0.0000000001
 40
0.0
 40
0.0
 40
0.0
 40
0.0
 40
0.1249999999999919
 40
0.1249999999999919
 40
0.1874999999999885
 40
0.1874999999999885
 40
0.2187499999999871
 40
0.2187499999999871
 40
0.2499999999999856
 40
0.2499999999999856
 40
0.374999999999987
 40
0.374999999999987
 40
0.4999999999999883
 40
0.4999999999999883
 40
0.562499999999989
 40
0.562499999999989
 40
0.5937499999999907
 40
0.5937499999999907
 40
0.6249999999999925
 40
0.687499999999996
 40
0.687499999999996
 40
0.7187499999999978
 40
0.7187499999999978
 40
0.7499999999999995
 40
0.7499999999999995
 40
0.8749999999999998
 40
1.0
 40
1.0
 40
1.0
 40
1.0
 10
242.9442482849925
 20
270.9141562939246
 30
0.0
 10
242.9442482849925
 20
271.0905917046829
 30
0.0
 10
242.9442482849925
 20
271.269117422045
 30
0.0
 10
242.9442482849925
 20
271.5400523573194
 30
0.0
 10
242.9442482849925
 20
271.6308898146705
 30
0.0
 10
242.9442482849925
 20
271.7679493957326
 30
0.0
 10
242.9442482849925
 20
271.8137699175549
 30
0.0
 10
242.9442482849925
 20
271.9056826025114
 30
0.0
 10
242.9442482849925
 20
271.9517265105693
 30
0.0
 10
242.9442482849925
 20
272.1810546335882
 30
0.0
 10
242.9442482849925
 20
272.36286551669
 30
0.0
 10
242.9442482849925
 20
272.7232850166562
 30
0.0
 10
242.9442482849925
 20
272.9018934228476
 30
0.0
 10
242.9442482849925
 20
273.1673716507206
 30
0.0
 10
242.9442482849925
 20
273.255457568383
 30
0.0
 10
242.9442482849925
 20
273.386961651742
 30
0.0
 10
242.9442482849925
 20
273.4306882525766
 30
0.0
 10
242.9442482849925
 20
273.517479104099
 30
0.0
 10
242.9442482849925
 20
273.646842782369
 30
0.0
 10
242.9442482849925
 20
273.7737521141389
 30
0.0
 10
242.9442482849925
 20
273.8990258378267
 30
0.0
 10
242.9442482849925
 20
273.9405109533755
 30
0.0
 10
242.9442482849925
 20
274.0229333724683
 30
0.0
 10
242.9442482849925
 20
274.0639119385178
 30
0.0
 10
242.9442482849925
 20
274.2668835796931
 30
0.0
 10
242.9442482849924
 20
274.5786986741064
 30
0.0
 10
242.9442482849925
 20
274.8651811668656
 30
0.0
 10
242.9442482849925
 20
275.001938226799
 30
0.0
  0
SPLINE
  5
284
330
1F
100
AcDbEntity
  8
1
100
AcDbSpline
210
0.0
220
0.0
230
1.0
 70
     8
 71
     3
 72
    28
 73
    24
 74
     0
 42
0.000000001
 43
0.0000000001
 40
0.0
 40
0.0
 40
0.0
 40
0.0
 40
0.0674632232258561
 40
0.1840303203226455
 40
0.1840303203226455
 40
0.2423138688710403
 40
0.2714556431452386
 40
0.2714556431452386
 40
0.3005974174194368
 40
0.3005974174194368
 40
0.4171645145162103
 40
0.4171645145162103
 40
0.5337316116129839
 40
0.5337316116129839
 40
0.6502987087097571
 40
0.6502987087097571
 40
0.6794404829839459
 40
0.6794404829839459
 40
0.7085822572581347
 40
0.7668658058065087
 40
0.7668658058065087
 40
0.8834329029032545
 40
1.0
 40
1.0
 40
1.0
 40
1.0
 10
249.5004987989087
 20
268.3419364641574
 30
0.0
 10
249.4983780232852
 20
268.3938201346157
 30
0.0
 10
249.4923358441651
 20
268.5408628754656
 30
0.0
 10
249.4856017054905
 20
268.7027446218155
 30
0.0
 10
249.478783267261
 20
268.8655627973995
 30
0.0
 10
249.475268793387
 20
268.9492290632912
 30
0.0
 10
249.4715938123863
 20
269.0363373889375
 30
0.0
 10
249.469107723046
 20
269.0951838100625
 30
0.0
 10
249.4678456943181
 20
269.1250160482172
 30
0.0
 10
249.4614813981131
 20
269.2752590563358
 30
0.0
 10
249.4561905000185
 20
269.3995374819912
 30
0.0
 10
249.4452222377272
 20
269.6560073284825
 30
0.0
 10
249.4395448409496
 20
269.7881994164242
 30
0.0
 10
249.4278035049519
 20
270.0604981505835
 30
0.0
 10
249.4217395984367
 20
270.2006041271582
 30
0.0
 10
249.4139103669396
 20
270.38084207105
 30
0.0
 10
249.4123298771423
 20
270.4171948084947
 30
0.0
 10
249.4091600203635
 20
270.4900410324523
 30
0.0
 10
249.4043884720555
 20
270.5996010939476
 30
0.0
 10
249.399567237772
 20
270.7100228665112
 30
0.0
 10
249.3898596027331
 20
270.9319966031992
 30
0.0
 10
249.3767426409549
 20
271.2309697260433
 30
0.0
 10
249.3632819029544
 20
271.5359050096931
 30
0.0
 10
249.3564636270533
 20
271.6898972336292
 30
0.0
  0
SPLINE
  5
285
330
1F
100
AcDbEntity
  8
1
100
AcDbSpline
210
0.0
220
0.0
230
1.0
 70
     8
 71
     3
 72
     8
 73
     4
 74
     0
 42
0.000000001
 43
0.0000000001
 40
0.0
 40
0.0
 40
0.0
 40
0.0
 40
1.0
 40
1.0
 40
1.0
 40
1.0
 10
242.9442482849925
 20
270.9141562939246
 30
0.0
 10
243.9964020333502
 20
270.9472534966836
 30
0.0
 10
245.0485515113519
 20
270.9805670528274
 30
0.0
 10
246.1006955438809
 20
271.0141344681762
 30
0.0
  0
SPLINE
  5
286
330
1F
100
AcDbEntity
  8
1
100
AcDbSpline
210
0.0
220
0.0
230
1.0
 70
     8
 71
     3
 72
     8
 73
     4
 74
     0
 42
0.000000001
 43
0.0000000001
 40
0.0
 40
0.0
 40
0.0
 40
0.0
 40
1.0
 40
1.0
 40
1.0
 40
1.0
 10
246.100695543881
 20
271.0141344681762
 30
0.0
 10
246.4422993000236
 20
271.0804716874879
 30
0.0
 10
246.7837678551613
 20
271.1477682806366
 30
0.0
 10
247.1251099454019
 20
271.2159991933955
 30
0.0
  0
SPLINE
  5
287
330
1F
100
AcDbEntity
  8
1
100
AcDbSpline
210
0.0
220
0.0
230
1.0
 70
     8
 71
     3
 72
    10
 73
     6
 74
     0
 42
0.000000001
 43
0.0000000001
 40
0.0
 40
0.0
 40
0.0
 40
0.0
 40
0.5
 40
0.5
 40
1.0
 40
1.0
 40
1.0
 40
1.0
 10
247.1251099454015
 20
271.2159991933979
 30
0.0
 10
247.497856487984
 20
271.2905075460304
 30
0.0
 10
247.870218355239
 20
271.367030840685
 30
0.0
 10
248.6140506025567
 20
271.5247470692406
 30
0.0
 10
248.9855216593887
 20
271.6059364582011
 30
0.0
 10
249.3564636270533
 20
271.6898972336292
 30
0.0
  0
SPLINE
  5
288
330
1F
100
AcDbEntity
  8
1
100
AcDbSpline
210
0.0
220
0.0
230
1.0
 70
    12
 71
     2
 72
     6
 73
     3
 74
     0
 42
0.000000001
 43
0.0000000001
 40
0.0
 40
0.0
 40
0.0
 40
1.0
 40
1.0
 40
1.0
 10
242.9909476028717
 20
174.1892593322631
 30
0.0
 41
0.5000000659944659
 10
242.9675979435059
 20
174.1888090499751
 30
0.0
 41
0.5000000785736705
 10
242.9442482849922
 20
174.1883587915405
 30
0.0
 41
0.5000000935505972
  0
SPLINE
  5
289
330
1F
100
AcDbEntity
  8
1
100
AcDbSpline
210
0.0
220
0.0
230
1.0
 70
    12
 71
     2
 72
     6
 73
     3
 74
     0
 42
0.000000001
 43
0.0000000001
 40
0.0
 40
0.0
 40
0.0
 40
1.0
 40
1.0
 40
1.0
 10
255.9442482849924
 20
309.5122814143666
 30
0.0
 41
0.5000003864305934
 10
255.6525495537873
 20
309.5193617982831
 30
0.0
 41
0.4999996135694066
 10
255.3608510914474
 20
309.5264387398272
 30
0.0
 41
0.5000003864305934
  0
SPLINE
  5
28A
330
1F
100
AcDbEntity
  8
1
100
AcDbSpline
210
0.0
220
0.0
230
1.0
 70
    24
 71
     3
 72
    26
 73
    22
 74
     0
 42
0.000000001
 43
0.0000000001
 40
0.0
 40
0.0
 40
0.0
 40
0.0
 40
0.1524974756710191
 40
0.1524974756710191
 40
0.1789819295563038
 40
0.1789819295563038
 40
0.2054663834415885
 40
0.2584352912121519
 40
0.2584352912121519
 40
0.3643731067532726
 40
0.3643731067532726
 40
0.5762487378355079
 40
0.5762487378355079
 40
0.6292176456060696
 40
0.6292176456060696
 40
0.6557020994913475
 40
0.6557020994913475
 40
0.6821865533766259
 40
0.788124368917753
 40
0.788124368917753
 40
1.0
 40
1.0
 40
1.0
 40
1.0
 10
255.9442482849925
 20
189.2966144506316
 30
0.0
 10
255.9442482849925
 20
189.1385289767461
 30
0.0
 10
255.9442482849924
 20
188.9776961288926
 30
0.0
 10
255.9442482849925
 20
188.7856232023238
 30
0.0
 10
255.9442482849925
 20
188.7570856003444
 30
0.0
 10
255.9442482849925
 20
188.7000056656816
 30
0.0
 10
255.9442482849925
 20
188.6144073864436
 30
0.0
 10
255.9442482849925
 20
188.5288733693976
 30
0.0
 10
255.9442482849925
 20
188.3578897864021
 30
0.0
 10
255.9442482849925
 20
188.2440132105109
 30
0.0
 10
255.9442482849925
 20
187.9027156989408
 30
0.0
 10
255.9442482849925
 20
187.6756250527876
 30
0.0
 10
255.9442482849925
 20
187.3923246689129
 30
0.0
 10
255.9442482849925
 20
187.3356928916722
 30
0.0
 10
255.9442482849925
 20
187.2507883721103
 30
0.0
 10
255.9442482849925
 20
187.2224804341934
 30
0.0
 10
255.9442482849925
 20
187.1660913707717
 30
0.0
 10
255.9442482849925
 20
187.0255616787194
 30
0.0
 10
255.9442482849925
 20
186.8872275495934
 30
0.0
 10
255.9442482849925
 20
186.5593819964928
 30
0.0
 10
255.9442482849922
 20
186.3463355240798
 30
0.0
 10
255.9442482849922
 20
186.138943450631
 30
0.0
  0
SPLINE
  5
28B
330
1F
100
AcDbEntity
  8
1
100
AcDbSpline
210
0.0
220
0.0
230
1.0
 70
     8
 71
     3
 72
    29
 73
    25
 74
     0
 42
0.000000001
 43
0.0000000001
 40
0.0
 40
0.0
 40
0.0
 40
0.0
 40
0.141612988034375
 40
0.141612988034375
 40
0.2832259760687499
 40
0.2832259760687499
 40
0.4248389641031249
 40
0.4248389641031249
 40
0.4602422111117172
 40
0.4602422111117172
 40
0.4956454581203092
 40
0.4956454581203092
 40
0.566451952137493
 40
0.566451952137493
 40
0.708064940171867
 40
0.849677928206241
 40
0.849677928206241
 40
0.9204844222234251
 40
0.9204844222234251
 40
0.9558876692320176
 40
0.9558876692320176
 40
0.9912909162406103
 40
0.9912909162406103
 40
1.0
 40
1.0
 40
1.0
 40
1.0
 10
249.5277596019742
 20
186.1389434506303
 30
0.0
 10
249.5291140521146
 20
186.2787322767665
 30
0.0
 10
249.5301059693279
 20
186.4208108237389
 30
0.0
 10
249.5313906579799
 20
186.7093836507893
 30
0.0
 10
249.5316833529312
 20
186.8558784139537
 30
0.0
 10
249.5315725733243
 20
187.1532648756013
 30
0.0
 10
249.5311691405392
 20
187.3041563102507
 30
0.0
 10
249.5302178252538
 20
187.4955939632814
 30
0.0
 10
249.5300051539187
 20
187.5340230222767
 30
0.0
 10
249.5295344588079
 20
187.6111675816368
 30
0.0
 10
249.5292768997935
 20
187.6497992307021
 30
0.0
 10
249.5284406372131
 20
187.7655002015254
 30
0.0
 10
249.5277974802235
 20
187.8425277165792
 30
0.0
 10
249.5256158346097
 20
188.0732967960496
 30
0.0
 10
249.5220357988232
 20
188.38015459797
 30
0.0
 10
249.5171314232201
 20
188.685366179289
 30
0.0
 10
249.512947483285
 20
188.9136463068148
 30
0.0
 10
249.5114683965187
 20
188.9896347193646
 30
0.0
 10
249.5091204040781
 20
189.103456534394
 30
0.0
 10
249.5083164657789
 20
189.1413520309619
 30
0.0
 10
249.5066748521743
 20
189.2166484676258
 30
0.0
 10
249.5058360635051
 20
189.2541041347865
 30
0.0
 10
249.5047687683963
 20
189.3005364068836
 30
0.0
 10
249.5045569788045
 20
189.3096920170727
 30
0.0
 10
249.5043441168289
 20
189.3188361440966
 30
0.0
  0
SPLINE
  5
28C
330
1F
100
AcDbEntity
  8
1
100
AcDbSpline
210
0.0
220
0.0
230
1.0
 70
    24
 71
     3
 72
    22
 73
    18
 74
     0
 42
0.000000001
 43
0.0000000001
 40
0.0
 40
0.0
 40
0.0
 40
0.0
 40
0.32430686044132
 40
0.32430686044132
 40
0.4053835755516428
 40
0.4053835755516428
 40
0.4864602906619656
 40
0.4864602906619656
 40
0.6486137208826101
 40
0.6486137208826101
 40
0.7296904359929277
 40
0.7296904359929277
 40
0.8107671511032451
 40
0.8107671511032451
 40
0.9729205813238891
 40
0.9729205813238891
 40
1.0
 40
1.0
 40
1.0
 40
1.0
 10
255.9442482849925
 20
298.7293914097536
 30
0.0
 10
255.9442482849925
 20
298.5100233877875
 30
0.0
 10
255.9442482849925
 20
298.2865871842253
 30
0.0
 10
255.9442482849925
 20
298.0022193287465
 30
0.0
 10
255.9442482849925
 20
297.9450922398036
 30
0.0
 10
255.9442482849925
 20
297.8308145427078
 30
0.0
 10
255.9442482849925
 20
297.773603187144
 30
0.0
 10
255.9442482849925
 20
297.6017525322127
 30
0.0
 10
255.9442482849925
 20
297.4868969634229
 30
0.0
 10
255.9442482849925
 20
297.3141788886233
 30
0.0
 10
255.9442482849925
 20
297.2564720606701
 30
0.0
 10
255.9442482849925
 20
297.1412901456282
 30
0.0
 10
255.9442482849925
 20
297.0838109288798
 30
0.0
 10
255.9442482849925
 20
296.9117065689509
 30
0.0
 10
255.9442482849925
 20
296.7974142278817
 30
0.0
 10
255.9442482849925
 20
296.6645541284626
 30
0.0
 10
255.9442482849925
 20
296.645553040098
 30
0.0
 10
255.9442482849925
 20
296.6265644097621
 30
0.0
  0
SPLINE
  5
28D
330
1F
100
AcDbEntity
  8
1
100
AcDbSpline
210
0.0
220
0.0
230
1.0
 70
    24
 71
     3
 72
    32
 73
    28
 74
     0
 42
0.000000001
 43
0.0000000001
 40
0.0
 40
0.0
 40
0.0
 40
0.0
 40
0.1250000000000058
 40
0.1250000000000058
 40
0.1875000000000087
 40
0.1875000000000087
 40
0.2187500000000091
 40
0.2187500000000091
 40
0.2500000000000094
 40
0.2500000000000094
 40
0.3750000000000167
 40
0.3750000000000167
 40
0.5000000000000239
 40
0.5000000000000239
 40
0.5625000000000256
 40
0.5625000000000256
 40
0.5937500000000262
 40
0.5937500000000262
 40
0.6250000000000267
 40
0.6875000000000279
 40
0.6875000000000279
 40
0.7187500000000262
 40
0.7187500000000262
 40
0.7500000000000244
 40
0.7500000000000244
 40
0.875000000000012
 40
1.0
 40
1.0
 40
1.0
 40
1.0
 10
242.9442482849925
 20
294.5534896005454
 30
0.0
 10
242.9442482849925
 20
294.6972044494537
 30
0.0
 10
242.9442482849925
 20
294.8473220930069
 30
0.0
 10
242.9442482849925
 20
295.0821131935841
 30
0.0
 10
242.9442482849925
 20
295.1619837401747
 30
0.0
 10
242.9442482849925
 20
295.2842422785918
 30
0.0
 10
242.9442482849925
 20
295.3254042056141
 30
0.0
 10
242.9442482849925
 20
295.4085570012547
 30
0.0
 10
242.9442482849925
 20
295.4505833283673
 30
0.0
 10
242.9442482849925
 20
295.6613485493518
 30
0.0
 10
242.9442482849925
 20
295.8330574071385
 30
0.0
 10
242.9442482849925
 20
296.1824669865238
 30
0.0
 10
242.9442482849925
 20
296.3601681851997
 30
0.0
 10
242.9442482849925
 20
296.6312689991132
 30
0.0
 10
242.9442482849925
 20
296.7223961808864
 30
0.0
 10
242.9442482849925
 20
296.8602539834858
 30
0.0
 10
242.9442482849925
 20
296.906429457741
 30
0.0
 10
242.9442482849925
 20
296.9986983496024
 30
0.0
 10
242.9442482849925
 20
297.1371460577817
 30
0.0
 10
242.9442482849925
 20
297.2757261113662
 30
0.0
 10
242.9442482849925
 20
297.4143943216692
 30
0.0
 10
242.9442482849925
 20
297.4606317616721
 30
0.0
 10
242.9442482849925
 20
297.5531361633026
 30
0.0
 10
242.9442482849925
 20
297.5994449143552
 30
0.0
 10
242.9442482849925
 20
297.8305571286938
 30
0.0
 10
242.9442482849924
 20
298.1960212307567
 30
0.0
 10
242.9442482849926
 20
298.5530421228998
 30
0.0
 10
242.9442482849926
 20
298.7293914097531
 30
0.0
  0
SPLINE
  5
28E
330
1F
100
AcDbEntity
  8
1
100
AcDbSpline
210
0.0
220
0.0
230
1.0
 70
     8
 71
     3
 72
     8
 73
     4
 74
     0
 42
0.000000001
 43
0.0000000001
 40
0.0
 40
0.0
 40
0.0
 40
0.0
 40
1.0
 40
1.0
 40
1.0
 40
1.0
 10
243.4953993224258
 20
294.5670974460319
 30
0.0
 10
243.3116823922613
 20
294.5625525598913
 30
0.0
 10
243.1279653774718
 20
294.5580166577668
 30
0.0
 10
242.9442482849925
 20
294.5534896005454
 30
0.0
  0
SPLINE
  5
28F
330
1F
100
AcDbEntity
  8
1
100
AcDbSpline
210
0.0
220
0.0
230
1.0
 70
     8
 71
     3
 72
    25
 73
    21
 74
     0
 42
0.000000001
 43
0.0000000001
 40
0.0
 40
0.0
 40
0.0
 40
0.0
 40
0.1250000000000119
 40
0.2500000000000239
 40
0.2500000000000239
 40
0.2812500000000246
 40
0.2812500000000246
 40
0.3125000000000254
 40
0.3750000000000286
 40
0.3750000000000286
 40
0.5000000000000247
 40
0.5000000000000247
 40
0.6250000000000206
 40
0.6250000000000206
 40
0.687500000000015
 40
0.687500000000015
 40
0.7500000000000091
 40
0.7500000000000091
 40
0.8750000000000046
 40
1.0
 40
1.0
 40
1.0
 40
1.0
 10
247.1006955438811
 20
214.8177944604293
 30
0.0
 10
247.1031030598259
 20
214.8064549617815
 30
0.0
 10
247.1086853094013
 20
214.7750798976571
 30
0.0
 10
247.1142564006533
 20
214.726452425972
 30
0.0
 10
247.1176413330409
 20
214.6905793445257
 30
0.0
 10
247.1183156821525
 20
214.6831220467862
 30
0.0
 10
247.119656285671
 20
214.6677175307896
 30
0.0
 10
247.1216569316274
 20
214.6438635828185
 30
0.0
 10
247.1236519563643
 20
214.6177934665905
 30
0.0
 10
247.1277522043032
 20
214.5627474304183
 30
0.0
 10
247.1306469858701
 20
214.5221823530896
 30
0.0
 10
247.1376011260264
 20
214.4334246548756
 30
0.0
 10
247.1415143625781
 20
214.3852283025106
 30
0.0
 10
247.1473997008682
 20
214.3071061851468
 30
0.0
 10
247.149368370316
 20
214.2800927661306
 30
0.0
 10
247.1532666463319
 20
214.2240851646648
 30
0.0
 10
247.1551988089427
 20
214.1950442550649
 30
0.0
 10
247.1608676681884
 20
214.105647074302
 30
0.0
 10
247.1680765168921
 20
213.9800127689369
 30
0.0
 10
247.1753280990025
 20
213.8416474305833
 30
0.0
 10
247.1794564720674
 20
213.769239980844
 30
0.0
  0
SPLINE
  5
290
330
1F
100
AcDbEntity
  8
1
100
AcDbSpline
210
0.0
220
0.0
230
1.0
 70
     8
 71
     3
 72
    25
 73
    21
 74
     0
 42
0.000000001
 43
0.0000000001
 40
0.0
 40
0.0
 40
0.0
 40
0.0
 40
0.129707992393848
 40
0.2594159847876961
 40
0.2594159847876961
 40
0.291842982886155
 40
0.291842982886155
 40
0.324269980984614
 40
0.3891239771815388
 40
0.3891239771815388
 40
0.5188319695753887
 40
0.5188319695753887
 40
0.6485399619692386
 40
0.6485399619692386
 40
0.7133939581661659
 40
0.7133939581661659
 40
0.7782479543630933
 40
0.7782479543630933
 40
0.9079559467569467
 40
1.0
 40
1.0
 40
1.0
 40
1.0
 10
246.1006955438811
 20
271.0141344681762
 30
0.0
 10
246.1031030598259
 20
270.9369839926489
 30
0.0
 10
246.1086853094013
 20
270.7782210617885
 30
0.0
 10
246.1142564006532
 20
270.6105731138765
 30
0.0
 10
246.1176413330408
 20
270.5029684720662
 30
0.0
 10
246.1183156821524
 20
270.4812840664476
 30
0.0
 10
246.1196562856709
 20
270.4378063936578
 30
0.0
 10
246.1216569316271
 20
270.3723859966562
 30
0.0
 10
246.1236519563643
 20
270.3063616018848
 30
0.0
 10
246.1277522043031
 20
270.1735244013393
 30
0.0
 10
246.1306469858702
 20
270.0839173066757
 30
0.0
 10
246.1376011260265
 20
269.9026599537203
 30
0.0
 10
246.1415143625782
 20
269.8110042777117
 30
0.0
 10
246.1473997008682
 20
269.6719334155782
 30
0.0
 10
246.1493683703161
 20
269.6253116386635
 30
0.0
 10
246.153266646332
 20
269.5315272194363
 30
0.0
 10
246.1551988089426
 20
269.4842954355265
 30
0.0
 10
246.1608676681884
 20
269.3429568368585
 30
0.0
 10
246.1670298827027
 20
269.1821023504709
 30
0.0
 10
246.1732233227114
 20
269.02166910374
 30
0.0
 10
246.1759752308695
 20
268.9551574968693
 30
0.0
  0
SPLINE
  5
291
330
1F
100
AcDbEntity
  8
1
100
AcDbSpline
210
0.0
220
0.0
230
1.0
 70
    24
 71
     3
 72
    74
 73
    70
 74
     0
 42
0.000000001
 43
0.0000000001
 40
0.0
 40
0.0
 40
0.0
 40
0.0
 40
0.0624999999999754
 40
0.0624999999999754
 40
0.0781249999999721
 40
0.0781249999999721
 40
0.0937499999999687
 40
0.0937499999999687
 40
0.1249999999999657
 40
0.1249999999999657
 40
0.1406249999999626
 40
0.1406249999999626
 40
0.1562499999999594
 40
0.1562499999999594
 40
0.1874999999999496
 40
0.1874999999999496
 40
0.203124999999943
 40
0.203124999999943
 40
0.2187499999999364
 40
0.2187499999999364
 40
0.2499999999999227
 40
0.2499999999999227
 40
0.3124999999998979
 40
0.3124999999998979
 40
0.3281249999998918
 40
0.3359374999998899
 40
0.3359374999998899
 40
0.3437499999998881
 40
0.3437499999998881
 40
0.3749999999998867
 40
0.3749999999998867
 40
0.4374999999998862
 40
0.4374999999998862
 40
0.468749999999886
 40
0.468749999999886
 40
0.4765624999998858
 40
0.4765624999998858
 40
0.4843749999998858
 40
0.4843749999998858
 40
0.4999999999998872
 40
0.4999999999998872
 40
0.5624999999998926
 40
0.5624999999998926
 40
0.5937499999998952
 40
0.5937499999998952
 40
0.6093749999998966
 40
0.6093749999998966
 40
0.6249999999998977
 40
0.6249999999998977
 40
0.6874999999999027
 40
0.7499999999999076
 40
0.7499999999999076
 40
0.7578124999999095
 40
0.7578124999999095
 40
0.7656249999999117
 40
0.7812499999999175
 40
0.7812499999999175
 40
0.8124999999999294
 40
0.8124999999999294
 40
0.8749999999999534
 40
0.8749999999999534
 40
0.8906249999999593
 40
0.8906249999999593
 40
0.8984374999999621
 40
0.8984374999999621
 40
0.9062499999999651
 40
0.9374999999999767
 40
0.9374999999999767
 40
1.0
 40
1.0
 40
1.0
 40
1.0
 10
255.9442482849925
 20
216.7072169422592
 30
0.0
 10
255.9442482849925
 20
216.7073723265447
 30
0.0
 10
255.9442482849925
 20
216.6898746354005
 30
0.0
 10
255.9442482849925
 20
216.6459909650972
 30
0.0
 10
255.9442482849925
 20
216.6361047720393
 30
0.0
 10
255.9442482849925
 20
216.6142023415988
 30
0.0
 10
255.9442482849925
 20
216.6021774574504
 30
0.0
 10
255.9442482849925
 20
216.5628956110597
 30
0.0
 10
255.9442482849925
 20
216.5324361758509
 30
0.0
 10
255.9442482849925
 20
216.4803097550945
 30
0.0
 10
255.9442482849925
 20
216.461838576425
 30
0.0
 10
255.9442482849925
 20
216.4228598659243
 30
0.0
 10
255.9442482849925
 20
216.4023539915322
 30
0.0
 10
255.9442482849925
 20
216.3378043865868
 30
0.0
 10
255.9442482849925
 20
216.2907331155197
 30
0.0
 10
255.9442482849925
 20
216.2140585091422
 30
0.0
 10
255.9442482849925
 20
216.1874831849521
 30
0.0
 10
255.9442482849925
 20
216.1323116735731
 30
0.0
 10
255.9442482849925
 20
216.1038409765525
 30
0.0
 10
255.9442482849925
 20
216.015819431502
 30
0.0
 10
255.9442482849925
 20
215.9536629682644
 30
0.0
 10
255.9442482849925
 20
215.7569834744104
 30
0.0
 10
255.9442482849925
 20
215.6123084713894
 30
0.0
 10
255.9442482849925
 20
215.4143434502267
 30
0.0
 10
255.9442482849925
 20
215.3536628925424
 30
0.0
 10
255.9442482849925
 20
215.2910192299289
 30
0.0
 10
255.9442482849925
 20
215.2488166255761
 30
0.0
 10
255.9442482849925
 20
215.227471696444
 30
0.0
 10
255.9442482849925
 20
215.1200050014433
 30
0.0
 10
255.9442482849925
 20
215.0316235637776
 30
0.0
 10
255.9442482849925
 20
214.7594588800577
 30
0.0
 10
255.9442482849925
 20
214.5686944957836
 30
0.0
 10
255.9442482849925
 20
214.2686287813641
 30
0.0
 10
255.9442482849925
 20
214.1662771605584
 30
0.0
 10
255.9442482849925
 20
214.0353548465624
 30
0.0
 10
255.9442482849925
 20
214.0090210305543
 30
0.0
 10
255.9442482849925
 20
213.9560520457857
 30
0.0
 10
255.9442482849925
 20
213.929417660737
 30
0.0
 10
255.9442482849925
 20
213.8494101811972
 30
0.0
 10
255.9442482849925
 20
213.795817345205
 30
0.0
 10
255.9442482849925
 20
213.52660063895
 30
0.0
 10
255.9442482849925
 20
213.3072408996471
 30
0.0
 10
255.9442482849925
 20
212.9723360926232
 30
0.0
 10
255.9442482849925
 20
212.8597193635615
 30
0.0
 10
255.9442482849925
 20
212.6892971964025
 30
0.0
 10
255.9442482849925
 20
212.6322400235321
 30
0.0
 10
255.9442482849925
 20
212.5176186199332
 30
0.0
 10
255.9442482849925
 20
212.4599573606027
 30
0.0
 10
255.9442482849925
 20
212.1727057430082
 30
0.0
 10
255.9442482849925
 20
211.7169094056586
 30
0.0
 10
255.9442482849925
 20
211.2684700455392
 30
0.0
 10
255.9442482849925
 20
211.0183672530934
 30
0.0
 10
255.9442482849925
 20
210.990578470786
 30
0.0
 10
255.9442482849925
 20
210.935224003768
 30
0.0
 10
255.9442482849925
 20
210.8525539550632
 30
0.0
 10
255.9442482849925
 20
210.7709587248904
 30
0.0
 10
255.9442482849925
 20
210.6091807529811
 30
0.0
 10
255.9442482849925
 20
210.5032100487336
 30
0.0
 10
255.9442482849925
 20
210.1908544228272
 30
0.0
 10
255.9442482849925
 20
209.9899937649875
 30
0.0
 10
255.9442482849925
 20
209.7483331358243
 30
0.0
 10
255.9442482849925
 20
209.7004743343968
 30
0.0
 10
255.9442482849925
 20
209.6294077765122
 30
0.0
 10
255.9442482849925
 20
209.6058281546419
 30
0.0
 10
255.9442482849925
 20
209.5590870233046
 30
0.0
 10
255.9442482849925
 20
209.4431756457176
 30
0.0
 10
255.9442482849925
 20
209.3319305676555
 30
0.0
 10
255.9442482849925
 20
209.0737760172466
 30
0.0
 10
255.9442482849922
 20
208.9133989268162
 30
0.0
 10
255.9442482849922
 20
208.7650393098485
 30
0.0
  0
SPLINE
  5
292
330
1F
100
AcDbEntity
  8
1
100
AcDbSpline
210
0.0
220
0.0
230
1.0
 70
    24
 71
     3
 72
    32
 73
    28
 74
     0
 42
0.000000001
 43
0.0000000001
 40
0.0
 40
0.0
 40
0.0
 40
0.0
 40
0.1249999999999767
 40
0.1249999999999767
 40
0.1874999999999681
 40
0.1874999999999681
 40
0.2187499999999671
 40
0.2187499999999671
 40
0.2499999999999661
 40
0.2499999999999661
 40
0.3749999999999605
 40
0.3749999999999605
 40
0.4999999999999549
 40
0.4999999999999549
 40
0.5624999999999516
 40
0.5624999999999516
 40
0.5937499999999542
 40
0.5937499999999542
 40
0.6249999999999569
 40
0.6874999999999619
 40
0.6874999999999619
 40
0.7187499999999642
 40
0.7187499999999642
 40
0.7499999999999663
 40
0.7499999999999663
 40
0.8749999999999831
 40
1.0
 40
1.0
 40
1.0
 40
1.0
 10
242.9442482849925
 20
214.7072673303791
 30
0.0
 10
242.9442482849924
 20
214.8596455434831
 30
0.0
 10
242.9442482849925
 20
215.0052891848052
 30
0.0
 10
242.9442482849925
 20
215.2136418046903
 30
0.0
 10
242.9442482849925
 20
215.2814025687423
 30
0.0
 10
242.9442482849925
 20
215.3804639024218
 30
0.0
 10
242.9442482849925
 20
215.4130540685289
 30
0.0
 10
242.9442482849925
 20
215.4773625054238
 30
0.0
 10
242.9442482849925
 20
215.5091042950845
 30
0.0
 10
242.9442482849925
 20
215.6645387993714
 30
0.0
 10
242.9442482849925
 20
215.7793016156826
 30
0.0
 10
242.9442482849925
 20
215.9902813473566
 30
0.0
 10
242.9442482849925
 20
216.0864967860785
 30
0.0
 10
242.9442482849925
 20
216.216739918156
 30
0.0
 10
242.9442482849925
 20
216.2578012036074
 30
0.0
 10
242.9442482849925
 20
216.3157809632933
 30
0.0
 10
242.9442482849925
 20
216.3345142990705
 30
0.0
 10
242.9442482849925
 20
216.3705771052907
 30
0.0
 10
242.9442482849925
 20
216.4226378437513
 30
0.0
 10
242.9442482849925
 20
216.4686332637828
 30
0.0
 10
242.9442482849925
 20
216.5105885090357
 30
0.0
 10
242.9442482849925
 20
216.5238997494576
 30
0.0
 10
242.9442482849925
 20
216.5491692701933
 30
0.0
 10
242.9442482849925
 20
216.5611375632256
 30
0.0
 10
242.9442482849925
 20
216.6174520777421
 30
0.0
 10
242.9442482849923
 20
216.6847279522131
 30
0.0
 10
242.9442482849925
 20
216.7073418552145
 30
0.0
 10
242.9442482849925
 20
216.7072169422592
 30
0.0
  0
SPLINE
  5
293
330
1F
100
AcDbEntity
  8
1
100
AcDbSpline
210
0.0
220
0.0
230
1.0
 70
     8
 71
     3
 72
    49
 73
    45
 74
     0
 42
0.000000001
 43
0.0000000001
 40
0.0
 40
0.0
 40
0.0
 40
0.0
 40
0.0624999999999952
 40
0.0624999999999952
 40
0.1249999999999903
 40
0.1874999999999855
 40
0.1874999999999855
 40
0.2031249999999835
 40
0.2031249999999835
 40
0.2187499999999815
 40
0.2187499999999815
 40
0.2499999999999785
 40
0.2499999999999785
 40
0.3124999999999751
 40
0.3749999999999717
 40
0.3749999999999717
 40
0.4062499999999686
 40
0.4062499999999686
 40
0.4218749999999668
 40
0.4218749999999668
 40
0.4374999999999651
 40
0.4374999999999651
 40
0.4999999999999585
 40
0.5624999999999522
 40
0.5624999999999522
 40
0.5937499999999504
 40
0.5937499999999504
 40
0.6093749999999511
 40
0.6093749999999511
 40
0.6249999999999517
 40
0.6249999999999517
 40
0.6874999999999602
 40
0.6874999999999602
 40
0.749999999999969
 40
0.749999999999969
 40
0.8124999999999774
 40
0.8124999999999774
 40
0.828124999999979
 40
0.828124999999979
 40
0.8437499999999806
 40
0.8749999999999836
 40
0.8749999999999836
 40
0.9374999999999907
 40
1.0
 40
1.0
 40
1.0
 40
1.0
 10
250.5277596019741
 20
208.765039309848
 30
0.0
 10
250.5291140521146
 20
208.8650383906087
 30
0.0
 10
250.5301059693279
 20
208.970308763154
 30
0.0
 10
250.5313906579799
 20
209.191015209354
 30
0.0
 10
250.5319760061095
 20
209.4218901883285
 30
0.0
 10
250.5311691405392
 20
209.6730081965323
 30
0.0
 10
250.5302178252538
 20
209.8364567627535
 30
0.0
 10
250.5300051539187
 20
209.8694722962562
 30
0.0
 10
250.5295344588078
 20
209.9361627956321
 30
0.0
 10
250.5292768997935
 20
209.969765715614
 30
0.0
 10
250.5284406372131
 20
210.0710184710945
 30
0.0
 10
250.5277974802235
 20
210.1392432788367
 30
0.0
 10
250.5256158346096
 20
210.3460463403366
 30
0.0
 10
250.5220357988232
 20
210.6274492289944
 30
0.0
 10
250.5171314232201
 20
210.9200310385928
 30
0.0
 10
250.512947483285
 20
211.1437357212903
 30
0.0
 10
250.5114683965186
 20
211.2190167186657
 30
0.0
 10
250.5091204040781
 20
211.333030178293
 30
0.0
 10
250.508316465779
 20
211.3711991836604
 30
0.0
 10
250.5066748521743
 20
211.4474567699939
 30
0.0
 10
250.5058360635051
 20
211.485600023006
 30
0.0
 10
250.5015531666697
 20
211.676387818665
 30
0.0
 10
250.4941326801187
 20
211.9821049209758
 30
0.0
 10
250.4856017054905
 20
212.2887150054187
 30
0.0
 10
250.478783267261
 20
212.5190104720396
 30
0.0
 10
250.4764402846783
 20
212.5958320535914
 30
0.0
 10
250.4728188121574
 20
212.7111504672567
 30
0.0
 10
250.4715938123863
 20
212.7496042860644
 30
0.0
 10
250.469107723046
 20
212.8265409447432
 30
0.0
 10
250.4678456943181
 20
212.8650504963791
 30
0.0
 10
250.4614813981131
 20
213.0565652534798
 30
0.0
 10
250.4561905000184
 20
213.2073177722701
 30
0.0
 10
250.4452222377272
 20
213.5040578162143
 30
0.0
 10
250.4395448409496
 20
213.6500449396551
 30
0.0
 10
250.4278035049519
 20
213.9372532516463
 30
0.0
 10
250.4217395984367
 20
214.0784748434376
 30
0.0
 10
250.4139103669396
 20
214.251927454054
 30
0.0
 10
250.4123298771423
 20
214.2865094754507
 30
0.0
 10
250.4091600203635
 20
214.355008535376
 30
0.0
 10
250.4043884720555
 20
214.45683927189
 30
0.0
 10
250.399567237772
 20
214.5559494893878
 30
0.0
 10
250.3898596027331
 20
214.750601782176
 30
0.0
 10
250.3767426409549
 20
215.0006411334842
 30
0.0
 10
250.3632819029544
 20
215.2318572707864
 30
0.0
 10
250.3564636270533
 20
215.3426520617881
 30
0.0
  0
SPLINE
  5
294
330
1F
100
AcDbEntity
  8
1
100
AcDbSpline
210
0.0
220
0.0
230
1.0
 70
     8
 71
     3
 72
    25
 73
    21
 74
     0
 42
0.000000001
 43
0.0000000001
 40
0.0
 40
0.0
 40
0.0
 40
0.0
 40
0.1249999999999905
 40
0.2499999999999809
 40
0.2499999999999809
 40
0.2812499999999853
 40
0.2812499999999853
 40
0.3124999999999897
 40
0.3749999999999849
 40
0.3749999999999849
 40
0.499999999999988
 40
0.499999999999988
 40
0.624999999999991
 40
0.624999999999991
 40
0.6874999999999925
 40
0.6874999999999925
 40
0.749999999999994
 40
0.749999999999994
 40
0.8749999999999969
 40
1.0
 40
1.0
 40
1.0
 40
1.0
 10
252.7878010261038
 20
242.7723014842366
 30
0.0
 10
252.7853935101591
 20
242.7238693162285
 30
0.0
 10
252.7798112605833
 20
242.6198033426122
 30
0.0
 10
252.7742401693317
 20
242.501431882392
 30
0.0
 10
252.7708552369441
 20
242.422903921875
 30
0.0
 10
252.7701808878325
 20
242.4069541390184
 30
0.0
 10
252.768840284314
 20
242.3747268490167
 30
0.0
 10
252.7668396383575
 20
242.3258653806432
 30
0.0
 10
252.7648446136209
 20
242.2754603842475
 30
0.0
 10
252.7607443656819
 20
242.1726284807304
 30
0.0
 10
252.7578495841149
 20
242.1013828897731
 30
0.0
 10
252.7508954439586
 20
241.9535987543967
 30
0.0
 10
252.7469822074067
 20
241.8770552024565
 30
0.0
 10
252.7410968691166
 20
241.7581815450592
 30
0.0
 10
252.7391281996686
 20
241.7178796666388
 30
0.0
 10
252.7352299236528
 20
241.6358957765982
 30
0.0
 10
252.7332977610424
 20
241.5941503479106
 30
0.0
 10
252.7276289017965
 20
241.4678644704534
 30
0.0
 10
252.7204200530928
 20
241.2961108619222
 30
0.0
 10
252.7131684709824
 20
241.117704848392
 30
0.0
 10
252.7090400979175
 20
241.0268278129198
 30
0.0
  0
SPLINE
  5
295
330
1F
100
AcDbEntity
  8
1
100
AcDbSpline
210
0.0
220
0.0
230
1.0
 70
    12
 71
     2
 72
     6
 73
     3
 74
     0
 42
0.000000001
 43
0.0000000001
 40
0.0
 40
0.0
 40
0.0
 40
1.0
 40
1.0
 40
1.0
 10
244.5276454785376
 20
286.1983021176355
 30
0.0
 41
0.4999999702567259
 10
243.7359477710736
 20
286.1690698929261
 30
0.0
 41
0.5000000297432742
 10
242.9442482849924
 20
286.1398214081265
 30
0.0
 41
0.4999999702567259
  0
SPLINE
  5
296
330
1F
100
AcDbEntity
  8
1
100
AcDbSpline
210
0.0
220
0.0
230
1.0
 70
    24
 71
     3
 72
    34
 73
    30
 74
     0
 42
0.000000001
 43
0.0000000001
 40
0.0
 40
0.0
 40
0.0
 40
0.0
 40
0.1250000000000138
 40
0.1250000000000138
 40
0.1562500000000152
 40
0.1562500000000152
 40
0.1875000000000165
 40
0.1875000000000165
 40
0.2500000000000193
 40
0.312500000000022
 40
0.312500000000022
 40
0.3750000000000248
 40
0.3750000000000248
 40
0.5000000000000302
 40
0.5000000000000302
 40
0.5312500000000272
 40
0.5312500000000272
 40
0.5625000000000242
 40
0.6250000000000182
 40
0.6250000000000182
 40
0.7500000000000063
 40
0.7500000000000063
 40
0.8125000000000021
 40
0.8125000000000021
 40
0.8437500000000019
 40
0.8437500000000019
 40
0.8750000000000015
 40
0.8750000000000015
 40
1.0
 40
1.0
 40
1.0
 40
1.0
 10
255.9442482849925
 20
245.9890140141304
 30
0.0
 10
255.9442482849925
 20
245.9143622101156
 30
0.0
 10
255.9442482849925
 20
245.8298281870767
 30
0.0
 10
255.9442482849925
 20
245.7119028276799
 30
0.0
 10
255.9442482849925
 20
245.6877027075686
 30
0.0
 10
255.9442482849925
 20
245.6380660859305
 30
0.0
 10
255.9442482849925
 20
245.6126174435722
 30
0.0
 10
255.9442482849925
 20
245.5346682423366
 30
0.0
 10
255.9442482849925
 20
245.4263136065775
 30
0.0
 10
255.9442482849925
 20
245.3091698097764
 30
0.0
 10
255.9442482849925
 20
245.1876097605918
 30
0.0
 10
255.9442482849925
 20
245.1245589046263
 30
0.0
 10
255.9442482849925
 20
244.9300172147968
 30
0.0
 10
255.9442482849925
 20
244.7927945961023
 30
0.0
 10
255.9442482849925
 20
244.6118096996366
 30
0.0
 10
255.9442482849925
 20
244.5751488502895
 30
0.0
 10
255.9442482849925
 20
244.5012591321075
 30
0.0
 10
255.9442482849925
 20
244.3894337015662
 30
0.0
 10
255.9442482849925
 20
244.27467469326
 30
0.0
 10
255.9442482849925
 20
244.0413065101764
 30
0.0
 10
255.9442482849925
 20
243.8806080456771
 30
0.0
 10
255.9442482849925
 20
243.6318673962114
 30
0.0
 10
255.9442482849925
 20
243.5476682244064
 30
0.0
 10
255.9442482849925
 20
243.4194069932995
 30
0.0
 10
255.9442482849925
 20
243.3763259389511
 30
0.0
 10
255.9442482849925
 20
243.2895006198956
 30
0.0
 10
255.9442482849925
 20
243.2457317401586
 30
0.0
 10
255.9442482849925
 20
243.0267317196397
 30
0.0
 10
255.9442482849925
 20
242.8498672087439
 30
0.0
 10
255.9442482849925
 20
242.6713919373876
 30
0.0
  0
SPLINE
  5
297
330
1F
100
AcDbEntity
  8
1
100
AcDbSpline
210
0.0
220
0.0
230
1.0
 70
    24
 71
     3
 72
    70
 73
    66
 74
     0
 42
0.000000001
 43
0.0000000001
 40
0.0
 40
0.0
 40
0.0
 40
0.0
 40
0.0624999999999843
 40
0.0624999999999843
 40
0.1249999999999686
 40
0.1249999999999686
 40
0.1328124999999674
 40
0.1328124999999674
 40
0.1406249999999662
 40
0.1406249999999662
 40
0.1562499999999669
 40
0.1562499999999669
 40
0.1874999999999652
 40
0.1874999999999652
 40
0.2499999999999645
 40
0.2499999999999645
 40
0.2656249999999636
 40
0.2734374999999634
 40
0.2734374999999634
 40
0.2812499999999631
 40
0.2812499999999631
 40
0.3124999999999659
 40
0.3124999999999659
 40
0.3749999999999694
 40
0.3749999999999694
 40
0.4062499999999706
 40
0.4062499999999706
 40
0.4218749999999711
 40
0.4218749999999711
 40
0.4374999999999715
 40
0.4374999999999715
 40
0.4999999999999736
 40
0.4999999999999736
 40
0.5312499999999747
 40
0.5312499999999747
 40
0.5468749999999753
 40
0.5468749999999753
 40
0.5624999999999761
 40
0.5624999999999761
 40
0.624999999999978
 40
0.624999999999978
 40
0.6874999999999801
 40
0.6874999999999801
 40
0.6953124999999803
 40
0.6953124999999803
 40
0.7031249999999803
 40
0.7187499999999805
 40
0.7187499999999805
 40
0.7499999999999807
 40
0.7499999999999807
 40
0.8124999999999813
 40
0.8124999999999813
 40
0.8281249999999833
 40
0.8281249999999833
 40
0.8437499999999852
 40
0.8437499999999852
 40
0.8749999999999864
 40
0.8749999999999864
 40
0.8906249999999886
 40
0.8906249999999886
 40
0.9062499999999907
 40
0.9062499999999907
 40
0.9374999999999948
 40
0.9374999999999948
 40
1.0
 40
1.0
 40
1.0
 40
1.0
 10
242.9442482849925
 20
237.5586257054277
 30
0.0
 10
242.9442482849925
 20
237.6223625810769
 30
0.0
 10
242.9442482849925
 20
237.7022368733515
 30
0.0
 10
242.9442482849925
 20
237.8929142665606
 30
0.0
 10
242.9442482849925
 20
238.0037201402969
 30
0.0
 10
242.9442482849925
 20
238.1462602115626
 30
0.0
 10
242.9442482849925
 20
238.1623478227986
 30
0.0
 10
242.9442482849925
 20
238.195026924158
 30
0.0
 10
242.9442482849925
 20
238.2116365096219
 30
0.0
 10
242.9442482849925
 20
238.2620796296154
 30
0.0
 10
242.9442482849925
 20
238.2965018032574
 30
0.0
 10
242.9442482849925
 20
238.4021093267187
 30
0.0
 10
242.9442482849925
 20
238.4756322485184
 30
0.0
 10
242.9442482849925
 20
238.7053713325705
 30
0.0
 10
242.9442482849925
 20
238.8707053943095
 30
0.0
 10
242.9442482849925
 20
239.0927852908501
 30
0.0
 10
242.9442482849925
 20
239.1605714532721
 30
0.0
 10
242.9442482849925
 20
239.2301258277528
 30
0.0
 10
242.9442482849925
 20
239.2768919956078
 30
0.0
 10
242.9442482849925
 20
239.30048666116
 30
0.0
 10
242.9442482849925
 20
239.4189501762127
 30
0.0
 10
242.9442482849925
 20
239.5156577786567
 30
0.0
 10
242.9442482849925
 20
239.8114340097517
 30
0.0
 10
242.9442482849925
 20
240.0161243746411
 30
0.0
 10
242.9442482849925
 20
240.3343959917514
 30
0.0
 10
242.9442482849925
 20
240.4423671500687
 30
0.0
 10
242.9442482849925
 20
240.6072169311724
 30
0.0
 10
242.9442482849925
 20
240.662762463984
 30
0.0
 10
242.9442482849925
 20
240.7739833227551
 30
0.0
 10
242.9442482849925
 20
240.8297163988118
 30
0.0
 10
242.9442482849925
 20
241.108985708129
 30
0.0
 10
242.9442482849925
 20
241.3343232610792
 30
0.0
 10
242.9442482849925
 20
241.6751643072594
 30
0.0
 10
242.9442482849925
 20
241.7892524951515
 30
0.0
 10
242.9442482849925
 20
241.9611092219484
 30
0.0
 10
242.9442482849925
 20
242.0185156704904
 30
0.0
 10
242.9442482849925
 20
242.1335740994394
 30
0.0
 10
242.9442482849925
 20
242.191283335802
 30
0.0
 10
242.9442482849925
 20
242.4779798177279
 30
0.0
 10
242.9442482849925
 20
242.703325559217
 30
0.0
 10
242.9442482849925
 20
243.1462467681695
 30
0.0
 10
242.9442482849925
 20
243.3638225136025
 30
0.0
 10
242.9442482849925
 20
243.604055202153
 30
0.0
 10
242.9442482849925
 20
243.630707746887
 30
0.0
 10
242.9442482849925
 20
243.6836716732144
 30
0.0
 10
242.9442482849925
 20
243.7626658826782
 30
0.0
 10
242.9442482849925
 20
243.8403173996589
 30
0.0
 10
242.9442482849925
 20
243.9938550919456
 30
0.0
 10
242.9442482849925
 20
244.093862318992
 30
0.0
 10
242.9442482849925
 20
244.3869328431957
 30
0.0
 10
242.9442482849925
 20
244.5730856350012
 30
0.0
 10
242.9442482849925
 20
244.7939738843701
 30
0.0
 10
242.9442482849925
 20
244.8375581626788
 30
0.0
 10
242.9442482849925
 20
244.9235197732783
 30
0.0
 10
242.9442482849925
 20
244.965760038831
 30
0.0
 10
242.9442482849925
 20
245.0899523278437
 30
0.0
 10
242.9442482849925
 20
245.1695167071532
 30
0.0
 10
242.9442482849925
 20
245.2840292151683
 30
0.0
 10
242.9442482849925
 20
245.3213934856936
 30
0.0
 10
242.9442482849925
 20
245.3945000906182
 30
0.0
 10
242.9442482849925
 20
245.430260519083
 30
0.0
 10
242.9442482849925
 20
245.5345439531092
 30
0.0
 10
242.9442482849925
 20
245.6002639062455
 30
0.0
 10
242.9442482849925
 20
245.7861894506464
 30
0.0
 10
242.9442482849925
 20
245.8952271076609
 30
0.0
 10
242.9442482849926
 20
245.9890140141302
 30
0.0
  0
SPLINE
  5
298
330
1F
100
AcDbEntity
  8
1
100
AcDbSpline
210
0.0
220
0.0
230
1.0
 70
     8
 71
     3
 72
    53
 73
    49
 74
     0
 42
0.000000001
 43
0.0000000001
 40
0.0
 40
0.0
 40
0.0
 40
0.0
 40
0.0312500000000012
 40
0.0312500000000012
 40
0.0468750000000017
 40
0.0468750000000017
 40
0.0625000000000023
 40
0.0625000000000023
 40
0.1250000000000046
 40
0.1250000000000046
 40
0.1875000000000068
 40
0.1875000000000068
 40
0.250000000000009
 40
0.250000000000009
 40
0.2812500000000104
 40
0.2812500000000104
 40
0.3125000000000117
 40
0.3125000000000117
 40
0.3750000000000135
 40
0.4375000000000153
 40
0.4375000000000153
 40
0.4687500000000162
 40
0.4687500000000162
 40
0.4843750000000155
 40
0.4843750000000155
 40
0.5000000000000148
 40
0.5000000000000148
 40
0.5625000000000138
 40
0.6250000000000127
 40
0.6250000000000127
 40
0.6562500000000121
 40
0.6562500000000121
 40
0.6718750000000138
 40
0.6718750000000138
 40
0.6875000000000153
 40
0.6875000000000153
 40
0.7500000000000143
 40
0.7500000000000143
 40
0.8125000000000133
 40
0.8125000000000133
 40
0.8750000000000122
 40
0.8750000000000122
 40
0.890625000000012
 40
0.890625000000012
 40
0.9062500000000115
 40
0.937500000000006
 40
0.937500000000006
 40
1.0
 40
1.0
 40
1.0
 40
1.0
 10
249.5320329429316
 20
243.4294227893493
 30
0.0
 10
249.5286454529995
 20
243.3574215507196
 30
0.0
 10
249.5252627397416
 20
243.2846145212916
 30
0.0
 10
249.5201959420841
 20
243.1741772040791
 30
0.0
 10
249.5185082221845
 20
243.1371601991314
 30
0.0
 10
249.5151352332301
 20
243.0627127492541
 30
0.0
 10
249.5134479837254
 20
243.0252379698653
 30
0.0
 10
249.5050415453094
 20
242.8373457152943
 30
0.0
 10
249.498454314338
 20
242.6863437255825
 30
0.0
 10
249.4855462380972
 20
242.3830105463152
 30
0.0
 10
249.4792254197679
 20
242.230679222335
 30
0.0
 10
249.4668494027227
 20
241.9246911971263
 30
0.0
 10
249.4607941861385
 20
241.7710345850566
 30
0.0
 10
249.4519163098783
 20
241.5395270232196
 30
0.0
 10
249.4489854964933
 20
241.4620277423158
 30
0.0
 10
249.4432574299322
 20
241.3083959722506
 30
0.0
 10
249.4404530647369
 20
241.2320824286425
 30
0.0
 10
249.4322157738896
 20
241.0046218855913
 30
0.0
 10
249.4217006379183
 20
240.7052805344963
 30
0.0
 10
249.4121099835806
 20
240.4137223294537
 30
0.0
 10
249.4052704196928
 20
240.198029151672
 30
0.0
 10
249.4030495839324
 20
240.1266283014636
 30
0.0
 10
249.3998088041419
 20
240.0202887191512
 30
0.0
 10
249.3987462338514
 20
239.9850538825802
 30
0.0
 10
249.3966623534311
 20
239.9152093645739
 30
0.0
 10
249.3956400586912
 20
239.8805674250278
 30
0.0
 10
249.3906258002749
 20
239.708744883485
 30
0.0
 10
249.3832235911598
 20
239.4426841650063
 30
0.0
 10
249.3770365144123
 20
239.1939620616204
 30
0.0
 10
249.3728565399047
 20
239.0139889352515
 30
0.0
 10
249.3715400851706
 20
238.9550947457373
 30
0.0
 10
249.3696826851757
 20
238.8684269493515
 30
0.0
 10
249.3690831089174
 20
238.8398167420199
 30
0.0
 10
249.367923526067
 20
238.7831609433858
 30
0.0
 10
249.3673638688419
 20
238.7551299670546
 30
0.0
 10
249.3646806521313
 20
238.6171995241031
 30
0.0
 10
249.3628878035023
 20
238.5133007586796
 30
0.0
 10
249.3599882606095
 20
238.3180063651327
 30
0.0
 10
249.3588816199681
 20
238.2266117141217
 30
0.0
 10
249.3573553453097
 20
238.0563410793095
 30
0.0
 10
249.3569356494304
 20
237.9774639682487
 30
0.0
 10
249.3568546475755
 20
237.8869512075025
 30
0.0
 10
249.3568607523148
 20
237.8692441165959
 30
0.0
 10
249.3569175840526
 20
237.8348032986717
 30
0.0
 10
249.3570696468697
 20
237.784544331889
 30
0.0
 10
249.3574209131807
 20
237.7384660765076
 30
0.0
 10
249.358387746278
 20
237.6518564765433
 30
0.0
 10
249.3593839894083
 20
237.6014976625274
 30
0.0
 10
249.3607369680107
 20
237.5586257054277
 30
0.0
  0
SPLINE
  5
299
330
1F
100
AcDbEntity
  8
1
100
AcDbSpline
210
0.0
220
0.0
230
1.0
 70
     8
 71
     3
 72
    10
 73
     6
 74
     0
 42
0.000000001
 43
0.0000000001
 40
0.0
 40
0.0
 40
0.0
 40
0.0
 40
0.5
 40
0.5
 40
1.0
 40
1.0
 40
1.0
 40
1.0
 10
249.5320329429316
 20
243.4294227893493
 30
0.0
 10
249.9029749105963
 20
243.3504069468147
 30
0.0
 10
250.2744459674284
 20
243.2730395848365
 30
0.0
 10
251.0182782147463
 20
243.1210782459936
 30
0.0
 10
251.3906400820014
 20
243.0464863777361
 30
0.0
 10
251.763386624584
 20
242.9730930405332
 30
0.0
  0
SPLINE
  5
29A
330
1F
100
AcDbEntity
  8
1
100
AcDbSpline
210
0.0
220
0.0
230
1.0
 70
     8
 71
     3
 72
     8
 73
     4
 74
     0
 42
0.000000001
 43
0.0000000001
 40
0.0
 40
0.0
 40
0.0
 40
0.0
 40
1.0
 40
1.0
 40
1.0
 40
1.0
 10
251.763386624584
 20
242.9730930405332
 30
0.0
 10
252.1047287148243
 20
242.9058832014904
 30
0.0
 10
252.4461972699615
 20
242.8389319692903
 30
0.0
 10
252.7878010261038
 20
242.7723014842366
 30
0.0
  0
SPLINE
  5
29B
330
1F
100
AcDbEntity
  8
1
100
AcDbSpline
210
0.0
220
0.0
230
1.0
 70
     8
 71
     3
 72
     8
 73
     4
 74
     0
 42
0.000000001
 43
0.0000000001
 40
0.0
 40
0.0
 40
0.0
 40
0.0
 40
1.0
 40
1.0
 40
1.0
 40
1.0
 10
252.7878010261038
 20
242.7723014842366
 30
0.0
 10
253.839945058633
 20
242.7385856729634
 30
0.0
 10
254.8920945366347
 20
242.7049603467033
 30
0.0
 10
255.9442482849925
 20
242.6713919373876
 30
0.0
  0
SPLINE
  5
29C
330
1F
100
AcDbEntity
  8
1
100
AcDbSpline
210
0.0
220
0.0
230
1.0
 70
    12
 71
     2
 72
     6
 73
     3
 74
     0
 42
0.000000001
 43
0.0000000001
 40
0.0
 40
0.0
 40
0.0
 40
1.0
 40
1.0
 40
1.0
 10
255.9442482849923
 20
223.1355462475391
 30
0.0
 41
0.5000003889292869
 10
255.6525495537871
 20
223.147799192374
 30
0.0
 41
0.4999996110707131
 10
255.3608510914474
 20
223.1600532629926
 30
0.0
 41
0.5000003889292869
  0
SPLINE
  5
29D
330
1F
100
AcDbEntity
  8
1
100
AcDbSpline
210
0.0
220
0.0
230
1.0
 70
    12
 71
     2
 72
     6
 73
     3
 74
     0
 42
0.000000001
 43
0.0000000001
 40
0.0
 40
0.0
 40
0.0
 40
1.0
 40
1.0
 40
1.0
 10
246.6987092761103
 20
256.3773263045676
 30
0.0
 41
0.5000000842038972
 10
245.1001285003549
 20
256.3095086199097
 30
0.0
 41
0.4999999157961029
 10
243.5015154299811
 20
256.241672693464
 30
0.0
 41
0.5000000842038972
  0
SPLINE
  5
29E
330
1F
100
AcDbEntity
  8
1
100
AcDbSpline
210
0.0
220
0.0
230
1.0
 70
    12
 71
     2
 72
     6
 73
     3
 74
     0
 42
0.000000001
 43
0.0000000001
 40
0.0
 40
0.0
 40
0.0
 40
1.0
 40
1.0
 40
1.0
 10
243.5015154299811
 20
256.241672693464
 30
0.0
 41
0.5000018315827032
 10
243.5145700452765
 20
255.9453757346605
 30
0.0
 41
0.4999981684172968
 10
243.5276454785374
 20
255.6487414332308
 30
0.0
 41
0.5000018315827032
  0
SPLINE
  5
29F
330
1F
100
AcDbEntity
  8
1
100
AcDbSpline
210
0.0
220
0.0
230
1.0
 70
    12
 71
     2
 72
     6
 73
     3
 74
     0
 42
0.000000001
 43
0.0000000001
 40
0.0
 40
0.0
 40
0.0
 40
1.0
 40
1.0
 40
1.0
 10
243.5276454785373
 20
255.6487414332308
 30
0.0
 41
0.500000691009797
 10
243.2359470140985
 20
255.6361396577326
 30
0.0
 41
0.4999993089902032
 10
242.9442482849923
 20
255.6235372898973
 30
0.0
 41
0.500000691009797
  0
LINE
  5
2BD
330
1F
100
AcDbEntity
  8
4
100
AcDbLine
 10
242.044248
 20
244.434018
 30
0.0
 11
254.244248
 21
244.434018
 31
0.0
  0
LINE
  5
2BE
330
1F
100
AcDbEntity
  8
SK4
100
AcDbLine
 10
241.444248
 20
244.434018
 30
0.0
 11
256.844248
 21
244.434018
 31
0.0
  0
MTEXT
  5
2BF
330
1F
100
AcDbEntity
  8
SK6
100
AcDbMText
 10
226.83045
 20
101.358902
 30
0.0
 40
3.5
 41
0.0
 71
     7
 72
     5
  1
{\W0.7539;160H15N-S90SN12N14\P\P\P\P\P\P\P\P\P\P }
  7
cesky
 73
     1
 44
0.8433729999999998
  0
MTEXT
  5
3A1
330
1F
100
AcDbEntity
  8
2
100
AcDbMText
 10
247.63101
 20
335.365877
 30
0.0
 40
3.5
 41
0.0
 71
     7
 72
     5
  1
\W0.7727;14
  7
cesky
 73
     2
 44
0.8433729999999998
  0
LINE
  5
3A2
330
1F
100
AcDbEntity
  8
2
100
AcDbLine
 10
242.446773
 20
324.273475
 30
0.0
 11
242.446773
 21
336.49171
 31
0.0
  0
LINE
  5
3A3
330
1F
100
AcDbEntity
  8
2
100
AcDbLine
 10
256.444248
 20
326.434018
 30
0.0
 11
256.444248
 21
336.49171
 31
0.0
  0
LINE
  5
3A4
330
1F
100
AcDbEntity
  8
2
100
AcDbLine
 10
242.446773
 20
335.49171
 30
0.0
 11
256.444248
 21
335.49171
 31
0.0
  0
SOLID
  5
3A5
330
1F
100
AcDbEntity
  8
2
100
AcDbTrace
 10
242.446773
 20
335.49171
 30
0.0
 11
245.94677
 21
336.108855
 31
0.0
 12
245.946775
 22
334.874566
 32
0.0
 13
245.946775
 23
334.874566
 33
0.0
  0
SOLID
  5
3A6
330
1F
100
AcDbEntity
  8
2
100
AcDbTrace
 10
256.444248
 20
335.49171
 30
0.0
 11
252.944251
 21
334.874566
 31
0.0
 12
252.944246
 22
336.108855
 32
0.0
 13
252.944246
 23
336.108855
 33
0.0
  0
MTEXT
  5
3A7
330
1F
100
AcDbEntity
  8
2
100
AcDbMText
 10
266.636127
 20
238.854462
 30
0.0
 40
3.5
 41
0.0
 71
     7
 72
     5
  1
\W0.7809;160
  7
cesky
 11
0.0000000000000001
 21
1.0
 31
0.0
 73
     2
 44
0.8433729999999998
  0
MTEXT
  5
3A8
330
1F
100
AcDbEntity
  8
2
100
AcDbMText
 10
266.636127
 20
232.116962
 30
0.0
 40
3.5
 41
0.0
 71
     7
 72
     5
  1
\W3.0115;\H2.63;%%c\H3.50;
  7
cesky
 11
0.0000000000000001
 21
1.0
 31
0.0
 73
     2
 44
0.8433729999999998
  0
LINE
  5
3A9
330
1F
100
AcDbEntity
  8
2
100
AcDbLine
 10
258.444248
 20
324.434018
 30
0.0
 11
267.823544
 21
324.434018
 31
0.0
  0
LINE
  5
3AA
330
1F
100
AcDbEntity
  8
2
100
AcDbLine
 10
266.823544
 20
324.434018
 30
0.0
 11
266.823544
 21
231.959462
 31
0.0
  0
SOLID
  5
3AB
330
1F
100
AcDbEntity
  8
2
100
AcDbTrace
 10
266.823544
 20
324.434018
 30
0.0
 11
267.440688
 21
320.934021
 31
0.0
 12
266.206399
 22
320.934016
 32
0.0
 13
266.206399
 23
320.934016
 33
0.0
  0
MTEXT
  5
3AC
330
1F
100
AcDbEntity
  8
2
100
AcDbMText
 10
235.091776
 20
299.591518
 30
0.0
 40
3.5
 41
0.0
 71
     7
 72
     5
  1
\W0.7259;46
  7
cesky
 11
0.0000000000000001
 21
1.0
 31
0.0
 73
     2
 44
0.8433729999999998
  0
LINE
  5
3AD
330
1F
100
AcDbEntity
  8
2
100
AcDbLine
 10
243.944248
 20
278.434018
 30
0.0
 11
233.622942
 21
278.434018
 31
0.0
  0
LINE
  5
3AE
330
1F
100
AcDbEntity
  8
2
100
AcDbLine
 10
256.444248
 20
324.434018
 30
0.0
 11
233.622942
 21
324.434018
 31
0.0
  0
LINE
  5
3AF
330
1F
100
AcDbEntity
  8
2
100
AcDbLine
 10
234.622942
 20
278.434018
 30
0.0
 11
234.622942
 21
324.434018
 31
0.0
  0
SOLID
  5
3B0
330
1F
100
AcDbEntity
  8
2
100
AcDbTrace
 10
234.622942
 20
278.434018
 30
0.0
 11
234.005798
 21
281.934016
 31
0.0
 12
235.240087
 22
281.934021
 32
0.0
 13
235.240087
 23
281.934021
 33
0.0
  0
SOLID
  5
3B1
330
1F
100
AcDbEntity
  8
2
100
AcDbTrace
 10
234.622942
 20
324.434018
 30
0.0
 11
235.240087
 21
320.934021
 31
0.0
 12
234.005798
 22
320.934016
 32
0.0
 13
234.005798
 23
320.934016
 33
0.0
  0
MTEXT
  5
3B2
330
1F
100
AcDbEntity
  8
SK2
100
AcDbMText
 10
237.125516
 20
245.960268
 30
0.0
 40
3.5
 41
0.0
 71
     7
 72
     5
  1
\W0.7045;40
  7
cesky
 11
0.0000000000000001
 21
1.0
 31
0.0
 73
     2
 44
0.8433729999999998
  0
MTEXT
  5
3B3
330
1F
100
AcDbEntity
  8
SK2
100
AcDbMText
 10
237.125516
 20
239.222768
 30
0.0
 40
3.5
 41
0.0
 71
     7
 72
     5
  1
\W3.0115;\H2.63;%%c\H3.50;
  7
cesky
 11
0.0000000000000001
 21
1.0
 31
0.0
 73
     2
 44
0.8433729999999998
  0
LINE
  5
3B4
330
1F
100
AcDbEntity
  8
SK2
100
AcDbLine
 10
242.444248
 20
264.434018
 30
0.0
 11
236.312933
 21
264.434018
 31
0.0
  0
LINE
  5
3B5
330
1F
100
AcDbEntity
  8
SK2
100
AcDbLine
 10
242.444248
 20
224.434018
 30
0.0
 11
236.312933
 21
224.434018
 31
0.0
  0
LINE
  5
3B6
330
1F
100
AcDbEntity
  8
SK2
100
AcDbLine
 10
237.312933
 20
264.434018
 30
0.0
 11
237.312933
 21
224.434018
 31
0.0
  0
SOLID
  5
3B7
330
1F
100
AcDbEntity
  8
SK2
100
AcDbTrace
 10
237.312933
 20
264.434018
 30
0.0
 11
237.930077
 21
260.934021
 31
0.0
 12
236.695788
 22
260.934016
 32
0.0
 13
236.695788
 23
260.934016
 33
0.0
  0
SOLID
  5
3B8
330
1F
100
AcDbEntity
  8
SK2
100
AcDbTrace
 10
237.312933
 20
224.434018
 30
0.0
 11
236.695788
 21
227.934016
 31
0.0
 12
237.930077
 22
227.934021
 32
0.0
 13
237.930077
 23
227.934021
 33
0.0
  0
MTEXT
  5
3B9
330
1F
100
AcDbEntity
  8
SK2
100
AcDbMText
 10
227.4066064647314
 20
246.2334415116059
 30
0.0
 40
3.5
 41
0.0
 71
     7
 72
     5
  1
\W0.7045;68
  7
cesky
 11
-0.0008774732413716
 21
0.9999996150202811
 31
0.0
 73
     2
 44
0.8433729999999998
  0
MTEXT
  5
3BA
330
1F
100
AcDbEntity
  8
SK2
100
AcDbMText
 10
227.41251820251
 20
239.4959441808216
 30
0.0
 40
3.5
 41
0.0
 71
     7
 72
     5
  1
\W3.0115;\H2.63;%%c\H3.50;
  7
cesky
 11
-0.0008774732413716
 21
0.9999996150202811
 31
0.0
 73
     2
 44
0.8433729999999998
  0
LINE
  5
3BB
330
1F
100
AcDbEntity
  8
SK2
100
AcDbLine
 10
243.944248
 20
278.434018
 30
0.0
 11
226.5681368413245
 21
278.418771027404
 31
0.0
  0
LINE
  5
3BC
330
1F
100
AcDbEntity
  8
SK2
100
AcDbLine
 10
244.0034164487568
 20
211.0039707000026
 30
0.0
 11
226.6273052900814
 21
210.9887237274066
 31
0.0
  0
LINE
  5
3BD
330
1F
100
AcDbEntity
  8
SK2
100
AcDbLine
 10
227.5681364268924
 20
278.4196484464513
 30
0.0
 11
227.6273048756492
 21
210.9896011464538
 31
0.0
  0
SOLID
  5
3BE
330
1F
100
AcDbEntity
  8
SK2
100
AcDbTrace
 10
227.5681364268924
 20
278.4196484464513
 30
0.0
 11
228.1883519882529
 21
274.9201936500216
 31
0.0
 12
226.954063798739
 22
274.9191061596136
 32
0.0
 13
226.954063798739
 23
274.9191061596136
 33
0.0
  0
SOLID
  5
3BF
330
1F
100
AcDbEntity
  8
SK2
100
AcDbTrace
 10
227.6273048756492
 20
210.9896011464538
 30
0.0
 11
227.0070893142886
 21
214.4890559428836
 31
0.0
 12
228.2413785036792
 22
214.4901434489988
 32
0.0
 13
228.2413785036792
 23
214.4901434489988
 33
0.0
  0
LINE
  5
3C0
330
1F
100
AcDbEntity
  8
CUT
100
AcDbLine
 10
242.5466797859542
 20
324.2750743596806
 30
0.0
 11
249.4442482849938
 21
324.3859777580693
 31
0.0
  0
LINE
  5
3C1
330
1F
100
AcDbEntity
  8
CUT
100
AcDbLine
 10
256.3758788311883
 20
316.6134934984821
 30
0.0
 11
256.4229549276009
 21
321.9181058606336
 31
0.0
  0
LINE
  5
3C7
330
1F
100
AcDbEntity
  8
CUT
100
AcDbLine
 10
249.4442482849903
 20
312.0023400568384
 30
0.0
 11
242.6562876798401
 21
311.8841950892345
 31
0.0
  0
LINE
  5
3C9
330
1F
100
AcDbEntity
  8
CUT
100
AcDbLine
 10
242.5126177387966
 20
316.6134934984822
 30
0.0
 11
242.465541642384
 21
321.9181058606338
 31
0.0
  0
LINE
  5
3CA
330
1F
100
AcDbEntity
  8
CUT
100
AcDbLine
 10
256.4399701573817
 20
324.0761210558834
 30
0.0
 11
256.4408447864733
 21
324.1748871689014
 31
0.0
  0
LINE
  5
3CD
330
1F
100
AcDbEntity
  8
CUT
100
AcDbLine
 10
256.3277464626248
 20
311.8624996751089
 30
0.0
 11
256.3758788311883
 21
316.6134934984821
 31
0.0
  0
LINE
  5
3CE
330
1F
100
AcDbEntity
  8
CUT
100
AcDbLine
 10
256.4408447864733
 20
324.1748871689014
 30
0.0
 11
256.3418167840308
 21
324.2750743596805
 31
0.0
  0
LINE
  5
3CF
330
1F
100
AcDbEntity
  8
CUT
100
AcDbLine
 10
242.5607501073601
 20
311.862499675109
 30
0.0
 11
242.5126177387966
 21
316.6134934984822
 31
0.0
  0
LINE
  5
3D0
330
1F
100
AcDbEntity
  8
CUT
100
AcDbLine
 10
242.4476517835116
 20
324.1748871689015
 30
0.0
 11
242.5466797859541
 21
324.2750743596806
 31
0.0
  0
LINE
  5
3D2
330
1F
100
AcDbEntity
  8
CUT
100
AcDbLine
 10
256.3418167840308
 20
324.2750743596805
 30
0.0
 11
249.4442482849947
 21
324.3859777580693
 31
0.0
  0
LINE
  5
3D3
330
1F
100
AcDbEntity
  8
CUT
100
AcDbLine
 10
249.4442482849901
 20
312.0023400568383
 30
0.0
 11
256.2322088901448
 21
311.8841950892345
 31
0.0
  0
LINE
  5
3DB
330
1F
100
AcDbEntity
  8
CUT
100
AcDbLine
 10
242.4485264126032
 20
324.0761210558835
 30
0.0
 11
242.4476517835116
 21
324.1748871689015
 31
0.0
  0
LINE
  5
3DC
330
1F
100
AcDbEntity
  8
CUT
100
AcDbLine
 10
256.2322088901448
 20
311.8841950892344
 30
0.0
 11
256.2322088901448
 21
311.8841950892344
 31
0.0
  0
ARC
  5
3DD
330
1F
100
AcDbEntity
  8
CUT
100
AcDbCircle
 10
270.3997518821182
 20
374.0509552296062
 30
0.0
 40
63.7606880513372
100
AcDbArc
 50
257.1617929581592
 51
257.2498294523342
  0
LINE
  5
3DE
330
1F
100
AcDbEntity
  8
CUT
100
AcDbLine
 10
256.4229549276009
 20
321.9181058606335
 30
0.0
 11
256.4229549276009
 21
321.9181058606335
 31
0.0
  0
ARC
  5
3DF
330
1F
100
AcDbEntity
  8
CUT
100
AcDbCircle
 10
343.6563584058149
 20
322.3093742574475
 30
0.0
 40
87.23428095279526
100
AcDbArc
 50
178.8395152065066
 51
180.2569873072385
  0
LINE
  5
3E2
330
1F
100
AcDbEntity
  8
CUT
100
AcDbLine
 10
242.6562876798401
 20
311.8841950892345
 30
0.0
 11
242.6562876798401
 21
311.8841950892345
 31
0.0
  0
ARC
  5
3E3
330
1F
100
AcDbEntity
  8
CUT
100
AcDbCircle
 10
228.4887446825309
 20
374.0509552531215
 30
0.0
 40
63.76068807545013
100
AcDbArc
 50
282.7501705476787
 51
282.8382070418204
  0
LINE
  5
3EA
330
1F
100
AcDbEntity
  8
CUT
100
AcDbLine
 10
242.465541642384
 20
321.9181058606338
 30
0.0
 11
242.465541642384
 21
321.9181058606338
 31
0.0
  0
ARC
  5
3EB
330
1F
100
AcDbEntity
  8
CUT
100
AcDbCircle
 10
155.2321381640027
 20
322.3093742574463
 30
0.0
 40
87.23428095296261
100
AcDbArc
 50
359.7430126927629
 51
1.16048479349206
  0
ENDSEC
  0
SECTION
  2
OBJECTS
  0
DICTIONARY
  5
C
330
0
100
AcDbDictionary
281
     1
  3
ACAD_CIP_PREVIOUS_PRODUCT_INFO
350
39E
  3
ACAD_COLOR
350
398
  3
ACAD_DETAILVIEWSTYLE
350
394
  3
ACAD_GROUP
350
D
  3
ACAD_IMAGE_DICT
350
22D
  3
ACAD_IMAGE_VARS
350
39D
  3
ACAD_LAYOUT
350
1A
  3
ACAD_MATERIAL
350
43
  3
ACAD_MLEADERSTYLE
350
6B
  3
ACAD_MLINESTYLE
350
17
  3
ACAD_PLOTSETTINGS
350
19
  3
ACAD_PLOTSTYLENAME
350
E
  3
ACAD_SCALELIST
350
47
  3
ACAD_SECTIONVIEWSTYLE
350
395
  3
ACAD_TABLESTYLE
350
69
  3
ACAD_VISUALSTYLE
350
2A
  3
ACDB_RECOMPOSE_DATA
350
42D
  3
AcDbVariableDictionary
350
351
  3
AcDsDecomposeData
350
433
  0
DICTIONARY
  5
422
330
2
100
AcDbDictionary
280
     1
281
     1
  3
ACAD_LAYERSTATES
360
423
  0
DICTIONARY
  5
403
330
10
100
AcDbDictionary
280
     1
281
     1
  3
ADSK_XREC_LAYER_RECONCILED
360
404
  0
DICTIONARY
  5
405
330
79
100
AcDbDictionary
280
     1
281
     1
  3
ADSK_XREC_LAYER_RECONCILED
360
406
  0
DICTIONARY
  5
407
330
3EC
100
AcDbDictionary
280
     1
281
     1
  3
ADSK_XREC_LAYER_RECONCILED
360
408
  0
DICTIONARY
  5
409
330
3ED
100
AcDbDictionary
280
     1
281
     1
  3
ADSK_XREC_LAYER_RECONCILED
360
40A
  0
DICTIONARY
  5
40B
330
3EE
100
AcDbDictionary
280
     1
281
     1
  3
ADSK_XREC_LAYER_RECONCILED
360
40C
  0
DICTIONARY
  5
40D
330
3F1
100
AcDbDictionary
280
     1
281
     1
  3
ADSK_XREC_LAYER_RECONCILED
360
40E
  0
DICTIONARY
  5
40F
330
3F2
100
AcDbDictionary
280
     1
281
     1
  3
ADSK_XREC_LAYER_RECONCILED
360
410
  0
DICTIONARY
  5
411
330
3F3
100
AcDbDictionary
280
     1
281
     1
  3
ADSK_XREC_LAYER_RECONCILED
360
412
  0
DICTIONARY
  5
413
330
3F4
100
AcDbDictionary
280
     1
281
     1
  3
ADSK_XREC_LAYER_RECONCILED
360
414
  0
DICTIONARY
  5
415
330
3F5
100
AcDbDictionary
280
     1
281
     1
  3
ADSK_XREC_LAYER_RECONCILED
360
416
  0
DICTIONARY
  5
417
330
3F6
100
AcDbDictionary
280
     1
281
     1
  3
ADSK_XREC_LAYER_RECONCILED
360
418
  0
DICTIONARY
  5
419
330
3F7
100
AcDbDictionary
280
     1
281
     1
  3
ADSK_XREC_LAYER_RECONCILED
360
41A
  0
DICTIONARY
  5
41B
330
3F8
100
AcDbDictionary
280
     1
281
     1
  3
ADSK_XREC_LAYER_RECONCILED
360
41C
  0
DICTIONARY
  5
41D
330
3F9
100
AcDbDictionary
280
     1
281
     1
  3
ADSK_XREC_LAYER_RECONCILED
360
41E
  0
DICTIONARY
  5
39F
330
1F
100
AcDbDictionary
280
     1
281
     1
  3
ACAD_SORTENTS
360
3A0
  0
XRECORD
  5
39E
102
{ACAD_REACTORS
330
C
102
}
330
C
100
AcDbXrecord
280
     1
300
ACD
300
2019
300
87084ACD_2019_0F
  0
DICTIONARY
  5
398
102
{ACAD_REACTORS
330
C
102
}
330
C
100
AcDbDictionary
281
     1
  0
DICTIONARY
  5
394
102
{ACAD_REACTORS
330
C
102
}
330
C
100
AcDbDictionary
281
     1
  3
Metric50
350
39A
  0
DICTIONARY
  5
D
102
{ACAD_REACTORS
330
C
102
}
330
C
100
AcDbDictionary
281
     1
  3
NULOVY_BOD
350
3FA
  0
DICTIONARY
  5
22D
102
{ACAD_REACTORS
330
C
102
}
330
C
100
AcDbDictionary
281
     1
  3
160H15N_S90SN12N14_2D_DormerPramet_jpg
350
22E
  0
RASTERVARIABLES
  5
39D
102
{ACAD_REACTORS
330
C
102
}
330
C
100
AcDbRasterVariables
 90
        0
 70
     1
 71
     1
 72
     1
  0
DICTIONARY
  5
1A
102
{ACAD_REACTORS
330
C
102
}
330
C
100
AcDbDictionary
281
     1
  3
Layout1
350
1E
  3
Layout2
350
26
  3
Model
350
22
  0
DICTIONARY
  5
43
102
{ACAD_REACTORS
330
C
102
}
330
C
100
AcDbDictionary
281
     1
  3
ByBlock
350
45
  3
ByLayer
350
44
  3
Global
350
46
  0
DICTIONARY
  5
6B
102
{ACAD_REACTORS
330
C
102
}
330
C
100
AcDbDictionary
281
     1
  3
Standard
350
6C
  0
DICTIONARY
  5
17
102
{ACAD_REACTORS
330
C
102
}
330
C
100
AcDbDictionary
281
     1
  3
Standard
350
18
  0
DICTIONARY
  5
19
102
{ACAD_REACTORS
330
C
102
}
330
C
100
AcDbDictionary
281
     1
  0
ACDBDICTIONARYWDFLT
  5
E
102
{ACAD_REACTORS
330
C
102
}
330
C
100
AcDbDictionary
281
     1
  3
Normal
350
F
100
AcDbDictionaryWithDefault
340
F
  0
DICTIONARY
  5
47
102
{ACAD_REACTORS
330
C
102
}
330
C
100
AcDbDictionary
281
     1
  3
A0
350
48
  3
A1
350
49
  3
A2
350
4A
  3
A3
350
4B
  3
A4
350
4C
  3
A5
350
4D
  3
A6
350
4E
  3
A7
350
4F
  3
A8
350
50
  3
A9
350
51
  3
B0
350
52
  3
B1
350
53
  3
B2
350
54
  3
B3
350
55
  3
B4
350
56
  3
B5
350
57
  3
B6
350
58
  3
B7
350
59
  3
B8
350
5A
  3
B9
350
5B
  3
C0
350
5C
  3
C1
350
5D
  3
C2
350
5E
  3
C3
350
5F
  3
C4
350
60
  3
C5
350
61
  3
C6
350
62
  3
C7
350
63
  3
C8
350
64
  3
C9
350
65
  3
D0
350
66
  3
D1
350
67
  3
D2
350
68
  0
DICTIONARY
  5
395
102
{ACAD_REACTORS
330
C
102
}
330
C
100
AcDbDictionary
281
     1
  3
Metric50
350
399
  0
DICTIONARY
  5
69
102
{ACAD_REACTORS
330
C
102
}
330
C
100
AcDbDictionary
281
     1
  3
Standard
350
6A
  0
DICTIONARY
  5
2A
102
{ACAD_REACTORS
330
C
102
}
330
C
100
AcDbDictionary
281
     1
  3
2dWireframe
350
2F
  3
Basic
350
32
  3
Brighten
350
36
  3
ColorChange
350
3A
  3
Conceptual
350
34
  3
Dim
350
35
  3
EdgeColorOff
350
3D
  3
Facepattern
350
39
  3
Flat
350
2B
  3
FlatWithEdges
350
2C
  3
Gouraud
350
2D
  3
GouraudWithEdges
350
2E
  3
Hidden
350
31
  3
JitterOff
350
3B
  3
Linepattern
350
38
  3
OverhangOff
350
3C
  3
Realistic
350
33
  3
Shaded
350
42
  3
Shaded with edges
350
41
  3
Shades of Gray
350
3E
  3
Sketchy
350
3F
  3
Thicken
350
37
  3
Wireframe
350
30
  3
X-Ray
350
40
  0
XRECORD
  5
42D
102
{ACAD_REACTORS
330
C
102
}
330
C
100
AcDbXrecord
280
     1
 90
        1
330
6A
  0
DICTIONARY
  5
351
102
{ACAD_REACTORS
330
C
102
}
330
C
100
AcDbDictionary
281
     1
  3
CANNOSCALE
350
352
  3
CMLEADERSTYLE
350
393
  3
CTABLESTYLE
350
392
  3
CVIEWDETAILSTYLE
350
428
  3
CVIEWSECTIONSTYLE
350
429
  3
MSLTSCALE
350
353
  3
XCLIPFRAME
350
42A
  0
DICTIONARY
  5
433
102
{ACAD_REACTORS
330
C
102
}
330
C
100
AcDbDictionary
281
     1
  3
AcDsRecords
350
435
  3
AcDsSchemas
350
434
1001
ACAD
1070
     2
  0
DICTIONARY
  5
423
102
{ACAD_REACTORS
330
422
102
}
330
422
100
AcDbDictionary
281
     1
  0
XRECORD
  5
404
102
{ACAD_REACTORS
330
403
102
}
330
403
100
AcDbXrecord
280
     1
290
     1
  0
XRECORD
  5
406
102
{ACAD_REACTORS
330
405
102
}
330
405
100
AcDbXrecord
280
     1
290
     1
  0
XRECORD
  5
408
102
{ACAD_REACTORS
330
407
102
}
330
407
100
AcDbXrecord
280
     1
290
     1
  0
XRECORD
  5
40A
102
{ACAD_REACTORS
330
409
102
}
330
409
100
AcDbXrecord
280
     1
290
     1
  0
XRECORD
  5
40C
102
{ACAD_REACTORS
330
40B
102
}
330
40B
100
AcDbXrecord
280
     1
290
     1
  0
XRECORD
  5
40E
102
{ACAD_REACTORS
330
40D
102
}
330
40D
100
AcDbXrecord
280
     1
290
     1
  0
XRECORD
  5
410
102
{ACAD_REACTORS
330
40F
102
}
330
40F
100
AcDbXrecord
280
     1
290
     1
  0
XRECORD
  5
412
102
{ACAD_REACTORS
330
411
102
}
330
411
100
AcDbXrecord
280
     1
290
     1
  0
XRECORD
  5
414
102
{ACAD_REACTORS
330
413
102
}
330
413
100
AcDbXrecord
280
     1
290
     1
  0
XRECORD
  5
416
102
{ACAD_REACTORS
330
415
102
}
330
415
100
AcDbXrecord
280
     1
290
     1
  0
XRECORD
  5
418
102
{ACAD_REACTORS
330
417
102
}
330
417
100
AcDbXrecord
280
     1
290
     1
  0
XRECORD
  5
41A
102
{ACAD_REACTORS
330
419
102
}
330
419
100
AcDbXrecord
280
     1
290
     1
  0
XRECORD
  5
41C
102
{ACAD_REACTORS
330
41B
102
}
330
41B
100
AcDbXrecord
280
     1
290
     1
  0
XRECORD
  5
41E
102
{ACAD_REACTORS
330
41D
102
}
330
41D
100
AcDbXrecord
280
     1
290
     1
  0
SORTENTSTABLE
  5
3A0
102
{ACAD_REACTORS
330
39F
102
}
330
39F
100
AcDbSortentsTable
330
1F
331
3A1
  5
2F3
331
3A2
  5
30C
331
3A3
  5
3A1
331
3A4
  5
3A2
331
3A5
  5
3A3
331
3A6
  5
3A4
331
3A7
  5
3A5
331
3A8
  5
3A6
331
3A9
  5
3A7
331
3AA
  5
3A8
331
3AB
  5
3A9
331
3AC
  5
3BA
331
3AD
  5
3BB
331
3AE
  5
3BC
331
3AF
  5
3BD
331
3B0
  5
3BE
331
3B1
  5
3BF
331
3B2
  5
3AC
331
3B3
  5
3AD
331
3B4
  5
3AE
331
3B5
  5
3AF
331
3B6
  5
3B0
331
3B7
  5
3B1
331
3B8
  5
3B2
331
3B9
  5
3B3
331
3BA
  5
3B4
331
3BB
  5
3B5
331
3BC
  5
3B6
331
3BD
  5
3B7
331
3BE
  5
3B8
331
3BF
  5
3B9
331
3C7
  5
3CE
331
3C9
  5
3D1
331
3CA
  5
3D2
331
3CD
  5
3DA
331
3CE
  5
3DB
331
3CF
  5
3DC
331
3D0
  5
3DD
331
3D2
  5
3DF
331
3D3
  5
3E0
331
3DB
  5
3EB
331
3DC
  5
3C5
331
3DD
  5
3C7
331
3DE
  5
3CA
331
3DF
  5
3CD
331
3E2
  5
3D3
331
3E3
  5
3D4
331
3EA
  5
3E6
331
3EB
  5
3E7
  0
ACDBDETAILVIEWSTYLE
  5
39A
102
{ACAD_XDICTIONARY
360
469
102
}
102
{ACAD_REACTORS
330
394
102
}
330
394
100
AcDbModelDocViewStyle
 70
     0
  3
Metric50
290
     0
100
AcDbDetailViewStyle
 70
     0
 71
     0
 90
        3
 71
     1
340
11
 62
   256
 40
5.0
340
0
 62
   256
 40
5.0
300

 40
0.0
280
     1
 71
     2
340
16
 90
       25
 62
   256
 71
     3
340
11
 62
   256
 40
5.0
 90
        0
 40
15.0
 90
        1
300
%<\AcVar ViewDetailId>% (%<\AcVar ViewScale \f "%sn">%)
 71
     4
340
16
 90
       25
 62
   256
340
16
 90
       25
 62
   256
280
     0
  0
GROUP
  5
3FA
102
{ACAD_REACTORS
330
D
102
}
330
D
100
AcDbGroup
300

 70
     0
 71
     1
340
73
  0
IMAGEDEF
  5
22E
102
{ACAD_REACTORS
330
22D
330
231
102
}
330
22D
100
AcDbRasterImageDef
 90
        0
  1
C:\Users\pp0701\Desktop\zakaznik data\160H15N_S90SN12N14_2D_DormerPramet.jpg
 10
2089.0
 20
531.0
 11
0.0004786979415989
 21
0.0004786979415989
280
     1
281
     0
  0
LAYOUT
  5
1E
102
{ACAD_REACTORS
330
1A
102
}
330
1A
100
AcDbPlotSettings
  1

  2
none_device
  4

  6

 40
0.0
 41
0.0
 42
0.0
 43
0.0
 44
0.0
 45
0.0
 46
0.0
 47
0.0
 48
0.0
 49
0.0
140
0.0
141
0.0
142
1.0
143
1.0
 70
   688
 72
     0
 73
     0
 74
     5
  7

 75
    16
147
1.0
 76
     0
 77
     2
 78
   300
148
0.0
149
0.0
100
AcDbLayout
  1
Layout1
 70
     1
 71
     1
 10
-0.5
 20
-0.5
 11
5.0
 21
5.0
 12
0.0
 22
0.0
 32
0.0
 14
-0.5
 24
-0.5
 34
-0.5
 15
5.0
 25
5.0
 35
5.0
146
0.0
 13
0.0
 23
0.0
 33
0.0
 16
1.0
 26
0.0
 36
0.0
 17
0.0
 27
1.0
 37
0.0
 76
     0
330
1B
  0
LAYOUT
  5
26
102
{ACAD_REACTORS
330
1A
102
}
330
1A
100
AcDbPlotSettings
  1

  2
none_device
  4

  6

 40
0.0
 41
0.0
 42
0.0
 43
0.0
 44
0.0
 45
0.0
 46
0.0
 47
0.0
 48
0.0
 49
0.0
140
0.0
141
0.0
142
1.0
143
1.0
 70
   688
 72
     0
 73
     0
 74
     5
  7

 75
    16
147
1.0
 76
     0
 77
     2
 78
   300
148
0.0
149
0.0
100
AcDbLayout
  1
Layout2
 70
     1
 71
     2
 10
0.0
 20
0.0
 11
0.0
 21
0.0
 12
0.0
 22
0.0
 32
0.0
 14
0.0
 24
0.0
 34
0.0
 15
0.0
 25
0.0
 35
0.0
146
0.0
 13
0.0
 23
0.0
 33
0.0
 16
1.0
 26
0.0
 36
0.0
 17
0.0
 27
1.0
 37
0.0
 76
     0
330
23
  0
LAYOUT
  5
22
102
{ACAD_REACTORS
330
1A
102
}
330
1A
100
AcDbPlotSettings
  1

  2
none_device
  4
Letter_(8.50_x_11.00_Inches)
  6

 40
6.349999999999999
 41
6.349999999999999
 42
6.350005
 43
6.350005
 44
215.9
 45
279.4
 46
0.0
 47
0.0
 48
0.0
 49
0.0
140
0.0
141
0.0
142
1.0
143
1.0
 70
  1712
 72
     0
 73
     0
 74
     0
  7

 75
     0
147
1.0
 76
     0
 77
     2
 78
   300
148
0.0
149
0.0
100
AcDbLayout
  1
Model
 70
     1
 71
     0
 10
-0.5
 20
-0.5
 11
5.0
 21
5.0
 12
0.0
 22
0.0
 32
0.0
 14
-0.5
 24
-0.5
 34
-0.5
 15
5.0
 25
5.0
 35
5.0
146
0.0
 13
0.0
 23
0.0
 33
0.0
 16
1.0
 26
0.0
 36
0.0
 17
0.0
 27
1.0
 37
0.0
 76
     0
330
1F
331
29
  0
MATERIAL
  5
45
102
{ACAD_XDICTIONARY
360
387
102
}
102
{ACAD_REACTORS
330
43
102
}
330
43
100
AcDbMaterial
  1
ByBlock
  0
MATERIAL
  5
44
102
{ACAD_XDICTIONARY
360
385
102
}
102
{ACAD_REACTORS
330
43
102
}
330
43
100
AcDbMaterial
  1
ByLayer
  0
MATERIAL
  5
46
102
{ACAD_XDICTIONARY
360
389
102
}
102
{ACAD_REACTORS
330
43
102
}
330
43
100
AcDbMaterial
  1
Global
  0
MLEADERSTYLE
  5
6C
102
{ACAD_REACTORS
330
6B
102
}
330
6B
100
AcDbMLeaderStyle
170
     2
171
     1
172
     0
 90
        2
 40
0.0
 41
0.0
173
     1
 91
-1056964608
340
14
 92
       -2
290
     1
 42
0.09
291
     1
 43
0.36
  3
Standard
 44
0.18
300

342
11
174
     1
178
     6
175
     1
176
     0
 93
-1056964608
 45
0.18
292
     0
297
     0
 46
0.18
 94
-1056964608
 47
1.0
 49
1.0
140
1.0
293
     1
141
0.0
294
     1
177
     0
142
1.0
295
     0
296
     0
143
0.125
1001
ACAD_MLEADERVER
1070
     2
  0
MLINESTYLE
  5
18
102
{ACAD_REACTORS
330
17
102
}
330
17
100
AcDbMlineStyle
  2
STANDARD
 70
     0
  3

 62
   256
 51
90.0
 52
90.0
 71
     2
 49
0.5
 62
   256
  6
BYLAYER
 49
-0.5
 62
   256
  6
BYLAYER
  0
ACDBPLACEHOLDER
  5
F
102
{ACAD_REACTORS
330
E
102
}
330
E
  0
SCALE
  5
48
102
{ACAD_REACTORS
330
47
102
}
330
47
100
AcDbScale
 70
     0
300
1:1
140
1.0
141
1.0
290
     1
  0
SCALE
  5
49
102
{ACAD_REACTORS
330
47
102
}
330
47
100
AcDbScale
 70
     0
300
1:2
140
1.0
141
2.0
290
     0
  0
SCALE
  5
4A
102
{ACAD_REACTORS
330
47
102
}
330
47
100
AcDbScale
 70
     0
300
1:4
140
1.0
141
4.0
290
     0
  0
SCALE
  5
4B
102
{ACAD_REACTORS
330
47
102
}
330
47
100
AcDbScale
 70
     0
300
1:5
140
1.0
141
5.0
290
     0
  0
SCALE
  5
4C
102
{ACAD_REACTORS
330
47
102
}
330
47
100
AcDbScale
 70
     0
300
1:8
140
1.0
141
8.0
290
     0
  0
SCALE
  5
4D
102
{ACAD_REACTORS
330
47
102
}
330
47
100
AcDbScale
 70
     0
300
1:10
140
1.0
141
10.0
290
     0
  0
SCALE
  5
4E
102
{ACAD_REACTORS
330
47
102
}
330
47
100
AcDbScale
 70
     0
300
1:16
140
1.0
141
16.0
290
     0
  0
SCALE
  5
4F
102
{ACAD_REACTORS
330
47
102
}
330
47
100
AcDbScale
 70
     0
300
1:20
140
1.0
141
20.0
290
     0
  0
SCALE
  5
50
102
{ACAD_REACTORS
330
47
102
}
330
47
100
AcDbScale
 70
     0
300
1:30
140
1.0
141
30.0
290
     0
  0
SCALE
  5
51
102
{ACAD_REACTORS
330
47
102
}
330
47
100
AcDbScale
 70
     0
300
1:40
140
1.0
141
40.0
290
     0
  0
SCALE
  5
52
102
{ACAD_REACTORS
330
47
102
}
330
47
100
AcDbScale
 70
     0
300
1:50
140
1.0
141
50.0
290
     0
  0
SCALE
  5
53
102
{ACAD_REACTORS
330
47
102
}
330
47
100
AcDbScale
 70
     0
300
1:100
140
1.0
141
100.0
290
     0
  0
SCALE
  5
54
102
{ACAD_REACTORS
330
47
102
}
330
47
100
AcDbScale
 70
     0
300
2:1
140
2.0
141
1.0
290
     0
  0
SCALE
  5
55
102
{ACAD_REACTORS
330
47
102
}
330
47
100
AcDbScale
 70
     0
300
4:1
140
4.0
141
1.0
290
     0
  0
SCALE
  5
56
102
{ACAD_REACTORS
330
47
102
}
330
47
100
AcDbScale
 70
     0
300
8:1
140
8.0
141
1.0
290
     0
  0
SCALE
  5
57
102
{ACAD_REACTORS
330
47
102
}
330
47
100
AcDbScale
 70
     0
300
10:1
140
10.0
141
1.0
290
     0
  0
SCALE
  5
58
102
{ACAD_REACTORS
330
47
102
}
330
47
100
AcDbScale
 70
     0
300
100:1
140
100.0
141
1.0
290
     0
  0
SCALE
  5
59
102
{ACAD_REACTORS
330
47
102
}
330
47
100
AcDbScale
 70
     0
300
1/128" = 1'-0"
140
0.007812
141
12.0
290
     0
  0
SCALE
  5
5A
102
{ACAD_REACTORS
330
47
102
}
330
47
100
AcDbScale
 70
     0
300
1/64" = 1'-0"
140
0.015625
141
12.0
290
     0
  0
SCALE
  5
5B
102
{ACAD_REACTORS
330
47
102
}
330
47
100
AcDbScale
 70
     0
300
1/32" = 1'-0"
140
0.03125
141
12.0
290
     0
  0
SCALE
  5
5C
102
{ACAD_REACTORS
330
47
102
}
330
47
100
AcDbScale
 70
     0
300
1/16" = 1'-0"
140
0.0625
141
12.0
290
     0
  0
SCALE
  5
5D
102
{ACAD_REACTORS
330
47
102
}
330
47
100
AcDbScale
 70
     0
300
3/32" = 1'-0"
140
0.09375
141
12.0
290
     0
  0
SCALE
  5
5E
102
{ACAD_REACTORS
330
47
102
}
330
47
100
AcDbScale
 70
     0
300
1/8" = 1'-0"
140
0.125
141
12.0
290
     0
  0
SCALE
  5
5F
102
{ACAD_REACTORS
330
47
102
}
330
47
100
AcDbScale
 70
     0
300
3/16" = 1'-0"
140
0.1875
141
12.0
290
     0
  0
SCALE
  5
60
102
{ACAD_REACTORS
330
47
102
}
330
47
100
AcDbScale
 70
     0
300
1/4" = 1'-0"
140
0.25
141
12.0
290
     0
  0
SCALE
  5
61
102
{ACAD_REACTORS
330
47
102
}
330
47
100
AcDbScale
 70
     0
300
3/8" = 1'-0"
140
0.375
141
12.0
290
     0
  0
SCALE
  5
62
102
{ACAD_REACTORS
330
47
102
}
330
47
100
AcDbScale
 70
     0
300
1/2" = 1'-0"
140
0.5
141
12.0
290
     0
  0
SCALE
  5
63
102
{ACAD_REACTORS
330
47
102
}
330
47
100
AcDbScale
 70
     0
300
3/4" = 1'-0"
140
0.75
141
12.0
290
     0
  0
SCALE
  5
64
102
{ACAD_REACTORS
330
47
102
}
330
47
100
AcDbScale
 70
     0
300
1" = 1'-0"
140
1.0
141
12.0
290
     0
  0
SCALE
  5
65
102
{ACAD_REACTORS
330
47
102
}
330
47
100
AcDbScale
 70
     0
300
1-1/2" = 1'-0"
140
1.5
141
12.0
290
     0
  0
SCALE
  5
66
102
{ACAD_REACTORS
330
47
102
}
330
47
100
AcDbScale
 70
     0
300
3" = 1'-0"
140
3.0
141
12.0
290
     0
  0
SCALE
  5
67
102
{ACAD_REACTORS
330
47
102
}
330
47
100
AcDbScale
 70
     0
300
6" = 1'-0"
140
6.0
141
12.0
290
     0
  0
SCALE
  5
68
102
{ACAD_REACTORS
330
47
102
}
330
47
100
AcDbScale
 70
     0
300
1'-0" = 1'-0"
140
12.0
141
12.0
290
     0
  0
ACDBSECTIONVIEWSTYLE
  5
399
102
{ACAD_XDICTIONARY
360
467
102
}
102
{ACAD_REACTORS
330
395
102
}
330
395
100
AcDbModelDocViewStyle
 70
     0
  3
Metric50
290
     0
100
AcDbSectionViewStyle
 70
     0
 71
     0
 90
      102
 71
     1
340
11
 62
   256
 40
5.0
340
0
340
0
 62
   256
 40
5.0
300
I, O, Q, S, X, Z
 40
10.0
 90
        0
 40
2.5
 90
        0
 71
     2
340
16
 90
       25
 62
   256
340
16
 90
       50
 62
   256
 40
5.0
 40
2.5
 40
5.0
 71
     3
340
11
 62
   256
 40
5.0
 90
        0
 40
15.0
 90
        1
300
%<\AcVar ViewSectionStartId>%-%<\AcVar ViewSectionEndId>% (%<\AcVar ViewScale \f "%sn">%)
 71
     4
 62
   256
 62
   257
300
ANSI31
 40
1.0
 90
        0
290
     0
290
     0
 90
        6
 40
0.0
 40
1.570796326794896
 40
0.2617993877991494
 40
1.308996938995747
 40
-0.2617993877991494
 40
1.832595714594046
  0
TABLESTYLE
  5
6A
102
{ACAD_XDICTIONARY
360
38B
102
}
102
{ACAD_REACTORS
330
69
102
}
330
69
100
AcDbTableStyle
  3
Standard
 70
     0
 71
     0
 40
0.06
 41
0.06
280
     0
281
     0
  7
Standard
140
0.18
170
     2
 62
     0
 63
     7
283
     0
274
    -2
284
     1
 64
     0
275
    -2
285
     1
 65
     0
276
    -2
286
     1
 66
     0
277
    -2
287
     1
 67
     0
278
    -2
288
     1
 68
     0
279
    -2
289
     1
 69
     0
  7
Standard
140
0.25
170
     5
 62
     0
 63
     7
283
     0
274
    -2
284
     1
 64
     0
275
    -2
285
     1
 65
     0
276
    -2
286
     1
 66
     0
277
    -2
287
     1
 67
     0
278
    -2
288
     1
 68
     0
279
    -2
289
     1
 69
     0
  7
Standard
140
0.18
170
     5
 62
     0
 63
     7
283
     0
274
    -2
284
     1
 64
     0
275
    -2
285
     1
 65
     0
276
    -2
286
     1
 66
     0
277
    -2
287
     1
 67
     0
278
    -2
288
     1
 68
     0
279
    -2
289
     1
 69
     0
  0
VISUALSTYLE
  5
2F
102
{ACAD_XDICTIONARY
360
43E
102
}
102
{ACAD_REACTORS
330
2A
102
}
330
2A
100
AcDbVisualStyle
  2

 70
     4
 71
     0
 72
     2
 73
     0
 90
        0
 40
-0.6
 41
-30.0
 62
     5
 63
     7
421
 16777215
 74
     1
 91
        4
 64
     7
 65
   257
 75
     1
175
     1
 42
1.0
 92
        0
 66
   257
 43
1.0
 76
     1
 77
     6
 78
     2
 67
     7
 79
     5
170
     0
171
     0
290
     0
174
     0
 93
        1
 44
0.0
173
     0
291
     0
 45
0.0
1001
ACAD
1000
AcDbSavedByObjectVersion
1070
     0
  0
VISUALSTYLE
  5
32
102
{ACAD_XDICTIONARY
360
444
102
}
102
{ACAD_REACTORS
330
2A
102
}
330
2A
100
AcDbVisualStyle
  2

 70
     7
 71
     1
 72
     0
 73
     1
 90
        0
 40
-0.6
 41
-30.0
 62
     5
 63
     7
421
 16777215
 74
     0
 91
        4
 64
     7
 65
   257
 75
     1
175
     1
 42
1.0
 92
        8
 66
     7
 43
1.0
 76
     1
 77
     6
 78
     2
 67
     7
 79
     5
170
     0
171
     0
290
     0
174
     0
 93
        1
 44
0.0
173
     0
291
     1
 45
0.0
1001
ACAD
1000
AcDbSavedByObjectVersion
1070
     0
  0
VISUALSTYLE
  5
36
102
{ACAD_XDICTIONARY
360
44C
102
}
102
{ACAD_REACTORS
330
2A
102
}
330
2A
100
AcDbVisualStyle
  2

 70
    12
 71
     2
 72
     2
 73
     0
 90
        0
 40
-0.6
 41
-30.0
 62
     5
 63
     7
421
 16777215
 74
     1
 91
        4
 64
     7
 65
   257
 75
     1
175
     1
 42
1.0
 92
        8
 66
     7
 43
1.0
 76
     1
 77
     6
 78
     2
 67
     7
 79
     5
170
     0
171
     0
290
     0
174
     0
 93
        1
 44
50.0
173
     0
291
     1
 45
0.0
1001
ACAD
1000
AcDbSavedByObjectVersion
1070
     0
  0
VISUALSTYLE
  5
3A
102
{ACAD_XDICTIONARY
360
454
102
}
102
{ACAD_REACTORS
330
2A
102
}
330
2A
100
AcDbVisualStyle
  2

 70
    16
 71
     2
 72
     2
 73
     3
 90
        0
 40
-0.6
 41
-30.0
 62
     5
 63
     8
421
  8421504
 74
     1
 91
        4
 64
     7
 65
   257
 75
     1
175
     1
 42
1.0
 92
        8
 66
     8
424
  8421504
 43
1.0
 76
     1
 77
     6
 78
     2
 67
     7
 79
     5
170
     0
171
     0
290
     0
174
     0
 93
        1
 44
0.0
173
     0
291
     1
 45
0.0
1001
ACAD
1000
AcDbSavedByObjectVersion
1070
     0
  0
VISUALSTYLE
  5
34
102
{ACAD_XDICTIONARY
360
448
102
}
102
{ACAD_REACTORS
330
2A
102
}
330
2A
100
AcDbVisualStyle
  2

 70
     9
 71
     3
 72
     2
 73
     0
 90
        0
 40
-0.6
 41
-30.0
 62
     5
 63
     7
421
 16777215
 74
     2
 91
        2
 64
     7
 65
   257
 75
     1
175
     1
 42
179.0
 92
        8
 66
     7
 43
1.0
 76
     1
 77
     6
 78
     2
 67
     7
 79
     3
170
     0
171
     0
290
     0
174
     0
 93
        1
 44
0.0
173
     0
291
     0
 45
0.0
1001
ACAD
1000
AcDbSavedByObjectVersion
1070
     0
  0
VISUALSTYLE
  5
35
102
{ACAD_XDICTIONARY
360
44A
102
}
102
{ACAD_REACTORS
330
2A
102
}
330
2A
100
AcDbVisualStyle
  2

 70
    11
 71
     2
 72
     2
 73
     0
 90
        0
 40
-0.6
 41
-30.0
 62
     5
 63
     7
421
 16777215
 74
     1
 91
        4
 64
     7
 65
   257
 75
     1
175
     1
 42
1.0
 92
        8
 66
     7
 43
1.0
 76
     1
 77
     6
 78
     2
 67
     7
 79
     5
170
     0
171
     0
290
     0
174
     0
 93
        1
 44
-50.0
173
     0
291
     1
 45
0.0
1001
ACAD
1000
AcDbSavedByObjectVersion
1070
     0
  0
VISUALSTYLE
  5
3D
102
{ACAD_XDICTIONARY
360
45A
102
}
102
{ACAD_REACTORS
330
2A
102
}
330
2A
100
AcDbVisualStyle
  2

 70
    22
 71
     2
 72
     2
 73
     0
 90
        0
 40
-0.6
 41
-30.0
 62
     5
 63
     7
421
 16777215
 74
     1
 91
        4
 64
     7
 65
   257
 75
     1
175
     1
 42
1.0
 92
        8
 66
     7
 43
1.0
 76
     1
 77
     6
 78
     2
 67
     7
 79
     5
170
     0
171
     0
290
     0
174
     0
 93
        1
 44
0.0
173
     0
291
     1
 45
0.0
1001
ACAD
1000
AcDbSavedByObjectVersion
1070
     0
  0
VISUALSTYLE
  5
39
102
{ACAD_XDICTIONARY
360
452
102
}
102
{ACAD_REACTORS
330
2A
102
}
330
2A
100
AcDbVisualStyle
  2

 70
    15
 71
     2
 72
     2
 73
     0
 90
        0
 40
-0.6
 41
-30.0
 62
     5
 63
     7
421
 16777215
 74
     1
 91
        4
 64
     7
 65
   257
 75
     1
175
     1
 42
1.0
 92
        8
 66
     7
 43
1.0
 76
     1
 77
     6
 78
     2
 67
     7
 79
     5
170
     0
171
     0
290
     0
174
     0
 93
        1
 44
0.0
173
     0
291
     1
 45
0.0
1001
ACAD
1000
AcDbSavedByObjectVersion
1070
     0
  0
VISUALSTYLE
  5
2B
102
{ACAD_XDICTIONARY
360
436
102
}
102
{ACAD_REACTORS
330
2A
102
}
330
2A
100
AcDbVisualStyle
  2

 70
     0
 71
     2
 72
     1
 73
     1
 90
        2
 40
-0.6
 41
30.0
 62
     5
 63
     7
421
 16777215
 74
     0
 91
        0
 64
     7
 65
   257
 75
     1
175
     1
 42
1.0
 92
        8
 66
     7
 43
1.0
 76
     1
 77
     6
 78
     2
 67
     7
 79
     5
170
     0
171
     0
290
     0
174
     0
 93
       13
 44
0.0
173
     0
291
     1
 45
0.0
1001
ACAD
1000
AcDbSavedByObjectVersion
1070
     0
  0
VISUALSTYLE
  5
2C
102
{ACAD_XDICTIONARY
360
438
102
}
102
{ACAD_REACTORS
330
2A
102
}
330
2A
100
AcDbVisualStyle
  2

 70
     1
 71
     2
 72
     1
 73
     1
 90
        2
 40
-0.6
 41
30.0
 62
     5
 63
     7
421
 16777215
 74
     1
 91
        0
 64
     7
 65
   257
 75
     1
175
     1
 42
1.0
 92
        0
 66
   257
 43
1.0
 76
     1
 77
     6
 78
     2
 67
     7
 79
     5
170
     0
171
     0
290
     0
174
     0
 93
       13
 44
0.0
173
     0
291
     1
 45
0.0
1001
ACAD
1000
AcDbSavedByObjectVersion
1070
     0
  0
VISUALSTYLE
  5
2D
102
{ACAD_XDICTIONARY
360
43A
102
}
102
{ACAD_REACTORS
330
2A
102
}
330
2A
100
AcDbVisualStyle
  2

 70
     2
 71
     2
 72
     2
 73
     1
 90
        2
 40
-0.6
 41
30.0
 62
     5
 63
     7
421
 16777215
 74
     0
 91
        0
 64
     7
 65
   257
 75
     1
175
     1
 42
1.0
 92
        0
 66
     7
 43
1.0
 76
     1
 77
     6
 78
     2
 67
     7
 79
     5
170
     0
171
     0
290
     0
174
     0
 93
       13
 44
0.0
173
     0
291
     1
 45
0.0
1001
ACAD
1000
AcDbSavedByObjectVersion
1070
     0
  0
VISUALSTYLE
  5
2E
102
{ACAD_XDICTIONARY
360
43C
102
}
102
{ACAD_REACTORS
330
2A
102
}
330
2A
100
AcDbVisualStyle
  2

 70
     3
 71
     2
 72
     2
 73
     1
 90
        2
 40
-0.6
 41
30.0
 62
     5
 63
     7
421
 16777215
 74
     1
 91
        0
 64
     7
 65
   257
 75
     1
175
     1
 42
1.0
 92
        0
 66
   257
 43
1.0
 76
     1
 77
     6
 78
     2
 67
     7
 79
     5
170
     0
171
     0
290
     0
174
     0
 93
       13
 44
0.0
173
     0
291
     1
 45
0.0
1001
ACAD
1000
AcDbSavedByObjectVersion
1070
     0
  0
VISUALSTYLE
  5
31
102
{ACAD_XDICTIONARY
360
442
102
}
102
{ACAD_REACTORS
330
2A
102
}
330
2A
100
AcDbVisualStyle
  2

 70
     6
 71
     1
 72
     2
 73
     2
 90
        0
 40
-0.6
 41
-30.0
 62
     5
 63
     7
421
 16777215
 74
     2
 91
        2
 64
     7
 65
   257
 75
     2
175
     1
 42
40.0
 92
        0
 66
   257
 43
1.0
 76
     1
 77
     6
 78
     2
 67
     7
 79
     3
170
     0
171
     0
290
     0
174
     0
 93
        1
 44
0.0
173
     0
291
     0
 45
0.0
1001
ACAD
1000
AcDbSavedByObjectVersion
1070
     0
  0
VISUALSTYLE
  5
3B
102
{ACAD_XDICTIONARY
360
456
102
}
102
{ACAD_REACTORS
330
2A
102
}
330
2A
100
AcDbVisualStyle
  2

 70
    20
 71
     2
 72
     2
 73
     0
 90
        0
 40
-0.6
 41
-30.0
 62
     5
 63
     7
421
 16777215
 74
     1
 91
        4
 64
     7
 65
   257
 75
     1
175
     1
 42
1.0
 92
       10
 66
     7
 43
1.0
 76
     1
 77
     6
 78
     2
 67
     7
 79
     5
170
     0
171
     0
290
     0
174
     0
 93
        1
 44
0.0
173
     0
291
     1
 45
0.0
1001
ACAD
1000
AcDbSavedByObjectVersion
1070
     0
  0
VISUALSTYLE
  5
38
102
{ACAD_XDICTIONARY
360
450
102
}
102
{ACAD_REACTORS
330
2A
102
}
330
2A
100
AcDbVisualStyle
  2

 70
    14
 71
     2
 72
     2
 73
     0
 90
        0
 40
-0.6
 41
-30.0
 62
     5
 63
     7
421
 16777215
 74
     1
 91
        4
 64
     7
 65
   257
 75
     7
175
     7
 42
1.0
 92
        8
 66
     7
 43
1.0
 76
     1
 77
     6
 78
     2
 67
     7
 79
     5
170
     0
171
     0
290
     0
174
     0
 93
        1
 44
0.0
173
     0
291
     1
 45
0.0
1001
ACAD
1000
AcDbSavedByObjectVersion
1070
     0
  0
VISUALSTYLE
  5
3C
102
{ACAD_XDICTIONARY
360
458
102
}
102
{ACAD_REACTORS
330
2A
102
}
330
2A
100
AcDbVisualStyle
  2

 70
    21
 71
     2
 72
     2
 73
     0
 90
        0
 40
-0.6
 41
-30.0
 62
     5
 63
     7
421
 16777215
 74
     1
 91
        4
 64
     7
 65
   257
 75
     1
175
     1
 42
1.0
 92
        9
 66
     7
 43
1.0
 76
     1
 77
     6
 78
     2
 67
     7
 79
     5
170
     0
171
     0
290
     0
174
     0
 93
        1
 44
0.0
173
     0
291
     1
 45
0.0
1001
ACAD
1000
AcDbSavedByObjectVersion
1070
     0
  0
VISUALSTYLE
  5
33
102
{ACAD_XDICTIONARY
360
446
102
}
102
{ACAD_REACTORS
330
2A
102
}
330
2A
100
AcDbVisualStyle
  2

 70
     8
 71
     2
 72
     3
 73
     0
 90
        2
 40
-0.6
 41
30.0
 62
     5
 63
     7
421
 16777215
 74
     0
 91
        0
 64
     7
 65
   257
 75
     1
175
     1
 42
1.0
 92
        8
 66
   257
 43
1.0
 76
     1
 77
     6
 78
     2
 67
     7
 79
     3
170
     0
171
     0
290
     0
174
     0
 93
       13
 44
0.0
173
     0
291
     0
 45
0.0
1001
ACAD
1000
AcDbSavedByObjectVersion
1070
     0
  0
VISUALSTYLE
  5
42
102
{ACAD_XDICTIONARY
360
464
102
}
102
{ACAD_REACTORS
330
2A
102
}
330
2A
100
AcDbVisualStyle
  2

 70
    27
 71
     2
 72
     2
 73
     1
 90
        2
 40
-0.6
 41
30.0
 62
     5
 63
     7
421
 16777215
 74
     0
 91
        4
 64
     7
 65
   257
 75
     1
175
     1
 42
1.0
 92
        8
 66
   257
 43
1.0
 76
     1
 77
     6
 78
     2
 67
     8
425
  7895160
 79
     3
170
     0
171
     0
290
     0
174
     0
 93
        5
 44
0.0
173
     0
291
     0
 45
0.0
1001
ACAD
1000
AcDbSavedByObjectVersion
1070
     0
  0
VISUALSTYLE
  5
41
102
{ACAD_XDICTIONARY
360
462
102
}
102
{ACAD_REACTORS
330
2A
102
}
330
2A
100
AcDbVisualStyle
  2

 70
    26
 71
     2
 72
     2
 73
     1
 90
        2
 40
-0.6
 41
30.0
 62
     5
 63
     7
421
 16777215
 74
     1
 91
       10
 64
     7
 65
   257
 75
     2
175
     1
 42
1.0
 92
        8
 66
   257
 43
1.0
 76
     1
 77
     6
 78
     2
 67
     7
 79
     3
170
     0
171
     0
290
     0
174
     0
 93
        5
 44
0.0
173
     0
291
     0
 45
0.0
1001
ACAD
1000
AcDbSavedByObjectVersion
1070
     0
  0
VISUALSTYLE
  5
3E
102
{ACAD_XDICTIONARY
360
45C
102
}
102
{ACAD_REACTORS
330
2A
102
}
330
2A
100
AcDbVisualStyle
  2

 70
    23
 71
     2
 72
     2
 73
     3
 90
        0
 40
-0.6
 41
-30.0
 62
     5
 63
     7
421
 16777215
 74
     2
 91
        2
 64
     7
 65
     7
 75
     1
175
     1
 42
40.0
 92
        8
 66
     7
 43
1.0
 76
     1
 77
     6
 78
     2
 67
     7
 79
     3
170
     0
171
     0
290
     0
174
     0
 93
        1
 44
0.0
173
     0
291
     0
 45
0.0
1001
ACAD
1000
AcDbSavedByObjectVersion
1070
     0
  0
VISUALSTYLE
  5
3F
102
{ACAD_XDICTIONARY
360
45E
102
}
102
{ACAD_REACTORS
330
2A
102
}
330
2A
100
AcDbVisualStyle
  2

 70
    24
 71
     1
 72
     2
 73
     2
 90
        0
 40
-0.6
 41
-30.0
 62
     5
 63
     7
421
 16777215
 74
     2
 91
        2
 64
     7
 65
     7
 75
     1
175
     1
 42
40.0
 92
       11
 66
     7
 43
1.0
 76
     1
 77
     6
 78
     2
 67
     7
 79
     6
170
     0
171
     0
290
     0
174
     0
 93
        1
 44
0.0
173
     0
291
     0
 45
0.0
1001
ACAD
1000
AcDbSavedByObjectVersion
1070
     0
  0
VISUALSTYLE
  5
37
102
{ACAD_XDICTIONARY
360
44E
102
}
102
{ACAD_REACTORS
330
2A
102
}
330
2A
100
AcDbVisualStyle
  2

 70
    13
 71
     2
 72
     2
 73
     0
 90
        0
 40
-0.6
 41
-30.0
 62
     5
 63
     7
421
 16777215
 74
     1
 91
        4
 64
     7
 65
   257
 75
     1
175
     1
 42
1.0
 92
       12
 66
     7
 43
1.0
 76
     1
 77
     6
 78
     2
 67
     7
 79
     5
170
     0
171
     0
290
     0
174
     0
 93
        1
 44
0.0
173
     0
291
     1
 45
0.0
1001
ACAD
1000
AcDbSavedByObjectVersion
1070
     0
  0
VISUALSTYLE
  5
30
102
{ACAD_XDICTIONARY
360
440
102
}
102
{ACAD_REACTORS
330
2A
102
}
330
2A
100
AcDbVisualStyle
  2

 70
     5
 71
     0
 72
     2
 73
     0
 90
        0
 40
-0.6
 41
-30.0
 62
     5
 63
     7
421
 16777215
 74
     1
 91
        4
 64
     7
 65
   257
 75
     1
175
     1
 42
1.0
 92
        0
 66
   257
 43
1.0
 76
     1
 77
     6
 78
     2
 67
     7
 79
     3
170
     0
171
     0
290
     0
174
     0
 93
        1
 44
0.0
173
     0
291
     0
 45
0.0
1001
ACAD
1000
AcDbSavedByObjectVersion
1070
     0
  0
VISUALSTYLE
  5
40
102
{ACAD_XDICTIONARY
360
460
102
}
102
{ACAD_REACTORS
330
2A
102
}
330
2A
100
AcDbVisualStyle
  2

 70
    25
 71
     2
 72
     2
 73
     1
 90
        1
 40
0.5
 41
-30.0
 62
     5
 63
     7
421
 16777215
 74
     1
 91
        0
 64
     7
 65
   257
 75
     1
175
     1
 42
1.0
 92
        8
 66
     7
 43
1.0
 76
     1
 77
     6
 78
     2
 67
     7
 79
     3
170
     0
171
     0
290
     0
174
     0
 93
       13
 44
0.0
173
     0
291
     0
 45
0.0
1001
ACAD
1000
AcDbSavedByObjectVersion
1070
     0
  0
DICTIONARYVAR
  5
352
102
{ACAD_REACTORS
330
351
102
}
330
351
100
DictionaryVariables
280
     0
  1
1:1
  0
DICTIONARYVAR
  5
393
102
{ACAD_REACTORS
330
351
102
}
330
351
100
DictionaryVariables
280
     0
  1
STANDARD
  0
DICTIONARYVAR
  5
392
102
{ACAD_REACTORS
330
351
102
}
330
351
100
DictionaryVariables
280
     0
  1
STANDARD
  0
DICTIONARYVAR
  5
428
102
{ACAD_REACTORS
330
351
102
}
330
351
100
DictionaryVariables
280
     0
  1
Metric50
  0
DICTIONARYVAR
  5
429
102
{ACAD_REACTORS
330
351
102
}
330
351
100
DictionaryVariables
280
     0
  1
Metric50
  0
DICTIONARYVAR
  5
353
102
{ACAD_REACTORS
330
351
102
}
330
351
100
DictionaryVariables
280
     0
  1
1
  0
DICTIONARYVAR
  5
42A
102
{ACAD_REACTORS
330
351
102
}
330
351
100
DictionaryVariables
280
     0
  1
2
  0
DICTIONARY
  5
435
102
{ACAD_REACTORS
330
433
102
}
330
433
100
AcDbDictionary
281
     1
  0
DICTIONARY
  5
434
102
{ACAD_REACTORS
330
433
102
}
330
433
100
AcDbDictionary
281
     1
  3
2524952172256
350
42E
  3
2524952172272
350
42F
  3
2524952172288
350
430
  3
2524952172304
350
431
  3
2524952172320
350
432
  0
DICTIONARY
  5
469
330
39A
100
AcDbDictionary
280
     1
281
     1
  3
ACAD_XREC_ROUNDTRIP
360
46A
  0
DICTIONARY
  5
387
330
45
100
AcDbDictionary
280
     1
281
     1
  3
ACAD_XREC_ROUNDTRIP
360
388
  0
DICTIONARY
  5
385
330
44
100
AcDbDictionary
280
     1
281
     1
  3
ACAD_XREC_ROUNDTRIP
360
386
  0
DICTIONARY
  5
389
330
46
100
AcDbDictionary
280
     1
281
     1
  3
ACAD_XREC_ROUNDTRIP
360
38A
  0
DICTIONARY
  5
467
330
399
100
AcDbDictionary
280
     1
281
     1
  3
ACAD_XREC_ROUNDTRIP
360
468
  0
DICTIONARY
  5
38B
330
6A
100
AcDbDictionary
280
     1
281
     1
  3
ACAD_ROUNDTRIP_2008_TABLESTYLE_CELLSTYLEMAP
360
42C
  3
ACAD_XREC_ROUNDTRIP
360
466
  0
DICTIONARY
  5
43E
330
2F
100
AcDbDictionary
280
     1
281
     1
  3
ACAD_XREC_ROUNDTRIP
360
43F
  0
DICTIONARY
  5
444
330
32
100
AcDbDictionary
280
     1
281
     1
  3
ACAD_XREC_ROUNDTRIP
360
445
  0
DICTIONARY
  5
44C
330
36
100
AcDbDictionary
280
     1
281
     1
  3
ACAD_XREC_ROUNDTRIP
360
44D
  0
DICTIONARY
  5
454
330
3A
100
AcDbDictionary
280
     1
281
     1
  3
ACAD_XREC_ROUNDTRIP
360
455
  0
DICTIONARY
  5
448
330
34
100
AcDbDictionary
280
     1
281
     1
  3
ACAD_XREC_ROUNDTRIP
360
449
  0
DICTIONARY
  5
44A
330
35
100
AcDbDictionary
280
     1
281
     1
  3
ACAD_XREC_ROUNDTRIP
360
44B
  0
DICTIONARY
  5
45A
330
3D
100
AcDbDictionary
280
     1
281
     1
  3
ACAD_XREC_ROUNDTRIP
360
45B
  0
DICTIONARY
  5
452
330
39
100
AcDbDictionary
280
     1
281
     1
  3
ACAD_XREC_ROUNDTRIP
360
453
  0
DICTIONARY
  5
436
330
2B
100
AcDbDictionary
280
     1
281
     1
  3
ACAD_XREC_ROUNDTRIP
360
437
  0
DICTIONARY
  5
438
330
2C
100
AcDbDictionary
280
     1
281
     1
  3
ACAD_XREC_ROUNDTRIP
360
439
  0
DICTIONARY
  5
43A
330
2D
100
AcDbDictionary
280
     1
281
     1
  3
ACAD_XREC_ROUNDTRIP
360
43B
  0
DICTIONARY
  5
43C
330
2E
100
AcDbDictionary
280
     1
281
     1
  3
ACAD_XREC_ROUNDTRIP
360
43D
  0
DICTIONARY
  5
442
330
31
100
AcDbDictionary
280
     1
281
     1
  3
ACAD_XREC_ROUNDTRIP
360
443
  0
DICTIONARY
  5
456
330
3B
100
AcDbDictionary
280
     1
281
     1
  3
ACAD_XREC_ROUNDTRIP
360
457
  0
DICTIONARY
  5
450
330
38
100
AcDbDictionary
280
     1
281
     1
  3
ACAD_XREC_ROUNDTRIP
360
451
  0
DICTIONARY
  5
458
330
3C
100
AcDbDictionary
280
     1
281
     1
  3
ACAD_XREC_ROUNDTRIP
360
459
  0
DICTIONARY
  5
446
330
33
100
AcDbDictionary
280
     1
281
     1
  3
ACAD_XREC_ROUNDTRIP
360
447
  0
DICTIONARY
  5
464
330
42
100
AcDbDictionary
280
     1
281
     1
  3
ACAD_XREC_ROUNDTRIP
360
465
  0
DICTIONARY
  5
462
330
41
100
AcDbDictionary
280
     1
281
     1
  3
ACAD_XREC_ROUNDTRIP
360
463
  0
DICTIONARY
  5
45C
330
3E
100
AcDbDictionary
280
     1
281
     1
  3
ACAD_XREC_ROUNDTRIP
360
45D
  0
DICTIONARY
  5
45E
330
3F
100
AcDbDictionary
280
     1
281
     1
  3
ACAD_XREC_ROUNDTRIP
360
45F
  0
DICTIONARY
  5
44E
330
37
100
AcDbDictionary
280
     1
281
     1
  3
ACAD_XREC_ROUNDTRIP
360
44F
  0
DICTIONARY
  5
440
330
30
100
AcDbDictionary
280
     1
281
     1
  3
ACAD_XREC_ROUNDTRIP
360
441
  0
DICTIONARY
  5
460
330
40
100
AcDbDictionary
280
     1
281
     1
  3
ACAD_XREC_ROUNDTRIP
360
461
  0
XRECORD
  5
42E
102
{ACAD_REACTORS
330
434
102
}
330
434
100
AcDbXrecord
280
     1
  1
AcDb_Thumbnail_Schema
102
{ATTRRECORD
341
42F
  2
AcDbDs::TreatedAsObjectData
280
     1
291
     1
102
ATTRRECORD}
102
{ATTRRECORD
341
430
  2
AcDbDs::Legacy
280
     1
291
     1
102
ATTRRECORD}
  2
AcDbDs::ID
280
    10
 91
        8
102
{ATTRRECORD
341
431
  2
AcDs:Indexable
280
     1
291
     1
102
ATTRRECORD}
102
{ATTRRECORD
341
432
  2
AcDbDs::HandleAttribute
280
     7
282
     1
102
ATTRRECORD}
  2
Thumbnail_Data
280
    15
 91
        0
  0
XRECORD
  5
42F
102
{ACAD_REACTORS
330
434
102
}
330
434
100
AcDbXrecord
280
     1
  1
AcDbDs::TreatedAsObjectDataSchema
  2
AcDbDs::TreatedAsObjectData
280
     1
 91
        0
  0
XRECORD
  5
430
102
{ACAD_REACTORS
330
434
102
}
330
434
100
AcDbXrecord
280
     1
  1
AcDbDs::LegacySchema
  2
AcDbDs::Legacy
280
     1
 91
        0
  0
XRECORD
  5
431
102
{ACAD_REACTORS
330
434
102
}
330
434
100
AcDbXrecord
280
     1
  1
AcDbDs::IndexedPropertySchema
  2
AcDs:Indexable
280
     1
 91
        0
  0
XRECORD
  5
432
102
{ACAD_REACTORS
330
434
102
}
330
434
100
AcDbXrecord
280
     1
  1
AcDbDs::HandleAttributeSchema
  2
AcDbDs::HandleAttribute
280
     7
 91
        1
284
     1
  0
XRECORD
  5
46A
102
{ACAD_REACTORS
330
469
102
}
330
469
100
AcDbXrecord
280
     1
102
DISPLAYNAME
  1
Metric50
102
FLAGS
 90
        0
  0
XRECORD
  5
388
102
{ACAD_REACTORS
330
387
102
}
330
387
100
AcDbXrecord
280
     1
102
MATERIAL
148
0.0
149
0.0
149
0.0
 93
        0
 94
      127
282
     0
 72
     1
 77
     1
171
     1
175
     1
179
     1
273
     0
  0
XRECORD
  5
386
102
{ACAD_REACTORS
330
385
102
}
330
385
100
AcDbXrecord
280
     1
102
MATERIAL
148
0.0
149
0.0
149
0.0
 93
        0
 94
      127
282
     0
 72
     1
 77
     1
171
     1
175
     1
179
     1
273
     0
  0
XRECORD
  5
38A
102
{ACAD_REACTORS
330
389
102
}
330
389
100
AcDbXrecord
280
     1
102
MATERIAL
148
0.0
149
0.0
149
0.0
 93
        0
 94
      127
282
     0
 72
     1
 77
     1
171
     1
175
     1
179
     1
273
     0
  0
XRECORD
  5
468
102
{ACAD_REACTORS
330
467
102
}
330
467
100
AcDbXrecord
280
     1
102
DISPLAYNAME
  1
Metric50
102
FLAGS
 90
        0
  0
CELLSTYLEMAP
  5
42C
102
{ACAD_REACTORS
330
38B
102
}
330
38B
100
AcDbCellStyleMap
 90
        3
300
CELLSTYLE
  1
TABLEFORMAT_BEGIN
 90
        5
170
     1
 91
        0
 92
    32768
 62
   257
 93
        1
300
CONTENTFORMAT
  1
CONTENTFORMAT_BEGIN
 90
        0
 91
        0
 92
        4
 93
        0
300

 40
0.0
140
1.0
 94
        5
 62
     0
340
11
144
0.25
309
CONTENTFORMAT_END
171
     1
301
MARGIN
  1
CELLMARGIN_BEGIN
 40
0.06
 40
0.06
 40
0.06
 40
0.06
 40
0.18
 40
0.18
309
CELLMARGIN_END
 94
        6
 95
        1
302
GRIDFORMAT
  1
GRIDFORMAT_BEGIN
 90
        0
 91
        1
 62
     0
 92
       -2
340
14
 93
        0
 40
0.045
309
GRIDFORMAT_END
 95
        2
302
GRIDFORMAT
  1
GRIDFORMAT_BEGIN
 90
        0
 91
        1
 62
     0
 92
       -2
340
14
 93
        0
 40
0.045
309
GRIDFORMAT_END
 95
        4
302
GRIDFORMAT
  1
GRIDFORMAT_BEGIN
 90
        0
 91
        1
 62
     0
 92
       -2
340
14
 93
        0
 40
0.045
309
GRIDFORMAT_END
 95
        8
302
GRIDFORMAT
  1
GRIDFORMAT_BEGIN
 90
        0
 91
        1
 62
     0
 92
       -2
340
14
 93
        0
 40
0.045
309
GRIDFORMAT_END
 95
       16
302
GRIDFORMAT
  1
GRIDFORMAT_BEGIN
 90
        0
 91
        1
 62
     0
 92
       -2
340
14
 93
        0
 40
0.045
309
GRIDFORMAT_END
 95
       32
302
GRIDFORMAT
  1
GRIDFORMAT_BEGIN
 90
        0
 91
        1
 62
     0
 92
       -2
340
14
 93
        0
 40
0.045
309
GRIDFORMAT_END
309
TABLEFORMAT_END
  1
CELLSTYLE_BEGIN
 90
        1
 91
        1
300
_TITLE
309
CELLSTYLE_END
300
CELLSTYLE
  1
TABLEFORMAT_BEGIN
 90
        5
170
     1
 91
        0
 92
        0
 62
   257
 93
        1
300
CONTENTFORMAT
  1
CONTENTFORMAT_BEGIN
 90
        0
 91
        0
 92
        4
 93
        0
300

 40
0.0
140
1.0
 94
        5
 62
     0
340
11
144
0.18
309
CONTENTFORMAT_END
171
     1
301
MARGIN
  1
CELLMARGIN_BEGIN
 40
0.06
 40
0.06
 40
0.06
 40
0.06
 40
0.18
 40
0.18
309
CELLMARGIN_END
 94
        6
 95
        1
302
GRIDFORMAT
  1
GRIDFORMAT_BEGIN
 90
        0
 91
        1
 62
     0
 92
       -2
340
14
 93
        0
 40
0.045
309
GRIDFORMAT_END
 95
        2
302
GRIDFORMAT
  1
GRIDFORMAT_BEGIN
 90
        0
 91
        1
 62
     0
 92
       -2
340
14
 93
        0
 40
0.045
309
GRIDFORMAT_END
 95
        4
302
GRIDFORMAT
  1
GRIDFORMAT_BEGIN
 90
        0
 91
        1
 62
     0
 92
       -2
340
14
 93
        0
 40
0.045
309
GRIDFORMAT_END
 95
        8
302
GRIDFORMAT
  1
GRIDFORMAT_BEGIN
 90
        0
 91
        1
 62
     0
 92
       -2
340
14
 93
        0
 40
0.045
309
GRIDFORMAT_END
 95
       16
302
GRIDFORMAT
  1
GRIDFORMAT_BEGIN
 90
        0
 91
        1
 62
     0
 92
       -2
340
14
 93
        0
 40
0.045
309
GRIDFORMAT_END
 95
       32
302
GRIDFORMAT
  1
GRIDFORMAT_BEGIN
 90
        0
 91
        1
 62
     0
 92
       -2
340
14
 93
        0
 40
0.045
309
GRIDFORMAT_END
309
TABLEFORMAT_END
  1
CELLSTYLE_BEGIN
 90
        2
 91
        1
300
_HEADER
309
CELLSTYLE_END
300
CELLSTYLE
  1
TABLEFORMAT_BEGIN
 90
        5
170
     1
 91
        0
 92
        0
 62
   257
 93
        1
300
CONTENTFORMAT
  1
CONTENTFORMAT_BEGIN
 90
        0
 91
        0
 92
        4
 93
        0
300

 40
0.0
140
1.0
 94
        2
 62
     0
340
11
144
0.18
309
CONTENTFORMAT_END
171
     1
301
MARGIN
  1
CELLMARGIN_BEGIN
 40
0.06
 40
0.06
 40
0.06
 40
0.06
 40
0.18
 40
0.18
309
CELLMARGIN_END
 94
        6
 95
        1
302
GRIDFORMAT
  1
GRIDFORMAT_BEGIN
 90
        0
 91
        1
 62
     0
 92
       -2
340
14
 93
        0
 40
0.045
309
GRIDFORMAT_END
 95
        2
302
GRIDFORMAT
  1
GRIDFORMAT_BEGIN
 90
        0
 91
        1
 62
     0
 92
       -2
340
14
 93
        0
 40
0.045
309
GRIDFORMAT_END
 95
        4
302
GRIDFORMAT
  1
GRIDFORMAT_BEGIN
 90
        0
 91
        1
 62
     0
 92
       -2
340
14
 93
        0
 40
0.045
309
GRIDFORMAT_END
 95
        8
302
GRIDFORMAT
  1
GRIDFORMAT_BEGIN
 90
        0
 91
        1
 62
     0
 92
       -2
340
14
 93
        0
 40
0.045
309
GRIDFORMAT_END
 95
       16
302
GRIDFORMAT
  1
GRIDFORMAT_BEGIN
 90
        0
 91
        1
 62
     0
 92
       -2
340
14
 93
        0
 40
0.045
309
GRIDFORMAT_END
 95
       32
302
GRIDFORMAT
  1
GRIDFORMAT_BEGIN
 90
        0
 91
        1
 62
     0
 92
       -2
340
14
 93
        0
 40
0.045
309
GRIDFORMAT_END
309
TABLEFORMAT_END
  1
CELLSTYLE_BEGIN
 90
        3
 91
        2
300
_DATA
309
CELLSTYLE_END
  0
XRECORD
  5
466
102
{ACAD_REACTORS
330
38B
102
}
330
38B
100
AcDbXrecord
280
     1
102
ACAD_ROUNDTRIP_PRE2007_TABLESTYLE
 90
        4
 91
        0
  1

 92
        4
 93
        0
  2

 94
        4
 95
        0
  3

  0
XRECORD
  5
43F
102
{ACAD_REACTORS
330
43E
102
}
330
43E
100
AcDbXrecord
280
     1
102
RTVSPost2010Prop28
280
     1
102
RTVSPost2010PropOp28
 70
     1
102
RTVSPost2010Prop29
280
     1
102
RTVSPost2010PropOp29
 70
     1
102
RTVSPost2010Prop30
280
     0
102
RTVSPost2010PropOp30
 70
     1
102
RTVSPost2010Prop31
280
     0
102
RTVSPost2010PropOp31
 70
     1
102
RTVSPost2010Prop32
280
     0
102
RTVSPost2010PropOp32
 70
     1
102
RTVSPost2010Prop33
280
     0
102
RTVSPost2010PropOp33
 70
     1
102
RTVSPost2010Prop34
280
     0
102
RTVSPost2010PropOp34
 70
     1
102
RTVSPost2010Prop35
280
     0
102
RTVSPost2010PropOp35
 70
     1
102
RTVSPost2010Prop36
280
     0
102
RTVSPost2010PropOp36
 70
     1
102
RTVSPost2010Prop37
 90
       50
102
RTVSPost2010PropOp37
 70
     1
102
RTVSPost2010Prop38
140
0.0
102
RTVSPost2010PropOp38
 70
     1
102
RTVSPost2010Prop39
140
1.0
102
RTVSPost2010PropOp39
 70
     1
102
RTVSPost2010Prop40
 90
        0
102
RTVSPost2010PropOp40
 70
     1
102
RTVSPost2010Prop41ColorIndex
 90
       18
102
RTVSPost2010Prop41ColorRGB
 90
        0
102
RTVSPost2010PropOp41
 70
     1
102
RTVSPost2010Prop42
 90
       50
102
RTVSPost2010PropOp42
 70
     1
102
RTVSPost2010Prop43
 90
        3
102
RTVSPost2010PropOp43
 70
     1
102
RTVSPost2010Prop44ColorIndex
 90
        5
102
RTVSPost2010Prop44ColorRGB
 90
      255
102
RTVSPost2010PropOp44
 70
     1
102
RTVSPost2010Prop45
280
     0
102
RTVSPost2010PropOp45
 70
     1
102
RTVSPost2010Prop46
 90
       50
102
RTVSPost2010PropOp46
 70
     1
102
RTVSPost2010Prop47
 90
       50
102
RTVSPost2010PropOp47
 70
     1
102
RTVSPost2010Prop48
 90
       50
102
RTVSPost2010PropOp48
 70
     1
102
RTVSPost2010Prop49
280
     0
102
RTVSPost2010PropOp49
 70
     1
102
RTVSPost2010Prop50
 90
       50
102
RTVSPost2010PropOp50
 70
     1
102
RTVSPost2010Prop51ColorIndex
 90
      256
102
RTVSPost2010Prop51ColorRGB
 90
-16777216
102
RTVSPost2010PropOp51
 70
     0
102
RTVSPost2010Prop52
140
1.0
102
RTVSPost2010PropOp52
 70
     0
102
RTVSPost2010Prop53
 90
        2
102
RTVSPost2010PropOp53
 70
     1
102
RTVSPost2010Prop54
  1
strokes_ogs.tif
102
RTVSPost2010PropOp54
 70
     1
102
RTVSPost2010Prop55
280
     0
102
RTVSPost2010PropOp55
 70
     1
102
RTVSPost2010Prop56
140
1.0
102
RTVSPost2010PropOp56
 70
     1
102
RTVSPost2010Prop57
140
1.0
102
RTVSPost2010PropOp57
 70
     1
102
RTVSPropertyOp0
 70
     1
102
RTVSPropertyOp1
 70
     1
102
RTVSPropertyOp2
 70
     1
102
RTVSPropertyOp3
 70
     1
102
RTVSPropertyOp4
 70
     1
102
RTVSPropertyOp5
 70
     1
102
RTVSPropertyOp6
 70
     1
102
RTVSPropertyOp7
 70
     1
102
RTVSPropertyOp8
 70
     1
102
RTVSPropertyOp9
 70
     1
102
RTVSPropertyOp10
 70
     1
102
RTVSPropertyOp11
 70
     1
102
RTVSPropertyOp12
 70
     1
102
RTVSPropertyOp13
 70
     1
102
RTVSPropertyOp14
 70
     1
102
RTVSPropertyOp15
 70
     1
102
RTVSPropertyOp16
 70
     1
102
RTVSPropertyOp17
 70
     1
102
RTVSPropertyOp18
 70
     1
102
RTVSPropertyOp19
 70
     1
102
RTVSPropertyOp20
 70
     1
102
RTVSPropertyOp21
 70
     1
102
RTVSPropertyOp22
 70
     1
102
RTVSPropertyOp23
 70
     1
102
RTVSPropertyOp24
 70
     1
102
RTVSPropertyOp25
 70
     1
102
RTVSPropertyOp26
 70
     1
102
RTVSPropertyOp27
 70
     1
102
RTVSPropertyOp28
 70
     1
102
RTVSPropertyOp29
 70
     1
102
RTVSPropertyOp30
 70
     1
102
RTVSPropertyOp31
 70
     1
102
RTVSPropertyOp32
 70
     1
102
RTVSPropertyOp33
 70
     1
102
RTVSPropertyOp34
 70
     1
102
RTVSPropertyOp35
 70
     1
102
RTVSPropertyOp36
 70
     1
102
RTVSPropertyOp37
 70
     1
102
RTVSPropertyOp38
 70
     1
102
RTVSPropertyOp39
 70
     1
102
RTVSPropertyOp40
 70
     1
102
RTVSPropertyOp41
 70
     1
102
RTVSPropertyOp42
 70
     1
102
RTVSPropertyOp43
 70
     1
102
RTVSPropertyOp44
 70
     1
102
RTVSPropertyOp45
 70
     1
102
RTVSPropertyOp46
 70
     1
102
RTVSPropertyOp47
 70
     1
102
RTVSPropertyOp48
 70
     1
102
RTVSPropertyOp49
 70
     1
102
RTVSPropertyOp50
 70
     1
102
RTVSPropertyOp51
 70
     0
102
RTVSPropertyOp52
 70
     0
102
RTVSPropertyOp53
 70
     1
102
RTVSPropertyOp54
 70
     1
102
RTVSPropertyOp55
 70
     1
102
RTVSPropertyOp56
 70
     1
102
RTVSPropertyOp57
 70
     1
102
RTVSPropertyOp58
 70
     1
102
RTVSPropertyOp59
 70
     1
102
RTVSPropertyOp60
 70
     1
102
RTVSPropertyOp61
 70
     1
102
RTVSPropertyOp62
 70
     1
  0
XRECORD
  5
445
102
{ACAD_REACTORS
330
444
102
}
330
444
100
AcDbXrecord
280
     1
102
RTVSPost2010Prop28
280
     0
102
RTVSPost2010PropOp28
 70
     1
102
RTVSPost2010Prop29
280
     1
102
RTVSPost2010PropOp29
 70
     1
102
RTVSPost2010Prop30
280
     1
102
RTVSPost2010PropOp30
 70
     1
102
RTVSPost2010Prop31
280
     0
102
RTVSPost2010PropOp31
 70
     1
102
RTVSPost2010Prop32
280
     0
102
RTVSPost2010PropOp32
 70
     1
102
RTVSPost2010Prop33
280
     0
102
RTVSPost2010PropOp33
 70
     1
102
RTVSPost2010Prop34
280
     0
102
RTVSPost2010PropOp34
 70
     1
102
RTVSPost2010Prop35
280
     0
102
RTVSPost2010PropOp35
 70
     1
102
RTVSPost2010Prop36
280
     0
102
RTVSPost2010PropOp36
 70
     1
102
RTVSPost2010Prop37
 90
       50
102
RTVSPost2010PropOp37
 70
     1
102
RTVSPost2010Prop38
140
0.0
102
RTVSPost2010PropOp38
 70
     1
102
RTVSPost2010Prop39
140
1.0
102
RTVSPost2010PropOp39
 70
     1
102
RTVSPost2010Prop40
 90
        0
102
RTVSPost2010PropOp40
 70
     1
102
RTVSPost2010Prop41ColorIndex
 90
       18
102
RTVSPost2010Prop41ColorRGB
 90
        0
102
RTVSPost2010PropOp41
 70
     1
102
RTVSPost2010Prop42
 90
       50
102
RTVSPost2010PropOp42
 70
     1
102
RTVSPost2010Prop43
 90
        3
102
RTVSPost2010PropOp43
 70
     1
102
RTVSPost2010Prop44ColorIndex
 90
        5
102
RTVSPost2010Prop44ColorRGB
 90
      255
102
RTVSPost2010PropOp44
 70
     1
102
RTVSPost2010Prop45
280
     0
102
RTVSPost2010PropOp45
 70
     1
102
RTVSPost2010Prop46
 90
       50
102
RTVSPost2010PropOp46
 70
     1
102
RTVSPost2010Prop47
 90
       50
102
RTVSPost2010PropOp47
 70
     1
102
RTVSPost2010Prop48
 90
       50
102
RTVSPost2010PropOp48
 70
     1
102
RTVSPost2010Prop49
280
     0
102
RTVSPost2010PropOp49
 70
     1
102
RTVSPost2010Prop50
 90
       50
102
RTVSPost2010PropOp50
 70
     1
102
RTVSPost2010Prop51ColorIndex
 90
      256
102
RTVSPost2010Prop51ColorRGB
 90
-16777216
102
RTVSPost2010PropOp51
 70
     0
102
RTVSPost2010Prop52
140
1.0
102
RTVSPost2010PropOp52
 70
     0
102
RTVSPost2010Prop53
 90
        2
102
RTVSPost2010PropOp53
 70
     1
102
RTVSPost2010Prop54
  1
strokes_ogs.tif
102
RTVSPost2010PropOp54
 70
     1
102
RTVSPost2010Prop55
280
     0
102
RTVSPost2010PropOp55
 70
     1
102
RTVSPost2010Prop56
140
1.0
102
RTVSPost2010PropOp56
 70
     1
102
RTVSPost2010Prop57
140
1.0
102
RTVSPost2010PropOp57
 70
     1
102
RTVSPropertyOp0
 70
     1
102
RTVSPropertyOp1
 70
     1
102
RTVSPropertyOp2
 70
     1
102
RTVSPropertyOp3
 70
     1
102
RTVSPropertyOp4
 70
     1
102
RTVSPropertyOp5
 70
     1
102
RTVSPropertyOp6
 70
     1
102
RTVSPropertyOp7
 70
     1
102
RTVSPropertyOp8
 70
     1
102
RTVSPropertyOp9
 70
     1
102
RTVSPropertyOp10
 70
     1
102
RTVSPropertyOp11
 70
     1
102
RTVSPropertyOp12
 70
     1
102
RTVSPropertyOp13
 70
     1
102
RTVSPropertyOp14
 70
     1
102
RTVSPropertyOp15
 70
     1
102
RTVSPropertyOp16
 70
     1
102
RTVSPropertyOp17
 70
     1
102
RTVSPropertyOp18
 70
     1
102
RTVSPropertyOp19
 70
     1
102
RTVSPropertyOp20
 70
     1
102
RTVSPropertyOp21
 70
     1
102
RTVSPropertyOp22
 70
     1
102
RTVSPropertyOp23
 70
     1
102
RTVSPropertyOp24
 70
     1
102
RTVSPropertyOp25
 70
     1
102
RTVSPropertyOp26
 70
     1
102
RTVSPropertyOp27
 70
     1
102
RTVSPropertyOp28
 70
     1
102
RTVSPropertyOp29
 70
     1
102
RTVSPropertyOp30
 70
     1
102
RTVSPropertyOp31
 70
     1
102
RTVSPropertyOp32
 70
     1
102
RTVSPropertyOp33
 70
     1
102
RTVSPropertyOp34
 70
     1
102
RTVSPropertyOp35
 70
     1
102
RTVSPropertyOp36
 70
     1
102
RTVSPropertyOp37
 70
     1
102
RTVSPropertyOp38
 70
     1
102
RTVSPropertyOp39
 70
     1
102
RTVSPropertyOp40
 70
     1
102
RTVSPropertyOp41
 70
     1
102
RTVSPropertyOp42
 70
     1
102
RTVSPropertyOp43
 70
     1
102
RTVSPropertyOp44
 70
     1
102
RTVSPropertyOp45
 70
     1
102
RTVSPropertyOp46
 70
     1
102
RTVSPropertyOp47
 70
     1
102
RTVSPropertyOp48
 70
     1
102
RTVSPropertyOp49
 70
     1
102
RTVSPropertyOp50
 70
     1
102
RTVSPropertyOp51
 70
     0
102
RTVSPropertyOp52
 70
     0
102
RTVSPropertyOp53
 70
     1
102
RTVSPropertyOp54
 70
     1
102
RTVSPropertyOp55
 70
     1
102
RTVSPropertyOp56
 70
     1
102
RTVSPropertyOp57
 70
     1
102
RTVSPropertyOp58
 70
     1
102
RTVSPropertyOp59
 70
     1
102
RTVSPropertyOp60
 70
     1
102
RTVSPropertyOp61
 70
     1
102
RTVSPropertyOp62
 70
     1
  0
XRECORD
  5
44D
102
{ACAD_REACTORS
330
44C
102
}
330
44C
100
AcDbXrecord
280
     1
102
RTVSPost2010Prop28
280
     0
102
RTVSPost2010PropOp28
 70
     1
102
RTVSPost2010Prop29
280
     1
102
RTVSPost2010PropOp29
 70
     1
102
RTVSPost2010Prop30
280
     1
102
RTVSPost2010PropOp30
 70
     1
102
RTVSPost2010Prop31
280
     0
102
RTVSPost2010PropOp31
 70
     1
102
RTVSPost2010Prop32
280
     0
102
RTVSPost2010PropOp32
 70
     1
102
RTVSPost2010Prop33
280
     0
102
RTVSPost2010PropOp33
 70
     1
102
RTVSPost2010Prop34
280
     0
102
RTVSPost2010PropOp34
 70
     1
102
RTVSPost2010Prop35
280
     0
102
RTVSPost2010PropOp35
 70
     1
102
RTVSPost2010Prop36
280
     0
102
RTVSPost2010PropOp36
 70
     1
102
RTVSPost2010Prop37
 90
       50
102
RTVSPost2010PropOp37
 70
     1
102
RTVSPost2010Prop38
140
0.0
102
RTVSPost2010PropOp38
 70
     1
102
RTVSPost2010Prop39
140
1.0
102
RTVSPost2010PropOp39
 70
     1
102
RTVSPost2010Prop40
 90
        0
102
RTVSPost2010PropOp40
 70
     1
102
RTVSPost2010Prop41ColorIndex
 90
       18
102
RTVSPost2010Prop41ColorRGB
 90
        0
102
RTVSPost2010PropOp41
 70
     1
102
RTVSPost2010Prop42
 90
       50
102
RTVSPost2010PropOp42
 70
     1
102
RTVSPost2010Prop43
 90
        3
102
RTVSPost2010PropOp43
 70
     1
102
RTVSPost2010Prop44ColorIndex
 90
        5
102
RTVSPost2010Prop44ColorRGB
 90
      255
102
RTVSPost2010PropOp44
 70
     1
102
RTVSPost2010Prop45
280
     0
102
RTVSPost2010PropOp45
 70
     1
102
RTVSPost2010Prop46
 90
       50
102
RTVSPost2010PropOp46
 70
     1
102
RTVSPost2010Prop47
 90
       50
102
RTVSPost2010PropOp47
 70
     1
102
RTVSPost2010Prop48
 90
       50
102
RTVSPost2010PropOp48
 70
     1
102
RTVSPost2010Prop49
280
     0
102
RTVSPost2010PropOp49
 70
     1
102
RTVSPost2010Prop50
 90
       50
102
RTVSPost2010PropOp50
 70
     1
102
RTVSPost2010Prop51ColorIndex
 90
      256
102
RTVSPost2010Prop51ColorRGB
 90
-16777216
102
RTVSPost2010PropOp51
 70
     0
102
RTVSPost2010Prop52
140
1.0
102
RTVSPost2010PropOp52
 70
     0
102
RTVSPost2010Prop53
 90
        2
102
RTVSPost2010PropOp53
 70
     1
102
RTVSPost2010Prop54
  1
strokes_ogs.tif
102
RTVSPost2010PropOp54
 70
     1
102
RTVSPost2010Prop55
280
     0
102
RTVSPost2010PropOp55
 70
     1
102
RTVSPost2010Prop56
140
1.0
102
RTVSPost2010PropOp56
 70
     1
102
RTVSPost2010Prop57
140
1.0
102
RTVSPost2010PropOp57
 70
     1
102
RTVSPropertyOp0
 70
     1
102
RTVSPropertyOp1
 70
     1
102
RTVSPropertyOp2
 70
     1
102
RTVSPropertyOp3
 70
     1
102
RTVSPropertyOp4
 70
     1
102
RTVSPropertyOp5
 70
     1
102
RTVSPropertyOp6
 70
     1
102
RTVSPropertyOp7
 70
     1
102
RTVSPropertyOp8
 70
     1
102
RTVSPropertyOp9
 70
     1
102
RTVSPropertyOp10
 70
     1
102
RTVSPropertyOp11
 70
     1
102
RTVSPropertyOp12
 70
     1
102
RTVSPropertyOp13
 70
     1
102
RTVSPropertyOp14
 70
     1
102
RTVSPropertyOp15
 70
     1
102
RTVSPropertyOp16
 70
     1
102
RTVSPropertyOp17
 70
     1
102
RTVSPropertyOp18
 70
     1
102
RTVSPropertyOp19
 70
     1
102
RTVSPropertyOp20
 70
     1
102
RTVSPropertyOp21
 70
     1
102
RTVSPropertyOp22
 70
     1
102
RTVSPropertyOp23
 70
     1
102
RTVSPropertyOp24
 70
     1
102
RTVSPropertyOp25
 70
     1
102
RTVSPropertyOp26
 70
     1
102
RTVSPropertyOp27
 70
     1
102
RTVSPropertyOp28
 70
     1
102
RTVSPropertyOp29
 70
     1
102
RTVSPropertyOp30
 70
     1
102
RTVSPropertyOp31
 70
     1
102
RTVSPropertyOp32
 70
     1
102
RTVSPropertyOp33
 70
     1
102
RTVSPropertyOp34
 70
     1
102
RTVSPropertyOp35
 70
     1
102
RTVSPropertyOp36
 70
     1
102
RTVSPropertyOp37
 70
     1
102
RTVSPropertyOp38
 70
     1
102
RTVSPropertyOp39
 70
     1
102
RTVSPropertyOp40
 70
     1
102
RTVSPropertyOp41
 70
     1
102
RTVSPropertyOp42
 70
     1
102
RTVSPropertyOp43
 70
     1
102
RTVSPropertyOp44
 70
     1
102
RTVSPropertyOp45
 70
     1
102
RTVSPropertyOp46
 70
     1
102
RTVSPropertyOp47
 70
     1
102
RTVSPropertyOp48
 70
     1
102
RTVSPropertyOp49
 70
     1
102
RTVSPropertyOp50
 70
     1
102
RTVSPropertyOp51
 70
     0
102
RTVSPropertyOp52
 70
     0
102
RTVSPropertyOp53
 70
     1
102
RTVSPropertyOp54
 70
     1
102
RTVSPropertyOp55
 70
     1
102
RTVSPropertyOp56
 70
     1
102
RTVSPropertyOp57
 70
     1
102
RTVSPropertyOp58
 70
     1
102
RTVSPropertyOp59
 70
     1
102
RTVSPropertyOp60
 70
     1
102
RTVSPropertyOp61
 70
     1
102
RTVSPropertyOp62
 70
     1
  0
XRECORD
  5
455
102
{ACAD_REACTORS
330
454
102
}
330
454
100
AcDbXrecord
280
     1
102
RTVSPost2010Prop28
280
     0
102
RTVSPost2010PropOp28
 70
     1
102
RTVSPost2010Prop29
280
     1
102
RTVSPost2010PropOp29
 70
     1
102
RTVSPost2010Prop30
280
     1
102
RTVSPost2010PropOp30
 70
     1
102
RTVSPost2010Prop31
280
     0
102
RTVSPost2010PropOp31
 70
     1
102
RTVSPost2010Prop32
280
     0
102
RTVSPost2010PropOp32
 70
     1
102
RTVSPost2010Prop33
280
     0
102
RTVSPost2010PropOp33
 70
     1
102
RTVSPost2010Prop34
280
     0
102
RTVSPost2010PropOp34
 70
     1
102
RTVSPost2010Prop35
280
     0
102
RTVSPost2010PropOp35
 70
     1
102
RTVSPost2010Prop36
280
     0
102
RTVSPost2010PropOp36
 70
     1
102
RTVSPost2010Prop37
 90
       50
102
RTVSPost2010PropOp37
 70
     1
102
RTVSPost2010Prop38
140
0.0
102
RTVSPost2010PropOp38
 70
     1
102
RTVSPost2010Prop39
140
1.0
102
RTVSPost2010PropOp39
 70
     1
102
RTVSPost2010Prop40
 90
        0
102
RTVSPost2010PropOp40
 70
     1
102
RTVSPost2010Prop41ColorIndex
 90
       18
102
RTVSPost2010Prop41ColorRGB
 90
        0
102
RTVSPost2010PropOp41
 70
     1
102
RTVSPost2010Prop42
 90
       50
102
RTVSPost2010PropOp42
 70
     1
102
RTVSPost2010Prop43
 90
        3
102
RTVSPost2010PropOp43
 70
     1
102
RTVSPost2010Prop44ColorIndex
 90
        5
102
RTVSPost2010Prop44ColorRGB
 90
      255
102
RTVSPost2010PropOp44
 70
     1
102
RTVSPost2010Prop45
280
     0
102
RTVSPost2010PropOp45
 70
     1
102
RTVSPost2010Prop46
 90
       50
102
RTVSPost2010PropOp46
 70
     1
102
RTVSPost2010Prop47
 90
       50
102
RTVSPost2010PropOp47
 70
     1
102
RTVSPost2010Prop48
 90
       50
102
RTVSPost2010PropOp48
 70
     1
102
RTVSPost2010Prop49
280
     0
102
RTVSPost2010PropOp49
 70
     1
102
RTVSPost2010Prop50
 90
       50
102
RTVSPost2010PropOp50
 70
     1
102
RTVSPost2010Prop51ColorIndex
 90
      256
102
RTVSPost2010Prop51ColorRGB
 90
-16777216
102
RTVSPost2010PropOp51
 70
     0
102
RTVSPost2010Prop52
140
1.0
102
RTVSPost2010PropOp52
 70
     0
102
RTVSPost2010Prop53
 90
        2
102
RTVSPost2010PropOp53
 70
     1
102
RTVSPost2010Prop54
  1
strokes_ogs.tif
102
RTVSPost2010PropOp54
 70
     1
102
RTVSPost2010Prop55
280
     0
102
RTVSPost2010PropOp55
 70
     1
102
RTVSPost2010Prop56
140
1.0
102
RTVSPost2010PropOp56
 70
     1
102
RTVSPost2010Prop57
140
1.0
102
RTVSPost2010PropOp57
 70
     1
102
RTVSPropertyOp0
 70
     1
102
RTVSPropertyOp1
 70
     1
102
RTVSPropertyOp2
 70
     1
102
RTVSPropertyOp3
 70
     1
102
RTVSPropertyOp4
 70
     1
102
RTVSPropertyOp5
 70
     1
102
RTVSPropertyOp6
 70
     1
102
RTVSPropertyOp7
 70
     1
102
RTVSPropertyOp8
 70
     1
102
RTVSPropertyOp9
 70
     1
102
RTVSPropertyOp10
 70
     1
102
RTVSPropertyOp11
 70
     1
102
RTVSPropertyOp12
 70
     1
102
RTVSPropertyOp13
 70
     1
102
RTVSPropertyOp14
 70
     1
102
RTVSPropertyOp15
 70
     1
102
RTVSPropertyOp16
 70
     1
102
RTVSPropertyOp17
 70
     1
102
RTVSPropertyOp18
 70
     1
102
RTVSPropertyOp19
 70
     1
102
RTVSPropertyOp20
 70
     1
102
RTVSPropertyOp21
 70
     1
102
RTVSPropertyOp22
 70
     1
102
RTVSPropertyOp23
 70
     1
102
RTVSPropertyOp24
 70
     1
102
RTVSPropertyOp25
 70
     1
102
RTVSPropertyOp26
 70
     1
102
RTVSPropertyOp27
 70
     1
102
RTVSPropertyOp28
 70
     1
102
RTVSPropertyOp29
 70
     1
102
RTVSPropertyOp30
 70
     1
102
RTVSPropertyOp31
 70
     1
102
RTVSPropertyOp32
 70
     1
102
RTVSPropertyOp33
 70
     1
102
RTVSPropertyOp34
 70
     1
102
RTVSPropertyOp35
 70
     1
102
RTVSPropertyOp36
 70
     1
102
RTVSPropertyOp37
 70
     1
102
RTVSPropertyOp38
 70
     1
102
RTVSPropertyOp39
 70
     1
102
RTVSPropertyOp40
 70
     1
102
RTVSPropertyOp41
 70
     1
102
RTVSPropertyOp42
 70
     1
102
RTVSPropertyOp43
 70
     1
102
RTVSPropertyOp44
 70
     1
102
RTVSPropertyOp45
 70
     1
102
RTVSPropertyOp46
 70
     1
102
RTVSPropertyOp47
 70
     1
102
RTVSPropertyOp48
 70
     1
102
RTVSPropertyOp49
 70
     1
102
RTVSPropertyOp50
 70
     1
102
RTVSPropertyOp51
 70
     0
102
RTVSPropertyOp52
 70
     0
102
RTVSPropertyOp53
 70
     1
102
RTVSPropertyOp54
 70
     1
102
RTVSPropertyOp55
 70
     1
102
RTVSPropertyOp56
 70
     1
102
RTVSPropertyOp57
 70
     1
102
RTVSPropertyOp58
 70
     1
102
RTVSPropertyOp59
 70
     1
102
RTVSPropertyOp60
 70
     1
102
RTVSPropertyOp61
 70
     1
102
RTVSPropertyOp62
 70
     1
  0
XRECORD
  5
449
102
{ACAD_REACTORS
330
448
102
}
330
448
100
AcDbXrecord
280
     1
102
RTVSPost2010Prop28
280
     0
102
RTVSPost2010PropOp28
 70
     1
102
RTVSPost2010Prop29
280
     1
102
RTVSPost2010PropOp29
 70
     1
102
RTVSPost2010Prop30
280
     1
102
RTVSPost2010PropOp30
 70
     1
102
RTVSPost2010Prop31
280
     0
102
RTVSPost2010PropOp31
 70
     1
102
RTVSPost2010Prop32
280
     0
102
RTVSPost2010PropOp32
 70
     1
102
RTVSPost2010Prop33
280
     0
102
RTVSPost2010PropOp33
 70
     1
102
RTVSPost2010Prop34
280
     0
102
RTVSPost2010PropOp34
 70
     1
102
RTVSPost2010Prop35
280
     0
102
RTVSPost2010PropOp35
 70
     1
102
RTVSPost2010Prop36
280
     0
102
RTVSPost2010PropOp36
 70
     1
102
RTVSPost2010Prop37
 90
       50
102
RTVSPost2010PropOp37
 70
     1
102
RTVSPost2010Prop38
140
0.0
102
RTVSPost2010PropOp38
 70
     1
102
RTVSPost2010Prop39
140
1.0
102
RTVSPost2010PropOp39
 70
     1
102
RTVSPost2010Prop40
 90
        0
102
RTVSPost2010PropOp40
 70
     1
102
RTVSPost2010Prop41ColorIndex
 90
       18
102
RTVSPost2010Prop41ColorRGB
 90
        0
102
RTVSPost2010PropOp41
 70
     1
102
RTVSPost2010Prop42
 90
       50
102
RTVSPost2010PropOp42
 70
     1
102
RTVSPost2010Prop43
 90
        3
102
RTVSPost2010PropOp43
 70
     1
102
RTVSPost2010Prop44ColorIndex
 90
        5
102
RTVSPost2010Prop44ColorRGB
 90
      255
102
RTVSPost2010PropOp44
 70
     1
102
RTVSPost2010Prop45
280
     0
102
RTVSPost2010PropOp45
 70
     1
102
RTVSPost2010Prop46
 90
       50
102
RTVSPost2010PropOp46
 70
     1
102
RTVSPost2010Prop47
 90
       50
102
RTVSPost2010PropOp47
 70
     1
102
RTVSPost2010Prop48
 90
       50
102
RTVSPost2010PropOp48
 70
     1
102
RTVSPost2010Prop49
280
     0
102
RTVSPost2010PropOp49
 70
     1
102
RTVSPost2010Prop50
 90
       50
102
RTVSPost2010PropOp50
 70
     1
102
RTVSPost2010Prop51ColorIndex
 90
      256
102
RTVSPost2010Prop51ColorRGB
 90
-16777216
102
RTVSPost2010PropOp51
 70
     0
102
RTVSPost2010Prop52
140
1.0
102
RTVSPost2010PropOp52
 70
     0
102
RTVSPost2010Prop53
 90
        2
102
RTVSPost2010PropOp53
 70
     1
102
RTVSPost2010Prop54
  1
strokes_ogs.tif
102
RTVSPost2010PropOp54
 70
     1
102
RTVSPost2010Prop55
280
     0
102
RTVSPost2010PropOp55
 70
     1
102
RTVSPost2010Prop56
140
1.0
102
RTVSPost2010PropOp56
 70
     1
102
RTVSPost2010Prop57
140
1.0
102
RTVSPost2010PropOp57
 70
     1
102
RTVSPropertyOp0
 70
     1
102
RTVSPropertyOp1
 70
     1
102
RTVSPropertyOp2
 70
     1
102
RTVSPropertyOp3
 70
     1
102
RTVSPropertyOp4
 70
     1
102
RTVSPropertyOp5
 70
     1
102
RTVSPropertyOp6
 70
     1
102
RTVSPropertyOp7
 70
     1
102
RTVSPropertyOp8
 70
     1
102
RTVSPropertyOp9
 70
     1
102
RTVSPropertyOp10
 70
     1
102
RTVSPropertyOp11
 70
     1
102
RTVSPropertyOp12
 70
     1
102
RTVSPropertyOp13
 70
     1
102
RTVSPropertyOp14
 70
     1
102
RTVSPropertyOp15
 70
     1
102
RTVSPropertyOp16
 70
     1
102
RTVSPropertyOp17
 70
     1
102
RTVSPropertyOp18
 70
     1
102
RTVSPropertyOp19
 70
     1
102
RTVSPropertyOp20
 70
     1
102
RTVSPropertyOp21
 70
     1
102
RTVSPropertyOp22
 70
     1
102
RTVSPropertyOp23
 70
     1
102
RTVSPropertyOp24
 70
     1
102
RTVSPropertyOp25
 70
     1
102
RTVSPropertyOp26
 70
     1
102
RTVSPropertyOp27
 70
     1
102
RTVSPropertyOp28
 70
     1
102
RTVSPropertyOp29
 70
     1
102
RTVSPropertyOp30
 70
     1
102
RTVSPropertyOp31
 70
     1
102
RTVSPropertyOp32
 70
     1
102
RTVSPropertyOp33
 70
     1
102
RTVSPropertyOp34
 70
     1
102
RTVSPropertyOp35
 70
     1
102
RTVSPropertyOp36
 70
     1
102
RTVSPropertyOp37
 70
     1
102
RTVSPropertyOp38
 70
     1
102
RTVSPropertyOp39
 70
     1
102
RTVSPropertyOp40
 70
     1
102
RTVSPropertyOp41
 70
     1
102
RTVSPropertyOp42
 70
     1
102
RTVSPropertyOp43
 70
     1
102
RTVSPropertyOp44
 70
     1
102
RTVSPropertyOp45
 70
     1
102
RTVSPropertyOp46
 70
     1
102
RTVSPropertyOp47
 70
     1
102
RTVSPropertyOp48
 70
     1
102
RTVSPropertyOp49
 70
     1
102
RTVSPropertyOp50
 70
     1
102
RTVSPropertyOp51
 70
     0
102
RTVSPropertyOp52
 70
     0
102
RTVSPropertyOp53
 70
     1
102
RTVSPropertyOp54
 70
     1
102
RTVSPropertyOp55
 70
     1
102
RTVSPropertyOp56
 70
     1
102
RTVSPropertyOp57
 70
     1
102
RTVSPropertyOp58
 70
     1
102
RTVSPropertyOp59
 70
     1
102
RTVSPropertyOp60
 70
     1
102
RTVSPropertyOp61
 70
     1
102
RTVSPropertyOp62
 70
     1
  0
XRECORD
  5
44B
102
{ACAD_REACTORS
330
44A
102
}
330
44A
100
AcDbXrecord
280
     1
102
RTVSPost2010Prop28
280
     0
102
RTVSPost2010PropOp28
 70
     1
102
RTVSPost2010Prop29
280
     1
102
RTVSPost2010PropOp29
 70
     1
102
RTVSPost2010Prop30
280
     1
102
RTVSPost2010PropOp30
 70
     1
102
RTVSPost2010Prop31
280
     0
102
RTVSPost2010PropOp31
 70
     1
102
RTVSPost2010Prop32
280
     0
102
RTVSPost2010PropOp32
 70
     1
102
RTVSPost2010Prop33
280
     0
102
RTVSPost2010PropOp33
 70
     1
102
RTVSPost2010Prop34
280
     0
102
RTVSPost2010PropOp34
 70
     1
102
RTVSPost2010Prop35
280
     0
102
RTVSPost2010PropOp35
 70
     1
102
RTVSPost2010Prop36
280
     0
102
RTVSPost2010PropOp36
 70
     1
102
RTVSPost2010Prop37
 90
       50
102
RTVSPost2010PropOp37
 70
     1
102
RTVSPost2010Prop38
140
0.0
102
RTVSPost2010PropOp38
 70
     1
102
RTVSPost2010Prop39
140
1.0
102
RTVSPost2010PropOp39
 70
     1
102
RTVSPost2010Prop40
 90
        0
102
RTVSPost2010PropOp40
 70
     1
102
RTVSPost2010Prop41ColorIndex
 90
       18
102
RTVSPost2010Prop41ColorRGB
 90
        0
102
RTVSPost2010PropOp41
 70
     1
102
RTVSPost2010Prop42
 90
       50
102
RTVSPost2010PropOp42
 70
     1
102
RTVSPost2010Prop43
 90
        3
102
RTVSPost2010PropOp43
 70
     1
102
RTVSPost2010Prop44ColorIndex
 90
        5
102
RTVSPost2010Prop44ColorRGB
 90
      255
102
RTVSPost2010PropOp44
 70
     1
102
RTVSPost2010Prop45
280
     0
102
RTVSPost2010PropOp45
 70
     1
102
RTVSPost2010Prop46
 90
       50
102
RTVSPost2010PropOp46
 70
     1
102
RTVSPost2010Prop47
 90
       50
102
RTVSPost2010PropOp47
 70
     1
102
RTVSPost2010Prop48
 90
       50
102
RTVSPost2010PropOp48
 70
     1
102
RTVSPost2010Prop49
280
     0
102
RTVSPost2010PropOp49
 70
     1
102
RTVSPost2010Prop50
 90
       50
102
RTVSPost2010PropOp50
 70
     1
102
RTVSPost2010Prop51ColorIndex
 90
      256
102
RTVSPost2010Prop51ColorRGB
 90
-16777216
102
RTVSPost2010PropOp51
 70
     0
102
RTVSPost2010Prop52
140
1.0
102
RTVSPost2010PropOp52
 70
     0
102
RTVSPost2010Prop53
 90
        2
102
RTVSPost2010PropOp53
 70
     1
102
RTVSPost2010Prop54
  1
strokes_ogs.tif
102
RTVSPost2010PropOp54
 70
     1
102
RTVSPost2010Prop55
280
     0
102
RTVSPost2010PropOp55
 70
     1
102
RTVSPost2010Prop56
140
1.0
102
RTVSPost2010PropOp56
 70
     1
102
RTVSPost2010Prop57
140
1.0
102
RTVSPost2010PropOp57
 70
     1
102
RTVSPropertyOp0
 70
     1
102
RTVSPropertyOp1
 70
     1
102
RTVSPropertyOp2
 70
     1
102
RTVSPropertyOp3
 70
     1
102
RTVSPropertyOp4
 70
     1
102
RTVSPropertyOp5
 70
     1
102
RTVSPropertyOp6
 70
     1
102
RTVSPropertyOp7
 70
     1
102
RTVSPropertyOp8
 70
     1
102
RTVSPropertyOp9
 70
     1
102
RTVSPropertyOp10
 70
     1
102
RTVSPropertyOp11
 70
     1
102
RTVSPropertyOp12
 70
     1
102
RTVSPropertyOp13
 70
     1
102
RTVSPropertyOp14
 70
     1
102
RTVSPropertyOp15
 70
     1
102
RTVSPropertyOp16
 70
     1
102
RTVSPropertyOp17
 70
     1
102
RTVSPropertyOp18
 70
     1
102
RTVSPropertyOp19
 70
     1
102
RTVSPropertyOp20
 70
     1
102
RTVSPropertyOp21
 70
     1
102
RTVSPropertyOp22
 70
     1
102
RTVSPropertyOp23
 70
     1
102
RTVSPropertyOp24
 70
     1
102
RTVSPropertyOp25
 70
     1
102
RTVSPropertyOp26
 70
     1
102
RTVSPropertyOp27
 70
     1
102
RTVSPropertyOp28
 70
     1
102
RTVSPropertyOp29
 70
     1
102
RTVSPropertyOp30
 70
     1
102
RTVSPropertyOp31
 70
     1
102
RTVSPropertyOp32
 70
     1
102
RTVSPropertyOp33
 70
     1
102
RTVSPropertyOp34
 70
     1
102
RTVSPropertyOp35
 70
     1
102
RTVSPropertyOp36
 70
     1
102
RTVSPropertyOp37
 70
     1
102
RTVSPropertyOp38
 70
     1
102
RTVSPropertyOp39
 70
     1
102
RTVSPropertyOp40
 70
     1
102
RTVSPropertyOp41
 70
     1
102
RTVSPropertyOp42
 70
     1
102
RTVSPropertyOp43
 70
     1
102
RTVSPropertyOp44
 70
     1
102
RTVSPropertyOp45
 70
     1
102
RTVSPropertyOp46
 70
     1
102
RTVSPropertyOp47
 70
     1
102
RTVSPropertyOp48
 70
     1
102
RTVSPropertyOp49
 70
     1
102
RTVSPropertyOp50
 70
     1
102
RTVSPropertyOp51
 70
     0
102
RTVSPropertyOp52
 70
     0
102
RTVSPropertyOp53
 70
     1
102
RTVSPropertyOp54
 70
     1
102
RTVSPropertyOp55
 70
     1
102
RTVSPropertyOp56
 70
     1
102
RTVSPropertyOp57
 70
     1
102
RTVSPropertyOp58
 70
     1
102
RTVSPropertyOp59
 70
     1
102
RTVSPropertyOp60
 70
     1
102
RTVSPropertyOp61
 70
     1
102
RTVSPropertyOp62
 70
     1
  0
XRECORD
  5
45B
102
{ACAD_REACTORS
330
45A
102
}
330
45A
100
AcDbXrecord
280
     1
102
RTVSPost2010Prop28
280
     0
102
RTVSPost2010PropOp28
 70
     0
102
RTVSPost2010Prop29
280
     1
102
RTVSPost2010PropOp29
 70
     0
102
RTVSPost2010Prop30
280
     1
102
RTVSPost2010PropOp30
 70
     0
102
RTVSPost2010Prop31
280
     0
102
RTVSPost2010PropOp31
 70
     0
102
RTVSPost2010Prop32
280
     0
102
RTVSPost2010PropOp32
 70
     0
102
RTVSPost2010Prop33
280
     0
102
RTVSPost2010PropOp33
 70
     0
102
RTVSPost2010Prop34
280
     0
102
RTVSPost2010PropOp34
 70
     0
102
RTVSPost2010Prop35
280
     0
102
RTVSPost2010PropOp35
 70
     0
102
RTVSPost2010Prop36
280
     0
102
RTVSPost2010PropOp36
 70
     0
102
RTVSPost2010Prop37
 90
       50
102
RTVSPost2010PropOp37
 70
     0
102
RTVSPost2010Prop38
140
0.0
102
RTVSPost2010PropOp38
 70
     0
102
RTVSPost2010Prop39
140
1.0
102
RTVSPost2010PropOp39
 70
     0
102
RTVSPost2010Prop40
 90
        0
102
RTVSPost2010PropOp40
 70
     0
102
RTVSPost2010Prop41ColorIndex
 90
       18
102
RTVSPost2010Prop41ColorRGB
 90
        0
102
RTVSPost2010PropOp41
 70
     0
102
RTVSPost2010Prop42
 90
       50
102
RTVSPost2010PropOp42
 70
     0
102
RTVSPost2010Prop43
 90
        3
102
RTVSPost2010PropOp43
 70
     0
102
RTVSPost2010Prop44ColorIndex
 90
        5
102
RTVSPost2010Prop44ColorRGB
 90
      255
102
RTVSPost2010PropOp44
 70
     0
102
RTVSPost2010Prop45
280
     0
102
RTVSPost2010PropOp45
 70
     0
102
RTVSPost2010Prop46
 90
       50
102
RTVSPost2010PropOp46
 70
     0
102
RTVSPost2010Prop47
 90
       50
102
RTVSPost2010PropOp47
 70
     0
102
RTVSPost2010Prop48
 90
       50
102
RTVSPost2010PropOp48
 70
     0
102
RTVSPost2010Prop49
280
     0
102
RTVSPost2010PropOp49
 70
     0
102
RTVSPost2010Prop50
 90
       50
102
RTVSPost2010PropOp50
 70
     0
102
RTVSPost2010Prop51ColorIndex
 90
      256
102
RTVSPost2010Prop51ColorRGB
 90
-16777216
102
RTVSPost2010PropOp51
 70
     0
102
RTVSPost2010Prop52
140
1.0
102
RTVSPost2010PropOp52
 70
     0
102
RTVSPost2010Prop53
 90
        2
102
RTVSPost2010PropOp53
 70
     0
102
RTVSPost2010Prop54
  1
strokes_ogs.tif
102
RTVSPost2010PropOp54
 70
     0
102
RTVSPost2010Prop55
280
     0
102
RTVSPost2010PropOp55
 70
     0
102
RTVSPost2010Prop56
140
1.0
102
RTVSPost2010PropOp56
 70
     0
102
RTVSPost2010Prop57
140
1.0
102
RTVSPost2010PropOp57
 70
     0
102
RTVSPropertyOp0
 70
     0
102
RTVSPropertyOp1
 70
     0
102
RTVSPropertyOp2
 70
     0
102
RTVSPropertyOp3
 70
     0
102
RTVSPropertyOp4
 70
     0
102
RTVSPropertyOp5
 70
     0
102
RTVSPropertyOp6
 70
     0
102
RTVSPropertyOp7
 70
     0
102
RTVSPropertyOp8
 70
     0
102
RTVSPropertyOp9
 70
     0
102
RTVSPropertyOp10
 70
     0
102
RTVSPropertyOp11
 70
     0
102
RTVSPropertyOp12
 70
     0
102
RTVSPropertyOp13
 70
     0
102
RTVSPropertyOp14
 70
     2
102
RTVSPropertyOp15
 70
     0
102
RTVSPropertyOp16
 70
     0
102
RTVSPropertyOp17
 70
     0
102
RTVSPropertyOp18
 70
     0
102
RTVSPropertyOp19
 70
     0
102
RTVSPropertyOp20
 70
     0
102
RTVSPropertyOp21
 70
     0
102
RTVSPropertyOp22
 70
     0
102
RTVSPropertyOp23
 70
     0
102
RTVSPropertyOp24
 70
     0
102
RTVSPropertyOp25
 70
     0
102
RTVSPropertyOp26
 70
     0
102
RTVSPropertyOp27
 70
     0
102
RTVSPropertyOp28
 70
     0
102
RTVSPropertyOp29
 70
     0
102
RTVSPropertyOp30
 70
     0
102
RTVSPropertyOp31
 70
     0
102
RTVSPropertyOp32
 70
     0
102
RTVSPropertyOp33
 70
     0
102
RTVSPropertyOp34
 70
     0
102
RTVSPropertyOp35
 70
     0
102
RTVSPropertyOp36
 70
     0
102
RTVSPropertyOp37
 70
     0
102
RTVSPropertyOp38
 70
     0
102
RTVSPropertyOp39
 70
     0
102
RTVSPropertyOp40
 70
     0
102
RTVSPropertyOp41
 70
     0
102
RTVSPropertyOp42
 70
     0
102
RTVSPropertyOp43
 70
     0
102
RTVSPropertyOp44
 70
     0
102
RTVSPropertyOp45
 70
     0
102
RTVSPropertyOp46
 70
     0
102
RTVSPropertyOp47
 70
     0
102
RTVSPropertyOp48
 70
     0
102
RTVSPropertyOp49
 70
     0
102
RTVSPropertyOp50
 70
     0
102
RTVSPropertyOp51
 70
     0
102
RTVSPropertyOp52
 70
     0
102
RTVSPropertyOp53
 70
     0
102
RTVSPropertyOp54
 70
     0
102
RTVSPropertyOp55
 70
     0
102
RTVSPropertyOp56
 70
     0
102
RTVSPropertyOp57
 70
     0
102
RTVSPropertyOp58
 70
     1
102
RTVSPropertyOp59
 70
     1
102
RTVSPropertyOp60
 70
     1
102
RTVSPropertyOp61
 70
     1
102
RTVSPropertyOp62
 70
     1
  0
XRECORD
  5
453
102
{ACAD_REACTORS
330
452
102
}
330
452
100
AcDbXrecord
280
     1
102
RTVSPost2010Prop28
280
     0
102
RTVSPost2010PropOp28
 70
     1
102
RTVSPost2010Prop29
280
     1
102
RTVSPost2010PropOp29
 70
     1
102
RTVSPost2010Prop30
280
     1
102
RTVSPost2010PropOp30
 70
     1
102
RTVSPost2010Prop31
280
     0
102
RTVSPost2010PropOp31
 70
     1
102
RTVSPost2010Prop32
280
     0
102
RTVSPost2010PropOp32
 70
     1
102
RTVSPost2010Prop33
280
     0
102
RTVSPost2010PropOp33
 70
     1
102
RTVSPost2010Prop34
280
     0
102
RTVSPost2010PropOp34
 70
     1
102
RTVSPost2010Prop35
280
     0
102
RTVSPost2010PropOp35
 70
     1
102
RTVSPost2010Prop36
280
     0
102
RTVSPost2010PropOp36
 70
     1
102
RTVSPost2010Prop37
 90
       50
102
RTVSPost2010PropOp37
 70
     1
102
RTVSPost2010Prop38
140
0.0
102
RTVSPost2010PropOp38
 70
     1
102
RTVSPost2010Prop39
140
1.0
102
RTVSPost2010PropOp39
 70
     1
102
RTVSPost2010Prop40
 90
        0
102
RTVSPost2010PropOp40
 70
     1
102
RTVSPost2010Prop41ColorIndex
 90
       18
102
RTVSPost2010Prop41ColorRGB
 90
        0
102
RTVSPost2010PropOp41
 70
     1
102
RTVSPost2010Prop42
 90
       50
102
RTVSPost2010PropOp42
 70
     1
102
RTVSPost2010Prop43
 90
        3
102
RTVSPost2010PropOp43
 70
     1
102
RTVSPost2010Prop44ColorIndex
 90
        5
102
RTVSPost2010Prop44ColorRGB
 90
      255
102
RTVSPost2010PropOp44
 70
     1
102
RTVSPost2010Prop45
280
     0
102
RTVSPost2010PropOp45
 70
     1
102
RTVSPost2010Prop46
 90
       50
102
RTVSPost2010PropOp46
 70
     1
102
RTVSPost2010Prop47
 90
       50
102
RTVSPost2010PropOp47
 70
     1
102
RTVSPost2010Prop48
 90
       50
102
RTVSPost2010PropOp48
 70
     1
102
RTVSPost2010Prop49
280
     0
102
RTVSPost2010PropOp49
 70
     1
102
RTVSPost2010Prop50
 90
       50
102
RTVSPost2010PropOp50
 70
     1
102
RTVSPost2010Prop51ColorIndex
 90
      256
102
RTVSPost2010Prop51ColorRGB
 90
-16777216
102
RTVSPost2010PropOp51
 70
     0
102
RTVSPost2010Prop52
140
1.0
102
RTVSPost2010PropOp52
 70
     0
102
RTVSPost2010Prop53
 90
        2
102
RTVSPost2010PropOp53
 70
     1
102
RTVSPost2010Prop54
  1
strokes_ogs.tif
102
RTVSPost2010PropOp54
 70
     1
102
RTVSPost2010Prop55
280
     0
102
RTVSPost2010PropOp55
 70
     1
102
RTVSPost2010Prop56
140
1.0
102
RTVSPost2010PropOp56
 70
     1
102
RTVSPost2010Prop57
140
1.0
102
RTVSPost2010PropOp57
 70
     1
102
RTVSPropertyOp0
 70
     1
102
RTVSPropertyOp1
 70
     1
102
RTVSPropertyOp2
 70
     1
102
RTVSPropertyOp3
 70
     1
102
RTVSPropertyOp4
 70
     1
102
RTVSPropertyOp5
 70
     1
102
RTVSPropertyOp6
 70
     1
102
RTVSPropertyOp7
 70
     1
102
RTVSPropertyOp8
 70
     1
102
RTVSPropertyOp9
 70
     1
102
RTVSPropertyOp10
 70
     1
102
RTVSPropertyOp11
 70
     1
102
RTVSPropertyOp12
 70
     1
102
RTVSPropertyOp13
 70
     1
102
RTVSPropertyOp14
 70
     1
102
RTVSPropertyOp15
 70
     1
102
RTVSPropertyOp16
 70
     1
102
RTVSPropertyOp17
 70
     1
102
RTVSPropertyOp18
 70
     1
102
RTVSPropertyOp19
 70
     1
102
RTVSPropertyOp20
 70
     1
102
RTVSPropertyOp21
 70
     1
102
RTVSPropertyOp22
 70
     1
102
RTVSPropertyOp23
 70
     1
102
RTVSPropertyOp24
 70
     1
102
RTVSPropertyOp25
 70
     1
102
RTVSPropertyOp26
 70
     1
102
RTVSPropertyOp27
 70
     1
102
RTVSPropertyOp28
 70
     1
102
RTVSPropertyOp29
 70
     1
102
RTVSPropertyOp30
 70
     1
102
RTVSPropertyOp31
 70
     1
102
RTVSPropertyOp32
 70
     1
102
RTVSPropertyOp33
 70
     1
102
RTVSPropertyOp34
 70
     1
102
RTVSPropertyOp35
 70
     1
102
RTVSPropertyOp36
 70
     1
102
RTVSPropertyOp37
 70
     1
102
RTVSPropertyOp38
 70
     1
102
RTVSPropertyOp39
 70
     1
102
RTVSPropertyOp40
 70
     1
102
RTVSPropertyOp41
 70
     1
102
RTVSPropertyOp42
 70
     1
102
RTVSPropertyOp43
 70
     1
102
RTVSPropertyOp44
 70
     1
102
RTVSPropertyOp45
 70
     1
102
RTVSPropertyOp46
 70
     1
102
RTVSPropertyOp47
 70
     1
102
RTVSPropertyOp48
 70
     1
102
RTVSPropertyOp49
 70
     1
102
RTVSPropertyOp50
 70
     1
102
RTVSPropertyOp51
 70
     0
102
RTVSPropertyOp52
 70
     0
102
RTVSPropertyOp53
 70
     1
102
RTVSPropertyOp54
 70
     1
102
RTVSPropertyOp55
 70
     1
102
RTVSPropertyOp56
 70
     1
102
RTVSPropertyOp57
 70
     1
102
RTVSPropertyOp58
 70
     1
102
RTVSPropertyOp59
 70
     1
102
RTVSPropertyOp60
 70
     1
102
RTVSPropertyOp61
 70
     1
102
RTVSPropertyOp62
 70
     1
  0
XRECORD
  5
437
102
{ACAD_REACTORS
330
436
102
}
330
436
100
AcDbXrecord
280
     1
102
RTVSPost2010Prop28
280
     0
102
RTVSPost2010PropOp28
 70
     1
102
RTVSPost2010Prop29
280
     1
102
RTVSPost2010PropOp29
 70
     1
102
RTVSPost2010Prop30
280
     1
102
RTVSPost2010PropOp30
 70
     1
102
RTVSPost2010Prop31
280
     0
102
RTVSPost2010PropOp31
 70
     1
102
RTVSPost2010Prop32
280
     0
102
RTVSPost2010PropOp32
 70
     1
102
RTVSPost2010Prop33
280
     0
102
RTVSPost2010PropOp33
 70
     1
102
RTVSPost2010Prop34
280
     0
102
RTVSPost2010PropOp34
 70
     1
102
RTVSPost2010Prop35
280
     0
102
RTVSPost2010PropOp35
 70
     1
102
RTVSPost2010Prop36
280
     0
102
RTVSPost2010PropOp36
 70
     1
102
RTVSPost2010Prop37
 90
       50
102
RTVSPost2010PropOp37
 70
     1
102
RTVSPost2010Prop38
140
0.0
102
RTVSPost2010PropOp38
 70
     1
102
RTVSPost2010Prop39
140
1.0
102
RTVSPost2010PropOp39
 70
     1
102
RTVSPost2010Prop40
 90
        0
102
RTVSPost2010PropOp40
 70
     1
102
RTVSPost2010Prop41ColorIndex
 90
       18
102
RTVSPost2010Prop41ColorRGB
 90
        0
102
RTVSPost2010PropOp41
 70
     1
102
RTVSPost2010Prop42
 90
       50
102
RTVSPost2010PropOp42
 70
     1
102
RTVSPost2010Prop43
 90
        3
102
RTVSPost2010PropOp43
 70
     1
102
RTVSPost2010Prop44ColorIndex
 90
        5
102
RTVSPost2010Prop44ColorRGB
 90
      255
102
RTVSPost2010PropOp44
 70
     1
102
RTVSPost2010Prop45
280
     0
102
RTVSPost2010PropOp45
 70
     1
102
RTVSPost2010Prop46
 90
       50
102
RTVSPost2010PropOp46
 70
     1
102
RTVSPost2010Prop47
 90
       50
102
RTVSPost2010PropOp47
 70
     1
102
RTVSPost2010Prop48
 90
       50
102
RTVSPost2010PropOp48
 70
     1
102
RTVSPost2010Prop49
280
     0
102
RTVSPost2010PropOp49
 70
     1
102
RTVSPost2010Prop50
 90
       50
102
RTVSPost2010PropOp50
 70
     1
102
RTVSPost2010Prop51ColorIndex
 90
      256
102
RTVSPost2010Prop51ColorRGB
 90
-16777216
102
RTVSPost2010PropOp51
 70
     0
102
RTVSPost2010Prop52
140
1.0
102
RTVSPost2010PropOp52
 70
     0
102
RTVSPost2010Prop53
 90
        2
102
RTVSPost2010PropOp53
 70
     1
102
RTVSPost2010Prop54
  1
strokes_ogs.tif
102
RTVSPost2010PropOp54
 70
     1
102
RTVSPost2010Prop55
280
     0
102
RTVSPost2010PropOp55
 70
     1
102
RTVSPost2010Prop56
140
1.0
102
RTVSPost2010PropOp56
 70
     1
102
RTVSPost2010Prop57
140
1.0
102
RTVSPost2010PropOp57
 70
     1
102
RTVSPropertyOp0
 70
     1
102
RTVSPropertyOp1
 70
     1
102
RTVSPropertyOp2
 70
     1
102
RTVSPropertyOp3
 70
     1
102
RTVSPropertyOp4
 70
     1
102
RTVSPropertyOp5
 70
     1
102
RTVSPropertyOp6
 70
     1
102
RTVSPropertyOp7
 70
     1
102
RTVSPropertyOp8
 70
     1
102
RTVSPropertyOp9
 70
     1
102
RTVSPropertyOp10
 70
     1
102
RTVSPropertyOp11
 70
     1
102
RTVSPropertyOp12
 70
     1
102
RTVSPropertyOp13
 70
     1
102
RTVSPropertyOp14
 70
     1
102
RTVSPropertyOp15
 70
     1
102
RTVSPropertyOp16
 70
     1
102
RTVSPropertyOp17
 70
     1
102
RTVSPropertyOp18
 70
     1
102
RTVSPropertyOp19
 70
     1
102
RTVSPropertyOp20
 70
     1
102
RTVSPropertyOp21
 70
     1
102
RTVSPropertyOp22
 70
     1
102
RTVSPropertyOp23
 70
     1
102
RTVSPropertyOp24
 70
     1
102
RTVSPropertyOp25
 70
     1
102
RTVSPropertyOp26
 70
     1
102
RTVSPropertyOp27
 70
     1
102
RTVSPropertyOp28
 70
     1
102
RTVSPropertyOp29
 70
     1
102
RTVSPropertyOp30
 70
     1
102
RTVSPropertyOp31
 70
     1
102
RTVSPropertyOp32
 70
     1
102
RTVSPropertyOp33
 70
     1
102
RTVSPropertyOp34
 70
     1
102
RTVSPropertyOp35
 70
     1
102
RTVSPropertyOp36
 70
     1
102
RTVSPropertyOp37
 70
     1
102
RTVSPropertyOp38
 70
     1
102
RTVSPropertyOp39
 70
     1
102
RTVSPropertyOp40
 70
     1
102
RTVSPropertyOp41
 70
     1
102
RTVSPropertyOp42
 70
     1
102
RTVSPropertyOp43
 70
     1
102
RTVSPropertyOp44
 70
     1
102
RTVSPropertyOp45
 70
     1
102
RTVSPropertyOp46
 70
     1
102
RTVSPropertyOp47
 70
     1
102
RTVSPropertyOp48
 70
     1
102
RTVSPropertyOp49
 70
     1
102
RTVSPropertyOp50
 70
     1
102
RTVSPropertyOp51
 70
     0
102
RTVSPropertyOp52
 70
     0
102
RTVSPropertyOp53
 70
     1
102
RTVSPropertyOp54
 70
     1
102
RTVSPropertyOp55
 70
     1
102
RTVSPropertyOp56
 70
     1
102
RTVSPropertyOp57
 70
     1
102
RTVSPropertyOp58
 70
     1
102
RTVSPropertyOp59
 70
     1
102
RTVSPropertyOp60
 70
     1
102
RTVSPropertyOp61
 70
     1
102
RTVSPropertyOp62
 70
     1
  0
XRECORD
  5
439
102
{ACAD_REACTORS
330
438
102
}
330
438
100
AcDbXrecord
280
     1
102
RTVSPost2010Prop28
280
     0
102
RTVSPost2010PropOp28
 70
     1
102
RTVSPost2010Prop29
280
     1
102
RTVSPost2010PropOp29
 70
     1
102
RTVSPost2010Prop30
280
     1
102
RTVSPost2010PropOp30
 70
     1
102
RTVSPost2010Prop31
280
     0
102
RTVSPost2010PropOp31
 70
     1
102
RTVSPost2010Prop32
280
     0
102
RTVSPost2010PropOp32
 70
     1
102
RTVSPost2010Prop33
280
     0
102
RTVSPost2010PropOp33
 70
     1
102
RTVSPost2010Prop34
280
     0
102
RTVSPost2010PropOp34
 70
     1
102
RTVSPost2010Prop35
280
     0
102
RTVSPost2010PropOp35
 70
     1
102
RTVSPost2010Prop36
280
     0
102
RTVSPost2010PropOp36
 70
     1
102
RTVSPost2010Prop37
 90
       50
102
RTVSPost2010PropOp37
 70
     1
102
RTVSPost2010Prop38
140
0.0
102
RTVSPost2010PropOp38
 70
     1
102
RTVSPost2010Prop39
140
1.0
102
RTVSPost2010PropOp39
 70
     1
102
RTVSPost2010Prop40
 90
        0
102
RTVSPost2010PropOp40
 70
     1
102
RTVSPost2010Prop41ColorIndex
 90
       18
102
RTVSPost2010Prop41ColorRGB
 90
        0
102
RTVSPost2010PropOp41
 70
     1
102
RTVSPost2010Prop42
 90
       50
102
RTVSPost2010PropOp42
 70
     1
102
RTVSPost2010Prop43
 90
        3
102
RTVSPost2010PropOp43
 70
     1
102
RTVSPost2010Prop44ColorIndex
 90
        5
102
RTVSPost2010Prop44ColorRGB
 90
      255
102
RTVSPost2010PropOp44
 70
     1
102
RTVSPost2010Prop45
280
     0
102
RTVSPost2010PropOp45
 70
     1
102
RTVSPost2010Prop46
 90
       50
102
RTVSPost2010PropOp46
 70
     1
102
RTVSPost2010Prop47
 90
       50
102
RTVSPost2010PropOp47
 70
     1
102
RTVSPost2010Prop48
 90
       50
102
RTVSPost2010PropOp48
 70
     1
102
RTVSPost2010Prop49
280
     0
102
RTVSPost2010PropOp49
 70
     1
102
RTVSPost2010Prop50
 90
       50
102
RTVSPost2010PropOp50
 70
     1
102
RTVSPost2010Prop51ColorIndex
 90
      256
102
RTVSPost2010Prop51ColorRGB
 90
-16777216
102
RTVSPost2010PropOp51
 70
     0
102
RTVSPost2010Prop52
140
1.0
102
RTVSPost2010PropOp52
 70
     0
102
RTVSPost2010Prop53
 90
        2
102
RTVSPost2010PropOp53
 70
     1
102
RTVSPost2010Prop54
  1
strokes_ogs.tif
102
RTVSPost2010PropOp54
 70
     1
102
RTVSPost2010Prop55
280
     0
102
RTVSPost2010PropOp55
 70
     1
102
RTVSPost2010Prop56
140
1.0
102
RTVSPost2010PropOp56
 70
     1
102
RTVSPost2010Prop57
140
1.0
102
RTVSPost2010PropOp57
 70
     1
102
RTVSPropertyOp0
 70
     1
102
RTVSPropertyOp1
 70
     1
102
RTVSPropertyOp2
 70
     1
102
RTVSPropertyOp3
 70
     1
102
RTVSPropertyOp4
 70
     1
102
RTVSPropertyOp5
 70
     1
102
RTVSPropertyOp6
 70
     1
102
RTVSPropertyOp7
 70
     1
102
RTVSPropertyOp8
 70
     1
102
RTVSPropertyOp9
 70
     1
102
RTVSPropertyOp10
 70
     1
102
RTVSPropertyOp11
 70
     1
102
RTVSPropertyOp12
 70
     1
102
RTVSPropertyOp13
 70
     1
102
RTVSPropertyOp14
 70
     1
102
RTVSPropertyOp15
 70
     1
102
RTVSPropertyOp16
 70
     1
102
RTVSPropertyOp17
 70
     1
102
RTVSPropertyOp18
 70
     1
102
RTVSPropertyOp19
 70
     1
102
RTVSPropertyOp20
 70
     1
102
RTVSPropertyOp21
 70
     1
102
RTVSPropertyOp22
 70
     1
102
RTVSPropertyOp23
 70
     1
102
RTVSPropertyOp24
 70
     1
102
RTVSPropertyOp25
 70
     1
102
RTVSPropertyOp26
 70
     1
102
RTVSPropertyOp27
 70
     1
102
RTVSPropertyOp28
 70
     1
102
RTVSPropertyOp29
 70
     1
102
RTVSPropertyOp30
 70
     1
102
RTVSPropertyOp31
 70
     1
102
RTVSPropertyOp32
 70
     1
102
RTVSPropertyOp33
 70
     1
102
RTVSPropertyOp34
 70
     1
102
RTVSPropertyOp35
 70
     1
102
RTVSPropertyOp36
 70
     1
102
RTVSPropertyOp37
 70
     1
102
RTVSPropertyOp38
 70
     1
102
RTVSPropertyOp39
 70
     1
102
RTVSPropertyOp40
 70
     1
102
RTVSPropertyOp41
 70
     1
102
RTVSPropertyOp42
 70
     1
102
RTVSPropertyOp43
 70
     1
102
RTVSPropertyOp44
 70
     1
102
RTVSPropertyOp45
 70
     1
102
RTVSPropertyOp46
 70
     1
102
RTVSPropertyOp47
 70
     1
102
RTVSPropertyOp48
 70
     1
102
RTVSPropertyOp49
 70
     1
102
RTVSPropertyOp50
 70
     1
102
RTVSPropertyOp51
 70
     0
102
RTVSPropertyOp52
 70
     0
102
RTVSPropertyOp53
 70
     1
102
RTVSPropertyOp54
 70
     1
102
RTVSPropertyOp55
 70
     1
102
RTVSPropertyOp56
 70
     1
102
RTVSPropertyOp57
 70
     1
102
RTVSPropertyOp58
 70
     1
102
RTVSPropertyOp59
 70
     1
102
RTVSPropertyOp60
 70
     1
102
RTVSPropertyOp61
 70
     1
102
RTVSPropertyOp62
 70
     1
  0
XRECORD
  5
43B
102
{ACAD_REACTORS
330
43A
102
}
330
43A
100
AcDbXrecord
280
     1
102
RTVSPost2010Prop28
280
     0
102
RTVSPost2010PropOp28
 70
     1
102
RTVSPost2010Prop29
280
     1
102
RTVSPost2010PropOp29
 70
     1
102
RTVSPost2010Prop30
280
     1
102
RTVSPost2010PropOp30
 70
     1
102
RTVSPost2010Prop31
280
     0
102
RTVSPost2010PropOp31
 70
     1
102
RTVSPost2010Prop32
280
     0
102
RTVSPost2010PropOp32
 70
     1
102
RTVSPost2010Prop33
280
     0
102
RTVSPost2010PropOp33
 70
     1
102
RTVSPost2010Prop34
280
     0
102
RTVSPost2010PropOp34
 70
     1
102
RTVSPost2010Prop35
280
     0
102
RTVSPost2010PropOp35
 70
     1
102
RTVSPost2010Prop36
280
     0
102
RTVSPost2010PropOp36
 70
     1
102
RTVSPost2010Prop37
 90
       50
102
RTVSPost2010PropOp37
 70
     1
102
RTVSPost2010Prop38
140
0.0
102
RTVSPost2010PropOp38
 70
     1
102
RTVSPost2010Prop39
140
1.0
102
RTVSPost2010PropOp39
 70
     1
102
RTVSPost2010Prop40
 90
        0
102
RTVSPost2010PropOp40
 70
     1
102
RTVSPost2010Prop41ColorIndex
 90
       18
102
RTVSPost2010Prop41ColorRGB
 90
        0
102
RTVSPost2010PropOp41
 70
     1
102
RTVSPost2010Prop42
 90
       50
102
RTVSPost2010PropOp42
 70
     1
102
RTVSPost2010Prop43
 90
        3
102
RTVSPost2010PropOp43
 70
     1
102
RTVSPost2010Prop44ColorIndex
 90
        5
102
RTVSPost2010Prop44ColorRGB
 90
      255
102
RTVSPost2010PropOp44
 70
     1
102
RTVSPost2010Prop45
280
     0
102
RTVSPost2010PropOp45
 70
     1
102
RTVSPost2010Prop46
 90
       50
102
RTVSPost2010PropOp46
 70
     1
102
RTVSPost2010Prop47
 90
       50
102
RTVSPost2010PropOp47
 70
     1
102
RTVSPost2010Prop48
 90
       50
102
RTVSPost2010PropOp48
 70
     1
102
RTVSPost2010Prop49
280
     0
102
RTVSPost2010PropOp49
 70
     1
102
RTVSPost2010Prop50
 90
       50
102
RTVSPost2010PropOp50
 70
     1
102
RTVSPost2010Prop51ColorIndex
 90
      256
102
RTVSPost2010Prop51ColorRGB
 90
-16777216
102
RTVSPost2010PropOp51
 70
     0
102
RTVSPost2010Prop52
140
1.0
102
RTVSPost2010PropOp52
 70
     0
102
RTVSPost2010Prop53
 90
        2
102
RTVSPost2010PropOp53
 70
     1
102
RTVSPost2010Prop54
  1
strokes_ogs.tif
102
RTVSPost2010PropOp54
 70
     1
102
RTVSPost2010Prop55
280
     0
102
RTVSPost2010PropOp55
 70
     1
102
RTVSPost2010Prop56
140
1.0
102
RTVSPost2010PropOp56
 70
     1
102
RTVSPost2010Prop57
140
1.0
102
RTVSPost2010PropOp57
 70
     1
102
RTVSPropertyOp0
 70
     1
102
RTVSPropertyOp1
 70
     1
102
RTVSPropertyOp2
 70
     1
102
RTVSPropertyOp3
 70
     1
102
RTVSPropertyOp4
 70
     1
102
RTVSPropertyOp5
 70
     1
102
RTVSPropertyOp6
 70
     1
102
RTVSPropertyOp7
 70
     1
102
RTVSPropertyOp8
 70
     1
102
RTVSPropertyOp9
 70
     1
102
RTVSPropertyOp10
 70
     1
102
RTVSPropertyOp11
 70
     1
102
RTVSPropertyOp12
 70
     1
102
RTVSPropertyOp13
 70
     1
102
RTVSPropertyOp14
 70
     1
102
RTVSPropertyOp15
 70
     1
102
RTVSPropertyOp16
 70
     1
102
RTVSPropertyOp17
 70
     1
102
RTVSPropertyOp18
 70
     1
102
RTVSPropertyOp19
 70
     1
102
RTVSPropertyOp20
 70
     1
102
RTVSPropertyOp21
 70
     1
102
RTVSPropertyOp22
 70
     1
102
RTVSPropertyOp23
 70
     1
102
RTVSPropertyOp24
 70
     1
102
RTVSPropertyOp25
 70
     1
102
RTVSPropertyOp26
 70
     1
102
RTVSPropertyOp27
 70
     1
102
RTVSPropertyOp28
 70
     1
102
RTVSPropertyOp29
 70
     1
102
RTVSPropertyOp30
 70
     1
102
RTVSPropertyOp31
 70
     1
102
RTVSPropertyOp32
 70
     1
102
RTVSPropertyOp33
 70
     1
102
RTVSPropertyOp34
 70
     1
102
RTVSPropertyOp35
 70
     1
102
RTVSPropertyOp36
 70
     1
102
RTVSPropertyOp37
 70
     1
102
RTVSPropertyOp38
 70
     1
102
RTVSPropertyOp39
 70
     1
102
RTVSPropertyOp40
 70
     1
102
RTVSPropertyOp41
 70
     1
102
RTVSPropertyOp42
 70
     1
102
RTVSPropertyOp43
 70
     1
102
RTVSPropertyOp44
 70
     1
102
RTVSPropertyOp45
 70
     1
102
RTVSPropertyOp46
 70
     1
102
RTVSPropertyOp47
 70
     1
102
RTVSPropertyOp48
 70
     1
102
RTVSPropertyOp49
 70
     1
102
RTVSPropertyOp50
 70
     1
102
RTVSPropertyOp51
 70
     0
102
RTVSPropertyOp52
 70
     0
102
RTVSPropertyOp53
 70
     1
102
RTVSPropertyOp54
 70
     1
102
RTVSPropertyOp55
 70
     1
102
RTVSPropertyOp56
 70
     1
102
RTVSPropertyOp57
 70
     1
102
RTVSPropertyOp58
 70
     1
102
RTVSPropertyOp59
 70
     1
102
RTVSPropertyOp60
 70
     1
102
RTVSPropertyOp61
 70
     1
102
RTVSPropertyOp62
 70
     1
  0
XRECORD
  5
43D
102
{ACAD_REACTORS
330
43C
102
}
330
43C
100
AcDbXrecord
280
     1
102
RTVSPost2010Prop28
280
     0
102
RTVSPost2010PropOp28
 70
     1
102
RTVSPost2010Prop29
280
     1
102
RTVSPost2010PropOp29
 70
     1
102
RTVSPost2010Prop30
280
     1
102
RTVSPost2010PropOp30
 70
     1
102
RTVSPost2010Prop31
280
     0
102
RTVSPost2010PropOp31
 70
     1
102
RTVSPost2010Prop32
280
     0
102
RTVSPost2010PropOp32
 70
     1
102
RTVSPost2010Prop33
280
     0
102
RTVSPost2010PropOp33
 70
     1
102
RTVSPost2010Prop34
280
     0
102
RTVSPost2010PropOp34
 70
     1
102
RTVSPost2010Prop35
280
     0
102
RTVSPost2010PropOp35
 70
     1
102
RTVSPost2010Prop36
280
     0
102
RTVSPost2010PropOp36
 70
     1
102
RTVSPost2010Prop37
 90
       50
102
RTVSPost2010PropOp37
 70
     1
102
RTVSPost2010Prop38
140
0.0
102
RTVSPost2010PropOp38
 70
     1
102
RTVSPost2010Prop39
140
1.0
102
RTVSPost2010PropOp39
 70
     1
102
RTVSPost2010Prop40
 90
        0
102
RTVSPost2010PropOp40
 70
     1
102
RTVSPost2010Prop41ColorIndex
 90
       18
102
RTVSPost2010Prop41ColorRGB
 90
        0
102
RTVSPost2010PropOp41
 70
     1
102
RTVSPost2010Prop42
 90
       50
102
RTVSPost2010PropOp42
 70
     1
102
RTVSPost2010Prop43
 90
        3
102
RTVSPost2010PropOp43
 70
     1
102
RTVSPost2010Prop44ColorIndex
 90
        5
102
RTVSPost2010Prop44ColorRGB
 90
      255
102
RTVSPost2010PropOp44
 70
     1
102
RTVSPost2010Prop45
280
     0
102
RTVSPost2010PropOp45
 70
     1
102
RTVSPost2010Prop46
 90
       50
102
RTVSPost2010PropOp46
 70
     1
102
RTVSPost2010Prop47
 90
       50
102
RTVSPost2010PropOp47
 70
     1
102
RTVSPost2010Prop48
 90
       50
102
RTVSPost2010PropOp48
 70
     1
102
RTVSPost2010Prop49
280
     0
102
RTVSPost2010PropOp49
 70
     1
102
RTVSPost2010Prop50
 90
       50
102
RTVSPost2010PropOp50
 70
     1
102
RTVSPost2010Prop51ColorIndex
 90
      256
102
RTVSPost2010Prop51ColorRGB
 90
-16777216
102
RTVSPost2010PropOp51
 70
     0
102
RTVSPost2010Prop52
140
1.0
102
RTVSPost2010PropOp52
 70
     0
102
RTVSPost2010Prop53
 90
        2
102
RTVSPost2010PropOp53
 70
     1
102
RTVSPost2010Prop54
  1
strokes_ogs.tif
102
RTVSPost2010PropOp54
 70
     1
102
RTVSPost2010Prop55
280
     0
102
RTVSPost2010PropOp55
 70
     1
102
RTVSPost2010Prop56
140
1.0
102
RTVSPost2010PropOp56
 70
     1
102
RTVSPost2010Prop57
140
1.0
102
RTVSPost2010PropOp57
 70
     1
102
RTVSPropertyOp0
 70
     1
102
RTVSPropertyOp1
 70
     1
102
RTVSPropertyOp2
 70
     1
102
RTVSPropertyOp3
 70
     1
102
RTVSPropertyOp4
 70
     1
102
RTVSPropertyOp5
 70
     1
102
RTVSPropertyOp6
 70
     1
102
RTVSPropertyOp7
 70
     1
102
RTVSPropertyOp8
 70
     1
102
RTVSPropertyOp9
 70
     1
102
RTVSPropertyOp10
 70
     1
102
RTVSPropertyOp11
 70
     1
102
RTVSPropertyOp12
 70
     1
102
RTVSPropertyOp13
 70
     1
102
RTVSPropertyOp14
 70
     1
102
RTVSPropertyOp15
 70
     1
102
RTVSPropertyOp16
 70
     1
102
RTVSPropertyOp17
 70
     1
102
RTVSPropertyOp18
 70
     1
102
RTVSPropertyOp19
 70
     1
102
RTVSPropertyOp20
 70
     1
102
RTVSPropertyOp21
 70
     1
102
RTVSPropertyOp22
 70
     1
102
RTVSPropertyOp23
 70
     1
102
RTVSPropertyOp24
 70
     1
102
RTVSPropertyOp25
 70
     1
102
RTVSPropertyOp26
 70
     1
102
RTVSPropertyOp27
 70
     1
102
RTVSPropertyOp28
 70
     1
102
RTVSPropertyOp29
 70
     1
102
RTVSPropertyOp30
 70
     1
102
RTVSPropertyOp31
 70
     1
102
RTVSPropertyOp32
 70
     1
102
RTVSPropertyOp33
 70
     1
102
RTVSPropertyOp34
 70
     1
102
RTVSPropertyOp35
 70
     1
102
RTVSPropertyOp36
 70
     1
102
RTVSPropertyOp37
 70
     1
102
RTVSPropertyOp38
 70
     1
102
RTVSPropertyOp39
 70
     1
102
RTVSPropertyOp40
 70
     1
102
RTVSPropertyOp41
 70
     1
102
RTVSPropertyOp42
 70
     1
102
RTVSPropertyOp43
 70
     1
102
RTVSPropertyOp44
 70
     1
102
RTVSPropertyOp45
 70
     1
102
RTVSPropertyOp46
 70
     1
102
RTVSPropertyOp47
 70
     1
102
RTVSPropertyOp48
 70
     1
102
RTVSPropertyOp49
 70
     1
102
RTVSPropertyOp50
 70
     1
102
RTVSPropertyOp51
 70
     0
102
RTVSPropertyOp52
 70
     0
102
RTVSPropertyOp53
 70
     1
102
RTVSPropertyOp54
 70
     1
102
RTVSPropertyOp55
 70
     1
102
RTVSPropertyOp56
 70
     1
102
RTVSPropertyOp57
 70
     1
102
RTVSPropertyOp58
 70
     1
102
RTVSPropertyOp59
 70
     1
102
RTVSPropertyOp60
 70
     1
102
RTVSPropertyOp61
 70
     1
102
RTVSPropertyOp62
 70
     1
  0
XRECORD
  5
443
102
{ACAD_REACTORS
330
442
102
}
330
442
100
AcDbXrecord
280
     1
102
RTVSPost2010Prop28
280
     0
102
RTVSPost2010PropOp28
 70
     1
102
RTVSPost2010Prop29
280
     1
102
RTVSPost2010PropOp29
 70
     1
102
RTVSPost2010Prop30
280
     1
102
RTVSPost2010PropOp30
 70
     1
102
RTVSPost2010Prop31
280
     0
102
RTVSPost2010PropOp31
 70
     1
102
RTVSPost2010Prop32
280
     0
102
RTVSPost2010PropOp32
 70
     1
102
RTVSPost2010Prop33
280
     0
102
RTVSPost2010PropOp33
 70
     1
102
RTVSPost2010Prop34
280
     0
102
RTVSPost2010PropOp34
 70
     1
102
RTVSPost2010Prop35
280
     0
102
RTVSPost2010PropOp35
 70
     1
102
RTVSPost2010Prop36
280
     0
102
RTVSPost2010PropOp36
 70
     1
102
RTVSPost2010Prop37
 90
       50
102
RTVSPost2010PropOp37
 70
     1
102
RTVSPost2010Prop38
140
0.0
102
RTVSPost2010PropOp38
 70
     1
102
RTVSPost2010Prop39
140
1.0
102
RTVSPost2010PropOp39
 70
     1
102
RTVSPost2010Prop40
 90
        0
102
RTVSPost2010PropOp40
 70
     1
102
RTVSPost2010Prop41ColorIndex
 90
       18
102
RTVSPost2010Prop41ColorRGB
 90
        0
102
RTVSPost2010PropOp41
 70
     1
102
RTVSPost2010Prop42
 90
       50
102
RTVSPost2010PropOp42
 70
     1
102
RTVSPost2010Prop43
 90
        3
102
RTVSPost2010PropOp43
 70
     1
102
RTVSPost2010Prop44ColorIndex
 90
        5
102
RTVSPost2010Prop44ColorRGB
 90
      255
102
RTVSPost2010PropOp44
 70
     1
102
RTVSPost2010Prop45
280
     0
102
RTVSPost2010PropOp45
 70
     1
102
RTVSPost2010Prop46
 90
       50
102
RTVSPost2010PropOp46
 70
     1
102
RTVSPost2010Prop47
 90
       50
102
RTVSPost2010PropOp47
 70
     1
102
RTVSPost2010Prop48
 90
       50
102
RTVSPost2010PropOp48
 70
     1
102
RTVSPost2010Prop49
280
     0
102
RTVSPost2010PropOp49
 70
     1
102
RTVSPost2010Prop50
 90
       50
102
RTVSPost2010PropOp50
 70
     1
102
RTVSPost2010Prop51ColorIndex
 90
      256
102
RTVSPost2010Prop51ColorRGB
 90
-16777216
102
RTVSPost2010PropOp51
 70
     0
102
RTVSPost2010Prop52
140
1.0
102
RTVSPost2010PropOp52
 70
     0
102
RTVSPost2010Prop53
 90
        2
102
RTVSPost2010PropOp53
 70
     1
102
RTVSPost2010Prop54
  1
strokes_ogs.tif
102
RTVSPost2010PropOp54
 70
     1
102
RTVSPost2010Prop55
280
     0
102
RTVSPost2010PropOp55
 70
     1
102
RTVSPost2010Prop56
140
1.0
102
RTVSPost2010PropOp56
 70
     1
102
RTVSPost2010Prop57
140
1.0
102
RTVSPost2010PropOp57
 70
     1
102
RTVSPropertyOp0
 70
     1
102
RTVSPropertyOp1
 70
     1
102
RTVSPropertyOp2
 70
     1
102
RTVSPropertyOp3
 70
     1
102
RTVSPropertyOp4
 70
     1
102
RTVSPropertyOp5
 70
     1
102
RTVSPropertyOp6
 70
     1
102
RTVSPropertyOp7
 70
     1
102
RTVSPropertyOp8
 70
     1
102
RTVSPropertyOp9
 70
     1
102
RTVSPropertyOp10
 70
     1
102
RTVSPropertyOp11
 70
     1
102
RTVSPropertyOp12
 70
     1
102
RTVSPropertyOp13
 70
     1
102
RTVSPropertyOp14
 70
     1
102
RTVSPropertyOp15
 70
     1
102
RTVSPropertyOp16
 70
     1
102
RTVSPropertyOp17
 70
     1
102
RTVSPropertyOp18
 70
     1
102
RTVSPropertyOp19
 70
     1
102
RTVSPropertyOp20
 70
     1
102
RTVSPropertyOp21
 70
     1
102
RTVSPropertyOp22
 70
     1
102
RTVSPropertyOp23
 70
     1
102
RTVSPropertyOp24
 70
     1
102
RTVSPropertyOp25
 70
     1
102
RTVSPropertyOp26
 70
     1
102
RTVSPropertyOp27
 70
     1
102
RTVSPropertyOp28
 70
     1
102
RTVSPropertyOp29
 70
     1
102
RTVSPropertyOp30
 70
     1
102
RTVSPropertyOp31
 70
     1
102
RTVSPropertyOp32
 70
     1
102
RTVSPropertyOp33
 70
     1
102
RTVSPropertyOp34
 70
     1
102
RTVSPropertyOp35
 70
     1
102
RTVSPropertyOp36
 70
     1
102
RTVSPropertyOp37
 70
     1
102
RTVSPropertyOp38
 70
     1
102
RTVSPropertyOp39
 70
     1
102
RTVSPropertyOp40
 70
     1
102
RTVSPropertyOp41
 70
     1
102
RTVSPropertyOp42
 70
     1
102
RTVSPropertyOp43
 70
     1
102
RTVSPropertyOp44
 70
     1
102
RTVSPropertyOp45
 70
     1
102
RTVSPropertyOp46
 70
     1
102
RTVSPropertyOp47
 70
     1
102
RTVSPropertyOp48
 70
     1
102
RTVSPropertyOp49
 70
     1
102
RTVSPropertyOp50
 70
     1
102
RTVSPropertyOp51
 70
     0
102
RTVSPropertyOp52
 70
     0
102
RTVSPropertyOp53
 70
     1
102
RTVSPropertyOp54
 70
     1
102
RTVSPropertyOp55
 70
     1
102
RTVSPropertyOp56
 70
     1
102
RTVSPropertyOp57
 70
     1
102
RTVSPropertyOp58
 70
     1
102
RTVSPropertyOp59
 70
     1
102
RTVSPropertyOp60
 70
     1
102
RTVSPropertyOp61
 70
     1
102
RTVSPropertyOp62
 70
     1
  0
XRECORD
  5
457
102
{ACAD_REACTORS
330
456
102
}
330
456
100
AcDbXrecord
280
     1
102
RTVSPost2010Prop28
280
     0
102
RTVSPost2010PropOp28
 70
     0
102
RTVSPost2010Prop29
280
     1
102
RTVSPost2010PropOp29
 70
     0
102
RTVSPost2010Prop30
280
     1
102
RTVSPost2010PropOp30
 70
     0
102
RTVSPost2010Prop31
280
     0
102
RTVSPost2010PropOp31
 70
     0
102
RTVSPost2010Prop32
280
     0
102
RTVSPost2010PropOp32
 70
     0
102
RTVSPost2010Prop33
280
     0
102
RTVSPost2010PropOp33
 70
     0
102
RTVSPost2010Prop34
280
     0
102
RTVSPost2010PropOp34
 70
     0
102
RTVSPost2010Prop35
280
     0
102
RTVSPost2010PropOp35
 70
     0
102
RTVSPost2010Prop36
280
     0
102
RTVSPost2010PropOp36
 70
     0
102
RTVSPost2010Prop37
 90
       50
102
RTVSPost2010PropOp37
 70
     0
102
RTVSPost2010Prop38
140
0.0
102
RTVSPost2010PropOp38
 70
     0
102
RTVSPost2010Prop39
140
1.0
102
RTVSPost2010PropOp39
 70
     0
102
RTVSPost2010Prop40
 90
        0
102
RTVSPost2010PropOp40
 70
     0
102
RTVSPost2010Prop41ColorIndex
 90
       18
102
RTVSPost2010Prop41ColorRGB
 90
        0
102
RTVSPost2010PropOp41
 70
     0
102
RTVSPost2010Prop42
 90
       50
102
RTVSPost2010PropOp42
 70
     0
102
RTVSPost2010Prop43
 90
        3
102
RTVSPost2010PropOp43
 70
     0
102
RTVSPost2010Prop44ColorIndex
 90
        5
102
RTVSPost2010Prop44ColorRGB
 90
      255
102
RTVSPost2010PropOp44
 70
     0
102
RTVSPost2010Prop45
280
     0
102
RTVSPost2010PropOp45
 70
     0
102
RTVSPost2010Prop46
 90
       50
102
RTVSPost2010PropOp46
 70
     0
102
RTVSPost2010Prop47
 90
       50
102
RTVSPost2010PropOp47
 70
     0
102
RTVSPost2010Prop48
 90
       50
102
RTVSPost2010PropOp48
 70
     0
102
RTVSPost2010Prop49
280
     0
102
RTVSPost2010PropOp49
 70
     0
102
RTVSPost2010Prop50
 90
       50
102
RTVSPost2010PropOp50
 70
     0
102
RTVSPost2010Prop51ColorIndex
 90
      256
102
RTVSPost2010Prop51ColorRGB
 90
-16777216
102
RTVSPost2010PropOp51
 70
     0
102
RTVSPost2010Prop52
140
1.0
102
RTVSPost2010PropOp52
 70
     0
102
RTVSPost2010Prop53
 90
        2
102
RTVSPost2010PropOp53
 70
     0
102
RTVSPost2010Prop54
  1
strokes_ogs.tif
102
RTVSPost2010PropOp54
 70
     0
102
RTVSPost2010Prop55
280
     0
102
RTVSPost2010PropOp55
 70
     0
102
RTVSPost2010Prop56
140
1.0
102
RTVSPost2010PropOp56
 70
     0
102
RTVSPost2010Prop57
140
1.0
102
RTVSPost2010PropOp57
 70
     0
102
RTVSPropertyOp0
 70
     0
102
RTVSPropertyOp1
 70
     0
102
RTVSPropertyOp2
 70
     0
102
RTVSPropertyOp3
 70
     0
102
RTVSPropertyOp4
 70
     0
102
RTVSPropertyOp5
 70
     0
102
RTVSPropertyOp6
 70
     0
102
RTVSPropertyOp7
 70
     0
102
RTVSPropertyOp8
 70
     0
102
RTVSPropertyOp9
 70
     0
102
RTVSPropertyOp10
 70
     0
102
RTVSPropertyOp11
 70
     0
102
RTVSPropertyOp12
 70
     0
102
RTVSPropertyOp13
 70
     0
102
RTVSPropertyOp14
 70
     2
102
RTVSPropertyOp15
 70
     0
102
RTVSPropertyOp16
 70
     0
102
RTVSPropertyOp17
 70
     0
102
RTVSPropertyOp18
 70
     0
102
RTVSPropertyOp19
 70
     0
102
RTVSPropertyOp20
 70
     0
102
RTVSPropertyOp21
 70
     0
102
RTVSPropertyOp22
 70
     0
102
RTVSPropertyOp23
 70
     0
102
RTVSPropertyOp24
 70
     0
102
RTVSPropertyOp25
 70
     0
102
RTVSPropertyOp26
 70
     0
102
RTVSPropertyOp27
 70
     0
102
RTVSPropertyOp28
 70
     0
102
RTVSPropertyOp29
 70
     0
102
RTVSPropertyOp30
 70
     0
102
RTVSPropertyOp31
 70
     0
102
RTVSPropertyOp32
 70
     0
102
RTVSPropertyOp33
 70
     0
102
RTVSPropertyOp34
 70
     0
102
RTVSPropertyOp35
 70
     0
102
RTVSPropertyOp36
 70
     0
102
RTVSPropertyOp37
 70
     0
102
RTVSPropertyOp38
 70
     0
102
RTVSPropertyOp39
 70
     0
102
RTVSPropertyOp40
 70
     0
102
RTVSPropertyOp41
 70
     0
102
RTVSPropertyOp42
 70
     0
102
RTVSPropertyOp43
 70
     0
102
RTVSPropertyOp44
 70
     0
102
RTVSPropertyOp45
 70
     0
102
RTVSPropertyOp46
 70
     0
102
RTVSPropertyOp47
 70
     0
102
RTVSPropertyOp48
 70
     0
102
RTVSPropertyOp49
 70
     0
102
RTVSPropertyOp50
 70
     0
102
RTVSPropertyOp51
 70
     0
102
RTVSPropertyOp52
 70
     0
102
RTVSPropertyOp53
 70
     0
102
RTVSPropertyOp54
 70
     0
102
RTVSPropertyOp55
 70
     0
102
RTVSPropertyOp56
 70
     0
102
RTVSPropertyOp57
 70
     0
102
RTVSPropertyOp58
 70
     1
102
RTVSPropertyOp59
 70
     1
102
RTVSPropertyOp60
 70
     1
102
RTVSPropertyOp61
 70
     1
102
RTVSPropertyOp62
 70
     1
  0
XRECORD
  5
451
102
{ACAD_REACTORS
330
450
102
}
330
450
100
AcDbXrecord
280
     1
102
RTVSPost2010Prop28
280
     0
102
RTVSPost2010PropOp28
 70
     1
102
RTVSPost2010Prop29
280
     1
102
RTVSPost2010PropOp29
 70
     1
102
RTVSPost2010Prop30
280
     1
102
RTVSPost2010PropOp30
 70
     1
102
RTVSPost2010Prop31
280
     0
102
RTVSPost2010PropOp31
 70
     1
102
RTVSPost2010Prop32
280
     0
102
RTVSPost2010PropOp32
 70
     1
102
RTVSPost2010Prop33
280
     0
102
RTVSPost2010PropOp33
 70
     1
102
RTVSPost2010Prop34
280
     0
102
RTVSPost2010PropOp34
 70
     1
102
RTVSPost2010Prop35
280
     0
102
RTVSPost2010PropOp35
 70
     1
102
RTVSPost2010Prop36
280
     0
102
RTVSPost2010PropOp36
 70
     1
102
RTVSPost2010Prop37
 90
       50
102
RTVSPost2010PropOp37
 70
     1
102
RTVSPost2010Prop38
140
0.0
102
RTVSPost2010PropOp38
 70
     1
102
RTVSPost2010Prop39
140
1.0
102
RTVSPost2010PropOp39
 70
     1
102
RTVSPost2010Prop40
 90
        0
102
RTVSPost2010PropOp40
 70
     1
102
RTVSPost2010Prop41ColorIndex
 90
       18
102
RTVSPost2010Prop41ColorRGB
 90
        0
102
RTVSPost2010PropOp41
 70
     1
102
RTVSPost2010Prop42
 90
       50
102
RTVSPost2010PropOp42
 70
     1
102
RTVSPost2010Prop43
 90
        3
102
RTVSPost2010PropOp43
 70
     1
102
RTVSPost2010Prop44ColorIndex
 90
        5
102
RTVSPost2010Prop44ColorRGB
 90
      255
102
RTVSPost2010PropOp44
 70
     1
102
RTVSPost2010Prop45
280
     0
102
RTVSPost2010PropOp45
 70
     1
102
RTVSPost2010Prop46
 90
       50
102
RTVSPost2010PropOp46
 70
     1
102
RTVSPost2010Prop47
 90
       50
102
RTVSPost2010PropOp47
 70
     1
102
RTVSPost2010Prop48
 90
       50
102
RTVSPost2010PropOp48
 70
     1
102
RTVSPost2010Prop49
280
     0
102
RTVSPost2010PropOp49
 70
     1
102
RTVSPost2010Prop50
 90
       50
102
RTVSPost2010PropOp50
 70
     1
102
RTVSPost2010Prop51ColorIndex
 90
      256
102
RTVSPost2010Prop51ColorRGB
 90
-16777216
102
RTVSPost2010PropOp51
 70
     0
102
RTVSPost2010Prop52
140
1.0
102
RTVSPost2010PropOp52
 70
     0
102
RTVSPost2010Prop53
 90
        2
102
RTVSPost2010PropOp53
 70
     1
102
RTVSPost2010Prop54
  1
strokes_ogs.tif
102
RTVSPost2010PropOp54
 70
     1
102
RTVSPost2010Prop55
280
     0
102
RTVSPost2010PropOp55
 70
     1
102
RTVSPost2010Prop56
140
1.0
102
RTVSPost2010PropOp56
 70
     1
102
RTVSPost2010Prop57
140
1.0
102
RTVSPost2010PropOp57
 70
     1
102
RTVSPropertyOp0
 70
     1
102
RTVSPropertyOp1
 70
     1
102
RTVSPropertyOp2
 70
     1
102
RTVSPropertyOp3
 70
     1
102
RTVSPropertyOp4
 70
     1
102
RTVSPropertyOp5
 70
     1
102
RTVSPropertyOp6
 70
     1
102
RTVSPropertyOp7
 70
     1
102
RTVSPropertyOp8
 70
     1
102
RTVSPropertyOp9
 70
     1
102
RTVSPropertyOp10
 70
     1
102
RTVSPropertyOp11
 70
     1
102
RTVSPropertyOp12
 70
     1
102
RTVSPropertyOp13
 70
     1
102
RTVSPropertyOp14
 70
     1
102
RTVSPropertyOp15
 70
     1
102
RTVSPropertyOp16
 70
     1
102
RTVSPropertyOp17
 70
     1
102
RTVSPropertyOp18
 70
     1
102
RTVSPropertyOp19
 70
     1
102
RTVSPropertyOp20
 70
     1
102
RTVSPropertyOp21
 70
     1
102
RTVSPropertyOp22
 70
     1
102
RTVSPropertyOp23
 70
     1
102
RTVSPropertyOp24
 70
     1
102
RTVSPropertyOp25
 70
     1
102
RTVSPropertyOp26
 70
     1
102
RTVSPropertyOp27
 70
     1
102
RTVSPropertyOp28
 70
     1
102
RTVSPropertyOp29
 70
     1
102
RTVSPropertyOp30
 70
     1
102
RTVSPropertyOp31
 70
     1
102
RTVSPropertyOp32
 70
     1
102
RTVSPropertyOp33
 70
     1
102
RTVSPropertyOp34
 70
     1
102
RTVSPropertyOp35
 70
     1
102
RTVSPropertyOp36
 70
     1
102
RTVSPropertyOp37
 70
     1
102
RTVSPropertyOp38
 70
     1
102
RTVSPropertyOp39
 70
     1
102
RTVSPropertyOp40
 70
     1
102
RTVSPropertyOp41
 70
     1
102
RTVSPropertyOp42
 70
     1
102
RTVSPropertyOp43
 70
     1
102
RTVSPropertyOp44
 70
     1
102
RTVSPropertyOp45
 70
     1
102
RTVSPropertyOp46
 70
     1
102
RTVSPropertyOp47
 70
     1
102
RTVSPropertyOp48
 70
     1
102
RTVSPropertyOp49
 70
     1
102
RTVSPropertyOp50
 70
     1
102
RTVSPropertyOp51
 70
     0
102
RTVSPropertyOp52
 70
     0
102
RTVSPropertyOp53
 70
     1
102
RTVSPropertyOp54
 70
     1
102
RTVSPropertyOp55
 70
     1
102
RTVSPropertyOp56
 70
     1
102
RTVSPropertyOp57
 70
     1
102
RTVSPropertyOp58
 70
     1
102
RTVSPropertyOp59
 70
     1
102
RTVSPropertyOp60
 70
     1
102
RTVSPropertyOp61
 70
     1
102
RTVSPropertyOp62
 70
     1
  0
XRECORD
  5
459
102
{ACAD_REACTORS
330
458
102
}
330
458
100
AcDbXrecord
280
     1
102
RTVSPost2010Prop28
280
     0
102
RTVSPost2010PropOp28
 70
     0
102
RTVSPost2010Prop29
280
     1
102
RTVSPost2010PropOp29
 70
     0
102
RTVSPost2010Prop30
280
     1
102
RTVSPost2010PropOp30
 70
     0
102
RTVSPost2010Prop31
280
     0
102
RTVSPost2010PropOp31
 70
     0
102
RTVSPost2010Prop32
280
     0
102
RTVSPost2010PropOp32
 70
     0
102
RTVSPost2010Prop33
280
     0
102
RTVSPost2010PropOp33
 70
     0
102
RTVSPost2010Prop34
280
     0
102
RTVSPost2010PropOp34
 70
     0
102
RTVSPost2010Prop35
280
     0
102
RTVSPost2010PropOp35
 70
     0
102
RTVSPost2010Prop36
280
     0
102
RTVSPost2010PropOp36
 70
     0
102
RTVSPost2010Prop37
 90
       50
102
RTVSPost2010PropOp37
 70
     0
102
RTVSPost2010Prop38
140
0.0
102
RTVSPost2010PropOp38
 70
     0
102
RTVSPost2010Prop39
140
1.0
102
RTVSPost2010PropOp39
 70
     0
102
RTVSPost2010Prop40
 90
        0
102
RTVSPost2010PropOp40
 70
     0
102
RTVSPost2010Prop41ColorIndex
 90
       18
102
RTVSPost2010Prop41ColorRGB
 90
        0
102
RTVSPost2010PropOp41
 70
     0
102
RTVSPost2010Prop42
 90
       50
102
RTVSPost2010PropOp42
 70
     0
102
RTVSPost2010Prop43
 90
        3
102
RTVSPost2010PropOp43
 70
     0
102
RTVSPost2010Prop44ColorIndex
 90
        5
102
RTVSPost2010Prop44ColorRGB
 90
      255
102
RTVSPost2010PropOp44
 70
     0
102
RTVSPost2010Prop45
280
     0
102
RTVSPost2010PropOp45
 70
     0
102
RTVSPost2010Prop46
 90
       50
102
RTVSPost2010PropOp46
 70
     0
102
RTVSPost2010Prop47
 90
       50
102
RTVSPost2010PropOp47
 70
     0
102
RTVSPost2010Prop48
 90
       50
102
RTVSPost2010PropOp48
 70
     0
102
RTVSPost2010Prop49
280
     0
102
RTVSPost2010PropOp49
 70
     0
102
RTVSPost2010Prop50
 90
       50
102
RTVSPost2010PropOp50
 70
     0
102
RTVSPost2010Prop51ColorIndex
 90
      256
102
RTVSPost2010Prop51ColorRGB
 90
-16777216
102
RTVSPost2010PropOp51
 70
     0
102
RTVSPost2010Prop52
140
1.0
102
RTVSPost2010PropOp52
 70
     0
102
RTVSPost2010Prop53
 90
        2
102
RTVSPost2010PropOp53
 70
     0
102
RTVSPost2010Prop54
  1
strokes_ogs.tif
102
RTVSPost2010PropOp54
 70
     0
102
RTVSPost2010Prop55
280
     0
102
RTVSPost2010PropOp55
 70
     0
102
RTVSPost2010Prop56
140
1.0
102
RTVSPost2010PropOp56
 70
     0
102
RTVSPost2010Prop57
140
1.0
102
RTVSPost2010PropOp57
 70
     0
102
RTVSPropertyOp0
 70
     0
102
RTVSPropertyOp1
 70
     0
102
RTVSPropertyOp2
 70
     0
102
RTVSPropertyOp3
 70
     0
102
RTVSPropertyOp4
 70
     0
102
RTVSPropertyOp5
 70
     0
102
RTVSPropertyOp6
 70
     0
102
RTVSPropertyOp7
 70
     0
102
RTVSPropertyOp8
 70
     0
102
RTVSPropertyOp9
 70
     0
102
RTVSPropertyOp10
 70
     0
102
RTVSPropertyOp11
 70
     0
102
RTVSPropertyOp12
 70
     0
102
RTVSPropertyOp13
 70
     0
102
RTVSPropertyOp14
 70
     2
102
RTVSPropertyOp15
 70
     0
102
RTVSPropertyOp16
 70
     0
102
RTVSPropertyOp17
 70
     0
102
RTVSPropertyOp18
 70
     0
102
RTVSPropertyOp19
 70
     0
102
RTVSPropertyOp20
 70
     0
102
RTVSPropertyOp21
 70
     0
102
RTVSPropertyOp22
 70
     0
102
RTVSPropertyOp23
 70
     0
102
RTVSPropertyOp24
 70
     0
102
RTVSPropertyOp25
 70
     0
102
RTVSPropertyOp26
 70
     0
102
RTVSPropertyOp27
 70
     0
102
RTVSPropertyOp28
 70
     0
102
RTVSPropertyOp29
 70
     0
102
RTVSPropertyOp30
 70
     0
102
RTVSPropertyOp31
 70
     0
102
RTVSPropertyOp32
 70
     0
102
RTVSPropertyOp33
 70
     0
102
RTVSPropertyOp34
 70
     0
102
RTVSPropertyOp35
 70
     0
102
RTVSPropertyOp36
 70
     0
102
RTVSPropertyOp37
 70
     0
102
RTVSPropertyOp38
 70
     0
102
RTVSPropertyOp39
 70
     0
102
RTVSPropertyOp40
 70
     0
102
RTVSPropertyOp41
 70
     0
102
RTVSPropertyOp42
 70
     0
102
RTVSPropertyOp43
 70
     0
102
RTVSPropertyOp44
 70
     0
102
RTVSPropertyOp45
 70
     0
102
RTVSPropertyOp46
 70
     0
102
RTVSPropertyOp47
 70
     0
102
RTVSPropertyOp48
 70
     0
102
RTVSPropertyOp49
 70
     0
102
RTVSPropertyOp50
 70
     0
102
RTVSPropertyOp51
 70
     0
102
RTVSPropertyOp52
 70
     0
102
RTVSPropertyOp53
 70
     0
102
RTVSPropertyOp54
 70
     0
102
RTVSPropertyOp55
 70
     0
102
RTVSPropertyOp56
 70
     0
102
RTVSPropertyOp57
 70
     0
102
RTVSPropertyOp58
 70
     1
102
RTVSPropertyOp59
 70
     1
102
RTVSPropertyOp60
 70
     1
102
RTVSPropertyOp61
 70
     1
102
RTVSPropertyOp62
 70
     1
  0
XRECORD
  5
447
102
{ACAD_REACTORS
330
446
102
}
330
446
100
AcDbXrecord
280
     1
102
RTVSPost2010Prop28
280
     0
102
RTVSPost2010PropOp28
 70
     1
102
RTVSPost2010Prop29
280
     1
102
RTVSPost2010PropOp29
 70
     1
102
RTVSPost2010Prop30
280
     1
102
RTVSPost2010PropOp30
 70
     1
102
RTVSPost2010Prop31
280
     0
102
RTVSPost2010PropOp31
 70
     1
102
RTVSPost2010Prop32
280
     0
102
RTVSPost2010PropOp32
 70
     1
102
RTVSPost2010Prop33
280
     0
102
RTVSPost2010PropOp33
 70
     1
102
RTVSPost2010Prop34
280
     0
102
RTVSPost2010PropOp34
 70
     1
102
RTVSPost2010Prop35
280
     0
102
RTVSPost2010PropOp35
 70
     1
102
RTVSPost2010Prop36
280
     0
102
RTVSPost2010PropOp36
 70
     1
102
RTVSPost2010Prop37
 90
       50
102
RTVSPost2010PropOp37
 70
     1
102
RTVSPost2010Prop38
140
0.0
102
RTVSPost2010PropOp38
 70
     1
102
RTVSPost2010Prop39
140
1.0
102
RTVSPost2010PropOp39
 70
     1
102
RTVSPost2010Prop40
 90
        0
102
RTVSPost2010PropOp40
 70
     1
102
RTVSPost2010Prop41ColorIndex
 90
       18
102
RTVSPost2010Prop41ColorRGB
 90
        0
102
RTVSPost2010PropOp41
 70
     1
102
RTVSPost2010Prop42
 90
       50
102
RTVSPost2010PropOp42
 70
     1
102
RTVSPost2010Prop43
 90
        3
102
RTVSPost2010PropOp43
 70
     1
102
RTVSPost2010Prop44ColorIndex
 90
        5
102
RTVSPost2010Prop44ColorRGB
 90
      255
102
RTVSPost2010PropOp44
 70
     1
102
RTVSPost2010Prop45
280
     0
102
RTVSPost2010PropOp45
 70
     1
102
RTVSPost2010Prop46
 90
       50
102
RTVSPost2010PropOp46
 70
     1
102
RTVSPost2010Prop47
 90
       50
102
RTVSPost2010PropOp47
 70
     1
102
RTVSPost2010Prop48
 90
       50
102
RTVSPost2010PropOp48
 70
     1
102
RTVSPost2010Prop49
280
     0
102
RTVSPost2010PropOp49
 70
     1
102
RTVSPost2010Prop50
 90
       50
102
RTVSPost2010PropOp50
 70
     1
102
RTVSPost2010Prop51ColorIndex
 90
      256
102
RTVSPost2010Prop51ColorRGB
 90
-16777216
102
RTVSPost2010PropOp51
 70
     0
102
RTVSPost2010Prop52
140
1.0
102
RTVSPost2010PropOp52
 70
     0
102
RTVSPost2010Prop53
 90
        2
102
RTVSPost2010PropOp53
 70
     1
102
RTVSPost2010Prop54
  1
strokes_ogs.tif
102
RTVSPost2010PropOp54
 70
     1
102
RTVSPost2010Prop55
280
     0
102
RTVSPost2010PropOp55
 70
     1
102
RTVSPost2010Prop56
140
1.0
102
RTVSPost2010PropOp56
 70
     1
102
RTVSPost2010Prop57
140
1.0
102
RTVSPost2010PropOp57
 70
     1
102
RTVSPropertyOp0
 70
     1
102
RTVSPropertyOp1
 70
     1
102
RTVSPropertyOp2
 70
     1
102
RTVSPropertyOp3
 70
     1
102
RTVSPropertyOp4
 70
     1
102
RTVSPropertyOp5
 70
     1
102
RTVSPropertyOp6
 70
     1
102
RTVSPropertyOp7
 70
     1
102
RTVSPropertyOp8
 70
     1
102
RTVSPropertyOp9
 70
     1
102
RTVSPropertyOp10
 70
     1
102
RTVSPropertyOp11
 70
     1
102
RTVSPropertyOp12
 70
     1
102
RTVSPropertyOp13
 70
     1
102
RTVSPropertyOp14
 70
     1
102
RTVSPropertyOp15
 70
     1
102
RTVSPropertyOp16
 70
     1
102
RTVSPropertyOp17
 70
     1
102
RTVSPropertyOp18
 70
     1
102
RTVSPropertyOp19
 70
     1
102
RTVSPropertyOp20
 70
     1
102
RTVSPropertyOp21
 70
     1
102
RTVSPropertyOp22
 70
     1
102
RTVSPropertyOp23
 70
     1
102
RTVSPropertyOp24
 70
     1
102
RTVSPropertyOp25
 70
     1
102
RTVSPropertyOp26
 70
     1
102
RTVSPropertyOp27
 70
     1
102
RTVSPropertyOp28
 70
     1
102
RTVSPropertyOp29
 70
     1
102
RTVSPropertyOp30
 70
     1
102
RTVSPropertyOp31
 70
     1
102
RTVSPropertyOp32
 70
     1
102
RTVSPropertyOp33
 70
     1
102
RTVSPropertyOp34
 70
     1
102
RTVSPropertyOp35
 70
     1
102
RTVSPropertyOp36
 70
     1
102
RTVSPropertyOp37
 70
     1
102
RTVSPropertyOp38
 70
     1
102
RTVSPropertyOp39
 70
     1
102
RTVSPropertyOp40
 70
     1
102
RTVSPropertyOp41
 70
     1
102
RTVSPropertyOp42
 70
     1
102
RTVSPropertyOp43
 70
     1
102
RTVSPropertyOp44
 70
     1
102
RTVSPropertyOp45
 70
     1
102
RTVSPropertyOp46
 70
     1
102
RTVSPropertyOp47
 70
     1
102
RTVSPropertyOp48
 70
     1
102
RTVSPropertyOp49
 70
     1
102
RTVSPropertyOp50
 70
     1
102
RTVSPropertyOp51
 70
     0
102
RTVSPropertyOp52
 70
     0
102
RTVSPropertyOp53
 70
     1
102
RTVSPropertyOp54
 70
     1
102
RTVSPropertyOp55
 70
     1
102
RTVSPropertyOp56
 70
     1
102
RTVSPropertyOp57
 70
     1
102
RTVSPropertyOp58
 70
     1
102
RTVSPropertyOp59
 70
     1
102
RTVSPropertyOp60
 70
     1
102
RTVSPropertyOp61
 70
     1
102
RTVSPropertyOp62
 70
     1
  0
XRECORD
  5
465
102
{ACAD_REACTORS
330
464
102
}
330
464
100
AcDbXrecord
280
     1
102
RTVSPost2010Prop28
280
     0
102
RTVSPost2010PropOp28
 70
     1
102
RTVSPost2010Prop29
280
     1
102
RTVSPost2010PropOp29
 70
     1
102
RTVSPost2010Prop30
280
     1
102
RTVSPost2010PropOp30
 70
     1
102
RTVSPost2010Prop31
280
     0
102
RTVSPost2010PropOp31
 70
     1
102
RTVSPost2010Prop32
280
     0
102
RTVSPost2010PropOp32
 70
     1
102
RTVSPost2010Prop33
280
     0
102
RTVSPost2010PropOp33
 70
     1
102
RTVSPost2010Prop34
280
     0
102
RTVSPost2010PropOp34
 70
     1
102
RTVSPost2010Prop35
280
     0
102
RTVSPost2010PropOp35
 70
     1
102
RTVSPost2010Prop36
280
     0
102
RTVSPost2010PropOp36
 70
     1
102
RTVSPost2010Prop37
 90
       50
102
RTVSPost2010PropOp37
 70
     1
102
RTVSPost2010Prop38
140
0.0
102
RTVSPost2010PropOp38
 70
     1
102
RTVSPost2010Prop39
140
1.0
102
RTVSPost2010PropOp39
 70
     1
102
RTVSPost2010Prop40
 90
        0
102
RTVSPost2010PropOp40
 70
     1
102
RTVSPost2010Prop41ColorIndex
 90
       18
102
RTVSPost2010Prop41ColorRGB
 90
        0
102
RTVSPost2010PropOp41
 70
     1
102
RTVSPost2010Prop42
 90
       50
102
RTVSPost2010PropOp42
 70
     1
102
RTVSPost2010Prop43
 90
        3
102
RTVSPost2010PropOp43
 70
     1
102
RTVSPost2010Prop44ColorIndex
 90
        5
102
RTVSPost2010Prop44ColorRGB
 90
      255
102
RTVSPost2010PropOp44
 70
     1
102
RTVSPost2010Prop45
280
     0
102
RTVSPost2010PropOp45
 70
     1
102
RTVSPost2010Prop46
 90
       50
102
RTVSPost2010PropOp46
 70
     1
102
RTVSPost2010Prop47
 90
       50
102
RTVSPost2010PropOp47
 70
     1
102
RTVSPost2010Prop48
 90
       50
102
RTVSPost2010PropOp48
 70
     1
102
RTVSPost2010Prop49
280
     0
102
RTVSPost2010PropOp49
 70
     1
102
RTVSPost2010Prop50
 90
       50
102
RTVSPost2010PropOp50
 70
     1
102
RTVSPost2010Prop51ColorIndex
 90
      256
102
RTVSPost2010Prop51ColorRGB
 90
-16777216
102
RTVSPost2010PropOp51
 70
     0
102
RTVSPost2010Prop52
140
1.0
102
RTVSPost2010PropOp52
 70
     0
102
RTVSPost2010Prop53
 90
        2
102
RTVSPost2010PropOp53
 70
     1
102
RTVSPost2010Prop54
  1
strokes_ogs.tif
102
RTVSPost2010PropOp54
 70
     1
102
RTVSPost2010Prop55
280
     0
102
RTVSPost2010PropOp55
 70
     1
102
RTVSPost2010Prop56
140
1.0
102
RTVSPost2010PropOp56
 70
     1
102
RTVSPost2010Prop57
140
1.0
102
RTVSPost2010PropOp57
 70
     1
102
RTVSPropertyOp0
 70
     1
102
RTVSPropertyOp1
 70
     1
102
RTVSPropertyOp2
 70
     1
102
RTVSPropertyOp3
 70
     1
102
RTVSPropertyOp4
 70
     1
102
RTVSPropertyOp5
 70
     1
102
RTVSPropertyOp6
 70
     1
102
RTVSPropertyOp7
 70
     1
102
RTVSPropertyOp8
 70
     1
102
RTVSPropertyOp9
 70
     1
102
RTVSPropertyOp10
 70
     1
102
RTVSPropertyOp11
 70
     1
102
RTVSPropertyOp12
 70
     1
102
RTVSPropertyOp13
 70
     1
102
RTVSPropertyOp14
 70
     1
102
RTVSPropertyOp15
 70
     1
102
RTVSPropertyOp16
 70
     1
102
RTVSPropertyOp17
 70
     1
102
RTVSPropertyOp18
 70
     1
102
RTVSPropertyOp19
 70
     1
102
RTVSPropertyOp20
 70
     1
102
RTVSPropertyOp21
 70
     1
102
RTVSPropertyOp22
 70
     1
102
RTVSPropertyOp23
 70
     1
102
RTVSPropertyOp24
 70
     1
102
RTVSPropertyOp25
 70
     1
102
RTVSPropertyOp26
 70
     1
102
RTVSPropertyOp27
 70
     1
102
RTVSPropertyOp28
 70
     1
102
RTVSPropertyOp29
 70
     1
102
RTVSPropertyOp30
 70
     1
102
RTVSPropertyOp31
 70
     1
102
RTVSPropertyOp32
 70
     1
102
RTVSPropertyOp33
 70
     1
102
RTVSPropertyOp34
 70
     1
102
RTVSPropertyOp35
 70
     1
102
RTVSPropertyOp36
 70
     1
102
RTVSPropertyOp37
 70
     1
102
RTVSPropertyOp38
 70
     1
102
RTVSPropertyOp39
 70
     1
102
RTVSPropertyOp40
 70
     1
102
RTVSPropertyOp41
 70
     1
102
RTVSPropertyOp42
 70
     1
102
RTVSPropertyOp43
 70
     1
102
RTVSPropertyOp44
 70
     1
102
RTVSPropertyOp45
 70
     1
102
RTVSPropertyOp46
 70
     1
102
RTVSPropertyOp47
 70
     1
102
RTVSPropertyOp48
 70
     1
102
RTVSPropertyOp49
 70
     1
102
RTVSPropertyOp50
 70
     1
102
RTVSPropertyOp51
 70
     0
102
RTVSPropertyOp52
 70
     0
102
RTVSPropertyOp53
 70
     1
102
RTVSPropertyOp54
 70
     1
102
RTVSPropertyOp55
 70
     1
102
RTVSPropertyOp56
 70
     1
102
RTVSPropertyOp57
 70
     1
102
RTVSPropertyOp58
 70
     1
102
RTVSPropertyOp59
 70
     1
102
RTVSPropertyOp60
 70
     1
102
RTVSPropertyOp61
 70
     1
102
RTVSPropertyOp62
 70
     1
  0
XRECORD
  5
463
102
{ACAD_REACTORS
330
462
102
}
330
462
100
AcDbXrecord
280
     1
102
RTVSPost2010Prop28
280
     0
102
RTVSPost2010PropOp28
 70
     1
102
RTVSPost2010Prop29
280
     1
102
RTVSPost2010PropOp29
 70
     1
102
RTVSPost2010Prop30
280
     1
102
RTVSPost2010PropOp30
 70
     1
102
RTVSPost2010Prop31
280
     0
102
RTVSPost2010PropOp31
 70
     1
102
RTVSPost2010Prop32
280
     0
102
RTVSPost2010PropOp32
 70
     1
102
RTVSPost2010Prop33
280
     0
102
RTVSPost2010PropOp33
 70
     1
102
RTVSPost2010Prop34
280
     0
102
RTVSPost2010PropOp34
 70
     1
102
RTVSPost2010Prop35
280
     0
102
RTVSPost2010PropOp35
 70
     1
102
RTVSPost2010Prop36
280
     0
102
RTVSPost2010PropOp36
 70
     1
102
RTVSPost2010Prop37
 90
       50
102
RTVSPost2010PropOp37
 70
     1
102
RTVSPost2010Prop38
140
0.0
102
RTVSPost2010PropOp38
 70
     1
102
RTVSPost2010Prop39
140
1.0
102
RTVSPost2010PropOp39
 70
     1
102
RTVSPost2010Prop40
 90
        0
102
RTVSPost2010PropOp40
 70
     1
102
RTVSPost2010Prop41ColorIndex
 90
       18
102
RTVSPost2010Prop41ColorRGB
 90
        0
102
RTVSPost2010PropOp41
 70
     1
102
RTVSPost2010Prop42
 90
       50
102
RTVSPost2010PropOp42
 70
     1
102
RTVSPost2010Prop43
 90
        3
102
RTVSPost2010PropOp43
 70
     1
102
RTVSPost2010Prop44ColorIndex
 90
        5
102
RTVSPost2010Prop44ColorRGB
 90
      255
102
RTVSPost2010PropOp44
 70
     1
102
RTVSPost2010Prop45
280
     0
102
RTVSPost2010PropOp45
 70
     1
102
RTVSPost2010Prop46
 90
       50
102
RTVSPost2010PropOp46
 70
     1
102
RTVSPost2010Prop47
 90
       50
102
RTVSPost2010PropOp47
 70
     1
102
RTVSPost2010Prop48
 90
       50
102
RTVSPost2010PropOp48
 70
     1
102
RTVSPost2010Prop49
280
     0
102
RTVSPost2010PropOp49
 70
     1
102
RTVSPost2010Prop50
 90
       50
102
RTVSPost2010PropOp50
 70
     1
102
RTVSPost2010Prop51ColorIndex
 90
      256
102
RTVSPost2010Prop51ColorRGB
 90
-16777216
102
RTVSPost2010PropOp51
 70
     0
102
RTVSPost2010Prop52
140
1.0
102
RTVSPost2010PropOp52
 70
     0
102
RTVSPost2010Prop53
 90
        2
102
RTVSPost2010PropOp53
 70
     1
102
RTVSPost2010Prop54
  1
strokes_ogs.tif
102
RTVSPost2010PropOp54
 70
     1
102
RTVSPost2010Prop55
280
     0
102
RTVSPost2010PropOp55
 70
     1
102
RTVSPost2010Prop56
140
1.0
102
RTVSPost2010PropOp56
 70
     1
102
RTVSPost2010Prop57
140
1.0
102
RTVSPost2010PropOp57
 70
     1
102
RTVSPropertyOp0
 70
     1
102
RTVSPropertyOp1
 70
     1
102
RTVSPropertyOp2
 70
     1
102
RTVSPropertyOp3
 70
     1
102
RTVSPropertyOp4
 70
     1
102
RTVSPropertyOp5
 70
     1
102
RTVSPropertyOp6
 70
     1
102
RTVSPropertyOp7
 70
     1
102
RTVSPropertyOp8
 70
     1
102
RTVSPropertyOp9
 70
     1
102
RTVSPropertyOp10
 70
     1
102
RTVSPropertyOp11
 70
     1
102
RTVSPropertyOp12
 70
     1
102
RTVSPropertyOp13
 70
     1
102
RTVSPropertyOp14
 70
     1
102
RTVSPropertyOp15
 70
     1
102
RTVSPropertyOp16
 70
     1
102
RTVSPropertyOp17
 70
     1
102
RTVSPropertyOp18
 70
     1
102
RTVSPropertyOp19
 70
     1
102
RTVSPropertyOp20
 70
     1
102
RTVSPropertyOp21
 70
     1
102
RTVSPropertyOp22
 70
     1
102
RTVSPropertyOp23
 70
     1
102
RTVSPropertyOp24
 70
     1
102
RTVSPropertyOp25
 70
     1
102
RTVSPropertyOp26
 70
     1
102
RTVSPropertyOp27
 70
     1
102
RTVSPropertyOp28
 70
     1
102
RTVSPropertyOp29
 70
     1
102
RTVSPropertyOp30
 70
     1
102
RTVSPropertyOp31
 70
     1
102
RTVSPropertyOp32
 70
     1
102
RTVSPropertyOp33
 70
     1
102
RTVSPropertyOp34
 70
     1
102
RTVSPropertyOp35
 70
     1
102
RTVSPropertyOp36
 70
     1
102
RTVSPropertyOp37
 70
     1
102
RTVSPropertyOp38
 70
     1
102
RTVSPropertyOp39
 70
     1
102
RTVSPropertyOp40
 70
     1
102
RTVSPropertyOp41
 70
     1
102
RTVSPropertyOp42
 70
     1
102
RTVSPropertyOp43
 70
     1
102
RTVSPropertyOp44
 70
     1
102
RTVSPropertyOp45
 70
     1
102
RTVSPropertyOp46
 70
     1
102
RTVSPropertyOp47
 70
     1
102
RTVSPropertyOp48
 70
     1
102
RTVSPropertyOp49
 70
     1
102
RTVSPropertyOp50
 70
     1
102
RTVSPropertyOp51
 70
     0
102
RTVSPropertyOp52
 70
     0
102
RTVSPropertyOp53
 70
     1
102
RTVSPropertyOp54
 70
     1
102
RTVSPropertyOp55
 70
     1
102
RTVSPropertyOp56
 70
     1
102
RTVSPropertyOp57
 70
     1
102
RTVSPropertyOp58
 70
     1
102
RTVSPropertyOp59
 70
     1
102
RTVSPropertyOp60
 70
     1
102
RTVSPropertyOp61
 70
     1
102
RTVSPropertyOp62
 70
     1
  0
XRECORD
  5
45D
102
{ACAD_REACTORS
330
45C
102
}
330
45C
100
AcDbXrecord
280
     1
102
RTVSPost2010Prop28
280
     0
102
RTVSPost2010PropOp28
 70
     1
102
RTVSPost2010Prop29
280
     1
102
RTVSPost2010PropOp29
 70
     1
102
RTVSPost2010Prop30
280
     1
102
RTVSPost2010PropOp30
 70
     1
102
RTVSPost2010Prop31
280
     0
102
RTVSPost2010PropOp31
 70
     1
102
RTVSPost2010Prop32
280
     0
102
RTVSPost2010PropOp32
 70
     1
102
RTVSPost2010Prop33
280
     0
102
RTVSPost2010PropOp33
 70
     1
102
RTVSPost2010Prop34
280
     0
102
RTVSPost2010PropOp34
 70
     1
102
RTVSPost2010Prop35
280
     0
102
RTVSPost2010PropOp35
 70
     1
102
RTVSPost2010Prop36
280
     0
102
RTVSPost2010PropOp36
 70
     1
102
RTVSPost2010Prop37
 90
       50
102
RTVSPost2010PropOp37
 70
     1
102
RTVSPost2010Prop38
140
0.0
102
RTVSPost2010PropOp38
 70
     1
102
RTVSPost2010Prop39
140
1.0
102
RTVSPost2010PropOp39
 70
     1
102
RTVSPost2010Prop40
 90
        0
102
RTVSPost2010PropOp40
 70
     1
102
RTVSPost2010Prop41ColorIndex
 90
       18
102
RTVSPost2010Prop41ColorRGB
 90
        0
102
RTVSPost2010PropOp41
 70
     1
102
RTVSPost2010Prop42
 90
       50
102
RTVSPost2010PropOp42
 70
     1
102
RTVSPost2010Prop43
 90
        3
102
RTVSPost2010PropOp43
 70
     1
102
RTVSPost2010Prop44ColorIndex
 90
        5
102
RTVSPost2010Prop44ColorRGB
 90
      255
102
RTVSPost2010PropOp44
 70
     1
102
RTVSPost2010Prop45
280
     0
102
RTVSPost2010PropOp45
 70
     1
102
RTVSPost2010Prop46
 90
       50
102
RTVSPost2010PropOp46
 70
     1
102
RTVSPost2010Prop47
 90
       50
102
RTVSPost2010PropOp47
 70
     1
102
RTVSPost2010Prop48
 90
       50
102
RTVSPost2010PropOp48
 70
     1
102
RTVSPost2010Prop49
280
     0
102
RTVSPost2010PropOp49
 70
     1
102
RTVSPost2010Prop50
 90
       50
102
RTVSPost2010PropOp50
 70
     1
102
RTVSPost2010Prop51ColorIndex
 90
      256
102
RTVSPost2010Prop51ColorRGB
 90
-16777216
102
RTVSPost2010PropOp51
 70
     0
102
RTVSPost2010Prop52
140
1.0
102
RTVSPost2010PropOp52
 70
     0
102
RTVSPost2010Prop53
 90
        2
102
RTVSPost2010PropOp53
 70
     1
102
RTVSPost2010Prop54
  1
strokes_ogs.tif
102
RTVSPost2010PropOp54
 70
     1
102
RTVSPost2010Prop55
280
     0
102
RTVSPost2010PropOp55
 70
     1
102
RTVSPost2010Prop56
140
1.0
102
RTVSPost2010PropOp56
 70
     1
102
RTVSPost2010Prop57
140
1.0
102
RTVSPost2010PropOp57
 70
     1
102
RTVSPropertyOp0
 70
     1
102
RTVSPropertyOp1
 70
     1
102
RTVSPropertyOp2
 70
     1
102
RTVSPropertyOp3
 70
     1
102
RTVSPropertyOp4
 70
     1
102
RTVSPropertyOp5
 70
     1
102
RTVSPropertyOp6
 70
     1
102
RTVSPropertyOp7
 70
     1
102
RTVSPropertyOp8
 70
     1
102
RTVSPropertyOp9
 70
     1
102
RTVSPropertyOp10
 70
     1
102
RTVSPropertyOp11
 70
     1
102
RTVSPropertyOp12
 70
     1
102
RTVSPropertyOp13
 70
     1
102
RTVSPropertyOp14
 70
     1
102
RTVSPropertyOp15
 70
     1
102
RTVSPropertyOp16
 70
     1
102
RTVSPropertyOp17
 70
     1
102
RTVSPropertyOp18
 70
     1
102
RTVSPropertyOp19
 70
     1
102
RTVSPropertyOp20
 70
     1
102
RTVSPropertyOp21
 70
     1
102
RTVSPropertyOp22
 70
     1
102
RTVSPropertyOp23
 70
     1
102
RTVSPropertyOp24
 70
     1
102
RTVSPropertyOp25
 70
     1
102
RTVSPropertyOp26
 70
     1
102
RTVSPropertyOp27
 70
     1
102
RTVSPropertyOp28
 70
     1
102
RTVSPropertyOp29
 70
     1
102
RTVSPropertyOp30
 70
     1
102
RTVSPropertyOp31
 70
     1
102
RTVSPropertyOp32
 70
     1
102
RTVSPropertyOp33
 70
     1
102
RTVSPropertyOp34
 70
     1
102
RTVSPropertyOp35
 70
     1
102
RTVSPropertyOp36
 70
     1
102
RTVSPropertyOp37
 70
     1
102
RTVSPropertyOp38
 70
     1
102
RTVSPropertyOp39
 70
     1
102
RTVSPropertyOp40
 70
     1
102
RTVSPropertyOp41
 70
     1
102
RTVSPropertyOp42
 70
     1
102
RTVSPropertyOp43
 70
     1
102
RTVSPropertyOp44
 70
     1
102
RTVSPropertyOp45
 70
     1
102
RTVSPropertyOp46
 70
     1
102
RTVSPropertyOp47
 70
     1
102
RTVSPropertyOp48
 70
     1
102
RTVSPropertyOp49
 70
     1
102
RTVSPropertyOp50
 70
     1
102
RTVSPropertyOp51
 70
     0
102
RTVSPropertyOp52
 70
     0
102
RTVSPropertyOp53
 70
     1
102
RTVSPropertyOp54
 70
     1
102
RTVSPropertyOp55
 70
     1
102
RTVSPropertyOp56
 70
     1
102
RTVSPropertyOp57
 70
     1
102
RTVSPropertyOp58
 70
     1
102
RTVSPropertyOp59
 70
     1
102
RTVSPropertyOp60
 70
     1
102
RTVSPropertyOp61
 70
     1
102
RTVSPropertyOp62
 70
     1
  0
XRECORD
  5
45F
102
{ACAD_REACTORS
330
45E
102
}
330
45E
100
AcDbXrecord
280
     1
102
RTVSPost2010Prop28
280
     0
102
RTVSPost2010PropOp28
 70
     1
102
RTVSPost2010Prop29
280
     1
102
RTVSPost2010PropOp29
 70
     1
102
RTVSPost2010Prop30
280
     1
102
RTVSPost2010PropOp30
 70
     1
102
RTVSPost2010Prop31
280
     0
102
RTVSPost2010PropOp31
 70
     1
102
RTVSPost2010Prop32
280
     0
102
RTVSPost2010PropOp32
 70
     1
102
RTVSPost2010Prop33
280
     0
102
RTVSPost2010PropOp33
 70
     1
102
RTVSPost2010Prop34
280
     0
102
RTVSPost2010PropOp34
 70
     1
102
RTVSPost2010Prop35
280
     0
102
RTVSPost2010PropOp35
 70
     1
102
RTVSPost2010Prop36
280
     0
102
RTVSPost2010PropOp36
 70
     1
102
RTVSPost2010Prop37
 90
       50
102
RTVSPost2010PropOp37
 70
     1
102
RTVSPost2010Prop38
140
0.0
102
RTVSPost2010PropOp38
 70
     1
102
RTVSPost2010Prop39
140
1.0
102
RTVSPost2010PropOp39
 70
     1
102
RTVSPost2010Prop40
 90
        0
102
RTVSPost2010PropOp40
 70
     1
102
RTVSPost2010Prop41ColorIndex
 90
       18
102
RTVSPost2010Prop41ColorRGB
 90
        0
102
RTVSPost2010PropOp41
 70
     1
102
RTVSPost2010Prop42
 90
       50
102
RTVSPost2010PropOp42
 70
     1
102
RTVSPost2010Prop43
 90
        3
102
RTVSPost2010PropOp43
 70
     1
102
RTVSPost2010Prop44ColorIndex
 90
        5
102
RTVSPost2010Prop44ColorRGB
 90
      255
102
RTVSPost2010PropOp44
 70
     1
102
RTVSPost2010Prop45
280
     0
102
RTVSPost2010PropOp45
 70
     1
102
RTVSPost2010Prop46
 90
       50
102
RTVSPost2010PropOp46
 70
     1
102
RTVSPost2010Prop47
 90
       50
102
RTVSPost2010PropOp47
 70
     1
102
RTVSPost2010Prop48
 90
       50
102
RTVSPost2010PropOp48
 70
     1
102
RTVSPost2010Prop49
280
     0
102
RTVSPost2010PropOp49
 70
     1
102
RTVSPost2010Prop50
 90
       50
102
RTVSPost2010PropOp50
 70
     1
102
RTVSPost2010Prop51ColorIndex
 90
      256
102
RTVSPost2010Prop51ColorRGB
 90
-16777216
102
RTVSPost2010PropOp51
 70
     0
102
RTVSPost2010Prop52
140
1.0
102
RTVSPost2010PropOp52
 70
     0
102
RTVSPost2010Prop53
 90
        2
102
RTVSPost2010PropOp53
 70
     1
102
RTVSPost2010Prop54
  1
strokes_ogs.tif
102
RTVSPost2010PropOp54
 70
     1
102
RTVSPost2010Prop55
280
     0
102
RTVSPost2010PropOp55
 70
     1
102
RTVSPost2010Prop56
140
1.0
102
RTVSPost2010PropOp56
 70
     1
102
RTVSPost2010Prop57
140
1.0
102
RTVSPost2010PropOp57
 70
     1
102
RTVSPropertyOp0
 70
     1
102
RTVSPropertyOp1
 70
     1
102
RTVSPropertyOp2
 70
     1
102
RTVSPropertyOp3
 70
     1
102
RTVSPropertyOp4
 70
     1
102
RTVSPropertyOp5
 70
     1
102
RTVSPropertyOp6
 70
     1
102
RTVSPropertyOp7
 70
     1
102
RTVSPropertyOp8
 70
     1
102
RTVSPropertyOp9
 70
     1
102
RTVSPropertyOp10
 70
     1
102
RTVSPropertyOp11
 70
     1
102
RTVSPropertyOp12
 70
     1
102
RTVSPropertyOp13
 70
     1
102
RTVSPropertyOp14
 70
     1
102
RTVSPropertyOp15
 70
     1
102
RTVSPropertyOp16
 70
     1
102
RTVSPropertyOp17
 70
     1
102
RTVSPropertyOp18
 70
     1
102
RTVSPropertyOp19
 70
     1
102
RTVSPropertyOp20
 70
     1
102
RTVSPropertyOp21
 70
     1
102
RTVSPropertyOp22
 70
     1
102
RTVSPropertyOp23
 70
     1
102
RTVSPropertyOp24
 70
     1
102
RTVSPropertyOp25
 70
     1
102
RTVSPropertyOp26
 70
     1
102
RTVSPropertyOp27
 70
     1
102
RTVSPropertyOp28
 70
     1
102
RTVSPropertyOp29
 70
     1
102
RTVSPropertyOp30
 70
     1
102
RTVSPropertyOp31
 70
     1
102
RTVSPropertyOp32
 70
     1
102
RTVSPropertyOp33
 70
     1
102
RTVSPropertyOp34
 70
     1
102
RTVSPropertyOp35
 70
     1
102
RTVSPropertyOp36
 70
     1
102
RTVSPropertyOp37
 70
     1
102
RTVSPropertyOp38
 70
     1
102
RTVSPropertyOp39
 70
     1
102
RTVSPropertyOp40
 70
     1
102
RTVSPropertyOp41
 70
     1
102
RTVSPropertyOp42
 70
     1
102
RTVSPropertyOp43
 70
     1
102
RTVSPropertyOp44
 70
     1
102
RTVSPropertyOp45
 70
     1
102
RTVSPropertyOp46
 70
     1
102
RTVSPropertyOp47
 70
     1
102
RTVSPropertyOp48
 70
     1
102
RTVSPropertyOp49
 70
     1
102
RTVSPropertyOp50
 70
     1
102
RTVSPropertyOp51
 70
     0
102
RTVSPropertyOp52
 70
     0
102
RTVSPropertyOp53
 70
     1
102
RTVSPropertyOp54
 70
     1
102
RTVSPropertyOp55
 70
     1
102
RTVSPropertyOp56
 70
     1
102
RTVSPropertyOp57
 70
     1
102
RTVSPropertyOp58
 70
     1
102
RTVSPropertyOp59
 70
     1
102
RTVSPropertyOp60
 70
     1
102
RTVSPropertyOp61
 70
     1
102
RTVSPropertyOp62
 70
     1
  0
XRECORD
  5
44F
102
{ACAD_REACTORS
330
44E
102
}
330
44E
100
AcDbXrecord
280
     1
102
RTVSPost2010Prop28
280
     0
102
RTVSPost2010PropOp28
 70
     1
102
RTVSPost2010Prop29
280
     1
102
RTVSPost2010PropOp29
 70
     1
102
RTVSPost2010Prop30
280
     1
102
RTVSPost2010PropOp30
 70
     1
102
RTVSPost2010Prop31
280
     0
102
RTVSPost2010PropOp31
 70
     1
102
RTVSPost2010Prop32
280
     0
102
RTVSPost2010PropOp32
 70
     1
102
RTVSPost2010Prop33
280
     0
102
RTVSPost2010PropOp33
 70
     1
102
RTVSPost2010Prop34
280
     0
102
RTVSPost2010PropOp34
 70
     1
102
RTVSPost2010Prop35
280
     0
102
RTVSPost2010PropOp35
 70
     1
102
RTVSPost2010Prop36
280
     0
102
RTVSPost2010PropOp36
 70
     1
102
RTVSPost2010Prop37
 90
       50
102
RTVSPost2010PropOp37
 70
     1
102
RTVSPost2010Prop38
140
0.0
102
RTVSPost2010PropOp38
 70
     1
102
RTVSPost2010Prop39
140
1.0
102
RTVSPost2010PropOp39
 70
     1
102
RTVSPost2010Prop40
 90
        0
102
RTVSPost2010PropOp40
 70
     1
102
RTVSPost2010Prop41ColorIndex
 90
       18
102
RTVSPost2010Prop41ColorRGB
 90
        0
102
RTVSPost2010PropOp41
 70
     1
102
RTVSPost2010Prop42
 90
       50
102
RTVSPost2010PropOp42
 70
     1
102
RTVSPost2010Prop43
 90
        3
102
RTVSPost2010PropOp43
 70
     1
102
RTVSPost2010Prop44ColorIndex
 90
        5
102
RTVSPost2010Prop44ColorRGB
 90
      255
102
RTVSPost2010PropOp44
 70
     1
102
RTVSPost2010Prop45
280
     0
102
RTVSPost2010PropOp45
 70
     1
102
RTVSPost2010Prop46
 90
       50
102
RTVSPost2010PropOp46
 70
     1
102
RTVSPost2010Prop47
 90
       50
102
RTVSPost2010PropOp47
 70
     1
102
RTVSPost2010Prop48
 90
       50
102
RTVSPost2010PropOp48
 70
     1
102
RTVSPost2010Prop49
280
     0
102
RTVSPost2010PropOp49
 70
     1
102
RTVSPost2010Prop50
 90
       50
102
RTVSPost2010PropOp50
 70
     1
102
RTVSPost2010Prop51ColorIndex
 90
      256
102
RTVSPost2010Prop51ColorRGB
 90
-16777216
102
RTVSPost2010PropOp51
 70
     0
102
RTVSPost2010Prop52
140
1.0
102
RTVSPost2010PropOp52
 70
     0
102
RTVSPost2010Prop53
 90
        2
102
RTVSPost2010PropOp53
 70
     1
102
RTVSPost2010Prop54
  1
strokes_ogs.tif
102
RTVSPost2010PropOp54
 70
     1
102
RTVSPost2010Prop55
280
     0
102
RTVSPost2010PropOp55
 70
     1
102
RTVSPost2010Prop56
140
1.0
102
RTVSPost2010PropOp56
 70
     1
102
RTVSPost2010Prop57
140
1.0
102
RTVSPost2010PropOp57
 70
     1
102
RTVSPropertyOp0
 70
     1
102
RTVSPropertyOp1
 70
     1
102
RTVSPropertyOp2
 70
     1
102
RTVSPropertyOp3
 70
     1
102
RTVSPropertyOp4
 70
     1
102
RTVSPropertyOp5
 70
     1
102
RTVSPropertyOp6
 70
     1
102
RTVSPropertyOp7
 70
     1
102
RTVSPropertyOp8
 70
     1
102
RTVSPropertyOp9
 70
     1
102
RTVSPropertyOp10
 70
     1
102
RTVSPropertyOp11
 70
     1
102
RTVSPropertyOp12
 70
     1
102
RTVSPropertyOp13
 70
     1
102
RTVSPropertyOp14
 70
     1
102
RTVSPropertyOp15
 70
     1
102
RTVSPropertyOp16
 70
     1
102
RTVSPropertyOp17
 70
     1
102
RTVSPropertyOp18
 70
     1
102
RTVSPropertyOp19
 70
     1
102
RTVSPropertyOp20
 70
     1
102
RTVSPropertyOp21
 70
     1
102
RTVSPropertyOp22
 70
     1
102
RTVSPropertyOp23
 70
     1
102
RTVSPropertyOp24
 70
     1
102
RTVSPropertyOp25
 70
     1
102
RTVSPropertyOp26
 70
     1
102
RTVSPropertyOp27
 70
     1
102
RTVSPropertyOp28
 70
     1
102
RTVSPropertyOp29
 70
     1
102
RTVSPropertyOp30
 70
     1
102
RTVSPropertyOp31
 70
     1
102
RTVSPropertyOp32
 70
     1
102
RTVSPropertyOp33
 70
     1
102
RTVSPropertyOp34
 70
     1
102
RTVSPropertyOp35
 70
     1
102
RTVSPropertyOp36
 70
     1
102
RTVSPropertyOp37
 70
     1
102
RTVSPropertyOp38
 70
     1
102
RTVSPropertyOp39
 70
     1
102
RTVSPropertyOp40
 70
     1
102
RTVSPropertyOp41
 70
     1
102
RTVSPropertyOp42
 70
     1
102
RTVSPropertyOp43
 70
     1
102
RTVSPropertyOp44
 70
     1
102
RTVSPropertyOp45
 70
     1
102
RTVSPropertyOp46
 70
     1
102
RTVSPropertyOp47
 70
     1
102
RTVSPropertyOp48
 70
     1
102
RTVSPropertyOp49
 70
     1
102
RTVSPropertyOp50
 70
     1
102
RTVSPropertyOp51
 70
     0
102
RTVSPropertyOp52
 70
     0
102
RTVSPropertyOp53
 70
     1
102
RTVSPropertyOp54
 70
     1
102
RTVSPropertyOp55
 70
     1
102
RTVSPropertyOp56
 70
     1
102
RTVSPropertyOp57
 70
     1
102
RTVSPropertyOp58
 70
     1
102
RTVSPropertyOp59
 70
     1
102
RTVSPropertyOp60
 70
     1
102
RTVSPropertyOp61
 70
     1
102
RTVSPropertyOp62
 70
     1
  0
XRECORD
  5
441
102
{ACAD_REACTORS
330
440
102
}
330
440
100
AcDbXrecord
280
     1
102
RTVSPost2010Prop28
280
     0
102
RTVSPost2010PropOp28
 70
     1
102
RTVSPost2010Prop29
280
     1
102
RTVSPost2010PropOp29
 70
     1
102
RTVSPost2010Prop30
280
     1
102
RTVSPost2010PropOp30
 70
     1
102
RTVSPost2010Prop31
280
     0
102
RTVSPost2010PropOp31
 70
     1
102
RTVSPost2010Prop32
280
     0
102
RTVSPost2010PropOp32
 70
     1
102
RTVSPost2010Prop33
280
     0
102
RTVSPost2010PropOp33
 70
     1
102
RTVSPost2010Prop34
280
     0
102
RTVSPost2010PropOp34
 70
     1
102
RTVSPost2010Prop35
280
     0
102
RTVSPost2010PropOp35
 70
     1
102
RTVSPost2010Prop36
280
     0
102
RTVSPost2010PropOp36
 70
     1
102
RTVSPost2010Prop37
 90
       50
102
RTVSPost2010PropOp37
 70
     1
102
RTVSPost2010Prop38
140
0.0
102
RTVSPost2010PropOp38
 70
     1
102
RTVSPost2010Prop39
140
1.0
102
RTVSPost2010PropOp39
 70
     1
102
RTVSPost2010Prop40
 90
        0
102
RTVSPost2010PropOp40
 70
     1
102
RTVSPost2010Prop41ColorIndex
 90
       18
102
RTVSPost2010Prop41ColorRGB
 90
        0
102
RTVSPost2010PropOp41
 70
     1
102
RTVSPost2010Prop42
 90
       50
102
RTVSPost2010PropOp42
 70
     1
102
RTVSPost2010Prop43
 90
        3
102
RTVSPost2010PropOp43
 70
     1
102
RTVSPost2010Prop44ColorIndex
 90
        5
102
RTVSPost2010Prop44ColorRGB
 90
      255
102
RTVSPost2010PropOp44
 70
     1
102
RTVSPost2010Prop45
280
     0
102
RTVSPost2010PropOp45
 70
     1
102
RTVSPost2010Prop46
 90
       50
102
RTVSPost2010PropOp46
 70
     1
102
RTVSPost2010Prop47
 90
       50
102
RTVSPost2010PropOp47
 70
     1
102
RTVSPost2010Prop48
 90
       50
102
RTVSPost2010PropOp48
 70
     1
102
RTVSPost2010Prop49
280
     0
102
RTVSPost2010PropOp49
 70
     1
102
RTVSPost2010Prop50
 90
       50
102
RTVSPost2010PropOp50
 70
     1
102
RTVSPost2010Prop51ColorIndex
 90
      256
102
RTVSPost2010Prop51ColorRGB
 90
-16777216
102
RTVSPost2010PropOp51
 70
     0
102
RTVSPost2010Prop52
140
1.0
102
RTVSPost2010PropOp52
 70
     0
102
RTVSPost2010Prop53
 90
        2
102
RTVSPost2010PropOp53
 70
     1
102
RTVSPost2010Prop54
  1
strokes_ogs.tif
102
RTVSPost2010PropOp54
 70
     1
102
RTVSPost2010Prop55
280
     0
102
RTVSPost2010PropOp55
 70
     1
102
RTVSPost2010Prop56
140
1.0
102
RTVSPost2010PropOp56
 70
     1
102
RTVSPost2010Prop57
140
1.0
102
RTVSPost2010PropOp57
 70
     1
102
RTVSPropertyOp0
 70
     1
102
RTVSPropertyOp1
 70
     1
102
RTVSPropertyOp2
 70
     1
102
RTVSPropertyOp3
 70
     1
102
RTVSPropertyOp4
 70
     1
102
RTVSPropertyOp5
 70
     1
102
RTVSPropertyOp6
 70
     1
102
RTVSPropertyOp7
 70
     1
102
RTVSPropertyOp8
 70
     1
102
RTVSPropertyOp9
 70
     1
102
RTVSPropertyOp10
 70
     1
102
RTVSPropertyOp11
 70
     1
102
RTVSPropertyOp12
 70
     1
102
RTVSPropertyOp13
 70
     1
102
RTVSPropertyOp14
 70
     1
102
RTVSPropertyOp15
 70
     1
102
RTVSPropertyOp16
 70
     1
102
RTVSPropertyOp17
 70
     1
102
RTVSPropertyOp18
 70
     1
102
RTVSPropertyOp19
 70
     1
102
RTVSPropertyOp20
 70
     1
102
RTVSPropertyOp21
 70
     1
102
RTVSPropertyOp22
 70
     1
102
RTVSPropertyOp23
 70
     1
102
RTVSPropertyOp24
 70
     1
102
RTVSPropertyOp25
 70
     1
102
RTVSPropertyOp26
 70
     1
102
RTVSPropertyOp27
 70
     1
102
RTVSPropertyOp28
 70
     1
102
RTVSPropertyOp29
 70
     1
102
RTVSPropertyOp30
 70
     1
102
RTVSPropertyOp31
 70
     1
102
RTVSPropertyOp32
 70
     1
102
RTVSPropertyOp33
 70
     1
102
RTVSPropertyOp34
 70
     1
102
RTVSPropertyOp35
 70
     1
102
RTVSPropertyOp36
 70
     1
102
RTVSPropertyOp37
 70
     1
102
RTVSPropertyOp38
 70
     1
102
RTVSPropertyOp39
 70
     1
102
RTVSPropertyOp40
 70
     1
102
RTVSPropertyOp41
 70
     1
102
RTVSPropertyOp42
 70
     1
102
RTVSPropertyOp43
 70
     1
102
RTVSPropertyOp44
 70
     1
102
RTVSPropertyOp45
 70
     1
102
RTVSPropertyOp46
 70
     1
102
RTVSPropertyOp47
 70
     1
102
RTVSPropertyOp48
 70
     1
102
RTVSPropertyOp49
 70
     1
102
RTVSPropertyOp50
 70
     1
102
RTVSPropertyOp51
 70
     0
102
RTVSPropertyOp52
 70
     0
102
RTVSPropertyOp53
 70
     1
102
RTVSPropertyOp54
 70
     1
102
RTVSPropertyOp55
 70
     1
102
RTVSPropertyOp56
 70
     1
102
RTVSPropertyOp57
 70
     1
102
RTVSPropertyOp58
 70
     1
102
RTVSPropertyOp59
 70
     1
102
RTVSPropertyOp60
 70
     1
102
RTVSPropertyOp61
 70
     1
102
RTVSPropertyOp62
 70
     1
  0
XRECORD
  5
461
102
{ACAD_REACTORS
330
460
102
}
330
460
100
AcDbXrecord
280
     1
102
RTVSPost2010Prop28
280
     0
102
RTVSPost2010PropOp28
 70
     1
102
RTVSPost2010Prop29
280
     1
102
RTVSPost2010PropOp29
 70
     1
102
RTVSPost2010Prop30
280
     1
102
RTVSPost2010PropOp30
 70
     1
102
RTVSPost2010Prop31
280
     0
102
RTVSPost2010PropOp31
 70
     1
102
RTVSPost2010Prop32
280
     0
102
RTVSPost2010PropOp32
 70
     1
102
RTVSPost2010Prop33
280
     0
102
RTVSPost2010PropOp33
 70
     1
102
RTVSPost2010Prop34
280
     0
102
RTVSPost2010PropOp34
 70
     1
102
RTVSPost2010Prop35
280
     0
102
RTVSPost2010PropOp35
 70
     1
102
RTVSPost2010Prop36
280
     0
102
RTVSPost2010PropOp36
 70
     1
102
RTVSPost2010Prop37
 90
       50
102
RTVSPost2010PropOp37
 70
     1
102
RTVSPost2010Prop38
140
0.0
102
RTVSPost2010PropOp38
 70
     1
102
RTVSPost2010Prop39
140
1.0
102
RTVSPost2010PropOp39
 70
     1
102
RTVSPost2010Prop40
 90
        0
102
RTVSPost2010PropOp40
 70
     1
102
RTVSPost2010Prop41ColorIndex
 90
       18
102
RTVSPost2010Prop41ColorRGB
 90
        0
102
RTVSPost2010PropOp41
 70
     1
102
RTVSPost2010Prop42
 90
       50
102
RTVSPost2010PropOp42
 70
     1
102
RTVSPost2010Prop43
 90
        3
102
RTVSPost2010PropOp43
 70
     1
102
RTVSPost2010Prop44ColorIndex
 90
        5
102
RTVSPost2010Prop44ColorRGB
 90
      255
102
RTVSPost2010PropOp44
 70
     1
102
RTVSPost2010Prop45
280
     0
102
RTVSPost2010PropOp45
 70
     1
102
RTVSPost2010Prop46
 90
       50
102
RTVSPost2010PropOp46
 70
     1
102
RTVSPost2010Prop47
 90
       50
102
RTVSPost2010PropOp47
 70
     1
102
RTVSPost2010Prop48
 90
       50
102
RTVSPost2010PropOp48
 70
     1
102
RTVSPost2010Prop49
280
     0
102
RTVSPost2010PropOp49
 70
     1
102
RTVSPost2010Prop50
 90
       50
102
RTVSPost2010PropOp50
 70
     1
102
RTVSPost2010Prop51ColorIndex
 90
      256
102
RTVSPost2010Prop51ColorRGB
 90
-16777216
102
RTVSPost2010PropOp51
 70
     0
102
RTVSPost2010Prop52
140
1.0
102
RTVSPost2010PropOp52
 70
     0
102
RTVSPost2010Prop53
 90
        2
102
RTVSPost2010PropOp53
 70
     1
102
RTVSPost2010Prop54
  1
strokes_ogs.tif
102
RTVSPost2010PropOp54
 70
     1
102
RTVSPost2010Prop55
280
     0
102
RTVSPost2010PropOp55
 70
     1
102
RTVSPost2010Prop56
140
1.0
102
RTVSPost2010PropOp56
 70
     1
102
RTVSPost2010Prop57
140
1.0
102
RTVSPost2010PropOp57
 70
     1
102
RTVSPropertyOp0
 70
     1
102
RTVSPropertyOp1
 70
     1
102
RTVSPropertyOp2
 70
     1
102
RTVSPropertyOp3
 70
     1
102
RTVSPropertyOp4
 70
     1
102
RTVSPropertyOp5
 70
     1
102
RTVSPropertyOp6
 70
     1
102
RTVSPropertyOp7
 70
     1
102
RTVSPropertyOp8
 70
     1
102
RTVSPropertyOp9
 70
     1
102
RTVSPropertyOp10
 70
     1
102
RTVSPropertyOp11
 70
     1
102
RTVSPropertyOp12
 70
     1
102
RTVSPropertyOp13
 70
     1
102
RTVSPropertyOp14
 70
     1
102
RTVSPropertyOp15
 70
     1
102
RTVSPropertyOp16
 70
     1
102
RTVSPropertyOp17
 70
     1
102
RTVSPropertyOp18
 70
     1
102
RTVSPropertyOp19
 70
     1
102
RTVSPropertyOp20
 70
     1
102
RTVSPropertyOp21
 70
     1
102
RTVSPropertyOp22
 70
     1
102
RTVSPropertyOp23
 70
     1
102
RTVSPropertyOp24
 70
     1
102
RTVSPropertyOp25
 70
     1
102
RTVSPropertyOp26
 70
     1
102
RTVSPropertyOp27
 70
     1
102
RTVSPropertyOp28
 70
     1
102
RTVSPropertyOp29
 70
     1
102
RTVSPropertyOp30
 70
     1
102
RTVSPropertyOp31
 70
     1
102
RTVSPropertyOp32
 70
     1
102
RTVSPropertyOp33
 70
     1
102
RTVSPropertyOp34
 70
     1
102
RTVSPropertyOp35
 70
     1
102
RTVSPropertyOp36
 70
     1
102
RTVSPropertyOp37
 70
     1
102
RTVSPropertyOp38
 70
     1
102
RTVSPropertyOp39
 70
     1
102
RTVSPropertyOp40
 70
     1
102
RTVSPropertyOp41
 70
     1
102
RTVSPropertyOp42
 70
     1
102
RTVSPropertyOp43
 70
     1
102
RTVSPropertyOp44
 70
     1
102
RTVSPropertyOp45
 70
     1
102
RTVSPropertyOp46
 70
     1
102
RTVSPropertyOp47
 70
     1
102
RTVSPropertyOp48
 70
     1
102
RTVSPropertyOp49
 70
     1
102
RTVSPropertyOp50
 70
     1
102
RTVSPropertyOp51
 70
     0
102
RTVSPropertyOp52
 70
     0
102
RTVSPropertyOp53
 70
     1
102
RTVSPropertyOp54
 70
     1
102
RTVSPropertyOp55
 70
     1
102
RTVSPropertyOp56
 70
     1
102
RTVSPropertyOp57
 70
     1
102
RTVSPropertyOp58
 70
     1
102
RTVSPropertyOp59
 70
     1
102
RTVSPropertyOp60
 70
     1
102
RTVSPropertyOp61
 70
     1
102
RTVSPropertyOp62
 70
     1
  0
ENDSEC
  0
EOF
