  0
SECTION
  2
HEADER
  9
$ACADVER
  1
AC1018
  9
$ACADMAINTVER
 70
   104
  9
$DWGCODEPAGE
  3
ANSI_1250
  9
$LASTSAVEDBY
  1
hm1535
  9
$INSBASE
 10
0.0
 20
0.0
 30
0.0
  9
$EXTMIN
 10
256.3101761000234
 20
21.404126
 30
0.0
  9
$EXTMAX
 10
587.478648
 20
407.1155648999766
 30
0.0
  9
$LIMMIN
 10
-0.5
 20
-0.5
  9
$LIMMAX
 10
5.0
 20
5.0
  9
$ORTHOMODE
 70
     0
  9
$REGENMODE
 70
     1
  9
$FILLMODE
 70
     1
  9
$QTEXTMODE
 70
     0
  9
$MIRRTEXT
 70
     1
  9
$LTSCALE
 40
1.0
  9
$ATTMODE
 70
     1
  9
$TEXTSIZE
 40
0.2
  9
$TRACEWID
 40
0.05
  9
$TEXTSTYLE
  7
Standard
  9
$CLAYER
  8
0
  9
$CELTYPE
  6
ByLayer
  9
$CECOLOR
 62
   256
  9
$CELTSCALE
 40
1.0
  9
$DISPSILH
 70
     0
  9
$DIMSCALE
 40
1.0
  9
$DIMASZ
 40
0.18
  9
$DIMEXO
 40
0.0625
  9
$DIMDLI
 40
0.38
  9
$DIMRND
 40
0.0
  9
$DIMDLE
 40
0.0
  9
$DIMEXE
 40
0.18
  9
$DIMTP
 40
0.0
  9
$DIMTM
 40
0.0
  9
$DIMTXT
 40
0.18
  9
$DIMCEN
 40
0.09
  9
$DIMTSZ
 40
0.0
  9
$DIMTOL
 70
     0
  9
$DIMLIM
 70
     0
  9
$DIMTIH
 70
     1
  9
$DIMTOH
 70
     1
  9
$DIMSE1
 70
     0
  9
$DIMSE2
 70
     0
  9
$DIMTAD
 70
     0
  9
$DIMZIN
 70
     0
  9
$DIMBLK
  1

  9
$DIMASO
 70
     1
  9
$DIMSHO
 70
     1
  9
$DIMPOST
  1

  9
$DIMAPOST
  1

  9
$DIMALT
 70
     0
  9
$DIMALTD
 70
     2
  9
$DIMALTF
 40
25.4
  9
$DIMLFAC
 40
1.0
  9
$DIMTOFL
 70
     0
  9
$DIMTVP
 40
0.0
  9
$DIMTIX
 70
     0
  9
$DIMSOXD
 70
     0
  9
$DIMSAH
 70
     0
  9
$DIMBLK1
  1

  9
$DIMBLK2
  1

  9
$DIMSTYLE
  2
Standard
  9
$DIMCLRD
 70
     0
  9
$DIMCLRE
 70
     0
  9
$DIMCLRT
 70
     0
  9
$DIMTFAC
 40
1.0
  9
$DIMGAP
 40
0.09
  9
$DIMJUST
 70
     0
  9
$DIMSD1
 70
     0
  9
$DIMSD2
 70
     0
  9
$DIMTOLJ
 70
     1
  9
$DIMTZIN
 70
     0
  9
$DIMALTZ
 70
     0
  9
$DIMALTTZ
 70
     0
  9
$DIMUPT
 70
     0
  9
$DIMDEC
 70
     4
  9
$DIMTDEC
 70
     4
  9
$DIMALTU
 70
     2
  9
$DIMALTTD
 70
     2
  9
$DIMTXSTY
  7
Standard
  9
$DIMAUNIT
 70
     0
  9
$DIMADEC
 70
     0
  9
$DIMALTRND
 40
0.0
  9
$DIMAZIN
 70
     0
  9
$DIMDSEP
 70
    46
  9
$DIMATFIT
 70
     3
  9
$DIMFRAC
 70
     0
  9
$DIMLDRBLK
  1

  9
$DIMLUNIT
 70
     2
  9
$DIMLWD
 70
    -2
  9
$DIMLWE
 70
    -2
  9
$DIMTMOVE
 70
     0
  9
$LUNITS
 70
     2
  9
$LUPREC
 70
     2
  9
$SKETCHINC
 40
0.1
  9
$FILLETRAD
 40
0.5
  9
$AUNITS
 70
     0
  9
$AUPREC
 70
     0
  9
$MENU
  1
.
  9
$ELEVATION
 40
0.0
  9
$PELEVATION
 40
0.0
  9
$THICKNESS
 40
0.0
  9
$LIMCHECK
 70
     0
  9
$CHAMFERA
 40
0.0
  9
$CHAMFERB
 40
0.0
  9
$CHAMFERC
 40
0.0
  9
$CHAMFERD
 40
0.0
  9
$SKPOLY
 70
     0
  9
$TDCREATE
 40
2458864.540474537
  9
$TDUCREATE
 40
2458864.498810255
  9
$TDUPDATE
 40
2458864.544224537
  9
$TDUUPDATE
 40
2458864.502557871
  9
$TDINDWG
 40
0.0031018634
  9
$TDUSRTIMER
 40
0.0031018634
  9
$USRTIMER
 70
     1
  9
$ANGBASE
 50
0.0
  9
$ANGDIR
 70
     0
  9
$PDMODE
 70
     0
  9
$PDSIZE
 40
0.0
  9
$PLINEWID
 40
0.0
  9
$SPLFRAME
 70
     0
  9
$SPLINETYPE
 70
     6
  9
$SPLINESEGS
 70
     8
  9
$HANDSEED
  5
3EF
  9
$SURFTAB1
 70
     6
  9
$SURFTAB2
 70
     6
  9
$SURFTYPE
 70
     6
  9
$SURFU
 70
     6
  9
$SURFV
 70
     6
  9
$UCSBASE
  2

  9
$UCSNAME
  2

  9
$UCSORG
 10
321.174849
 20
366.008075
 30
0.0
  9
$UCSXDIR
 10
1.0
 20
0.0
 30
0.0
  9
$UCSYDIR
 10
0.0
 20
1.0
 30
0.0
  9
$UCSORTHOREF
  2

  9
$UCSORTHOVIEW
 70
     0
  9
$UCSORGTOP
 10
0.0
 20
0.0
 30
0.0
  9
$UCSORGBOTTOM
 10
0.0
 20
0.0
 30
0.0
  9
$UCSORGLEFT
 10
0.0
 20
0.0
 30
0.0
  9
$UCSORGRIGHT
 10
0.0
 20
0.0
 30
0.0
  9
$UCSORGFRONT
 10
0.0
 20
0.0
 30
0.0
  9
$UCSORGBACK
 10
0.0
 20
0.0
 30
0.0
  9
$PUCSBASE
  2

  9
$PUCSNAME
  2

  9
$PUCSORG
 10
0.0
 20
0.0
 30
0.0
  9
$PUCSXDIR
 10
1.0
 20
0.0
 30
0.0
  9
$PUCSYDIR
 10
0.0
 20
1.0
 30
0.0
  9
$PUCSORTHOREF
  2

  9
$PUCSORTHOVIEW
 70
     0
  9
$PUCSORGTOP
 10
0.0
 20
0.0
 30
0.0
  9
$PUCSORGBOTTOM
 10
0.0
 20
0.0
 30
0.0
  9
$PUCSORGLEFT
 10
0.0
 20
0.0
 30
0.0
  9
$PUCSORGRIGHT
 10
0.0
 20
0.0
 30
0.0
  9
$PUCSORGFRONT
 10
0.0
 20
0.0
 30
0.0
  9
$PUCSORGBACK
 10
0.0
 20
0.0
 30
0.0
  9
$USERI1
 70
     0
  9
$USERI2
 70
     0
  9
$USERI3
 70
     0
  9
$USERI4
 70
     0
  9
$USERI5
 70
     0
  9
$USERR1
 40
0.0
  9
$USERR2
 40
0.0
  9
$USERR3
 40
0.0
  9
$USERR4
 40
0.0
  9
$USERR5
 40
0.0
  9
$WORLDVIEW
 70
     1
  9
$SHADEDGE
 70
     3
  9
$SHADEDIF
 70
    70
  9
$TILEMODE
 70
     1
  9
$MAXACTVP
 70
    64
  9
$PINSBASE
 10
0.0
 20
0.0
 30
0.0
  9
$PLIMCHECK
 70
     0
  9
$PEXTMIN
 10
-0.5
 20
-0.5
 30
-0.5
  9
$PEXTMAX
 10
5.0
 20
5.0
 30
5.0
  9
$PLIMMIN
 10
-0.5
 20
-0.5
  9
$PLIMMAX
 10
5.0
 20
5.0
  9
$UNITMODE
 70
     0
  9
$VISRETAIN
 70
     1
  9
$PLINEGEN
 70
     0
  9
$PSLTSCALE
 70
     1
  9
$TREEDEPTH
 70
  3020
  9
$CMLSTYLE
  2
Standard
  9
$CMLJUST
 70
     0
  9
$CMLSCALE
 40
1.0
  9
$PROXYGRAPHICS
 70
     1
  9
$MEASUREMENT
 70
     1
  9
$CELWEIGHT
370
    13
  9
$ENDCAPS
280
     0
  9
$JOINSTYLE
280
     0
  9
$LWDISPLAY
290
     0
  9
$INSUNITS
 70
     4
  9
$HYPERLINKBASE
  1

  9
$STYLESHEET
  1

  9
$XEDIT
290
     1
  9
$CEPSNTYPE
380
     0
  9
$PSTYLEMODE
290
     1
  9
$FINGERPRINTGUID
  2
{E73CA5FB-854B-4D10-A9F8-8B2CAB20DD90}
  9
$VERSIONGUID
  2
{5FEFB502-D316-DD44-9AE1-102EA805B44A}
  9
$EXTNAMES
290
     1
  9
$PSVPSCALE
 40
0.0
  9
$OLESTARTUP
290
     0
  9
$SORTENTS
280
   127
  9
$INDEXCTL
280
     0
  9
$HIDETEXT
280
     1
  9
$XCLIPFRAME
290
     0
  9
$HALOGAP
280
     0
  9
$OBSCOLOR
 70
   257
  9
$OBSLTYPE
280
     0
  9
$INTERSECTIONDISPLAY
280
     0
  9
$INTERSECTIONCOLOR
 70
   257
  9
$DIMASSOC
280
     2
  9
$PROJECTNAME
  1

  0
ENDSEC
  0
SECTION
  2
CLASSES
  0
CLASS
  1
ACDBDICTIONARYWDFLT
  2
AcDbDictionaryWithDefault
  3
ObjectDBX Classes
 90
        0
 91
        1
280
     0
281
     0
  0
CLASS
  1
VISUALSTYLE
  2
AcDbVisualStyle
  3
ObjectDBX Classes
 90
     4095
 91
       24
280
     0
281
     0
  0
CLASS
  1
MATERIAL
  2
AcDbMaterial
  3
ObjectDBX Classes
 90
     1153
 91
        3
280
     0
281
     0
  0
CLASS
  1
SCALE
  2
AcDbScale
  3
ObjectDBX Classes
 90
     1153
 91
       33
280
     0
281
     0
  0
CLASS
  1
TABLESTYLE
  2
AcDbTableStyle
  3
ObjectDBX Classes
 90
     4095
 91
        1
280
     0
281
     0
  0
CLASS
  1
MLEADERSTYLE
  2
AcDbMLeaderStyle
  3
ACDB_MLEADERSTYLE_CLASS
 90
     4095
 91
        1
280
     0
281
     0
  0
CLASS
  1
SUN
  2
AcDbSun
  3
SCENEOE
 90
     1153
 91
        0
280
     0
281
     0
  0
CLASS
  1
IMAGEDEF
  2
AcDbRasterImageDef
  3
ISM
 90
        0
 91
        1
280
     0
281
     0
  0
CLASS
  1
IMAGE
  2
AcDbRasterImage
  3
ISM
 90
     2175
 91
        1
280
     0
281
     1
  0
CLASS
  1
IMAGEDEF_REACTOR
  2
AcDbRasterImageDefReactor
  3
ISM
 90
        1
 91
        1
280
     0
281
     0
  0
CLASS
  1
DIMASSOC
  2
AcDbDimAssoc
  3
"AcDbDimAssoc|Product Desc:     AcDim ARX App For Dimension|Company:          Autodesk, Inc.|WEB Address:      www.autodesk.com"
 90
        0
 91
        6
280
     0
281
     0
  0
CLASS
  1
DICTIONARYVAR
  2
AcDbDictionaryVar
  3
ObjectDBX Classes
 90
        0
 91
       11
280
     0
281
     0
  0
CLASS
  1
CELLSTYLEMAP
  2
AcDbCellStyleMap
  3
ObjectDBX Classes
 90
     1152
 91
        3
280
     0
281
     0
  0
CLASS
  1
ACDBSECTIONVIEWSTYLE
  2
AcDbSectionViewStyle
  3
ObjectDBX Classes
 90
     1025
 91
        2
280
     0
281
     0
  0
CLASS
  1
ACDBDETAILVIEWSTYLE
  2
AcDbDetailViewStyle
  3
ObjectDBX Classes
 90
     1025
 91
        2
280
     0
281
     0
  0
CLASS
  1
RASTERVARIABLES
  2
AcDbRasterVariables
  3
ISM
 90
        0
 91
        1
280
     0
281
     0
  0
CLASS
  1
ACME_DOCUMENT
  2
AcMeDbDoc
  3
AcMeServices
 90
     1024
 91
        1
280
     0
281
     0
  0
CLASS
  1
ACMESCOPE
  2
AcMeScope
  3
AcMeServices
 90
     1024
 91
        1
280
     0
281
     0
  0
CLASS
  1
ACMECOMMANDHISTORY
  2
AcMeCommandHistory
  3
AcMeServices
 90
     1024
 91
        1
280
     0
281
     0
  0
CLASS
  1
ACIMSYSVARMAN
  2
AcImSysVarManager
  3
AcMeServices
 90
     1024
 91
        3
280
     0
281
     0
  0
CLASS
  1
ACIMINTSYSVAR
  2
AcImIntSysVar
  3
AcMeServices
 90
     1024
 91
        2
280
     0
281
     0
  0
CLASS
  1
ACMESTATEMGR
  2
AcMeStateMgr
  3
AcMeServices
 90
     1024
 91
        1
280
     0
281
     0
  0
CLASS
  1
ACDBENTITYCACHE
  2
AcMeEntityCache
  3
AcMeServices
 90
     1024
 91
        1
280
     0
281
     0
  0
CLASS
  1
ACGREFMASTER
  2
AcGrefMaster
  3
AcAttribServices
 90
     1024
 91
        1
280
     0
281
     0
  0
CLASS
  1
ACME_DATABASE
  2
AcMeDbDatabase
  3
AcMeServices
 90
     1024
 91
        1
280
     0
281
     0
  0
CLASS
  1
ACRFINSADJUSTERMGR
  2
AcRfInsAdjusterMgr
  3
AcMeServices
 90
     1024
 91
        1
280
     0
281
     0
  0
CLASS
  1
ACGREFACADMASTER
  2
AcGrefacadMaster
  3
AcGrefServices
 90
     1024
 91
        1
280
     0
281
     0
  0
CLASS
  1
AMIMASTER
  2
AmiMaster
  3
AmiServices
 90
     1024
 91
        1
280
     0
281
     0
  0
CLASS
  1
AMGSETTINGSOBJ
  2
AmgSettingsObj
  3
"AcadM|Product Description: AutoCAD Mechanical|Company: Autodesk, Inc."
 90
     1024
 91
        2
280
     0
281
     0
  0
CLASS
  1
AMDTMENUSTATEMGR
  2
AmdtMenuStateMgr
  3
McadcomServices
 90
     1024
 91
        1
280
     0
281
     0
  0
CLASS
  1
AMDTMCOMMENUSTATE
  2
AmdtMcomMenuState
  3
McadcomServices
 90
     1024
 91
        1
280
     0
281
     0
  0
CLASS
  1
MAPIAMMOUDLE
  2
MApiAmModule
  3
MApiAmServices
 90
     1024
 91
        1
280
     0
281
     0
  0
CLASS
  1
ACIMSTRSYSVAR
  2
AcImStrSysVar
  3
AcMeServices
 90
     1024
 91
        5
280
     0
281
     0
  0
CLASS
  1
AMDTAMMENUSTATE
  2
AmdtAmMenuState
  3
DesignerAssemblies_arx
 90
     1024
 91
        1
280
     0
281
     0
  0
CLASS
  1
ACAMPROJECT
  2
AcAmProject
  3
DesignerAssemblies
 90
     1024
 91
        1
280
     0
281
     0
  0
CLASS
  1
ACAMGRCOMPDEF
  2
AcAmGrCompDef
  3
DesignerAssemblies
 90
     1024
 91
        1
280
     0
281
     0
  0
CLASS
  1
ACAMCOMPDEF
  2
AcAmCompDef
  3
DesignerAssemblies
 90
     1024
 91
        1
280
     0
281
     0
  0
CLASS
  1
ACAMCOMPDEFMGR
  2
AcAmCompDefMgr
  3
DesignerAssemblies
 90
     1024
 91
        1
280
     0
281
     0
  0
CLASS
  1
AMCONTEXTMGR
  2
AcAmContextMgr
  3
DesignerAssemblies
 90
     1024
 91
        1
280
     0
281
     0
  0
CLASS
  1
ACAMCONTEXTMODELER
  2
AcAmContextModeler
  3
DesignerAssemblies
 90
     1024
 91
        1
280
     0
281
     0
  0
CLASS
  1
ACMDATADICTIONARY
  2
AcmDataDictionary
  3
"AcmSymBB|Product Description: AutoCAD Mechanical|Company: Autodesk, Inc."
 90
     1024
 91
        1
280
     0
281
     0
  0
CLASS
  1
ACAMGRCOMPDEFSET
  2
AcAmGrCompDefSet
  3
DesignerAssemblies
 90
     1024
 91
        1
280
     0
281
     0
  0
CLASS
  1
AMDTBROWSERDBTAB
  2
AmdtBrowserDbTab
  3
McadcomServices
 90
     1024
 91
        1
280
     0
281
     0
  0
CLASS
  1
CBROWSERAPPOBJECT
  2
CBrowserAppObject
  3
McadcomServices
 90
     1024
 91
        2
280
     0
281
     0
  0
CLASS
  1
DM_PLACEHOLDER
  2
AcDmSelsetPlaceholder
  3
McadcomServices
 90
     1024
 91
        1
280
     0
281
     0
  0
CLASS
  1
ACMSTANDARDISO
  2
AcmStandardISO
  3
"Amdt_StdImp|Product Description: AutoCAD Mechanical|Company: Autodesk, Inc."
 90
     1024
 91
        1
280
     0
281
     0
  0
CLASS
  1
AMDTEDGESTANDARDISO13715
  2
AmdtEdgeStdISO13715
  3
"Amdt_StdImp|Product Description: AutoCAD Mechanical|Company: Autodesk, Inc."
 90
     1024
 91
        1
280
     0
281
     0
  0
CLASS
  1
ACMSURFSTANDARDISO2002
  2
AcmSurfTextStdISO2002
  3
"Amdt_StdImp|Product Description: AutoCAD Mechanical|Company: Autodesk, Inc."
 90
     1024
 91
        1
280
     0
281
     0
  0
CLASS
  1
ACMFCFSTANDARDISO2012
  2
AcmFCFStdISO2012
  3
"Amdt_StdImp|Product Description: AutoCAD Mechanical|Company: Autodesk, Inc."
 90
     1024
 91
        1
280
     0
281
     0
  0
CLASS
  1
ACMWELDSTANDARDISO
  2
AcmWeldingStdISO
  3
"Amdt_StdImp|Product Description: AutoCAD Mechanical|Company: Autodesk, Inc."
 90
     1024
 91
        1
280
     0
281
     0
  0
CLASS
  1
ACMIDSTANDARDISO2012
  2
AcmIdStdISO2012
  3
"Amdt_StdImp|Product Description: AutoCAD Mechanical|Company: Autodesk, Inc."
 90
     1024
 91
        1
280
     0
281
     0
  0
CLASS
  1
ACMDATUMSTANDARDISO2012
  2
AcmDatumStdISO2012
  3
"Amdt_StdImp|Product Description: AutoCAD Mechanical|Company: Autodesk, Inc."
 90
     1024
 91
        1
280
     0
281
     0
  0
CLASS
  1
ACMBOMSTANDARDISO
  2
AcmBOMStdISO
  3
"Amdt_StdImp|Product Description: AutoCAD Mechanical|Company: Autodesk, Inc."
 90
     1024
 91
        1
280
     0
281
     0
  0
CLASS
  1
ACMDETAILSTANDARDISO
  2
AmdtDetailSymStdISO
  3
"Amdt_StdImp|Product Description: AutoCAD Mechanical|Company: Autodesk, Inc."
 90
     1024
 91
        1
280
     0
281
     0
  0
CLASS
  1
ACMSECTIONSTANDARDISO2001
  2
AmdtSectionSymStdISO2001
  3
"Amdt_StdImp|Product Description: AutoCAD Mechanical|Company: Autodesk, Inc."
 90
     1024
 91
        1
280
     0
281
     0
  0
CLASS
  1
ACMCENTERLINESTANDARDISO
  2
AmdtCenterLineStdISO
  3
"Amdt_StdImp|Product Description: AutoCAD Mechanical|Company: Autodesk, Inc."
 90
     1024
 91
        1
280
     0
281
     0
  0
CLASS
  1
ACMTHREADLINESTANDARDISO
  2
AmdtThreadLineStdISO
  3
"Amdt_StdImp|Product Description: AutoCAD Mechanical|Company: Autodesk, Inc."
 90
     1024
 91
        1
280
     0
281
     0
  0
CLASS
  1
ACMNOTESTANDARDISO
  2
AmdtNoteStdISO
  3
"Amdt_StdImp|Product Description: AutoCAD Mechanical|Company: Autodesk, Inc."
 90
     1024
 91
        1
280
     0
281
     0
  0
CLASS
  1
ACMTAPERSTANDARDISO
  2
AcmTaperStdISO
  3
"Amdt_StdImp|Product Description: AutoCAD Mechanical|Company: Autodesk, Inc."
 90
     1024
 91
        1
280
     0
281
     0
  0
CLASS
  1
ACMANOOTATIONVIEWSTANDARDISO
  2
AmdtAnViewStdISO
  3
"Amdt_StdImp|Product Description: AutoCAD Mechanical|Company: Autodesk, Inc."
 90
     1024
 91
        1
280
     0
281
     0
  0
CLASS
  1
ACAMGLAYSTD
  2
AcAmgLayStd
  3
"AmgLay|Product Description: AutoCAD Mechanical|Company: Autodesk, Inc."
 90
     1024
 91
        1
280
     0
281
     0
  0
CLASS
  1
ACAMGTITLESTD
  2
AcAmgTitleStd
  3
"AmgTitle|Product Description: AutoCAD Mechanical|Company: Autodesk, Inc."
 90
     1024
 91
        1
280
     0
281
     0
  0
CLASS
  1
ACAMGDIMSTD
  2
AcAmgDimStd
  3
"AmgDim|Product Description: AutoCAD Mechanical|Company: Autodesk, Inc."
 90
     1024
 91
        1
280
     0
281
     0
  0
CLASS
  1
AMGOBJPROPCFG
  2
AmgObjPropCfg
  3
"AmgLay|Product Description: AutoCAD Mechanical|Company: Autodesk, Inc."
 90
     1024
 91
        1
280
     0
281
     0
  0
CLASS
  1
ACAMGHOLECHARTSTDISO
  2
AcAmgHoleChartStdISO
  3
"AmgDim" "Product Description: AutoCAD Mechanical|Company: Autodesk, Inc."
 90
     1024
 91
        1
280
     0
281
     0
  0
CLASS
  1
ACMSECTIONSTANDARDCUSTOM
  2
AmdtSectionSymStdCustom
  3
"Amdt_StdImp|Product Description: AutoCAD Mechanical|Company: Autodesk, Inc."
 90
     1024
 91
        1
280
     0
281
     0
  0
CLASS
  1
ACMDETAILTANDARDCUSTOM
  2
AmdtDetailSymStdCustom
  3
"Amdt_StdImp|Product Description: AutoCAD Mechanical|Company: Autodesk, Inc."
 90
     1024
 91
        1
280
     0
281
     0
  0
CLASS
  1
FIELD
  2
AcDbField
  3
ObjectDBX Classes
 90
     1152
 91
        3
280
     0
281
     0
  0
CLASS
  1
FIELDLIST
  2
AcDbFieldList
  3
ObjectDBX Classes
 90
     1152
 91
        1
280
     0
281
     0
  0
CLASS
  1
AMDTNOTETEMPLATEDB
  2
AmdtNoteTemplateDB
  3
"AcmSymBB" "Product Description: AutoCAD Mechanical|Company: Autodesk, Inc."
 90
     1024
 91
        7
280
     0
281
     0
  0
CLASS
  1
ACAMGFILTERDAT
  2
AcAmgFilterDat
  3
"AcadM|Product Description: AutoCAD Mechanical|Company: Autodesk, Inc."
 90
     1024
 91
        6
280
     0
281
     0
  0
CLASS
  1
SORTENTSTABLE
  2
AcDbSortentsTable
  3
ObjectDBX Classes
 90
        0
 91
        1
280
     0
281
     0
  0
ENDSEC
  0
SECTION
  2
TABLES
  0
TABLE
  2
VPORT
  5
8
330
0
100
AcDbSymbolTable
 70
    16
  0
VPORT
  5
29
330
8
100
AcDbSymbolTableRecord
100
AcDbViewportTableRecord
  2
*Active
 70
     0
 10
0.0
 20
0.0
 11
1.0
 21
1.0
 12
356.4562972185876
 22
376.0538039788179
 13
0.0
 23
0.0
 14
0.5
 24
0.5
 15
0.5
 25
0.5
 16
0.0
 26
0.0
 36
1.0
 17
0.0
 27
0.0
 37
0.0
 40
109.5444031703886
 41
2.188141391106043
 42
50.0
 43
750.949148
 44
-750.949148
 50
0.0
 51
0.0
 71
     0
 72
   100
 73
     1
 74
     3
 75
     0
 76
     0
 77
     0
 78
     0
281
     0
 65
     0
110
0.0
120
0.0
130
0.0
111
1.0
121
0.0
131
0.0
112
0.0
122
1.0
132
0.0
 79
     0
146
0.0
1001
ACAD_NAV_VCDISPLAY
1070
     3
  0
VPORT
  5
21A
330
8
100
AcDbSymbolTableRecord
100
AcDbViewportTableRecord
  2
L1
 70
     0
 10
0.0
 20
0.0
 11
1.0
 21
1.0
 12
422.065358
 22
213.58927
 13
0.0
 23
0.0
 14
0.5
 24
0.5
 15
0.5
 25
0.5
 16
0.0
 26
0.0
 36
1.0
 17
0.0
 27
0.0
 37
0.0
 40
207.433333
 41
0.085602
 42
50.0
 43
750.949148
 44
-750.949148
 50
0.0
 51
0.0
 71
     0
 72
   100
 73
     1
 74
     3
 75
     0
 76
     0
 77
     0
 78
     0
281
     0
 65
     1
110
0.0
120
0.0
130
0.0
111
1.0
121
0.0
131
0.0
112
0.0
122
1.0
132
0.0
 79
     0
146
0.0
  0
VPORT
  5
21B
330
8
100
AcDbSymbolTableRecord
100
AcDbViewportTableRecord
  2
L2
 70
     0
 10
0.0
 20
0.0
 11
0.5
 21
1.0
 12
0.0
 22
0.0
 13
0.0
 23
0.0
 14
0.5
 24
0.5
 15
0.5
 25
0.5
 16
0.0
 26
-1.0
 36
0.0
 17
0.0
 27
0.0
 37
0.0
 40
1478.660809
 41
0.012009
 42
50.0
 43
765.39502
 44
-765.39502
 50
0.0
 51
0.0
 71
     0
 72
   100
 73
     1
 74
     3
 75
     0
 76
     0
 77
     0
 78
     0
281
     0
 65
     1
110
0.0
120
0.0
130
0.0
111
1.0
121
0.0
131
0.0
112
0.0
122
1.0
132
0.0
 79
     0
146
0.0
  0
VPORT
  5
21C
330
8
100
AcDbSymbolTableRecord
100
AcDbViewportTableRecord
  2
L2
 70
     0
 10
0.5
 20
0.0
 11
1.0
 21
1.0
 12
0.0
 22
0.0
 13
0.0
 23
0.0
 14
0.5
 24
0.5
 15
0.5
 25
0.5
 16
1.0
 26
0.0
 36
0.0
 17
0.0
 27
0.0
 37
0.0
 40
1478.660809
 41
0.012009
 42
50.0
 43
746.5698859999999
 44
-746.5698859999999
 50
0.0
 51
0.0
 71
     0
 72
   100
 73
     1
 74
     3
 75
     0
 76
     0
 77
     0
 78
     0
281
     0
 65
     1
110
0.0
120
0.0
130
0.0
111
1.0
121
0.0
131
0.0
112
0.0
122
1.0
132
0.0
 79
     0
146
0.0
  0
VPORT
  5
21D
330
8
100
AcDbSymbolTableRecord
100
AcDbViewportTableRecord
  2
L3
 70
     0
 10
0.0
 20
0.5
 11
1.0
 21
1.0
 12
422.065358
 22
213.58927
 13
0.0
 23
0.0
 14
0.5
 24
0.5
 15
0.5
 25
0.5
 16
0.0
 26
0.0
 36
1.0
 17
0.0
 27
0.0
 37
0.0
 40
207.433333
 41
0.085602
 42
50.0
 43
750.949148
 44
-750.949148
 50
0.0
 51
0.0
 71
     0
 72
   100
 73
     1
 74
     3
 75
     0
 76
     0
 77
     0
 78
     0
281
     0
 65
     1
110
0.0
120
0.0
130
0.0
111
1.0
121
0.0
131
0.0
112
0.0
122
1.0
132
0.0
 79
     0
146
0.0
  0
VPORT
  5
21E
330
8
100
AcDbSymbolTableRecord
100
AcDbViewportTableRecord
  2
L3
 70
     0
 10
0.0
 20
0.0
 11
1.0
 21
0.5
 12
0.0
 22
0.0
 13
0.0
 23
0.0
 14
0.5
 24
0.5
 15
0.5
 25
0.5
 16
0.0
 26
-1.0
 36
0.0
 17
0.0
 27
0.0
 37
0.0
 40
1478.660809
 41
0.012009
 42
50.0
 43
765.39502
 44
-765.39502
 50
0.0
 51
0.0
 71
     0
 72
   100
 73
     1
 74
     3
 75
     0
 76
     0
 77
     0
 78
     0
281
     0
 65
     1
110
0.0
120
0.0
130
0.0
111
1.0
121
0.0
131
0.0
112
0.0
122
1.0
132
0.0
 79
     0
146
0.0
  0
VPORT
  5
21F
330
8
100
AcDbSymbolTableRecord
100
AcDbViewportTableRecord
  2
L4
 70
     0
 10
0.0
 20
0.5
 11
0.5
 21
1.0
 12
422.065358
 22
213.58927
 13
0.0
 23
0.0
 14
0.5
 24
0.5
 15
0.5
 25
0.5
 16
0.0
 26
0.0
 36
1.0
 17
0.0
 27
0.0
 37
0.0
 40
207.433333
 41
0.085602
 42
50.0
 43
750.949148
 44
-750.949148
 50
0.0
 51
0.0
 71
     0
 72
   100
 73
     1
 74
     3
 75
     0
 76
     0
 77
     0
 78
     0
281
     0
 65
     1
110
0.0
120
0.0
130
0.0
111
1.0
121
0.0
131
0.0
112
0.0
122
1.0
132
0.0
 79
     0
146
0.0
  0
VPORT
  5
220
330
8
100
AcDbSymbolTableRecord
100
AcDbViewportTableRecord
  2
L4
 70
     0
 10
0.0
 20
0.0
 11
0.5
 21
0.5
 12
0.0
 22
0.0
 13
0.0
 23
0.0
 14
0.5
 24
0.5
 15
0.5
 25
0.5
 16
0.0
 26
-1.0
 36
0.0
 17
0.0
 27
0.0
 37
0.0
 40
1478.660809
 41
0.012009
 42
50.0
 43
765.39502
 44
-765.39502
 50
0.0
 51
0.0
 71
     0
 72
   100
 73
     1
 74
     3
 75
     0
 76
     0
 77
     0
 78
     0
281
     0
 65
     1
110
0.0
120
0.0
130
0.0
111
1.0
121
0.0
131
0.0
112
0.0
122
1.0
132
0.0
 79
     0
146
0.0
  0
VPORT
  5
221
330
8
100
AcDbSymbolTableRecord
100
AcDbViewportTableRecord
  2
L4
 70
     0
 10
0.5
 20
0.0
 11
1.0
 21
0.5
 12
0.0
 22
0.0
 13
0.0
 23
0.0
 14
0.5
 24
0.5
 15
0.5
 25
0.5
 16
1.0
 26
0.0
 36
0.0
 17
0.0
 27
0.0
 37
0.0
 40
1478.660809
 41
0.012009
 42
50.0
 43
746.5698859999999
 44
-746.5698859999999
 50
0.0
 51
0.0
 71
     0
 72
   100
 73
     1
 74
     3
 75
     0
 76
     0
 77
     0
 78
     0
281
     0
 65
     1
110
0.0
120
0.0
130
0.0
111
1.0
121
0.0
131
0.0
112
0.0
122
1.0
132
0.0
 79
     0
146
0.0
  0
VPORT
  5
222
330
8
100
AcDbSymbolTableRecord
100
AcDbViewportTableRecord
  2
L4
 70
     0
 10
0.5
 20
0.5
 11
1.0
 21
1.0
 12
0.0
 22
0.0
 13
0.0
 23
0.0
 14
0.5
 24
0.5
 15
0.5
 25
0.5
 16
0.5773502691896259
 26
-0.5773502691896259
 36
0.5773502691896259
 17
0.0
 27
0.0
 37
0.0
 40
1453.705292
 41
0.012215
 42
50.0
 43
757.5245879999999
 44
-757.5245879999999
 50
0.0
 51
0.0
 71
     0
 72
   100
 73
     1
 74
     3
 75
     0
 76
     0
 77
     0
 78
     0
281
     0
 65
     1
110
0.0
120
0.0
130
0.0
111
1.0
121
0.0
131
0.0
112
0.0
122
1.0
132
0.0
 79
     0
146
0.0
  0
VPORT
  5
223
330
8
100
AcDbSymbolTableRecord
100
AcDbViewportTableRecord
  2
L6
 70
     0
 10
0.0
 20
0.5
 11
0.333333
 21
1.0
 12
0.0
 22
0.0
 13
0.0
 23
0.0
 14
0.5
 24
0.5
 15
0.5
 25
0.5
 16
0.7188730927569434
 26
-0.5850486126764433
 36
0.3754192287502549
 17
0.0
 27
0.0
 37
0.0
 40
1534.989881
 41
0.011568
 42
50.0
 43
794.5176169999999
 44
-794.5176169999999
 50
0.0
 51
0.0
 71
     0
 72
   100
 73
     1
 74
     3
 75
     0
 76
     0
 77
     0
 78
     0
281
     0
 65
     1
110
0.0
120
0.0
130
0.0
111
1.0
121
0.0
131
0.0
112
0.0
122
1.0
132
0.0
 79
     0
146
0.0
  0
VPORT
  5
224
330
8
100
AcDbSymbolTableRecord
100
AcDbViewportTableRecord
  2
L6
 70
     0
 10
0.0
 20
0.0
 11
0.333333
 21
0.5
 12
0.0
 22
0.0
 13
0.0
 23
0.0
 14
0.5
 24
0.5
 15
0.5
 25
0.5
 16
-1.0
 26
0.0
 36
0.0
 17
0.0
 27
0.0
 37
0.0
 40
1478.660809
 41
0.012009
 42
50.0
 43
746.5698859999999
 44
-746.5698859999999
 50
0.0
 51
0.0
 71
     0
 72
   100
 73
     1
 74
     3
 75
     0
 76
     0
 77
     0
 78
     0
281
     0
 65
     1
110
0.0
120
0.0
130
0.0
111
1.0
121
0.0
131
0.0
112
0.0
122
1.0
132
0.0
 79
     0
146
0.0
  0
VPORT
  5
225
330
8
100
AcDbSymbolTableRecord
100
AcDbViewportTableRecord
  2
L6
 70
     0
 10
0.333333
 20
0.5
 11
0.666667
 21
1.0
 12
422.065358
 22
213.58927
 13
0.0
 23
0.0
 14
0.5
 24
0.5
 15
0.5
 25
0.5
 16
0.0
 26
0.0
 36
1.0
 17
0.0
 27
0.0
 37
0.0
 40
207.433333
 41
0.085602
 42
50.0
 43
750.949148
 44
-750.949148
 50
0.0
 51
0.0
 71
     0
 72
   100
 73
     1
 74
     3
 75
     0
 76
     0
 77
     0
 78
     0
281
     0
 65
     1
110
0.0
120
0.0
130
0.0
111
1.0
121
0.0
131
0.0
112
0.0
122
1.0
132
0.0
 79
     0
146
0.0
  0
VPORT
  5
226
330
8
100
AcDbSymbolTableRecord
100
AcDbViewportTableRecord
  2
L6
 70
     0
 10
0.333333
 20
0.0
 11
0.666667
 21
0.5
 12
0.0
 22
0.0
 13
0.0
 23
0.0
 14
0.5
 24
0.5
 15
0.5
 25
0.5
 16
0.0
 26
-1.0
 36
0.0
 17
0.0
 27
0.0
 37
0.0
 40
1478.660809
 41
0.012009
 42
50.0
 43
765.39502
 44
-765.39502
 50
0.0
 51
0.0
 71
     0
 72
   100
 73
     1
 74
     3
 75
     0
 76
     0
 77
     0
 78
     0
281
     0
 65
     1
110
0.0
120
0.0
130
0.0
111
1.0
121
0.0
131
0.0
112
0.0
122
1.0
132
0.0
 79
     0
146
0.0
  0
VPORT
  5
227
330
8
100
AcDbSymbolTableRecord
100
AcDbViewportTableRecord
  2
L6
 70
     0
 10
0.666667
 20
0.5
 11
1.0
 21
1.0
 12
0.0
 22
0.0
 13
0.0
 23
0.0
 14
0.5
 24
0.5
 15
0.5
 25
0.5
 16
0.5773502691896259
 26
-0.5773502691896259
 36
0.5773502691896259
 17
0.0
 27
0.0
 37
0.0
 40
1453.705292
 41
0.012215
 42
50.0
 43
757.5245879999999
 44
-757.5245879999999
 50
0.0
 51
0.0
 71
     0
 72
   100
 73
     1
 74
     3
 75
     0
 76
     0
 77
     0
 78
     0
281
     0
 65
     1
110
0.0
120
0.0
130
0.0
111
1.0
121
0.0
131
0.0
112
0.0
122
1.0
132
0.0
 79
     0
146
0.0
  0
VPORT
  5
228
330
8
100
AcDbSymbolTableRecord
100
AcDbViewportTableRecord
  2
L6
 70
     0
 10
0.666667
 20
0.0
 11
1.0
 21
0.5
 12
0.0
 22
0.0
 13
0.0
 23
0.0
 14
0.5
 24
0.5
 15
0.5
 25
0.5
 16
1.0
 26
0.0
 36
0.0
 17
0.0
 27
0.0
 37
0.0
 40
1478.660809
 41
0.012009
 42
50.0
 43
746.5698859999999
 44
-746.5698859999999
 50
0.0
 51
0.0
 71
     0
 72
   100
 73
     1
 74
     3
 75
     0
 76
     0
 77
     0
 78
     0
281
     0
 65
     1
110
0.0
120
0.0
130
0.0
111
1.0
121
0.0
131
0.0
112
0.0
122
1.0
132
0.0
 79
     0
146
0.0
  0
ENDTAB
  0
TABLE
  2
LTYPE
  5
5
330
0
100
AcDbSymbolTable
 70
    19
  0
LTYPE
  5
14
330
5
100
AcDbSymbolTableRecord
100
AcDbLinetypeTableRecord
  2
ByBlock
 70
     0
  3

 72
    65
 73
     0
 40
0.0
  0
LTYPE
  5
15
330
5
100
AcDbSymbolTableRecord
100
AcDbLinetypeTableRecord
  2
ByLayer
 70
     0
  3

 72
    65
 73
     0
 40
0.0
  0
LTYPE
  5
16
330
5
100
AcDbSymbolTableRecord
100
AcDbLinetypeTableRecord
  2
Continuous
 70
     0
  3
Solid line
 72
    65
 73
     0
 40
0.0
  0
LTYPE
  5
6E
330
5
100
AcDbSymbolTableRecord
100
AcDbLinetypeTableRecord
  2
CENTER
 70
     0
  3
____ _ ____ _ ____ _ ____
 72
    65
 73
     4
 40
47.4
 49
22.0
 74
     4
 75
     0
340
0
 46
0.0
 50
0.0
 44
0.0
 45
0.0
 49
-8.5
 74
     4
 75
     0
340
0
 46
0.0
 50
0.0
 44
0.0
 45
0.0
 49
8.5
 74
     4
 75
     0
340
0
 46
0.0
 50
0.0
 44
0.0
 45
0.0
 49
-8.5
 74
     4
 75
     0
340
0
 46
0.0
 50
0.0
 44
0.0
 45
0.0
  0
LTYPE
  5
6F
330
5
100
AcDbSymbolTableRecord
100
AcDbLinetypeTableRecord
  2
DASHDOT
 70
     0
  3
_._._._._._._._._._._._._._._._.
 72
    65
 73
     4
 40
70.0
 49
31.0
 74
     4
 75
     0
340
0
 46
0.0
 50
0.0
 44
0.0
 45
0.0
 49
-13.0
 74
     4
 75
     0
340
0
 46
0.0
 50
0.0
 44
0.0
 45
0.0
 49
13.0
 74
     4
 75
     0
340
0
 46
0.0
 50
0.0
 44
0.0
 45
0.0
 49
-13.0
 74
     4
 75
     0
340
0
 46
0.0
 50
0.0
 44
0.0
 45
0.0
  0
LTYPE
  5
70
330
5
100
AcDbSymbolTableRecord
100
AcDbLinetypeTableRecord
  2
DASHED
 70
     0
  3
__ __ __ __ __ __ __ __ __
 72
    65
 73
     2
 40
25.72
 49
12.86
 74
     4
 75
     0
340
0
 46
0.0
 50
0.0
 44
0.0
 45
0.0
 49
-12.86
 74
     4
 75
     0
340
0
 46
0.0
 50
0.0
 44
0.0
 45
0.0
  0
LTYPE
  5
71
330
5
100
AcDbSymbolTableRecord
100
AcDbLinetypeTableRecord
  2
DOT
 70
     0
  3
.........................
 72
    65
 73
     2
 40
10.0
 49
0.0
 74
     4
 75
     0
340
0
 46
0.0
 50
0.0
 44
0.0
 45
0.0
 49
-10.0
 74
     4
 75
     0
340
0
 46
0.0
 50
0.0
 44
0.0
 45
0.0
  0
LTYPE
  5
72
330
5
100
AcDbSymbolTableRecord
100
AcDbLinetypeTableRecord
  2
PHANTOM
 70
     0
  3
____ _ _ ____ _ _ _____ _ _ ____
 72
    65
 73
     6
 40
50.5
 49
18.0
 74
     4
 75
     0
340
0
 46
0.0
 50
0.0
 44
0.0
 45
0.0
 49
-6.5
 74
     4
 75
     0
340
0
 46
0.0
 50
0.0
 44
0.0
 45
0.0
 49
6.5
 74
     4
 75
     0
340
0
 46
0.0
 50
0.0
 44
0.0
 45
0.0
 49
-6.5
 74
     4
 75
     0
340
0
 46
0.0
 50
0.0
 44
0.0
 45
0.0
 49
6.5
 74
     4
 75
     0
340
0
 46
0.0
 50
0.0
 44
0.0
 45
0.0
 49
-6.5
 74
     4
 75
     0
340
0
 46
0.0
 50
0.0
 44
0.0
 45
0.0
  0
LTYPE
  5
287
330
5
100
AcDbSymbolTableRecord
100
AcDbLinetypeTableRecord
  2
HIDDEN
 70
     0
  3
Hidden __ __ __ __ __ __ __ __ __ __ __ __ __ _
 72
    65
 73
     2
 40
9.524999999999998
 49
6.349999999999999
 74
     0
 49
-3.174999999999999
 74
     0
  0
LTYPE
  5
288
330
5
100
AcDbSymbolTableRecord
100
AcDbLinetypeTableRecord
  2
PHANTOM2
 70
     0
  3
Phantom (.5x) ___ _ _ ___ _ _ ___ _ _ ___ _ _
 72
    65
 73
     6
 40
31.75
 49
15.875
 74
     0
 49
-3.174999999999999
 74
     0
 49
3.174999999999999
 74
     0
 49
-3.174999999999999
 74
     0
 49
3.174999999999999
 74
     0
 49
-3.174999999999999
 74
     0
  0
LTYPE
  5
2C7
330
5
100
AcDbSymbolTableRecord
100
AcDbLinetypeTableRecord
  2
AM_ISO02W050
 70
     0
  3
__ __ __ __ __ __ __ __ __ __ __ __ __ __ __
 72
    65
 73
     2
 40
7.5
 49
6.0
 74
     0
 49
-1.5
 74
     0
  0
LTYPE
  5
2C8
330
5
100
AcDbSymbolTableRecord
100
AcDbLinetypeTableRecord
  2
AM_ISO08W050
 70
     0
  3
____ . ____ . ____ . ____ . ____ . ____ . ____
 72
    65
 73
     4
 40
18.0
 49
12.0
 74
     0
 49
-1.5
 74
     0
 49
3.0
 74
     0
 49
-1.5
 74
     0
  0
LTYPE
  5
2C9
330
5
100
AcDbSymbolTableRecord
100
AcDbLinetypeTableRecord
  2
AM_ISO09W050
 70
     0
  3
_____ . . _____ . . _____ . . ____ .. ____
 72
    65
 73
     6
 40
22.5
 49
12.0
 74
     0
 49
-1.5
 74
     0
 49
3.0
 74
     0
 49
-1.5
 74
     0
 49
3.0
 74
     0
 49
-1.5
 74
     0
  0
LTYPE
  5
2CA
330
5
100
AcDbSymbolTableRecord
100
AcDbLinetypeTableRecord
  2
Amconstr
 70
     0
  3
_______________________
 72
    65
 73
     2
 40
9999.0
 49
9999.0
 74
     0
 49
0.0
 74
     0
  0
LTYPE
  5
2CB
330
5
100
AcDbSymbolTableRecord
100
AcDbLinetypeTableRecord
  2
AM_ISO08W050x2
 70
     0
  3
__ . __ . __ . __ . __ . __
 72
    65
 73
     4
 40
9.0
 49
6.0
 74
     0
 49
-0.75
 74
     0
 49
1.5
 74
     0
 49
-0.75
 74
     0
  0
LTYPE
  5
2CC
330
5
100
AcDbSymbolTableRecord
100
AcDbLinetypeTableRecord
  2
AM_ISO02W050x2
 70
     0
  3
 _ _ _ _ _ _ _ _ _ _ _ _
 72
    65
 73
     2
 40
3.75
 49
3.0
 74
     0
 49
-0.75
 74
     0
  0
LTYPE
  5
2CF
330
5
100
AcDbSymbolTableRecord
100
AcDbLinetypeTableRecord
  2
Amzigzag
 70
     0
  3
/\/-/\/-/\/-/\/-/\/-/\/
 72
    65
 73
     2
 40
11.0001
 49
0.0001
 74
     4
 75
   136
340
2CE
 46
0.04
 50
0.0
 44
0.0
 45
0.0
 49
-11.0
 74
     0
  0
LTYPE
  5
2DF
330
5
100
AcDbSymbolTableRecord
100
AcDbLinetypeTableRecord
  2
ACISOWELD
 70
     0
  3
_ _ _ _ _
 72
    65
 73
     2
 40
2.0
 49
2.0
 74
     0
 49
-1.0
 74
     0
  0
LTYPE
  5
2E0
330
5
100
AcDbSymbolTableRecord
100
AcDbLinetypeTableRecord
  2
ACISOTGL
 70
     0
  3
_ _ _ _ _
 72
    65
 73
     2
 40
3.0
 49
2.0
 74
     0
 49
-1.0
 74
     0
  0
LTYPE
  5
2E1
330
5
100
AcDbSymbolTableRecord
100
AcDbLinetypeTableRecord
  2
ACISOTGB
 70
     0
  3
__ . . __ . .
 72
    65
 73
     6
 40
9.0
 49
4.0
 74
     0
 49
-1.0
 74
     0
 49
1.0
 74
     0
 49
-1.0
 74
     0
 49
1.0
 74
     0
 49
-1.0
 74
     0
  0
LTYPE
  5
329
330
5
100
AcDbSymbolTableRecord
100
AcDbLinetypeTableRecord
  2
CENTER2
 70
     0
  3
Center (.5x) ___ _ ___ _ ___ _ ___ _ ___ _ ___
 72
    65
 73
     4
 40
1.125
 49
0.75
 74
     0
 49
-0.125
 74
     0
 49
0.125
 74
     0
 49
-0.125
 74
     0
  0
ENDTAB
  0
TABLE
  2
LAYER
  5
2
102
{ACAD_XDICTIONARY
360
3A6
102
}
330
0
100
AcDbSymbolTable
 70
    23
  0
LAYER
  5
10
102
{ACAD_XDICTIONARY
360
389
102
}
330
2
100
AcDbSymbolTableRecord
100
AcDbLayerTableRecord
  2
0
 70
     0
 62
     7
  6
Continuous
370
    -3
390
F
  0
LAYER
  5
76
102
{ACAD_XDICTIONARY
360
38B
102
}
330
2
100
AcDbSymbolTableRecord
100
AcDbLayerTableRecord
  2
96
 70
     0
 62
     7
420
 16777215
  6
Continuous
370
    -3
390
F
  0
LAYER
  5
18B
330
2
100
AcDbSymbolTableRecord
100
AcDbLayerTableRecord
  2
Defpoints
 70
     0
 62
     7
  6
Continuous
290
     0
370
    -3
390
F
  0
LAYER
  5
326
102
{ACAD_XDICTIONARY
360
38D
102
}
330
2
100
AcDbSymbolTableRecord
100
AcDbLayerTableRecord
  2
1
 70
     0
 62
     4
  6
Continuous
370
    -3
390
F
  0
LAYER
  5
327
102
{ACAD_XDICTIONARY
360
38F
102
}
330
2
100
AcDbSymbolTableRecord
100
AcDbLayerTableRecord
  2
2
 70
     0
 62
     7
  6
Continuous
370
    -3
390
F
  0
LAYER
  5
328
102
{ACAD_XDICTIONARY
360
391
102
}
330
2
100
AcDbSymbolTableRecord
100
AcDbLayerTableRecord
  2
4
 70
     0
 62
     2
  6
CENTER2
370
    -3
390
F
  0
LAYER
  5
32A
102
{ACAD_XDICTIONARY
360
393
102
}
330
2
100
AcDbSymbolTableRecord
100
AcDbLayerTableRecord
  2
SK1
 70
     0
 62
     4
  6
Continuous
370
    -3
390
F
  0
LAYER
  5
32B
102
{ACAD_XDICTIONARY
360
395
102
}
330
2
100
AcDbSymbolTableRecord
100
AcDbLayerTableRecord
  2
SK2
 70
     0
 62
     7
  6
Continuous
370
    -3
390
F
  0
LAYER
  5
32D
102
{ACAD_XDICTIONARY
360
397
102
}
330
2
100
AcDbSymbolTableRecord
100
AcDbLayerTableRecord
  2
SK4
 70
     0
 62
     2
  6
CENTER2
370
    -3
390
F
  0
LAYER
  5
32E
102
{ACAD_XDICTIONARY
360
399
102
}
330
2
100
AcDbSymbolTableRecord
100
AcDbLayerTableRecord
  2
SK6
 70
     0
 62
     5
  6
Continuous
370
    -3
390
F
  0
LAYER
  5
32F
102
{ACAD_XDICTIONARY
360
39B
102
}
330
2
100
AcDbSymbolTableRecord
100
AcDbLayerTableRecord
  2
CUT
 70
     0
 62
     1
  6
Continuous
370
    -3
390
F
  0
LAYER
  5
330
102
{ACAD_XDICTIONARY
360
39D
102
}
330
2
100
AcDbSymbolTableRecord
100
AcDbLayerTableRecord
  2
NOCUT
 70
     0
 62
     7
  6
Continuous
370
    -3
390
F
  0
LAYER
  5
331
102
{ACAD_XDICTIONARY
360
39F
102
}
330
2
100
AcDbSymbolTableRecord
100
AcDbLayerTableRecord
  2
80
 70
     0
 62
     6
  6
Continuous
370
    -3
390
F
  0
LAYER
  5
332
102
{ACAD_XDICTIONARY
360
3A1
102
}
330
2
100
AcDbSymbolTableRecord
100
AcDbLayerTableRecord
  2
81
 70
     0
 62
     3
  6
Continuous
370
    -3
390
F
  0
ENDTAB
  0
TABLE
  2
STYLE
  5
3
330
0
100
AcDbSymbolTable
 70
     6
  0
STYLE
  5
11
330
3
100
AcDbSymbolTableRecord
100
AcDbTextStyleTableRecord
  2
Standard
 70
     0
 40
0.0
 41
1.0
 50
0.0
 71
     0
 42
0.2
  3
txt
  4

  0
STYLE
  5
17F
330
3
100
AcDbSymbolTableRecord
100
AcDbTextStyleTableRecord
  2
cesky
 70
     0
 40
0.0
 41
1.0
 50
0.0
 71
     0
 42
0.2
  3
Monospac821 BT
  4

1001
ACAD
1000
Monospac821 BT
1071
        0
  0
STYLE
  5
180
330
3
100
AcDbSymbolTableRecord
100
AcDbTextStyleTableRecord
  2
DWGDirectTextStyle
 70
     0
 40
0.0
 41
1.0
 50
0.0
 71
     0
 42
0.2
  3
Monospac821 BT
  4

  0
STYLE
  5
2CE
330
3
100
AcDbSymbolTableRecord
100
AcDbTextStyleTableRecord
  2

 70
     1
 40
0.0
 41
1.0
 50
0.0
 71
     0
 42
0.2
  3
genltshp.shx
  4

  0
STYLE
  5
2DD
330
3
100
AcDbSymbolTableRecord
100
AcDbTextStyleTableRecord
  2
ACISOTS
 70
     0
 40
0.0
 41
1.0
 50
0.0
 71
     0
 42
0.2
  3
isocp.shx
  4

  0
STYLE
  5
2DE
330
3
100
AcDbSymbolTableRecord
100
AcDbTextStyleTableRecord
  2
ACISOGDT
 70
     0
 40
0.0
 41
1.0
 50
0.0
 71
     0
 42
0.2
  3
amgdt.shx
  4

  0
ENDTAB
  0
TABLE
  2
VIEW
  5
6
330
0
100
AcDbSymbolTable
 70
     1
  0
ENDTAB
  0
TABLE
  2
UCS
  5
7
330
0
100
AcDbSymbolTable
 70
     0
  0
ENDTAB
  0
TABLE
  2
APPID
  5
9
330
0
100
AcDbSymbolTable
 70
    13
  0
APPID
  5
12
330
9
100
AcDbSymbolTableRecord
100
AcDbRegAppTableRecord
  2
ACAD
 70
     0
  0
APPID
  5
187
330
9
100
AcDbSymbolTableRecord
100
AcDbRegAppTableRecord
  2
ACAD_DSTYLE_DIMBREAK
 70
     0
  0
APPID
  5
229
330
9
100
AcDbSymbolTableRecord
100
AcDbRegAppTableRecord
  2
ACAD_DSTYLE_DIM_LINETYPE
 70
     0
  0
APPID
  5
22A
330
9
100
AcDbSymbolTableRecord
100
AcDbRegAppTableRecord
  2
ACAD_DSTYLE_DIM_EXT1_LINETYPE
 70
     0
  0
APPID
  5
22B
330
9
100
AcDbSymbolTableRecord
100
AcDbRegAppTableRecord
  2
ACAD_DSTYLE_DIM_EXT2_LINETYPE
 70
     0
  0
APPID
  5
26B
330
9
100
AcDbSymbolTableRecord
100
AcDbRegAppTableRecord
  2
ACAD_MLEADERVER
 70
     0
  0
APPID
  5
280
330
9
100
AcDbSymbolTableRecord
100
AcDbRegAppTableRecord
  2
MCAD_NO_VIS
 70
     0
  0
APPID
  5
281
330
9
100
AcDbSymbolTableRecord
100
AcDbRegAppTableRecord
  2
ACAD_TEMP_GRAPHIC
 70
     0
  0
APPID
  5
28D
330
9
100
AcDbSymbolTableRecord
100
AcDbRegAppTableRecord
  2
ACATTRIBSERVICES
 70
     0
  0
APPID
  5
2A9
330
9
100
AcDbSymbolTableRecord
100
AcDbRegAppTableRecord
  2
DESIGNERASSEMBLIES
 70
     0
  0
APPID
  5
2C5
330
9
100
AcDbSymbolTableRecord
100
AcDbRegAppTableRecord
  2
ACAD_DSTYLE_DIMJAG
 70
     0
  0
APPID
  5
2F1
330
9
100
AcDbSymbolTableRecord
100
AcDbRegAppTableRecord
  2
ACAD_NAV_VCDISPLAY
 70
     0
  0
APPID
  5
3EE
330
9
100
AcDbSymbolTableRecord
100
AcDbRegAppTableRecord
  2
ACAD_DSTYLE_DIMARC_LENGTH_SYMBOL
 70
     0
  0
ENDTAB
  0
TABLE
  2
DIMSTYLE
  5
A
330
0
100
AcDbSymbolTable
 70
     8
100
AcDbDimStyleTable
 71
     0
  0
DIMSTYLE
105
27
330
A
100
AcDbSymbolTableRecord
100
AcDbDimStyleTableRecord
  2
Standard
 70
     0
340
11
1001
ACAD_DSTYLE_DIMBREAK
1070
   391
1040
6.349999999999999
  0
DIMSTYLE
105
2C4
102
{ACAD_REACTORS
330
2B2
102
}
330
A
100
AcDbSymbolTableRecord
100
AcDbDimStyleTableRecord
  2
AM_ISO
 70
     0
  4
"
 41
3.5
 42
1.0
 43
10.0
 44
1.0
 47
0.1
 48
0.1
 73
     0
 74
     0
 77
     1
 78
     8
 79
     2
140
3.5
141
0.0
143
0.0393701
146
0.71
147
1.5
172
     1
176
   256
177
   256
178
     2
271
     2
272
     3
274
     4
283
     0
284
     8
340
11
371
    -1
372
    -1
1001
ACAD_DSTYLE_DIMJAG
1070
   388
1040
1.5
1001
ACAD_DSTYLE_DIMBREAK
1070
   391
1040
3.75
1001
ACAD_DSTYLE_DIMARC_LENGTH_SYMBOL
1070
   379
1070
     1
1001
ACAD_DSTYLE_DIM_LINETYPE
1070
   380
1005
14
1001
ACAD_DSTYLE_DIM_EXT1_LINETYPE
1070
   381
1005
14
1001
ACAD_DSTYLE_DIM_EXT2_LINETYPE
1070
   382
1005
14
  0
DIMSTYLE
105
2D0
330
A
100
AcDbSymbolTableRecord
100
AcDbDimStyleTableRecord
  2
AM_ISO$3
 70
     0
  4
"
 41
3.5
 42
1.0
 43
10.0
 44
1.0
 47
0.1
 48
0.1
 73
     0
 77
     1
 78
     8
 79
     2
140
3.5
141
0.0
143
0.0393701
146
0.71
147
1.5
176
   256
177
   256
178
     2
271
     2
272
     3
274
     4
283
     0
284
     8
288
     1
289
     0
340
11
371
    -1
372
    -1
1001
ACAD_DSTYLE_DIMBREAK
1070
   391
1040
3.75
1001
ACAD_DSTYLE_DIMJAG
1070
   388
1040
1.5
1001
ACAD_DSTYLE_DIMARC_LENGTH_SYMBOL
1070
   379
1070
     1
1001
ACAD_DSTYLE_DIM_LINETYPE
1070
   380
1005
14
1001
ACAD_DSTYLE_DIM_EXT1_LINETYPE
1070
   381
1005
14
1001
ACAD_DSTYLE_DIM_EXT2_LINETYPE
1070
   382
1005
14
  0
DIMSTYLE
105
2D1
330
A
100
AcDbSymbolTableRecord
100
AcDbDimStyleTableRecord
  2
AM_ISO$4
 70
     0
  4
"
 41
3.5
 42
1.0
 43
10.0
 44
1.0
 47
0.1
 48
0.1
 73
     0
 77
     1
 78
     8
 79
     2
140
3.5
141
0.0
143
0.0393701
146
0.71
147
1.5
176
   256
177
   256
178
     2
271
     2
272
     3
274
     4
283
     0
284
     8
288
     1
289
     0
340
11
371
    -1
372
    -1
1001
ACAD_DSTYLE_DIMBREAK
1070
   391
1040
3.75
1001
ACAD_DSTYLE_DIMJAG
1070
   388
1040
1.5
1001
ACAD_DSTYLE_DIMARC_LENGTH_SYMBOL
1070
   379
1070
     1
1001
ACAD_DSTYLE_DIM_LINETYPE
1070
   380
1005
14
1001
ACAD_DSTYLE_DIM_EXT1_LINETYPE
1070
   381
1005
14
1001
ACAD_DSTYLE_DIM_EXT2_LINETYPE
1070
   382
1005
14
  0
DIMSTYLE
105
2D2
330
A
100
AcDbSymbolTableRecord
100
AcDbDimStyleTableRecord
  2
AM_ISO$6
 70
     0
  4
"
 41
3.5
 42
1.0
 43
10.0
 44
1.0
 47
0.1
 48
0.1
 73
     0
 74
     0
 78
     8
 79
     2
140
3.5
141
0.0
143
0.0393701
146
0.71
147
1.5
172
     1
176
   256
177
   256
178
     2
271
     2
272
     3
274
     4
283
     0
284
     8
340
11
371
    -1
372
    -1
1001
ACAD_DSTYLE_DIMBREAK
1070
   391
1040
3.75
1001
ACAD_DSTYLE_DIMJAG
1070
   388
1040
1.5
1001
ACAD_DSTYLE_DIMARC_LENGTH_SYMBOL
1070
   379
1070
     1
1001
ACAD_DSTYLE_DIM_LINETYPE
1070
   380
1005
14
1001
ACAD_DSTYLE_DIM_EXT1_LINETYPE
1070
   381
1005
14
1001
ACAD_DSTYLE_DIM_EXT2_LINETYPE
1070
   382
1005
14
  0
DIMSTYLE
105
2D3
330
A
100
AcDbSymbolTableRecord
100
AcDbDimStyleTableRecord
  2
AM_ISO$7
 70
     0
  4
"
 41
3.5
 42
1.0
 43
10.0
 44
1.0
 47
0.1
 48
0.1
 73
     0
 74
     0
 77
     1
 78
     8
 79
     2
140
3.5
141
0.0
143
0.0393701
146
0.71
147
1.5
172
     1
176
   256
177
   256
178
     2
271
     2
272
     3
274
     4
283
     0
284
     8
340
11
371
    -1
372
    -1
1001
ACAD_DSTYLE_DIMBREAK
1070
   391
1040
3.75
1001
ACAD_DSTYLE_DIMJAG
1070
   388
1040
1.5
1001
ACAD_DSTYLE_DIMARC_LENGTH_SYMBOL
1070
   379
1070
     1
1001
ACAD_DSTYLE_DIM_LINETYPE
1070
   380
1005
14
1001
ACAD_DSTYLE_DIM_EXT1_LINETYPE
1070
   381
1005
14
1001
ACAD_DSTYLE_DIM_EXT2_LINETYPE
1070
   382
1005
14
  0
DIMSTYLE
105
2D4
330
A
100
AcDbSymbolTableRecord
100
AcDbDimStyleTableRecord
  2
AM_ISO$SF
 70
     0
  4
"
 41
3.5
 42
1.0
 43
10.0
 44
1.0
 47
0.1
 48
0.1
 73
     0
 74
     0
 75
     1
 76
     1
 77
     1
 78
     8
 79
     2
140
3.5
141
0.0
143
0.0393701
146
0.71
147
1.5
172
     1
176
   256
177
   256
178
     2
271
     2
272
     3
274
     4
283
     0
284
     8
340
11
371
    -1
372
    -1
1001
ACAD_DSTYLE_DIMBREAK
1070
   391
1040
3.75
1001
ACAD_DSTYLE_DIMJAG
1070
   388
1040
1.5
1001
ACAD_DSTYLE_DIMARC_LENGTH_SYMBOL
1070
   379
1070
     1
1001
ACAD_DSTYLE_DIM_LINETYPE
1070
   380
1005
14
1001
ACAD_DSTYLE_DIM_EXT1_LINETYPE
1070
   381
1005
14
1001
ACAD_DSTYLE_DIM_EXT2_LINETYPE
1070
   382
1005
14
  0
DIMSTYLE
105
2D9
330
A
100
AcDbSymbolTableRecord
100
AcDbDimStyleTableRecord
  2
AM_ISO$SH
 70
     0
  4
"
 41
3.5
 42
1.0
 43
10.0
 44
1.0
 47
0.1
 48
0.1
 73
     0
 74
     0
 75
     1
 76
     1
 77
     1
 78
     8
 79
     2
140
3.5
141
0.0
143
0.0393701
144
2.0
146
0.71
147
1.5
172
     1
173
     1
176
   256
177
   256
178
     2
271
     2
272
     3
274
     4
283
     0
284
     8
340
11
343
2D5
371
    -1
372
    -1
1001
ACAD_DSTYLE_DIMBREAK
1070
   391
1040
3.75
1001
ACAD_DSTYLE_DIMJAG
1070
   388
1040
1.5
1001
ACAD_DSTYLE_DIMARC_LENGTH_SYMBOL
1070
   379
1070
     1
1001
ACAD_DSTYLE_DIM_LINETYPE
1070
   380
1005
14
1001
ACAD_DSTYLE_DIM_EXT1_LINETYPE
1070
   381
1005
14
1001
ACAD_DSTYLE_DIM_EXT2_LINETYPE
1070
   382
1005
14
  0
ENDTAB
  0
TABLE
  2
BLOCK_RECORD
  5
1
330
0
100
AcDbSymbolTable
 70
    16
  0
BLOCK_RECORD
  5
1F
102
{ACAD_XDICTIONARY
360
2F9
102
}
330
1
100
AcDbSymbolTableRecord
100
AcDbBlockTableRecord
  2
*Model_Space
340
22
  0
BLOCK_RECORD
  5
1B
330
1
100
AcDbSymbolTableRecord
100
AcDbBlockTableRecord
  2
*Paper_Space
340
1E
  0
BLOCK_RECORD
  5
23
330
1
100
AcDbSymbolTableRecord
100
AcDbBlockTableRecord
  2
*Paper_Space0
340
26
  0
BLOCK_RECORD
  5
182
330
1
100
AcDbSymbolTableRecord
100
AcDbBlockTableRecord
  2
ASSORTED_DRAFT1
340
0
  0
BLOCK_RECORD
  5
18C
330
1
100
AcDbSymbolTableRecord
100
AcDbBlockTableRecord
  2
*D2
340
0
  0
BLOCK_RECORD
  5
198
330
1
100
AcDbSymbolTableRecord
100
AcDbBlockTableRecord
  2
_U0
340
0
  0
BLOCK_RECORD
  5
1A4
330
1
100
AcDbSymbolTableRecord
100
AcDbBlockTableRecord
  2
*D4
340
0
  0
BLOCK_RECORD
  5
1B2
330
1
100
AcDbSymbolTableRecord
100
AcDbBlockTableRecord
  2
_U1
340
0
  0
BLOCK_RECORD
  5
1BE
330
1
100
AcDbSymbolTableRecord
100
AcDbBlockTableRecord
  2
*D6
340
0
  0
BLOCK_RECORD
  5
1CA
330
1
100
AcDbSymbolTableRecord
100
AcDbBlockTableRecord
  2
_U2
340
0
  0
BLOCK_RECORD
  5
1D6
330
1
100
AcDbSymbolTableRecord
100
AcDbBlockTableRecord
  2
*D8
340
0
  0
BLOCK_RECORD
  5
1E2
330
1
100
AcDbSymbolTableRecord
100
AcDbBlockTableRecord
  2
_U3
340
0
  0
BLOCK_RECORD
  5
1EE
330
1
100
AcDbSymbolTableRecord
100
AcDbBlockTableRecord
  2
*D10
340
0
  0
BLOCK_RECORD
  5
1F9
330
1
100
AcDbSymbolTableRecord
100
AcDbBlockTableRecord
  2
_U4
340
0
  0
BLOCK_RECORD
  5
204
330
1
100
AcDbSymbolTableRecord
100
AcDbBlockTableRecord
  2
*D12
340
0
  0
BLOCK_RECORD
  5
210
330
1
100
AcDbSymbolTableRecord
100
AcDbBlockTableRecord
  2
_U5
340
0
  0
BLOCK_RECORD
  5
2D5
330
1
100
AcDbSymbolTableRecord
100
AcDbBlockTableRecord
  2
GENAXEH
340
0
  0
ENDTAB
  0
ENDSEC
  0
SECTION
  2
BLOCKS
  0
BLOCK
  5
20
330
1F
100
AcDbEntity
  8
0
100
AcDbBlockBegin
  2
*Model_Space
 70
     0
 10
0.0
 20
0.0
 30
0.0
  3
*Model_Space
  1

  0
ENDBLK
  5
21
330
1F
100
AcDbEntity
  8
0
100
AcDbBlockEnd
  0
BLOCK
  5
1C
330
1B
100
AcDbEntity
 67
     1
  8
0
100
AcDbBlockBegin
  2
*Paper_Space
 70
     0
 10
0.0
 20
0.0
 30
0.0
  3
*Paper_Space
  1

  0
ENDBLK
  5
1D
330
1B
100
AcDbEntity
 67
     1
  8
0
100
AcDbBlockEnd
  0
BLOCK
  5
24
330
23
100
AcDbEntity
 67
     1
  8
0
100
AcDbBlockBegin
  2
*Paper_Space0
 70
     0
 10
0.0
 20
0.0
 30
0.0
  3
*Paper_Space0
  1

  0
ENDBLK
  5
25
330
23
100
AcDbEntity
 67
     1
  8
0
100
AcDbBlockEnd
  0
BLOCK
  5
185
330
182
100
AcDbEntity
  8
0
100
AcDbBlockBegin
  2
ASSORTED_DRAFT1
 70
     0
 10
0.0
 20
0.0
 30
0.0
  3
ASSORTED_DRAFT1
  1

  0
SOLID
  5
183
330
182
100
AcDbEntity
  8
0
 62
   254
370
    13
100
AcDbTrace
 10
476.517572
 20
239.087247
 30
0.0
 11
481.517568
 21
240.19572
 31
0.0
 12
481.5175759999999
 22
237.978773
 32
0.0
 13
476.517572
 23
239.087247
 33
0.0
  0
ENDBLK
  5
186
330
182
100
AcDbEntity
  8
0
100
AcDbBlockEnd
  0
BLOCK
  5
18D
330
18C
100
AcDbEntity
  8
0
100
AcDbBlockBegin
  2
*D2
 70
     1
 10
0.0
 20
0.0
 30
0.0
  3
*D2
  1

  0
LINE
  5
18F
330
18C
100
AcDbEntity
  8
0
 62
    95
370
    -2
100
AcDbLine
 10
362.174849
 20
370.508075
 30
0.0
 11
362.174849
 21
396.271586
 31
0.0
  0
LINE
  5
190
330
18C
100
AcDbEntity
  8
0
 62
    95
370
    -2
100
AcDbLine
 10
321.174849
 20
366.008075
 30
0.0
 11
321.174849
 21
396.271586
 31
0.0
  0
LINE
  5
191
330
18C
100
AcDbEntity
  8
0
 62
    95
370
    -2
100
AcDbLine
 10
358.674849
 20
395.271586
 30
0.0
 11
324.674849
 21
395.271586
 31
0.0
  0
SOLID
  5
192
330
18C
100
AcDbEntity
  8
0
 62
    95
100
AcDbTrace
 10
358.674849
 20
394.688253
 30
0.0
 11
358.674849
 21
395.85492
 31
0.0
 12
362.174849
 22
395.271586
 32
0.0
 13
362.174849
 23
395.271586
 33
0.0
  0
SOLID
  5
193
330
18C
100
AcDbEntity
  8
0
 62
    95
100
AcDbTrace
 10
324.674849
 20
395.85492
 30
0.0
 11
324.674849
 21
394.688253
 31
0.0
 12
321.174849
 22
395.271586
 32
0.0
 13
321.174849
 23
395.271586
 33
0.0
  0
MTEXT
  5
194
330
18C
100
AcDbEntity
  8
0
 62
    95
370
    13
100
AcDbMText
 10
341.674849
 20
400.532086
 30
0.0
 40
3.5
 41
0.0
 71
     5
 72
     1
  1
\A1;41
  7
cesky
 73
     1
 44
1.0
  0
POINT
  5
195
330
18C
100
AcDbEntity
  8
Defpoints
 62
     0
100
AcDbPoint
 10
362.174849
 20
370.508075
 30
0.0
  0
POINT
  5
196
330
18C
100
AcDbEntity
  8
Defpoints
 62
     0
100
AcDbPoint
 10
321.174849
 20
366.008075
 30
0.0
  0
POINT
  5
197
330
18C
100
AcDbEntity
  8
Defpoints
 62
     0
100
AcDbPoint
 10
321.174849
 20
395.271586
 30
0.0
  0
ENDBLK
  5
18E
330
18C
100
AcDbEntity
  8
0
100
AcDbBlockEnd
  0
BLOCK
  5
19F
330
198
100
AcDbEntity
  8
0
100
AcDbBlockBegin
  2
_U0
 70
     0
 10
0.0
 20
0.0
 30
0.0
  3
_U0
  1

  0
ENDBLK
  5
1A0
330
198
100
AcDbEntity
  8
0
100
AcDbBlockEnd
  0
BLOCK
  5
1A5
330
1A4
100
AcDbEntity
  8
0
100
AcDbBlockBegin
  2
*D4
 70
     1
 10
0.0
 20
0.0
 30
0.0
  3
*D4
  1

  0
LINE
  5
1A7
330
1A4
100
AcDbEntity
  8
0
 62
   254
370
    -2
100
AcDbLine
 10
362.174849
 20
373.508075
 30
0.0
 11
362.174849
 21
378.873424
 31
0.0
  0
LINE
  5
1A8
330
1A4
100
AcDbEntity
  8
0
 62
   254
370
    -2
100
AcDbLine
 10
351.199151
 20
371.648843
 30
0.0
 11
351.199151
 21
378.873424
 31
0.0
  0
LINE
  5
1A9
330
1A4
100
AcDbEntity
  8
0
 62
   254
370
    -2
100
AcDbLine
 10
351.199151
 20
377.873424
 30
0.0
 11
322.968151
 21
377.873424
 31
0.0
  0
LINE
  5
1AA
330
1A4
100
AcDbEntity
  8
0
 62
   254
370
    -2
100
AcDbLine
 10
365.674849
 20
377.873424
 30
0.0
 11
369.174849
 21
377.873424
 31
0.0
  0
LINE
  5
1AB
330
1A4
100
AcDbEntity
  8
0
 62
   254
370
    -2
100
AcDbLine
 10
347.699151
 20
377.873424
 30
0.0
 11
344.199151
 21
377.873424
 31
0.0
  0
SOLID
  5
1AC
330
1A4
100
AcDbEntity
  8
0
 62
   254
100
AcDbTrace
 10
365.674849
 20
378.456758
 30
0.0
 11
365.674849
 21
377.290091
 31
0.0
 12
362.174849
 22
377.873424
 32
0.0
 13
362.174849
 23
377.873424
 33
0.0
  0
SOLID
  5
1AD
330
1A4
100
AcDbEntity
  8
0
 62
   254
100
AcDbTrace
 10
347.699151
 20
377.290091
 30
0.0
 11
347.699151
 21
378.456758
 31
0.0
 12
351.199151
 22
377.873424
 32
0.0
 13
351.199151
 23
377.873424
 33
0.0
  0
MTEXT
  5
1AE
330
1A4
100
AcDbEntity
  8
0
 62
   254
370
    13
100
AcDbMText
 10
333.583651
 20
383.1846740000001
 30
0.0
 40
3.5
 41
0.0
 71
     5
 72
     1
  1
\A1;10.98
  7
cesky
 73
     1
 44
1.0
  0
POINT
  5
1AF
330
1A4
100
AcDbEntity
  8
Defpoints
 62
     0
100
AcDbPoint
 10
362.174849
 20
373.508075
 30
0.0
  0
POINT
  5
1B0
330
1A4
100
AcDbEntity
  8
Defpoints
 62
     0
100
AcDbPoint
 10
351.199151
 20
371.648843
 30
0.0
  0
POINT
  5
1B1
330
1A4
100
AcDbEntity
  8
Defpoints
 62
     0
100
AcDbPoint
 10
351.199151
 20
377.873424
 30
0.0
  0
ENDBLK
  5
1A6
330
1A4
100
AcDbEntity
  8
0
100
AcDbBlockEnd
  0
BLOCK
  5
1B9
330
1B2
100
AcDbEntity
  8
0
100
AcDbBlockBegin
  2
_U1
 70
     0
 10
0.0
 20
0.0
 30
0.0
  3
_U1
  1

  0
ENDBLK
  5
1BA
330
1B2
100
AcDbEntity
  8
0
100
AcDbBlockEnd
  0
BLOCK
  5
1BF
330
1BE
100
AcDbEntity
  8
0
100
AcDbBlockBegin
  2
*D6
 70
     1
 10
0.0
 20
0.0
 30
0.0
  3
*D6
  1

  0
LINE
  5
1C1
330
1BE
100
AcDbEntity
  8
0
 62
    95
370
    -2
100
AcDbLine
 10
362.174849
 20
373.508075
 30
0.0
 11
362.174849
 21
402.2244149999999
 31
0.0
  0
LINE
  5
1C2
330
1BE
100
AcDbEntity
  8
0
 62
    95
370
    -2
100
AcDbLine
 10
271.174849
 20
374.508075
 30
0.0
 11
271.174849
 21
402.2244149999999
 31
0.0
  0
LINE
  5
1C3
330
1BE
100
AcDbEntity
  8
0
 62
    95
370
    -2
100
AcDbLine
 10
358.674849
 20
401.2244149999999
 30
0.0
 11
274.674849
 21
401.2244149999999
 31
0.0
  0
SOLID
  5
1C4
330
1BE
100
AcDbEntity
  8
0
 62
    95
100
AcDbTrace
 10
358.674849
 20
400.641082
 30
0.0
 11
358.674849
 21
401.807749
 31
0.0
 12
362.174849
 22
401.2244149999999
 32
0.0
 13
362.174849
 23
401.2244149999999
 33
0.0
  0
SOLID
  5
1C5
330
1BE
100
AcDbEntity
  8
0
 62
    95
100
AcDbTrace
 10
274.674849
 20
401.807749
 30
0.0
 11
274.674849
 21
400.641082
 31
0.0
 12
271.174849
 22
401.2244149999999
 32
0.0
 13
271.174849
 23
401.2244149999999
 33
0.0
  0
MTEXT
  5
1C6
330
1BE
100
AcDbEntity
  8
0
 62
    95
370
    13
100
AcDbMText
 10
316.674849
 20
406.535665
 30
0.0
 40
3.5
 41
0.0
 71
     5
 72
     1
  1
\A1;91
  7
cesky
 73
     1
 44
1.0
  0
POINT
  5
1C7
330
1BE
100
AcDbEntity
  8
Defpoints
 62
     0
100
AcDbPoint
 10
362.174849
 20
373.508075
 30
0.0
  0
POINT
  5
1C8
330
1BE
100
AcDbEntity
  8
Defpoints
 62
     0
100
AcDbPoint
 10
271.174849
 20
374.508075
 30
0.0
  0
POINT
  5
1C9
330
1BE
100
AcDbEntity
  8
Defpoints
 62
     0
100
AcDbPoint
 10
271.174849
 20
401.2244149999999
 30
0.0
  0
ENDBLK
  5
1C0
330
1BE
100
AcDbEntity
  8
0
100
AcDbBlockEnd
  0
BLOCK
  5
1D1
330
1CA
100
AcDbEntity
  8
0
100
AcDbBlockBegin
  2
_U2
 70
     0
 10
0.0
 20
0.0
 30
0.0
  3
_U2
  1

  0
MTEXT
  5
1CB
330
1CA
100
AcDbEntity
  8
96
  6
Continuous
 62
    95
440
 16777216
370
    13
100
AcDbMText
 10
314.8603490000001
 20
401.098582
 30
0.0
 40
3.5
 41
0.0
 71
     7
 72
     5
  1
\fMonospac821 BT|b0|i0;\W0.6598;91
  7
cesky
 73
     2
 44
0.8433729999999998
  0
LINE
  5
1CC
330
1CA
100
AcDbEntity
  8
96
 62
    95
440
 16777216
370
    13
100
AcDbLine
 10
362.174849
 20
373.508075
 30
0.0
 11
362.174849
 21
402.2244149999999
 31
0.0
  0
LINE
  5
1CD
330
1CA
100
AcDbEntity
  8
96
 62
    95
440
 16777216
370
    13
100
AcDbLine
 10
271.174849
 20
374.508075
 30
0.0
 11
271.174849
 21
402.2244149999999
 31
0.0
  0
LINE
  5
1CE
330
1CA
100
AcDbEntity
  8
96
 62
    95
440
 16777216
370
    13
100
AcDbLine
 10
362.174849
 20
401.2244149999999
 30
0.0
 11
271.174849
 21
401.2244149999999
 31
0.0
  0
SOLID
  5
1CF
330
1CA
100
AcDbEntity
  8
96
 62
    95
440
 16777216
370
    13
100
AcDbTrace
 10
362.174849
 20
401.2244149999999
 30
0.0
 11
358.674851
 21
400.6072709999999
 31
0.0
 12
358.674846
 22
401.8415599999999
 32
0.0
 13
358.674846
 23
401.8415599999999
 33
0.0
  0
SOLID
  5
1D0
330
1CA
100
AcDbEntity
  8
96
 62
    95
440
 16777216
370
    13
100
AcDbTrace
 10
271.174849
 20
401.2244149999999
 30
0.0
 11
274.674846
 21
401.8415599999999
 31
0.0
 12
274.674851
 22
400.6072709999999
 32
0.0
 13
274.674851
 23
400.6072709999999
 33
0.0
  0
ENDBLK
  5
1D2
330
1CA
100
AcDbEntity
  8
0
100
AcDbBlockEnd
  0
BLOCK
  5
1D7
330
1D6
100
AcDbEntity
  8
0
100
AcDbBlockBegin
  2
*D8
 70
     1
 10
0.0
 20
0.0
 30
0.0
  3
*D8
  1

  0
LINE
  5
1D9
330
1D6
100
AcDbEntity
  8
0
 62
   254
370
    -2
100
AcDbLine
 10
362.174849
 20
373.508075
 30
0.0
 11
362.174849
 21
387.394977
 31
0.0
  0
LINE
  5
1DA
330
1D6
100
AcDbEntity
  8
0
 62
   254
370
    -2
100
AcDbLine
 10
322.174849
 20
376.008075
 30
0.0
 11
322.174849
 21
387.394977
 31
0.0
  0
LINE
  5
1DB
330
1D6
100
AcDbEntity
  8
0
 62
   254
370
    -2
100
AcDbLine
 10
358.674849
 20
386.394977
 30
0.0
 11
325.674849
 21
386.394977
 31
0.0
  0
SOLID
  5
1DC
330
1D6
100
AcDbEntity
  8
0
 62
   254
100
AcDbTrace
 10
358.674849
 20
385.811644
 30
0.0
 11
358.674849
 21
386.97831
 31
0.0
 12
362.174849
 22
386.394977
 32
0.0
 13
362.174849
 23
386.394977
 33
0.0
  0
SOLID
  5
1DD
330
1D6
100
AcDbEntity
  8
0
 62
   254
100
AcDbTrace
 10
325.674849
 20
386.97831
 30
0.0
 11
325.674849
 21
385.811644
 31
0.0
 12
322.174849
 22
386.394977
 32
0.0
 13
322.174849
 23
386.394977
 33
0.0
  0
MTEXT
  5
1DE
330
1D6
100
AcDbEntity
  8
0
 62
   254
370
    13
100
AcDbMText
 10
342.174849
 20
391.706227
 30
0.0
 40
3.5
 41
0.0
 71
     5
 72
     1
  1
\A1;40
  7
cesky
 73
     1
 44
1.0
  0
POINT
  5
1DF
330
1D6
100
AcDbEntity
  8
Defpoints
 62
     0
100
AcDbPoint
 10
362.174849
 20
373.508075
 30
0.0
  0
POINT
  5
1E0
330
1D6
100
AcDbEntity
  8
Defpoints
 62
     0
100
AcDbPoint
 10
322.174849
 20
376.008075
 30
0.0
  0
POINT
  5
1E1
330
1D6
100
AcDbEntity
  8
Defpoints
 62
     0
100
AcDbPoint
 10
322.174849
 20
386.394977
 30
0.0
  0
ENDBLK
  5
1D8
330
1D6
100
AcDbEntity
  8
0
100
AcDbBlockEnd
  0
BLOCK
  5
1E9
330
1E2
100
AcDbEntity
  8
0
100
AcDbBlockBegin
  2
_U3
 70
     0
 10
0.0
 20
0.0
 30
0.0
  3
_U3
  1

  0
MTEXT
  5
1E3
330
1E2
100
AcDbEntity
  8
96
  6
Continuous
 62
   254
440
 16777216
370
    13
100
AcDbMText
 10
340.360349
 20
386.269144
 30
0.0
 40
3.5
 41
0.0
 71
     7
 72
     5
  1
\fMonospac821 BT|b0|i0;\W0.6598;40
  7
cesky
 73
     2
 44
0.8433729999999998
  0
LINE
  5
1E4
330
1E2
100
AcDbEntity
  8
96
 62
   254
440
 16777216
370
    13
100
AcDbLine
 10
362.174849
 20
373.508075
 30
0.0
 11
362.174849
 21
387.394977
 31
0.0
  0
LINE
  5
1E5
330
1E2
100
AcDbEntity
  8
96
 62
   254
440
 16777216
370
    13
100
AcDbLine
 10
322.174849
 20
376.008075
 30
0.0
 11
322.174849
 21
387.394977
 31
0.0
  0
LINE
  5
1E6
330
1E2
100
AcDbEntity
  8
96
 62
   254
440
 16777216
370
    13
100
AcDbLine
 10
362.174849
 20
386.394977
 30
0.0
 11
322.174849
 21
386.394977
 31
0.0
  0
SOLID
  5
1E7
330
1E2
100
AcDbEntity
  8
96
 62
   254
440
 16777216
370
    13
100
AcDbTrace
 10
362.174849
 20
386.394977
 30
0.0
 11
358.674851
 21
385.777832
 31
0.0
 12
358.674846
 22
387.012121
 32
0.0
 13
358.674846
 23
387.012121
 33
0.0
  0
SOLID
  5
1E8
330
1E2
100
AcDbEntity
  8
96
 62
   254
440
 16777216
370
    13
100
AcDbTrace
 10
322.174849
 20
386.394977
 30
0.0
 11
325.674846
 21
387.012121
 31
0.0
 12
325.674851
 22
385.777832
 32
0.0
 13
325.674851
 23
385.777832
 33
0.0
  0
ENDBLK
  5
1EA
330
1E2
100
AcDbEntity
  8
0
100
AcDbBlockEnd
  0
BLOCK
  5
1EF
330
1EE
100
AcDbEntity
  8
0
100
AcDbBlockBegin
  2
*D10
 70
     1
 10
0.0
 20
0.0
 30
0.0
  3
*D10
  1

  0
LINE
  5
1F1
330
1EE
100
AcDbEntity
  8
0
 62
   254
370
    -2
100
AcDbLine
 10
358.239161
 20
366.008075
 30
0.0
 11
386.576801
 21
366.008075
 31
0.0
  0
LINE
  5
1F2
330
1EE
100
AcDbEntity
  8
0
 62
   254
370
    -2
100
AcDbLine
 10
363.674849
 20
372.008075
 30
0.0
 11
386.576801
 21
372.008075
 31
0.0
  0
LINE
  5
1F3
330
1EE
100
AcDbEntity
  8
0
 62
   254
370
    -2
100
AcDbLine
 10
385.576801
 20
375.508075
 30
0.0
 11
385.576801
 21
379.008075
 31
0.0
  0
SOLID
  5
1F4
330
1EE
100
AcDbEntity
  8
0
 62
   254
100
AcDbTrace
 10
384.993467
 20
375.508075
 30
0.0
 11
386.160134
 21
375.508075
 31
0.0
 12
385.576801
 22
372.008075
 32
0.0
 13
385.576801
 23
372.008075
 33
0.0
  0
MTEXT
  5
1F5
330
1EE
100
AcDbEntity
  8
0
 62
   254
370
    13
100
AcDbMText
 10
380.316301
 20
352.954825
 30
0.0
 40
3.5
 41
0.0
 71
     5
 72
     1
  1
\A1;12
  7
cesky
 11
0.0
 21
1.0
 31
0.0
 73
     1
 44
1.0
  0
POINT
  5
1F6
330
1EE
100
AcDbEntity
  8
Defpoints
 62
     0
100
AcDbPoint
 10
358.239161
 20
366.008075
 30
0.0
  0
POINT
  5
1F7
330
1EE
100
AcDbEntity
  8
Defpoints
 62
     0
100
AcDbPoint
 10
363.674849
 20
372.008075
 30
0.0
  0
POINT
  5
1F8
330
1EE
100
AcDbEntity
  8
Defpoints
 62
     0
100
AcDbPoint
 10
385.576801
 20
372.008075
 30
0.0
  0
ENDBLK
  5
1F0
330
1EE
100
AcDbEntity
  8
0
100
AcDbBlockEnd
  0
BLOCK
  5
1FF
330
1F9
100
AcDbEntity
  8
0
100
AcDbBlockBegin
  2
_U4
 70
     0
 10
0.0
 20
0.0
 30
0.0
  3
_U4
  1

  0
ENDBLK
  5
200
330
1F9
100
AcDbEntity
  8
0
100
AcDbBlockEnd
  0
BLOCK
  5
205
330
204
100
AcDbEntity
  8
0
100
AcDbBlockBegin
  2
*D12
 70
     1
 10
0.0
 20
0.0
 30
0.0
  3
*D12
  1

  0
LINE
  5
207
330
204
100
AcDbEntity
  8
0
 62
    95
370
    -2
100
AcDbLine
 10
283.80187
 20
376.008075
 30
0.0
 11
261.514576
 21
376.008075
 31
0.0
  0
LINE
  5
208
330
204
100
AcDbEntity
  8
0
 62
    95
370
    -2
100
AcDbLine
 10
277.644926
 20
356.008075
 30
0.0
 11
261.514576
 21
356.008075
 31
0.0
  0
LINE
  5
209
330
204
100
AcDbEntity
  8
0
 62
    95
370
    -2
100
AcDbLine
 10
262.514576
 20
372.508075
 30
0.0
 11
262.514576
 21
359.508075
 31
0.0
  0
SOLID
  5
20A
330
204
100
AcDbEntity
  8
0
 62
    95
100
AcDbTrace
 10
263.097909
 20
372.508075
 30
0.0
 11
261.931243
 21
372.508075
 31
0.0
 12
262.514576
 22
376.008075
 32
0.0
 13
262.514576
 23
376.008075
 33
0.0
  0
SOLID
  5
20B
330
204
100
AcDbEntity
  8
0
 62
    95
100
AcDbTrace
 10
261.931243
 20
359.508075
 30
0.0
 11
263.097909
 21
359.508075
 31
0.0
 12
262.514576
 22
356.008075
 32
0.0
 13
262.514576
 23
356.008075
 33
0.0
  0
MTEXT
  5
20C
330
204
100
AcDbEntity
  8
0
 62
    95
370
    13
100
AcDbMText
 10
257.203326
 20
366.008075
 30
0.0
 40
3.5
 41
0.0
 71
     5
 72
     1
  1
\A1;20
  7
cesky
 11
0.0
 21
1.0
 31
0.0
 73
     1
 44
1.0
  0
POINT
  5
20D
330
204
100
AcDbEntity
  8
Defpoints
 62
     0
100
AcDbPoint
 10
283.80187
 20
376.008075
 30
0.0
  0
POINT
  5
20E
330
204
100
AcDbEntity
  8
Defpoints
 62
     0
100
AcDbPoint
 10
277.644926
 20
356.008075
 30
0.0
  0
POINT
  5
20F
330
204
100
AcDbEntity
  8
Defpoints
 62
     0
100
AcDbPoint
 10
262.514576
 20
356.008075
 30
0.0
  0
ENDBLK
  5
206
330
204
100
AcDbEntity
  8
0
100
AcDbBlockEnd
  0
BLOCK
  5
218
330
210
100
AcDbEntity
  8
0
100
AcDbBlockBegin
  2
_U5
 70
     0
 10
0.0
 20
0.0
 30
0.0
  3
_U5
  1

  0
MTEXT
  5
211
330
210
100
AcDbEntity
  8
96
  6
Continuous
 62
    95
440
 16777216
370
    13
100
AcDbMText
 10
262.327159
 20
367.534325
 30
0.0
 40
3.5
 41
0.0
 71
     7
 72
     5
  1
\fMonospac821 BT|b0|i0;\W0.6598;20
  7
cesky
 11
0.0000000000000001
 21
1.0
 31
0.0
 73
     2
 44
0.8433729999999998
  0
MTEXT
  5
212
330
210
100
AcDbEntity
  8
96
  6
Continuous
 62
    95
440
 16777216
370
    13
100
AcDbMText
 10
262.327159
 20
360.796825
 30
0.0
 40
3.5
 41
0.0
 71
     7
 72
     5
  1
\fMonospac821 BT|b0|i0;\W2.1528;\H2.63;%%c\H3.50;
  7
cesky
 11
0.0000000000000001
 21
1.0
 31
0.0
 73
     2
 44
0.8433729999999998
  0
LINE
  5
213
330
210
100
AcDbEntity
  8
96
 62
    95
440
 16777216
370
    13
100
AcDbLine
 10
272.674849
 20
376.008075
 30
0.0
 11
261.514576
 21
376.008075
 31
0.0
  0
LINE
  5
214
330
210
100
AcDbEntity
  8
96
 62
    95
440
 16777216
370
    13
100
AcDbLine
 10
272.674849
 20
356.008075
 30
0.0
 11
261.514576
 21
356.008075
 31
0.0
  0
LINE
  5
215
330
210
100
AcDbEntity
  8
96
 62
    95
440
 16777216
370
    13
100
AcDbLine
 10
262.514576
 20
376.008075
 30
0.0
 11
262.514576
 21
356.008075
 31
0.0
  0
SOLID
  5
216
330
210
100
AcDbEntity
  8
96
 62
    95
440
 16777216
370
    13
100
AcDbTrace
 10
262.514576
 20
376.008075
 30
0.0
 11
263.13172
 21
372.508077
 31
0.0
 12
261.897432
 22
372.508073
 32
0.0
 13
261.897432
 23
372.508073
 33
0.0
  0
SOLID
  5
217
330
210
100
AcDbEntity
  8
96
 62
    95
440
 16777216
370
    13
100
AcDbTrace
 10
262.514576
 20
356.008075
 30
0.0
 11
261.897432
 21
359.508073
 31
0.0
 12
263.13172
 22
359.508077
 32
0.0
 13
263.13172
 23
359.508077
 33
0.0
  0
ENDBLK
  5
219
330
210
100
AcDbEntity
  8
0
100
AcDbBlockEnd
  0
BLOCK
  5
2D7
330
2D5
100
AcDbEntity
  8
0
370
    13
100
AcDbBlockBegin
  2
GENAXEH
 70
     0
 10
0.0
 20
0.0
 30
0.0
  3
GENAXEH
  1

  0
LINE
  5
2D6
330
2D5
100
AcDbEntity
  8
0
100
AcDbLine
 10
-1.0
 20
0.0
 30
0.0
 11
1.0
 21
0.0
 31
0.0
  0
ENDBLK
  5
2D8
330
2D5
100
AcDbEntity
  8
0
370
    13
100
AcDbBlockEnd
  0
ENDSEC
  0
SECTION
  2
ENTITIES
  0
POINT
  5
73
102
{ACAD_REACTORS
330
333
102
}
330
1F
100
AcDbEntity
  8
80
100
AcDbPoint
 10
321.174849
 20
366.008075
 30
0.0
  0
POINT
  5
75
330
1F
100
AcDbEntity
  8
SK6
 60
     1
100
AcDbPoint
 10
322.174849
 20
366.008075
 30
0.0
  0
POINT
  5
77
330
1F
100
AcDbEntity
  8
SK6
 60
     1
100
AcDbPoint
 10
358.239161
 20
366.008075
 30
0.0
  0
POINT
  5
78
330
1F
100
AcDbEntity
  8
SK6
 60
     1
100
AcDbPoint
 10
271.174849
 20
366.008075
 30
0.0
  0
POINT
  5
79
330
1F
100
AcDbEntity
  8
SK6
 60
     1
100
AcDbPoint
 10
322.174849
 20
366.008075
 30
0.0
  0
LINE
  5
7A
330
1F
100
AcDbEntity
  8
1
100
AcDbLine
 10
322.174849
 20
356.508075
 30
0.0
 11
329.174849
 21
356.508075
 31
0.0
  0
LINE
  5
7C
330
1F
100
AcDbEntity
  8
1
100
AcDbLine
 10
329.174849
 20
375.508075
 30
0.0
 11
322.174849
 21
375.508075
 31
0.0
  0
LINE
  5
7D
330
1F
100
AcDbEntity
  8
1
100
AcDbLine
 10
329.174849
 20
375.508075
 30
0.0
 11
329.174849
 21
356.508075
 31
0.0
  0
LINE
  5
7E
330
1F
100
AcDbEntity
  8
1
100
AcDbLine
 10
342.174849
 20
371.408075
 30
0.0
 11
342.174849
 21
360.608075
 31
0.0
  0
LINE
  5
7F
330
1F
100
AcDbEntity
  8
1
100
AcDbLine
 10
342.174849
 20
371.408075
 30
0.0
 11
329.174849
 21
375.508075
 31
0.0
  0
LINE
  5
80
330
1F
100
AcDbEntity
  8
1
100
AcDbLine
 10
329.174849
 20
356.508075
 30
0.0
 11
342.174849
 21
360.608075
 31
0.0
  0
LINE
  5
81
330
1F
100
AcDbEntity
  8
SK1
100
AcDbLine
 10
290.162349
 20
372.008075
 30
0.0
 11
290.162349
 21
360.008075
 31
0.0
  0
LINE
  5
82
330
1F
100
AcDbEntity
  8
SK1
100
AcDbLine
 10
271.174849
 20
357.508075
 30
0.0
 11
271.174849
 21
374.508075
 31
0.0
  0
LINE
  5
83
330
1F
100
AcDbEntity
  8
SK1
100
AcDbLine
 10
271.174849
 20
357.508075
 30
0.0
 11
272.674849
 21
356.008075
 31
0.0
  0
LINE
  5
84
330
1F
100
AcDbEntity
  8
SK1
100
AcDbLine
 10
272.674849
 20
376.008075
 30
0.0
 11
271.174849
 21
374.508075
 31
0.0
  0
LINE
  5
85
330
1F
100
AcDbEntity
  8
SK1
100
AcDbLine
 10
290.162349
 20
372.008075
 30
0.0
 11
301.1873490000001
 21
372.008075
 31
0.0
  0
LINE
  5
86
330
1F
100
AcDbEntity
  8
SK1
100
AcDbLine
 10
301.1873490000001
 20
360.008075
 30
0.0
 11
290.162349
 21
360.008075
 31
0.0
  0
LINE
  5
87
330
1F
100
AcDbEntity
  8
SK1
100
AcDbLine
 10
322.174849
 20
376.008075
 30
0.0
 11
322.174849
 21
356.008075
 31
0.0
  0
LINE
  5
88
330
1F
100
AcDbEntity
  8
SK1
100
AcDbLine
 10
272.674849
 20
376.008075
 30
0.0
 11
272.674849
 21
356.008075
 31
0.0
  0
LINE
  5
89
330
1F
100
AcDbEntity
  8
SK1
100
AcDbLine
 10
272.674849
 20
356.008075
 30
0.0
 11
322.174849
 21
356.008075
 31
0.0
  0
LINE
  5
8A
330
1F
100
AcDbEntity
  8
SK1
100
AcDbLine
 10
322.174849
 20
376.008075
 30
0.0
 11
272.674849
 21
376.008075
 31
0.0
  0
LINE
  5
8B
330
1F
100
AcDbEntity
  8
SK1
100
AcDbLine
 10
301.1873490000001
 20
372.008075
 30
0.0
 11
301.1873490000001
 21
360.008075
 31
0.0
  0
LINE
  5
8C
330
1F
100
AcDbEntity
  8
1
100
AcDbLine
 10
350.26962
 20
360.617416
 30
0.0
 11
350.822594
 21
360.384313
 31
0.0
  0
LINE
  5
8E
330
1F
100
AcDbEntity
  8
1
100
AcDbLine
 10
361.781617
 20
364.119291
 30
0.0
 11
361.793905
 21
363.912612
 31
0.0
  0
LINE
  5
8F
330
1F
100
AcDbEntity
  8
1
100
AcDbLine
 10
350.822594
 20
360.384313
 30
0.0
 11
350.612377
 21
360.621316
 31
0.0
  0
LINE
  5
90
330
1F
100
AcDbEntity
  8
1
100
AcDbLine
 10
356.137835
 20
360.144389
 30
0.0
 11
350.822594
 21
360.384313
 31
0.0
  0
LINE
  5
91
330
1F
100
AcDbEntity
  8
1
100
AcDbLine
 10
355.782719
 20
360.481415
 30
0.0
 11
351.153583
 21
360.690369
 31
0.0
  0
LINE
  5
92
330
1F
100
AcDbEntity
  8
1
100
AcDbLine
 10
361.781617
 20
364.119291
 30
0.0
 11
361.536527
 21
364.085894
 31
0.0
  0
LINE
  5
93
330
1F
100
AcDbEntity
  8
1
100
AcDbLine
 10
359.564368
 20
362.424187
 30
0.0
 11
359.564368
 21
362.177193
 31
0.0
  0
LINE
  5
94
330
1F
100
AcDbEntity
  8
1
100
AcDbLine
 10
359.564368
 20
365.75835
 30
0.0
 11
359.564368
 21
365.753127
 31
0.0
  0
LINE
  5
95
330
1F
100
AcDbEntity
  8
1
100
AcDbLine
 10
358.239161
 20
365.91997
 30
0.0
 11
358.239161
 21
361.307618
 31
0.0
  0
LINE
  5
96
330
1F
100
AcDbEntity
  8
1
100
AcDbLine
 10
351.092386
 20
367.850149
 30
0.0
 11
351.092386
 21
360.627924
 31
0.0
  0
LINE
  5
97
330
1F
100
AcDbEntity
  8
1
100
AcDbLine
 10
342.174849
 20
360.608075
 30
0.0
 11
349.683362
 21
360.608075
 31
0.0
  0
LINE
  5
98
330
1F
100
AcDbEntity
  8
1
100
AcDbLine
 10
350.985385
 20
371.408075
 30
0.0
 11
349.587148
 21
371.408075
 31
0.0
  0
LINE
  5
99
330
1F
100
AcDbEntity
  8
1
100
AcDbLine
 10
348.765665
 20
371.408075
 30
0.0
 11
342.174849
 21
371.408075
 31
0.0
  0
LINE
  5
9A
330
1F
100
AcDbEntity
  8
1
100
AcDbLine
 10
351.414849
 20
367.705509
 30
0.0
 11
351.414849
 21
360.957177
 31
0.0
  0
LINE
  5
9B
330
1F
100
AcDbEntity
  8
80
100
AcDbLine
 10
321.174849
 20
366.008075
 30
0.0
 11
322.174849
 21
366.008075
 31
0.0
  0
LINE
  5
9C
330
1F
100
AcDbEntity
  8
80
100
AcDbLine
 10
321.174849
 20
366.008075
 30
0.0
 11
321.174849
 21
365.008075
 31
0.0
  0
LINE
  5
9D
330
1F
100
AcDbEntity
  8
81
100
AcDbLine
 10
360.674849
 20
372.008075
 30
0.0
 11
363.674849
 21
372.008075
 31
0.0
  0
LINE
  5
9E
330
1F
100
AcDbEntity
  8
81
100
AcDbLine
 10
362.174849
 20
370.508075
 30
0.0
 11
362.174849
 21
373.508075
 31
0.0
  0
LINE
  5
9F
330
1F
100
AcDbEntity
  8
1
100
AcDbLine
 10
350.8864299999999
 20
371.234332
 30
0.0
 11
350.864863
 21
371.183073
 31
0.0
  0
LINE
  5
A0
330
1F
100
AcDbEntity
  8
1
100
AcDbLine
 10
350.835761
 20
371.0318410000001
 30
0.0
 11
350.864863
 21
371.183073
 31
0.0
  0
LINE
  5
A1
330
1F
100
AcDbEntity
  8
1
100
AcDbLine
 10
351.24946
 20
369.781976
 30
0.0
 11
351.30607
 21
369.664492
 31
0.0
  0
LINE
  5
A2
330
1F
100
AcDbEntity
  8
1
100
AcDbLine
 10
351.199151
 20
371.648843
 30
0.0
 11
350.8864299999999
 21
371.234332
 31
0.0
  0
LINE
  5
A3
330
1F
100
AcDbEntity
  8
1
100
AcDbLine
 10
350.8864299999999
 20
371.234332
 30
0.0
 11
350.842453
 21
371.03215
 31
0.0
  0
LINE
  5
A4
330
1F
100
AcDbEntity
  8
1
100
AcDbLine
 10
355.848363
 20
366.411866
 30
0.0
 11
361.135126
 21
365.804522
 31
0.0
  0
LINE
  5
A5
330
1F
100
AcDbEntity
  8
1
100
AcDbLine
 10
362.17461
 20
366.058813
 30
0.0
 11
361.135126
 21
365.804522
 31
0.0
  0
LINE
  5
A6
330
1F
100
AcDbEntity
  8
1
100
AcDbLine
 10
356.137843
 20
371.87177
 30
0.0
 11
351.199151
 21
371.648843
 31
0.0
  0
LINE
  5
A7
330
1F
100
AcDbEntity
  8
1
100
AcDbLine
 10
352.20846
 20
371.09381
 30
0.0
 11
353.325423
 21
371.144228
 31
0.0
  0
LINE
  5
A8
330
1F
100
AcDbEntity
  8
1
100
AcDbLine
 10
358.738242
 20
366.683704
 30
0.0
 11
360.812582
 21
366.445404
 31
0.0
  0
LINE
  5
A9
330
1F
100
AcDbEntity
  8
1
100
AcDbLine
 10
361.474849
 20
364.976248
 30
0.0
 11
361.474849
 21
364.848452
 31
0.0
  0
LINE
  5
AA
330
1F
100
AcDbEntity
  8
1
100
AcDbLine
 10
356.943034
 20
369.664573
 30
0.0
 11
357.12782
 21
369.664573
 31
0.0
  0
LINE
  5
AC
330
1F
100
AcDbEntity
  8
1
100
AcDbLine
 10
356.008321
 20
367.425625
 30
0.0
 11
356.203799
 21
367.425625
 31
0.0
  0
LINE
  5
AD
330
1F
100
AcDbEntity
  8
1
100
AcDbLine
 10
356.203799
 20
370.875625
 30
0.0
 11
356.008321
 21
370.875625
 31
0.0
  0
LINE
  5
AE
330
1F
100
AcDbEntity
  8
1
100
AcDbLine
 10
356.613099
 20
368.279418
 30
0.0
 11
356.423804
 21
368.279418
 31
0.0
  0
LINE
  5
AF
330
1F
100
AcDbEntity
  8
1
100
AcDbLine
 10
355.717527
 20
370.021832
 30
0.0
 11
355.907123
 21
370.021832
 31
0.0
  0
LINE
  5
B0
330
1F
100
AcDbEntity
  8
1
100
AcDbLine
 10
355.392402
 20
368.636677
 30
0.0
 11
355.233621
 21
368.636677
 31
0.0
  0
LINE
  5
B1
330
1F
100
AcDbEntity
  8
1
100
AcDbLine
 10
361.474849
 20
365.835218
 30
0.0
 11
361.474849
 21
365.88763
 31
0.0
  0
LINE
  5
B2
330
1F
100
AcDbEntity
  8
1
100
AcDbLine
 10
352.9916350000001
 20
367.569989
 30
0.0
 11
352.929473
 21
367.569989
 31
0.0
  0
LINE
  5
B3
330
1F
100
AcDbEntity
  8
1
100
AcDbLine
 10
351.014048
 20
371.40569
 30
0.0
 11
351.014324
 21
371.4038240000001
 31
0.0
  0
LINE
  5
B4
330
1F
100
AcDbEntity
  8
1
100
AcDbLine
 10
351.256469
 20
369.767449
 30
0.0
 11
351.335215
 21
369.235296
 31
0.0
  0
LINE
  5
B5
330
1F
100
AcDbEntity
  8
1
100
AcDbLine
 10
361.329001
 20
365.851973
 30
0.0
 11
361.474849
 21
365.835218
 31
0.0
  0
LINE
  5
B6
330
1F
100
AcDbEntity
  8
1
100
AcDbLine
 10
351.116055
 20
369.1679430000001
 30
0.0
 11
350.850539
 21
370.962249
 31
0.0
  0
LINE
  5
B7
330
1F
100
AcDbEntity
  8
1
100
AcDbLine
 10
350.838295
 20
371.044995
 30
0.0
 11
350.815809
 21
371.196948
 31
0.0
  0
LINE
  5
B8
330
1F
100
AcDbEntity
  8
1
100
AcDbLine
 10
361.474849
 20
365.479667
 30
0.0
 11
361.474849
 21
365.835218
 31
0.0
  0
LINE
  5
B9
330
1F
100
AcDbEntity
  8
1
100
AcDbLine
 10
359.63749
 20
365.7477350000001
 30
0.0
 11
361.474849
 21
365.479666
 31
0.0
  0
LINE
  5
BA
330
1F
100
AcDbEntity
  8
1
100
AcDbLine
 10
361.36462
 20
364.480287
 30
0.0
 11
360.739075
 21
364.403613
 31
0.0
  0
LINE
  5
BB
330
1F
100
AcDbEntity
  8
1
100
AcDbLine
 10
361.474849
 20
365.479666
 30
0.0
 11
361.474849
 21
364.976248
 31
0.0
  0
LINE
  5
BC
330
1F
100
AcDbEntity
  8
1
100
AcDbLine
 10
359.825067
 20
362.527159
 30
0.0
 11
360.423013
 21
364.447561
 31
0.0
  0
LINE
  5
BD
330
1F
100
AcDbEntity
  8
1
100
AcDbLine
 10
360.739075
 20
364.403613
 30
0.0
 11
360.423013
 21
364.447561
 31
0.0
  0
LINE
  5
BE
330
1F
100
AcDbEntity
  8
1
100
AcDbLine
 10
358.26533
 20
365.917944
 30
0.0
 11
358.26533
 21
361.26105
 31
0.0
  0
LINE
  5
C5
330
1F
100
AcDbEntity
  8
1
100
AcDbLine
 10
357.311737
 20
369.142152
 30
0.0
 11
357.129969
 21
369.142152
 31
0.0
  0
LINE
  5
C6
330
1F
100
AcDbEntity
  8
1
100
AcDbLine
 10
361.536605
 20
364.578373
 30
0.0
 11
361.781617
 21
364.119291
 31
0.0
  0
LINE
  5
C7
330
1F
100
AcDbEntity
  8
1
100
AcDbLine
 10
361.044837
 20
364.328332
 30
0.0
 11
361.337047
 21
364.476907
 31
0.0
  0
LINE
  5
C8
330
1F
100
AcDbEntity
  8
1
100
AcDbLine
 10
361.381852
 20
364.499688
 30
0.0
 11
361.536605
 21
364.578373
 31
0.0
  0
LINE
  5
C9
330
1F
100
AcDbEntity
  8
1
100
AcDbLine
 10
361.415516
 20
364.60349
 30
0.0
 11
361.536605
 21
364.578373
 31
0.0
  0
LINE
  5
CA
330
1F
100
AcDbEntity
  8
1
100
AcDbLine
 10
361.044837
 20
364.328332
 30
0.0
 11
360.893862
 21
364.30766
 31
0.0
  0
LINE
  5
CB
330
1F
100
AcDbEntity
  8
1
100
AcDbLine
 10
360.325516
 20
362.634223
 30
0.0
 11
360.314002
 21
362.597243
 31
0.0
  0
LINE
  5
CC
330
1F
100
AcDbEntity
  8
1
100
AcDbLine
 10
361.636078
 20
363.924381
 30
0.0
 11
361.536527
 21
364.085894
 31
0.0
  0
LINE
  5
CD
330
1F
100
AcDbEntity
  8
1
100
AcDbLine
 10
361.536527
 20
364.085894
 30
0.0
 11
361.044837
 21
364.328332
 31
0.0
  0
LINE
  5
CE
330
1F
100
AcDbEntity
  8
1
100
AcDbLine
 10
360.405655
 20
364.391916
 30
0.0
 11
360.617137
 21
364.348049
 31
0.0
  0
LINE
  5
CF
330
1F
100
AcDbEntity
  8
1
100
AcDbLine
 10
360.774516
 20
364.07626
 30
0.0
 11
360.325516
 21
362.634223
 31
0.0
  0
LINE
  5
D0
330
1F
100
AcDbEntity
  8
1
100
AcDbLine
 10
351.386453
 20
360.9281450000001
 30
0.0
 11
355.75024
 21
360.731168
 31
0.0
  0
LINE
  5
D1
330
1F
100
AcDbEntity
  8
1
100
AcDbLine
 10
360.061235
 20
362.754163
 30
0.0
 11
360.413926
 21
363.886888
 31
0.0
  0
LINE
  5
D2
330
1F
100
AcDbEntity
  8
NOCUT
100
AcDbLine
 10
271.174849
 20
366.008075
 30
0.0
 11
271.174849
 21
374.508075
 31
0.0
  0
LINE
  5
D4
330
1F
100
AcDbEntity
  8
NOCUT
100
AcDbLine
 10
271.174849
 20
374.508075
 30
0.0
 11
272.674849
 21
376.008075
 31
0.0
  0
LINE
  5
D5
330
1F
100
AcDbEntity
  8
NOCUT
100
AcDbLine
 10
272.674849
 20
376.008075
 30
0.0
 11
322.174849
 21
376.008075
 31
0.0
  0
LINE
  5
D6
330
1F
100
AcDbEntity
  8
NOCUT
100
AcDbLine
 10
322.174849
 20
376.008075
 30
0.0
 11
322.174849
 21
375.508075
 31
0.0
  0
LINE
  5
D7
330
1F
100
AcDbEntity
  8
NOCUT
100
AcDbLine
 10
322.174849
 20
375.508075
 30
0.0
 11
329.174849
 21
375.508075
 31
0.0
  0
LINE
  5
D8
330
1F
100
AcDbEntity
  8
NOCUT
100
AcDbLine
 10
329.174849
 20
375.508075
 30
0.0
 11
342.174849
 21
371.408075
 31
0.0
  0
LINE
  5
D9
330
1F
100
AcDbEntity
  8
NOCUT
100
AcDbLine
 10
342.174849
 20
371.408075
 30
0.0
 11
351.092386
 21
371.408075
 31
0.0
  0
LINE
  5
DA
330
1F
100
AcDbEntity
  8
NOCUT
100
AcDbLine
 10
351.092386
 20
371.408075
 30
0.0
 11
351.414849
 21
371.085613
 31
0.0
  0
LINE
  5
DB
330
1F
100
AcDbEntity
  8
NOCUT
100
AcDbLine
 10
351.414849
 20
371.085613
 30
0.0
 11
355.838164
 21
371.394921
 31
0.0
  0
LINE
  5
DC
330
1F
100
AcDbEntity
  8
NOCUT
100
AcDbLine
 10
359.639142
 20
370.439126
 30
0.0
 11
359.538199
 21
370.264287
 31
0.0
  0
LINE
  5
DD
330
1F
100
AcDbEntity
  8
NOCUT
100
AcDbLine
 10
361.474849
 20
367.229713
 30
0.0
 11
361.474849
 21
366.008075
 31
0.0
  0
LINE
  5
DE
330
1F
100
AcDbEntity
  8
NOCUT
100
AcDbLine
 10
358.340104
 20
371.189126
 30
0.0
 11
358.239161
 21
371.014287
 31
0.0
  0
LINE
  5
DF
330
1F
100
AcDbEntity
  8
NOCUT
100
AcDbLine
 10
271.174849
 20
366.008075
 30
0.0
 11
361.474849
 21
366.008075
 31
0.0
  0
ARC
  5
EF
330
1F
100
AcDbEntity
  8
NOCUT
100
AcDbCircle
 10
356.214849
 20
366.008075
 30
0.0
 40
5.4
100
AcDbArc
 50
67.983556
 51
94.0
  0
ARC
  5
F0
330
1F
100
AcDbEntity
  8
NOCUT
100
AcDbCircle
 10
356.214849
 20
366.008075
 30
0.0
 40
5.599999999999999
100
AcDbArc
 50
52.303331
 51
67.696669
  0
ARC
  5
F1
330
1F
100
AcDbEntity
  8
NOCUT
100
AcDbCircle
 10
356.214849
 20
366.008075
 30
0.0
 40
5.4
100
AcDbArc
 50
13.075176
 51
52.016444
  0
ELLIPSE
  5
F2
330
1F
100
AcDbEntity
  8
1
100
AcDbEllipse
 10
340.969774
 20
366.008075
 30
0.0
 11
-24.65389329452103
 21
-0.0000000989155038
 31
0.0
210
0.0
220
0.0
230
1.0
 40
0.161869
 41
2.122175692521143
 42
2.146988798248389
  0
ELLIPSE
  5
F3
330
1F
100
AcDbEntity
  8
1
100
AcDbEllipse
 10
357.539136
 20
365.013306
 30
0.0
 11
-14.25840712773145
 21
5.496005553825891
 31
0.0
210
0.0
220
0.0
230
1.0
 40
0.022512
 41
4.954959865439276
 42
5.16501073512598
  0
ELLIPSE
  5
F4
330
1F
100
AcDbEntity
  8
SK1
100
AcDbEllipse
 10
298.303208
 20
366.008075
 30
0.0
 11
-10.17607392972097
 21
0.0000000000000119
 31
0.0
210
0.0
220
0.0
230
1.0
 40
0.9826970000000001
 41
5.639684198386294
 42
6.92668641597288
  0
ELLIPSE
  5
F5
330
1F
100
AcDbEntity
  8
SK1
100
AcDbEllipse
 10
293.046489
 20
366.008075
 30
0.0
 11
-10.17607392972163
 21
0.0000000000000119
 31
0.0
210
0.0
220
0.0
230
1.0
 40
0.9826969999999999
 41
2.498091544796522
 42
3.785093762383066
  0
ELLIPSE
  5
F6
330
1F
100
AcDbEntity
  8
1
100
AcDbEllipse
 10
356.115238
 20
369.130251
 30
0.0
 11
0.0
 21
1.891173364918748
 31
0.0
210
0.0
220
0.0
230
1.0
 40
0.9848079999999999
 41
0.2779816342462447
 42
0.4984823792749284
  0
ELLIPSE
  5
F7
330
1F
100
AcDbEntity
  8
1
100
AcDbEllipse
 10
356.115238
 20
369.130251
 30
0.0
 11
0.0
 21
1.891173364918748
 31
0.0
210
0.0
220
0.0
230
1.0
 40
0.9848079999999999
 41
2.643110098158234
 42
2.85389129658722
  0
ELLIPSE
  5
F8
330
1F
100
AcDbEntity
  8
1
100
AcDbEllipse
 10
361.316241
 20
365.354227
 30
0.0
 11
-1.69698764787057
 21
-2.964177460681134
 31
0.0
210
0.0
220
0.0
230
1.0
 40
0.509181
 41
4.866476579482069
 42
6.246036403954331
  0
ELLIPSE
  5
F9
330
1F
100
AcDbEntity
  8
1
100
AcDbEllipse
 10
355.27452
 20
363.117993
 30
0.0
 11
-0.0000000000000001
 21
-1.5
 31
0.0
210
0.0
220
0.0
230
1.0
 40
0.9848079999999999
 41
3.213040655957093
 42
5.058738812684683
  0
ELLIPSE
  5
FA
330
1F
100
AcDbEntity
  8
1
100
AcDbEllipse
 10
355.981282
 20
366.008075
 30
0.0
 11
-0.0000000000000003
 21
-5.229801338520814
 31
0.0
210
0.0
220
0.0
230
0.9999999999999998
 40
0.9848079999999999
 41
6.255393653982155
 42
6.736995709152873
  0
ELLIPSE
  5
FB
330
1F
100
AcDbEntity
  8
1
100
AcDbEllipse
 10
356.21915
 20
366.046682
 30
0.0
 11
5.366653417168104
 21
-0.5979310715727885
 31
0.0
210
0.0
220
0.0
230
0.9999999999999998
 40
0.019521
 41
1.187064251994425
 42
1.554017971816606
  0
ELLIPSE
  5
FC
330
1F
100
AcDbEntity
  8
1
100
AcDbEllipse
 10
355.4603370000001
 20
366.008075
 30
0.0
 11
-0.0000000000000002
 21
-3.206318897702399
 31
0.0
210
0.0
220
0.0
230
0.9999999999999998
 40
0.9848079999999999
 41
0.2468424100082805
 42
0.4211868311196795
  0
ELLIPSE
  5
FD
330
1F
100
AcDbEntity
  8
1
100
AcDbEllipse
 10
359.295463
 20
366.008075
 30
0.0
 11
-30.62492191856195
 21
0.0000000000000359
 31
0.0
210
0.0
220
0.0
230
1.0
 40
0.176327
 41
4.992942287926339
 42
5.052933612686375
  0
ELLIPSE
  5
FE
330
1F
100
AcDbEntity
  8
1
100
AcDbEllipse
 10
351.816129
 20
366.008075
 30
0.0
 11
-0.7975772888794506
 21
5.398348757786556
 31
0.0
210
0.0
220
0.0
230
1.0
 40
0.167422
 41
0.0049943328200234
 42
0.2558227103681254
  0
ELLIPSE
  5
FF
330
1F
100
AcDbEntity
  8
1
100
AcDbEllipse
 10
351.809303
 20
366.008075
 30
0.0
 11
-0.8494054974295551
 21
5.398018855944896
 31
0.0
210
0.0
220
0.0
230
1.0
 40
0.172193
 41
6.226371593412972
 42
6.256097719618512
  0
ELLIPSE
  5
100
330
1F
100
AcDbEntity
  8
1
100
AcDbEllipse
 10
352.422652
 20
366.008075
 30
0.0
 11
-2.801014568916746
 21
-5.385840611663831
 31
0.0
210
0.0
220
0.0
230
1.0
 40
0.139519
 41
0.0339010265220383
 42
0.1134471414677342
  0
ELLIPSE
  5
101
330
1F
100
AcDbEntity
  8
1
100
AcDbEllipse
 10
348.468975
 20
366.008075
 30
0.0
 11
-30.6249217163843
 21
0.0000000000000359
 31
0.0
210
0.0
220
0.0
230
1.0
 40
0.176327
 41
1.609328108833906
 42
1.65656406972676
  0
ELLIPSE
  5
102
330
1F
100
AcDbEntity
  8
1
100
AcDbEllipse
 10
354.956883
 20
366.008075
 30
0.0
 11
-13.98442508947047
 21
5.390503648284192
 31
0.0
210
0.0
220
0.0
230
1.0
 40
0.02289
 41
5.001187754392476
 42
5.291202222513447
  0
ELLIPSE
  5
103
330
1F
100
AcDbEntity
  8
1
100
AcDbEllipse
 10
361.47022
 20
366.008075
 30
0.0
 11
-32.78385172446915
 21
0.0000000000000384
 31
0.0
210
0.0
220
0.0
230
1.0
 40
0.161869
 41
1.259054267728202
 42
1.398146275824772
  0
ELLIPSE
  5
104
330
1F
100
AcDbEntity
  8
1
100
AcDbEllipse
 10
352.78239
 20
371.982684
 30
0.0
 11
-0.2861745595748886
 21
3.646028335124268
 31
0.0
210
0.0
220
0.0
230
1.0
 40
0.564498
 41
1.790092493523854
 42
2.173768950965713
  0
ELLIPSE
  5
105
330
1F
100
AcDbEntity
  8
1
100
AcDbEllipse
 10
356.204691
 20
369.130251
 30
0.0
 11
-0.0000000000000001
 21
-1.936242064468146
 31
0.0
210
0.0
220
0.0
230
0.9999999999999998
 40
0.9848079999999999
 41
0.0
 42
6.283185307179585
  0
ELLIPSE
  5
106
330
1F
100
AcDbEntity
  8
1
100
AcDbEllipse
 10
356.498169
 20
372.244114
 30
0.0
 11
-0.0000000000000004
 21
-5.869454207952771
 31
0.0
210
0.0
220
0.0
230
1.0
 40
0.9848079999999999
 41
4.920371918700292
 42
6.170529548366231
  0
ELLIPSE
  5
107
330
1F
100
AcDbEntity
  8
1
100
AcDbEllipse
 10
356.394542
 20
366.008107
 30
0.0
 11
-0.0000000000000004
 21
-5.869454207952762
 31
0.0
210
0.0
220
0.0
230
1.0
 40
0.9848080000000001
 41
1.579435446648342
 42
3.186016527455928
  0
ELLIPSE
  5
108
330
1F
100
AcDbEntity
  8
1
100
AcDbEllipse
 10
353.351664
 20
370.54482
 30
0.0
 11
0.0
 21
-0.6
 31
0.0
210
0.0
220
0.0
230
1.0
 40
0.9848079999999999
 41
1.116567946305975
 42
3.186016527455928
  0
ELLIPSE
  5
109
330
1F
100
AcDbEntity
  8
1
100
AcDbEllipse
 10
356.204691
 20
369.130251
 30
0.0
 11
0.0
 21
2.623948768355921
 31
0.0
210
0.0
220
0.0
230
1.0
 40
0.9848080000000001
 41
1.116567946305974
 42
1.556038720000159
  0
ELLIPSE
  5
10A
330
1F
100
AcDbEntity
  8
1
100
AcDbEllipse
 10
353.030067
 20
369.177827
 30
0.0
 11
0.0
 21
-0.6000000003310512
 31
0.0
210
0.0
220
0.0
230
1.0
 40
0.9848079999999999
 41
5.428782793473382
 42
7.839224027179748
  0
ELLIPSE
  5
10B
330
1F
100
AcDbEntity
  8
1
100
AcDbEllipse
 10
356.498169
 20
372.244114
 30
0.0
 11
-0.0000000000000003
 21
-5.269454207955973
 31
0.0
210
0.0
220
0.0
230
1.0
 40
0.9848080000000001
 41
5.096477854422514
 42
5.428782793473375
  0
ELLIPSE
  5
10C
330
1F
100
AcDbEntity
  8
1
100
AcDbEllipse
 10
352.234701
 20
370.494402
 30
0.0
 11
0.0
 21
-0.6000000000032114
 31
0.0
210
0.0
220
0.0
230
1.0
 40
0.9848080000000001
 41
3.186016527455924
 42
5.096477854422521
  0
ELLIPSE
  5
10D
330
1F
100
AcDbEntity
  8
1
100
AcDbEllipse
 10
358.804667
 20
367.279901
 30
0.0
 11
0.0
 21
0.6000000000000024
 31
0.0
210
0.0
220
0.0
230
1.0
 40
0.9848080000000001
 41
0.9594883136264764
 42
3.028936894776442
  0
ELLIPSE
  5
10E
330
1F
100
AcDbEntity
  8
1
100
AcDbEllipse
 10
356.204691
 20
369.130251
 30
0.0
 11
-0.0000000000000002
 21
-2.623948768355893
 31
0.0
210
0.0
220
0.0
230
1.0
 40
0.9848079999999999
 41
0.9594883136264837
 42
1.713118352736313
  0
ELLIPSE
  5
10F
330
1F
100
AcDbEntity
  8
1
100
AcDbEllipse
 10
359.34756
 20
369.587543
 30
0.0
 11
0.0
 21
0.5999999999999968
 31
0.0
210
0.0
220
0.0
230
1.0
 40
0.9848079999999999
 41
5.585862426229328
 42
7.996303659915891
  0
ELLIPSE
  5
110
330
1F
100
AcDbEntity
  8
1
100
AcDbEllipse
 10
356.394542
 20
366.008107
 30
0.0
 11
0.0
 21
5.269454207952756
 31
0.0
210
0.0
220
0.0
230
1.0
 40
0.9848080000000001
 41
4.935567862924163
 42
5.585862426229331
  0
ELLIPSE
  5
111
330
1F
100
AcDbEntity
  8
1
100
AcDbEllipse
 10
360.879008
 20
367.041601
 30
0.0
 11
0.0
 21
0.6
 31
0.0
210
0.0
220
0.0
230
1.0
 40
0.9848079999999999
 41
3.028936894776442
 42
4.935567862924164
  0
ELLIPSE
  5
112
330
1F
100
AcDbEntity
  8
1
100
AcDbEllipse
 10
356.128649
 20
365.514618
 30
0.0
 11
5.295742835509314
 21
-0.9250845323426201
 31
0.0
210
0.0
220
0.0
230
0.9999999999999998
 40
0.179937
 41
6.16099707016275
 42
6.195916779962496
  0
ELLIPSE
  5
113
330
1F
100
AcDbEntity
  8
1
100
AcDbEllipse
 10
356.307741
 20
366.008075
 30
0.0
 11
0.0
 21
5.373437990537262
 31
0.0
210
0.0
220
0.0
230
0.9999999999999998
 40
0.9848079999999999
 41
4.429852565554936
 42
4.494871234962229
  0
ELLIPSE
  5
114
330
1F
100
AcDbEntity
  8
1
100
AcDbEllipse
 10
354.905427
 20
369.530935
 30
0.0
 11
0.0
 21
-0.5102374061617935
 31
0.0
210
0.0
220
0.0
230
1.0
 40
0.9848080000000001
 41
0.8433899280175797
 42
1.758734747351446
  0
ELLIPSE
  5
115
330
1F
100
AcDbEntity
  8
1
100
AcDbEllipse
 10
355.305036
 20
369.608106
 30
0.0
 11
0.0
 21
-0.0971906295548313
 31
0.0
210
0.0
220
0.0
230
1.0
 40
0.9848080000000001
 41
1.758734747351458
 42
2.610059276680259
  0
ELLIPSE
  5
116
330
1F
100
AcDbEntity
  8
1
100
AcDbEllipse
 10
355.402062
 20
369.775669
 30
0.0
 11
0.0
 21
-0.0971906295548319
 31
0.0
210
0.0
220
0.0
230
1.0
 40
0.9848079999999999
 41
4.376728625342972
 42
5.751651930270052
  0
ELLIPSE
  5
117
330
1F
100
AcDbEntity
  8
1
100
AcDbEllipse
 10
355.786133
 20
369.639614
 30
0.0
 11
0.0
 21
-0.5102374061617939
 31
0.0
210
0.0
220
0.0
230
1.0
 40
0.9848080000000001
 41
3.461383806009076
 42
4.376728625342951
  0
ELLIPSE
  5
118
330
1F
100
AcDbEntity
  8
1
100
AcDbEllipse
 10
355.658257
 20
370.03172
 30
0.0
 11
0.0
 21
-0.0971906295548315
 31
0.0
210
0.0
220
0.0
230
1.0
 40
0.9848079999999999
 41
2.086460501081933
 42
3.46138380600906
  0
ELLIPSE
  5
119
330
1F
100
AcDbEntity
  8
1
100
AcDbEllipse
 10
355.824793
 20
370.127572
 30
0.0
 11
0.0
 21
-0.0971906295548315
 31
0.0
210
0.0
220
0.0
230
1.0
 40
0.9848079999999999
 41
5.228053154671762
 42
6.079377684000476
  0
ELLIPSE
  5
11A
330
1F
100
AcDbEntity
  8
1
100
AcDbEllipse
 10
355.907123
 20
370.5320700000001
 30
0.0
 11
0.0
 21
-0.5102374061617935
 31
0.0
210
0.0
220
0.0
230
1.0
 40
0.9848080000000001
 41
6.07937768400056
 42
6.99472250333444
  0
ELLIPSE
  5
11B
330
1F
100
AcDbEntity
  8
1
100
AcDbEllipse
 10
356.260111
 20
369.150625
 30
0.0
 11
0.0
 21
1.199999999999999
 31
0.0
210
0.0
220
0.0
230
1.0
 40
0.9848079999999999
 41
0.0
 42
6.283185307179585
  0
ELLIPSE
  5
11C
330
1F
100
AcDbEntity
  8
1
100
AcDbEllipse
 10
356.203799
 20
369.150625
 30
0.0
 11
0.0
 21
1.725
 31
0.0
210
0.0
220
0.0
230
1.0
 40
0.9848079999999999
 41
0.0
 42
6.283185307179585
  0
ELLIPSE
  5
11D
330
1F
100
AcDbEntity
  8
1
100
AcDbEllipse
 10
356.172745
 20
370.219245
 30
0.0
 11
0.0
 21
-0.0971906295548313
 31
0.0
210
0.0
220
0.0
230
1.0
 40
0.9848080000000001
 41
0.7115371961548139
 42
1.562861725483666
  0
ELLIPSE
  5
11E
330
1F
100
AcDbEntity
  8
1
100
AcDbEllipse
 10
356.364167
 20
370.217703
 30
0.0
 11
0.0
 21
-0.0971906295548319
 31
0.0
210
0.0
220
0.0
230
1.0
 40
0.9848079999999999
 41
3.329531074146301
 42
4.704454379073458
  0
ELLIPSE
  5
11F
330
1F
100
AcDbEntity
  8
1
100
AcDbEllipse
 10
356.4401660000001
 20
369.811929
 30
0.0
 11
0.0
 21
-0.5102374061617939
 31
0.0
210
0.0
220
0.0
230
1.0
 40
0.9848080000000001
 41
2.414186254812475
 42
3.32953107414635
  0
ELLIPSE
  5
120
330
1F
100
AcDbEntity
  8
1
100
AcDbEllipse
 10
356.710642
 20
370.120434
 30
0.0
 11
0.0
 21
-0.0971906295548315
 31
0.0
210
0.0
220
0.0
230
1.0
 40
0.9848079999999999
 41
1.039262949885364
 42
2.414186254812456
  0
ELLIPSE
  5
121
330
1F
100
AcDbEntity
  8
1
100
AcDbEllipse
 10
356.875659
 20
370.021911
 30
0.0
 11
0.0
 21
-0.0971906295548315
 31
0.0
210
0.0
220
0.0
230
1.0
 40
0.9848079999999999
 41
4.180855603475188
 42
5.032180132803994
  0
ELLIPSE
  5
122
330
1F
100
AcDbEntity
  8
1
100
AcDbEllipse
 10
357.261808
 20
370.15176
 30
0.0
 11
0.0
 21
-0.5102374061617935
 31
0.0
210
0.0
220
0.0
230
1.0
 40
0.9848080000000001
 41
5.032180132803964
 42
5.947524952137834
  0
ELLIPSE
  5
123
330
1F
100
AcDbEntity
  8
1
100
AcDbEllipse
 10
357.12782
 20
369.761764
 30
0.0
 11
0.0
 21
-0.0971906295548313
 31
0.0
210
0.0
220
0.0
230
1.0
 40
0.9848080000000001
 41
5.947524952137831
 42
6.798849481466634
  0
ELLIPSE
  5
124
330
1F
100
AcDbEntity
  8
1
100
AcDbEllipse
 10
357.222216
 20
369.592659
 30
0.0
 11
0.0
 21
-0.0971906295548319
 31
0.0
210
0.0
220
0.0
230
1.0
 40
0.9848079999999999
 41
2.282333522949679
 42
3.657256827876842
  0
ELLIPSE
  5
125
330
1F
100
AcDbEntity
  8
1
100
AcDbEllipse
 10
356.914144
 20
369.32294
 30
0.0
 11
0.0
 21
-0.5102374061617939
 31
0.0
210
0.0
220
0.0
230
1.0
 40
0.9848080000000001
 41
1.366988703615874
 42
2.28233352294975
  0
ELLIPSE
  5
126
330
1F
100
AcDbEntity
  8
1
100
AcDbEllipse
 10
357.312497
 20
369.239339
 30
0.0
 11
0.0
 21
-0.0971906295548315
 31
0.0
210
0.0
220
0.0
230
1.0
 40
0.9848079999999999
 41
6.275250705868457
 42
7.650174010795472
  0
ELLIPSE
  5
127
330
1F
100
AcDbEntity
  8
1
100
AcDbEllipse
 10
357.310978
 20
369.044964
 30
0.0
 11
0.0
 21
-0.0971906295548315
 31
0.0
210
0.0
220
0.0
230
1.0
 40
0.9848079999999999
 41
3.133658052278514
 42
3.984982581607359
  0
ELLIPSE
  5
128
330
1F
100
AcDbEntity
  8
1
100
AcDbEllipse
 10
357.614796
 20
368.770315
 30
0.0
 11
0.0
 21
-0.5102374061617935
 31
0.0
210
0.0
220
0.0
230
1.0
 40
0.9848080000000001
 41
3.984982581607368
 42
4.900327400941235
  0
ELLIPSE
  5
129
330
1F
100
AcDbEntity
  8
1
100
AcDbEllipse
 10
357.215187
 20
368.693144
 30
0.0
 11
0.0
 21
-0.0971906295548313
 31
0.0
210
0.0
220
0.0
230
1.0
 40
0.9848080000000001
 41
4.900327400941235
 42
5.751651930270042
  0
ELLIPSE
  5
12A
330
1F
100
AcDbEntity
  8
1
100
AcDbEllipse
 10
357.118161
 20
368.525581
 30
0.0
 11
0.0
 21
-0.0971906295548319
 31
0.0
210
0.0
220
0.0
230
1.0
 40
0.9848079999999999
 41
1.235135971753127
 42
2.610059276680186
  0
ELLIPSE
  5
12B
330
1F
100
AcDbEntity
  8
1
100
AcDbEllipse
 10
356.73409
 20
368.661636
 30
0.0
 11
0.0
 21
-0.5102374061617939
 31
0.0
210
0.0
220
0.0
230
1.0
 40
0.9848080000000001
 41
0.319791152419298
 42
1.235135971753153
  0
ELLIPSE
  5
12C
330
1F
100
AcDbEntity
  8
1
100
AcDbEllipse
 10
356.861966
 20
368.26953
 30
0.0
 11
0.0
 21
-0.0971906295548315
 31
0.0
210
0.0
220
0.0
230
1.0
 40
0.9848079999999999
 41
5.228053154671799
 42
6.602976459598852
  0
ELLIPSE
  5
12D
330
1F
100
AcDbEntity
  8
1
100
AcDbEllipse
 10
356.69543
 20
368.173678
 30
0.0
 11
0.0
 21
-0.0971906295548315
 31
0.0
210
0.0
220
0.0
230
1.0
 40
0.9848079999999999
 41
2.086460501081986
 42
2.937785030410679
  0
ELLIPSE
  5
12E
330
1F
100
AcDbEntity
  8
1
100
AcDbEllipse
 10
356.613099
 20
367.76918
 30
0.0
 11
0.0
 21
-0.5102374061617935
 31
0.0
210
0.0
220
0.0
230
1.0
 40
0.9848080000000001
 41
2.937785030410767
 42
3.853129849744647
  0
ELLIPSE
  5
12F
330
1F
100
AcDbEntity
  8
1
100
AcDbEllipse
 10
356.347478
 20
368.082005
 30
0.0
 11
0.0
 21
-0.0971906295548313
 31
0.0
210
0.0
220
0.0
230
1.0
 40
0.9848080000000001
 41
3.853129849744651
 42
4.704454379073441
  0
ELLIPSE
  5
130
330
1F
100
AcDbEntity
  8
1
100
AcDbEllipse
 10
356.156056
 20
368.083547
 30
0.0
 11
0.0
 21
-0.0971906295548319
 31
0.0
210
0.0
220
0.0
230
1.0
 40
0.9848079999999999
 41
0.1879384205565083
 42
1.562861725483648
  0
ELLIPSE
  5
131
330
1F
100
AcDbEntity
  8
1
100
AcDbEllipse
 10
356.080057
 20
368.489321
 30
0.0
 11
0.0
 21
-0.5102374061617939
 31
0.0
210
0.0
220
0.0
230
1.0
 40
0.9848080000000001
 41
5.555778908402254
 42
6.471123727736143
  0
ELLIPSE
  5
132
330
1F
100
AcDbEntity
  8
1
100
AcDbEllipse
 10
355.80958
 20
368.180816
 30
0.0
 11
0.0
 21
-0.0971906295548315
 31
0.0
210
0.0
220
0.0
230
1.0
 40
0.9848079999999999
 41
4.180855603475102
 42
5.555778908402249
  0
ELLIPSE
  5
133
330
1F
100
AcDbEntity
  8
1
100
AcDbEllipse
 10
355.644563
 20
368.279339
 30
0.0
 11
0.0
 21
-0.0971906295548315
 31
0.0
210
0.0
220
0.0
230
1.0
 40
0.9848079999999999
 41
1.039262949885364
 42
1.890587479214167
  0
ELLIPSE
  5
134
330
1F
100
AcDbEntity
  8
1
100
AcDbEllipse
 10
355.258415
 20
368.14949
 30
0.0
 11
0.0
 21
-0.5102374061617935
 31
0.0
210
0.0
220
0.0
230
1.0
 40
0.9848080000000001
 41
1.890587479214173
 42
2.805932298548056
  0
ELLIPSE
  5
135
330
1F
100
AcDbEntity
  8
1
100
AcDbEllipse
 10
355.392402
 20
368.539486
 30
0.0
 11
0.0
 21
-0.0971906295548313
 31
0.0
210
0.0
220
0.0
230
1.0
 40
0.9848080000000001
 41
2.80593229854805
 42
3.657256827876833
  0
ELLIPSE
  5
136
330
1F
100
AcDbEntity
  8
1
100
AcDbEllipse
 10
355.298007
 20
368.708591
 30
0.0
 11
0.0
 21
-0.0971906295548319
 31
0.0
210
0.0
220
0.0
230
1.0
 40
0.9848079999999999
 41
5.423926176539486
 42
6.798849481466626
  0
ELLIPSE
  5
137
330
1F
100
AcDbEntity
  8
1
100
AcDbEllipse
 10
355.606079
 20
368.97831
 30
0.0
 11
0.0
 21
-0.5102374061617939
 31
0.0
210
0.0
220
0.0
230
1.0
 40
0.9848080000000001
 41
4.508581357205672
 42
5.423926176539533
  0
ELLIPSE
  5
138
330
1F
100
AcDbEntity
  8
1
100
AcDbEllipse
 10
355.207726
 20
369.061911
 30
0.0
 11
0.0
 21
-0.0971906295548315
 31
0.0
210
0.0
220
0.0
230
1.0
 40
0.9848079999999999
 41
3.133658052278589
 42
4.508581357205667
  0
ELLIPSE
  5
139
330
1F
100
AcDbEntity
  8
1
100
AcDbEllipse
 10
355.209245
 20
369.256286
 30
0.0
 11
0.0
 21
-0.0971906295548315
 31
0.0
210
0.0
220
0.0
230
1.0
 40
0.9848079999999999
 41
6.275250705868382
 42
7.126575235197152
  0
ELLIPSE
  5
13A
330
1F
100
AcDbEntity
  8
1
100
AcDbEllipse
 10
355.993332
 20
372.266647
 30
0.0
 11
0.0
 21
5.599010498110848
 31
0.0
210
0.0
220
0.0
230
1.0
 40
0.9848079999999999
 41
2.565939966590689
 42
2.581023628045497
  0
ELLIPSE
  5
13B
330
1F
100
AcDbEntity
  8
1
100
AcDbEllipse
 10
356.215601
 20
372.266647
 30
0.0
 11
-0.0000000000000004
 21
-5.79030777983773
 31
0.0
210
0.0
220
0.0
230
1.0
 40
0.9848079999999999
 41
5.705941870637161
 42
5.950039203868508
  0
ELLIPSE
  5
13C
330
1F
100
AcDbEntity
  8
1
100
AcDbEllipse
 10
353.121758
 20
369.473968
 30
0.0
 11
0.0
 21
2.059507344598495
 31
0.0
210
0.0
220
0.0
230
1.0
 40
0.9848079999999999
 41
1.719939955780686
 42
3.132710393162743
  0
ELLIPSE
  5
13D
330
1F
100
AcDbEntity
  8
1
100
AcDbEllipse
 10
355.981282
 20
366.008075
 30
0.0
 11
-0.0000000000000003
 21
-5.229801338520814
 31
0.0
210
0.0
220
0.0
230
0.9999999999999998
 40
0.9848079999999999
 41
0.7693912408252035
 42
0.8425090016105302
  0
ELLIPSE
  5
13E
330
1F
100
AcDbEntity
  8
1
100
AcDbEllipse
 10
356.21915
 20
366.046682
 30
0.0
 11
5.366653417168103
 21
-0.5979310715727884
 31
0.0
210
0.0
220
0.0
230
1.0
 40
0.019521
 41
0.8824258544118272
 42
0.899973731098289
  0
ELLIPSE
  5
13F
330
1F
100
AcDbEntity
  8
1
100
AcDbEllipse
 10
360.282958
 20
364.607773
 30
0.0
 11
-0.7074792161045139
 21
-2.05534460517651
 31
0.0
210
0.0
220
0.0
230
1.0
 40
0.492409
 41
1.677502276835429
 42
1.916383609155085
  0
ELLIPSE
  5
140
330
1F
100
AcDbEntity
  8
1
100
AcDbEllipse
 10
360.282958
 20
364.607773
 30
0.0
 11
-0.7074792161045139
 21
-2.05534460517651
 31
0.0
210
0.0
220
0.0
230
1.0
 40
0.492409
 41
4.301709998859573
 42
4.399088101264164
  0
ELLIPSE
  5
141
330
1F
100
AcDbEntity
  8
1
100
AcDbEllipse
 10
360.282958
 20
364.607773
 30
0.0
 11
-0.7074792161045139
 21
-2.05534460517651
 31
0.0
210
0.0
220
0.0
230
1.0
 40
0.492409
 41
6.245855075446638
 42
6.5133848719533
  0
ELLIPSE
  5
142
330
1F
100
AcDbEntity
  8
1
100
AcDbEllipse
 10
355.27452
 20
363.117993
 30
0.0
 11
0.0
 21
0.9964999999999999
 31
0.0
210
0.0
220
0.0
230
1.0
 40
0.9848079999999999
 41
4.490760048961218
 42
8.329599569621215
  0
ELLIPSE
  5
145
330
1F
100
AcDbEntity
  8
1
100
AcDbEllipse
 10
355.290262
 20
362.867214
 30
0.0
 11
0.0
 21
1.25
 31
0.0
210
0.0
220
0.0
230
1.0
 40
0.9848079999999999
 41
3.097167780387182
 42
3.141640574824213
  0
ELLIPSE
  5
146
330
1F
100
AcDbEntity
  8
1
100
AcDbEllipse
 10
355.220802
 20
362.867214
 30
0.0
 11
0.0
 21
0.85
 31
0.0
210
0.0
220
0.0
230
1.0
 40
0.9848079999999999
 41
0.0
 42
6.283185307179585
  0
ELLIPSE
  5
147
330
1F
100
AcDbEntity
  8
1
100
AcDbEllipse
 10
356.394533
 20
366.008052
 30
0.0
 11
-0.0000000000000004
 21
-5.869454207952771
 31
0.0
210
0.0
220
0.0
230
1.0
 40
0.9848079999999999
 41
6.238761433313449
 42
7.488919062979393
  0
ELLIPSE
  5
148
330
1F
100
AcDbEntity
  8
1
100
AcDbEllipse
 10
356.024662
 20
366.008052
 30
0.0
 11
-0.0000000000000003
 21
-5.532095350061496
 31
0.0
210
0.0
220
0.0
230
1.0
 40
0.9848079999999999
 41
0.8992949500660852
 42
0.9064441791261369
  0
ELLIPSE
  5
149
330
1F
100
AcDbEntity
  8
1
100
AcDbEllipse
 10
356.044235
 20
365.477667
 30
0.0
 11
-5.800424768109941
 21
0.895097048455873
 31
0.0
210
0.0
220
0.0
230
0.9999999999999998
 40
0.6151460000000001
 41
2.48789436120378
 42
2.951464230875701
  0
ELLIPSE
  5
14A
330
1F
100
AcDbEntity
  8
1
100
AcDbEllipse
 10
356.024662
 20
366.008052
 30
0.0
 11
-0.0000000000000003
 21
-5.532095350061501
 31
0.0
210
0.0
220
0.0
230
0.9999999999999998
 40
0.9848079999999999
 41
6.238761433313452
 42
7.182480257245669
  0
ELLIPSE
  5
14B
330
1F
100
AcDbEntity
  8
1
100
AcDbEllipse
 10
361.033294
 20
364.361376
 30
0.0
 11
-0.5555435651923642
 21
0.0411716512575715
 31
0.0
210
0.0
220
0.0
230
1.0
 40
0.118188
 41
0.7328968960331234
 42
1.325869297022504
  0
ELLIPSE
  5
14C
330
1F
100
AcDbEntity
  8
1
100
AcDbEllipse
 10
361.268318
 20
364.484803
 30
0.0
 11
-0.4880002311953335
 21
-0.532578817469695
 31
0.0
210
0.0
220
0.0
230
1.0
 40
0.255533
 41
5.272191057247493
 42
5.785783481761147
  0
ELLIPSE
  5
14D
330
1F
100
AcDbEntity
  8
1
100
AcDbEllipse
 10
355.98125
 20
366.008052
 30
0.0
 11
0.0
 21
5.282095350061498
 31
0.0
210
0.0
220
0.0
230
0.9999999999999998
 40
0.9848080000000001
 41
3.097168779723658
 42
4.031885990750788
  0
ELLIPSE
  5
14E
330
1F
100
AcDbEntity
  8
1
100
AcDbEllipse
 10
359.9456009999999
 20
363.790151
 30
0.0
 11
-0.4562986459955029
 21
-0.2762345571593418
 31
0.0
210
0.0
220
0.0
230
1.0
 40
0.560175
 41
2.577388228641826
 42
3.476436644235044
  0
SPLINE
  5
14F
330
1F
100
AcDbEntity
  8
1
100
AcDbSpline
210
0.0
220
0.0
230
1.0
 70
     8
 71
     3
 72
    58
 73
    54
 74
     0
 42
0.000000001
 43
0.0000000001
 40
0.0
 40
0.0
 40
0.0
 40
0.0
 40
0.0625
 40
0.0625
 40
0.125
 40
0.125
 40
0.140625000000004
 40
0.140625000000004
 40
0.1562500000000079
 40
0.1875000000000158
 40
0.1875000000000158
 40
0.2500000000000316
 40
0.2500000000000316
 40
0.2656250000000343
 40
0.2656250000000343
 40
0.2812500000000369
 40
0.3125000000000421
 40
0.3125000000000421
 40
0.3750000000000523
 40
0.3750000000000523
 40
0.3906250000000548
 40
0.3906250000000548
 40
0.4062500000000573
 40
0.4375000000000622
 40
0.4375000000000622
 40
0.5000000000000721
 40
0.5000000000000721
 40
0.515625000000072
 40
0.515625000000072
 40
0.5312500000000719
 40
0.5625000000000683
 40
0.5625000000000683
 40
0.6250000000000608
 40
0.6250000000000608
 40
0.6406250000000583
 40
0.6406250000000583
 40
0.6562500000000559
 40
0.6875000000000508
 40
0.6875000000000508
 40
0.7500000000000407
 40
0.7500000000000407
 40
0.7656250000000382
 40
0.7656250000000382
 40
0.7812500000000357
 40
0.8125000000000305
 40
0.8125000000000305
 40
0.8750000000000193
 40
0.8750000000000193
 40
0.9062500000000142
 40
0.9062500000000142
 40
0.937500000000009
 40
0.937500000000009
 40
1.0
 40
1.0
 40
1.0
 40
1.0
 10
355.8381636429672
 20
364.4379605416125
 30
0.0
 10
355.7662746368103
 20
364.4755945406251
 30
0.0
 10
355.6923771647857
 20
364.5074215449193
 30
0.0
 10
355.5406247620478
 20
364.5595867155321
 30
0.0
 10
355.4627711832396
 20
364.5799289500679
 30
0.0
 10
355.3628403880204
 20
364.597749097077
 30
0.0
 10
355.3427249602837
 20
364.6009275642185
 30
0.0
 10
355.3026056784647
 20
364.6064566401464
 30
0.0
 10
355.2424532846605
 20
364.613534435609
 30
0.0
 10
355.182378346705
 20
364.6170114592164
 30
0.0
 10
355.0623298885005
 20
364.6192023423698
 30
0.0
 10
354.9824313745141
 20
364.6143446967761
 30
0.0
 10
354.8827399111967
 20
364.6000318054982
 30
0.0
 10
354.8627618090633
 20
364.5967447710611
 30
0.0
 10
354.8231213152123
 20
364.5893796889801
 30
0.0
 10
354.7641298103906
 20
364.5771520980539
 30
0.0
 10
354.7065260751147
 20
364.5614471323654
 30
0.0
 10
354.5931548336047
 20
364.5254793658808
 30
0.0
 10
354.5200085880348
 20
364.4954534266644
 30
0.0
 10
354.4317753764874
 20
364.4501750327648
 30
0.0
 10
354.4142571929949
 20
364.4407109554103
 30
0.0
 10
354.3797031290547
 20
364.4210758527139
 30
0.0
 10
354.3287635387898
 20
364.3906632818625
 30
0.0
 10
354.2804532168219
 20
364.3574441590789
 30
0.0
 10
354.187284047537
 20
364.2873899872745
 30
0.0
 10
354.1297528411691
 20
364.2358855749442
 30
0.0
 10
354.0637078002147
 20
364.1656009709224
 30
0.0
 10
354.0507649833041
 20
364.1512131367313
 30
0.0
 10
354.0256290481343
 20
364.1220157869848
 30
0.0
 10
353.9891017232327
 20
364.0776571449078
 30
0.0
 10
353.9560183436413
 20
364.0316815706171
 30
0.0
 10
353.8942910566478
 20
363.9377213899992
 30
0.0
 10
353.859039113178
 20
363.8724124657116
 30
0.0
 10
353.8221813131278
 20
363.7877494499754
 30
0.0
 10
353.8151627806068
 20
363.7706378641314
 30
0.0
 10
353.8019553312384
 20
363.7363987098031
 30
0.0
 10
353.7833475328108
 20
363.6849289291962
 30
0.0
 10
353.7682301429593
 20
363.6331633191913
 30
0.0
 10
353.7424055817135
 20
363.5293194789577
 30
0.0
 10
353.7310516118154
 20
363.4596772521106
 30
0.0
 10
353.7236995870928
 20
363.3723079145782
 30
0.0
 10
353.7225732672937
 20
363.3548051720642
 30
0.0
 10
353.7210066945984
 20
363.3200054592239
 30
0.0
 10
353.7196775842161
 20
363.2680289980044
 30
0.0
 10
353.7212951195311
 20
363.2167131303327
 30
0.0
 10
353.7282171042694
 20
363.1149426696701
 30
0.0
 10
353.7377317877908
 20
363.0482431591558
 30
0.0
 10
353.7587300780141
 20
362.9498566766847
 30
0.0
 10
353.7668766251528
 20
362.9172698650606
 30
0.0
 10
353.7852235437085
 20
362.8530990826517
 30
0.0
 10
353.7954223824756
 20
362.8214941562492
 30
0.0
 10
353.8289386534823
 20
362.7280503077243
 30
0.0
 10
353.8551625350583
 20
362.6675788760871
 30
0.0
 10
353.8850282168331
 20
362.6087932356112
 30
0.0
  0
SPLINE
  5
150
330
1F
100
AcDbEntity
  8
1
100
AcDbSpline
210
0.0
220
0.0
230
1.0
 70
     8
 71
     3
 72
    10
 73
     6
 74
     0
 42
0.000000001
 43
0.0000000001
 40
0.0
 40
0.0
 40
0.0
 40
0.0
 40
0.5
 40
0.5
 40
1.0
 40
1.0
 40
1.0
 40
1.0
 10
354.2343843551421
 20
366.6450299986535
 30
0.0
 10
354.4940779301784
 20
366.5465872266698
 30
0.0
 10
354.7576580981802
 20
366.4609304706524
 30
0.0
 10
355.2923092260517
 20
366.3155081773405
 30
0.0
 10
355.5633789280163
 20
366.2557361398726
 30
0.0
 10
355.8381636429673
 20
366.2092541531379
 30
0.0
  0
SPLINE
  5
151
330
1F
100
AcDbEntity
  8
1
100
AcDbSpline
210
0.0
220
0.0
230
1.0
 70
     8
 71
     3
 72
    10
 73
     6
 74
     0
 42
0.000000001
 43
0.0000000001
 40
0.0
 40
0.0
 40
0.0
 40
0.0
 40
0.5
 40
0.5
 40
1.0
 40
1.0
 40
1.0
 40
1.0
 10
358.2653295483373
 20
361.2610497417957
 30
0.0
 10
358.4845363728596
 20
361.4097921985424
 30
0.0
 10
358.7026310831578
 20
361.5601605939747
 30
0.0
 10
359.1359184624324
 20
361.8651402415084
 30
0.0
 10
359.3511166683247
 20
362.0197433985009
 30
0.0
 10
359.5643676540139
 20
362.1771934399128
 30
0.0
  0
SPLINE
  5
152
330
1F
100
AcDbEntity
  8
1
100
AcDbSpline
210
0.0
220
0.0
230
1.0
 70
     8
 71
     2
 72
    12
 73
     9
 74
     0
 42
0.000000001
 43
0.0000000001
 40
0.0
 40
0.0
 40
0.0
 40
0.1624272609933721
 40
0.1624272609933721
 40
0.5031323847734864
 40
0.5031323847734864
 40
0.8438375085536005
 40
0.8438375085536005
 40
1.0
 40
1.0
 40
1.0
 10
349.0667292682009
 20
371.0979560128254
 30
0.0
 10
349.1999775834316
 20
370.7625141040182
 30
0.0
 10
349.3631997073672
 20
370.4394514411098
 30
0.0
 10
349.7137864480982
 20
369.7455413061967
 30
0.0
 10
350.1890288552462
 20
369.1342272554154
 30
0.0
 10
350.6776629634371
 20
368.5056871850526
 30
0.0
 10
351.2784363204163
 20
367.9885590742375
 30
0.0
 10
351.5560144782116
 20
367.7496279254496
 30
0.0
 10
351.852359294191
 20
367.5387575135077
 30
0.0
  0
SPLINE
  5
153
330
1F
100
AcDbEntity
  8
1
100
AcDbSpline
210
0.0
220
0.0
230
1.0
 70
     8
 71
     3
 72
     8
 73
     4
 74
     0
 42
0.000000001
 43
0.0000000001
 40
0.0
 40
0.0
 40
0.0
 40
0.0
 40
1.0
 40
1.0
 40
1.0
 40
1.0
 10
351.092386153495
 20
360.6279244002726
 30
0.0
 10
351.1999905756778
 20
360.7375571355912
 30
0.0
 10
351.3074854019354
 20
360.8473005438763
 30
0.0
 10
351.4148486011856
 20
360.9571768727189
 30
0.0
  0
SPLINE
  5
154
330
1F
100
AcDbEntity
  8
1
100
AcDbSpline
210
0.0
220
0.0
230
1.0
 70
     8
 71
     3
 72
     8
 73
     4
 74
     0
 42
0.000000001
 43
0.0000000001
 40
0.0
 40
0.0
 40
0.0
 40
0.0
 40
1.0
 40
1.0
 40
1.0
 40
1.0
 10
351.4148486011856
 20
367.70550941408
 30
0.0
 10
351.3073837867478
 20
367.7537157306131
 30
0.0
 10
351.1998949973464
 20
367.8019292673851
 30
0.0
 10
351.092386153495
 20
367.8501488412726
 30
0.0
  0
SPLINE
  5
155
330
1F
100
AcDbEntity
  8
1
100
AcDbSpline
210
0.0
220
0.0
230
1.0
 70
     8
 71
     3
 72
     8
 73
     4
 74
     0
 42
0.000000001
 43
0.0000000001
 40
0.0
 40
0.0
 40
0.0
 40
0.0
 40
1.0
 40
1.0
 40
1.0
 40
1.0
 10
355.8381636429673
 20
366.2092541531379
 30
0.0
 10
355.9983081671454
 20
366.1821644525706
 30
0.0
 10
356.1591960025085
 20
366.1594635717518
 30
0.0
 10
356.320860004924
 20
366.141398000373
 30
0.0
  0
SPLINE
  5
156
330
1F
100
AcDbEntity
  8
1
100
AcDbSpline
210
0.0
220
0.0
230
1.0
 70
     8
 71
     3
 72
    28
 73
    24
 74
     0
 42
0.000000001
 43
0.0000000001
 40
0.0
 40
0.0
 40
0.0
 40
0.0
 40
0.1250000000000054
 40
0.1250000000000054
 40
0.2500000000000108
 40
0.2500000000000108
 40
0.3750000000000162
 40
0.3750000000000162
 40
0.4062500000000162
 40
0.4062500000000162
 40
0.4375000000000164
 40
0.4375000000000164
 40
0.5000000000000165
 40
0.5000000000000165
 40
0.6250000000000221
 40
0.6250000000000221
 40
0.6875000000000213
 40
0.6875000000000213
 40
0.7500000000000204
 40
0.7500000000000204
 40
0.8750000000000101
 40
0.8750000000000101
 40
1.0
 40
1.0
 40
1.0
 40
1.0
 10
356.7513058816385
 20
363.0819744990887
 30
0.0
 10
356.7453852355405
 20
363.1463101898806
 30
0.0
 10
356.7355596564135
 20
363.2104469977447
 30
0.0
 10
356.7081185745601
 20
363.3382577878629
 30
0.0
 10
356.6905039532689
 20
363.4019320043737
 30
0.0
 10
356.6471422154793
 20
363.5287155489697
 30
0.0
 10
356.6213994729502
 20
363.5918255322595
 30
0.0
 10
356.5836532432972
 20
363.6702651845719
 30
0.0
 10
356.5758243150572
 20
363.6859305689603
 30
0.0
 10
356.5595891426214
 20
363.7172131645801
 30
0.0
 10
356.5511913405938
 20
363.7328116082815
 30
0.0
 10
356.5253072697342
 20
363.779181711653
 30
0.0
 10
356.5070748572226
 20
363.8096384918672
 30
0.0
 10
356.4494133422702
 20
363.8996060777134
 30
0.0
 10
356.4070350473291
 20
363.957721606238
 30
0.0
 10
356.3371748399132
 20
364.0418490800592
 30
0.0
 10
356.3128357952472
 20
364.0693822065202
 30
0.0
 10
356.2619376588648
 20
364.1233623310118
 30
0.0
 10
356.2352688523775
 20
364.1499041537924
 30
0.0
 10
356.1529448936727
 20
364.2266458914834
 30
0.0
 10
356.0947985401036
 20
364.2742293461783
 30
0.0
 10
355.9717336192687
 20
364.361912556146
 30
0.0
 10
355.9068205115558
 20
364.4020185713058
 30
0.0
 10
355.8381636429673
 20
364.4379605416125
 30
0.0
  0
SPLINE
  5
157
330
1F
100
AcDbEntity
  8
1
100
AcDbSpline
210
0.0
220
0.0
230
1.0
 70
     8
 71
     3
 72
    22
 73
    18
 74
     0
 42
0.000000001
 43
0.0000000001
 40
0.0
 40
0.0
 40
0.0
 40
0.0
 40
0.1250000000000123
 40
0.1250000000000123
 40
0.2500000000000253
 40
0.2500000000000253
 40
0.3750000000000382
 40
0.3750000000000382
 40
0.4375000000000398
 40
0.4375000000000398
 40
0.5000000000000414
 40
0.5000000000000414
 40
0.750000000000023
 40
0.750000000000023
 40
0.8750000000000113
 40
0.8750000000000113
 40
1.0
 40
1.0
 40
1.0
 40
1.0
 10
355.8381636429673
 20
362.2490113795554
 30
0.0
 10
355.8677466632358
 20
362.2673897111592
 30
0.0
 10
355.8954389539851
 20
362.2872005492509
 30
0.0
 10
355.9474734711149
 20
362.3294075919899
 30
0.0
 10
355.9718133115024
 20
362.351805473783
 30
0.0
 10
356.0173844346194
 20
362.3990432373635
 30
0.0
 10
356.0386146406768
 20
362.4238838460247
 30
0.0
 10
356.0682105598484
 20
362.4629408029676
 30
0.0
 10
356.0777210863815
 20
362.4762933392511
 30
0.0
 10
356.0958441845867
 20
362.5033691056635
 30
0.0
 10
356.1044679725555
 20
362.5171027838758
 30
0.0
 10
356.1454822337387
 20
362.5867210012478
 30
0.0
 10
356.1716329061675
 20
362.6454256927016
 30
0.0
 10
356.2014940154818
 20
362.7378260785054
 30
0.0
 10
356.2098859919192
 20
362.7694466366353
 30
0.0
 10
356.2233416434202
 20
362.8335153120215
 30
0.0
 10
356.2284285345368
 20
362.8660026287633
 30
0.0
 10
356.2318776920398
 20
362.8989435934486
 30
0.0
  0
SPLINE
  5
158
330
1F
100
AcDbEntity
  8
1
100
AcDbSpline
210
0.0
220
0.0
230
1.0
 70
     9
 71
     3
 72
    97
 73
    93
 74
     0
 42
0.000000001
 43
0.0000000001
 40
0.0
 40
0.0
 40
0.0
 40
0.0
 40
0.0312499999999912
 40
0.0312499999999912
 40
0.0468749999999879
 40
0.0468749999999879
 40
0.0624999999999847
 40
0.0624999999999847
 40
0.0937499999999783
 40
0.0937499999999783
 40
0.1093749999999754
 40
0.1093749999999754
 40
0.1249999999999725
 40
0.1406249999999695
 40
0.1406249999999695
 40
0.1562499999999666
 40
0.1562499999999666
 40
0.1874999999999605
 40
0.1874999999999605
 40
0.2031249999999567
 40
0.2031249999999567
 40
0.2187499999999529
 40
0.2343749999999493
 40
0.2343749999999493
 40
0.2499999999999457
 40
0.2499999999999457
 40
0.2812499999999418
 40
0.2812499999999418
 40
0.3124999999999379
 40
0.3124999999999379
 40
0.3437499999999341
 40
0.3437499999999341
 40
0.3593749999999321
 40
0.3593749999999321
 40
0.3749999999999301
 40
0.3749999999999301
 40
0.4062499999999304
 40
0.4062499999999304
 40
0.4218749999999326
 40
0.4218749999999326
 40
0.4374999999999348
 40
0.4374999999999348
 40
0.468749999999939
 40
0.468749999999939
 40
0.4999999999999434
 40
0.4999999999999434
 40
0.5156249999999455
 40
0.5156249999999455
 40
0.5312499999999477
 40
0.5312499999999477
 40
0.5624999999999499
 40
0.5624999999999499
 40
0.5781249999999504
 40
0.5781249999999504
 40
0.5937499999999507
 40
0.5937499999999507
 40
0.6249999999999515
 40
0.6249999999999515
 40
0.640624999999952
 40
0.640624999999952
 40
0.6562499999999525
 40
0.671874999999953
 40
0.671874999999953
 40
0.6874999999999534
 40
0.6874999999999534
 40
0.7187499999999542
 40
0.7187499999999542
 40
0.7343749999999546
 40
0.7343749999999546
 40
0.7499999999999548
 40
0.7499999999999548
 40
0.7812499999999587
 40
0.7812499999999587
 40
0.8124999999999625
 40
0.8124999999999625
 40
0.8281249999999664
 40
0.8281249999999664
 40
0.8437499999999701
 40
0.8437499999999701
 40
0.8749999999999781
 40
0.8749999999999781
 40
0.8906249999999797
 40
0.8906249999999797
 40
0.9062499999999815
 40
0.9062499999999815
 40
0.9374999999999852
 40
0.9374999999999852
 40
0.9531249999999888
 40
0.9531249999999888
 40
0.9687499999999925
 40
0.9687499999999925
 40
1.0
 40
1.0
 40
1.0
 40
1.0
 10
348.4692071080804
 20
360.6294747844385
 30
0.0
 10
348.4883651857049
 20
360.6311044895365
 30
0.0
 10
348.5054769886354
 20
360.632970525923
 30
0.0
 10
348.5280340211028
 20
360.6362082481816
 30
0.0
 10
348.5350626424847
 20
360.6373674529907
 30
0.0
 10
348.5478544697236
 20
360.6398202917404
 30
0.0
 10
348.5536031056359
 20
360.6411089760589
 30
0.0
 10
348.5689365872982
 20
360.6451745486111
 30
0.0
 10
348.5766295176849
 20
360.6481496018694
 30
0.0
 10
348.5841375598338
 20
360.653079739394
 30
0.0
 10
348.5859316958191
 20
360.6547855086556
 30
0.0
 10
348.5880873404436
 20
360.6582781074372
 30
0.0
 10
348.5888313980472
 20
360.661865234004
 30
0.0
 10
348.5867724964418
 20
360.6656415979581
 30
0.0
 10
348.5832789221309
 20
360.6695127084503
 30
0.0
 10
348.5808029592939
 20
360.6714964148915
 30
0.0
 10
348.5714079708802
 20
360.6774378590113
 30
0.0
 10
348.5625090364727
 20
360.6814347255345
 30
0.0
 10
348.5452829248452
 20
360.6874329413761
 30
0.0
 10
348.5388596198952
 20
360.6894392096685
 30
0.0
 10
348.5249942948433
 20
360.6933547511318
 30
0.0
 10
348.5100615332588
 20
360.697193475818
 30
0.0
 10
348.4930652196544
 20
360.7008598757385
 30
0.0
 10
348.4750416806637
 20
360.7044277004981
 30
0.0
 10
348.4654623230907
 20
360.7061707843306
 30
0.0
 10
348.4356512826582
 20
360.7111470943664
 30
0.0
 10
348.4143489852852
 20
360.7141387400843
 30
0.0
 10
348.3690216237517
 20
360.7194057507438
 30
0.0
 10
348.3447939147499
 20
360.7216886233735
 30
0.0
 10
348.2953921756038
 20
360.7252947771553
 30
0.0
 10
348.2700516994062
 20
360.7266448613708
 30
0.0
 10
348.2310831281434
 20
360.7279553143527
 30
0.0
 10
348.2178753622532
 20
360.7282725287396
 30
0.0
 10
348.1916074142429
 20
360.7286511193545
 30
0.0
 10
348.1785072805073
 20
360.7287149374095
 30
0.0
 10
348.1393061604726
 20
360.7285373856205
 30
0.0
 10
348.1133035552574
 20
360.7279291855815
 30
0.0
 10
348.0745040776856
 20
360.7262722950915
 30
0.0
 10
348.0616516656688
 20
360.725595926976
 30
0.0
 10
348.0365334377657
 20
360.7240265019068
 30
0.0
 10
348.0242054490824
 20
360.7231309840059
 30
0.0
 10
347.9879104305393
 20
360.7201259593629
 30
0.0
 10
347.9646068559667
 20
360.7176977410437
 30
0.0
 10
347.9200314817052
 20
360.712029781741
 30
0.0
 10
347.899465688675
 20
360.7088813565368
 30
0.0
 10
347.8711667294754
 20
360.7037676759703
 30
0.0
 10
347.8621616920617
 20
360.7019974534285
 30
0.0
 10
347.8450401962057
 20
360.6983337602231
 30
0.0
 10
347.8368796178402
 20
360.6964282213964
 30
0.0
 10
347.8142547446299
 20
360.6906485363494
 30
0.0
 10
347.8015628668095
 20
360.6867076679521
 30
0.0
 10
347.7861452425957
 20
360.6807301364037
 30
0.0
 10
347.7816136918036
 20
360.6787262793964
 30
0.0
 10
347.7738289740893
 20
360.6747034790025
 30
0.0
 10
347.7706254087825
 20
360.6727075463814
 30
0.0
 10
347.7631489664763
 20
360.6668425430783
 30
0.0
 10
347.7609317230394
 20
360.6630673242387
 30
0.0
 10
347.7618623667044
 20
360.657625228438
 30
0.0
 10
347.7629003544641
 20
360.6558463809713
 30
0.0
 10
347.7663609837126
 20
360.652448191268
 30
0.0
 10
347.7712031158799
 20
360.6491860995207
 30
0.0
 10
347.7787467560309
 20
360.6461806914031
 30
0.0
 10
347.7876517266307
 20
360.6432972973037
 30
0.0
 10
347.7928157505535
 20
360.6419114722681
 30
0.0
 10
347.810015027814
 20
360.6380119579839
 30
0.0
 10
347.8237979764431
 20
360.6357261605786
 30
0.0
 10
347.8478139030555
 20
360.6326806515132
 30
0.0
 10
347.8564310836709
 20
360.6317252969986
 30
0.0
 10
347.8745053617672
 20
360.6299615924332
 30
0.0
 10
347.8839609768149
 20
360.629151635983
 30
0.0
 10
347.9135341019429
 20
360.6269096235032
 30
0.0
 10
347.9348870345756
 20
360.6256618404886
 30
0.0
 10
347.9806485233855
 20
360.6235752183932
 30
0.0
 10
348.0044424022833
 20
360.6227626552736
 30
0.0
 10
348.041425666587
 20
360.621812387222
 30
0.0
 10
348.0539704468631
 20
360.6215410309424
 30
0.0
 10
348.0794996262208
 20
360.6210829918954
 30
0.0
 10
348.0925172584277
 20
360.6208963626932
 30
0.0
 10
348.1314774090455
 20
360.6204666189775
 30
0.0
 10
348.1575614328104
 20
360.620346267888
 30
0.0
 10
348.1968506791456
 20
360.620400352402
 30
0.0
 10
348.2099744752967
 20
360.6204580274134
 30
0.0
 10
348.2362786283089
 20
360.6206570073514
 30
0.0
 10
348.249320850563
 20
360.6207974842853
 30
0.0
 10
348.2878490569112
 20
360.6213419002175
 30
0.0
 10
348.3128620568885
 20
360.6218674963043
 30
0.0
 10
348.3493548062857
 20
360.6229471167107
 30
0.0
 10
348.3613935121448
 20
360.6233579520469
 30
0.0
 10
348.3848874769664
 20
360.6242842379216
 30
0.0
 10
348.3962763241252
 20
360.6247965803973
 30
0.0
 10
348.4293802152136
 20
360.6264965839537
 30
0.0
 10
348.4500490304558
 20
360.6278450793403
 30
0.0
 10
348.4692071080804
 20
360.6294747844383
 30
0.0
  0
SPLINE
  5
159
330
1F
100
AcDbEntity
  8
1
100
AcDbSpline
210
0.0
220
0.0
230
1.0
 70
     8
 71
     3
 72
    55
 73
    51
 74
     0
 42
0.000000001
 43
0.0000000001
 40
0.0
 40
0.0
 40
0.0
 40
0.0
 40
0.028862231694375
 40
0.028862231694375
 40
0.0601014948296151
 40
0.0601014948296151
 40
0.1225800211000969
 40
0.1225800211000969
 40
0.1850585473705785
 40
0.1850585473705785
 40
0.2162978105058218
 40
0.2162978105058218
 40
0.2475370736410651
 40
0.2475370736410651
 40
0.3100155999115577
 40
0.3100155999115577
 40
0.3412548630468074
 40
0.3412548630468074
 40
0.3724941261820572
 40
0.3724941261820572
 40
0.4349726524525645
 40
0.4349726524525645
 40
0.4974511787230715
 40
0.4974511787230715
 40
0.5286904418583295
 40
0.5286904418583295
 40
0.5599297049935874
 40
0.5599297049935874
 40
0.6224082312640947
 40
0.6224082312640947
 40
0.6536474943993485
 40
0.6536474943993485
 40
0.6848867575346023
 40
0.6848867575346023
 40
0.7473652838051096
 40
0.7473652838051096
 40
0.7786045469403633
 40
0.7786045469403633
 40
0.8098438100756167
 40
0.8098438100756167
 40
0.8723223363461244
 40
0.8723223363461244
 40
0.9035615994813777
 40
0.9035615994813777
 40
0.9348008626166317
 40
0.966040125751885
 40
0.966040125751885
 40
0.9972793888871388
 40
0.9972793888871388
 40
1.0
 40
1.0
 40
1.0
 40
1.0
 10
348.7614512209531
 20
371.4080750800242
 30
0.0
 10
348.7614464704711
 20
371.4080753874467
 30
0.0
 10
348.7620474088749
 20
371.4080346934372
 30
0.0
 10
348.7645841619054
 20
371.4078639668821
 30
0.0
 10
348.7666055673755
 20
371.407728235206
 30
0.0
 10
348.7746963382206
 20
371.4071915616252
 30
0.0
 10
348.7827724090834
 20
371.4066610658633
 30
0.0
 10
348.8043575814037
 20
371.4053135689438
 30
0.0
 10
348.8175092082895
 20
371.4045197943483
 30
0.0
 10
348.8404988861458
 20
371.4032304707345
 30
0.0
 10
348.848712169302
 20
371.4027840265422
 30
0.0
 10
348.8662494281252
 20
371.4018705635484
 30
0.0
 10
348.8755220086704
 20
371.4014064687595
 30
0.0
 10
348.9044199592382
 20
371.4000312675447
 30
0.0
 10
348.9252589958541
 20
371.3991296895463
 30
0.0
 10
348.9588265097992
 20
371.3978746218247
 30
0.0
 10
348.9704467612067
 20
371.3974713492878
 30
0.0
 10
348.9940192813078
 20
371.3967235975294
 30
0.0
 10
349.0060162673696
 20
371.3963772167925
 30
0.0
 10
349.0426210577366
 20
371.3954323486699
 30
0.0
 10
349.0678521171646
 20
371.3949278329155
 30
0.0
 10
349.1199195011469
 20
371.3942324371592
 30
0.0
 10
349.1460090208899
 20
371.3940516154797
 30
0.0
 10
349.1852233422357
 20
371.3940341647793
 30
0.0
 10
349.1983082164442
 20
371.3940706366016
 30
0.0
 10
349.2245053135734
 20
371.3942286673969
 30
0.0
 10
349.2376844357476
 20
371.3943512256336
 30
0.0
 10
349.2766362671567
 20
371.3948384289695
 30
0.0
 10
349.3018651313814
 20
371.3953205908204
 30
0.0
 10
349.3386128588571
 20
371.396238246237
 30
0.0
 10
349.3506782972284
 20
371.3965765477291
 30
0.0
 10
349.3744282660167
 20
371.3973107947015
 30
0.0
 10
349.3861275715874
 20
371.3977076901581
 30
0.0
 10
349.4198851142577
 20
371.3989440074037
 30
0.0
 10
349.4408759550959
 20
371.399836623432
 30
0.0
 10
349.4700485506923
 20
371.4012048592623
 30
0.0
 10
349.4793845338357
 20
371.4016658205661
 30
0.0
 10
349.4972371634742
 20
371.4025843889012
 30
0.0
 10
349.5056361418336
 20
371.4030359494787
 30
0.0
 10
349.5290877282156
 20
371.4043382342143
 30
0.0
 10
349.5424984056508
 20
371.4051412758176
 30
0.0
 10
349.5591282070785
 20
371.4061725953688
 30
0.0
 10
349.5641090112896
 20
371.4064889448436
 30
0.0
 10
349.5726460785566
 20
371.4070387245523
 30
0.0
 10
349.5798018775158
 20
371.4075080970422
 30
0.0
 10
349.5842357179749
 20
371.4078051222123
 30
0.0
 10
349.587287344988
 20
371.4080101721016
 30
0.0
 10
349.588122370325
 20
371.4080667269216
 30
0.0
 10
349.5882429393176
 20
371.4080748762341
 30
0.0
 10
349.5882471728607
 20
371.4080751588575
 30
0.0
 10
349.5882459905832
 20
371.4080750727629
 30
0.0
  0
SPLINE
  5
15A
330
1F
100
AcDbEntity
  8
1
100
AcDbSpline
210
0.0
220
0.0
230
1.0
 70
     8
 71
     3
 72
    63
 73
    59
 74
     0
 42
0.000000001
 43
0.0000000001
 40
0.0
 40
0.0
 40
0.0
 40
0.0
 40
0.0625000000000104
 40
0.0625000000000104
 40
0.0937500000000147
 40
0.0937500000000147
 40
0.125000000000019
 40
0.125000000000019
 40
0.1406250000000212
 40
0.1406250000000212
 40
0.1562500000000234
 40
0.1562500000000234
 40
0.1875000000000279
 40
0.1875000000000279
 40
0.1953125000000289
 40
0.1953125000000289
 40
0.2031250000000299
 40
0.2031250000000299
 40
0.2187500000000304
 40
0.2187500000000304
 40
0.2500000000000318
 40
0.2500000000000318
 40
0.2656250000000323
 40
0.2656250000000323
 40
0.2812500000000329
 40
0.2812500000000329
 40
0.3125000000000338
 40
0.3125000000000338
 40
0.3203125000000343
 40
0.3203125000000343
 40
0.3281250000000346
 40
0.3437500000000354
 40
0.3437500000000354
 40
0.3750000000000364
 40
0.3750000000000364
 40
0.4062500000000375
 40
0.4062500000000375
 40
0.4375000000000386
 40
0.4375000000000386
 40
0.4687500000000396
 40
0.4687500000000396
 40
0.4843750000000392
 40
0.4843750000000392
 40
0.500000000000039
 40
0.500000000000039
 40
0.5625000000000336
 40
0.5625000000000336
 40
0.625000000000028
 40
0.625000000000028
 40
0.6562500000000254
 40
0.6562500000000254
 40
0.6875000000000227
 40
0.6875000000000227
 40
0.7500000000000189
 40
0.7500000000000189
 40
0.8750000000000094
 40
0.8750000000000094
 40
1.0
 40
1.0
 40
1.0
 40
1.0
 10
347.4102626236914
 20
369.224815065294
 30
0.0
 10
347.3166871728964
 20
369.2592866171802
 30
0.0
 10
347.2263326725664
 20
369.2974835519371
 30
0.0
 10
347.0968877930765
 20
369.3614974373955
 30
0.0
 10
347.0547609810256
 20
369.3839618117241
 30
0.0
 10
346.9728979674846
 20
369.4314638736097
 30
0.0
 10
346.9331586954126
 20
369.4564986195185
 30
0.0
 10
346.8757273650946
 20
369.4963395203418
 30
0.0
 10
346.8570368159376
 20
369.5099442873811
 30
0.0
 10
346.8208344176704
 20
369.5376919921945
 30
0.0
 10
346.8032912835257
 20
369.5518563415419
 30
0.0
 10
346.7524662597078
 20
369.5952727158808
 30
0.0
 10
346.7209754814689
 20
369.6254421026432
 30
0.0
 10
346.685197270877
 20
369.6649303568527
 30
0.0
 10
346.6782219304155
 20
369.6729173006506
 30
0.0
 10
346.6646514348314
 20
369.68907802158
 30
0.0
 10
346.6580586286021
 20
369.6972508006342
 30
0.0
 10
346.6390357565287
 20
369.7218541784671
 30
0.0
 10
346.6273042600873
 20
369.7384352893116
 30
0.0
 10
346.5950889102743
 20
369.7887212945461
 30
0.0
 10
346.5775720076619
 20
369.8229667917722
 30
0.0
 10
346.5579374869317
 20
369.8754747695975
 30
0.0
 10
346.5524952791616
 20
369.8932418494814
 30
0.0
 10
346.5441261906962
 20
369.9284135417229
 30
0.0
 10
346.5411612730825
 20
369.9458937610761
 30
0.0
 10
346.5358303494543
 20
369.9980120833143
 30
0.0
 10
346.5370219485641
 20
370.0323277781669
 30
0.0
 10
346.544234493441
 20
370.07466848241
 30
0.0
 10
346.5459687246788
 20
370.0831285167965
 30
0.0
 10
346.54997884961
 20
370.0998810616854
 30
0.0
 10
346.5567995227111
 20
370.1247500282565
 30
0.0
 10
346.5659242146216
 20
370.148872646459
 30
0.0
 10
346.5869934852105
 20
370.1961982390731
 30
0.0
 10
346.6048065899479
 20
370.2265488713857
 30
0.0
 10
346.6468302347532
 20
370.2850237102787
 30
0.0
 10
346.6706419398076
 20
370.3126219727421
 30
0.0
 10
346.7227077067342
 20
370.3652080165912
 30
0.0
 10
346.7509688188081
 20
370.3901918876276
 30
0.0
 10
346.811165627182
 20
370.4379975091646
 30
0.0
 10
346.8431048903412
 20
370.4608172683998
 30
0.0
 10
346.8933550490397
 20
370.4936698358582
 30
0.0
 10
346.9104862613089
 20
370.5043817343259
 30
0.0
 10
346.9452274990981
 20
370.525238569589
 30
0.0
 10
346.9628675621702
 20
370.5354034268911
 30
0.0
 10
347.0522892038302
 20
370.5850340544945
 30
0.0
 10
347.1276819181595
 20
370.6209705447306
 30
0.0
 10
347.2839906075727
 20
370.6874748947589
 30
0.0
 10
347.3649290339873
 20
370.7180209416796
 30
0.0
 10
347.4895435766971
 20
370.7607467609841
 30
0.0
 10
347.5316211319716
 20
370.7744683325515
 30
0.0
 10
347.616739044752
 20
370.8009866173088
 30
0.0
 10
347.6597739855816
 20
370.8137799089636
 30
0.0
 10
347.789618574258
 20
370.8507651669556
 30
0.0
 10
347.8773578042078
 20
370.8736328481526
 30
0.0
 10
348.1434117600929
 20
370.9379634588869
 30
0.0
 10
348.3245280608583
 20
370.9752092813712
 30
0.0
 10
348.6920157832389
 20
371.0419520910257
 30
0.0
 10
348.8784115600212
 20
371.0714104382994
 30
0.0
 10
349.0668094529991
 20
371.0979740599466
 30
0.0
  0
SPLINE
  5
15B
330
1F
100
AcDbEntity
  8
1
100
AcDbSpline
210
0.0
220
0.0
230
1.0
 70
     8
 71
     3
 72
    35
 73
    31
 74
     0
 42
0.000000001
 43
0.0000000001
 40
0.0
 40
0.0
 40
0.0
 40
0.0
 40
0.125000000000023
 40
0.125000000000023
 40
0.2500000000000459
 40
0.2500000000000459
 40
0.3750000000000688
 40
0.3750000000000688
 40
0.5000000000000919
 40
0.5000000000000919
 40
0.5312500000000923
 40
0.5312500000000923
 40
0.5625000000000926
 40
0.5625000000000926
 40
0.6250000000000826
 40
0.6250000000000826
 40
0.6875000000000723
 40
0.6875000000000723
 40
0.7500000000000621
 40
0.8125000000000518
 40
0.8125000000000518
 40
0.8437500000000468
 40
0.8437500000000468
 40
0.8750000000000415
 40
0.8750000000000415
 40
0.9375000000000207
 40
0.9375000000000207
 40
0.9687500000000104
 40
0.9687500000000104
 40
1.0
 40
1.0
 40
1.0
 40
1.0
 10
354.4020805694567
 20
362.6617079519089
 30
0.0
 10
354.4360455072354
 20
362.6099889694545
 30
0.0
 10
354.4744676522863
 20
362.5605193437477
 30
0.0
 10
354.5609469560977
 20
362.4660265128106
 30
0.0
 10
354.6080195070576
 20
362.4220750749131
 30
0.0
 10
354.7103953494018
 20
362.3407202775909
 30
0.0
 10
354.7656784113659
 20
362.3032937407544
 30
0.0
 10
354.8864789983142
 20
362.2358656587376
 30
0.0
 10
354.9501629643127
 20
362.2068868668875
 30
0.0
 10
355.034792171144
 20
362.1774679116407
 30
0.0
 10
355.0519728680803
 20
362.1719293454612
 30
0.0
 10
355.0868843698206
 20
362.1615885559218
 30
0.0
 10
355.104667232961
 20
362.1567760485945
 30
0.0
 10
355.1581586027966
 20
362.1437026984561
 30
0.0
 10
355.1941916188106
 20
362.1367370229943
 30
0.0
 10
355.267051426994
 20
362.1265109757683
 30
0.0
 10
355.3038842772006
 20
362.1232486296729
 30
0.0
 10
355.3784014181065
 20
362.1208109392285
 30
0.0
 10
355.4516745402827
 20
362.1225318962775
 30
0.0
 10
355.5225571015181
 20
362.1323170936246
 30
0.0
 10
355.5748365257593
 20
362.1426992372188
 30
0.0
 10
355.5921696687654
 20
362.1466858094716
 30
0.0
 10
355.6260122062102
 20
362.1555415485031
 30
0.0
 10
355.6425781578655
 20
362.1604184179185
 30
0.0
 10
355.6912743722309
 20
362.1763358677591
 30
0.0
 10
355.7224064980594
 20
362.1886586096295
 30
0.0
 10
355.7672896585521
 20
362.2095668552256
 30
0.0
 10
355.7819729478755
 20
362.2169558793224
 30
0.0
 10
355.8106155327169
 20
362.2324580470909
 30
0.0
 10
355.8245651306047
 20
362.2405633587904
 30
0.0
 10
355.8381636429673
 20
362.2490113795554
 30
0.0
  0
SPLINE
  5
15C
330
1F
100
AcDbEntity
  8
1
100
AcDbSpline
210
0.0
220
0.0
230
1.0
 70
     8
 71
     3
 72
     8
 73
     4
 74
     0
 42
0.000000001
 43
0.0000000001
 40
0.0
 40
0.0
 40
0.0
 40
0.0
 40
1.0
 40
1.0
 40
1.0
 40
1.0
 10
350.8424534901444
 20
371.0321497611353
 30
0.0
 10
350.8402187607078
 20
371.0320289525536
 30
0.0
 10
350.837987918001
 20
371.0319259735089
 30
0.0
 10
350.835761041694
 20
371.0318411894718
 30
0.0
  0
SPLINE
  5
15D
330
1F
100
AcDbEntity
  8
1
100
AcDbSpline
210
0.0
220
0.0
230
1.0
 70
     8
 71
     3
 72
    22
 73
    18
 74
     0
 42
0.000000001
 43
0.0000000001
 40
0.0
 40
0.0
 40
0.0
 40
0.0
 40
0.125
 40
0.125
 40
0.25
 40
0.25
 40
0.375
 40
0.375
 40
0.5
 40
0.5
 40
0.625
 40
0.625
 40
0.75
 40
0.75
 40
0.875
 40
0.875
 40
1.0
 40
1.0
 40
1.0
 40
1.0
 10
356.9849061143382
 20
368.6093626232897
 30
0.0
 10
356.9899000874013
 20
368.6065875766732
 30
0.0
 10
356.9946458790411
 20
368.6034207426528
 30
0.0
 10
357.0034867335083
 20
368.5964401520381
 30
0.0
 10
357.0076069407122
 20
368.5926135266354
 30
0.0
 10
357.0152295413481
 20
368.5842691969468
 30
0.0
 10
357.0187237793875
 20
368.5797444750913
 30
0.0
 10
357.0248319051269
 20
368.5702959642771
 30
0.0
 10
357.0274816627613
 20
368.565336948532
 30
0.0
 10
357.0319370352745
 20
368.5549303442751
 30
0.0
 10
357.033724306434
 20
368.5494988127068
 30
0.0
 10
357.0362937803571
 20
368.5385244460439
 30
0.0
 10
357.0370978865765
 20
368.5329358837433
 30
0.0
 10
357.0376894215315
 20
368.5215457573647
 30
0.0
 10
357.0374649221084
 20
368.5158303095961
 30
0.0
 10
357.0359914688834
 20
368.5046016124453
 30
0.0
 10
357.0347453401112
 20
368.4990505983305
 30
0.0
 10
357.0329569710817
 20
368.4935674108581
 30
0.0
  0
SPLINE
  5
15E
330
1F
100
AcDbEntity
  8
1
100
AcDbSpline
210
0.0
220
0.0
230
1.0
 70
     8
 71
     3
 72
    14
 73
    10
 74
     0
 42
0.000000001
 43
0.0000000001
 40
0.0
 40
0.0
 40
0.0
 40
0.0
 40
0.25
 40
0.25
 40
0.5
 40
0.5
 40
0.75
 40
0.75
 40
1.0
 40
1.0
 40
1.0
 40
1.0
 10
356.9849061143382
 20
368.6093626232897
 30
0.0
 10
356.9786525394824
 20
368.6128376043368
 30
0.0
 10
356.9727706394831
 20
368.6169357164553
 30
0.0
 10
356.9620066711282
 20
368.626185957348
 30
0.0
 10
356.957160641677
 20
368.6312927842121
 30
0.0
 10
356.9485508769474
 20
368.6424817736806
 30
0.0
 10
356.9447863416408
 20
368.6486046568807
 30
0.0
 10
356.9387385180677
 20
368.6613327728004
 30
0.0
 10
356.9363993382166
 20
368.6679955625601
 30
0.0
 10
356.9348052630442
 20
368.6749854319641
 30
0.0
  0
SPLINE
  5
15F
330
1F
100
AcDbEntity
  8
1
100
AcDbSpline
210
0.0
220
0.0
230
1.0
 70
     8
 71
     3
 72
    21
 73
    17
 74
     0
 42
0.000000001
 43
0.0000000001
 40
0.0
 40
0.0
 40
0.0
 40
0.0
 40
0.2500000000000284
 40
0.2500000000000284
 40
0.3125000000000353
 40
0.3125000000000353
 40
0.3750000000000421
 40
0.3750000000000421
 40
0.5000000000000556
 40
0.6250000000000692
 40
0.6250000000000692
 40
0.6875000000000689
 40
0.6875000000000689
 40
0.7500000000000686
 40
0.7500000000000686
 40
1.0
 40
1.0
 40
1.0
 40
1.0
 10
356.9348052630442
 20
368.6749854319641
 30
0.0
 10
356.9261503254181
 20
368.7129365178057
 30
0.0
 10
356.9220616495126
 20
368.7513252935072
 30
0.0
 10
356.9228605585343
 20
368.7999422962555
 30
0.0
 10
356.9233195837743
 20
368.8096975770649
 30
0.0
 10
356.9248570677275
 20
368.8292753502484
 30
0.0
 10
356.9259401487129
 20
368.8391125740512
 30
0.0
 10
356.9300824044275
 20
368.8682835770148
 30
0.0
 10
356.9379945419446
 20
368.9065589720055
 30
0.0
 10
356.9505905637415
 20
368.9436221286709
 30
0.0
 10
356.9618237187858
 20
368.9709565200299
 30
0.0
 10
356.9658829931221
 20
368.980023406618
 30
0.0
 10
356.9745220240526
 20
368.9978187538906
 30
0.0
 10
356.9790939930226
 20
369.0065377374531
 30
0.0
 10
357.0031734641102
 20
369.0492709570017
 30
0.0
 10
357.0262903191129
 20
369.0807344913033
 30
0.0
 10
357.0531356369688
 20
369.1095896965124
 30
0.0
  0
SPLINE
  5
160
330
1F
100
AcDbEntity
  8
1
100
AcDbSpline
210
0.0
220
0.0
230
1.0
 70
     8
 71
     3
 72
    10
 73
     6
 74
     0
 42
0.000000001
 43
0.0000000001
 40
0.0
 40
0.0
 40
0.0
 40
0.0
 40
0.3595877966175627
 40
0.3595877966175627
 40
1.0
 40
1.0
 40
1.0
 40
1.0
 10
356.9430560636854
 20
369.6645761645198
 30
0.0
 10
356.9390105235716
 20
369.6645756455862
 30
0.0
 10
356.9349593429856
 20
369.6648065517572
 30
0.0
 10
356.9238522278021
 20
369.6660994400444
 30
0.0
 10
356.91684101725
 20
369.6676534211501
 30
0.0
 10
356.9099397752903
 20
369.6699972060018
 30
0.0
  0
SPLINE
  5
161
330
1F
100
AcDbEntity
  8
1
100
AcDbSpline
210
0.0
220
0.0
230
1.0
 70
     8
 71
     3
 72
    21
 73
    17
 74
     0
 42
0.000000001
 43
0.0000000001
 40
0.0
 40
0.0
 40
0.0
 40
0.0
 40
0.2996703975837524
 40
0.2996703975837524
 40
0.3745879969797103
 40
0.3745879969797103
 40
0.4495055963756684
 40
0.4495055963756684
 40
0.5993407951676173
 40
0.7491759939595662
 40
0.7491759939595662
 40
0.8240935933555611
 40
0.8240935933555611
 40
0.8990111927515561
 40
0.8990111927515561
 40
1.0
 40
1.0
 40
1.0
 40
1.0
 10
357.0329569710817
 20
368.4935674108581
 30
0.0
 10
357.0209060817156
 20
368.4566190604232
 30
0.0
 10
357.0047217356929
 20
368.4216070656798
 30
0.0
 10
356.9793311471766
 20
368.3802698946692
 30
0.0
 10
356.9739821799884
 20
368.3721144278462
 30
0.0
 10
356.9628832787587
 20
368.3562365549536
 30
0.0
 10
356.9571203293161
 20
368.3484911753298
 30
0.0
 10
356.9392023980551
 20
368.3258255333305
 30
0.0
 10
356.9136383228093
 20
368.2971223704265
 30
0.0
 10
356.8847475420276
 20
368.2714369235443
 30
0.0
 10
356.8617893279026
 20
368.2533428507172
 30
0.0
 10
356.8539400911502
 20
368.2475245818407
 30
0.0
 10
356.8380144004668
 20
368.2364266525988
 30
0.0
 10
356.8299153374206
 20
368.2311288420751
 30
0.0
 10
356.8105844587805
 20
368.2192688527799
 30
0.0
 10
356.7992462650113
 20
368.2129028037294
 30
0.0
 10
356.7876654485374
 20
368.2069835973862
 30
0.0
  0
SPLINE
  5
162
330
1F
100
AcDbEntity
  8
1
100
AcDbSpline
210
0.0
220
0.0
230
1.0
 70
     8
 71
     3
 72
    21
 73
    17
 74
     0
 42
0.000000001
 43
0.0000000001
 40
0.0
 40
0.0
 40
0.0
 40
0.0
 40
0.2500000000000585
 40
0.2500000000000585
 40
0.3125000000000629
 40
0.3125000000000629
 40
0.3750000000000675
 40
0.3750000000000675
 40
0.5000000000000764
 40
0.6250000000000855
 40
0.6250000000000855
 40
0.687500000000078
 40
0.687500000000078
 40
0.7500000000000706
 40
0.7500000000000706
 40
1.0
 40
1.0
 40
1.0
 40
1.0
 10
356.9099397752903
 20
369.6699972060018
 30
0.0
 10
356.8724712626222
 20
369.682722181147
 30
0.0
 10
356.8370683636957
 20
369.6994079086799
 30
0.0
 10
356.7954689239562
 20
369.7253600362178
 30
0.0
 10
356.7872834533829
 20
369.7308084827639
 30
0.0
 10
356.7711903930628
 20
369.7422388898072
 30
0.0
 10
356.7632725030955
 20
369.7482322881266
 30
0.0
 10
356.7402985069486
 20
369.7667524800134
 30
0.0
 10
356.7115001786322
 20
369.7930423438132
 30
0.0
 10
356.6862985777923
 20
369.822456681447
 30
0.0
 10
356.6687682075708
 20
369.8457107903337
 30
0.0
 10
356.6631343761803
 20
369.8536918672467
 30
0.0
 10
356.6524414110304
 20
369.8698970584154
 30
0.0
 10
356.6473863212377
 20
369.878109866753
 30
0.0
 10
356.6235155714452
 20
369.9197101222353
 30
0.0
 10
356.6088581235351
 20
369.9546830001868
 30
0.0
 10
356.5984446611671
 20
369.991357322735
 30
0.0
  0
SPLINE
  5
163
330
1F
100
AcDbEntity
  8
1
100
AcDbSpline
210
0.0
220
0.0
230
1.0
 70
     8
 71
     3
 72
    14
 73
    10
 74
     0
 42
0.000000001
 43
0.0000000001
 40
0.0
 40
0.0
 40
0.0
 40
0.0
 40
0.25
 40
0.25
 40
0.5
 40
0.5
 40
0.75
 40
0.75
 40
1.0
 40
1.0
 40
1.0
 40
1.0
 10
356.5984446611671
 20
369.991357322735
 30
0.0
 10
356.5965253141481
 20
369.9981169142299
 30
0.0
 10
356.5954002356294
 20
370.0050813354413
 30
0.0
 10
356.5947014611057
 20
370.0188977354988
 30
0.0
 10
356.5951085493499
 20
370.0257641574299
 30
0.0
 10
356.5973849937416
 20
370.0394202873056
 30
0.0
 10
356.5992752800581
 20
370.0462009746387
 30
0.0
 10
356.6043409197543
 20
370.0590795237787
 30
0.0
 10
356.607525595052
 20
370.0652595962386
 30
0.0
 10
356.611383032293
 20
370.071172606428
 30
0.0
  0
SPLINE
  5
164
330
1F
100
AcDbEntity
  8
1
100
AcDbSpline
210
0.0
220
0.0
230
1.0
 70
     8
 71
     3
 72
    20
 73
    16
 74
     0
 42
0.000000001
 43
0.0000000001
 40
0.0
 40
0.0
 40
0.0
 40
0.0
 40
0.125
 40
0.125
 40
0.25
 40
0.25
 40
0.375
 40
0.375
 40
0.5
 40
0.5
 40
0.625
 40
0.625
 40
0.75
 40
0.75
 40
1.0
 40
1.0
 40
1.0
 40
1.0
 10
356.5987096745339
 20
370.1930260621656
 30
0.0
 10
356.6028905476314
 20
370.1891602107876
 30
0.0
 10
356.6066305630981
 20
370.1849754641202
 30
0.0
 10
356.6132760649101
 20
370.1760036950465
 30
0.0
 10
356.6162036706984
 20
370.1711650113028
 30
0.0
 10
356.6210665170985
 20
370.161141182677
 30
0.0
 10
356.6230046961697
 20
370.155979013436
 30
0.0
 10
356.6259432614482
 20
370.1453709670265
 30
0.0
 10
356.6269466586198
 20
370.1398749466307
 30
0.0
 10
356.6279614217547
 20
370.1288402451672
 30
0.0
 10
356.6279790725594
 20
370.1233453090665
 30
0.0
 10
356.6270856563714
 20
370.1123997325184
 30
0.0
 10
356.6261674499653
 20
370.1069228935935
 30
0.0
 10
356.6220191711342
 20
370.0907348154068
 30
0.0
 10
356.6175452013835
 20
370.0806185069949
 30
0.0
 10
356.611383032293
 20
370.071172606428
 30
0.0
  0
SPLINE
  5
165
330
1F
100
AcDbEntity
  8
1
100
AcDbSpline
210
0.0
220
0.0
230
1.0
 70
     8
 71
     3
 72
    17
 73
    13
 74
     0
 42
0.000000001
 43
0.0000000001
 40
0.0
 40
0.0
 40
0.0
 40
0.0
 40
0.0128096119916259
 40
0.0128096119916259
 40
0.2102476895933211
 40
0.4076857671950165
 40
0.4076857671950165
 40
0.5064048059958657
 40
0.5064048059958657
 40
0.605123844796715
 40
0.605123844796715
 40
1.0
 40
1.0
 40
1.0
 40
1.0
 10
356.3408019406477
 20
370.3165394132962
 30
0.0
 10
356.3420357782911
 20
370.3163526250061
 30
0.0
 10
356.3432683923589
 20
370.3161612701278
 30
0.0
 10
356.3634795921121
 20
370.3129457302422
 30
0.0
 10
356.4008606695391
 20
370.3047468939379
 30
0.0
 10
356.4370921339532
 20
370.2922540367883
 30
0.0
 10
356.4638197180482
 20
370.2812195020766
 30
0.0
 10
356.4726297544869
 20
370.2772711461857
 30
0.0
 10
356.4898749303188
 20
370.2689224275535
 30
0.0
 10
356.4983366488598
 20
370.264511369976
 30
0.0
 10
356.5398546429543
 20
370.2412936947222
 30
0.0
 10
356.5705705234581
 20
370.2190449757812
 30
0.0
 10
356.5987096745339
 20
370.1930260621657
 30
0.0
  0
SPLINE
  5
166
330
1F
100
AcDbEntity
  8
1
100
AcDbSpline
210
0.0
220
0.0
230
1.0
 70
     8
 71
     3
 72
    21
 73
    17
 74
     0
 42
0.000000001
 43
0.0000000001
 40
0.0
 40
0.0
 40
0.0
 40
0.0
 40
0.3223401417477401
 40
0.3223401417477401
 40
0.4029251771846986
 40
0.4029251771846986
 40
0.4835102126216573
 40
0.4835102126216573
 40
0.6446802834956256
 40
0.8058503543695941
 40
0.8058503543695941
 40
0.8864353898066063
 40
0.8864353898066063
 40
0.9670204252436183
 40
0.9670204252436183
 40
1.0
 40
1.0
 40
1.0
 40
1.0
 10
356.0986237759221
 20
368.1556132019902
 30
0.0
 10
356.1258899480313
 20
368.1808392485963
 30
0.0
 10
356.1559681970588
 20
368.2025423986513
 30
0.0
 10
356.1972965995091
 20
368.2252073312793
 30
0.0
 10
356.2057510783489
 20
368.2295141734168
 30
0.0
 10
356.2230525708624
 20
368.237661539869
 30
0.0
 10
356.2319143806128
 20
368.2415053640547
 30
0.0
 10
356.2586983650211
 20
368.2521562029319
 30
0.0
 10
356.2951877174044
 20
368.2641417807511
 30
0.0
 10
356.3332061050033
 20
368.271790603611
 30
0.0
 10
356.3623010915762
 20
368.2758708020546
 30
0.0
 10
356.3721330364415
 20
368.2769565534611
 30
0.0
 10
356.3917941622339
 20
368.2785467840712
 30
0.0
 10
356.4016113257261
 20
368.2790529932014
 30
0.0
 10
356.4154278351731
 20
368.2793723580451
 30
0.0
 10
356.4194380483018
 20
368.279418878206
 30
0.0
 10
356.4234461107418
 20
368.2794192870826
 30
0.0
  0
SPLINE
  5
167
330
1F
100
AcDbEntity
  8
1
100
AcDbSpline
210
0.0
220
0.0
230
1.0
 70
     8
 71
     3
 72
    14
 73
    10
 74
     0
 42
0.000000001
 43
0.0000000001
 40
0.0
 40
0.0
 40
0.0
 40
0.0
 40
0.25
 40
0.25
 40
0.5
 40
0.5
 40
0.75
 40
0.75
 40
1.0
 40
1.0
 40
1.0
 40
1.0
 10
356.0699992644397
 20
368.0827761663386
 30
0.0
 10
356.0696195209041
 20
368.0896319138844
 30
0.0
 10
356.0699573011711
 20
368.0964726673822
 30
0.0
 10
356.0720422495482
 20
368.1098209601399
 30
0.0
 10
356.073770394001
 20
368.1162765537489
 30
0.0
 10
356.0786141124512
 20
368.1287490668153
 30
0.0
 10
356.0817635348744
 20
368.134786265731
 30
0.0
 10
356.0892481069382
 20
368.1458584450559
 30
0.0
 10
356.09360198767
 20
368.1509671569204
 30
0.0
 10
356.0986237759221
 20
368.1556132019902
 30
0.0
  0
SPLINE
  5
168
330
1F
100
AcDbEntity
  8
1
100
AcDbSpline
210
0.0
220
0.0
230
1.0
 70
     8
 71
     3
 72
    22
 73
    18
 74
     0
 42
0.000000001
 43
0.0000000001
 40
0.0
 40
0.0
 40
0.0
 40
0.0
 40
0.125
 40
0.125
 40
0.25
 40
0.25
 40
0.375
 40
0.375
 40
0.5
 40
0.5
 40
0.625
 40
0.625
 40
0.75
 40
0.75
 40
0.875
 40
0.875
 40
1.0
 40
1.0
 40
1.0
 40
1.0
 10
356.0699992644397
 20
368.0827761663386
 30
0.0
 10
356.0703025191616
 20
368.0773013191819
 30
0.0
 10
356.0701469647993
 20
368.0718476051993
 30
0.0
 10
356.0689515700603
 20
368.0611766923783
 30
0.0
 10
356.0679141953686
 20
368.0559323959739
 30
0.0
 10
356.0649359151896
 20
368.0456323800478
 30
0.0
 10
356.0629847085909
 20
368.0405797539931
 30
0.0
 10
356.0582855788287
 20
368.0310208301591
 30
0.0
 10
356.0555270408643
 20
368.026467955536
 30
0.0
 10
356.049158052972
 20
368.017836957896
 30
0.0
 10
356.0455510909553
 20
368.0137813618327
 30
0.0
 10
356.0377171165858
 20
368.0064585702534
 30
0.0
 10
356.0334633006802
 20
368.0031514199642
 30
0.0
 10
356.0242450816266
 20
367.9972881084578
 30
0.0
 10
356.019345848935
 20
367.994782201942
 30
0.0
 10
356.0091809901476
 20
367.990724821911
 30
0.0
 10
356.0038850329797
 20
367.9891530306055
 30
0.0
 10
355.99836236114
 20
367.9880680792123
 30
0.0
  0
SPLINE
  5
169
330
1F
100
AcDbEntity
  8
1
100
AcDbSpline
210
0.0
220
0.0
230
1.0
 70
     8
 71
     3
 72
     8
 73
     4
 74
     0
 42
0.000000001
 43
0.0000000001
 40
0.0
 40
0.0
 40
0.0
 40
0.0
 40
1.0
 40
1.0
 40
1.0
 40
1.0
 10
355.7172835378742
 20
370.0218306622825
 30
0.0
 10
355.6838128109238
 20
370.0218310316062
 30
0.0
 10
355.6511077222032
 20
370.0253771364139
 30
0.0
 10
355.6190673123666
 20
370.0323926022504
 30
0.0
  0
SPLINE
  5
16A
330
1F
100
AcDbEntity
  8
1
100
AcDbSpline
210
0.0
220
0.0
230
1.0
 70
     8
 71
     3
 72
    14
 73
    10
 74
     0
 42
0.000000001
 43
0.0000000001
 40
0.0
 40
0.0
 40
0.0
 40
0.0
 40
0.25
 40
0.25
 40
0.5
 40
0.5
 40
0.75
 40
0.75
 40
1.0
 40
1.0
 40
1.0
 40
1.0
 10
355.6190673123666
 20
370.0323926022504
 30
0.0
 10
355.6124849710289
 20
370.033833850693
 30
0.0
 10
355.6061452059917
 20
370.036040951073
 30
0.0
 10
355.5943601624109
 20
370.0417217913732
 30
0.0
 10
355.5888939981333
 20
370.0451853674612
 30
0.0
 10
355.5787808718921
 20
370.0533205441653
 30
0.0
 10
355.5741509735661
 20
370.0580069861498
 30
0.0
 10
355.5661193842661
 20
370.0681636252117
 30
0.0
 10
355.5626544357195
 20
370.0736790133091
 30
0.0
 10
355.5597572454662
 20
370.0796457388112
 30
0.0
  0
SPLINE
  5
16B
330
1F
100
AcDbEntity
  8
1
100
AcDbSpline
210
0.0
220
0.0
230
1.0
 70
     8
 71
     3
 72
    10
 73
     6
 74
     0
 42
0.000000001
 43
0.0000000001
 40
0.0
 40
0.0
 40
0.0
 40
0.0
 40
0.5
 40
0.5
 40
1.0
 40
1.0
 40
1.0
 40
1.0
 10
352.918227138198
 20
367.5671251433725
 30
0.0
 10
352.9338428886213
 20
367.5645394520904
 30
0.0
 10
352.9475154832316
 20
367.5637490586924
 30
0.0
 10
352.9717708533187
 20
367.5649272338019
 30
0.0
 10
352.9823480689092
 20
367.5669015821863
 30
0.0
 10
352.9916348887052
 20
367.5699891460614
 30
0.0
  0
SPLINE
  5
16C
330
1F
100
AcDbEntity
  8
1
100
AcDbSpline
210
0.0
220
0.0
230
1.0
 70
     8
 71
     3
 72
    15
 73
    11
 74
     0
 42
0.000000001
 43
0.0000000001
 40
0.0
 40
0.0
 40
0.0
 40
0.0
 40
0.2499999999999958
 40
0.3749999999999959
 40
0.3749999999999959
 40
0.4999999999999961
 40
0.4999999999999961
 40
0.7499999999999979
 40
0.7499999999999979
 40
1.0
 40
1.0
 40
1.0
 40
1.0
 10
351.3352150691895
 20
369.2352957216175
 30
0.0
 10
351.3404234130905
 20
369.2000986488669
 30
0.0
 10
351.3490109016483
 20
369.1479478534163
 30
0.0
 10
351.3586737384891
 20
369.0966917982229
 30
0.0
 10
351.3653446812146
 20
369.0627116763608
 30
0.0
 10
351.368810717408
 20
369.0457432691245
 30
0.0
 10
351.379388483023
 20
368.9958040236652
 30
0.0
 10
351.3866832383406
 20
368.9637393174904
 30
0.0
 10
351.4016570457674
 20
368.9015528515201
 30
0.0
 10
351.4093365055915
 20
368.8714331530688
 30
0.0
 10
351.4171718327205
 20
368.8421014961057
 30
0.0
  0
SPLINE
  5
16D
330
1F
100
AcDbEntity
  8
1
100
AcDbSpline
210
0.0
220
0.0
230
1.0
 70
     8
 71
     3
 72
     8
 73
     4
 74
     0
 42
0.000000001
 43
0.0000000001
 40
0.0
 40
0.0
 40
0.0
 40
0.0
 40
1.0
 40
1.0
 40
1.0
 40
1.0
 10
352.9182271381988
 20
367.5671251433716
 30
0.0
 10
352.9800547709175
 20
367.5151438816669
 30
0.0
 10
353.0418240445495
 20
367.4643630380693
 30
0.0
 10
353.10374262866
 20
367.4145422869175
 30
0.0
  0
SPLINE
  5
16E
330
1F
100
AcDbEntity
  8
1
100
AcDbSpline
210
0.0
220
0.0
230
1.0
 70
     8
 71
     3
 72
     8
 73
     4
 74
     0
 42
0.000000001
 43
0.0000000001
 40
0.0
 40
0.0
 40
0.0
 40
0.0
 40
1.0
 40
1.0
 40
1.0
 40
1.0
 10
352.9182271382091
 20
367.5671251433718
 30
0.0
 10
352.8927324275607
 20
367.5687622633823
 30
0.0
 10
352.8671556536905
 20
367.5710782823594
 30
0.0
 10
352.8414954607304
 20
367.5740845159858
 30
0.0
  0
SPLINE
  5
16F
330
1F
100
AcDbEntity
  8
1
100
AcDbSpline
210
0.0
220
0.0
230
1.0
 70
     8
 71
     3
 72
    36
 73
    32
 74
     0
 42
0.000000001
 43
0.0000000001
 40
0.0
 40
0.0
 40
0.0
 40
0.0
 40
0.0625000000000009
 40
0.093750000000002
 40
0.093750000000002
 40
0.1250000000000032
 40
0.1250000000000032
 40
0.2500000000000099
 40
0.2500000000000099
 40
0.3125000000000144
 40
0.3437500000000164
 40
0.3437500000000164
 40
0.3750000000000185
 40
0.3750000000000185
 40
0.5000000000000214
 40
0.5000000000000214
 40
0.5625000000000227
 40
0.5625000000000227
 40
0.5937500000000231
 40
0.5937500000000231
 40
0.6250000000000236
 40
0.6250000000000236
 40
0.7500000000000141
 40
0.7500000000000141
 40
0.7812500000000117
 40
0.7812500000000117
 40
0.8125000000000094
 40
0.8125000000000094
 40
0.8750000000000046
 40
0.8750000000000046
 40
1.0
 40
1.0
 40
1.0
 40
1.0
 10
351.4171718327211
 20
368.8421014961088
 30
0.0
 10
351.4269235214975
 20
368.8055959124498
 30
0.0
 10
351.4434795620328
 20
368.750926955309
 30
0.0
 10
351.4630221032433
 20
368.696419466993
 30
0.0
 10
351.4767296429712
 20
368.6601205840478
 30
0.0
 10
351.4839267825458
 20
368.6419832343792
 30
0.0
 10
351.5214807114996
 20
368.5517990114133
 30
0.0
 10
351.5566244854786
 20
368.4809465647027
 30
0.0
 10
351.6174820140705
 20
368.3768620365635
 30
0.0
 10
351.6499540204963
 20
368.3253705377719
 30
0.0
 10
351.6856682404228
 20
368.2747778434157
 30
0.0
 10
351.7102253662677
 20
368.2412594821429
 30
0.0
 10
351.7228927157642
 20
368.2245880050418
 30
0.0
 10
351.7876722544516
 20
368.1423987003726
 30
0.0
 10
351.8444034522878
 20
368.0799029636133
 30
0.0
 10
351.93739219694
 20
367.9915037076508
 30
0.0
 10
351.9697096583333
 20
367.9629319540039
 30
0.0
 10
352.0203006328534
 20
367.9215193297394
 30
0.0
 10
352.0375519947086
 20
367.9079317365264
 30
0.0
 10
352.0724840497252
 20
367.881486479811
 30
0.0
 10
352.090189941063
 20
367.8686061338504
 30
0.0
 10
352.1799247390678
 20
367.8059272420475
 30
0.0
 10
352.2555411937063
 20
367.7612569027305
 30
0.0
 10
352.3552131956139
 20
367.7128228406957
 30
0.0
 10
352.3754070351888
 20
367.7035088693663
 30
0.0
 10
352.416330991495
 20
367.685652418045
 30
0.0
 10
352.43703086294
 20
367.6771264104786
 30
0.0
 10
352.4992551838356
 20
367.653000586827
 30
0.0
 10
352.5411203844092
 20
367.638753708051
 30
0.0
 10
352.6678604960143
 20
367.6014988286962
 30
0.0
 10
352.7538705377797
 20
367.5839299830503
 30
0.0
 10
352.8414954607304
 20
367.5740845159858
 30
0.0
  0
SPLINE
  5
170
330
1F
100
AcDbEntity
  8
1
100
AcDbSpline
210
0.0
220
0.0
230
1.0
 70
     8
 71
     3
 72
     8
 73
     4
 74
     0
 42
0.000000001
 43
0.0000000001
 40
0.0
 40
0.0
 40
0.0
 40
0.0
 40
1.0
 40
1.0
 40
1.0
 40
1.0
 10
359.5643676540139
 20
365.753126630706
 30
0.0
 10
359.555234453999
 20
365.6928235539048
 30
0.0
 10
359.5465085052297
 20
365.6326611280903
 30
0.0
 10
359.5381991745202
 20
365.5726425882474
 30
0.0
  0
SPLINE
  5
171
330
1F
100
AcDbEntity
  8
1
100
AcDbSpline
210
0.0
220
0.0
230
1.0
 70
     8
 71
     3
 72
     8
 73
     4
 74
     0
 42
0.000000001
 43
0.0000000001
 40
0.0
 40
0.0
 40
0.0
 40
0.0
 40
1.0
 40
1.0
 40
1.0
 40
1.0
 10
359.5381991745202
 20
362.5668624169073
 30
0.0
 10
359.5465085052297
 20
362.5188493646883
 30
0.0
 10
359.555234453999
 20
362.4712943646245
 30
0.0
 10
359.5643676540139
 20
362.4241871183395
 30
0.0
  0
SPLINE
  5
172
330
1F
100
AcDbEntity
  8
1
100
AcDbSpline
210
0.0
220
0.0
230
1.0
 70
     8
 71
     3
 72
     8
 73
     4
 74
     0
 42
0.000000001
 43
0.0000000001
 40
0.0
 40
0.0
 40
0.0
 40
0.0
 40
1.0
 40
1.0
 40
1.0
 40
1.0
 10
358.2391610688436
 20
365.919969902067
 30
0.0
 10
358.2478838738236
 20
365.9192946676316
 30
0.0
 10
358.2566067005143
 20
365.9186194305285
 30
0.0
 10
358.2653295483373
 20
365.9179441908288
 30
0.0
  0
SPLINE
  5
173
330
1F
100
AcDbEntity
  8
1
100
AcDbSpline
210
0.0
220
0.0
230
1.0
 70
     8
 71
     3
 72
     8
 73
     4
 74
     0
 42
0.000000001
 43
0.0000000001
 40
0.0
 40
0.0
 40
0.0
 40
0.0
 40
1.0
 40
1.0
 40
1.0
 40
1.0
 10
358.2653295483373
 20
361.2610497417957
 30
0.0
 10
358.2566047048542
 20
361.2765712025114
 30
0.0
 10
358.2478818591661
 20
361.2920938213183
 30
0.0
 10
358.2391610688436
 20
361.3076176304889
 30
0.0
  0
SPLINE
  5
174
330
1F
100
AcDbEntity
  8
1
100
AcDbSpline
210
0.0
220
0.0
230
1.0
 70
     8
 71
     3
 72
     8
 73
     4
 74
     0
 42
0.000000001
 43
0.0000000001
 40
0.0
 40
0.0
 40
0.0
 40
0.0
 40
1.0
 40
1.0
 40
1.0
 40
1.0
 10
359.5643676540139
 20
365.7583495904398
 30
0.0
 10
359.1319445272138
 20
365.8115021820476
 30
0.0
 10
358.6988443918102
 20
365.8647071458844
 30
0.0
 10
358.2653295483373
 20
365.9179441908288
 30
0.0
  0
SPLINE
  5
175
330
1F
100
AcDbEntity
  8
1
100
AcDbSpline
210
0.0
220
0.0
230
1.0
 70
     8
 71
     3
 72
    20
 73
    16
 74
     0
 42
0.000000001
 43
0.0000000001
 40
0.0
 40
0.0
 40
0.0
 40
0.0
 40
0.1249999999999821
 40
0.1249999999999821
 40
0.2499999999999644
 40
0.2499999999999644
 40
0.3749999999999465
 40
0.3749999999999465
 40
0.4999999999999286
 40
0.4999999999999286
 40
0.6249999999999108
 40
0.6249999999999108
 40
0.749999999999893
 40
0.749999999999893
 40
1.0
 40
1.0
 40
1.0
 40
1.0
 10
357.2306535179205
 20
369.2196680686429
 30
0.0
 10
357.2293990727713
 20
369.2139743248683
 30
0.0
 10
357.2276385275097
 20
369.2084848417463
 30
0.0
 10
357.2231602864912
 20
369.1978925629717
 30
0.0
 10
357.2204085355116
 20
369.1927426296546
 30
0.0
 10
357.2140912744931
 20
369.1831033091725
 30
0.0
 10
357.2105474512812
 20
369.1786239306718
 30
0.0
 10
357.2027285905071
 20
369.1703121907413
 30
0.0
 10
357.1984110028875
 20
369.1664498438559
 30
0.0
 10
357.1892281294864
 20
369.1595492589722
 30
0.0
 10
357.1844045348957
 20
369.1565295555446
 30
0.0
 10
357.1743181186216
 20
369.1513067430902
 30
0.0
 10
357.1690285780549
 20
369.1490954012939
 30
0.0
 10
357.1526549503922
 20
369.1437818263353
 30
0.0
 10
357.1414528884428
 20
369.1420648996857
 30
0.0
 10
357.1299694577297
 20
369.1421518436446
 30
0.0
  0
SPLINE
  5
176
330
1F
100
AcDbEntity
  8
1
100
AcDbSpline
210
0.0
220
0.0
230
1.0
 70
     8
 71
     3
 72
    21
 73
    17
 74
     0
 42
0.000000001
 43
0.0000000001
 40
0.0
 40
0.0
 40
0.0
 40
0.0
 40
0.249999999999995
 40
0.249999999999995
 40
0.3124999999999943
 40
0.3124999999999943
 40
0.3749999999999938
 40
0.3749999999999938
 40
0.4999999999999926
 40
0.6249999999999912
 40
0.6249999999999912
 40
0.6874999999999935
 40
0.6874999999999935
 40
0.7499999999999958
 40
0.7499999999999958
 40
1.0
 40
1.0
 40
1.0
 40
1.0
 10
357.119129803169
 20
369.6561243076735
 30
0.0
 10
357.144937749685
 20
369.6264874913863
 30
0.0
 10
357.1669456703586
 20
369.5943282293441
 30
0.0
 10
357.1897079755069
 20
369.5509755090212
 30
0.0
 10
357.1940245379865
 20
369.5421315309054
 30
0.0
 10
357.2020772091234
 20
369.5243262393617
 30
0.0
 10
357.2058265561092
 20
369.515341708547
 30
0.0
 10
357.2162583644243
 20
369.4881467719773
 30
0.0
 10
357.2279960660231
 20
369.4512448113721
 30
0.0
 10
357.235416962945
 20
369.413066244637
 30
0.0
 10
357.239308594308
 20
369.3839373297675
 30
0.0
 10
357.2403205966315
 20
369.3741708789688
 30
0.0
 10
357.2417619302336
 20
369.3547243835987
 30
0.0
 10
357.2421953650334
 20
369.3450155707612
 30
0.0
 10
357.2429514689419
 20
369.296542546331
 30
0.0
 10
357.2390962738333
 20
369.2579885077205
 30
0.0
 10
357.2306535179206
 20
369.2196680686429
 30
0.0
  0
SPLINE
  5
177
330
1F
100
AcDbEntity
  8
1
100
AcDbSpline
210
0.0
220
0.0
230
1.0
 70
     8
 71
     3
 72
    14
 73
    10
 74
     0
 42
0.000000001
 43
0.0000000001
 40
0.0
 40
0.0
 40
0.0
 40
0.0
 40
0.25
 40
0.25
 40
0.5
 40
0.5
 40
0.75
 40
0.75
 40
1.0
 40
1.0
 40
1.0
 40
1.0
 10
357.0531356369688
 20
369.1095896965124
 30
0.0
 10
357.058083633216
 20
369.1149081452584
 30
0.0
 10
357.063623271355
 20
369.119665415048
 30
0.0
 10
357.0754061988242
 20
369.1278014626433
 30
0.0
 10
357.0816522425833
 20
369.131204425164
 30
0.0
 10
357.0948320539057
 20
369.1367248210667
 30
0.0
 10
357.101768692334
 20
369.1388195180262
 30
0.0
 10
357.1157046010675
 20
369.1415417559637
 30
0.0
 10
357.1227809584268
 20
369.1422062695913
 30
0.0
 10
357.1299694577297
 20
369.1421518436446
 30
0.0
  0
SPLINE
  5
178
330
1F
100
AcDbEntity
  8
1
100
AcDbSpline
210
0.0
220
0.0
230
1.0
 70
     8
 71
     3
 72
     8
 73
     4
 74
     0
 42
0.000000001
 43
0.0000000001
 40
0.0
 40
0.0
 40
0.0
 40
0.0
 40
1.0
 40
1.0
 40
1.0
 40
1.0
 10
357.1096716600663
 20
369.665560104426
 30
0.0
 10
357.1130216518673
 20
369.662655950156
 30
0.0
 10
357.1161775447934
 20
369.659514563425
 30
0.0
 10
357.119129803169
 20
369.6561243076735
 30
0.0
  0
SPLINE
  5
179
330
1F
100
AcDbEntity
  8
1
100
AcDbSpline
210
0.0
220
0.0
230
1.0
 70
     8
 71
     3
 72
     8
 73
     4
 74
     0
 42
0.000000001
 43
0.0000000001
 40
0.0
 40
0.0
 40
0.0
 40
0.0
 40
1.0
 40
1.0
 40
1.0
 40
1.0
 10
361.7939045980387
 20
363.9126116114588
 30
0.0
 10
361.7412966006149
 20
363.9165164232653
 30
0.0
 10
361.6886877252077
 20
363.9204394453846
 30
0.0
 10
361.6360779538204
 20
363.9243810510926
 30
0.0
  0
SPLINE
  5
17A
330
1F
100
AcDbEntity
  8
1
100
AcDbSpline
210
0.0
220
0.0
230
1.0
 70
     8
 71
     3
 72
     8
 73
     4
 74
     0
 42
0.000000001
 43
0.0000000001
 40
0.0
 40
0.0
 40
0.0
 40
0.0
 40
1.0
 40
1.0
 40
1.0
 40
1.0
 10
360.3255160985844
 20
362.6342233994236
 30
0.0
 10
360.317761553581
 20
362.6093183958695
 30
0.0
 10
360.3058822444627
 20
362.586641315675
 30
0.0
 10
360.2898781712281
 20
362.5661921588409
 30
0.0
  0
SPLINE
  5
17B
330
1F
100
AcDbEntity
  8
1
100
AcDbSpline
210
0.0
220
0.0
230
1.0
 70
     8
 71
     3
 72
     8
 73
     4
 74
     0
 42
0.000000001
 43
0.0000000001
 40
0.0
 40
0.0
 40
0.0
 40
0.0
 40
1.0
 40
1.0
 40
1.0
 40
1.0
 10
360.0244201172295
 20
362.6846420361214
 30
0.0
 10
360.0410130125254
 20
362.7054561190633
 30
0.0
 10
360.0532845212884
 20
362.728629726612
 30
0.0
 10
360.0612346435163
 20
362.7541628587626
 30
0.0
  0
LINE
  5
17C
330
1F
100
AcDbEntity
  8
4
100
AcDbLine
 10
320.174849
 20
366.008075
 30
0.0
 11
363.2391609999999
 21
366.008075
 31
0.0
  0
LINE
  5
17D
330
1F
100
AcDbEntity
  8
SK4
100
AcDbLine
 10
269.174849
 20
366.008075
 30
0.0
 11
325.174849
 21
366.008075
 31
0.0
  0
MTEXT
  5
181
330
1F
100
AcDbEntity
  8
SK6
100
AcDbMText
 10
304.932992
 20
337.534349
 30
0.0
 40
3.5
 41
0.0
 71
     7
 72
     5
  1
\fMonospac821 BT|b0|i0;\W0.8127;12L2R040B20-SZP12
  7
cesky
 73
     2
 44
0.8433729999999998
  0
MTEXT
  5
2FB
330
1F
100
AcDbEntity
  8
2
100
AcDbMText
 10
335.834651
 20
377.747591
 30
0.0
 40
3.5
 41
0.0
 71
     7
 72
     5
  1
\fMonospac821 BT|b0|i0;\W0.7465;10,7
  7
cesky
 73
     2
 44
0.8433729999999998
  0
LINE
  5
2FC
330
1F
100
AcDbEntity
  8
2
100
AcDbLine
 10
362.174849
 20
373.508075
 30
0.0
 11
362.174849
 21
378.873424
 31
0.0
  0
LINE
  5
2FD
330
1F
100
AcDbEntity
  8
2
100
AcDbLine
 10
351.199151
 20
371.648843
 30
0.0
 11
351.199151
 21
378.873424
 31
0.0
  0
LINE
  5
2FE
330
1F
100
AcDbEntity
  8
2
100
AcDbLine
 10
362.174849
 20
377.873424
 30
0.0
 11
335.649151
 21
377.873424
 31
0.0
  0
SOLID
  5
2FF
330
1F
100
AcDbEntity
  8
2
100
AcDbTrace
 10
362.174849
 20
377.873424
 30
0.0
 11
358.674851
 21
377.25628
 31
0.0
 12
358.674846
 22
378.490569
 32
0.0
 13
358.674846
 23
378.490569
 33
0.0
  0
SOLID
  5
300
330
1F
100
AcDbEntity
  8
2
100
AcDbTrace
 10
351.199151
 20
377.873424
 30
0.0
 11
354.699149
 21
378.490569
 31
0.0
 12
354.699153
 22
377.25628
 32
0.0
 13
354.699153
 23
377.25628
 33
0.0
  0
MTEXT
  5
301
330
1F
100
AcDbEntity
  8
2
100
AcDbMText
 10
340.360349
 20
386.269144
 30
0.0
 40
3.5
 41
0.0
 71
     7
 72
     5
  1
\fMonospac821 BT|b0|i0;\W0.6598;40
  7
cesky
 73
     2
 44
0.8433729999999998
  0
LINE
  5
302
330
1F
100
AcDbEntity
  8
2
100
AcDbLine
 10
362.174849
 20
373.508075
 30
0.0
 11
362.174849
 21
387.394977
 31
0.0
  0
LINE
  5
303
330
1F
100
AcDbEntity
  8
2
100
AcDbLine
 10
322.174849
 20
376.008075
 30
0.0
 11
322.174849
 21
387.394977
 31
0.0
  0
LINE
  5
304
330
1F
100
AcDbEntity
  8
2
100
AcDbLine
 10
362.174849
 20
386.394977
 30
0.0
 11
322.174849
 21
386.394977
 31
0.0
  0
SOLID
  5
305
330
1F
100
AcDbEntity
  8
2
100
AcDbTrace
 10
362.174849
 20
386.394977
 30
0.0
 11
358.674851
 21
385.777832
 31
0.0
 12
358.674846
 22
387.012121
 32
0.0
 13
358.674846
 23
387.012121
 33
0.0
  0
SOLID
  5
306
330
1F
100
AcDbEntity
  8
2
100
AcDbTrace
 10
322.174849
 20
386.394977
 30
0.0
 11
325.674846
 21
387.012121
 31
0.0
 12
325.674851
 22
385.777832
 32
0.0
 13
325.674851
 23
385.777832
 33
0.0
  0
MTEXT
  5
307
330
1F
100
AcDbEntity
  8
2
100
AcDbMText
 10
385.389384
 20
364.6846
 30
0.0
 40
3.5
 41
0.0
 71
     7
 72
     5
  1
\fMonospac821 BT|b0|i0;\W0.6598;12
  7
cesky
 11
0.0000000000000001
 21
1.0
 31
0.0
 73
     2
 44
0.8433729999999998
  0
MTEXT
  5
308
330
1F
100
AcDbEntity
  8
2
100
AcDbMText
 10
385.389384
 20
357.9471
 30
0.0
 40
3.5
 41
0.0
 71
     7
 72
     5
  1
\fMonospac821 BT|b0|i0;\W2.1528;\H2.63;%%c\H3.50;
  7
cesky
 11
0.0000000000000001
 21
1.0
 31
0.0
 73
     2
 44
0.8433729999999998
  0
LINE
  5
309
330
1F
100
AcDbEntity
  8
2
100
AcDbLine
 10
363.674849
 20
372.008075
 30
0.0
 11
386.576801
 21
372.008075
 31
0.0
  0
LINE
  5
30A
330
1F
100
AcDbEntity
  8
2
100
AcDbLine
 10
385.576801
 20
380.758075
 30
0.0
 11
385.576801
 21
372.008075
 31
0.0
  0
SOLID
  5
30B
330
1F
100
AcDbEntity
  8
2
100
AcDbTrace
 10
385.576801
 20
372.008075
 30
0.0
 11
384.959656
 21
375.508073
 31
0.0
 12
386.193945
 22
375.508077
 32
0.0
 13
386.193945
 23
375.508077
 33
0.0
  0
MTEXT
  5
30C
330
1F
100
AcDbEntity
  8
SK2
100
AcDbMText
 10
339.8603490000001
 20
395.1457529999999
 30
0.0
 40
3.5
 41
0.0
 71
     7
 72
     5
  1
\fMonospac821 BT|b0|i0;\W0.6598;41
  7
cesky
 73
     2
 44
0.8433729999999998
  0
LINE
  5
30D
330
1F
100
AcDbEntity
  8
SK2
100
AcDbLine
 10
362.174849
 20
373.508075
 30
0.0
 11
362.174849
 21
396.271586
 31
0.0
  0
LINE
  5
30E
330
1F
100
AcDbEntity
  8
SK2
100
AcDbLine
 10
321.174849
 20
366.008075
 30
0.0
 11
321.174849
 21
396.271586
 31
0.0
  0
LINE
  5
30F
330
1F
100
AcDbEntity
  8
SK2
100
AcDbLine
 10
362.174849
 20
395.271586
 30
0.0
 11
321.174849
 21
395.271586
 31
0.0
  0
SOLID
  5
310
330
1F
100
AcDbEntity
  8
SK2
100
AcDbTrace
 10
362.174849
 20
395.271586
 30
0.0
 11
358.674851
 21
394.654442
 31
0.0
 12
358.674846
 22
395.888731
 32
0.0
 13
358.674846
 23
395.888731
 33
0.0
  0
SOLID
  5
311
330
1F
100
AcDbEntity
  8
SK2
100
AcDbTrace
 10
321.174849
 20
395.271586
 30
0.0
 11
324.674846
 21
395.888731
 31
0.0
 12
324.674851
 22
394.654442
 32
0.0
 13
324.674851
 23
394.654442
 33
0.0
  0
MTEXT
  5
312
330
1F
100
AcDbEntity
  8
SK2
100
AcDbMText
 10
314.8603490000001
 20
401.098582
 30
0.0
 40
3.5
 41
0.0
 71
     7
 72
     5
  1
\fMonospac821 BT|b0|i0;\W0.6598;91
  7
cesky
 73
     2
 44
0.8433729999999998
  0
LINE
  5
313
330
1F
100
AcDbEntity
  8
SK2
100
AcDbLine
 10
362.174849
 20
373.508075
 30
0.0
 11
362.174849
 21
402.2244149999999
 31
0.0
  0
LINE
  5
314
330
1F
100
AcDbEntity
  8
SK2
100
AcDbLine
 10
271.174849
 20
374.508075
 30
0.0
 11
271.174849
 21
402.2244149999999
 31
0.0
  0
LINE
  5
315
330
1F
100
AcDbEntity
  8
SK2
100
AcDbLine
 10
362.174849
 20
401.2244149999999
 30
0.0
 11
271.174849
 21
401.2244149999999
 31
0.0
  0
SOLID
  5
316
330
1F
100
AcDbEntity
  8
SK2
100
AcDbTrace
 10
362.174849
 20
401.2244149999999
 30
0.0
 11
358.674851
 21
400.6072709999999
 31
0.0
 12
358.674846
 22
401.8415599999999
 32
0.0
 13
358.674846
 23
401.8415599999999
 33
0.0
  0
SOLID
  5
317
330
1F
100
AcDbEntity
  8
SK2
100
AcDbTrace
 10
271.174849
 20
401.2244149999999
 30
0.0
 11
274.674846
 21
401.8415599999999
 31
0.0
 12
274.674851
 22
400.6072709999999
 32
0.0
 13
274.674851
 23
400.6072709999999
 33
0.0
  0
MTEXT
  5
318
330
1F
100
AcDbEntity
  8
SK2
100
AcDbMText
 10
262.327159
 20
367.534325
 30
0.0
 40
3.5
 41
0.0
 71
     7
 72
     5
  1
\fMonospac821 BT|b0|i0;\W0.6598;20
  7
cesky
 11
0.0000000000000001
 21
1.0
 31
0.0
 73
     2
 44
0.8433729999999998
  0
MTEXT
  5
319
330
1F
100
AcDbEntity
  8
SK2
100
AcDbMText
 10
262.327159
 20
360.796825
 30
0.0
 40
3.5
 41
0.0
 71
     7
 72
     5
  1
\fMonospac821 BT|b0|i0;\W2.1528;\H2.63;%%c\H3.50;
  7
cesky
 11
0.0000000000000001
 21
1.0
 31
0.0
 73
     2
 44
0.8433729999999998
  0
LINE
  5
31A
330
1F
100
AcDbEntity
  8
SK2
100
AcDbLine
 10
272.674849
 20
376.008075
 30
0.0
 11
261.514576
 21
376.008075
 31
0.0
  0
LINE
  5
31B
330
1F
100
AcDbEntity
  8
SK2
100
AcDbLine
 10
272.674849
 20
356.008075
 30
0.0
 11
261.514576
 21
356.008075
 31
0.0
  0
LINE
  5
31C
330
1F
100
AcDbEntity
  8
SK2
100
AcDbLine
 10
262.514576
 20
376.008075
 30
0.0
 11
262.514576
 21
356.008075
 31
0.0
  0
SOLID
  5
31D
330
1F
100
AcDbEntity
  8
SK2
100
AcDbTrace
 10
262.514576
 20
376.008075
 30
0.0
 11
263.13172
 21
372.508077
 31
0.0
 12
261.897432
 22
372.508073
 32
0.0
 13
261.897432
 23
372.508073
 33
0.0
  0
SOLID
  5
31E
330
1F
100
AcDbEntity
  8
SK2
100
AcDbTrace
 10
262.514576
 20
356.008075
 30
0.0
 11
261.897432
 21
359.508073
 31
0.0
 12
263.13172
 22
359.508077
 32
0.0
 13
263.13172
 23
359.508077
 33
0.0
  0
ELLIPSE
  5
31F
330
1F
100
AcDbEntity
  8
CUT
100
AcDbEllipse
 10
356.394542
 20
366.008107
 30
0.0
 11
0.0
 21
5.869454207952762
 31
0.0
210
0.0
220
0.0
230
1.0
 40
0.9848080000000001
 41
4.721028100238136
 42
6.327609181045723
  0
ELLIPSE
  5
320
330
1F
100
AcDbEntity
  8
CUT
100
AcDbEllipse
 10
356.498169
 20
372.244114
 30
0.0
 11
0.0
 21
5.869454207952771
 31
0.0
210
0.0
220
0.0
230
1.0
 40
0.9848079999999999
 41
1.778779265110499
 42
3.028936894776441
  0
LINE
  5
321
330
1F
100
AcDbEntity
  8
CUT
100
AcDbLine
 10
350.8864299999999
 20
371.234332
 30
0.0
 11
350.842453
 21
371.03215
 31
0.0
  0
LINE
  5
322
330
1F
100
AcDbEntity
  8
CUT
100
AcDbLine
 10
356.137843
 20
371.87177
 30
0.0
 11
351.199151
 21
371.648843
 31
0.0
  0
LINE
  5
323
330
1F
100
AcDbEntity
  8
CUT
100
AcDbLine
 10
361.135126
 20
365.804522
 30
0.0
 11
362.17461
 21
366.058813
 31
0.0
  0
LINE
  5
324
330
1F
100
AcDbEntity
  8
CUT
100
AcDbLine
 10
355.848363
 20
366.411866
 30
0.0
 11
361.135126
 21
365.804522
 31
0.0
  0
LINE
  5
325
330
1F
100
AcDbEntity
  8
CUT
100
AcDbLine
 10
351.199151
 20
371.648843
 30
0.0
 11
350.8864299999999
 21
371.234332
 31
0.0
  0
ENDSEC
  0
SECTION
  2
OBJECTS
  0
DICTIONARY
  5
C
330
0
100
AcDbDictionary
281
     1
  3
ACAD_CIP_PREVIOUS_PRODUCT_INFO
350
27E
  3
ACAD_COLOR
350
275
  3
ACAD_DETAILVIEWSTYLE
350
271
  3
ACAD_FIELDLIST
350
2E8
  3
ACAD_GROUP
350
D
  3
ACAD_IMAGE_DICT
350
E8
  3
ACAD_IMAGE_VARS
350
27C
  3
ACAD_LAYOUT
350
1A
  3
ACAD_MATERIAL
350
43
  3
ACAD_MLEADERSTYLE
350
6B
  3
ACAD_MLINESTYLE
350
17
  3
ACAD_PLOTSETTINGS
350
19
  3
ACAD_PLOTSTYLENAME
350
E
  3
ACAD_SCALELIST
350
47
  3
ACAD_SECTIONVIEWSTYLE
350
272
  3
ACAD_TABLESTYLE
350
69
  3
ACAD_VISUALSTYLE
350
2A
  3
ACDB_RECOMPOSE_DATA
350
3B0
  3
AcDbVariableDictionary
350
22E
  3
AcDsDecomposeData
350
3B6
  3
AcmDictionary
350
2AA
  3
AMG
350
290
  3
AMGSNAPSETTINGS
350
2F2
  0
DICTIONARY
  5
3A6
330
2
100
AcDbDictionary
280
     1
281
     1
  3
ACAD_LAYERSTATES
360
3A7
  0
DICTIONARY
  5
389
330
10
100
AcDbDictionary
280
     1
281
     1
  3
ADSK_XREC_LAYER_RECONCILED
360
38A
  0
DICTIONARY
  5
38B
330
76
100
AcDbDictionary
280
     1
281
     1
  3
ADSK_XREC_LAYER_RECONCILED
360
38C
  0
DICTIONARY
  5
38D
330
326
100
AcDbDictionary
280
     1
281
     1
  3
ADSK_XREC_LAYER_RECONCILED
360
38E
  0
DICTIONARY
  5
38F
330
327
100
AcDbDictionary
280
     1
281
     1
  3
ADSK_XREC_LAYER_RECONCILED
360
390
  0
DICTIONARY
  5
391
330
328
100
AcDbDictionary
280
     1
281
     1
  3
ADSK_XREC_LAYER_RECONCILED
360
392
  0
DICTIONARY
  5
393
330
32A
100
AcDbDictionary
280
     1
281
     1
  3
ADSK_XREC_LAYER_RECONCILED
360
394
  0
DICTIONARY
  5
395
330
32B
100
AcDbDictionary
280
     1
281
     1
  3
ADSK_XREC_LAYER_RECONCILED
360
396
  0
DICTIONARY
  5
397
330
32D
100
AcDbDictionary
280
     1
281
     1
  3
ADSK_XREC_LAYER_RECONCILED
360
398
  0
DICTIONARY
  5
399
330
32E
100
AcDbDictionary
280
     1
281
     1
  3
ADSK_XREC_LAYER_RECONCILED
360
39A
  0
DICTIONARY
  5
39B
330
32F
100
AcDbDictionary
280
     1
281
     1
  3
ADSK_XREC_LAYER_RECONCILED
360
39C
  0
DICTIONARY
  5
39D
330
330
100
AcDbDictionary
280
     1
281
     1
  3
ADSK_XREC_LAYER_RECONCILED
360
39E
  0
DICTIONARY
  5
39F
330
331
100
AcDbDictionary
280
     1
281
     1
  3
ADSK_XREC_LAYER_RECONCILED
360
3A0
  0
DICTIONARY
  5
3A1
330
332
100
AcDbDictionary
280
     1
281
     1
  3
ADSK_XREC_LAYER_RECONCILED
360
3A2
  0
DICTIONARY
  5
2F9
330
1F
100
AcDbDictionary
280
     1
281
     1
  3
ACAD_SORTENTS
360
2FA
  0
XRECORD
  5
27E
102
{ACAD_REACTORS
330
C
102
}
330
C
100
AcDbXrecord
280
     1
300
AMECH_PP
300
2019
300

  0
DICTIONARY
  5
275
102
{ACAD_REACTORS
330
C
102
}
330
C
100
AcDbDictionary
281
     1
  0
DICTIONARY
  5
271
102
{ACAD_REACTORS
330
C
102
}
330
C
100
AcDbDictionary
281
     1
  3
Metric50
350
277
  0
FIELDLIST
  5
2E8
102
{ACAD_REACTORS
330
C
102
}
330
C
100
AcDbIdSet
 90
        3
330
2E6
330
2E7
330
2E9
100
AcDbFieldList
  0
DICTIONARY
  5
D
102
{ACAD_REACTORS
330
C
102
}
330
C
100
AcDbDictionary
281
     1
  3
NULOVY_BOD
350
333
  0
DICTIONARY
  5
E8
102
{ACAD_REACTORS
330
C
102
}
330
C
100
AcDbDictionary
281
     1
  3
12L2R040B20-SZP12_115009068ndi000_00-2D_DormerPramet_jpg
350
E9
  0
RASTERVARIABLES
  5
27C
102
{ACAD_REACTORS
330
C
102
}
330
C
100
AcDbRasterVariables
 90
        0
 70
     1
 71
     1
 72
     1
  0
DICTIONARY
  5
1A
102
{ACAD_REACTORS
330
C
102
}
330
C
100
AcDbDictionary
281
     1
  3
Layout1
350
1E
  3
Layout2
350
26
  3
Model
350
22
  0
DICTIONARY
  5
43
102
{ACAD_REACTORS
330
C
102
}
330
C
100
AcDbDictionary
281
     1
  3
ByBlock
350
45
  3
ByLayer
350
44
  3
Global
350
46
  0
DICTIONARY
  5
6B
102
{ACAD_REACTORS
330
C
102
}
330
C
100
AcDbDictionary
281
     1
  3
Standard
350
6C
  0
DICTIONARY
  5
17
102
{ACAD_REACTORS
330
C
102
}
330
C
100
AcDbDictionary
281
     1
  3
Standard
350
18
  0
DICTIONARY
  5
19
102
{ACAD_REACTORS
330
C
102
}
330
C
100
AcDbDictionary
281
     1
  0
ACDBDICTIONARYWDFLT
  5
E
102
{ACAD_REACTORS
330
C
102
}
330
C
100
AcDbDictionary
281
     1
  3
Normal
350
F
100
AcDbDictionaryWithDefault
340
F
  0
DICTIONARY
  5
47
102
{ACAD_REACTORS
330
C
102
}
330
C
100
AcDbDictionary
281
     1
  3
A0
350
48
  3
A1
350
49
  3
A2
350
4A
  3
A3
350
4B
  3
A4
350
4C
  3
A5
350
4D
  3
A6
350
4E
  3
A7
350
4F
  3
A8
350
50
  3
A9
350
51
  3
B0
350
52
  3
B1
350
53
  3
B2
350
54
  3
B3
350
55
  3
B4
350
56
  3
B5
350
57
  3
B6
350
58
  3
B7
350
59
  3
B8
350
5A
  3
B9
350
5B
  3
C0
350
5C
  3
C1
350
5D
  3
C2
350
5E
  3
C3
350
5F
  3
C4
350
60
  3
C5
350
61
  3
C6
350
62
  3
C7
350
63
  3
C8
350
64
  3
C9
350
65
  3
D0
350
66
  3
D1
350
67
  3
D2
350
68
  0
DICTIONARY
  5
272
102
{ACAD_REACTORS
330
C
102
}
330
C
100
AcDbDictionary
281
     1
  3
Metric50
350
276
  0
DICTIONARY
  5
69
102
{ACAD_REACTORS
330
C
102
}
330
C
100
AcDbDictionary
281
     1
  3
Standard
350
6A
  0
DICTIONARY
  5
2A
102
{ACAD_REACTORS
330
C
102
}
330
C
100
AcDbDictionary
281
     1
  3
2dWireframe
350
2F
  3
Basic
350
32
  3
Brighten
350
36
  3
ColorChange
350
3A
  3
Conceptual
350
34
  3
Dim
350
35
  3
EdgeColorOff
350
3D
  3
Facepattern
350
39
  3
Flat
350
2B
  3
FlatWithEdges
350
2C
  3
Gouraud
350
2D
  3
GouraudWithEdges
350
2E
  3
Hidden
350
31
  3
JitterOff
350
3B
  3
Linepattern
350
38
  3
OverhangOff
350
3C
  3
Realistic
350
33
  3
Shaded
350
42
  3
Shaded with edges
350
41
  3
Shades of Gray
350
3E
  3
Sketchy
350
3F
  3
Thicken
350
37
  3
Wireframe
350
30
  3
X-Ray
350
40
  0
XRECORD
  5
3B0
102
{ACAD_REACTORS
330
C
102
}
330
C
100
AcDbXrecord
280
     1
 90
        1
330
6A
  0
DICTIONARY
  5
22E
102
{ACAD_REACTORS
330
C
102
}
330
C
100
AcDbDictionary
281
     1
  3
CANNOSCALE
350
22F
  3
CMLEADERSTYLE
350
270
  3
CTABLESTYLE
350
26F
  3
CVIEWDETAILSTYLE
350
3AC
  3
CVIEWSECTIONSTYLE
350
3AD
  3
MSLTSCALE
350
230
  3
XCLIPFRAME
350
3AE
  0
DICTIONARY
  5
3B6
102
{ACAD_REACTORS
330
C
102
}
330
C
100
AcDbDictionary
281
     1
  3
AcDsRecords
350
3B8
  3
AcDsSchemas
350
3B7
1001
ACAD
1070
     2
  0
DICTIONARY
  5
2AA
102
{ACAD_REACTORS
330
C
102
}
330
C
100
AcDbDictionary
281
     1
  3
AcmStdDictionary
350
2B1
  0
DICTIONARY
  5
290
102
{ACAD_REACTORS
330
C
102
}
330
C
100
AcDbDictionary
281
     1
  0
DICTIONARY
  5
2F2
102
{ACAD_REACTORS
330
C
102
}
330
C
100
AcDbDictionary
281
     1
  0
DICTIONARY
  5
3A7
102
{ACAD_REACTORS
330
3A6
102
}
330
3A6
100
AcDbDictionary
281
     1
  0
XRECORD
  5
38A
102
{ACAD_REACTORS
330
389
102
}
330
389
100
AcDbXrecord
280
     1
290
     1
  0
XRECORD
  5
38C
102
{ACAD_REACTORS
330
38B
102
}
330
38B
100
AcDbXrecord
280
     1
290
     1
  0
XRECORD
  5
38E
102
{ACAD_REACTORS
330
38D
102
}
330
38D
100
AcDbXrecord
280
     1
290
     1
  0
XRECORD
  5
390
102
{ACAD_REACTORS
330
38F
102
}
330
38F
100
AcDbXrecord
280
     1
290
     1
  0
XRECORD
  5
392
102
{ACAD_REACTORS
330
391
102
}
330
391
100
AcDbXrecord
280
     1
290
     1
  0
XRECORD
  5
394
102
{ACAD_REACTORS
330
393
102
}
330
393
100
AcDbXrecord
280
     1
290
     1
  0
XRECORD
  5
396
102
{ACAD_REACTORS
330
395
102
}
330
395
100
AcDbXrecord
280
     1
290
     1
  0
XRECORD
  5
398
102
{ACAD_REACTORS
330
397
102
}
330
397
100
AcDbXrecord
280
     1
290
     1
  0
XRECORD
  5
39A
102
{ACAD_REACTORS
330
399
102
}
330
399
100
AcDbXrecord
280
     1
290
     1
  0
XRECORD
  5
39C
102
{ACAD_REACTORS
330
39B
102
}
330
39B
100
AcDbXrecord
280
     1
290
     1
  0
XRECORD
  5
39E
102
{ACAD_REACTORS
330
39D
102
}
330
39D
100
AcDbXrecord
280
     1
290
     1
  0
XRECORD
  5
3A0
102
{ACAD_REACTORS
330
39F
102
}
330
39F
100
AcDbXrecord
280
     1
290
     1
  0
XRECORD
  5
3A2
102
{ACAD_REACTORS
330
3A1
102
}
330
3A1
100
AcDbXrecord
280
     1
290
     1
  0
SORTENTSTABLE
  5
2FA
102
{ACAD_REACTORS
330
2F9
102
}
330
2F9
100
AcDbSortentsTable
330
1F
331
2FB
  5
300
331
2FC
  5
301
331
2FD
  5
302
331
2FE
  5
303
331
2FF
  5
304
331
300
  5
305
331
301
  5
30D
331
302
  5
30E
331
303
  5
30F
331
304
  5
310
331
305
  5
311
331
306
  5
312
331
307
  5
313
331
308
  5
314
331
309
  5
315
331
30A
  5
316
331
30B
  5
317
331
30C
  5
1BB
331
30D
  5
201
331
30E
  5
2FB
331
30F
  5
2FC
331
310
  5
2FD
331
311
  5
2FE
331
312
  5
306
331
313
  5
307
331
314
  5
308
331
315
  5
309
331
316
  5
30A
331
317
  5
30C
  0
ACDBDETAILVIEWSTYLE
  5
277
102
{ACAD_XDICTIONARY
360
3EC
102
}
102
{ACAD_REACTORS
330
271
330
2DC
102
}
330
271
100
AcDbModelDocViewStyle
 70
     0
  3
Metric50
290
     0
100
AcDbDetailViewStyle
 70
     0
 71
     0
 90
        3
 71
     1
340
11
 62
   256
 40
5.0
340
0
 62
   256
 40
5.0
300

 40
0.0
280
     1
 71
     2
340
16
 90
       25
 62
   256
 71
     3
340
11
 62
   256
 40
5.0
 90
        0
 40
15.0
 90
        1
300
%<\AcVar ViewDetailId>% (%<\AcVar ViewScale \f "%sn">%)
 71
     4
340
16
 90
       25
 62
   256
340
16
 90
       25
 62
   256
280
     0
  0
GROUP
  5
333
102
{ACAD_REACTORS
330
D
102
}
330
D
100
AcDbGroup
300

 70
     0
 71
     1
340
73
  0
IMAGEDEF
  5
E9
102
{ACAD_REACTORS
330
E8
330
EC
102
}
330
E8
100
AcDbRasterImageDef
 90
        0
  1
R:\Katalog\Data\ZP\12L2R040B20-SZP12\12L2R040B20-SZP12_115009068ndi000_00-2D_DormerPramet.jpg
 10
2089.0
 20
531.0
 11
0.0004786979415989
 21
0.0004786979415989
280
     1
281
     0
  0
LAYOUT
  5
1E
102
{ACAD_REACTORS
330
1A
102
}
330
1A
100
AcDbPlotSettings
  1

  2
none_device
  4

  6

 40
0.0
 41
0.0
 42
0.0
 43
0.0
 44
0.0
 45
0.0
 46
0.0
 47
0.0
 48
0.0
 49
0.0
140
0.0
141
0.0
142
1.0
143
1.0
 70
   688
 72
     0
 73
     0
 74
     5
  7

 75
    16
147
1.0
 76
     0
 77
     2
 78
   300
148
0.0
149
0.0
100
AcDbLayout
  1
Layout1
 70
     1
 71
     1
 10
-0.5
 20
-0.5
 11
5.0
 21
5.0
 12
0.0
 22
0.0
 32
0.0
 14
-0.5
 24
-0.5
 34
-0.5
 15
5.0
 25
5.0
 35
5.0
146
0.0
 13
0.0
 23
0.0
 33
0.0
 16
1.0
 26
0.0
 36
0.0
 17
0.0
 27
1.0
 37
0.0
 76
     0
330
1B
  0
LAYOUT
  5
26
102
{ACAD_REACTORS
330
1A
102
}
330
1A
100
AcDbPlotSettings
  1

  2
none_device
  4

  6

 40
0.0
 41
0.0
 42
0.0
 43
0.0
 44
0.0
 45
0.0
 46
0.0
 47
0.0
 48
0.0
 49
0.0
140
0.0
141
0.0
142
1.0
143
1.0
 70
   688
 72
     0
 73
     0
 74
     5
  7

 75
    16
147
1.0
 76
     0
 77
     2
 78
   300
148
0.0
149
0.0
100
AcDbLayout
  1
Layout2
 70
     1
 71
     2
 10
0.0
 20
0.0
 11
0.0
 21
0.0
 12
0.0
 22
0.0
 32
0.0
 14
0.0
 24
0.0
 34
0.0
 15
0.0
 25
0.0
 35
0.0
146
0.0
 13
0.0
 23
0.0
 33
0.0
 16
1.0
 26
0.0
 36
0.0
 17
0.0
 27
1.0
 37
0.0
 76
     0
330
23
  0
LAYOUT
  5
22
102
{ACAD_REACTORS
330
1A
102
}
330
1A
100
AcDbPlotSettings
  1

  2
none_device
  4
Letter_(8.50_x_11.00_Inches)
  6

 40
6.349999999999999
 41
6.349999999999999
 42
6.350005
 43
6.350005
 44
215.9
 45
279.4
 46
0.0
 47
0.0
 48
0.0
 49
0.0
140
0.0
141
0.0
142
1.0
143
1.0
 70
  1712
 72
     0
 73
     0
 74
     0
  7

 75
     0
147
1.0
 76
     0
 77
     2
 78
   300
148
0.0
149
0.0
100
AcDbLayout
  1
Model
 70
     1
 71
     0
 10
-0.5
 20
-0.5
 11
5.0
 21
5.0
 12
0.0
 22
0.0
 32
0.0
 14
-0.5
 24
-0.5
 34
-0.5
 15
5.0
 25
5.0
 35
5.0
146
0.0
 13
0.0
 23
0.0
 33
0.0
 16
1.0
 26
0.0
 36
0.0
 17
0.0
 27
1.0
 37
0.0
 76
     0
330
1F
331
29
  0
MATERIAL
  5
45
102
{ACAD_XDICTIONARY
360
264
102
}
102
{ACAD_REACTORS
330
43
102
}
330
43
100
AcDbMaterial
  1
ByBlock
  0
MATERIAL
  5
44
102
{ACAD_XDICTIONARY
360
262
102
}
102
{ACAD_REACTORS
330
43
102
}
330
43
100
AcDbMaterial
  1
ByLayer
  0
MATERIAL
  5
46
102
{ACAD_XDICTIONARY
360
266
102
}
102
{ACAD_REACTORS
330
43
102
}
330
43
100
AcDbMaterial
  1
Global
  0
MLEADERSTYLE
  5
6C
102
{ACAD_REACTORS
330
6B
102
}
330
6B
100
AcDbMLeaderStyle
170
     2
171
     1
172
     0
 90
        2
 40
0.0
 41
0.0
173
     1
 91
-1056964608
340
14
 92
       -2
290
     1
 42
0.09
291
     1
 43
0.36
  3
Standard
 44
0.18
300

342
11
174
     1
178
     6
175
     1
176
     0
 93
-1056964608
 45
0.18
292
     0
297
     0
 46
0.18
 94
-1056964608
 47
1.0
 49
1.0
140
1.0
293
     1
141
0.0
294
     1
177
     0
142
1.0
295
     0
296
     0
143
0.125
1001
ACAD_MLEADERVER
1070
     2
  0
MLINESTYLE
  5
18
102
{ACAD_REACTORS
330
17
102
}
330
17
100
AcDbMlineStyle
  2
STANDARD
 70
     0
  3

 62
   256
 51
90.0
 52
90.0
 71
     2
 49
0.5
 62
   256
  6
BYLAYER
 49
-0.5
 62
   256
  6
BYLAYER
  0
ACDBPLACEHOLDER
  5
F
102
{ACAD_REACTORS
330
E
102
}
330
E
  0
SCALE
  5
48
102
{ACAD_REACTORS
330
47
102
}
330
47
100
AcDbScale
 70
     0
300
1:1
140
1.0
141
1.0
290
     1
  0
SCALE
  5
49
102
{ACAD_REACTORS
330
47
102
}
330
47
100
AcDbScale
 70
     0
300
1:2
140
1.0
141
2.0
290
     0
  0
SCALE
  5
4A
102
{ACAD_REACTORS
330
47
102
}
330
47
100
AcDbScale
 70
     0
300
1:4
140
1.0
141
4.0
290
     0
  0
SCALE
  5
4B
102
{ACAD_REACTORS
330
47
102
}
330
47
100
AcDbScale
 70
     0
300
1:5
140
1.0
141
5.0
290
     0
  0
SCALE
  5
4C
102
{ACAD_REACTORS
330
47
102
}
330
47
100
AcDbScale
 70
     0
300
1:8
140
1.0
141
8.0
290
     0
  0
SCALE
  5
4D
102
{ACAD_REACTORS
330
47
102
}
330
47
100
AcDbScale
 70
     0
300
1:10
140
1.0
141
10.0
290
     0
  0
SCALE
  5
4E
102
{ACAD_REACTORS
330
47
102
}
330
47
100
AcDbScale
 70
     0
300
1:16
140
1.0
141
16.0
290
     0
  0
SCALE
  5
4F
102
{ACAD_REACTORS
330
47
102
}
330
47
100
AcDbScale
 70
     0
300
1:20
140
1.0
141
20.0
290
     0
  0
SCALE
  5
50
102
{ACAD_REACTORS
330
47
102
}
330
47
100
AcDbScale
 70
     0
300
1:30
140
1.0
141
30.0
290
     0
  0
SCALE
  5
51
102
{ACAD_REACTORS
330
47
102
}
330
47
100
AcDbScale
 70
     0
300
1:40
140
1.0
141
40.0
290
     0
  0
SCALE
  5
52
102
{ACAD_REACTORS
330
47
102
}
330
47
100
AcDbScale
 70
     0
300
1:50
140
1.0
141
50.0
290
     0
  0
SCALE
  5
53
102
{ACAD_REACTORS
330
47
102
}
330
47
100
AcDbScale
 70
     0
300
1:100
140
1.0
141
100.0
290
     0
  0
SCALE
  5
54
102
{ACAD_REACTORS
330
47
102
}
330
47
100
AcDbScale
 70
     0
300
2:1
140
2.0
141
1.0
290
     0
  0
SCALE
  5
55
102
{ACAD_REACTORS
330
47
102
}
330
47
100
AcDbScale
 70
     0
300
4:1
140
4.0
141
1.0
290
     0
  0
SCALE
  5
56
102
{ACAD_REACTORS
330
47
102
}
330
47
100
AcDbScale
 70
     0
300
8:1
140
8.0
141
1.0
290
     0
  0
SCALE
  5
57
102
{ACAD_REACTORS
330
47
102
}
330
47
100
AcDbScale
 70
     0
300
10:1
140
10.0
141
1.0
290
     0
  0
SCALE
  5
58
102
{ACAD_REACTORS
330
47
102
}
330
47
100
AcDbScale
 70
     0
300
100:1
140
100.0
141
1.0
290
     0
  0
SCALE
  5
59
102
{ACAD_REACTORS
330
47
102
}
330
47
100
AcDbScale
 70
     0
300
1/128" = 1'-0"
140
0.007812
141
12.0
290
     0
  0
SCALE
  5
5A
102
{ACAD_REACTORS
330
47
102
}
330
47
100
AcDbScale
 70
     0
300
1/64" = 1'-0"
140
0.015625
141
12.0
290
     0
  0
SCALE
  5
5B
102
{ACAD_REACTORS
330
47
102
}
330
47
100
AcDbScale
 70
     0
300
1/32" = 1'-0"
140
0.03125
141
12.0
290
     0
  0
SCALE
  5
5C
102
{ACAD_REACTORS
330
47
102
}
330
47
100
AcDbScale
 70
     0
300
1/16" = 1'-0"
140
0.0625
141
12.0
290
     0
  0
SCALE
  5
5D
102
{ACAD_REACTORS
330
47
102
}
330
47
100
AcDbScale
 70
     0
300
3/32" = 1'-0"
140
0.09375
141
12.0
290
     0
  0
SCALE
  5
5E
102
{ACAD_REACTORS
330
47
102
}
330
47
100
AcDbScale
 70
     0
300
1/8" = 1'-0"
140
0.125
141
12.0
290
     0
  0
SCALE
  5
5F
102
{ACAD_REACTORS
330
47
102
}
330
47
100
AcDbScale
 70
     0
300
3/16" = 1'-0"
140
0.1875
141
12.0
290
     0
  0
SCALE
  5
60
102
{ACAD_REACTORS
330
47
102
}
330
47
100
AcDbScale
 70
     0
300
1/4" = 1'-0"
140
0.25
141
12.0
290
     0
  0
SCALE
  5
61
102
{ACAD_REACTORS
330
47
102
}
330
47
100
AcDbScale
 70
     0
300
3/8" = 1'-0"
140
0.375
141
12.0
290
     0
  0
SCALE
  5
62
102
{ACAD_REACTORS
330
47
102
}
330
47
100
AcDbScale
 70
     0
300
1/2" = 1'-0"
140
0.5
141
12.0
290
     0
  0
SCALE
  5
63
102
{ACAD_REACTORS
330
47
102
}
330
47
100
AcDbScale
 70
     0
300
3/4" = 1'-0"
140
0.75
141
12.0
290
     0
  0
SCALE
  5
64
102
{ACAD_REACTORS
330
47
102
}
330
47
100
AcDbScale
 70
     0
300
1" = 1'-0"
140
1.0
141
12.0
290
     0
  0
SCALE
  5
65
102
{ACAD_REACTORS
330
47
102
}
330
47
100
AcDbScale
 70
     0
300
1-1/2" = 1'-0"
140
1.5
141
12.0
290
     0
  0
SCALE
  5
66
102
{ACAD_REACTORS
330
47
102
}
330
47
100
AcDbScale
 70
     0
300
3" = 1'-0"
140
3.0
141
12.0
290
     0
  0
SCALE
  5
67
102
{ACAD_REACTORS
330
47
102
}
330
47
100
AcDbScale
 70
     0
300
6" = 1'-0"
140
6.0
141
12.0
290
     0
  0
SCALE
  5
68
102
{ACAD_REACTORS
330
47
102
}
330
47
100
AcDbScale
 70
     0
300
1'-0" = 1'-0"
140
12.0
141
12.0
290
     0
  0
ACDBSECTIONVIEWSTYLE
  5
276
102
{ACAD_XDICTIONARY
360
3EA
102
}
102
{ACAD_REACTORS
330
272
330
2DB
102
}
330
272
100
AcDbModelDocViewStyle
 70
     0
  3
Metric50
290
     0
100
AcDbSectionViewStyle
 70
     0
 71
     0
 90
      102
 71
     1
340
11
 62
   256
 40
5.0
340
0
340
0
 62
   256
 40
5.0
300
I, O, Q, S, X, Z
 40
10.0
 90
        0
 40
2.5
 90
        0
 71
     2
340
16
 90
       25
 62
   256
340
16
 90
       50
 62
   256
 40
5.0
 40
2.5
 40
5.0
 71
     3
340
11
 62
   256
 40
5.0
 90
        0
 40
15.0
 90
        1
300
%<\AcVar ViewSectionStartId>%-%<\AcVar ViewSectionEndId>% (%<\AcVar ViewScale \f "%sn">%)
 71
     4
 62
   256
 62
   257
300
ANSI31
 40
1.0
 90
        0
290
     0
290
     0
 90
        6
 40
0.0
 40
1.570796326794896
 40
0.2617993877991494
 40
1.308996938995747
 40
-0.2617993877991494
 40
1.832595714594046
  0
TABLESTYLE
  5
6A
102
{ACAD_XDICTIONARY
360
268
102
}
102
{ACAD_REACTORS
330
69
102
}
330
69
100
AcDbTableStyle
  3
Standard
 70
     0
 71
     0
 40
0.06
 41
0.06
280
     0
281
     0
  7
Standard
140
0.18
170
     2
 62
     0
 63
     7
283
     0
274
    -2
284
     1
 64
     0
275
    -2
285
     1
 65
     0
276
    -2
286
     1
 66
     0
277
    -2
287
     1
 67
     0
278
    -2
288
     1
 68
     0
279
    -2
289
     1
 69
     0
  7
Standard
140
0.25
170
     5
 62
     0
 63
     7
283
     0
274
    -2
284
     1
 64
     0
275
    -2
285
     1
 65
     0
276
    -2
286
     1
 66
     0
277
    -2
287
     1
 67
     0
278
    -2
288
     1
 68
     0
279
    -2
289
     1
 69
     0
  7
Standard
140
0.18
170
     5
 62
     0
 63
     7
283
     0
274
    -2
284
     1
 64
     0
275
    -2
285
     1
 65
     0
276
    -2
286
     1
 66
     0
277
    -2
287
     1
 67
     0
278
    -2
288
     1
 68
     0
279
    -2
289
     1
 69
     0
  0
VISUALSTYLE
  5
2F
102
{ACAD_XDICTIONARY
360
3C1
102
}
102
{ACAD_REACTORS
330
2A
102
}
330
2A
100
AcDbVisualStyle
  2

 70
     4
 71
     0
 72
     2
 73
     0
 90
        0
 40
-0.6
 41
-30.0
 62
     5
 63
     7
421
 16777215
 74
     1
 91
        4
 64
     7
 65
   257
 75
     1
175
     1
 42
1.0
 92
        0
 66
   257
 43
1.0
 76
     1
 77
     6
 78
     2
 67
     7
 79
     5
170
     0
171
     0
290
     0
174
     0
 93
        1
 44
0.0
173
     0
291
     0
 45
0.0
1001
ACAD
1000
AcDbSavedByObjectVersion
1070
     0
  0
VISUALSTYLE
  5
32
102
{ACAD_XDICTIONARY
360
3C7
102
}
102
{ACAD_REACTORS
330
2A
102
}
330
2A
100
AcDbVisualStyle
  2

 70
     7
 71
     1
 72
     0
 73
     1
 90
        0
 40
-0.6
 41
-30.0
 62
     5
 63
     7
421
 16777215
 74
     0
 91
        4
 64
     7
 65
   257
 75
     1
175
     1
 42
1.0
 92
        8
 66
     7
 43
1.0
 76
     1
 77
     6
 78
     2
 67
     7
 79
     5
170
     0
171
     0
290
     0
174
     0
 93
        1
 44
0.0
173
     0
291
     1
 45
0.0
1001
ACAD
1000
AcDbSavedByObjectVersion
1070
     0
  0
VISUALSTYLE
  5
36
102
{ACAD_XDICTIONARY
360
3CF
102
}
102
{ACAD_REACTORS
330
2A
102
}
330
2A
100
AcDbVisualStyle
  2

 70
    12
 71
     2
 72
     2
 73
     0
 90
        0
 40
-0.6
 41
-30.0
 62
     5
 63
     7
421
 16777215
 74
     1
 91
        4
 64
     7
 65
   257
 75
     1
175
     1
 42
1.0
 92
        8
 66
     7
 43
1.0
 76
     1
 77
     6
 78
     2
 67
     7
 79
     5
170
     0
171
     0
290
     0
174
     0
 93
        1
 44
50.0
173
     0
291
     1
 45
0.0
1001
ACAD
1000
AcDbSavedByObjectVersion
1070
     0
  0
VISUALSTYLE
  5
3A
102
{ACAD_XDICTIONARY
360
3D7
102
}
102
{ACAD_REACTORS
330
2A
102
}
330
2A
100
AcDbVisualStyle
  2

 70
    16
 71
     2
 72
     2
 73
     3
 90
        0
 40
-0.6
 41
-30.0
 62
     5
 63
     8
421
  8421504
 74
     1
 91
        4
 64
     7
 65
   257
 75
     1
175
     1
 42
1.0
 92
        8
 66
     8
424
  8421504
 43
1.0
 76
     1
 77
     6
 78
     2
 67
     7
 79
     5
170
     0
171
     0
290
     0
174
     0
 93
        1
 44
0.0
173
     0
291
     1
 45
0.0
1001
ACAD
1000
AcDbSavedByObjectVersion
1070
     0
  0
VISUALSTYLE
  5
34
102
{ACAD_XDICTIONARY
360
3CB
102
}
102
{ACAD_REACTORS
330
2A
102
}
330
2A
100
AcDbVisualStyle
  2

 70
     9
 71
     3
 72
     2
 73
     0
 90
        0
 40
-0.6
 41
-30.0
 62
     5
 63
     7
421
 16777215
 74
     2
 91
        2
 64
     7
 65
   257
 75
     1
175
     1
 42
179.0
 92
        8
 66
     7
 43
1.0
 76
     1
 77
     6
 78
     2
 67
     7
 79
     3
170
     0
171
     0
290
     0
174
     0
 93
        1
 44
0.0
173
     0
291
     0
 45
0.0
1001
ACAD
1000
AcDbSavedByObjectVersion
1070
     0
  0
VISUALSTYLE
  5
35
102
{ACAD_XDICTIONARY
360
3CD
102
}
102
{ACAD_REACTORS
330
2A
102
}
330
2A
100
AcDbVisualStyle
  2

 70
    11
 71
     2
 72
     2
 73
     0
 90
        0
 40
-0.6
 41
-30.0
 62
     5
 63
     7
421
 16777215
 74
     1
 91
        4
 64
     7
 65
   257
 75
     1
175
     1
 42
1.0
 92
        8
 66
     7
 43
1.0
 76
     1
 77
     6
 78
     2
 67
     7
 79
     5
170
     0
171
     0
290
     0
174
     0
 93
        1
 44
-50.0
173
     0
291
     1
 45
0.0
1001
ACAD
1000
AcDbSavedByObjectVersion
1070
     0
  0
VISUALSTYLE
  5
3D
102
{ACAD_XDICTIONARY
360
3DD
102
}
102
{ACAD_REACTORS
330
2A
102
}
330
2A
100
AcDbVisualStyle
  2

 70
    22
 71
     2
 72
     2
 73
     0
 90
        0
 40
-0.6
 41
-30.0
 62
     5
 63
     7
421
 16777215
 74
     1
 91
        4
 64
     7
 65
   257
 75
     1
175
     1
 42
1.0
 92
        8
 66
     7
 43
1.0
 76
     1
 77
     6
 78
     2
 67
     7
 79
     5
170
     0
171
     0
290
     0
174
     0
 93
        1
 44
0.0
173
     0
291
     1
 45
0.0
1001
ACAD
1000
AcDbSavedByObjectVersion
1070
     0
  0
VISUALSTYLE
  5
39
102
{ACAD_XDICTIONARY
360
3D5
102
}
102
{ACAD_REACTORS
330
2A
102
}
330
2A
100
AcDbVisualStyle
  2

 70
    15
 71
     2
 72
     2
 73
     0
 90
        0
 40
-0.6
 41
-30.0
 62
     5
 63
     7
421
 16777215
 74
     1
 91
        4
 64
     7
 65
   257
 75
     1
175
     1
 42
1.0
 92
        8
 66
     7
 43
1.0
 76
     1
 77
     6
 78
     2
 67
     7
 79
     5
170
     0
171
     0
290
     0
174
     0
 93
        1
 44
0.0
173
     0
291
     1
 45
0.0
1001
ACAD
1000
AcDbSavedByObjectVersion
1070
     0
  0
VISUALSTYLE
  5
2B
102
{ACAD_XDICTIONARY
360
3B9
102
}
102
{ACAD_REACTORS
330
2A
102
}
330
2A
100
AcDbVisualStyle
  2

 70
     0
 71
     2
 72
     1
 73
     1
 90
        2
 40
-0.6
 41
30.0
 62
     5
 63
     7
421
 16777215
 74
     0
 91
        0
 64
     7
 65
   257
 75
     1
175
     1
 42
1.0
 92
        8
 66
     7
 43
1.0
 76
     1
 77
     6
 78
     2
 67
     7
 79
     5
170
     0
171
     0
290
     0
174
     0
 93
       13
 44
0.0
173
     0
291
     1
 45
0.0
1001
ACAD
1000
AcDbSavedByObjectVersion
1070
     0
  0
VISUALSTYLE
  5
2C
102
{ACAD_XDICTIONARY
360
3BB
102
}
102
{ACAD_REACTORS
330
2A
102
}
330
2A
100
AcDbVisualStyle
  2

 70
     1
 71
     2
 72
     1
 73
     1
 90
        2
 40
-0.6
 41
30.0
 62
     5
 63
     7
421
 16777215
 74
     1
 91
        0
 64
     7
 65
   257
 75
     1
175
     1
 42
1.0
 92
        0
 66
   257
 43
1.0
 76
     1
 77
     6
 78
     2
 67
     7
 79
     5
170
     0
171
     0
290
     0
174
     0
 93
       13
 44
0.0
173
     0
291
     1
 45
0.0
1001
ACAD
1000
AcDbSavedByObjectVersion
1070
     0
  0
VISUALSTYLE
  5
2D
102
{ACAD_XDICTIONARY
360
3BD
102
}
102
{ACAD_REACTORS
330
2A
102
}
330
2A
100
AcDbVisualStyle
  2

 70
     2
 71
     2
 72
     2
 73
     1
 90
        2
 40
-0.6
 41
30.0
 62
     5
 63
     7
421
 16777215
 74
     0
 91
        0
 64
     7
 65
   257
 75
     1
175
     1
 42
1.0
 92
        0
 66
     7
 43
1.0
 76
     1
 77
     6
 78
     2
 67
     7
 79
     5
170
     0
171
     0
290
     0
174
     0
 93
       13
 44
0.0
173
     0
291
     1
 45
0.0
1001
ACAD
1000
AcDbSavedByObjectVersion
1070
     0
  0
VISUALSTYLE
  5
2E
102
{ACAD_XDICTIONARY
360
3BF
102
}
102
{ACAD_REACTORS
330
2A
102
}
330
2A
100
AcDbVisualStyle
  2

 70
     3
 71
     2
 72
     2
 73
     1
 90
        2
 40
-0.6
 41
30.0
 62
     5
 63
     7
421
 16777215
 74
     1
 91
        0
 64
     7
 65
   257
 75
     1
175
     1
 42
1.0
 92
        0
 66
   257
 43
1.0
 76
     1
 77
     6
 78
     2
 67
     7
 79
     5
170
     0
171
     0
290
     0
174
     0
 93
       13
 44
0.0
173
     0
291
     1
 45
0.0
1001
ACAD
1000
AcDbSavedByObjectVersion
1070
     0
  0
VISUALSTYLE
  5
31
102
{ACAD_XDICTIONARY
360
3C5
102
}
102
{ACAD_REACTORS
330
2A
102
}
330
2A
100
AcDbVisualStyle
  2

 70
     6
 71
     1
 72
     2
 73
     2
 90
        0
 40
-0.6
 41
-30.0
 62
     5
 63
     7
421
 16777215
 74
     2
 91
        2
 64
     7
 65
   257
 75
     2
175
     1
 42
40.0
 92
        0
 66
   257
 43
1.0
 76
     1
 77
     6
 78
     2
 67
     7
 79
     3
170
     0
171
     0
290
     0
174
     0
 93
        1
 44
0.0
173
     0
291
     0
 45
0.0
1001
ACAD
1000
AcDbSavedByObjectVersion
1070
     0
  0
VISUALSTYLE
  5
3B
102
{ACAD_XDICTIONARY
360
3D9
102
}
102
{ACAD_REACTORS
330
2A
102
}
330
2A
100
AcDbVisualStyle
  2

 70
    20
 71
     2
 72
     2
 73
     0
 90
        0
 40
-0.6
 41
-30.0
 62
     5
 63
     7
421
 16777215
 74
     1
 91
        4
 64
     7
 65
   257
 75
     1
175
     1
 42
1.0
 92
       10
 66
     7
 43
1.0
 76
     1
 77
     6
 78
     2
 67
     7
 79
     5
170
     0
171
     0
290
     0
174
     0
 93
        1
 44
0.0
173
     0
291
     1
 45
0.0
1001
ACAD
1000
AcDbSavedByObjectVersion
1070
     0
  0
VISUALSTYLE
  5
38
102
{ACAD_XDICTIONARY
360
3D3
102
}
102
{ACAD_REACTORS
330
2A
102
}
330
2A
100
AcDbVisualStyle
  2

 70
    14
 71
     2
 72
     2
 73
     0
 90
        0
 40
-0.6
 41
-30.0
 62
     5
 63
     7
421
 16777215
 74
     1
 91
        4
 64
     7
 65
   257
 75
     7
175
     7
 42
1.0
 92
        8
 66
     7
 43
1.0
 76
     1
 77
     6
 78
     2
 67
     7
 79
     5
170
     0
171
     0
290
     0
174
     0
 93
        1
 44
0.0
173
     0
291
     1
 45
0.0
1001
ACAD
1000
AcDbSavedByObjectVersion
1070
     0
  0
VISUALSTYLE
  5
3C
102
{ACAD_XDICTIONARY
360
3DB
102
}
102
{ACAD_REACTORS
330
2A
102
}
330
2A
100
AcDbVisualStyle
  2

 70
    21
 71
     2
 72
     2
 73
     0
 90
        0
 40
-0.6
 41
-30.0
 62
     5
 63
     7
421
 16777215
 74
     1
 91
        4
 64
     7
 65
   257
 75
     1
175
     1
 42
1.0
 92
        9
 66
     7
 43
1.0
 76
     1
 77
     6
 78
     2
 67
     7
 79
     5
170
     0
171
     0
290
     0
174
     0
 93
        1
 44
0.0
173
     0
291
     1
 45
0.0
1001
ACAD
1000
AcDbSavedByObjectVersion
1070
     0
  0
VISUALSTYLE
  5
33
102
{ACAD_XDICTIONARY
360
3C9
102
}
102
{ACAD_REACTORS
330
2A
102
}
330
2A
100
AcDbVisualStyle
  2

 70
     8
 71
     2
 72
     3
 73
     0
 90
        2
 40
-0.6
 41
30.0
 62
     5
 63
     7
421
 16777215
 74
     0
 91
        0
 64
     7
 65
   257
 75
     1
175
     1
 42
1.0
 92
        8
 66
   257
 43
1.0
 76
     1
 77
     6
 78
     2
 67
     7
 79
     3
170
     0
171
     0
290
     0
174
     0
 93
       13
 44
0.0
173
     0
291
     0
 45
0.0
1001
ACAD
1000
AcDbSavedByObjectVersion
1070
     0
  0
VISUALSTYLE
  5
42
102
{ACAD_XDICTIONARY
360
3E7
102
}
102
{ACAD_REACTORS
330
2A
102
}
330
2A
100
AcDbVisualStyle
  2

 70
    27
 71
     2
 72
     2
 73
     1
 90
        2
 40
-0.6
 41
30.0
 62
     5
 63
     7
421
 16777215
 74
     0
 91
        4
 64
     7
 65
   257
 75
     1
175
     1
 42
1.0
 92
        8
 66
   257
 43
1.0
 76
     1
 77
     6
 78
     2
 67
     8
425
  7895160
 79
     3
170
     0
171
     0
290
     0
174
     0
 93
        5
 44
0.0
173
     0
291
     0
 45
0.0
1001
ACAD
1000
AcDbSavedByObjectVersion
1070
     0
  0
VISUALSTYLE
  5
41
102
{ACAD_XDICTIONARY
360
3E5
102
}
102
{ACAD_REACTORS
330
2A
102
}
330
2A
100
AcDbVisualStyle
  2

 70
    26
 71
     2
 72
     2
 73
     1
 90
        2
 40
-0.6
 41
30.0
 62
     5
 63
     7
421
 16777215
 74
     1
 91
        2
 64
     7
 65
   257
 75
     2
175
     1
 42
1.0
 92
        8
 66
   257
 43
1.0
 76
     1
 77
     6
 78
     2
 67
     7
 79
     3
170
     0
171
     0
290
     0
174
     0
 93
        5
 44
0.0
173
     0
291
     0
 45
0.0
1001
ACAD
1000
AcDbSavedByObjectVersion
1070
     0
  0
VISUALSTYLE
  5
3E
102
{ACAD_XDICTIONARY
360
3DF
102
}
102
{ACAD_REACTORS
330
2A
102
}
330
2A
100
AcDbVisualStyle
  2

 70
    23
 71
     2
 72
     2
 73
     3
 90
        0
 40
-0.6
 41
-30.0
 62
     5
 63
     7
421
 16777215
 74
     2
 91
        2
 64
     7
 65
     7
 75
     1
175
     1
 42
40.0
 92
        8
 66
     7
 43
1.0
 76
     1
 77
     6
 78
     2
 67
     7
 79
     3
170
     0
171
     0
290
     0
174
     0
 93
        1
 44
0.0
173
     0
291
     0
 45
0.0
1001
ACAD
1000
AcDbSavedByObjectVersion
1070
     0
  0
VISUALSTYLE
  5
3F
102
{ACAD_XDICTIONARY
360
3E1
102
}
102
{ACAD_REACTORS
330
2A
102
}
330
2A
100
AcDbVisualStyle
  2

 70
    24
 71
     1
 72
     2
 73
     2
 90
        0
 40
-0.6
 41
-30.0
 62
     5
 63
     7
421
 16777215
 74
     2
 91
        2
 64
     7
 65
     7
 75
     1
175
     1
 42
40.0
 92
       11
 66
     7
 43
1.0
 76
     1
 77
     6
 78
     2
 67
     7
 79
     6
170
     0
171
     0
290
     0
174
     0
 93
        1
 44
0.0
173
     0
291
     0
 45
0.0
1001
ACAD
1000
AcDbSavedByObjectVersion
1070
     0
  0
VISUALSTYLE
  5
37
102
{ACAD_XDICTIONARY
360
3D1
102
}
102
{ACAD_REACTORS
330
2A
102
}
330
2A
100
AcDbVisualStyle
  2

 70
    13
 71
     2
 72
     2
 73
     0
 90
        0
 40
-0.6
 41
-30.0
 62
     5
 63
     7
421
 16777215
 74
     1
 91
        4
 64
     7
 65
   257
 75
     1
175
     1
 42
1.0
 92
       12
 66
     7
 43
1.0
 76
     1
 77
     6
 78
     2
 67
     7
 79
     5
170
     0
171
     0
290
     0
174
     0
 93
        1
 44
0.0
173
     0
291
     1
 45
0.0
1001
ACAD
1000
AcDbSavedByObjectVersion
1070
     0
  0
VISUALSTYLE
  5
30
102
{ACAD_XDICTIONARY
360
3C3
102
}
102
{ACAD_REACTORS
330
2A
102
}
330
2A
100
AcDbVisualStyle
  2

 70
     5
 71
     0
 72
     2
 73
     0
 90
        0
 40
-0.6
 41
-30.0
 62
     5
 63
     7
421
 16777215
 74
     1
 91
        4
 64
     7
 65
   257
 75
     1
175
     1
 42
1.0
 92
        0
 66
   257
 43
1.0
 76
     1
 77
     6
 78
     2
 67
     7
 79
     3
170
     0
171
     0
290
     0
174
     0
 93
        1
 44
0.0
173
     0
291
     0
 45
0.0
1001
ACAD
1000
AcDbSavedByObjectVersion
1070
     0
  0
VISUALSTYLE
  5
40
102
{ACAD_XDICTIONARY
360
3E3
102
}
102
{ACAD_REACTORS
330
2A
102
}
330
2A
100
AcDbVisualStyle
  2

 70
    25
 71
     2
 72
     2
 73
     1
 90
        1
 40
0.5
 41
-30.0
 62
     5
 63
     7
421
 16777215
 74
     1
 91
        0
 64
     7
 65
   257
 75
     1
175
     1
 42
1.0
 92
        8
 66
     7
 43
1.0
 76
     1
 77
     6
 78
     2
 67
     7
 79
     3
170
     0
171
     0
290
     0
174
     0
 93
       13
 44
0.0
173
     0
291
     0
 45
0.0
1001
ACAD
1000
AcDbSavedByObjectVersion
1070
     0
  0
DICTIONARYVAR
  5
22F
102
{ACAD_REACTORS
330
22E
102
}
330
22E
100
DictionaryVariables
280
     0
  1
1:1
  0
DICTIONARYVAR
  5
270
102
{ACAD_REACTORS
330
22E
102
}
330
22E
100
DictionaryVariables
280
     0
  1
STANDARD
  0
DICTIONARYVAR
  5
26F
102
{ACAD_REACTORS
330
22E
102
}
330
22E
100
DictionaryVariables
280
     0
  1
STANDARD
  0
DICTIONARYVAR
  5
3AC
102
{ACAD_REACTORS
330
22E
102
}
330
22E
100
DictionaryVariables
280
     0
  1
Metric50
  0
DICTIONARYVAR
  5
3AD
102
{ACAD_REACTORS
330
22E
102
}
330
22E
100
DictionaryVariables
280
     0
  1
Metric50
  0
DICTIONARYVAR
  5
230
102
{ACAD_REACTORS
330
22E
102
}
330
22E
100
DictionaryVariables
280
     0
  1
1
  0
DICTIONARYVAR
  5
3AE
102
{ACAD_REACTORS
330
22E
102
}
330
22E
100
DictionaryVariables
280
     0
  1
2
  0
DICTIONARY
  5
3B8
102
{ACAD_REACTORS
330
3B6
102
}
330
3B6
100
AcDbDictionary
281
     1
  0
DICTIONARY
  5
3B7
102
{ACAD_REACTORS
330
3B6
102
}
330
3B6
100
AcDbDictionary
281
     1
  3
2038854606480
350
3B1
  3
2038854606496
350
3B2
  3
2038854606512
350
3B3
  3
2038854606528
350
3B4
  3
2038854606544
350
3B5
  0
DICTIONARY
  5
2B1
102
{ACAD_REACTORS
330
2AA
102
}
330
2AA
100
AcDbDictionary
281
     1
  0
DICTIONARY
  5
3EC
330
277
100
AcDbDictionary
280
     1
281
     1
  3
ACAD_XREC_ROUNDTRIP
360
3ED
  0
DICTIONARY
  5
264
330
45
100
AcDbDictionary
280
     1
281
     1
  3
ACAD_XREC_ROUNDTRIP
360
265
  0
DICTIONARY
  5
262
330
44
100
AcDbDictionary
280
     1
281
     1
  3
ACAD_XREC_ROUNDTRIP
360
263
  0
DICTIONARY
  5
266
330
46
100
AcDbDictionary
280
     1
281
     1
  3
ACAD_XREC_ROUNDTRIP
360
267
  0
DICTIONARY
  5
3EA
330
276
100
AcDbDictionary
280
     1
281
     1
  3
ACAD_XREC_ROUNDTRIP
360
3EB
  0
DICTIONARY
  5
268
330
6A
100
AcDbDictionary
280
     1
281
     1
  3
ACAD_ROUNDTRIP_2008_TABLESTYLE_CELLSTYLEMAP
360
3AF
  3
ACAD_XREC_ROUNDTRIP
360
3E9
  0
DICTIONARY
  5
3C1
330
2F
100
AcDbDictionary
280
     1
281
     1
  3
ACAD_XREC_ROUNDTRIP
360
3C2
  0
DICTIONARY
  5
3C7
330
32
100
AcDbDictionary
280
     1
281
     1
  3
ACAD_XREC_ROUNDTRIP
360
3C8
  0
DICTIONARY
  5
3CF
330
36
100
AcDbDictionary
280
     1
281
     1
  3
ACAD_XREC_ROUNDTRIP
360
3D0
  0
DICTIONARY
  5
3D7
330
3A
100
AcDbDictionary
280
     1
281
     1
  3
ACAD_XREC_ROUNDTRIP
360
3D8
  0
DICTIONARY
  5
3CB
330
34
100
AcDbDictionary
280
     1
281
     1
  3
ACAD_XREC_ROUNDTRIP
360
3CC
  0
DICTIONARY
  5
3CD
330
35
100
AcDbDictionary
280
     1
281
     1
  3
ACAD_XREC_ROUNDTRIP
360
3CE
  0
DICTIONARY
  5
3DD
330
3D
100
AcDbDictionary
280
     1
281
     1
  3
ACAD_XREC_ROUNDTRIP
360
3DE
  0
DICTIONARY
  5
3D5
330
39
100
AcDbDictionary
280
     1
281
     1
  3
ACAD_XREC_ROUNDTRIP
360
3D6
  0
DICTIONARY
  5
3B9
330
2B
100
AcDbDictionary
280
     1
281
     1
  3
ACAD_XREC_ROUNDTRIP
360
3BA
  0
DICTIONARY
  5
3BB
330
2C
100
AcDbDictionary
280
     1
281
     1
  3
ACAD_XREC_ROUNDTRIP
360
3BC
  0
DICTIONARY
  5
3BD
330
2D
100
AcDbDictionary
280
     1
281
     1
  3
ACAD_XREC_ROUNDTRIP
360
3BE
  0
DICTIONARY
  5
3BF
330
2E
100
AcDbDictionary
280
     1
281
     1
  3
ACAD_XREC_ROUNDTRIP
360
3C0
  0
DICTIONARY
  5
3C5
330
31
100
AcDbDictionary
280
     1
281
     1
  3
ACAD_XREC_ROUNDTRIP
360
3C6
  0
DICTIONARY
  5
3D9
330
3B
100
AcDbDictionary
280
     1
281
     1
  3
ACAD_XREC_ROUNDTRIP
360
3DA
  0
DICTIONARY
  5
3D3
330
38
100
AcDbDictionary
280
     1
281
     1
  3
ACAD_XREC_ROUNDTRIP
360
3D4
  0
DICTIONARY
  5
3DB
330
3C
100
AcDbDictionary
280
     1
281
     1
  3
ACAD_XREC_ROUNDTRIP
360
3DC
  0
DICTIONARY
  5
3C9
330
33
100
AcDbDictionary
280
     1
281
     1
  3
ACAD_XREC_ROUNDTRIP
360
3CA
  0
DICTIONARY
  5
3E7
330
42
100
AcDbDictionary
280
     1
281
     1
  3
ACAD_XREC_ROUNDTRIP
360
3E8
  0
DICTIONARY
  5
3E5
330
41
100
AcDbDictionary
280
     1
281
     1
  3
ACAD_XREC_ROUNDTRIP
360
3E6
  0
DICTIONARY
  5
3DF
330
3E
100
AcDbDictionary
280
     1
281
     1
  3
ACAD_XREC_ROUNDTRIP
360
3E0
  0
DICTIONARY
  5
3E1
330
3F
100
AcDbDictionary
280
     1
281
     1
  3
ACAD_XREC_ROUNDTRIP
360
3E2
  0
DICTIONARY
  5
3D1
330
37
100
AcDbDictionary
280
     1
281
     1
  3
ACAD_XREC_ROUNDTRIP
360
3D2
  0
DICTIONARY
  5
3C3
330
30
100
AcDbDictionary
280
     1
281
     1
  3
ACAD_XREC_ROUNDTRIP
360
3C4
  0
DICTIONARY
  5
3E3
330
40
100
AcDbDictionary
280
     1
281
     1
  3
ACAD_XREC_ROUNDTRIP
360
3E4
  0
XRECORD
  5
3B1
102
{ACAD_REACTORS
330
3B7
102
}
330
3B7
100
AcDbXrecord
280
     1
  1
AcDb_Thumbnail_Schema
102
{ATTRRECORD
341
3B2
  2
AcDbDs::TreatedAsObjectData
280
     1
291
     1
102
ATTRRECORD}
102
{ATTRRECORD
341
3B3
  2
AcDbDs::Legacy
280
     1
291
     1
102
ATTRRECORD}
  2
AcDbDs::ID
280
    10
 91
        8
102
{ATTRRECORD
341
3B4
  2
AcDs:Indexable
280
     1
291
     1
102
ATTRRECORD}
102
{ATTRRECORD
341
3B5
  2
AcDbDs::HandleAttribute
280
     7
282
     1
102
ATTRRECORD}
  2
Thumbnail_Data
280
    15
 91
        0
  0
XRECORD
  5
3B2
102
{ACAD_REACTORS
330
3B7
102
}
330
3B7
100
AcDbXrecord
280
     1
  1
AcDbDs::TreatedAsObjectDataSchema
  2
AcDbDs::TreatedAsObjectData
280
     1
 91
        0
  0
XRECORD
  5
3B3
102
{ACAD_REACTORS
330
3B7
102
}
330
3B7
100
AcDbXrecord
280
     1
  1
AcDbDs::LegacySchema
  2
AcDbDs::Legacy
280
     1
 91
        0
  0
XRECORD
  5
3B4
102
{ACAD_REACTORS
330
3B7
102
}
330
3B7
100
AcDbXrecord
280
     1
  1
AcDbDs::IndexedPropertySchema
  2
AcDs:Indexable
280
     1
 91
        0
  0
XRECORD
  5
3B5
102
{ACAD_REACTORS
330
3B7
102
}
330
3B7
100
AcDbXrecord
280
     1
  1
AcDbDs::HandleAttributeSchema
  2
AcDbDs::HandleAttribute
280
     7
 91
        1
284
     1
  0
XRECORD
  5
3ED
102
{ACAD_REACTORS
330
3EC
102
}
330
3EC
100
AcDbXrecord
280
     1
102
DISPLAYNAME
  1
Metric50
102
FLAGS
 90
        0
  0
XRECORD
  5
265
102
{ACAD_REACTORS
330
264
102
}
330
264
100
AcDbXrecord
280
     1
102
MATERIAL
148
0.0
149
0.0
149
0.0
 93
        0
 94
      127
282
     0
 72
     1
 77
     1
171
     1
175
     1
179
     1
273
     0
  0
XRECORD
  5
263
102
{ACAD_REACTORS
330
262
102
}
330
262
100
AcDbXrecord
280
     1
102
MATERIAL
148
0.0
149
0.0
149
0.0
 93
        0
 94
      127
282
     0
 72
     1
 77
     1
171
     1
175
     1
179
     1
273
     0
  0
XRECORD
  5
267
102
{ACAD_REACTORS
330
266
102
}
330
266
100
AcDbXrecord
280
     1
102
MATERIAL
148
0.0
149
0.0
149
0.0
 93
        0
 94
      127
282
     0
 72
     1
 77
     1
171
     1
175
     1
179
     1
273
     0
  0
XRECORD
  5
3EB
102
{ACAD_REACTORS
330
3EA
102
}
330
3EA
100
AcDbXrecord
280
     1
102
DISPLAYNAME
  1
Metric50
102
FLAGS
 90
        0
  0
CELLSTYLEMAP
  5
3AF
102
{ACAD_REACTORS
330
268
102
}
330
268
100
AcDbCellStyleMap
 90
        3
300
CELLSTYLE
  1
TABLEFORMAT_BEGIN
 90
        5
170
     1
 91
        0
 92
    32768
 62
   257
 93
        1
300
CONTENTFORMAT
  1
CONTENTFORMAT_BEGIN
 90
        0
 91
        0
 92
        4
 93
        0
300

 40
0.0
140
1.0
 94
        5
 62
     0
340
11
144
0.25
309
CONTENTFORMAT_END
171
     1
301
MARGIN
  1
CELLMARGIN_BEGIN
 40
0.06
 40
0.06
 40
0.06
 40
0.06
 40
0.18
 40
0.18
309
CELLMARGIN_END
 94
        6
 95
        1
302
GRIDFORMAT
  1
GRIDFORMAT_BEGIN
 90
        0
 91
        1
 62
     0
 92
       -2
340
14
 93
        0
 40
0.045
309
GRIDFORMAT_END
 95
        2
302
GRIDFORMAT
  1
GRIDFORMAT_BEGIN
 90
        0
 91
        1
 62
     0
 92
       -2
340
14
 93
        0
 40
0.045
309
GRIDFORMAT_END
 95
        4
302
GRIDFORMAT
  1
GRIDFORMAT_BEGIN
 90
        0
 91
        1
 62
     0
 92
       -2
340
14
 93
        0
 40
0.045
309
GRIDFORMAT_END
 95
        8
302
GRIDFORMAT
  1
GRIDFORMAT_BEGIN
 90
        0
 91
        1
 62
     0
 92
       -2
340
14
 93
        0
 40
0.045
309
GRIDFORMAT_END
 95
       16
302
GRIDFORMAT
  1
GRIDFORMAT_BEGIN
 90
        0
 91
        1
 62
     0
 92
       -2
340
14
 93
        0
 40
0.045
309
GRIDFORMAT_END
 95
       32
302
GRIDFORMAT
  1
GRIDFORMAT_BEGIN
 90
        0
 91
        1
 62
     0
 92
       -2
340
14
 93
        0
 40
0.045
309
GRIDFORMAT_END
309
TABLEFORMAT_END
  1
CELLSTYLE_BEGIN
 90
        1
 91
        1
300
_TITLE
309
CELLSTYLE_END
300
CELLSTYLE
  1
TABLEFORMAT_BEGIN
 90
        5
170
     1
 91
        0
 92
        0
 62
   257
 93
        1
300
CONTENTFORMAT
  1
CONTENTFORMAT_BEGIN
 90
        0
 91
        0
 92
        4
 93
        0
300

 40
0.0
140
1.0
 94
        5
 62
     0
340
11
144
0.18
309
CONTENTFORMAT_END
171
     1
301
MARGIN
  1
CELLMARGIN_BEGIN
 40
0.06
 40
0.06
 40
0.06
 40
0.06
 40
0.18
 40
0.18
309
CELLMARGIN_END
 94
        6
 95
        1
302
GRIDFORMAT
  1
GRIDFORMAT_BEGIN
 90
        0
 91
        1
 62
     0
 92
       -2
340
14
 93
        0
 40
0.045
309
GRIDFORMAT_END
 95
        2
302
GRIDFORMAT
  1
GRIDFORMAT_BEGIN
 90
        0
 91
        1
 62
     0
 92
       -2
340
14
 93
        0
 40
0.045
309
GRIDFORMAT_END
 95
        4
302
GRIDFORMAT
  1
GRIDFORMAT_BEGIN
 90
        0
 91
        1
 62
     0
 92
       -2
340
14
 93
        0
 40
0.045
309
GRIDFORMAT_END
 95
        8
302
GRIDFORMAT
  1
GRIDFORMAT_BEGIN
 90
        0
 91
        1
 62
     0
 92
       -2
340
14
 93
        0
 40
0.045
309
GRIDFORMAT_END
 95
       16
302
GRIDFORMAT
  1
GRIDFORMAT_BEGIN
 90
        0
 91
        1
 62
     0
 92
       -2
340
14
 93
        0
 40
0.045
309
GRIDFORMAT_END
 95
       32
302
GRIDFORMAT
  1
GRIDFORMAT_BEGIN
 90
        0
 91
        1
 62
     0
 92
       -2
340
14
 93
        0
 40
0.045
309
GRIDFORMAT_END
309
TABLEFORMAT_END
  1
CELLSTYLE_BEGIN
 90
        2
 91
        1
300
_HEADER
309
CELLSTYLE_END
300
CELLSTYLE
  1
TABLEFORMAT_BEGIN
 90
        5
170
     1
 91
        0
 92
        0
 62
   257
 93
        1
300
CONTENTFORMAT
  1
CONTENTFORMAT_BEGIN
 90
        0
 91
        0
 92
        4
 93
        0
300

 40
0.0
140
1.0
 94
        2
 62
     0
340
11
144
0.18
309
CONTENTFORMAT_END
171
     1
301
MARGIN
  1
CELLMARGIN_BEGIN
 40
0.06
 40
0.06
 40
0.06
 40
0.06
 40
0.18
 40
0.18
309
CELLMARGIN_END
 94
        6
 95
        1
302
GRIDFORMAT
  1
GRIDFORMAT_BEGIN
 90
        0
 91
        1
 62
     0
 92
       -2
340
14
 93
        0
 40
0.045
309
GRIDFORMAT_END
 95
        2
302
GRIDFORMAT
  1
GRIDFORMAT_BEGIN
 90
        0
 91
        1
 62
     0
 92
       -2
340
14
 93
        0
 40
0.045
309
GRIDFORMAT_END
 95
        4
302
GRIDFORMAT
  1
GRIDFORMAT_BEGIN
 90
        0
 91
        1
 62
     0
 92
       -2
340
14
 93
        0
 40
0.045
309
GRIDFORMAT_END
 95
        8
302
GRIDFORMAT
  1
GRIDFORMAT_BEGIN
 90
        0
 91
        1
 62
     0
 92
       -2
340
14
 93
        0
 40
0.045
309
GRIDFORMAT_END
 95
       16
302
GRIDFORMAT
  1
GRIDFORMAT_BEGIN
 90
        0
 91
        1
 62
     0
 92
       -2
340
14
 93
        0
 40
0.045
309
GRIDFORMAT_END
 95
       32
302
GRIDFORMAT
  1
GRIDFORMAT_BEGIN
 90
        0
 91
        1
 62
     0
 92
       -2
340
14
 93
        0
 40
0.045
309
GRIDFORMAT_END
309
TABLEFORMAT_END
  1
CELLSTYLE_BEGIN
 90
        3
 91
        2
300
_DATA
309
CELLSTYLE_END
  0
XRECORD
  5
3E9
102
{ACAD_REACTORS
330
268
102
}
330
268
100
AcDbXrecord
280
     1
102
ACAD_ROUNDTRIP_PRE2007_TABLESTYLE
 90
        4
 91
        0
  1

 92
        4
 93
        0
  2

 94
        4
 95
        0
  3

  0
XRECORD
  5
3C2
102
{ACAD_REACTORS
330
3C1
102
}
330
3C1
100
AcDbXrecord
280
     1
102
RTVSPost2010Prop28
280
     1
102
RTVSPost2010PropOp28
 70
     1
102
RTVSPost2010Prop29
280
     1
102
RTVSPost2010PropOp29
 70
     1
102
RTVSPost2010Prop30
280
     0
102
RTVSPost2010PropOp30
 70
     1
102
RTVSPost2010Prop31
280
     0
102
RTVSPost2010PropOp31
 70
     1
102
RTVSPost2010Prop32
280
     0
102
RTVSPost2010PropOp32
 70
     1
102
RTVSPost2010Prop33
280
     0
102
RTVSPost2010PropOp33
 70
     1
102
RTVSPost2010Prop34
280
     0
102
RTVSPost2010PropOp34
 70
     1
102
RTVSPost2010Prop35
280
     0
102
RTVSPost2010PropOp35
 70
     1
102
RTVSPost2010Prop36
280
     0
102
RTVSPost2010PropOp36
 70
     1
102
RTVSPost2010Prop37
 90
       50
102
RTVSPost2010PropOp37
 70
     1
102
RTVSPost2010Prop38
140
0.0
102
RTVSPost2010PropOp38
 70
     1
102
RTVSPost2010Prop39
140
1.0
102
RTVSPost2010PropOp39
 70
     1
102
RTVSPost2010Prop40
 90
        0
102
RTVSPost2010PropOp40
 70
     1
102
RTVSPost2010Prop41ColorIndex
 90
       18
102
RTVSPost2010Prop41ColorRGB
 90
        0
102
RTVSPost2010PropOp41
 70
     1
102
RTVSPost2010Prop42
 90
       50
102
RTVSPost2010PropOp42
 70
     1
102
RTVSPost2010Prop43
 90
        3
102
RTVSPost2010PropOp43
 70
     1
102
RTVSPost2010Prop44ColorIndex
 90
        5
102
RTVSPost2010Prop44ColorRGB
 90
      255
102
RTVSPost2010PropOp44
 70
     1
102
RTVSPost2010Prop45
280
     0
102
RTVSPost2010PropOp45
 70
     1
102
RTVSPost2010Prop46
 90
       50
102
RTVSPost2010PropOp46
 70
     1
102
RTVSPost2010Prop47
 90
       50
102
RTVSPost2010PropOp47
 70
     1
102
RTVSPost2010Prop48
 90
       50
102
RTVSPost2010PropOp48
 70
     1
102
RTVSPost2010Prop49
280
     0
102
RTVSPost2010PropOp49
 70
     1
102
RTVSPost2010Prop50
 90
       50
102
RTVSPost2010PropOp50
 70
     1
102
RTVSPost2010Prop51ColorIndex
 90
      256
102
RTVSPost2010Prop51ColorRGB
 90
-16777216
102
RTVSPost2010PropOp51
 70
     0
102
RTVSPost2010Prop52
140
1.0
102
RTVSPost2010PropOp52
 70
     0
102
RTVSPost2010Prop53
 90
        2
102
RTVSPost2010PropOp53
 70
     1
102
RTVSPost2010Prop54
  1
strokes_ogs.tif
102
RTVSPost2010PropOp54
 70
     1
102
RTVSPost2010Prop55
280
     0
102
RTVSPost2010PropOp55
 70
     1
102
RTVSPost2010Prop56
140
1.0
102
RTVSPost2010PropOp56
 70
     1
102
RTVSPost2010Prop57
140
1.0
102
RTVSPost2010PropOp57
 70
     1
102
RTVSPropertyOp0
 70
     1
102
RTVSPropertyOp1
 70
     1
102
RTVSPropertyOp2
 70
     1
102
RTVSPropertyOp3
 70
     1
102
RTVSPropertyOp4
 70
     1
102
RTVSPropertyOp5
 70
     1
102
RTVSPropertyOp6
 70
     1
102
RTVSPropertyOp7
 70
     1
102
RTVSPropertyOp8
 70
     1
102
RTVSPropertyOp9
 70
     1
102
RTVSPropertyOp10
 70
     1
102
RTVSPropertyOp11
 70
     1
102
RTVSPropertyOp12
 70
     1
102
RTVSPropertyOp13
 70
     1
102
RTVSPropertyOp14
 70
     1
102
RTVSPropertyOp15
 70
     1
102
RTVSPropertyOp16
 70
     1
102
RTVSPropertyOp17
 70
     1
102
RTVSPropertyOp18
 70
     1
102
RTVSPropertyOp19
 70
     1
102
RTVSPropertyOp20
 70
     1
102
RTVSPropertyOp21
 70
     1
102
RTVSPropertyOp22
 70
     1
102
RTVSPropertyOp23
 70
     1
102
RTVSPropertyOp24
 70
     1
102
RTVSPropertyOp25
 70
     1
102
RTVSPropertyOp26
 70
     1
102
RTVSPropertyOp27
 70
     1
102
RTVSPropertyOp28
 70
     1
102
RTVSPropertyOp29
 70
     1
102
RTVSPropertyOp30
 70
     1
102
RTVSPropertyOp31
 70
     1
102
RTVSPropertyOp32
 70
     1
102
RTVSPropertyOp33
 70
     1
102
RTVSPropertyOp34
 70
     1
102
RTVSPropertyOp35
 70
     1
102
RTVSPropertyOp36
 70
     1
102
RTVSPropertyOp37
 70
     1
102
RTVSPropertyOp38
 70
     1
102
RTVSPropertyOp39
 70
     1
102
RTVSPropertyOp40
 70
     1
102
RTVSPropertyOp41
 70
     1
102
RTVSPropertyOp42
 70
     1
102
RTVSPropertyOp43
 70
     1
102
RTVSPropertyOp44
 70
     1
102
RTVSPropertyOp45
 70
     1
102
RTVSPropertyOp46
 70
     1
102
RTVSPropertyOp47
 70
     1
102
RTVSPropertyOp48
 70
     1
102
RTVSPropertyOp49
 70
     1
102
RTVSPropertyOp50
 70
     1
102
RTVSPropertyOp51
 70
     0
102
RTVSPropertyOp52
 70
     0
102
RTVSPropertyOp53
 70
     1
102
RTVSPropertyOp54
 70
     1
102
RTVSPropertyOp55
 70
     1
102
RTVSPropertyOp56
 70
     1
102
RTVSPropertyOp57
 70
     1
102
RTVSPropertyOp58
 70
     1
102
RTVSPropertyOp59
 70
     1
102
RTVSPropertyOp60
 70
     1
102
RTVSPropertyOp61
 70
     1
102
RTVSPropertyOp62
 70
     1
  0
XRECORD
  5
3C8
102
{ACAD_REACTORS
330
3C7
102
}
330
3C7
100
AcDbXrecord
280
     1
102
RTVSPost2010Prop28
280
     0
102
RTVSPost2010PropOp28
 70
     1
102
RTVSPost2010Prop29
280
     1
102
RTVSPost2010PropOp29
 70
     1
102
RTVSPost2010Prop30
280
     1
102
RTVSPost2010PropOp30
 70
     1
102
RTVSPost2010Prop31
280
     0
102
RTVSPost2010PropOp31
 70
     1
102
RTVSPost2010Prop32
280
     0
102
RTVSPost2010PropOp32
 70
     1
102
RTVSPost2010Prop33
280
     0
102
RTVSPost2010PropOp33
 70
     1
102
RTVSPost2010Prop34
280
     0
102
RTVSPost2010PropOp34
 70
     1
102
RTVSPost2010Prop35
280
     0
102
RTVSPost2010PropOp35
 70
     1
102
RTVSPost2010Prop36
280
     0
102
RTVSPost2010PropOp36
 70
     1
102
RTVSPost2010Prop37
 90
       50
102
RTVSPost2010PropOp37
 70
     1
102
RTVSPost2010Prop38
140
0.0
102
RTVSPost2010PropOp38
 70
     1
102
RTVSPost2010Prop39
140
1.0
102
RTVSPost2010PropOp39
 70
     1
102
RTVSPost2010Prop40
 90
        0
102
RTVSPost2010PropOp40
 70
     1
102
RTVSPost2010Prop41ColorIndex
 90
       18
102
RTVSPost2010Prop41ColorRGB
 90
        0
102
RTVSPost2010PropOp41
 70
     1
102
RTVSPost2010Prop42
 90
       50
102
RTVSPost2010PropOp42
 70
     1
102
RTVSPost2010Prop43
 90
        3
102
RTVSPost2010PropOp43
 70
     1
102
RTVSPost2010Prop44ColorIndex
 90
        5
102
RTVSPost2010Prop44ColorRGB
 90
      255
102
RTVSPost2010PropOp44
 70
     1
102
RTVSPost2010Prop45
280
     0
102
RTVSPost2010PropOp45
 70
     1
102
RTVSPost2010Prop46
 90
       50
102
RTVSPost2010PropOp46
 70
     1
102
RTVSPost2010Prop47
 90
       50
102
RTVSPost2010PropOp47
 70
     1
102
RTVSPost2010Prop48
 90
       50
102
RTVSPost2010PropOp48
 70
     1
102
RTVSPost2010Prop49
280
     0
102
RTVSPost2010PropOp49
 70
     1
102
RTVSPost2010Prop50
 90
       50
102
RTVSPost2010PropOp50
 70
     1
102
RTVSPost2010Prop51ColorIndex
 90
      256
102
RTVSPost2010Prop51ColorRGB
 90
-16777216
102
RTVSPost2010PropOp51
 70
     0
102
RTVSPost2010Prop52
140
1.0
102
RTVSPost2010PropOp52
 70
     0
102
RTVSPost2010Prop53
 90
        2
102
RTVSPost2010PropOp53
 70
     1
102
RTVSPost2010Prop54
  1
strokes_ogs.tif
102
RTVSPost2010PropOp54
 70
     1
102
RTVSPost2010Prop55
280
     0
102
RTVSPost2010PropOp55
 70
     1
102
RTVSPost2010Prop56
140
1.0
102
RTVSPost2010PropOp56
 70
     1
102
RTVSPost2010Prop57
140
1.0
102
RTVSPost2010PropOp57
 70
     1
102
RTVSPropertyOp0
 70
     1
102
RTVSPropertyOp1
 70
     1
102
RTVSPropertyOp2
 70
     1
102
RTVSPropertyOp3
 70
     1
102
RTVSPropertyOp4
 70
     1
102
RTVSPropertyOp5
 70
     1
102
RTVSPropertyOp6
 70
     1
102
RTVSPropertyOp7
 70
     1
102
RTVSPropertyOp8
 70
     1
102
RTVSPropertyOp9
 70
     1
102
RTVSPropertyOp10
 70
     1
102
RTVSPropertyOp11
 70
     1
102
RTVSPropertyOp12
 70
     1
102
RTVSPropertyOp13
 70
     1
102
RTVSPropertyOp14
 70
     1
102
RTVSPropertyOp15
 70
     1
102
RTVSPropertyOp16
 70
     1
102
RTVSPropertyOp17
 70
     1
102
RTVSPropertyOp18
 70
     1
102
RTVSPropertyOp19
 70
     1
102
RTVSPropertyOp20
 70
     1
102
RTVSPropertyOp21
 70
     1
102
RTVSPropertyOp22
 70
     1
102
RTVSPropertyOp23
 70
     1
102
RTVSPropertyOp24
 70
     1
102
RTVSPropertyOp25
 70
     1
102
RTVSPropertyOp26
 70
     1
102
RTVSPropertyOp27
 70
     1
102
RTVSPropertyOp28
 70
     1
102
RTVSPropertyOp29
 70
     1
102
RTVSPropertyOp30
 70
     1
102
RTVSPropertyOp31
 70
     1
102
RTVSPropertyOp32
 70
     1
102
RTVSPropertyOp33
 70
     1
102
RTVSPropertyOp34
 70
     1
102
RTVSPropertyOp35
 70
     1
102
RTVSPropertyOp36
 70
     1
102
RTVSPropertyOp37
 70
     1
102
RTVSPropertyOp38
 70
     1
102
RTVSPropertyOp39
 70
     1
102
RTVSPropertyOp40
 70
     1
102
RTVSPropertyOp41
 70
     1
102
RTVSPropertyOp42
 70
     1
102
RTVSPropertyOp43
 70
     1
102
RTVSPropertyOp44
 70
     1
102
RTVSPropertyOp45
 70
     1
102
RTVSPropertyOp46
 70
     1
102
RTVSPropertyOp47
 70
     1
102
RTVSPropertyOp48
 70
     1
102
RTVSPropertyOp49
 70
     1
102
RTVSPropertyOp50
 70
     1
102
RTVSPropertyOp51
 70
     0
102
RTVSPropertyOp52
 70
     0
102
RTVSPropertyOp53
 70
     1
102
RTVSPropertyOp54
 70
     1
102
RTVSPropertyOp55
 70
     1
102
RTVSPropertyOp56
 70
     1
102
RTVSPropertyOp57
 70
     1
102
RTVSPropertyOp58
 70
     1
102
RTVSPropertyOp59
 70
     1
102
RTVSPropertyOp60
 70
     1
102
RTVSPropertyOp61
 70
     1
102
RTVSPropertyOp62
 70
     1
  0
XRECORD
  5
3D0
102
{ACAD_REACTORS
330
3CF
102
}
330
3CF
100
AcDbXrecord
280
     1
102
RTVSPost2010Prop28
280
     0
102
RTVSPost2010PropOp28
 70
     1
102
RTVSPost2010Prop29
280
     1
102
RTVSPost2010PropOp29
 70
     1
102
RTVSPost2010Prop30
280
     1
102
RTVSPost2010PropOp30
 70
     1
102
RTVSPost2010Prop31
280
     0
102
RTVSPost2010PropOp31
 70
     1
102
RTVSPost2010Prop32
280
     0
102
RTVSPost2010PropOp32
 70
     1
102
RTVSPost2010Prop33
280
     0
102
RTVSPost2010PropOp33
 70
     1
102
RTVSPost2010Prop34
280
     0
102
RTVSPost2010PropOp34
 70
     1
102
RTVSPost2010Prop35
280
     0
102
RTVSPost2010PropOp35
 70
     1
102
RTVSPost2010Prop36
280
     0
102
RTVSPost2010PropOp36
 70
     1
102
RTVSPost2010Prop37
 90
       50
102
RTVSPost2010PropOp37
 70
     1
102
RTVSPost2010Prop38
140
0.0
102
RTVSPost2010PropOp38
 70
     1
102
RTVSPost2010Prop39
140
1.0
102
RTVSPost2010PropOp39
 70
     1
102
RTVSPost2010Prop40
 90
        0
102
RTVSPost2010PropOp40
 70
     1
102
RTVSPost2010Prop41ColorIndex
 90
       18
102
RTVSPost2010Prop41ColorRGB
 90
        0
102
RTVSPost2010PropOp41
 70
     1
102
RTVSPost2010Prop42
 90
       50
102
RTVSPost2010PropOp42
 70
     1
102
RTVSPost2010Prop43
 90
        3
102
RTVSPost2010PropOp43
 70
     1
102
RTVSPost2010Prop44ColorIndex
 90
        5
102
RTVSPost2010Prop44ColorRGB
 90
      255
102
RTVSPost2010PropOp44
 70
     1
102
RTVSPost2010Prop45
280
     0
102
RTVSPost2010PropOp45
 70
     1
102
RTVSPost2010Prop46
 90
       50
102
RTVSPost2010PropOp46
 70
     1
102
RTVSPost2010Prop47
 90
       50
102
RTVSPost2010PropOp47
 70
     1
102
RTVSPost2010Prop48
 90
       50
102
RTVSPost2010PropOp48
 70
     1
102
RTVSPost2010Prop49
280
     0
102
RTVSPost2010PropOp49
 70
     1
102
RTVSPost2010Prop50
 90
       50
102
RTVSPost2010PropOp50
 70
     1
102
RTVSPost2010Prop51ColorIndex
 90
      256
102
RTVSPost2010Prop51ColorRGB
 90
-16777216
102
RTVSPost2010PropOp51
 70
     0
102
RTVSPost2010Prop52
140
1.0
102
RTVSPost2010PropOp52
 70
     0
102
RTVSPost2010Prop53
 90
        2
102
RTVSPost2010PropOp53
 70
     1
102
RTVSPost2010Prop54
  1
strokes_ogs.tif
102
RTVSPost2010PropOp54
 70
     1
102
RTVSPost2010Prop55
280
     0
102
RTVSPost2010PropOp55
 70
     1
102
RTVSPost2010Prop56
140
1.0
102
RTVSPost2010PropOp56
 70
     1
102
RTVSPost2010Prop57
140
1.0
102
RTVSPost2010PropOp57
 70
     1
102
RTVSPropertyOp0
 70
     1
102
RTVSPropertyOp1
 70
     1
102
RTVSPropertyOp2
 70
     1
102
RTVSPropertyOp3
 70
     1
102
RTVSPropertyOp4
 70
     1
102
RTVSPropertyOp5
 70
     1
102
RTVSPropertyOp6
 70
     1
102
RTVSPropertyOp7
 70
     1
102
RTVSPropertyOp8
 70
     1
102
RTVSPropertyOp9
 70
     1
102
RTVSPropertyOp10
 70
     1
102
RTVSPropertyOp11
 70
     1
102
RTVSPropertyOp12
 70
     1
102
RTVSPropertyOp13
 70
     1
102
RTVSPropertyOp14
 70
     1
102
RTVSPropertyOp15
 70
     1
102
RTVSPropertyOp16
 70
     1
102
RTVSPropertyOp17
 70
     1
102
RTVSPropertyOp18
 70
     1
102
RTVSPropertyOp19
 70
     1
102
RTVSPropertyOp20
 70
     1
102
RTVSPropertyOp21
 70
     1
102
RTVSPropertyOp22
 70
     1
102
RTVSPropertyOp23
 70
     1
102
RTVSPropertyOp24
 70
     1
102
RTVSPropertyOp25
 70
     1
102
RTVSPropertyOp26
 70
     1
102
RTVSPropertyOp27
 70
     1
102
RTVSPropertyOp28
 70
     1
102
RTVSPropertyOp29
 70
     1
102
RTVSPropertyOp30
 70
     1
102
RTVSPropertyOp31
 70
     1
102
RTVSPropertyOp32
 70
     1
102
RTVSPropertyOp33
 70
     1
102
RTVSPropertyOp34
 70
     1
102
RTVSPropertyOp35
 70
     1
102
RTVSPropertyOp36
 70
     1
102
RTVSPropertyOp37
 70
     1
102
RTVSPropertyOp38
 70
     1
102
RTVSPropertyOp39
 70
     1
102
RTVSPropertyOp40
 70
     1
102
RTVSPropertyOp41
 70
     1
102
RTVSPropertyOp42
 70
     1
102
RTVSPropertyOp43
 70
     1
102
RTVSPropertyOp44
 70
     1
102
RTVSPropertyOp45
 70
     1
102
RTVSPropertyOp46
 70
     1
102
RTVSPropertyOp47
 70
     1
102
RTVSPropertyOp48
 70
     1
102
RTVSPropertyOp49
 70
     1
102
RTVSPropertyOp50
 70
     1
102
RTVSPropertyOp51
 70
     0
102
RTVSPropertyOp52
 70
     0
102
RTVSPropertyOp53
 70
     1
102
RTVSPropertyOp54
 70
     1
102
RTVSPropertyOp55
 70
     1
102
RTVSPropertyOp56
 70
     1
102
RTVSPropertyOp57
 70
     1
102
RTVSPropertyOp58
 70
     1
102
RTVSPropertyOp59
 70
     1
102
RTVSPropertyOp60
 70
     1
102
RTVSPropertyOp61
 70
     1
102
RTVSPropertyOp62
 70
     1
  0
XRECORD
  5
3D8
102
{ACAD_REACTORS
330
3D7
102
}
330
3D7
100
AcDbXrecord
280
     1
102
RTVSPost2010Prop28
280
     0
102
RTVSPost2010PropOp28
 70
     1
102
RTVSPost2010Prop29
280
     1
102
RTVSPost2010PropOp29
 70
     1
102
RTVSPost2010Prop30
280
     1
102
RTVSPost2010PropOp30
 70
     1
102
RTVSPost2010Prop31
280
     0
102
RTVSPost2010PropOp31
 70
     1
102
RTVSPost2010Prop32
280
     0
102
RTVSPost2010PropOp32
 70
     1
102
RTVSPost2010Prop33
280
     0
102
RTVSPost2010PropOp33
 70
     1
102
RTVSPost2010Prop34
280
     0
102
RTVSPost2010PropOp34
 70
     1
102
RTVSPost2010Prop35
280
     0
102
RTVSPost2010PropOp35
 70
     1
102
RTVSPost2010Prop36
280
     0
102
RTVSPost2010PropOp36
 70
     1
102
RTVSPost2010Prop37
 90
       50
102
RTVSPost2010PropOp37
 70
     1
102
RTVSPost2010Prop38
140
0.0
102
RTVSPost2010PropOp38
 70
     1
102
RTVSPost2010Prop39
140
1.0
102
RTVSPost2010PropOp39
 70
     1
102
RTVSPost2010Prop40
 90
        0
102
RTVSPost2010PropOp40
 70
     1
102
RTVSPost2010Prop41ColorIndex
 90
       18
102
RTVSPost2010Prop41ColorRGB
 90
        0
102
RTVSPost2010PropOp41
 70
     1
102
RTVSPost2010Prop42
 90
       50
102
RTVSPost2010PropOp42
 70
     1
102
RTVSPost2010Prop43
 90
        3
102
RTVSPost2010PropOp43
 70
     1
102
RTVSPost2010Prop44ColorIndex
 90
        5
102
RTVSPost2010Prop44ColorRGB
 90
      255
102
RTVSPost2010PropOp44
 70
     1
102
RTVSPost2010Prop45
280
     0
102
RTVSPost2010PropOp45
 70
     1
102
RTVSPost2010Prop46
 90
       50
102
RTVSPost2010PropOp46
 70
     1
102
RTVSPost2010Prop47
 90
       50
102
RTVSPost2010PropOp47
 70
     1
102
RTVSPost2010Prop48
 90
       50
102
RTVSPost2010PropOp48
 70
     1
102
RTVSPost2010Prop49
280
     0
102
RTVSPost2010PropOp49
 70
     1
102
RTVSPost2010Prop50
 90
       50
102
RTVSPost2010PropOp50
 70
     1
102
RTVSPost2010Prop51ColorIndex
 90
      256
102
RTVSPost2010Prop51ColorRGB
 90
-16777216
102
RTVSPost2010PropOp51
 70
     0
102
RTVSPost2010Prop52
140
1.0
102
RTVSPost2010PropOp52
 70
     0
102
RTVSPost2010Prop53
 90
        2
102
RTVSPost2010PropOp53
 70
     1
102
RTVSPost2010Prop54
  1
strokes_ogs.tif
102
RTVSPost2010PropOp54
 70
     1
102
RTVSPost2010Prop55
280
     0
102
RTVSPost2010PropOp55
 70
     1
102
RTVSPost2010Prop56
140
1.0
102
RTVSPost2010PropOp56
 70
     1
102
RTVSPost2010Prop57
140
1.0
102
RTVSPost2010PropOp57
 70
     1
102
RTVSPropertyOp0
 70
     1
102
RTVSPropertyOp1
 70
     1
102
RTVSPropertyOp2
 70
     1
102
RTVSPropertyOp3
 70
     1
102
RTVSPropertyOp4
 70
     1
102
RTVSPropertyOp5
 70
     1
102
RTVSPropertyOp6
 70
     1
102
RTVSPropertyOp7
 70
     1
102
RTVSPropertyOp8
 70
     1
102
RTVSPropertyOp9
 70
     1
102
RTVSPropertyOp10
 70
     1
102
RTVSPropertyOp11
 70
     1
102
RTVSPropertyOp12
 70
     1
102
RTVSPropertyOp13
 70
     1
102
RTVSPropertyOp14
 70
     1
102
RTVSPropertyOp15
 70
     1
102
RTVSPropertyOp16
 70
     1
102
RTVSPropertyOp17
 70
     1
102
RTVSPropertyOp18
 70
     1
102
RTVSPropertyOp19
 70
     1
102
RTVSPropertyOp20
 70
     1
102
RTVSPropertyOp21
 70
     1
102
RTVSPropertyOp22
 70
     1
102
RTVSPropertyOp23
 70
     1
102
RTVSPropertyOp24
 70
     1
102
RTVSPropertyOp25
 70
     1
102
RTVSPropertyOp26
 70
     1
102
RTVSPropertyOp27
 70
     1
102
RTVSPropertyOp28
 70
     1
102
RTVSPropertyOp29
 70
     1
102
RTVSPropertyOp30
 70
     1
102
RTVSPropertyOp31
 70
     1
102
RTVSPropertyOp32
 70
     1
102
RTVSPropertyOp33
 70
     1
102
RTVSPropertyOp34
 70
     1
102
RTVSPropertyOp35
 70
     1
102
RTVSPropertyOp36
 70
     1
102
RTVSPropertyOp37
 70
     1
102
RTVSPropertyOp38
 70
     1
102
RTVSPropertyOp39
 70
     1
102
RTVSPropertyOp40
 70
     1
102
RTVSPropertyOp41
 70
     1
102
RTVSPropertyOp42
 70
     1
102
RTVSPropertyOp43
 70
     1
102
RTVSPropertyOp44
 70
     1
102
RTVSPropertyOp45
 70
     1
102
RTVSPropertyOp46
 70
     1
102
RTVSPropertyOp47
 70
     1
102
RTVSPropertyOp48
 70
     1
102
RTVSPropertyOp49
 70
     1
102
RTVSPropertyOp50
 70
     1
102
RTVSPropertyOp51
 70
     0
102
RTVSPropertyOp52
 70
     0
102
RTVSPropertyOp53
 70
     1
102
RTVSPropertyOp54
 70
     1
102
RTVSPropertyOp55
 70
     1
102
RTVSPropertyOp56
 70
     1
102
RTVSPropertyOp57
 70
     1
102
RTVSPropertyOp58
 70
     1
102
RTVSPropertyOp59
 70
     1
102
RTVSPropertyOp60
 70
     1
102
RTVSPropertyOp61
 70
     1
102
RTVSPropertyOp62
 70
     1
  0
XRECORD
  5
3CC
102
{ACAD_REACTORS
330
3CB
102
}
330
3CB
100
AcDbXrecord
280
     1
102
RTVSPost2010Prop28
280
     0
102
RTVSPost2010PropOp28
 70
     1
102
RTVSPost2010Prop29
280
     1
102
RTVSPost2010PropOp29
 70
     1
102
RTVSPost2010Prop30
280
     1
102
RTVSPost2010PropOp30
 70
     1
102
RTVSPost2010Prop31
280
     0
102
RTVSPost2010PropOp31
 70
     1
102
RTVSPost2010Prop32
280
     0
102
RTVSPost2010PropOp32
 70
     1
102
RTVSPost2010Prop33
280
     0
102
RTVSPost2010PropOp33
 70
     1
102
RTVSPost2010Prop34
280
     0
102
RTVSPost2010PropOp34
 70
     1
102
RTVSPost2010Prop35
280
     0
102
RTVSPost2010PropOp35
 70
     1
102
RTVSPost2010Prop36
280
     0
102
RTVSPost2010PropOp36
 70
     1
102
RTVSPost2010Prop37
 90
       50
102
RTVSPost2010PropOp37
 70
     1
102
RTVSPost2010Prop38
140
0.0
102
RTVSPost2010PropOp38
 70
     1
102
RTVSPost2010Prop39
140
1.0
102
RTVSPost2010PropOp39
 70
     1
102
RTVSPost2010Prop40
 90
        0
102
RTVSPost2010PropOp40
 70
     1
102
RTVSPost2010Prop41ColorIndex
 90
       18
102
RTVSPost2010Prop41ColorRGB
 90
        0
102
RTVSPost2010PropOp41
 70
     1
102
RTVSPost2010Prop42
 90
       50
102
RTVSPost2010PropOp42
 70
     1
102
RTVSPost2010Prop43
 90
        3
102
RTVSPost2010PropOp43
 70
     1
102
RTVSPost2010Prop44ColorIndex
 90
        5
102
RTVSPost2010Prop44ColorRGB
 90
      255
102
RTVSPost2010PropOp44
 70
     1
102
RTVSPost2010Prop45
280
     0
102
RTVSPost2010PropOp45
 70
     1
102
RTVSPost2010Prop46
 90
       50
102
RTVSPost2010PropOp46
 70
     1
102
RTVSPost2010Prop47
 90
       50
102
RTVSPost2010PropOp47
 70
     1
102
RTVSPost2010Prop48
 90
       50
102
RTVSPost2010PropOp48
 70
     1
102
RTVSPost2010Prop49
280
     0
102
RTVSPost2010PropOp49
 70
     1
102
RTVSPost2010Prop50
 90
       50
102
RTVSPost2010PropOp50
 70
     1
102
RTVSPost2010Prop51ColorIndex
 90
      256
102
RTVSPost2010Prop51ColorRGB
 90
-16777216
102
RTVSPost2010PropOp51
 70
     0
102
RTVSPost2010Prop52
140
1.0
102
RTVSPost2010PropOp52
 70
     0
102
RTVSPost2010Prop53
 90
        2
102
RTVSPost2010PropOp53
 70
     1
102
RTVSPost2010Prop54
  1
strokes_ogs.tif
102
RTVSPost2010PropOp54
 70
     1
102
RTVSPost2010Prop55
280
     0
102
RTVSPost2010PropOp55
 70
     1
102
RTVSPost2010Prop56
140
1.0
102
RTVSPost2010PropOp56
 70
     1
102
RTVSPost2010Prop57
140
1.0
102
RTVSPost2010PropOp57
 70
     1
102
RTVSPropertyOp0
 70
     1
102
RTVSPropertyOp1
 70
     1
102
RTVSPropertyOp2
 70
     1
102
RTVSPropertyOp3
 70
     1
102
RTVSPropertyOp4
 70
     1
102
RTVSPropertyOp5
 70
     1
102
RTVSPropertyOp6
 70
     1
102
RTVSPropertyOp7
 70
     1
102
RTVSPropertyOp8
 70
     1
102
RTVSPropertyOp9
 70
     1
102
RTVSPropertyOp10
 70
     1
102
RTVSPropertyOp11
 70
     1
102
RTVSPropertyOp12
 70
     1
102
RTVSPropertyOp13
 70
     1
102
RTVSPropertyOp14
 70
     1
102
RTVSPropertyOp15
 70
     1
102
RTVSPropertyOp16
 70
     1
102
RTVSPropertyOp17
 70
     1
102
RTVSPropertyOp18
 70
     1
102
RTVSPropertyOp19
 70
     1
102
RTVSPropertyOp20
 70
     1
102
RTVSPropertyOp21
 70
     1
102
RTVSPropertyOp22
 70
     1
102
RTVSPropertyOp23
 70
     1
102
RTVSPropertyOp24
 70
     1
102
RTVSPropertyOp25
 70
     1
102
RTVSPropertyOp26
 70
     1
102
RTVSPropertyOp27
 70
     1
102
RTVSPropertyOp28
 70
     1
102
RTVSPropertyOp29
 70
     1
102
RTVSPropertyOp30
 70
     1
102
RTVSPropertyOp31
 70
     1
102
RTVSPropertyOp32
 70
     1
102
RTVSPropertyOp33
 70
     1
102
RTVSPropertyOp34
 70
     1
102
RTVSPropertyOp35
 70
     1
102
RTVSPropertyOp36
 70
     1
102
RTVSPropertyOp37
 70
     1
102
RTVSPropertyOp38
 70
     1
102
RTVSPropertyOp39
 70
     1
102
RTVSPropertyOp40
 70
     1
102
RTVSPropertyOp41
 70
     1
102
RTVSPropertyOp42
 70
     1
102
RTVSPropertyOp43
 70
     1
102
RTVSPropertyOp44
 70
     1
102
RTVSPropertyOp45
 70
     1
102
RTVSPropertyOp46
 70
     1
102
RTVSPropertyOp47
 70
     1
102
RTVSPropertyOp48
 70
     1
102
RTVSPropertyOp49
 70
     1
102
RTVSPropertyOp50
 70
     1
102
RTVSPropertyOp51
 70
     0
102
RTVSPropertyOp52
 70
     0
102
RTVSPropertyOp53
 70
     1
102
RTVSPropertyOp54
 70
     1
102
RTVSPropertyOp55
 70
     1
102
RTVSPropertyOp56
 70
     1
102
RTVSPropertyOp57
 70
     1
102
RTVSPropertyOp58
 70
     1
102
RTVSPropertyOp59
 70
     1
102
RTVSPropertyOp60
 70
     1
102
RTVSPropertyOp61
 70
     1
102
RTVSPropertyOp62
 70
     1
  0
XRECORD
  5
3CE
102
{ACAD_REACTORS
330
3CD
102
}
330
3CD
100
AcDbXrecord
280
     1
102
RTVSPost2010Prop28
280
     0
102
RTVSPost2010PropOp28
 70
     1
102
RTVSPost2010Prop29
280
     1
102
RTVSPost2010PropOp29
 70
     1
102
RTVSPost2010Prop30
280
     1
102
RTVSPost2010PropOp30
 70
     1
102
RTVSPost2010Prop31
280
     0
102
RTVSPost2010PropOp31
 70
     1
102
RTVSPost2010Prop32
280
     0
102
RTVSPost2010PropOp32
 70
     1
102
RTVSPost2010Prop33
280
     0
102
RTVSPost2010PropOp33
 70
     1
102
RTVSPost2010Prop34
280
     0
102
RTVSPost2010PropOp34
 70
     1
102
RTVSPost2010Prop35
280
     0
102
RTVSPost2010PropOp35
 70
     1
102
RTVSPost2010Prop36
280
     0
102
RTVSPost2010PropOp36
 70
     1
102
RTVSPost2010Prop37
 90
       50
102
RTVSPost2010PropOp37
 70
     1
102
RTVSPost2010Prop38
140
0.0
102
RTVSPost2010PropOp38
 70
     1
102
RTVSPost2010Prop39
140
1.0
102
RTVSPost2010PropOp39
 70
     1
102
RTVSPost2010Prop40
 90
        0
102
RTVSPost2010PropOp40
 70
     1
102
RTVSPost2010Prop41ColorIndex
 90
       18
102
RTVSPost2010Prop41ColorRGB
 90
        0
102
RTVSPost2010PropOp41
 70
     1
102
RTVSPost2010Prop42
 90
       50
102
RTVSPost2010PropOp42
 70
     1
102
RTVSPost2010Prop43
 90
        3
102
RTVSPost2010PropOp43
 70
     1
102
RTVSPost2010Prop44ColorIndex
 90
        5
102
RTVSPost2010Prop44ColorRGB
 90
      255
102
RTVSPost2010PropOp44
 70
     1
102
RTVSPost2010Prop45
280
     0
102
RTVSPost2010PropOp45
 70
     1
102
RTVSPost2010Prop46
 90
       50
102
RTVSPost2010PropOp46
 70
     1
102
RTVSPost2010Prop47
 90
       50
102
RTVSPost2010PropOp47
 70
     1
102
RTVSPost2010Prop48
 90
       50
102
RTVSPost2010PropOp48
 70
     1
102
RTVSPost2010Prop49
280
     0
102
RTVSPost2010PropOp49
 70
     1
102
RTVSPost2010Prop50
 90
       50
102
RTVSPost2010PropOp50
 70
     1
102
RTVSPost2010Prop51ColorIndex
 90
      256
102
RTVSPost2010Prop51ColorRGB
 90
-16777216
102
RTVSPost2010PropOp51
 70
     0
102
RTVSPost2010Prop52
140
1.0
102
RTVSPost2010PropOp52
 70
     0
102
RTVSPost2010Prop53
 90
        2
102
RTVSPost2010PropOp53
 70
     1
102
RTVSPost2010Prop54
  1
strokes_ogs.tif
102
RTVSPost2010PropOp54
 70
     1
102
RTVSPost2010Prop55
280
     0
102
RTVSPost2010PropOp55
 70
     1
102
RTVSPost2010Prop56
140
1.0
102
RTVSPost2010PropOp56
 70
     1
102
RTVSPost2010Prop57
140
1.0
102
RTVSPost2010PropOp57
 70
     1
102
RTVSPropertyOp0
 70
     1
102
RTVSPropertyOp1
 70
     1
102
RTVSPropertyOp2
 70
     1
102
RTVSPropertyOp3
 70
     1
102
RTVSPropertyOp4
 70
     1
102
RTVSPropertyOp5
 70
     1
102
RTVSPropertyOp6
 70
     1
102
RTVSPropertyOp7
 70
     1
102
RTVSPropertyOp8
 70
     1
102
RTVSPropertyOp9
 70
     1
102
RTVSPropertyOp10
 70
     1
102
RTVSPropertyOp11
 70
     1
102
RTVSPropertyOp12
 70
     1
102
RTVSPropertyOp13
 70
     1
102
RTVSPropertyOp14
 70
     1
102
RTVSPropertyOp15
 70
     1
102
RTVSPropertyOp16
 70
     1
102
RTVSPropertyOp17
 70
     1
102
RTVSPropertyOp18
 70
     1
102
RTVSPropertyOp19
 70
     1
102
RTVSPropertyOp20
 70
     1
102
RTVSPropertyOp21
 70
     1
102
RTVSPropertyOp22
 70
     1
102
RTVSPropertyOp23
 70
     1
102
RTVSPropertyOp24
 70
     1
102
RTVSPropertyOp25
 70
     1
102
RTVSPropertyOp26
 70
     1
102
RTVSPropertyOp27
 70
     1
102
RTVSPropertyOp28
 70
     1
102
RTVSPropertyOp29
 70
     1
102
RTVSPropertyOp30
 70
     1
102
RTVSPropertyOp31
 70
     1
102
RTVSPropertyOp32
 70
     1
102
RTVSPropertyOp33
 70
     1
102
RTVSPropertyOp34
 70
     1
102
RTVSPropertyOp35
 70
     1
102
RTVSPropertyOp36
 70
     1
102
RTVSPropertyOp37
 70
     1
102
RTVSPropertyOp38
 70
     1
102
RTVSPropertyOp39
 70
     1
102
RTVSPropertyOp40
 70
     1
102
RTVSPropertyOp41
 70
     1
102
RTVSPropertyOp42
 70
     1
102
RTVSPropertyOp43
 70
     1
102
RTVSPropertyOp44
 70
     1
102
RTVSPropertyOp45
 70
     1
102
RTVSPropertyOp46
 70
     1
102
RTVSPropertyOp47
 70
     1
102
RTVSPropertyOp48
 70
     1
102
RTVSPropertyOp49
 70
     1
102
RTVSPropertyOp50
 70
     1
102
RTVSPropertyOp51
 70
     0
102
RTVSPropertyOp52
 70
     0
102
RTVSPropertyOp53
 70
     1
102
RTVSPropertyOp54
 70
     1
102
RTVSPropertyOp55
 70
     1
102
RTVSPropertyOp56
 70
     1
102
RTVSPropertyOp57
 70
     1
102
RTVSPropertyOp58
 70
     1
102
RTVSPropertyOp59
 70
     1
102
RTVSPropertyOp60
 70
     1
102
RTVSPropertyOp61
 70
     1
102
RTVSPropertyOp62
 70
     1
  0
XRECORD
  5
3DE
102
{ACAD_REACTORS
330
3DD
102
}
330
3DD
100
AcDbXrecord
280
     1
102
RTVSPost2010Prop28
280
     0
102
RTVSPost2010PropOp28
 70
     0
102
RTVSPost2010Prop29
280
     1
102
RTVSPost2010PropOp29
 70
     0
102
RTVSPost2010Prop30
280
     1
102
RTVSPost2010PropOp30
 70
     0
102
RTVSPost2010Prop31
280
     0
102
RTVSPost2010PropOp31
 70
     0
102
RTVSPost2010Prop32
280
     0
102
RTVSPost2010PropOp32
 70
     0
102
RTVSPost2010Prop33
280
     0
102
RTVSPost2010PropOp33
 70
     0
102
RTVSPost2010Prop34
280
     0
102
RTVSPost2010PropOp34
 70
     0
102
RTVSPost2010Prop35
280
     0
102
RTVSPost2010PropOp35
 70
     0
102
RTVSPost2010Prop36
280
     0
102
RTVSPost2010PropOp36
 70
     0
102
RTVSPost2010Prop37
 90
       50
102
RTVSPost2010PropOp37
 70
     0
102
RTVSPost2010Prop38
140
0.0
102
RTVSPost2010PropOp38
 70
     0
102
RTVSPost2010Prop39
140
1.0
102
RTVSPost2010PropOp39
 70
     0
102
RTVSPost2010Prop40
 90
        0
102
RTVSPost2010PropOp40
 70
     0
102
RTVSPost2010Prop41ColorIndex
 90
       18
102
RTVSPost2010Prop41ColorRGB
 90
        0
102
RTVSPost2010PropOp41
 70
     0
102
RTVSPost2010Prop42
 90
       50
102
RTVSPost2010PropOp42
 70
     0
102
RTVSPost2010Prop43
 90
        3
102
RTVSPost2010PropOp43
 70
     0
102
RTVSPost2010Prop44ColorIndex
 90
        5
102
RTVSPost2010Prop44ColorRGB
 90
      255
102
RTVSPost2010PropOp44
 70
     0
102
RTVSPost2010Prop45
280
     0
102
RTVSPost2010PropOp45
 70
     0
102
RTVSPost2010Prop46
 90
       50
102
RTVSPost2010PropOp46
 70
     0
102
RTVSPost2010Prop47
 90
       50
102
RTVSPost2010PropOp47
 70
     0
102
RTVSPost2010Prop48
 90
       50
102
RTVSPost2010PropOp48
 70
     0
102
RTVSPost2010Prop49
280
     0
102
RTVSPost2010PropOp49
 70
     0
102
RTVSPost2010Prop50
 90
       50
102
RTVSPost2010PropOp50
 70
     0
102
RTVSPost2010Prop51ColorIndex
 90
      256
102
RTVSPost2010Prop51ColorRGB
 90
-16777216
102
RTVSPost2010PropOp51
 70
     0
102
RTVSPost2010Prop52
140
1.0
102
RTVSPost2010PropOp52
 70
     0
102
RTVSPost2010Prop53
 90
        2
102
RTVSPost2010PropOp53
 70
     0
102
RTVSPost2010Prop54
  1
strokes_ogs.tif
102
RTVSPost2010PropOp54
 70
     0
102
RTVSPost2010Prop55
280
     0
102
RTVSPost2010PropOp55
 70
     0
102
RTVSPost2010Prop56
140
1.0
102
RTVSPost2010PropOp56
 70
     0
102
RTVSPost2010Prop57
140
1.0
102
RTVSPost2010PropOp57
 70
     0
102
RTVSPropertyOp0
 70
     0
102
RTVSPropertyOp1
 70
     0
102
RTVSPropertyOp2
 70
     0
102
RTVSPropertyOp3
 70
     0
102
RTVSPropertyOp4
 70
     0
102
RTVSPropertyOp5
 70
     0
102
RTVSPropertyOp6
 70
     0
102
RTVSPropertyOp7
 70
     0
102
RTVSPropertyOp8
 70
     0
102
RTVSPropertyOp9
 70
     0
102
RTVSPropertyOp10
 70
     0
102
RTVSPropertyOp11
 70
     0
102
RTVSPropertyOp12
 70
     0
102
RTVSPropertyOp13
 70
     0
102
RTVSPropertyOp14
 70
     2
102
RTVSPropertyOp15
 70
     0
102
RTVSPropertyOp16
 70
     0
102
RTVSPropertyOp17
 70
     0
102
RTVSPropertyOp18
 70
     0
102
RTVSPropertyOp19
 70
     0
102
RTVSPropertyOp20
 70
     0
102
RTVSPropertyOp21
 70
     0
102
RTVSPropertyOp22
 70
     0
102
RTVSPropertyOp23
 70
     0
102
RTVSPropertyOp24
 70
     0
102
RTVSPropertyOp25
 70
     0
102
RTVSPropertyOp26
 70
     0
102
RTVSPropertyOp27
 70
     0
102
RTVSPropertyOp28
 70
     0
102
RTVSPropertyOp29
 70
     0
102
RTVSPropertyOp30
 70
     0
102
RTVSPropertyOp31
 70
     0
102
RTVSPropertyOp32
 70
     0
102
RTVSPropertyOp33
 70
     0
102
RTVSPropertyOp34
 70
     0
102
RTVSPropertyOp35
 70
     0
102
RTVSPropertyOp36
 70
     0
102
RTVSPropertyOp37
 70
     0
102
RTVSPropertyOp38
 70
     0
102
RTVSPropertyOp39
 70
     0
102
RTVSPropertyOp40
 70
     0
102
RTVSPropertyOp41
 70
     0
102
RTVSPropertyOp42
 70
     0
102
RTVSPropertyOp43
 70
     0
102
RTVSPropertyOp44
 70
     0
102
RTVSPropertyOp45
 70
     0
102
RTVSPropertyOp46
 70
     0
102
RTVSPropertyOp47
 70
     0
102
RTVSPropertyOp48
 70
     0
102
RTVSPropertyOp49
 70
     0
102
RTVSPropertyOp50
 70
     0
102
RTVSPropertyOp51
 70
     0
102
RTVSPropertyOp52
 70
     0
102
RTVSPropertyOp53
 70
     0
102
RTVSPropertyOp54
 70
     0
102
RTVSPropertyOp55
 70
     0
102
RTVSPropertyOp56
 70
     0
102
RTVSPropertyOp57
 70
     0
102
RTVSPropertyOp58
 70
     1
102
RTVSPropertyOp59
 70
     1
102
RTVSPropertyOp60
 70
     1
102
RTVSPropertyOp61
 70
     1
102
RTVSPropertyOp62
 70
     1
  0
XRECORD
  5
3D6
102
{ACAD_REACTORS
330
3D5
102
}
330
3D5
100
AcDbXrecord
280
     1
102
RTVSPost2010Prop28
280
     0
102
RTVSPost2010PropOp28
 70
     1
102
RTVSPost2010Prop29
280
     1
102
RTVSPost2010PropOp29
 70
     1
102
RTVSPost2010Prop30
280
     1
102
RTVSPost2010PropOp30
 70
     1
102
RTVSPost2010Prop31
280
     0
102
RTVSPost2010PropOp31
 70
     1
102
RTVSPost2010Prop32
280
     0
102
RTVSPost2010PropOp32
 70
     1
102
RTVSPost2010Prop33
280
     0
102
RTVSPost2010PropOp33
 70
     1
102
RTVSPost2010Prop34
280
     0
102
RTVSPost2010PropOp34
 70
     1
102
RTVSPost2010Prop35
280
     0
102
RTVSPost2010PropOp35
 70
     1
102
RTVSPost2010Prop36
280
     0
102
RTVSPost2010PropOp36
 70
     1
102
RTVSPost2010Prop37
 90
       50
102
RTVSPost2010PropOp37
 70
     1
102
RTVSPost2010Prop38
140
0.0
102
RTVSPost2010PropOp38
 70
     1
102
RTVSPost2010Prop39
140
1.0
102
RTVSPost2010PropOp39
 70
     1
102
RTVSPost2010Prop40
 90
        0
102
RTVSPost2010PropOp40
 70
     1
102
RTVSPost2010Prop41ColorIndex
 90
       18
102
RTVSPost2010Prop41ColorRGB
 90
        0
102
RTVSPost2010PropOp41
 70
     1
102
RTVSPost2010Prop42
 90
       50
102
RTVSPost2010PropOp42
 70
     1
102
RTVSPost2010Prop43
 90
        3
102
RTVSPost2010PropOp43
 70
     1
102
RTVSPost2010Prop44ColorIndex
 90
        5
102
RTVSPost2010Prop44ColorRGB
 90
      255
102
RTVSPost2010PropOp44
 70
     1
102
RTVSPost2010Prop45
280
     0
102
RTVSPost2010PropOp45
 70
     1
102
RTVSPost2010Prop46
 90
       50
102
RTVSPost2010PropOp46
 70
     1
102
RTVSPost2010Prop47
 90
       50
102
RTVSPost2010PropOp47
 70
     1
102
RTVSPost2010Prop48
 90
       50
102
RTVSPost2010PropOp48
 70
     1
102
RTVSPost2010Prop49
280
     0
102
RTVSPost2010PropOp49
 70
     1
102
RTVSPost2010Prop50
 90
       50
102
RTVSPost2010PropOp50
 70
     1
102
RTVSPost2010Prop51ColorIndex
 90
      256
102
RTVSPost2010Prop51ColorRGB
 90
-16777216
102
RTVSPost2010PropOp51
 70
     0
102
RTVSPost2010Prop52
140
1.0
102
RTVSPost2010PropOp52
 70
     0
102
RTVSPost2010Prop53
 90
        2
102
RTVSPost2010PropOp53
 70
     1
102
RTVSPost2010Prop54
  1
strokes_ogs.tif
102
RTVSPost2010PropOp54
 70
     1
102
RTVSPost2010Prop55
280
     0
102
RTVSPost2010PropOp55
 70
     1
102
RTVSPost2010Prop56
140
1.0
102
RTVSPost2010PropOp56
 70
     1
102
RTVSPost2010Prop57
140
1.0
102
RTVSPost2010PropOp57
 70
     1
102
RTVSPropertyOp0
 70
     1
102
RTVSPropertyOp1
 70
     1
102
RTVSPropertyOp2
 70
     1
102
RTVSPropertyOp3
 70
     1
102
RTVSPropertyOp4
 70
     1
102
RTVSPropertyOp5
 70
     1
102
RTVSPropertyOp6
 70
     1
102
RTVSPropertyOp7
 70
     1
102
RTVSPropertyOp8
 70
     1
102
RTVSPropertyOp9
 70
     1
102
RTVSPropertyOp10
 70
     1
102
RTVSPropertyOp11
 70
     1
102
RTVSPropertyOp12
 70
     1
102
RTVSPropertyOp13
 70
     1
102
RTVSPropertyOp14
 70
     1
102
RTVSPropertyOp15
 70
     1
102
RTVSPropertyOp16
 70
     1
102
RTVSPropertyOp17
 70
     1
102
RTVSPropertyOp18
 70
     1
102
RTVSPropertyOp19
 70
     1
102
RTVSPropertyOp20
 70
     1
102
RTVSPropertyOp21
 70
     1
102
RTVSPropertyOp22
 70
     1
102
RTVSPropertyOp23
 70
     1
102
RTVSPropertyOp24
 70
     1
102
RTVSPropertyOp25
 70
     1
102
RTVSPropertyOp26
 70
     1
102
RTVSPropertyOp27
 70
     1
102
RTVSPropertyOp28
 70
     1
102
RTVSPropertyOp29
 70
     1
102
RTVSPropertyOp30
 70
     1
102
RTVSPropertyOp31
 70
     1
102
RTVSPropertyOp32
 70
     1
102
RTVSPropertyOp33
 70
     1
102
RTVSPropertyOp34
 70
     1
102
RTVSPropertyOp35
 70
     1
102
RTVSPropertyOp36
 70
     1
102
RTVSPropertyOp37
 70
     1
102
RTVSPropertyOp38
 70
     1
102
RTVSPropertyOp39
 70
     1
102
RTVSPropertyOp40
 70
     1
102
RTVSPropertyOp41
 70
     1
102
RTVSPropertyOp42
 70
     1
102
RTVSPropertyOp43
 70
     1
102
RTVSPropertyOp44
 70
     1
102
RTVSPropertyOp45
 70
     1
102
RTVSPropertyOp46
 70
     1
102
RTVSPropertyOp47
 70
     1
102
RTVSPropertyOp48
 70
     1
102
RTVSPropertyOp49
 70
     1
102
RTVSPropertyOp50
 70
     1
102
RTVSPropertyOp51
 70
     0
102
RTVSPropertyOp52
 70
     0
102
RTVSPropertyOp53
 70
     1
102
RTVSPropertyOp54
 70
     1
102
RTVSPropertyOp55
 70
     1
102
RTVSPropertyOp56
 70
     1
102
RTVSPropertyOp57
 70
     1
102
RTVSPropertyOp58
 70
     1
102
RTVSPropertyOp59
 70
     1
102
RTVSPropertyOp60
 70
     1
102
RTVSPropertyOp61
 70
     1
102
RTVSPropertyOp62
 70
     1
  0
XRECORD
  5
3BA
102
{ACAD_REACTORS
330
3B9
102
}
330
3B9
100
AcDbXrecord
280
     1
102
RTVSPost2010Prop28
280
     0
102
RTVSPost2010PropOp28
 70
     1
102
RTVSPost2010Prop29
280
     1
102
RTVSPost2010PropOp29
 70
     1
102
RTVSPost2010Prop30
280
     1
102
RTVSPost2010PropOp30
 70
     1
102
RTVSPost2010Prop31
280
     0
102
RTVSPost2010PropOp31
 70
     1
102
RTVSPost2010Prop32
280
     0
102
RTVSPost2010PropOp32
 70
     1
102
RTVSPost2010Prop33
280
     0
102
RTVSPost2010PropOp33
 70
     1
102
RTVSPost2010Prop34
280
     0
102
RTVSPost2010PropOp34
 70
     1
102
RTVSPost2010Prop35
280
     0
102
RTVSPost2010PropOp35
 70
     1
102
RTVSPost2010Prop36
280
     0
102
RTVSPost2010PropOp36
 70
     1
102
RTVSPost2010Prop37
 90
       50
102
RTVSPost2010PropOp37
 70
     1
102
RTVSPost2010Prop38
140
0.0
102
RTVSPost2010PropOp38
 70
     1
102
RTVSPost2010Prop39
140
1.0
102
RTVSPost2010PropOp39
 70
     1
102
RTVSPost2010Prop40
 90
        0
102
RTVSPost2010PropOp40
 70
     1
102
RTVSPost2010Prop41ColorIndex
 90
       18
102
RTVSPost2010Prop41ColorRGB
 90
        0
102
RTVSPost2010PropOp41
 70
     1
102
RTVSPost2010Prop42
 90
       50
102
RTVSPost2010PropOp42
 70
     1
102
RTVSPost2010Prop43
 90
        3
102
RTVSPost2010PropOp43
 70
     1
102
RTVSPost2010Prop44ColorIndex
 90
        5
102
RTVSPost2010Prop44ColorRGB
 90
      255
102
RTVSPost2010PropOp44
 70
     1
102
RTVSPost2010Prop45
280
     0
102
RTVSPost2010PropOp45
 70
     1
102
RTVSPost2010Prop46
 90
       50
102
RTVSPost2010PropOp46
 70
     1
102
RTVSPost2010Prop47
 90
       50
102
RTVSPost2010PropOp47
 70
     1
102
RTVSPost2010Prop48
 90
       50
102
RTVSPost2010PropOp48
 70
     1
102
RTVSPost2010Prop49
280
     0
102
RTVSPost2010PropOp49
 70
     1
102
RTVSPost2010Prop50
 90
       50
102
RTVSPost2010PropOp50
 70
     1
102
RTVSPost2010Prop51ColorIndex
 90
      256
102
RTVSPost2010Prop51ColorRGB
 90
-16777216
102
RTVSPost2010PropOp51
 70
     0
102
RTVSPost2010Prop52
140
1.0
102
RTVSPost2010PropOp52
 70
     0
102
RTVSPost2010Prop53
 90
        2
102
RTVSPost2010PropOp53
 70
     1
102
RTVSPost2010Prop54
  1
strokes_ogs.tif
102
RTVSPost2010PropOp54
 70
     1
102
RTVSPost2010Prop55
280
     0
102
RTVSPost2010PropOp55
 70
     1
102
RTVSPost2010Prop56
140
1.0
102
RTVSPost2010PropOp56
 70
     1
102
RTVSPost2010Prop57
140
1.0
102
RTVSPost2010PropOp57
 70
     1
102
RTVSPropertyOp0
 70
     1
102
RTVSPropertyOp1
 70
     1
102
RTVSPropertyOp2
 70
     1
102
RTVSPropertyOp3
 70
     1
102
RTVSPropertyOp4
 70
     1
102
RTVSPropertyOp5
 70
     1
102
RTVSPropertyOp6
 70
     1
102
RTVSPropertyOp7
 70
     1
102
RTVSPropertyOp8
 70
     1
102
RTVSPropertyOp9
 70
     1
102
RTVSPropertyOp10
 70
     1
102
RTVSPropertyOp11
 70
     1
102
RTVSPropertyOp12
 70
     1
102
RTVSPropertyOp13
 70
     1
102
RTVSPropertyOp14
 70
     1
102
RTVSPropertyOp15
 70
     1
102
RTVSPropertyOp16
 70
     1
102
RTVSPropertyOp17
 70
     1
102
RTVSPropertyOp18
 70
     1
102
RTVSPropertyOp19
 70
     1
102
RTVSPropertyOp20
 70
     1
102
RTVSPropertyOp21
 70
     1
102
RTVSPropertyOp22
 70
     1
102
RTVSPropertyOp23
 70
     1
102
RTVSPropertyOp24
 70
     1
102
RTVSPropertyOp25
 70
     1
102
RTVSPropertyOp26
 70
     1
102
RTVSPropertyOp27
 70
     1
102
RTVSPropertyOp28
 70
     1
102
RTVSPropertyOp29
 70
     1
102
RTVSPropertyOp30
 70
     1
102
RTVSPropertyOp31
 70
     1
102
RTVSPropertyOp32
 70
     1
102
RTVSPropertyOp33
 70
     1
102
RTVSPropertyOp34
 70
     1
102
RTVSPropertyOp35
 70
     1
102
RTVSPropertyOp36
 70
     1
102
RTVSPropertyOp37
 70
     1
102
RTVSPropertyOp38
 70
     1
102
RTVSPropertyOp39
 70
     1
102
RTVSPropertyOp40
 70
     1
102
RTVSPropertyOp41
 70
     1
102
RTVSPropertyOp42
 70
     1
102
RTVSPropertyOp43
 70
     1
102
RTVSPropertyOp44
 70
     1
102
RTVSPropertyOp45
 70
     1
102
RTVSPropertyOp46
 70
     1
102
RTVSPropertyOp47
 70
     1
102
RTVSPropertyOp48
 70
     1
102
RTVSPropertyOp49
 70
     1
102
RTVSPropertyOp50
 70
     1
102
RTVSPropertyOp51
 70
     0
102
RTVSPropertyOp52
 70
     0
102
RTVSPropertyOp53
 70
     1
102
RTVSPropertyOp54
 70
     1
102
RTVSPropertyOp55
 70
     1
102
RTVSPropertyOp56
 70
     1
102
RTVSPropertyOp57
 70
     1
102
RTVSPropertyOp58
 70
     1
102
RTVSPropertyOp59
 70
     1
102
RTVSPropertyOp60
 70
     1
102
RTVSPropertyOp61
 70
     1
102
RTVSPropertyOp62
 70
     1
  0
XRECORD
  5
3BC
102
{ACAD_REACTORS
330
3BB
102
}
330
3BB
100
AcDbXrecord
280
     1
102
RTVSPost2010Prop28
280
     0
102
RTVSPost2010PropOp28
 70
     1
102
RTVSPost2010Prop29
280
     1
102
RTVSPost2010PropOp29
 70
     1
102
RTVSPost2010Prop30
280
     1
102
RTVSPost2010PropOp30
 70
     1
102
RTVSPost2010Prop31
280
     0
102
RTVSPost2010PropOp31
 70
     1
102
RTVSPost2010Prop32
280
     0
102
RTVSPost2010PropOp32
 70
     1
102
RTVSPost2010Prop33
280
     0
102
RTVSPost2010PropOp33
 70
     1
102
RTVSPost2010Prop34
280
     0
102
RTVSPost2010PropOp34
 70
     1
102
RTVSPost2010Prop35
280
     0
102
RTVSPost2010PropOp35
 70
     1
102
RTVSPost2010Prop36
280
     0
102
RTVSPost2010PropOp36
 70
     1
102
RTVSPost2010Prop37
 90
       50
102
RTVSPost2010PropOp37
 70
     1
102
RTVSPost2010Prop38
140
0.0
102
RTVSPost2010PropOp38
 70
     1
102
RTVSPost2010Prop39
140
1.0
102
RTVSPost2010PropOp39
 70
     1
102
RTVSPost2010Prop40
 90
        0
102
RTVSPost2010PropOp40
 70
     1
102
RTVSPost2010Prop41ColorIndex
 90
       18
102
RTVSPost2010Prop41ColorRGB
 90
        0
102
RTVSPost2010PropOp41
 70
     1
102
RTVSPost2010Prop42
 90
       50
102
RTVSPost2010PropOp42
 70
     1
102
RTVSPost2010Prop43
 90
        3
102
RTVSPost2010PropOp43
 70
     1
102
RTVSPost2010Prop44ColorIndex
 90
        5
102
RTVSPost2010Prop44ColorRGB
 90
      255
102
RTVSPost2010PropOp44
 70
     1
102
RTVSPost2010Prop45
280
     0
102
RTVSPost2010PropOp45
 70
     1
102
RTVSPost2010Prop46
 90
       50
102
RTVSPost2010PropOp46
 70
     1
102
RTVSPost2010Prop47
 90
       50
102
RTVSPost2010PropOp47
 70
     1
102
RTVSPost2010Prop48
 90
       50
102
RTVSPost2010PropOp48
 70
     1
102
RTVSPost2010Prop49
280
     0
102
RTVSPost2010PropOp49
 70
     1
102
RTVSPost2010Prop50
 90
       50
102
RTVSPost2010PropOp50
 70
     1
102
RTVSPost2010Prop51ColorIndex
 90
      256
102
RTVSPost2010Prop51ColorRGB
 90
-16777216
102
RTVSPost2010PropOp51
 70
     0
102
RTVSPost2010Prop52
140
1.0
102
RTVSPost2010PropOp52
 70
     0
102
RTVSPost2010Prop53
 90
        2
102
RTVSPost2010PropOp53
 70
     1
102
RTVSPost2010Prop54
  1
strokes_ogs.tif
102
RTVSPost2010PropOp54
 70
     1
102
RTVSPost2010Prop55
280
     0
102
RTVSPost2010PropOp55
 70
     1
102
RTVSPost2010Prop56
140
1.0
102
RTVSPost2010PropOp56
 70
     1
102
RTVSPost2010Prop57
140
1.0
102
RTVSPost2010PropOp57
 70
     1
102
RTVSPropertyOp0
 70
     1
102
RTVSPropertyOp1
 70
     1
102
RTVSPropertyOp2
 70
     1
102
RTVSPropertyOp3
 70
     1
102
RTVSPropertyOp4
 70
     1
102
RTVSPropertyOp5
 70
     1
102
RTVSPropertyOp6
 70
     1
102
RTVSPropertyOp7
 70
     1
102
RTVSPropertyOp8
 70
     1
102
RTVSPropertyOp9
 70
     1
102
RTVSPropertyOp10
 70
     1
102
RTVSPropertyOp11
 70
     1
102
RTVSPropertyOp12
 70
     1
102
RTVSPropertyOp13
 70
     1
102
RTVSPropertyOp14
 70
     1
102
RTVSPropertyOp15
 70
     1
102
RTVSPropertyOp16
 70
     1
102
RTVSPropertyOp17
 70
     1
102
RTVSPropertyOp18
 70
     1
102
RTVSPropertyOp19
 70
     1
102
RTVSPropertyOp20
 70
     1
102
RTVSPropertyOp21
 70
     1
102
RTVSPropertyOp22
 70
     1
102
RTVSPropertyOp23
 70
     1
102
RTVSPropertyOp24
 70
     1
102
RTVSPropertyOp25
 70
     1
102
RTVSPropertyOp26
 70
     1
102
RTVSPropertyOp27
 70
     1
102
RTVSPropertyOp28
 70
     1
102
RTVSPropertyOp29
 70
     1
102
RTVSPropertyOp30
 70
     1
102
RTVSPropertyOp31
 70
     1
102
RTVSPropertyOp32
 70
     1
102
RTVSPropertyOp33
 70
     1
102
RTVSPropertyOp34
 70
     1
102
RTVSPropertyOp35
 70
     1
102
RTVSPropertyOp36
 70
     1
102
RTVSPropertyOp37
 70
     1
102
RTVSPropertyOp38
 70
     1
102
RTVSPropertyOp39
 70
     1
102
RTVSPropertyOp40
 70
     1
102
RTVSPropertyOp41
 70
     1
102
RTVSPropertyOp42
 70
     1
102
RTVSPropertyOp43
 70
     1
102
RTVSPropertyOp44
 70
     1
102
RTVSPropertyOp45
 70
     1
102
RTVSPropertyOp46
 70
     1
102
RTVSPropertyOp47
 70
     1
102
RTVSPropertyOp48
 70
     1
102
RTVSPropertyOp49
 70
     1
102
RTVSPropertyOp50
 70
     1
102
RTVSPropertyOp51
 70
     0
102
RTVSPropertyOp52
 70
     0
102
RTVSPropertyOp53
 70
     1
102
RTVSPropertyOp54
 70
     1
102
RTVSPropertyOp55
 70
     1
102
RTVSPropertyOp56
 70
     1
102
RTVSPropertyOp57
 70
     1
102
RTVSPropertyOp58
 70
     1
102
RTVSPropertyOp59
 70
     1
102
RTVSPropertyOp60
 70
     1
102
RTVSPropertyOp61
 70
     1
102
RTVSPropertyOp62
 70
     1
  0
XRECORD
  5
3BE
102
{ACAD_REACTORS
330
3BD
102
}
330
3BD
100
AcDbXrecord
280
     1
102
RTVSPost2010Prop28
280
     0
102
RTVSPost2010PropOp28
 70
     1
102
RTVSPost2010Prop29
280
     1
102
RTVSPost2010PropOp29
 70
     1
102
RTVSPost2010Prop30
280
     1
102
RTVSPost2010PropOp30
 70
     1
102
RTVSPost2010Prop31
280
     0
102
RTVSPost2010PropOp31
 70
     1
102
RTVSPost2010Prop32
280
     0
102
RTVSPost2010PropOp32
 70
     1
102
RTVSPost2010Prop33
280
     0
102
RTVSPost2010PropOp33
 70
     1
102
RTVSPost2010Prop34
280
     0
102
RTVSPost2010PropOp34
 70
     1
102
RTVSPost2010Prop35
280
     0
102
RTVSPost2010PropOp35
 70
     1
102
RTVSPost2010Prop36
280
     0
102
RTVSPost2010PropOp36
 70
     1
102
RTVSPost2010Prop37
 90
       50
102
RTVSPost2010PropOp37
 70
     1
102
RTVSPost2010Prop38
140
0.0
102
RTVSPost2010PropOp38
 70
     1
102
RTVSPost2010Prop39
140
1.0
102
RTVSPost2010PropOp39
 70
     1
102
RTVSPost2010Prop40
 90
        0
102
RTVSPost2010PropOp40
 70
     1
102
RTVSPost2010Prop41ColorIndex
 90
       18
102
RTVSPost2010Prop41ColorRGB
 90
        0
102
RTVSPost2010PropOp41
 70
     1
102
RTVSPost2010Prop42
 90
       50
102
RTVSPost2010PropOp42
 70
     1
102
RTVSPost2010Prop43
 90
        3
102
RTVSPost2010PropOp43
 70
     1
102
RTVSPost2010Prop44ColorIndex
 90
        5
102
RTVSPost2010Prop44ColorRGB
 90
      255
102
RTVSPost2010PropOp44
 70
     1
102
RTVSPost2010Prop45
280
     0
102
RTVSPost2010PropOp45
 70
     1
102
RTVSPost2010Prop46
 90
       50
102
RTVSPost2010PropOp46
 70
     1
102
RTVSPost2010Prop47
 90
       50
102
RTVSPost2010PropOp47
 70
     1
102
RTVSPost2010Prop48
 90
       50
102
RTVSPost2010PropOp48
 70
     1
102
RTVSPost2010Prop49
280
     0
102
RTVSPost2010PropOp49
 70
     1
102
RTVSPost2010Prop50
 90
       50
102
RTVSPost2010PropOp50
 70
     1
102
RTVSPost2010Prop51ColorIndex
 90
      256
102
RTVSPost2010Prop51ColorRGB
 90
-16777216
102
RTVSPost2010PropOp51
 70
     0
102
RTVSPost2010Prop52
140
1.0
102
RTVSPost2010PropOp52
 70
     0
102
RTVSPost2010Prop53
 90
        2
102
RTVSPost2010PropOp53
 70
     1
102
RTVSPost2010Prop54
  1
strokes_ogs.tif
102
RTVSPost2010PropOp54
 70
     1
102
RTVSPost2010Prop55
280
     0
102
RTVSPost2010PropOp55
 70
     1
102
RTVSPost2010Prop56
140
1.0
102
RTVSPost2010PropOp56
 70
     1
102
RTVSPost2010Prop57
140
1.0
102
RTVSPost2010PropOp57
 70
     1
102
RTVSPropertyOp0
 70
     1
102
RTVSPropertyOp1
 70
     1
102
RTVSPropertyOp2
 70
     1
102
RTVSPropertyOp3
 70
     1
102
RTVSPropertyOp4
 70
     1
102
RTVSPropertyOp5
 70
     1
102
RTVSPropertyOp6
 70
     1
102
RTVSPropertyOp7
 70
     1
102
RTVSPropertyOp8
 70
     1
102
RTVSPropertyOp9
 70
     1
102
RTVSPropertyOp10
 70
     1
102
RTVSPropertyOp11
 70
     1
102
RTVSPropertyOp12
 70
     1
102
RTVSPropertyOp13
 70
     1
102
RTVSPropertyOp14
 70
     1
102
RTVSPropertyOp15
 70
     1
102
RTVSPropertyOp16
 70
     1
102
RTVSPropertyOp17
 70
     1
102
RTVSPropertyOp18
 70
     1
102
RTVSPropertyOp19
 70
     1
102
RTVSPropertyOp20
 70
     1
102
RTVSPropertyOp21
 70
     1
102
RTVSPropertyOp22
 70
     1
102
RTVSPropertyOp23
 70
     1
102
RTVSPropertyOp24
 70
     1
102
RTVSPropertyOp25
 70
     1
102
RTVSPropertyOp26
 70
     1
102
RTVSPropertyOp27
 70
     1
102
RTVSPropertyOp28
 70
     1
102
RTVSPropertyOp29
 70
     1
102
RTVSPropertyOp30
 70
     1
102
RTVSPropertyOp31
 70
     1
102
RTVSPropertyOp32
 70
     1
102
RTVSPropertyOp33
 70
     1
102
RTVSPropertyOp34
 70
     1
102
RTVSPropertyOp35
 70
     1
102
RTVSPropertyOp36
 70
     1
102
RTVSPropertyOp37
 70
     1
102
RTVSPropertyOp38
 70
     1
102
RTVSPropertyOp39
 70
     1
102
RTVSPropertyOp40
 70
     1
102
RTVSPropertyOp41
 70
     1
102
RTVSPropertyOp42
 70
     1
102
RTVSPropertyOp43
 70
     1
102
RTVSPropertyOp44
 70
     1
102
RTVSPropertyOp45
 70
     1
102
RTVSPropertyOp46
 70
     1
102
RTVSPropertyOp47
 70
     1
102
RTVSPropertyOp48
 70
     1
102
RTVSPropertyOp49
 70
     1
102
RTVSPropertyOp50
 70
     1
102
RTVSPropertyOp51
 70
     0
102
RTVSPropertyOp52
 70
     0
102
RTVSPropertyOp53
 70
     1
102
RTVSPropertyOp54
 70
     1
102
RTVSPropertyOp55
 70
     1
102
RTVSPropertyOp56
 70
     1
102
RTVSPropertyOp57
 70
     1
102
RTVSPropertyOp58
 70
     1
102
RTVSPropertyOp59
 70
     1
102
RTVSPropertyOp60
 70
     1
102
RTVSPropertyOp61
 70
     1
102
RTVSPropertyOp62
 70
     1
  0
XRECORD
  5
3C0
102
{ACAD_REACTORS
330
3BF
102
}
330
3BF
100
AcDbXrecord
280
     1
102
RTVSPost2010Prop28
280
     0
102
RTVSPost2010PropOp28
 70
     1
102
RTVSPost2010Prop29
280
     1
102
RTVSPost2010PropOp29
 70
     1
102
RTVSPost2010Prop30
280
     1
102
RTVSPost2010PropOp30
 70
     1
102
RTVSPost2010Prop31
280
     0
102
RTVSPost2010PropOp31
 70
     1
102
RTVSPost2010Prop32
280
     0
102
RTVSPost2010PropOp32
 70
     1
102
RTVSPost2010Prop33
280
     0
102
RTVSPost2010PropOp33
 70
     1
102
RTVSPost2010Prop34
280
     0
102
RTVSPost2010PropOp34
 70
     1
102
RTVSPost2010Prop35
280
     0
102
RTVSPost2010PropOp35
 70
     1
102
RTVSPost2010Prop36
280
     0
102
RTVSPost2010PropOp36
 70
     1
102
RTVSPost2010Prop37
 90
       50
102
RTVSPost2010PropOp37
 70
     1
102
RTVSPost2010Prop38
140
0.0
102
RTVSPost2010PropOp38
 70
     1
102
RTVSPost2010Prop39
140
1.0
102
RTVSPost2010PropOp39
 70
     1
102
RTVSPost2010Prop40
 90
        0
102
RTVSPost2010PropOp40
 70
     1
102
RTVSPost2010Prop41ColorIndex
 90
       18
102
RTVSPost2010Prop41ColorRGB
 90
        0
102
RTVSPost2010PropOp41
 70
     1
102
RTVSPost2010Prop42
 90
       50
102
RTVSPost2010PropOp42
 70
     1
102
RTVSPost2010Prop43
 90
        3
102
RTVSPost2010PropOp43
 70
     1
102
RTVSPost2010Prop44ColorIndex
 90
        5
102
RTVSPost2010Prop44ColorRGB
 90
      255
102
RTVSPost2010PropOp44
 70
     1
102
RTVSPost2010Prop45
280
     0
102
RTVSPost2010PropOp45
 70
     1
102
RTVSPost2010Prop46
 90
       50
102
RTVSPost2010PropOp46
 70
     1
102
RTVSPost2010Prop47
 90
       50
102
RTVSPost2010PropOp47
 70
     1
102
RTVSPost2010Prop48
 90
       50
102
RTVSPost2010PropOp48
 70
     1
102
RTVSPost2010Prop49
280
     0
102
RTVSPost2010PropOp49
 70
     1
102
RTVSPost2010Prop50
 90
       50
102
RTVSPost2010PropOp50
 70
     1
102
RTVSPost2010Prop51ColorIndex
 90
      256
102
RTVSPost2010Prop51ColorRGB
 90
-16777216
102
RTVSPost2010PropOp51
 70
     0
102
RTVSPost2010Prop52
140
1.0
102
RTVSPost2010PropOp52
 70
     0
102
RTVSPost2010Prop53
 90
        2
102
RTVSPost2010PropOp53
 70
     1
102
RTVSPost2010Prop54
  1
strokes_ogs.tif
102
RTVSPost2010PropOp54
 70
     1
102
RTVSPost2010Prop55
280
     0
102
RTVSPost2010PropOp55
 70
     1
102
RTVSPost2010Prop56
140
1.0
102
RTVSPost2010PropOp56
 70
     1
102
RTVSPost2010Prop57
140
1.0
102
RTVSPost2010PropOp57
 70
     1
102
RTVSPropertyOp0
 70
     1
102
RTVSPropertyOp1
 70
     1
102
RTVSPropertyOp2
 70
     1
102
RTVSPropertyOp3
 70
     1
102
RTVSPropertyOp4
 70
     1
102
RTVSPropertyOp5
 70
     1
102
RTVSPropertyOp6
 70
     1
102
RTVSPropertyOp7
 70
     1
102
RTVSPropertyOp8
 70
     1
102
RTVSPropertyOp9
 70
     1
102
RTVSPropertyOp10
 70
     1
102
RTVSPropertyOp11
 70
     1
102
RTVSPropertyOp12
 70
     1
102
RTVSPropertyOp13
 70
     1
102
RTVSPropertyOp14
 70
     1
102
RTVSPropertyOp15
 70
     1
102
RTVSPropertyOp16
 70
     1
102
RTVSPropertyOp17
 70
     1
102
RTVSPropertyOp18
 70
     1
102
RTVSPropertyOp19
 70
     1
102
RTVSPropertyOp20
 70
     1
102
RTVSPropertyOp21
 70
     1
102
RTVSPropertyOp22
 70
     1
102
RTVSPropertyOp23
 70
     1
102
RTVSPropertyOp24
 70
     1
102
RTVSPropertyOp25
 70
     1
102
RTVSPropertyOp26
 70
     1
102
RTVSPropertyOp27
 70
     1
102
RTVSPropertyOp28
 70
     1
102
RTVSPropertyOp29
 70
     1
102
RTVSPropertyOp30
 70
     1
102
RTVSPropertyOp31
 70
     1
102
RTVSPropertyOp32
 70
     1
102
RTVSPropertyOp33
 70
     1
102
RTVSPropertyOp34
 70
     1
102
RTVSPropertyOp35
 70
     1
102
RTVSPropertyOp36
 70
     1
102
RTVSPropertyOp37
 70
     1
102
RTVSPropertyOp38
 70
     1
102
RTVSPropertyOp39
 70
     1
102
RTVSPropertyOp40
 70
     1
102
RTVSPropertyOp41
 70
     1
102
RTVSPropertyOp42
 70
     1
102
RTVSPropertyOp43
 70
     1
102
RTVSPropertyOp44
 70
     1
102
RTVSPropertyOp45
 70
     1
102
RTVSPropertyOp46
 70
     1
102
RTVSPropertyOp47
 70
     1
102
RTVSPropertyOp48
 70
     1
102
RTVSPropertyOp49
 70
     1
102
RTVSPropertyOp50
 70
     1
102
RTVSPropertyOp51
 70
     0
102
RTVSPropertyOp52
 70
     0
102
RTVSPropertyOp53
 70
     1
102
RTVSPropertyOp54
 70
     1
102
RTVSPropertyOp55
 70
     1
102
RTVSPropertyOp56
 70
     1
102
RTVSPropertyOp57
 70
     1
102
RTVSPropertyOp58
 70
     1
102
RTVSPropertyOp59
 70
     1
102
RTVSPropertyOp60
 70
     1
102
RTVSPropertyOp61
 70
     1
102
RTVSPropertyOp62
 70
     1
  0
XRECORD
  5
3C6
102
{ACAD_REACTORS
330
3C5
102
}
330
3C5
100
AcDbXrecord
280
     1
102
RTVSPost2010Prop28
280
     0
102
RTVSPost2010PropOp28
 70
     1
102
RTVSPost2010Prop29
280
     1
102
RTVSPost2010PropOp29
 70
     1
102
RTVSPost2010Prop30
280
     1
102
RTVSPost2010PropOp30
 70
     1
102
RTVSPost2010Prop31
280
     0
102
RTVSPost2010PropOp31
 70
     1
102
RTVSPost2010Prop32
280
     0
102
RTVSPost2010PropOp32
 70
     1
102
RTVSPost2010Prop33
280
     0
102
RTVSPost2010PropOp33
 70
     1
102
RTVSPost2010Prop34
280
     0
102
RTVSPost2010PropOp34
 70
     1
102
RTVSPost2010Prop35
280
     0
102
RTVSPost2010PropOp35
 70
     1
102
RTVSPost2010Prop36
280
     0
102
RTVSPost2010PropOp36
 70
     1
102
RTVSPost2010Prop37
 90
       50
102
RTVSPost2010PropOp37
 70
     1
102
RTVSPost2010Prop38
140
0.0
102
RTVSPost2010PropOp38
 70
     1
102
RTVSPost2010Prop39
140
1.0
102
RTVSPost2010PropOp39
 70
     1
102
RTVSPost2010Prop40
 90
        0
102
RTVSPost2010PropOp40
 70
     1
102
RTVSPost2010Prop41ColorIndex
 90
       18
102
RTVSPost2010Prop41ColorRGB
 90
        0
102
RTVSPost2010PropOp41
 70
     1
102
RTVSPost2010Prop42
 90
       50
102
RTVSPost2010PropOp42
 70
     1
102
RTVSPost2010Prop43
 90
        3
102
RTVSPost2010PropOp43
 70
     1
102
RTVSPost2010Prop44ColorIndex
 90
        5
102
RTVSPost2010Prop44ColorRGB
 90
      255
102
RTVSPost2010PropOp44
 70
     1
102
RTVSPost2010Prop45
280
     0
102
RTVSPost2010PropOp45
 70
     1
102
RTVSPost2010Prop46
 90
       50
102
RTVSPost2010PropOp46
 70
     1
102
RTVSPost2010Prop47
 90
       50
102
RTVSPost2010PropOp47
 70
     1
102
RTVSPost2010Prop48
 90
       50
102
RTVSPost2010PropOp48
 70
     1
102
RTVSPost2010Prop49
280
     0
102
RTVSPost2010PropOp49
 70
     1
102
RTVSPost2010Prop50
 90
       50
102
RTVSPost2010PropOp50
 70
     1
102
RTVSPost2010Prop51ColorIndex
 90
      256
102
RTVSPost2010Prop51ColorRGB
 90
-16777216
102
RTVSPost2010PropOp51
 70
     0
102
RTVSPost2010Prop52
140
1.0
102
RTVSPost2010PropOp52
 70
     0
102
RTVSPost2010Prop53
 90
        2
102
RTVSPost2010PropOp53
 70
     1
102
RTVSPost2010Prop54
  1
strokes_ogs.tif
102
RTVSPost2010PropOp54
 70
     1
102
RTVSPost2010Prop55
280
     0
102
RTVSPost2010PropOp55
 70
     1
102
RTVSPost2010Prop56
140
1.0
102
RTVSPost2010PropOp56
 70
     1
102
RTVSPost2010Prop57
140
1.0
102
RTVSPost2010PropOp57
 70
     1
102
RTVSPropertyOp0
 70
     1
102
RTVSPropertyOp1
 70
     1
102
RTVSPropertyOp2
 70
     1
102
RTVSPropertyOp3
 70
     1
102
RTVSPropertyOp4
 70
     1
102
RTVSPropertyOp5
 70
     1
102
RTVSPropertyOp6
 70
     1
102
RTVSPropertyOp7
 70
     1
102
RTVSPropertyOp8
 70
     1
102
RTVSPropertyOp9
 70
     1
102
RTVSPropertyOp10
 70
     1
102
RTVSPropertyOp11
 70
     1
102
RTVSPropertyOp12
 70
     1
102
RTVSPropertyOp13
 70
     1
102
RTVSPropertyOp14
 70
     1
102
RTVSPropertyOp15
 70
     1
102
RTVSPropertyOp16
 70
     1
102
RTVSPropertyOp17
 70
     1
102
RTVSPropertyOp18
 70
     1
102
RTVSPropertyOp19
 70
     1
102
RTVSPropertyOp20
 70
     1
102
RTVSPropertyOp21
 70
     1
102
RTVSPropertyOp22
 70
     1
102
RTVSPropertyOp23
 70
     1
102
RTVSPropertyOp24
 70
     1
102
RTVSPropertyOp25
 70
     1
102
RTVSPropertyOp26
 70
     1
102
RTVSPropertyOp27
 70
     1
102
RTVSPropertyOp28
 70
     1
102
RTVSPropertyOp29
 70
     1
102
RTVSPropertyOp30
 70
     1
102
RTVSPropertyOp31
 70
     1
102
RTVSPropertyOp32
 70
     1
102
RTVSPropertyOp33
 70
     1
102
RTVSPropertyOp34
 70
     1
102
RTVSPropertyOp35
 70
     1
102
RTVSPropertyOp36
 70
     1
102
RTVSPropertyOp37
 70
     1
102
RTVSPropertyOp38
 70
     1
102
RTVSPropertyOp39
 70
     1
102
RTVSPropertyOp40
 70
     1
102
RTVSPropertyOp41
 70
     1
102
RTVSPropertyOp42
 70
     1
102
RTVSPropertyOp43
 70
     1
102
RTVSPropertyOp44
 70
     1
102
RTVSPropertyOp45
 70
     1
102
RTVSPropertyOp46
 70
     1
102
RTVSPropertyOp47
 70
     1
102
RTVSPropertyOp48
 70
     1
102
RTVSPropertyOp49
 70
     1
102
RTVSPropertyOp50
 70
     1
102
RTVSPropertyOp51
 70
     0
102
RTVSPropertyOp52
 70
     0
102
RTVSPropertyOp53
 70
     1
102
RTVSPropertyOp54
 70
     1
102
RTVSPropertyOp55
 70
     1
102
RTVSPropertyOp56
 70
     1
102
RTVSPropertyOp57
 70
     1
102
RTVSPropertyOp58
 70
     1
102
RTVSPropertyOp59
 70
     1
102
RTVSPropertyOp60
 70
     1
102
RTVSPropertyOp61
 70
     1
102
RTVSPropertyOp62
 70
     1
  0
XRECORD
  5
3DA
102
{ACAD_REACTORS
330
3D9
102
}
330
3D9
100
AcDbXrecord
280
     1
102
RTVSPost2010Prop28
280
     0
102
RTVSPost2010PropOp28
 70
     0
102
RTVSPost2010Prop29
280
     1
102
RTVSPost2010PropOp29
 70
     0
102
RTVSPost2010Prop30
280
     1
102
RTVSPost2010PropOp30
 70
     0
102
RTVSPost2010Prop31
280
     0
102
RTVSPost2010PropOp31
 70
     0
102
RTVSPost2010Prop32
280
     0
102
RTVSPost2010PropOp32
 70
     0
102
RTVSPost2010Prop33
280
     0
102
RTVSPost2010PropOp33
 70
     0
102
RTVSPost2010Prop34
280
     0
102
RTVSPost2010PropOp34
 70
     0
102
RTVSPost2010Prop35
280
     0
102
RTVSPost2010PropOp35
 70
     0
102
RTVSPost2010Prop36
280
     0
102
RTVSPost2010PropOp36
 70
     0
102
RTVSPost2010Prop37
 90
       50
102
RTVSPost2010PropOp37
 70
     0
102
RTVSPost2010Prop38
140
0.0
102
RTVSPost2010PropOp38
 70
     0
102
RTVSPost2010Prop39
140
1.0
102
RTVSPost2010PropOp39
 70
     0
102
RTVSPost2010Prop40
 90
        0
102
RTVSPost2010PropOp40
 70
     0
102
RTVSPost2010Prop41ColorIndex
 90
       18
102
RTVSPost2010Prop41ColorRGB
 90
        0
102
RTVSPost2010PropOp41
 70
     0
102
RTVSPost2010Prop42
 90
       50
102
RTVSPost2010PropOp42
 70
     0
102
RTVSPost2010Prop43
 90
        3
102
RTVSPost2010PropOp43
 70
     0
102
RTVSPost2010Prop44ColorIndex
 90
        5
102
RTVSPost2010Prop44ColorRGB
 90
      255
102
RTVSPost2010PropOp44
 70
     0
102
RTVSPost2010Prop45
280
     0
102
RTVSPost2010PropOp45
 70
     0
102
RTVSPost2010Prop46
 90
       50
102
RTVSPost2010PropOp46
 70
     0
102
RTVSPost2010Prop47
 90
       50
102
RTVSPost2010PropOp47
 70
     0
102
RTVSPost2010Prop48
 90
       50
102
RTVSPost2010PropOp48
 70
     0
102
RTVSPost2010Prop49
280
     0
102
RTVSPost2010PropOp49
 70
     0
102
RTVSPost2010Prop50
 90
       50
102
RTVSPost2010PropOp50
 70
     0
102
RTVSPost2010Prop51ColorIndex
 90
      256
102
RTVSPost2010Prop51ColorRGB
 90
-16777216
102
RTVSPost2010PropOp51
 70
     0
102
RTVSPost2010Prop52
140
1.0
102
RTVSPost2010PropOp52
 70
     0
102
RTVSPost2010Prop53
 90
        2
102
RTVSPost2010PropOp53
 70
     0
102
RTVSPost2010Prop54
  1
strokes_ogs.tif
102
RTVSPost2010PropOp54
 70
     0
102
RTVSPost2010Prop55
280
     0
102
RTVSPost2010PropOp55
 70
     0
102
RTVSPost2010Prop56
140
1.0
102
RTVSPost2010PropOp56
 70
     0
102
RTVSPost2010Prop57
140
1.0
102
RTVSPost2010PropOp57
 70
     0
102
RTVSPropertyOp0
 70
     0
102
RTVSPropertyOp1
 70
     0
102
RTVSPropertyOp2
 70
     0
102
RTVSPropertyOp3
 70
     0
102
RTVSPropertyOp4
 70
     0
102
RTVSPropertyOp5
 70
     0
102
RTVSPropertyOp6
 70
     0
102
RTVSPropertyOp7
 70
     0
102
RTVSPropertyOp8
 70
     0
102
RTVSPropertyOp9
 70
     0
102
RTVSPropertyOp10
 70
     0
102
RTVSPropertyOp11
 70
     0
102
RTVSPropertyOp12
 70
     0
102
RTVSPropertyOp13
 70
     0
102
RTVSPropertyOp14
 70
     2
102
RTVSPropertyOp15
 70
     0
102
RTVSPropertyOp16
 70
     0
102
RTVSPropertyOp17
 70
     0
102
RTVSPropertyOp18
 70
     0
102
RTVSPropertyOp19
 70
     0
102
RTVSPropertyOp20
 70
     0
102
RTVSPropertyOp21
 70
     0
102
RTVSPropertyOp22
 70
     0
102
RTVSPropertyOp23
 70
     0
102
RTVSPropertyOp24
 70
     0
102
RTVSPropertyOp25
 70
     0
102
RTVSPropertyOp26
 70
     0
102
RTVSPropertyOp27
 70
     0
102
RTVSPropertyOp28
 70
     0
102
RTVSPropertyOp29
 70
     0
102
RTVSPropertyOp30
 70
     0
102
RTVSPropertyOp31
 70
     0
102
RTVSPropertyOp32
 70
     0
102
RTVSPropertyOp33
 70
     0
102
RTVSPropertyOp34
 70
     0
102
RTVSPropertyOp35
 70
     0
102
RTVSPropertyOp36
 70
     0
102
RTVSPropertyOp37
 70
     0
102
RTVSPropertyOp38
 70
     0
102
RTVSPropertyOp39
 70
     0
102
RTVSPropertyOp40
 70
     0
102
RTVSPropertyOp41
 70
     0
102
RTVSPropertyOp42
 70
     0
102
RTVSPropertyOp43
 70
     0
102
RTVSPropertyOp44
 70
     0
102
RTVSPropertyOp45
 70
     0
102
RTVSPropertyOp46
 70
     0
102
RTVSPropertyOp47
 70
     0
102
RTVSPropertyOp48
 70
     0
102
RTVSPropertyOp49
 70
     0
102
RTVSPropertyOp50
 70
     0
102
RTVSPropertyOp51
 70
     0
102
RTVSPropertyOp52
 70
     0
102
RTVSPropertyOp53
 70
     0
102
RTVSPropertyOp54
 70
     0
102
RTVSPropertyOp55
 70
     0
102
RTVSPropertyOp56
 70
     0
102
RTVSPropertyOp57
 70
     0
102
RTVSPropertyOp58
 70
     1
102
RTVSPropertyOp59
 70
     1
102
RTVSPropertyOp60
 70
     1
102
RTVSPropertyOp61
 70
     1
102
RTVSPropertyOp62
 70
     1
  0
XRECORD
  5
3D4
102
{ACAD_REACTORS
330
3D3
102
}
330
3D3
100
AcDbXrecord
280
     1
102
RTVSPost2010Prop28
280
     0
102
RTVSPost2010PropOp28
 70
     1
102
RTVSPost2010Prop29
280
     1
102
RTVSPost2010PropOp29
 70
     1
102
RTVSPost2010Prop30
280
     1
102
RTVSPost2010PropOp30
 70
     1
102
RTVSPost2010Prop31
280
     0
102
RTVSPost2010PropOp31
 70
     1
102
RTVSPost2010Prop32
280
     0
102
RTVSPost2010PropOp32
 70
     1
102
RTVSPost2010Prop33
280
     0
102
RTVSPost2010PropOp33
 70
     1
102
RTVSPost2010Prop34
280
     0
102
RTVSPost2010PropOp34
 70
     1
102
RTVSPost2010Prop35
280
     0
102
RTVSPost2010PropOp35
 70
     1
102
RTVSPost2010Prop36
280
     0
102
RTVSPost2010PropOp36
 70
     1
102
RTVSPost2010Prop37
 90
       50
102
RTVSPost2010PropOp37
 70
     1
102
RTVSPost2010Prop38
140
0.0
102
RTVSPost2010PropOp38
 70
     1
102
RTVSPost2010Prop39
140
1.0
102
RTVSPost2010PropOp39
 70
     1
102
RTVSPost2010Prop40
 90
        0
102
RTVSPost2010PropOp40
 70
     1
102
RTVSPost2010Prop41ColorIndex
 90
       18
102
RTVSPost2010Prop41ColorRGB
 90
        0
102
RTVSPost2010PropOp41
 70
     1
102
RTVSPost2010Prop42
 90
       50
102
RTVSPost2010PropOp42
 70
     1
102
RTVSPost2010Prop43
 90
        3
102
RTVSPost2010PropOp43
 70
     1
102
RTVSPost2010Prop44ColorIndex
 90
        5
102
RTVSPost2010Prop44ColorRGB
 90
      255
102
RTVSPost2010PropOp44
 70
     1
102
RTVSPost2010Prop45
280
     0
102
RTVSPost2010PropOp45
 70
     1
102
RTVSPost2010Prop46
 90
       50
102
RTVSPost2010PropOp46
 70
     1
102
RTVSPost2010Prop47
 90
       50
102
RTVSPost2010PropOp47
 70
     1
102
RTVSPost2010Prop48
 90
       50
102
RTVSPost2010PropOp48
 70
     1
102
RTVSPost2010Prop49
280
     0
102
RTVSPost2010PropOp49
 70
     1
102
RTVSPost2010Prop50
 90
       50
102
RTVSPost2010PropOp50
 70
     1
102
RTVSPost2010Prop51ColorIndex
 90
      256
102
RTVSPost2010Prop51ColorRGB
 90
-16777216
102
RTVSPost2010PropOp51
 70
     0
102
RTVSPost2010Prop52
140
1.0
102
RTVSPost2010PropOp52
 70
     0
102
RTVSPost2010Prop53
 90
        2
102
RTVSPost2010PropOp53
 70
     1
102
RTVSPost2010Prop54
  1
strokes_ogs.tif
102
RTVSPost2010PropOp54
 70
     1
102
RTVSPost2010Prop55
280
     0
102
RTVSPost2010PropOp55
 70
     1
102
RTVSPost2010Prop56
140
1.0
102
RTVSPost2010PropOp56
 70
     1
102
RTVSPost2010Prop57
140
1.0
102
RTVSPost2010PropOp57
 70
     1
102
RTVSPropertyOp0
 70
     1
102
RTVSPropertyOp1
 70
     1
102
RTVSPropertyOp2
 70
     1
102
RTVSPropertyOp3
 70
     1
102
RTVSPropertyOp4
 70
     1
102
RTVSPropertyOp5
 70
     1
102
RTVSPropertyOp6
 70
     1
102
RTVSPropertyOp7
 70
     1
102
RTVSPropertyOp8
 70
     1
102
RTVSPropertyOp9
 70
     1
102
RTVSPropertyOp10
 70
     1
102
RTVSPropertyOp11
 70
     1
102
RTVSPropertyOp12
 70
     1
102
RTVSPropertyOp13
 70
     1
102
RTVSPropertyOp14
 70
     1
102
RTVSPropertyOp15
 70
     1
102
RTVSPropertyOp16
 70
     1
102
RTVSPropertyOp17
 70
     1
102
RTVSPropertyOp18
 70
     1
102
RTVSPropertyOp19
 70
     1
102
RTVSPropertyOp20
 70
     1
102
RTVSPropertyOp21
 70
     1
102
RTVSPropertyOp22
 70
     1
102
RTVSPropertyOp23
 70
     1
102
RTVSPropertyOp24
 70
     1
102
RTVSPropertyOp25
 70
     1
102
RTVSPropertyOp26
 70
     1
102
RTVSPropertyOp27
 70
     1
102
RTVSPropertyOp28
 70
     1
102
RTVSPropertyOp29
 70
     1
102
RTVSPropertyOp30
 70
     1
102
RTVSPropertyOp31
 70
     1
102
RTVSPropertyOp32
 70
     1
102
RTVSPropertyOp33
 70
     1
102
RTVSPropertyOp34
 70
     1
102
RTVSPropertyOp35
 70
     1
102
RTVSPropertyOp36
 70
     1
102
RTVSPropertyOp37
 70
     1
102
RTVSPropertyOp38
 70
     1
102
RTVSPropertyOp39
 70
     1
102
RTVSPropertyOp40
 70
     1
102
RTVSPropertyOp41
 70
     1
102
RTVSPropertyOp42
 70
     1
102
RTVSPropertyOp43
 70
     1
102
RTVSPropertyOp44
 70
     1
102
RTVSPropertyOp45
 70
     1
102
RTVSPropertyOp46
 70
     1
102
RTVSPropertyOp47
 70
     1
102
RTVSPropertyOp48
 70
     1
102
RTVSPropertyOp49
 70
     1
102
RTVSPropertyOp50
 70
     1
102
RTVSPropertyOp51
 70
     0
102
RTVSPropertyOp52
 70
     0
102
RTVSPropertyOp53
 70
     1
102
RTVSPropertyOp54
 70
     1
102
RTVSPropertyOp55
 70
     1
102
RTVSPropertyOp56
 70
     1
102
RTVSPropertyOp57
 70
     1
102
RTVSPropertyOp58
 70
     1
102
RTVSPropertyOp59
 70
     1
102
RTVSPropertyOp60
 70
     1
102
RTVSPropertyOp61
 70
     1
102
RTVSPropertyOp62
 70
     1
  0
XRECORD
  5
3DC
102
{ACAD_REACTORS
330
3DB
102
}
330
3DB
100
AcDbXrecord
280
     1
102
RTVSPost2010Prop28
280
     0
102
RTVSPost2010PropOp28
 70
     0
102
RTVSPost2010Prop29
280
     1
102
RTVSPost2010PropOp29
 70
     0
102
RTVSPost2010Prop30
280
     1
102
RTVSPost2010PropOp30
 70
     0
102
RTVSPost2010Prop31
280
     0
102
RTVSPost2010PropOp31
 70
     0
102
RTVSPost2010Prop32
280
     0
102
RTVSPost2010PropOp32
 70
     0
102
RTVSPost2010Prop33
280
     0
102
RTVSPost2010PropOp33
 70
     0
102
RTVSPost2010Prop34
280
     0
102
RTVSPost2010PropOp34
 70
     0
102
RTVSPost2010Prop35
280
     0
102
RTVSPost2010PropOp35
 70
     0
102
RTVSPost2010Prop36
280
     0
102
RTVSPost2010PropOp36
 70
     0
102
RTVSPost2010Prop37
 90
       50
102
RTVSPost2010PropOp37
 70
     0
102
RTVSPost2010Prop38
140
0.0
102
RTVSPost2010PropOp38
 70
     0
102
RTVSPost2010Prop39
140
1.0
102
RTVSPost2010PropOp39
 70
     0
102
RTVSPost2010Prop40
 90
        0
102
RTVSPost2010PropOp40
 70
     0
102
RTVSPost2010Prop41ColorIndex
 90
       18
102
RTVSPost2010Prop41ColorRGB
 90
        0
102
RTVSPost2010PropOp41
 70
     0
102
RTVSPost2010Prop42
 90
       50
102
RTVSPost2010PropOp42
 70
     0
102
RTVSPost2010Prop43
 90
        3
102
RTVSPost2010PropOp43
 70
     0
102
RTVSPost2010Prop44ColorIndex
 90
        5
102
RTVSPost2010Prop44ColorRGB
 90
      255
102
RTVSPost2010PropOp44
 70
     0
102
RTVSPost2010Prop45
280
     0
102
RTVSPost2010PropOp45
 70
     0
102
RTVSPost2010Prop46
 90
       50
102
RTVSPost2010PropOp46
 70
     0
102
RTVSPost2010Prop47
 90
       50
102
RTVSPost2010PropOp47
 70
     0
102
RTVSPost2010Prop48
 90
       50
102
RTVSPost2010PropOp48
 70
     0
102
RTVSPost2010Prop49
280
     0
102
RTVSPost2010PropOp49
 70
     0
102
RTVSPost2010Prop50
 90
       50
102
RTVSPost2010PropOp50
 70
     0
102
RTVSPost2010Prop51ColorIndex
 90
      256
102
RTVSPost2010Prop51ColorRGB
 90
-16777216
102
RTVSPost2010PropOp51
 70
     0
102
RTVSPost2010Prop52
140
1.0
102
RTVSPost2010PropOp52
 70
     0
102
RTVSPost2010Prop53
 90
        2
102
RTVSPost2010PropOp53
 70
     0
102
RTVSPost2010Prop54
  1
strokes_ogs.tif
102
RTVSPost2010PropOp54
 70
     0
102
RTVSPost2010Prop55
280
     0
102
RTVSPost2010PropOp55
 70
     0
102
RTVSPost2010Prop56
140
1.0
102
RTVSPost2010PropOp56
 70
     0
102
RTVSPost2010Prop57
140
1.0
102
RTVSPost2010PropOp57
 70
     0
102
RTVSPropertyOp0
 70
     0
102
RTVSPropertyOp1
 70
     0
102
RTVSPropertyOp2
 70
     0
102
RTVSPropertyOp3
 70
     0
102
RTVSPropertyOp4
 70
     0
102
RTVSPropertyOp5
 70
     0
102
RTVSPropertyOp6
 70
     0
102
RTVSPropertyOp7
 70
     0
102
RTVSPropertyOp8
 70
     0
102
RTVSPropertyOp9
 70
     0
102
RTVSPropertyOp10
 70
     0
102
RTVSPropertyOp11
 70
     0
102
RTVSPropertyOp12
 70
     0
102
RTVSPropertyOp13
 70
     0
102
RTVSPropertyOp14
 70
     2
102
RTVSPropertyOp15
 70
     0
102
RTVSPropertyOp16
 70
     0
102
RTVSPropertyOp17
 70
     0
102
RTVSPropertyOp18
 70
     0
102
RTVSPropertyOp19
 70
     0
102
RTVSPropertyOp20
 70
     0
102
RTVSPropertyOp21
 70
     0
102
RTVSPropertyOp22
 70
     0
102
RTVSPropertyOp23
 70
     0
102
RTVSPropertyOp24
 70
     0
102
RTVSPropertyOp25
 70
     0
102
RTVSPropertyOp26
 70
     0
102
RTVSPropertyOp27
 70
     0
102
RTVSPropertyOp28
 70
     0
102
RTVSPropertyOp29
 70
     0
102
RTVSPropertyOp30
 70
     0
102
RTVSPropertyOp31
 70
     0
102
RTVSPropertyOp32
 70
     0
102
RTVSPropertyOp33
 70
     0
102
RTVSPropertyOp34
 70
     0
102
RTVSPropertyOp35
 70
     0
102
RTVSPropertyOp36
 70
     0
102
RTVSPropertyOp37
 70
     0
102
RTVSPropertyOp38
 70
     0
102
RTVSPropertyOp39
 70
     0
102
RTVSPropertyOp40
 70
     0
102
RTVSPropertyOp41
 70
     0
102
RTVSPropertyOp42
 70
     0
102
RTVSPropertyOp43
 70
     0
102
RTVSPropertyOp44
 70
     0
102
RTVSPropertyOp45
 70
     0
102
RTVSPropertyOp46
 70
     0
102
RTVSPropertyOp47
 70
     0
102
RTVSPropertyOp48
 70
     0
102
RTVSPropertyOp49
 70
     0
102
RTVSPropertyOp50
 70
     0
102
RTVSPropertyOp51
 70
     0
102
RTVSPropertyOp52
 70
     0
102
RTVSPropertyOp53
 70
     0
102
RTVSPropertyOp54
 70
     0
102
RTVSPropertyOp55
 70
     0
102
RTVSPropertyOp56
 70
     0
102
RTVSPropertyOp57
 70
     0
102
RTVSPropertyOp58
 70
     1
102
RTVSPropertyOp59
 70
     1
102
RTVSPropertyOp60
 70
     1
102
RTVSPropertyOp61
 70
     1
102
RTVSPropertyOp62
 70
     1
  0
XRECORD
  5
3CA
102
{ACAD_REACTORS
330
3C9
102
}
330
3C9
100
AcDbXrecord
280
     1
102
RTVSPost2010Prop28
280
     0
102
RTVSPost2010PropOp28
 70
     1
102
RTVSPost2010Prop29
280
     1
102
RTVSPost2010PropOp29
 70
     1
102
RTVSPost2010Prop30
280
     1
102
RTVSPost2010PropOp30
 70
     1
102
RTVSPost2010Prop31
280
     0
102
RTVSPost2010PropOp31
 70
     1
102
RTVSPost2010Prop32
280
     0
102
RTVSPost2010PropOp32
 70
     1
102
RTVSPost2010Prop33
280
     0
102
RTVSPost2010PropOp33
 70
     1
102
RTVSPost2010Prop34
280
     0
102
RTVSPost2010PropOp34
 70
     1
102
RTVSPost2010Prop35
280
     0
102
RTVSPost2010PropOp35
 70
     1
102
RTVSPost2010Prop36
280
     0
102
RTVSPost2010PropOp36
 70
     1
102
RTVSPost2010Prop37
 90
       50
102
RTVSPost2010PropOp37
 70
     1
102
RTVSPost2010Prop38
140
0.0
102
RTVSPost2010PropOp38
 70
     1
102
RTVSPost2010Prop39
140
1.0
102
RTVSPost2010PropOp39
 70
     1
102
RTVSPost2010Prop40
 90
        0
102
RTVSPost2010PropOp40
 70
     1
102
RTVSPost2010Prop41ColorIndex
 90
       18
102
RTVSPost2010Prop41ColorRGB
 90
        0
102
RTVSPost2010PropOp41
 70
     1
102
RTVSPost2010Prop42
 90
       50
102
RTVSPost2010PropOp42
 70
     1
102
RTVSPost2010Prop43
 90
        3
102
RTVSPost2010PropOp43
 70
     1
102
RTVSPost2010Prop44ColorIndex
 90
        5
102
RTVSPost2010Prop44ColorRGB
 90
      255
102
RTVSPost2010PropOp44
 70
     1
102
RTVSPost2010Prop45
280
     0
102
RTVSPost2010PropOp45
 70
     1
102
RTVSPost2010Prop46
 90
       50
102
RTVSPost2010PropOp46
 70
     1
102
RTVSPost2010Prop47
 90
       50
102
RTVSPost2010PropOp47
 70
     1
102
RTVSPost2010Prop48
 90
       50
102
RTVSPost2010PropOp48
 70
     1
102
RTVSPost2010Prop49
280
     0
102
RTVSPost2010PropOp49
 70
     1
102
RTVSPost2010Prop50
 90
       50
102
RTVSPost2010PropOp50
 70
     1
102
RTVSPost2010Prop51ColorIndex
 90
      256
102
RTVSPost2010Prop51ColorRGB
 90
-16777216
102
RTVSPost2010PropOp51
 70
     0
102
RTVSPost2010Prop52
140
1.0
102
RTVSPost2010PropOp52
 70
     0
102
RTVSPost2010Prop53
 90
        2
102
RTVSPost2010PropOp53
 70
     1
102
RTVSPost2010Prop54
  1
strokes_ogs.tif
102
RTVSPost2010PropOp54
 70
     1
102
RTVSPost2010Prop55
280
     0
102
RTVSPost2010PropOp55
 70
     1
102
RTVSPost2010Prop56
140
1.0
102
RTVSPost2010PropOp56
 70
     1
102
RTVSPost2010Prop57
140
1.0
102
RTVSPost2010PropOp57
 70
     1
102
RTVSPropertyOp0
 70
     1
102
RTVSPropertyOp1
 70
     1
102
RTVSPropertyOp2
 70
     1
102
RTVSPropertyOp3
 70
     1
102
RTVSPropertyOp4
 70
     1
102
RTVSPropertyOp5
 70
     1
102
RTVSPropertyOp6
 70
     1
102
RTVSPropertyOp7
 70
     1
102
RTVSPropertyOp8
 70
     1
102
RTVSPropertyOp9
 70
     1
102
RTVSPropertyOp10
 70
     1
102
RTVSPropertyOp11
 70
     1
102
RTVSPropertyOp12
 70
     1
102
RTVSPropertyOp13
 70
     1
102
RTVSPropertyOp14
 70
     1
102
RTVSPropertyOp15
 70
     1
102
RTVSPropertyOp16
 70
     1
102
RTVSPropertyOp17
 70
     1
102
RTVSPropertyOp18
 70
     1
102
RTVSPropertyOp19
 70
     1
102
RTVSPropertyOp20
 70
     1
102
RTVSPropertyOp21
 70
     1
102
RTVSPropertyOp22
 70
     1
102
RTVSPropertyOp23
 70
     1
102
RTVSPropertyOp24
 70
     1
102
RTVSPropertyOp25
 70
     1
102
RTVSPropertyOp26
 70
     1
102
RTVSPropertyOp27
 70
     1
102
RTVSPropertyOp28
 70
     1
102
RTVSPropertyOp29
 70
     1
102
RTVSPropertyOp30
 70
     1
102
RTVSPropertyOp31
 70
     1
102
RTVSPropertyOp32
 70
     1
102
RTVSPropertyOp33
 70
     1
102
RTVSPropertyOp34
 70
     1
102
RTVSPropertyOp35
 70
     1
102
RTVSPropertyOp36
 70
     1
102
RTVSPropertyOp37
 70
     1
102
RTVSPropertyOp38
 70
     1
102
RTVSPropertyOp39
 70
     1
102
RTVSPropertyOp40
 70
     1
102
RTVSPropertyOp41
 70
     1
102
RTVSPropertyOp42
 70
     1
102
RTVSPropertyOp43
 70
     1
102
RTVSPropertyOp44
 70
     1
102
RTVSPropertyOp45
 70
     1
102
RTVSPropertyOp46
 70
     1
102
RTVSPropertyOp47
 70
     1
102
RTVSPropertyOp48
 70
     1
102
RTVSPropertyOp49
 70
     1
102
RTVSPropertyOp50
 70
     1
102
RTVSPropertyOp51
 70
     0
102
RTVSPropertyOp52
 70
     0
102
RTVSPropertyOp53
 70
     1
102
RTVSPropertyOp54
 70
     1
102
RTVSPropertyOp55
 70
     1
102
RTVSPropertyOp56
 70
     1
102
RTVSPropertyOp57
 70
     1
102
RTVSPropertyOp58
 70
     1
102
RTVSPropertyOp59
 70
     1
102
RTVSPropertyOp60
 70
     1
102
RTVSPropertyOp61
 70
     1
102
RTVSPropertyOp62
 70
     1
  0
XRECORD
  5
3E8
102
{ACAD_REACTORS
330
3E7
102
}
330
3E7
100
AcDbXrecord
280
     1
102
RTVSPost2010Prop28
280
     0
102
RTVSPost2010PropOp28
 70
     1
102
RTVSPost2010Prop29
280
     1
102
RTVSPost2010PropOp29
 70
     1
102
RTVSPost2010Prop30
280
     1
102
RTVSPost2010PropOp30
 70
     1
102
RTVSPost2010Prop31
280
     0
102
RTVSPost2010PropOp31
 70
     1
102
RTVSPost2010Prop32
280
     0
102
RTVSPost2010PropOp32
 70
     1
102
RTVSPost2010Prop33
280
     0
102
RTVSPost2010PropOp33
 70
     1
102
RTVSPost2010Prop34
280
     0
102
RTVSPost2010PropOp34
 70
     1
102
RTVSPost2010Prop35
280
     0
102
RTVSPost2010PropOp35
 70
     1
102
RTVSPost2010Prop36
280
     0
102
RTVSPost2010PropOp36
 70
     1
102
RTVSPost2010Prop37
 90
       50
102
RTVSPost2010PropOp37
 70
     1
102
RTVSPost2010Prop38
140
0.0
102
RTVSPost2010PropOp38
 70
     1
102
RTVSPost2010Prop39
140
1.0
102
RTVSPost2010PropOp39
 70
     1
102
RTVSPost2010Prop40
 90
        0
102
RTVSPost2010PropOp40
 70
     1
102
RTVSPost2010Prop41ColorIndex
 90
       18
102
RTVSPost2010Prop41ColorRGB
 90
        0
102
RTVSPost2010PropOp41
 70
     1
102
RTVSPost2010Prop42
 90
       50
102
RTVSPost2010PropOp42
 70
     1
102
RTVSPost2010Prop43
 90
        3
102
RTVSPost2010PropOp43
 70
     1
102
RTVSPost2010Prop44ColorIndex
 90
        5
102
RTVSPost2010Prop44ColorRGB
 90
      255
102
RTVSPost2010PropOp44
 70
     1
102
RTVSPost2010Prop45
280
     0
102
RTVSPost2010PropOp45
 70
     1
102
RTVSPost2010Prop46
 90
       50
102
RTVSPost2010PropOp46
 70
     1
102
RTVSPost2010Prop47
 90
       50
102
RTVSPost2010PropOp47
 70
     1
102
RTVSPost2010Prop48
 90
       50
102
RTVSPost2010PropOp48
 70
     1
102
RTVSPost2010Prop49
280
     0
102
RTVSPost2010PropOp49
 70
     1
102
RTVSPost2010Prop50
 90
       50
102
RTVSPost2010PropOp50
 70
     1
102
RTVSPost2010Prop51ColorIndex
 90
      256
102
RTVSPost2010Prop51ColorRGB
 90
-16777216
102
RTVSPost2010PropOp51
 70
     0
102
RTVSPost2010Prop52
140
1.0
102
RTVSPost2010PropOp52
 70
     0
102
RTVSPost2010Prop53
 90
        2
102
RTVSPost2010PropOp53
 70
     1
102
RTVSPost2010Prop54
  1
strokes_ogs.tif
102
RTVSPost2010PropOp54
 70
     1
102
RTVSPost2010Prop55
280
     0
102
RTVSPost2010PropOp55
 70
     1
102
RTVSPost2010Prop56
140
1.0
102
RTVSPost2010PropOp56
 70
     1
102
RTVSPost2010Prop57
140
1.0
102
RTVSPost2010PropOp57
 70
     1
102
RTVSPropertyOp0
 70
     1
102
RTVSPropertyOp1
 70
     1
102
RTVSPropertyOp2
 70
     1
102
RTVSPropertyOp3
 70
     1
102
RTVSPropertyOp4
 70
     1
102
RTVSPropertyOp5
 70
     1
102
RTVSPropertyOp6
 70
     1
102
RTVSPropertyOp7
 70
     1
102
RTVSPropertyOp8
 70
     1
102
RTVSPropertyOp9
 70
     1
102
RTVSPropertyOp10
 70
     1
102
RTVSPropertyOp11
 70
     1
102
RTVSPropertyOp12
 70
     1
102
RTVSPropertyOp13
 70
     1
102
RTVSPropertyOp14
 70
     1
102
RTVSPropertyOp15
 70
     1
102
RTVSPropertyOp16
 70
     1
102
RTVSPropertyOp17
 70
     1
102
RTVSPropertyOp18
 70
     1
102
RTVSPropertyOp19
 70
     1
102
RTVSPropertyOp20
 70
     1
102
RTVSPropertyOp21
 70
     1
102
RTVSPropertyOp22
 70
     1
102
RTVSPropertyOp23
 70
     1
102
RTVSPropertyOp24
 70
     1
102
RTVSPropertyOp25
 70
     1
102
RTVSPropertyOp26
 70
     1
102
RTVSPropertyOp27
 70
     1
102
RTVSPropertyOp28
 70
     1
102
RTVSPropertyOp29
 70
     1
102
RTVSPropertyOp30
 70
     1
102
RTVSPropertyOp31
 70
     1
102
RTVSPropertyOp32
 70
     1
102
RTVSPropertyOp33
 70
     1
102
RTVSPropertyOp34
 70
     1
102
RTVSPropertyOp35
 70
     1
102
RTVSPropertyOp36
 70
     1
102
RTVSPropertyOp37
 70
     1
102
RTVSPropertyOp38
 70
     1
102
RTVSPropertyOp39
 70
     1
102
RTVSPropertyOp40
 70
     1
102
RTVSPropertyOp41
 70
     1
102
RTVSPropertyOp42
 70
     1
102
RTVSPropertyOp43
 70
     1
102
RTVSPropertyOp44
 70
     1
102
RTVSPropertyOp45
 70
     1
102
RTVSPropertyOp46
 70
     1
102
RTVSPropertyOp47
 70
     1
102
RTVSPropertyOp48
 70
     1
102
RTVSPropertyOp49
 70
     1
102
RTVSPropertyOp50
 70
     1
102
RTVSPropertyOp51
 70
     0
102
RTVSPropertyOp52
 70
     0
102
RTVSPropertyOp53
 70
     1
102
RTVSPropertyOp54
 70
     1
102
RTVSPropertyOp55
 70
     1
102
RTVSPropertyOp56
 70
     1
102
RTVSPropertyOp57
 70
     1
102
RTVSPropertyOp58
 70
     1
102
RTVSPropertyOp59
 70
     1
102
RTVSPropertyOp60
 70
     1
102
RTVSPropertyOp61
 70
     1
102
RTVSPropertyOp62
 70
     1
  0
XRECORD
  5
3E6
102
{ACAD_REACTORS
330
3E5
102
}
330
3E5
100
AcDbXrecord
280
     1
102
RTVSPost2010Prop28
280
     0
102
RTVSPost2010PropOp28
 70
     1
102
RTVSPost2010Prop29
280
     1
102
RTVSPost2010PropOp29
 70
     1
102
RTVSPost2010Prop30
280
     1
102
RTVSPost2010PropOp30
 70
     1
102
RTVSPost2010Prop31
280
     0
102
RTVSPost2010PropOp31
 70
     1
102
RTVSPost2010Prop32
280
     0
102
RTVSPost2010PropOp32
 70
     1
102
RTVSPost2010Prop33
280
     0
102
RTVSPost2010PropOp33
 70
     1
102
RTVSPost2010Prop34
280
     0
102
RTVSPost2010PropOp34
 70
     1
102
RTVSPost2010Prop35
280
     0
102
RTVSPost2010PropOp35
 70
     1
102
RTVSPost2010Prop36
280
     0
102
RTVSPost2010PropOp36
 70
     1
102
RTVSPost2010Prop37
 90
       50
102
RTVSPost2010PropOp37
 70
     1
102
RTVSPost2010Prop38
140
0.0
102
RTVSPost2010PropOp38
 70
     1
102
RTVSPost2010Prop39
140
1.0
102
RTVSPost2010PropOp39
 70
     1
102
RTVSPost2010Prop40
 90
        0
102
RTVSPost2010PropOp40
 70
     1
102
RTVSPost2010Prop41ColorIndex
 90
       18
102
RTVSPost2010Prop41ColorRGB
 90
        0
102
RTVSPost2010PropOp41
 70
     1
102
RTVSPost2010Prop42
 90
       50
102
RTVSPost2010PropOp42
 70
     1
102
RTVSPost2010Prop43
 90
        3
102
RTVSPost2010PropOp43
 70
     1
102
RTVSPost2010Prop44ColorIndex
 90
        5
102
RTVSPost2010Prop44ColorRGB
 90
      255
102
RTVSPost2010PropOp44
 70
     1
102
RTVSPost2010Prop45
280
     0
102
RTVSPost2010PropOp45
 70
     1
102
RTVSPost2010Prop46
 90
       50
102
RTVSPost2010PropOp46
 70
     1
102
RTVSPost2010Prop47
 90
       50
102
RTVSPost2010PropOp47
 70
     1
102
RTVSPost2010Prop48
 90
       50
102
RTVSPost2010PropOp48
 70
     1
102
RTVSPost2010Prop49
280
     0
102
RTVSPost2010PropOp49
 70
     1
102
RTVSPost2010Prop50
 90
       50
102
RTVSPost2010PropOp50
 70
     1
102
RTVSPost2010Prop51ColorIndex
 90
      256
102
RTVSPost2010Prop51ColorRGB
 90
-16777216
102
RTVSPost2010PropOp51
 70
     0
102
RTVSPost2010Prop52
140
1.0
102
RTVSPost2010PropOp52
 70
     0
102
RTVSPost2010Prop53
 90
        2
102
RTVSPost2010PropOp53
 70
     1
102
RTVSPost2010Prop54
  1
strokes_ogs.tif
102
RTVSPost2010PropOp54
 70
     1
102
RTVSPost2010Prop55
280
     0
102
RTVSPost2010PropOp55
 70
     1
102
RTVSPost2010Prop56
140
1.0
102
RTVSPost2010PropOp56
 70
     1
102
RTVSPost2010Prop57
140
1.0
102
RTVSPost2010PropOp57
 70
     1
102
RTVSPropertyOp0
 70
     1
102
RTVSPropertyOp1
 70
     1
102
RTVSPropertyOp2
 70
     1
102
RTVSPropertyOp3
 70
     1
102
RTVSPropertyOp4
 70
     1
102
RTVSPropertyOp5
 70
     1
102
RTVSPropertyOp6
 70
     1
102
RTVSPropertyOp7
 70
     1
102
RTVSPropertyOp8
 70
     1
102
RTVSPropertyOp9
 70
     1
102
RTVSPropertyOp10
 70
     1
102
RTVSPropertyOp11
 70
     1
102
RTVSPropertyOp12
 70
     1
102
RTVSPropertyOp13
 70
     1
102
RTVSPropertyOp14
 70
     1
102
RTVSPropertyOp15
 70
     1
102
RTVSPropertyOp16
 70
     1
102
RTVSPropertyOp17
 70
     1
102
RTVSPropertyOp18
 70
     1
102
RTVSPropertyOp19
 70
     1
102
RTVSPropertyOp20
 70
     1
102
RTVSPropertyOp21
 70
     1
102
RTVSPropertyOp22
 70
     1
102
RTVSPropertyOp23
 70
     1
102
RTVSPropertyOp24
 70
     1
102
RTVSPropertyOp25
 70
     1
102
RTVSPropertyOp26
 70
     1
102
RTVSPropertyOp27
 70
     1
102
RTVSPropertyOp28
 70
     1
102
RTVSPropertyOp29
 70
     1
102
RTVSPropertyOp30
 70
     1
102
RTVSPropertyOp31
 70
     1
102
RTVSPropertyOp32
 70
     1
102
RTVSPropertyOp33
 70
     1
102
RTVSPropertyOp34
 70
     1
102
RTVSPropertyOp35
 70
     1
102
RTVSPropertyOp36
 70
     1
102
RTVSPropertyOp37
 70
     1
102
RTVSPropertyOp38
 70
     1
102
RTVSPropertyOp39
 70
     1
102
RTVSPropertyOp40
 70
     1
102
RTVSPropertyOp41
 70
     1
102
RTVSPropertyOp42
 70
     1
102
RTVSPropertyOp43
 70
     1
102
RTVSPropertyOp44
 70
     1
102
RTVSPropertyOp45
 70
     1
102
RTVSPropertyOp46
 70
     1
102
RTVSPropertyOp47
 70
     1
102
RTVSPropertyOp48
 70
     1
102
RTVSPropertyOp49
 70
     1
102
RTVSPropertyOp50
 70
     1
102
RTVSPropertyOp51
 70
     0
102
RTVSPropertyOp52
 70
     0
102
RTVSPropertyOp53
 70
     1
102
RTVSPropertyOp54
 70
     1
102
RTVSPropertyOp55
 70
     1
102
RTVSPropertyOp56
 70
     1
102
RTVSPropertyOp57
 70
     1
102
RTVSPropertyOp58
 70
     1
102
RTVSPropertyOp59
 70
     1
102
RTVSPropertyOp60
 70
     1
102
RTVSPropertyOp61
 70
     1
102
RTVSPropertyOp62
 70
     1
  0
XRECORD
  5
3E0
102
{ACAD_REACTORS
330
3DF
102
}
330
3DF
100
AcDbXrecord
280
     1
102
RTVSPost2010Prop28
280
     0
102
RTVSPost2010PropOp28
 70
     1
102
RTVSPost2010Prop29
280
     1
102
RTVSPost2010PropOp29
 70
     1
102
RTVSPost2010Prop30
280
     1
102
RTVSPost2010PropOp30
 70
     1
102
RTVSPost2010Prop31
280
     0
102
RTVSPost2010PropOp31
 70
     1
102
RTVSPost2010Prop32
280
     0
102
RTVSPost2010PropOp32
 70
     1
102
RTVSPost2010Prop33
280
     0
102
RTVSPost2010PropOp33
 70
     1
102
RTVSPost2010Prop34
280
     0
102
RTVSPost2010PropOp34
 70
     1
102
RTVSPost2010Prop35
280
     0
102
RTVSPost2010PropOp35
 70
     1
102
RTVSPost2010Prop36
280
     0
102
RTVSPost2010PropOp36
 70
     1
102
RTVSPost2010Prop37
 90
       50
102
RTVSPost2010PropOp37
 70
     1
102
RTVSPost2010Prop38
140
0.0
102
RTVSPost2010PropOp38
 70
     1
102
RTVSPost2010Prop39
140
1.0
102
RTVSPost2010PropOp39
 70
     1
102
RTVSPost2010Prop40
 90
        0
102
RTVSPost2010PropOp40
 70
     1
102
RTVSPost2010Prop41ColorIndex
 90
       18
102
RTVSPost2010Prop41ColorRGB
 90
        0
102
RTVSPost2010PropOp41
 70
     1
102
RTVSPost2010Prop42
 90
       50
102
RTVSPost2010PropOp42
 70
     1
102
RTVSPost2010Prop43
 90
        3
102
RTVSPost2010PropOp43
 70
     1
102
RTVSPost2010Prop44ColorIndex
 90
        5
102
RTVSPost2010Prop44ColorRGB
 90
      255
102
RTVSPost2010PropOp44
 70
     1
102
RTVSPost2010Prop45
280
     0
102
RTVSPost2010PropOp45
 70
     1
102
RTVSPost2010Prop46
 90
       50
102
RTVSPost2010PropOp46
 70
     1
102
RTVSPost2010Prop47
 90
       50
102
RTVSPost2010PropOp47
 70
     1
102
RTVSPost2010Prop48
 90
       50
102
RTVSPost2010PropOp48
 70
     1
102
RTVSPost2010Prop49
280
     0
102
RTVSPost2010PropOp49
 70
     1
102
RTVSPost2010Prop50
 90
       50
102
RTVSPost2010PropOp50
 70
     1
102
RTVSPost2010Prop51ColorIndex
 90
      256
102
RTVSPost2010Prop51ColorRGB
 90
-16777216
102
RTVSPost2010PropOp51
 70
     0
102
RTVSPost2010Prop52
140
1.0
102
RTVSPost2010PropOp52
 70
     0
102
RTVSPost2010Prop53
 90
        2
102
RTVSPost2010PropOp53
 70
     1
102
RTVSPost2010Prop54
  1
strokes_ogs.tif
102
RTVSPost2010PropOp54
 70
     1
102
RTVSPost2010Prop55
280
     0
102
RTVSPost2010PropOp55
 70
     1
102
RTVSPost2010Prop56
140
1.0
102
RTVSPost2010PropOp56
 70
     1
102
RTVSPost2010Prop57
140
1.0
102
RTVSPost2010PropOp57
 70
     1
102
RTVSPropertyOp0
 70
     1
102
RTVSPropertyOp1
 70
     1
102
RTVSPropertyOp2
 70
     1
102
RTVSPropertyOp3
 70
     1
102
RTVSPropertyOp4
 70
     1
102
RTVSPropertyOp5
 70
     1
102
RTVSPropertyOp6
 70
     1
102
RTVSPropertyOp7
 70
     1
102
RTVSPropertyOp8
 70
     1
102
RTVSPropertyOp9
 70
     1
102
RTVSPropertyOp10
 70
     1
102
RTVSPropertyOp11
 70
     1
102
RTVSPropertyOp12
 70
     1
102
RTVSPropertyOp13
 70
     1
102
RTVSPropertyOp14
 70
     1
102
RTVSPropertyOp15
 70
     1
102
RTVSPropertyOp16
 70
     1
102
RTVSPropertyOp17
 70
     1
102
RTVSPropertyOp18
 70
     1
102
RTVSPropertyOp19
 70
     1
102
RTVSPropertyOp20
 70
     1
102
RTVSPropertyOp21
 70
     1
102
RTVSPropertyOp22
 70
     1
102
RTVSPropertyOp23
 70
     1
102
RTVSPropertyOp24
 70
     1
102
RTVSPropertyOp25
 70
     1
102
RTVSPropertyOp26
 70
     1
102
RTVSPropertyOp27
 70
     1
102
RTVSPropertyOp28
 70
     1
102
RTVSPropertyOp29
 70
     1
102
RTVSPropertyOp30
 70
     1
102
RTVSPropertyOp31
 70
     1
102
RTVSPropertyOp32
 70
     1
102
RTVSPropertyOp33
 70
     1
102
RTVSPropertyOp34
 70
     1
102
RTVSPropertyOp35
 70
     1
102
RTVSPropertyOp36
 70
     1
102
RTVSPropertyOp37
 70
     1
102
RTVSPropertyOp38
 70
     1
102
RTVSPropertyOp39
 70
     1
102
RTVSPropertyOp40
 70
     1
102
RTVSPropertyOp41
 70
     1
102
RTVSPropertyOp42
 70
     1
102
RTVSPropertyOp43
 70
     1
102
RTVSPropertyOp44
 70
     1
102
RTVSPropertyOp45
 70
     1
102
RTVSPropertyOp46
 70
     1
102
RTVSPropertyOp47
 70
     1
102
RTVSPropertyOp48
 70
     1
102
RTVSPropertyOp49
 70
     1
102
RTVSPropertyOp50
 70
     1
102
RTVSPropertyOp51
 70
     0
102
RTVSPropertyOp52
 70
     0
102
RTVSPropertyOp53
 70
     1
102
RTVSPropertyOp54
 70
     1
102
RTVSPropertyOp55
 70
     1
102
RTVSPropertyOp56
 70
     1
102
RTVSPropertyOp57
 70
     1
102
RTVSPropertyOp58
 70
     1
102
RTVSPropertyOp59
 70
     1
102
RTVSPropertyOp60
 70
     1
102
RTVSPropertyOp61
 70
     1
102
RTVSPropertyOp62
 70
     1
  0
XRECORD
  5
3E2
102
{ACAD_REACTORS
330
3E1
102
}
330
3E1
100
AcDbXrecord
280
     1
102
RTVSPost2010Prop28
280
     0
102
RTVSPost2010PropOp28
 70
     1
102
RTVSPost2010Prop29
280
     1
102
RTVSPost2010PropOp29
 70
     1
102
RTVSPost2010Prop30
280
     1
102
RTVSPost2010PropOp30
 70
     1
102
RTVSPost2010Prop31
280
     0
102
RTVSPost2010PropOp31
 70
     1
102
RTVSPost2010Prop32
280
     0
102
RTVSPost2010PropOp32
 70
     1
102
RTVSPost2010Prop33
280
     0
102
RTVSPost2010PropOp33
 70
     1
102
RTVSPost2010Prop34
280
     0
102
RTVSPost2010PropOp34
 70
     1
102
RTVSPost2010Prop35
280
     0
102
RTVSPost2010PropOp35
 70
     1
102
RTVSPost2010Prop36
280
     0
102
RTVSPost2010PropOp36
 70
     1
102
RTVSPost2010Prop37
 90
       50
102
RTVSPost2010PropOp37
 70
     1
102
RTVSPost2010Prop38
140
0.0
102
RTVSPost2010PropOp38
 70
     1
102
RTVSPost2010Prop39
140
1.0
102
RTVSPost2010PropOp39
 70
     1
102
RTVSPost2010Prop40
 90
        0
102
RTVSPost2010PropOp40
 70
     1
102
RTVSPost2010Prop41ColorIndex
 90
       18
102
RTVSPost2010Prop41ColorRGB
 90
        0
102
RTVSPost2010PropOp41
 70
     1
102
RTVSPost2010Prop42
 90
       50
102
RTVSPost2010PropOp42
 70
     1
102
RTVSPost2010Prop43
 90
        3
102
RTVSPost2010PropOp43
 70
     1
102
RTVSPost2010Prop44ColorIndex
 90
        5
102
RTVSPost2010Prop44ColorRGB
 90
      255
102
RTVSPost2010PropOp44
 70
     1
102
RTVSPost2010Prop45
280
     0
102
RTVSPost2010PropOp45
 70
     1
102
RTVSPost2010Prop46
 90
       50
102
RTVSPost2010PropOp46
 70
     1
102
RTVSPost2010Prop47
 90
       50
102
RTVSPost2010PropOp47
 70
     1
102
RTVSPost2010Prop48
 90
       50
102
RTVSPost2010PropOp48
 70
     1
102
RTVSPost2010Prop49
280
     0
102
RTVSPost2010PropOp49
 70
     1
102
RTVSPost2010Prop50
 90
       50
102
RTVSPost2010PropOp50
 70
     1
102
RTVSPost2010Prop51ColorIndex
 90
      256
102
RTVSPost2010Prop51ColorRGB
 90
-16777216
102
RTVSPost2010PropOp51
 70
     0
102
RTVSPost2010Prop52
140
1.0
102
RTVSPost2010PropOp52
 70
     0
102
RTVSPost2010Prop53
 90
        2
102
RTVSPost2010PropOp53
 70
     1
102
RTVSPost2010Prop54
  1
strokes_ogs.tif
102
RTVSPost2010PropOp54
 70
     1
102
RTVSPost2010Prop55
280
     0
102
RTVSPost2010PropOp55
 70
     1
102
RTVSPost2010Prop56
140
1.0
102
RTVSPost2010PropOp56
 70
     1
102
RTVSPost2010Prop57
140
1.0
102
RTVSPost2010PropOp57
 70
     1
102
RTVSPropertyOp0
 70
     1
102
RTVSPropertyOp1
 70
     1
102
RTVSPropertyOp2
 70
     1
102
RTVSPropertyOp3
 70
     1
102
RTVSPropertyOp4
 70
     1
102
RTVSPropertyOp5
 70
     1
102
RTVSPropertyOp6
 70
     1
102
RTVSPropertyOp7
 70
     1
102
RTVSPropertyOp8
 70
     1
102
RTVSPropertyOp9
 70
     1
102
RTVSPropertyOp10
 70
     1
102
RTVSPropertyOp11
 70
     1
102
RTVSPropertyOp12
 70
     1
102
RTVSPropertyOp13
 70
     1
102
RTVSPropertyOp14
 70
     1
102
RTVSPropertyOp15
 70
     1
102
RTVSPropertyOp16
 70
     1
102
RTVSPropertyOp17
 70
     1
102
RTVSPropertyOp18
 70
     1
102
RTVSPropertyOp19
 70
     1
102
RTVSPropertyOp20
 70
     1
102
RTVSPropertyOp21
 70
     1
102
RTVSPropertyOp22
 70
     1
102
RTVSPropertyOp23
 70
     1
102
RTVSPropertyOp24
 70
     1
102
RTVSPropertyOp25
 70
     1
102
RTVSPropertyOp26
 70
     1
102
RTVSPropertyOp27
 70
     1
102
RTVSPropertyOp28
 70
     1
102
RTVSPropertyOp29
 70
     1
102
RTVSPropertyOp30
 70
     1
102
RTVSPropertyOp31
 70
     1
102
RTVSPropertyOp32
 70
     1
102
RTVSPropertyOp33
 70
     1
102
RTVSPropertyOp34
 70
     1
102
RTVSPropertyOp35
 70
     1
102
RTVSPropertyOp36
 70
     1
102
RTVSPropertyOp37
 70
     1
102
RTVSPropertyOp38
 70
     1
102
RTVSPropertyOp39
 70
     1
102
RTVSPropertyOp40
 70
     1
102
RTVSPropertyOp41
 70
     1
102
RTVSPropertyOp42
 70
     1
102
RTVSPropertyOp43
 70
     1
102
RTVSPropertyOp44
 70
     1
102
RTVSPropertyOp45
 70
     1
102
RTVSPropertyOp46
 70
     1
102
RTVSPropertyOp47
 70
     1
102
RTVSPropertyOp48
 70
     1
102
RTVSPropertyOp49
 70
     1
102
RTVSPropertyOp50
 70
     1
102
RTVSPropertyOp51
 70
     0
102
RTVSPropertyOp52
 70
     0
102
RTVSPropertyOp53
 70
     1
102
RTVSPropertyOp54
 70
     1
102
RTVSPropertyOp55
 70
     1
102
RTVSPropertyOp56
 70
     1
102
RTVSPropertyOp57
 70
     1
102
RTVSPropertyOp58
 70
     1
102
RTVSPropertyOp59
 70
     1
102
RTVSPropertyOp60
 70
     1
102
RTVSPropertyOp61
 70
     1
102
RTVSPropertyOp62
 70
     1
  0
XRECORD
  5
3D2
102
{ACAD_REACTORS
330
3D1
102
}
330
3D1
100
AcDbXrecord
280
     1
102
RTVSPost2010Prop28
280
     0
102
RTVSPost2010PropOp28
 70
     1
102
RTVSPost2010Prop29
280
     1
102
RTVSPost2010PropOp29
 70
     1
102
RTVSPost2010Prop30
280
     1
102
RTVSPost2010PropOp30
 70
     1
102
RTVSPost2010Prop31
280
     0
102
RTVSPost2010PropOp31
 70
     1
102
RTVSPost2010Prop32
280
     0
102
RTVSPost2010PropOp32
 70
     1
102
RTVSPost2010Prop33
280
     0
102
RTVSPost2010PropOp33
 70
     1
102
RTVSPost2010Prop34
280
     0
102
RTVSPost2010PropOp34
 70
     1
102
RTVSPost2010Prop35
280
     0
102
RTVSPost2010PropOp35
 70
     1
102
RTVSPost2010Prop36
280
     0
102
RTVSPost2010PropOp36
 70
     1
102
RTVSPost2010Prop37
 90
       50
102
RTVSPost2010PropOp37
 70
     1
102
RTVSPost2010Prop38
140
0.0
102
RTVSPost2010PropOp38
 70
     1
102
RTVSPost2010Prop39
140
1.0
102
RTVSPost2010PropOp39
 70
     1
102
RTVSPost2010Prop40
 90
        0
102
RTVSPost2010PropOp40
 70
     1
102
RTVSPost2010Prop41ColorIndex
 90
       18
102
RTVSPost2010Prop41ColorRGB
 90
        0
102
RTVSPost2010PropOp41
 70
     1
102
RTVSPost2010Prop42
 90
       50
102
RTVSPost2010PropOp42
 70
     1
102
RTVSPost2010Prop43
 90
        3
102
RTVSPost2010PropOp43
 70
     1
102
RTVSPost2010Prop44ColorIndex
 90
        5
102
RTVSPost2010Prop44ColorRGB
 90
      255
102
RTVSPost2010PropOp44
 70
     1
102
RTVSPost2010Prop45
280
     0
102
RTVSPost2010PropOp45
 70
     1
102
RTVSPost2010Prop46
 90
       50
102
RTVSPost2010PropOp46
 70
     1
102
RTVSPost2010Prop47
 90
       50
102
RTVSPost2010PropOp47
 70
     1
102
RTVSPost2010Prop48
 90
       50
102
RTVSPost2010PropOp48
 70
     1
102
RTVSPost2010Prop49
280
     0
102
RTVSPost2010PropOp49
 70
     1
102
RTVSPost2010Prop50
 90
       50
102
RTVSPost2010PropOp50
 70
     1
102
RTVSPost2010Prop51ColorIndex
 90
      256
102
RTVSPost2010Prop51ColorRGB
 90
-16777216
102
RTVSPost2010PropOp51
 70
     0
102
RTVSPost2010Prop52
140
1.0
102
RTVSPost2010PropOp52
 70
     0
102
RTVSPost2010Prop53
 90
        2
102
RTVSPost2010PropOp53
 70
     1
102
RTVSPost2010Prop54
  1
strokes_ogs.tif
102
RTVSPost2010PropOp54
 70
     1
102
RTVSPost2010Prop55
280
     0
102
RTVSPost2010PropOp55
 70
     1
102
RTVSPost2010Prop56
140
1.0
102
RTVSPost2010PropOp56
 70
     1
102
RTVSPost2010Prop57
140
1.0
102
RTVSPost2010PropOp57
 70
     1
102
RTVSPropertyOp0
 70
     1
102
RTVSPropertyOp1
 70
     1
102
RTVSPropertyOp2
 70
     1
102
RTVSPropertyOp3
 70
     1
102
RTVSPropertyOp4
 70
     1
102
RTVSPropertyOp5
 70
     1
102
RTVSPropertyOp6
 70
     1
102
RTVSPropertyOp7
 70
     1
102
RTVSPropertyOp8
 70
     1
102
RTVSPropertyOp9
 70
     1
102
RTVSPropertyOp10
 70
     1
102
RTVSPropertyOp11
 70
     1
102
RTVSPropertyOp12
 70
     1
102
RTVSPropertyOp13
 70
     1
102
RTVSPropertyOp14
 70
     1
102
RTVSPropertyOp15
 70
     1
102
RTVSPropertyOp16
 70
     1
102
RTVSPropertyOp17
 70
     1
102
RTVSPropertyOp18
 70
     1
102
RTVSPropertyOp19
 70
     1
102
RTVSPropertyOp20
 70
     1
102
RTVSPropertyOp21
 70
     1
102
RTVSPropertyOp22
 70
     1
102
RTVSPropertyOp23
 70
     1
102
RTVSPropertyOp24
 70
     1
102
RTVSPropertyOp25
 70
     1
102
RTVSPropertyOp26
 70
     1
102
RTVSPropertyOp27
 70
     1
102
RTVSPropertyOp28
 70
     1
102
RTVSPropertyOp29
 70
     1
102
RTVSPropertyOp30
 70
     1
102
RTVSPropertyOp31
 70
     1
102
RTVSPropertyOp32
 70
     1
102
RTVSPropertyOp33
 70
     1
102
RTVSPropertyOp34
 70
     1
102
RTVSPropertyOp35
 70
     1
102
RTVSPropertyOp36
 70
     1
102
RTVSPropertyOp37
 70
     1
102
RTVSPropertyOp38
 70
     1
102
RTVSPropertyOp39
 70
     1
102
RTVSPropertyOp40
 70
     1
102
RTVSPropertyOp41
 70
     1
102
RTVSPropertyOp42
 70
     1
102
RTVSPropertyOp43
 70
     1
102
RTVSPropertyOp44
 70
     1
102
RTVSPropertyOp45
 70
     1
102
RTVSPropertyOp46
 70
     1
102
RTVSPropertyOp47
 70
     1
102
RTVSPropertyOp48
 70
     1
102
RTVSPropertyOp49
 70
     1
102
RTVSPropertyOp50
 70
     1
102
RTVSPropertyOp51
 70
     0
102
RTVSPropertyOp52
 70
     0
102
RTVSPropertyOp53
 70
     1
102
RTVSPropertyOp54
 70
     1
102
RTVSPropertyOp55
 70
     1
102
RTVSPropertyOp56
 70
     1
102
RTVSPropertyOp57
 70
     1
102
RTVSPropertyOp58
 70
     1
102
RTVSPropertyOp59
 70
     1
102
RTVSPropertyOp60
 70
     1
102
RTVSPropertyOp61
 70
     1
102
RTVSPropertyOp62
 70
     1
  0
XRECORD
  5
3C4
102
{ACAD_REACTORS
330
3C3
102
}
330
3C3
100
AcDbXrecord
280
     1
102
RTVSPost2010Prop28
280
     0
102
RTVSPost2010PropOp28
 70
     1
102
RTVSPost2010Prop29
280
     1
102
RTVSPost2010PropOp29
 70
     1
102
RTVSPost2010Prop30
280
     1
102
RTVSPost2010PropOp30
 70
     1
102
RTVSPost2010Prop31
280
     0
102
RTVSPost2010PropOp31
 70
     1
102
RTVSPost2010Prop32
280
     0
102
RTVSPost2010PropOp32
 70
     1
102
RTVSPost2010Prop33
280
     0
102
RTVSPost2010PropOp33
 70
     1
102
RTVSPost2010Prop34
280
     0
102
RTVSPost2010PropOp34
 70
     1
102
RTVSPost2010Prop35
280
     0
102
RTVSPost2010PropOp35
 70
     1
102
RTVSPost2010Prop36
280
     0
102
RTVSPost2010PropOp36
 70
     1
102
RTVSPost2010Prop37
 90
       50
102
RTVSPost2010PropOp37
 70
     1
102
RTVSPost2010Prop38
140
0.0
102
RTVSPost2010PropOp38
 70
     1
102
RTVSPost2010Prop39
140
1.0
102
RTVSPost2010PropOp39
 70
     1
102
RTVSPost2010Prop40
 90
        0
102
RTVSPost2010PropOp40
 70
     1
102
RTVSPost2010Prop41ColorIndex
 90
       18
102
RTVSPost2010Prop41ColorRGB
 90
        0
102
RTVSPost2010PropOp41
 70
     1
102
RTVSPost2010Prop42
 90
       50
102
RTVSPost2010PropOp42
 70
     1
102
RTVSPost2010Prop43
 90
        3
102
RTVSPost2010PropOp43
 70
     1
102
RTVSPost2010Prop44ColorIndex
 90
        5
102
RTVSPost2010Prop44ColorRGB
 90
      255
102
RTVSPost2010PropOp44
 70
     1
102
RTVSPost2010Prop45
280
     0
102
RTVSPost2010PropOp45
 70
     1
102
RTVSPost2010Prop46
 90
       50
102
RTVSPost2010PropOp46
 70
     1
102
RTVSPost2010Prop47
 90
       50
102
RTVSPost2010PropOp47
 70
     1
102
RTVSPost2010Prop48
 90
       50
102
RTVSPost2010PropOp48
 70
     1
102
RTVSPost2010Prop49
280
     0
102
RTVSPost2010PropOp49
 70
     1
102
RTVSPost2010Prop50
 90
       50
102
RTVSPost2010PropOp50
 70
     1
102
RTVSPost2010Prop51ColorIndex
 90
      256
102
RTVSPost2010Prop51ColorRGB
 90
-16777216
102
RTVSPost2010PropOp51
 70
     0
102
RTVSPost2010Prop52
140
1.0
102
RTVSPost2010PropOp52
 70
     0
102
RTVSPost2010Prop53
 90
        2
102
RTVSPost2010PropOp53
 70
     1
102
RTVSPost2010Prop54
  1
strokes_ogs.tif
102
RTVSPost2010PropOp54
 70
     1
102
RTVSPost2010Prop55
280
     0
102
RTVSPost2010PropOp55
 70
     1
102
RTVSPost2010Prop56
140
1.0
102
RTVSPost2010PropOp56
 70
     1
102
RTVSPost2010Prop57
140
1.0
102
RTVSPost2010PropOp57
 70
     1
102
RTVSPropertyOp0
 70
     1
102
RTVSPropertyOp1
 70
     1
102
RTVSPropertyOp2
 70
     1
102
RTVSPropertyOp3
 70
     1
102
RTVSPropertyOp4
 70
     1
102
RTVSPropertyOp5
 70
     1
102
RTVSPropertyOp6
 70
     1
102
RTVSPropertyOp7
 70
     1
102
RTVSPropertyOp8
 70
     1
102
RTVSPropertyOp9
 70
     1
102
RTVSPropertyOp10
 70
     1
102
RTVSPropertyOp11
 70
     1
102
RTVSPropertyOp12
 70
     1
102
RTVSPropertyOp13
 70
     1
102
RTVSPropertyOp14
 70
     1
102
RTVSPropertyOp15
 70
     1
102
RTVSPropertyOp16
 70
     1
102
RTVSPropertyOp17
 70
     1
102
RTVSPropertyOp18
 70
     1
102
RTVSPropertyOp19
 70
     1
102
RTVSPropertyOp20
 70
     1
102
RTVSPropertyOp21
 70
     1
102
RTVSPropertyOp22
 70
     1
102
RTVSPropertyOp23
 70
     1
102
RTVSPropertyOp24
 70
     1
102
RTVSPropertyOp25
 70
     1
102
RTVSPropertyOp26
 70
     1
102
RTVSPropertyOp27
 70
     1
102
RTVSPropertyOp28
 70
     1
102
RTVSPropertyOp29
 70
     1
102
RTVSPropertyOp30
 70
     1
102
RTVSPropertyOp31
 70
     1
102
RTVSPropertyOp32
 70
     1
102
RTVSPropertyOp33
 70
     1
102
RTVSPropertyOp34
 70
     1
102
RTVSPropertyOp35
 70
     1
102
RTVSPropertyOp36
 70
     1
102
RTVSPropertyOp37
 70
     1
102
RTVSPropertyOp38
 70
     1
102
RTVSPropertyOp39
 70
     1
102
RTVSPropertyOp40
 70
     1
102
RTVSPropertyOp41
 70
     1
102
RTVSPropertyOp42
 70
     1
102
RTVSPropertyOp43
 70
     1
102
RTVSPropertyOp44
 70
     1
102
RTVSPropertyOp45
 70
     1
102
RTVSPropertyOp46
 70
     1
102
RTVSPropertyOp47
 70
     1
102
RTVSPropertyOp48
 70
     1
102
RTVSPropertyOp49
 70
     1
102
RTVSPropertyOp50
 70
     1
102
RTVSPropertyOp51
 70
     0
102
RTVSPropertyOp52
 70
     0
102
RTVSPropertyOp53
 70
     1
102
RTVSPropertyOp54
 70
     1
102
RTVSPropertyOp55
 70
     1
102
RTVSPropertyOp56
 70
     1
102
RTVSPropertyOp57
 70
     1
102
RTVSPropertyOp58
 70
     1
102
RTVSPropertyOp59
 70
     1
102
RTVSPropertyOp60
 70
     1
102
RTVSPropertyOp61
 70
     1
102
RTVSPropertyOp62
 70
     1
  0
XRECORD
  5
3E4
102
{ACAD_REACTORS
330
3E3
102
}
330
3E3
100
AcDbXrecord
280
     1
102
RTVSPost2010Prop28
280
     0
102
RTVSPost2010PropOp28
 70
     1
102
RTVSPost2010Prop29
280
     1
102
RTVSPost2010PropOp29
 70
     1
102
RTVSPost2010Prop30
280
     1
102
RTVSPost2010PropOp30
 70
     1
102
RTVSPost2010Prop31
280
     0
102
RTVSPost2010PropOp31
 70
     1
102
RTVSPost2010Prop32
280
     0
102
RTVSPost2010PropOp32
 70
     1
102
RTVSPost2010Prop33
280
     0
102
RTVSPost2010PropOp33
 70
     1
102
RTVSPost2010Prop34
280
     0
102
RTVSPost2010PropOp34
 70
     1
102
RTVSPost2010Prop35
280
     0
102
RTVSPost2010PropOp35
 70
     1
102
RTVSPost2010Prop36
280
     0
102
RTVSPost2010PropOp36
 70
     1
102
RTVSPost2010Prop37
 90
       50
102
RTVSPost2010PropOp37
 70
     1
102
RTVSPost2010Prop38
140
0.0
102
RTVSPost2010PropOp38
 70
     1
102
RTVSPost2010Prop39
140
1.0
102
RTVSPost2010PropOp39
 70
     1
102
RTVSPost2010Prop40
 90
        0
102
RTVSPost2010PropOp40
 70
     1
102
RTVSPost2010Prop41ColorIndex
 90
       18
102
RTVSPost2010Prop41ColorRGB
 90
        0
102
RTVSPost2010PropOp41
 70
     1
102
RTVSPost2010Prop42
 90
       50
102
RTVSPost2010PropOp42
 70
     1
102
RTVSPost2010Prop43
 90
        3
102
RTVSPost2010PropOp43
 70
     1
102
RTVSPost2010Prop44ColorIndex
 90
        5
102
RTVSPost2010Prop44ColorRGB
 90
      255
102
RTVSPost2010PropOp44
 70
     1
102
RTVSPost2010Prop45
280
     0
102
RTVSPost2010PropOp45
 70
     1
102
RTVSPost2010Prop46
 90
       50
102
RTVSPost2010PropOp46
 70
     1
102
RTVSPost2010Prop47
 90
       50
102
RTVSPost2010PropOp47
 70
     1
102
RTVSPost2010Prop48
 90
       50
102
RTVSPost2010PropOp48
 70
     1
102
RTVSPost2010Prop49
280
     0
102
RTVSPost2010PropOp49
 70
     1
102
RTVSPost2010Prop50
 90
       50
102
RTVSPost2010PropOp50
 70
     1
102
RTVSPost2010Prop51ColorIndex
 90
      256
102
RTVSPost2010Prop51ColorRGB
 90
-16777216
102
RTVSPost2010PropOp51
 70
     0
102
RTVSPost2010Prop52
140
1.0
102
RTVSPost2010PropOp52
 70
     0
102
RTVSPost2010Prop53
 90
        2
102
RTVSPost2010PropOp53
 70
     1
102
RTVSPost2010Prop54
  1
strokes_ogs.tif
102
RTVSPost2010PropOp54
 70
     1
102
RTVSPost2010Prop55
280
     0
102
RTVSPost2010PropOp55
 70
     1
102
RTVSPost2010Prop56
140
1.0
102
RTVSPost2010PropOp56
 70
     1
102
RTVSPost2010Prop57
140
1.0
102
RTVSPost2010PropOp57
 70
     1
102
RTVSPropertyOp0
 70
     1
102
RTVSPropertyOp1
 70
     1
102
RTVSPropertyOp2
 70
     1
102
RTVSPropertyOp3
 70
     1
102
RTVSPropertyOp4
 70
     1
102
RTVSPropertyOp5
 70
     1
102
RTVSPropertyOp6
 70
     1
102
RTVSPropertyOp7
 70
     1
102
RTVSPropertyOp8
 70
     1
102
RTVSPropertyOp9
 70
     1
102
RTVSPropertyOp10
 70
     1
102
RTVSPropertyOp11
 70
     1
102
RTVSPropertyOp12
 70
     1
102
RTVSPropertyOp13
 70
     1
102
RTVSPropertyOp14
 70
     1
102
RTVSPropertyOp15
 70
     1
102
RTVSPropertyOp16
 70
     1
102
RTVSPropertyOp17
 70
     1
102
RTVSPropertyOp18
 70
     1
102
RTVSPropertyOp19
 70
     1
102
RTVSPropertyOp20
 70
     1
102
RTVSPropertyOp21
 70
     1
102
RTVSPropertyOp22
 70
     1
102
RTVSPropertyOp23
 70
     1
102
RTVSPropertyOp24
 70
     1
102
RTVSPropertyOp25
 70
     1
102
RTVSPropertyOp26
 70
     1
102
RTVSPropertyOp27
 70
     1
102
RTVSPropertyOp28
 70
     1
102
RTVSPropertyOp29
 70
     1
102
RTVSPropertyOp30
 70
     1
102
RTVSPropertyOp31
 70
     1
102
RTVSPropertyOp32
 70
     1
102
RTVSPropertyOp33
 70
     1
102
RTVSPropertyOp34
 70
     1
102
RTVSPropertyOp35
 70
     1
102
RTVSPropertyOp36
 70
     1
102
RTVSPropertyOp37
 70
     1
102
RTVSPropertyOp38
 70
     1
102
RTVSPropertyOp39
 70
     1
102
RTVSPropertyOp40
 70
     1
102
RTVSPropertyOp41
 70
     1
102
RTVSPropertyOp42
 70
     1
102
RTVSPropertyOp43
 70
     1
102
RTVSPropertyOp44
 70
     1
102
RTVSPropertyOp45
 70
     1
102
RTVSPropertyOp46
 70
     1
102
RTVSPropertyOp47
 70
     1
102
RTVSPropertyOp48
 70
     1
102
RTVSPropertyOp49
 70
     1
102
RTVSPropertyOp50
 70
     1
102
RTVSPropertyOp51
 70
     0
102
RTVSPropertyOp52
 70
     0
102
RTVSPropertyOp53
 70
     1
102
RTVSPropertyOp54
 70
     1
102
RTVSPropertyOp55
 70
     1
102
RTVSPropertyOp56
 70
     1
102
RTVSPropertyOp57
 70
     1
102
RTVSPropertyOp58
 70
     1
102
RTVSPropertyOp59
 70
     1
102
RTVSPropertyOp60
 70
     1
102
RTVSPropertyOp61
 70
     1
102
RTVSPropertyOp62
 70
     1
  0
ENDSEC
  0
EOF
