  0
SECTION
  2
HEADER
  9
$ACADVER
  1
AC1018
  9
$ACADMAINTVER
 70
   104
  9
$DWGCODEPAGE
  3
ANSI_1250
  9
$LASTSAVEDBY
  1
pp0701
  9
$INSBASE
 10
0.0
 20
0.0
 30
0.0
  9
$EXTMIN
 10
209.8592893333333
 20
156.3717668333333
 30
0.0
  9
$EXTMAX
 10
312.954307
 20
324.5826296666667
 30
0.0
  9
$LIMMIN
 10
-0.5
 20
-0.5
  9
$LIMMAX
 10
5.0
 20
5.0
  9
$ORTHOMODE
 70
     0
  9
$REGENMODE
 70
     1
  9
$FILLMODE
 70
     1
  9
$QTEXTMODE
 70
     0
  9
$MIRRTEXT
 70
     1
  9
$LTSCALE
 40
1.0
  9
$ATTMODE
 70
     1
  9
$TEXTSIZE
 40
0.2
  9
$TRACEWID
 40
0.05
  9
$TEXTSTYLE
  7
Standard
  9
$CLAYER
  8
0
  9
$CELTYPE
  6
ByLayer
  9
$CECOLOR
 62
   256
  9
$CELTSCALE
 40
1.0
  9
$DISPSILH
 70
     0
  9
$DIMSCALE
 40
1.0
  9
$DIMASZ
 40
0.18
  9
$DIMEXO
 40
0.0625
  9
$DIMDLI
 40
0.38
  9
$DIMRND
 40
0.0
  9
$DIMDLE
 40
0.0
  9
$DIMEXE
 40
0.18
  9
$DIMTP
 40
0.0
  9
$DIMTM
 40
0.0
  9
$DIMTXT
 40
0.18
  9
$DIMCEN
 40
0.09
  9
$DIMTSZ
 40
0.0
  9
$DIMTOL
 70
     0
  9
$DIMLIM
 70
     0
  9
$DIMTIH
 70
     1
  9
$DIMTOH
 70
     1
  9
$DIMSE1
 70
     0
  9
$DIMSE2
 70
     0
  9
$DIMTAD
 70
     0
  9
$DIMZIN
 70
     0
  9
$DIMBLK
  1

  9
$DIMASO
 70
     1
  9
$DIMSHO
 70
     1
  9
$DIMPOST
  1

  9
$DIMAPOST
  1

  9
$DIMALT
 70
     0
  9
$DIMALTD
 70
     2
  9
$DIMALTF
 40
25.4
  9
$DIMLFAC
 40
1.0
  9
$DIMTOFL
 70
     0
  9
$DIMTVP
 40
0.0
  9
$DIMTIX
 70
     0
  9
$DIMSOXD
 70
     0
  9
$DIMSAH
 70
     0
  9
$DIMBLK1
  1

  9
$DIMBLK2
  1

  9
$DIMSTYLE
  2
Standard
  9
$DIMCLRD
 70
     0
  9
$DIMCLRE
 70
     0
  9
$DIMCLRT
 70
     0
  9
$DIMTFAC
 40
1.0
  9
$DIMGAP
 40
0.09
  9
$DIMJUST
 70
     0
  9
$DIMSD1
 70
     0
  9
$DIMSD2
 70
     0
  9
$DIMTOLJ
 70
     1
  9
$DIMTZIN
 70
     0
  9
$DIMALTZ
 70
     0
  9
$DIMALTTZ
 70
     0
  9
$DIMUPT
 70
     0
  9
$DIMDEC
 70
     4
  9
$DIMTDEC
 70
     4
  9
$DIMALTU
 70
     2
  9
$DIMALTTD
 70
     2
  9
$DIMTXSTY
  7
Standard
  9
$DIMAUNIT
 70
     0
  9
$DIMADEC
 70
     0
  9
$DIMALTRND
 40
0.0
  9
$DIMAZIN
 70
     0
  9
$DIMDSEP
 70
    46
  9
$DIMATFIT
 70
     3
  9
$DIMFRAC
 70
     0
  9
$DIMLDRBLK
  1

  9
$DIMLUNIT
 70
     2
  9
$DIMLWD
 70
    -2
  9
$DIMLWE
 70
    -2
  9
$DIMTMOVE
 70
     0
  9
$LUNITS
 70
     2
  9
$LUPREC
 70
     4
  9
$SKETCHINC
 40
0.1
  9
$FILLETRAD
 40
0.5
  9
$AUNITS
 70
     0
  9
$AUPREC
 70
     0
  9
$MENU
  1
.
  9
$ELEVATION
 40
0.0
  9
$PELEVATION
 40
0.0
  9
$THICKNESS
 40
0.0
  9
$LIMCHECK
 70
     0
  9
$CHAMFERA
 40
0.0
  9
$CHAMFERB
 40
0.0
  9
$CHAMFERC
 40
0.0
  9
$CHAMFERD
 40
0.0
  9
$SKPOLY
 70
     0
  9
$TDCREATE
 40
2458837.558379630
  9
$TDUCREATE
 40
2458837.516717384
  9
$TDUPDATE
 40
2458837.561076389
  9
$TDUUPDATE
 40
2458837.519409722
  9
$TDINDWG
 40
0.0016319560
  9
$TDUSRTIMER
 40
0.0016319560
  9
$USRTIMER
 70
     1
  9
$ANGBASE
 50
0.0
  9
$ANGDIR
 70
     0
  9
$PDMODE
 70
     0
  9
$PDSIZE
 40
0.0
  9
$PLINEWID
 40
0.0
  9
$SPLFRAME
 70
     0
  9
$SPLINETYPE
 70
     6
  9
$SPLINESEGS
 70
     8
  9
$HANDSEED
  5
47E
  9
$SURFTAB1
 70
     6
  9
$SURFTAB2
 70
     6
  9
$SURFTYPE
 70
     6
  9
$SURFU
 70
     6
  9
$SURFV
 70
     6
  9
$UCSBASE
  2

  9
$UCSNAME
  2

  9
$UCSORG
 10
249.444248
 20
244.434018
 30
0.0
  9
$UCSXDIR
 10
1.0
 20
0.0
 30
0.0
  9
$UCSYDIR
 10
0.0
 20
1.0
 30
0.0
  9
$UCSORTHOREF
  2

  9
$UCSORTHOVIEW
 70
     0
  9
$UCSORGTOP
 10
0.0
 20
0.0
 30
0.0
  9
$UCSORGBOTTOM
 10
0.0
 20
0.0
 30
0.0
  9
$UCSORGLEFT
 10
0.0
 20
0.0
 30
0.0
  9
$UCSORGRIGHT
 10
0.0
 20
0.0
 30
0.0
  9
$UCSORGFRONT
 10
0.0
 20
0.0
 30
0.0
  9
$UCSORGBACK
 10
0.0
 20
0.0
 30
0.0
  9
$PUCSBASE
  2

  9
$PUCSNAME
  2

  9
$PUCSORG
 10
0.0
 20
0.0
 30
0.0
  9
$PUCSXDIR
 10
1.0
 20
0.0
 30
0.0
  9
$PUCSYDIR
 10
0.0
 20
1.0
 30
0.0
  9
$PUCSORTHOREF
  2

  9
$PUCSORTHOVIEW
 70
     0
  9
$PUCSORGTOP
 10
0.0
 20
0.0
 30
0.0
  9
$PUCSORGBOTTOM
 10
0.0
 20
0.0
 30
0.0
  9
$PUCSORGLEFT
 10
0.0
 20
0.0
 30
0.0
  9
$PUCSORGRIGHT
 10
0.0
 20
0.0
 30
0.0
  9
$PUCSORGFRONT
 10
0.0
 20
0.0
 30
0.0
  9
$PUCSORGBACK
 10
0.0
 20
0.0
 30
0.0
  9
$USERI1
 70
     0
  9
$USERI2
 70
     0
  9
$USERI3
 70
     0
  9
$USERI4
 70
     0
  9
$USERI5
 70
     0
  9
$USERR1
 40
0.0
  9
$USERR2
 40
0.0
  9
$USERR3
 40
0.0
  9
$USERR4
 40
0.0
  9
$USERR5
 40
0.0
  9
$WORLDVIEW
 70
     1
  9
$SHADEDGE
 70
     3
  9
$SHADEDIF
 70
    70
  9
$TILEMODE
 70
     1
  9
$MAXACTVP
 70
    64
  9
$PINSBASE
 10
0.0
 20
0.0
 30
0.0
  9
$PLIMCHECK
 70
     0
  9
$PEXTMIN
 10
-0.5
 20
-0.5
 30
-0.5
  9
$PEXTMAX
 10
5.0
 20
5.0
 30
5.0
  9
$PLIMMIN
 10
-0.5
 20
-0.5
  9
$PLIMMAX
 10
5.0
 20
5.0
  9
$UNITMODE
 70
     0
  9
$VISRETAIN
 70
     1
  9
$PLINEGEN
 70
     0
  9
$PSLTSCALE
 70
     1
  9
$TREEDEPTH
 70
  3020
  9
$CMLSTYLE
  2
Standard
  9
$CMLJUST
 70
     0
  9
$CMLSCALE
 40
1.0
  9
$PROXYGRAPHICS
 70
     1
  9
$MEASUREMENT
 70
     1
  9
$CELWEIGHT
370
    13
  9
$ENDCAPS
280
     0
  9
$JOINSTYLE
280
     0
  9
$LWDISPLAY
290
     0
  9
$INSUNITS
 70
     4
  9
$HYPERLINKBASE
  1

  9
$STYLESHEET
  1

  9
$XEDIT
290
     1
  9
$CEPSNTYPE
380
     0
  9
$PSTYLEMODE
290
     1
  9
$FINGERPRINTGUID
  2
{9D718AD7-A97B-4CDC-83D9-B2D2593B74DA}
  9
$VERSIONGUID
  2
{B53B8425-B986-BB4B-9113-95A86B716F33}
  9
$EXTNAMES
290
     1
  9
$PSVPSCALE
 40
0.0
  9
$OLESTARTUP
290
     0
  9
$SORTENTS
280
   127
  9
$INDEXCTL
280
     0
  9
$HIDETEXT
280
     1
  9
$XCLIPFRAME
290
     0
  9
$HALOGAP
280
     0
  9
$OBSCOLOR
 70
   257
  9
$OBSLTYPE
280
     0
  9
$INTERSECTIONDISPLAY
280
     0
  9
$INTERSECTIONCOLOR
 70
   257
  9
$DIMASSOC
280
     2
  9
$PROJECTNAME
  1

  0
ENDSEC
  0
SECTION
  2
CLASSES
  0
CLASS
  1
ACDBDICTIONARYWDFLT
  2
AcDbDictionaryWithDefault
  3
ObjectDBX Classes
 90
        0
 91
        1
280
     0
281
     0
  0
CLASS
  1
VISUALSTYLE
  2
AcDbVisualStyle
  3
ObjectDBX Classes
 90
     4095
 91
       24
280
     0
281
     0
  0
CLASS
  1
MATERIAL
  2
AcDbMaterial
  3
ObjectDBX Classes
 90
     1153
 91
        3
280
     0
281
     0
  0
CLASS
  1
SCALE
  2
AcDbScale
  3
ObjectDBX Classes
 90
     1153
 91
       33
280
     0
281
     0
  0
CLASS
  1
TABLESTYLE
  2
AcDbTableStyle
  3
ObjectDBX Classes
 90
     4095
 91
        1
280
     0
281
     0
  0
CLASS
  1
MLEADERSTYLE
  2
AcDbMLeaderStyle
  3
ACDB_MLEADERSTYLE_CLASS
 90
     4095
 91
        1
280
     0
281
     0
  0
CLASS
  1
SUN
  2
AcDbSun
  3
SCENEOE
 90
     1153
 91
        0
280
     0
281
     0
  0
CLASS
  1
IMAGEDEF
  2
AcDbRasterImageDef
  3
ISM
 90
        0
 91
        1
280
     0
281
     0
  0
CLASS
  1
IMAGE
  2
AcDbRasterImage
  3
ISM
 90
     2175
 91
        1
280
     0
281
     1
  0
CLASS
  1
IMAGEDEF_REACTOR
  2
AcDbRasterImageDefReactor
  3
ISM
 90
        1
 91
        1
280
     0
281
     0
  0
CLASS
  1
DIMASSOC
  2
AcDbDimAssoc
  3
"AcDbDimAssoc|Product Desc:     AcDim ARX App For Dimension|Company:          Autodesk, Inc.|WEB Address:      www.autodesk.com"
 90
        0
 91
        8
280
     0
281
     0
  0
CLASS
  1
DICTIONARYVAR
  2
AcDbDictionaryVar
  3
ObjectDBX Classes
 90
        0
 91
        8
280
     0
281
     0
  0
CLASS
  1
CELLSTYLEMAP
  2
AcDbCellStyleMap
  3
ObjectDBX Classes
 90
     1152
 91
        2
280
     0
281
     0
  0
CLASS
  1
ACDBSECTIONVIEWSTYLE
  2
AcDbSectionViewStyle
  3
ObjectDBX Classes
 90
     1025
 91
        1
280
     0
281
     0
  0
CLASS
  1
ACDBDETAILVIEWSTYLE
  2
AcDbDetailViewStyle
  3
ObjectDBX Classes
 90
     1025
 91
        1
280
     0
281
     0
  0
CLASS
  1
RASTERVARIABLES
  2
AcDbRasterVariables
  3
ISM
 90
        0
 91
        1
280
     0
281
     0
  0
CLASS
  1
SORTENTSTABLE
  2
AcDbSortentsTable
  3
ObjectDBX Classes
 90
        0
 91
        1
280
     0
281
     0
  0
ENDSEC
  0
SECTION
  2
TABLES
  0
TABLE
  2
VPORT
  5
8
330
0
100
AcDbSymbolTable
 70
    16
  0
VPORT
  5
29
330
8
100
AcDbSymbolTableRecord
100
AcDbViewportTableRecord
  2
*Active
 70
     0
 10
0.0
 20
0.0
 11
1.0
 21
1.0
 12
276.9916887552808
 22
239.1966900609914
 13
0.0
 23
0.0
 14
0.5
 24
0.5
 15
0.5
 25
0.5
 16
0.0
 26
0.0
 36
1.0
 17
0.0
 27
0.0
 37
0.0
 40
187.1335207066827
 41
2.292712066905615
 42
50.0
 43
704.1830719999999
 44
-704.1830719999999
 50
0.0
 51
0.0
 71
     0
 72
   100
 73
     1
 74
     3
 75
     0
 76
     0
 77
     0
 78
     0
281
     0
 65
     1
110
249.444248
120
244.434018
130
0.0
111
1.0
121
0.0
131
0.0
112
0.0
122
1.0
132
0.0
 79
     0
146
0.0
1001
ACAD_NAV_VCDISPLAY
1070
     3
  0
VPORT
  5
346
330
8
100
AcDbSymbolTableRecord
100
AcDbViewportTableRecord
  2
L1
 70
     0
 10
0.0
 20
0.0
 11
1.0
 21
1.0
 12
398.164762
 22
172.997961
 13
0.0
 23
0.0
 14
0.5
 24
0.5
 15
0.5
 25
0.5
 16
0.0
 26
0.0
 36
1.0
 17
0.0
 27
0.0
 37
0.0
 40
207.433333
 41
0.085602
 42
50.0
 43
704.1830719999999
 44
-704.1830719999999
 50
0.0
 51
0.0
 71
     0
 72
   100
 73
     1
 74
     3
 75
     0
 76
     0
 77
     0
 78
     0
281
     0
 65
     1
110
0.0
120
0.0
130
0.0
111
1.0
121
0.0
131
0.0
112
0.0
122
1.0
132
0.0
 79
     0
146
0.0
  0
VPORT
  5
347
330
8
100
AcDbSymbolTableRecord
100
AcDbViewportTableRecord
  2
L2
 70
     0
 10
0.0
 20
0.0
 11
0.5
 21
1.0
 12
0.0
 22
0.0
 13
0.0
 23
0.0
 14
0.5
 24
0.5
 15
0.5
 25
0.5
 16
0.0
 26
-1.0
 36
0.0
 17
0.0
 27
0.0
 37
0.0
 40
1478.660809
 41
0.012009
 42
50.0
 43
765.39502
 44
-765.39502
 50
0.0
 51
0.0
 71
     0
 72
   100
 73
     1
 74
     3
 75
     0
 76
     0
 77
     0
 78
     0
281
     0
 65
     1
110
0.0
120
0.0
130
0.0
111
1.0
121
0.0
131
0.0
112
0.0
122
1.0
132
0.0
 79
     0
146
0.0
  0
VPORT
  5
348
330
8
100
AcDbSymbolTableRecord
100
AcDbViewportTableRecord
  2
L2
 70
     0
 10
0.5
 20
0.0
 11
1.0
 21
1.0
 12
0.0
 22
0.0
 13
0.0
 23
0.0
 14
0.5
 24
0.5
 15
0.5
 25
0.5
 16
1.0
 26
0.0
 36
0.0
 17
0.0
 27
0.0
 37
0.0
 40
1478.660809
 41
0.012009
 42
50.0
 43
746.5698859999999
 44
-746.5698859999999
 50
0.0
 51
0.0
 71
     0
 72
   100
 73
     1
 74
     3
 75
     0
 76
     0
 77
     0
 78
     0
281
     0
 65
     1
110
0.0
120
0.0
130
0.0
111
1.0
121
0.0
131
0.0
112
0.0
122
1.0
132
0.0
 79
     0
146
0.0
  0
VPORT
  5
349
330
8
100
AcDbSymbolTableRecord
100
AcDbViewportTableRecord
  2
L3
 70
     0
 10
0.0
 20
0.5
 11
1.0
 21
1.0
 12
398.164762
 22
172.997961
 13
0.0
 23
0.0
 14
0.5
 24
0.5
 15
0.5
 25
0.5
 16
0.0
 26
0.0
 36
1.0
 17
0.0
 27
0.0
 37
0.0
 40
207.433333
 41
0.085602
 42
50.0
 43
704.1830719999999
 44
-704.1830719999999
 50
0.0
 51
0.0
 71
     0
 72
   100
 73
     1
 74
     3
 75
     0
 76
     0
 77
     0
 78
     0
281
     0
 65
     1
110
0.0
120
0.0
130
0.0
111
1.0
121
0.0
131
0.0
112
0.0
122
1.0
132
0.0
 79
     0
146
0.0
  0
VPORT
  5
34A
330
8
100
AcDbSymbolTableRecord
100
AcDbViewportTableRecord
  2
L3
 70
     0
 10
0.0
 20
0.0
 11
1.0
 21
0.5
 12
0.0
 22
0.0
 13
0.0
 23
0.0
 14
0.5
 24
0.5
 15
0.5
 25
0.5
 16
0.0
 26
-1.0
 36
0.0
 17
0.0
 27
0.0
 37
0.0
 40
1478.660809
 41
0.012009
 42
50.0
 43
765.39502
 44
-765.39502
 50
0.0
 51
0.0
 71
     0
 72
   100
 73
     1
 74
     3
 75
     0
 76
     0
 77
     0
 78
     0
281
     0
 65
     1
110
0.0
120
0.0
130
0.0
111
1.0
121
0.0
131
0.0
112
0.0
122
1.0
132
0.0
 79
     0
146
0.0
  0
VPORT
  5
34B
330
8
100
AcDbSymbolTableRecord
100
AcDbViewportTableRecord
  2
L4
 70
     0
 10
0.0
 20
0.5
 11
0.5
 21
1.0
 12
398.164762
 22
172.997961
 13
0.0
 23
0.0
 14
0.5
 24
0.5
 15
0.5
 25
0.5
 16
0.0
 26
0.0
 36
1.0
 17
0.0
 27
0.0
 37
0.0
 40
207.433333
 41
0.085602
 42
50.0
 43
704.1830719999999
 44
-704.1830719999999
 50
0.0
 51
0.0
 71
     0
 72
   100
 73
     1
 74
     3
 75
     0
 76
     0
 77
     0
 78
     0
281
     0
 65
     1
110
0.0
120
0.0
130
0.0
111
1.0
121
0.0
131
0.0
112
0.0
122
1.0
132
0.0
 79
     0
146
0.0
  0
VPORT
  5
34C
330
8
100
AcDbSymbolTableRecord
100
AcDbViewportTableRecord
  2
L4
 70
     0
 10
0.0
 20
0.0
 11
0.5
 21
0.5
 12
0.0
 22
0.0
 13
0.0
 23
0.0
 14
0.5
 24
0.5
 15
0.5
 25
0.5
 16
0.0
 26
-1.0
 36
0.0
 17
0.0
 27
0.0
 37
0.0
 40
1478.660809
 41
0.012009
 42
50.0
 43
765.39502
 44
-765.39502
 50
0.0
 51
0.0
 71
     0
 72
   100
 73
     1
 74
     3
 75
     0
 76
     0
 77
     0
 78
     0
281
     0
 65
     1
110
0.0
120
0.0
130
0.0
111
1.0
121
0.0
131
0.0
112
0.0
122
1.0
132
0.0
 79
     0
146
0.0
  0
VPORT
  5
34D
330
8
100
AcDbSymbolTableRecord
100
AcDbViewportTableRecord
  2
L4
 70
     0
 10
0.5
 20
0.0
 11
1.0
 21
0.5
 12
0.0
 22
0.0
 13
0.0
 23
0.0
 14
0.5
 24
0.5
 15
0.5
 25
0.5
 16
1.0
 26
0.0
 36
0.0
 17
0.0
 27
0.0
 37
0.0
 40
1478.660809
 41
0.012009
 42
50.0
 43
746.5698859999999
 44
-746.5698859999999
 50
0.0
 51
0.0
 71
     0
 72
   100
 73
     1
 74
     3
 75
     0
 76
     0
 77
     0
 78
     0
281
     0
 65
     1
110
0.0
120
0.0
130
0.0
111
1.0
121
0.0
131
0.0
112
0.0
122
1.0
132
0.0
 79
     0
146
0.0
  0
VPORT
  5
34E
330
8
100
AcDbSymbolTableRecord
100
AcDbViewportTableRecord
  2
L4
 70
     0
 10
0.5
 20
0.5
 11
1.0
 21
1.0
 12
0.0
 22
0.0
 13
0.0
 23
0.0
 14
0.5
 24
0.5
 15
0.5
 25
0.5
 16
0.5773502691896259
 26
-0.5773502691896259
 36
0.5773502691896259
 17
0.0
 27
0.0
 37
0.0
 40
1453.705292
 41
0.012215
 42
50.0
 43
757.5245879999999
 44
-757.5245879999999
 50
0.0
 51
0.0
 71
     0
 72
   100
 73
     1
 74
     3
 75
     0
 76
     0
 77
     0
 78
     0
281
     0
 65
     1
110
0.0
120
0.0
130
0.0
111
1.0
121
0.0
131
0.0
112
0.0
122
1.0
132
0.0
 79
     0
146
0.0
  0
VPORT
  5
34F
330
8
100
AcDbSymbolTableRecord
100
AcDbViewportTableRecord
  2
L6
 70
     0
 10
0.0
 20
0.5
 11
0.333333
 21
1.0
 12
0.0
 22
0.0
 13
0.0
 23
0.0
 14
0.5
 24
0.5
 15
0.5
 25
0.5
 16
0.7188730927569434
 26
-0.5850486126764433
 36
0.3754192287502549
 17
0.0
 27
0.0
 37
0.0
 40
1534.989881
 41
0.011568
 42
50.0
 43
794.5176169999999
 44
-794.5176169999999
 50
0.0
 51
0.0
 71
     0
 72
   100
 73
     1
 74
     3
 75
     0
 76
     0
 77
     0
 78
     0
281
     0
 65
     1
110
0.0
120
0.0
130
0.0
111
1.0
121
0.0
131
0.0
112
0.0
122
1.0
132
0.0
 79
     0
146
0.0
  0
VPORT
  5
350
330
8
100
AcDbSymbolTableRecord
100
AcDbViewportTableRecord
  2
L6
 70
     0
 10
0.0
 20
0.0
 11
0.333333
 21
0.5
 12
0.0
 22
0.0
 13
0.0
 23
0.0
 14
0.5
 24
0.5
 15
0.5
 25
0.5
 16
-1.0
 26
0.0
 36
0.0
 17
0.0
 27
0.0
 37
0.0
 40
1478.660809
 41
0.012009
 42
50.0
 43
746.5698859999999
 44
-746.5698859999999
 50
0.0
 51
0.0
 71
     0
 72
   100
 73
     1
 74
     3
 75
     0
 76
     0
 77
     0
 78
     0
281
     0
 65
     1
110
0.0
120
0.0
130
0.0
111
1.0
121
0.0
131
0.0
112
0.0
122
1.0
132
0.0
 79
     0
146
0.0
  0
VPORT
  5
351
330
8
100
AcDbSymbolTableRecord
100
AcDbViewportTableRecord
  2
L6
 70
     0
 10
0.333333
 20
0.5
 11
0.666667
 21
1.0
 12
398.164762
 22
172.997961
 13
0.0
 23
0.0
 14
0.5
 24
0.5
 15
0.5
 25
0.5
 16
0.0
 26
0.0
 36
1.0
 17
0.0
 27
0.0
 37
0.0
 40
207.433333
 41
0.085602
 42
50.0
 43
704.1830719999999
 44
-704.1830719999999
 50
0.0
 51
0.0
 71
     0
 72
   100
 73
     1
 74
     3
 75
     0
 76
     0
 77
     0
 78
     0
281
     0
 65
     1
110
0.0
120
0.0
130
0.0
111
1.0
121
0.0
131
0.0
112
0.0
122
1.0
132
0.0
 79
     0
146
0.0
  0
VPORT
  5
352
330
8
100
AcDbSymbolTableRecord
100
AcDbViewportTableRecord
  2
L6
 70
     0
 10
0.333333
 20
0.0
 11
0.666667
 21
0.5
 12
0.0
 22
0.0
 13
0.0
 23
0.0
 14
0.5
 24
0.5
 15
0.5
 25
0.5
 16
0.0
 26
-1.0
 36
0.0
 17
0.0
 27
0.0
 37
0.0
 40
1478.660809
 41
0.012009
 42
50.0
 43
765.39502
 44
-765.39502
 50
0.0
 51
0.0
 71
     0
 72
   100
 73
     1
 74
     3
 75
     0
 76
     0
 77
     0
 78
     0
281
     0
 65
     1
110
0.0
120
0.0
130
0.0
111
1.0
121
0.0
131
0.0
112
0.0
122
1.0
132
0.0
 79
     0
146
0.0
  0
VPORT
  5
353
330
8
100
AcDbSymbolTableRecord
100
AcDbViewportTableRecord
  2
L6
 70
     0
 10
0.666667
 20
0.5
 11
1.0
 21
1.0
 12
0.0
 22
0.0
 13
0.0
 23
0.0
 14
0.5
 24
0.5
 15
0.5
 25
0.5
 16
0.5773502691896259
 26
-0.5773502691896259
 36
0.5773502691896259
 17
0.0
 27
0.0
 37
0.0
 40
1453.705292
 41
0.012215
 42
50.0
 43
757.5245879999999
 44
-757.5245879999999
 50
0.0
 51
0.0
 71
     0
 72
   100
 73
     1
 74
     3
 75
     0
 76
     0
 77
     0
 78
     0
281
     0
 65
     1
110
0.0
120
0.0
130
0.0
111
1.0
121
0.0
131
0.0
112
0.0
122
1.0
132
0.0
 79
     0
146
0.0
  0
VPORT
  5
354
330
8
100
AcDbSymbolTableRecord
100
AcDbViewportTableRecord
  2
L6
 70
     0
 10
0.666667
 20
0.0
 11
1.0
 21
0.5
 12
0.0
 22
0.0
 13
0.0
 23
0.0
 14
0.5
 24
0.5
 15
0.5
 25
0.5
 16
1.0
 26
0.0
 36
0.0
 17
0.0
 27
0.0
 37
0.0
 40
1478.660809
 41
0.012009
 42
50.0
 43
746.5698859999999
 44
-746.5698859999999
 50
0.0
 51
0.0
 71
     0
 72
   100
 73
     1
 74
     3
 75
     0
 76
     0
 77
     0
 78
     0
281
     0
 65
     1
110
0.0
120
0.0
130
0.0
111
1.0
121
0.0
131
0.0
112
0.0
122
1.0
132
0.0
 79
     0
146
0.0
  0
ENDTAB
  0
TABLE
  2
LTYPE
  5
5
330
0
100
AcDbSymbolTable
 70
     7
  0
LTYPE
  5
14
330
5
100
AcDbSymbolTableRecord
100
AcDbLinetypeTableRecord
  2
ByBlock
 70
     0
  3

 72
    65
 73
     0
 40
0.0
  0
LTYPE
  5
15
330
5
100
AcDbSymbolTableRecord
100
AcDbLinetypeTableRecord
  2
ByLayer
 70
     0
  3

 72
    65
 73
     0
 40
0.0
  0
LTYPE
  5
16
330
5
100
AcDbSymbolTableRecord
100
AcDbLinetypeTableRecord
  2
Continuous
 70
     0
  3
Solid line
 72
    65
 73
     0
 40
0.0
  0
LTYPE
  5
6E
330
5
100
AcDbSymbolTableRecord
100
AcDbLinetypeTableRecord
  2
CENTER
 70
     0
  3
____ _ ____ _ ____ _ ____
 72
    65
 73
     4
 40
47.4
 49
22.0
 74
     4
 75
     0
340
0
 46
0.0
 50
0.0
 44
0.0
 45
0.0
 49
-8.5
 74
     4
 75
     0
340
0
 46
0.0
 50
0.0
 44
0.0
 45
0.0
 49
8.5
 74
     4
 75
     0
340
0
 46
0.0
 50
0.0
 44
0.0
 45
0.0
 49
-8.5
 74
     4
 75
     0
340
0
 46
0.0
 50
0.0
 44
0.0
 45
0.0
  0
LTYPE
  5
6F
330
5
100
AcDbSymbolTableRecord
100
AcDbLinetypeTableRecord
  2
DASHDOT
 70
     0
  3
_._._._._._._._._._._._._._._._.
 72
    65
 73
     4
 40
70.0
 49
31.0
 74
     4
 75
     0
340
0
 46
0.0
 50
0.0
 44
0.0
 45
0.0
 49
-13.0
 74
     4
 75
     0
340
0
 46
0.0
 50
0.0
 44
0.0
 45
0.0
 49
13.0
 74
     4
 75
     0
340
0
 46
0.0
 50
0.0
 44
0.0
 45
0.0
 49
-13.0
 74
     4
 75
     0
340
0
 46
0.0
 50
0.0
 44
0.0
 45
0.0
  0
LTYPE
  5
70
330
5
100
AcDbSymbolTableRecord
100
AcDbLinetypeTableRecord
  2
DASHED
 70
     0
  3
__ __ __ __ __ __ __ __ __
 72
    65
 73
     2
 40
25.72
 49
12.86
 74
     4
 75
     0
340
0
 46
0.0
 50
0.0
 44
0.0
 45
0.0
 49
-12.86
 74
     4
 75
     0
340
0
 46
0.0
 50
0.0
 44
0.0
 45
0.0
  0
LTYPE
  5
71
330
5
100
AcDbSymbolTableRecord
100
AcDbLinetypeTableRecord
  2
DOT
 70
     0
  3
.........................
 72
    65
 73
     2
 40
10.0
 49
0.0
 74
     4
 75
     0
340
0
 46
0.0
 50
0.0
 44
0.0
 45
0.0
 49
-10.0
 74
     4
 75
     0
340
0
 46
0.0
 50
0.0
 44
0.0
 45
0.0
  0
LTYPE
  5
72
330
5
100
AcDbSymbolTableRecord
100
AcDbLinetypeTableRecord
  2
PHANTOM
 70
     0
  3
____ _ _ ____ _ _ _____ _ _ ____
 72
    65
 73
     6
 40
50.5
 49
18.0
 74
     4
 75
     0
340
0
 46
0.0
 50
0.0
 44
0.0
 45
0.0
 49
-6.5
 74
     4
 75
     0
340
0
 46
0.0
 50
0.0
 44
0.0
 45
0.0
 49
6.5
 74
     4
 75
     0
340
0
 46
0.0
 50
0.0
 44
0.0
 45
0.0
 49
-6.5
 74
     4
 75
     0
340
0
 46
0.0
 50
0.0
 44
0.0
 45
0.0
 49
6.5
 74
     4
 75
     0
340
0
 46
0.0
 50
0.0
 44
0.0
 45
0.0
 49
-6.5
 74
     4
 75
     0
340
0
 46
0.0
 50
0.0
 44
0.0
 45
0.0
  0
LTYPE
  5
40A
330
5
100
AcDbSymbolTableRecord
100
AcDbLinetypeTableRecord
  2
CENTER2
 70
     0
  3
Center (.5x) ___ _ ___ _ ___ _ ___ _ ___ _ ___
 72
    65
 73
     4
 40
1.125
 49
0.75
 74
     0
 49
-0.125
 74
     0
 49
0.125
 74
     0
 49
-0.125
 74
     0
  0
ENDTAB
  0
TABLE
  2
LAYER
  5
2
102
{ACAD_XDICTIONARY
360
435
102
}
330
0
100
AcDbSymbolTable
 70
    23
  0
LAYER
  5
10
102
{ACAD_XDICTIONARY
360
416
102
}
330
2
100
AcDbSymbolTableRecord
100
AcDbLayerTableRecord
  2
0
 70
     0
 62
     7
  6
Continuous
370
    -3
390
F
  0
LAYER
  5
79
102
{ACAD_XDICTIONARY
360
418
102
}
330
2
100
AcDbSymbolTableRecord
100
AcDbLayerTableRecord
  2
60
 70
     0
 62
     7
420
 16777215
  6
Continuous
370
    -3
390
F
  0
LAYER
  5
286
330
2
100
AcDbSymbolTableRecord
100
AcDbLayerTableRecord
  2
Defpoints
 70
     0
 62
     7
  6
Continuous
290
     0
370
    -3
390
F
  0
LAYER
  5
407
102
{ACAD_XDICTIONARY
360
41A
102
}
330
2
100
AcDbSymbolTableRecord
100
AcDbLayerTableRecord
  2
1
 70
     0
 62
     4
  6
Continuous
370
    -3
390
F
  0
LAYER
  5
408
102
{ACAD_XDICTIONARY
360
41C
102
}
330
2
100
AcDbSymbolTableRecord
100
AcDbLayerTableRecord
  2
2
 70
     0
 62
     7
  6
Continuous
370
    -3
390
F
  0
LAYER
  5
409
102
{ACAD_XDICTIONARY
360
41E
102
}
330
2
100
AcDbSymbolTableRecord
100
AcDbLayerTableRecord
  2
4
 70
     0
 62
     2
  6
CENTER2
370
    -3
390
F
  0
LAYER
  5
40C
102
{ACAD_XDICTIONARY
360
420
102
}
330
2
100
AcDbSymbolTableRecord
100
AcDbLayerTableRecord
  2
SK2
 70
     0
 62
     7
  6
Continuous
370
    -3
390
F
  0
LAYER
  5
40D
102
{ACAD_XDICTIONARY
360
422
102
}
330
2
100
AcDbSymbolTableRecord
100
AcDbLayerTableRecord
  2
SK3
 70
     0
 62
     1
  6
DASHED
370
    -3
390
F
  0
LAYER
  5
40E
102
{ACAD_XDICTIONARY
360
424
102
}
330
2
100
AcDbSymbolTableRecord
100
AcDbLayerTableRecord
  2
SK4
 70
     0
 62
     2
  6
CENTER2
370
    -3
390
F
  0
LAYER
  5
40F
102
{ACAD_XDICTIONARY
360
426
102
}
330
2
100
AcDbSymbolTableRecord
100
AcDbLayerTableRecord
  2
SK6
 70
     0
 62
     5
  6
Continuous
370
    -3
390
F
  0
LAYER
  5
410
102
{ACAD_XDICTIONARY
360
428
102
}
330
2
100
AcDbSymbolTableRecord
100
AcDbLayerTableRecord
  2
CUT
 70
     0
 62
     1
  6
Continuous
370
    -3
390
F
  0
LAYER
  5
411
102
{ACAD_XDICTIONARY
360
42A
102
}
330
2
100
AcDbSymbolTableRecord
100
AcDbLayerTableRecord
  2
NOCUT
 70
     0
 62
     7
  6
Continuous
370
    -3
390
F
  0
LAYER
  5
412
102
{ACAD_XDICTIONARY
360
42C
102
}
330
2
100
AcDbSymbolTableRecord
100
AcDbLayerTableRecord
  2
80
 70
     0
 62
     6
  6
Continuous
370
    -3
390
F
  0
LAYER
  5
413
102
{ACAD_XDICTIONARY
360
42E
102
}
330
2
100
AcDbSymbolTableRecord
100
AcDbLayerTableRecord
  2
81
 70
     0
 62
     3
  6
Continuous
370
    -3
390
F
  0
LAYER
  5
414
102
{ACAD_XDICTIONARY
360
430
102
}
330
2
100
AcDbSymbolTableRecord
100
AcDbLayerTableRecord
  2
SK1
 70
     0
 62
     4
  6
Continuous
370
    -3
390
F
  0
ENDTAB
  0
TABLE
  2
STYLE
  5
3
330
0
100
AcDbSymbolTable
 70
     3
  0
STYLE
  5
11
330
3
100
AcDbSymbolTableRecord
100
AcDbTextStyleTableRecord
  2
Standard
 70
     0
 40
0.0
 41
1.0
 50
0.0
 71
     0
 42
0.2
  3
txt
  4

  0
STYLE
  5
280
330
3
100
AcDbSymbolTableRecord
100
AcDbTextStyleTableRecord
  2
cesky
 70
     0
 40
0.0
 41
1.0
 50
0.0
 71
     0
 42
0.2
  3
simplex.shx
  4

  0
STYLE
  5
281
330
3
100
AcDbSymbolTableRecord
100
AcDbTextStyleTableRecord
  2
DWGDirectTextStyle
 70
     0
 40
0.0
 41
1.0
 50
0.0
 71
     0
 42
0.2
  3
simplex
  4

  0
ENDTAB
  0
TABLE
  2
VIEW
  5
6
330
0
100
AcDbSymbolTable
 70
     1
  0
ENDTAB
  0
TABLE
  2
UCS
  5
7
330
0
100
AcDbSymbolTable
 70
     0
  0
ENDTAB
  0
TABLE
  2
APPID
  5
9
330
0
100
AcDbSymbolTable
 70
     7
  0
APPID
  5
12
330
9
100
AcDbSymbolTableRecord
100
AcDbRegAppTableRecord
  2
ACAD
 70
     0
  0
APPID
  5
282
330
9
100
AcDbSymbolTableRecord
100
AcDbRegAppTableRecord
  2
ACAD_DSTYLE_DIMBREAK
 70
     0
  0
APPID
  5
355
330
9
100
AcDbSymbolTableRecord
100
AcDbRegAppTableRecord
  2
ACAD_DSTYLE_DIM_LINETYPE
 70
     0
  0
APPID
  5
356
330
9
100
AcDbSymbolTableRecord
100
AcDbRegAppTableRecord
  2
ACAD_DSTYLE_DIM_EXT1_LINETYPE
 70
     0
  0
APPID
  5
357
330
9
100
AcDbSymbolTableRecord
100
AcDbRegAppTableRecord
  2
ACAD_DSTYLE_DIM_EXT2_LINETYPE
 70
     0
  0
APPID
  5
397
330
9
100
AcDbSymbolTableRecord
100
AcDbRegAppTableRecord
  2
ACAD_MLEADERVER
 70
     0
  0
APPID
  5
43E
330
9
100
AcDbSymbolTableRecord
100
AcDbRegAppTableRecord
  2
ACAD_NAV_VCDISPLAY
 70
     0
  0
ENDTAB
  0
TABLE
  2
DIMSTYLE
  5
A
330
0
100
AcDbSymbolTable
 70
     1
100
AcDbDimStyleTable
 71
     0
  0
DIMSTYLE
105
27
330
A
100
AcDbSymbolTableRecord
100
AcDbDimStyleTableRecord
  2
Standard
 70
     0
340
11
1001
ACAD_DSTYLE_DIMBREAK
1070
   391
1040
6.349999999999999
  0
ENDTAB
  0
TABLE
  2
BLOCK_RECORD
  5
1
330
0
100
AcDbSymbolTable
 70
    17
  0
BLOCK_RECORD
  5
1F
102
{ACAD_XDICTIONARY
360
3A8
102
}
330
1
100
AcDbSymbolTableRecord
100
AcDbBlockTableRecord
  2
*Model_Space
340
22
  0
BLOCK_RECORD
  5
1B
330
1
100
AcDbSymbolTableRecord
100
AcDbBlockTableRecord
  2
*Paper_Space
340
1E
  0
BLOCK_RECORD
  5
23
330
1
100
AcDbSymbolTableRecord
100
AcDbBlockTableRecord
  2
*Paper_Space0
340
26
  0
BLOCK_RECORD
  5
287
330
1
100
AcDbSymbolTableRecord
100
AcDbBlockTableRecord
  2
*D1
340
0
  0
BLOCK_RECORD
  5
294
330
1
100
AcDbSymbolTableRecord
100
AcDbBlockTableRecord
  2
_U0
340
0
  0
BLOCK_RECORD
  5
2A0
330
1
100
AcDbSymbolTableRecord
100
AcDbBlockTableRecord
  2
*D3
340
0
  0
BLOCK_RECORD
  5
2AC
330
1
100
AcDbSymbolTableRecord
100
AcDbBlockTableRecord
  2
_U1
340
0
  0
BLOCK_RECORD
  5
2B8
330
1
100
AcDbSymbolTableRecord
100
AcDbBlockTableRecord
  2
*D5
340
0
  0
BLOCK_RECORD
  5
2C3
330
1
100
AcDbSymbolTableRecord
100
AcDbBlockTableRecord
  2
_U2
340
0
  0
BLOCK_RECORD
  5
2CE
330
1
100
AcDbSymbolTableRecord
100
AcDbBlockTableRecord
  2
*D7
340
0
  0
BLOCK_RECORD
  5
2DA
330
1
100
AcDbSymbolTableRecord
100
AcDbBlockTableRecord
  2
_U3
340
0
  0
BLOCK_RECORD
  5
2E7
330
1
100
AcDbSymbolTableRecord
100
AcDbBlockTableRecord
  2
*D9
340
0
  0
BLOCK_RECORD
  5
2F3
330
1
100
AcDbSymbolTableRecord
100
AcDbBlockTableRecord
  2
_U4
340
0
  0
BLOCK_RECORD
  5
300
330
1
100
AcDbSymbolTableRecord
100
AcDbBlockTableRecord
  2
*D11
340
0
  0
BLOCK_RECORD
  5
30C
330
1
100
AcDbSymbolTableRecord
100
AcDbBlockTableRecord
  2
_U5
340
0
  0
BLOCK_RECORD
  5
318
330
1
100
AcDbSymbolTableRecord
100
AcDbBlockTableRecord
  2
*D13
340
0
  0
BLOCK_RECORD
  5
324
330
1
100
AcDbSymbolTableRecord
100
AcDbBlockTableRecord
  2
_U6
340
0
  0
BLOCK_RECORD
  5
330
330
1
100
AcDbSymbolTableRecord
100
AcDbBlockTableRecord
  2
*D15
340
0
  0
BLOCK_RECORD
  5
33D
330
1
100
AcDbSymbolTableRecord
100
AcDbBlockTableRecord
  2
_U7
340
0
  0
ENDTAB
  0
ENDSEC
  0
SECTION
  2
BLOCKS
  0
BLOCK
  5
20
330
1F
100
AcDbEntity
  8
0
100
AcDbBlockBegin
  2
*Model_Space
 70
     0
 10
0.0
 20
0.0
 30
0.0
  3
*Model_Space
  1

  0
ENDBLK
  5
21
330
1F
100
AcDbEntity
  8
0
100
AcDbBlockEnd
  0
BLOCK
  5
1C
330
1B
100
AcDbEntity
 67
     1
  8
0
100
AcDbBlockBegin
  2
*Paper_Space
 70
     0
 10
0.0
 20
0.0
 30
0.0
  3
*Paper_Space
  1

  0
ENDBLK
  5
1D
330
1B
100
AcDbEntity
 67
     1
  8
0
100
AcDbBlockEnd
  0
BLOCK
  5
24
330
23
100
AcDbEntity
 67
     1
  8
0
100
AcDbBlockBegin
  2
*Paper_Space0
 70
     0
 10
0.0
 20
0.0
 30
0.0
  3
*Paper_Space0
  1

  0
ENDBLK
  5
25
330
23
100
AcDbEntity
 67
     1
  8
0
100
AcDbBlockEnd
  0
BLOCK
  5
288
330
287
100
AcDbEntity
  8
0
100
AcDbBlockBegin
  2
*D1
 70
     1
 10
0.0
 20
0.0
 30
0.0
  3
*D1
  1

  0
LINE
  5
28A
330
287
100
AcDbEntity
  8
0
 62
    95
370
    -2
100
AcDbLine
 10
249.444248
 20
244.434018
 30
0.0
 11
249.444248
 21
194.833483
 31
0.0
  0
LINE
  5
28B
330
287
100
AcDbEntity
  8
0
 62
    95
370
    -2
100
AcDbLine
 10
258.444248
 20
237.834018
 30
0.0
 11
258.444248
 21
194.833483
 31
0.0
  0
LINE
  5
28C
330
287
100
AcDbEntity
  8
0
 62
    95
370
    -2
100
AcDbLine
 10
245.944248
 20
195.833483
 30
0.0
 11
242.444248
 21
195.833483
 31
0.0
  0
LINE
  5
28D
330
287
100
AcDbEntity
  8
0
 62
    95
370
    -2
100
AcDbLine
 10
261.944248
 20
195.833483
 30
0.0
 11
265.444248
 21
195.833483
 31
0.0
  0
SOLID
  5
28E
330
287
100
AcDbEntity
  8
0
 62
    95
100
AcDbTrace
 10
245.944248
 20
195.25015
 30
0.0
 11
245.944248
 21
196.4168169999999
 31
0.0
 12
249.444248
 22
195.833483
 32
0.0
 13
249.444248
 23
195.833483
 33
0.0
  0
SOLID
  5
28F
330
287
100
AcDbEntity
  8
0
 62
    95
100
AcDbTrace
 10
261.944248
 20
196.4168169999999
 30
0.0
 11
261.944248
 21
195.25015
 31
0.0
 12
258.444248
 22
195.833483
 32
0.0
 13
258.444248
 23
195.833483
 33
0.0
  0
MTEXT
  5
290
330
287
100
AcDbEntity
  8
0
 62
    95
370
    13
100
AcDbMText
 10
253.944248
 20
201.083483
 30
0.0
 40
3.5
 41
0.0
 71
     5
 72
     1
  1
\A1;9
  7
cesky
 73
     1
 44
1.0
  0
POINT
  5
291
330
287
100
AcDbEntity
  8
Defpoints
 62
     0
100
AcDbPoint
 10
249.444248
 20
244.434018
 30
0.0
  0
POINT
  5
292
330
287
100
AcDbEntity
  8
Defpoints
 62
     0
100
AcDbPoint
 10
258.444248
 20
237.834018
 30
0.0
  0
POINT
  5
293
330
287
100
AcDbEntity
  8
Defpoints
 62
     0
100
AcDbPoint
 10
258.444248
 20
195.833483
 30
0.0
  0
ENDBLK
  5
289
330
287
100
AcDbEntity
  8
0
100
AcDbBlockEnd
  0
BLOCK
  5
29B
330
294
100
AcDbEntity
  8
0
100
AcDbBlockBegin
  2
_U0
 70
     0
 10
0.0
 20
0.0
 30
0.0
  3
_U0
  1

  0
MTEXT
  5
295
330
294
100
AcDbEntity
  8
60
  6
Continuous
 62
    95
440
 16777216
370
    13
100
AcDbMText
 10
253.392248
 20
195.70765
 30
0.0
 40
3.5
 41
0.0
 71
     7
 72
     5
  1
\W0.6563;9
  7
cesky
 73
     2
 44
0.8433729999999998
  0
LINE
  5
296
330
294
100
AcDbEntity
  8
60
 62
    95
440
 16777216
370
    13
100
AcDbLine
 10
249.444248
 20
244.434018
 30
0.0
 11
249.444248
 21
194.833483
 31
0.0
  0
LINE
  5
297
330
294
100
AcDbEntity
  8
60
 62
    95
440
 16777216
370
    13
100
AcDbLine
 10
258.444248
 20
237.834018
 30
0.0
 11
258.444248
 21
194.833483
 31
0.0
  0
LINE
  5
298
330
294
100
AcDbEntity
  8
60
 62
    95
440
 16777216
370
    13
100
AcDbLine
 10
240.694248
 20
195.833483
 30
0.0
 11
267.194248
 21
195.833483
 31
0.0
  0
SOLID
  5
299
330
294
100
AcDbEntity
  8
60
 62
    95
440
 16777216
370
    13
100
AcDbTrace
 10
249.444248
 20
195.833483
 30
0.0
 11
245.944251
 21
195.2163389999999
 31
0.0
 12
245.944246
 22
196.450628
 32
0.0
 13
245.944246
 23
196.450628
 33
0.0
  0
SOLID
  5
29A
330
294
100
AcDbEntity
  8
60
 62
    95
440
 16777216
370
    13
100
AcDbTrace
 10
258.444248
 20
195.833483
 30
0.0
 11
261.944246
 21
196.450628
 31
0.0
 12
261.9442509999999
 22
195.2163389999999
 32
0.0
 13
261.9442509999999
 23
195.2163389999999
 33
0.0
  0
ENDBLK
  5
29C
330
294
100
AcDbEntity
  8
0
100
AcDbBlockEnd
  0
BLOCK
  5
2A1
330
2A0
100
AcDbEntity
  8
0
100
AcDbBlockBegin
  2
*D3
 70
     1
 10
0.0
 20
0.0
 30
0.0
  3
*D3
  1

  0
LINE
  5
2A3
330
2A0
100
AcDbEntity
  8
0
 62
   254
370
    -2
100
AcDbLine
 10
249.444248
 20
271.934018
 30
0.0
 11
249.444248
 21
321.041797
 31
0.0
  0
LINE
  5
2A4
330
2A0
100
AcDbEntity
  8
0
 62
   254
370
    -2
100
AcDbLine
 10
299.444248
 20
308.9340180000001
 30
0.0
 11
299.444248
 21
321.041797
 31
0.0
  0
LINE
  5
2A5
330
2A0
100
AcDbEntity
  8
0
 62
   254
370
    -2
100
AcDbLine
 10
252.944248
 20
320.041797
 30
0.0
 11
295.944248
 21
320.041797
 31
0.0
  0
SOLID
  5
2A6
330
2A0
100
AcDbEntity
  8
0
 62
   254
100
AcDbTrace
 10
252.944248
 20
320.6251299999999
 30
0.0
 11
252.944248
 21
319.458463
 31
0.0
 12
249.444248
 22
320.041797
 32
0.0
 13
249.444248
 23
320.041797
 33
0.0
  0
SOLID
  5
2A7
330
2A0
100
AcDbEntity
  8
0
 62
   254
100
AcDbTrace
 10
295.944248
 20
319.458463
 30
0.0
 11
295.944248
 21
320.6251299999999
 31
0.0
 12
299.444248
 22
320.041797
 32
0.0
 13
299.444248
 23
320.041797
 33
0.0
  0
MTEXT
  5
2A8
330
2A0
100
AcDbEntity
  8
0
 62
   254
370
    13
100
AcDbMText
 10
274.444248
 20
325.291797
 30
0.0
 40
3.5
 41
0.0
 71
     5
 72
     1
  1
\A1;50
  7
cesky
 73
     1
 44
1.0
  0
POINT
  5
2A9
330
2A0
100
AcDbEntity
  8
Defpoints
 62
     0
100
AcDbPoint
 10
249.444248
 20
271.934018
 30
0.0
  0
POINT
  5
2AA
330
2A0
100
AcDbEntity
  8
Defpoints
 62
     0
100
AcDbPoint
 10
299.444248
 20
308.9340180000001
 30
0.0
  0
POINT
  5
2AB
330
2A0
100
AcDbEntity
  8
Defpoints
 62
     0
100
AcDbPoint
 10
299.444248
 20
320.041797
 30
0.0
  0
ENDBLK
  5
2A2
330
2A0
100
AcDbEntity
  8
0
100
AcDbBlockEnd
  0
BLOCK
  5
2B3
330
2AC
100
AcDbEntity
  8
0
100
AcDbBlockBegin
  2
_U1
 70
     0
 10
0.0
 20
0.0
 30
0.0
  3
_U1
  1

  0
ENDBLK
  5
2B4
330
2AC
100
AcDbEntity
  8
0
100
AcDbBlockEnd
  0
BLOCK
  5
2B9
330
2B8
100
AcDbEntity
  8
0
100
AcDbBlockBegin
  2
*D5
 70
     1
 10
0.0
 20
0.0
 30
0.0
  3
*D5
  1

  0
LINE
  5
2BB
330
2B8
100
AcDbEntity
  8
0
 62
   254
370
    -2
100
AcDbLine
 10
290.744248
 20
244.434018
 30
0.0
 11
312.954307
 21
244.434018
 31
0.0
  0
LINE
  5
2BC
330
2B8
100
AcDbEntity
  8
0
 62
   254
370
    -2
100
AcDbLine
 10
301.444248
 20
306.9340180000001
 30
0.0
 11
312.954307
 21
306.9340180000001
 31
0.0
  0
LINE
  5
2BD
330
2B8
100
AcDbEntity
  8
0
 62
   254
370
    -2
100
AcDbLine
 10
311.954307
 20
244.434018
 30
0.0
 11
311.954307
 21
306.9340180000001
 31
0.0
  0
SOLID
  5
2BE
330
2B8
100
AcDbEntity
  8
0
 62
   254
100
AcDbTrace
 10
312.537641
 20
303.434018
 30
0.0
 11
311.370974
 21
303.434018
 31
0.0
 12
311.954307
 22
306.9340180000001
 32
0.0
 13
311.954307
 23
306.9340180000001
 33
0.0
  0
MTEXT
  5
2BF
330
2B8
100
AcDbEntity
  8
0
 62
   254
370
    13
100
AcDbMText
 10
306.704307
 20
233.267352
 30
0.0
 40
3.5
 41
0.0
 71
     5
 72
     1
  1
\A1;125
  7
cesky
 11
0.0
 21
1.0
 31
0.0
 73
     1
 44
1.0
  0
POINT
  5
2C0
330
2B8
100
AcDbEntity
  8
Defpoints
 62
     0
100
AcDbPoint
 10
290.744248
 20
244.434018
 30
0.0
  0
POINT
  5
2C1
330
2B8
100
AcDbEntity
  8
Defpoints
 62
     0
100
AcDbPoint
 10
301.444248
 20
306.9340180000001
 30
0.0
  0
POINT
  5
2C2
330
2B8
100
AcDbEntity
  8
Defpoints
 62
     0
100
AcDbPoint
 10
311.954307
 20
306.9340180000001
 30
0.0
  0
ENDBLK
  5
2BA
330
2B8
100
AcDbEntity
  8
0
100
AcDbBlockEnd
  0
BLOCK
  5
2C9
330
2C3
100
AcDbEntity
  8
0
100
AcDbBlockBegin
  2
_U2
 70
     0
 10
0.0
 20
0.0
 30
0.0
  3
_U2
  1

  0
ENDBLK
  5
2CA
330
2C3
100
AcDbEntity
  8
0
100
AcDbBlockEnd
  0
BLOCK
  5
2CF
330
2CE
100
AcDbEntity
  8
0
100
AcDbBlockBegin
  2
*D7
 70
     1
 10
0.0
 20
0.0
 30
0.0
  3
*D7
  1

  0
LINE
  5
2D1
330
2CE
100
AcDbEntity
  8
0
 62
    95
370
    -2
100
AcDbLine
 10
258.887904
 20
264.434018
 30
0.0
 11
224.509258
 21
264.434018
 31
0.0
  0
LINE
  5
2D2
330
2CE
100
AcDbEntity
  8
0
 62
    95
370
    -2
100
AcDbLine
 10
259.440653
 20
224.434018
 30
0.0
 11
224.509258
 21
224.434018
 31
0.0
  0
LINE
  5
2D3
330
2CE
100
AcDbEntity
  8
0
 62
    95
370
    -2
100
AcDbLine
 10
225.509258
 20
260.934018
 30
0.0
 11
225.509258
 21
227.934018
 31
0.0
  0
SOLID
  5
2D4
330
2CE
100
AcDbEntity
  8
0
 62
    95
100
AcDbTrace
 10
226.092591
 20
260.934018
 30
0.0
 11
224.925925
 21
260.934018
 31
0.0
 12
225.509258
 22
264.434018
 32
0.0
 13
225.509258
 23
264.434018
 33
0.0
  0
SOLID
  5
2D5
330
2CE
100
AcDbEntity
  8
0
 62
    95
100
AcDbTrace
 10
224.925925
 20
227.934018
 30
0.0
 11
226.092591
 21
227.934018
 31
0.0
 12
225.509258
 22
224.434018
 32
0.0
 13
225.509258
 23
224.434018
 33
0.0
  0
MTEXT
  5
2D6
330
2CE
100
AcDbEntity
  8
0
 62
    95
370
    13
100
AcDbMText
 10
220.259258
 20
244.434018
 30
0.0
 40
3.5
 41
0.0
 71
     5
 72
     1
  1
\A1;40
  7
cesky
 11
0.0
 21
1.0
 31
0.0
 73
     1
 44
1.0
  0
POINT
  5
2D7
330
2CE
100
AcDbEntity
  8
Defpoints
 62
     0
100
AcDbPoint
 10
258.887904
 20
264.434018
 30
0.0
  0
POINT
  5
2D8
330
2CE
100
AcDbEntity
  8
Defpoints
 62
     0
100
AcDbPoint
 10
259.440653
 20
224.434018
 30
0.0
  0
POINT
  5
2D9
330
2CE
100
AcDbEntity
  8
Defpoints
 62
     0
100
AcDbPoint
 10
225.509258
 20
224.434018
 30
0.0
  0
ENDBLK
  5
2D0
330
2CE
100
AcDbEntity
  8
0
100
AcDbBlockEnd
  0
BLOCK
  5
2E2
330
2DA
100
AcDbEntity
  8
0
100
AcDbBlockBegin
  2
_U3
 70
     0
 10
0.0
 20
0.0
 30
0.0
  3
_U3
  1

  0
ENDBLK
  5
2E3
330
2DA
100
AcDbEntity
  8
0
100
AcDbBlockEnd
  0
BLOCK
  5
2E8
330
2E7
100
AcDbEntity
  8
0
100
AcDbBlockBegin
  2
*D9
 70
     1
 10
0.0
 20
0.0
 30
0.0
  3
*D9
  1

  0
LINE
  5
2EA
330
2E7
100
AcDbEntity
  8
0
 62
    95
370
    -2
100
AcDbLine
 10
259.642176
 20
279.434018
 30
0.0
 11
213.713372
 21
279.434018
 31
0.0
  0
LINE
  5
2EB
330
2E7
100
AcDbEntity
  8
0
 62
    95
370
    -2
100
AcDbLine
 10
256.763273
 20
209.434018
 30
0.0
 11
213.713372
 21
209.434018
 31
0.0
  0
LINE
  5
2EC
330
2E7
100
AcDbEntity
  8
0
 62
    95
370
    -2
100
AcDbLine
 10
214.713372
 20
275.9340180000001
 30
0.0
 11
214.713372
 21
212.934018
 31
0.0
  0
SOLID
  5
2ED
330
2E7
100
AcDbEntity
  8
0
 62
    95
100
AcDbTrace
 10
215.296706
 20
275.9340180000001
 30
0.0
 11
214.130039
 21
275.9340180000001
 31
0.0
 12
214.713372
 22
279.434018
 32
0.0
 13
214.713372
 23
279.434018
 33
0.0
  0
SOLID
  5
2EE
330
2E7
100
AcDbEntity
  8
0
 62
    95
100
AcDbTrace
 10
214.130039
 20
212.934018
 30
0.0
 11
215.296706
 21
212.934018
 31
0.0
 12
214.713372
 22
209.434018
 32
0.0
 13
214.713372
 23
209.434018
 33
0.0
  0
MTEXT
  5
2EF
330
2E7
100
AcDbEntity
  8
0
 62
    95
370
    13
100
AcDbMText
 10
209.463372
 20
244.434018
 30
0.0
 40
3.5
 41
0.0
 71
     5
 72
     1
  1
\A1;70
  7
cesky
 11
0.0
 21
1.0
 31
0.0
 73
     1
 44
1.0
  0
POINT
  5
2F0
330
2E7
100
AcDbEntity
  8
Defpoints
 62
     0
100
AcDbPoint
 10
259.642176
 20
279.434018
 30
0.0
  0
POINT
  5
2F1
330
2E7
100
AcDbEntity
  8
Defpoints
 62
     0
100
AcDbPoint
 10
256.763273
 20
209.434018
 30
0.0
  0
POINT
  5
2F2
330
2E7
100
AcDbEntity
  8
Defpoints
 62
     0
100
AcDbPoint
 10
214.713372
 20
209.434018
 30
0.0
  0
ENDBLK
  5
2E9
330
2E7
100
AcDbEntity
  8
0
100
AcDbBlockEnd
  0
BLOCK
  5
2FB
330
2F3
100
AcDbEntity
  8
0
100
AcDbBlockBegin
  2
_U4
 70
     0
 10
0.0
 20
0.0
 30
0.0
  3
_U4
  1

  0
ENDBLK
  5
2FC
330
2F3
100
AcDbEntity
  8
0
100
AcDbBlockEnd
  0
BLOCK
  5
301
330
300
100
AcDbEntity
  8
0
100
AcDbBlockBegin
  2
*D11
 70
     1
 10
0.0
 20
0.0
 30
0.0
  3
*D11
  1

  0
LINE
  5
303
330
300
100
AcDbEntity
  8
0
 62
   254
370
    -2
100
AcDbLine
 10
299.444248
 20
306.9340180000001
 30
0.0
 11
277.648989
 21
306.9340180000001
 31
0.0
  0
LINE
  5
304
330
300
100
AcDbEntity
  8
0
 62
   254
370
    -2
100
AcDbLine
 10
293.7442479999999
 20
282.434018
 30
0.0
 11
277.648989
 21
282.434018
 31
0.0
  0
LINE
  5
305
330
300
100
AcDbEntity
  8
0
 62
   254
370
    -2
100
AcDbLine
 10
278.648989
 20
303.434018
 30
0.0
 11
278.648989
 21
285.934018
 31
0.0
  0
SOLID
  5
306
330
300
100
AcDbEntity
  8
0
 62
   254
100
AcDbTrace
 10
279.232322
 20
303.434018
 30
0.0
 11
278.065656
 21
303.434018
 31
0.0
 12
278.648989
 22
306.9340180000001
 32
0.0
 13
278.648989
 23
306.9340180000001
 33
0.0
  0
SOLID
  5
307
330
300
100
AcDbEntity
  8
0
 62
   254
100
AcDbTrace
 10
278.065656
 20
285.934018
 30
0.0
 11
279.232322
 21
285.934018
 31
0.0
 12
278.648989
 22
282.434018
 32
0.0
 13
278.648989
 23
282.434018
 33
0.0
  0
MTEXT
  5
308
330
300
100
AcDbEntity
  8
0
 62
   254
370
    13
100
AcDbMText
 10
273.398989
 20
294.684018
 30
0.0
 40
3.5
 41
0.0
 71
     5
 72
     1
  1
\A1;24.5
  7
cesky
 11
0.0
 21
1.0
 31
0.0
 73
     1
 44
1.0
  0
POINT
  5
309
330
300
100
AcDbEntity
  8
Defpoints
 62
     0
100
AcDbPoint
 10
299.444248
 20
306.9340180000001
 30
0.0
  0
POINT
  5
30A
330
300
100
AcDbEntity
  8
Defpoints
 62
     0
100
AcDbPoint
 10
293.7442479999999
 20
282.434018
 30
0.0
  0
POINT
  5
30B
330
300
100
AcDbEntity
  8
Defpoints
 62
     0
100
AcDbPoint
 10
278.648989
 20
282.434018
 30
0.0
  0
ENDBLK
  5
302
330
300
100
AcDbEntity
  8
0
100
AcDbBlockEnd
  0
BLOCK
  5
313
330
30C
100
AcDbEntity
  8
0
100
AcDbBlockBegin
  2
_U5
 70
     0
 10
0.0
 20
0.0
 30
0.0
  3
_U5
  1

  0
MTEXT
  5
30D
330
30C
100
AcDbEntity
  8
60
  6
Continuous
 62
   254
440
 16777216
370
    13
100
AcDbMText
 10
279.117822
 20
290.316518
 30
0.0
 40
3.5
 41
0.0
 71
     7
 72
     5
  1
\W0.8459;24,5
  7
cesky
 11
0.0000000000000001
 21
1.0
 31
0.0
 73
     2
 44
0.8433729999999998
  0
LINE
  5
30E
330
30C
100
AcDbEntity
  8
60
 62
   254
440
 16777216
370
    13
100
AcDbLine
 10
299.444248
 20
306.9340180000001
 30
0.0
 11
277.648989
 21
306.9340180000001
 31
0.0
  0
LINE
  5
30F
330
30C
100
AcDbEntity
  8
60
 62
   254
440
 16777216
370
    13
100
AcDbLine
 10
293.7442479999999
 20
282.434018
 30
0.0
 11
277.648989
 21
282.434018
 31
0.0
  0
LINE
  5
310
330
30C
100
AcDbEntity
  8
60
 62
   254
440
 16777216
370
    13
100
AcDbLine
 10
278.648989
 20
306.9340180000001
 30
0.0
 11
278.648989
 21
282.434018
 31
0.0
  0
SOLID
  5
311
330
30C
100
AcDbEntity
  8
60
 62
   254
440
 16777216
370
    13
100
AcDbTrace
 10
278.648989
 20
306.9340180000001
 30
0.0
 11
279.2661339999999
 21
303.434021
 31
0.0
 12
278.031845
 22
303.4340160000001
 32
0.0
 13
278.031845
 23
303.4340160000001
 33
0.0
  0
SOLID
  5
312
330
30C
100
AcDbEntity
  8
60
 62
   254
440
 16777216
370
    13
100
AcDbTrace
 10
278.648989
 20
282.434018
 30
0.0
 11
278.031845
 21
285.934016
 31
0.0
 12
279.2661339999999
 22
285.934021
 32
0.0
 13
279.2661339999999
 23
285.934021
 33
0.0
  0
ENDBLK
  5
314
330
30C
100
AcDbEntity
  8
0
100
AcDbBlockEnd
  0
BLOCK
  5
319
330
318
100
AcDbEntity
  8
0
100
AcDbBlockBegin
  2
*D13
 70
     1
 10
0.0
 20
0.0
 30
0.0
  3
*D13
  1

  0
LINE
  5
31B
330
318
100
AcDbEntity
  8
0
 62
    95
370
    -2
100
AcDbLine
 10
253.644248
 20
252.634018
 30
0.0
 11
239.19756
 21
252.634018
 31
0.0
  0
LINE
  5
31C
330
318
100
AcDbEntity
  8
0
 62
    95
370
    -2
100
AcDbLine
 10
253.644248
 20
236.234018
 30
0.0
 11
239.19756
 21
236.234018
 31
0.0
  0
LINE
  5
31D
330
318
100
AcDbEntity
  8
0
 62
    95
370
    -2
100
AcDbLine
 10
240.19756
 20
249.134018
 30
0.0
 11
240.19756
 21
239.734018
 31
0.0
  0
SOLID
  5
31E
330
318
100
AcDbEntity
  8
0
 62
    95
100
AcDbTrace
 10
240.780894
 20
249.134018
 30
0.0
 11
239.614227
 21
249.134018
 31
0.0
 12
240.19756
 22
252.634018
 32
0.0
 13
240.19756
 23
252.634018
 33
0.0
  0
SOLID
  5
31F
330
318
100
AcDbEntity
  8
0
 62
    95
100
AcDbTrace
 10
239.614227
 20
239.734018
 30
0.0
 11
240.780894
 21
239.734018
 31
0.0
 12
240.19756
 22
236.234018
 32
0.0
 13
240.19756
 23
236.234018
 33
0.0
  0
MTEXT
  5
320
330
318
100
AcDbEntity
  8
0
 62
    95
370
    13
100
AcDbMText
 10
234.94756
 20
244.434018
 30
0.0
 40
3.5
 41
0.0
 71
     5
 72
     1
  1
\A1;16.4
  7
cesky
 11
0.0
 21
1.0
 31
0.0
 73
     1
 44
1.0
  0
POINT
  5
321
330
318
100
AcDbEntity
  8
Defpoints
 62
     0
100
AcDbPoint
 10
253.644248
 20
252.634018
 30
0.0
  0
POINT
  5
322
330
318
100
AcDbEntity
  8
Defpoints
 62
     0
100
AcDbPoint
 10
253.644248
 20
236.234018
 30
0.0
  0
POINT
  5
323
330
318
100
AcDbEntity
  8
Defpoints
 62
     0
100
AcDbPoint
 10
240.19756
 20
236.234018
 30
0.0
  0
ENDBLK
  5
31A
330
318
100
AcDbEntity
  8
0
100
AcDbBlockEnd
  0
BLOCK
  5
32B
330
324
100
AcDbEntity
  8
0
100
AcDbBlockBegin
  2
_U6
 70
     0
 10
0.0
 20
0.0
 30
0.0
  3
_U6
  1

  0
MTEXT
  5
325
330
324
100
AcDbEntity
  8
60
  6
Continuous
 62
    95
440
 16777216
370
    13
100
AcDbMText
 10
240.666394
 20
240.066518
 30
0.0
 40
3.5
 41
0.0
 71
     7
 72
     5
  1
\W0.8876;16,4
  7
cesky
 11
0.0000000000000001
 21
1.0
 31
0.0
 73
     2
 44
0.8433729999999998
  0
LINE
  5
326
330
324
100
AcDbEntity
  8
60
 62
    95
440
 16777216
370
    13
100
AcDbLine
 10
250.444248
 20
252.634018
 30
0.0
 11
239.19756
 21
252.634018
 31
0.0
  0
LINE
  5
327
330
324
100
AcDbEntity
  8
60
 62
    95
440
 16777216
370
    13
100
AcDbLine
 10
250.444248
 20
236.234018
 30
0.0
 11
239.19756
 21
236.234018
 31
0.0
  0
LINE
  5
328
330
324
100
AcDbEntity
  8
60
 62
    95
440
 16777216
370
    13
100
AcDbLine
 10
240.19756
 20
261.384018
 30
0.0
 11
240.19756
 21
227.484018
 31
0.0
  0
SOLID
  5
329
330
324
100
AcDbEntity
  8
60
 62
    95
440
 16777216
370
    13
100
AcDbTrace
 10
240.19756
 20
252.634018
 30
0.0
 11
239.580416
 21
256.134016
 31
0.0
 12
240.814705
 22
256.134021
 32
0.0
 13
240.814705
 23
256.134021
 33
0.0
  0
SOLID
  5
32A
330
324
100
AcDbEntity
  8
60
 62
    95
440
 16777216
370
    13
100
AcDbTrace
 10
240.19756
 20
236.234018
 30
0.0
 11
240.814705
 21
232.734021
 31
0.0
 12
239.580416
 22
232.734016
 32
0.0
 13
239.580416
 23
232.734016
 33
0.0
  0
ENDBLK
  5
32C
330
324
100
AcDbEntity
  8
0
100
AcDbBlockEnd
  0
BLOCK
  5
331
330
330
100
AcDbEntity
  8
0
100
AcDbBlockBegin
  2
*D15
 70
     1
 10
0.0
 20
0.0
 30
0.0
  3
*D15
  1

  0
LINE
  5
333
330
330
100
AcDbEntity
  8
0
 62
   254
370
    -2
100
AcDbLine
 10
299.444248
 20
308.9340180000001
 30
0.0
 11
299.444248
 21
312.835959
 31
0.0
  0
LINE
  5
334
330
330
100
AcDbEntity
  8
0
 62
   254
370
    -2
100
AcDbLine
 10
293.444507
 20
306.8796450000001
 30
0.0
 11
293.444507
 21
312.835959
 31
0.0
  0
LINE
  5
335
330
330
100
AcDbEntity
  8
0
 62
   254
370
    -2
100
AcDbLine
 10
302.944248
 20
311.835959
 30
0.0
 11
306.444248
 21
311.835959
 31
0.0
  0
LINE
  5
336
330
330
100
AcDbEntity
  8
0
 62
   254
370
    -2
100
AcDbLine
 10
289.944507
 20
311.835959
 30
0.0
 11
286.444507
 21
311.835959
 31
0.0
  0
SOLID
  5
337
330
330
100
AcDbEntity
  8
0
 62
   254
100
AcDbTrace
 10
302.944248
 20
312.419292
 30
0.0
 11
302.944248
 21
311.252626
 31
0.0
 12
299.444248
 22
311.835959
 32
0.0
 13
299.444248
 23
311.835959
 33
0.0
  0
SOLID
  5
338
330
330
100
AcDbEntity
  8
0
 62
   254
100
AcDbTrace
 10
289.944507
 20
311.252626
 30
0.0
 11
289.944507
 21
312.419292
 31
0.0
 12
293.444507
 22
311.835959
 32
0.0
 13
293.444507
 23
311.835959
 33
0.0
  0
MTEXT
  5
339
330
330
100
AcDbEntity
  8
0
 62
   254
370
    13
100
AcDbMText
 10
296.444377
 20
317.085959
 30
0.0
 40
3.5
 41
0.0
 71
     5
 72
     1
  1
\A1;6
  7
cesky
 73
     1
 44
1.0
  0
POINT
  5
33A
330
330
100
AcDbEntity
  8
Defpoints
 62
     0
100
AcDbPoint
 10
299.444248
 20
308.9340180000001
 30
0.0
  0
POINT
  5
33B
330
330
100
AcDbEntity
  8
Defpoints
 62
     0
100
AcDbPoint
 10
293.444507
 20
306.8796450000001
 30
0.0
  0
POINT
  5
33C
330
330
100
AcDbEntity
  8
Defpoints
 62
     0
100
AcDbPoint
 10
293.444507
 20
311.835959
 30
0.0
  0
ENDBLK
  5
332
330
330
100
AcDbEntity
  8
0
100
AcDbBlockEnd
  0
BLOCK
  5
344
330
33D
100
AcDbEntity
  8
0
100
AcDbBlockBegin
  2
_U7
 70
     0
 10
0.0
 20
0.0
 30
0.0
  3
_U7
  1

  0
MTEXT
  5
33E
330
33D
100
AcDbEntity
  8
60
  6
Continuous
 62
   254
440
 16777216
370
    13
100
AcDbMText
 10
295.892377
 20
311.710126
 30
0.0
 40
3.5
 41
0.0
 71
     7
 72
     5
  1
\W0.6563;6
  7
cesky
 73
     2
 44
0.8433729999999998
  0
LINE
  5
33F
330
33D
100
AcDbEntity
  8
60
 62
   254
440
 16777216
370
    13
100
AcDbLine
 10
299.444248
 20
308.9340180000001
 30
0.0
 11
299.444248
 21
312.835959
 31
0.0
  0
LINE
  5
340
330
33D
100
AcDbEntity
  8
60
 62
   254
440
 16777216
370
    13
100
AcDbLine
 10
293.444507
 20
306.8796450000001
 30
0.0
 11
293.444507
 21
312.835959
 31
0.0
  0
LINE
  5
341
330
33D
100
AcDbEntity
  8
60
 62
   254
440
 16777216
370
    13
100
AcDbLine
 10
308.194248
 20
311.835959
 30
0.0
 11
284.694507
 21
311.835959
 31
0.0
  0
SOLID
  5
342
330
33D
100
AcDbEntity
  8
60
 62
   254
440
 16777216
370
    13
100
AcDbTrace
 10
299.444248
 20
311.835959
 30
0.0
 11
302.944246
 21
312.453103
 31
0.0
 12
302.9442509999999
 22
311.218815
 32
0.0
 13
302.9442509999999
 23
311.218815
 33
0.0
  0
SOLID
  5
343
330
33D
100
AcDbEntity
  8
60
 62
   254
440
 16777216
370
    13
100
AcDbTrace
 10
293.444507
 20
311.835959
 30
0.0
 11
289.944509
 21
311.218815
 31
0.0
 12
289.944504
 22
312.453103
 32
0.0
 13
289.944504
 23
312.453103
 33
0.0
  0
ENDBLK
  5
345
330
33D
100
AcDbEntity
  8
0
100
AcDbBlockEnd
  0
ENDSEC
  0
SECTION
  2
ENTITIES
  0
POINT
  5
73
102
{ACAD_REACTORS
330
415
102
}
330
1F
100
AcDbEntity
  8
80
100
AcDbPoint
 10
249.444248
 20
244.434018
 30
0.0
  0
POINT
  5
75
330
1F
100
AcDbEntity
  8
4
 60
     1
100
AcDbPoint
 10
250.444248
 20
244.434018
 30
0.0
  0
POINT
  5
77
330
1F
100
AcDbEntity
  8
4
 60
     1
100
AcDbPoint
 10
290.744248
 20
244.434018
 30
0.0
  0
POINT
  5
78
330
1F
100
AcDbEntity
  8
SK6
 60
     1
100
AcDbPoint
 10
258.444248
 20
244.434018
 30
0.0
  0
POINT
  5
7A
330
1F
100
AcDbEntity
  8
SK6
 60
     1
100
AcDbPoint
 10
299.144248
 20
244.434018
 30
0.0
  0
POINT
  5
7B
330
1F
100
AcDbEntity
  8
SK6
 60
     1
100
AcDbPoint
 10
249.444248
 20
244.434018
 30
0.0
  0
LINE
  5
7C
330
1F
100
AcDbEntity
  8
1
100
AcDbLine
 10
299.144248
 20
280.903191
 30
0.0
 11
299.144248
 21
285.438944
 31
0.0
  0
LINE
  5
7E
330
1F
100
AcDbEntity
  8
1
100
AcDbLine
 10
299.144248
 20
266.06555
 30
0.0
 11
299.144248
 21
267.355355
 31
0.0
  0
LINE
  5
7F
330
1F
100
AcDbEntity
  8
1
100
AcDbLine
 10
297.707073
 20
266.026681
 30
0.0
 11
297.631344
 21
267.315164
 31
0.0
  0
LINE
  5
80
330
1F
100
AcDbEntity
  8
1
100
AcDbLine
 10
298.905893
 20
266.059162
 30
0.0
 11
298.830197
 21
267.347075
 31
0.0
  0
LINE
  5
81
330
1F
100
AcDbEntity
  8
1
100
AcDbLine
 10
299.144248
 20
266.065504
 30
0.0
 11
299.144248
 21
265.169805
 31
0.0
  0
LINE
  5
82
330
1F
100
AcDbEntity
  8
1
100
AcDbLine
 10
299.144248
 20
266.065504
 30
0.0
 11
298.905893
 21
266.059162
 31
0.0
  0
LINE
  5
83
330
1F
100
AcDbEntity
  8
1
100
AcDbLine
 10
293.7442479999999
 20
251.714301
 30
0.0
 11
293.7442479999999
 21
251.286695
 31
0.0
  0
LINE
  5
84
330
1F
100
AcDbEntity
  8
1
100
AcDbLine
 10
293.7442479999999
 20
241.966254
 30
0.0
 11
293.7442479999999
 21
240.301439
 31
0.0
  0
LINE
  5
85
330
1F
100
AcDbEntity
  8
1
100
AcDbLine
 10
295.181423
 20
240.242448
 30
0.0
 11
295.255619
 21
241.904441
 31
0.0
  0
LINE
  5
86
330
1F
100
AcDbEntity
  8
1
100
AcDbLine
 10
293.982603
 20
240.291652
 30
0.0
 11
294.056797
 21
241.953593
 31
0.0
  0
LINE
  5
87
330
1F
100
AcDbEntity
  8
1
100
AcDbLine
 10
293.7442479999999
 20
255.477744
 30
0.0
 11
293.7442479999999
 21
251.714301
 31
0.0
  0
LINE
  5
88
330
1F
100
AcDbEntity
  8
1
100
AcDbLine
 10
293.763298
 20
251.713522
 30
0.0
 11
293.7442479999999
 21
251.714301
 31
0.0
  0
LINE
  5
89
330
1F
100
AcDbEntity
  8
1
100
AcDbLine
 10
293.7442479999999
 20
238.788669
 30
0.0
 11
293.7442479999999
 21
240.301399
 31
0.0
  0
LINE
  5
8A
330
1F
100
AcDbEntity
  8
1
100
AcDbLine
 10
293.7442479999999
 20
240.301399
 30
0.0
 11
293.982603
 21
240.291652
 31
0.0
  0
LINE
  5
8B
330
1F
100
AcDbEntity
  8
1
100
AcDbLine
 10
297.093793
 20
302.470994
 30
0.0
 11
294.096762
 21
302.4865549999999
 31
0.0
  0
LINE
  5
8D
330
1F
100
AcDbEntity
  8
1
100
AcDbLine
 10
297.185901
 20
302.421365
 30
0.0
 11
293.989068
 21
302.437964
 31
0.0
  0
LINE
  5
8E
330
1F
100
AcDbEntity
  8
1
100
AcDbLine
 10
293.744279
 20
286.602635
 30
0.0
 11
293.656288
 21
286.603091
 31
0.0
  0
LINE
  5
8F
330
1F
100
AcDbEntity
  8
1
100
AcDbLine
 10
293.56075
 20
286.634532
 30
0.0
 11
293.5126180000001
 21
291.17071
 31
0.0
  0
LINE
  5
90
330
1F
100
AcDbEntity
  8
1
100
AcDbLine
 10
293.56075
 20
286.634532
 30
0.0
 11
293.656288
 21
286.603091
 31
0.0
  0
LINE
  5
91
330
1F
100
AcDbEntity
  8
1
100
AcDbLine
 10
293.656288
 20
286.603091
 30
0.0
 11
293.677249
 21
287.026137
 31
0.0
  0
LINE
  5
92
330
1F
100
AcDbEntity
  8
1
100
AcDbLine
 10
293.5126180000001
 20
291.17071
 30
0.0
 11
293.465542
 21
296.3010759999999
 31
0.0
  0
LINE
  5
93
330
1F
100
AcDbEntity
  8
1
100
AcDbLine
 10
293.677249
 20
287.026137
 30
0.0
 11
293.5126180000001
 21
291.17071
 31
0.0
  0
LINE
  5
94
330
1F
100
AcDbEntity
  8
1
100
AcDbLine
 10
293.744262
 20
287.025789
 30
0.0
 11
293.677249
 21
287.026137
 31
0.0
  0
LINE
  5
95
330
1F
100
AcDbEntity
  8
1
100
AcDbLine
 10
296.709118
 20
291.138574
 30
0.0
 11
296.659245
 21
288.805855
 31
0.0
  0
LINE
  5
96
330
1F
100
AcDbEntity
  8
1
100
AcDbLine
 10
293.656455
 20
300.125435
 30
0.0
 11
293.891746
 21
301.792821
 31
0.0
  0
LINE
  5
97
330
1F
100
AcDbEntity
  8
1
100
AcDbLine
 10
297.088579
 20
301.776223
 30
0.0
 11
293.891746
 21
301.792821
 31
0.0
  0
LINE
  5
98
330
1F
100
AcDbEntity
  8
1
100
AcDbLine
 10
293.593012
 20
298.77799
 30
0.0
 11
293.656455
 21
300.125435
 31
0.0
  0
LINE
  5
99
330
1F
100
AcDbEntity
  8
1
100
AcDbLine
 10
293.447652
 20
298.503837
 30
0.0
 11
293.656455
 21
300.125435
 31
0.0
  0
LINE
  5
9A
330
1F
100
AcDbEntity
  8
1
100
AcDbLine
 10
296.662374
 20
296.284477
 30
0.0
 11
293.465542
 21
296.3010759999999
 31
0.0
  0
LINE
  5
9B
330
1F
100
AcDbEntity
  8
1
100
AcDbLine
 10
296.662853
 20
296.232292
 30
0.0
 11
296.662374
 21
296.284477
 31
0.0
  0
LINE
  5
9C
330
1F
100
AcDbEntity
  8
1
100
AcDbLine
 10
296.734367
 20
288.805859
 30
0.0
 11
296.716517
 21
290.4881430000001
 31
0.0
  0
LINE
  5
9D
330
1F
100
AcDbEntity
  8
1
100
AcDbLine
 10
297.18933
 20
302.439554
 30
0.0
 11
297.192738
 21
302.118407
 31
0.0
  0
LINE
  5
9E
330
1F
100
AcDbEntity
  8
1
100
AcDbLine
 10
297.184971
 20
302.408659
 30
0.0
 11
297.18933
 21
302.439554
 31
0.0
  0
LINE
  5
9F
330
1F
100
AcDbEntity
  8
1
100
AcDbLine
 10
297.185901
 20
302.421365
 30
0.0
 11
297.184971
 21
302.408659
 31
0.0
  0
LINE
  5
A0
330
1F
100
AcDbEntity
  8
1
100
AcDbLine
 10
296.853288
 20
300.108836
 30
0.0
 11
297.088579
 21
301.776223
 31
0.0
  0
LINE
  5
A1
330
1F
100
AcDbEntity
  8
1
100
AcDbLine
 10
296.853288
 20
300.108836
 30
0.0
 11
296.536631
 21
298.762706
 31
0.0
  0
LINE
  5
A2
330
1F
100
AcDbEntity
  8
1
100
AcDbLine
 10
296.644485
 20
298.487238
 30
0.0
 11
296.853288
 21
300.108836
 31
0.0
  0
LINE
  5
A3
330
1F
100
AcDbEntity
  8
1
100
AcDbLine
 10
293.54668
 20
298.59846
 30
0.0
 11
293.593012
 21
298.77799
 31
0.0
  0
LINE
  5
A4
330
1F
100
AcDbEntity
  8
1
100
AcDbLine
 10
296.536631
 20
298.762706
 30
0.0
 11
296.543711
 21
298.582899
 31
0.0
  0
LINE
  5
A5
330
1F
100
AcDbEntity
  8
1
100
AcDbLine
 10
296.536631
 20
298.762706
 30
0.0
 11
293.593012
 21
298.77799
 31
0.0
  0
LINE
  5
A6
330
1F
100
AcDbEntity
  8
1
100
AcDbLine
 10
293.447652
 20
298.503837
 30
0.0
 11
293.54668
 21
298.59846
 31
0.0
  0
LINE
  5
A7
330
1F
100
AcDbEntity
  8
1
100
AcDbLine
 10
293.448526
 20
298.408519
 30
0.0
 11
293.447652
 21
298.503837
 31
0.0
  0
LINE
  5
A8
330
1F
100
AcDbEntity
  8
1
100
AcDbLine
 10
293.7442479999999
 20
274.019184
 30
0.0
 11
293.7442479999999
 21
270.136735
 31
0.0
  0
LINE
  5
A9
330
1F
100
AcDbEntity
  8
1
100
AcDbLine
 10
296.225805
 20
274.019184
 30
0.0
 11
296.175287
 21
270.136735
 31
0.0
  0
LINE
  5
AA
330
1F
100
AcDbEntity
  8
1
100
AcDbLine
 10
293.7442479999999
 20
213.957699
 30
0.0
 11
293.7442479999999
 21
213.928476
 31
0.0
  0
LINE
  5
AB
330
1F
100
AcDbEntity
  8
1
100
AcDbLine
 10
296.2126990000001
 20
213.928476
 30
0.0
 11
293.7442479999999
 21
213.928476
 31
0.0
  0
LINE
  5
AC
330
1F
100
AcDbEntity
  8
1
100
AcDbLine
 10
293.7442479999999
 20
274.757635
 30
0.0
 11
293.7442479999999
 21
274.019184
 31
0.0
  0
LINE
  5
AD
330
1F
100
AcDbEntity
  8
1
100
AcDbLine
 10
296.220173
 20
274.757635
 30
0.0
 11
296.225805
 21
274.019184
 31
0.0
  0
LINE
  5
AE
330
1F
100
AcDbEntity
  8
1
100
AcDbLine
 10
296.225805
 20
274.019184
 30
0.0
 11
293.7442479999999
 21
274.019184
 31
0.0
  0
LINE
  5
AF
330
1F
100
AcDbEntity
  8
1
100
AcDbLine
 10
299.144248
 20
288.805793
 30
0.0
 11
299.144248
 21
285.438944
 31
0.0
  0
LINE
  5
B0
330
1F
100
AcDbEntity
  8
1
100
AcDbLine
 10
293.7442479999999
 20
288.805793
 30
0.0
 11
293.7442479999999
 21
274.757635
 31
0.0
  0
LINE
  5
B1
330
1F
100
AcDbEntity
  8
1
100
AcDbLine
 10
296.220173
 20
274.757635
 30
0.0
 11
293.7442479999999
 21
274.757635
 31
0.0
  0
LINE
  5
B2
330
1F
100
AcDbEntity
  8
1
100
AcDbLine
 10
293.7442479999999
 20
288.805793
 30
0.0
 11
299.144248
 21
288.805793
 31
0.0
  0
LINE
  5
B3
330
1F
100
AcDbEntity
  8
1
100
AcDbLine
 10
298.3714700000001
 20
226.027285
 30
0.0
 11
298.387613
 21
225.456436
 31
0.0
  0
LINE
  5
B4
330
1F
100
AcDbEntity
  8
1
100
AcDbLine
 10
299.144248
 20
262.077782
 30
0.0
 11
299.144248
 21
263.206943
 31
0.0
  0
LINE
  5
B5
330
1F
100
AcDbEntity
  8
1
100
AcDbLine
 10
293.7442479999999
 20
263.206943
 30
0.0
 11
293.7442479999999
 21
262.077782
 31
0.0
  0
LINE
  5
B6
330
1F
100
AcDbEntity
  8
1
100
AcDbLine
 10
299.144248
 20
230.622138
 30
0.0
 11
299.144248
 21
235.635008
 31
0.0
  0
LINE
  5
B7
330
1F
100
AcDbEntity
  8
1
100
AcDbLine
 10
293.7442479999999
 20
235.635008
 30
0.0
 11
293.7442479999999
 21
230.622138
 31
0.0
  0
LINE
  5
B8
330
1F
100
AcDbEntity
  8
1
100
AcDbLine
 10
299.144248
 20
230.622138
 30
0.0
 11
299.144248
 21
226.059405
 31
0.0
  0
LINE
  5
B9
330
1F
100
AcDbEntity
  8
1
100
AcDbLine
 10
296.645359
 20
298.391921
 30
0.0
 11
293.448526
 21
298.408519
 31
0.0
  0
LINE
  5
BA
330
1F
100
AcDbEntity
  8
1
100
AcDbLine
 10
296.645359
 20
298.391921
 30
0.0
 11
296.644485
 21
298.487238
 31
0.0
  0
LINE
  5
BB
330
1F
100
AcDbEntity
  8
1
100
AcDbLine
 10
296.543711
 20
298.582899
 30
0.0
 11
296.644485
 21
298.487238
 31
0.0
  0
LINE
  5
BC
330
1F
100
AcDbEntity
  8
1
100
AcDbLine
 10
296.543711
 20
298.582899
 30
0.0
 11
293.54668
 21
298.59846
 31
0.0
  0
LINE
  5
BD
330
1F
100
AcDbEntity
  8
1
100
AcDbLine
 10
293.5644299999999
 20
199.927394
 30
0.0
 11
293.5641799999999
 21
199.927403
 31
0.0
  0
LINE
  5
BE
330
1F
100
AcDbEntity
  8
1
100
AcDbLine
 10
293.4483140000001
 20
190.568154
 30
0.0
 11
293.448064
 21
190.568163
 31
0.0
  0
LINE
  5
BF
330
1F
100
AcDbEntity
  8
1
100
AcDbLine
 10
296.543711
 20
190.329757
 30
0.0
 11
293.54668
 21
190.436752
 31
0.0
  0
LINE
  5
C0
330
1F
100
AcDbEntity
  8
1
100
AcDbLine
 10
296.644485
 20
190.400534
 30
0.0
 11
296.853288
 21
193.514076
 31
0.0
  0
LINE
  5
C1
330
1F
100
AcDbEntity
  8
1
100
AcDbLine
 10
296.536631
 20
190.606976
 30
0.0
 11
296.543711
 21
190.329757
 31
0.0
  0
LINE
  5
C2
330
1F
100
AcDbEntity
  8
1
100
AcDbLine
 10
296.543711
 20
190.329757
 30
0.0
 11
296.644485
 21
190.400534
 31
0.0
  0
LINE
  5
C3
330
1F
100
AcDbEntity
  8
1
100
AcDbLine
 10
293.447652
 20
190.514662
 30
0.0
 11
293.54668
 21
190.436752
 31
0.0
  0
LINE
  5
C4
330
1F
100
AcDbEntity
  8
1
100
AcDbLine
 10
293.54668
 20
190.436752
 30
0.0
 11
293.593012
 21
190.712064
 31
0.0
  0
LINE
  5
C5
330
1F
100
AcDbEntity
  8
1
100
AcDbLine
 10
296.853288
 20
193.514076
 30
0.0
 11
297.088579
 21
197.118801
 31
0.0
  0
LINE
  5
C6
330
1F
100
AcDbEntity
  8
1
100
AcDbLine
 10
293.593012
 20
190.712064
 30
0.0
 11
293.656455
 21
193.628203
 31
0.0
  0
LINE
  5
C7
330
1F
100
AcDbEntity
  8
1
100
AcDbLine
 10
296.536631
 20
190.606976
 30
0.0
 11
293.593012
 21
190.712064
 31
0.0
  0
LINE
  5
C8
330
1F
100
AcDbEntity
  8
1
100
AcDbLine
 10
296.853288
 20
193.514076
 30
0.0
 11
296.536631
 21
190.606976
 31
0.0
  0
LINE
  5
C9
330
1F
100
AcDbEntity
  8
1
100
AcDbLine
 10
297.185901
 20
198.636591
 30
0.0
 11
293.989068
 21
198.750718
 31
0.0
  0
LINE
  5
CA
330
1F
100
AcDbEntity
  8
1
100
AcDbLine
 10
297.088579
 20
197.118801
 30
0.0
 11
293.891746
 21
197.232929
 31
0.0
  0
LINE
  5
CB
330
1F
100
AcDbEntity
  8
1
100
AcDbLine
 10
297.074102
 20
199.1562659999999
 30
0.0
 11
297.072832
 21
199.131307
 31
0.0
  0
LINE
  5
CC
330
1F
100
AcDbEntity
  8
1
100
AcDbLine
 10
297.18933
 20
198.692814
 30
0.0
 11
297.19549
 21
199.162713
 31
0.0
  0
LINE
  5
CD
330
1F
100
AcDbEntity
  8
1
100
AcDbLine
 10
293.56075
 20
199.87118
 30
0.0
 11
293.5126180000001
 21
196.199198
 31
0.0
  0
LINE
  5
CE
330
1F
100
AcDbEntity
  8
1
100
AcDbLine
 10
293.5126180000001
 20
196.199198
 30
0.0
 11
293.465542
 21
192.190388
 31
0.0
  0
LINE
  5
CF
330
1F
100
AcDbEntity
  8
1
100
AcDbLine
 10
293.448064
 20
190.568163
 30
0.0
 11
293.448524
 21
190.588942
 31
0.0
  0
LINE
  5
D0
330
1F
100
AcDbEntity
  8
1
100
AcDbLine
 10
293.448524
 20
190.588942
 30
0.0
 11
293.447652
 21
190.514662
 31
0.0
  0
LINE
  5
D1
330
1F
100
AcDbEntity
  8
1
100
AcDbLine
 10
293.447652
 20
190.514662
 30
0.0
 11
293.656455
 21
193.628203
 31
0.0
  0
LINE
  5
D2
330
1F
100
AcDbEntity
  8
1
100
AcDbLine
 10
293.656455
 20
193.628203
 30
0.0
 11
293.891746
 21
197.232929
 31
0.0
  0
LINE
  5
D3
330
1F
100
AcDbEntity
  8
1
100
AcDbLine
 10
293.989068
 20
198.750718
 30
0.0
 11
293.988138
 21
198.740148
 31
0.0
  0
LINE
  5
D4
330
1F
100
AcDbEntity
  8
1
100
AcDbLine
 10
293.74425
 20
202.712929
 30
0.0
 11
293.661502
 21
201.445193
 31
0.0
  0
LINE
  5
D5
330
1F
100
AcDbEntity
  8
1
100
AcDbLine
 10
297.64423
 20
264.394708
 30
0.0
 11
295.244267
 21
264.394708
 31
0.0
  0
LINE
  5
D6
330
1F
100
AcDbEntity
  8
1
100
AcDbLine
 10
299.144248
 20
240.908044
 30
0.0
 11
296.685182
 21
240.908044
 31
0.0
  0
LINE
  5
D7
330
1F
100
AcDbEntity
  8
SK3
100
AcDbLine
 10
276.444248
 20
264.434018
 30
0.0
 11
276.444248
 21
224.434018
 31
0.0
  0
LINE
  5
D8
330
1F
100
AcDbEntity
  8
SK3
100
AcDbLine
 10
250.444248
 20
264.434018
 30
0.0
 11
276.444248
 21
264.434018
 31
0.0
  0
LINE
  5
D9
330
1F
100
AcDbEntity
  8
SK3
100
AcDbLine
 10
276.444248
 20
224.434018
 30
0.0
 11
250.444248
 21
224.434018
 31
0.0
  0
LINE
  5
DA
330
1F
100
AcDbEntity
  8
1
100
AcDbLine
 10
293.74425
 20
286.155108
 30
0.0
 11
293.7150299999999
 21
286.602769
 31
0.0
  0
LINE
  5
DB
330
1F
100
AcDbEntity
  8
1
100
AcDbLine
 10
299.324317
 20
194.363133
 30
0.0
 11
299.307234
 21
194.362832
 31
0.0
  0
LINE
  5
DC
330
1F
100
AcDbEntity
  8
1
100
AcDbLine
 10
299.440432
 20
182.160917
 30
0.0
 11
299.440133
 21
182.160912
 31
0.0
  0
LINE
  5
DD
330
1F
100
AcDbEntity
  8
1
100
AcDbLine
 10
299.341817
 20
181.986827
 30
0.0
 11
296.344786
 21
181.934038
 31
0.0
  0
LINE
  5
DE
330
1F
100
AcDbEntity
  8
1
100
AcDbLine
 10
296.244012
 20
182.030131
 30
0.0
 11
296.035209
 21
182.891505
 31
0.0
  0
LINE
  5
DF
330
1F
100
AcDbEntity
  8
1
100
AcDbLine
 10
296.244012
 20
182.030131
 30
0.0
 11
296.344786
 21
181.934038
 31
0.0
  0
LINE
  5
E0
330
1F
100
AcDbEntity
  8
1
100
AcDbLine
 10
296.344786
 20
181.934038
 30
0.0
 11
296.351865
 21
181.9902779999999
 31
0.0
  0
LINE
  5
E1
330
1F
100
AcDbEntity
  8
1
100
AcDbLine
 10
299.295485
 20
182.042127
 30
0.0
 11
299.341817
 21
181.986827
 31
0.0
  0
LINE
  5
E2
330
1F
100
AcDbEntity
  8
1
100
AcDbLine
 10
299.341817
 20
181.986827
 30
0.0
 11
299.440845
 21
182.086439
 31
0.0
  0
LINE
  5
E3
330
1F
100
AcDbEntity
  8
1
100
AcDbLine
 10
296.035209
 20
182.891505
 30
0.0
 11
295.799918
 21
184.010028
 31
0.0
  0
LINE
  5
E4
330
1F
100
AcDbEntity
  8
1
100
AcDbLine
 10
296.351865
 20
181.9902779999999
 30
0.0
 11
296.035209
 21
182.891505
 31
0.0
  0
LINE
  5
E5
330
1F
100
AcDbEntity
  8
1
100
AcDbLine
 10
299.295485
 20
182.042127
 30
0.0
 11
296.351865
 21
181.9902779999999
 31
0.0
  0
LINE
  5
E6
330
1F
100
AcDbEntity
  8
1
100
AcDbLine
 10
299.2320410000001
 20
182.947813
 30
0.0
 11
299.295485
 21
182.042127
 31
0.0
  0
LINE
  5
E7
330
1F
100
AcDbEntity
  8
1
100
AcDbLine
 10
298.99675
 20
184.066336
 30
0.0
 11
295.799918
 21
184.010028
 31
0.0
  0
LINE
  5
E8
330
1F
100
AcDbEntity
  8
1
100
AcDbLine
 10
295.702596
 20
184.513851
 30
0.0
 11
295.7035259999999
 21
184.515085
 31
0.0
  0
LINE
  5
E9
330
1F
100
AcDbEntity
  8
1
100
AcDbLine
 10
298.899429
 20
184.570159
 30
0.0
 11
295.702596
 21
184.513851
 31
0.0
  0
LINE
  5
EA
330
1F
100
AcDbEntity
  8
1
100
AcDbLine
 10
295.699166
 20
184.53581
 30
0.0
 11
295.695108
 21
184.935366
 31
0.0
  0
LINE
  5
EB
330
1F
100
AcDbEntity
  8
1
100
AcDbLine
 10
299.375879
 20
189.602191
 30
0.0
 11
299.422955
 21
184.325685
 31
0.0
  0
LINE
  5
EC
330
1F
100
AcDbEntity
  8
1
100
AcDbLine
 10
299.327746
 20
194.341174
 30
0.0
 11
299.375879
 21
189.602191
 31
0.0
  0
LINE
  5
ED
330
1F
100
AcDbEntity
  8
1
100
AcDbLine
 10
299.323387
 20
194.361899
 30
0.0
 11
299.327746
 21
194.341174
 31
0.0
  0
LINE
  5
EE
330
1F
100
AcDbEntity
  8
1
100
AcDbLine
 10
299.324317
 20
194.363133
 30
0.0
 11
299.323387
 21
194.361899
 31
0.0
  0
LINE
  5
EF
330
1F
100
AcDbEntity
  8
1
100
AcDbLine
 10
299.144246
 20
195.260327
 30
0.0
 11
299.2269950000001
 21
194.866956
 31
0.0
  0
LINE
  5
F0
330
1F
100
AcDbEntity
  8
1
100
AcDbLine
 10
298.899429
 20
184.570159
 30
0.0
 11
298.900359
 21
184.571393
 31
0.0
  0
LINE
  5
F1
330
1F
100
AcDbEntity
  8
1
100
AcDbLine
 10
299.2320410000001
 20
182.947813
 30
0.0
 11
298.99675
 21
184.066336
 31
0.0
  0
LINE
  5
F2
330
1F
100
AcDbEntity
  8
1
100
AcDbLine
 10
299.440845
 20
182.086439
 30
0.0
 11
299.2320410000001
 21
182.947813
 31
0.0
  0
LINE
  5
F3
330
1F
100
AcDbEntity
  8
1
100
AcDbLine
 10
299.439973
 20
182.184209
 30
0.0
 11
299.440845
 21
182.086439
 31
0.0
  0
LINE
  5
F4
330
1F
100
AcDbEntity
  8
1
100
AcDbLine
 10
299.440432
 20
182.160917
 30
0.0
 11
299.439973
 21
182.184209
 31
0.0
  0
LINE
  5
F5
330
1F
100
AcDbEntity
  8
1
100
AcDbLine
 10
295.699166
 20
184.53581
 30
0.0
 11
295.794704
 21
184.558313
 31
0.0
  0
LINE
  5
F6
330
1F
100
AcDbEntity
  8
1
100
AcDbLine
 10
295.7035259999999
 20
184.515085
 30
0.0
 11
295.699166
 21
184.53581
 31
0.0
  0
LINE
  5
F7
330
1F
100
AcDbEntity
  8
1
100
AcDbLine
 10
298.900359
 20
184.571393
 30
0.0
 11
295.7035259999999
 21
184.515085
 31
0.0
  0
LINE
  5
F8
330
1F
100
AcDbEntity
  8
1
100
AcDbLine
 10
298.900359
 20
184.571393
 30
0.0
 11
298.895999
 21
184.592118
 31
0.0
  0
LINE
  5
F9
330
1F
100
AcDbEntity
  8
1
100
AcDbLine
 10
295.794704
 20
184.558313
 30
0.0
 11
295.811918
 21
184.933423
 31
0.0
  0
LINE
  5
FA
330
1F
100
AcDbEntity
  8
1
100
AcDbLine
 10
298.791735
 20
184.611102
 30
0.0
 11
295.794704
 21
184.558313
 31
0.0
  0
LINE
  5
FB
330
1F
100
AcDbEntity
  8
1
100
AcDbLine
 10
298.760426
 20
185.050877
 30
0.0
 11
298.791735
 21
184.611102
 31
0.0
  0
LINE
  5
FC
330
1F
100
AcDbEntity
  8
1
100
AcDbLine
 10
298.791735
 20
184.611102
 30
0.0
 11
298.895999
 21
184.592118
 31
0.0
  0
LINE
  5
FD
330
1F
100
AcDbEntity
  8
1
100
AcDbLine
 10
298.895999
 20
184.592118
 30
0.0
 11
298.891326
 21
185.05217
 31
0.0
  0
LINE
  5
FE
330
1F
100
AcDbEntity
  8
1
100
AcDbLine
 10
299.232209
 20
267.357648
 30
0.0
 11
296.235178
 21
267.277906
 31
0.0
  0
LINE
  5
FF
330
1F
100
AcDbEntity
  8
1
100
AcDbLine
 10
298.899139
 20
285.035933
 30
0.0
 11
298.895999
 21
285.089403
 31
0.0
  0
LINE
  5
100
330
1F
100
AcDbEntity
  8
1
100
AcDbLine
 10
295.699166
 20
285.004345
 30
0.0
 11
295.794704
 21
285.081303
 31
0.0
  0
LINE
  5
101
330
1F
100
AcDbEntity
  8
1
100
AcDbLine
 10
298.791735
 20
285.161045
 30
0.0
 11
298.895999
 21
285.089403
 31
0.0
  0
LINE
  5
102
330
1F
100
AcDbEntity
  8
1
100
AcDbLine
 10
298.791735
 20
285.161045
 30
0.0
 11
295.794704
 21
285.081303
 31
0.0
  0
LINE
  5
103
330
1F
100
AcDbEntity
  8
1
100
AcDbLine
 10
298.899429
 20
285.03594
 30
0.0
 11
295.702596
 21
284.950882
 31
0.0
  0
LINE
  5
104
330
1F
100
AcDbEntity
  8
1
100
AcDbLine
 10
299.327746
 20
267.434607
 30
0.0
 11
299.375879
 21
270.552514
 31
0.0
  0
LINE
  5
105
330
1F
100
AcDbEntity
  8
1
100
AcDbLine
 10
299.211248
 20
267.63363
 30
0.0
 11
299.232209
 21
267.357648
 31
0.0
  0
LINE
  5
106
330
1F
100
AcDbEntity
  8
1
100
AcDbLine
 10
299.232209
 20
267.357648
 30
0.0
 11
299.327746
 21
267.434607
 31
0.0
  0
LINE
  5
107
330
1F
100
AcDbEntity
  8
1
100
AcDbLine
 10
296.203731
 20
267.299514
 30
0.0
 11
296.235178
 21
267.277906
 31
0.0
  0
LINE
  5
108
330
1F
100
AcDbEntity
  8
1
100
AcDbLine
 10
296.235178
 20
267.277906
 30
0.0
 11
296.267628
 21
267.555309
 31
0.0
  0
LINE
  5
109
330
1F
100
AcDbEntity
  8
1
100
AcDbLine
 10
299.375879
 20
270.552514
 30
0.0
 11
299.422955
 21
274.162063
 31
0.0
  0
LINE
  5
10A
330
1F
100
AcDbEntity
  8
1
100
AcDbLine
 10
296.267628
 20
267.555309
 30
0.0
 11
296.179428
 21
270.454897
 31
0.0
  0
LINE
  5
10B
330
1F
100
AcDbEntity
  8
1
100
AcDbLine
 10
299.211248
 20
267.63363
 30
0.0
 11
296.267628
 21
267.555309
 31
0.0
  0
LINE
  5
10C
330
1F
100
AcDbEntity
  8
1
100
AcDbLine
 10
299.375879
 20
270.552514
 30
0.0
 11
299.211248
 21
267.63363
 31
0.0
  0
LINE
  5
10D
330
1F
100
AcDbEntity
  8
1
100
AcDbLine
 10
299.2320410000001
 20
279.408176
 30
0.0
 11
298.99675
 21
283.414697
 31
0.0
  0
LINE
  5
10E
330
1F
100
AcDbEntity
  8
1
100
AcDbLine
 10
298.99675
 20
283.414697
 30
0.0
 11
295.799918
 21
283.329639
 31
0.0
  0
LINE
  5
10F
330
1F
100
AcDbEntity
  8
1
100
AcDbLine
 10
299.440432
 20
275.681822
 30
0.0
 11
296.2436
 21
275.596764
 31
0.0
  0
LINE
  5
110
330
1F
100
AcDbEntity
  8
1
100
AcDbLine
 10
296.644485
 20
244.453753
 30
0.0
 11
296.853288
 21
249.188893
 31
0.0
  0
LINE
  5
111
330
1F
100
AcDbEntity
  8
1
100
AcDbLine
 10
293.54668
 20
244.601194
 30
0.0
 11
293.593012
 21
245.056036
 31
0.0
  0
LINE
  5
112
330
1F
100
AcDbEntity
  8
1
100
AcDbLine
 10
296.543711
 20
244.478638
 30
0.0
 11
293.54668
 21
244.601194
 31
0.0
  0
LINE
  5
113
330
1F
100
AcDbEntity
  8
1
100
AcDbLine
 10
296.536631
 20
244.935664
 30
0.0
 11
296.543711
 21
244.478638
 31
0.0
  0
LINE
  5
114
330
1F
100
AcDbEntity
  8
1
100
AcDbLine
 10
296.536631
 20
244.935664
 30
0.0
 11
293.593012
 21
245.056036
 31
0.0
  0
LINE
  5
115
330
1F
100
AcDbEntity
  8
80
100
AcDbLine
 10
249.444248
 20
243.434445
 30
0.0
 11
249.444248
 21
245.433592
 31
0.0
  0
LINE
  5
116
330
1F
100
AcDbEntity
  8
80
100
AcDbLine
 10
248.444675
 20
244.434018
 30
0.0
 11
250.443822
 21
244.434018
 31
0.0
  0
LINE
  5
117
330
1F
100
AcDbEntity
  8
1
100
AcDbLine
 10
293.5641799999999
 20
199.927403
 30
0.0
 11
293.56511
 21
199.937973
 31
0.0
  0
LINE
  5
118
330
1F
100
AcDbEntity
  8
1
100
AcDbLine
 10
293.56511
 20
199.937973
 30
0.0
 11
293.56075
 21
199.87118
 31
0.0
  0
LINE
  5
119
330
1F
100
AcDbEntity
  8
1
100
AcDbLine
 10
297.072832
 20
199.131307
 30
0.0
 11
297.093793
 21
198.763229
 31
0.0
  0
LINE
  5
11A
330
1F
100
AcDbEntity
  8
1
100
AcDbLine
 10
297.072832
 20
199.131307
 30
0.0
 11
296.792268
 21
199.141323
 31
0.0
  0
LINE
  5
11B
330
1F
100
AcDbEntity
  8
1
100
AcDbLine
 10
294.502132
 20
199.223081
 30
0.0
 11
294.129212
 21
199.236395
 31
0.0
  0
LINE
  5
11C
330
1F
100
AcDbEntity
  8
1
100
AcDbLine
 10
293.988138
 20
198.740148
 30
0.0
 11
293.992498
 21
198.806941
 31
0.0
  0
LINE
  5
11D
330
1F
100
AcDbEntity
  8
1
100
AcDbLine
 10
297.185661
 20
198.6366
 30
0.0
 11
297.18933
 21
198.692814
 31
0.0
  0
LINE
  5
11E
330
1F
100
AcDbEntity
  8
1
100
AcDbLine
 10
297.093793
 20
198.763229
 30
0.0
 11
297.18933
 21
198.692814
 31
0.0
  0
LINE
  5
11F
330
1F
100
AcDbEntity
  8
1
100
AcDbLine
 10
297.093793
 20
198.763229
 30
0.0
 11
294.096762
 21
198.870224
 31
0.0
  0
LINE
  5
120
330
1F
100
AcDbEntity
  8
1
100
AcDbLine
 10
294.129212
 20
199.236395
 30
0.0
 11
294.121148
 21
199.531566
 31
0.0
  0
LINE
  5
121
330
1F
100
AcDbEntity
  8
1
100
AcDbLine
 10
293.992498
 20
198.806941
 30
0.0
 11
294.002042
 21
199.535084
 31
0.0
  0
LINE
  5
122
330
1F
100
AcDbEntity
  8
1
100
AcDbLine
 10
293.992498
 20
198.806941
 30
0.0
 11
294.096762
 21
198.870224
 31
0.0
  0
LINE
  5
123
330
1F
100
AcDbEntity
  8
1
100
AcDbLine
 10
294.096762
 20
198.870224
 30
0.0
 11
294.129212
 21
199.236395
 31
0.0
  0
LINE
  5
124
330
1F
100
AcDbEntity
  8
1
100
AcDbLine
 10
299.440432
 20
213.408721
 30
0.0
 11
299.440283
 21
213.408714
 31
0.0
  0
LINE
  5
125
330
1F
100
AcDbEntity
  8
1
100
AcDbLine
 10
299.341817
 20
213.355201
 30
0.0
 11
296.344786
 21
213.22267
 31
0.0
  0
LINE
  5
126
330
1F
100
AcDbEntity
  8
1
100
AcDbLine
 10
296.244012
 20
213.249166
 30
0.0
 11
296.035209
 21
217.780604
 31
0.0
  0
LINE
  5
127
330
1F
100
AcDbEntity
  8
1
100
AcDbLine
 10
296.244012
 20
213.249166
 30
0.0
 11
296.344786
 21
213.22267
 31
0.0
  0
LINE
  5
128
330
1F
100
AcDbEntity
  8
1
100
AcDbLine
 10
296.344786
 20
213.22267
 30
0.0
 11
296.351865
 21
213.646586
 31
0.0
  0
LINE
  5
129
330
1F
100
AcDbEntity
  8
1
100
AcDbLine
 10
299.295485
 20
213.776755
 30
0.0
 11
299.341817
 21
213.355201
 31
0.0
  0
LINE
  5
12A
330
1F
100
AcDbEntity
  8
1
100
AcDbLine
 10
299.341817
 20
213.355201
 30
0.0
 11
299.440845
 21
213.390532
 31
0.0
  0
LINE
  5
12B
330
1F
100
AcDbEntity
  8
1
100
AcDbLine
 10
296.035209
 20
217.780604
 30
0.0
 11
295.799918
 21
222.905648
 31
0.0
  0
LINE
  5
12C
330
1F
100
AcDbEntity
  8
1
100
AcDbLine
 10
296.351865
 20
213.646586
 30
0.0
 11
296.035209
 21
217.780604
 31
0.0
  0
LINE
  5
12D
330
1F
100
AcDbEntity
  8
1
100
AcDbLine
 10
299.295485
 20
213.776755
 30
0.0
 11
296.351865
 21
213.646586
 31
0.0
  0
LINE
  5
12E
330
1F
100
AcDbEntity
  8
1
100
AcDbLine
 10
299.2320410000001
 20
217.921971
 30
0.0
 11
299.295485
 21
213.776755
 31
0.0
  0
LINE
  5
12F
330
1F
100
AcDbEntity
  8
1
100
AcDbLine
 10
298.899429
 20
225.172081
 30
0.0
 11
295.702596
 21
225.030714
 31
0.0
  0
LINE
  5
130
330
1F
100
AcDbEntity
  8
1
100
AcDbLine
 10
298.99675
 20
223.047015
 30
0.0
 11
295.799918
 21
222.905648
 31
0.0
  0
LINE
  5
131
330
1F
100
AcDbEntity
  8
1
100
AcDbLine
 10
299.375879
 20
215.720686
 30
0.0
 11
299.422955
 21
214.053729
 31
0.0
  0
LINE
  5
132
330
1F
100
AcDbEntity
  8
1
100
AcDbLine
 10
299.327746
 20
217.341762
 30
0.0
 11
299.375879
 21
215.720686
 31
0.0
  0
LINE
  5
133
330
1F
100
AcDbEntity
  8
1
100
AcDbLine
 10
299.323387
 20
217.436726
 30
0.0
 11
299.327746
 21
217.341762
 31
0.0
  0
LINE
  5
134
330
1F
100
AcDbEntity
  8
1
100
AcDbLine
 10
299.422955
 20
274.162063
 30
0.0
 11
296.226122
 21
274.077005
 31
0.0
  0
LINE
  5
135
330
1F
100
AcDbEntity
  8
1
100
AcDbLine
 10
299.2320410000001
 20
279.408176
 30
0.0
 11
299.295485
 21
276.168647
 31
0.0
  0
LINE
  5
136
330
1F
100
AcDbEntity
  8
1
100
AcDbLine
 10
299.440845
 20
275.738111
 30
0.0
 11
299.2320410000001
 21
279.408176
 31
0.0
  0
LINE
  5
137
330
1F
100
AcDbEntity
  8
1
100
AcDbLine
 10
296.225643
 20
274.040289
 30
0.0
 11
296.226122
 21
274.077005
 31
0.0
  0
LINE
  5
138
330
1F
100
AcDbEntity
  8
1
100
AcDbLine
 10
296.2436
 20
275.596764
 30
0.0
 11
296.24314
 21
275.586171
 31
0.0
  0
LINE
  5
139
330
1F
100
AcDbEntity
  8
1
100
AcDbLine
 10
296.035209
 20
279.323118
 30
0.0
 11
295.799918
 21
283.329639
 31
0.0
  0
LINE
  5
13A
330
1F
100
AcDbEntity
  8
1
100
AcDbLine
 10
295.702596
 20
284.950882
 30
0.0
 11
295.7035259999999
 21
284.930107
 31
0.0
  0
LINE
  5
13B
330
1F
100
AcDbEntity
  8
1
100
AcDbLine
 10
295.7035259999999
 20
284.930107
 30
0.0
 11
295.699166
 21
285.004345
 31
0.0
  0
LINE
  5
13C
330
1F
100
AcDbEntity
  8
1
100
AcDbLine
 10
295.699166
 20
285.004345
 30
0.0
 11
295.695759
 21
284.7836069999999
 31
0.0
  0
LINE
  5
13D
330
1F
100
AcDbEntity
  8
1
100
AcDbLine
 10
296.351865
 20
276.090326
 30
0.0
 11
296.035209
 21
279.323118
 31
0.0
  0
LINE
  5
13E
330
1F
100
AcDbEntity
  8
1
100
AcDbLine
 10
296.244012
 20
275.653053
 30
0.0
 11
296.035209
 21
279.323118
 31
0.0
  0
LINE
  5
13F
330
1F
100
AcDbEntity
  8
1
100
AcDbLine
 10
296.244012
 20
275.653053
 30
0.0
 11
296.344786
 21
275.72265
 31
0.0
  0
LINE
  5
140
330
1F
100
AcDbEntity
  8
1
100
AcDbLine
 10
296.24314
 20
275.586171
 30
0.0
 11
296.244012
 21
275.653053
 31
0.0
  0
LINE
  5
141
330
1F
100
AcDbEntity
  8
1
100
AcDbLine
 10
299.440111
 20
275.681814
 30
0.0
 11
299.440845
 21
275.738111
 31
0.0
  0
LINE
  5
142
330
1F
100
AcDbEntity
  8
1
100
AcDbLine
 10
299.341817
 20
275.802392
 30
0.0
 11
299.440845
 21
275.738111
 31
0.0
  0
LINE
  5
143
330
1F
100
AcDbEntity
  8
1
100
AcDbLine
 10
296.344786
 20
275.72265
 30
0.0
 11
296.351865
 21
276.090326
 31
0.0
  0
LINE
  5
144
330
1F
100
AcDbEntity
  8
1
100
AcDbLine
 10
299.341817
 20
275.802392
 30
0.0
 11
296.344786
 21
275.72265
 31
0.0
  0
LINE
  5
145
330
1F
100
AcDbEntity
  8
1
100
AcDbLine
 10
299.295485
 20
276.168647
 30
0.0
 11
299.341817
 21
275.802392
 31
0.0
  0
LINE
  5
146
330
1F
100
AcDbEntity
  8
1
100
AcDbLine
 10
299.295485
 20
276.168647
 30
0.0
 11
296.351865
 21
276.090326
 31
0.0
  0
LINE
  5
147
330
1F
100
AcDbEntity
  8
1
100
AcDbLine
 10
299.440432
 20
213.186215
 30
0.0
 11
299.440083
 21
213.186224
 31
0.0
  0
LINE
  5
148
330
1F
100
AcDbEntity
  8
1
100
AcDbLine
 10
299.232209
 20
221.510389
 30
0.0
 11
299.327746
 21
221.43343
 31
0.0
  0
LINE
  5
149
330
1F
100
AcDbEntity
  8
1
100
AcDbLine
 10
299.232209
 20
221.510389
 30
0.0
 11
299.144218
 21
221.51273
 31
0.0
  0
LINE
  5
14A
330
1F
100
AcDbEntity
  8
1
100
AcDbLine
 10
299.324317
 20
221.379967
 30
0.0
 11
299.144245
 21
221.384758
 31
0.0
  0
LINE
  5
14B
330
1F
100
AcDbEntity
  8
1
100
AcDbLine
 10
299.2269950000001
 20
219.758724
 30
0.0
 11
299.217005
 21
219.75899
 31
0.0
  0
LINE
  5
14C
330
1F
100
AcDbEntity
  8
1
100
AcDbLine
 10
299.375879
 20
218.315523
 30
0.0
 11
299.422955
 21
214.705974
 31
0.0
  0
LINE
  5
14D
330
1F
100
AcDbEntity
  8
1
100
AcDbLine
 10
299.327746
 20
221.43343
 30
0.0
 11
299.375879
 21
218.315523
 31
0.0
  0
LINE
  5
14E
330
1F
100
AcDbEntity
  8
1
100
AcDbLine
 10
299.323387
 20
221.359192
 30
0.0
 11
299.327746
 21
221.43343
 31
0.0
  0
LINE
  5
14F
330
1F
100
AcDbEntity
  8
1
100
AcDbLine
 10
299.324317
 20
221.379967
 30
0.0
 11
299.323387
 21
221.359192
 31
0.0
  0
LINE
  5
150
330
1F
100
AcDbEntity
  8
81
100
AcDbLine
 10
297.444248
 20
306.9340180000001
 30
0.0
 11
301.444248
 21
306.9340180000001
 31
0.0
  0
LINE
  5
151
330
1F
100
AcDbEntity
  8
81
100
AcDbLine
 10
299.444248
 20
304.9340180000001
 30
0.0
 11
299.444248
 21
308.9340180000001
 31
0.0
  0
LINE
  5
152
330
1F
100
AcDbEntity
  8
1
100
AcDbLine
 10
250.444248
 20
279.434018
 30
0.0
 11
249.444248
 21
278.434018
 31
0.0
  0
LINE
  5
153
330
1F
100
AcDbEntity
  8
1
100
AcDbLine
 10
250.444248
 20
279.434018
 30
0.0
 11
250.444248
 21
252.634018
 31
0.0
  0
LINE
  5
154
330
1F
100
AcDbEntity
  8
1
100
AcDbLine
 10
250.444248
 20
252.634018
 30
0.0
 11
256.844248
 21
252.634018
 31
0.0
  0
LINE
  5
155
330
1F
100
AcDbEntity
  8
1
100
AcDbLine
 10
258.444248
 20
251.034018
 30
0.0
 11
258.444248
 21
237.834018
 31
0.0
  0
LINE
  5
156
330
1F
100
AcDbEntity
  8
1
100
AcDbLine
 10
256.844248
 20
236.234018
 30
0.0
 11
250.444248
 21
236.234018
 31
0.0
  0
LINE
  5
157
330
1F
100
AcDbEntity
  8
1
100
AcDbLine
 10
250.444248
 20
209.434018
 30
0.0
 11
250.444248
 21
236.234018
 31
0.0
  0
LINE
  5
158
330
1F
100
AcDbEntity
  8
1
100
AcDbLine
 10
250.444248
 20
209.434018
 30
0.0
 11
290.744248
 21
209.434018
 31
0.0
  0
LINE
  5
159
330
1F
100
AcDbEntity
  8
1
100
AcDbLine
 10
290.744248
 20
279.434018
 30
0.0
 11
250.444248
 21
279.434018
 31
0.0
  0
LINE
  5
15A
330
1F
100
AcDbEntity
  8
1
100
AcDbLine
 10
294.505624
 20
199.520274
 30
0.0
 11
294.500883
 21
199.117765
 31
0.0
  0
LINE
  5
15B
330
1F
100
AcDbEntity
  8
1
100
AcDbLine
 10
299.144248
 20
202.867377
 30
0.0
 11
299.144248
 21
210.42076
 31
0.0
  0
LINE
  5
15C
330
1F
100
AcDbEntity
  8
1
100
AcDbLine
 10
293.7442479999999
 20
210.42076
 30
0.0
 11
293.7442479999999
 21
202.867377
 31
0.0
  0
LINE
  5
15D
330
1F
100
AcDbEntity
  8
1
100
AcDbLine
 10
299.144248
 20
202.867377
 30
0.0
 11
299.144248
 21
191.735648
 31
0.0
  0
LINE
  5
15E
330
1F
100
AcDbEntity
  8
1
100
AcDbLine
 10
293.7442479999999
 20
202.867377
 30
0.0
 11
293.7442479999999
 21
199.5426379999999
 31
0.0
  0
LINE
  5
15F
330
1F
100
AcDbEntity
  8
1
100
AcDbLine
 10
299.144248
 20
191.735648
 30
0.0
 11
296.734052
 21
191.735648
 31
0.0
  0
LINE
  5
160
330
1F
100
AcDbEntity
  8
1
100
AcDbLine
 10
293.7442479999999
 20
202.867377
 30
0.0
 11
299.144248
 21
202.867377
 31
0.0
  0
LINE
  5
161
330
1F
100
AcDbEntity
  8
1
100
AcDbLine
 10
299.144248
 20
221.344778
 30
0.0
 11
299.144248
 21
226.059358
 31
0.0
  0
LINE
  5
162
330
1F
100
AcDbEntity
  8
1
100
AcDbLine
 10
293.7442479999999
 20
183.634018
 30
0.0
 11
295.878981
 21
183.634018
 31
0.0
  0
LINE
  5
163
330
1F
100
AcDbEntity
  8
1
100
AcDbLine
 10
293.7442479999999
 20
302.391016
 30
0.0
 11
293.7442479999999
 21
300.747485
 31
0.0
  0
LINE
  5
164
330
1F
100
AcDbEntity
  8
1
100
AcDbLine
 10
299.144248
 20
186.250364
 30
0.0
 11
299.144248
 21
191.735551
 31
0.0
  0
LINE
  5
165
330
1F
100
AcDbEntity
  8
1
100
AcDbLine
 10
293.7442479999999
 20
190.429602
 30
0.0
 11
293.7442479999999
 21
186.250364
 31
0.0
  0
LINE
  5
166
330
1F
100
AcDbEntity
  8
1
100
AcDbLine
 10
293.7442479999999
 20
186.250364
 30
0.0
 11
299.144248
 21
186.250364
 31
0.0
  0
LINE
  5
167
330
1F
100
AcDbEntity
  8
1
100
AcDbLine
 10
299.144248
 20
303.644423
 30
0.0
 11
299.144248
 21
297.044226
 31
0.0
  0
LINE
  5
168
330
1F
100
AcDbEntity
  8
1
100
AcDbLine
 10
293.7442479999999
 20
303.644423
 30
0.0
 11
293.7442479999999
 21
302.391016
 31
0.0
  0
LINE
  5
169
330
1F
100
AcDbEntity
  8
1
100
AcDbLine
 10
293.7442479999999
 20
303.644423
 30
0.0
 11
299.144248
 21
303.644423
 31
0.0
  0
LINE
  5
16A
330
1F
100
AcDbEntity
  8
1
100
AcDbLine
 10
299.144248
 20
296.208408
 30
0.0
 11
299.144248
 21
297.044226
 31
0.0
  0
LINE
  5
16B
330
1F
100
AcDbEntity
  8
1
100
AcDbLine
 10
296.662692
 20
296.208408
 30
0.0
 11
296.668324
 21
297.044226
 31
0.0
  0
LINE
  5
16C
330
1F
100
AcDbEntity
  8
1
100
AcDbLine
 10
299.144248
 20
297.044226
 30
0.0
 11
296.668324
 21
297.044226
 31
0.0
  0
LINE
  5
16D
330
1F
100
AcDbEntity
  8
1
100
AcDbLine
 10
299.144248
 20
290.691808
 30
0.0
 11
299.144248
 21
296.208408
 31
0.0
  0
LINE
  5
16E
330
1F
100
AcDbEntity
  8
1
100
AcDbLine
 10
296.71321
 20
290.691808
 30
0.0
 11
296.662692
 21
296.208408
 31
0.0
  0
LINE
  5
16F
330
1F
100
AcDbEntity
  8
1
100
AcDbLine
 10
299.144248
 20
296.208408
 30
0.0
 11
296.662692
 21
296.208408
 31
0.0
  0
LINE
  5
170
330
1F
100
AcDbEntity
  8
1
100
AcDbLine
 10
249.444248
 20
210.434018
 30
0.0
 11
249.444248
 21
235.234018
 31
0.0
  0
LINE
  5
171
330
1F
100
AcDbEntity
  8
1
100
AcDbLine
 10
249.444248
 20
210.434018
 30
0.0
 11
250.444248
 21
209.434018
 31
0.0
  0
LINE
  5
172
330
1F
100
AcDbEntity
  8
1
100
AcDbLine
 10
249.444248
 20
253.634018
 30
0.0
 11
249.444248
 21
278.434018
 31
0.0
  0
LINE
  5
173
330
1F
100
AcDbEntity
  8
1
100
AcDbLine
 10
293.992498
 20
256.829075
 30
0.0
 11
294.096762
 21
256.922761
 31
0.0
  0
LINE
  5
174
330
1F
100
AcDbEntity
  8
1
100
AcDbLine
 10
297.093793
 20
256.800205
 30
0.0
 11
297.18933
 21
256.698349
 31
0.0
  0
LINE
  5
175
330
1F
100
AcDbEntity
  8
1
100
AcDbLine
 10
297.093793
 20
256.800205
 30
0.0
 11
294.096762
 21
256.922761
 31
0.0
  0
LINE
  5
176
330
1F
100
AcDbEntity
  8
1
100
AcDbLine
 10
293.5126180000001
 20
242.935889
 30
0.0
 11
293.465542
 21
244.057445
 31
0.0
  0
LINE
  5
177
330
1F
100
AcDbEntity
  8
1
100
AcDbLine
 10
293.677249
 20
242.024805
 30
0.0
 11
293.5126180000001
 21
242.935889
 31
0.0
  0
LINE
  5
178
330
1F
100
AcDbEntity
  8
1
100
AcDbLine
 10
296.620868
 20
241.904433
 30
0.0
 11
293.677249
 21
242.024805
 31
0.0
  0
LINE
  5
179
330
1F
100
AcDbEntity
  8
1
100
AcDbLine
 10
296.708844
 20
242.798998
 30
0.0
 11
296.620868
 21
241.904433
 31
0.0
  0
LINE
  5
17A
330
1F
100
AcDbEntity
  8
1
100
AcDbLine
 10
297.185901
 20
256.623938
 30
0.0
 11
293.989068
 21
256.754664
 31
0.0
  0
LINE
  5
17B
330
1F
100
AcDbEntity
  8
1
100
AcDbLine
 10
293.448064
 20
244.562482
 30
0.0
 11
293.448524
 21
244.563698
 31
0.0
  0
LINE
  5
17C
330
1F
100
AcDbEntity
  8
1
100
AcDbLine
 10
296.644897
 20
244.431756
 30
0.0
 11
293.448064
 21
244.562482
 31
0.0
  0
LINE
  5
17D
330
1F
100
AcDbEntity
  8
1
100
AcDbLine
 10
296.662374
 20
243.926719
 30
0.0
 11
293.465542
 21
244.057445
 31
0.0
  0
LINE
  5
17E
330
1F
100
AcDbEntity
  8
1
100
AcDbLine
 10
296.662853
 20
243.91531
 30
0.0
 11
296.662374
 21
243.926719
 31
0.0
  0
LINE
  5
17F
330
1F
100
AcDbEntity
  8
1
100
AcDbLine
 10
297.18933
 20
256.698349
 30
0.0
 11
297.192738
 21
256.637167
 31
0.0
  0
LINE
  5
180
330
1F
100
AcDbEntity
  8
1
100
AcDbLine
 10
297.184971
 20
256.600661
 30
0.0
 11
297.18933
 21
256.698349
 31
0.0
  0
LINE
  5
181
330
1F
100
AcDbEntity
  8
1
100
AcDbLine
 10
297.185901
 20
256.623938
 30
0.0
 11
297.184971
 21
256.600661
 31
0.0
  0
LINE
  5
182
330
1F
100
AcDbEntity
  8
1
100
AcDbLine
 10
296.644897
 20
244.431756
 30
0.0
 11
296.645357
 21
244.432972
 31
0.0
  0
LINE
  5
183
330
1F
100
AcDbEntity
  8
1
100
AcDbLine
 10
296.853288
 20
249.188893
 30
0.0
 11
297.088579
 21
254.461005
 31
0.0
  0
LINE
  5
184
330
1F
100
AcDbEntity
  8
1
100
AcDbLine
 10
297.088579
 20
254.461005
 30
0.0
 11
293.891746
 21
254.591732
 31
0.0
  0
LINE
  5
185
330
1F
100
AcDbEntity
  8
1
100
AcDbLine
 10
293.656455
 20
249.31962
 30
0.0
 11
293.891746
 21
254.591732
 31
0.0
  0
LINE
  5
186
330
1F
100
AcDbEntity
  8
1
100
AcDbLine
 10
293.593012
 20
245.056036
 30
0.0
 11
293.656455
 21
249.31962
 31
0.0
  0
LINE
  5
187
330
1F
100
AcDbEntity
  8
1
100
AcDbLine
 10
293.447652
 20
244.58448
 30
0.0
 11
293.656455
 21
249.31962
 31
0.0
  0
LINE
  5
188
330
1F
100
AcDbEntity
  8
1
100
AcDbLine
 10
293.447652
 20
244.58448
 30
0.0
 11
293.54668
 21
244.601194
 31
0.0
  0
LINE
  5
189
330
1F
100
AcDbEntity
  8
1
100
AcDbLine
 10
293.448524
 20
244.563698
 30
0.0
 11
293.447652
 21
244.58448
 31
0.0
  0
LINE
  5
18A
330
1F
100
AcDbEntity
  8
1
100
AcDbLine
 10
296.645357
 20
244.432972
 30
0.0
 11
293.448524
 21
244.563698
 31
0.0
  0
LINE
  5
18B
330
1F
100
AcDbEntity
  8
1
100
AcDbLine
 10
296.645357
 20
244.432972
 30
0.0
 11
296.644485
 21
244.453753
 31
0.0
  0
LINE
  5
18C
330
1F
100
AcDbEntity
  8
1
100
AcDbLine
 10
296.853288
 20
249.188893
 30
0.0
 11
296.536631
 21
244.935664
 31
0.0
  0
LINE
  5
18D
330
1F
100
AcDbEntity
  8
1
100
AcDbLine
 10
296.543711
 20
244.478638
 30
0.0
 11
296.644485
 21
244.453753
 31
0.0
  0
LINE
  5
18E
330
1F
100
AcDbEntity
  8
1
100
AcDbLine
 10
299.324317
 20
217.417184
 30
0.0
 11
299.323387
 21
217.436726
 31
0.0
  0
LINE
  5
18F
330
1F
100
AcDbEntity
  8
1
100
AcDbLine
 10
298.991704
 20
224.667294
 30
0.0
 11
299.2269950000001
 21
219.54225
 31
0.0
  0
LINE
  5
190
330
1F
100
AcDbEntity
  8
1
100
AcDbLine
 10
298.92797
 20
226.050445
 30
0.0
 11
298.991704
 21
224.667294
 31
0.0
  0
LINE
  5
191
330
1F
100
AcDbEntity
  8
1
100
AcDbLine
 10
298.899429
 20
225.172081
 30
0.0
 11
298.900359
 21
225.152539
 31
0.0
  0
LINE
  5
192
330
1F
100
AcDbEntity
  8
1
100
AcDbLine
 10
299.2320410000001
 20
217.921971
 30
0.0
 11
298.99675
 21
223.047015
 31
0.0
  0
LINE
  5
193
330
1F
100
AcDbEntity
  8
1
100
AcDbLine
 10
299.440845
 20
213.390532
 30
0.0
 11
299.2320410000001
 21
217.921971
 31
0.0
  0
LINE
  5
194
330
1F
100
AcDbEntity
  8
1
100
AcDbLine
 10
299.439973
 20
213.421419
 30
0.0
 11
299.440845
 21
213.390532
 31
0.0
  0
LINE
  5
195
330
1F
100
AcDbEntity
  8
1
100
AcDbLine
 10
299.440432
 20
213.408721
 30
0.0
 11
299.439973
 21
213.421419
 31
0.0
  0
LINE
  5
196
330
1F
100
AcDbEntity
  8
1
100
AcDbLine
 10
295.815665
 20
225.386371
 30
0.0
 11
295.800197
 21
225.512347
 31
0.0
  0
LINE
  5
197
330
1F
100
AcDbEntity
  8
1
100
AcDbLine
 10
295.699166
 20
225.106136
 30
0.0
 11
295.686851
 21
225.520904
 31
0.0
  0
LINE
  5
198
330
1F
100
AcDbEntity
  8
1
100
AcDbLine
 10
295.699166
 20
225.106136
 30
0.0
 11
295.794704
 21
225.205597
 31
0.0
  0
LINE
  5
199
330
1F
100
AcDbEntity
  8
1
100
AcDbLine
 10
295.702629
 20
225.030716
 30
0.0
 11
295.699166
 21
225.106136
 31
0.0
  0
LINE
  5
19A
330
1F
100
AcDbEntity
  8
1
100
AcDbLine
 10
298.900359
 20
225.152539
 30
0.0
 11
298.895999
 21
225.247503
 31
0.0
  0
LINE
  5
19B
330
1F
100
AcDbEntity
  8
1
100
AcDbLine
 10
298.793897
 20
226.044828
 30
0.0
 11
298.759284
 21
225.51654
 31
0.0
  0
LINE
  5
19C
330
1F
100
AcDbEntity
  8
1
100
AcDbLine
 10
298.791735
 20
225.338128
 30
0.0
 11
298.895999
 21
225.247503
 31
0.0
  0
LINE
  5
19D
330
1F
100
AcDbEntity
  8
1
100
AcDbLine
 10
298.895999
 20
225.247503
 30
0.0
 11
298.872228
 21
226.048112
 31
0.0
  0
LINE
  5
19E
330
1F
100
AcDbEntity
  8
1
100
AcDbLine
 10
295.794704
 20
225.205597
 30
0.0
 11
295.815665
 21
225.386371
 31
0.0
  0
LINE
  5
19F
330
1F
100
AcDbEntity
  8
1
100
AcDbLine
 10
298.791735
 20
225.338128
 30
0.0
 11
295.794704
 21
225.205597
 31
0.0
  0
LINE
  5
1A0
330
1F
100
AcDbEntity
  8
1
100
AcDbLine
 10
298.759284
 20
225.51654
 30
0.0
 11
298.791735
 21
225.338128
 31
0.0
  0
LINE
  5
1A1
330
1F
100
AcDbEntity
  8
1
100
AcDbLine
 10
298.759284
 20
225.51654
 30
0.0
 11
298.386365
 21
225.50005
 31
0.0
  0
LINE
  5
1A2
330
1F
100
AcDbEntity
  8
1
100
AcDbLine
 10
296.85835
 20
225.43248
 30
0.0
 11
295.815665
 21
225.386371
 31
0.0
  0
LINE
  5
1A3
330
1F
100
AcDbEntity
  8
1
100
AcDbLine
 10
296.653318
 20
241.847281
 30
0.0
 11
293.656288
 21
241.969837
 31
0.0
  0
LINE
  5
1A4
330
1F
100
AcDbEntity
  8
1
100
AcDbLine
 10
293.56075
 20
242.071693
 30
0.0
 11
293.5126180000001
 21
242.935889
 31
0.0
  0
LINE
  5
1A5
330
1F
100
AcDbEntity
  8
1
100
AcDbLine
 10
293.56075
 20
242.071693
 30
0.0
 11
293.656288
 21
241.969837
 31
0.0
  0
LINE
  5
1A6
330
1F
100
AcDbEntity
  8
1
100
AcDbLine
 10
293.656288
 20
241.969837
 30
0.0
 11
293.677249
 21
242.024805
 31
0.0
  0
LINE
  5
1A7
330
1F
100
AcDbEntity
  8
1
100
AcDbLine
 10
296.620868
 20
241.904433
 30
0.0
 11
296.653318
 21
241.847281
 31
0.0
  0
LINE
  5
1A8
330
1F
100
AcDbEntity
  8
1
100
AcDbLine
 10
296.653318
 20
241.847281
 30
0.0
 11
296.710144
 21
241.898341
 31
0.0
  0
LINE
  5
1A9
330
1F
100
AcDbEntity
  8
1
100
AcDbLine
 10
293.989176
 20
256.75466
 30
0.0
 11
293.992498
 21
256.829075
 31
0.0
  0
LINE
  5
1AA
330
1F
100
AcDbEntity
  8
1
100
AcDbLine
 10
299.323387
 20
294.506138
 30
0.0
 11
299.327746
 21
294.526863
 31
0.0
  0
LINE
  5
1AB
330
1F
100
AcDbEntity
  8
1
100
AcDbLine
 10
299.232209
 20
294.549366
 30
0.0
 11
299.327746
 21
294.526863
 31
0.0
  0
LINE
  5
1AC
330
1F
100
AcDbEntity
  8
1
100
AcDbLine
 10
299.232209
 20
294.549366
 30
0.0
 11
299.144218
 21
294.550915
 31
0.0
  0
LINE
  5
1AD
330
1F
100
AcDbEntity
  8
1
100
AcDbLine
 10
293.448364
 20
190.439701
 30
0.0
 11
293.448064
 21
190.439699
 31
0.0
  0
LINE
  5
1AE
330
1F
100
AcDbEntity
  8
1
100
AcDbLine
 10
293.56075
 20
202.233505
 30
0.0
 11
293.656288
 21
202.264945
 31
0.0
  0
LINE
  5
1AF
330
1F
100
AcDbEntity
  8
1
100
AcDbLine
 10
293.715058
 20
202.265251
 30
0.0
 11
293.656288
 21
202.264945
 31
0.0
  0
LINE
  5
1B0
330
1F
100
AcDbEntity
  8
1
100
AcDbLine
 10
293.711833
 20
202.216083
 30
0.0
 11
293.5641799999999
 21
202.215316
 31
0.0
  0
LINE
  5
1B1
330
1F
100
AcDbEntity
  8
1
100
AcDbLine
 10
293.669693
 20
201.570217
 30
0.0
 11
293.661502
 21
201.570174
 31
0.0
  0
LINE
  5
1B2
330
1F
100
AcDbEntity
  8
1
100
AcDbLine
 10
293.56075
 20
202.233505
 30
0.0
 11
293.5126180000001
 21
197.697327
 31
0.0
  0
LINE
  5
1B3
330
1F
100
AcDbEntity
  8
1
100
AcDbLine
 10
293.5126180000001
 20
197.697327
 30
0.0
 11
293.465542
 21
192.566961
 31
0.0
  0
LINE
  5
1B4
330
1F
100
AcDbEntity
  8
1
100
AcDbLine
 10
293.448064
 20
190.439699
 30
0.0
 11
293.448524
 21
190.459262
 31
0.0
  0
LINE
  5
1B5
330
1F
100
AcDbEntity
  8
1
100
AcDbLine
 10
293.448524
 20
190.459262
 30
0.0
 11
293.447652
 21
190.3642
 31
0.0
  0
LINE
  5
1B6
330
1F
100
AcDbEntity
  8
1
100
AcDbLine
 10
293.447652
 20
190.3642
 30
0.0
 11
293.656455
 21
188.742602
 31
0.0
  0
LINE
  5
1B7
330
1F
100
AcDbEntity
  8
1
100
AcDbLine
 10
293.656455
 20
188.742602
 30
0.0
 11
293.744252
 21
188.120433
 31
0.0
  0
LINE
  5
1B8
330
1F
100
AcDbEntity
  8
1
100
AcDbLine
 10
293.667082
 20
201.530626
 30
0.0
 11
293.661502
 21
201.570174
 31
0.0
  0
LINE
  5
1B9
330
1F
100
AcDbEntity
  8
1
100
AcDbLine
 10
293.5641799999999
 20
202.215316
 30
0.0
 11
293.56511
 21
202.20261
 31
0.0
  0
LINE
  5
1BA
330
1F
100
AcDbEntity
  8
1
100
AcDbLine
 10
293.56511
 20
202.20261
 30
0.0
 11
293.56075
 21
202.233505
 31
0.0
  0
LINE
  5
1BB
330
1F
100
AcDbEntity
  8
1
100
AcDbLine
 10
293.7442479999999
 20
305.233955
 30
0.0
 11
293.7442479999999
 21
305.234018
 31
0.0
  0
LINE
  5
1BC
330
1F
100
AcDbEntity
  8
1
100
AcDbLine
 10
296.220173
 20
305.233955
 30
0.0
 11
296.216565
 21
305.234018
 31
0.0
  0
LINE
  5
1BD
330
1F
100
AcDbEntity
  8
1
100
AcDbLine
 10
296.216568
 20
305.234018
 30
0.0
 11
293.7442479999999
 21
305.234018
 31
0.0
  0
LINE
  5
1BE
330
1F
100
AcDbEntity
  8
1
100
AcDbLine
 10
293.7442479999999
 20
305.233955
 30
0.0
 11
293.7442479999999
 21
304.524726
 31
0.0
  0
LINE
  5
1BF
330
1F
100
AcDbEntity
  8
1
100
AcDbLine
 10
296.220173
 20
305.233955
 30
0.0
 11
296.225805
 21
304.524726
 31
0.0
  0
LINE
  5
1C0
330
1F
100
AcDbEntity
  8
1
100
AcDbLine
 10
296.220173
 20
305.233955
 30
0.0
 11
293.7442479999999
 21
305.233955
 31
0.0
  0
LINE
  5
1C1
330
1F
100
AcDbEntity
  8
1
100
AcDbLine
 10
293.7442479999999
 20
304.524726
 30
0.0
 11
293.7442479999999
 21
303.644413
 31
0.0
  0
LINE
  5
1C2
330
1F
100
AcDbEntity
  8
1
100
AcDbLine
 10
296.225805
 20
304.524726
 30
0.0
 11
296.217965
 21
303.644413
 31
0.0
  0
LINE
  5
1C3
330
1F
100
AcDbEntity
  8
1
100
AcDbLine
 10
296.225805
 20
304.524726
 30
0.0
 11
293.7442479999999
 21
304.524726
 31
0.0
  0
LINE
  5
1C4
330
1F
100
AcDbEntity
  8
1
100
AcDbLine
 10
298.387613
 20
184.921548
 30
0.0
 11
298.386486
 21
185.047461
 31
0.0
  0
LINE
  5
1C5
330
1F
100
AcDbEntity
  8
1
100
AcDbLine
 10
299.144248
 20
186.250364
 30
0.0
 11
299.144248
 21
185.054479
 31
0.0
  0
LINE
  5
1C6
330
1F
100
AcDbEntity
  8
1
100
AcDbLine
 10
293.7442479999999
 20
183.634018
 30
0.0
 11
293.7442479999999
 21
186.250364
 31
0.0
  0
LINE
  5
1C7
330
1F
100
AcDbEntity
  8
1
100
AcDbLine
 10
293.7442479999999
 20
230.622138
 30
0.0
 11
293.7442479999999
 21
213.957699
 31
0.0
  0
LINE
  5
1C8
330
1F
100
AcDbEntity
  8
1
100
AcDbLine
 10
296.211352
 20
213.957699
 30
0.0
 11
293.7442479999999
 21
213.957699
 31
0.0
  0
LINE
  5
1C9
330
1F
100
AcDbEntity
  8
1
100
AcDbLine
 10
293.7442479999999
 20
230.622138
 30
0.0
 11
299.144248
 21
230.622138
 31
0.0
  0
LINE
  5
1CA
330
1F
100
AcDbEntity
  8
1
100
AcDbLine
 10
293.7442479999999
 20
257.499636
 30
0.0
 11
293.7442479999999
 21
255.477801
 31
0.0
  0
LINE
  5
1CB
330
1F
100
AcDbEntity
  8
1
100
AcDbLine
 10
293.7442479999999
 20
255.477801
 30
0.0
 11
293.934055
 21
255.470039
 31
0.0
  0
LINE
  5
1CC
330
1F
100
AcDbEntity
  8
1
100
AcDbLine
 10
296.71321
 20
242.694639
 30
0.0
 11
296.662692
 21
243.902639
 31
0.0
  0
LINE
  5
1CD
330
1F
100
AcDbEntity
  8
1
100
AcDbLine
 10
299.144248
 20
242.694639
 30
0.0
 11
299.144248
 21
243.902639
 31
0.0
  0
LINE
  5
1CE
330
1F
100
AcDbEntity
  8
1
100
AcDbLine
 10
296.662692
 20
243.902639
 30
0.0
 11
296.668324
 21
244.345855
 31
0.0
  0
LINE
  5
1CF
330
1F
100
AcDbEntity
  8
1
100
AcDbLine
 10
299.144248
 20
243.902639
 30
0.0
 11
299.144248
 21
244.345855
 31
0.0
  0
LINE
  5
1D0
330
1F
100
AcDbEntity
  8
1
100
AcDbLine
 10
299.144248
 20
243.902639
 30
0.0
 11
296.662692
 21
243.902639
 31
0.0
  0
LINE
  5
1D1
330
1F
100
AcDbEntity
  8
1
100
AcDbLine
 10
299.144248
 20
244.345855
 30
0.0
 11
296.668324
 21
244.345855
 31
0.0
  0
LINE
  5
1D2
330
1F
100
AcDbEntity
  8
1
100
AcDbLine
 10
299.144248
 20
262.077782
 30
0.0
 11
299.144248
 21
244.345855
 31
0.0
  0
LINE
  5
1D3
330
1F
100
AcDbEntity
  8
1
100
AcDbLine
 10
293.7442479999999
 20
262.077782
 30
0.0
 11
299.144248
 21
262.077782
 31
0.0
  0
LINE
  5
1D4
330
1F
100
AcDbEntity
  8
1
100
AcDbLine
 10
293.7442479999999
 20
262.077782
 30
0.0
 11
293.7442479999999
 21
257.499636
 31
0.0
  0
LINE
  5
1D5
330
1F
100
AcDbEntity
  8
1
100
AcDbLine
 10
293.98993
 20
302.43796
 30
0.0
 11
293.992498
 21
302.456153
 31
0.0
  0
LINE
  5
1D6
330
1F
100
AcDbEntity
  8
1
100
AcDbLine
 10
293.992498
 20
302.456153
 30
0.0
 11
294.096762
 21
302.4865549999999
 31
0.0
  0
LINE
  5
1D7
330
1F
100
AcDbEntity
  8
1
100
AcDbLine
 10
297.093793
 20
302.470994
 30
0.0
 11
297.18933
 21
302.439554
 31
0.0
  0
LINE
  5
1D8
330
1F
100
AcDbEntity
  8
1
100
AcDbLine
 10
299.2214140000001
 20
219.663695
 30
0.0
 11
299.2269950000001
 21
219.758724
 31
0.0
  0
LINE
  5
1D9
330
1F
100
AcDbEntity
  8
1
100
AcDbLine
 10
299.2320410000001
 20
209.459861
 30
0.0
 11
299.144245
 21
207.964865
 31
0.0
  0
LINE
  5
1DA
330
1F
100
AcDbEntity
  8
1
100
AcDbLine
 10
299.440845
 20
213.129926
 30
0.0
 11
299.2320410000001
 21
209.459861
 31
0.0
  0
LINE
  5
1DB
330
1F
100
AcDbEntity
  8
1
100
AcDbLine
 10
299.439973
 20
213.196808
 30
0.0
 11
299.440845
 21
213.129926
 31
0.0
  0
LINE
  5
1DC
330
1F
100
AcDbEntity
  8
1
100
AcDbLine
 10
299.440432
 20
213.186215
 30
0.0
 11
299.439973
 21
213.196808
 31
0.0
  0
LINE
  5
1DD
330
1F
100
AcDbEntity
  8
1
100
AcDbLine
 10
299.43997
 20
306.683565
 30
0.0
 11
299.440845
 21
306.781598
 31
0.0
  0
LINE
  5
1DE
330
1F
100
AcDbEntity
  8
1
100
AcDbLine
 10
296.244012
 20
306.837906
 30
0.0
 11
296.344786
 21
306.933999
 31
0.0
  0
LINE
  5
1DF
330
1F
100
AcDbEntity
  8
1
100
AcDbLine
 10
299.341817
 20
306.88121
 30
0.0
 11
299.440845
 21
306.781598
 31
0.0
  0
LINE
  5
1E0
330
1F
100
AcDbEntity
  8
1
100
AcDbLine
 10
299.341817
 20
306.88121
 30
0.0
 11
296.344786
 21
306.933999
 31
0.0
  0
LINE
  5
1E1
330
1F
100
AcDbEntity
  8
1
100
AcDbLine
 10
299.144246
 20
293.60771
 30
0.0
 11
299.2269950000001
 21
294.001081
 31
0.0
  0
LINE
  5
1E2
330
1F
100
AcDbEntity
  8
1
100
AcDbLine
 10
299.43997
 20
306.683565
 30
0.0
 11
296.243137
 21
306.7398740000001
 31
0.0
  0
LINE
  5
1E3
330
1F
100
AcDbEntity
  8
1
100
AcDbLine
 10
299.2269950000001
 20
294.001081
 30
0.0
 11
299.144227
 21
294.002539
 31
0.0
  0
LINE
  5
1E4
330
1F
100
AcDbEntity
  8
1
100
AcDbLine
 10
299.324317
 20
294.504904
 30
0.0
 11
299.323387
 21
294.506138
 31
0.0
  0
LINE
  5
1E5
330
1F
100
AcDbEntity
  8
1
100
AcDbLine
 10
299.324317
 20
294.504904
 30
0.0
 11
299.144245
 21
294.508076
 31
0.0
  0
LINE
  5
1E6
330
1F
100
AcDbEntity
  8
1
100
AcDbLine
 10
299.327746
 20
294.526863
 30
0.0
 11
299.375879
 21
299.265846
 31
0.0
  0
LINE
  5
1E7
330
1F
100
AcDbEntity
  8
1
100
AcDbLine
 10
296.243137
 20
306.7398740000001
 30
0.0
 11
296.244012
 21
306.837906
 31
0.0
  0
LINE
  5
1E8
330
1F
100
AcDbEntity
  8
1
100
AcDbLine
 10
296.244012
 20
306.837906
 30
0.0
 11
296.035209
 21
305.976532
 31
0.0
  0
LINE
  5
1E9
330
1F
100
AcDbEntity
  8
1
100
AcDbLine
 10
296.035209
 20
305.976532
 30
0.0
 11
295.879016
 21
305.234025
 31
0.0
  0
LINE
  5
1EA
330
1F
100
AcDbEntity
  8
1
100
AcDbLine
 10
299.375879
 20
299.265846
 30
0.0
 11
299.211248
 21
295.006121
 31
0.0
  0
LINE
  5
1EB
330
1F
100
AcDbEntity
  8
1
100
AcDbLine
 10
299.375879
 20
299.265846
 30
0.0
 11
299.422955
 21
304.542352
 31
0.0
  0
LINE
  5
1EC
330
1F
100
AcDbEntity
  8
1
100
AcDbLine
 10
299.422955
 20
304.542352
 30
0.0
 11
296.226122
 21
304.598661
 31
0.0
  0
LINE
  5
1ED
330
1F
100
AcDbEntity
  8
1
100
AcDbLine
 10
296.225643
 20
304.544989
 30
0.0
 11
296.226122
 21
304.598661
 31
0.0
  0
LINE
  5
1EE
330
1F
100
AcDbEntity
  8
1
100
AcDbLine
 10
299.211248
 20
295.006121
 30
0.0
 11
299.232209
 21
294.549366
 31
0.0
  0
LINE
  5
1EF
330
1F
100
AcDbEntity
  8
1
100
AcDbLine
 10
299.211248
 20
295.006121
 30
0.0
 11
299.144234
 21
295.007301
 31
0.0
  0
LINE
  5
1F0
330
1F
100
AcDbEntity
  8
1
100
AcDbLine
 10
299.323387
 20
294.506138
 30
0.0
 11
299.144214
 21
294.509294
 31
0.0
  0
LINE
  5
1F1
330
1F
100
AcDbEntity
  8
NOCUT
100
AcDbLine
 10
250.444248
 20
279.434018
 30
0.0
 11
290.744248
 21
279.434018
 31
0.0
  0
LINE
  5
1F3
330
1F
100
AcDbEntity
  8
NOCUT
100
AcDbLine
 10
293.7442479999999
 20
282.434018
 30
0.0
 11
293.7442479999999
 21
305.234018
 31
0.0
  0
LINE
  5
1F4
330
1F
100
AcDbEntity
  8
NOCUT
100
AcDbLine
 10
293.7442479999999
 20
305.234018
 30
0.0
 11
299.144248
 21
305.234018
 31
0.0
  0
LINE
  5
1F5
330
1F
100
AcDbEntity
  8
NOCUT
100
AcDbLine
 10
299.144248
 20
305.234018
 30
0.0
 11
299.144248
 21
272.934018
 31
0.0
  0
LINE
  5
1F6
330
1F
100
AcDbEntity
  8
NOCUT
100
AcDbLine
 10
299.144248
 20
272.934018
 30
0.0
 11
298.644248
 21
272.434018
 31
0.0
  0
LINE
  5
1F7
330
1F
100
AcDbEntity
  8
NOCUT
100
AcDbLine
 10
298.644248
 20
272.434018
 30
0.0
 11
277.244248
 21
272.434018
 31
0.0
  0
LINE
  5
1F8
330
1F
100
AcDbEntity
  8
NOCUT
100
AcDbLine
 10
276.897838
 20
271.834018
 30
0.0
 11
277.444248
 21
270.887608
 31
0.0
  0
LINE
  5
1F9
330
1F
100
AcDbEntity
  8
NOCUT
100
AcDbLine
 10
277.444248
 20
270.887608
 30
0.0
 11
277.444248
 21
265.4340180000001
 31
0.0
  0
LINE
  5
1FA
330
1F
100
AcDbEntity
  8
NOCUT
100
AcDbLine
 10
277.444248
 20
265.4340180000001
 30
0.0
 11
276.444248
 21
264.434018
 31
0.0
  0
LINE
  5
1FB
330
1F
100
AcDbEntity
  8
NOCUT
100
AcDbLine
 10
276.444248
 20
264.434018
 30
0.0
 11
250.444248
 21
264.434018
 31
0.0
  0
LINE
  5
1FC
330
1F
100
AcDbEntity
  8
NOCUT
100
AcDbLine
 10
250.444248
 20
264.434018
 30
0.0
 11
249.444248
 21
265.4340180000001
 31
0.0
  0
LINE
  5
1FD
330
1F
100
AcDbEntity
  8
NOCUT
100
AcDbLine
 10
249.444248
 20
265.4340180000001
 30
0.0
 11
249.444248
 21
278.434018
 31
0.0
  0
LINE
  5
1FE
330
1F
100
AcDbEntity
  8
NOCUT
100
AcDbLine
 10
249.444248
 20
278.434018
 30
0.0
 11
250.444248
 21
279.434018
 31
0.0
  0
ARC
  5
204
330
1F
100
AcDbEntity
  8
1
100
AcDbCircle
 10
290.744248
 20
282.434018
 30
0.0
 40
3.0
100
AcDbArc
 50
270.0
 51
0.0
  0
ARC
  5
205
330
1F
100
AcDbEntity
  8
1
100
AcDbCircle
 10
290.744248
 20
206.434018
 30
0.0
 40
3.0
100
AcDbArc
 50
0.0
 51
90.0
  0
ARC
  5
206
330
1F
100
AcDbEntity
  8
NOCUT
100
AcDbCircle
 10
290.744248
 20
282.434018
 30
0.0
 40
3.0
100
AcDbArc
 50
270.0
 51
360.0
  0
ARC
  5
207
330
1F
100
AcDbEntity
  8
NOCUT
100
AcDbCircle
 10
277.244248
 20
272.034018
 30
0.0
 40
0.399999999999998
100
AcDbArc
 50
90.0
 51
210.0
  0
ELLIPSE
  5
208
330
1F
100
AcDbEntity
  8
1
100
AcDbEllipse
 10
298.931978
 20
268.068097
 30
0.0
 11
-0.0797927294725456
 21
2.998938665648787
 31
0.0
210
0.0
220
0.0
230
1.0
 40
0.035665
 41
2.303896885833498
 42
2.885151229659548
  0
ELLIPSE
  5
209
330
1F
100
AcDbEntity
  8
1
100
AcDbEllipse
 10
293.956519
 20
240.917495
 30
0.0
 11
0.1225748446897033
 21
2.997494855283207
 31
0.0
210
0.0
220
0.0
230
0.9999999999999996
 40
0.017596
 41
3.921517975115543
 42
4.502772318941309
  0
ELLIPSE
  5
20A
330
1F
100
AcDbEntity
  8
1
100
AcDbEllipse
 10
293.910196
 20
305.792436
 30
0.0
 11
0.0207686355282305
 21
3.999946082608901
 31
0.0
210
0.0
220
0.0
230
1.0
 40
0.044177
 41
3.154702299458156
 42
3.717856460615346
  0
ELLIPSE
  5
20B
330
1F
100
AcDbEntity
  8
1
100
AcDbEllipse
 10
293.288579
 20
296.249557
 30
0.0
 11
0.0207686355282305
 21
3.999946082608901
 31
0.0
210
0.0
220
0.0
230
1.0
 40
0.044177
 41
4.725498626253043
 42
5.282755901690516
  0
ELLIPSE
  5
20C
330
1F
100
AcDbEntity
  8
1
100
AcDbEllipse
 10
297.107029
 20
305.775837
 30
0.0
 11
0.0207686355282305
 21
3.999946082608901
 31
0.0
210
0.0
220
0.0
230
1.0
 40
0.044177
 41
3.154702299458195
 42
3.717856460615378
  0
ELLIPSE
  5
20D
330
1F
100
AcDbEntity
  8
1
100
AcDbEllipse
 10
296.485412
 20
296.232958
 30
0.0
 11
0.0207686355282305
 21
3.999946082608901
 31
0.0
210
0.0
220
0.0
230
1.0
 40
0.044177
 41
4.725498626253039
 42
5.282755901690539
  0
ELLIPSE
  5
20E
330
1F
100
AcDbEntity
  8
1
100
AcDbEllipse
 10
295.14565
 20
244.434018
 30
0.0
 11
-1.619767166510378
 21
60.79997253125218
 31
0.0
210
0.0
220
0.0
230
1.0
 40
0.035675
 41
5.233587290160266
 42
5.442322733216005
  0
ELLIPSE
  5
20F
330
1F
100
AcDbEntity
  8
1
100
AcDbEllipse
 10
294.059167
 20
244.469942
 30
0.0
 11
-765.0288634215757
 21
45.29172988656667
 31
0.0
210
0.0
220
0.0
230
0.9999999999999998
 40
0.052944
 41
4.71335798125928
 42
4.713402202833698
  0
ELLIPSE
  5
210
330
1F
100
AcDbEntity
  8
1
100
AcDbEllipse
 10
297.848375
 20
244.437885
 30
0.0
 11
-1.619758344852874
 21
60.79579319410538
 31
0.0
210
0.0
220
0.0
230
1.0
 40
0.035675
 41
5.445180576497846
 42
5.451036225858601
  0
ELLIPSE
  5
211
330
1F
100
AcDbEntity
  8
1
100
AcDbEllipse
 10
297.107029
 20
195.073626
 30
0.0
 11
0.1427098861541404
 21
3.997453425418971
 31
0.0
210
0.0
220
0.0
230
1.0
 40
0.026581
 41
0.4715228880472955
 42
1.034677049204498
  0
ELLIPSE
  5
212
330
1F
100
AcDbEntity
  8
1
100
AcDbEllipse
 10
293.288579
 20
188.755725
 30
0.0
 11
0.1427098861541404
 21
3.997453425418971
 31
0.0
210
0.0
220
0.0
230
1.0
 40
0.026581
 41
5.183911868432054
 42
5.747066029589276
  0
ELLIPSE
  5
213
330
1F
100
AcDbEntity
  8
1
100
AcDbEllipse
 10
293.910196
 20
195.187754
 30
0.0
 11
0.1427098861541404
 21
3.997453425418971
 31
0.0
210
0.0
220
0.0
230
1.0
 40
0.026581
 41
0.4715228880472335
 42
1.03467704920453
  0
ELLIPSE
  5
214
330
1F
100
AcDbEntity
  8
1
100
AcDbEllipse
 10
293.643051
 20
203.490367
 30
0.0
 11
0.1427098861541404
 21
3.997453425418971
 31
0.0
210
0.0
220
0.0
230
1.0
 40
0.026581
 41
3.613115541637088
 42
4.176269702794325
  0
ELLIPSE
  5
215
330
1F
100
AcDbEntity
  8
1
100
AcDbEllipse
 10
295.781467
 20
180.5200669999999
 30
0.0
 11
-0.0704442143666289
 21
3.999379653479056
 31
0.0
210
0.0
220
0.0
230
1.0
 40
0.040852
 41
5.772221532542581
 42
6.230991396433621
  0
ELLIPSE
  5
216
330
1F
100
AcDbEntity
  8
1
100
AcDbEllipse
 10
299.245445
 20
198.3569169999999
 30
0.0
 11
-0.0704442143666289
 21
3.999379653479056
 31
0.0
210
0.0
220
0.0
230
1.0
 40
0.040852
 41
2.630628878952788
 42
3.193783040110001
  0
ELLIPSE
  5
217
330
1F
100
AcDbEntity
  8
1
100
AcDbEllipse
 10
298.9783
 20
180.576376
 30
0.0
 11
-0.0704442143666289
 21
3.999379653479056
 31
0.0
210
0.0
220
0.0
230
1.0
 40
0.040852
 41
5.772221532542581
 42
6.335375693699793
  0
ELLIPSE
  5
218
330
1F
100
AcDbEntity
  8
1
100
AcDbEllipse
 10
299.599918
 20
182.372425
 30
0.0
 11
-0.0704442143666289
 21
3.999379653479056
 31
0.0
210
0.0
220
0.0
230
1.0
 40
0.040852
 41
1.059832552157899
 42
1.62298671331511
  0
ELLIPSE
  5
219
330
1F
100
AcDbEntity
  8
1
100
AcDbEllipse
 10
299.111873
 20
189.466646
 30
0.0
 11
-0.0686831090074632
 21
3.899395162142081
 31
0.0
210
0.0
220
0.0
230
0.9999999999999998
 40
0.040852
 41
2.922264861487209
 42
5.688142480317202
  0
ELLIPSE
  5
21A
330
1F
100
AcDbEntity
  8
1
100
AcDbEllipse
 10
298.9783
 20
286.8522720000001
 30
0.0
 11
-0.1063903059633941
 21
3.998584887531714
 31
0.0
210
0.0
220
0.0
230
1.0
 40
0.035665
 41
2.041370280421554
 42
2.604524441578754
  0
ELLIPSE
  5
21B
330
1F
100
AcDbEntity
  8
1
100
AcDbEllipse
 10
293.776624
 20
199.339061
 30
0.0
 11
0.139142139000287
 21
3.897517089783498
 31
0.0
210
0.0
220
0.0
230
1.0
 40
0.026581
 41
1.118560058789106
 42
4.764476449710122
  0
ELLIPSE
  5
21C
330
1F
100
AcDbEntity
  8
1
100
AcDbEllipse
 10
295.781467
 20
222.853263
 30
0.0
 11
-0.176710406685031
 21
3.99609477267109
 31
0.0
210
0.0
220
0.0
230
1.0
 40
0.005187
 41
4.725269249124148
 42
5.288423410281478
  0
ELLIPSE
  5
21D
330
1F
100
AcDbEntity
  8
1
100
AcDbEllipse
 10
299.599918
 20
272.119571
 30
0.0
 11
-0.1063903059633941
 21
3.998584887531714
 31
0.0
210
0.0
220
0.0
230
1.0
 40
0.035665
 41
0.4705739536266593
 42
1.033728114783893
  0
ELLIPSE
  5
21E
330
1F
100
AcDbEntity
  8
1
100
AcDbEllipse
 10
296.403085
 20
272.034513
 30
0.0
 11
-0.1063903059633941
 21
3.998584887531714
 31
0.0
210
0.0
220
0.0
230
1.0
 40
0.035665
 41
0.4705739536266593
 42
1.033728114783891
  0
ELLIPSE
  5
21F
330
1F
100
AcDbEntity
  8
1
100
AcDbEllipse
 10
295.781467
 20
286.767214
 30
0.0
 11
-0.1063903059633941
 21
3.998584887531714
 31
0.0
210
0.0
220
0.0
230
1.0
 40
0.035665
 41
2.041370280421578
 42
2.604524441578794
  0
ELLIPSE
  5
220
330
1F
100
AcDbEntity
  8
1
100
AcDbEllipse
 10
298.842876
 20
244.640417
 30
0.0
 11
-767.1092164815446
 21
-40.91760649273256
 31
0.0
210
0.0
220
0.0
230
1.0
 40
0.059003
 41
1.563551864267869
 42
1.565516002722734
  0
ELLIPSE
  5
221
330
1F
100
AcDbEntity
  8
1
100
AcDbEllipse
 10
297.742846
 20
244.434018
 30
0.0
 11
-2.172106917778216
 21
-60.7999726178743
 31
0.0
210
0.0
220
0.0
230
1.0
 40
0.026573
 41
0.7266281617968648
 42
0.7318335007882255
  0
ELLIPSE
  5
222
330
1F
100
AcDbEntity
  8
1
100
AcDbEllipse
 10
295.040138
 20
244.431162
 30
0.0
 11
-2.172051293339149
 21
-60.79698725789185
 31
0.0
210
0.0
220
0.0
230
1.0
 40
0.026573
 41
0.7307269218783749
 42
0.7405863339833743
  0
ELLIPSE
  5
223
330
1F
100
AcDbEntity
  8
1
100
AcDbEllipse
 10
295.14565
 20
244.434018
 30
0.0
 11
-1.072711085212136
 21
60.79998418894358
 31
0.0
210
0.0
220
0.0
230
1.0
 40
0.04088
 41
2.933586011883091
 42
2.938791340621341
  0
ELLIPSE
  5
224
330
1F
100
AcDbEntity
  8
1
100
AcDbEllipse
 10
294.065227
 20
244.219973
 30
0.0
 11
-763.9936045910997
 21
12.69212204460548
 31
0.0
210
0.0
220
0.0
230
1.0
 40
0.077542
 41
1.574200681924466
 42
1.57617283830804
  0
ELLIPSE
  5
225
330
1F
100
AcDbEntity
  8
1
100
AcDbEllipse
 10
301.558849
 20
245.905888
 30
0.0
 11
-1433.908352673699
 21
-12.75696494257806
 31
0.0
210
0.0
220
0.0
230
1.0
 40
0.042507
 41
1.567370410742267
 42
1.568206550485965
  0
ELLIPSE
  5
226
330
1F
100
AcDbEntity
  8
1
100
AcDbEllipse
 10
297.848312
 20
244.435499
 30
0.0
 11
-1.072724474313555
 21
60.80146558998158
 31
0.0
210
0.0
220
0.0
230
1.0
 40
0.040879
 41
2.924851733295041
 42
2.93471071029237
  0
ELLIPSE
  5
227
330
1F
100
AcDbEntity
  8
1
100
AcDbEllipse
 10
297.742846
 20
244.434018
 30
0.0
 11
-0.3163060191752745
 21
-60.79999840458694
 31
0.0
210
0.0
220
0.0
230
1.0
 40
0.04422
 41
3.458136087726403
 42
3.666871530734016
  0
ELLIPSE
  5
228
330
1F
100
AcDbEntity
  8
1
100
AcDbEllipse
 10
298.839999
 20
244.229144
 30
0.0
 11
-766.7266570090678
 21
-18.93101339999263
 31
0.0
210
0.0
220
0.0
230
0.9999999999999998
 40
0.075638
 41
4.712651869887383
 42
4.712671245075306
  0
ELLIPSE
  5
229
330
1F
100
AcDbEntity
  8
1
100
AcDbEllipse
 10
293.910196
 20
256.546171
 30
0.0
 11
0.1634331262529377
 21
3.996659807044276
 31
0.0
210
0.0
220
0.0
230
1.0
 40
0.017596
 41
4.202144763196082
 42
4.765298924353262
  0
ELLIPSE
  5
22A
330
1F
100
AcDbEntity
  8
1
100
AcDbEllipse
 10
293.288579
 20
240.571263
 30
0.0
 11
0.1634331262529377
 21
3.996659807044276
 31
0.0
210
0.0
220
0.0
230
1.0
 40
0.017596
 41
5.772941089990978
 42
6.318631262136027
  0
ELLIPSE
  5
22B
330
1F
100
AcDbEntity
  8
1
100
AcDbEllipse
 10
297.107029
 20
256.415445
 30
0.0
 11
0.1634331262529377
 21
3.996659807044276
 31
0.0
210
0.0
220
0.0
230
1.0
 40
0.017596
 41
4.202144763196082
 42
4.765298924353262
  0
ELLIPSE
  5
22C
330
1F
100
AcDbEntity
  8
1
100
AcDbEllipse
 10
296.485412
 20
240.440537
 30
0.0
 11
0.1634331262529377
 21
3.996659807044276
 31
0.0
210
0.0
220
0.0
230
1.0
 40
0.017596
 41
5.772941089990978
 42
6.336095251148142
  0
ELLIPSE
  5
22D
330
1F
100
AcDbEntity
  8
1
100
AcDbEllipse
 10
299.245445
 20
219.594636
 30
0.0
 11
-0.176710406685031
 21
3.99609477267109
 31
0.0
210
0.0
220
0.0
230
1.0
 40
0.005187
 41
1.583676595534356
 42
2.146830756691499
  0
ELLIPSE
  5
22E
330
1F
100
AcDbEntity
  8
1
100
AcDbEllipse
 10
298.9783
 20
222.994629
 30
0.0
 11
-0.176710406685031
 21
3.99609477267109
 31
0.0
210
0.0
220
0.0
230
1.0
 40
0.005187
 41
4.725269249124144
 42
5.28842341028129
  0
ELLIPSE
  5
22F
330
1F
100
AcDbEntity
  8
1
100
AcDbEllipse
 10
299.599918
 20
210.057978
 30
0.0
 11
-0.176710406685031
 21
3.99609477267109
 31
0.0
210
0.0
220
0.0
230
1.0
 40
0.005187
 41
0.0128802687392499
 42
0.5760344298966963
  0
ELLIPSE
  5
230
330
1F
100
AcDbEntity
  8
1
100
AcDbEllipse
 10
299.111873
 20
221.294633
 30
0.0
 11
-0.1722926465179052
 21
3.896192403354313
 31
0.0
210
0.0
220
0.0
230
1.0
 40
0.005187
 41
0.0
 42
6.283185307179585
  0
ELLIPSE
  5
231
330
1F
100
AcDbEntity
  8
1
100
AcDbEllipse
 10
293.288579
 20
192.61848
 30
0.0
 11
-0.0207686355282351
 21
3.999946082608901
 31
0.0
210
0.0
220
0.0
230
1.0
 40
0.044177
 41
4.623895981817983
 42
4.699279334516311
  0
ELLIPSE
  5
232
330
1F
100
AcDbEntity
  8
1
100
AcDbEllipse
 10
293.288579
 20
192.61848
 30
0.0
 11
-0.0207686355282351
 21
3.999946082608901
 31
0.0
210
0.0
220
0.0
230
1.0
 40
0.044177
 41
4.447901391208718
 42
4.564835162287822
  0
ELLIPSE
  5
233
330
1F
100
AcDbEntity
  8
1
100
AcDbEllipse
 10
293.288579
 20
192.61848
 30
0.0
 11
-0.0207686355282351
 21
3.999946082608901
 31
0.0
210
0.0
220
0.0
230
1.0
 40
0.044177
 41
4.136125173359092
 42
4.157832990358128
  0
ELLIPSE
  5
234
330
1F
100
AcDbEntity
  8
1
100
AcDbEllipse
 10
293.643051
 20
205.569788
 30
0.0
 11
-0.0207686355282351
 21
3.999946082608901
 31
0.0
210
0.0
220
0.0
230
1.0
 40
0.044177
 41
2.56532884656423
 42
3.128483007721391
  0
ELLIPSE
  5
235
330
1F
100
AcDbEntity
  8
1
100
AcDbEllipse
 10
295.14565
 20
244.434019
 30
0.0
 11
-2.688695378696309
 21
60.79999847352774
 31
0.0
210
0.0
220
0.0
230
1.0
 40
0.005182
 41
1.886880551001341
 42
1.892085895315871
  0
ELLIPSE
  5
236
330
1F
100
AcDbEntity
  8
1
100
AcDbEllipse
 10
294.050923
 20
244.478033
 30
0.0
 11
-766.2574741500149
 21
57.92549956801073
 31
0.0
210
0.0
220
0.0
230
1.0
 40
0.024439
 41
1.574772377799487
 42
1.576738705877161
  0
ELLIPSE
  5
237
330
1F
100
AcDbEntity
  8
1
100
AcDbEllipse
 10
297.847916
 20
244.448564
 30
0.0
 11
-2.689768422859271
 21
60.8258881936601
 31
0.0
210
0.0
220
0.0
230
0.9999999999999998
 40
0.005184
 41
1.87825928619467
 42
1.888114551959083
  0
ELLIPSE
  5
238
330
1F
100
AcDbEntity
  8
1
100
AcDbEllipse
 10
298.85022
 20
244.338301
 30
0.0
 11
-768.3074517369158
 21
-59.7158660956749
 31
0.0
210
0.0
220
0.0
230
0.9999999999999998
 40
0.016478
 41
4.713247632375858
 42
4.714907597442248
  0
ELLIPSE
  5
239
330
1F
100
AcDbEntity
  8
1
100
AcDbEllipse
 10
297.742846
 20
244.434018
 30
0.0
 11
-2.487029325257613
 21
-60.7999843152316
 31
0.0
210
0.0
220
0.0
230
0.9999999999999996
 40
0.017584
 41
4.505822881270698
 42
4.714558324154938
  0
ELLIPSE
  5
23A
330
1F
100
AcDbEntity
  8
1
100
AcDbEllipse
 10
295.040261
 20
244.43185
 30
0.0
 11
-2.487212665637249
 21
-60.80537673572766
 31
0.0
210
0.0
220
0.0
230
1.0
 40
0.017586
 41
4.497068970002701
 42
4.506489466871198
  0
ELLIPSE
  5
23B
330
1F
100
AcDbEntity
  8
1
100
AcDbEllipse
 10
299.245445
 20
223.196299
 30
0.0
 11
0.106390305963394
 21
3.998584887531714
 31
0.0
210
0.0
220
0.0
230
1.0
 40
0.035665
 41
3.678660865600792
 42
4.241815026758035
  0
ELLIPSE
  5
23C
330
1F
100
AcDbEntity
  8
1
100
AcDbEllipse
 10
299.599918
 20
216.748466
 30
0.0
 11
0.106390305963394
 21
3.998584887531714
 31
0.0
210
0.0
220
0.0
230
1.0
 40
0.035665
 41
2.107864538805901
 42
2.359242302911464
  0
ELLIPSE
  5
23D
330
1F
100
AcDbEntity
  8
1
100
AcDbEllipse
 10
299.599918
 20
216.748466
 30
0.0
 11
0.106390305963394
 21
3.998584887531714
 31
0.0
210
0.0
220
0.0
230
1.0
 40
0.035665
 41
2.569862281593549
 42
2.671018699963088
  0
ELLIPSE
  5
23E
330
1F
100
AcDbEntity
  8
1
100
AcDbEllipse
 10
299.111873
 20
212.606032
 30
0.0
 11
0.1037305483143092
 21
3.898620265343422
 31
0.0
210
0.0
220
0.0
230
0.9999999999999996
 40
0.035665
 41
3.968136432693665
 42
4.905803709658653
  0
ELLIPSE
  5
23F
330
1F
100
AcDbEntity
  8
1
100
AcDbEllipse
 10
299.599918
 20
306.495611
 30
0.0
 11
0.0704442143666346
 21
3.999379653479056
 31
0.0
210
0.0
220
0.0
230
1.0
 40
0.040852
 41
1.524502825994463
 42
2.081760101431909
  0
ELLIPSE
  5
240
330
1F
100
AcDbEntity
  8
1
100
AcDbEllipse
 10
299.245445
 20
290.51112
 30
0.0
 11
0.0704442143666346
 21
3.999379653479056
 31
0.0
210
0.0
220
0.0
230
1.0
 40
0.040852
 41
0.0521939107457685
 42
0.5109637746369798
  0
ELLIPSE
  5
241
330
1F
100
AcDbEntity
  8
1
100
AcDbEllipse
 10
296.403085
 20
306.55192
 30
0.0
 11
0.0704442143666346
 21
3.999379653479056
 31
0.0
210
0.0
220
0.0
230
1.0
 40
0.040852
 41
1.524502825994465
 42
2.081760101431928
  0
SPLINE
  5
244
330
1F
100
AcDbEntity
  8
1
100
AcDbSpline
210
0.0
220
0.0
230
1.0
 70
    24
 71
     3
 72
    26
 73
    22
 74
     0
 42
0.000000001
 43
0.0000000001
 40
0.0
 40
0.0
 40
0.0
 40
0.0
 40
0.1514836079046781
 40
0.1514836079046781
 40
0.189354509880843
 40
0.189354509880843
 40
0.227225411857008
 40
0.227225411857008
 40
0.3029672158093447
 40
0.3029672158093447
 40
0.4544508237140262
 40
0.6059344316187075
 40
0.6059344316187075
 40
0.6438053335948797
 40
0.6438053335948797
 40
0.6816762355710516
 40
0.6816762355710516
 40
0.7574180395233899
 40
0.7574180395233899
 40
0.908901647428066
 40
1.0
 40
1.0
 40
1.0
 40
1.0
 10
299.1442482849925
 20
210.4207604513218
 30
0.0
 10
299.1442482849925
 20
210.5621517765199
 30
0.0
 10
299.1442482849925
 20
210.7061375845737
 30
0.0
 10
299.1442482849925
 20
210.8893350080514
 30
0.0
 10
299.1442482849925
 20
210.9261357446251
 30
0.0
 10
299.1442482849925
 20
211.0000610002024
 30
0.0
 10
299.1442482849924
 20
211.0372214954076
 30
0.0
 10
299.1442482849925
 20
211.1489350485966
 30
0.0
 10
299.1442482849925
 20
211.223520394756
 30
0.0
 10
299.1442482849925
 20
211.4475978439899
 30
0.0
 10
299.1442482849924
 20
211.7472228715897
 30
0.0
 10
299.1442482849925
 20
212.0485295069542
 30
0.0
 10
299.1442482849925
 20
212.2373831619398
 30
0.0
 10
299.1442482849925
 20
212.2751808252751
 30
0.0
 10
299.1442482849925
 20
212.3508306429414
 30
0.0
 10
299.1442482849925
 20
212.3887434766712
 30
0.0
 10
299.1442482849925
 20
212.5020560556191
 30
0.0
 10
299.1442482849924
 20
212.5769718181201
 30
0.0
 10
299.1442482849924
 20
212.7998833455824
 30
0.0
 10
299.1442482849924
 20
213.0339493451544
 30
0.0
 10
299.1442482849924
 20
213.2618525409335
 30
0.0
 10
299.1442482849924
 20
213.3465574513288
 30
0.0
  0
SPLINE
  5
245
330
1F
100
AcDbEntity
  8
1
100
AcDbSpline
210
0.0
220
0.0
230
1.0
 70
    24
 71
     3
 72
    30
 73
    26
 74
     0
 42
0.000000001
 43
0.0000000001
 40
0.0
 40
0.0
 40
0.0
 40
0.0
 40
0.023322936462652
 40
0.023322936462652
 40
0.062390019004143
 40
0.062390019004143
 40
0.2186583491701099
 40
0.2186583491701099
 40
0.296792514253097
 40
0.296792514253097
 40
0.3358595967945942
 40
0.3358595967945942
 40
0.3749266793360913
 40
0.3749266793360913
 40
0.5311950095020772
 40
0.5311950095020772
 40
0.6874633396680629
 40
0.6874633396680629
 40
0.7265304222095552
 40
0.7265304222095552
 40
0.7655975047510469
 40
0.7655975047510469
 40
0.8437316698340314
 40
0.8437316698340314
 40
1.0
 40
1.0
 40
1.0
 40
1.0
 10
293.7442482849925
 20
213.9186814512931
 30
0.0
 10
293.7442482849925
 20
213.8940861791042
 30
0.0
 10
293.7442482849925
 20
213.8693638796034
 30
0.0
 10
293.7442482849925
 20
213.8029889421762
 30
0.0
 10
293.7442482849925
 20
213.7611215335561
 30
0.0
 10
293.7442482849925
 20
213.5502785178257
 30
0.0
 10
293.7442482849925
 20
213.3768075002257
 30
0.0
 10
293.7442482849925
 20
213.1094998653519
 30
0.0
 10
293.7442482849925
 20
213.0192093774073
 30
0.0
 10
293.7442482849925
 20
212.8819630042441
 30
0.0
 10
293.7442482849925
 20
212.8359121543183
 30
0.0
 10
293.7442482849925
 20
212.7431979590372
 30
0.0
 10
293.7442482849925
 20
212.6964393863067
 30
0.0
 10
293.7442482849925
 20
212.4625821951962
 30
0.0
 10
293.7442482849925
 20
212.2751116432779
 30
0.0
 10
293.7442482849925
 20
211.8994284225024
 30
0.0
 10
293.7442482849925
 20
211.7112157072264
 30
0.0
 10
293.7442482849925
 20
211.4754746461878
 30
0.0
 10
293.7442482849925
 20
211.4283025628536
 30
0.0
 10
293.7442482849925
 20
211.3339099019381
 30
0.0
 10
293.7442482849925
 20
211.2868024269869
 30
0.0
 10
293.7442482849925
 20
211.1463191343024
 30
0.0
 10
293.7442482849925
 20
211.0535470487592
 30
0.0
 10
293.7442482849925
 20
210.7778491510332
 30
0.0
 10
293.7442482849924
 20
210.5975282851758
 30
0.0
 10
293.7442482849924
 20
210.420760451322
 30
0.0
  0
SPLINE
  5
246
330
1F
100
AcDbEntity
  8
1
100
AcDbSpline
210
0.0
220
0.0
230
1.0
 70
     8
 71
     3
 72
    22
 73
    18
 74
     0
 42
0.000000001
 43
0.0000000001
 40
0.0
 40
0.0
 40
0.0
 40
0.0
 40
0.1249999999999917
 40
0.1249999999999917
 40
0.1874999999999875
 40
0.1874999999999875
 40
0.2499999999999833
 40
0.2499999999999833
 40
0.3749999999999861
 40
0.3749999999999861
 40
0.4999999999999889
 40
0.6249999999999917
 40
0.7499999999999945
 40
0.7499999999999945
 40
0.8749999999999971
 40
0.8749999999999971
 40
1.0
 40
1.0
 40
1.0
 40
1.0
 10
297.7767120968743
 20
265.1410748624382
 30
0.0
 10
297.7741382385897
 20
265.1597503234823
 30
0.0
 10
297.7716360592952
 20
265.180913378074
 30
0.0
 10
297.7678752263865
 20
265.2164634507643
 30
0.0
 10
297.7666162229062
 20
265.2289744363158
 30
0.0
 10
297.7640688488871
 20
265.255116969897
 30
0.0
 10
297.7627798921341
 20
265.2687510753963
 30
0.0
 10
297.7587916754507
 20
265.311315021303
 30
0.0
 10
297.7559100045506
 20
265.3419027455676
 30
0.0
 10
297.7496990386967
 20
265.4074228991655
 30
0.0
 10
297.7431776972462
 20
265.4772916740093
 30
0.0
 10
297.7335289900072
 20
265.5951331512508
 30
0.0
 10
297.7275045686095
 20
265.6825025232066
 30
0.0
 10
297.7216397205041
 20
265.7743995115244
 30
0.0
 10
297.7188076042974
 20
265.8222889924764
 30
0.0
 10
297.7130953062899
 20
265.9217030982236
 30
0.0
 10
297.7102128810886
 20
265.9732618929109
 30
0.0
 10
297.7070732505371
 20
266.0266805683513
 30
0.0
  0
SPLINE
  5
247
330
1F
100
AcDbEntity
  8
1
100
AcDbSpline
210
0.0
220
0.0
230
1.0
 70
    24
 71
     3
 72
    32
 73
    28
 74
     0
 42
0.000000001
 43
0.0000000001
 40
0.0
 40
0.0
 40
0.0
 40
0.0
 40
0.1250000000000186
 40
0.1250000000000186
 40
0.1562500000000245
 40
0.1562500000000245
 40
0.1875000000000303
 40
0.1875000000000303
 40
0.2500000000000365
 40
0.2500000000000365
 40
0.3750000000000448
 40
0.5000000000000532
 40
0.5000000000000532
 40
0.531250000000052
 40
0.531250000000052
 40
0.5625000000000508
 40
0.5625000000000508
 40
0.625000000000044
 40
0.625000000000044
 40
0.7500000000000286
 40
0.8750000000000131
 40
0.8750000000000131
 40
0.9062500000000104
 40
0.9062500000000104
 40
0.9375000000000079
 40
0.9375000000000079
 40
1.0
 40
1.0
 40
1.0
 40
1.0
 10
299.1442482849925
 20
263.2069431979065
 30
0.0
 10
299.1442482849925
 20
263.2280799073386
 30
0.0
 10
299.1442482849925
 20
263.2577397190279
 30
0.0
 10
299.1442482849925
 20
263.3053765756032
 30
0.0
 10
299.1442482849925
 20
263.3154336733892
 30
0.0
 10
299.1442482849925
 20
263.3366115224564
 30
0.0
 10
299.1442482849925
 20
263.3477436356524
 30
0.0
 10
299.1442482849925
 20
263.382664771933
 30
0.0
 10
299.1442482849925
 20
263.407910633607
 30
0.0
 10
299.1442482849925
 20
263.4894087291732
 30
0.0
 10
299.1442482849925
 20
263.6133983718028
 30
0.0
 10
299.1442482849925
 20
263.7675267670818
 30
0.0
 10
299.1442482849925
 20
263.8734815818129
 30
0.0
 10
299.1442482849925
 20
263.8951552417926
 30
0.0
 10
299.1442482849925
 20
263.9394791810774
 30
0.0
 10
299.1442482849925
 20
263.9621669372288
 30
0.0
 10
299.1442482849925
 20
264.0314026082844
 30
0.0
 10
299.1442482849925
 20
264.0790784646996
 30
0.0
 10
299.1442482849925
 20
264.2265600898499
 30
0.0
 10
299.1442482849924
 20
264.4350521026368
 30
0.0
 10
299.1442482849925
 20
264.6668675423124
 30
0.0
 10
299.1442482849925
 20
264.8192068000467
 30
0.0
 10
299.1442482849925
 20
264.8500485215654
 30
0.0
 10
299.1442482849925
 20
264.9124885701024
 30
0.0
 10
299.1442482849925
 20
264.9441366752668
 30
0.0
 10
299.1442482849925
 20
265.0397002492742
 30
0.0
 10
299.1442482849925
 20
265.1043113936663
 30
0.0
 10
299.1442482849925
 20
265.1698048348412
 30
0.0
  0
SPLINE
  5
248
330
1F
100
AcDbEntity
  8
1
100
AcDbSpline
210
0.0
220
0.0
230
1.0
 70
    24
 71
     3
 72
    60
 73
    56
 74
     0
 42
0.000000001
 43
0.0000000001
 40
0.0
 40
0.0
 40
0.0
 40
0.0
 40
0.0625000000000083
 40
0.0625000000000083
 40
0.1250000000000167
 40
0.1250000000000167
 40
0.1406250000000179
 40
0.1406250000000179
 40
0.1562500000000191
 40
0.1562500000000191
 40
0.1875000000000195
 40
0.1875000000000195
 40
0.2500000000000202
 40
0.2500000000000202
 40
0.2812500000000199
 40
0.2812500000000199
 40
0.2968750000000196
 40
0.2968750000000196
 40
0.3125000000000192
 40
0.3125000000000192
 40
0.3750000000000195
 40
0.4375000000000198
 40
0.4375000000000198
 40
0.4531250000000203
 40
0.4531250000000203
 40
0.4687500000000206
 40
0.5000000000000201
 40
0.5000000000000201
 40
0.5625000000000194
 40
0.5625000000000194
 40
0.5937500000000191
 40
0.5937500000000191
 40
0.6093750000000182
 40
0.6093750000000182
 40
0.6250000000000176
 40
0.6250000000000176
 40
0.6875000000000142
 40
0.6875000000000142
 40
0.7187500000000117
 40
0.7187500000000117
 40
0.7343750000000109
 40
0.7343750000000109
 40
0.75000000000001
 40
0.75000000000001
 40
0.812500000000006
 40
0.812500000000006
 40
0.8750000000000019
 40
0.8750000000000019
 40
0.8906250000000021
 40
0.8906250000000021
 40
0.9062500000000024
 40
0.9062500000000024
 40
0.9375000000000007
 40
0.9375000000000007
 40
1.0
 40
1.0
 40
1.0
 40
1.0
 10
293.7442482849925
 20
270.1367349726247
 30
0.0
 10
293.7442482849925
 20
270.0090828037679
 30
0.0
 10
293.7442482849925
 20
269.8729073880455
 30
0.0
 10
293.7442482849925
 20
269.5842095042885
 30
0.0
 10
293.7442482849925
 20
269.4316850936313
 30
0.0
 10
293.7442482849925
 20
269.2306196340974
 30
0.0
 10
293.7442482849925
 20
269.1898835956417
 30
0.0
 10
293.7442482849925
 20
269.1073507151183
 30
0.0
 10
293.7442482849925
 20
269.0654805637922
 30
0.0
 10
293.7442482849925
 20
268.9391899292127
 30
0.0
 10
293.7442482849925
 20
268.8538828085372
 30
0.0
 10
293.7442482849925
 20
268.5947033879938
 30
0.0
 10
293.7442482849925
 20
268.417588809298
 30
0.0
 10
293.7442482849925
 20
268.1454522871471
 30
0.0
 10
293.7442482849925
 20
268.0536587064618
 30
0.0
 10
293.7442482849925
 20
267.91431271844
 30
0.0
 10
293.7442482849925
 20
267.86758785488
 30
0.0
 10
293.7442482849925
 20
267.7735767783559
 30
0.0
 10
293.7442482849925
 20
267.7265008942911
 30
0.0
 10
293.7442482849925
 20
267.4913267826566
 30
0.0
 10
293.7442482849925
 20
267.1152167064014
 30
0.0
 10
293.7442482849925
 20
266.7394345526733
 30
0.0
 10
293.7442482849925
 20
266.5046766234392
 30
0.0
 10
293.7442482849925
 20
266.4576389220111
 30
0.0
 10
293.7442482849925
 20
266.3642103941015
 30
0.0
 10
293.7442482849925
 20
266.2249368408127
 30
0.0
 10
293.7442482849925
 20
266.0882294261613
 30
0.0
 10
293.7442482849925
 20
265.8181760346978
 30
0.0
 10
293.7442482849925
 20
265.6426057675922
 30
0.0
 10
293.7442482849925
 20
265.3860150371016
 30
0.0
 10
293.7442482849925
 20
265.3016163395209
 30
0.0
 10
293.7442482849925
 20
265.1767634929613
 30
0.0
 10
293.7442482849925
 20
265.1355743083456
 30
0.0
 10
293.7442482849925
 20
265.0543766629128
 30
0.0
 10
293.7442482849925
 20
265.0143154052379
 30
0.0
 10
293.7442482849925
 20
264.8166628058852
 30
0.0
 10
293.7442482849925
 20
264.6669928707659
 30
0.0
 10
293.7442482849925
 20
264.4550009004124
 30
0.0
 10
293.7442482849925
 20
264.3864301961885
 30
0.0
 10
293.7442482849925
 20
264.2867646884077
 30
0.0
 10
293.7442482849925
 20
264.2540751133567
 30
0.0
 10
293.7442482849925
 20
264.1897752474098
 30
0.0
 10
293.7442482849925
 20
264.1581031331239
 30
0.0
 10
293.7442482849925
 20
264.003465540979
 30
0.0
 10
293.7442482849925
 20
263.8914254131773
 30
0.0
 10
293.7442482849925
 20
263.689851619034
 30
0.0
 10
293.7442482849925
 20
263.6003193604582
 30
0.0
 10
293.7442482849925
 20
263.5028146050913
 30
0.0
 10
293.7442482849925
 20
263.484037602712
 30
0.0
 10
293.7442482849925
 20
263.4479543013486
 30
0.0
 10
293.7442482849925
 20
263.4306932834552
 30
0.0
 10
293.7442482849925
 20
263.3814462328662
 30
0.0
 10
293.7442482849925
 20
263.3519026786895
 30
0.0
 10
293.7442482849925
 20
263.273016476166
 30
0.0
 10
293.7442482849924
 20
263.233368371699
 30
0.0
 10
293.7442482849924
 20
263.2069431979066
 30
0.0
  0
SPLINE
  5
249
330
1F
100
AcDbEntity
  8
1
100
AcDbSpline
210
0.0
220
0.0
230
1.0
 70
     8
 71
     3
 72
    40
 73
    36
 74
     0
 42
0.000000001
 43
0.0000000001
 40
0.0
 40
0.0
 40
0.0
 40
0.0
 40
0.0624999999999973
 40
0.1249999999999945
 40
0.1874999999999918
 40
0.1874999999999918
 40
0.2187499999999911
 40
0.2187499999999911
 40
0.2499999999999906
 40
0.2499999999999906
 40
0.3124999999999926
 40
0.3749999999999946
 40
0.4374999999999967
 40
0.4374999999999967
 40
0.4687499999999972
 40
0.4687499999999972
 40
0.4999999999999976
 40
0.4999999999999976
 40
0.5624999999999964
 40
0.6249999999999952
 40
0.687499999999994
 40
0.687499999999994
 40
0.7187499999999945
 40
0.7187499999999945
 40
0.7499999999999949
 40
0.7499999999999949
 40
0.8124999999999959
 40
0.8749999999999968
 40
0.8749999999999968
 40
0.9062499999999987
 40
0.921875
 40
0.921875
 40
0.9375000000000007
 40
0.9375000000000007
 40
1.0
 40
1.0
 40
1.0
 40
1.0
 10
296.1752869316225
 20
270.1367349726247
 30
0.0
 10
296.1742287659317
 20
270.0554113597515
 30
0.0
 10
296.1726105685212
 20
269.8858233823311
 30
0.0
 10
296.1716284449404
 20
269.6113050989172
 30
0.0
 10
296.1719285710217
 20
269.4149881534677
 30
0.0
 10
296.1725172804993
 20
269.262684014488
 30
0.0
 10
296.1727742107972
 20
269.2110702907833
 30
0.0
 10
296.1734115381714
 20
269.1061225185214
 30
0.0
 10
296.1737929623266
 20
269.0526915420599
 30
0.0
 10
296.1751121791939
 20
268.8913733426784
 30
0.0
 10
296.1773405844543
 20
268.6726828293929
 30
0.0
 10
296.1820540608714
 20
268.3341356995533
 30
0.0
 10
296.186107928298
 20
268.101448154852
 30
0.0
 10
296.1894976586188
 20
267.9242539530017
 30
0.0
 10
296.1906867382923
 20
267.8647009980936
 30
0.0
 10
296.1931803601217
 20
267.7448531819635
 30
0.0
 10
296.1944769294698
 20
267.6849381398401
 30
0.0
 10
296.198512997577
 20
267.5052190918597
 30
0.0
 10
296.2042841091762
 20
267.2656631289395
 30
0.0
 10
296.2140861012678
 20
266.9065332581485
 30
0.0
 10
296.221387112754
 20
266.6672498923033
 30
0.0
 10
296.2271584929909
 20
266.4878400416859
 30
0.0
 10
296.2291344049715
 20
266.42797120778
 30
0.0
 10
296.2331455880552
 20
266.3094536106655
 30
0.0
 10
296.235185325696
 20
266.2506616283449
 30
0.0
 10
296.2414053125503
 20
266.0756633763225
 30
0.0
 10
296.2499669529542
 20
265.8460006778539
 30
0.0
 10
296.2590576929171
 20
265.6235713756619
 30
0.0
 10
296.2660761789837
 20
265.4594895213779
 30
0.0
 10
296.2696356048931
 20
265.378134651563
 30
0.0
 10
296.2732713913748
 20
265.2978237181301
 30
0.0
 10
296.2757123907726
 20
265.2445174430839
 30
0.0
 10
296.276942765577
 20
265.2179536469943
 30
0.0
 10
296.2831222911831
 20
265.0860605545454
 30
0.0
 10
296.2881273616925
 20
264.9840644604246
 30
0.0
 10
296.2931919163711
 20
264.8854741892125
 30
0.0
  0
SPLINE
  5
24A
330
1F
100
AcDbEntity
  8
1
100
AcDbSpline
210
0.0
220
0.0
230
1.0
 70
     8
 71
     3
 72
     8
 73
     4
 74
     0
 42
0.000000001
 43
0.0000000001
 40
0.0
 40
0.0
 40
0.0
 40
0.0
 40
1.0
 40
1.0
 40
1.0
 40
1.0
 10
298.9820324855381
 20
265.1665056053871
 30
0.0
 10
299.0361044342472
 20
265.1676044721075
 30
0.0
 10
299.0901763673974
 20
265.1687042155395
 30
0.0
 10
299.1442482849925
 20
265.1698048348412
 30
0.0
  0
SPLINE
  5
24B
330
1F
100
AcDbEntity
  8
1
100
AcDbSpline
210
0.0
220
0.0
230
1.0
 70
     8
 71
     3
 72
     8
 73
     4
 74
     0
 42
0.000000001
 43
0.0000000001
 40
0.0
 40
0.0
 40
0.0
 40
0.0
 40
1.0
 40
1.0
 40
1.0
 40
1.0
 10
298.9820324855381
 20
265.1665056053874
 30
0.0
 10
298.580259750962
 20
265.1579847806502
 30
0.0
 10
298.1784862860727
 20
265.1495078541706
 30
0.0
 10
297.7767120968743
 20
265.1410748624382
 30
0.0
  0
SPLINE
  5
24C
330
1F
100
AcDbEntity
  8
1
100
AcDbSpline
210
0.0
220
0.0
230
1.0
 70
     8
 71
     3
 72
     8
 73
     4
 74
     0
 42
0.000000001
 43
0.0000000001
 40
0.0
 40
0.0
 40
0.0
 40
0.0
 40
1.0
 40
1.0
 40
1.0
 40
1.0
 10
297.7767120968743
 20
265.1410748624382
 30
0.0
 10
297.281806227905
 20
265.0555304273122
 30
0.0
 10
296.7872868691527
 20
264.9702218013013
 30
0.0
 10
296.2931919163711
 20
264.8854741892125
 30
0.0
  0
SPLINE
  5
24D
330
1F
100
AcDbEntity
  8
1
100
AcDbSpline
210
0.0
220
0.0
230
1.0
 70
     8
 71
     3
 72
    22
 73
    18
 74
     0
 42
0.000000001
 43
0.0000000001
 40
0.0
 40
0.0
 40
0.0
 40
0.0
 40
0.1250000000000048
 40
0.1250000000000048
 40
0.1875000000000077
 40
0.1875000000000077
 40
0.2500000000000107
 40
0.2500000000000107
 40
0.3750000000000089
 40
0.3750000000000089
 40
0.5000000000000071
 40
0.6250000000000054
 40
0.7500000000000036
 40
0.7500000000000036
 40
0.8750000000000017
 40
0.8750000000000017
 40
1.0
 40
1.0
 40
1.0
 40
1.0
 10
295.1117844731104
 20
238.7554424685474
 30
0.0
 10
295.1143583313951
 20
238.8059728933817
 30
0.0
 10
295.1168605106897
 20
238.8583993767351
 30
0.0
 10
295.1206213435984
 20
238.9399374959696
 30
0.0
 10
295.1218803470787
 20
238.9676549366628
 30
0.0
 10
295.1244277210978
 20
239.023714904716
 30
0.0
 10
295.1257166778508
 20
239.0520677701952
 30
0.0
 10
295.1297048945344
 20
239.1380777185654
 30
0.0
 10
295.1325865654343
 20
239.1966825062065
 30
0.0
 10
295.1387975312883
 20
239.3163764127445
 30
0.0
 10
295.1453188727388
 20
239.438560262118
 30
0.0
 10
295.1549675799776
 20
239.6293276063187
 30
0.0
 10
295.1609920013754
 20
239.7615747594546
 30
0.0
 10
295.1668568494808
 20
239.8964261709175
 30
0.0
 10
295.1696889656875
 20
239.9646770335038
 30
0.0
 10
295.1754012636951
 20
240.1024987601166
 30
0.0
 10
295.1782836888963
 20
240.1721198432295
 30
0.0
 10
295.1814233194479
 20
240.2424477508272
 30
0.0
  0
SPLINE
  5
24E
330
1F
100
AcDbEntity
  8
1
100
AcDbSpline
210
0.0
220
0.0
230
1.0
 70
    12
 71
     2
 72
     6
 73
     3
 74
     0
 42
0.000000001
 43
0.0000000001
 40
0.0
 40
0.0
 40
0.0
 40
1.0
 40
1.0
 40
1.0
 10
299.144248284992
 20
285.4389443351463
 30
0.0
 41
0.5000001314846552
 10
298.7528414656957
 20
285.4263289899263
 30
0.0
 41
0.499999868515345
 10
298.3614328922682
 20
285.413707170222
 30
0.0
 41
0.5000001314846552
  0
SPLINE
  5
24F
330
1F
100
AcDbEntity
  8
1
100
AcDbSpline
210
0.0
220
0.0
230
1.0
 70
     8
 71
     3
 72
    41
 73
    37
 74
     0
 42
0.000000001
 43
0.0000000001
 40
0.0
 40
0.0
 40
0.0
 40
0.0
 40
0.0625000000000026
 40
0.1250000000000052
 40
0.1250000000000052
 40
0.1562500000000064
 40
0.1562500000000064
 40
0.1875000000000075
 40
0.1875000000000075
 40
0.2500000000000097
 40
0.3125000000000118
 40
0.3750000000000138
 40
0.3750000000000138
 40
0.406250000000015
 40
0.406250000000015
 40
0.4375000000000164
 40
0.4375000000000164
 40
0.5000000000000186
 40
0.562500000000021
 40
0.562500000000021
 40
0.5937500000000209
 40
0.6093750000000209
 40
0.6093750000000209
 40
0.6250000000000209
 40
0.6250000000000209
 40
0.6875000000000206
 40
0.7500000000000204
 40
0.81250000000002
 40
0.81250000000002
 40
0.8437500000000184
 40
0.8437500000000184
 40
0.8593750000000159
 40
0.8593750000000159
 40
0.8750000000000135
 40
0.9375000000000067
 40
1.0
 40
1.0
 40
1.0
 40
1.0
 10
296.5953046536139
 20
238.4524481774213
 30
0.0
 10
296.6003602148597
 20
238.5718101085831
 30
0.0
 10
296.6102947750918
 20
238.8108536952038
 30
0.0
 10
296.6198770906531
 20
239.0505351371635
 30
0.0
 10
296.6269288026915
 20
239.2305407253351
 30
0.0
 10
296.6292588531975
 20
239.2906360488745
 30
0.0
 10
296.633864457287
 20
239.4106885466351
 30
0.0
 10
296.6361264607071
 20
239.4702913551411
 30
0.0
 10
296.6427924530056
 20
239.6478541393843
 30
0.0
 10
296.6513608909288
 20
239.8812879571311
 30
0.0
 10
296.6632741900036
 20
240.2216892859103
 30
0.0
 10
296.6705877585773
 20
240.4420990776727
 30
0.0
 10
296.675830406618
 20
240.6048892701691
 30
0.0
 10
296.6775391170228
 20
240.6587899410047
 30
0.0
 10
296.6808408563215
 20
240.7646613572111
 30
0.0
 10
296.6824382560365
 20
240.8167655743838
 30
0.0
 10
296.6870726398198
 20
240.9706240983012
 30
0.0
 10
296.6928316119618
 20
241.1692343270079
 30
0.0
 10
296.697761890292
 20
241.3549578485091
 30
0.0
 10
296.7011456449004
 20
241.4893683063586
 30
0.0
 10
296.7027589161365
 20
241.5553511617514
 30
0.0
 10
296.7042525715585
 20
241.6194739164009
 30
0.0
 10
296.705221489449
 20
241.6618048480249
 30
0.0
 10
296.7056930244154
 20
241.682784327901
 30
0.0
 10
296.7079767293963
 20
241.7863482325979
 30
0.0
 10
296.7111421160618
 20
241.9427697372967
 30
0.0
 10
296.7144710140351
 20
242.1504420151483
 30
0.0
 10
296.715751431231
 20
242.2710550493364
 30
0.0
 10
296.7163537979411
 20
242.3547149771926
 30
0.0
 10
296.7164948391705
 20
242.3814666025859
 30
0.0
 10
296.7166151877285
 20
242.4198612761284
 30
0.0
 10
296.7166400989551
 20
242.4323823486087
 30
0.0
 10
296.7166591368484
 20
242.4567792907519
 30
0.0
 10
296.7166298001574
 20
242.5161214723898
 30
0.0
 10
296.7158910794614
 20
242.6082245775786
 30
0.0
 10
296.7142672805841
 20
242.6693485267855
 30
0.0
 10
296.7132096383625
 20
242.6946393357219
 30
0.0
  0
SPLINE
  5
250
330
1F
100
AcDbEntity
  8
1
100
AcDbSpline
210
0.0
220
0.0
230
1.0
 70
    24
 71
     3
 72
    68
 73
    64
 74
     0
 42
0.000000001
 43
0.0000000001
 40
0.0
 40
0.0
 40
0.0
 40
0.0
 40
0.0624999999999964
 40
0.0624999999999964
 40
0.0781249999999954
 40
0.0781249999999954
 40
0.0937499999999945
 40
0.1249999999999923
 40
0.1249999999999923
 40
0.1874999999999878
 40
0.1874999999999878
 40
0.2187499999999861
 40
0.2187499999999861
 40
0.2343749999999853
 40
0.2343749999999853
 40
0.2499999999999846
 40
0.2499999999999846
 40
0.3124999999999837
 40
0.3124999999999837
 40
0.3437499999999834
 40
0.3437499999999834
 40
0.3593749999999832
 40
0.3593749999999832
 40
0.3749999999999829
 40
0.3749999999999829
 40
0.4374999999999833
 40
0.4374999999999833
 40
0.4999999999999833
 40
0.4999999999999833
 40
0.5156249999999839
 40
0.5156249999999839
 40
0.5234374999999841
 40
0.5234374999999841
 40
0.5312499999999845
 40
0.5624999999999837
 40
0.5624999999999837
 40
0.6249999999999825
 40
0.6249999999999825
 40
0.6562499999999819
 40
0.6562499999999819
 40
0.6640624999999824
 40
0.6640624999999824
 40
0.6718749999999828
 40
0.6718749999999828
 40
0.6874999999999835
 40
0.6874999999999835
 40
0.7499999999999844
 40
0.7499999999999844
 40
0.8124999999999854
 40
0.8124999999999854
 40
0.8203124999999859
 40
0.8203124999999859
 40
0.8281249999999866
 40
0.8437499999999879
 40
0.8749999999999904
 40
0.8749999999999904
 40
0.9374999999999975
 40
0.9374999999999975
 40
0.9531249999999987
 40
0.9531249999999987
 40
0.9687499999999998
 40
0.9687499999999998
 40
1.0
 40
1.0
 40
1.0
 40
1.0
 10
299.1442482849925
 20
235.6350079446558
 30
0.0
 10
299.1442482849925
 20
235.7522780440028
 30
0.0
 10
299.1442482849925
 20
235.8795549482371
 30
0.0
 10
299.1442482849925
 20
236.0511009208228
 30
0.0
 10
299.1442482849925
 20
236.0860897919247
 30
0.0
 10
299.1442482849925
 20
236.1569967520178
 30
0.0
 10
299.1442482849924
 20
236.2647571685135
 30
0.0
 10
299.1442482849925
 20
236.3766495469133
 30
0.0
 10
299.1442482849925
 20
236.6058443183524
 30
0.0
 10
299.1442482849925
 20
236.7658275293866
 30
0.0
 10
299.1442482849925
 20
237.0166796469931
 30
0.0
 10
299.1442482849925
 20
237.1021164991446
 30
0.0
 10
299.1442482849925
 20
237.23307662386
 30
0.0
 10
299.1442482849924
 20
237.2770882390604
 30
0.0
 10
299.1442482849924
 20
237.3653772081826
 30
0.0
 10
299.1442482849924
 20
237.4097211338729
 30
0.0
 10
299.1442482849925
 20
237.632425086441
 30
0.0
 10
299.1442482849925
 20
237.8137233745026
 30
0.0
 10
299.1442482849925
 20
238.0903081363798
 30
0.0
 10
299.1442482849924
 20
238.1832788380477
 30
0.0
 10
299.1442482849925
 20
238.3239167838209
 30
0.0
 10
299.1442482849925
 20
238.370993267168
 30
0.0
 10
299.1442482849924
 20
238.4655459432452
 30
0.0
 10
299.1442482849925
 20
238.5131187782035
 30
0.0
 10
299.1442482849924
 20
238.7505835339956
 30
0.0
 10
299.1442482849925
 20
238.9391687875241
 30
0.0
 10
299.1442482849925
 20
239.3136672979617
 30
0.0
 10
299.1442482849924
 20
239.4995803659764
 30
0.0
 10
299.1442482849925
 20
239.7302622668008
 30
0.0
 10
299.1442482849925
 20
239.7763127704551
 30
0.0
 10
299.1442482849924
 20
239.8452577124517
 30
0.0
 10
299.1442482849925
 20
239.8682234265964
 30
0.0
 10
299.1442482849924
 20
239.9139264360876
 30
0.0
 10
299.1442482849924
 20
240.0277271772223
 30
0.0
 10
299.1442482849925
 20
240.1392672435585
 30
0.0
 10
299.1442482849925
 20
240.4027195333702
 30
0.0
 10
299.1442482849925
 20
240.5727165458572
 30
0.0
 10
299.1442482849925
 20
240.8192522278764
 30
0.0
 10
299.1442482849924
 20
240.9000156566141
 30
0.0
 10
299.1442482849924
 20
240.9991601660427
 30
0.0
 10
299.1442482849925
 20
241.0188984667374
 30
0.0
 10
299.1442482849924
 20
241.0581923824235
 30
0.0
 10
299.1442482849925
 20
241.0777560895102
 30
0.0
 10
299.1442482849925
 20
241.1359393424825
 30
0.0
 10
299.1442482849925
 20
241.1741267935442
 30
0.0
 10
299.1442482849925
 20
241.3621023908987
 30
0.0
 10
299.1442482849925
 20
241.5030501340272
 30
0.0
 10
299.1442482849925
 20
241.7664974491574
 30
0.0
 10
299.1442482849925
 20
241.888998473026
 30
0.0
 10
299.1442482849925
 20
242.016035805572
 30
0.0
 10
299.1442482849925
 20
242.0300092210213
 30
0.0
 10
299.1442482849925
 20
242.0575462644026
 30
0.0
 10
299.1442482849925
 20
242.0982739086785
 30
0.0
 10
299.1442482849924
 20
242.1892924243016
 30
0.0
 10
299.1442482849924
 20
242.2605280745441
 30
0.0
 10
299.1442482849925
 20
242.3940949965443
 30
0.0
 10
299.1442482849925
 20
242.4713113766901
 30
0.0
 10
299.1442482849924
 20
242.5528239181094
 30
0.0
 10
299.1442482849924
 20
242.5683725127527
 30
0.0
 10
299.1442482849925
 20
242.5979417941802
 30
0.0
 10
299.1442482849925
 20
242.6119772172941
 30
0.0
 10
299.1442482849925
 20
242.6516394518046
 30
0.0
 10
299.1442482849925
 20
242.6747876268795
 30
0.0
 10
299.1442482849925
 20
242.6946393357219
 30
0.0
  0
SPLINE
  5
251
330
1F
100
AcDbEntity
  8
1
100
AcDbSpline
210
0.0
220
0.0
230
1.0
 70
    24
 71
     3
 72
    29
 73
    25
 74
     0
 42
0.000000001
 43
0.0000000001
 40
0.0
 40
0.0
 40
0.0
 40
0.0
 40
0.1249999999999975
 40
0.1249999999999975
 40
0.2499999999999949
 40
0.2499999999999949
 40
0.3124999999999937
 40
0.3124999999999937
 40
0.3437499999999931
 40
0.3437499999999931
 40
0.3749999999999925
 40
0.3749999999999925
 40
0.4999999999999875
 40
0.4999999999999875
 40
0.6249999999999818
 40
0.6249999999999818
 40
0.68749999999998
 40
0.68749999999998
 40
0.7187499999999801
 40
0.7187499999999801
 40
0.7499999999999803
 40
0.7499999999999803
 40
0.87499999999999
 40
1.0
 40
1.0
 40
1.0
 40
1.0
 10
293.7442482849925
 20
238.7886690559546
 30
0.0
 10
293.7442482849925
 20
238.6362921650866
 30
0.0
 10
293.7442482849925
 20
238.4853000174575
 30
0.0
 10
293.7442482849925
 20
238.1859901415403
 30
0.0
 10
293.7442482849925
 20
238.0376726835476
 30
0.0
 10
293.7442482849925
 20
237.8172104064192
 30
0.0
 10
293.7442482849925
 20
237.7440594233302
 30
0.0
 10
293.7442482849925
 20
237.6348459680383
 30
0.0
 10
293.7442482849925
 20
237.5985270391185
 30
0.0
 10
293.7442482849925
 20
237.5260623500877
 30
0.0
 10
293.7442482849925
 20
237.4898639407824
 30
0.0
 10
293.7442482849925
 20
237.3103403419368
 30
0.0
 10
293.7442482849925
 20
237.1709024867457
 30
0.0
 10
293.7442482849925
 20
236.9001090158334
 30
0.0
 10
293.7442482849925
 20
236.7687541700093
 30
0.0
 10
293.7442482849925
 20
236.5778132959284
 30
0.0
 10
293.7442482849925
 20
236.5151839618381
 30
0.0
 10
293.7442482849925
 20
236.4227923678922
 30
0.0
 10
293.7442482849925
 20
236.3922540651031
 30
0.0
 10
293.7442482849925
 20
236.3317015946239
 30
0.0
 10
293.7442482849925
 20
236.301664998248
 30
0.0
 10
293.7442482849925
 20
236.1536113388198
 30
0.0
 10
293.7442482849925
 20
235.9290936148461
 30
0.0
 10
293.7442482849924
 20
235.7288934016035
 30
0.0
 10
293.7442482849924
 20
235.635007944656
 30
0.0
  0
SPLINE
  5
252
330
1F
100
AcDbEntity
  8
1
100
AcDbSpline
210
0.0
220
0.0
230
1.0
 70
     8
 71
     3
 72
     8
 73
     4
 74
     0
 42
0.000000001
 43
0.0000000001
 40
0.0
 40
0.0
 40
0.0
 40
0.0
 40
1.0
 40
1.0
 40
1.0
 40
1.0
 10
296.5953046536135
 20
238.4524481774193
 30
0.0
 10
296.1012097008449
 20
238.5552335071978
 30
0.0
 10
295.6066903420418
 20
238.6562706643686
 30
0.0
 10
295.1117844731105
 20
238.7554424685474
 30
0.0
  0
SPLINE
  5
253
330
1F
100
AcDbEntity
  8
1
100
AcDbSpline
210
0.0
220
0.0
230
1.0
 70
     8
 71
     3
 72
     8
 73
     4
 74
     0
 42
0.000000001
 43
0.0000000001
 40
0.0
 40
0.0
 40
0.0
 40
0.0
 40
1.0
 40
1.0
 40
1.0
 40
1.0
 10
295.1117844731105
 20
238.7554424685474
 30
0.0
 10
294.7100102839122
 20
238.7652188497175
 30
0.0
 10
294.3082368190228
 20
238.7750253554635
 30
0.0
 10
293.9064640844468
 20
238.7848615630229
 30
0.0
  0
SPLINE
  5
254
330
1F
100
AcDbEntity
  8
1
100
AcDbSpline
210
0.0
220
0.0
230
1.0
 70
     8
 71
     3
 72
     8
 73
     4
 74
     0
 42
0.000000001
 43
0.0000000001
 40
0.0
 40
0.0
 40
0.0
 40
0.0
 40
1.0
 40
1.0
 40
1.0
 40
1.0
 10
293.7442482849925
 20
238.7886690559546
 30
0.0
 10
293.7983202025875
 20
238.7873992297775
 30
0.0
 10
293.8523921357378
 20
238.7861300647789
 30
0.0
 10
293.9064640844468
 20
238.7848615630229
 30
0.0
  0
SPLINE
  5
270
330
1F
100
AcDbEntity
  8
1
100
AcDbSpline
210
0.0
220
0.0
230
1.0
 70
    24
 71
     3
 72
    22
 73
    18
 74
     0
 42
0.000000001
 43
0.0000000001
 40
0.0
 40
0.0
 40
0.0
 40
0.0
 40
0.0985577300856353
 40
0.0985577300856353
 40
0.1361178246654014
 40
0.1361178246654014
 40
0.1736779192451675
 40
0.2487981084046884
 40
0.3990384867237421
 40
0.3990384867237421
 40
0.6995192433618607
 40
0.6995192433618607
 40
0.7746394325213954
 40
0.7746394325213954
 40
0.8497596216809309
 40
0.8497596216809309
 40
1.0
 40
1.0
 40
1.0
 40
1.0
 10
299.1442482849924
 20
288.8258104749021
 30
0.0
 10
299.1442482849924
 20
288.8870760790762
 30
0.0
 10
299.1442482849925
 20
288.9487318039388
 30
0.0
 10
299.1442482849925
 20
289.0344298148285
 30
0.0
 10
299.1442482849925
 20
289.0581501564183
 30
0.0
 10
299.1442482849925
 20
289.1055223849738
 30
0.0
 10
299.1442482849925
 20
289.1765385582151
 30
0.0
 10
299.1442482849925
 20
289.3419501680033
 30
0.0
 10
299.1442482849924
 20
289.483236810264
 30
0.0
 10
299.1442482849924
 20
289.7651603621405
 30
0.0
 10
299.1442482849925
 20
289.9522463168238
 30
0.0
 10
299.1442482849925
 20
290.1850086647128
 30
0.0
 10
299.1442482849925
 20
290.2315061228932
 30
0.0
 10
299.1442482849924
 20
290.3243895512239
 30
0.0
 10
299.1442482849924
 20
290.3708280982839
 30
0.0
 10
299.1442482849925
 20
290.5095736203468
 30
0.0
 10
299.1442482849924
 20
290.6011512033666
 30
0.0
 10
299.1442482849925
 20
290.6918084748209
 30
0.0
  0
SPLINE
  5
271
330
1F
100
AcDbEntity
  8
1
100
AcDbSpline
210
0.0
220
0.0
230
1.0
 70
     8
 71
     3
 72
    19
 73
    15
 74
     0
 42
0.000000001
 43
0.0000000001
 40
0.0
 40
0.0
 40
0.0
 40
0.0
 40
0.0538368350370578
 40
0.0538368350370578
 40
0.243069468029647
 40
0.4323021010222365
 40
0.4323021010222365
 40
0.526918417518531
 40
0.526918417518531
 40
0.5742265757666782
 40
0.5742265757666782
 40
0.6215347340148251
 40
0.8107673670074124
 40
1.0
 40
1.0
 40
1.0
 40
1.0
 10
296.709699007692
 20
288.8048006964455
 30
0.0
 10
296.7101204596042
 20
288.8385671037397
 30
0.0
 10
296.7105225896773
 20
288.8723619996916
 30
0.0
 10
296.7122517515306
 20
289.0250709730562
 30
0.0
 10
296.7144710140352
 20
289.2635402106677
 30
0.0
 10
296.715751431231
 20
289.5033937079496
 30
0.0
 10
296.7163537979411
 20
289.6838115967378
 30
0.0
 10
296.7164948391705
 20
289.7440389866348
 30
0.0
 10
296.7166151877285
 20
289.8345145588901
 30
0.0
 10
296.7166400989551
 20
289.8647248608002
 30
0.0
 10
296.7166591368484
 20
289.9250392320549
 30
0.0
 10
296.7166298001574
 20
290.0754647951459
 30
0.0
 10
296.7158910794614
 20
290.343017821722
 30
0.0
 10
296.7142672805841
 20
290.5763123354589
 30
0.0
 10
296.7132096383625
 20
290.6918084748209
 30
0.0
  0
SPLINE
  5
272
330
1F
100
AcDbEntity
  8
1
100
AcDbSpline
210
0.0
220
0.0
230
1.0
 70
     8
 71
     3
 72
    35
 73
    31
 74
     0
 42
0.000000001
 43
0.0000000001
 40
0.0
 40
0.0
 40
0.0
 40
0.0
 40
0.1250000000000066
 40
0.1250000000000066
 40
0.1875000000000102
 40
0.1875000000000102
 40
0.2187500000000117
 40
0.2187500000000117
 40
0.2500000000000133
 40
0.2500000000000133
 40
0.3750000000000144
 40
0.3750000000000144
 40
0.4062500000000142
 40
0.4062500000000142
 40
0.4375000000000139
 40
0.4375000000000139
 40
0.5000000000000118
 40
0.5000000000000118
 40
0.6250000000000103
 40
0.6250000000000103
 40
0.6562500000000095
 40
0.6562500000000095
 40
0.6875000000000086
 40
0.6875000000000086
 40
0.7500000000000067
 40
0.8125000000000047
 40
0.8125000000000047
 40
0.8750000000000028
 40
0.8750000000000028
 40
1.0
 40
1.0
 40
1.0
 40
1.0
 10
256.8442482849925
 20
252.6340184530482
 30
0.0
 10
256.9511012864806
 20
252.6340184530482
 30
0.0
 10
257.0560851338065
 20
252.6234222937899
 30
0.0
 10
257.2108825752968
 20
252.5923345801685
 30
0.0
 10
257.2620319566963
 20
252.5794204140168
 30
0.0
 10
257.3380670368199
 20
252.556137254151
 30
0.0
 10
257.3633687535142
 20
252.5476957417482
 30
0.0
 10
257.4133075478656
 20
252.529637572511
 30
0.0
 10
257.4379456338555
 20
252.5200259559421
 30
0.0
 10
257.5595160083634
 20
252.4691175907971
 30
0.0
 10
257.6516348550982
 20
252.4193527931178
 30
0.0
 10
257.7604572318129
 20
252.3459826998844
 30
0.0
 10
257.7819025019415
 20
252.3307453408732
 30
0.0
 10
257.8241452373788
 20
252.2991263594635
 30
0.0
 10
257.8449390643736
 20
252.2827414890585
 30
0.0
 10
257.9056703997117
 20
252.2324124286632
 30
0.0
 10
257.9441989554756
 20
252.197125168202
 30
0.0
 10
258.0540927333298
 20
252.0862119923534
 30
0.0
 10
258.1198206599774
 20
252.0055832107371
 30
0.0
 10
258.192334213024
 20
251.8961978228904
 30
0.0
 10
258.2062687641711
 20
251.8740067347944
 30
0.0
 10
258.2329202695879
 20
251.8291726634834
 30
0.0
 10
258.2456546481892
 20
251.8065034746221
 30
0.0
 10
258.2821122661398
 20
251.737750493797
 30
0.0
 10
258.3260758558584
 20
251.644095495493
 30
0.0
 10
258.3608450969619
 20
251.5465031345359
 30
0.0
 10
258.3909331107711
 20
251.446901594556
 30
0.0
 10
258.403656592166
 20
251.3959086033197
 30
0.0
 10
258.4340363903006
 20
251.2424621567231
 30
0.0
 10
258.4442482849925
 20
251.1388905584865
 30
0.0
 10
258.4442482849925
 20
251.0340184530482
 30
0.0
  0
SPLINE
  5
273
330
1F
100
AcDbEntity
  8
1
100
AcDbSpline
210
0.0
220
0.0
230
1.0
 70
     8
 71
     3
 72
    34
 73
    30
 74
     0
 42
0.000000001
 43
0.0000000001
 40
0.0
 40
0.0
 40
0.0
 40
0.0
 40
0.1250000000000041
 40
0.1250000000000041
 40
0.1875000000000047
 40
0.1875000000000047
 40
0.2187500000000055
 40
0.2187500000000055
 40
0.2500000000000063
 40
0.2500000000000063
 40
0.3750000000000099
 40
0.3750000000000099
 40
0.4375000000000119
 40
0.4375000000000119
 40
0.4687500000000119
 40
0.4687500000000119
 40
0.5000000000000121
 40
0.5000000000000121
 40
0.6250000000000095
 40
0.6250000000000095
 40
0.6562500000000088
 40
0.6562500000000088
 40
0.6875000000000079
 40
0.6875000000000079
 40
0.7500000000000063
 40
0.7500000000000063
 40
0.8750000000000031
 40
0.8750000000000031
 40
1.0
 40
1.0
 40
1.0
 40
1.0
 10
258.4442482849925
 20
237.8340184530482
 30
0.0
 10
258.4442482849925
 20
237.7291027016859
 30
0.0
 10
258.4340295114323
 20
237.625989644923
 30
0.0
 10
258.4040505190555
 20
237.4738975374523
 30
0.0
 10
258.3915976365075
 20
237.4236327808638
 30
0.0
 10
258.3691523581549
 20
237.3488956113425
 30
0.0
 10
258.3610418257878
 20
237.3240934012693
 30
0.0
 10
258.3435361976959
 20
237.274713564234
 30
0.0
 10
258.3341963847707
 20
237.2502952621582
 30
0.0
 10
258.2847349218367
 20
237.1298537656911
 30
0.0
 10
258.2362872435683
 20
237.0384003982924
 30
0.0
 10
258.150410215547
 20
236.9084720474144
 30
0.0
 10
258.1195682181938
 20
236.8663796074049
 30
0.0
 10
258.0698461279443
 20
236.8051348861387
 30
0.0
 10
258.0527739311281
 20
236.7851376977412
 30
0.0
 10
258.017819758488
 20
236.7461696249392
 30
0.0
 10
257.9999113034996
 20
236.7271659369818
 30
0.0
 10
257.9082373022076
 20
236.634518788219
 30
0.0
 10
257.8281388831421
 20
236.5679199612758
 30
0.0
 10
257.7193426310927
 20
236.4942795730148
 30
0.0
 10
257.6971457635291
 20
236.4800362946323
 30
0.0
 10
257.6518544543681
 20
236.4525431295664
 30
0.0
 10
257.6288562515464
 20
236.4393549781478
 30
0.0
 10
257.5592535380119
 20
236.401694828388
 30
0.0
 10
257.5118654482566
 20
236.3790140395907
 30
0.0
 10
257.3667913737864
 20
236.3181191160812
 30
0.0
 10
257.2662253483609
 20
236.2869788557738
 30
0.0
 10
257.0569614601688
 20
236.2446320108478
 30
0.0
 10
256.9511461154785
 20
236.2340184530482
 30
0.0
 10
256.8442482849924
 20
236.2340184530482
 30
0.0
  0
SPLINE
  5
274
330
1F
100
AcDbEntity
  8
1
100
AcDbSpline
210
0.0
220
0.0
230
1.0
 70
    12
 71
     2
 72
     6
 73
     3
 74
     0
 42
0.000000001
 43
0.0000000001
 40
0.0
 40
0.0
 40
0.0
 40
1.0
 40
1.0
 40
1.0
 10
294.527063677717
 20
199.5195985787636
 30
0.0
 41
0.5000000084518517
 10
294.1356551044476
 20
199.5311146629913
 30
0.0
 41
0.4999999915481485
 10
293.7442482849931
 20
199.5426378393531
 30
0.0
 41
0.5000000084518517
  0
SPLINE
  5
275
330
1F
100
AcDbEntity
  8
1
100
AcDbSpline
210
0.0
220
0.0
230
1.0
 70
    12
 71
     2
 72
     6
 73
     3
 74
     0
 42
0.000000001
 43
0.0000000001
 40
0.0
 40
0.0
 40
0.0
 40
1.0
 40
1.0
 40
1.0
 10
295.6998270172863
 20
199.0834720316499
 30
0.0
 41
0.5000000903385795
 10
295.1003558420718
 20
199.1006104703488
 30
0.0
 41
0.4999999096614206
 10
294.5008833494628
 20
199.1177651478941
 30
0.0
 41
0.5000000903385795
  0
SPLINE
  5
276
330
1F
100
AcDbEntity
  8
1
100
AcDbSpline
210
0.0
220
0.0
230
1.0
 70
    12
 71
     2
 72
     6
 73
     3
 74
     0
 42
0.000000001
 43
0.0000000001
 40
0.0
 40
0.0
 40
0.0
 40
1.0
 40
1.0
 40
1.0
 10
299.1442482849919
 20
185.0544794895829
 30
0.0
 41
0.5000000063297144
 10
298.752841465406
 20
185.0508077987327
 30
0.0
 41
0.4999999936702856
 10
298.3614328922682
 20
185.0471454870901
 30
0.0
 41
0.5000000063297144
  0
SPLINE
  5
277
330
1F
100
AcDbEntity
  8
1
100
AcDbSpline
210
0.0
220
0.0
230
1.0
 70
    12
 71
     2
 72
     6
 73
     3
 74
     0
 42
0.000000001
 43
0.0000000001
 40
0.0
 40
0.0
 40
0.0
 40
1.0
 40
1.0
 40
1.0
 10
293.9853182964291
 20
302.3878350802541
 30
0.0
 41
0.5000000013315083
 10
293.8647832057497
 20
302.3894261012149
 30
0.0
 41
0.5000000034666215
 10
293.7442482849931
 20
302.3910162540907
 30
0.0
 41
0.5000000090254529
  0
SPLINE
  5
278
330
1F
100
AcDbEntity
  8
1
100
AcDbSpline
210
0.0
220
0.0
230
1.0
 70
    24
 71
     3
 72
     8
 73
     4
 74
     0
 42
0.000000001
 43
0.0000000001
 40
0.0
 40
0.0
 40
0.0
 40
0.0
 40
1.0
 40
1.0
 40
1.0
 40
1.0
 10
249.4442482849925
 20
235.2340184530482
 30
0.0
 10
249.7746047271227
 20
235.5643748951785
 30
0.0
 10
250.1080002210732
 20
235.8977703891289
 30
0.0
 10
250.4442482849925
 20
236.2340184530482
 30
0.0
  0
SPLINE
  5
279
330
1F
100
AcDbEntity
  8
1
100
AcDbSpline
210
0.0
220
0.0
230
1.0
 70
    24
 71
     3
 72
     8
 73
     4
 74
     0
 42
0.000000001
 43
0.0000000001
 40
0.0
 40
0.0
 40
0.0
 40
0.0
 40
1.0
 40
1.0
 40
1.0
 40
1.0
 10
250.4442482849925
 20
252.6340184530482
 30
0.0
 10
250.1080002210732
 20
252.9702665169675
 30
0.0
 10
249.7746047271228
 20
253.3036620109179
 30
0.0
 10
249.4442482849925
 20
253.6340184530482
 30
0.0
  0
SPLINE
  5
27A
330
1F
100
AcDbEntity
  8
1
100
AcDbSpline
210
0.0
220
0.0
230
1.0
 70
    12
 71
     2
 72
     6
 73
     3
 74
     0
 42
0.000000001
 43
0.0000000001
 40
0.0
 40
0.0
 40
0.0
 40
1.0
 40
1.0
 40
1.0
 10
298.3876132205224
 20
225.4564361406215
 30
0.0
 41
0.5000000912985663
 10
297.7881407276322
 20
225.4319906600542
 30
0.0
 41
0.4999999087014337
 10
297.1886695526988
 20
225.4075519862021
 30
0.0
 41
0.5000000912985663
  0
SPLINE
  5
27B
330
1F
100
AcDbEntity
  8
1
100
AcDbSpline
210
0.0
220
0.0
230
1.0
 70
    12
 71
     2
 72
     6
 73
     3
 74
     0
 42
0.000000001
 43
0.0000000001
 40
0.0
 40
0.0
 40
0.0
 40
1.0
 40
1.0
 40
1.0
 10
299.144248284992
 20
226.059405371681
 30
0.0
 41
0.4999996391485783
 10
298.7528414651165
 20
226.0431183355894
 30
0.0
 41
0.5000003608514218
 10
298.3614328922682
 20
226.0268342042639
 30
0.0
 41
0.4999996391485783
  0
SPLINE
  5
27C
330
1F
100
AcDbEntity
  8
1
100
AcDbSpline
210
0.0
220
0.0
230
1.0
 70
    12
 71
     2
 72
     6
 73
     3
 74
     0
 42
0.000000001
 43
0.0000000001
 40
0.0
 40
0.0
 40
0.0
 40
1.0
 40
1.0
 40
1.0
 10
294.527063677717
 20
257.466259984157
 30
0.0
 41
0.5000000071517825
 10
294.1356551044476
 20
257.4829488427723
 30
0.0
 41
0.4999999928482176
 10
293.7442482849931
 20
257.4996356403956
 30
0.0
 41
0.5000000071517825
  0
LINE
  5
27D
330
1F
100
AcDbEntity
  8
4
100
AcDbLine
 10
245.444248
 20
244.434018
 30
0.0
 11
301.744248
 21
244.434018
 31
0.0
  0
LINE
  5
27E
330
1F
100
AcDbEntity
  8
SK4
100
AcDbLine
 10
245.944248
 20
244.434018
 30
0.0
 11
299.544248
 21
244.434018
 31
0.0
  0
MTEXT
  5
27F
330
1F
100
AcDbEntity
  8
SK6
100
AcDbMText
 10
261.638855
 20
121.934036
 30
0.0
 40
3.5
 41
0.0
 71
     7
 72
     5
  1
\W0.7449;125B06R-S90SN12N6\P\P\P\P\P\P\P 
  7
cesky
 73
     1
 44
0.8433729999999998
  0
MTEXT
  5
3AA
330
1F
100
AcDbEntity
  8
2
100
AcDbMText
 10
272.629748
 20
319.915963
 30
0.0
 40
3.5
 41
0.0
 71
     7
 72
     5
  1
\W0.7045;50
  7
cesky
 73
     2
 44
0.8433729999999998
  0
LINE
  5
3AB
330
1F
100
AcDbEntity
  8
2
100
AcDbLine
 10
249.444248
 20
278.434018
 30
0.0
 11
249.444248
 21
321.041797
 31
0.0
  0
LINE
  5
3AC
330
1F
100
AcDbEntity
  8
2
100
AcDbLine
 10
299.444248
 20
308.9340180000001
 30
0.0
 11
299.444248
 21
321.041797
 31
0.0
  0
LINE
  5
3AD
330
1F
100
AcDbEntity
  8
2
100
AcDbLine
 10
249.444248
 20
320.041797
 30
0.0
 11
299.444248
 21
320.041797
 31
0.0
  0
SOLID
  5
3AE
330
1F
100
AcDbEntity
  8
2
100
AcDbTrace
 10
249.444248
 20
320.041797
 30
0.0
 11
252.944246
 21
320.658941
 31
0.0
 12
252.944251
 22
319.424652
 32
0.0
 13
252.944251
 23
319.424652
 33
0.0
  0
SOLID
  5
3AF
330
1F
100
AcDbEntity
  8
2
100
AcDbTrace
 10
299.444248
 20
320.041797
 30
0.0
 11
295.944251
 21
319.424652
 31
0.0
 12
295.944246
 22
320.658941
 32
0.0
 13
295.944246
 23
320.658941
 33
0.0
  0
MTEXT
  5
3B0
330
1F
100
AcDbEntity
  8
2
100
AcDbMText
 10
311.766891
 20
236.932984
 30
0.0
 40
3.5
 41
0.0
 71
     7
 72
     5
  1
\W0.7809;125
  7
cesky
 11
0.0000000000000001
 21
1.0
 31
0.0
 73
     2
 44
0.8433729999999998
  0
MTEXT
  5
3B1
330
1F
100
AcDbEntity
  8
2
100
AcDbMText
 10
311.766891
 20
230.195484
 30
0.0
 40
3.5
 41
0.0
 71
     7
 72
     5
  1
\W3.0115;\H2.63;%%c\H3.50;
  7
cesky
 11
0.0000000000000001
 21
1.0
 31
0.0
 73
     2
 44
0.8433729999999998
  0
LINE
  5
3B2
330
1F
100
AcDbEntity
  8
2
100
AcDbLine
 10
301.444248
 20
306.9340180000001
 30
0.0
 11
312.954307
 21
306.9340180000001
 31
0.0
  0
LINE
  5
3B3
330
1F
100
AcDbEntity
  8
2
100
AcDbLine
 10
311.954307
 20
306.9340180000001
 30
0.0
 11
311.954307
 21
230.037984
 31
0.0
  0
SOLID
  5
3B4
330
1F
100
AcDbEntity
  8
2
100
AcDbTrace
 10
311.954307
 20
306.9340180000001
 30
0.0
 11
312.571452
 21
303.434021
 31
0.0
 12
311.337163
 22
303.4340160000001
 32
0.0
 13
311.337163
 23
303.4340160000001
 33
0.0
  0
MTEXT
  5
3B5
330
1F
100
AcDbEntity
  8
2
100
AcDbMText
 10
279.117822
 20
290.316518
 30
0.0
 40
3.5
 41
0.0
 71
     7
 72
     5
  1
\W0.8459;24,5
  7
cesky
 11
0.0000000000000001
 21
1.0
 31
0.0
 73
     2
 44
0.8433729999999998
  0
LINE
  5
3B6
330
1F
100
AcDbEntity
  8
2
100
AcDbLine
 10
299.444248
 20
306.9340180000001
 30
0.0
 11
277.648989
 21
306.9340180000001
 31
0.0
  0
LINE
  5
3B7
330
1F
100
AcDbEntity
  8
2
100
AcDbLine
 10
293.7442479999999
 20
282.434018
 30
0.0
 11
277.648989
 21
282.434018
 31
0.0
  0
LINE
  5
3B8
330
1F
100
AcDbEntity
  8
2
100
AcDbLine
 10
278.648989
 20
306.9340180000001
 30
0.0
 11
278.648989
 21
282.434018
 31
0.0
  0
SOLID
  5
3B9
330
1F
100
AcDbEntity
  8
2
100
AcDbTrace
 10
278.648989
 20
306.9340180000001
 30
0.0
 11
279.2661339999999
 21
303.434021
 31
0.0
 12
278.031845
 22
303.4340160000001
 32
0.0
 13
278.031845
 23
303.4340160000001
 33
0.0
  0
SOLID
  5
3BA
330
1F
100
AcDbEntity
  8
2
100
AcDbTrace
 10
278.648989
 20
282.434018
 30
0.0
 11
278.031845
 21
285.934016
 31
0.0
 12
279.2661339999999
 22
285.934021
 32
0.0
 13
279.2661339999999
 23
285.934021
 33
0.0
  0
MTEXT
  5
3BB
330
1F
100
AcDbEntity
  8
2
100
AcDbMText
 10
295.892377
 20
311.710126
 30
0.0
 40
3.5
 41
0.0
 71
     7
 72
     5
  1
\W0.6563;6
  7
cesky
 73
     2
 44
0.8433729999999998
  0
LINE
  5
3BC
330
1F
100
AcDbEntity
  8
2
100
AcDbLine
 10
299.444248
 20
308.9340180000001
 30
0.0
 11
299.444248
 21
312.835959
 31
0.0
  0
LINE
  5
3BD
330
1F
100
AcDbEntity
  8
2
100
AcDbLine
 10
293.444507
 20
306.8796450000001
 30
0.0
 11
293.444507
 21
312.835959
 31
0.0
  0
LINE
  5
3BE
330
1F
100
AcDbEntity
  8
2
100
AcDbLine
 10
308.194248
 20
311.835959
 30
0.0
 11
284.694507
 21
311.835959
 31
0.0
  0
SOLID
  5
3BF
330
1F
100
AcDbEntity
  8
2
100
AcDbTrace
 10
299.444248
 20
311.835959
 30
0.0
 11
302.944246
 21
312.453103
 31
0.0
 12
302.9442509999999
 22
311.218815
 32
0.0
 13
302.9442509999999
 23
311.218815
 33
0.0
  0
SOLID
  5
3C0
330
1F
100
AcDbEntity
  8
2
100
AcDbTrace
 10
293.444507
 20
311.835959
 30
0.0
 11
289.944509
 21
311.218815
 31
0.0
 12
289.944504
 22
312.453103
 32
0.0
 13
289.944504
 23
312.453103
 33
0.0
  0
MTEXT
  5
3C1
330
1F
100
AcDbEntity
  8
SK2
100
AcDbMText
 10
253.392248
 20
195.70765
 30
0.0
 40
3.5
 41
0.0
 71
     7
 72
     5
  1
\W0.6563;9
  7
cesky
 73
     2
 44
0.8433729999999998
  0
LINE
  5
3C2
330
1F
100
AcDbEntity
  8
SK2
100
AcDbLine
 10
249.444248
 20
244.434018
 30
0.0
 11
249.444248
 21
194.833483
 31
0.0
  0
LINE
  5
3C3
330
1F
100
AcDbEntity
  8
SK2
100
AcDbLine
 10
258.444248
 20
237.834018
 30
0.0
 11
258.444248
 21
194.833483
 31
0.0
  0
LINE
  5
3C4
330
1F
100
AcDbEntity
  8
SK2
100
AcDbLine
 10
240.694248
 20
195.833483
 30
0.0
 11
267.194248
 21
195.833483
 31
0.0
  0
SOLID
  5
3C5
330
1F
100
AcDbEntity
  8
SK2
100
AcDbTrace
 10
249.444248
 20
195.833483
 30
0.0
 11
245.944251
 21
195.2163389999999
 31
0.0
 12
245.944246
 22
196.450628
 32
0.0
 13
245.944246
 23
196.450628
 33
0.0
  0
SOLID
  5
3C6
330
1F
100
AcDbEntity
  8
SK2
100
AcDbTrace
 10
258.444248
 20
195.833483
 30
0.0
 11
261.944246
 21
196.450628
 31
0.0
 12
261.9442509999999
 22
195.2163389999999
 32
0.0
 13
261.9442509999999
 23
195.2163389999999
 33
0.0
  0
MTEXT
  5
3C7
330
1F
100
AcDbEntity
  8
SK2
100
AcDbMText
 10
225.321841
 20
245.960268
 30
0.0
 40
3.5
 41
0.0
 71
     7
 72
     5
  1
\W0.7045;40
  7
cesky
 11
0.0000000000000001
 21
1.0
 31
0.0
 73
     2
 44
0.8433729999999998
  0
MTEXT
  5
3C8
330
1F
100
AcDbEntity
  8
SK2
100
AcDbMText
 10
225.321841
 20
239.222768
 30
0.0
 40
3.5
 41
0.0
 71
     7
 72
     5
  1
\W3.0115;\H2.63;%%c\H3.50;
  7
cesky
 11
0.0000000000000001
 21
1.0
 31
0.0
 73
     2
 44
0.8433729999999998
  0
LINE
  5
3C9
330
1F
100
AcDbEntity
  8
SK2
100
AcDbLine
 10
250.444248
 20
264.434018
 30
0.0
 11
224.509258
 21
264.434018
 31
0.0
  0
LINE
  5
3CA
330
1F
100
AcDbEntity
  8
SK2
100
AcDbLine
 10
250.444248
 20
224.434018
 30
0.0
 11
224.509258
 21
224.434018
 31
0.0
  0
LINE
  5
3CB
330
1F
100
AcDbEntity
  8
SK2
100
AcDbLine
 10
225.509258
 20
264.434018
 30
0.0
 11
225.509258
 21
224.434018
 31
0.0
  0
SOLID
  5
3CC
330
1F
100
AcDbEntity
  8
SK2
100
AcDbTrace
 10
225.509258
 20
264.434018
 30
0.0
 11
226.126402
 21
260.934021
 31
0.0
 12
224.892114
 22
260.934016
 32
0.0
 13
224.892114
 23
260.934016
 33
0.0
  0
SOLID
  5
3CD
330
1F
100
AcDbEntity
  8
SK2
100
AcDbTrace
 10
225.509258
 20
224.434018
 30
0.0
 11
224.892114
 21
227.934016
 31
0.0
 12
226.126402
 22
227.934021
 32
0.0
 13
226.126402
 23
227.934021
 33
0.0
  0
MTEXT
  5
3CE
330
1F
100
AcDbEntity
  8
SK2
100
AcDbMText
 10
214.525956
 20
245.960268
 30
0.0
 40
3.5
 41
0.0
 71
     7
 72
     5
  1
\W0.7045;70
  7
cesky
 11
0.0000000000000001
 21
1.0
 31
0.0
 73
     2
 44
0.8433729999999998
  0
MTEXT
  5
3CF
330
1F
100
AcDbEntity
  8
SK2
100
AcDbMText
 10
214.525956
 20
239.222768
 30
0.0
 40
3.5
 41
0.0
 71
     7
 72
     5
  1
\W3.0115;\H2.63;%%c\H3.50;
  7
cesky
 11
0.0000000000000001
 21
1.0
 31
0.0
 73
     2
 44
0.8433729999999998
  0
LINE
  5
3D0
330
1F
100
AcDbEntity
  8
SK2
100
AcDbLine
 10
250.444248
 20
279.434018
 30
0.0
 11
213.713372
 21
279.434018
 31
0.0
  0
LINE
  5
3D1
330
1F
100
AcDbEntity
  8
SK2
100
AcDbLine
 10
250.444248
 20
209.434018
 30
0.0
 11
213.713372
 21
209.434018
 31
0.0
  0
LINE
  5
3D2
330
1F
100
AcDbEntity
  8
SK2
100
AcDbLine
 10
214.713372
 20
279.434018
 30
0.0
 11
214.713372
 21
209.434018
 31
0.0
  0
SOLID
  5
3D3
330
1F
100
AcDbEntity
  8
SK2
100
AcDbTrace
 10
214.713372
 20
279.434018
 30
0.0
 11
215.330517
 21
275.934021
 31
0.0
 12
214.096228
 22
275.934016
 32
0.0
 13
214.096228
 23
275.934016
 33
0.0
  0
SOLID
  5
3D4
330
1F
100
AcDbEntity
  8
SK2
100
AcDbTrace
 10
214.713372
 20
209.434018
 30
0.0
 11
214.096228
 21
212.934016
 31
0.0
 12
215.330517
 22
212.934021
 32
0.0
 13
215.330517
 23
212.934021
 33
0.0
  0
MTEXT
  5
3D5
330
1F
100
AcDbEntity
  8
SK2
100
AcDbMText
 10
240.666394
 20
240.066518
 30
0.0
 40
3.5
 41
0.0
 71
     7
 72
     5
  1
\W0.8876;16,4
  7
cesky
 11
0.0000000000000001
 21
1.0
 31
0.0
 73
     2
 44
0.8433729999999998
  0
LINE
  5
3D6
330
1F
100
AcDbEntity
  8
SK2
100
AcDbLine
 10
250.444248
 20
252.634018
 30
0.0
 11
239.19756
 21
252.634018
 31
0.0
  0
LINE
  5
3D7
330
1F
100
AcDbEntity
  8
SK2
100
AcDbLine
 10
250.444248
 20
236.234018
 30
0.0
 11
239.19756
 21
236.234018
 31
0.0
  0
LINE
  5
3D8
330
1F
100
AcDbEntity
  8
SK2
100
AcDbLine
 10
240.19756
 20
261.384018
 30
0.0
 11
240.19756
 21
227.484018
 31
0.0
  0
SOLID
  5
3D9
330
1F
100
AcDbEntity
  8
SK2
100
AcDbTrace
 10
240.19756
 20
252.634018
 30
0.0
 11
239.580416
 21
256.134016
 31
0.0
 12
240.814705
 22
256.134021
 32
0.0
 13
240.814705
 23
256.134021
 33
0.0
  0
SOLID
  5
3DA
330
1F
100
AcDbEntity
  8
SK2
100
AcDbTrace
 10
240.19756
 20
236.234018
 30
0.0
 11
240.814705
 21
232.734021
 31
0.0
 12
239.580416
 22
232.734016
 32
0.0
 13
239.580416
 23
232.734016
 33
0.0
  0
LINE
  5
3DF
330
1F
100
AcDbEntity
  8
CUT
100
AcDbLine
 10
299.3418167840308
 20
306.881433582486
 30
0.0
 11
299.4408447864733
 21
306.7817792971437
 31
0.0
  0
LINE
  5
3E0
330
1F
100
AcDbEntity
  8
CUT
100
AcDbLine
 10
293.4476517835117
 20
306.7817792971437
 30
0.0
 11
293.5466797859541
 21
306.881433582486
 31
0.0
  0
LINE
  5
3E2
330
1F
100
AcDbEntity
  8
CUT
100
AcDbLine
 10
296.4442482849932
 20
294.6646903168827
 30
0.0
 11
293.6562876798401
 21
294.6099111568676
 31
0.0
  0
LINE
  5
3E5
330
1F
100
AcDbEntity
  8
CUT
100
AcDbLine
 10
299.2322088901448
 20
294.6099111568676
 30
0.0
 11
296.4442482849927
 21
294.6646903168828
 31
0.0
  0
LINE
  5
3E6
330
1F
100
AcDbEntity
  8
CUT
100
AcDbLine
 10
299.3758788311883
 20
299.2863086664112
 30
0.0
 11
299.3277464626248
 21
294.5825344661253
 31
0.0
  0
LINE
  5
3EB
330
1F
100
AcDbEntity
  8
CUT
100
AcDbLine
 10
293.4485264126033
 20
306.6837002418758
 30
0.0
 11
293.4476517835117
 21
306.7817792971437
 31
0.0
  0
LINE
  5
3EC
330
1F
100
AcDbEntity
  8
CUT
100
AcDbLine
 10
293.5466797859541
 20
306.881433582486
 30
0.0
 11
296.4442482849928
 21
306.9322697875491
 31
0.0
  0
LINE
  5
3ED
330
1F
100
AcDbEntity
  8
CUT
100
AcDbLine
 10
293.5607501073601
 20
294.5825344661253
 30
0.0
 11
293.5126177387967
 21
299.2863086664113
 31
0.0
  0
LINE
  5
3EE
330
1F
100
AcDbEntity
  8
CUT
100
AcDbLine
 10
299.4408447864733
 20
306.7817792971437
 30
0.0
 11
299.4399701573817
 21
306.6837002418758
 31
0.0
  0
LINE
  5
3F2
330
1F
100
AcDbEntity
  8
CUT
100
AcDbLine
 10
293.5126177387966
 20
299.2863086664113
 30
0.0
 11
293.465541642384
 21
304.5435319881757
 31
0.0
  0
LINE
  5
3F5
330
1F
100
AcDbEntity
  8
CUT
100
AcDbLine
 10
299.4229549276009
 20
304.5435319881757
 30
0.0
 11
299.3758788311883
 21
299.2863086664112
 31
0.0
  0
LINE
  5
3F6
330
1F
100
AcDbEntity
  8
CUT
100
AcDbLine
 10
296.4442482849925
 20
306.9322697875491
 30
0.0
 11
299.3418167840308
 21
306.881433582486
 31
0.0
  0
LINE
  5
3F7
330
1F
100
AcDbEntity
  8
CUT
100
AcDbLine
 10
293.465541642384
 20
304.5435319881757
 30
0.0
 11
293.465541642384
 21
304.5435319881757
 31
0.0
  0
ARC
  5
3F8
330
1F
100
AcDbEntity
  8
CUT
100
AcDbCircle
 10
207.4154033402
 20
304.9295492832163
 30
0.0
 40
86.05100412648916
100
AcDbArc
 50
359.7429752711329
 51
1.168056197625152
  0
LINE
  5
3F9
330
1F
100
AcDbEntity
  8
CUT
100
AcDbLine
 10
293.6562876798401
 20
294.6099111568676
 30
0.0
 11
293.6562876798401
 21
294.6099111568676
 31
0.0
  0
ARC
  5
3FA
330
1F
100
AcDbEntity
  8
CUT
100
AcDbCircle
 10
279.5956136710052
 20
343.4976390185041
 30
0.0
 40
50.8695634840339
100
AcDbArc
 50
285.9339078371619
 51
286.045845248622
  0
ARC
  5
401
330
1F
100
AcDbEntity
  8
CUT
100
AcDbCircle
 10
391.3814518095498
 20
304.8684151385505
 30
0.0
 40
91.95940032646094
100
AcDbArc
 50
178.8689037698485
 51
180.0357351892388
  0
ARC
  5
402
330
1F
100
AcDbEntity
  8
CUT
100
AcDbCircle
 10
371.6598929557016
 20
304.916412597183
 30
0.0
 40
72.23790040985552
100
AcDbArc
 50
180.0835605723927
 51
180.2957530591703
  0
LINE
  5
403
330
1F
100
AcDbEntity
  8
CUT
100
AcDbLine
 10
299.3277464626248
 20
294.5825344661253
 30
0.0
 11
299.3277464626248
 21
294.5825344661253
 31
0.0
  0
ARC
  5
404
330
1F
100
AcDbEntity
  8
CUT
100
AcDbCircle
 10
313.2928828907615
 20
343.4976389897958
 30
0.0
 40
50.86956345417248
100
AcDbArc
 50
253.9541547513362
 51
254.0660921628619
  0
ENDSEC
  0
SECTION
  2
OBJECTS
  0
DICTIONARY
  5
C
330
0
100
AcDbDictionary
281
     1
  3
ACAD_CIP_PREVIOUS_PRODUCT_INFO
350
3A7
  3
ACAD_COLOR
350
3A1
  3
ACAD_DETAILVIEWSTYLE
350
39D
  3
ACAD_GROUP
350
D
  3
ACAD_IMAGE_DICT
350
1FF
  3
ACAD_IMAGE_VARS
350
3A6
  3
ACAD_LAYOUT
350
1A
  3
ACAD_MATERIAL
350
43
  3
ACAD_MLEADERSTYLE
350
6B
  3
ACAD_MLINESTYLE
350
17
  3
ACAD_PLOTSETTINGS
350
19
  3
ACAD_PLOTSTYLENAME
350
E
  3
ACAD_SCALELIST
350
47
  3
ACAD_SECTIONVIEWSTYLE
350
39E
  3
ACAD_TABLESTYLE
350
69
  3
ACAD_VISUALSTYLE
350
2A
  3
ACDB_RECOMPOSE_DATA
350
440
  3
AcDbVariableDictionary
350
35A
  3
AcDsDecomposeData
350
446
  0
DICTIONARY
  5
435
330
2
100
AcDbDictionary
280
     1
281
     1
  3
ACAD_LAYERSTATES
360
436
  0
DICTIONARY
  5
416
330
10
100
AcDbDictionary
280
     1
281
     1
  3
ADSK_XREC_LAYER_RECONCILED
360
417
  0
DICTIONARY
  5
418
330
79
100
AcDbDictionary
280
     1
281
     1
  3
ADSK_XREC_LAYER_RECONCILED
360
419
  0
DICTIONARY
  5
41A
330
407
100
AcDbDictionary
280
     1
281
     1
  3
ADSK_XREC_LAYER_RECONCILED
360
41B
  0
DICTIONARY
  5
41C
330
408
100
AcDbDictionary
280
     1
281
     1
  3
ADSK_XREC_LAYER_RECONCILED
360
41D
  0
DICTIONARY
  5
41E
330
409
100
AcDbDictionary
280
     1
281
     1
  3
ADSK_XREC_LAYER_RECONCILED
360
41F
  0
DICTIONARY
  5
420
330
40C
100
AcDbDictionary
280
     1
281
     1
  3
ADSK_XREC_LAYER_RECONCILED
360
421
  0
DICTIONARY
  5
422
330
40D
100
AcDbDictionary
280
     1
281
     1
  3
ADSK_XREC_LAYER_RECONCILED
360
423
  0
DICTIONARY
  5
424
330
40E
100
AcDbDictionary
280
     1
281
     1
  3
ADSK_XREC_LAYER_RECONCILED
360
425
  0
DICTIONARY
  5
426
330
40F
100
AcDbDictionary
280
     1
281
     1
  3
ADSK_XREC_LAYER_RECONCILED
360
427
  0
DICTIONARY
  5
428
330
410
100
AcDbDictionary
280
     1
281
     1
  3
ADSK_XREC_LAYER_RECONCILED
360
429
  0
DICTIONARY
  5
42A
330
411
100
AcDbDictionary
280
     1
281
     1
  3
ADSK_XREC_LAYER_RECONCILED
360
42B
  0
DICTIONARY
  5
42C
330
412
100
AcDbDictionary
280
     1
281
     1
  3
ADSK_XREC_LAYER_RECONCILED
360
42D
  0
DICTIONARY
  5
42E
330
413
100
AcDbDictionary
280
     1
281
     1
  3
ADSK_XREC_LAYER_RECONCILED
360
42F
  0
DICTIONARY
  5
430
330
414
100
AcDbDictionary
280
     1
281
     1
  3
ADSK_XREC_LAYER_RECONCILED
360
431
  0
DICTIONARY
  5
3A8
330
1F
100
AcDbDictionary
280
     1
281
     1
  3
ACAD_SORTENTS
360
3A9
  0
XRECORD
  5
3A7
102
{ACAD_REACTORS
330
C
102
}
330
C
100
AcDbXrecord
280
     1
300
ACD
300
2019
300
87084ACD_2019_0F
  0
DICTIONARY
  5
3A1
102
{ACAD_REACTORS
330
C
102
}
330
C
100
AcDbDictionary
281
     1
  0
DICTIONARY
  5
39D
102
{ACAD_REACTORS
330
C
102
}
330
C
100
AcDbDictionary
281
     1
  3
Metric50
350
3A3
  0
DICTIONARY
  5
D
102
{ACAD_REACTORS
330
C
102
}
330
C
100
AcDbDictionary
281
     1
  3
NULOVY_BOD
350
415
  0
DICTIONARY
  5
1FF
102
{ACAD_REACTORS
330
C
102
}
330
C
100
AcDbDictionary
281
     1
  3
125B06R_S90SN12N6_2D_DormerPramet_jpg
350
200
  0
RASTERVARIABLES
  5
3A6
102
{ACAD_REACTORS
330
C
102
}
330
C
100
AcDbRasterVariables
 90
        0
 70
     1
 71
     1
 72
     1
  0
DICTIONARY
  5
1A
102
{ACAD_REACTORS
330
C
102
}
330
C
100
AcDbDictionary
281
     1
  3
Layout1
350
1E
  3
Layout2
350
26
  3
Model
350
22
  0
DICTIONARY
  5
43
102
{ACAD_REACTORS
330
C
102
}
330
C
100
AcDbDictionary
281
     1
  3
ByBlock
350
45
  3
ByLayer
350
44
  3
Global
350
46
  0
DICTIONARY
  5
6B
102
{ACAD_REACTORS
330
C
102
}
330
C
100
AcDbDictionary
281
     1
  3
Standard
350
6C
  0
DICTIONARY
  5
17
102
{ACAD_REACTORS
330
C
102
}
330
C
100
AcDbDictionary
281
     1
  3
Standard
350
18
  0
DICTIONARY
  5
19
102
{ACAD_REACTORS
330
C
102
}
330
C
100
AcDbDictionary
281
     1
  0
ACDBDICTIONARYWDFLT
  5
E
102
{ACAD_REACTORS
330
C
102
}
330
C
100
AcDbDictionary
281
     1
  3
Normal
350
F
100
AcDbDictionaryWithDefault
340
F
  0
DICTIONARY
  5
47
102
{ACAD_REACTORS
330
C
102
}
330
C
100
AcDbDictionary
281
     1
  3
A0
350
48
  3
A1
350
49
  3
A2
350
4A
  3
A3
350
4B
  3
A4
350
4C
  3
A5
350
4D
  3
A6
350
4E
  3
A7
350
4F
  3
A8
350
50
  3
A9
350
51
  3
B0
350
52
  3
B1
350
53
  3
B2
350
54
  3
B3
350
55
  3
B4
350
56
  3
B5
350
57
  3
B6
350
58
  3
B7
350
59
  3
B8
350
5A
  3
B9
350
5B
  3
C0
350
5C
  3
C1
350
5D
  3
C2
350
5E
  3
C3
350
5F
  3
C4
350
60
  3
C5
350
61
  3
C6
350
62
  3
C7
350
63
  3
C8
350
64
  3
C9
350
65
  3
D0
350
66
  3
D1
350
67
  3
D2
350
68
  0
DICTIONARY
  5
39E
102
{ACAD_REACTORS
330
C
102
}
330
C
100
AcDbDictionary
281
     1
  3
Metric50
350
3A2
  0
DICTIONARY
  5
69
102
{ACAD_REACTORS
330
C
102
}
330
C
100
AcDbDictionary
281
     1
  3
Standard
350
6A
  0
DICTIONARY
  5
2A
102
{ACAD_REACTORS
330
C
102
}
330
C
100
AcDbDictionary
281
     1
  3
2dWireframe
350
2F
  3
Basic
350
32
  3
Brighten
350
36
  3
ColorChange
350
3A
  3
Conceptual
350
34
  3
Dim
350
35
  3
EdgeColorOff
350
3D
  3
Facepattern
350
39
  3
Flat
350
2B
  3
FlatWithEdges
350
2C
  3
Gouraud
350
2D
  3
GouraudWithEdges
350
2E
  3
Hidden
350
31
  3
JitterOff
350
3B
  3
Linepattern
350
38
  3
OverhangOff
350
3C
  3
Realistic
350
33
  3
Shaded
350
42
  3
Shaded with edges
350
41
  3
Shades of Gray
350
3E
  3
Sketchy
350
3F
  3
Thicken
350
37
  3
Wireframe
350
30
  3
X-Ray
350
40
  0
XRECORD
  5
440
102
{ACAD_REACTORS
330
C
102
}
330
C
100
AcDbXrecord
280
     1
 90
        1
330
6A
  0
DICTIONARY
  5
35A
102
{ACAD_REACTORS
330
C
102
}
330
C
100
AcDbDictionary
281
     1
  3
CANNOSCALE
350
35B
  3
CMLEADERSTYLE
350
39C
  3
CTABLESTYLE
350
39B
  3
CVIEWDETAILSTYLE
350
43B
  3
CVIEWSECTIONSTYLE
350
43C
  3
MSLTSCALE
350
35C
  3
XCLIPFRAME
350
43D
  0
DICTIONARY
  5
446
102
{ACAD_REACTORS
330
C
102
}
330
C
100
AcDbDictionary
281
     1
  3
AcDsRecords
350
448
  3
AcDsSchemas
350
447
1001
ACAD
1070
     2
  0
DICTIONARY
  5
436
102
{ACAD_REACTORS
330
435
102
}
330
435
100
AcDbDictionary
281
     1
  0
XRECORD
  5
417
102
{ACAD_REACTORS
330
416
102
}
330
416
100
AcDbXrecord
280
     1
290
     1
  0
XRECORD
  5
419
102
{ACAD_REACTORS
330
418
102
}
330
418
100
AcDbXrecord
280
     1
290
     1
  0
XRECORD
  5
41B
102
{ACAD_REACTORS
330
41A
102
}
330
41A
100
AcDbXrecord
280
     1
290
     1
  0
XRECORD
  5
41D
102
{ACAD_REACTORS
330
41C
102
}
330
41C
100
AcDbXrecord
280
     1
290
     1
  0
XRECORD
  5
41F
102
{ACAD_REACTORS
330
41E
102
}
330
41E
100
AcDbXrecord
280
     1
290
     1
  0
XRECORD
  5
421
102
{ACAD_REACTORS
330
420
102
}
330
420
100
AcDbXrecord
280
     1
290
     1
  0
XRECORD
  5
423
102
{ACAD_REACTORS
330
422
102
}
330
422
100
AcDbXrecord
280
     1
290
     1
  0
XRECORD
  5
425
102
{ACAD_REACTORS
330
424
102
}
330
424
100
AcDbXrecord
280
     1
290
     1
  0
XRECORD
  5
427
102
{ACAD_REACTORS
330
426
102
}
330
426
100
AcDbXrecord
280
     1
290
     1
  0
XRECORD
  5
429
102
{ACAD_REACTORS
330
428
102
}
330
428
100
AcDbXrecord
280
     1
290
     1
  0
XRECORD
  5
42B
102
{ACAD_REACTORS
330
42A
102
}
330
42A
100
AcDbXrecord
280
     1
290
     1
  0
XRECORD
  5
42D
102
{ACAD_REACTORS
330
42C
102
}
330
42C
100
AcDbXrecord
280
     1
290
     1
  0
XRECORD
  5
42F
102
{ACAD_REACTORS
330
42E
102
}
330
42E
100
AcDbXrecord
280
     1
290
     1
  0
XRECORD
  5
431
102
{ACAD_REACTORS
330
430
102
}
330
430
100
AcDbXrecord
280
     1
290
     1
  0
SORTENTSTABLE
  5
3A9
102
{ACAD_REACTORS
330
3A8
102
}
330
3A8
100
AcDbSortentsTable
330
1F
331
3AA
  5
3AD
331
3AB
  5
3AE
331
3AC
  5
3AF
331
3AD
  5
3B0
331
3AE
  5
3B1
331
3AF
  5
3B4
331
3B0
  5
3B5
331
3B1
  5
3B6
331
3B2
  5
3B7
331
3B3
  5
3B8
331
3B4
  5
3B9
331
3B5
  5
3C9
331
3B6
  5
3CA
331
3B7
  5
3CB
331
3B8
  5
3CC
331
3B9
  5
3CD
331
3BA
  5
3CE
331
3BB
  5
3D5
331
3BC
  5
3D6
331
3BD
  5
3D7
331
3BE
  5
3D8
331
3BF
  5
3D9
331
3C0
  5
3DA
331
3C1
  5
2CB
331
3C2
  5
2E4
331
3C3
  5
315
331
3C4
  5
3AA
331
3C5
  5
3AB
331
3C6
  5
3AC
331
3C7
  5
3BB
331
3C8
  5
3BC
331
3C9
  5
3BD
331
3CA
  5
3BE
331
3CB
  5
3BF
331
3CC
  5
3C0
331
3CD
  5
3C1
331
3CE
  5
3C2
331
3CF
  5
3C3
331
3D0
  5
3C4
331
3D1
  5
3C5
331
3D2
  5
3C6
331
3D3
  5
3C7
331
3D4
  5
3C8
331
3D5
  5
3CF
331
3D6
  5
3D0
331
3D7
  5
3D1
331
3D8
  5
3D2
331
3D9
  5
3D3
331
3DA
  5
3D4
331
3DF
  5
3E4
331
3E0
  5
3E5
331
3E2
  5
3EB
331
3E5
  5
3EE
331
3E6
  5
3EF
331
3EB
  5
3F9
331
3EC
  5
3FA
331
3ED
  5
3FB
331
3EE
  5
3FC
331
3F2
  5
401
331
3F5
  5
405
331
3F6
  5
406
331
3F7
  5
3DC
331
3F8
  5
3DD
331
3F9
  5
3E2
331
3FA
  5
3E3
331
401
  5
3F7
331
402
  5
3F8
331
403
  5
3FF
331
404
  5
400
  0
ACDBDETAILVIEWSTYLE
  5
3A3
102
{ACAD_XDICTIONARY
360
47C
102
}
102
{ACAD_REACTORS
330
39D
102
}
330
39D
100
AcDbModelDocViewStyle
 70
     0
  3
Metric50
290
     0
100
AcDbDetailViewStyle
 70
     0
 71
     0
 90
        3
 71
     1
340
11
 62
   256
 40
5.0
340
0
 62
   256
 40
5.0
300

 40
0.0
280
     1
 71
     2
340
16
 90
       25
 62
   256
 71
     3
340
11
 62
   256
 40
5.0
 90
        0
 40
15.0
 90
        1
300
%<\AcVar ViewDetailId>% (%<\AcVar ViewScale \f "%sn">%)
 71
     4
340
16
 90
       25
 62
   256
340
16
 90
       25
 62
   256
280
     0
  0
GROUP
  5
415
102
{ACAD_REACTORS
330
D
102
}
330
D
100
AcDbGroup
300

 70
     0
 71
     1
340
73
  0
IMAGEDEF
  5
200
102
{ACAD_REACTORS
330
1FF
330
203
102
}
330
1FF
100
AcDbRasterImageDef
 90
        0
  1
C:\Users\pp0701\Desktop\zakaznik data\125B06R_S90SN12N6_2D_DormerPramet.jpg
 10
2089.0
 20
531.0
 11
0.0004786979415989
 21
0.0004786979415989
280
     1
281
     0
  0
LAYOUT
  5
1E
102
{ACAD_REACTORS
330
1A
102
}
330
1A
100
AcDbPlotSettings
  1

  2
none_device
  4

  6

 40
0.0
 41
0.0
 42
0.0
 43
0.0
 44
0.0
 45
0.0
 46
0.0
 47
0.0
 48
0.0
 49
0.0
140
0.0
141
0.0
142
1.0
143
1.0
 70
   688
 72
     0
 73
     0
 74
     5
  7

 75
    16
147
1.0
 76
     0
 77
     2
 78
   300
148
0.0
149
0.0
100
AcDbLayout
  1
Layout1
 70
     1
 71
     1
 10
-0.5
 20
-0.5
 11
5.0
 21
5.0
 12
0.0
 22
0.0
 32
0.0
 14
-0.5
 24
-0.5
 34
-0.5
 15
5.0
 25
5.0
 35
5.0
146
0.0
 13
0.0
 23
0.0
 33
0.0
 16
1.0
 26
0.0
 36
0.0
 17
0.0
 27
1.0
 37
0.0
 76
     0
330
1B
  0
LAYOUT
  5
26
102
{ACAD_REACTORS
330
1A
102
}
330
1A
100
AcDbPlotSettings
  1

  2
none_device
  4

  6

 40
0.0
 41
0.0
 42
0.0
 43
0.0
 44
0.0
 45
0.0
 46
0.0
 47
0.0
 48
0.0
 49
0.0
140
0.0
141
0.0
142
1.0
143
1.0
 70
   688
 72
     0
 73
     0
 74
     5
  7

 75
    16
147
1.0
 76
     0
 77
     2
 78
   300
148
0.0
149
0.0
100
AcDbLayout
  1
Layout2
 70
     1
 71
     2
 10
0.0
 20
0.0
 11
0.0
 21
0.0
 12
0.0
 22
0.0
 32
0.0
 14
0.0
 24
0.0
 34
0.0
 15
0.0
 25
0.0
 35
0.0
146
0.0
 13
0.0
 23
0.0
 33
0.0
 16
1.0
 26
0.0
 36
0.0
 17
0.0
 27
1.0
 37
0.0
 76
     0
330
23
  0
LAYOUT
  5
22
102
{ACAD_REACTORS
330
1A
102
}
330
1A
100
AcDbPlotSettings
  1

  2
none_device
  4
Letter_(8.50_x_11.00_Inches)
  6

 40
6.349999999999999
 41
6.349999999999999
 42
6.350005
 43
6.350005
 44
215.9
 45
279.4
 46
0.0
 47
0.0
 48
0.0
 49
0.0
140
0.0
141
0.0
142
1.0
143
1.0
 70
  1712
 72
     0
 73
     0
 74
     0
  7

 75
     0
147
1.0
 76
     0
 77
     2
 78
   300
148
0.0
149
0.0
100
AcDbLayout
  1
Model
 70
     1
 71
     0
 10
-0.5
 20
-0.5
 11
5.0
 21
5.0
 12
0.0
 22
0.0
 32
0.0
 14
-0.5
 24
-0.5
 34
-0.5
 15
5.0
 25
5.0
 35
5.0
146
0.0
 13
0.0
 23
0.0
 33
0.0
 16
1.0
 26
0.0
 36
0.0
 17
0.0
 27
1.0
 37
0.0
 76
     0
330
1F
331
29
  0
MATERIAL
  5
45
102
{ACAD_XDICTIONARY
360
390
102
}
102
{ACAD_REACTORS
330
43
102
}
330
43
100
AcDbMaterial
  1
ByBlock
  0
MATERIAL
  5
44
102
{ACAD_XDICTIONARY
360
38E
102
}
102
{ACAD_REACTORS
330
43
102
}
330
43
100
AcDbMaterial
  1
ByLayer
  0
MATERIAL
  5
46
102
{ACAD_XDICTIONARY
360
392
102
}
102
{ACAD_REACTORS
330
43
102
}
330
43
100
AcDbMaterial
  1
Global
  0
MLEADERSTYLE
  5
6C
102
{ACAD_REACTORS
330
6B
102
}
330
6B
100
AcDbMLeaderStyle
170
     2
171
     1
172
     0
 90
        2
 40
0.0
 41
0.0
173
     1
 91
-1056964608
340
14
 92
       -2
290
     1
 42
0.09
291
     1
 43
0.36
  3
Standard
 44
0.18
300

342
11
174
     1
178
     6
175
     1
176
     0
 93
-1056964608
 45
0.18
292
     0
297
     0
 46
0.18
 94
-1056964608
 47
1.0
 49
1.0
140
1.0
293
     1
141
0.0
294
     1
177
     0
142
1.0
295
     0
296
     0
143
0.125
1001
ACAD_MLEADERVER
1070
     2
  0
MLINESTYLE
  5
18
102
{ACAD_REACTORS
330
17
102
}
330
17
100
AcDbMlineStyle
  2
STANDARD
 70
     0
  3

 62
   256
 51
90.0
 52
90.0
 71
     2
 49
0.5
 62
   256
  6
BYLAYER
 49
-0.5
 62
   256
  6
BYLAYER
  0
ACDBPLACEHOLDER
  5
F
102
{ACAD_REACTORS
330
E
102
}
330
E
  0
SCALE
  5
48
102
{ACAD_REACTORS
330
47
102
}
330
47
100
AcDbScale
 70
     0
300
1:1
140
1.0
141
1.0
290
     1
  0
SCALE
  5
49
102
{ACAD_REACTORS
330
47
102
}
330
47
100
AcDbScale
 70
     0
300
1:2
140
1.0
141
2.0
290
     0
  0
SCALE
  5
4A
102
{ACAD_REACTORS
330
47
102
}
330
47
100
AcDbScale
 70
     0
300
1:4
140
1.0
141
4.0
290
     0
  0
SCALE
  5
4B
102
{ACAD_REACTORS
330
47
102
}
330
47
100
AcDbScale
 70
     0
300
1:5
140
1.0
141
5.0
290
     0
  0
SCALE
  5
4C
102
{ACAD_REACTORS
330
47
102
}
330
47
100
AcDbScale
 70
     0
300
1:8
140
1.0
141
8.0
290
     0
  0
SCALE
  5
4D
102
{ACAD_REACTORS
330
47
102
}
330
47
100
AcDbScale
 70
     0
300
1:10
140
1.0
141
10.0
290
     0
  0
SCALE
  5
4E
102
{ACAD_REACTORS
330
47
102
}
330
47
100
AcDbScale
 70
     0
300
1:16
140
1.0
141
16.0
290
     0
  0
SCALE
  5
4F
102
{ACAD_REACTORS
330
47
102
}
330
47
100
AcDbScale
 70
     0
300
1:20
140
1.0
141
20.0
290
     0
  0
SCALE
  5
50
102
{ACAD_REACTORS
330
47
102
}
330
47
100
AcDbScale
 70
     0
300
1:30
140
1.0
141
30.0
290
     0
  0
SCALE
  5
51
102
{ACAD_REACTORS
330
47
102
}
330
47
100
AcDbScale
 70
     0
300
1:40
140
1.0
141
40.0
290
     0
  0
SCALE
  5
52
102
{ACAD_REACTORS
330
47
102
}
330
47
100
AcDbScale
 70
     0
300
1:50
140
1.0
141
50.0
290
     0
  0
SCALE
  5
53
102
{ACAD_REACTORS
330
47
102
}
330
47
100
AcDbScale
 70
     0
300
1:100
140
1.0
141
100.0
290
     0
  0
SCALE
  5
54
102
{ACAD_REACTORS
330
47
102
}
330
47
100
AcDbScale
 70
     0
300
2:1
140
2.0
141
1.0
290
     0
  0
SCALE
  5
55
102
{ACAD_REACTORS
330
47
102
}
330
47
100
AcDbScale
 70
     0
300
4:1
140
4.0
141
1.0
290
     0
  0
SCALE
  5
56
102
{ACAD_REACTORS
330
47
102
}
330
47
100
AcDbScale
 70
     0
300
8:1
140
8.0
141
1.0
290
     0
  0
SCALE
  5
57
102
{ACAD_REACTORS
330
47
102
}
330
47
100
AcDbScale
 70
     0
300
10:1
140
10.0
141
1.0
290
     0
  0
SCALE
  5
58
102
{ACAD_REACTORS
330
47
102
}
330
47
100
AcDbScale
 70
     0
300
100:1
140
100.0
141
1.0
290
     0
  0
SCALE
  5
59
102
{ACAD_REACTORS
330
47
102
}
330
47
100
AcDbScale
 70
     0
300
1/128" = 1'-0"
140
0.007812
141
12.0
290
     0
  0
SCALE
  5
5A
102
{ACAD_REACTORS
330
47
102
}
330
47
100
AcDbScale
 70
     0
300
1/64" = 1'-0"
140
0.015625
141
12.0
290
     0
  0
SCALE
  5
5B
102
{ACAD_REACTORS
330
47
102
}
330
47
100
AcDbScale
 70
     0
300
1/32" = 1'-0"
140
0.03125
141
12.0
290
     0
  0
SCALE
  5
5C
102
{ACAD_REACTORS
330
47
102
}
330
47
100
AcDbScale
 70
     0
300
1/16" = 1'-0"
140
0.0625
141
12.0
290
     0
  0
SCALE
  5
5D
102
{ACAD_REACTORS
330
47
102
}
330
47
100
AcDbScale
 70
     0
300
3/32" = 1'-0"
140
0.09375
141
12.0
290
     0
  0
SCALE
  5
5E
102
{ACAD_REACTORS
330
47
102
}
330
47
100
AcDbScale
 70
     0
300
1/8" = 1'-0"
140
0.125
141
12.0
290
     0
  0
SCALE
  5
5F
102
{ACAD_REACTORS
330
47
102
}
330
47
100
AcDbScale
 70
     0
300
3/16" = 1'-0"
140
0.1875
141
12.0
290
     0
  0
SCALE
  5
60
102
{ACAD_REACTORS
330
47
102
}
330
47
100
AcDbScale
 70
     0
300
1/4" = 1'-0"
140
0.25
141
12.0
290
     0
  0
SCALE
  5
61
102
{ACAD_REACTORS
330
47
102
}
330
47
100
AcDbScale
 70
     0
300
3/8" = 1'-0"
140
0.375
141
12.0
290
     0
  0
SCALE
  5
62
102
{ACAD_REACTORS
330
47
102
}
330
47
100
AcDbScale
 70
     0
300
1/2" = 1'-0"
140
0.5
141
12.0
290
     0
  0
SCALE
  5
63
102
{ACAD_REACTORS
330
47
102
}
330
47
100
AcDbScale
 70
     0
300
3/4" = 1'-0"
140
0.75
141
12.0
290
     0
  0
SCALE
  5
64
102
{ACAD_REACTORS
330
47
102
}
330
47
100
AcDbScale
 70
     0
300
1" = 1'-0"
140
1.0
141
12.0
290
     0
  0
SCALE
  5
65
102
{ACAD_REACTORS
330
47
102
}
330
47
100
AcDbScale
 70
     0
300
1-1/2" = 1'-0"
140
1.5
141
12.0
290
     0
  0
SCALE
  5
66
102
{ACAD_REACTORS
330
47
102
}
330
47
100
AcDbScale
 70
     0
300
3" = 1'-0"
140
3.0
141
12.0
290
     0
  0
SCALE
  5
67
102
{ACAD_REACTORS
330
47
102
}
330
47
100
AcDbScale
 70
     0
300
6" = 1'-0"
140
6.0
141
12.0
290
     0
  0
SCALE
  5
68
102
{ACAD_REACTORS
330
47
102
}
330
47
100
AcDbScale
 70
     0
300
1'-0" = 1'-0"
140
12.0
141
12.0
290
     0
  0
ACDBSECTIONVIEWSTYLE
  5
3A2
102
{ACAD_XDICTIONARY
360
47A
102
}
102
{ACAD_REACTORS
330
39E
102
}
330
39E
100
AcDbModelDocViewStyle
 70
     0
  3
Metric50
290
     0
100
AcDbSectionViewStyle
 70
     0
 71
     0
 90
      102
 71
     1
340
11
 62
   256
 40
5.0
340
0
340
0
 62
   256
 40
5.0
300
I, O, Q, S, X, Z
 40
10.0
 90
        0
 40
2.5
 90
        0
 71
     2
340
16
 90
       25
 62
   256
340
16
 90
       50
 62
   256
 40
5.0
 40
2.5
 40
5.0
 71
     3
340
11
 62
   256
 40
5.0
 90
        0
 40
15.0
 90
        1
300
%<\AcVar ViewSectionStartId>%-%<\AcVar ViewSectionEndId>% (%<\AcVar ViewScale \f "%sn">%)
 71
     4
 62
   256
 62
   257
300
ANSI31
 40
1.0
 90
        0
290
     0
290
     0
 90
        6
 40
0.0
 40
1.570796326794896
 40
0.2617993877991494
 40
1.308996938995747
 40
-0.2617993877991494
 40
1.832595714594046
  0
TABLESTYLE
  5
6A
102
{ACAD_XDICTIONARY
360
394
102
}
102
{ACAD_REACTORS
330
69
102
}
330
69
100
AcDbTableStyle
  3
Standard
 70
     0
 71
     0
 40
0.06
 41
0.06
280
     0
281
     0
  7
Standard
140
0.18
170
     2
 62
     0
 63
     7
283
     0
274
    -2
284
     1
 64
     0
275
    -2
285
     1
 65
     0
276
    -2
286
     1
 66
     0
277
    -2
287
     1
 67
     0
278
    -2
288
     1
 68
     0
279
    -2
289
     1
 69
     0
  7
Standard
140
0.25
170
     5
 62
     0
 63
     7
283
     0
274
    -2
284
     1
 64
     0
275
    -2
285
     1
 65
     0
276
    -2
286
     1
 66
     0
277
    -2
287
     1
 67
     0
278
    -2
288
     1
 68
     0
279
    -2
289
     1
 69
     0
  7
Standard
140
0.18
170
     5
 62
     0
 63
     7
283
     0
274
    -2
284
     1
 64
     0
275
    -2
285
     1
 65
     0
276
    -2
286
     1
 66
     0
277
    -2
287
     1
 67
     0
278
    -2
288
     1
 68
     0
279
    -2
289
     1
 69
     0
  0
VISUALSTYLE
  5
2F
102
{ACAD_XDICTIONARY
360
451
102
}
102
{ACAD_REACTORS
330
2A
102
}
330
2A
100
AcDbVisualStyle
  2

 70
     4
 71
     0
 72
     2
 73
     0
 90
        0
 40
-0.6
 41
-30.0
 62
     5
 63
     7
421
 16777215
 74
     1
 91
        4
 64
     7
 65
   257
 75
     1
175
     1
 42
1.0
 92
        0
 66
   257
 43
1.0
 76
     1
 77
     6
 78
     2
 67
     7
 79
     5
170
     0
171
     0
290
     0
174
     0
 93
        1
 44
0.0
173
     0
291
     0
 45
0.0
1001
ACAD
1000
AcDbSavedByObjectVersion
1070
     0
  0
VISUALSTYLE
  5
32
102
{ACAD_XDICTIONARY
360
457
102
}
102
{ACAD_REACTORS
330
2A
102
}
330
2A
100
AcDbVisualStyle
  2

 70
     7
 71
     1
 72
     0
 73
     1
 90
        0
 40
-0.6
 41
-30.0
 62
     5
 63
     7
421
 16777215
 74
     0
 91
        4
 64
     7
 65
   257
 75
     1
175
     1
 42
1.0
 92
        8
 66
     7
 43
1.0
 76
     1
 77
     6
 78
     2
 67
     7
 79
     5
170
     0
171
     0
290
     0
174
     0
 93
        1
 44
0.0
173
     0
291
     1
 45
0.0
1001
ACAD
1000
AcDbSavedByObjectVersion
1070
     0
  0
VISUALSTYLE
  5
36
102
{ACAD_XDICTIONARY
360
45F
102
}
102
{ACAD_REACTORS
330
2A
102
}
330
2A
100
AcDbVisualStyle
  2

 70
    12
 71
     2
 72
     2
 73
     0
 90
        0
 40
-0.6
 41
-30.0
 62
     5
 63
     7
421
 16777215
 74
     1
 91
        4
 64
     7
 65
   257
 75
     1
175
     1
 42
1.0
 92
        8
 66
     7
 43
1.0
 76
     1
 77
     6
 78
     2
 67
     7
 79
     5
170
     0
171
     0
290
     0
174
     0
 93
        1
 44
50.0
173
     0
291
     1
 45
0.0
1001
ACAD
1000
AcDbSavedByObjectVersion
1070
     0
  0
VISUALSTYLE
  5
3A
102
{ACAD_XDICTIONARY
360
467
102
}
102
{ACAD_REACTORS
330
2A
102
}
330
2A
100
AcDbVisualStyle
  2

 70
    16
 71
     2
 72
     2
 73
     3
 90
        0
 40
-0.6
 41
-30.0
 62
     5
 63
     8
421
  8421504
 74
     1
 91
        4
 64
     7
 65
   257
 75
     1
175
     1
 42
1.0
 92
        8
 66
     8
424
  8421504
 43
1.0
 76
     1
 77
     6
 78
     2
 67
     7
 79
     5
170
     0
171
     0
290
     0
174
     0
 93
        1
 44
0.0
173
     0
291
     1
 45
0.0
1001
ACAD
1000
AcDbSavedByObjectVersion
1070
     0
  0
VISUALSTYLE
  5
34
102
{ACAD_XDICTIONARY
360
45B
102
}
102
{ACAD_REACTORS
330
2A
102
}
330
2A
100
AcDbVisualStyle
  2

 70
     9
 71
     3
 72
     2
 73
     0
 90
        0
 40
-0.6
 41
-30.0
 62
     5
 63
     7
421
 16777215
 74
     2
 91
        2
 64
     7
 65
   257
 75
     1
175
     1
 42
179.0
 92
        8
 66
     7
 43
1.0
 76
     1
 77
     6
 78
     2
 67
     7
 79
     3
170
     0
171
     0
290
     0
174
     0
 93
        1
 44
0.0
173
     0
291
     0
 45
0.0
1001
ACAD
1000
AcDbSavedByObjectVersion
1070
     0
  0
VISUALSTYLE
  5
35
102
{ACAD_XDICTIONARY
360
45D
102
}
102
{ACAD_REACTORS
330
2A
102
}
330
2A
100
AcDbVisualStyle
  2

 70
    11
 71
     2
 72
     2
 73
     0
 90
        0
 40
-0.6
 41
-30.0
 62
     5
 63
     7
421
 16777215
 74
     1
 91
        4
 64
     7
 65
   257
 75
     1
175
     1
 42
1.0
 92
        8
 66
     7
 43
1.0
 76
     1
 77
     6
 78
     2
 67
     7
 79
     5
170
     0
171
     0
290
     0
174
     0
 93
        1
 44
-50.0
173
     0
291
     1
 45
0.0
1001
ACAD
1000
AcDbSavedByObjectVersion
1070
     0
  0
VISUALSTYLE
  5
3D
102
{ACAD_XDICTIONARY
360
46D
102
}
102
{ACAD_REACTORS
330
2A
102
}
330
2A
100
AcDbVisualStyle
  2

 70
    22
 71
     2
 72
     2
 73
     0
 90
        0
 40
-0.6
 41
-30.0
 62
     5
 63
     7
421
 16777215
 74
     1
 91
        4
 64
     7
 65
   257
 75
     1
175
     1
 42
1.0
 92
        8
 66
     7
 43
1.0
 76
     1
 77
     6
 78
     2
 67
     7
 79
     5
170
     0
171
     0
290
     0
174
     0
 93
        1
 44
0.0
173
     0
291
     1
 45
0.0
1001
ACAD
1000
AcDbSavedByObjectVersion
1070
     0
  0
VISUALSTYLE
  5
39
102
{ACAD_XDICTIONARY
360
465
102
}
102
{ACAD_REACTORS
330
2A
102
}
330
2A
100
AcDbVisualStyle
  2

 70
    15
 71
     2
 72
     2
 73
     0
 90
        0
 40
-0.6
 41
-30.0
 62
     5
 63
     7
421
 16777215
 74
     1
 91
        4
 64
     7
 65
   257
 75
     1
175
     1
 42
1.0
 92
        8
 66
     7
 43
1.0
 76
     1
 77
     6
 78
     2
 67
     7
 79
     5
170
     0
171
     0
290
     0
174
     0
 93
        1
 44
0.0
173
     0
291
     1
 45
0.0
1001
ACAD
1000
AcDbSavedByObjectVersion
1070
     0
  0
VISUALSTYLE
  5
2B
102
{ACAD_XDICTIONARY
360
449
102
}
102
{ACAD_REACTORS
330
2A
102
}
330
2A
100
AcDbVisualStyle
  2

 70
     0
 71
     2
 72
     1
 73
     1
 90
        2
 40
-0.6
 41
30.0
 62
     5
 63
     7
421
 16777215
 74
     0
 91
        0
 64
     7
 65
   257
 75
     1
175
     1
 42
1.0
 92
        8
 66
     7
 43
1.0
 76
     1
 77
     6
 78
     2
 67
     7
 79
     5
170
     0
171
     0
290
     0
174
     0
 93
       13
 44
0.0
173
     0
291
     1
 45
0.0
1001
ACAD
1000
AcDbSavedByObjectVersion
1070
     0
  0
VISUALSTYLE
  5
2C
102
{ACAD_XDICTIONARY
360
44B
102
}
102
{ACAD_REACTORS
330
2A
102
}
330
2A
100
AcDbVisualStyle
  2

 70
     1
 71
     2
 72
     1
 73
     1
 90
        2
 40
-0.6
 41
30.0
 62
     5
 63
     7
421
 16777215
 74
     1
 91
        0
 64
     7
 65
   257
 75
     1
175
     1
 42
1.0
 92
        0
 66
   257
 43
1.0
 76
     1
 77
     6
 78
     2
 67
     7
 79
     5
170
     0
171
     0
290
     0
174
     0
 93
       13
 44
0.0
173
     0
291
     1
 45
0.0
1001
ACAD
1000
AcDbSavedByObjectVersion
1070
     0
  0
VISUALSTYLE
  5
2D
102
{ACAD_XDICTIONARY
360
44D
102
}
102
{ACAD_REACTORS
330
2A
102
}
330
2A
100
AcDbVisualStyle
  2

 70
     2
 71
     2
 72
     2
 73
     1
 90
        2
 40
-0.6
 41
30.0
 62
     5
 63
     7
421
 16777215
 74
     0
 91
        0
 64
     7
 65
   257
 75
     1
175
     1
 42
1.0
 92
        0
 66
     7
 43
1.0
 76
     1
 77
     6
 78
     2
 67
     7
 79
     5
170
     0
171
     0
290
     0
174
     0
 93
       13
 44
0.0
173
     0
291
     1
 45
0.0
1001
ACAD
1000
AcDbSavedByObjectVersion
1070
     0
  0
VISUALSTYLE
  5
2E
102
{ACAD_XDICTIONARY
360
44F
102
}
102
{ACAD_REACTORS
330
2A
102
}
330
2A
100
AcDbVisualStyle
  2

 70
     3
 71
     2
 72
     2
 73
     1
 90
        2
 40
-0.6
 41
30.0
 62
     5
 63
     7
421
 16777215
 74
     1
 91
        0
 64
     7
 65
   257
 75
     1
175
     1
 42
1.0
 92
        0
 66
   257
 43
1.0
 76
     1
 77
     6
 78
     2
 67
     7
 79
     5
170
     0
171
     0
290
     0
174
     0
 93
       13
 44
0.0
173
     0
291
     1
 45
0.0
1001
ACAD
1000
AcDbSavedByObjectVersion
1070
     0
  0
VISUALSTYLE
  5
31
102
{ACAD_XDICTIONARY
360
455
102
}
102
{ACAD_REACTORS
330
2A
102
}
330
2A
100
AcDbVisualStyle
  2

 70
     6
 71
     1
 72
     2
 73
     2
 90
        0
 40
-0.6
 41
-30.0
 62
     5
 63
     7
421
 16777215
 74
     2
 91
        2
 64
     7
 65
   257
 75
     2
175
     1
 42
40.0
 92
        0
 66
   257
 43
1.0
 76
     1
 77
     6
 78
     2
 67
     7
 79
     3
170
     0
171
     0
290
     0
174
     0
 93
        1
 44
0.0
173
     0
291
     0
 45
0.0
1001
ACAD
1000
AcDbSavedByObjectVersion
1070
     0
  0
VISUALSTYLE
  5
3B
102
{ACAD_XDICTIONARY
360
469
102
}
102
{ACAD_REACTORS
330
2A
102
}
330
2A
100
AcDbVisualStyle
  2

 70
    20
 71
     2
 72
     2
 73
     0
 90
        0
 40
-0.6
 41
-30.0
 62
     5
 63
     7
421
 16777215
 74
     1
 91
        4
 64
     7
 65
   257
 75
     1
175
     1
 42
1.0
 92
       10
 66
     7
 43
1.0
 76
     1
 77
     6
 78
     2
 67
     7
 79
     5
170
     0
171
     0
290
     0
174
     0
 93
        1
 44
0.0
173
     0
291
     1
 45
0.0
1001
ACAD
1000
AcDbSavedByObjectVersion
1070
     0
  0
VISUALSTYLE
  5
38
102
{ACAD_XDICTIONARY
360
463
102
}
102
{ACAD_REACTORS
330
2A
102
}
330
2A
100
AcDbVisualStyle
  2

 70
    14
 71
     2
 72
     2
 73
     0
 90
        0
 40
-0.6
 41
-30.0
 62
     5
 63
     7
421
 16777215
 74
     1
 91
        4
 64
     7
 65
   257
 75
     7
175
     7
 42
1.0
 92
        8
 66
     7
 43
1.0
 76
     1
 77
     6
 78
     2
 67
     7
 79
     5
170
     0
171
     0
290
     0
174
     0
 93
        1
 44
0.0
173
     0
291
     1
 45
0.0
1001
ACAD
1000
AcDbSavedByObjectVersion
1070
     0
  0
VISUALSTYLE
  5
3C
102
{ACAD_XDICTIONARY
360
46B
102
}
102
{ACAD_REACTORS
330
2A
102
}
330
2A
100
AcDbVisualStyle
  2

 70
    21
 71
     2
 72
     2
 73
     0
 90
        0
 40
-0.6
 41
-30.0
 62
     5
 63
     7
421
 16777215
 74
     1
 91
        4
 64
     7
 65
   257
 75
     1
175
     1
 42
1.0
 92
        9
 66
     7
 43
1.0
 76
     1
 77
     6
 78
     2
 67
     7
 79
     5
170
     0
171
     0
290
     0
174
     0
 93
        1
 44
0.0
173
     0
291
     1
 45
0.0
1001
ACAD
1000
AcDbSavedByObjectVersion
1070
     0
  0
VISUALSTYLE
  5
33
102
{ACAD_XDICTIONARY
360
459
102
}
102
{ACAD_REACTORS
330
2A
102
}
330
2A
100
AcDbVisualStyle
  2

 70
     8
 71
     2
 72
     3
 73
     0
 90
        2
 40
-0.6
 41
30.0
 62
     5
 63
     7
421
 16777215
 74
     0
 91
        0
 64
     7
 65
   257
 75
     1
175
     1
 42
1.0
 92
        8
 66
   257
 43
1.0
 76
     1
 77
     6
 78
     2
 67
     7
 79
     3
170
     0
171
     0
290
     0
174
     0
 93
       13
 44
0.0
173
     0
291
     0
 45
0.0
1001
ACAD
1000
AcDbSavedByObjectVersion
1070
     0
  0
VISUALSTYLE
  5
42
102
{ACAD_XDICTIONARY
360
477
102
}
102
{ACAD_REACTORS
330
2A
102
}
330
2A
100
AcDbVisualStyle
  2

 70
    27
 71
     2
 72
     2
 73
     1
 90
        2
 40
-0.6
 41
30.0
 62
     5
 63
     7
421
 16777215
 74
     0
 91
        4
 64
     7
 65
   257
 75
     1
175
     1
 42
1.0
 92
        8
 66
   257
 43
1.0
 76
     1
 77
     6
 78
     2
 67
     8
425
  7895160
 79
     3
170
     0
171
     0
290
     0
174
     0
 93
        5
 44
0.0
173
     0
291
     0
 45
0.0
1001
ACAD
1000
AcDbSavedByObjectVersion
1070
     0
  0
VISUALSTYLE
  5
41
102
{ACAD_XDICTIONARY
360
475
102
}
102
{ACAD_REACTORS
330
2A
102
}
330
2A
100
AcDbVisualStyle
  2

 70
    26
 71
     2
 72
     2
 73
     1
 90
        2
 40
-0.6
 41
30.0
 62
     5
 63
     7
421
 16777215
 74
     1
 91
       10
 64
     7
 65
   257
 75
     2
175
     1
 42
1.0
 92
        8
 66
   257
 43
1.0
 76
     1
 77
     6
 78
     2
 67
     7
 79
     3
170
     0
171
     0
290
     0
174
     0
 93
        5
 44
0.0
173
     0
291
     0
 45
0.0
1001
ACAD
1000
AcDbSavedByObjectVersion
1070
     0
  0
VISUALSTYLE
  5
3E
102
{ACAD_XDICTIONARY
360
46F
102
}
102
{ACAD_REACTORS
330
2A
102
}
330
2A
100
AcDbVisualStyle
  2

 70
    23
 71
     2
 72
     2
 73
     3
 90
        0
 40
-0.6
 41
-30.0
 62
     5
 63
     7
421
 16777215
 74
     2
 91
        2
 64
     7
 65
     7
 75
     1
175
     1
 42
40.0
 92
        8
 66
     7
 43
1.0
 76
     1
 77
     6
 78
     2
 67
     7
 79
     3
170
     0
171
     0
290
     0
174
     0
 93
        1
 44
0.0
173
     0
291
     0
 45
0.0
1001
ACAD
1000
AcDbSavedByObjectVersion
1070
     0
  0
VISUALSTYLE
  5
3F
102
{ACAD_XDICTIONARY
360
471
102
}
102
{ACAD_REACTORS
330
2A
102
}
330
2A
100
AcDbVisualStyle
  2

 70
    24
 71
     1
 72
     2
 73
     2
 90
        0
 40
-0.6
 41
-30.0
 62
     5
 63
     7
421
 16777215
 74
     2
 91
        2
 64
     7
 65
     7
 75
     1
175
     1
 42
40.0
 92
       11
 66
     7
 43
1.0
 76
     1
 77
     6
 78
     2
 67
     7
 79
     6
170
     0
171
     0
290
     0
174
     0
 93
        1
 44
0.0
173
     0
291
     0
 45
0.0
1001
ACAD
1000
AcDbSavedByObjectVersion
1070
     0
  0
VISUALSTYLE
  5
37
102
{ACAD_XDICTIONARY
360
461
102
}
102
{ACAD_REACTORS
330
2A
102
}
330
2A
100
AcDbVisualStyle
  2

 70
    13
 71
     2
 72
     2
 73
     0
 90
        0
 40
-0.6
 41
-30.0
 62
     5
 63
     7
421
 16777215
 74
     1
 91
        4
 64
     7
 65
   257
 75
     1
175
     1
 42
1.0
 92
       12
 66
     7
 43
1.0
 76
     1
 77
     6
 78
     2
 67
     7
 79
     5
170
     0
171
     0
290
     0
174
     0
 93
        1
 44
0.0
173
     0
291
     1
 45
0.0
1001
ACAD
1000
AcDbSavedByObjectVersion
1070
     0
  0
VISUALSTYLE
  5
30
102
{ACAD_XDICTIONARY
360
453
102
}
102
{ACAD_REACTORS
330
2A
102
}
330
2A
100
AcDbVisualStyle
  2

 70
     5
 71
     0
 72
     2
 73
     0
 90
        0
 40
-0.6
 41
-30.0
 62
     5
 63
     7
421
 16777215
 74
     1
 91
        4
 64
     7
 65
   257
 75
     1
175
     1
 42
1.0
 92
        0
 66
   257
 43
1.0
 76
     1
 77
     6
 78
     2
 67
     7
 79
     3
170
     0
171
     0
290
     0
174
     0
 93
        1
 44
0.0
173
     0
291
     0
 45
0.0
1001
ACAD
1000
AcDbSavedByObjectVersion
1070
     0
  0
VISUALSTYLE
  5
40
102
{ACAD_XDICTIONARY
360
473
102
}
102
{ACAD_REACTORS
330
2A
102
}
330
2A
100
AcDbVisualStyle
  2

 70
    25
 71
     2
 72
     2
 73
     1
 90
        1
 40
0.5
 41
-30.0
 62
     5
 63
     7
421
 16777215
 74
     1
 91
        0
 64
     7
 65
   257
 75
     1
175
     1
 42
1.0
 92
        8
 66
     7
 43
1.0
 76
     1
 77
     6
 78
     2
 67
     7
 79
     3
170
     0
171
     0
290
     0
174
     0
 93
       13
 44
0.0
173
     0
291
     0
 45
0.0
1001
ACAD
1000
AcDbSavedByObjectVersion
1070
     0
  0
DICTIONARYVAR
  5
35B
102
{ACAD_REACTORS
330
35A
102
}
330
35A
100
DictionaryVariables
280
     0
  1
1:1
  0
DICTIONARYVAR
  5
39C
102
{ACAD_REACTORS
330
35A
102
}
330
35A
100
DictionaryVariables
280
     0
  1
STANDARD
  0
DICTIONARYVAR
  5
39B
102
{ACAD_REACTORS
330
35A
102
}
330
35A
100
DictionaryVariables
280
     0
  1
STANDARD
  0
DICTIONARYVAR
  5
43B
102
{ACAD_REACTORS
330
35A
102
}
330
35A
100
DictionaryVariables
280
     0
  1
Metric50
  0
DICTIONARYVAR
  5
43C
102
{ACAD_REACTORS
330
35A
102
}
330
35A
100
DictionaryVariables
280
     0
  1
Metric50
  0
DICTIONARYVAR
  5
35C
102
{ACAD_REACTORS
330
35A
102
}
330
35A
100
DictionaryVariables
280
     0
  1
1
  0
DICTIONARYVAR
  5
43D
102
{ACAD_REACTORS
330
35A
102
}
330
35A
100
DictionaryVariables
280
     0
  1
2
  0
DICTIONARY
  5
448
102
{ACAD_REACTORS
330
446
102
}
330
446
100
AcDbDictionary
281
     1
  0
DICTIONARY
  5
447
102
{ACAD_REACTORS
330
446
102
}
330
446
100
AcDbDictionary
281
     1
  3
2237138651280
350
441
  3
2237138651296
350
442
  3
2237138651312
350
443
  3
2237138651328
350
444
  3
2237138651344
350
445
  0
DICTIONARY
  5
47C
330
3A3
100
AcDbDictionary
280
     1
281
     1
  3
ACAD_XREC_ROUNDTRIP
360
47D
  0
DICTIONARY
  5
390
330
45
100
AcDbDictionary
280
     1
281
     1
  3
ACAD_XREC_ROUNDTRIP
360
391
  0
DICTIONARY
  5
38E
330
44
100
AcDbDictionary
280
     1
281
     1
  3
ACAD_XREC_ROUNDTRIP
360
38F
  0
DICTIONARY
  5
392
330
46
100
AcDbDictionary
280
     1
281
     1
  3
ACAD_XREC_ROUNDTRIP
360
393
  0
DICTIONARY
  5
47A
330
3A2
100
AcDbDictionary
280
     1
281
     1
  3
ACAD_XREC_ROUNDTRIP
360
47B
  0
DICTIONARY
  5
394
330
6A
100
AcDbDictionary
280
     1
281
     1
  3
ACAD_ROUNDTRIP_2008_TABLESTYLE_CELLSTYLEMAP
360
43F
  3
ACAD_XREC_ROUNDTRIP
360
479
  0
DICTIONARY
  5
451
330
2F
100
AcDbDictionary
280
     1
281
     1
  3
ACAD_XREC_ROUNDTRIP
360
452
  0
DICTIONARY
  5
457
330
32
100
AcDbDictionary
280
     1
281
     1
  3
ACAD_XREC_ROUNDTRIP
360
458
  0
DICTIONARY
  5
45F
330
36
100
AcDbDictionary
280
     1
281
     1
  3
ACAD_XREC_ROUNDTRIP
360
460
  0
DICTIONARY
  5
467
330
3A
100
AcDbDictionary
280
     1
281
     1
  3
ACAD_XREC_ROUNDTRIP
360
468
  0
DICTIONARY
  5
45B
330
34
100
AcDbDictionary
280
     1
281
     1
  3
ACAD_XREC_ROUNDTRIP
360
45C
  0
DICTIONARY
  5
45D
330
35
100
AcDbDictionary
280
     1
281
     1
  3
ACAD_XREC_ROUNDTRIP
360
45E
  0
DICTIONARY
  5
46D
330
3D
100
AcDbDictionary
280
     1
281
     1
  3
ACAD_XREC_ROUNDTRIP
360
46E
  0
DICTIONARY
  5
465
330
39
100
AcDbDictionary
280
     1
281
     1
  3
ACAD_XREC_ROUNDTRIP
360
466
  0
DICTIONARY
  5
449
330
2B
100
AcDbDictionary
280
     1
281
     1
  3
ACAD_XREC_ROUNDTRIP
360
44A
  0
DICTIONARY
  5
44B
330
2C
100
AcDbDictionary
280
     1
281
     1
  3
ACAD_XREC_ROUNDTRIP
360
44C
  0
DICTIONARY
  5
44D
330
2D
100
AcDbDictionary
280
     1
281
     1
  3
ACAD_XREC_ROUNDTRIP
360
44E
  0
DICTIONARY
  5
44F
330
2E
100
AcDbDictionary
280
     1
281
     1
  3
ACAD_XREC_ROUNDTRIP
360
450
  0
DICTIONARY
  5
455
330
31
100
AcDbDictionary
280
     1
281
     1
  3
ACAD_XREC_ROUNDTRIP
360
456
  0
DICTIONARY
  5
469
330
3B
100
AcDbDictionary
280
     1
281
     1
  3
ACAD_XREC_ROUNDTRIP
360
46A
  0
DICTIONARY
  5
463
330
38
100
AcDbDictionary
280
     1
281
     1
  3
ACAD_XREC_ROUNDTRIP
360
464
  0
DICTIONARY
  5
46B
330
3C
100
AcDbDictionary
280
     1
281
     1
  3
ACAD_XREC_ROUNDTRIP
360
46C
  0
DICTIONARY
  5
459
330
33
100
AcDbDictionary
280
     1
281
     1
  3
ACAD_XREC_ROUNDTRIP
360
45A
  0
DICTIONARY
  5
477
330
42
100
AcDbDictionary
280
     1
281
     1
  3
ACAD_XREC_ROUNDTRIP
360
478
  0
DICTIONARY
  5
475
330
41
100
AcDbDictionary
280
     1
281
     1
  3
ACAD_XREC_ROUNDTRIP
360
476
  0
DICTIONARY
  5
46F
330
3E
100
AcDbDictionary
280
     1
281
     1
  3
ACAD_XREC_ROUNDTRIP
360
470
  0
DICTIONARY
  5
471
330
3F
100
AcDbDictionary
280
     1
281
     1
  3
ACAD_XREC_ROUNDTRIP
360
472
  0
DICTIONARY
  5
461
330
37
100
AcDbDictionary
280
     1
281
     1
  3
ACAD_XREC_ROUNDTRIP
360
462
  0
DICTIONARY
  5
453
330
30
100
AcDbDictionary
280
     1
281
     1
  3
ACAD_XREC_ROUNDTRIP
360
454
  0
DICTIONARY
  5
473
330
40
100
AcDbDictionary
280
     1
281
     1
  3
ACAD_XREC_ROUNDTRIP
360
474
  0
XRECORD
  5
441
102
{ACAD_REACTORS
330
447
102
}
330
447
100
AcDbXrecord
280
     1
  1
AcDb_Thumbnail_Schema
102
{ATTRRECORD
341
442
  2
AcDbDs::TreatedAsObjectData
280
     1
291
     1
102
ATTRRECORD}
102
{ATTRRECORD
341
443
  2
AcDbDs::Legacy
280
     1
291
     1
102
ATTRRECORD}
  2
AcDbDs::ID
280
    10
 91
        8
102
{ATTRRECORD
341
444
  2
AcDs:Indexable
280
     1
291
     1
102
ATTRRECORD}
102
{ATTRRECORD
341
445
  2
AcDbDs::HandleAttribute
280
     7
282
     1
102
ATTRRECORD}
  2
Thumbnail_Data
280
    15
 91
        0
  0
XRECORD
  5
442
102
{ACAD_REACTORS
330
447
102
}
330
447
100
AcDbXrecord
280
     1
  1
AcDbDs::TreatedAsObjectDataSchema
  2
AcDbDs::TreatedAsObjectData
280
     1
 91
        0
  0
XRECORD
  5
443
102
{ACAD_REACTORS
330
447
102
}
330
447
100
AcDbXrecord
280
     1
  1
AcDbDs::LegacySchema
  2
AcDbDs::Legacy
280
     1
 91
        0
  0
XRECORD
  5
444
102
{ACAD_REACTORS
330
447
102
}
330
447
100
AcDbXrecord
280
     1
  1
AcDbDs::IndexedPropertySchema
  2
AcDs:Indexable
280
     1
 91
        0
  0
XRECORD
  5
445
102
{ACAD_REACTORS
330
447
102
}
330
447
100
AcDbXrecord
280
     1
  1
AcDbDs::HandleAttributeSchema
  2
AcDbDs::HandleAttribute
280
     7
 91
        1
284
     1
  0
XRECORD
  5
47D
102
{ACAD_REACTORS
330
47C
102
}
330
47C
100
AcDbXrecord
280
     1
102
DISPLAYNAME
  1
Metric50
102
FLAGS
 90
        0
  0
XRECORD
  5
391
102
{ACAD_REACTORS
330
390
102
}
330
390
100
AcDbXrecord
280
     1
102
MATERIAL
148
0.0
149
0.0
149
0.0
 93
        0
 94
      127
282
     0
 72
     1
 77
     1
171
     1
175
     1
179
     1
273
     0
  0
XRECORD
  5
38F
102
{ACAD_REACTORS
330
38E
102
}
330
38E
100
AcDbXrecord
280
     1
102
MATERIAL
148
0.0
149
0.0
149
0.0
 93
        0
 94
      127
282
     0
 72
     1
 77
     1
171
     1
175
     1
179
     1
273
     0
  0
XRECORD
  5
393
102
{ACAD_REACTORS
330
392
102
}
330
392
100
AcDbXrecord
280
     1
102
MATERIAL
148
0.0
149
0.0
149
0.0
 93
        0
 94
      127
282
     0
 72
     1
 77
     1
171
     1
175
     1
179
     1
273
     0
  0
XRECORD
  5
47B
102
{ACAD_REACTORS
330
47A
102
}
330
47A
100
AcDbXrecord
280
     1
102
DISPLAYNAME
  1
Metric50
102
FLAGS
 90
        0
  0
CELLSTYLEMAP
  5
43F
102
{ACAD_REACTORS
330
394
102
}
330
394
100
AcDbCellStyleMap
 90
        3
300
CELLSTYLE
  1
TABLEFORMAT_BEGIN
 90
        5
170
     1
 91
        0
 92
    32768
 62
   257
 93
        1
300
CONTENTFORMAT
  1
CONTENTFORMAT_BEGIN
 90
        0
 91
        0
 92
        4
 93
        0
300

 40
0.0
140
1.0
 94
        5
 62
     0
340
11
144
0.25
309
CONTENTFORMAT_END
171
     1
301
MARGIN
  1
CELLMARGIN_BEGIN
 40
0.06
 40
0.06
 40
0.06
 40
0.06
 40
0.18
 40
0.18
309
CELLMARGIN_END
 94
        6
 95
        1
302
GRIDFORMAT
  1
GRIDFORMAT_BEGIN
 90
        0
 91
        1
 62
     0
 92
       -2
340
14
 93
        0
 40
0.045
309
GRIDFORMAT_END
 95
        2
302
GRIDFORMAT
  1
GRIDFORMAT_BEGIN
 90
        0
 91
        1
 62
     0
 92
       -2
340
14
 93
        0
 40
0.045
309
GRIDFORMAT_END
 95
        4
302
GRIDFORMAT
  1
GRIDFORMAT_BEGIN
 90
        0
 91
        1
 62
     0
 92
       -2
340
14
 93
        0
 40
0.045
309
GRIDFORMAT_END
 95
        8
302
GRIDFORMAT
  1
GRIDFORMAT_BEGIN
 90
        0
 91
        1
 62
     0
 92
       -2
340
14
 93
        0
 40
0.045
309
GRIDFORMAT_END
 95
       16
302
GRIDFORMAT
  1
GRIDFORMAT_BEGIN
 90
        0
 91
        1
 62
     0
 92
       -2
340
14
 93
        0
 40
0.045
309
GRIDFORMAT_END
 95
       32
302
GRIDFORMAT
  1
GRIDFORMAT_BEGIN
 90
        0
 91
        1
 62
     0
 92
       -2
340
14
 93
        0
 40
0.045
309
GRIDFORMAT_END
309
TABLEFORMAT_END
  1
CELLSTYLE_BEGIN
 90
        1
 91
        1
300
_TITLE
309
CELLSTYLE_END
300
CELLSTYLE
  1
TABLEFORMAT_BEGIN
 90
        5
170
     1
 91
        0
 92
        0
 62
   257
 93
        1
300
CONTENTFORMAT
  1
CONTENTFORMAT_BEGIN
 90
        0
 91
        0
 92
        4
 93
        0
300

 40
0.0
140
1.0
 94
        5
 62
     0
340
11
144
0.18
309
CONTENTFORMAT_END
171
     1
301
MARGIN
  1
CELLMARGIN_BEGIN
 40
0.06
 40
0.06
 40
0.06
 40
0.06
 40
0.18
 40
0.18
309
CELLMARGIN_END
 94
        6
 95
        1
302
GRIDFORMAT
  1
GRIDFORMAT_BEGIN
 90
        0
 91
        1
 62
     0
 92
       -2
340
14
 93
        0
 40
0.045
309
GRIDFORMAT_END
 95
        2
302
GRIDFORMAT
  1
GRIDFORMAT_BEGIN
 90
        0
 91
        1
 62
     0
 92
       -2
340
14
 93
        0
 40
0.045
309
GRIDFORMAT_END
 95
        4
302
GRIDFORMAT
  1
GRIDFORMAT_BEGIN
 90
        0
 91
        1
 62
     0
 92
       -2
340
14
 93
        0
 40
0.045
309
GRIDFORMAT_END
 95
        8
302
GRIDFORMAT
  1
GRIDFORMAT_BEGIN
 90
        0
 91
        1
 62
     0
 92
       -2
340
14
 93
        0
 40
0.045
309
GRIDFORMAT_END
 95
       16
302
GRIDFORMAT
  1
GRIDFORMAT_BEGIN
 90
        0
 91
        1
 62
     0
 92
       -2
340
14
 93
        0
 40
0.045
309
GRIDFORMAT_END
 95
       32
302
GRIDFORMAT
  1
GRIDFORMAT_BEGIN
 90
        0
 91
        1
 62
     0
 92
       -2
340
14
 93
        0
 40
0.045
309
GRIDFORMAT_END
309
TABLEFORMAT_END
  1
CELLSTYLE_BEGIN
 90
        2
 91
        1
300
_HEADER
309
CELLSTYLE_END
300
CELLSTYLE
  1
TABLEFORMAT_BEGIN
 90
        5
170
     1
 91
        0
 92
        0
 62
   257
 93
        1
300
CONTENTFORMAT
  1
CONTENTFORMAT_BEGIN
 90
        0
 91
        0
 92
        4
 93
        0
300

 40
0.0
140
1.0
 94
        2
 62
     0
340
11
144
0.18
309
CONTENTFORMAT_END
171
     1
301
MARGIN
  1
CELLMARGIN_BEGIN
 40
0.06
 40
0.06
 40
0.06
 40
0.06
 40
0.18
 40
0.18
309
CELLMARGIN_END
 94
        6
 95
        1
302
GRIDFORMAT
  1
GRIDFORMAT_BEGIN
 90
        0
 91
        1
 62
     0
 92
       -2
340
14
 93
        0
 40
0.045
309
GRIDFORMAT_END
 95
        2
302
GRIDFORMAT
  1
GRIDFORMAT_BEGIN
 90
        0
 91
        1
 62
     0
 92
       -2
340
14
 93
        0
 40
0.045
309
GRIDFORMAT_END
 95
        4
302
GRIDFORMAT
  1
GRIDFORMAT_BEGIN
 90
        0
 91
        1
 62
     0
 92
       -2
340
14
 93
        0
 40
0.045
309
GRIDFORMAT_END
 95
        8
302
GRIDFORMAT
  1
GRIDFORMAT_BEGIN
 90
        0
 91
        1
 62
     0
 92
       -2
340
14
 93
        0
 40
0.045
309
GRIDFORMAT_END
 95
       16
302
GRIDFORMAT
  1
GRIDFORMAT_BEGIN
 90
        0
 91
        1
 62
     0
 92
       -2
340
14
 93
        0
 40
0.045
309
GRIDFORMAT_END
 95
       32
302
GRIDFORMAT
  1
GRIDFORMAT_BEGIN
 90
        0
 91
        1
 62
     0
 92
       -2
340
14
 93
        0
 40
0.045
309
GRIDFORMAT_END
309
TABLEFORMAT_END
  1
CELLSTYLE_BEGIN
 90
        3
 91
        2
300
_DATA
309
CELLSTYLE_END
  0
XRECORD
  5
479
102
{ACAD_REACTORS
330
394
102
}
330
394
100
AcDbXrecord
280
     1
102
ACAD_ROUNDTRIP_PRE2007_TABLESTYLE
 90
        4
 91
        0
  1

 92
        4
 93
        0
  2

 94
        4
 95
        0
  3

  0
XRECORD
  5
452
102
{ACAD_REACTORS
330
451
102
}
330
451
100
AcDbXrecord
280
     1
102
RTVSPost2010Prop28
280
     1
102
RTVSPost2010PropOp28
 70
     1
102
RTVSPost2010Prop29
280
     1
102
RTVSPost2010PropOp29
 70
     1
102
RTVSPost2010Prop30
280
     0
102
RTVSPost2010PropOp30
 70
     1
102
RTVSPost2010Prop31
280
     0
102
RTVSPost2010PropOp31
 70
     1
102
RTVSPost2010Prop32
280
     0
102
RTVSPost2010PropOp32
 70
     1
102
RTVSPost2010Prop33
280
     0
102
RTVSPost2010PropOp33
 70
     1
102
RTVSPost2010Prop34
280
     0
102
RTVSPost2010PropOp34
 70
     1
102
RTVSPost2010Prop35
280
     0
102
RTVSPost2010PropOp35
 70
     1
102
RTVSPost2010Prop36
280
     0
102
RTVSPost2010PropOp36
 70
     1
102
RTVSPost2010Prop37
 90
       50
102
RTVSPost2010PropOp37
 70
     1
102
RTVSPost2010Prop38
140
0.0
102
RTVSPost2010PropOp38
 70
     1
102
RTVSPost2010Prop39
140
1.0
102
RTVSPost2010PropOp39
 70
     1
102
RTVSPost2010Prop40
 90
        0
102
RTVSPost2010PropOp40
 70
     1
102
RTVSPost2010Prop41ColorIndex
 90
       18
102
RTVSPost2010Prop41ColorRGB
 90
        0
102
RTVSPost2010PropOp41
 70
     1
102
RTVSPost2010Prop42
 90
       50
102
RTVSPost2010PropOp42
 70
     1
102
RTVSPost2010Prop43
 90
        3
102
RTVSPost2010PropOp43
 70
     1
102
RTVSPost2010Prop44ColorIndex
 90
        5
102
RTVSPost2010Prop44ColorRGB
 90
      255
102
RTVSPost2010PropOp44
 70
     1
102
RTVSPost2010Prop45
280
     0
102
RTVSPost2010PropOp45
 70
     1
102
RTVSPost2010Prop46
 90
       50
102
RTVSPost2010PropOp46
 70
     1
102
RTVSPost2010Prop47
 90
       50
102
RTVSPost2010PropOp47
 70
     1
102
RTVSPost2010Prop48
 90
       50
102
RTVSPost2010PropOp48
 70
     1
102
RTVSPost2010Prop49
280
     0
102
RTVSPost2010PropOp49
 70
     1
102
RTVSPost2010Prop50
 90
       50
102
RTVSPost2010PropOp50
 70
     1
102
RTVSPost2010Prop51ColorIndex
 90
      256
102
RTVSPost2010Prop51ColorRGB
 90
-16777216
102
RTVSPost2010PropOp51
 70
     0
102
RTVSPost2010Prop52
140
1.0
102
RTVSPost2010PropOp52
 70
     0
102
RTVSPost2010Prop53
 90
        2
102
RTVSPost2010PropOp53
 70
     1
102
RTVSPost2010Prop54
  1
strokes_ogs.tif
102
RTVSPost2010PropOp54
 70
     1
102
RTVSPost2010Prop55
280
     0
102
RTVSPost2010PropOp55
 70
     1
102
RTVSPost2010Prop56
140
1.0
102
RTVSPost2010PropOp56
 70
     1
102
RTVSPost2010Prop57
140
1.0
102
RTVSPost2010PropOp57
 70
     1
102
RTVSPropertyOp0
 70
     1
102
RTVSPropertyOp1
 70
     1
102
RTVSPropertyOp2
 70
     1
102
RTVSPropertyOp3
 70
     1
102
RTVSPropertyOp4
 70
     1
102
RTVSPropertyOp5
 70
     1
102
RTVSPropertyOp6
 70
     1
102
RTVSPropertyOp7
 70
     1
102
RTVSPropertyOp8
 70
     1
102
RTVSPropertyOp9
 70
     1
102
RTVSPropertyOp10
 70
     1
102
RTVSPropertyOp11
 70
     1
102
RTVSPropertyOp12
 70
     1
102
RTVSPropertyOp13
 70
     1
102
RTVSPropertyOp14
 70
     1
102
RTVSPropertyOp15
 70
     1
102
RTVSPropertyOp16
 70
     1
102
RTVSPropertyOp17
 70
     1
102
RTVSPropertyOp18
 70
     1
102
RTVSPropertyOp19
 70
     1
102
RTVSPropertyOp20
 70
     1
102
RTVSPropertyOp21
 70
     1
102
RTVSPropertyOp22
 70
     1
102
RTVSPropertyOp23
 70
     1
102
RTVSPropertyOp24
 70
     1
102
RTVSPropertyOp25
 70
     1
102
RTVSPropertyOp26
 70
     1
102
RTVSPropertyOp27
 70
     1
102
RTVSPropertyOp28
 70
     1
102
RTVSPropertyOp29
 70
     1
102
RTVSPropertyOp30
 70
     1
102
RTVSPropertyOp31
 70
     1
102
RTVSPropertyOp32
 70
     1
102
RTVSPropertyOp33
 70
     1
102
RTVSPropertyOp34
 70
     1
102
RTVSPropertyOp35
 70
     1
102
RTVSPropertyOp36
 70
     1
102
RTVSPropertyOp37
 70
     1
102
RTVSPropertyOp38
 70
     1
102
RTVSPropertyOp39
 70
     1
102
RTVSPropertyOp40
 70
     1
102
RTVSPropertyOp41
 70
     1
102
RTVSPropertyOp42
 70
     1
102
RTVSPropertyOp43
 70
     1
102
RTVSPropertyOp44
 70
     1
102
RTVSPropertyOp45
 70
     1
102
RTVSPropertyOp46
 70
     1
102
RTVSPropertyOp47
 70
     1
102
RTVSPropertyOp48
 70
     1
102
RTVSPropertyOp49
 70
     1
102
RTVSPropertyOp50
 70
     1
102
RTVSPropertyOp51
 70
     0
102
RTVSPropertyOp52
 70
     0
102
RTVSPropertyOp53
 70
     1
102
RTVSPropertyOp54
 70
     1
102
RTVSPropertyOp55
 70
     1
102
RTVSPropertyOp56
 70
     1
102
RTVSPropertyOp57
 70
     1
102
RTVSPropertyOp58
 70
     1
102
RTVSPropertyOp59
 70
     1
102
RTVSPropertyOp60
 70
     1
102
RTVSPropertyOp61
 70
     1
102
RTVSPropertyOp62
 70
     1
  0
XRECORD
  5
458
102
{ACAD_REACTORS
330
457
102
}
330
457
100
AcDbXrecord
280
     1
102
RTVSPost2010Prop28
280
     0
102
RTVSPost2010PropOp28
 70
     1
102
RTVSPost2010Prop29
280
     1
102
RTVSPost2010PropOp29
 70
     1
102
RTVSPost2010Prop30
280
     1
102
RTVSPost2010PropOp30
 70
     1
102
RTVSPost2010Prop31
280
     0
102
RTVSPost2010PropOp31
 70
     1
102
RTVSPost2010Prop32
280
     0
102
RTVSPost2010PropOp32
 70
     1
102
RTVSPost2010Prop33
280
     0
102
RTVSPost2010PropOp33
 70
     1
102
RTVSPost2010Prop34
280
     0
102
RTVSPost2010PropOp34
 70
     1
102
RTVSPost2010Prop35
280
     0
102
RTVSPost2010PropOp35
 70
     1
102
RTVSPost2010Prop36
280
     0
102
RTVSPost2010PropOp36
 70
     1
102
RTVSPost2010Prop37
 90
       50
102
RTVSPost2010PropOp37
 70
     1
102
RTVSPost2010Prop38
140
0.0
102
RTVSPost2010PropOp38
 70
     1
102
RTVSPost2010Prop39
140
1.0
102
RTVSPost2010PropOp39
 70
     1
102
RTVSPost2010Prop40
 90
        0
102
RTVSPost2010PropOp40
 70
     1
102
RTVSPost2010Prop41ColorIndex
 90
       18
102
RTVSPost2010Prop41ColorRGB
 90
        0
102
RTVSPost2010PropOp41
 70
     1
102
RTVSPost2010Prop42
 90
       50
102
RTVSPost2010PropOp42
 70
     1
102
RTVSPost2010Prop43
 90
        3
102
RTVSPost2010PropOp43
 70
     1
102
RTVSPost2010Prop44ColorIndex
 90
        5
102
RTVSPost2010Prop44ColorRGB
 90
      255
102
RTVSPost2010PropOp44
 70
     1
102
RTVSPost2010Prop45
280
     0
102
RTVSPost2010PropOp45
 70
     1
102
RTVSPost2010Prop46
 90
       50
102
RTVSPost2010PropOp46
 70
     1
102
RTVSPost2010Prop47
 90
       50
102
RTVSPost2010PropOp47
 70
     1
102
RTVSPost2010Prop48
 90
       50
102
RTVSPost2010PropOp48
 70
     1
102
RTVSPost2010Prop49
280
     0
102
RTVSPost2010PropOp49
 70
     1
102
RTVSPost2010Prop50
 90
       50
102
RTVSPost2010PropOp50
 70
     1
102
RTVSPost2010Prop51ColorIndex
 90
      256
102
RTVSPost2010Prop51ColorRGB
 90
-16777216
102
RTVSPost2010PropOp51
 70
     0
102
RTVSPost2010Prop52
140
1.0
102
RTVSPost2010PropOp52
 70
     0
102
RTVSPost2010Prop53
 90
        2
102
RTVSPost2010PropOp53
 70
     1
102
RTVSPost2010Prop54
  1
strokes_ogs.tif
102
RTVSPost2010PropOp54
 70
     1
102
RTVSPost2010Prop55
280
     0
102
RTVSPost2010PropOp55
 70
     1
102
RTVSPost2010Prop56
140
1.0
102
RTVSPost2010PropOp56
 70
     1
102
RTVSPost2010Prop57
140
1.0
102
RTVSPost2010PropOp57
 70
     1
102
RTVSPropertyOp0
 70
     1
102
RTVSPropertyOp1
 70
     1
102
RTVSPropertyOp2
 70
     1
102
RTVSPropertyOp3
 70
     1
102
RTVSPropertyOp4
 70
     1
102
RTVSPropertyOp5
 70
     1
102
RTVSPropertyOp6
 70
     1
102
RTVSPropertyOp7
 70
     1
102
RTVSPropertyOp8
 70
     1
102
RTVSPropertyOp9
 70
     1
102
RTVSPropertyOp10
 70
     1
102
RTVSPropertyOp11
 70
     1
102
RTVSPropertyOp12
 70
     1
102
RTVSPropertyOp13
 70
     1
102
RTVSPropertyOp14
 70
     1
102
RTVSPropertyOp15
 70
     1
102
RTVSPropertyOp16
 70
     1
102
RTVSPropertyOp17
 70
     1
102
RTVSPropertyOp18
 70
     1
102
RTVSPropertyOp19
 70
     1
102
RTVSPropertyOp20
 70
     1
102
RTVSPropertyOp21
 70
     1
102
RTVSPropertyOp22
 70
     1
102
RTVSPropertyOp23
 70
     1
102
RTVSPropertyOp24
 70
     1
102
RTVSPropertyOp25
 70
     1
102
RTVSPropertyOp26
 70
     1
102
RTVSPropertyOp27
 70
     1
102
RTVSPropertyOp28
 70
     1
102
RTVSPropertyOp29
 70
     1
102
RTVSPropertyOp30
 70
     1
102
RTVSPropertyOp31
 70
     1
102
RTVSPropertyOp32
 70
     1
102
RTVSPropertyOp33
 70
     1
102
RTVSPropertyOp34
 70
     1
102
RTVSPropertyOp35
 70
     1
102
RTVSPropertyOp36
 70
     1
102
RTVSPropertyOp37
 70
     1
102
RTVSPropertyOp38
 70
     1
102
RTVSPropertyOp39
 70
     1
102
RTVSPropertyOp40
 70
     1
102
RTVSPropertyOp41
 70
     1
102
RTVSPropertyOp42
 70
     1
102
RTVSPropertyOp43
 70
     1
102
RTVSPropertyOp44
 70
     1
102
RTVSPropertyOp45
 70
     1
102
RTVSPropertyOp46
 70
     1
102
RTVSPropertyOp47
 70
     1
102
RTVSPropertyOp48
 70
     1
102
RTVSPropertyOp49
 70
     1
102
RTVSPropertyOp50
 70
     1
102
RTVSPropertyOp51
 70
     0
102
RTVSPropertyOp52
 70
     0
102
RTVSPropertyOp53
 70
     1
102
RTVSPropertyOp54
 70
     1
102
RTVSPropertyOp55
 70
     1
102
RTVSPropertyOp56
 70
     1
102
RTVSPropertyOp57
 70
     1
102
RTVSPropertyOp58
 70
     1
102
RTVSPropertyOp59
 70
     1
102
RTVSPropertyOp60
 70
     1
102
RTVSPropertyOp61
 70
     1
102
RTVSPropertyOp62
 70
     1
  0
XRECORD
  5
460
102
{ACAD_REACTORS
330
45F
102
}
330
45F
100
AcDbXrecord
280
     1
102
RTVSPost2010Prop28
280
     0
102
RTVSPost2010PropOp28
 70
     1
102
RTVSPost2010Prop29
280
     1
102
RTVSPost2010PropOp29
 70
     1
102
RTVSPost2010Prop30
280
     1
102
RTVSPost2010PropOp30
 70
     1
102
RTVSPost2010Prop31
280
     0
102
RTVSPost2010PropOp31
 70
     1
102
RTVSPost2010Prop32
280
     0
102
RTVSPost2010PropOp32
 70
     1
102
RTVSPost2010Prop33
280
     0
102
RTVSPost2010PropOp33
 70
     1
102
RTVSPost2010Prop34
280
     0
102
RTVSPost2010PropOp34
 70
     1
102
RTVSPost2010Prop35
280
     0
102
RTVSPost2010PropOp35
 70
     1
102
RTVSPost2010Prop36
280
     0
102
RTVSPost2010PropOp36
 70
     1
102
RTVSPost2010Prop37
 90
       50
102
RTVSPost2010PropOp37
 70
     1
102
RTVSPost2010Prop38
140
0.0
102
RTVSPost2010PropOp38
 70
     1
102
RTVSPost2010Prop39
140
1.0
102
RTVSPost2010PropOp39
 70
     1
102
RTVSPost2010Prop40
 90
        0
102
RTVSPost2010PropOp40
 70
     1
102
RTVSPost2010Prop41ColorIndex
 90
       18
102
RTVSPost2010Prop41ColorRGB
 90
        0
102
RTVSPost2010PropOp41
 70
     1
102
RTVSPost2010Prop42
 90
       50
102
RTVSPost2010PropOp42
 70
     1
102
RTVSPost2010Prop43
 90
        3
102
RTVSPost2010PropOp43
 70
     1
102
RTVSPost2010Prop44ColorIndex
 90
        5
102
RTVSPost2010Prop44ColorRGB
 90
      255
102
RTVSPost2010PropOp44
 70
     1
102
RTVSPost2010Prop45
280
     0
102
RTVSPost2010PropOp45
 70
     1
102
RTVSPost2010Prop46
 90
       50
102
RTVSPost2010PropOp46
 70
     1
102
RTVSPost2010Prop47
 90
       50
102
RTVSPost2010PropOp47
 70
     1
102
RTVSPost2010Prop48
 90
       50
102
RTVSPost2010PropOp48
 70
     1
102
RTVSPost2010Prop49
280
     0
102
RTVSPost2010PropOp49
 70
     1
102
RTVSPost2010Prop50
 90
       50
102
RTVSPost2010PropOp50
 70
     1
102
RTVSPost2010Prop51ColorIndex
 90
      256
102
RTVSPost2010Prop51ColorRGB
 90
-16777216
102
RTVSPost2010PropOp51
 70
     0
102
RTVSPost2010Prop52
140
1.0
102
RTVSPost2010PropOp52
 70
     0
102
RTVSPost2010Prop53
 90
        2
102
RTVSPost2010PropOp53
 70
     1
102
RTVSPost2010Prop54
  1
strokes_ogs.tif
102
RTVSPost2010PropOp54
 70
     1
102
RTVSPost2010Prop55
280
     0
102
RTVSPost2010PropOp55
 70
     1
102
RTVSPost2010Prop56
140
1.0
102
RTVSPost2010PropOp56
 70
     1
102
RTVSPost2010Prop57
140
1.0
102
RTVSPost2010PropOp57
 70
     1
102
RTVSPropertyOp0
 70
     1
102
RTVSPropertyOp1
 70
     1
102
RTVSPropertyOp2
 70
     1
102
RTVSPropertyOp3
 70
     1
102
RTVSPropertyOp4
 70
     1
102
RTVSPropertyOp5
 70
     1
102
RTVSPropertyOp6
 70
     1
102
RTVSPropertyOp7
 70
     1
102
RTVSPropertyOp8
 70
     1
102
RTVSPropertyOp9
 70
     1
102
RTVSPropertyOp10
 70
     1
102
RTVSPropertyOp11
 70
     1
102
RTVSPropertyOp12
 70
     1
102
RTVSPropertyOp13
 70
     1
102
RTVSPropertyOp14
 70
     1
102
RTVSPropertyOp15
 70
     1
102
RTVSPropertyOp16
 70
     1
102
RTVSPropertyOp17
 70
     1
102
RTVSPropertyOp18
 70
     1
102
RTVSPropertyOp19
 70
     1
102
RTVSPropertyOp20
 70
     1
102
RTVSPropertyOp21
 70
     1
102
RTVSPropertyOp22
 70
     1
102
RTVSPropertyOp23
 70
     1
102
RTVSPropertyOp24
 70
     1
102
RTVSPropertyOp25
 70
     1
102
RTVSPropertyOp26
 70
     1
102
RTVSPropertyOp27
 70
     1
102
RTVSPropertyOp28
 70
     1
102
RTVSPropertyOp29
 70
     1
102
RTVSPropertyOp30
 70
     1
102
RTVSPropertyOp31
 70
     1
102
RTVSPropertyOp32
 70
     1
102
RTVSPropertyOp33
 70
     1
102
RTVSPropertyOp34
 70
     1
102
RTVSPropertyOp35
 70
     1
102
RTVSPropertyOp36
 70
     1
102
RTVSPropertyOp37
 70
     1
102
RTVSPropertyOp38
 70
     1
102
RTVSPropertyOp39
 70
     1
102
RTVSPropertyOp40
 70
     1
102
RTVSPropertyOp41
 70
     1
102
RTVSPropertyOp42
 70
     1
102
RTVSPropertyOp43
 70
     1
102
RTVSPropertyOp44
 70
     1
102
RTVSPropertyOp45
 70
     1
102
RTVSPropertyOp46
 70
     1
102
RTVSPropertyOp47
 70
     1
102
RTVSPropertyOp48
 70
     1
102
RTVSPropertyOp49
 70
     1
102
RTVSPropertyOp50
 70
     1
102
RTVSPropertyOp51
 70
     0
102
RTVSPropertyOp52
 70
     0
102
RTVSPropertyOp53
 70
     1
102
RTVSPropertyOp54
 70
     1
102
RTVSPropertyOp55
 70
     1
102
RTVSPropertyOp56
 70
     1
102
RTVSPropertyOp57
 70
     1
102
RTVSPropertyOp58
 70
     1
102
RTVSPropertyOp59
 70
     1
102
RTVSPropertyOp60
 70
     1
102
RTVSPropertyOp61
 70
     1
102
RTVSPropertyOp62
 70
     1
  0
XRECORD
  5
468
102
{ACAD_REACTORS
330
467
102
}
330
467
100
AcDbXrecord
280
     1
102
RTVSPost2010Prop28
280
     0
102
RTVSPost2010PropOp28
 70
     1
102
RTVSPost2010Prop29
280
     1
102
RTVSPost2010PropOp29
 70
     1
102
RTVSPost2010Prop30
280
     1
102
RTVSPost2010PropOp30
 70
     1
102
RTVSPost2010Prop31
280
     0
102
RTVSPost2010PropOp31
 70
     1
102
RTVSPost2010Prop32
280
     0
102
RTVSPost2010PropOp32
 70
     1
102
RTVSPost2010Prop33
280
     0
102
RTVSPost2010PropOp33
 70
     1
102
RTVSPost2010Prop34
280
     0
102
RTVSPost2010PropOp34
 70
     1
102
RTVSPost2010Prop35
280
     0
102
RTVSPost2010PropOp35
 70
     1
102
RTVSPost2010Prop36
280
     0
102
RTVSPost2010PropOp36
 70
     1
102
RTVSPost2010Prop37
 90
       50
102
RTVSPost2010PropOp37
 70
     1
102
RTVSPost2010Prop38
140
0.0
102
RTVSPost2010PropOp38
 70
     1
102
RTVSPost2010Prop39
140
1.0
102
RTVSPost2010PropOp39
 70
     1
102
RTVSPost2010Prop40
 90
        0
102
RTVSPost2010PropOp40
 70
     1
102
RTVSPost2010Prop41ColorIndex
 90
       18
102
RTVSPost2010Prop41ColorRGB
 90
        0
102
RTVSPost2010PropOp41
 70
     1
102
RTVSPost2010Prop42
 90
       50
102
RTVSPost2010PropOp42
 70
     1
102
RTVSPost2010Prop43
 90
        3
102
RTVSPost2010PropOp43
 70
     1
102
RTVSPost2010Prop44ColorIndex
 90
        5
102
RTVSPost2010Prop44ColorRGB
 90
      255
102
RTVSPost2010PropOp44
 70
     1
102
RTVSPost2010Prop45
280
     0
102
RTVSPost2010PropOp45
 70
     1
102
RTVSPost2010Prop46
 90
       50
102
RTVSPost2010PropOp46
 70
     1
102
RTVSPost2010Prop47
 90
       50
102
RTVSPost2010PropOp47
 70
     1
102
RTVSPost2010Prop48
 90
       50
102
RTVSPost2010PropOp48
 70
     1
102
RTVSPost2010Prop49
280
     0
102
RTVSPost2010PropOp49
 70
     1
102
RTVSPost2010Prop50
 90
       50
102
RTVSPost2010PropOp50
 70
     1
102
RTVSPost2010Prop51ColorIndex
 90
      256
102
RTVSPost2010Prop51ColorRGB
 90
-16777216
102
RTVSPost2010PropOp51
 70
     0
102
RTVSPost2010Prop52
140
1.0
102
RTVSPost2010PropOp52
 70
     0
102
RTVSPost2010Prop53
 90
        2
102
RTVSPost2010PropOp53
 70
     1
102
RTVSPost2010Prop54
  1
strokes_ogs.tif
102
RTVSPost2010PropOp54
 70
     1
102
RTVSPost2010Prop55
280
     0
102
RTVSPost2010PropOp55
 70
     1
102
RTVSPost2010Prop56
140
1.0
102
RTVSPost2010PropOp56
 70
     1
102
RTVSPost2010Prop57
140
1.0
102
RTVSPost2010PropOp57
 70
     1
102
RTVSPropertyOp0
 70
     1
102
RTVSPropertyOp1
 70
     1
102
RTVSPropertyOp2
 70
     1
102
RTVSPropertyOp3
 70
     1
102
RTVSPropertyOp4
 70
     1
102
RTVSPropertyOp5
 70
     1
102
RTVSPropertyOp6
 70
     1
102
RTVSPropertyOp7
 70
     1
102
RTVSPropertyOp8
 70
     1
102
RTVSPropertyOp9
 70
     1
102
RTVSPropertyOp10
 70
     1
102
RTVSPropertyOp11
 70
     1
102
RTVSPropertyOp12
 70
     1
102
RTVSPropertyOp13
 70
     1
102
RTVSPropertyOp14
 70
     1
102
RTVSPropertyOp15
 70
     1
102
RTVSPropertyOp16
 70
     1
102
RTVSPropertyOp17
 70
     1
102
RTVSPropertyOp18
 70
     1
102
RTVSPropertyOp19
 70
     1
102
RTVSPropertyOp20
 70
     1
102
RTVSPropertyOp21
 70
     1
102
RTVSPropertyOp22
 70
     1
102
RTVSPropertyOp23
 70
     1
102
RTVSPropertyOp24
 70
     1
102
RTVSPropertyOp25
 70
     1
102
RTVSPropertyOp26
 70
     1
102
RTVSPropertyOp27
 70
     1
102
RTVSPropertyOp28
 70
     1
102
RTVSPropertyOp29
 70
     1
102
RTVSPropertyOp30
 70
     1
102
RTVSPropertyOp31
 70
     1
102
RTVSPropertyOp32
 70
     1
102
RTVSPropertyOp33
 70
     1
102
RTVSPropertyOp34
 70
     1
102
RTVSPropertyOp35
 70
     1
102
RTVSPropertyOp36
 70
     1
102
RTVSPropertyOp37
 70
     1
102
RTVSPropertyOp38
 70
     1
102
RTVSPropertyOp39
 70
     1
102
RTVSPropertyOp40
 70
     1
102
RTVSPropertyOp41
 70
     1
102
RTVSPropertyOp42
 70
     1
102
RTVSPropertyOp43
 70
     1
102
RTVSPropertyOp44
 70
     1
102
RTVSPropertyOp45
 70
     1
102
RTVSPropertyOp46
 70
     1
102
RTVSPropertyOp47
 70
     1
102
RTVSPropertyOp48
 70
     1
102
RTVSPropertyOp49
 70
     1
102
RTVSPropertyOp50
 70
     1
102
RTVSPropertyOp51
 70
     0
102
RTVSPropertyOp52
 70
     0
102
RTVSPropertyOp53
 70
     1
102
RTVSPropertyOp54
 70
     1
102
RTVSPropertyOp55
 70
     1
102
RTVSPropertyOp56
 70
     1
102
RTVSPropertyOp57
 70
     1
102
RTVSPropertyOp58
 70
     1
102
RTVSPropertyOp59
 70
     1
102
RTVSPropertyOp60
 70
     1
102
RTVSPropertyOp61
 70
     1
102
RTVSPropertyOp62
 70
     1
  0
XRECORD
  5
45C
102
{ACAD_REACTORS
330
45B
102
}
330
45B
100
AcDbXrecord
280
     1
102
RTVSPost2010Prop28
280
     0
102
RTVSPost2010PropOp28
 70
     1
102
RTVSPost2010Prop29
280
     1
102
RTVSPost2010PropOp29
 70
     1
102
RTVSPost2010Prop30
280
     1
102
RTVSPost2010PropOp30
 70
     1
102
RTVSPost2010Prop31
280
     0
102
RTVSPost2010PropOp31
 70
     1
102
RTVSPost2010Prop32
280
     0
102
RTVSPost2010PropOp32
 70
     1
102
RTVSPost2010Prop33
280
     0
102
RTVSPost2010PropOp33
 70
     1
102
RTVSPost2010Prop34
280
     0
102
RTVSPost2010PropOp34
 70
     1
102
RTVSPost2010Prop35
280
     0
102
RTVSPost2010PropOp35
 70
     1
102
RTVSPost2010Prop36
280
     0
102
RTVSPost2010PropOp36
 70
     1
102
RTVSPost2010Prop37
 90
       50
102
RTVSPost2010PropOp37
 70
     1
102
RTVSPost2010Prop38
140
0.0
102
RTVSPost2010PropOp38
 70
     1
102
RTVSPost2010Prop39
140
1.0
102
RTVSPost2010PropOp39
 70
     1
102
RTVSPost2010Prop40
 90
        0
102
RTVSPost2010PropOp40
 70
     1
102
RTVSPost2010Prop41ColorIndex
 90
       18
102
RTVSPost2010Prop41ColorRGB
 90
        0
102
RTVSPost2010PropOp41
 70
     1
102
RTVSPost2010Prop42
 90
       50
102
RTVSPost2010PropOp42
 70
     1
102
RTVSPost2010Prop43
 90
        3
102
RTVSPost2010PropOp43
 70
     1
102
RTVSPost2010Prop44ColorIndex
 90
        5
102
RTVSPost2010Prop44ColorRGB
 90
      255
102
RTVSPost2010PropOp44
 70
     1
102
RTVSPost2010Prop45
280
     0
102
RTVSPost2010PropOp45
 70
     1
102
RTVSPost2010Prop46
 90
       50
102
RTVSPost2010PropOp46
 70
     1
102
RTVSPost2010Prop47
 90
       50
102
RTVSPost2010PropOp47
 70
     1
102
RTVSPost2010Prop48
 90
       50
102
RTVSPost2010PropOp48
 70
     1
102
RTVSPost2010Prop49
280
     0
102
RTVSPost2010PropOp49
 70
     1
102
RTVSPost2010Prop50
 90
       50
102
RTVSPost2010PropOp50
 70
     1
102
RTVSPost2010Prop51ColorIndex
 90
      256
102
RTVSPost2010Prop51ColorRGB
 90
-16777216
102
RTVSPost2010PropOp51
 70
     0
102
RTVSPost2010Prop52
140
1.0
102
RTVSPost2010PropOp52
 70
     0
102
RTVSPost2010Prop53
 90
        2
102
RTVSPost2010PropOp53
 70
     1
102
RTVSPost2010Prop54
  1
strokes_ogs.tif
102
RTVSPost2010PropOp54
 70
     1
102
RTVSPost2010Prop55
280
     0
102
RTVSPost2010PropOp55
 70
     1
102
RTVSPost2010Prop56
140
1.0
102
RTVSPost2010PropOp56
 70
     1
102
RTVSPost2010Prop57
140
1.0
102
RTVSPost2010PropOp57
 70
     1
102
RTVSPropertyOp0
 70
     1
102
RTVSPropertyOp1
 70
     1
102
RTVSPropertyOp2
 70
     1
102
RTVSPropertyOp3
 70
     1
102
RTVSPropertyOp4
 70
     1
102
RTVSPropertyOp5
 70
     1
102
RTVSPropertyOp6
 70
     1
102
RTVSPropertyOp7
 70
     1
102
RTVSPropertyOp8
 70
     1
102
RTVSPropertyOp9
 70
     1
102
RTVSPropertyOp10
 70
     1
102
RTVSPropertyOp11
 70
     1
102
RTVSPropertyOp12
 70
     1
102
RTVSPropertyOp13
 70
     1
102
RTVSPropertyOp14
 70
     1
102
RTVSPropertyOp15
 70
     1
102
RTVSPropertyOp16
 70
     1
102
RTVSPropertyOp17
 70
     1
102
RTVSPropertyOp18
 70
     1
102
RTVSPropertyOp19
 70
     1
102
RTVSPropertyOp20
 70
     1
102
RTVSPropertyOp21
 70
     1
102
RTVSPropertyOp22
 70
     1
102
RTVSPropertyOp23
 70
     1
102
RTVSPropertyOp24
 70
     1
102
RTVSPropertyOp25
 70
     1
102
RTVSPropertyOp26
 70
     1
102
RTVSPropertyOp27
 70
     1
102
RTVSPropertyOp28
 70
     1
102
RTVSPropertyOp29
 70
     1
102
RTVSPropertyOp30
 70
     1
102
RTVSPropertyOp31
 70
     1
102
RTVSPropertyOp32
 70
     1
102
RTVSPropertyOp33
 70
     1
102
RTVSPropertyOp34
 70
     1
102
RTVSPropertyOp35
 70
     1
102
RTVSPropertyOp36
 70
     1
102
RTVSPropertyOp37
 70
     1
102
RTVSPropertyOp38
 70
     1
102
RTVSPropertyOp39
 70
     1
102
RTVSPropertyOp40
 70
     1
102
RTVSPropertyOp41
 70
     1
102
RTVSPropertyOp42
 70
     1
102
RTVSPropertyOp43
 70
     1
102
RTVSPropertyOp44
 70
     1
102
RTVSPropertyOp45
 70
     1
102
RTVSPropertyOp46
 70
     1
102
RTVSPropertyOp47
 70
     1
102
RTVSPropertyOp48
 70
     1
102
RTVSPropertyOp49
 70
     1
102
RTVSPropertyOp50
 70
     1
102
RTVSPropertyOp51
 70
     0
102
RTVSPropertyOp52
 70
     0
102
RTVSPropertyOp53
 70
     1
102
RTVSPropertyOp54
 70
     1
102
RTVSPropertyOp55
 70
     1
102
RTVSPropertyOp56
 70
     1
102
RTVSPropertyOp57
 70
     1
102
RTVSPropertyOp58
 70
     1
102
RTVSPropertyOp59
 70
     1
102
RTVSPropertyOp60
 70
     1
102
RTVSPropertyOp61
 70
     1
102
RTVSPropertyOp62
 70
     1
  0
XRECORD
  5
45E
102
{ACAD_REACTORS
330
45D
102
}
330
45D
100
AcDbXrecord
280
     1
102
RTVSPost2010Prop28
280
     0
102
RTVSPost2010PropOp28
 70
     1
102
RTVSPost2010Prop29
280
     1
102
RTVSPost2010PropOp29
 70
     1
102
RTVSPost2010Prop30
280
     1
102
RTVSPost2010PropOp30
 70
     1
102
RTVSPost2010Prop31
280
     0
102
RTVSPost2010PropOp31
 70
     1
102
RTVSPost2010Prop32
280
     0
102
RTVSPost2010PropOp32
 70
     1
102
RTVSPost2010Prop33
280
     0
102
RTVSPost2010PropOp33
 70
     1
102
RTVSPost2010Prop34
280
     0
102
RTVSPost2010PropOp34
 70
     1
102
RTVSPost2010Prop35
280
     0
102
RTVSPost2010PropOp35
 70
     1
102
RTVSPost2010Prop36
280
     0
102
RTVSPost2010PropOp36
 70
     1
102
RTVSPost2010Prop37
 90
       50
102
RTVSPost2010PropOp37
 70
     1
102
RTVSPost2010Prop38
140
0.0
102
RTVSPost2010PropOp38
 70
     1
102
RTVSPost2010Prop39
140
1.0
102
RTVSPost2010PropOp39
 70
     1
102
RTVSPost2010Prop40
 90
        0
102
RTVSPost2010PropOp40
 70
     1
102
RTVSPost2010Prop41ColorIndex
 90
       18
102
RTVSPost2010Prop41ColorRGB
 90
        0
102
RTVSPost2010PropOp41
 70
     1
102
RTVSPost2010Prop42
 90
       50
102
RTVSPost2010PropOp42
 70
     1
102
RTVSPost2010Prop43
 90
        3
102
RTVSPost2010PropOp43
 70
     1
102
RTVSPost2010Prop44ColorIndex
 90
        5
102
RTVSPost2010Prop44ColorRGB
 90
      255
102
RTVSPost2010PropOp44
 70
     1
102
RTVSPost2010Prop45
280
     0
102
RTVSPost2010PropOp45
 70
     1
102
RTVSPost2010Prop46
 90
       50
102
RTVSPost2010PropOp46
 70
     1
102
RTVSPost2010Prop47
 90
       50
102
RTVSPost2010PropOp47
 70
     1
102
RTVSPost2010Prop48
 90
       50
102
RTVSPost2010PropOp48
 70
     1
102
RTVSPost2010Prop49
280
     0
102
RTVSPost2010PropOp49
 70
     1
102
RTVSPost2010Prop50
 90
       50
102
RTVSPost2010PropOp50
 70
     1
102
RTVSPost2010Prop51ColorIndex
 90
      256
102
RTVSPost2010Prop51ColorRGB
 90
-16777216
102
RTVSPost2010PropOp51
 70
     0
102
RTVSPost2010Prop52
140
1.0
102
RTVSPost2010PropOp52
 70
     0
102
RTVSPost2010Prop53
 90
        2
102
RTVSPost2010PropOp53
 70
     1
102
RTVSPost2010Prop54
  1
strokes_ogs.tif
102
RTVSPost2010PropOp54
 70
     1
102
RTVSPost2010Prop55
280
     0
102
RTVSPost2010PropOp55
 70
     1
102
RTVSPost2010Prop56
140
1.0
102
RTVSPost2010PropOp56
 70
     1
102
RTVSPost2010Prop57
140
1.0
102
RTVSPost2010PropOp57
 70
     1
102
RTVSPropertyOp0
 70
     1
102
RTVSPropertyOp1
 70
     1
102
RTVSPropertyOp2
 70
     1
102
RTVSPropertyOp3
 70
     1
102
RTVSPropertyOp4
 70
     1
102
RTVSPropertyOp5
 70
     1
102
RTVSPropertyOp6
 70
     1
102
RTVSPropertyOp7
 70
     1
102
RTVSPropertyOp8
 70
     1
102
RTVSPropertyOp9
 70
     1
102
RTVSPropertyOp10
 70
     1
102
RTVSPropertyOp11
 70
     1
102
RTVSPropertyOp12
 70
     1
102
RTVSPropertyOp13
 70
     1
102
RTVSPropertyOp14
 70
     1
102
RTVSPropertyOp15
 70
     1
102
RTVSPropertyOp16
 70
     1
102
RTVSPropertyOp17
 70
     1
102
RTVSPropertyOp18
 70
     1
102
RTVSPropertyOp19
 70
     1
102
RTVSPropertyOp20
 70
     1
102
RTVSPropertyOp21
 70
     1
102
RTVSPropertyOp22
 70
     1
102
RTVSPropertyOp23
 70
     1
102
RTVSPropertyOp24
 70
     1
102
RTVSPropertyOp25
 70
     1
102
RTVSPropertyOp26
 70
     1
102
RTVSPropertyOp27
 70
     1
102
RTVSPropertyOp28
 70
     1
102
RTVSPropertyOp29
 70
     1
102
RTVSPropertyOp30
 70
     1
102
RTVSPropertyOp31
 70
     1
102
RTVSPropertyOp32
 70
     1
102
RTVSPropertyOp33
 70
     1
102
RTVSPropertyOp34
 70
     1
102
RTVSPropertyOp35
 70
     1
102
RTVSPropertyOp36
 70
     1
102
RTVSPropertyOp37
 70
     1
102
RTVSPropertyOp38
 70
     1
102
RTVSPropertyOp39
 70
     1
102
RTVSPropertyOp40
 70
     1
102
RTVSPropertyOp41
 70
     1
102
RTVSPropertyOp42
 70
     1
102
RTVSPropertyOp43
 70
     1
102
RTVSPropertyOp44
 70
     1
102
RTVSPropertyOp45
 70
     1
102
RTVSPropertyOp46
 70
     1
102
RTVSPropertyOp47
 70
     1
102
RTVSPropertyOp48
 70
     1
102
RTVSPropertyOp49
 70
     1
102
RTVSPropertyOp50
 70
     1
102
RTVSPropertyOp51
 70
     0
102
RTVSPropertyOp52
 70
     0
102
RTVSPropertyOp53
 70
     1
102
RTVSPropertyOp54
 70
     1
102
RTVSPropertyOp55
 70
     1
102
RTVSPropertyOp56
 70
     1
102
RTVSPropertyOp57
 70
     1
102
RTVSPropertyOp58
 70
     1
102
RTVSPropertyOp59
 70
     1
102
RTVSPropertyOp60
 70
     1
102
RTVSPropertyOp61
 70
     1
102
RTVSPropertyOp62
 70
     1
  0
XRECORD
  5
46E
102
{ACAD_REACTORS
330
46D
102
}
330
46D
100
AcDbXrecord
280
     1
102
RTVSPost2010Prop28
280
     0
102
RTVSPost2010PropOp28
 70
     0
102
RTVSPost2010Prop29
280
     1
102
RTVSPost2010PropOp29
 70
     0
102
RTVSPost2010Prop30
280
     1
102
RTVSPost2010PropOp30
 70
     0
102
RTVSPost2010Prop31
280
     0
102
RTVSPost2010PropOp31
 70
     0
102
RTVSPost2010Prop32
280
     0
102
RTVSPost2010PropOp32
 70
     0
102
RTVSPost2010Prop33
280
     0
102
RTVSPost2010PropOp33
 70
     0
102
RTVSPost2010Prop34
280
     0
102
RTVSPost2010PropOp34
 70
     0
102
RTVSPost2010Prop35
280
     0
102
RTVSPost2010PropOp35
 70
     0
102
RTVSPost2010Prop36
280
     0
102
RTVSPost2010PropOp36
 70
     0
102
RTVSPost2010Prop37
 90
       50
102
RTVSPost2010PropOp37
 70
     0
102
RTVSPost2010Prop38
140
0.0
102
RTVSPost2010PropOp38
 70
     0
102
RTVSPost2010Prop39
140
1.0
102
RTVSPost2010PropOp39
 70
     0
102
RTVSPost2010Prop40
 90
        0
102
RTVSPost2010PropOp40
 70
     0
102
RTVSPost2010Prop41ColorIndex
 90
       18
102
RTVSPost2010Prop41ColorRGB
 90
        0
102
RTVSPost2010PropOp41
 70
     0
102
RTVSPost2010Prop42
 90
       50
102
RTVSPost2010PropOp42
 70
     0
102
RTVSPost2010Prop43
 90
        3
102
RTVSPost2010PropOp43
 70
     0
102
RTVSPost2010Prop44ColorIndex
 90
        5
102
RTVSPost2010Prop44ColorRGB
 90
      255
102
RTVSPost2010PropOp44
 70
     0
102
RTVSPost2010Prop45
280
     0
102
RTVSPost2010PropOp45
 70
     0
102
RTVSPost2010Prop46
 90
       50
102
RTVSPost2010PropOp46
 70
     0
102
RTVSPost2010Prop47
 90
       50
102
RTVSPost2010PropOp47
 70
     0
102
RTVSPost2010Prop48
 90
       50
102
RTVSPost2010PropOp48
 70
     0
102
RTVSPost2010Prop49
280
     0
102
RTVSPost2010PropOp49
 70
     0
102
RTVSPost2010Prop50
 90
       50
102
RTVSPost2010PropOp50
 70
     0
102
RTVSPost2010Prop51ColorIndex
 90
      256
102
RTVSPost2010Prop51ColorRGB
 90
-16777216
102
RTVSPost2010PropOp51
 70
     0
102
RTVSPost2010Prop52
140
1.0
102
RTVSPost2010PropOp52
 70
     0
102
RTVSPost2010Prop53
 90
        2
102
RTVSPost2010PropOp53
 70
     0
102
RTVSPost2010Prop54
  1
strokes_ogs.tif
102
RTVSPost2010PropOp54
 70
     0
102
RTVSPost2010Prop55
280
     0
102
RTVSPost2010PropOp55
 70
     0
102
RTVSPost2010Prop56
140
1.0
102
RTVSPost2010PropOp56
 70
     0
102
RTVSPost2010Prop57
140
1.0
102
RTVSPost2010PropOp57
 70
     0
102
RTVSPropertyOp0
 70
     0
102
RTVSPropertyOp1
 70
     0
102
RTVSPropertyOp2
 70
     0
102
RTVSPropertyOp3
 70
     0
102
RTVSPropertyOp4
 70
     0
102
RTVSPropertyOp5
 70
     0
102
RTVSPropertyOp6
 70
     0
102
RTVSPropertyOp7
 70
     0
102
RTVSPropertyOp8
 70
     0
102
RTVSPropertyOp9
 70
     0
102
RTVSPropertyOp10
 70
     0
102
RTVSPropertyOp11
 70
     0
102
RTVSPropertyOp12
 70
     0
102
RTVSPropertyOp13
 70
     0
102
RTVSPropertyOp14
 70
     2
102
RTVSPropertyOp15
 70
     0
102
RTVSPropertyOp16
 70
     0
102
RTVSPropertyOp17
 70
     0
102
RTVSPropertyOp18
 70
     0
102
RTVSPropertyOp19
 70
     0
102
RTVSPropertyOp20
 70
     0
102
RTVSPropertyOp21
 70
     0
102
RTVSPropertyOp22
 70
     0
102
RTVSPropertyOp23
 70
     0
102
RTVSPropertyOp24
 70
     0
102
RTVSPropertyOp25
 70
     0
102
RTVSPropertyOp26
 70
     0
102
RTVSPropertyOp27
 70
     0
102
RTVSPropertyOp28
 70
     0
102
RTVSPropertyOp29
 70
     0
102
RTVSPropertyOp30
 70
     0
102
RTVSPropertyOp31
 70
     0
102
RTVSPropertyOp32
 70
     0
102
RTVSPropertyOp33
 70
     0
102
RTVSPropertyOp34
 70
     0
102
RTVSPropertyOp35
 70
     0
102
RTVSPropertyOp36
 70
     0
102
RTVSPropertyOp37
 70
     0
102
RTVSPropertyOp38
 70
     0
102
RTVSPropertyOp39
 70
     0
102
RTVSPropertyOp40
 70
     0
102
RTVSPropertyOp41
 70
     0
102
RTVSPropertyOp42
 70
     0
102
RTVSPropertyOp43
 70
     0
102
RTVSPropertyOp44
 70
     0
102
RTVSPropertyOp45
 70
     0
102
RTVSPropertyOp46
 70
     0
102
RTVSPropertyOp47
 70
     0
102
RTVSPropertyOp48
 70
     0
102
RTVSPropertyOp49
 70
     0
102
RTVSPropertyOp50
 70
     0
102
RTVSPropertyOp51
 70
     0
102
RTVSPropertyOp52
 70
     0
102
RTVSPropertyOp53
 70
     0
102
RTVSPropertyOp54
 70
     0
102
RTVSPropertyOp55
 70
     0
102
RTVSPropertyOp56
 70
     0
102
RTVSPropertyOp57
 70
     0
102
RTVSPropertyOp58
 70
     1
102
RTVSPropertyOp59
 70
     1
102
RTVSPropertyOp60
 70
     1
102
RTVSPropertyOp61
 70
     1
102
RTVSPropertyOp62
 70
     1
  0
XRECORD
  5
466
102
{ACAD_REACTORS
330
465
102
}
330
465
100
AcDbXrecord
280
     1
102
RTVSPost2010Prop28
280
     0
102
RTVSPost2010PropOp28
 70
     1
102
RTVSPost2010Prop29
280
     1
102
RTVSPost2010PropOp29
 70
     1
102
RTVSPost2010Prop30
280
     1
102
RTVSPost2010PropOp30
 70
     1
102
RTVSPost2010Prop31
280
     0
102
RTVSPost2010PropOp31
 70
     1
102
RTVSPost2010Prop32
280
     0
102
RTVSPost2010PropOp32
 70
     1
102
RTVSPost2010Prop33
280
     0
102
RTVSPost2010PropOp33
 70
     1
102
RTVSPost2010Prop34
280
     0
102
RTVSPost2010PropOp34
 70
     1
102
RTVSPost2010Prop35
280
     0
102
RTVSPost2010PropOp35
 70
     1
102
RTVSPost2010Prop36
280
     0
102
RTVSPost2010PropOp36
 70
     1
102
RTVSPost2010Prop37
 90
       50
102
RTVSPost2010PropOp37
 70
     1
102
RTVSPost2010Prop38
140
0.0
102
RTVSPost2010PropOp38
 70
     1
102
RTVSPost2010Prop39
140
1.0
102
RTVSPost2010PropOp39
 70
     1
102
RTVSPost2010Prop40
 90
        0
102
RTVSPost2010PropOp40
 70
     1
102
RTVSPost2010Prop41ColorIndex
 90
       18
102
RTVSPost2010Prop41ColorRGB
 90
        0
102
RTVSPost2010PropOp41
 70
     1
102
RTVSPost2010Prop42
 90
       50
102
RTVSPost2010PropOp42
 70
     1
102
RTVSPost2010Prop43
 90
        3
102
RTVSPost2010PropOp43
 70
     1
102
RTVSPost2010Prop44ColorIndex
 90
        5
102
RTVSPost2010Prop44ColorRGB
 90
      255
102
RTVSPost2010PropOp44
 70
     1
102
RTVSPost2010Prop45
280
     0
102
RTVSPost2010PropOp45
 70
     1
102
RTVSPost2010Prop46
 90
       50
102
RTVSPost2010PropOp46
 70
     1
102
RTVSPost2010Prop47
 90
       50
102
RTVSPost2010PropOp47
 70
     1
102
RTVSPost2010Prop48
 90
       50
102
RTVSPost2010PropOp48
 70
     1
102
RTVSPost2010Prop49
280
     0
102
RTVSPost2010PropOp49
 70
     1
102
RTVSPost2010Prop50
 90
       50
102
RTVSPost2010PropOp50
 70
     1
102
RTVSPost2010Prop51ColorIndex
 90
      256
102
RTVSPost2010Prop51ColorRGB
 90
-16777216
102
RTVSPost2010PropOp51
 70
     0
102
RTVSPost2010Prop52
140
1.0
102
RTVSPost2010PropOp52
 70
     0
102
RTVSPost2010Prop53
 90
        2
102
RTVSPost2010PropOp53
 70
     1
102
RTVSPost2010Prop54
  1
strokes_ogs.tif
102
RTVSPost2010PropOp54
 70
     1
102
RTVSPost2010Prop55
280
     0
102
RTVSPost2010PropOp55
 70
     1
102
RTVSPost2010Prop56
140
1.0
102
RTVSPost2010PropOp56
 70
     1
102
RTVSPost2010Prop57
140
1.0
102
RTVSPost2010PropOp57
 70
     1
102
RTVSPropertyOp0
 70
     1
102
RTVSPropertyOp1
 70
     1
102
RTVSPropertyOp2
 70
     1
102
RTVSPropertyOp3
 70
     1
102
RTVSPropertyOp4
 70
     1
102
RTVSPropertyOp5
 70
     1
102
RTVSPropertyOp6
 70
     1
102
RTVSPropertyOp7
 70
     1
102
RTVSPropertyOp8
 70
     1
102
RTVSPropertyOp9
 70
     1
102
RTVSPropertyOp10
 70
     1
102
RTVSPropertyOp11
 70
     1
102
RTVSPropertyOp12
 70
     1
102
RTVSPropertyOp13
 70
     1
102
RTVSPropertyOp14
 70
     1
102
RTVSPropertyOp15
 70
     1
102
RTVSPropertyOp16
 70
     1
102
RTVSPropertyOp17
 70
     1
102
RTVSPropertyOp18
 70
     1
102
RTVSPropertyOp19
 70
     1
102
RTVSPropertyOp20
 70
     1
102
RTVSPropertyOp21
 70
     1
102
RTVSPropertyOp22
 70
     1
102
RTVSPropertyOp23
 70
     1
102
RTVSPropertyOp24
 70
     1
102
RTVSPropertyOp25
 70
     1
102
RTVSPropertyOp26
 70
     1
102
RTVSPropertyOp27
 70
     1
102
RTVSPropertyOp28
 70
     1
102
RTVSPropertyOp29
 70
     1
102
RTVSPropertyOp30
 70
     1
102
RTVSPropertyOp31
 70
     1
102
RTVSPropertyOp32
 70
     1
102
RTVSPropertyOp33
 70
     1
102
RTVSPropertyOp34
 70
     1
102
RTVSPropertyOp35
 70
     1
102
RTVSPropertyOp36
 70
     1
102
RTVSPropertyOp37
 70
     1
102
RTVSPropertyOp38
 70
     1
102
RTVSPropertyOp39
 70
     1
102
RTVSPropertyOp40
 70
     1
102
RTVSPropertyOp41
 70
     1
102
RTVSPropertyOp42
 70
     1
102
RTVSPropertyOp43
 70
     1
102
RTVSPropertyOp44
 70
     1
102
RTVSPropertyOp45
 70
     1
102
RTVSPropertyOp46
 70
     1
102
RTVSPropertyOp47
 70
     1
102
RTVSPropertyOp48
 70
     1
102
RTVSPropertyOp49
 70
     1
102
RTVSPropertyOp50
 70
     1
102
RTVSPropertyOp51
 70
     0
102
RTVSPropertyOp52
 70
     0
102
RTVSPropertyOp53
 70
     1
102
RTVSPropertyOp54
 70
     1
102
RTVSPropertyOp55
 70
     1
102
RTVSPropertyOp56
 70
     1
102
RTVSPropertyOp57
 70
     1
102
RTVSPropertyOp58
 70
     1
102
RTVSPropertyOp59
 70
     1
102
RTVSPropertyOp60
 70
     1
102
RTVSPropertyOp61
 70
     1
102
RTVSPropertyOp62
 70
     1
  0
XRECORD
  5
44A
102
{ACAD_REACTORS
330
449
102
}
330
449
100
AcDbXrecord
280
     1
102
RTVSPost2010Prop28
280
     0
102
RTVSPost2010PropOp28
 70
     1
102
RTVSPost2010Prop29
280
     1
102
RTVSPost2010PropOp29
 70
     1
102
RTVSPost2010Prop30
280
     1
102
RTVSPost2010PropOp30
 70
     1
102
RTVSPost2010Prop31
280
     0
102
RTVSPost2010PropOp31
 70
     1
102
RTVSPost2010Prop32
280
     0
102
RTVSPost2010PropOp32
 70
     1
102
RTVSPost2010Prop33
280
     0
102
RTVSPost2010PropOp33
 70
     1
102
RTVSPost2010Prop34
280
     0
102
RTVSPost2010PropOp34
 70
     1
102
RTVSPost2010Prop35
280
     0
102
RTVSPost2010PropOp35
 70
     1
102
RTVSPost2010Prop36
280
     0
102
RTVSPost2010PropOp36
 70
     1
102
RTVSPost2010Prop37
 90
       50
102
RTVSPost2010PropOp37
 70
     1
102
RTVSPost2010Prop38
140
0.0
102
RTVSPost2010PropOp38
 70
     1
102
RTVSPost2010Prop39
140
1.0
102
RTVSPost2010PropOp39
 70
     1
102
RTVSPost2010Prop40
 90
        0
102
RTVSPost2010PropOp40
 70
     1
102
RTVSPost2010Prop41ColorIndex
 90
       18
102
RTVSPost2010Prop41ColorRGB
 90
        0
102
RTVSPost2010PropOp41
 70
     1
102
RTVSPost2010Prop42
 90
       50
102
RTVSPost2010PropOp42
 70
     1
102
RTVSPost2010Prop43
 90
        3
102
RTVSPost2010PropOp43
 70
     1
102
RTVSPost2010Prop44ColorIndex
 90
        5
102
RTVSPost2010Prop44ColorRGB
 90
      255
102
RTVSPost2010PropOp44
 70
     1
102
RTVSPost2010Prop45
280
     0
102
RTVSPost2010PropOp45
 70
     1
102
RTVSPost2010Prop46
 90
       50
102
RTVSPost2010PropOp46
 70
     1
102
RTVSPost2010Prop47
 90
       50
102
RTVSPost2010PropOp47
 70
     1
102
RTVSPost2010Prop48
 90
       50
102
RTVSPost2010PropOp48
 70
     1
102
RTVSPost2010Prop49
280
     0
102
RTVSPost2010PropOp49
 70
     1
102
RTVSPost2010Prop50
 90
       50
102
RTVSPost2010PropOp50
 70
     1
102
RTVSPost2010Prop51ColorIndex
 90
      256
102
RTVSPost2010Prop51ColorRGB
 90
-16777216
102
RTVSPost2010PropOp51
 70
     0
102
RTVSPost2010Prop52
140
1.0
102
RTVSPost2010PropOp52
 70
     0
102
RTVSPost2010Prop53
 90
        2
102
RTVSPost2010PropOp53
 70
     1
102
RTVSPost2010Prop54
  1
strokes_ogs.tif
102
RTVSPost2010PropOp54
 70
     1
102
RTVSPost2010Prop55
280
     0
102
RTVSPost2010PropOp55
 70
     1
102
RTVSPost2010Prop56
140
1.0
102
RTVSPost2010PropOp56
 70
     1
102
RTVSPost2010Prop57
140
1.0
102
RTVSPost2010PropOp57
 70
     1
102
RTVSPropertyOp0
 70
     1
102
RTVSPropertyOp1
 70
     1
102
RTVSPropertyOp2
 70
     1
102
RTVSPropertyOp3
 70
     1
102
RTVSPropertyOp4
 70
     1
102
RTVSPropertyOp5
 70
     1
102
RTVSPropertyOp6
 70
     1
102
RTVSPropertyOp7
 70
     1
102
RTVSPropertyOp8
 70
     1
102
RTVSPropertyOp9
 70
     1
102
RTVSPropertyOp10
 70
     1
102
RTVSPropertyOp11
 70
     1
102
RTVSPropertyOp12
 70
     1
102
RTVSPropertyOp13
 70
     1
102
RTVSPropertyOp14
 70
     1
102
RTVSPropertyOp15
 70
     1
102
RTVSPropertyOp16
 70
     1
102
RTVSPropertyOp17
 70
     1
102
RTVSPropertyOp18
 70
     1
102
RTVSPropertyOp19
 70
     1
102
RTVSPropertyOp20
 70
     1
102
RTVSPropertyOp21
 70
     1
102
RTVSPropertyOp22
 70
     1
102
RTVSPropertyOp23
 70
     1
102
RTVSPropertyOp24
 70
     1
102
RTVSPropertyOp25
 70
     1
102
RTVSPropertyOp26
 70
     1
102
RTVSPropertyOp27
 70
     1
102
RTVSPropertyOp28
 70
     1
102
RTVSPropertyOp29
 70
     1
102
RTVSPropertyOp30
 70
     1
102
RTVSPropertyOp31
 70
     1
102
RTVSPropertyOp32
 70
     1
102
RTVSPropertyOp33
 70
     1
102
RTVSPropertyOp34
 70
     1
102
RTVSPropertyOp35
 70
     1
102
RTVSPropertyOp36
 70
     1
102
RTVSPropertyOp37
 70
     1
102
RTVSPropertyOp38
 70
     1
102
RTVSPropertyOp39
 70
     1
102
RTVSPropertyOp40
 70
     1
102
RTVSPropertyOp41
 70
     1
102
RTVSPropertyOp42
 70
     1
102
RTVSPropertyOp43
 70
     1
102
RTVSPropertyOp44
 70
     1
102
RTVSPropertyOp45
 70
     1
102
RTVSPropertyOp46
 70
     1
102
RTVSPropertyOp47
 70
     1
102
RTVSPropertyOp48
 70
     1
102
RTVSPropertyOp49
 70
     1
102
RTVSPropertyOp50
 70
     1
102
RTVSPropertyOp51
 70
     0
102
RTVSPropertyOp52
 70
     0
102
RTVSPropertyOp53
 70
     1
102
RTVSPropertyOp54
 70
     1
102
RTVSPropertyOp55
 70
     1
102
RTVSPropertyOp56
 70
     1
102
RTVSPropertyOp57
 70
     1
102
RTVSPropertyOp58
 70
     1
102
RTVSPropertyOp59
 70
     1
102
RTVSPropertyOp60
 70
     1
102
RTVSPropertyOp61
 70
     1
102
RTVSPropertyOp62
 70
     1
  0
XRECORD
  5
44C
102
{ACAD_REACTORS
330
44B
102
}
330
44B
100
AcDbXrecord
280
     1
102
RTVSPost2010Prop28
280
     0
102
RTVSPost2010PropOp28
 70
     1
102
RTVSPost2010Prop29
280
     1
102
RTVSPost2010PropOp29
 70
     1
102
RTVSPost2010Prop30
280
     1
102
RTVSPost2010PropOp30
 70
     1
102
RTVSPost2010Prop31
280
     0
102
RTVSPost2010PropOp31
 70
     1
102
RTVSPost2010Prop32
280
     0
102
RTVSPost2010PropOp32
 70
     1
102
RTVSPost2010Prop33
280
     0
102
RTVSPost2010PropOp33
 70
     1
102
RTVSPost2010Prop34
280
     0
102
RTVSPost2010PropOp34
 70
     1
102
RTVSPost2010Prop35
280
     0
102
RTVSPost2010PropOp35
 70
     1
102
RTVSPost2010Prop36
280
     0
102
RTVSPost2010PropOp36
 70
     1
102
RTVSPost2010Prop37
 90
       50
102
RTVSPost2010PropOp37
 70
     1
102
RTVSPost2010Prop38
140
0.0
102
RTVSPost2010PropOp38
 70
     1
102
RTVSPost2010Prop39
140
1.0
102
RTVSPost2010PropOp39
 70
     1
102
RTVSPost2010Prop40
 90
        0
102
RTVSPost2010PropOp40
 70
     1
102
RTVSPost2010Prop41ColorIndex
 90
       18
102
RTVSPost2010Prop41ColorRGB
 90
        0
102
RTVSPost2010PropOp41
 70
     1
102
RTVSPost2010Prop42
 90
       50
102
RTVSPost2010PropOp42
 70
     1
102
RTVSPost2010Prop43
 90
        3
102
RTVSPost2010PropOp43
 70
     1
102
RTVSPost2010Prop44ColorIndex
 90
        5
102
RTVSPost2010Prop44ColorRGB
 90
      255
102
RTVSPost2010PropOp44
 70
     1
102
RTVSPost2010Prop45
280
     0
102
RTVSPost2010PropOp45
 70
     1
102
RTVSPost2010Prop46
 90
       50
102
RTVSPost2010PropOp46
 70
     1
102
RTVSPost2010Prop47
 90
       50
102
RTVSPost2010PropOp47
 70
     1
102
RTVSPost2010Prop48
 90
       50
102
RTVSPost2010PropOp48
 70
     1
102
RTVSPost2010Prop49
280
     0
102
RTVSPost2010PropOp49
 70
     1
102
RTVSPost2010Prop50
 90
       50
102
RTVSPost2010PropOp50
 70
     1
102
RTVSPost2010Prop51ColorIndex
 90
      256
102
RTVSPost2010Prop51ColorRGB
 90
-16777216
102
RTVSPost2010PropOp51
 70
     0
102
RTVSPost2010Prop52
140
1.0
102
RTVSPost2010PropOp52
 70
     0
102
RTVSPost2010Prop53
 90
        2
102
RTVSPost2010PropOp53
 70
     1
102
RTVSPost2010Prop54
  1
strokes_ogs.tif
102
RTVSPost2010PropOp54
 70
     1
102
RTVSPost2010Prop55
280
     0
102
RTVSPost2010PropOp55
 70
     1
102
RTVSPost2010Prop56
140
1.0
102
RTVSPost2010PropOp56
 70
     1
102
RTVSPost2010Prop57
140
1.0
102
RTVSPost2010PropOp57
 70
     1
102
RTVSPropertyOp0
 70
     1
102
RTVSPropertyOp1
 70
     1
102
RTVSPropertyOp2
 70
     1
102
RTVSPropertyOp3
 70
     1
102
RTVSPropertyOp4
 70
     1
102
RTVSPropertyOp5
 70
     1
102
RTVSPropertyOp6
 70
     1
102
RTVSPropertyOp7
 70
     1
102
RTVSPropertyOp8
 70
     1
102
RTVSPropertyOp9
 70
     1
102
RTVSPropertyOp10
 70
     1
102
RTVSPropertyOp11
 70
     1
102
RTVSPropertyOp12
 70
     1
102
RTVSPropertyOp13
 70
     1
102
RTVSPropertyOp14
 70
     1
102
RTVSPropertyOp15
 70
     1
102
RTVSPropertyOp16
 70
     1
102
RTVSPropertyOp17
 70
     1
102
RTVSPropertyOp18
 70
     1
102
RTVSPropertyOp19
 70
     1
102
RTVSPropertyOp20
 70
     1
102
RTVSPropertyOp21
 70
     1
102
RTVSPropertyOp22
 70
     1
102
RTVSPropertyOp23
 70
     1
102
RTVSPropertyOp24
 70
     1
102
RTVSPropertyOp25
 70
     1
102
RTVSPropertyOp26
 70
     1
102
RTVSPropertyOp27
 70
     1
102
RTVSPropertyOp28
 70
     1
102
RTVSPropertyOp29
 70
     1
102
RTVSPropertyOp30
 70
     1
102
RTVSPropertyOp31
 70
     1
102
RTVSPropertyOp32
 70
     1
102
RTVSPropertyOp33
 70
     1
102
RTVSPropertyOp34
 70
     1
102
RTVSPropertyOp35
 70
     1
102
RTVSPropertyOp36
 70
     1
102
RTVSPropertyOp37
 70
     1
102
RTVSPropertyOp38
 70
     1
102
RTVSPropertyOp39
 70
     1
102
RTVSPropertyOp40
 70
     1
102
RTVSPropertyOp41
 70
     1
102
RTVSPropertyOp42
 70
     1
102
RTVSPropertyOp43
 70
     1
102
RTVSPropertyOp44
 70
     1
102
RTVSPropertyOp45
 70
     1
102
RTVSPropertyOp46
 70
     1
102
RTVSPropertyOp47
 70
     1
102
RTVSPropertyOp48
 70
     1
102
RTVSPropertyOp49
 70
     1
102
RTVSPropertyOp50
 70
     1
102
RTVSPropertyOp51
 70
     0
102
RTVSPropertyOp52
 70
     0
102
RTVSPropertyOp53
 70
     1
102
RTVSPropertyOp54
 70
     1
102
RTVSPropertyOp55
 70
     1
102
RTVSPropertyOp56
 70
     1
102
RTVSPropertyOp57
 70
     1
102
RTVSPropertyOp58
 70
     1
102
RTVSPropertyOp59
 70
     1
102
RTVSPropertyOp60
 70
     1
102
RTVSPropertyOp61
 70
     1
102
RTVSPropertyOp62
 70
     1
  0
XRECORD
  5
44E
102
{ACAD_REACTORS
330
44D
102
}
330
44D
100
AcDbXrecord
280
     1
102
RTVSPost2010Prop28
280
     0
102
RTVSPost2010PropOp28
 70
     1
102
RTVSPost2010Prop29
280
     1
102
RTVSPost2010PropOp29
 70
     1
102
RTVSPost2010Prop30
280
     1
102
RTVSPost2010PropOp30
 70
     1
102
RTVSPost2010Prop31
280
     0
102
RTVSPost2010PropOp31
 70
     1
102
RTVSPost2010Prop32
280
     0
102
RTVSPost2010PropOp32
 70
     1
102
RTVSPost2010Prop33
280
     0
102
RTVSPost2010PropOp33
 70
     1
102
RTVSPost2010Prop34
280
     0
102
RTVSPost2010PropOp34
 70
     1
102
RTVSPost2010Prop35
280
     0
102
RTVSPost2010PropOp35
 70
     1
102
RTVSPost2010Prop36
280
     0
102
RTVSPost2010PropOp36
 70
     1
102
RTVSPost2010Prop37
 90
       50
102
RTVSPost2010PropOp37
 70
     1
102
RTVSPost2010Prop38
140
0.0
102
RTVSPost2010PropOp38
 70
     1
102
RTVSPost2010Prop39
140
1.0
102
RTVSPost2010PropOp39
 70
     1
102
RTVSPost2010Prop40
 90
        0
102
RTVSPost2010PropOp40
 70
     1
102
RTVSPost2010Prop41ColorIndex
 90
       18
102
RTVSPost2010Prop41ColorRGB
 90
        0
102
RTVSPost2010PropOp41
 70
     1
102
RTVSPost2010Prop42
 90
       50
102
RTVSPost2010PropOp42
 70
     1
102
RTVSPost2010Prop43
 90
        3
102
RTVSPost2010PropOp43
 70
     1
102
RTVSPost2010Prop44ColorIndex
 90
        5
102
RTVSPost2010Prop44ColorRGB
 90
      255
102
RTVSPost2010PropOp44
 70
     1
102
RTVSPost2010Prop45
280
     0
102
RTVSPost2010PropOp45
 70
     1
102
RTVSPost2010Prop46
 90
       50
102
RTVSPost2010PropOp46
 70
     1
102
RTVSPost2010Prop47
 90
       50
102
RTVSPost2010PropOp47
 70
     1
102
RTVSPost2010Prop48
 90
       50
102
RTVSPost2010PropOp48
 70
     1
102
RTVSPost2010Prop49
280
     0
102
RTVSPost2010PropOp49
 70
     1
102
RTVSPost2010Prop50
 90
       50
102
RTVSPost2010PropOp50
 70
     1
102
RTVSPost2010Prop51ColorIndex
 90
      256
102
RTVSPost2010Prop51ColorRGB
 90
-16777216
102
RTVSPost2010PropOp51
 70
     0
102
RTVSPost2010Prop52
140
1.0
102
RTVSPost2010PropOp52
 70
     0
102
RTVSPost2010Prop53
 90
        2
102
RTVSPost2010PropOp53
 70
     1
102
RTVSPost2010Prop54
  1
strokes_ogs.tif
102
RTVSPost2010PropOp54
 70
     1
102
RTVSPost2010Prop55
280
     0
102
RTVSPost2010PropOp55
 70
     1
102
RTVSPost2010Prop56
140
1.0
102
RTVSPost2010PropOp56
 70
     1
102
RTVSPost2010Prop57
140
1.0
102
RTVSPost2010PropOp57
 70
     1
102
RTVSPropertyOp0
 70
     1
102
RTVSPropertyOp1
 70
     1
102
RTVSPropertyOp2
 70
     1
102
RTVSPropertyOp3
 70
     1
102
RTVSPropertyOp4
 70
     1
102
RTVSPropertyOp5
 70
     1
102
RTVSPropertyOp6
 70
     1
102
RTVSPropertyOp7
 70
     1
102
RTVSPropertyOp8
 70
     1
102
RTVSPropertyOp9
 70
     1
102
RTVSPropertyOp10
 70
     1
102
RTVSPropertyOp11
 70
     1
102
RTVSPropertyOp12
 70
     1
102
RTVSPropertyOp13
 70
     1
102
RTVSPropertyOp14
 70
     1
102
RTVSPropertyOp15
 70
     1
102
RTVSPropertyOp16
 70
     1
102
RTVSPropertyOp17
 70
     1
102
RTVSPropertyOp18
 70
     1
102
RTVSPropertyOp19
 70
     1
102
RTVSPropertyOp20
 70
     1
102
RTVSPropertyOp21
 70
     1
102
RTVSPropertyOp22
 70
     1
102
RTVSPropertyOp23
 70
     1
102
RTVSPropertyOp24
 70
     1
102
RTVSPropertyOp25
 70
     1
102
RTVSPropertyOp26
 70
     1
102
RTVSPropertyOp27
 70
     1
102
RTVSPropertyOp28
 70
     1
102
RTVSPropertyOp29
 70
     1
102
RTVSPropertyOp30
 70
     1
102
RTVSPropertyOp31
 70
     1
102
RTVSPropertyOp32
 70
     1
102
RTVSPropertyOp33
 70
     1
102
RTVSPropertyOp34
 70
     1
102
RTVSPropertyOp35
 70
     1
102
RTVSPropertyOp36
 70
     1
102
RTVSPropertyOp37
 70
     1
102
RTVSPropertyOp38
 70
     1
102
RTVSPropertyOp39
 70
     1
102
RTVSPropertyOp40
 70
     1
102
RTVSPropertyOp41
 70
     1
102
RTVSPropertyOp42
 70
     1
102
RTVSPropertyOp43
 70
     1
102
RTVSPropertyOp44
 70
     1
102
RTVSPropertyOp45
 70
     1
102
RTVSPropertyOp46
 70
     1
102
RTVSPropertyOp47
 70
     1
102
RTVSPropertyOp48
 70
     1
102
RTVSPropertyOp49
 70
     1
102
RTVSPropertyOp50
 70
     1
102
RTVSPropertyOp51
 70
     0
102
RTVSPropertyOp52
 70
     0
102
RTVSPropertyOp53
 70
     1
102
RTVSPropertyOp54
 70
     1
102
RTVSPropertyOp55
 70
     1
102
RTVSPropertyOp56
 70
     1
102
RTVSPropertyOp57
 70
     1
102
RTVSPropertyOp58
 70
     1
102
RTVSPropertyOp59
 70
     1
102
RTVSPropertyOp60
 70
     1
102
RTVSPropertyOp61
 70
     1
102
RTVSPropertyOp62
 70
     1
  0
XRECORD
  5
450
102
{ACAD_REACTORS
330
44F
102
}
330
44F
100
AcDbXrecord
280
     1
102
RTVSPost2010Prop28
280
     0
102
RTVSPost2010PropOp28
 70
     1
102
RTVSPost2010Prop29
280
     1
102
RTVSPost2010PropOp29
 70
     1
102
RTVSPost2010Prop30
280
     1
102
RTVSPost2010PropOp30
 70
     1
102
RTVSPost2010Prop31
280
     0
102
RTVSPost2010PropOp31
 70
     1
102
RTVSPost2010Prop32
280
     0
102
RTVSPost2010PropOp32
 70
     1
102
RTVSPost2010Prop33
280
     0
102
RTVSPost2010PropOp33
 70
     1
102
RTVSPost2010Prop34
280
     0
102
RTVSPost2010PropOp34
 70
     1
102
RTVSPost2010Prop35
280
     0
102
RTVSPost2010PropOp35
 70
     1
102
RTVSPost2010Prop36
280
     0
102
RTVSPost2010PropOp36
 70
     1
102
RTVSPost2010Prop37
 90
       50
102
RTVSPost2010PropOp37
 70
     1
102
RTVSPost2010Prop38
140
0.0
102
RTVSPost2010PropOp38
 70
     1
102
RTVSPost2010Prop39
140
1.0
102
RTVSPost2010PropOp39
 70
     1
102
RTVSPost2010Prop40
 90
        0
102
RTVSPost2010PropOp40
 70
     1
102
RTVSPost2010Prop41ColorIndex
 90
       18
102
RTVSPost2010Prop41ColorRGB
 90
        0
102
RTVSPost2010PropOp41
 70
     1
102
RTVSPost2010Prop42
 90
       50
102
RTVSPost2010PropOp42
 70
     1
102
RTVSPost2010Prop43
 90
        3
102
RTVSPost2010PropOp43
 70
     1
102
RTVSPost2010Prop44ColorIndex
 90
        5
102
RTVSPost2010Prop44ColorRGB
 90
      255
102
RTVSPost2010PropOp44
 70
     1
102
RTVSPost2010Prop45
280
     0
102
RTVSPost2010PropOp45
 70
     1
102
RTVSPost2010Prop46
 90
       50
102
RTVSPost2010PropOp46
 70
     1
102
RTVSPost2010Prop47
 90
       50
102
RTVSPost2010PropOp47
 70
     1
102
RTVSPost2010Prop48
 90
       50
102
RTVSPost2010PropOp48
 70
     1
102
RTVSPost2010Prop49
280
     0
102
RTVSPost2010PropOp49
 70
     1
102
RTVSPost2010Prop50
 90
       50
102
RTVSPost2010PropOp50
 70
     1
102
RTVSPost2010Prop51ColorIndex
 90
      256
102
RTVSPost2010Prop51ColorRGB
 90
-16777216
102
RTVSPost2010PropOp51
 70
     0
102
RTVSPost2010Prop52
140
1.0
102
RTVSPost2010PropOp52
 70
     0
102
RTVSPost2010Prop53
 90
        2
102
RTVSPost2010PropOp53
 70
     1
102
RTVSPost2010Prop54
  1
strokes_ogs.tif
102
RTVSPost2010PropOp54
 70
     1
102
RTVSPost2010Prop55
280
     0
102
RTVSPost2010PropOp55
 70
     1
102
RTVSPost2010Prop56
140
1.0
102
RTVSPost2010PropOp56
 70
     1
102
RTVSPost2010Prop57
140
1.0
102
RTVSPost2010PropOp57
 70
     1
102
RTVSPropertyOp0
 70
     1
102
RTVSPropertyOp1
 70
     1
102
RTVSPropertyOp2
 70
     1
102
RTVSPropertyOp3
 70
     1
102
RTVSPropertyOp4
 70
     1
102
RTVSPropertyOp5
 70
     1
102
RTVSPropertyOp6
 70
     1
102
RTVSPropertyOp7
 70
     1
102
RTVSPropertyOp8
 70
     1
102
RTVSPropertyOp9
 70
     1
102
RTVSPropertyOp10
 70
     1
102
RTVSPropertyOp11
 70
     1
102
RTVSPropertyOp12
 70
     1
102
RTVSPropertyOp13
 70
     1
102
RTVSPropertyOp14
 70
     1
102
RTVSPropertyOp15
 70
     1
102
RTVSPropertyOp16
 70
     1
102
RTVSPropertyOp17
 70
     1
102
RTVSPropertyOp18
 70
     1
102
RTVSPropertyOp19
 70
     1
102
RTVSPropertyOp20
 70
     1
102
RTVSPropertyOp21
 70
     1
102
RTVSPropertyOp22
 70
     1
102
RTVSPropertyOp23
 70
     1
102
RTVSPropertyOp24
 70
     1
102
RTVSPropertyOp25
 70
     1
102
RTVSPropertyOp26
 70
     1
102
RTVSPropertyOp27
 70
     1
102
RTVSPropertyOp28
 70
     1
102
RTVSPropertyOp29
 70
     1
102
RTVSPropertyOp30
 70
     1
102
RTVSPropertyOp31
 70
     1
102
RTVSPropertyOp32
 70
     1
102
RTVSPropertyOp33
 70
     1
102
RTVSPropertyOp34
 70
     1
102
RTVSPropertyOp35
 70
     1
102
RTVSPropertyOp36
 70
     1
102
RTVSPropertyOp37
 70
     1
102
RTVSPropertyOp38
 70
     1
102
RTVSPropertyOp39
 70
     1
102
RTVSPropertyOp40
 70
     1
102
RTVSPropertyOp41
 70
     1
102
RTVSPropertyOp42
 70
     1
102
RTVSPropertyOp43
 70
     1
102
RTVSPropertyOp44
 70
     1
102
RTVSPropertyOp45
 70
     1
102
RTVSPropertyOp46
 70
     1
102
RTVSPropertyOp47
 70
     1
102
RTVSPropertyOp48
 70
     1
102
RTVSPropertyOp49
 70
     1
102
RTVSPropertyOp50
 70
     1
102
RTVSPropertyOp51
 70
     0
102
RTVSPropertyOp52
 70
     0
102
RTVSPropertyOp53
 70
     1
102
RTVSPropertyOp54
 70
     1
102
RTVSPropertyOp55
 70
     1
102
RTVSPropertyOp56
 70
     1
102
RTVSPropertyOp57
 70
     1
102
RTVSPropertyOp58
 70
     1
102
RTVSPropertyOp59
 70
     1
102
RTVSPropertyOp60
 70
     1
102
RTVSPropertyOp61
 70
     1
102
RTVSPropertyOp62
 70
     1
  0
XRECORD
  5
456
102
{ACAD_REACTORS
330
455
102
}
330
455
100
AcDbXrecord
280
     1
102
RTVSPost2010Prop28
280
     0
102
RTVSPost2010PropOp28
 70
     1
102
RTVSPost2010Prop29
280
     1
102
RTVSPost2010PropOp29
 70
     1
102
RTVSPost2010Prop30
280
     1
102
RTVSPost2010PropOp30
 70
     1
102
RTVSPost2010Prop31
280
     0
102
RTVSPost2010PropOp31
 70
     1
102
RTVSPost2010Prop32
280
     0
102
RTVSPost2010PropOp32
 70
     1
102
RTVSPost2010Prop33
280
     0
102
RTVSPost2010PropOp33
 70
     1
102
RTVSPost2010Prop34
280
     0
102
RTVSPost2010PropOp34
 70
     1
102
RTVSPost2010Prop35
280
     0
102
RTVSPost2010PropOp35
 70
     1
102
RTVSPost2010Prop36
280
     0
102
RTVSPost2010PropOp36
 70
     1
102
RTVSPost2010Prop37
 90
       50
102
RTVSPost2010PropOp37
 70
     1
102
RTVSPost2010Prop38
140
0.0
102
RTVSPost2010PropOp38
 70
     1
102
RTVSPost2010Prop39
140
1.0
102
RTVSPost2010PropOp39
 70
     1
102
RTVSPost2010Prop40
 90
        0
102
RTVSPost2010PropOp40
 70
     1
102
RTVSPost2010Prop41ColorIndex
 90
       18
102
RTVSPost2010Prop41ColorRGB
 90
        0
102
RTVSPost2010PropOp41
 70
     1
102
RTVSPost2010Prop42
 90
       50
102
RTVSPost2010PropOp42
 70
     1
102
RTVSPost2010Prop43
 90
        3
102
RTVSPost2010PropOp43
 70
     1
102
RTVSPost2010Prop44ColorIndex
 90
        5
102
RTVSPost2010Prop44ColorRGB
 90
      255
102
RTVSPost2010PropOp44
 70
     1
102
RTVSPost2010Prop45
280
     0
102
RTVSPost2010PropOp45
 70
     1
102
RTVSPost2010Prop46
 90
       50
102
RTVSPost2010PropOp46
 70
     1
102
RTVSPost2010Prop47
 90
       50
102
RTVSPost2010PropOp47
 70
     1
102
RTVSPost2010Prop48
 90
       50
102
RTVSPost2010PropOp48
 70
     1
102
RTVSPost2010Prop49
280
     0
102
RTVSPost2010PropOp49
 70
     1
102
RTVSPost2010Prop50
 90
       50
102
RTVSPost2010PropOp50
 70
     1
102
RTVSPost2010Prop51ColorIndex
 90
      256
102
RTVSPost2010Prop51ColorRGB
 90
-16777216
102
RTVSPost2010PropOp51
 70
     0
102
RTVSPost2010Prop52
140
1.0
102
RTVSPost2010PropOp52
 70
     0
102
RTVSPost2010Prop53
 90
        2
102
RTVSPost2010PropOp53
 70
     1
102
RTVSPost2010Prop54
  1
strokes_ogs.tif
102
RTVSPost2010PropOp54
 70
     1
102
RTVSPost2010Prop55
280
     0
102
RTVSPost2010PropOp55
 70
     1
102
RTVSPost2010Prop56
140
1.0
102
RTVSPost2010PropOp56
 70
     1
102
RTVSPost2010Prop57
140
1.0
102
RTVSPost2010PropOp57
 70
     1
102
RTVSPropertyOp0
 70
     1
102
RTVSPropertyOp1
 70
     1
102
RTVSPropertyOp2
 70
     1
102
RTVSPropertyOp3
 70
     1
102
RTVSPropertyOp4
 70
     1
102
RTVSPropertyOp5
 70
     1
102
RTVSPropertyOp6
 70
     1
102
RTVSPropertyOp7
 70
     1
102
RTVSPropertyOp8
 70
     1
102
RTVSPropertyOp9
 70
     1
102
RTVSPropertyOp10
 70
     1
102
RTVSPropertyOp11
 70
     1
102
RTVSPropertyOp12
 70
     1
102
RTVSPropertyOp13
 70
     1
102
RTVSPropertyOp14
 70
     1
102
RTVSPropertyOp15
 70
     1
102
RTVSPropertyOp16
 70
     1
102
RTVSPropertyOp17
 70
     1
102
RTVSPropertyOp18
 70
     1
102
RTVSPropertyOp19
 70
     1
102
RTVSPropertyOp20
 70
     1
102
RTVSPropertyOp21
 70
     1
102
RTVSPropertyOp22
 70
     1
102
RTVSPropertyOp23
 70
     1
102
RTVSPropertyOp24
 70
     1
102
RTVSPropertyOp25
 70
     1
102
RTVSPropertyOp26
 70
     1
102
RTVSPropertyOp27
 70
     1
102
RTVSPropertyOp28
 70
     1
102
RTVSPropertyOp29
 70
     1
102
RTVSPropertyOp30
 70
     1
102
RTVSPropertyOp31
 70
     1
102
RTVSPropertyOp32
 70
     1
102
RTVSPropertyOp33
 70
     1
102
RTVSPropertyOp34
 70
     1
102
RTVSPropertyOp35
 70
     1
102
RTVSPropertyOp36
 70
     1
102
RTVSPropertyOp37
 70
     1
102
RTVSPropertyOp38
 70
     1
102
RTVSPropertyOp39
 70
     1
102
RTVSPropertyOp40
 70
     1
102
RTVSPropertyOp41
 70
     1
102
RTVSPropertyOp42
 70
     1
102
RTVSPropertyOp43
 70
     1
102
RTVSPropertyOp44
 70
     1
102
RTVSPropertyOp45
 70
     1
102
RTVSPropertyOp46
 70
     1
102
RTVSPropertyOp47
 70
     1
102
RTVSPropertyOp48
 70
     1
102
RTVSPropertyOp49
 70
     1
102
RTVSPropertyOp50
 70
     1
102
RTVSPropertyOp51
 70
     0
102
RTVSPropertyOp52
 70
     0
102
RTVSPropertyOp53
 70
     1
102
RTVSPropertyOp54
 70
     1
102
RTVSPropertyOp55
 70
     1
102
RTVSPropertyOp56
 70
     1
102
RTVSPropertyOp57
 70
     1
102
RTVSPropertyOp58
 70
     1
102
RTVSPropertyOp59
 70
     1
102
RTVSPropertyOp60
 70
     1
102
RTVSPropertyOp61
 70
     1
102
RTVSPropertyOp62
 70
     1
  0
XRECORD
  5
46A
102
{ACAD_REACTORS
330
469
102
}
330
469
100
AcDbXrecord
280
     1
102
RTVSPost2010Prop28
280
     0
102
RTVSPost2010PropOp28
 70
     0
102
RTVSPost2010Prop29
280
     1
102
RTVSPost2010PropOp29
 70
     0
102
RTVSPost2010Prop30
280
     1
102
RTVSPost2010PropOp30
 70
     0
102
RTVSPost2010Prop31
280
     0
102
RTVSPost2010PropOp31
 70
     0
102
RTVSPost2010Prop32
280
     0
102
RTVSPost2010PropOp32
 70
     0
102
RTVSPost2010Prop33
280
     0
102
RTVSPost2010PropOp33
 70
     0
102
RTVSPost2010Prop34
280
     0
102
RTVSPost2010PropOp34
 70
     0
102
RTVSPost2010Prop35
280
     0
102
RTVSPost2010PropOp35
 70
     0
102
RTVSPost2010Prop36
280
     0
102
RTVSPost2010PropOp36
 70
     0
102
RTVSPost2010Prop37
 90
       50
102
RTVSPost2010PropOp37
 70
     0
102
RTVSPost2010Prop38
140
0.0
102
RTVSPost2010PropOp38
 70
     0
102
RTVSPost2010Prop39
140
1.0
102
RTVSPost2010PropOp39
 70
     0
102
RTVSPost2010Prop40
 90
        0
102
RTVSPost2010PropOp40
 70
     0
102
RTVSPost2010Prop41ColorIndex
 90
       18
102
RTVSPost2010Prop41ColorRGB
 90
        0
102
RTVSPost2010PropOp41
 70
     0
102
RTVSPost2010Prop42
 90
       50
102
RTVSPost2010PropOp42
 70
     0
102
RTVSPost2010Prop43
 90
        3
102
RTVSPost2010PropOp43
 70
     0
102
RTVSPost2010Prop44ColorIndex
 90
        5
102
RTVSPost2010Prop44ColorRGB
 90
      255
102
RTVSPost2010PropOp44
 70
     0
102
RTVSPost2010Prop45
280
     0
102
RTVSPost2010PropOp45
 70
     0
102
RTVSPost2010Prop46
 90
       50
102
RTVSPost2010PropOp46
 70
     0
102
RTVSPost2010Prop47
 90
       50
102
RTVSPost2010PropOp47
 70
     0
102
RTVSPost2010Prop48
 90
       50
102
RTVSPost2010PropOp48
 70
     0
102
RTVSPost2010Prop49
280
     0
102
RTVSPost2010PropOp49
 70
     0
102
RTVSPost2010Prop50
 90
       50
102
RTVSPost2010PropOp50
 70
     0
102
RTVSPost2010Prop51ColorIndex
 90
      256
102
RTVSPost2010Prop51ColorRGB
 90
-16777216
102
RTVSPost2010PropOp51
 70
     0
102
RTVSPost2010Prop52
140
1.0
102
RTVSPost2010PropOp52
 70
     0
102
RTVSPost2010Prop53
 90
        2
102
RTVSPost2010PropOp53
 70
     0
102
RTVSPost2010Prop54
  1
strokes_ogs.tif
102
RTVSPost2010PropOp54
 70
     0
102
RTVSPost2010Prop55
280
     0
102
RTVSPost2010PropOp55
 70
     0
102
RTVSPost2010Prop56
140
1.0
102
RTVSPost2010PropOp56
 70
     0
102
RTVSPost2010Prop57
140
1.0
102
RTVSPost2010PropOp57
 70
     0
102
RTVSPropertyOp0
 70
     0
102
RTVSPropertyOp1
 70
     0
102
RTVSPropertyOp2
 70
     0
102
RTVSPropertyOp3
 70
     0
102
RTVSPropertyOp4
 70
     0
102
RTVSPropertyOp5
 70
     0
102
RTVSPropertyOp6
 70
     0
102
RTVSPropertyOp7
 70
     0
102
RTVSPropertyOp8
 70
     0
102
RTVSPropertyOp9
 70
     0
102
RTVSPropertyOp10
 70
     0
102
RTVSPropertyOp11
 70
     0
102
RTVSPropertyOp12
 70
     0
102
RTVSPropertyOp13
 70
     0
102
RTVSPropertyOp14
 70
     2
102
RTVSPropertyOp15
 70
     0
102
RTVSPropertyOp16
 70
     0
102
RTVSPropertyOp17
 70
     0
102
RTVSPropertyOp18
 70
     0
102
RTVSPropertyOp19
 70
     0
102
RTVSPropertyOp20
 70
     0
102
RTVSPropertyOp21
 70
     0
102
RTVSPropertyOp22
 70
     0
102
RTVSPropertyOp23
 70
     0
102
RTVSPropertyOp24
 70
     0
102
RTVSPropertyOp25
 70
     0
102
RTVSPropertyOp26
 70
     0
102
RTVSPropertyOp27
 70
     0
102
RTVSPropertyOp28
 70
     0
102
RTVSPropertyOp29
 70
     0
102
RTVSPropertyOp30
 70
     0
102
RTVSPropertyOp31
 70
     0
102
RTVSPropertyOp32
 70
     0
102
RTVSPropertyOp33
 70
     0
102
RTVSPropertyOp34
 70
     0
102
RTVSPropertyOp35
 70
     0
102
RTVSPropertyOp36
 70
     0
102
RTVSPropertyOp37
 70
     0
102
RTVSPropertyOp38
 70
     0
102
RTVSPropertyOp39
 70
     0
102
RTVSPropertyOp40
 70
     0
102
RTVSPropertyOp41
 70
     0
102
RTVSPropertyOp42
 70
     0
102
RTVSPropertyOp43
 70
     0
102
RTVSPropertyOp44
 70
     0
102
RTVSPropertyOp45
 70
     0
102
RTVSPropertyOp46
 70
     0
102
RTVSPropertyOp47
 70
     0
102
RTVSPropertyOp48
 70
     0
102
RTVSPropertyOp49
 70
     0
102
RTVSPropertyOp50
 70
     0
102
RTVSPropertyOp51
 70
     0
102
RTVSPropertyOp52
 70
     0
102
RTVSPropertyOp53
 70
     0
102
RTVSPropertyOp54
 70
     0
102
RTVSPropertyOp55
 70
     0
102
RTVSPropertyOp56
 70
     0
102
RTVSPropertyOp57
 70
     0
102
RTVSPropertyOp58
 70
     1
102
RTVSPropertyOp59
 70
     1
102
RTVSPropertyOp60
 70
     1
102
RTVSPropertyOp61
 70
     1
102
RTVSPropertyOp62
 70
     1
  0
XRECORD
  5
464
102
{ACAD_REACTORS
330
463
102
}
330
463
100
AcDbXrecord
280
     1
102
RTVSPost2010Prop28
280
     0
102
RTVSPost2010PropOp28
 70
     1
102
RTVSPost2010Prop29
280
     1
102
RTVSPost2010PropOp29
 70
     1
102
RTVSPost2010Prop30
280
     1
102
RTVSPost2010PropOp30
 70
     1
102
RTVSPost2010Prop31
280
     0
102
RTVSPost2010PropOp31
 70
     1
102
RTVSPost2010Prop32
280
     0
102
RTVSPost2010PropOp32
 70
     1
102
RTVSPost2010Prop33
280
     0
102
RTVSPost2010PropOp33
 70
     1
102
RTVSPost2010Prop34
280
     0
102
RTVSPost2010PropOp34
 70
     1
102
RTVSPost2010Prop35
280
     0
102
RTVSPost2010PropOp35
 70
     1
102
RTVSPost2010Prop36
280
     0
102
RTVSPost2010PropOp36
 70
     1
102
RTVSPost2010Prop37
 90
       50
102
RTVSPost2010PropOp37
 70
     1
102
RTVSPost2010Prop38
140
0.0
102
RTVSPost2010PropOp38
 70
     1
102
RTVSPost2010Prop39
140
1.0
102
RTVSPost2010PropOp39
 70
     1
102
RTVSPost2010Prop40
 90
        0
102
RTVSPost2010PropOp40
 70
     1
102
RTVSPost2010Prop41ColorIndex
 90
       18
102
RTVSPost2010Prop41ColorRGB
 90
        0
102
RTVSPost2010PropOp41
 70
     1
102
RTVSPost2010Prop42
 90
       50
102
RTVSPost2010PropOp42
 70
     1
102
RTVSPost2010Prop43
 90
        3
102
RTVSPost2010PropOp43
 70
     1
102
RTVSPost2010Prop44ColorIndex
 90
        5
102
RTVSPost2010Prop44ColorRGB
 90
      255
102
RTVSPost2010PropOp44
 70
     1
102
RTVSPost2010Prop45
280
     0
102
RTVSPost2010PropOp45
 70
     1
102
RTVSPost2010Prop46
 90
       50
102
RTVSPost2010PropOp46
 70
     1
102
RTVSPost2010Prop47
 90
       50
102
RTVSPost2010PropOp47
 70
     1
102
RTVSPost2010Prop48
 90
       50
102
RTVSPost2010PropOp48
 70
     1
102
RTVSPost2010Prop49
280
     0
102
RTVSPost2010PropOp49
 70
     1
102
RTVSPost2010Prop50
 90
       50
102
RTVSPost2010PropOp50
 70
     1
102
RTVSPost2010Prop51ColorIndex
 90
      256
102
RTVSPost2010Prop51ColorRGB
 90
-16777216
102
RTVSPost2010PropOp51
 70
     0
102
RTVSPost2010Prop52
140
1.0
102
RTVSPost2010PropOp52
 70
     0
102
RTVSPost2010Prop53
 90
        2
102
RTVSPost2010PropOp53
 70
     1
102
RTVSPost2010Prop54
  1
strokes_ogs.tif
102
RTVSPost2010PropOp54
 70
     1
102
RTVSPost2010Prop55
280
     0
102
RTVSPost2010PropOp55
 70
     1
102
RTVSPost2010Prop56
140
1.0
102
RTVSPost2010PropOp56
 70
     1
102
RTVSPost2010Prop57
140
1.0
102
RTVSPost2010PropOp57
 70
     1
102
RTVSPropertyOp0
 70
     1
102
RTVSPropertyOp1
 70
     1
102
RTVSPropertyOp2
 70
     1
102
RTVSPropertyOp3
 70
     1
102
RTVSPropertyOp4
 70
     1
102
RTVSPropertyOp5
 70
     1
102
RTVSPropertyOp6
 70
     1
102
RTVSPropertyOp7
 70
     1
102
RTVSPropertyOp8
 70
     1
102
RTVSPropertyOp9
 70
     1
102
RTVSPropertyOp10
 70
     1
102
RTVSPropertyOp11
 70
     1
102
RTVSPropertyOp12
 70
     1
102
RTVSPropertyOp13
 70
     1
102
RTVSPropertyOp14
 70
     1
102
RTVSPropertyOp15
 70
     1
102
RTVSPropertyOp16
 70
     1
102
RTVSPropertyOp17
 70
     1
102
RTVSPropertyOp18
 70
     1
102
RTVSPropertyOp19
 70
     1
102
RTVSPropertyOp20
 70
     1
102
RTVSPropertyOp21
 70
     1
102
RTVSPropertyOp22
 70
     1
102
RTVSPropertyOp23
 70
     1
102
RTVSPropertyOp24
 70
     1
102
RTVSPropertyOp25
 70
     1
102
RTVSPropertyOp26
 70
     1
102
RTVSPropertyOp27
 70
     1
102
RTVSPropertyOp28
 70
     1
102
RTVSPropertyOp29
 70
     1
102
RTVSPropertyOp30
 70
     1
102
RTVSPropertyOp31
 70
     1
102
RTVSPropertyOp32
 70
     1
102
RTVSPropertyOp33
 70
     1
102
RTVSPropertyOp34
 70
     1
102
RTVSPropertyOp35
 70
     1
102
RTVSPropertyOp36
 70
     1
102
RTVSPropertyOp37
 70
     1
102
RTVSPropertyOp38
 70
     1
102
RTVSPropertyOp39
 70
     1
102
RTVSPropertyOp40
 70
     1
102
RTVSPropertyOp41
 70
     1
102
RTVSPropertyOp42
 70
     1
102
RTVSPropertyOp43
 70
     1
102
RTVSPropertyOp44
 70
     1
102
RTVSPropertyOp45
 70
     1
102
RTVSPropertyOp46
 70
     1
102
RTVSPropertyOp47
 70
     1
102
RTVSPropertyOp48
 70
     1
102
RTVSPropertyOp49
 70
     1
102
RTVSPropertyOp50
 70
     1
102
RTVSPropertyOp51
 70
     0
102
RTVSPropertyOp52
 70
     0
102
RTVSPropertyOp53
 70
     1
102
RTVSPropertyOp54
 70
     1
102
RTVSPropertyOp55
 70
     1
102
RTVSPropertyOp56
 70
     1
102
RTVSPropertyOp57
 70
     1
102
RTVSPropertyOp58
 70
     1
102
RTVSPropertyOp59
 70
     1
102
RTVSPropertyOp60
 70
     1
102
RTVSPropertyOp61
 70
     1
102
RTVSPropertyOp62
 70
     1
  0
XRECORD
  5
46C
102
{ACAD_REACTORS
330
46B
102
}
330
46B
100
AcDbXrecord
280
     1
102
RTVSPost2010Prop28
280
     0
102
RTVSPost2010PropOp28
 70
     0
102
RTVSPost2010Prop29
280
     1
102
RTVSPost2010PropOp29
 70
     0
102
RTVSPost2010Prop30
280
     1
102
RTVSPost2010PropOp30
 70
     0
102
RTVSPost2010Prop31
280
     0
102
RTVSPost2010PropOp31
 70
     0
102
RTVSPost2010Prop32
280
     0
102
RTVSPost2010PropOp32
 70
     0
102
RTVSPost2010Prop33
280
     0
102
RTVSPost2010PropOp33
 70
     0
102
RTVSPost2010Prop34
280
     0
102
RTVSPost2010PropOp34
 70
     0
102
RTVSPost2010Prop35
280
     0
102
RTVSPost2010PropOp35
 70
     0
102
RTVSPost2010Prop36
280
     0
102
RTVSPost2010PropOp36
 70
     0
102
RTVSPost2010Prop37
 90
       50
102
RTVSPost2010PropOp37
 70
     0
102
RTVSPost2010Prop38
140
0.0
102
RTVSPost2010PropOp38
 70
     0
102
RTVSPost2010Prop39
140
1.0
102
RTVSPost2010PropOp39
 70
     0
102
RTVSPost2010Prop40
 90
        0
102
RTVSPost2010PropOp40
 70
     0
102
RTVSPost2010Prop41ColorIndex
 90
       18
102
RTVSPost2010Prop41ColorRGB
 90
        0
102
RTVSPost2010PropOp41
 70
     0
102
RTVSPost2010Prop42
 90
       50
102
RTVSPost2010PropOp42
 70
     0
102
RTVSPost2010Prop43
 90
        3
102
RTVSPost2010PropOp43
 70
     0
102
RTVSPost2010Prop44ColorIndex
 90
        5
102
RTVSPost2010Prop44ColorRGB
 90
      255
102
RTVSPost2010PropOp44
 70
     0
102
RTVSPost2010Prop45
280
     0
102
RTVSPost2010PropOp45
 70
     0
102
RTVSPost2010Prop46
 90
       50
102
RTVSPost2010PropOp46
 70
     0
102
RTVSPost2010Prop47
 90
       50
102
RTVSPost2010PropOp47
 70
     0
102
RTVSPost2010Prop48
 90
       50
102
RTVSPost2010PropOp48
 70
     0
102
RTVSPost2010Prop49
280
     0
102
RTVSPost2010PropOp49
 70
     0
102
RTVSPost2010Prop50
 90
       50
102
RTVSPost2010PropOp50
 70
     0
102
RTVSPost2010Prop51ColorIndex
 90
      256
102
RTVSPost2010Prop51ColorRGB
 90
-16777216
102
RTVSPost2010PropOp51
 70
     0
102
RTVSPost2010Prop52
140
1.0
102
RTVSPost2010PropOp52
 70
     0
102
RTVSPost2010Prop53
 90
        2
102
RTVSPost2010PropOp53
 70
     0
102
RTVSPost2010Prop54
  1
strokes_ogs.tif
102
RTVSPost2010PropOp54
 70
     0
102
RTVSPost2010Prop55
280
     0
102
RTVSPost2010PropOp55
 70
     0
102
RTVSPost2010Prop56
140
1.0
102
RTVSPost2010PropOp56
 70
     0
102
RTVSPost2010Prop57
140
1.0
102
RTVSPost2010PropOp57
 70
     0
102
RTVSPropertyOp0
 70
     0
102
RTVSPropertyOp1
 70
     0
102
RTVSPropertyOp2
 70
     0
102
RTVSPropertyOp3
 70
     0
102
RTVSPropertyOp4
 70
     0
102
RTVSPropertyOp5
 70
     0
102
RTVSPropertyOp6
 70
     0
102
RTVSPropertyOp7
 70
     0
102
RTVSPropertyOp8
 70
     0
102
RTVSPropertyOp9
 70
     0
102
RTVSPropertyOp10
 70
     0
102
RTVSPropertyOp11
 70
     0
102
RTVSPropertyOp12
 70
     0
102
RTVSPropertyOp13
 70
     0
102
RTVSPropertyOp14
 70
     2
102
RTVSPropertyOp15
 70
     0
102
RTVSPropertyOp16
 70
     0
102
RTVSPropertyOp17
 70
     0
102
RTVSPropertyOp18
 70
     0
102
RTVSPropertyOp19
 70
     0
102
RTVSPropertyOp20
 70
     0
102
RTVSPropertyOp21
 70
     0
102
RTVSPropertyOp22
 70
     0
102
RTVSPropertyOp23
 70
     0
102
RTVSPropertyOp24
 70
     0
102
RTVSPropertyOp25
 70
     0
102
RTVSPropertyOp26
 70
     0
102
RTVSPropertyOp27
 70
     0
102
RTVSPropertyOp28
 70
     0
102
RTVSPropertyOp29
 70
     0
102
RTVSPropertyOp30
 70
     0
102
RTVSPropertyOp31
 70
     0
102
RTVSPropertyOp32
 70
     0
102
RTVSPropertyOp33
 70
     0
102
RTVSPropertyOp34
 70
     0
102
RTVSPropertyOp35
 70
     0
102
RTVSPropertyOp36
 70
     0
102
RTVSPropertyOp37
 70
     0
102
RTVSPropertyOp38
 70
     0
102
RTVSPropertyOp39
 70
     0
102
RTVSPropertyOp40
 70
     0
102
RTVSPropertyOp41
 70
     0
102
RTVSPropertyOp42
 70
     0
102
RTVSPropertyOp43
 70
     0
102
RTVSPropertyOp44
 70
     0
102
RTVSPropertyOp45
 70
     0
102
RTVSPropertyOp46
 70
     0
102
RTVSPropertyOp47
 70
     0
102
RTVSPropertyOp48
 70
     0
102
RTVSPropertyOp49
 70
     0
102
RTVSPropertyOp50
 70
     0
102
RTVSPropertyOp51
 70
     0
102
RTVSPropertyOp52
 70
     0
102
RTVSPropertyOp53
 70
     0
102
RTVSPropertyOp54
 70
     0
102
RTVSPropertyOp55
 70
     0
102
RTVSPropertyOp56
 70
     0
102
RTVSPropertyOp57
 70
     0
102
RTVSPropertyOp58
 70
     1
102
RTVSPropertyOp59
 70
     1
102
RTVSPropertyOp60
 70
     1
102
RTVSPropertyOp61
 70
     1
102
RTVSPropertyOp62
 70
     1
  0
XRECORD
  5
45A
102
{ACAD_REACTORS
330
459
102
}
330
459
100
AcDbXrecord
280
     1
102
RTVSPost2010Prop28
280
     0
102
RTVSPost2010PropOp28
 70
     1
102
RTVSPost2010Prop29
280
     1
102
RTVSPost2010PropOp29
 70
     1
102
RTVSPost2010Prop30
280
     1
102
RTVSPost2010PropOp30
 70
     1
102
RTVSPost2010Prop31
280
     0
102
RTVSPost2010PropOp31
 70
     1
102
RTVSPost2010Prop32
280
     0
102
RTVSPost2010PropOp32
 70
     1
102
RTVSPost2010Prop33
280
     0
102
RTVSPost2010PropOp33
 70
     1
102
RTVSPost2010Prop34
280
     0
102
RTVSPost2010PropOp34
 70
     1
102
RTVSPost2010Prop35
280
     0
102
RTVSPost2010PropOp35
 70
     1
102
RTVSPost2010Prop36
280
     0
102
RTVSPost2010PropOp36
 70
     1
102
RTVSPost2010Prop37
 90
       50
102
RTVSPost2010PropOp37
 70
     1
102
RTVSPost2010Prop38
140
0.0
102
RTVSPost2010PropOp38
 70
     1
102
RTVSPost2010Prop39
140
1.0
102
RTVSPost2010PropOp39
 70
     1
102
RTVSPost2010Prop40
 90
        0
102
RTVSPost2010PropOp40
 70
     1
102
RTVSPost2010Prop41ColorIndex
 90
       18
102
RTVSPost2010Prop41ColorRGB
 90
        0
102
RTVSPost2010PropOp41
 70
     1
102
RTVSPost2010Prop42
 90
       50
102
RTVSPost2010PropOp42
 70
     1
102
RTVSPost2010Prop43
 90
        3
102
RTVSPost2010PropOp43
 70
     1
102
RTVSPost2010Prop44ColorIndex
 90
        5
102
RTVSPost2010Prop44ColorRGB
 90
      255
102
RTVSPost2010PropOp44
 70
     1
102
RTVSPost2010Prop45
280
     0
102
RTVSPost2010PropOp45
 70
     1
102
RTVSPost2010Prop46
 90
       50
102
RTVSPost2010PropOp46
 70
     1
102
RTVSPost2010Prop47
 90
       50
102
RTVSPost2010PropOp47
 70
     1
102
RTVSPost2010Prop48
 90
       50
102
RTVSPost2010PropOp48
 70
     1
102
RTVSPost2010Prop49
280
     0
102
RTVSPost2010PropOp49
 70
     1
102
RTVSPost2010Prop50
 90
       50
102
RTVSPost2010PropOp50
 70
     1
102
RTVSPost2010Prop51ColorIndex
 90
      256
102
RTVSPost2010Prop51ColorRGB
 90
-16777216
102
RTVSPost2010PropOp51
 70
     0
102
RTVSPost2010Prop52
140
1.0
102
RTVSPost2010PropOp52
 70
     0
102
RTVSPost2010Prop53
 90
        2
102
RTVSPost2010PropOp53
 70
     1
102
RTVSPost2010Prop54
  1
strokes_ogs.tif
102
RTVSPost2010PropOp54
 70
     1
102
RTVSPost2010Prop55
280
     0
102
RTVSPost2010PropOp55
 70
     1
102
RTVSPost2010Prop56
140
1.0
102
RTVSPost2010PropOp56
 70
     1
102
RTVSPost2010Prop57
140
1.0
102
RTVSPost2010PropOp57
 70
     1
102
RTVSPropertyOp0
 70
     1
102
RTVSPropertyOp1
 70
     1
102
RTVSPropertyOp2
 70
     1
102
RTVSPropertyOp3
 70
     1
102
RTVSPropertyOp4
 70
     1
102
RTVSPropertyOp5
 70
     1
102
RTVSPropertyOp6
 70
     1
102
RTVSPropertyOp7
 70
     1
102
RTVSPropertyOp8
 70
     1
102
RTVSPropertyOp9
 70
     1
102
RTVSPropertyOp10
 70
     1
102
RTVSPropertyOp11
 70
     1
102
RTVSPropertyOp12
 70
     1
102
RTVSPropertyOp13
 70
     1
102
RTVSPropertyOp14
 70
     1
102
RTVSPropertyOp15
 70
     1
102
RTVSPropertyOp16
 70
     1
102
RTVSPropertyOp17
 70
     1
102
RTVSPropertyOp18
 70
     1
102
RTVSPropertyOp19
 70
     1
102
RTVSPropertyOp20
 70
     1
102
RTVSPropertyOp21
 70
     1
102
RTVSPropertyOp22
 70
     1
102
RTVSPropertyOp23
 70
     1
102
RTVSPropertyOp24
 70
     1
102
RTVSPropertyOp25
 70
     1
102
RTVSPropertyOp26
 70
     1
102
RTVSPropertyOp27
 70
     1
102
RTVSPropertyOp28
 70
     1
102
RTVSPropertyOp29
 70
     1
102
RTVSPropertyOp30
 70
     1
102
RTVSPropertyOp31
 70
     1
102
RTVSPropertyOp32
 70
     1
102
RTVSPropertyOp33
 70
     1
102
RTVSPropertyOp34
 70
     1
102
RTVSPropertyOp35
 70
     1
102
RTVSPropertyOp36
 70
     1
102
RTVSPropertyOp37
 70
     1
102
RTVSPropertyOp38
 70
     1
102
RTVSPropertyOp39
 70
     1
102
RTVSPropertyOp40
 70
     1
102
RTVSPropertyOp41
 70
     1
102
RTVSPropertyOp42
 70
     1
102
RTVSPropertyOp43
 70
     1
102
RTVSPropertyOp44
 70
     1
102
RTVSPropertyOp45
 70
     1
102
RTVSPropertyOp46
 70
     1
102
RTVSPropertyOp47
 70
     1
102
RTVSPropertyOp48
 70
     1
102
RTVSPropertyOp49
 70
     1
102
RTVSPropertyOp50
 70
     1
102
RTVSPropertyOp51
 70
     0
102
RTVSPropertyOp52
 70
     0
102
RTVSPropertyOp53
 70
     1
102
RTVSPropertyOp54
 70
     1
102
RTVSPropertyOp55
 70
     1
102
RTVSPropertyOp56
 70
     1
102
RTVSPropertyOp57
 70
     1
102
RTVSPropertyOp58
 70
     1
102
RTVSPropertyOp59
 70
     1
102
RTVSPropertyOp60
 70
     1
102
RTVSPropertyOp61
 70
     1
102
RTVSPropertyOp62
 70
     1
  0
XRECORD
  5
478
102
{ACAD_REACTORS
330
477
102
}
330
477
100
AcDbXrecord
280
     1
102
RTVSPost2010Prop28
280
     0
102
RTVSPost2010PropOp28
 70
     1
102
RTVSPost2010Prop29
280
     1
102
RTVSPost2010PropOp29
 70
     1
102
RTVSPost2010Prop30
280
     1
102
RTVSPost2010PropOp30
 70
     1
102
RTVSPost2010Prop31
280
     0
102
RTVSPost2010PropOp31
 70
     1
102
RTVSPost2010Prop32
280
     0
102
RTVSPost2010PropOp32
 70
     1
102
RTVSPost2010Prop33
280
     0
102
RTVSPost2010PropOp33
 70
     1
102
RTVSPost2010Prop34
280
     0
102
RTVSPost2010PropOp34
 70
     1
102
RTVSPost2010Prop35
280
     0
102
RTVSPost2010PropOp35
 70
     1
102
RTVSPost2010Prop36
280
     0
102
RTVSPost2010PropOp36
 70
     1
102
RTVSPost2010Prop37
 90
       50
102
RTVSPost2010PropOp37
 70
     1
102
RTVSPost2010Prop38
140
0.0
102
RTVSPost2010PropOp38
 70
     1
102
RTVSPost2010Prop39
140
1.0
102
RTVSPost2010PropOp39
 70
     1
102
RTVSPost2010Prop40
 90
        0
102
RTVSPost2010PropOp40
 70
     1
102
RTVSPost2010Prop41ColorIndex
 90
       18
102
RTVSPost2010Prop41ColorRGB
 90
        0
102
RTVSPost2010PropOp41
 70
     1
102
RTVSPost2010Prop42
 90
       50
102
RTVSPost2010PropOp42
 70
     1
102
RTVSPost2010Prop43
 90
        3
102
RTVSPost2010PropOp43
 70
     1
102
RTVSPost2010Prop44ColorIndex
 90
        5
102
RTVSPost2010Prop44ColorRGB
 90
      255
102
RTVSPost2010PropOp44
 70
     1
102
RTVSPost2010Prop45
280
     0
102
RTVSPost2010PropOp45
 70
     1
102
RTVSPost2010Prop46
 90
       50
102
RTVSPost2010PropOp46
 70
     1
102
RTVSPost2010Prop47
 90
       50
102
RTVSPost2010PropOp47
 70
     1
102
RTVSPost2010Prop48
 90
       50
102
RTVSPost2010PropOp48
 70
     1
102
RTVSPost2010Prop49
280
     0
102
RTVSPost2010PropOp49
 70
     1
102
RTVSPost2010Prop50
 90
       50
102
RTVSPost2010PropOp50
 70
     1
102
RTVSPost2010Prop51ColorIndex
 90
      256
102
RTVSPost2010Prop51ColorRGB
 90
-16777216
102
RTVSPost2010PropOp51
 70
     0
102
RTVSPost2010Prop52
140
1.0
102
RTVSPost2010PropOp52
 70
     0
102
RTVSPost2010Prop53
 90
        2
102
RTVSPost2010PropOp53
 70
     1
102
RTVSPost2010Prop54
  1
strokes_ogs.tif
102
RTVSPost2010PropOp54
 70
     1
102
RTVSPost2010Prop55
280
     0
102
RTVSPost2010PropOp55
 70
     1
102
RTVSPost2010Prop56
140
1.0
102
RTVSPost2010PropOp56
 70
     1
102
RTVSPost2010Prop57
140
1.0
102
RTVSPost2010PropOp57
 70
     1
102
RTVSPropertyOp0
 70
     1
102
RTVSPropertyOp1
 70
     1
102
RTVSPropertyOp2
 70
     1
102
RTVSPropertyOp3
 70
     1
102
RTVSPropertyOp4
 70
     1
102
RTVSPropertyOp5
 70
     1
102
RTVSPropertyOp6
 70
     1
102
RTVSPropertyOp7
 70
     1
102
RTVSPropertyOp8
 70
     1
102
RTVSPropertyOp9
 70
     1
102
RTVSPropertyOp10
 70
     1
102
RTVSPropertyOp11
 70
     1
102
RTVSPropertyOp12
 70
     1
102
RTVSPropertyOp13
 70
     1
102
RTVSPropertyOp14
 70
     1
102
RTVSPropertyOp15
 70
     1
102
RTVSPropertyOp16
 70
     1
102
RTVSPropertyOp17
 70
     1
102
RTVSPropertyOp18
 70
     1
102
RTVSPropertyOp19
 70
     1
102
RTVSPropertyOp20
 70
     1
102
RTVSPropertyOp21
 70
     1
102
RTVSPropertyOp22
 70
     1
102
RTVSPropertyOp23
 70
     1
102
RTVSPropertyOp24
 70
     1
102
RTVSPropertyOp25
 70
     1
102
RTVSPropertyOp26
 70
     1
102
RTVSPropertyOp27
 70
     1
102
RTVSPropertyOp28
 70
     1
102
RTVSPropertyOp29
 70
     1
102
RTVSPropertyOp30
 70
     1
102
RTVSPropertyOp31
 70
     1
102
RTVSPropertyOp32
 70
     1
102
RTVSPropertyOp33
 70
     1
102
RTVSPropertyOp34
 70
     1
102
RTVSPropertyOp35
 70
     1
102
RTVSPropertyOp36
 70
     1
102
RTVSPropertyOp37
 70
     1
102
RTVSPropertyOp38
 70
     1
102
RTVSPropertyOp39
 70
     1
102
RTVSPropertyOp40
 70
     1
102
RTVSPropertyOp41
 70
     1
102
RTVSPropertyOp42
 70
     1
102
RTVSPropertyOp43
 70
     1
102
RTVSPropertyOp44
 70
     1
102
RTVSPropertyOp45
 70
     1
102
RTVSPropertyOp46
 70
     1
102
RTVSPropertyOp47
 70
     1
102
RTVSPropertyOp48
 70
     1
102
RTVSPropertyOp49
 70
     1
102
RTVSPropertyOp50
 70
     1
102
RTVSPropertyOp51
 70
     0
102
RTVSPropertyOp52
 70
     0
102
RTVSPropertyOp53
 70
     1
102
RTVSPropertyOp54
 70
     1
102
RTVSPropertyOp55
 70
     1
102
RTVSPropertyOp56
 70
     1
102
RTVSPropertyOp57
 70
     1
102
RTVSPropertyOp58
 70
     1
102
RTVSPropertyOp59
 70
     1
102
RTVSPropertyOp60
 70
     1
102
RTVSPropertyOp61
 70
     1
102
RTVSPropertyOp62
 70
     1
  0
XRECORD
  5
476
102
{ACAD_REACTORS
330
475
102
}
330
475
100
AcDbXrecord
280
     1
102
RTVSPost2010Prop28
280
     0
102
RTVSPost2010PropOp28
 70
     1
102
RTVSPost2010Prop29
280
     1
102
RTVSPost2010PropOp29
 70
     1
102
RTVSPost2010Prop30
280
     1
102
RTVSPost2010PropOp30
 70
     1
102
RTVSPost2010Prop31
280
     0
102
RTVSPost2010PropOp31
 70
     1
102
RTVSPost2010Prop32
280
     0
102
RTVSPost2010PropOp32
 70
     1
102
RTVSPost2010Prop33
280
     0
102
RTVSPost2010PropOp33
 70
     1
102
RTVSPost2010Prop34
280
     0
102
RTVSPost2010PropOp34
 70
     1
102
RTVSPost2010Prop35
280
     0
102
RTVSPost2010PropOp35
 70
     1
102
RTVSPost2010Prop36
280
     0
102
RTVSPost2010PropOp36
 70
     1
102
RTVSPost2010Prop37
 90
       50
102
RTVSPost2010PropOp37
 70
     1
102
RTVSPost2010Prop38
140
0.0
102
RTVSPost2010PropOp38
 70
     1
102
RTVSPost2010Prop39
140
1.0
102
RTVSPost2010PropOp39
 70
     1
102
RTVSPost2010Prop40
 90
        0
102
RTVSPost2010PropOp40
 70
     1
102
RTVSPost2010Prop41ColorIndex
 90
       18
102
RTVSPost2010Prop41ColorRGB
 90
        0
102
RTVSPost2010PropOp41
 70
     1
102
RTVSPost2010Prop42
 90
       50
102
RTVSPost2010PropOp42
 70
     1
102
RTVSPost2010Prop43
 90
        3
102
RTVSPost2010PropOp43
 70
     1
102
RTVSPost2010Prop44ColorIndex
 90
        5
102
RTVSPost2010Prop44ColorRGB
 90
      255
102
RTVSPost2010PropOp44
 70
     1
102
RTVSPost2010Prop45
280
     0
102
RTVSPost2010PropOp45
 70
     1
102
RTVSPost2010Prop46
 90
       50
102
RTVSPost2010PropOp46
 70
     1
102
RTVSPost2010Prop47
 90
       50
102
RTVSPost2010PropOp47
 70
     1
102
RTVSPost2010Prop48
 90
       50
102
RTVSPost2010PropOp48
 70
     1
102
RTVSPost2010Prop49
280
     0
102
RTVSPost2010PropOp49
 70
     1
102
RTVSPost2010Prop50
 90
       50
102
RTVSPost2010PropOp50
 70
     1
102
RTVSPost2010Prop51ColorIndex
 90
      256
102
RTVSPost2010Prop51ColorRGB
 90
-16777216
102
RTVSPost2010PropOp51
 70
     0
102
RTVSPost2010Prop52
140
1.0
102
RTVSPost2010PropOp52
 70
     0
102
RTVSPost2010Prop53
 90
        2
102
RTVSPost2010PropOp53
 70
     1
102
RTVSPost2010Prop54
  1
strokes_ogs.tif
102
RTVSPost2010PropOp54
 70
     1
102
RTVSPost2010Prop55
280
     0
102
RTVSPost2010PropOp55
 70
     1
102
RTVSPost2010Prop56
140
1.0
102
RTVSPost2010PropOp56
 70
     1
102
RTVSPost2010Prop57
140
1.0
102
RTVSPost2010PropOp57
 70
     1
102
RTVSPropertyOp0
 70
     1
102
RTVSPropertyOp1
 70
     1
102
RTVSPropertyOp2
 70
     1
102
RTVSPropertyOp3
 70
     1
102
RTVSPropertyOp4
 70
     1
102
RTVSPropertyOp5
 70
     1
102
RTVSPropertyOp6
 70
     1
102
RTVSPropertyOp7
 70
     1
102
RTVSPropertyOp8
 70
     1
102
RTVSPropertyOp9
 70
     1
102
RTVSPropertyOp10
 70
     1
102
RTVSPropertyOp11
 70
     1
102
RTVSPropertyOp12
 70
     1
102
RTVSPropertyOp13
 70
     1
102
RTVSPropertyOp14
 70
     1
102
RTVSPropertyOp15
 70
     1
102
RTVSPropertyOp16
 70
     1
102
RTVSPropertyOp17
 70
     1
102
RTVSPropertyOp18
 70
     1
102
RTVSPropertyOp19
 70
     1
102
RTVSPropertyOp20
 70
     1
102
RTVSPropertyOp21
 70
     1
102
RTVSPropertyOp22
 70
     1
102
RTVSPropertyOp23
 70
     1
102
RTVSPropertyOp24
 70
     1
102
RTVSPropertyOp25
 70
     1
102
RTVSPropertyOp26
 70
     1
102
RTVSPropertyOp27
 70
     1
102
RTVSPropertyOp28
 70
     1
102
RTVSPropertyOp29
 70
     1
102
RTVSPropertyOp30
 70
     1
102
RTVSPropertyOp31
 70
     1
102
RTVSPropertyOp32
 70
     1
102
RTVSPropertyOp33
 70
     1
102
RTVSPropertyOp34
 70
     1
102
RTVSPropertyOp35
 70
     1
102
RTVSPropertyOp36
 70
     1
102
RTVSPropertyOp37
 70
     1
102
RTVSPropertyOp38
 70
     1
102
RTVSPropertyOp39
 70
     1
102
RTVSPropertyOp40
 70
     1
102
RTVSPropertyOp41
 70
     1
102
RTVSPropertyOp42
 70
     1
102
RTVSPropertyOp43
 70
     1
102
RTVSPropertyOp44
 70
     1
102
RTVSPropertyOp45
 70
     1
102
RTVSPropertyOp46
 70
     1
102
RTVSPropertyOp47
 70
     1
102
RTVSPropertyOp48
 70
     1
102
RTVSPropertyOp49
 70
     1
102
RTVSPropertyOp50
 70
     1
102
RTVSPropertyOp51
 70
     0
102
RTVSPropertyOp52
 70
     0
102
RTVSPropertyOp53
 70
     1
102
RTVSPropertyOp54
 70
     1
102
RTVSPropertyOp55
 70
     1
102
RTVSPropertyOp56
 70
     1
102
RTVSPropertyOp57
 70
     1
102
RTVSPropertyOp58
 70
     1
102
RTVSPropertyOp59
 70
     1
102
RTVSPropertyOp60
 70
     1
102
RTVSPropertyOp61
 70
     1
102
RTVSPropertyOp62
 70
     1
  0
XRECORD
  5
470
102
{ACAD_REACTORS
330
46F
102
}
330
46F
100
AcDbXrecord
280
     1
102
RTVSPost2010Prop28
280
     0
102
RTVSPost2010PropOp28
 70
     1
102
RTVSPost2010Prop29
280
     1
102
RTVSPost2010PropOp29
 70
     1
102
RTVSPost2010Prop30
280
     1
102
RTVSPost2010PropOp30
 70
     1
102
RTVSPost2010Prop31
280
     0
102
RTVSPost2010PropOp31
 70
     1
102
RTVSPost2010Prop32
280
     0
102
RTVSPost2010PropOp32
 70
     1
102
RTVSPost2010Prop33
280
     0
102
RTVSPost2010PropOp33
 70
     1
102
RTVSPost2010Prop34
280
     0
102
RTVSPost2010PropOp34
 70
     1
102
RTVSPost2010Prop35
280
     0
102
RTVSPost2010PropOp35
 70
     1
102
RTVSPost2010Prop36
280
     0
102
RTVSPost2010PropOp36
 70
     1
102
RTVSPost2010Prop37
 90
       50
102
RTVSPost2010PropOp37
 70
     1
102
RTVSPost2010Prop38
140
0.0
102
RTVSPost2010PropOp38
 70
     1
102
RTVSPost2010Prop39
140
1.0
102
RTVSPost2010PropOp39
 70
     1
102
RTVSPost2010Prop40
 90
        0
102
RTVSPost2010PropOp40
 70
     1
102
RTVSPost2010Prop41ColorIndex
 90
       18
102
RTVSPost2010Prop41ColorRGB
 90
        0
102
RTVSPost2010PropOp41
 70
     1
102
RTVSPost2010Prop42
 90
       50
102
RTVSPost2010PropOp42
 70
     1
102
RTVSPost2010Prop43
 90
        3
102
RTVSPost2010PropOp43
 70
     1
102
RTVSPost2010Prop44ColorIndex
 90
        5
102
RTVSPost2010Prop44ColorRGB
 90
      255
102
RTVSPost2010PropOp44
 70
     1
102
RTVSPost2010Prop45
280
     0
102
RTVSPost2010PropOp45
 70
     1
102
RTVSPost2010Prop46
 90
       50
102
RTVSPost2010PropOp46
 70
     1
102
RTVSPost2010Prop47
 90
       50
102
RTVSPost2010PropOp47
 70
     1
102
RTVSPost2010Prop48
 90
       50
102
RTVSPost2010PropOp48
 70
     1
102
RTVSPost2010Prop49
280
     0
102
RTVSPost2010PropOp49
 70
     1
102
RTVSPost2010Prop50
 90
       50
102
RTVSPost2010PropOp50
 70
     1
102
RTVSPost2010Prop51ColorIndex
 90
      256
102
RTVSPost2010Prop51ColorRGB
 90
-16777216
102
RTVSPost2010PropOp51
 70
     0
102
RTVSPost2010Prop52
140
1.0
102
RTVSPost2010PropOp52
 70
     0
102
RTVSPost2010Prop53
 90
        2
102
RTVSPost2010PropOp53
 70
     1
102
RTVSPost2010Prop54
  1
strokes_ogs.tif
102
RTVSPost2010PropOp54
 70
     1
102
RTVSPost2010Prop55
280
     0
102
RTVSPost2010PropOp55
 70
     1
102
RTVSPost2010Prop56
140
1.0
102
RTVSPost2010PropOp56
 70
     1
102
RTVSPost2010Prop57
140
1.0
102
RTVSPost2010PropOp57
 70
     1
102
RTVSPropertyOp0
 70
     1
102
RTVSPropertyOp1
 70
     1
102
RTVSPropertyOp2
 70
     1
102
RTVSPropertyOp3
 70
     1
102
RTVSPropertyOp4
 70
     1
102
RTVSPropertyOp5
 70
     1
102
RTVSPropertyOp6
 70
     1
102
RTVSPropertyOp7
 70
     1
102
RTVSPropertyOp8
 70
     1
102
RTVSPropertyOp9
 70
     1
102
RTVSPropertyOp10
 70
     1
102
RTVSPropertyOp11
 70
     1
102
RTVSPropertyOp12
 70
     1
102
RTVSPropertyOp13
 70
     1
102
RTVSPropertyOp14
 70
     1
102
RTVSPropertyOp15
 70
     1
102
RTVSPropertyOp16
 70
     1
102
RTVSPropertyOp17
 70
     1
102
RTVSPropertyOp18
 70
     1
102
RTVSPropertyOp19
 70
     1
102
RTVSPropertyOp20
 70
     1
102
RTVSPropertyOp21
 70
     1
102
RTVSPropertyOp22
 70
     1
102
RTVSPropertyOp23
 70
     1
102
RTVSPropertyOp24
 70
     1
102
RTVSPropertyOp25
 70
     1
102
RTVSPropertyOp26
 70
     1
102
RTVSPropertyOp27
 70
     1
102
RTVSPropertyOp28
 70
     1
102
RTVSPropertyOp29
 70
     1
102
RTVSPropertyOp30
 70
     1
102
RTVSPropertyOp31
 70
     1
102
RTVSPropertyOp32
 70
     1
102
RTVSPropertyOp33
 70
     1
102
RTVSPropertyOp34
 70
     1
102
RTVSPropertyOp35
 70
     1
102
RTVSPropertyOp36
 70
     1
102
RTVSPropertyOp37
 70
     1
102
RTVSPropertyOp38
 70
     1
102
RTVSPropertyOp39
 70
     1
102
RTVSPropertyOp40
 70
     1
102
RTVSPropertyOp41
 70
     1
102
RTVSPropertyOp42
 70
     1
102
RTVSPropertyOp43
 70
     1
102
RTVSPropertyOp44
 70
     1
102
RTVSPropertyOp45
 70
     1
102
RTVSPropertyOp46
 70
     1
102
RTVSPropertyOp47
 70
     1
102
RTVSPropertyOp48
 70
     1
102
RTVSPropertyOp49
 70
     1
102
RTVSPropertyOp50
 70
     1
102
RTVSPropertyOp51
 70
     0
102
RTVSPropertyOp52
 70
     0
102
RTVSPropertyOp53
 70
     1
102
RTVSPropertyOp54
 70
     1
102
RTVSPropertyOp55
 70
     1
102
RTVSPropertyOp56
 70
     1
102
RTVSPropertyOp57
 70
     1
102
RTVSPropertyOp58
 70
     1
102
RTVSPropertyOp59
 70
     1
102
RTVSPropertyOp60
 70
     1
102
RTVSPropertyOp61
 70
     1
102
RTVSPropertyOp62
 70
     1
  0
XRECORD
  5
472
102
{ACAD_REACTORS
330
471
102
}
330
471
100
AcDbXrecord
280
     1
102
RTVSPost2010Prop28
280
     0
102
RTVSPost2010PropOp28
 70
     1
102
RTVSPost2010Prop29
280
     1
102
RTVSPost2010PropOp29
 70
     1
102
RTVSPost2010Prop30
280
     1
102
RTVSPost2010PropOp30
 70
     1
102
RTVSPost2010Prop31
280
     0
102
RTVSPost2010PropOp31
 70
     1
102
RTVSPost2010Prop32
280
     0
102
RTVSPost2010PropOp32
 70
     1
102
RTVSPost2010Prop33
280
     0
102
RTVSPost2010PropOp33
 70
     1
102
RTVSPost2010Prop34
280
     0
102
RTVSPost2010PropOp34
 70
     1
102
RTVSPost2010Prop35
280
     0
102
RTVSPost2010PropOp35
 70
     1
102
RTVSPost2010Prop36
280
     0
102
RTVSPost2010PropOp36
 70
     1
102
RTVSPost2010Prop37
 90
       50
102
RTVSPost2010PropOp37
 70
     1
102
RTVSPost2010Prop38
140
0.0
102
RTVSPost2010PropOp38
 70
     1
102
RTVSPost2010Prop39
140
1.0
102
RTVSPost2010PropOp39
 70
     1
102
RTVSPost2010Prop40
 90
        0
102
RTVSPost2010PropOp40
 70
     1
102
RTVSPost2010Prop41ColorIndex
 90
       18
102
RTVSPost2010Prop41ColorRGB
 90
        0
102
RTVSPost2010PropOp41
 70
     1
102
RTVSPost2010Prop42
 90
       50
102
RTVSPost2010PropOp42
 70
     1
102
RTVSPost2010Prop43
 90
        3
102
RTVSPost2010PropOp43
 70
     1
102
RTVSPost2010Prop44ColorIndex
 90
        5
102
RTVSPost2010Prop44ColorRGB
 90
      255
102
RTVSPost2010PropOp44
 70
     1
102
RTVSPost2010Prop45
280
     0
102
RTVSPost2010PropOp45
 70
     1
102
RTVSPost2010Prop46
 90
       50
102
RTVSPost2010PropOp46
 70
     1
102
RTVSPost2010Prop47
 90
       50
102
RTVSPost2010PropOp47
 70
     1
102
RTVSPost2010Prop48
 90
       50
102
RTVSPost2010PropOp48
 70
     1
102
RTVSPost2010Prop49
280
     0
102
RTVSPost2010PropOp49
 70
     1
102
RTVSPost2010Prop50
 90
       50
102
RTVSPost2010PropOp50
 70
     1
102
RTVSPost2010Prop51ColorIndex
 90
      256
102
RTVSPost2010Prop51ColorRGB
 90
-16777216
102
RTVSPost2010PropOp51
 70
     0
102
RTVSPost2010Prop52
140
1.0
102
RTVSPost2010PropOp52
 70
     0
102
RTVSPost2010Prop53
 90
        2
102
RTVSPost2010PropOp53
 70
     1
102
RTVSPost2010Prop54
  1
strokes_ogs.tif
102
RTVSPost2010PropOp54
 70
     1
102
RTVSPost2010Prop55
280
     0
102
RTVSPost2010PropOp55
 70
     1
102
RTVSPost2010Prop56
140
1.0
102
RTVSPost2010PropOp56
 70
     1
102
RTVSPost2010Prop57
140
1.0
102
RTVSPost2010PropOp57
 70
     1
102
RTVSPropertyOp0
 70
     1
102
RTVSPropertyOp1
 70
     1
102
RTVSPropertyOp2
 70
     1
102
RTVSPropertyOp3
 70
     1
102
RTVSPropertyOp4
 70
     1
102
RTVSPropertyOp5
 70
     1
102
RTVSPropertyOp6
 70
     1
102
RTVSPropertyOp7
 70
     1
102
RTVSPropertyOp8
 70
     1
102
RTVSPropertyOp9
 70
     1
102
RTVSPropertyOp10
 70
     1
102
RTVSPropertyOp11
 70
     1
102
RTVSPropertyOp12
 70
     1
102
RTVSPropertyOp13
 70
     1
102
RTVSPropertyOp14
 70
     1
102
RTVSPropertyOp15
 70
     1
102
RTVSPropertyOp16
 70
     1
102
RTVSPropertyOp17
 70
     1
102
RTVSPropertyOp18
 70
     1
102
RTVSPropertyOp19
 70
     1
102
RTVSPropertyOp20
 70
     1
102
RTVSPropertyOp21
 70
     1
102
RTVSPropertyOp22
 70
     1
102
RTVSPropertyOp23
 70
     1
102
RTVSPropertyOp24
 70
     1
102
RTVSPropertyOp25
 70
     1
102
RTVSPropertyOp26
 70
     1
102
RTVSPropertyOp27
 70
     1
102
RTVSPropertyOp28
 70
     1
102
RTVSPropertyOp29
 70
     1
102
RTVSPropertyOp30
 70
     1
102
RTVSPropertyOp31
 70
     1
102
RTVSPropertyOp32
 70
     1
102
RTVSPropertyOp33
 70
     1
102
RTVSPropertyOp34
 70
     1
102
RTVSPropertyOp35
 70
     1
102
RTVSPropertyOp36
 70
     1
102
RTVSPropertyOp37
 70
     1
102
RTVSPropertyOp38
 70
     1
102
RTVSPropertyOp39
 70
     1
102
RTVSPropertyOp40
 70
     1
102
RTVSPropertyOp41
 70
     1
102
RTVSPropertyOp42
 70
     1
102
RTVSPropertyOp43
 70
     1
102
RTVSPropertyOp44
 70
     1
102
RTVSPropertyOp45
 70
     1
102
RTVSPropertyOp46
 70
     1
102
RTVSPropertyOp47
 70
     1
102
RTVSPropertyOp48
 70
     1
102
RTVSPropertyOp49
 70
     1
102
RTVSPropertyOp50
 70
     1
102
RTVSPropertyOp51
 70
     0
102
RTVSPropertyOp52
 70
     0
102
RTVSPropertyOp53
 70
     1
102
RTVSPropertyOp54
 70
     1
102
RTVSPropertyOp55
 70
     1
102
RTVSPropertyOp56
 70
     1
102
RTVSPropertyOp57
 70
     1
102
RTVSPropertyOp58
 70
     1
102
RTVSPropertyOp59
 70
     1
102
RTVSPropertyOp60
 70
     1
102
RTVSPropertyOp61
 70
     1
102
RTVSPropertyOp62
 70
     1
  0
XRECORD
  5
462
102
{ACAD_REACTORS
330
461
102
}
330
461
100
AcDbXrecord
280
     1
102
RTVSPost2010Prop28
280
     0
102
RTVSPost2010PropOp28
 70
     1
102
RTVSPost2010Prop29
280
     1
102
RTVSPost2010PropOp29
 70
     1
102
RTVSPost2010Prop30
280
     1
102
RTVSPost2010PropOp30
 70
     1
102
RTVSPost2010Prop31
280
     0
102
RTVSPost2010PropOp31
 70
     1
102
RTVSPost2010Prop32
280
     0
102
RTVSPost2010PropOp32
 70
     1
102
RTVSPost2010Prop33
280
     0
102
RTVSPost2010PropOp33
 70
     1
102
RTVSPost2010Prop34
280
     0
102
RTVSPost2010PropOp34
 70
     1
102
RTVSPost2010Prop35
280
     0
102
RTVSPost2010PropOp35
 70
     1
102
RTVSPost2010Prop36
280
     0
102
RTVSPost2010PropOp36
 70
     1
102
RTVSPost2010Prop37
 90
       50
102
RTVSPost2010PropOp37
 70
     1
102
RTVSPost2010Prop38
140
0.0
102
RTVSPost2010PropOp38
 70
     1
102
RTVSPost2010Prop39
140
1.0
102
RTVSPost2010PropOp39
 70
     1
102
RTVSPost2010Prop40
 90
        0
102
RTVSPost2010PropOp40
 70
     1
102
RTVSPost2010Prop41ColorIndex
 90
       18
102
RTVSPost2010Prop41ColorRGB
 90
        0
102
RTVSPost2010PropOp41
 70
     1
102
RTVSPost2010Prop42
 90
       50
102
RTVSPost2010PropOp42
 70
     1
102
RTVSPost2010Prop43
 90
        3
102
RTVSPost2010PropOp43
 70
     1
102
RTVSPost2010Prop44ColorIndex
 90
        5
102
RTVSPost2010Prop44ColorRGB
 90
      255
102
RTVSPost2010PropOp44
 70
     1
102
RTVSPost2010Prop45
280
     0
102
RTVSPost2010PropOp45
 70
     1
102
RTVSPost2010Prop46
 90
       50
102
RTVSPost2010PropOp46
 70
     1
102
RTVSPost2010Prop47
 90
       50
102
RTVSPost2010PropOp47
 70
     1
102
RTVSPost2010Prop48
 90
       50
102
RTVSPost2010PropOp48
 70
     1
102
RTVSPost2010Prop49
280
     0
102
RTVSPost2010PropOp49
 70
     1
102
RTVSPost2010Prop50
 90
       50
102
RTVSPost2010PropOp50
 70
     1
102
RTVSPost2010Prop51ColorIndex
 90
      256
102
RTVSPost2010Prop51ColorRGB
 90
-16777216
102
RTVSPost2010PropOp51
 70
     0
102
RTVSPost2010Prop52
140
1.0
102
RTVSPost2010PropOp52
 70
     0
102
RTVSPost2010Prop53
 90
        2
102
RTVSPost2010PropOp53
 70
     1
102
RTVSPost2010Prop54
  1
strokes_ogs.tif
102
RTVSPost2010PropOp54
 70
     1
102
RTVSPost2010Prop55
280
     0
102
RTVSPost2010PropOp55
 70
     1
102
RTVSPost2010Prop56
140
1.0
102
RTVSPost2010PropOp56
 70
     1
102
RTVSPost2010Prop57
140
1.0
102
RTVSPost2010PropOp57
 70
     1
102
RTVSPropertyOp0
 70
     1
102
RTVSPropertyOp1
 70
     1
102
RTVSPropertyOp2
 70
     1
102
RTVSPropertyOp3
 70
     1
102
RTVSPropertyOp4
 70
     1
102
RTVSPropertyOp5
 70
     1
102
RTVSPropertyOp6
 70
     1
102
RTVSPropertyOp7
 70
     1
102
RTVSPropertyOp8
 70
     1
102
RTVSPropertyOp9
 70
     1
102
RTVSPropertyOp10
 70
     1
102
RTVSPropertyOp11
 70
     1
102
RTVSPropertyOp12
 70
     1
102
RTVSPropertyOp13
 70
     1
102
RTVSPropertyOp14
 70
     1
102
RTVSPropertyOp15
 70
     1
102
RTVSPropertyOp16
 70
     1
102
RTVSPropertyOp17
 70
     1
102
RTVSPropertyOp18
 70
     1
102
RTVSPropertyOp19
 70
     1
102
RTVSPropertyOp20
 70
     1
102
RTVSPropertyOp21
 70
     1
102
RTVSPropertyOp22
 70
     1
102
RTVSPropertyOp23
 70
     1
102
RTVSPropertyOp24
 70
     1
102
RTVSPropertyOp25
 70
     1
102
RTVSPropertyOp26
 70
     1
102
RTVSPropertyOp27
 70
     1
102
RTVSPropertyOp28
 70
     1
102
RTVSPropertyOp29
 70
     1
102
RTVSPropertyOp30
 70
     1
102
RTVSPropertyOp31
 70
     1
102
RTVSPropertyOp32
 70
     1
102
RTVSPropertyOp33
 70
     1
102
RTVSPropertyOp34
 70
     1
102
RTVSPropertyOp35
 70
     1
102
RTVSPropertyOp36
 70
     1
102
RTVSPropertyOp37
 70
     1
102
RTVSPropertyOp38
 70
     1
102
RTVSPropertyOp39
 70
     1
102
RTVSPropertyOp40
 70
     1
102
RTVSPropertyOp41
 70
     1
102
RTVSPropertyOp42
 70
     1
102
RTVSPropertyOp43
 70
     1
102
RTVSPropertyOp44
 70
     1
102
RTVSPropertyOp45
 70
     1
102
RTVSPropertyOp46
 70
     1
102
RTVSPropertyOp47
 70
     1
102
RTVSPropertyOp48
 70
     1
102
RTVSPropertyOp49
 70
     1
102
RTVSPropertyOp50
 70
     1
102
RTVSPropertyOp51
 70
     0
102
RTVSPropertyOp52
 70
     0
102
RTVSPropertyOp53
 70
     1
102
RTVSPropertyOp54
 70
     1
102
RTVSPropertyOp55
 70
     1
102
RTVSPropertyOp56
 70
     1
102
RTVSPropertyOp57
 70
     1
102
RTVSPropertyOp58
 70
     1
102
RTVSPropertyOp59
 70
     1
102
RTVSPropertyOp60
 70
     1
102
RTVSPropertyOp61
 70
     1
102
RTVSPropertyOp62
 70
     1
  0
XRECORD
  5
454
102
{ACAD_REACTORS
330
453
102
}
330
453
100
AcDbXrecord
280
     1
102
RTVSPost2010Prop28
280
     0
102
RTVSPost2010PropOp28
 70
     1
102
RTVSPost2010Prop29
280
     1
102
RTVSPost2010PropOp29
 70
     1
102
RTVSPost2010Prop30
280
     1
102
RTVSPost2010PropOp30
 70
     1
102
RTVSPost2010Prop31
280
     0
102
RTVSPost2010PropOp31
 70
     1
102
RTVSPost2010Prop32
280
     0
102
RTVSPost2010PropOp32
 70
     1
102
RTVSPost2010Prop33
280
     0
102
RTVSPost2010PropOp33
 70
     1
102
RTVSPost2010Prop34
280
     0
102
RTVSPost2010PropOp34
 70
     1
102
RTVSPost2010Prop35
280
     0
102
RTVSPost2010PropOp35
 70
     1
102
RTVSPost2010Prop36
280
     0
102
RTVSPost2010PropOp36
 70
     1
102
RTVSPost2010Prop37
 90
       50
102
RTVSPost2010PropOp37
 70
     1
102
RTVSPost2010Prop38
140
0.0
102
RTVSPost2010PropOp38
 70
     1
102
RTVSPost2010Prop39
140
1.0
102
RTVSPost2010PropOp39
 70
     1
102
RTVSPost2010Prop40
 90
        0
102
RTVSPost2010PropOp40
 70
     1
102
RTVSPost2010Prop41ColorIndex
 90
       18
102
RTVSPost2010Prop41ColorRGB
 90
        0
102
RTVSPost2010PropOp41
 70
     1
102
RTVSPost2010Prop42
 90
       50
102
RTVSPost2010PropOp42
 70
     1
102
RTVSPost2010Prop43
 90
        3
102
RTVSPost2010PropOp43
 70
     1
102
RTVSPost2010Prop44ColorIndex
 90
        5
102
RTVSPost2010Prop44ColorRGB
 90
      255
102
RTVSPost2010PropOp44
 70
     1
102
RTVSPost2010Prop45
280
     0
102
RTVSPost2010PropOp45
 70
     1
102
RTVSPost2010Prop46
 90
       50
102
RTVSPost2010PropOp46
 70
     1
102
RTVSPost2010Prop47
 90
       50
102
RTVSPost2010PropOp47
 70
     1
102
RTVSPost2010Prop48
 90
       50
102
RTVSPost2010PropOp48
 70
     1
102
RTVSPost2010Prop49
280
     0
102
RTVSPost2010PropOp49
 70
     1
102
RTVSPost2010Prop50
 90
       50
102
RTVSPost2010PropOp50
 70
     1
102
RTVSPost2010Prop51ColorIndex
 90
      256
102
RTVSPost2010Prop51ColorRGB
 90
-16777216
102
RTVSPost2010PropOp51
 70
     0
102
RTVSPost2010Prop52
140
1.0
102
RTVSPost2010PropOp52
 70
     0
102
RTVSPost2010Prop53
 90
        2
102
RTVSPost2010PropOp53
 70
     1
102
RTVSPost2010Prop54
  1
strokes_ogs.tif
102
RTVSPost2010PropOp54
 70
     1
102
RTVSPost2010Prop55
280
     0
102
RTVSPost2010PropOp55
 70
     1
102
RTVSPost2010Prop56
140
1.0
102
RTVSPost2010PropOp56
 70
     1
102
RTVSPost2010Prop57
140
1.0
102
RTVSPost2010PropOp57
 70
     1
102
RTVSPropertyOp0
 70
     1
102
RTVSPropertyOp1
 70
     1
102
RTVSPropertyOp2
 70
     1
102
RTVSPropertyOp3
 70
     1
102
RTVSPropertyOp4
 70
     1
102
RTVSPropertyOp5
 70
     1
102
RTVSPropertyOp6
 70
     1
102
RTVSPropertyOp7
 70
     1
102
RTVSPropertyOp8
 70
     1
102
RTVSPropertyOp9
 70
     1
102
RTVSPropertyOp10
 70
     1
102
RTVSPropertyOp11
 70
     1
102
RTVSPropertyOp12
 70
     1
102
RTVSPropertyOp13
 70
     1
102
RTVSPropertyOp14
 70
     1
102
RTVSPropertyOp15
 70
     1
102
RTVSPropertyOp16
 70
     1
102
RTVSPropertyOp17
 70
     1
102
RTVSPropertyOp18
 70
     1
102
RTVSPropertyOp19
 70
     1
102
RTVSPropertyOp20
 70
     1
102
RTVSPropertyOp21
 70
     1
102
RTVSPropertyOp22
 70
     1
102
RTVSPropertyOp23
 70
     1
102
RTVSPropertyOp24
 70
     1
102
RTVSPropertyOp25
 70
     1
102
RTVSPropertyOp26
 70
     1
102
RTVSPropertyOp27
 70
     1
102
RTVSPropertyOp28
 70
     1
102
RTVSPropertyOp29
 70
     1
102
RTVSPropertyOp30
 70
     1
102
RTVSPropertyOp31
 70
     1
102
RTVSPropertyOp32
 70
     1
102
RTVSPropertyOp33
 70
     1
102
RTVSPropertyOp34
 70
     1
102
RTVSPropertyOp35
 70
     1
102
RTVSPropertyOp36
 70
     1
102
RTVSPropertyOp37
 70
     1
102
RTVSPropertyOp38
 70
     1
102
RTVSPropertyOp39
 70
     1
102
RTVSPropertyOp40
 70
     1
102
RTVSPropertyOp41
 70
     1
102
RTVSPropertyOp42
 70
     1
102
RTVSPropertyOp43
 70
     1
102
RTVSPropertyOp44
 70
     1
102
RTVSPropertyOp45
 70
     1
102
RTVSPropertyOp46
 70
     1
102
RTVSPropertyOp47
 70
     1
102
RTVSPropertyOp48
 70
     1
102
RTVSPropertyOp49
 70
     1
102
RTVSPropertyOp50
 70
     1
102
RTVSPropertyOp51
 70
     0
102
RTVSPropertyOp52
 70
     0
102
RTVSPropertyOp53
 70
     1
102
RTVSPropertyOp54
 70
     1
102
RTVSPropertyOp55
 70
     1
102
RTVSPropertyOp56
 70
     1
102
RTVSPropertyOp57
 70
     1
102
RTVSPropertyOp58
 70
     1
102
RTVSPropertyOp59
 70
     1
102
RTVSPropertyOp60
 70
     1
102
RTVSPropertyOp61
 70
     1
102
RTVSPropertyOp62
 70
     1
  0
XRECORD
  5
474
102
{ACAD_REACTORS
330
473
102
}
330
473
100
AcDbXrecord
280
     1
102
RTVSPost2010Prop28
280
     0
102
RTVSPost2010PropOp28
 70
     1
102
RTVSPost2010Prop29
280
     1
102
RTVSPost2010PropOp29
 70
     1
102
RTVSPost2010Prop30
280
     1
102
RTVSPost2010PropOp30
 70
     1
102
RTVSPost2010Prop31
280
     0
102
RTVSPost2010PropOp31
 70
     1
102
RTVSPost2010Prop32
280
     0
102
RTVSPost2010PropOp32
 70
     1
102
RTVSPost2010Prop33
280
     0
102
RTVSPost2010PropOp33
 70
     1
102
RTVSPost2010Prop34
280
     0
102
RTVSPost2010PropOp34
 70
     1
102
RTVSPost2010Prop35
280
     0
102
RTVSPost2010PropOp35
 70
     1
102
RTVSPost2010Prop36
280
     0
102
RTVSPost2010PropOp36
 70
     1
102
RTVSPost2010Prop37
 90
       50
102
RTVSPost2010PropOp37
 70
     1
102
RTVSPost2010Prop38
140
0.0
102
RTVSPost2010PropOp38
 70
     1
102
RTVSPost2010Prop39
140
1.0
102
RTVSPost2010PropOp39
 70
     1
102
RTVSPost2010Prop40
 90
        0
102
RTVSPost2010PropOp40
 70
     1
102
RTVSPost2010Prop41ColorIndex
 90
       18
102
RTVSPost2010Prop41ColorRGB
 90
        0
102
RTVSPost2010PropOp41
 70
     1
102
RTVSPost2010Prop42
 90
       50
102
RTVSPost2010PropOp42
 70
     1
102
RTVSPost2010Prop43
 90
        3
102
RTVSPost2010PropOp43
 70
     1
102
RTVSPost2010Prop44ColorIndex
 90
        5
102
RTVSPost2010Prop44ColorRGB
 90
      255
102
RTVSPost2010PropOp44
 70
     1
102
RTVSPost2010Prop45
280
     0
102
RTVSPost2010PropOp45
 70
     1
102
RTVSPost2010Prop46
 90
       50
102
RTVSPost2010PropOp46
 70
     1
102
RTVSPost2010Prop47
 90
       50
102
RTVSPost2010PropOp47
 70
     1
102
RTVSPost2010Prop48
 90
       50
102
RTVSPost2010PropOp48
 70
     1
102
RTVSPost2010Prop49
280
     0
102
RTVSPost2010PropOp49
 70
     1
102
RTVSPost2010Prop50
 90
       50
102
RTVSPost2010PropOp50
 70
     1
102
RTVSPost2010Prop51ColorIndex
 90
      256
102
RTVSPost2010Prop51ColorRGB
 90
-16777216
102
RTVSPost2010PropOp51
 70
     0
102
RTVSPost2010Prop52
140
1.0
102
RTVSPost2010PropOp52
 70
     0
102
RTVSPost2010Prop53
 90
        2
102
RTVSPost2010PropOp53
 70
     1
102
RTVSPost2010Prop54
  1
strokes_ogs.tif
102
RTVSPost2010PropOp54
 70
     1
102
RTVSPost2010Prop55
280
     0
102
RTVSPost2010PropOp55
 70
     1
102
RTVSPost2010Prop56
140
1.0
102
RTVSPost2010PropOp56
 70
     1
102
RTVSPost2010Prop57
140
1.0
102
RTVSPost2010PropOp57
 70
     1
102
RTVSPropertyOp0
 70
     1
102
RTVSPropertyOp1
 70
     1
102
RTVSPropertyOp2
 70
     1
102
RTVSPropertyOp3
 70
     1
102
RTVSPropertyOp4
 70
     1
102
RTVSPropertyOp5
 70
     1
102
RTVSPropertyOp6
 70
     1
102
RTVSPropertyOp7
 70
     1
102
RTVSPropertyOp8
 70
     1
102
RTVSPropertyOp9
 70
     1
102
RTVSPropertyOp10
 70
     1
102
RTVSPropertyOp11
 70
     1
102
RTVSPropertyOp12
 70
     1
102
RTVSPropertyOp13
 70
     1
102
RTVSPropertyOp14
 70
     1
102
RTVSPropertyOp15
 70
     1
102
RTVSPropertyOp16
 70
     1
102
RTVSPropertyOp17
 70
     1
102
RTVSPropertyOp18
 70
     1
102
RTVSPropertyOp19
 70
     1
102
RTVSPropertyOp20
 70
     1
102
RTVSPropertyOp21
 70
     1
102
RTVSPropertyOp22
 70
     1
102
RTVSPropertyOp23
 70
     1
102
RTVSPropertyOp24
 70
     1
102
RTVSPropertyOp25
 70
     1
102
RTVSPropertyOp26
 70
     1
102
RTVSPropertyOp27
 70
     1
102
RTVSPropertyOp28
 70
     1
102
RTVSPropertyOp29
 70
     1
102
RTVSPropertyOp30
 70
     1
102
RTVSPropertyOp31
 70
     1
102
RTVSPropertyOp32
 70
     1
102
RTVSPropertyOp33
 70
     1
102
RTVSPropertyOp34
 70
     1
102
RTVSPropertyOp35
 70
     1
102
RTVSPropertyOp36
 70
     1
102
RTVSPropertyOp37
 70
     1
102
RTVSPropertyOp38
 70
     1
102
RTVSPropertyOp39
 70
     1
102
RTVSPropertyOp40
 70
     1
102
RTVSPropertyOp41
 70
     1
102
RTVSPropertyOp42
 70
     1
102
RTVSPropertyOp43
 70
     1
102
RTVSPropertyOp44
 70
     1
102
RTVSPropertyOp45
 70
     1
102
RTVSPropertyOp46
 70
     1
102
RTVSPropertyOp47
 70
     1
102
RTVSPropertyOp48
 70
     1
102
RTVSPropertyOp49
 70
     1
102
RTVSPropertyOp50
 70
     1
102
RTVSPropertyOp51
 70
     0
102
RTVSPropertyOp52
 70
     0
102
RTVSPropertyOp53
 70
     1
102
RTVSPropertyOp54
 70
     1
102
RTVSPropertyOp55
 70
     1
102
RTVSPropertyOp56
 70
     1
102
RTVSPropertyOp57
 70
     1
102
RTVSPropertyOp58
 70
     1
102
RTVSPropertyOp59
 70
     1
102
RTVSPropertyOp60
 70
     1
102
RTVSPropertyOp61
 70
     1
102
RTVSPropertyOp62
 70
     1
  0
ENDSEC
  0
EOF
