  0
SECTION
  2
HEADER
  9
$ACADVER
  1
AC1018
  9
$ACADMAINTVER
 70
   104
  9
$DWGCODEPAGE
  3
ANSI_1250
  9
$LASTSAVEDBY
  1
pp0701
  9
$INSBASE
 10
0.0
 20
0.0
 30
0.0
  9
$EXTMIN
 10
217.3970533333334
 20
21.404126
 30
0.0
  9
$EXTMAX
 10
587.478648
 20
312.7671776666667
 30
0.0
  9
$LIMMIN
 10
-0.5
 20
-0.5
  9
$LIMMAX
 10
5.0
 20
5.0
  9
$ORTHOMODE
 70
     0
  9
$REGENMODE
 70
     1
  9
$FILLMODE
 70
     1
  9
$QTEXTMODE
 70
     0
  9
$MIRRTEXT
 70
     1
  9
$LTSCALE
 40
1.0
  9
$ATTMODE
 70
     1
  9
$TEXTSIZE
 40
0.2
  9
$TRACEWID
 40
0.05
  9
$TEXTSTYLE
  7
Standard
  9
$CLAYER
  8
0
  9
$CELTYPE
  6
ByLayer
  9
$CECOLOR
 62
   256
  9
$CELTSCALE
 40
1.0
  9
$DISPSILH
 70
     0
  9
$DIMSCALE
 40
1.0
  9
$DIMASZ
 40
0.18
  9
$DIMEXO
 40
0.0625
  9
$DIMDLI
 40
0.38
  9
$DIMRND
 40
0.0
  9
$DIMDLE
 40
0.0
  9
$DIMEXE
 40
0.18
  9
$DIMTP
 40
0.0
  9
$DIMTM
 40
0.0
  9
$DIMTXT
 40
0.18
  9
$DIMCEN
 40
0.09
  9
$DIMTSZ
 40
0.0
  9
$DIMTOL
 70
     0
  9
$DIMLIM
 70
     0
  9
$DIMTIH
 70
     1
  9
$DIMTOH
 70
     1
  9
$DIMSE1
 70
     0
  9
$DIMSE2
 70
     0
  9
$DIMTAD
 70
     0
  9
$DIMZIN
 70
     0
  9
$DIMBLK
  1

  9
$DIMASO
 70
     1
  9
$DIMSHO
 70
     1
  9
$DIMPOST
  1

  9
$DIMAPOST
  1

  9
$DIMALT
 70
     0
  9
$DIMALTD
 70
     2
  9
$DIMALTF
 40
25.4
  9
$DIMLFAC
 40
1.0
  9
$DIMTOFL
 70
     0
  9
$DIMTVP
 40
0.0
  9
$DIMTIX
 70
     0
  9
$DIMSOXD
 70
     0
  9
$DIMSAH
 70
     0
  9
$DIMBLK1
  1

  9
$DIMBLK2
  1

  9
$DIMSTYLE
  2
Standard
  9
$DIMCLRD
 70
     0
  9
$DIMCLRE
 70
     0
  9
$DIMCLRT
 70
     0
  9
$DIMTFAC
 40
1.0
  9
$DIMGAP
 40
0.09
  9
$DIMJUST
 70
     0
  9
$DIMSD1
 70
     0
  9
$DIMSD2
 70
     0
  9
$DIMTOLJ
 70
     1
  9
$DIMTZIN
 70
     0
  9
$DIMALTZ
 70
     0
  9
$DIMALTTZ
 70
     0
  9
$DIMUPT
 70
     0
  9
$DIMDEC
 70
     4
  9
$DIMTDEC
 70
     4
  9
$DIMALTU
 70
     2
  9
$DIMALTTD
 70
     2
  9
$DIMTXSTY
  7
Standard
  9
$DIMAUNIT
 70
     0
  9
$DIMADEC
 70
     0
  9
$DIMALTRND
 40
0.0
  9
$DIMAZIN
 70
     0
  9
$DIMDSEP
 70
    46
  9
$DIMATFIT
 70
     3
  9
$DIMFRAC
 70
     0
  9
$DIMLDRBLK
  1

  9
$DIMLUNIT
 70
     2
  9
$DIMLWD
 70
    -2
  9
$DIMLWE
 70
    -2
  9
$DIMTMOVE
 70
     0
  9
$LUNITS
 70
     2
  9
$LUPREC
 70
     4
  9
$SKETCHINC
 40
0.1
  9
$FILLETRAD
 40
0.5
  9
$AUNITS
 70
     0
  9
$AUPREC
 70
     0
  9
$MENU
  1
.
  9
$ELEVATION
 40
0.0
  9
$PELEVATION
 40
0.0
  9
$THICKNESS
 40
0.0
  9
$LIMCHECK
 70
     0
  9
$CHAMFERA
 40
0.0
  9
$CHAMFERB
 40
0.0
  9
$CHAMFERC
 40
0.0
  9
$CHAMFERD
 40
0.0
  9
$SKPOLY
 70
     0
  9
$TDCREATE
 40
2458862.526400463
  9
$TDUCREATE
 40
2458862.484735764
  9
$TDUPDATE
 40
2458862.530659722
  9
$TDUUPDATE
 40
2458862.488993056
  9
$TDINDWG
 40
0.0023726968
  9
$TDUSRTIMER
 40
0.0023726968
  9
$USRTIMER
 70
     1
  9
$ANGBASE
 50
0.0
  9
$ANGDIR
 70
     0
  9
$PDMODE
 70
     0
  9
$PDSIZE
 40
0.0
  9
$PLINEWID
 40
0.0
  9
$SPLFRAME
 70
     0
  9
$SPLINETYPE
 70
     6
  9
$SPLINESEGS
 70
     8
  9
$HANDSEED
  5
416
  9
$SURFTAB1
 70
     6
  9
$SURFTAB2
 70
     6
  9
$SURFTYPE
 70
     6
  9
$SURFU
 70
     6
  9
$SURFV
 70
     6
  9
$UCSBASE
  2

  9
$UCSNAME
  2

  9
$UCSORG
 10
249.444248
 20
244.434018
 30
0.0
  9
$UCSXDIR
 10
1.0
 20
0.0
 30
0.0
  9
$UCSYDIR
 10
0.0
 20
1.0
 30
0.0
  9
$UCSORTHOREF
  2

  9
$UCSORTHOVIEW
 70
     0
  9
$UCSORGTOP
 10
0.0
 20
0.0
 30
0.0
  9
$UCSORGBOTTOM
 10
0.0
 20
0.0
 30
0.0
  9
$UCSORGLEFT
 10
0.0
 20
0.0
 30
0.0
  9
$UCSORGRIGHT
 10
0.0
 20
0.0
 30
0.0
  9
$UCSORGFRONT
 10
0.0
 20
0.0
 30
0.0
  9
$UCSORGBACK
 10
0.0
 20
0.0
 30
0.0
  9
$PUCSBASE
  2

  9
$PUCSNAME
  2

  9
$PUCSORG
 10
0.0
 20
0.0
 30
0.0
  9
$PUCSXDIR
 10
1.0
 20
0.0
 30
0.0
  9
$PUCSYDIR
 10
0.0
 20
1.0
 30
0.0
  9
$PUCSORTHOREF
  2

  9
$PUCSORTHOVIEW
 70
     0
  9
$PUCSORGTOP
 10
0.0
 20
0.0
 30
0.0
  9
$PUCSORGBOTTOM
 10
0.0
 20
0.0
 30
0.0
  9
$PUCSORGLEFT
 10
0.0
 20
0.0
 30
0.0
  9
$PUCSORGRIGHT
 10
0.0
 20
0.0
 30
0.0
  9
$PUCSORGFRONT
 10
0.0
 20
0.0
 30
0.0
  9
$PUCSORGBACK
 10
0.0
 20
0.0
 30
0.0
  9
$USERI1
 70
     0
  9
$USERI2
 70
     0
  9
$USERI3
 70
     0
  9
$USERI4
 70
     0
  9
$USERI5
 70
     0
  9
$USERR1
 40
0.0
  9
$USERR2
 40
0.0
  9
$USERR3
 40
0.0
  9
$USERR4
 40
0.0
  9
$USERR5
 40
0.0
  9
$WORLDVIEW
 70
     1
  9
$SHADEDGE
 70
     3
  9
$SHADEDIF
 70
    70
  9
$TILEMODE
 70
     1
  9
$MAXACTVP
 70
    64
  9
$PINSBASE
 10
0.0
 20
0.0
 30
0.0
  9
$PLIMCHECK
 70
     0
  9
$PEXTMIN
 10
-0.5
 20
-0.5
 30
-0.5
  9
$PEXTMAX
 10
5.0
 20
5.0
 30
5.0
  9
$PLIMMIN
 10
-0.5
 20
-0.5
  9
$PLIMMAX
 10
5.0
 20
5.0
  9
$UNITMODE
 70
     0
  9
$VISRETAIN
 70
     1
  9
$PLINEGEN
 70
     0
  9
$PSLTSCALE
 70
     1
  9
$TREEDEPTH
 70
  3020
  9
$CMLSTYLE
  2
Standard
  9
$CMLJUST
 70
     0
  9
$CMLSCALE
 40
1.0
  9
$PROXYGRAPHICS
 70
     1
  9
$MEASUREMENT
 70
     1
  9
$CELWEIGHT
370
    13
  9
$ENDCAPS
280
     0
  9
$JOINSTYLE
280
     0
  9
$LWDISPLAY
290
     0
  9
$INSUNITS
 70
     4
  9
$HYPERLINKBASE
  1

  9
$STYLESHEET
  1

  9
$XEDIT
290
     1
  9
$CEPSNTYPE
380
     0
  9
$PSTYLEMODE
290
     1
  9
$FINGERPRINTGUID
  2
{F6DFF795-E93A-4127-AD69-1369DB8660B6}
  9
$VERSIONGUID
  2
{90E5D591-C3C1-2B49-A951-19DA3A73BF27}
  9
$EXTNAMES
290
     1
  9
$PSVPSCALE
 40
0.0
  9
$OLESTARTUP
290
     0
  9
$SORTENTS
280
   127
  9
$INDEXCTL
280
     0
  9
$HIDETEXT
280
     1
  9
$XCLIPFRAME
290
     0
  9
$HALOGAP
280
     0
  9
$OBSCOLOR
 70
   257
  9
$OBSLTYPE
280
     0
  9
$INTERSECTIONDISPLAY
280
     0
  9
$INTERSECTIONCOLOR
 70
   257
  9
$DIMASSOC
280
     2
  9
$PROJECTNAME
  1

  0
ENDSEC
  0
SECTION
  2
CLASSES
  0
CLASS
  1
ACDBDICTIONARYWDFLT
  2
AcDbDictionaryWithDefault
  3
ObjectDBX Classes
 90
        0
 91
        1
280
     0
281
     0
  0
CLASS
  1
VISUALSTYLE
  2
AcDbVisualStyle
  3
ObjectDBX Classes
 90
     4095
 91
       24
280
     0
281
     0
  0
CLASS
  1
MATERIAL
  2
AcDbMaterial
  3
ObjectDBX Classes
 90
     1153
 91
        3
280
     0
281
     0
  0
CLASS
  1
SCALE
  2
AcDbScale
  3
ObjectDBX Classes
 90
     1153
 91
       33
280
     0
281
     0
  0
CLASS
  1
TABLESTYLE
  2
AcDbTableStyle
  3
ObjectDBX Classes
 90
     4095
 91
        1
280
     0
281
     0
  0
CLASS
  1
MLEADERSTYLE
  2
AcDbMLeaderStyle
  3
ACDB_MLEADERSTYLE_CLASS
 90
     4095
 91
        1
280
     0
281
     0
  0
CLASS
  1
SUN
  2
AcDbSun
  3
SCENEOE
 90
     1153
 91
        0
280
     0
281
     0
  0
CLASS
  1
IMAGEDEF
  2
AcDbRasterImageDef
  3
ISM
 90
        0
 91
        1
280
     0
281
     0
  0
CLASS
  1
IMAGE
  2
AcDbRasterImage
  3
ISM
 90
     2175
 91
        1
280
     0
281
     1
  0
CLASS
  1
IMAGEDEF_REACTOR
  2
AcDbRasterImageDefReactor
  3
ISM
 90
        1
 91
        1
280
     0
281
     0
  0
CLASS
  1
DIMASSOC
  2
AcDbDimAssoc
  3
"AcDbDimAssoc|Product Desc:     AcDim ARX App For Dimension|Company:          Autodesk, Inc.|WEB Address:      www.autodesk.com"
 90
        0
 91
        7
280
     0
281
     0
  0
CLASS
  1
DICTIONARYVAR
  2
AcDbDictionaryVar
  3
ObjectDBX Classes
 90
        0
 91
        8
280
     0
281
     0
  0
CLASS
  1
CELLSTYLEMAP
  2
AcDbCellStyleMap
  3
ObjectDBX Classes
 90
     1152
 91
        2
280
     0
281
     0
  0
CLASS
  1
ACDBSECTIONVIEWSTYLE
  2
AcDbSectionViewStyle
  3
ObjectDBX Classes
 90
     1025
 91
        1
280
     0
281
     0
  0
CLASS
  1
ACDBDETAILVIEWSTYLE
  2
AcDbDetailViewStyle
  3
ObjectDBX Classes
 90
     1025
 91
        1
280
     0
281
     0
  0
CLASS
  1
RASTERVARIABLES
  2
AcDbRasterVariables
  3
ISM
 90
        0
 91
        1
280
     0
281
     0
  0
CLASS
  1
SORTENTSTABLE
  2
AcDbSortentsTable
  3
ObjectDBX Classes
 90
        0
 91
        1
280
     0
281
     0
  0
ENDSEC
  0
SECTION
  2
TABLES
  0
TABLE
  2
VPORT
  5
8
330
0
100
AcDbSymbolTable
 70
    16
  0
VPORT
  5
29
330
8
100
AcDbSymbolTableRecord
100
AcDbViewportTableRecord
  2
*Active
 70
     0
 10
0.0
 20
0.0
 11
1.0
 21
1.0
 12
295.2599371998432
 22
245.607018574615
 13
0.0
 23
0.0
 14
0.5
 24
0.5
 15
0.5
 25
0.5
 16
0.0
 26
0.0
 36
1.0
 17
0.0
 27
0.0
 37
0.0
 40
187.7855795041628
 41
2.292712066905615
 42
50.0
 43
691.671365
 44
-691.671365
 50
0.0
 51
0.0
 71
     0
 72
   100
 73
     1
 74
     3
 75
     0
 76
     0
 77
     0
 78
     0
281
     0
 65
     1
110
249.444248
120
244.434018
130
0.0
111
1.0
121
0.0
131
0.0
112
0.0
122
1.0
132
0.0
 79
     0
146
0.0
1001
ACAD_NAV_VCDISPLAY
1070
     3
  0
VPORT
  5
2E4
330
8
100
AcDbSymbolTableRecord
100
AcDbViewportTableRecord
  2
L1
 70
     0
 10
0.0
 20
0.0
 11
1.0
 21
1.0
 12
401.9336449999999
 22
167.090231
 13
0.0
 23
0.0
 14
0.5
 24
0.5
 15
0.5
 25
0.5
 16
0.0
 26
0.0
 36
1.0
 17
0.0
 27
0.0
 37
0.0
 40
207.433333
 41
0.085602
 42
50.0
 43
691.671365
 44
-691.671365
 50
0.0
 51
0.0
 71
     0
 72
   100
 73
     1
 74
     3
 75
     0
 76
     0
 77
     0
 78
     0
281
     0
 65
     1
110
0.0
120
0.0
130
0.0
111
1.0
121
0.0
131
0.0
112
0.0
122
1.0
132
0.0
 79
     0
146
0.0
  0
VPORT
  5
2E5
330
8
100
AcDbSymbolTableRecord
100
AcDbViewportTableRecord
  2
L2
 70
     0
 10
0.0
 20
0.0
 11
0.5
 21
1.0
 12
0.0
 22
0.0
 13
0.0
 23
0.0
 14
0.5
 24
0.5
 15
0.5
 25
0.5
 16
0.0
 26
-1.0
 36
0.0
 17
0.0
 27
0.0
 37
0.0
 40
1478.660809
 41
0.012009
 42
50.0
 43
765.39502
 44
-765.39502
 50
0.0
 51
0.0
 71
     0
 72
   100
 73
     1
 74
     3
 75
     0
 76
     0
 77
     0
 78
     0
281
     0
 65
     1
110
0.0
120
0.0
130
0.0
111
1.0
121
0.0
131
0.0
112
0.0
122
1.0
132
0.0
 79
     0
146
0.0
  0
VPORT
  5
2E6
330
8
100
AcDbSymbolTableRecord
100
AcDbViewportTableRecord
  2
L2
 70
     0
 10
0.5
 20
0.0
 11
1.0
 21
1.0
 12
0.0
 22
0.0
 13
0.0
 23
0.0
 14
0.5
 24
0.5
 15
0.5
 25
0.5
 16
1.0
 26
0.0
 36
0.0
 17
0.0
 27
0.0
 37
0.0
 40
1478.660809
 41
0.012009
 42
50.0
 43
746.5698859999999
 44
-746.5698859999999
 50
0.0
 51
0.0
 71
     0
 72
   100
 73
     1
 74
     3
 75
     0
 76
     0
 77
     0
 78
     0
281
     0
 65
     1
110
0.0
120
0.0
130
0.0
111
1.0
121
0.0
131
0.0
112
0.0
122
1.0
132
0.0
 79
     0
146
0.0
  0
VPORT
  5
2E7
330
8
100
AcDbSymbolTableRecord
100
AcDbViewportTableRecord
  2
L3
 70
     0
 10
0.0
 20
0.5
 11
1.0
 21
1.0
 12
401.9336449999999
 22
167.090231
 13
0.0
 23
0.0
 14
0.5
 24
0.5
 15
0.5
 25
0.5
 16
0.0
 26
0.0
 36
1.0
 17
0.0
 27
0.0
 37
0.0
 40
207.433333
 41
0.085602
 42
50.0
 43
691.671365
 44
-691.671365
 50
0.0
 51
0.0
 71
     0
 72
   100
 73
     1
 74
     3
 75
     0
 76
     0
 77
     0
 78
     0
281
     0
 65
     1
110
0.0
120
0.0
130
0.0
111
1.0
121
0.0
131
0.0
112
0.0
122
1.0
132
0.0
 79
     0
146
0.0
  0
VPORT
  5
2E8
330
8
100
AcDbSymbolTableRecord
100
AcDbViewportTableRecord
  2
L3
 70
     0
 10
0.0
 20
0.0
 11
1.0
 21
0.5
 12
0.0
 22
0.0
 13
0.0
 23
0.0
 14
0.5
 24
0.5
 15
0.5
 25
0.5
 16
0.0
 26
-1.0
 36
0.0
 17
0.0
 27
0.0
 37
0.0
 40
1478.660809
 41
0.012009
 42
50.0
 43
765.39502
 44
-765.39502
 50
0.0
 51
0.0
 71
     0
 72
   100
 73
     1
 74
     3
 75
     0
 76
     0
 77
     0
 78
     0
281
     0
 65
     1
110
0.0
120
0.0
130
0.0
111
1.0
121
0.0
131
0.0
112
0.0
122
1.0
132
0.0
 79
     0
146
0.0
  0
VPORT
  5
2E9
330
8
100
AcDbSymbolTableRecord
100
AcDbViewportTableRecord
  2
L4
 70
     0
 10
0.0
 20
0.5
 11
0.5
 21
1.0
 12
401.9336449999999
 22
167.090231
 13
0.0
 23
0.0
 14
0.5
 24
0.5
 15
0.5
 25
0.5
 16
0.0
 26
0.0
 36
1.0
 17
0.0
 27
0.0
 37
0.0
 40
207.433333
 41
0.085602
 42
50.0
 43
691.671365
 44
-691.671365
 50
0.0
 51
0.0
 71
     0
 72
   100
 73
     1
 74
     3
 75
     0
 76
     0
 77
     0
 78
     0
281
     0
 65
     1
110
0.0
120
0.0
130
0.0
111
1.0
121
0.0
131
0.0
112
0.0
122
1.0
132
0.0
 79
     0
146
0.0
  0
VPORT
  5
2EA
330
8
100
AcDbSymbolTableRecord
100
AcDbViewportTableRecord
  2
L4
 70
     0
 10
0.0
 20
0.0
 11
0.5
 21
0.5
 12
0.0
 22
0.0
 13
0.0
 23
0.0
 14
0.5
 24
0.5
 15
0.5
 25
0.5
 16
0.0
 26
-1.0
 36
0.0
 17
0.0
 27
0.0
 37
0.0
 40
1478.660809
 41
0.012009
 42
50.0
 43
765.39502
 44
-765.39502
 50
0.0
 51
0.0
 71
     0
 72
   100
 73
     1
 74
     3
 75
     0
 76
     0
 77
     0
 78
     0
281
     0
 65
     1
110
0.0
120
0.0
130
0.0
111
1.0
121
0.0
131
0.0
112
0.0
122
1.0
132
0.0
 79
     0
146
0.0
  0
VPORT
  5
2EB
330
8
100
AcDbSymbolTableRecord
100
AcDbViewportTableRecord
  2
L4
 70
     0
 10
0.5
 20
0.0
 11
1.0
 21
0.5
 12
0.0
 22
0.0
 13
0.0
 23
0.0
 14
0.5
 24
0.5
 15
0.5
 25
0.5
 16
1.0
 26
0.0
 36
0.0
 17
0.0
 27
0.0
 37
0.0
 40
1478.660809
 41
0.012009
 42
50.0
 43
746.5698859999999
 44
-746.5698859999999
 50
0.0
 51
0.0
 71
     0
 72
   100
 73
     1
 74
     3
 75
     0
 76
     0
 77
     0
 78
     0
281
     0
 65
     1
110
0.0
120
0.0
130
0.0
111
1.0
121
0.0
131
0.0
112
0.0
122
1.0
132
0.0
 79
     0
146
0.0
  0
VPORT
  5
2EC
330
8
100
AcDbSymbolTableRecord
100
AcDbViewportTableRecord
  2
L4
 70
     0
 10
0.5
 20
0.5
 11
1.0
 21
1.0
 12
0.0
 22
0.0
 13
0.0
 23
0.0
 14
0.5
 24
0.5
 15
0.5
 25
0.5
 16
0.5773502691896259
 26
-0.5773502691896259
 36
0.5773502691896259
 17
0.0
 27
0.0
 37
0.0
 40
1453.705292
 41
0.012215
 42
50.0
 43
757.5245879999999
 44
-757.5245879999999
 50
0.0
 51
0.0
 71
     0
 72
   100
 73
     1
 74
     3
 75
     0
 76
     0
 77
     0
 78
     0
281
     0
 65
     1
110
0.0
120
0.0
130
0.0
111
1.0
121
0.0
131
0.0
112
0.0
122
1.0
132
0.0
 79
     0
146
0.0
  0
VPORT
  5
2ED
330
8
100
AcDbSymbolTableRecord
100
AcDbViewportTableRecord
  2
L6
 70
     0
 10
0.0
 20
0.5
 11
0.333333
 21
1.0
 12
0.0
 22
0.0
 13
0.0
 23
0.0
 14
0.5
 24
0.5
 15
0.5
 25
0.5
 16
0.7188730927569434
 26
-0.5850486126764433
 36
0.3754192287502549
 17
0.0
 27
0.0
 37
0.0
 40
1534.989881
 41
0.011568
 42
50.0
 43
794.5176169999999
 44
-794.5176169999999
 50
0.0
 51
0.0
 71
     0
 72
   100
 73
     1
 74
     3
 75
     0
 76
     0
 77
     0
 78
     0
281
     0
 65
     1
110
0.0
120
0.0
130
0.0
111
1.0
121
0.0
131
0.0
112
0.0
122
1.0
132
0.0
 79
     0
146
0.0
  0
VPORT
  5
2EE
330
8
100
AcDbSymbolTableRecord
100
AcDbViewportTableRecord
  2
L6
 70
     0
 10
0.0
 20
0.0
 11
0.333333
 21
0.5
 12
0.0
 22
0.0
 13
0.0
 23
0.0
 14
0.5
 24
0.5
 15
0.5
 25
0.5
 16
-1.0
 26
0.0
 36
0.0
 17
0.0
 27
0.0
 37
0.0
 40
1478.660809
 41
0.012009
 42
50.0
 43
746.5698859999999
 44
-746.5698859999999
 50
0.0
 51
0.0
 71
     0
 72
   100
 73
     1
 74
     3
 75
     0
 76
     0
 77
     0
 78
     0
281
     0
 65
     1
110
0.0
120
0.0
130
0.0
111
1.0
121
0.0
131
0.0
112
0.0
122
1.0
132
0.0
 79
     0
146
0.0
  0
VPORT
  5
2EF
330
8
100
AcDbSymbolTableRecord
100
AcDbViewportTableRecord
  2
L6
 70
     0
 10
0.333333
 20
0.5
 11
0.666667
 21
1.0
 12
401.9336449999999
 22
167.090231
 13
0.0
 23
0.0
 14
0.5
 24
0.5
 15
0.5
 25
0.5
 16
0.0
 26
0.0
 36
1.0
 17
0.0
 27
0.0
 37
0.0
 40
207.433333
 41
0.085602
 42
50.0
 43
691.671365
 44
-691.671365
 50
0.0
 51
0.0
 71
     0
 72
   100
 73
     1
 74
     3
 75
     0
 76
     0
 77
     0
 78
     0
281
     0
 65
     1
110
0.0
120
0.0
130
0.0
111
1.0
121
0.0
131
0.0
112
0.0
122
1.0
132
0.0
 79
     0
146
0.0
  0
VPORT
  5
2F0
330
8
100
AcDbSymbolTableRecord
100
AcDbViewportTableRecord
  2
L6
 70
     0
 10
0.333333
 20
0.0
 11
0.666667
 21
0.5
 12
0.0
 22
0.0
 13
0.0
 23
0.0
 14
0.5
 24
0.5
 15
0.5
 25
0.5
 16
0.0
 26
-1.0
 36
0.0
 17
0.0
 27
0.0
 37
0.0
 40
1478.660809
 41
0.012009
 42
50.0
 43
765.39502
 44
-765.39502
 50
0.0
 51
0.0
 71
     0
 72
   100
 73
     1
 74
     3
 75
     0
 76
     0
 77
     0
 78
     0
281
     0
 65
     1
110
0.0
120
0.0
130
0.0
111
1.0
121
0.0
131
0.0
112
0.0
122
1.0
132
0.0
 79
     0
146
0.0
  0
VPORT
  5
2F1
330
8
100
AcDbSymbolTableRecord
100
AcDbViewportTableRecord
  2
L6
 70
     0
 10
0.666667
 20
0.5
 11
1.0
 21
1.0
 12
0.0
 22
0.0
 13
0.0
 23
0.0
 14
0.5
 24
0.5
 15
0.5
 25
0.5
 16
0.5773502691896259
 26
-0.5773502691896259
 36
0.5773502691896259
 17
0.0
 27
0.0
 37
0.0
 40
1453.705292
 41
0.012215
 42
50.0
 43
757.5245879999999
 44
-757.5245879999999
 50
0.0
 51
0.0
 71
     0
 72
   100
 73
     1
 74
     3
 75
     0
 76
     0
 77
     0
 78
     0
281
     0
 65
     1
110
0.0
120
0.0
130
0.0
111
1.0
121
0.0
131
0.0
112
0.0
122
1.0
132
0.0
 79
     0
146
0.0
  0
VPORT
  5
2F2
330
8
100
AcDbSymbolTableRecord
100
AcDbViewportTableRecord
  2
L6
 70
     0
 10
0.666667
 20
0.0
 11
1.0
 21
0.5
 12
0.0
 22
0.0
 13
0.0
 23
0.0
 14
0.5
 24
0.5
 15
0.5
 25
0.5
 16
1.0
 26
0.0
 36
0.0
 17
0.0
 27
0.0
 37
0.0
 40
1478.660809
 41
0.012009
 42
50.0
 43
746.5698859999999
 44
-746.5698859999999
 50
0.0
 51
0.0
 71
     0
 72
   100
 73
     1
 74
     3
 75
     0
 76
     0
 77
     0
 78
     0
281
     0
 65
     1
110
0.0
120
0.0
130
0.0
111
1.0
121
0.0
131
0.0
112
0.0
122
1.0
132
0.0
 79
     0
146
0.0
  0
ENDTAB
  0
TABLE
  2
LTYPE
  5
5
330
0
100
AcDbSymbolTable
 70
     7
  0
LTYPE
  5
14
330
5
100
AcDbSymbolTableRecord
100
AcDbLinetypeTableRecord
  2
ByBlock
 70
     0
  3

 72
    65
 73
     0
 40
0.0
  0
LTYPE
  5
15
330
5
100
AcDbSymbolTableRecord
100
AcDbLinetypeTableRecord
  2
ByLayer
 70
     0
  3

 72
    65
 73
     0
 40
0.0
  0
LTYPE
  5
16
330
5
100
AcDbSymbolTableRecord
100
AcDbLinetypeTableRecord
  2
Continuous
 70
     0
  3
Solid line
 72
    65
 73
     0
 40
0.0
  0
LTYPE
  5
6E
330
5
100
AcDbSymbolTableRecord
100
AcDbLinetypeTableRecord
  2
CENTER
 70
     0
  3
____ _ ____ _ ____ _ ____
 72
    65
 73
     4
 40
47.4
 49
22.0
 74
     4
 75
     0
340
0
 46
0.0
 50
0.0
 44
0.0
 45
0.0
 49
-8.5
 74
     4
 75
     0
340
0
 46
0.0
 50
0.0
 44
0.0
 45
0.0
 49
8.5
 74
     4
 75
     0
340
0
 46
0.0
 50
0.0
 44
0.0
 45
0.0
 49
-8.5
 74
     4
 75
     0
340
0
 46
0.0
 50
0.0
 44
0.0
 45
0.0
  0
LTYPE
  5
6F
330
5
100
AcDbSymbolTableRecord
100
AcDbLinetypeTableRecord
  2
DASHDOT
 70
     0
  3
_._._._._._._._._._._._._._._._.
 72
    65
 73
     4
 40
70.0
 49
31.0
 74
     4
 75
     0
340
0
 46
0.0
 50
0.0
 44
0.0
 45
0.0
 49
-13.0
 74
     4
 75
     0
340
0
 46
0.0
 50
0.0
 44
0.0
 45
0.0
 49
13.0
 74
     4
 75
     0
340
0
 46
0.0
 50
0.0
 44
0.0
 45
0.0
 49
-13.0
 74
     4
 75
     0
340
0
 46
0.0
 50
0.0
 44
0.0
 45
0.0
  0
LTYPE
  5
70
330
5
100
AcDbSymbolTableRecord
100
AcDbLinetypeTableRecord
  2
DASHED
 70
     0
  3
__ __ __ __ __ __ __ __ __
 72
    65
 73
     2
 40
25.72
 49
12.86
 74
     4
 75
     0
340
0
 46
0.0
 50
0.0
 44
0.0
 45
0.0
 49
-12.86
 74
     4
 75
     0
340
0
 46
0.0
 50
0.0
 44
0.0
 45
0.0
  0
LTYPE
  5
71
330
5
100
AcDbSymbolTableRecord
100
AcDbLinetypeTableRecord
  2
DOT
 70
     0
  3
.........................
 72
    65
 73
     2
 40
10.0
 49
0.0
 74
     4
 75
     0
340
0
 46
0.0
 50
0.0
 44
0.0
 45
0.0
 49
-10.0
 74
     4
 75
     0
340
0
 46
0.0
 50
0.0
 44
0.0
 45
0.0
  0
LTYPE
  5
72
330
5
100
AcDbSymbolTableRecord
100
AcDbLinetypeTableRecord
  2
PHANTOM
 70
     0
  3
____ _ _ ____ _ _ _____ _ _ ____
 72
    65
 73
     6
 40
50.5
 49
18.0
 74
     4
 75
     0
340
0
 46
0.0
 50
0.0
 44
0.0
 45
0.0
 49
-6.5
 74
     4
 75
     0
340
0
 46
0.0
 50
0.0
 44
0.0
 45
0.0
 49
6.5
 74
     4
 75
     0
340
0
 46
0.0
 50
0.0
 44
0.0
 45
0.0
 49
-6.5
 74
     4
 75
     0
340
0
 46
0.0
 50
0.0
 44
0.0
 45
0.0
 49
6.5
 74
     4
 75
     0
340
0
 46
0.0
 50
0.0
 44
0.0
 45
0.0
 49
-6.5
 74
     4
 75
     0
340
0
 46
0.0
 50
0.0
 44
0.0
 45
0.0
  0
LTYPE
  5
3A2
330
5
100
AcDbSymbolTableRecord
100
AcDbLinetypeTableRecord
  2
CENTER2
 70
     0
  3
Center (.5x) ___ _ ___ _ ___ _ ___ _ ___ _ ___
 72
    65
 73
     4
 40
1.125
 49
0.75
 74
     0
 49
-0.125
 74
     0
 49
0.125
 74
     0
 49
-0.125
 74
     0
  0
ENDTAB
  0
TABLE
  2
LAYER
  5
2
102
{ACAD_XDICTIONARY
360
3CD
102
}
330
0
100
AcDbSymbolTable
 70
    23
  0
LAYER
  5
10
102
{ACAD_XDICTIONARY
360
3AE
102
}
330
2
100
AcDbSymbolTableRecord
100
AcDbLayerTableRecord
  2
0
 70
     0
 62
     7
  6
Continuous
370
    -3
390
F
  0
LAYER
  5
79
102
{ACAD_XDICTIONARY
360
3B0
102
}
330
2
100
AcDbSymbolTableRecord
100
AcDbLayerTableRecord
  2
60
 70
     0
 62
     7
420
 16777215
  6
Continuous
370
    -3
390
F
  0
LAYER
  5
23B
330
2
100
AcDbSymbolTableRecord
100
AcDbLayerTableRecord
  2
Defpoints
 70
     0
 62
     7
  6
Continuous
290
     0
370
    -3
390
F
  0
LAYER
  5
39F
102
{ACAD_XDICTIONARY
360
3B2
102
}
330
2
100
AcDbSymbolTableRecord
100
AcDbLayerTableRecord
  2
1
 70
     0
 62
     4
  6
Continuous
370
    -3
390
F
  0
LAYER
  5
3A0
102
{ACAD_XDICTIONARY
360
3B4
102
}
330
2
100
AcDbSymbolTableRecord
100
AcDbLayerTableRecord
  2
2
 70
     0
 62
     7
  6
Continuous
370
    -3
390
F
  0
LAYER
  5
3A1
102
{ACAD_XDICTIONARY
360
3B6
102
}
330
2
100
AcDbSymbolTableRecord
100
AcDbLayerTableRecord
  2
4
 70
     0
 62
     2
  6
CENTER2
370
    -3
390
F
  0
LAYER
  5
3A4
102
{ACAD_XDICTIONARY
360
3B8
102
}
330
2
100
AcDbSymbolTableRecord
100
AcDbLayerTableRecord
  2
SK2
 70
     0
 62
     7
  6
Continuous
370
    -3
390
F
  0
LAYER
  5
3A5
102
{ACAD_XDICTIONARY
360
3BA
102
}
330
2
100
AcDbSymbolTableRecord
100
AcDbLayerTableRecord
  2
SK3
 70
     0
 62
     1
  6
DASHED
370
    -3
390
F
  0
LAYER
  5
3A6
102
{ACAD_XDICTIONARY
360
3BC
102
}
330
2
100
AcDbSymbolTableRecord
100
AcDbLayerTableRecord
  2
SK4
 70
     0
 62
     2
  6
CENTER2
370
    -3
390
F
  0
LAYER
  5
3A7
102
{ACAD_XDICTIONARY
360
3BE
102
}
330
2
100
AcDbSymbolTableRecord
100
AcDbLayerTableRecord
  2
SK6
 70
     0
 62
     5
  6
Continuous
370
    -3
390
F
  0
LAYER
  5
3A8
102
{ACAD_XDICTIONARY
360
3C0
102
}
330
2
100
AcDbSymbolTableRecord
100
AcDbLayerTableRecord
  2
CUT
 70
     0
 62
     1
  6
Continuous
370
    -3
390
F
  0
LAYER
  5
3A9
102
{ACAD_XDICTIONARY
360
3C2
102
}
330
2
100
AcDbSymbolTableRecord
100
AcDbLayerTableRecord
  2
NOCUT
 70
     0
 62
     7
  6
Continuous
370
    -3
390
F
  0
LAYER
  5
3AA
102
{ACAD_XDICTIONARY
360
3C4
102
}
330
2
100
AcDbSymbolTableRecord
100
AcDbLayerTableRecord
  2
80
 70
     0
 62
     6
  6
Continuous
370
    -3
390
F
  0
LAYER
  5
3AB
102
{ACAD_XDICTIONARY
360
3C6
102
}
330
2
100
AcDbSymbolTableRecord
100
AcDbLayerTableRecord
  2
81
 70
     0
 62
     3
  6
Continuous
370
    -3
390
F
  0
LAYER
  5
3AC
102
{ACAD_XDICTIONARY
360
3C8
102
}
330
2
100
AcDbSymbolTableRecord
100
AcDbLayerTableRecord
  2
SK1
 70
     0
 62
     4
  6
Continuous
370
    -3
390
F
  0
ENDTAB
  0
TABLE
  2
STYLE
  5
3
330
0
100
AcDbSymbolTable
 70
     3
  0
STYLE
  5
11
330
3
100
AcDbSymbolTableRecord
100
AcDbTextStyleTableRecord
  2
Standard
 70
     0
 40
0.0
 41
1.0
 50
0.0
 71
     0
 42
0.2
  3
txt
  4

  0
STYLE
  5
235
330
3
100
AcDbSymbolTableRecord
100
AcDbTextStyleTableRecord
  2
cesky
 70
     0
 40
0.0
 41
1.0
 50
0.0
 71
     0
 42
0.2
  3
simplex.shx
  4

  0
STYLE
  5
236
330
3
100
AcDbSymbolTableRecord
100
AcDbTextStyleTableRecord
  2
DWGDirectTextStyle
 70
     0
 40
0.0
 41
1.0
 50
0.0
 71
     0
 42
0.2
  3
simplex
  4

  0
ENDTAB
  0
TABLE
  2
VIEW
  5
6
330
0
100
AcDbSymbolTable
 70
     1
  0
ENDTAB
  0
TABLE
  2
UCS
  5
7
330
0
100
AcDbSymbolTable
 70
     0
  0
ENDTAB
  0
TABLE
  2
APPID
  5
9
330
0
100
AcDbSymbolTable
 70
     7
  0
APPID
  5
12
330
9
100
AcDbSymbolTableRecord
100
AcDbRegAppTableRecord
  2
ACAD
 70
     0
  0
APPID
  5
237
330
9
100
AcDbSymbolTableRecord
100
AcDbRegAppTableRecord
  2
ACAD_DSTYLE_DIMBREAK
 70
     0
  0
APPID
  5
2F3
330
9
100
AcDbSymbolTableRecord
100
AcDbRegAppTableRecord
  2
ACAD_DSTYLE_DIM_LINETYPE
 70
     0
  0
APPID
  5
2F4
330
9
100
AcDbSymbolTableRecord
100
AcDbRegAppTableRecord
  2
ACAD_DSTYLE_DIM_EXT1_LINETYPE
 70
     0
  0
APPID
  5
2F5
330
9
100
AcDbSymbolTableRecord
100
AcDbRegAppTableRecord
  2
ACAD_DSTYLE_DIM_EXT2_LINETYPE
 70
     0
  0
APPID
  5
335
330
9
100
AcDbSymbolTableRecord
100
AcDbRegAppTableRecord
  2
ACAD_MLEADERVER
 70
     0
  0
APPID
  5
3D6
330
9
100
AcDbSymbolTableRecord
100
AcDbRegAppTableRecord
  2
ACAD_NAV_VCDISPLAY
 70
     0
  0
ENDTAB
  0
TABLE
  2
DIMSTYLE
  5
A
330
0
100
AcDbSymbolTable
 70
     1
100
AcDbDimStyleTable
 71
     0
  0
DIMSTYLE
105
27
330
A
100
AcDbSymbolTableRecord
100
AcDbDimStyleTableRecord
  2
Standard
 70
     0
340
11
1001
ACAD_DSTYLE_DIMBREAK
1070
   391
1040
6.349999999999999
  0
ENDTAB
  0
TABLE
  2
BLOCK_RECORD
  5
1
330
0
100
AcDbSymbolTable
 70
    15
  0
BLOCK_RECORD
  5
1F
102
{ACAD_XDICTIONARY
360
346
102
}
330
1
100
AcDbSymbolTableRecord
100
AcDbBlockTableRecord
  2
*Model_Space
340
22
  0
BLOCK_RECORD
  5
1B
330
1
100
AcDbSymbolTableRecord
100
AcDbBlockTableRecord
  2
*Paper_Space
340
1E
  0
BLOCK_RECORD
  5
23
330
1
100
AcDbSymbolTableRecord
100
AcDbBlockTableRecord
  2
*Paper_Space0
340
26
  0
BLOCK_RECORD
  5
23C
330
1
100
AcDbSymbolTableRecord
100
AcDbBlockTableRecord
  2
*D1
340
0
  0
BLOCK_RECORD
  5
249
330
1
100
AcDbSymbolTableRecord
100
AcDbBlockTableRecord
  2
_U0
340
0
  0
BLOCK_RECORD
  5
255
330
1
100
AcDbSymbolTableRecord
100
AcDbBlockTableRecord
  2
*D3
340
0
  0
BLOCK_RECORD
  5
260
330
1
100
AcDbSymbolTableRecord
100
AcDbBlockTableRecord
  2
_U1
340
0
  0
BLOCK_RECORD
  5
26B
330
1
100
AcDbSymbolTableRecord
100
AcDbBlockTableRecord
  2
*D5
340
0
  0
BLOCK_RECORD
  5
277
330
1
100
AcDbSymbolTableRecord
100
AcDbBlockTableRecord
  2
_U2
340
0
  0
BLOCK_RECORD
  5
284
330
1
100
AcDbSymbolTableRecord
100
AcDbBlockTableRecord
  2
*D7
340
0
  0
BLOCK_RECORD
  5
290
330
1
100
AcDbSymbolTableRecord
100
AcDbBlockTableRecord
  2
_U3
340
0
  0
BLOCK_RECORD
  5
29D
330
1
100
AcDbSymbolTableRecord
100
AcDbBlockTableRecord
  2
*D9
340
0
  0
BLOCK_RECORD
  5
2A9
330
1
100
AcDbSymbolTableRecord
100
AcDbBlockTableRecord
  2
_U4
340
0
  0
BLOCK_RECORD
  5
2B5
330
1
100
AcDbSymbolTableRecord
100
AcDbBlockTableRecord
  2
*D11
340
0
  0
BLOCK_RECORD
  5
2C2
330
1
100
AcDbSymbolTableRecord
100
AcDbBlockTableRecord
  2
_U5
340
0
  0
BLOCK_RECORD
  5
2CE
330
1
100
AcDbSymbolTableRecord
100
AcDbBlockTableRecord
  2
*D13
340
0
  0
BLOCK_RECORD
  5
2DB
330
1
100
AcDbSymbolTableRecord
100
AcDbBlockTableRecord
  2
_U6
340
0
  0
ENDTAB
  0
ENDSEC
  0
SECTION
  2
BLOCKS
  0
BLOCK
  5
20
330
1F
100
AcDbEntity
  8
0
100
AcDbBlockBegin
  2
*Model_Space
 70
     0
 10
0.0
 20
0.0
 30
0.0
  3
*Model_Space
  1

  0
ENDBLK
  5
21
330
1F
100
AcDbEntity
  8
0
100
AcDbBlockEnd
  0
BLOCK
  5
1C
330
1B
100
AcDbEntity
 67
     1
  8
0
100
AcDbBlockBegin
  2
*Paper_Space
 70
     0
 10
0.0
 20
0.0
 30
0.0
  3
*Paper_Space
  1

  0
ENDBLK
  5
1D
330
1B
100
AcDbEntity
 67
     1
  8
0
100
AcDbBlockEnd
  0
BLOCK
  5
24
330
23
100
AcDbEntity
 67
     1
  8
0
100
AcDbBlockBegin
  2
*Paper_Space0
 70
     0
 10
0.0
 20
0.0
 30
0.0
  3
*Paper_Space0
  1

  0
ENDBLK
  5
25
330
23
100
AcDbEntity
 67
     1
  8
0
100
AcDbBlockEnd
  0
BLOCK
  5
23D
330
23C
100
AcDbEntity
  8
0
100
AcDbBlockBegin
  2
*D1
 70
     1
 10
0.0
 20
0.0
 30
0.0
  3
*D1
  1

  0
LINE
  5
23F
330
23C
100
AcDbEntity
  8
0
 62
    95
370
    -2
100
AcDbLine
 10
253.044248
 20
250.634018
 30
0.0
 11
240.443195
 21
250.634018
 31
0.0
  0
LINE
  5
240
330
23C
100
AcDbEntity
  8
0
 62
    95
370
    -2
100
AcDbLine
 10
253.044248
 20
238.234018
 30
0.0
 11
240.443195
 21
238.234018
 31
0.0
  0
LINE
  5
241
330
23C
100
AcDbEntity
  8
0
 62
    95
370
    -2
100
AcDbLine
 10
241.443195
 20
254.134018
 30
0.0
 11
241.443195
 21
257.634018
 31
0.0
  0
LINE
  5
242
330
23C
100
AcDbEntity
  8
0
 62
    95
370
    -2
100
AcDbLine
 10
241.443195
 20
234.734018
 30
0.0
 11
241.443195
 21
231.234018
 31
0.0
  0
SOLID
  5
243
330
23C
100
AcDbEntity
  8
0
 62
    95
100
AcDbTrace
 10
240.859861
 20
254.134018
 30
0.0
 11
242.026528
 21
254.134018
 31
0.0
 12
241.443195
 22
250.634018
 32
0.0
 13
241.443195
 23
250.634018
 33
0.0
  0
SOLID
  5
244
330
23C
100
AcDbEntity
  8
0
 62
    95
100
AcDbTrace
 10
242.026528
 20
234.734018
 30
0.0
 11
240.859861
 21
234.734018
 31
0.0
 12
241.443195
 22
238.234018
 32
0.0
 13
241.443195
 23
238.234018
 33
0.0
  0
MTEXT
  5
245
330
23C
100
AcDbEntity
  8
0
 62
    95
370
    13
100
AcDbMText
 10
236.193195
 20
244.434018
 30
0.0
 40
3.5
 41
0.0
 71
     5
 72
     1
  1
\A1;12.4
  7
cesky
 11
0.0
 21
1.0
 31
0.0
 73
     1
 44
1.0
  0
POINT
  5
246
330
23C
100
AcDbEntity
  8
Defpoints
 62
     0
100
AcDbPoint
 10
253.044248
 20
250.634018
 30
0.0
  0
POINT
  5
247
330
23C
100
AcDbEntity
  8
Defpoints
 62
     0
100
AcDbPoint
 10
253.044248
 20
238.234018
 30
0.0
  0
POINT
  5
248
330
23C
100
AcDbEntity
  8
Defpoints
 62
     0
100
AcDbPoint
 10
241.443195
 20
238.234018
 30
0.0
  0
ENDBLK
  5
23E
330
23C
100
AcDbEntity
  8
0
100
AcDbBlockEnd
  0
BLOCK
  5
250
330
249
100
AcDbEntity
  8
0
100
AcDbBlockBegin
  2
_U0
 70
     0
 10
0.0
 20
0.0
 30
0.0
  3
_U0
  1

  0
MTEXT
  5
24A
330
249
100
AcDbEntity
  8
60
  6
Continuous
 62
    95
440
 16777216
370
    13
100
AcDbMText
 10
241.912028
 20
240.066518
 30
0.0
 40
3.5
 41
0.0
 71
     7
 72
     5
  1
\W0.8876;12,4
  7
cesky
 11
0.0000000000000001
 21
1.0
 31
0.0
 73
     2
 44
0.8433729999999998
  0
LINE
  5
24B
330
249
100
AcDbEntity
  8
60
 62
    95
440
 16777216
370
    13
100
AcDbLine
 10
250.444248
 20
250.634018
 30
0.0
 11
240.443195
 21
250.634018
 31
0.0
  0
LINE
  5
24C
330
249
100
AcDbEntity
  8
60
 62
    95
440
 16777216
370
    13
100
AcDbLine
 10
250.444248
 20
238.234018
 30
0.0
 11
240.443195
 21
238.234018
 31
0.0
  0
LINE
  5
24D
330
249
100
AcDbEntity
  8
60
 62
    95
440
 16777216
370
    13
100
AcDbLine
 10
241.443195
 20
250.634018
 30
0.0
 11
241.443195
 21
238.234018
 31
0.0
  0
SOLID
  5
24E
330
249
100
AcDbEntity
  8
60
 62
    95
440
 16777216
370
    13
100
AcDbTrace
 10
241.443195
 20
250.634018
 30
0.0
 11
242.060339
 21
247.134021
 31
0.0
 12
240.82605
 22
247.134016
 32
0.0
 13
240.82605
 23
247.134016
 33
0.0
  0
SOLID
  5
24F
330
249
100
AcDbEntity
  8
60
 62
    95
440
 16777216
370
    13
100
AcDbTrace
 10
241.443195
 20
238.234018
 30
0.0
 11
240.82605
 21
241.734016
 31
0.0
 12
242.060339
 22
241.734021
 32
0.0
 13
242.060339
 23
241.734021
 33
0.0
  0
ENDBLK
  5
251
330
249
100
AcDbEntity
  8
0
100
AcDbBlockEnd
  0
BLOCK
  5
256
330
255
100
AcDbEntity
  8
0
100
AcDbBlockBegin
  2
*D3
 70
     1
 10
0.0
 20
0.0
 30
0.0
  3
*D3
  1

  0
LINE
  5
258
330
255
100
AcDbEntity
  8
0
 62
   254
370
    -2
100
AcDbLine
 10
290.744248
 20
244.434018
 30
0.0
 11
312.082896
 21
244.434018
 31
0.0
  0
LINE
  5
259
330
255
100
AcDbEntity
  8
0
 62
   254
370
    -2
100
AcDbLine
 10
301.444248
 20
294.4340180000001
 30
0.0
 11
312.082896
 21
294.4340180000001
 31
0.0
  0
LINE
  5
25A
330
255
100
AcDbEntity
  8
0
 62
   254
370
    -2
100
AcDbLine
 10
311.082896
 20
244.434018
 30
0.0
 11
311.082896
 21
294.4340180000001
 31
0.0
  0
SOLID
  5
25B
330
255
100
AcDbEntity
  8
0
 62
   254
100
AcDbTrace
 10
311.666229
 20
290.934018
 30
0.0
 11
310.499563
 21
290.934018
 31
0.0
 12
311.082896
 22
294.4340180000001
 32
0.0
 13
311.082896
 23
294.4340180000001
 33
0.0
  0
MTEXT
  5
25C
330
255
100
AcDbEntity
  8
0
 62
   254
370
    13
100
AcDbMText
 10
305.832896
 20
233.267352
 30
0.0
 40
3.5
 41
0.0
 71
     5
 72
     1
  1
\A1;100
  7
cesky
 11
0.0
 21
1.0
 31
0.0
 73
     1
 44
1.0
  0
POINT
  5
25D
330
255
100
AcDbEntity
  8
Defpoints
 62
     0
100
AcDbPoint
 10
290.744248
 20
244.434018
 30
0.0
  0
POINT
  5
25E
330
255
100
AcDbEntity
  8
Defpoints
 62
     0
100
AcDbPoint
 10
301.444248
 20
294.4340180000001
 30
0.0
  0
POINT
  5
25F
330
255
100
AcDbEntity
  8
Defpoints
 62
     0
100
AcDbPoint
 10
311.082896
 20
294.4340180000001
 30
0.0
  0
ENDBLK
  5
257
330
255
100
AcDbEntity
  8
0
100
AcDbBlockEnd
  0
BLOCK
  5
266
330
260
100
AcDbEntity
  8
0
100
AcDbBlockBegin
  2
_U1
 70
     0
 10
0.0
 20
0.0
 30
0.0
  3
_U1
  1

  0
ENDBLK
  5
267
330
260
100
AcDbEntity
  8
0
100
AcDbBlockEnd
  0
BLOCK
  5
26C
330
26B
100
AcDbEntity
  8
0
100
AcDbBlockBegin
  2
*D5
 70
     1
 10
0.0
 20
0.0
 30
0.0
  3
*D5
  1

  0
LINE
  5
26E
330
26B
100
AcDbEntity
  8
0
 62
    95
370
    -2
100
AcDbLine
 10
258.944248
 20
257.934018
 30
0.0
 11
230.303559
 21
257.934018
 31
0.0
  0
LINE
  5
26F
330
26B
100
AcDbEntity
  8
0
 62
    95
370
    -2
100
AcDbLine
 10
259.130303
 20
230.934018
 30
0.0
 11
230.303559
 21
230.934018
 31
0.0
  0
LINE
  5
270
330
26B
100
AcDbEntity
  8
0
 62
    95
370
    -2
100
AcDbLine
 10
231.303559
 20
254.434018
 30
0.0
 11
231.303559
 21
234.434018
 31
0.0
  0
SOLID
  5
271
330
26B
100
AcDbEntity
  8
0
 62
    95
100
AcDbTrace
 10
231.886892
 20
254.434018
 30
0.0
 11
230.720226
 21
254.434018
 31
0.0
 12
231.303559
 22
257.934018
 32
0.0
 13
231.303559
 23
257.934018
 33
0.0
  0
SOLID
  5
272
330
26B
100
AcDbEntity
  8
0
 62
    95
100
AcDbTrace
 10
230.720226
 20
234.434018
 30
0.0
 11
231.886892
 21
234.434018
 31
0.0
 12
231.303559
 22
230.934018
 32
0.0
 13
231.303559
 23
230.934018
 33
0.0
  0
MTEXT
  5
273
330
26B
100
AcDbEntity
  8
0
 62
    95
370
    13
100
AcDbMText
 10
226.053559
 20
244.434018
 30
0.0
 40
3.5
 41
0.0
 71
     5
 72
     1
  1
\A1;27
  7
cesky
 11
0.0
 21
1.0
 31
0.0
 73
     1
 44
1.0
  0
POINT
  5
274
330
26B
100
AcDbEntity
  8
Defpoints
 62
     0
100
AcDbPoint
 10
258.944248
 20
257.934018
 30
0.0
  0
POINT
  5
275
330
26B
100
AcDbEntity
  8
Defpoints
 62
     0
100
AcDbPoint
 10
259.130303
 20
230.934018
 30
0.0
  0
POINT
  5
276
330
26B
100
AcDbEntity
  8
Defpoints
 62
     0
100
AcDbPoint
 10
231.303559
 20
230.934018
 30
0.0
  0
ENDBLK
  5
26D
330
26B
100
AcDbEntity
  8
0
100
AcDbBlockEnd
  0
BLOCK
  5
27F
330
277
100
AcDbEntity
  8
0
100
AcDbBlockBegin
  2
_U2
 70
     0
 10
0.0
 20
0.0
 30
0.0
  3
_U2
  1

  0
ENDBLK
  5
280
330
277
100
AcDbEntity
  8
0
100
AcDbBlockEnd
  0
BLOCK
  5
285
330
284
100
AcDbEntity
  8
0
100
AcDbBlockBegin
  2
*D7
 70
     1
 10
0.0
 20
0.0
 30
0.0
  3
*D7
  1

  0
LINE
  5
287
330
284
100
AcDbEntity
  8
0
 62
    95
370
    -2
100
AcDbLine
 10
259.26993
 20
268.434018
 30
0.0
 11
221.251137
 21
268.434018
 31
0.0
  0
LINE
  5
288
330
284
100
AcDbEntity
  8
0
 62
    95
370
    -2
100
AcDbLine
 10
258.578993
 20
220.434018
 30
0.0
 11
221.251137
 21
220.434018
 31
0.0
  0
LINE
  5
289
330
284
100
AcDbEntity
  8
0
 62
    95
370
    -2
100
AcDbLine
 10
222.251137
 20
264.934018
 30
0.0
 11
222.251137
 21
223.934018
 31
0.0
  0
SOLID
  5
28A
330
284
100
AcDbEntity
  8
0
 62
    95
100
AcDbTrace
 10
222.83447
 20
264.934018
 30
0.0
 11
221.667804
 21
264.934018
 31
0.0
 12
222.251137
 22
268.434018
 32
0.0
 13
222.251137
 23
268.434018
 33
0.0
  0
SOLID
  5
28B
330
284
100
AcDbEntity
  8
0
 62
    95
100
AcDbTrace
 10
221.667804
 20
223.934018
 30
0.0
 11
222.83447
 21
223.934018
 31
0.0
 12
222.251137
 22
220.434018
 32
0.0
 13
222.251137
 23
220.434018
 33
0.0
  0
MTEXT
  5
28C
330
284
100
AcDbEntity
  8
0
 62
    95
370
    13
100
AcDbMText
 10
217.001137
 20
244.434018
 30
0.0
 40
3.5
 41
0.0
 71
     5
 72
     1
  1
\A1;48
  7
cesky
 11
0.0
 21
1.0
 31
0.0
 73
     1
 44
1.0
  0
POINT
  5
28D
330
284
100
AcDbEntity
  8
Defpoints
 62
     0
100
AcDbPoint
 10
259.26993
 20
268.434018
 30
0.0
  0
POINT
  5
28E
330
284
100
AcDbEntity
  8
Defpoints
 62
     0
100
AcDbPoint
 10
258.578993
 20
220.434018
 30
0.0
  0
POINT
  5
28F
330
284
100
AcDbEntity
  8
Defpoints
 62
     0
100
AcDbPoint
 10
222.251137
 20
220.434018
 30
0.0
  0
ENDBLK
  5
286
330
284
100
AcDbEntity
  8
0
100
AcDbBlockEnd
  0
BLOCK
  5
298
330
290
100
AcDbEntity
  8
0
100
AcDbBlockBegin
  2
_U3
 70
     0
 10
0.0
 20
0.0
 30
0.0
  3
_U3
  1

  0
ENDBLK
  5
299
330
290
100
AcDbEntity
  8
0
100
AcDbBlockEnd
  0
BLOCK
  5
29E
330
29D
100
AcDbEntity
  8
0
100
AcDbBlockBegin
  2
*D9
 70
     1
 10
0.0
 20
0.0
 30
0.0
  3
*D9
  1

  0
LINE
  5
2A0
330
29D
100
AcDbEntity
  8
0
 62
   254
370
    -2
100
AcDbLine
 10
299.444248
 20
294.4340180000001
 30
0.0
 11
299.444248
 21
309.226344
 31
0.0
  0
LINE
  5
2A1
330
29D
100
AcDbEntity
  8
0
 62
   254
370
    -2
100
AcDbLine
 10
249.444248
 20
267.4340180000001
 30
0.0
 11
249.444248
 21
309.226344
 31
0.0
  0
LINE
  5
2A2
330
29D
100
AcDbEntity
  8
0
 62
   254
370
    -2
100
AcDbLine
 10
295.944248
 20
308.226344
 30
0.0
 11
252.944248
 21
308.226344
 31
0.0
  0
SOLID
  5
2A3
330
29D
100
AcDbEntity
  8
0
 62
   254
100
AcDbTrace
 10
295.944248
 20
307.643011
 30
0.0
 11
295.944248
 21
308.809678
 31
0.0
 12
299.444248
 22
308.226344
 32
0.0
 13
299.444248
 23
308.226344
 33
0.0
  0
SOLID
  5
2A4
330
29D
100
AcDbEntity
  8
0
 62
   254
100
AcDbTrace
 10
252.944248
 20
308.809678
 30
0.0
 11
252.944248
 21
307.643011
 31
0.0
 12
249.444248
 22
308.226344
 32
0.0
 13
249.444248
 23
308.226344
 33
0.0
  0
MTEXT
  5
2A5
330
29D
100
AcDbEntity
  8
0
 62
   254
370
    13
100
AcDbMText
 10
274.444248
 20
313.476344
 30
0.0
 40
3.5
 41
0.0
 71
     5
 72
     1
  1
\A1;50
  7
cesky
 73
     1
 44
1.0
  0
POINT
  5
2A6
330
29D
100
AcDbEntity
  8
Defpoints
 62
     0
100
AcDbPoint
 10
299.444248
 20
294.4340180000001
 30
0.0
  0
POINT
  5
2A7
330
29D
100
AcDbEntity
  8
Defpoints
 62
     0
100
AcDbPoint
 10
249.444248
 20
267.4340180000001
 30
0.0
  0
POINT
  5
2A8
330
29D
100
AcDbEntity
  8
Defpoints
 62
     0
100
AcDbPoint
 10
249.444248
 20
308.226344
 30
0.0
  0
ENDBLK
  5
29F
330
29D
100
AcDbEntity
  8
0
100
AcDbBlockEnd
  0
BLOCK
  5
2B0
330
2A9
100
AcDbEntity
  8
0
100
AcDbBlockBegin
  2
_U4
 70
     0
 10
0.0
 20
0.0
 30
0.0
  3
_U4
  1

  0
ENDBLK
  5
2B1
330
2A9
100
AcDbEntity
  8
0
100
AcDbBlockEnd
  0
BLOCK
  5
2B6
330
2B5
100
AcDbEntity
  8
0
100
AcDbBlockBegin
  2
*D11
 70
     1
 10
0.0
 20
0.0
 30
0.0
  3
*D11
  1

  0
LINE
  5
2B8
330
2B5
100
AcDbEntity
  8
0
 62
    95
370
    -2
100
AcDbLine
 10
249.444248
 20
221.434018
 30
0.0
 11
249.444248
 21
209.183122
 31
0.0
  0
LINE
  5
2B9
330
2B5
100
AcDbEntity
  8
0
 62
    95
370
    -2
100
AcDbLine
 10
256.444248
 20
244.434018
 30
0.0
 11
256.444248
 21
209.183122
 31
0.0
  0
LINE
  5
2BA
330
2B5
100
AcDbEntity
  8
0
 62
    95
370
    -2
100
AcDbLine
 10
245.944248
 20
210.183122
 30
0.0
 11
242.444248
 21
210.183122
 31
0.0
  0
LINE
  5
2BB
330
2B5
100
AcDbEntity
  8
0
 62
    95
370
    -2
100
AcDbLine
 10
259.944248
 20
210.183122
 30
0.0
 11
263.444248
 21
210.183122
 31
0.0
  0
SOLID
  5
2BC
330
2B5
100
AcDbEntity
  8
0
 62
    95
100
AcDbTrace
 10
245.944248
 20
209.599789
 30
0.0
 11
245.944248
 21
210.766456
 31
0.0
 12
249.444248
 22
210.183122
 32
0.0
 13
249.444248
 23
210.183122
 33
0.0
  0
SOLID
  5
2BD
330
2B5
100
AcDbEntity
  8
0
 62
    95
100
AcDbTrace
 10
259.944248
 20
210.766456
 30
0.0
 11
259.944248
 21
209.599789
 31
0.0
 12
256.444248
 22
210.183122
 32
0.0
 13
256.444248
 23
210.183122
 33
0.0
  0
MTEXT
  5
2BE
330
2B5
100
AcDbEntity
  8
0
 62
    95
370
    13
100
AcDbMText
 10
252.944248
 20
215.433122
 30
0.0
 40
3.5
 41
0.0
 71
     5
 72
     1
  1
\A1;7
  7
cesky
 73
     1
 44
1.0
  0
POINT
  5
2BF
330
2B5
100
AcDbEntity
  8
Defpoints
 62
     0
100
AcDbPoint
 10
249.444248
 20
221.434018
 30
0.0
  0
POINT
  5
2C0
330
2B5
100
AcDbEntity
  8
Defpoints
 62
     0
100
AcDbPoint
 10
256.444248
 20
244.434018
 30
0.0
  0
POINT
  5
2C1
330
2B5
100
AcDbEntity
  8
Defpoints
 62
     0
100
AcDbPoint
 10
256.444248
 20
210.183122
 30
0.0
  0
ENDBLK
  5
2B7
330
2B5
100
AcDbEntity
  8
0
100
AcDbBlockEnd
  0
BLOCK
  5
2C9
330
2C2
100
AcDbEntity
  8
0
100
AcDbBlockBegin
  2
_U5
 70
     0
 10
0.0
 20
0.0
 30
0.0
  3
_U5
  1

  0
MTEXT
  5
2C3
330
2C2
100
AcDbEntity
  8
60
  6
Continuous
 62
    95
440
 16777216
370
    13
100
AcDbMText
 10
252.392248
 20
210.057289
 30
0.0
 40
3.5
 41
0.0
 71
     7
 72
     5
  1
\W0.6094;7
  7
cesky
 73
     2
 44
0.8433729999999998
  0
LINE
  5
2C4
330
2C2
100
AcDbEntity
  8
60
 62
    95
440
 16777216
370
    13
100
AcDbLine
 10
249.444248
 20
221.434018
 30
0.0
 11
249.444248
 21
209.183122
 31
0.0
  0
LINE
  5
2C5
330
2C2
100
AcDbEntity
  8
60
 62
    95
440
 16777216
370
    13
100
AcDbLine
 10
256.444248
 20
244.434018
 30
0.0
 11
256.444248
 21
209.183122
 31
0.0
  0
LINE
  5
2C6
330
2C2
100
AcDbEntity
  8
60
 62
    95
440
 16777216
370
    13
100
AcDbLine
 10
240.694248
 20
210.183122
 30
0.0
 11
265.194248
 21
210.183122
 31
0.0
  0
SOLID
  5
2C7
330
2C2
100
AcDbEntity
  8
60
 62
    95
440
 16777216
370
    13
100
AcDbTrace
 10
249.444248
 20
210.183122
 30
0.0
 11
245.944251
 21
209.565978
 31
0.0
 12
245.944246
 22
210.800267
 32
0.0
 13
245.944246
 23
210.800267
 33
0.0
  0
SOLID
  5
2C8
330
2C2
100
AcDbEntity
  8
60
 62
    95
440
 16777216
370
    13
100
AcDbTrace
 10
256.444248
 20
210.183122
 30
0.0
 11
259.944246
 21
210.800267
 31
0.0
 12
259.9442509999999
 22
209.565978
 32
0.0
 13
259.9442509999999
 23
209.565978
 33
0.0
  0
ENDBLK
  5
2CA
330
2C2
100
AcDbEntity
  8
0
100
AcDbBlockEnd
  0
BLOCK
  5
2CF
330
2CE
100
AcDbEntity
  8
0
100
AcDbBlockBegin
  2
*D13
 70
     1
 10
0.0
 20
0.0
 30
0.0
  3
*D13
  1

  0
LINE
  5
2D1
330
2CE
100
AcDbEntity
  8
0
 62
   254
370
    -2
100
AcDbLine
 10
299.444248
 20
296.434018
 30
0.0
 11
299.444248
 21
300.188966
 31
0.0
  0
LINE
  5
2D2
330
2CE
100
AcDbEntity
  8
0
 62
   254
370
    -2
100
AcDbLine
 10
293.444689
 20
294.379707
 30
0.0
 11
293.444689
 21
300.188966
 31
0.0
  0
LINE
  5
2D3
330
2CE
100
AcDbEntity
  8
0
 62
   254
370
    -2
100
AcDbLine
 10
302.944248
 20
299.188966
 30
0.0
 11
306.444248
 21
299.188966
 31
0.0
  0
LINE
  5
2D4
330
2CE
100
AcDbEntity
  8
0
 62
   254
370
    -2
100
AcDbLine
 10
289.944689
 20
299.188966
 30
0.0
 11
286.444689
 21
299.188966
 31
0.0
  0
SOLID
  5
2D5
330
2CE
100
AcDbEntity
  8
0
 62
   254
100
AcDbTrace
 10
302.944248
 20
299.772299
 30
0.0
 11
302.944248
 21
298.605633
 31
0.0
 12
299.444248
 22
299.188966
 32
0.0
 13
299.444248
 23
299.188966
 33
0.0
  0
SOLID
  5
2D6
330
2CE
100
AcDbEntity
  8
0
 62
   254
100
AcDbTrace
 10
289.944689
 20
298.605633
 30
0.0
 11
289.944689
 21
299.772299
 31
0.0
 12
293.444689
 22
299.188966
 32
0.0
 13
293.444689
 23
299.188966
 33
0.0
  0
MTEXT
  5
2D7
330
2CE
100
AcDbEntity
  8
0
 62
   254
370
    13
100
AcDbMText
 10
296.444469
 20
304.438966
 30
0.0
 40
3.5
 41
0.0
 71
     5
 72
     1
  1
\A1;6
  7
cesky
 73
     1
 44
1.0
  0
POINT
  5
2D8
330
2CE
100
AcDbEntity
  8
Defpoints
 62
     0
100
AcDbPoint
 10
299.444248
 20
296.434018
 30
0.0
  0
POINT
  5
2D9
330
2CE
100
AcDbEntity
  8
Defpoints
 62
     0
100
AcDbPoint
 10
293.444689
 20
294.379707
 30
0.0
  0
POINT
  5
2DA
330
2CE
100
AcDbEntity
  8
Defpoints
 62
     0
100
AcDbPoint
 10
293.444689
 20
299.188966
 30
0.0
  0
ENDBLK
  5
2D0
330
2CE
100
AcDbEntity
  8
0
100
AcDbBlockEnd
  0
BLOCK
  5
2E2
330
2DB
100
AcDbEntity
  8
0
100
AcDbBlockBegin
  2
_U6
 70
     0
 10
0.0
 20
0.0
 30
0.0
  3
_U6
  1

  0
MTEXT
  5
2DC
330
2DB
100
AcDbEntity
  8
60
  6
Continuous
 62
   254
440
 16777216
370
    13
100
AcDbMText
 10
295.892469
 20
299.063133
 30
0.0
 40
3.5
 41
0.0
 71
     7
 72
     5
  1
\W0.6563;6
  7
cesky
 73
     2
 44
0.8433729999999998
  0
LINE
  5
2DD
330
2DB
100
AcDbEntity
  8
60
 62
   254
440
 16777216
370
    13
100
AcDbLine
 10
299.444248
 20
296.434018
 30
0.0
 11
299.444248
 21
300.188966
 31
0.0
  0
LINE
  5
2DE
330
2DB
100
AcDbEntity
  8
60
 62
   254
440
 16777216
370
    13
100
AcDbLine
 10
293.444689
 20
294.379707
 30
0.0
 11
293.444689
 21
300.188966
 31
0.0
  0
LINE
  5
2DF
330
2DB
100
AcDbEntity
  8
60
 62
   254
440
 16777216
370
    13
100
AcDbLine
 10
308.194248
 20
299.188966
 30
0.0
 11
284.694689
 21
299.188966
 31
0.0
  0
SOLID
  5
2E0
330
2DB
100
AcDbEntity
  8
60
 62
   254
440
 16777216
370
    13
100
AcDbTrace
 10
299.444248
 20
299.188966
 30
0.0
 11
302.944246
 21
299.80611
 31
0.0
 12
302.9442509999999
 22
298.571822
 32
0.0
 13
302.9442509999999
 23
298.571822
 33
0.0
  0
SOLID
  5
2E1
330
2DB
100
AcDbEntity
  8
60
 62
   254
440
 16777216
370
    13
100
AcDbTrace
 10
293.444689
 20
299.188966
 30
0.0
 11
289.944692
 21
298.571822
 31
0.0
 12
289.944687
 22
299.80611
 32
0.0
 13
289.944687
 23
299.80611
 33
0.0
  0
ENDBLK
  5
2E3
330
2DB
100
AcDbEntity
  8
0
100
AcDbBlockEnd
  0
ENDSEC
  0
SECTION
  2
ENTITIES
  0
POINT
  5
73
102
{ACAD_REACTORS
330
3AD
102
}
330
1F
100
AcDbEntity
  8
80
100
AcDbPoint
 10
249.444248
 20
244.434018
 30
0.0
  0
POINT
  5
75
330
1F
100
AcDbEntity
  8
4
 60
     1
100
AcDbPoint
 10
250.444248
 20
244.434018
 30
0.0
  0
POINT
  5
77
330
1F
100
AcDbEntity
  8
4
 60
     1
100
AcDbPoint
 10
290.744248
 20
244.434018
 30
0.0
  0
POINT
  5
78
330
1F
100
AcDbEntity
  8
SK6
 60
     1
100
AcDbPoint
 10
256.444248
 20
244.434018
 30
0.0
  0
POINT
  5
7A
330
1F
100
AcDbEntity
  8
SK6
 60
     1
100
AcDbPoint
 10
250.444248
 20
244.434018
 30
0.0
  0
POINT
  5
7B
330
1F
100
AcDbEntity
  8
SK6
 60
     1
100
AcDbPoint
 10
249.444248
 20
221.434018
 30
0.0
  0
POINT
  5
7C
330
1F
100
AcDbEntity
  8
SK6
 60
     1
100
AcDbPoint
 10
256.444248
 20
244.434018
 30
0.0
  0
LINE
  5
7D
330
1F
100
AcDbEntity
  8
1
100
AcDbLine
 10
296.24657
 20
251.955349
 30
0.0
 11
293.7442479999999
 21
251.955349
 31
0.0
  0
LINE
  5
7F
330
1F
100
AcDbEntity
  8
1
100
AcDbLine
 10
296.661975
 20
229.222381
 30
0.0
 11
296.655931
 21
229.222649
 31
0.0
  0
LINE
  5
81
330
1F
100
AcDbEntity
  8
1
100
AcDbLine
 10
296.644897
 20
229.033732
 30
0.0
 11
296.644647
 21
229.033743
 31
0.0
  0
LINE
  5
82
330
1F
100
AcDbEntity
  8
1
100
AcDbLine
 10
296.543711
 20
229.02561
 30
0.0
 11
293.54668
 21
229.158481
 31
0.0
  0
LINE
  5
83
330
1F
100
AcDbEntity
  8
1
100
AcDbLine
 10
293.447652
 20
229.173366
 30
0.0
 11
293.656455
 21
233.942931
 31
0.0
  0
LINE
  5
84
330
1F
100
AcDbEntity
  8
1
100
AcDbLine
 10
293.447652
 20
229.173366
 30
0.0
 11
293.54668
 21
229.158481
 31
0.0
  0
LINE
  5
85
330
1F
100
AcDbEntity
  8
1
100
AcDbLine
 10
293.54668
 20
229.158481
 30
0.0
 11
293.593012
 21
229.60815
 31
0.0
  0
LINE
  5
86
330
1F
100
AcDbEntity
  8
1
100
AcDbLine
 10
296.536631
 20
229.477647
 30
0.0
 11
296.543711
 21
229.02561
 31
0.0
  0
LINE
  5
87
330
1F
100
AcDbEntity
  8
1
100
AcDbLine
 10
296.543711
 20
229.02561
 30
0.0
 11
296.644485
 21
229.031638
 31
0.0
  0
LINE
  5
88
330
1F
100
AcDbEntity
  8
1
100
AcDbLine
 10
294.04063
 20
242.235494
 30
0.0
 11
294.052503
 21
242.377712
 31
0.0
  0
LINE
  5
89
330
1F
100
AcDbEntity
  8
1
100
AcDbLine
 10
293.656455
 20
233.942931
 30
0.0
 11
293.891746
 21
239.30265
 31
0.0
  0
LINE
  5
8A
330
1F
100
AcDbEntity
  8
1
100
AcDbLine
 10
293.593012
 20
229.60815
 30
0.0
 11
293.656455
 21
233.942931
 31
0.0
  0
LINE
  5
8B
330
1F
100
AcDbEntity
  8
1
100
AcDbLine
 10
296.536631
 20
229.477647
 30
0.0
 11
293.593012
 21
229.60815
 31
0.0
  0
LINE
  5
8C
330
1F
100
AcDbEntity
  8
1
100
AcDbLine
 10
296.853288
 20
233.801203
 30
0.0
 11
296.536631
 21
229.477647
 31
0.0
  0
LINE
  5
8D
330
1F
100
AcDbEntity
  8
1
100
AcDbLine
 10
294.129212
 20
241.774432
 30
0.0
 11
294.04063
 21
242.235494
 31
0.0
  0
LINE
  5
8E
330
1F
100
AcDbEntity
  8
1
100
AcDbLine
 10
293.992498
 20
241.592966
 30
0.0
 11
294.04063
 21
242.235494
 31
0.0
  0
LINE
  5
8F
330
1F
100
AcDbEntity
  8
1
100
AcDbLine
 10
297.185901
 20
241.373683
 30
0.0
 11
293.989068
 21
241.515411
 31
0.0
  0
LINE
  5
90
330
1F
100
AcDbEntity
  8
1
100
AcDbLine
 10
297.088579
 20
239.160922
 30
0.0
 11
293.891746
 21
239.30265
 31
0.0
  0
LINE
  5
91
330
1F
100
AcDbEntity
  8
1
100
AcDbLine
 10
297.185901
 20
241.373683
 30
0.0
 11
297.184971
 21
241.351927
 31
0.0
  0
LINE
  5
92
330
1F
100
AcDbEntity
  8
1
100
AcDbLine
 10
296.853288
 20
233.801203
 30
0.0
 11
297.088579
 21
239.160922
 31
0.0
  0
LINE
  5
93
330
1F
100
AcDbEntity
  8
1
100
AcDbLine
 10
296.644485
 20
229.031638
 30
0.0
 11
296.853288
 21
233.801203
 31
0.0
  0
LINE
  5
94
330
1F
100
AcDbEntity
  8
1
100
AcDbLine
 10
296.645357
 20
229.042086
 30
0.0
 11
296.644485
 21
229.031638
 31
0.0
  0
LINE
  5
95
330
1F
100
AcDbEntity
  8
1
100
AcDbLine
 10
296.644897
 20
229.033732
 30
0.0
 11
296.645357
 21
229.042086
 31
0.0
  0
LINE
  5
96
330
1F
100
AcDbEntity
  8
1
100
AcDbLine
 10
297.13722
 20
241.819865
 30
0.0
 11
297.072832
 21
241.64393
 31
0.0
  0
LINE
  5
97
330
1F
100
AcDbEntity
  8
1
100
AcDbLine
 10
297.18933
 20
241.451238
 30
0.0
 11
297.193932
 21
241.51266
 31
0.0
  0
LINE
  5
98
330
1F
100
AcDbEntity
  8
1
100
AcDbLine
 10
293.992498
 20
241.592966
 30
0.0
 11
294.096762
 21
241.687933
 31
0.0
  0
LINE
  5
99
330
1F
100
AcDbEntity
  8
1
100
AcDbLine
 10
293.989093
 20
241.51541
 30
0.0
 11
293.992498
 21
241.592966
 31
0.0
  0
LINE
  5
9A
330
1F
100
AcDbEntity
  8
1
100
AcDbLine
 10
297.184971
 20
241.351927
 30
0.0
 11
297.18933
 21
241.451238
 31
0.0
  0
LINE
  5
9B
330
1F
100
AcDbEntity
  8
1
100
AcDbLine
 10
297.093793
 20
241.555063
 30
0.0
 11
297.18933
 21
241.451238
 31
0.0
  0
LINE
  5
9C
330
1F
100
AcDbEntity
  8
1
100
AcDbLine
 10
294.096762
 20
241.687933
 30
0.0
 11
294.129212
 21
241.774432
 31
0.0
  0
LINE
  5
9D
330
1F
100
AcDbEntity
  8
1
100
AcDbLine
 10
297.093793
 20
241.555063
 30
0.0
 11
294.096762
 21
241.687933
 31
0.0
  0
LINE
  5
9E
330
1F
100
AcDbEntity
  8
1
100
AcDbLine
 10
297.072832
 20
241.64393
 30
0.0
 11
297.093793
 21
241.555063
 31
0.0
  0
LINE
  5
9F
330
1F
100
AcDbEntity
  8
1
100
AcDbLine
 10
297.072832
 20
241.64393
 30
0.0
 11
294.965384
 21
241.737362
 31
0.0
  0
LINE
  5
A0
330
1F
100
AcDbEntity
  8
1
100
AcDbLine
 10
294.5020859999999
 20
241.757901
 30
0.0
 11
294.129212
 21
241.774432
 31
0.0
  0
LINE
  5
A1
330
1F
100
AcDbEntity
  8
1
100
AcDbLine
 10
293.74425
 20
273.087287
 30
0.0
 11
293.724912
 21
273.416347
 31
0.0
  0
LINE
  5
A2
330
1F
100
AcDbEntity
  8
1
100
AcDbLine
 10
299.324317
 20
212.693731
 30
0.0
 11
299.324117
 21
212.693724
 31
0.0
  0
LINE
  5
A3
330
1F
100
AcDbEntity
  8
1
100
AcDbLine
 10
299.440432
 20
204.242243
 30
0.0
 11
299.440183
 21
204.242233
 31
0.0
  0
LINE
  5
A4
330
1F
100
AcDbEntity
  8
1
100
AcDbLine
 10
299.341817
 20
204.124155
 30
0.0
 11
296.344786
 21
204.009411
 31
0.0
  0
LINE
  5
A5
330
1F
100
AcDbEntity
  8
1
100
AcDbLine
 10
296.244012
 20
204.072525
 30
0.0
 11
296.035209
 21
207.552637
 31
0.0
  0
LINE
  5
A6
330
1F
100
AcDbEntity
  8
1
100
AcDbLine
 10
296.244012
 20
204.072525
 30
0.0
 11
296.344786
 21
204.009411
 31
0.0
  0
LINE
  5
A7
330
1F
100
AcDbEntity
  8
1
100
AcDbLine
 10
296.344786
 20
204.009411
 30
0.0
 11
296.351865
 21
204.323544
 31
0.0
  0
LINE
  5
A8
330
1F
100
AcDbEntity
  8
1
100
AcDbLine
 10
299.295485
 20
204.436243
 30
0.0
 11
299.341817
 21
204.124155
 31
0.0
  0
LINE
  5
A9
330
1F
100
AcDbEntity
  8
1
100
AcDbLine
 10
299.341817
 20
204.124155
 30
0.0
 11
299.440845
 21
204.194919
 31
0.0
  0
LINE
  5
AA
330
1F
100
AcDbEntity
  8
1
100
AcDbLine
 10
296.035209
 20
207.552637
 30
0.0
 11
295.799918
 21
211.556411
 31
0.0
  0
LINE
  5
AB
330
1F
100
AcDbEntity
  8
1
100
AcDbLine
 10
296.351865
 20
204.323544
 30
0.0
 11
296.035209
 21
207.552637
 31
0.0
  0
LINE
  5
AC
330
1F
100
AcDbEntity
  8
1
100
AcDbLine
 10
299.295485
 20
204.436243
 30
0.0
 11
296.351865
 21
204.323544
 31
0.0
  0
LINE
  5
AD
330
1F
100
AcDbEntity
  8
1
100
AcDbLine
 10
299.2320410000001
 20
207.67503
 30
0.0
 11
299.295485
 21
204.436243
 31
0.0
  0
LINE
  5
AE
330
1F
100
AcDbEntity
  8
1
100
AcDbLine
 10
298.899429
 20
213.357745
 30
0.0
 11
295.702596
 21
213.235352
 31
0.0
  0
LINE
  5
AF
330
1F
100
AcDbEntity
  8
1
100
AcDbLine
 10
298.99675
 20
211.678804
 30
0.0
 11
295.799918
 21
211.556411
 31
0.0
  0
LINE
  5
B0
330
1F
100
AcDbEntity
  8
1
100
AcDbLine
 10
295.815665
 20
213.712143
 30
0.0
 11
295.807896
 21
213.84949
 31
0.0
  0
LINE
  5
B1
330
1F
100
AcDbEntity
  8
1
100
AcDbLine
 10
295.699166
 20
213.296855
 30
0.0
 11
295.691064
 21
213.856707
 31
0.0
  0
LINE
  5
B2
330
1F
100
AcDbEntity
  8
1
100
AcDbLine
 10
299.375879
 20
209.306272
 30
0.0
 11
299.422955
 21
205.696723
 31
0.0
  0
LINE
  5
B3
330
1F
100
AcDbEntity
  8
1
100
AcDbLine
 10
299.327746
 20
212.632228
 30
0.0
 11
299.375879
 21
209.306272
 31
0.0
  0
LINE
  5
B4
330
1F
100
AcDbEntity
  8
1
100
AcDbLine
 10
299.323387
 20
212.706415
 30
0.0
 11
299.327746
 21
212.632228
 31
0.0
  0
LINE
  5
B5
330
1F
100
AcDbEntity
  8
1
100
AcDbLine
 10
299.324317
 20
212.693731
 30
0.0
 11
299.323387
 21
212.706415
 31
0.0
  0
LINE
  5
B6
330
1F
100
AcDbEntity
  8
1
100
AcDbLine
 10
299.144246
 20
215.78075
 30
0.0
 11
299.2269950000001
 21
214.372673
 31
0.0
  0
LINE
  5
B7
330
1F
100
AcDbEntity
  8
1
100
AcDbLine
 10
298.899429
 20
213.357745
 30
0.0
 11
298.900359
 21
213.345061
 31
0.0
  0
LINE
  5
B8
330
1F
100
AcDbEntity
  8
1
100
AcDbLine
 10
299.2320410000001
 20
207.67503
 30
0.0
 11
298.99675
 21
211.678804
 31
0.0
  0
LINE
  5
B9
330
1F
100
AcDbEntity
  8
1
100
AcDbLine
 10
299.440845
 20
204.194919
 30
0.0
 11
299.2320410000001
 21
207.67503
 31
0.0
  0
LINE
  5
BA
330
1F
100
AcDbEntity
  8
1
100
AcDbLine
 10
299.439973
 20
204.261801
 30
0.0
 11
299.440845
 21
204.194919
 31
0.0
  0
LINE
  5
BB
330
1F
100
AcDbEntity
  8
1
100
AcDbLine
 10
299.440432
 20
204.242243
 30
0.0
 11
299.439973
 21
204.261801
 31
0.0
  0
LINE
  5
BC
330
1F
100
AcDbEntity
  8
1
100
AcDbLine
 10
295.794704
 20
213.374929
 30
0.0
 11
295.815665
 21
213.712143
 31
0.0
  0
LINE
  5
BD
330
1F
100
AcDbEntity
  8
1
100
AcDbLine
 10
298.759284
 20
213.824842
 30
0.0
 11
298.386365
 21
213.810564
 31
0.0
  0
LINE
  5
BE
330
1F
100
AcDbEntity
  8
1
100
AcDbLine
 10
297.184862
 20
213.764564
 30
0.0
 11
295.815665
 21
213.712143
 31
0.0
  0
LINE
  5
BF
330
1F
100
AcDbEntity
  8
1
100
AcDbLine
 10
295.699166
 20
213.296855
 30
0.0
 11
295.794704
 21
213.374929
 31
0.0
  0
LINE
  5
C0
330
1F
100
AcDbEntity
  8
1
100
AcDbLine
 10
295.70278
 20
213.23536
 30
0.0
 11
295.699166
 21
213.296855
 31
0.0
  0
LINE
  5
C1
330
1F
100
AcDbEntity
  8
1
100
AcDbLine
 10
298.900359
 20
213.345061
 30
0.0
 11
298.895999
 21
213.419248
 31
0.0
  0
LINE
  5
C2
330
1F
100
AcDbEntity
  8
1
100
AcDbLine
 10
298.791735
 20
213.489673
 30
0.0
 11
295.794704
 21
213.374929
 31
0.0
  0
LINE
  5
C3
330
1F
100
AcDbEntity
  8
1
100
AcDbLine
 10
298.773283
 20
214.28635
 30
0.0
 11
298.759284
 21
213.824842
 31
0.0
  0
LINE
  5
C4
330
1F
100
AcDbEntity
  8
1
100
AcDbLine
 10
298.759284
 20
213.824842
 30
0.0
 11
298.791735
 21
213.489673
 31
0.0
  0
LINE
  5
C5
330
1F
100
AcDbEntity
  8
1
100
AcDbLine
 10
298.791735
 20
213.489673
 30
0.0
 11
298.895999
 21
213.419248
 31
0.0
  0
LINE
  5
C6
330
1F
100
AcDbEntity
  8
1
100
AcDbLine
 10
298.895999
 20
213.419248
 30
0.0
 11
298.883396
 21
214.290129
 31
0.0
  0
LINE
  5
C7
330
1F
100
AcDbEntity
  8
1
100
AcDbLine
 10
299.440432
 20
204.091225
 30
0.0
 11
299.440133
 21
204.091228
 31
0.0
  0
LINE
  5
C8
330
1F
100
AcDbEntity
  8
1
100
AcDbLine
 10
299.232209
 20
215.450973
 30
0.0
 11
299.327746
 21
215.409308
 31
0.0
  0
LINE
  5
C9
330
1F
100
AcDbEntity
  8
1
100
AcDbLine
 10
299.232209
 20
215.450973
 30
0.0
 11
299.163558
 21
215.451645
 31
0.0
  0
LINE
  5
CA
330
1F
100
AcDbEntity
  8
1
100
AcDbLine
 10
299.324317
 20
215.383335
 30
0.0
 11
299.167472
 21
215.38487
 31
0.0
  0
LINE
  5
CB
330
1F
100
AcDbEntity
  8
1
100
AcDbLine
 10
299.2269950000001
 20
214.519597
 30
0.0
 11
299.218354
 21
214.519682
 31
0.0
  0
LINE
  5
CC
330
1F
100
AcDbEntity
  8
1
100
AcDbLine
 10
299.375879
 20
211.067429
 30
0.0
 11
299.422955
 21
206.139412
 31
0.0
  0
LINE
  5
CD
330
1F
100
AcDbEntity
  8
1
100
AcDbLine
 10
299.327746
 20
215.409308
 30
0.0
 11
299.375879
 21
211.067429
 31
0.0
  0
LINE
  5
CE
330
1F
100
AcDbEntity
  8
1
100
AcDbLine
 10
299.323387
 20
215.368656
 30
0.0
 11
299.327746
 21
215.409308
 31
0.0
  0
LINE
  5
CF
330
1F
100
AcDbEntity
  8
1
100
AcDbLine
 10
299.324317
 20
215.383335
 30
0.0
 11
299.323387
 21
215.368656
 31
0.0
  0
LINE
  5
D0
330
1F
100
AcDbEntity
  8
1
100
AcDbLine
 10
299.2214140000001
 20
214.467559
 30
0.0
 11
299.2269950000001
 21
214.519597
 31
0.0
  0
LINE
  5
D1
330
1F
100
AcDbEntity
  8
1
100
AcDbLine
 10
299.2320410000001
 20
201.931662
 30
0.0
 11
299.144245
 21
201.113004
 31
0.0
  0
LINE
  5
D2
330
1F
100
AcDbEntity
  8
1
100
AcDbLine
 10
299.440845
 20
204.018041
 30
0.0
 11
299.2320410000001
 21
201.931662
 31
0.0
  0
LINE
  5
D3
330
1F
100
AcDbEntity
  8
1
100
AcDbLine
 10
299.439973
 20
204.109353
 30
0.0
 11
299.440845
 21
204.018041
 31
0.0
  0
LINE
  5
D4
330
1F
100
AcDbEntity
  8
1
100
AcDbLine
 10
299.440432
 20
204.091225
 30
0.0
 11
299.439973
 21
204.109353
 31
0.0
  0
LINE
  5
D5
330
1F
100
AcDbEntity
  8
1
100
AcDbLine
 10
293.581263
 20
206.862832
 30
0.0
 11
293.5641799999999
 21
206.863133
 31
0.0
  0
LINE
  5
D6
330
1F
100
AcDbEntity
  8
1
100
AcDbLine
 10
293.448364
 20
194.660912
 30
0.0
 11
293.448064
 21
194.660917
 31
0.0
  0
LINE
  5
D7
330
1F
100
AcDbEntity
  8
1
100
AcDbLine
 10
296.543711
 20
194.434038
 30
0.0
 11
293.54668
 21
194.486827
 31
0.0
  0
LINE
  5
D8
330
1F
100
AcDbEntity
  8
1
100
AcDbLine
 10
296.644485
 20
194.530131
 30
0.0
 11
296.853288
 21
195.391505
 31
0.0
  0
LINE
  5
D9
330
1F
100
AcDbEntity
  8
1
100
AcDbLine
 10
296.536631
 20
194.4902779999999
 30
0.0
 11
296.543711
 21
194.434038
 31
0.0
  0
LINE
  5
DA
330
1F
100
AcDbEntity
  8
1
100
AcDbLine
 10
296.543711
 20
194.434038
 30
0.0
 11
296.644485
 21
194.530131
 31
0.0
  0
LINE
  5
DB
330
1F
100
AcDbEntity
  8
1
100
AcDbLine
 10
293.447652
 20
194.586439
 30
0.0
 11
293.54668
 21
194.486827
 31
0.0
  0
LINE
  5
DC
330
1F
100
AcDbEntity
  8
1
100
AcDbLine
 10
293.54668
 20
194.486827
 30
0.0
 11
293.593012
 21
194.542127
 31
0.0
  0
LINE
  5
DD
330
1F
100
AcDbEntity
  8
1
100
AcDbLine
 10
296.853288
 20
195.391505
 30
0.0
 11
297.088579
 21
196.510028
 31
0.0
  0
LINE
  5
DE
330
1F
100
AcDbEntity
  8
1
100
AcDbLine
 10
293.593012
 20
194.542127
 30
0.0
 11
293.656455
 21
195.447813
 31
0.0
  0
LINE
  5
DF
330
1F
100
AcDbEntity
  8
1
100
AcDbLine
 10
296.536631
 20
194.4902779999999
 30
0.0
 11
293.593012
 21
194.542127
 31
0.0
  0
LINE
  5
E0
330
1F
100
AcDbEntity
  8
1
100
AcDbLine
 10
296.853288
 20
195.391505
 30
0.0
 11
296.536631
 21
194.4902779999999
 31
0.0
  0
LINE
  5
E1
330
1F
100
AcDbEntity
  8
1
100
AcDbLine
 10
297.088579
 20
196.510028
 30
0.0
 11
293.891746
 21
196.566336
 31
0.0
  0
LINE
  5
E2
330
1F
100
AcDbEntity
  8
1
100
AcDbLine
 10
297.185901
 20
197.013851
 30
0.0
 11
297.184971
 21
197.015085
 31
0.0
  0
LINE
  5
E3
330
1F
100
AcDbEntity
  8
1
100
AcDbLine
 10
297.185901
 20
197.013851
 30
0.0
 11
293.989068
 21
197.070159
 31
0.0
  0
LINE
  5
E4
330
1F
100
AcDbEntity
  8
1
100
AcDbLine
 10
297.18933
 20
197.03581
 30
0.0
 11
297.1947379999999
 21
197.568205
 31
0.0
  0
LINE
  5
E5
330
1F
100
AcDbEntity
  8
1
100
AcDbLine
 10
293.56075
 20
206.841174
 30
0.0
 11
293.5126180000001
 21
202.102191
 31
0.0
  0
LINE
  5
E6
330
1F
100
AcDbEntity
  8
1
100
AcDbLine
 10
293.5126180000001
 20
202.102191
 30
0.0
 11
293.465542
 21
196.825685
 31
0.0
  0
LINE
  5
E7
330
1F
100
AcDbEntity
  8
1
100
AcDbLine
 10
293.448064
 20
194.660917
 30
0.0
 11
293.448524
 21
194.684209
 31
0.0
  0
LINE
  5
E8
330
1F
100
AcDbEntity
  8
1
100
AcDbLine
 10
293.448524
 20
194.684209
 30
0.0
 11
293.447652
 21
194.586439
 31
0.0
  0
LINE
  5
E9
330
1F
100
AcDbEntity
  8
1
100
AcDbLine
 10
293.447652
 20
194.586439
 30
0.0
 11
293.656455
 21
195.447813
 31
0.0
  0
LINE
  5
EA
330
1F
100
AcDbEntity
  8
1
100
AcDbLine
 10
293.656455
 20
195.447813
 30
0.0
 11
293.891746
 21
196.566336
 31
0.0
  0
LINE
  5
EB
330
1F
100
AcDbEntity
  8
1
100
AcDbLine
 10
293.989068
 20
197.070159
 30
0.0
 11
293.988138
 21
197.071393
 31
0.0
  0
LINE
  5
EC
330
1F
100
AcDbEntity
  8
1
100
AcDbLine
 10
293.74425
 20
207.760327
 30
0.0
 11
293.661502
 21
207.366956
 31
0.0
  0
LINE
  5
ED
330
1F
100
AcDbEntity
  8
1
100
AcDbLine
 10
293.5641799999999
 20
206.863133
 30
0.0
 11
293.56511
 21
206.861899
 31
0.0
  0
LINE
  5
EE
330
1F
100
AcDbEntity
  8
1
100
AcDbLine
 10
293.56511
 20
206.861899
 30
0.0
 11
293.56075
 21
206.841174
 31
0.0
  0
LINE
  5
EF
330
1F
100
AcDbEntity
  8
1
100
AcDbLine
 10
297.074792
 20
197.565785
 30
0.0
 11
297.072832
 21
197.515068
 31
0.0
  0
LINE
  5
F0
330
1F
100
AcDbEntity
  8
1
100
AcDbLine
 10
294.129212
 20
197.566916
 30
0.0
 11
294.126178
 21
197.712964
 31
0.0
  0
LINE
  5
F1
330
1F
100
AcDbEntity
  8
1
100
AcDbLine
 10
293.992498
 20
197.092118
 30
0.0
 11
293.998819
 21
197.71448
 31
0.0
  0
LINE
  5
F2
330
1F
100
AcDbEntity
  8
1
100
AcDbLine
 10
293.992498
 20
197.092118
 30
0.0
 11
294.096762
 21
197.111102
 31
0.0
  0
LINE
  5
F3
330
1F
100
AcDbEntity
  8
1
100
AcDbLine
 10
293.988138
 20
197.071393
 30
0.0
 11
293.992498
 21
197.092118
 31
0.0
  0
LINE
  5
F4
330
1F
100
AcDbEntity
  8
1
100
AcDbLine
 10
297.184971
 20
197.015085
 30
0.0
 11
293.988138
 21
197.071393
 31
0.0
  0
LINE
  5
F5
330
1F
100
AcDbEntity
  8
1
100
AcDbLine
 10
293.7442479999999
 20
216.501029
 30
0.0
 11
299.144248
 21
216.501029
 31
0.0
  0
LINE
  5
F6
330
1F
100
AcDbEntity
  8
1
100
AcDbLine
 10
299.144248
 20
266.468378
 30
0.0
 11
299.144248
 21
271.263612
 31
0.0
  0
LINE
  5
F7
330
1F
100
AcDbEntity
  8
1
100
AcDbLine
 10
299.144248
 20
266.468378
 30
0.0
 11
299.118658
 21
266.467522
 31
0.0
  0
LINE
  5
F8
330
1F
100
AcDbEntity
  8
1
100
AcDbLine
 10
293.7442479999999
 20
258.701498
 30
0.0
 11
293.7442479999999
 21
255.799698
 31
0.0
  0
LINE
  5
F9
330
1F
100
AcDbEntity
  8
1
100
AcDbLine
 10
296.226753
 20
258.701498
 30
0.0
 11
296.176235
 21
255.799698
 31
0.0
  0
LINE
  5
FA
330
1F
100
AcDbEntity
  8
1
100
AcDbLine
 10
299.144248
 20
229.212662
 30
0.0
 11
299.144248
 21
229.436944
 31
0.0
  0
LINE
  5
FB
330
1F
100
AcDbEntity
  8
1
100
AcDbLine
 10
296.661744
 20
229.212662
 30
0.0
 11
296.667986
 21
229.436944
 31
0.0
  0
LINE
  5
FC
330
1F
100
AcDbEntity
  8
1
100
AcDbLine
 10
299.144248
 20
229.212662
 30
0.0
 11
296.661744
 21
229.212662
 31
0.0
  0
LINE
  5
FD
330
1F
100
AcDbEntity
  8
1
100
AcDbLine
 10
293.7442479999999
 20
259.411592
 30
0.0
 11
293.7442479999999
 21
258.701498
 31
0.0
  0
LINE
  5
FE
330
1F
100
AcDbEntity
  8
1
100
AcDbLine
 10
296.22051
 20
259.411592
 30
0.0
 11
296.226753
 21
258.701498
 31
0.0
  0
LINE
  5
FF
330
1F
100
AcDbEntity
  8
1
100
AcDbLine
 10
296.226753
 20
258.701498
 30
0.0
 11
293.7442479999999
 21
258.701498
 31
0.0
  0
LINE
  5
100
330
1F
100
AcDbEntity
  8
1
100
AcDbLine
 10
293.7442479999999
 20
273.510149
 30
0.0
 11
293.7442479999999
 21
259.411592
 31
0.0
  0
LINE
  5
101
330
1F
100
AcDbEntity
  8
1
100
AcDbLine
 10
299.144248
 20
273.510149
 30
0.0
 11
299.144248
 21
271.263612
 31
0.0
  0
LINE
  5
102
330
1F
100
AcDbEntity
  8
1
100
AcDbLine
 10
293.7442479999999
 20
228.848415
 30
0.0
 11
293.7442479999999
 21
228.785468
 31
0.0
  0
LINE
  5
103
330
1F
100
AcDbEntity
  8
1
100
AcDbLine
 10
293.7442479999999
 20
226.940447
 30
0.0
 11
293.7442479999999
 21
228.785468
 31
0.0
  0
LINE
  5
104
330
1F
100
AcDbEntity
  8
1
100
AcDbLine
 10
293.7442479999999
 20
228.785468
 30
0.0
 11
293.982603
 21
228.774901
 31
0.0
  0
LINE
  5
105
330
1F
100
AcDbEntity
  8
1
100
AcDbLine
 10
293.7442479999999
 20
240.581691
 30
0.0
 11
293.7442479999999
 21
235.942647
 31
0.0
  0
LINE
  5
106
330
1F
100
AcDbEntity
  8
1
100
AcDbLine
 10
293.7442479999999
 20
229.149814
 30
0.0
 11
293.7442479999999
 21
228.848415
 31
0.0
  0
LINE
  5
107
330
1F
100
AcDbEntity
  8
1
100
AcDbLine
 10
293.7442479999999
 20
228.848415
 30
0.0
 11
293.985362
 21
228.837726
 31
0.0
  0
LINE
  5
108
330
1F
100
AcDbEntity
  8
1
100
AcDbLine
 10
293.982603
 20
228.774901
 30
0.0
 11
293.998568
 21
229.138527
 31
0.0
  0
LINE
  5
109
330
1F
100
AcDbEntity
  8
1
100
AcDbLine
 10
295.181423
 20
228.721844
 30
0.0
 11
295.19738
 21
229.085304
 31
0.0
  0
LINE
  5
10A
330
1F
100
AcDbEntity
  8
1
100
AcDbLine
 10
299.144248
 20
252.22187
 30
0.0
 11
299.144248
 21
253.711418
 31
0.0
  0
LINE
  5
10B
330
1F
100
AcDbEntity
  8
1
100
AcDbLine
 10
298.905893
 20
252.213887
 30
0.0
 11
298.830906
 21
253.700882
 31
0.0
  0
LINE
  5
10C
330
1F
100
AcDbEntity
  8
1
100
AcDbLine
 10
297.707073
 20
252.173352
 30
0.0
 11
297.63206
 21
253.660857
 31
0.0
  0
LINE
  5
10D
330
1F
100
AcDbEntity
  8
1
100
AcDbLine
 10
298.380327
 20
214.272879
 30
0.0
 11
298.3864549999999
 21
213.804329
 31
0.0
  0
LINE
  5
10E
330
1F
100
AcDbEntity
  8
1
100
AcDbLine
 10
299.144248
 20
252.221859
 30
0.0
 11
299.144248
 21
250.966723
 31
0.0
  0
LINE
  5
10F
330
1F
100
AcDbEntity
  8
1
100
AcDbLine
 10
299.144248
 20
252.221859
 30
0.0
 11
298.905893
 21
252.213887
 31
0.0
  0
LINE
  5
110
330
1F
100
AcDbEntity
  8
1
100
AcDbLine
 10
293.7442479999999
 20
242.391197
 30
0.0
 11
293.7442479999999
 21
240.581691
 31
0.0
  0
LINE
  5
111
330
1F
100
AcDbEntity
  8
1
100
AcDbLine
 10
293.948251
 20
240.572647
 30
0.0
 11
293.7442479999999
 21
240.581691
 31
0.0
  0
LINE
  5
112
330
1F
100
AcDbEntity
  8
1
100
AcDbLine
 10
293.7442479999999
 20
223.90409
 30
0.0
 11
293.7442479999999
 21
216.501029
 31
0.0
  0
LINE
  5
113
330
1F
100
AcDbEntity
  8
1
100
AcDbLine
 10
299.144248
 20
216.501029
 30
0.0
 11
299.144248
 21
223.90409
 31
0.0
  0
LINE
  5
114
330
1F
100
AcDbEntity
  8
1
100
AcDbLine
 10
296.176905
 20
205.190669
 30
0.0
 11
293.7442479999999
 21
205.190669
 31
0.0
  0
LINE
  5
115
330
1F
100
AcDbEntity
  8
1
100
AcDbLine
 10
296.22051
 20
292.934017
 30
0.0
 11
296.226753
 21
292.147958
 31
0.0
  0
LINE
  5
116
330
1F
100
AcDbEntity
  8
1
100
AcDbLine
 10
296.22051
 20
292.934017
 30
0.0
 11
293.7442479999999
 21
292.934017
 31
0.0
  0
LINE
  5
117
330
1F
100
AcDbEntity
  8
1
100
AcDbLine
 10
296.226753
 20
292.147958
 30
0.0
 11
296.214513
 21
290.773598
 31
0.0
  0
LINE
  5
118
330
1F
100
AcDbEntity
  8
1
100
AcDbLine
 10
296.226753
 20
292.147958
 30
0.0
 11
293.7442479999999
 21
292.147958
 31
0.0
  0
LINE
  5
119
330
1F
100
AcDbEntity
  8
1
100
AcDbLine
 10
294.503454
 20
197.708644
 30
0.0
 11
294.502042
 21
197.5509139999999
 31
0.0
  0
LINE
  5
11A
330
1F
100
AcDbEntity
  8
1
100
AcDbLine
 10
299.144248
 20
195.93402
 30
0.0
 11
296.96742
 21
195.93402
 31
0.0
  0
LINE
  5
11B
330
1F
100
AcDbEntity
  8
1
100
AcDbLine
 10
293.7442479999999
 20
205.190549
 30
0.0
 11
293.7442479999999
 21
198.530992
 31
0.0
  0
LINE
  5
11C
330
1F
100
AcDbEntity
  8
1
100
AcDbLine
 10
299.144248
 20
198.530992
 30
0.0
 11
299.144248
 21
204.116494
 31
0.0
  0
LINE
  5
11D
330
1F
100
AcDbEntity
  8
1
100
AcDbLine
 10
293.7442479999999
 20
198.530992
 30
0.0
 11
299.144248
 21
198.530992
 31
0.0
  0
LINE
  5
11E
330
1F
100
AcDbEntity
  8
1
100
AcDbLine
 10
293.7442479999999
 20
289.888052
 30
0.0
 11
293.7442479999999
 21
287.754909
 31
0.0
  0
LINE
  5
11F
330
1F
100
AcDbEntity
  8
1
100
AcDbLine
 10
299.144248
 20
277.441383
 30
0.0
 11
299.144248
 21
282.740642
 31
0.0
  0
LINE
  5
120
330
1F
100
AcDbEntity
  8
1
100
AcDbLine
 10
296.661744
 20
282.740642
 30
0.0
 11
296.712262
 21
277.441383
 31
0.0
  0
LINE
  5
121
330
1F
100
AcDbEntity
  8
1
100
AcDbLine
 10
299.144248
 20
282.740642
 30
0.0
 11
299.144248
 21
283.665316
 31
0.0
  0
LINE
  5
122
330
1F
100
AcDbEntity
  8
1
100
AcDbLine
 10
296.667986
 20
283.665316
 30
0.0
 11
296.661744
 21
282.740642
 31
0.0
  0
LINE
  5
123
330
1F
100
AcDbEntity
  8
1
100
AcDbLine
 10
299.144248
 20
282.740642
 30
0.0
 11
296.661744
 21
282.740642
 31
0.0
  0
LINE
  5
124
330
1F
100
AcDbEntity
  8
1
100
AcDbLine
 10
299.144248
 20
283.665316
 30
0.0
 11
296.667986
 21
283.665316
 31
0.0
  0
LINE
  5
125
330
1F
100
AcDbEntity
  8
1
100
AcDbLine
 10
299.144248
 20
265.959906
 30
0.0
 11
299.144248
 21
266.4683609999999
 31
0.0
  0
LINE
  5
126
330
1F
100
AcDbEntity
  8
1
100
AcDbLine
 10
297.184971
 20
197.015085
 30
0.0
 11
297.18933
 21
197.03581
 31
0.0
  0
LINE
  5
127
330
1F
100
AcDbEntity
  8
1
100
AcDbLine
 10
297.093793
 20
197.058313
 30
0.0
 11
297.18933
 21
197.03581
 31
0.0
  0
LINE
  5
128
330
1F
100
AcDbEntity
  8
1
100
AcDbLine
 10
294.096762
 20
197.111102
 30
0.0
 11
294.129212
 21
197.566916
 31
0.0
  0
LINE
  5
129
330
1F
100
AcDbEntity
  8
1
100
AcDbLine
 10
297.093793
 20
197.058313
 30
0.0
 11
294.096762
 21
197.111102
 31
0.0
  0
LINE
  5
12A
330
1F
100
AcDbEntity
  8
1
100
AcDbLine
 10
297.072832
 20
197.515068
 30
0.0
 11
297.093793
 21
197.058313
 31
0.0
  0
LINE
  5
12B
330
1F
100
AcDbEntity
  8
1
100
AcDbLine
 10
297.072832
 20
197.515068
 30
0.0
 11
295.740108
 21
197.538542
 31
0.0
  0
LINE
  5
12C
330
1F
100
AcDbEntity
  8
1
100
AcDbLine
 10
294.502132
 20
197.560347
 30
0.0
 11
294.129212
 21
197.566916
 31
0.0
  0
LINE
  5
12D
330
1F
100
AcDbEntity
  8
1
100
AcDbLine
 10
299.43997
 20
294.183565
 30
0.0
 11
299.440845
 21
294.281598
 31
0.0
  0
LINE
  5
12E
330
1F
100
AcDbEntity
  8
1
100
AcDbLine
 10
296.244012
 20
294.337906
 30
0.0
 11
296.344786
 21
294.433999
 31
0.0
  0
LINE
  5
12F
330
1F
100
AcDbEntity
  8
1
100
AcDbLine
 10
299.341817
 20
294.38121
 30
0.0
 11
299.440845
 21
294.281598
 31
0.0
  0
LINE
  5
130
330
1F
100
AcDbEntity
  8
1
100
AcDbLine
 10
299.341817
 20
294.38121
 30
0.0
 11
296.344786
 21
294.433999
 31
0.0
  0
LINE
  5
131
330
1F
100
AcDbEntity
  8
1
100
AcDbLine
 10
299.144246
 20
281.10771
 30
0.0
 11
299.2269950000001
 21
281.501081
 31
0.0
  0
LINE
  5
132
330
1F
100
AcDbEntity
  8
1
100
AcDbLine
 10
299.43997
 20
294.183565
 30
0.0
 11
296.243137
 21
294.2398740000001
 31
0.0
  0
LINE
  5
133
330
1F
100
AcDbEntity
  8
1
100
AcDbLine
 10
299.2269950000001
 20
281.501081
 30
0.0
 11
299.144227
 21
281.502539
 31
0.0
  0
LINE
  5
134
330
1F
100
AcDbEntity
  8
1
100
AcDbLine
 10
299.324317
 20
282.004904
 30
0.0
 11
299.323387
 21
282.006138
 31
0.0
  0
LINE
  5
135
330
1F
100
AcDbEntity
  8
1
100
AcDbLine
 10
299.324317
 20
282.004904
 30
0.0
 11
299.144245
 21
282.008076
 31
0.0
  0
LINE
  5
136
330
1F
100
AcDbEntity
  8
1
100
AcDbLine
 10
299.327746
 20
282.026863
 30
0.0
 11
299.375879
 21
286.765846
 31
0.0
  0
LINE
  5
137
330
1F
100
AcDbEntity
  8
1
100
AcDbLine
 10
296.243137
 20
294.2398740000001
 30
0.0
 11
296.244012
 21
294.337906
 31
0.0
  0
LINE
  5
138
330
1F
100
AcDbEntity
  8
1
100
AcDbLine
 10
296.244012
 20
294.337906
 30
0.0
 11
296.035209
 21
293.476532
 31
0.0
  0
LINE
  5
139
330
1F
100
AcDbEntity
  8
1
100
AcDbLine
 10
296.035209
 20
293.476532
 30
0.0
 11
295.921085
 21
292.934013
 31
0.0
  0
LINE
  5
13A
330
1F
100
AcDbEntity
  8
1
100
AcDbLine
 10
299.375879
 20
286.765846
 30
0.0
 11
299.211248
 21
282.506121
 31
0.0
  0
LINE
  5
13B
330
1F
100
AcDbEntity
  8
1
100
AcDbLine
 10
299.375879
 20
286.765846
 30
0.0
 11
299.422955
 21
292.042352
 31
0.0
  0
LINE
  5
13C
330
1F
100
AcDbEntity
  8
1
100
AcDbLine
 10
299.422955
 20
292.042352
 30
0.0
 11
296.226322
 21
292.098657
 31
0.0
  0
LINE
  5
13D
330
1F
100
AcDbEntity
  8
1
100
AcDbLine
 10
299.323387
 20
282.006138
 30
0.0
 11
299.144214
 21
282.009294
 31
0.0
  0
LINE
  5
13E
330
1F
100
AcDbEntity
  8
1
100
AcDbLine
 10
299.323387
 20
282.006138
 30
0.0
 11
299.327746
 21
282.026863
 31
0.0
  0
LINE
  5
13F
330
1F
100
AcDbEntity
  8
1
100
AcDbLine
 10
299.232209
 20
282.049366
 30
0.0
 11
299.327746
 21
282.026863
 31
0.0
  0
LINE
  5
140
330
1F
100
AcDbEntity
  8
1
100
AcDbLine
 10
299.232209
 20
282.049366
 30
0.0
 11
299.144218
 21
282.050915
 31
0.0
  0
LINE
  5
141
330
1F
100
AcDbEntity
  8
1
100
AcDbLine
 10
299.211248
 20
282.506121
 30
0.0
 11
299.232209
 21
282.049366
 31
0.0
  0
LINE
  5
142
330
1F
100
AcDbEntity
  8
1
100
AcDbLine
 10
299.211248
 20
282.506121
 30
0.0
 11
299.144234
 21
282.507301
 31
0.0
  0
LINE
  5
143
330
1F
100
AcDbEntity
  8
1
100
AcDbLine
 10
293.7442479999999
 20
292.934017
 30
0.0
 11
293.7442479999999
 21
292.147958
 31
0.0
  0
LINE
  5
144
330
1F
100
AcDbEntity
  8
1
100
AcDbLine
 10
296.24314
 20
259.82396
 30
0.0
 11
296.244012
 21
259.873937
 31
0.0
  0
LINE
  5
145
330
1F
100
AcDbEntity
  8
1
100
AcDbLine
 10
299.440078
 20
259.936917
 30
0.0
 11
299.440845
 21
259.980865
 31
0.0
  0
LINE
  5
146
330
1F
100
AcDbEntity
  8
1
100
AcDbLine
 10
299.341817
 20
260.027542
 30
0.0
 11
299.440845
 21
259.980865
 31
0.0
  0
LINE
  5
147
330
1F
100
AcDbEntity
  8
1
100
AcDbLine
 10
296.351865
 20
260.344576
 30
0.0
 11
296.035209
 21
264.111143
 31
0.0
  0
LINE
  5
148
330
1F
100
AcDbEntity
  8
1
100
AcDbLine
 10
296.244012
 20
259.873937
 30
0.0
 11
296.035209
 21
264.111143
 31
0.0
  0
LINE
  5
149
330
1F
100
AcDbEntity
  8
1
100
AcDbLine
 10
296.244012
 20
259.873937
 30
0.0
 11
296.344786
 21
259.927298
 31
0.0
  0
LINE
  5
14A
330
1F
100
AcDbEntity
  8
1
100
AcDbLine
 10
296.344786
 20
259.927298
 30
0.0
 11
296.351865
 21
260.344576
 31
0.0
  0
LINE
  5
14B
330
1F
100
AcDbEntity
  8
1
100
AcDbLine
 10
299.341817
 20
260.027542
 30
0.0
 11
296.344786
 21
259.927298
 31
0.0
  0
LINE
  5
14C
330
1F
100
AcDbEntity
  8
1
100
AcDbLine
 10
299.295485
 20
260.443035
 30
0.0
 11
299.341817
 21
260.027542
 31
0.0
  0
LINE
  5
14D
330
1F
100
AcDbEntity
  8
1
100
AcDbLine
 10
299.295485
 20
260.443035
 30
0.0
 11
296.351865
 21
260.344576
 31
0.0
  0
LINE
  5
14E
330
1F
100
AcDbEntity
  8
1
100
AcDbLine
 10
296.22051
 20
259.411592
 30
0.0
 11
293.7442479999999
 21
259.411592
 31
0.0
  0
LINE
  5
14F
330
1F
100
AcDbEntity
  8
1
100
AcDbLine
 10
293.7442479999999
 20
273.510149
 30
0.0
 11
299.144248
 21
273.510149
 31
0.0
  0
LINE
  5
150
330
1F
100
AcDbEntity
  8
1
100
AcDbLine
 10
293.7442479999999
 20
248.714537
 30
0.0
 11
293.7442479999999
 21
245.140518
 31
0.0
  0
LINE
  5
151
330
1F
100
AcDbEntity
  8
1
100
AcDbLine
 10
299.144248
 20
245.140518
 30
0.0
 11
299.144248
 21
248.714537
 31
0.0
  0
LINE
  5
152
330
1F
100
AcDbEntity
  8
1
100
AcDbLine
 10
299.144248
 20
229.436944
 30
0.0
 11
296.667986
 21
229.436944
 31
0.0
  0
LINE
  5
153
330
1F
100
AcDbEntity
  8
1
100
AcDbLine
 10
299.144248
 20
245.140518
 30
0.0
 11
299.144248
 21
229.436944
 31
0.0
  0
LINE
  5
154
330
1F
100
AcDbEntity
  8
1
100
AcDbLine
 10
293.7442479999999
 20
245.140518
 30
0.0
 11
299.144248
 21
245.140518
 31
0.0
  0
LINE
  5
155
330
1F
100
AcDbEntity
  8
1
100
AcDbLine
 10
293.7442479999999
 20
245.140518
 30
0.0
 11
293.7442479999999
 21
242.391179
 31
0.0
  0
LINE
  5
156
330
1F
100
AcDbEntity
  8
1
100
AcDbLine
 10
293.989711
 20
289.994073
 30
0.0
 11
293.992498
 21
290.020052
 31
0.0
  0
LINE
  5
157
330
1F
100
AcDbEntity
  8
1
100
AcDbLine
 10
293.992498
 20
290.020052
 30
0.0
 11
294.096762
 21
290.059761
 31
0.0
  0
LINE
  5
158
330
1F
100
AcDbEntity
  8
1
100
AcDbLine
 10
297.093793
 20
290.030432
 30
0.0
 11
297.18933
 21
289.988767
 31
0.0
  0
LINE
  5
159
330
1F
100
AcDbEntity
  8
1
100
AcDbLine
 10
297.093793
 20
290.030432
 30
0.0
 11
294.096762
 21
290.059761
 31
0.0
  0
LINE
  5
15A
330
1F
100
AcDbEntity
  8
1
100
AcDbLine
 10
297.185901
 20
289.962794
 30
0.0
 11
293.989068
 21
289.994079
 31
0.0
  0
LINE
  5
15B
330
1F
100
AcDbEntity
  8
1
100
AcDbLine
 10
293.744279
 20
273.416203
 30
0.0
 11
293.656288
 21
273.417064
 31
0.0
  0
LINE
  5
15C
330
1F
100
AcDbEntity
  8
1
100
AcDbLine
 10
293.56075
 20
273.458729
 30
0.0
 11
293.5126180000001
 21
277.800608
 31
0.0
  0
LINE
  5
15D
330
1F
100
AcDbEntity
  8
1
100
AcDbLine
 10
293.56075
 20
273.458729
 30
0.0
 11
293.656288
 21
273.417064
 31
0.0
  0
LINE
  5
15E
330
1F
100
AcDbEntity
  8
1
100
AcDbLine
 10
293.656288
 20
273.417064
 30
0.0
 11
293.677249
 21
273.818896
 31
0.0
  0
LINE
  5
15F
330
1F
100
AcDbEntity
  8
1
100
AcDbLine
 10
299.232209
 20
253.714224
 30
0.0
 11
296.235178
 21
253.613979
 31
0.0
  0
LINE
  5
160
330
1F
100
AcDbEntity
  8
1
100
AcDbLine
 10
299.327746
 20
253.804141
 30
0.0
 11
299.375879
 21
256.090467
 31
0.0
  0
LINE
  5
161
330
1F
100
AcDbEntity
  8
1
100
AcDbLine
 10
299.211248
 20
253.907647
 30
0.0
 11
299.232209
 21
253.714224
 31
0.0
  0
LINE
  5
162
330
1F
100
AcDbEntity
  8
1
100
AcDbLine
 10
299.232209
 20
253.714224
 30
0.0
 11
299.327746
 21
253.804141
 31
0.0
  0
LINE
  5
163
330
1F
100
AcDbEntity
  8
1
100
AcDbLine
 10
296.196186
 20
253.645106
 30
0.0
 11
296.235178
 21
253.613979
 31
0.0
  0
LINE
  5
164
330
1F
100
AcDbEntity
  8
1
100
AcDbLine
 10
296.235178
 20
253.613979
 30
0.0
 11
296.267628
 21
253.809189
 31
0.0
  0
LINE
  5
165
330
1F
100
AcDbEntity
  8
1
100
AcDbLine
 10
298.899224
 20
270.78788
 30
0.0
 11
298.895999
 21
270.85187
 31
0.0
  0
LINE
  5
166
330
1F
100
AcDbEntity
  8
1
100
AcDbLine
 10
295.699166
 20
270.744942
 30
0.0
 11
295.794704
 21
270.834859
 31
0.0
  0
LINE
  5
167
330
1F
100
AcDbEntity
  8
1
100
AcDbLine
 10
298.791735
 20
270.935104
 30
0.0
 11
298.895999
 21
270.85187
 31
0.0
  0
LINE
  5
168
330
1F
100
AcDbEntity
  8
1
100
AcDbLine
 10
298.791735
 20
270.935104
 30
0.0
 11
295.794704
 21
270.834859
 31
0.0
  0
LINE
  5
169
330
1F
100
AcDbEntity
  8
1
100
AcDbLine
 10
298.899429
 20
270.787886
 30
0.0
 11
295.702596
 21
270.680958
 31
0.0
  0
LINE
  5
16A
330
1F
100
AcDbEntity
  8
1
100
AcDbLine
 10
299.375879
 20
256.090467
 30
0.0
 11
299.422955
 21
258.78766
 31
0.0
  0
LINE
  5
16B
330
1F
100
AcDbEntity
  8
1
100
AcDbLine
 10
296.267628
 20
253.809189
 30
0.0
 11
296.17932
 21
255.976812
 31
0.0
  0
LINE
  5
16C
330
1F
100
AcDbEntity
  8
1
100
AcDbLine
 10
299.211248
 20
253.907647
 30
0.0
 11
296.267628
 21
253.809189
 31
0.0
  0
LINE
  5
16D
330
1F
100
AcDbEntity
  8
1
100
AcDbLine
 10
299.375879
 20
256.090467
 30
0.0
 11
299.211248
 21
253.907647
 31
0.0
  0
LINE
  5
16E
330
1F
100
AcDbEntity
  8
1
100
AcDbLine
 10
299.2320410000001
 20
264.218071
 30
0.0
 11
298.99675
 21
268.886505
 31
0.0
  0
LINE
  5
16F
330
1F
100
AcDbEntity
  8
1
100
AcDbLine
 10
298.99675
 20
268.886505
 30
0.0
 11
295.799918
 21
268.779577
 31
0.0
  0
LINE
  5
170
330
1F
100
AcDbEntity
  8
1
100
AcDbLine
 10
299.440432
 20
259.936929
 30
0.0
 11
296.2436
 21
259.830001
 31
0.0
  0
LINE
  5
171
330
1F
100
AcDbEntity
  8
1
100
AcDbLine
 10
299.422955
 20
258.78766
 30
0.0
 11
296.226422
 21
258.680742
 31
0.0
  0
LINE
  5
172
330
1F
100
AcDbEntity
  8
1
100
AcDbLine
 10
299.2320410000001
 20
264.218071
 30
0.0
 11
299.295485
 21
260.443035
 31
0.0
  0
LINE
  5
173
330
1F
100
AcDbEntity
  8
1
100
AcDbLine
 10
299.440845
 20
259.980865
 30
0.0
 11
299.2320410000001
 21
264.218071
 31
0.0
  0
LINE
  5
174
330
1F
100
AcDbEntity
  8
1
100
AcDbLine
 10
296.2436
 20
259.830001
 30
0.0
 11
296.24314
 21
259.82396
 31
0.0
  0
LINE
  5
175
330
1F
100
AcDbEntity
  8
1
100
AcDbLine
 10
296.035209
 20
264.111143
 30
0.0
 11
295.799918
 21
268.779577
 31
0.0
  0
LINE
  5
176
330
1F
100
AcDbEntity
  8
1
100
AcDbLine
 10
295.702596
 20
270.680958
 30
0.0
 11
295.7035259999999
 21
270.658439
 31
0.0
  0
LINE
  5
177
330
1F
100
AcDbEntity
  8
1
100
AcDbLine
 10
295.7035259999999
 20
270.658439
 30
0.0
 11
295.699166
 21
270.744942
 31
0.0
  0
LINE
  5
178
330
1F
100
AcDbEntity
  8
1
100
AcDbLine
 10
295.699166
 20
270.744942
 30
0.0
 11
295.694565
 21
270.526384
 31
0.0
  0
LINE
  5
179
330
1F
100
AcDbEntity
  8
1
100
AcDbLine
 10
249.444248
 20
237.234018
 30
0.0
 11
249.444248
 21
221.434018
 31
0.0
  0
LINE
  5
17A
330
1F
100
AcDbEntity
  8
1
100
AcDbLine
 10
250.444248
 20
268.434018
 30
0.0
 11
250.444248
 21
250.634018
 31
0.0
  0
LINE
  5
17B
330
1F
100
AcDbEntity
  8
1
100
AcDbLine
 10
256.444248
 20
249.834018
 30
0.0
 11
256.444248
 21
239.034018
 31
0.0
  0
LINE
  5
17C
330
1F
100
AcDbEntity
  8
80
100
AcDbLine
 10
249.444248
 20
243.434445
 30
0.0
 11
249.444248
 21
245.433592
 31
0.0
  0
LINE
  5
17D
330
1F
100
AcDbEntity
  8
80
100
AcDbLine
 10
248.444675
 20
244.434018
 30
0.0
 11
250.443822
 21
244.434018
 31
0.0
  0
LINE
  5
17E
330
1F
100
AcDbEntity
  8
1
100
AcDbLine
 10
250.444248
 20
250.634018
 30
0.0
 11
255.644248
 21
250.634018
 31
0.0
  0
LINE
  5
17F
330
1F
100
AcDbEntity
  8
81
100
AcDbLine
 10
297.444248
 20
294.4340180000001
 30
0.0
 11
301.444248
 21
294.4340180000001
 31
0.0
  0
LINE
  5
180
330
1F
100
AcDbEntity
  8
1
100
AcDbLine
 10
250.444248
 20
220.434018
 30
0.0
 11
290.744248
 21
220.434018
 31
0.0
  0
LINE
  5
181
330
1F
100
AcDbEntity
  8
1
100
AcDbLine
 10
255.644248
 20
238.234018
 30
0.0
 11
250.444248
 21
238.234018
 31
0.0
  0
LINE
  5
182
330
1F
100
AcDbEntity
  8
81
100
AcDbLine
 10
299.444248
 20
292.4340180000001
 30
0.0
 11
299.444248
 21
296.434018
 31
0.0
  0
LINE
  5
183
330
1F
100
AcDbEntity
  8
SK3
100
AcDbLine
 10
250.444248
 20
230.934018
 30
0.0
 11
267.444248
 21
230.934018
 31
0.0
  0
LINE
  5
184
330
1F
100
AcDbEntity
  8
1
100
AcDbLine
 10
249.444248
 20
221.434018
 30
0.0
 11
250.444248
 21
220.434018
 31
0.0
  0
LINE
  5
185
330
1F
100
AcDbEntity
  8
1
100
AcDbLine
 10
250.444248
 20
268.434018
 30
0.0
 11
249.444248
 21
267.4340180000001
 31
0.0
  0
LINE
  5
186
330
1F
100
AcDbEntity
  8
1
100
AcDbLine
 10
290.744248
 20
268.434018
 30
0.0
 11
250.444248
 21
268.434018
 31
0.0
  0
LINE
  5
187
330
1F
100
AcDbEntity
  8
1
100
AcDbLine
 10
296.620868
 20
273.79009
 30
0.0
 11
296.643445
 21
273.5101509999999
 31
0.0
  0
LINE
  5
188
330
1F
100
AcDbEntity
  8
1
100
AcDbLine
 10
293.5126180000001
 20
277.800608
 30
0.0
 11
293.465542
 21
282.728625
 31
0.0
  0
LINE
  5
189
330
1F
100
AcDbEntity
  8
1
100
AcDbLine
 10
293.677249
 20
273.818896
 30
0.0
 11
293.5126180000001
 21
277.800608
 31
0.0
  0
LINE
  5
18A
330
1F
100
AcDbEntity
  8
1
100
AcDbLine
 10
296.620868
 20
273.79009
 30
0.0
 11
293.677249
 21
273.818896
 31
0.0
  0
LINE
  5
18B
330
1F
100
AcDbEntity
  8
1
100
AcDbLine
 10
296.709229
 20
277.759376
 30
0.0
 11
296.620868
 21
273.79009
 31
0.0
  0
LINE
  5
18C
330
1F
100
AcDbEntity
  8
1
100
AcDbLine
 10
293.656455
 20
286.936375
 30
0.0
 11
293.891746
 21
289.130341
 31
0.0
  0
LINE
  5
18D
330
1F
100
AcDbEntity
  8
1
100
AcDbLine
 10
297.088579
 20
289.099056
 30
0.0
 11
293.891746
 21
289.130341
 31
0.0
  0
LINE
  5
18E
330
1F
100
AcDbEntity
  8
1
100
AcDbLine
 10
293.593012
 20
285.163019
 30
0.0
 11
293.656455
 21
286.936375
 31
0.0
  0
LINE
  5
18F
330
1F
100
AcDbEntity
  8
1
100
AcDbLine
 10
293.447652
 20
284.849996
 30
0.0
 11
293.656455
 21
286.936375
 31
0.0
  0
LINE
  5
190
330
1F
100
AcDbEntity
  8
1
100
AcDbLine
 10
296.644897
 20
284.745528
 30
0.0
 11
293.448064
 21
284.776812
 31
0.0
  0
LINE
  5
191
330
1F
100
AcDbEntity
  8
1
100
AcDbLine
 10
296.662125
 20
282.697343
 30
0.0
 11
293.465542
 21
282.728625
 31
0.0
  0
LINE
  5
192
330
1F
100
AcDbEntity
  8
1
100
AcDbLine
 10
297.18933
 20
289.988767
 30
0.0
 11
297.193932
 21
289.573711
 31
0.0
  0
LINE
  5
193
330
1F
100
AcDbEntity
  8
1
100
AcDbLine
 10
297.184971
 20
289.948115
 30
0.0
 11
297.18933
 21
289.988767
 31
0.0
  0
LINE
  5
194
330
1F
100
AcDbEntity
  8
1
100
AcDbLine
 10
297.185901
 20
289.962794
 30
0.0
 11
297.184971
 21
289.948115
 31
0.0
  0
LINE
  5
195
330
1F
100
AcDbEntity
  8
1
100
AcDbLine
 10
296.853288
 20
286.905091
 30
0.0
 11
297.088579
 21
289.099056
 31
0.0
  0
LINE
  5
196
330
1F
100
AcDbEntity
  8
1
100
AcDbLine
 10
296.644897
 20
284.745528
 30
0.0
 11
296.645357
 21
284.7273990000001
 31
0.0
  0
LINE
  5
197
330
1F
100
AcDbEntity
  8
1
100
AcDbLine
 10
293.447652
 20
284.849996
 30
0.0
 11
293.54668
 21
284.940408
 31
0.0
  0
LINE
  5
198
330
1F
100
AcDbEntity
  8
1
100
AcDbLine
 10
293.448351
 20
284.776811
 30
0.0
 11
293.447652
 21
284.849996
 31
0.0
  0
LINE
  5
199
330
1F
100
AcDbEntity
  8
1
100
AcDbLine
 10
296.645357
 20
284.7273990000001
 30
0.0
 11
296.644485
 21
284.818712
 31
0.0
  0
LINE
  5
19A
330
1F
100
AcDbEntity
  8
1
100
AcDbLine
 10
296.853288
 20
286.905091
 30
0.0
 11
296.536631
 21
285.134213
 31
0.0
  0
LINE
  5
19B
330
1F
100
AcDbEntity
  8
1
100
AcDbLine
 10
296.543711
 20
284.9110790000001
 30
0.0
 11
296.644485
 21
284.818712
 31
0.0
  0
LINE
  5
19C
330
1F
100
AcDbEntity
  8
1
100
AcDbLine
 10
296.644485
 20
284.818712
 30
0.0
 11
296.853288
 21
286.905091
 31
0.0
  0
LINE
  5
19D
330
1F
100
AcDbEntity
  8
1
100
AcDbLine
 10
293.54668
 20
284.940408
 30
0.0
 11
293.593012
 21
285.163019
 31
0.0
  0
LINE
  5
19E
330
1F
100
AcDbEntity
  8
1
100
AcDbLine
 10
296.543711
 20
284.9110790000001
 30
0.0
 11
293.54668
 21
284.940408
 31
0.0
  0
LINE
  5
19F
330
1F
100
AcDbEntity
  8
1
100
AcDbLine
 10
296.536631
 20
285.134213
 30
0.0
 11
296.543711
 21
284.9110790000001
 31
0.0
  0
LINE
  5
1A0
330
1F
100
AcDbEntity
  8
1
100
AcDbLine
 10
296.536631
 20
285.134213
 30
0.0
 11
293.593012
 21
285.163019
 31
0.0
  0
LINE
  5
1A1
330
1F
100
AcDbEntity
  8
1
100
AcDbLine
 10
299.178803
 20
253.712385
 30
0.0
 11
299.144245
 21
252.925177
 31
0.0
  0
LINE
  5
1A2
330
1F
100
AcDbEntity
  8
1
100
AcDbLine
 10
299.440432
 20
259.692576
 30
0.0
 11
299.439973
 21
259.684222
 31
0.0
  0
LINE
  5
1A3
330
1F
100
AcDbEntity
  8
1
100
AcDbLine
 10
293.7442479999999
 20
198.530992
 30
0.0
 11
293.7442479999999
 21
197.7174399999999
 31
0.0
  0
LINE
  5
1A4
330
1F
100
AcDbEntity
  8
1
100
AcDbLine
 10
299.144248
 20
290.773686
 30
0.0
 11
299.144248
 21
283.665316
 31
0.0
  0
LINE
  5
1A5
330
1F
100
AcDbEntity
  8
1
100
AcDbLine
 10
299.144248
 20
216.501029
 30
0.0
 11
299.144248
 21
214.299041
 31
0.0
  0
LINE
  5
1A6
330
1F
100
AcDbEntity
  8
1
100
AcDbLine
 10
293.7442479999999
 20
216.501029
 30
0.0
 11
293.7442479999999
 21
205.190669
 31
0.0
  0
LINE
  5
1A7
330
1F
100
AcDbEntity
  8
1
100
AcDbLine
 10
293.7442479999999
 20
292.147958
 30
0.0
 11
293.7442479999999
 21
290.773598
 31
0.0
  0
LINE
  5
1A8
330
1F
100
AcDbEntity
  8
1
100
AcDbLine
 10
249.444248
 20
267.4340180000001
 30
0.0
 11
249.444248
 21
251.634018
 31
0.0
  0
LINE
  5
1A9
330
1F
100
AcDbEntity
  8
1
100
AcDbLine
 10
250.444248
 20
238.234018
 30
0.0
 11
250.444248
 21
220.434018
 31
0.0
  0
LINE
  5
1AA
330
1F
100
AcDbEntity
  8
1
100
AcDbLine
 10
293.7442479999999
 20
290.773686
 30
0.0
 11
299.144248
 21
290.773686
 31
0.0
  0
LINE
  5
1AB
330
1F
100
AcDbEntity
  8
1
100
AcDbLine
 10
293.7442479999999
 20
290.773686
 30
0.0
 11
293.7442479999999
 21
289.888052
 31
0.0
  0
LINE
  5
1AC
330
1F
100
AcDbEntity
  8
1
100
AcDbLine
 10
299.144248
 20
198.530992
 30
0.0
 11
299.144248
 21
195.934018
 31
0.0
  0
LINE
  5
1AD
330
1F
100
AcDbEntity
  8
SK3
100
AcDbLine
 10
267.444248
 20
257.934018
 30
0.0
 11
267.444248
 21
230.934018
 31
0.0
  0
LINE
  5
1AE
330
1F
100
AcDbEntity
  8
SK3
100
AcDbLine
 10
267.444248
 20
257.934018
 30
0.0
 11
250.444248
 21
257.934018
 31
0.0
  0
LINE
  5
1AF
330
1F
100
AcDbEntity
  8
NOCUT
100
AcDbLine
 10
293.7442479999999
 20
271.434018
 30
0.0
 11
293.7442479999999
 21
292.934018
 31
0.0
  0
LINE
  5
1B1
330
1F
100
AcDbEntity
  8
NOCUT
100
AcDbLine
 10
293.7442479999999
 20
292.934018
 30
0.0
 11
299.144248
 21
292.934018
 31
0.0
  0
LINE
  5
1B2
330
1F
100
AcDbEntity
  8
NOCUT
100
AcDbLine
 10
299.144248
 20
292.934018
 30
0.0
 11
299.144248
 21
255.934018
 31
0.0
  0
LINE
  5
1B3
330
1F
100
AcDbEntity
  8
NOCUT
100
AcDbLine
 10
299.144248
 20
255.934018
 30
0.0
 11
298.644248
 21
255.434018
 31
0.0
  0
LINE
  5
1B4
330
1F
100
AcDbEntity
  8
NOCUT
100
AcDbLine
 10
298.644248
 20
255.434018
 30
0.0
 11
280.844248
 21
255.434018
 31
0.0
  0
LINE
  5
1B5
330
1F
100
AcDbEntity
  8
NOCUT
100
AcDbLine
 10
280.444248
 20
255.034018
 30
0.0
 11
280.444248
 21
251.934018
 31
0.0
  0
LINE
  5
1B6
330
1F
100
AcDbEntity
  8
NOCUT
100
AcDbLine
 10
280.444248
 20
251.934018
 30
0.0
 11
279.944248
 21
251.434018
 31
0.0
  0
LINE
  5
1B7
330
1F
100
AcDbEntity
  8
NOCUT
100
AcDbLine
 10
279.944248
 20
251.434018
 30
0.0
 11
271.944248
 21
251.434018
 31
0.0
  0
LINE
  5
1B8
330
1F
100
AcDbEntity
  8
NOCUT
100
AcDbLine
 10
271.944248
 20
251.434018
 30
0.0
 11
271.444248
 21
251.934018
 31
0.0
  0
LINE
  5
1B9
330
1F
100
AcDbEntity
  8
NOCUT
100
AcDbLine
 10
271.444248
 20
251.934018
 30
0.0
 11
271.444248
 21
258.434018
 31
0.0
  0
LINE
  5
1BA
330
1F
100
AcDbEntity
  8
NOCUT
100
AcDbLine
 10
271.444248
 20
258.434018
 30
0.0
 11
267.444248
 21
258.434018
 31
0.0
  0
LINE
  5
1BB
330
1F
100
AcDbEntity
  8
NOCUT
100
AcDbLine
 10
267.444248
 20
258.434018
 30
0.0
 11
267.444248
 21
257.934018
 31
0.0
  0
LINE
  5
1BC
330
1F
100
AcDbEntity
  8
NOCUT
100
AcDbLine
 10
250.444248
 20
257.934018
 30
0.0
 11
249.444248
 21
258.934018
 31
0.0
  0
LINE
  5
1BD
330
1F
100
AcDbEntity
  8
NOCUT
100
AcDbLine
 10
249.444248
 20
258.934018
 30
0.0
 11
249.444248
 21
267.4340180000001
 31
0.0
  0
LINE
  5
1BE
330
1F
100
AcDbEntity
  8
NOCUT
100
AcDbLine
 10
249.444248
 20
267.4340180000001
 30
0.0
 11
250.444248
 21
268.434018
 31
0.0
  0
LINE
  5
1BF
330
1F
100
AcDbEntity
  8
NOCUT
100
AcDbLine
 10
267.444248
 20
257.934018
 30
0.0
 11
250.444248
 21
257.934018
 31
0.0
  0
LINE
  5
1C0
330
1F
100
AcDbEntity
  8
NOCUT
100
AcDbLine
 10
250.444248
 20
268.434018
 30
0.0
 11
290.744248
 21
268.434018
 31
0.0
  0
ARC
  5
1C6
330
1F
100
AcDbEntity
  8
1
100
AcDbCircle
 10
290.744248
 20
217.434018
 30
0.0
 40
3.0
100
AcDbArc
 50
0.0
 51
90.0
  0
ARC
  5
1C7
330
1F
100
AcDbEntity
  8
1
100
AcDbCircle
 10
290.744248
 20
271.434018
 30
0.0
 40
3.0
100
AcDbArc
 50
270.0
 51
0.0
  0
ARC
  5
1C9
330
1F
100
AcDbEntity
  8
NOCUT
100
AcDbCircle
 10
290.744248
 20
271.434018
 30
0.0
 40
3.0
100
AcDbArc
 50
270.0
 51
360.0
  0
ARC
  5
1CA
330
1F
100
AcDbEntity
  8
NOCUT
100
AcDbCircle
 10
280.844248
 20
255.034018
 30
0.0
 40
0.3999999999999986
100
AcDbArc
 50
90.0
 51
180.0
  0
ELLIPSE
  5
1CB
330
1F
100
AcDbEntity
  8
1
100
AcDbEllipse
 10
293.910196
 20
240.082976
 30
0.0
 11
0.1771618586701402
 21
3.996074783563557
 31
0.0
210
0.0
220
0.0
230
1.0
 40
0.004111
 41
4.51603546025125
 42
5.079189621408428
  0
ELLIPSE
  5
1CC
330
1F
100
AcDbEntity
  8
1
100
AcDbEllipse
 10
297.107029
 20
239.941248
 30
0.0
 11
0.1771618586701402
 21
3.996074783563557
 31
0.0
210
0.0
220
0.0
230
1.0
 40
0.004111
 41
4.516035460251333
 42
5.079189621408429
  0
ELLIPSE
  5
1CD
330
1F
100
AcDbEntity
  8
1
100
AcDbEllipse
 10
296.485412
 20
225.303217
 30
0.0
 11
0.1771618586701402
 21
3.996074783563557
 31
0.0
210
0.0
220
0.0
230
1.0
 40
0.004111
 41
0.0002579384354338
 42
0.3668006410235964
  0
ELLIPSE
  5
1CE
330
1F
100
AcDbEntity
  8
1
100
AcDbEllipse
 10
295.781467
 20
209.881764
 30
0.0
 11
-0.153031156776426
 21
3.997071611199336
 31
0.0
210
0.0
220
0.0
230
1.0
 40
0.022707
 41
5.143828327086206
 42
5.706982488243428
  0
ELLIPSE
  5
1CF
330
1F
100
AcDbEntity
  8
1
100
AcDbEllipse
 10
299.245445
 20
216.047319
 30
0.0
 11
-0.153031156776426
 21
3.997071611199336
 31
0.0
210
0.0
220
0.0
230
1.0
 40
0.022707
 41
2.002235673496413
 42
2.565389834653703
  0
ELLIPSE
  5
1D0
330
1F
100
AcDbEntity
  8
1
100
AcDbEllipse
 10
298.9783
 20
210.004157
 30
0.0
 11
-0.153031156776426
 21
3.997071611199336
 31
0.0
210
0.0
220
0.0
230
1.0
 40
0.022707
 41
5.143828327086242
 42
5.706982488243429
  0
ELLIPSE
  5
1D1
330
1F
100
AcDbEntity
  8
1
100
AcDbEllipse
 10
299.599918
 20
202.067377
 30
0.0
 11
-0.153031156776426
 21
3.997071611199336
 31
0.0
210
0.0
220
0.0
230
1.0
 40
0.022707
 41
0.4314393467015433
 42
0.9945935078587691
  0
ELLIPSE
  5
1D2
330
1F
100
AcDbEntity
  8
1
100
AcDbEllipse
 10
299.111873
 20
213.025738
 30
0.0
 11
-0.1492053778570153
 21
3.897144820919354
 31
0.0
210
0.0
220
0.0
230
0.9999999999999998
 40
0.022707
 41
1.2386888037579
 42
5.059945414793878
  0
ELLIPSE
  5
1D3
330
1F
100
AcDbEntity
  8
1
100
AcDbEllipse
 10
299.245445
 20
218.491826
 30
0.0
 11
0.0391425854301752
 21
3.999808477665629
 31
0.0
210
0.0
220
0.0
230
1.0
 40
0.043393
 41
3.259519729205301
 42
3.822673890362542
  0
ELLIPSE
  5
1D4
330
1F
100
AcDbEntity
  8
1
100
AcDbEllipse
 10
299.599918
 20
206.608318
 30
0.0
 11
0.0391425854301752
 21
3.999808477665629
 31
0.0
210
0.0
220
0.0
230
1.0
 40
0.043393
 41
1.688723402410392
 42
1.782488613267515
  0
ELLIPSE
  5
1D5
330
1F
100
AcDbEntity
  8
1
100
AcDbEllipse
 10
299.599918
 20
206.608318
 30
0.0
 11
0.0391425854301752
 21
3.999808477665629
 31
0.0
210
0.0
220
0.0
230
1.0
 40
0.043393
 41
1.831271744811046
 42
1.940101205099216
  0
ELLIPSE
  5
1D6
330
1F
100
AcDbEntity
  8
1
100
AcDbEllipse
 10
299.599918
 20
206.608318
 30
0.0
 11
0.0391425854301752
 21
3.999808477665629
 31
0.0
210
0.0
220
0.0
230
1.0
 40
0.043393
 41
2.219593103141184
 42
2.251877563567592
  0
ELLIPSE
  5
1D7
330
1F
100
AcDbEntity
  8
1
100
AcDbEllipse
 10
299.111873
 20
207.128647
 30
0.0
 11
0.0381640207944209
 21
3.899813265723989
 31
0.0
210
0.0
220
0.0
230
1.0
 40
0.043393
 41
3.551155359861301
 42
3.830953211595246
  0
ELLIPSE
  5
1D8
330
1F
100
AcDbEntity
  8
1
100
AcDbEllipse
 10
297.107029
 20
193.0200669999999
 30
0.0
 11
0.0704442143666296
 21
3.999379653479056
 31
0.0
210
0.0
220
0.0
230
1.0
 40
0.040852
 41
0.0521939107459577
 42
0.5109637746370055
  0
ELLIPSE
  5
1D9
330
1F
100
AcDbEntity
  8
1
100
AcDbEllipse
 10
293.288579
 20
194.872425
 30
0.0
 11
0.0704442143666296
 21
3.999379653479056
 31
0.0
210
0.0
220
0.0
230
1.0
 40
0.040852
 41
4.660198593864483
 42
5.223352755021707
  0
ELLIPSE
  5
1DA
330
1F
100
AcDbEntity
  8
1
100
AcDbEllipse
 10
293.910196
 20
193.076376
 30
0.0
 11
0.0704442143666296
 21
3.999379653479056
 31
0.0
210
0.0
220
0.0
230
1.0
 40
0.040852
 41
6.230994920659423
 42
6.794149081816589
  0
ELLIPSE
  5
1DB
330
1F
100
AcDbEntity
  8
1
100
AcDbEllipse
 10
293.643051
 20
210.856917
 30
0.0
 11
0.0704442143666296
 21
3.999379653479056
 31
0.0
210
0.0
220
0.0
230
1.0
 40
0.040852
 41
3.089402267069627
 42
3.652556428226798
  0
ELLIPSE
  5
1DC
330
1F
100
AcDbEntity
  8
1
100
AcDbEllipse
 10
293.776624
 20
201.966646
 30
0.0
 11
0.0686831090074639
 21
3.899395162142082
 31
0.0
210
0.0
220
0.0
230
0.9999999999999998
 40
0.040852
 41
0.5950429924808397
 42
3.360920866155756
  0
ELLIPSE
  5
1DD
330
1F
100
AcDbEntity
  8
1
100
AcDbEllipse
 10
298.06848
 20
244.435777
 30
0.0
 11
-1.857863578385421
 21
48.50193588993809
 31
0.0
210
0.0
220
0.0
230
1.0
 40
0.022696
 41
2.241099903629542
 42
2.253478683154848
  0
ELLIPSE
  5
1DE
330
1F
100
AcDbEntity
  8
1
100
AcDbEllipse
 10
293.956519
 20
228.463495
 30
0.0
 11
0.1328713940026051
 21
2.997056087672668
 31
0.0
210
0.0
220
0.0
230
0.9999999999999998
 40
0.004111
 41
4.177982207763831
 42
4.816663015996539
  0
ELLIPSE
  5
1DF
330
1F
100
AcDbEntity
  8
1
100
AcDbEllipse
 10
298.931978
 20
253.715717
 30
0.0
 11
-0.1002880713800254
 21
2.998323248540569
 31
0.0
210
0.0
220
0.0
230
1.0
 40
0.029359
 41
2.094440939473211
 42
2.733121747705931
  0
ELLIPSE
  5
1E0
330
1F
100
AcDbEntity
  8
1
100
AcDbEllipse
 10
295.365823
 20
244.434018
 30
0.0
 11
-1.857819881985577
 21
48.49998167251921
 31
0.0
210
0.0
220
0.0
230
0.9999999999999998
 40
0.022696
 41
2.252056130891469
 42
2.258517210484136
  0
ELLIPSE
  5
1E1
330
1F
100
AcDbEntity
  8
1
100
AcDbEllipse
 10
326.756065
 20
244.4217529999999
 30
0.0
 11
-610.4097932815863
 21
36.13646354715982
 31
0.0
210
0.0
220
0.0
230
1.0
 40
0.052961
 41
1.523000948708518
 42
1.525472435031985
  0
ELLIPSE
  5
1E2
330
1F
100
AcDbEntity
  8
1
100
AcDbEllipse
 10
266.087917
 20
244.484225
 30
0.0
 11
-610.8623461221822
 21
-10.14643274774663
 31
0.0
210
0.0
220
0.0
230
1.0
 40
0.077723
 41
1.618001753902257
 42
1.620471423785521
  0
ELLIPSE
  5
1E3
330
1F
100
AcDbEntity
  8
1
100
AcDbEllipse
 10
297.522674
 20
244.434018
 30
0.0
 11
-0.8556988097094007
 21
-48.49998738464584
 31
0.0
210
0.0
220
0.0
230
1.0
 40
0.04088
 41
0.2546087485790097
 42
0.2610698510557825
  0
ELLIPSE
  5
1E4
330
1F
100
AcDbEntity
  8
1
100
AcDbEllipse
 10
294.819995
 20
244.433338
 30
0.0
 11
-0.8556941107353967
 21
-48.49930628559693
 31
0.0
210
0.0
220
0.0
230
1.0
 40
0.04088
 41
0.2596630438058443
 42
0.272042271632516
  0
ELLIPSE
  5
1E5
330
1F
100
AcDbEntity
  8
1
100
AcDbEllipse
 10
347.554122
 20
241.031029
 30
0.0
 11
-1088.065648519336
 21
9.841458738838264
 31
0.0
210
0.0
220
0.0
230
0.9999999999999998
 40
0.040446
 41
1.522384659667643
 42
1.523487824197889
  0
ELLIPSE
  5
1E6
330
1F
100
AcDbEntity
  8
1
100
AcDbEllipse
 10
266.131571
 20
244.450476
 30
0.0
 11
-610.4221213360506
 21
-19.82791586263541
 31
0.0
210
0.0
220
0.0
230
0.9999999999999996
 40
0.07248
 41
4.659103490335783
 42
4.659128204945793
  0
ELLIPSE
  5
1E7
330
1F
100
AcDbEntity
  8
1
100
AcDbEllipse
 10
297.522674
 20
244.434018
 30
0.0
 11
-0.4755235998081188
 21
-48.49999560597074
 31
0.0
210
0.0
220
0.0
230
0.9999999999999998
 40
0.043432
 41
3.509988415684888
 42
3.770548405441002
  0
ELLIPSE
  5
1E8
330
1F
100
AcDbEntity
  8
1
100
AcDbEllipse
 10
299.599918
 20
293.995611
 30
0.0
 11
0.0704442143666296
 21
3.999379653479056
 31
0.0
210
0.0
220
0.0
230
1.0
 40
0.040852
 41
1.524502825994431
 42
2.08176010143189
  0
ELLIPSE
  5
1E9
330
1F
100
AcDbEntity
  8
1
100
AcDbEllipse
 10
299.245445
 20
278.01112
 30
0.0
 11
0.0704442143666296
 21
3.999379653479056
 31
0.0
210
0.0
220
0.0
230
1.0
 40
0.040852
 41
0.0521939107462481
 42
0.5109637746370428
  0
ELLIPSE
  5
1EA
330
1F
100
AcDbEntity
  8
1
100
AcDbEllipse
 10
296.403085
 20
294.05192
 30
0.0
 11
0.0704442143666296
 21
3.999379653479056
 31
0.0
210
0.0
220
0.0
230
1.0
 40
0.040852
 41
1.524502825994436
 42
2.016125714844487
  0
ELLIPSE
  5
1EB
330
1F
100
AcDbEntity
  8
1
100
AcDbEllipse
 10
295.365823
 20
244.434018
 30
0.0
 11
-1.623630432469488
 21
48.49997657973944
 31
0.0
210
0.0
220
0.0
230
0.9999999999999998
 40
0.029355
 41
5.025354130007934
 42
5.285914119778196
  0
ELLIPSE
  5
1EC
330
1F
100
AcDbEntity
  8
1
100
AcDbEllipse
 10
326.758778
 20
244.442094
 30
0.0
 11
-610.438815634298
 21
42.06200452239918
 31
0.0
210
0.0
220
0.0
230
1.0
 40
0.039524
 41
4.765943612474394
 42
4.766045093848316
  0
ELLIPSE
  5
1ED
330
1F
100
AcDbEntity
  8
1
100
AcDbEllipse
 10
298.068498
 20
244.434051
 30
0.0
 11
-1.623629919242288
 21
48.49993663107156
 31
0.0
210
0.0
220
0.0
230
0.9999999999999998
 40
0.029355
 41
5.289140833228263
 42
5.29688437593125
  0
ELLIPSE
  5
1EE
330
1F
100
AcDbEntity
  8
1
100
AcDbEllipse
 10
297.522674
 20
244.434018
 30
0.0
 11
-2.150233839300769
 21
-48.49999914152832
 31
0.0
210
0.0
220
0.0
230
1.0
 40
0.004107
 41
4.766381737192488
 42
5.02694172724498
  0
ELLIPSE
  5
1EF
330
1F
100
AcDbEntity
  8
1
100
AcDbEllipse
 10
294.820155
 20
244.435237
 30
0.0
 11
-2.150788654434454
 21
-48.5123999165022
 31
0.0
210
0.0
220
0.0
230
1.0
 40
0.004108
 41
4.755425450921197
 42
4.767801432010462
  0
ELLIPSE
  5
1F0
330
1F
100
AcDbEntity
  8
1
100
AcDbEllipse
 10
293.910196
 20
293.102569
 30
0.0
 11
0.0391425854301752
 21
3.999808477665629
 31
0.0
210
0.0
220
0.0
230
1.0
 40
0.043393
 41
3.259519729205261
 42
3.82267389036245
  0
ELLIPSE
  5
1F1
330
1F
100
AcDbEntity
  8
1
100
AcDbEllipse
 10
299.111873
 20
252.786311
 30
0.0
 11
0.1727328122033867
 21
3.896172913974469
 31
0.0
210
0.0
220
0.0
230
1.0
 40
0.004111
 41
4.807670850065125
 42
4.95247870466248
  0
ELLIPSE
  5
1F2
330
1F
100
AcDbEntity
  8
1
100
AcDbEllipse
 10
298.9783
 20
271.823745
 30
0.0
 11
-0.1337174285067005
 21
3.997764331387426
 31
0.0
210
0.0
220
0.0
230
1.0
 40
0.029359
 41
1.83191433406129
 42
2.395068495218499
  0
ELLIPSE
  5
1F3
330
1F
100
AcDbEntity
  8
1
100
AcDbEllipse
 10
299.599918
 20
256.075694
 30
0.0
 11
-0.1337174285067005
 21
3.997764331387426
 31
0.0
210
0.0
220
0.0
230
1.0
 40
0.029359
 41
0.2611180072663747
 42
0.8242721684235805
  0
ELLIPSE
  5
1F4
330
1F
100
AcDbEntity
  8
1
100
AcDbEllipse
 10
296.403085
 20
255.968767
 30
0.0
 11
-0.1337174285067005
 21
3.997764331387426
 31
0.0
210
0.0
220
0.0
230
1.0
 40
0.029359
 41
0.2611180072664332
 42
0.7586382060901704
  0
ELLIPSE
  5
1F5
330
1F
100
AcDbEntity
  8
1
100
AcDbEllipse
 10
295.781467
 20
271.716817
 30
0.0
 11
-0.1337174285067005
 21
3.997764331387426
 31
0.0
210
0.0
220
0.0
230
1.0
 40
0.029359
 41
1.83191433406129
 42
2.395068495218497
  0
ELLIPSE
  5
1F6
330
1F
100
AcDbEntity
  8
1
100
AcDbEllipse
 10
293.288579
 20
282.259719
 30
0.0
 11
0.0391425854301752
 21
3.999808477665629
 31
0.0
210
0.0
220
0.0
230
1.0
 40
0.043393
 41
4.830316056000191
 42
5.393470217157412
  0
ELLIPSE
  5
1F7
330
1F
100
AcDbEntity
  8
1
100
AcDbEllipse
 10
297.107029
 20
293.071285
 30
0.0
 11
0.0391425854301752
 21
3.999808477665629
 31
0.0
210
0.0
220
0.0
230
1.0
 40
0.043393
 41
3.259519729205261
 42
3.822673890362448
  0
ELLIPSE
  5
1F8
330
1F
100
AcDbEntity
  8
1
100
AcDbEllipse
 10
296.485412
 20
282.228434
 30
0.0
 11
0.0391425854301752
 21
3.999808477665629
 31
0.0
210
0.0
220
0.0
230
1.0
 40
0.043393
 41
4.895949930205965
 42
5.39347021715741
  0
SPLINE
  5
1F9
330
1F
100
AcDbEntity
  8
1
100
AcDbSpline
210
0.0
220
0.0
230
1.0
 70
    12
 71
     2
 72
     6
 73
     3
 74
     0
 42
0.000000001
 43
0.0000000001
 40
0.0
 40
0.0
 40
0.0
 40
1.0
 40
1.0
 40
1.0
 10
298.3864550174887
 20
213.804329077465
 30
0.0
 41
0.5000000453183155
 10
297.7870110201113
 20
213.7843541226423
 30
0.0
 41
0.4999999546816845
 10
297.1875351076918
 20
213.764396464219
 30
0.0
 41
0.5000000453183155
  0
SPLINE
  5
1FA
330
1F
100
AcDbEntity
  8
1
100
AcDbSpline
210
0.0
220
0.0
230
1.0
 70
    12
 71
     2
 72
     6
 73
     3
 74
     0
 42
0.000000001
 43
0.0000000001
 40
0.0
 40
0.0
 40
0.0
 40
1.0
 40
1.0
 40
1.0
 10
299.1442482849923
 20
214.2990409829521
 30
0.0
 41
0.4999999679958965
 10
298.7521282749229
 20
214.2856022274202
 30
0.0
 41
0.5000000320041036
 10
298.3599906731235
 20
214.2721710124498
 30
0.0
 41
0.4999999679958965
  0
SPLINE
  5
1FB
330
1F
100
AcDbEntity
  8
1
100
AcDbSpline
210
0.0
220
0.0
230
1.0
 70
    24
 71
     3
 72
    26
 73
    22
 74
     0
 42
0.000000001
 43
0.0000000001
 40
0.0
 40
0.0
 40
0.0
 40
0.0
 40
0.1249999999999954
 40
0.2499999999999908
 40
0.2499999999999908
 40
0.3124999999999904
 40
0.3124999999999904
 40
0.3749999999999901
 40
0.3749999999999901
 40
0.4999999999999893
 40
0.4999999999999893
 40
0.6249999999999886
 40
0.749999999999988
 40
0.749999999999988
 40
0.7812499999999892
 40
0.7812499999999892
 40
0.8124999999999902
 40
0.8124999999999902
 40
0.8749999999999932
 40
0.8749999999999932
 40
1.0
 40
1.0
 40
1.0
 40
1.0
 10
293.7442482849925
 20
226.940446866026
 30
0.0
 10
293.7442482849925
 20
226.8146121600633
 30
0.0
 10
293.7442482849925
 20
226.5609307855929
 30
0.0
 10
293.7442482849925
 20
226.3033107949203
 30
0.0
 10
293.7442482849925
 20
226.108608114932
 30
0.0
 10
293.7442482849925
 20
226.0434588370862
 30
0.0
 10
293.7442482849925
 20
225.9126562882541
 30
0.0
 10
293.7442482849925
 20
225.8469503983074
 30
0.0
 10
293.7442482849925
 20
225.6493889720253
 30
0.0
 10
293.7442482849925
 20
225.5188705519597
 30
0.0
 10
293.7442482849925
 20
225.2601310098554
 30
0.0
 10
293.7442482849925
 20
225.0036893133638
 30
0.0
 10
293.7442482849925
 20
224.7518171001542
 30
0.0
 10
293.7442482849925
 20
224.5958583200334
 30
0.0
 10
293.7442482849925
 20
224.5647398001149
 30
0.0
 10
293.7442482849925
 20
224.502650763165
 30
0.0
 10
293.7442482849925
 20
224.4716486488346
 30
0.0
 10
293.7442482849925
 20
224.3791567028848
 30
0.0
 10
293.7442482849925
 20
224.3181732838043
 30
0.0
 10
293.7442482849925
 20
224.137242920238
 30
0.0
 10
293.7442482849925
 20
224.0193109443321
 30
0.0
 10
293.7442482849925
 20
223.9040898755509
 30
0.0
  0
SPLINE
  5
1FC
330
1F
100
AcDbEntity
  8
1
100
AcDbSpline
210
0.0
220
0.0
230
1.0
 70
    24
 71
     3
 72
    44
 73
    40
 74
     0
 42
0.000000001
 43
0.0000000001
 40
0.0
 40
0.0
 40
0.0
 40
0.0
 40
0.0905858531380248
 40
0.0905858531380248
 40
0.1132323164225309
 40
0.1132323164225309
 40
0.1358787797070371
 40
0.1811717062760493
 40
0.1811717062760493
 40
0.2717575594140754
 40
0.2717575594140754
 40
0.3170504859830884
 40
0.3170504859830884
 40
0.3396969492675939
 40
0.3396969492675939
 40
0.3623434125520996
 40
0.3623434125520996
 40
0.4529292656901207
 40
0.4529292656901207
 40
0.5435151188281419
 40
0.5435151188281419
 40
0.5661615821126467
 40
0.5661615821126467
 40
0.5888080453971516
 40
0.6341009719661629
 40
0.6341009719661629
 40
0.7246868251041825
 40
0.7246868251041825
 40
0.7699797516731925
 40
0.7699797516731925
 40
0.792626214957696
 40
0.792626214957696
 40
0.8152726782421991
 40
0.8152726782421991
 40
0.9058585313802073
 40
0.9058585313802073
 40
0.9964443845182156
 40
0.9964443845182156
 40
1.0
 40
1.0
 40
1.0
 40
1.0
 10
299.1442482849925
 20
223.9040898755509
 30
0.0
 10
299.1442482849925
 20
224.0643923590665
 30
0.0
 10
299.1442482849925
 20
224.2298771127134
 30
0.0
 10
299.1442482849925
 20
224.4431740980088
 30
0.0
 10
299.1442482849925
 20
224.4862031755343
 30
0.0
 10
299.1442482849925
 20
224.5726989043145
 30
0.0
 10
299.1442482849925
 20
224.7028520070218
 30
0.0
 10
299.1442482849925
 20
224.8342135746518
 30
0.0
 10
299.1442482849925
 20
225.098516910079
 30
0.0
 10
299.1442482849925
 20
225.2768189142849
 30
0.0
 10
299.1442482849925
 20
225.5474312555363
 30
0.0
 10
299.1442482849925
 20
225.6381637071708
 30
0.0
 10
299.1442482849925
 20
225.7750729515814
 30
0.0
 10
299.1442482849925
 20
225.8209311324122
 30
0.0
 10
299.1442482849925
 20
225.9124573299337
 30
0.0
 10
299.1442482849925
 20
225.9580890982801
 30
0.0
 10
299.1442482849925
 20
226.185600905563
 30
0.0
 10
299.1442482849925
 20
226.3655488905602
 30
0.0
 10
299.1442482849925
 20
226.7214176183881
 30
0.0
 10
299.1442482849925
 20
226.8973385272205
 30
0.0
 10
299.1442482849925
 20
227.1146402675726
 30
0.0
 10
299.1442482849925
 20
227.1580519944742
 30
0.0
 10
299.1442482849925
 20
227.2440603592208
 30
0.0
 10
299.1442482849925
 20
227.3719230924478
 30
0.0
 10
299.1442482849925
 20
227.4963902991643
 30
0.0
 10
299.1442482849925
 20
227.7408786651195
 30
0.0
 10
299.1442482849925
 20
227.8979630322366
 30
0.0
 10
299.1442482849925
 20
228.124677169896
 30
0.0
 10
299.1442482849925
 20
228.1987581326959
 30
0.0
 10
299.1442482849925
 20
228.3075899197222
 30
0.0
 10
299.1442482849925
 20
228.3435372529817
 30
0.0
 10
299.1442482849925
 20
228.4141453924875
 30
0.0
 10
299.1442482849925
 20
228.4488592076528
 30
0.0
 10
299.1442482849925
 20
228.6195180294852
 30
0.0
 10
299.1442482849925
 20
228.7467727715767
 30
0.0
 10
299.1442482849925
 20
228.9831160439957
 30
0.0
 10
299.1442482849925
 20
229.0922058070399
 30
0.0
 10
299.1442482849925
 20
229.1958018123493
 30
0.0
 10
299.1442482849926
 20
229.1997003286779
 30
0.0
 10
299.1442482849926
 20
229.2035838755191
 30
0.0
  0
SPLINE
  5
1FD
330
1F
100
AcDbEntity
  8
1
100
AcDbSpline
210
0.0
220
0.0
230
1.0
 70
     8
 71
     3
 72
    27
 73
    23
 74
     0
 42
0.000000001
 43
0.0000000001
 40
0.0
 40
0.0
 40
0.0
 40
0.0
 40
0.1140543423906557
 40
0.2281086847813114
 40
0.2281086847813114
 40
0.2851358559766405
 40
0.3136494415743037
 40
0.3136494415743037
 40
0.3421630271719669
 40
0.3421630271719669
 40
0.4562173695626286
 40
0.5702717119532903
 40
0.6843260543439519
 40
0.6843260543439519
 40
0.7128396399416168
 40
0.7128396399416168
 40
0.7413532255392813
 40
0.7413532255392813
 40
0.7983803967346105
 40
0.7983803967346105
 40
0.9124347391252731
 40
1.0
 40
1.0
 40
1.0
 40
1.0
 10
296.5880218459768
 20
226.6112329811878
 30
0.0
 10
296.593283514385
 20
226.7321197133293
 30
0.0
 10
296.6036200341144
 20
226.9706974318941
 30
0.0
 10
296.6135874539059
 20
227.2029612229406
 30
0.0
 10
296.6209227453662
 20
227.3747595102178
 30
0.0
 10
296.624555267391
 20
227.4600578178577
 30
0.0
 10
296.628134228712
 20
227.5444399010092
 30
0.0
 10
296.6305081642494
 20
227.6004886861171
 30
0.0
 10
296.6316875965177
 20
227.6283744026907
 30
0.0
 10
296.6375248713148
 20
227.7665832089126
 30
0.0
 10
296.6465245427665
 20
227.9809300753427
 30
0.0
 10
296.6590330702404
 20
228.2826661707893
 30
0.0
 10
296.6667135281795
 20
228.4706758787343
 30
0.0
 10
296.6713033338564
 20
228.5839798521828
 30
0.0
 10
296.6722107492765
 20
228.6064301091747
 30
0.0
 10
296.6740042821568
 20
228.6509054245565
 30
0.0
 10
296.6748914133187
 20
228.6729557598187
 30
0.0
 10
296.677512936808
 20
228.7382732584539
 30
0.0
 10
296.6792038158028
 20
228.7806154684943
 30
0.0
 10
296.6841093704526
 20
228.9041041933975
 30
0.0
 10
296.6894973925351
 20
229.0413103480056
 30
0.0
 10
296.6942038687691
 20
229.1640850271457
 30
0.0
 10
296.6961188060782
 20
229.2146729515849
 30
0.0
  0
SPLINE
  5
1FE
330
1F
100
AcDbEntity
  8
1
100
AcDbSpline
210
0.0
220
0.0
230
1.0
 70
     8
 71
     3
 72
     8
 73
     4
 74
     0
 42
0.000000001
 43
0.0000000001
 40
0.0
 40
0.0
 40
0.0
 40
0.0
 40
1.0
 40
1.0
 40
1.0
 40
1.0
 10
296.5880218459768
 20
226.6112329811878
 30
0.0
 10
296.0941798090329
 20
226.7118713021048
 30
0.0
 10
295.599931515867
 20
226.8097795079068
 30
0.0
 10
295.1053100957593
 20
226.9049478636124
 30
0.0
  0
SPLINE
  5
1FF
330
1F
100
AcDbEntity
  8
1
100
AcDbSpline
210
0.0
220
0.0
230
1.0
 70
     8
 71
     3
 72
     8
 73
     4
 74
     0
 42
0.000000001
 43
0.0000000001
 40
0.0
 40
0.0
 40
0.0
 40
0.0
 40
1.0
 40
1.0
 40
1.0
 40
1.0
 10
295.1053100957592
 20
226.9049478636124
 30
0.0
 10
294.7033555050952
 20
226.9154805183455
 30
0.0
 10
294.3014011196303
 20
226.9260085989506
 30
0.0
 10
293.8994469768245
 20
226.9365328257426
 30
0.0
  0
SPLINE
  5
200
330
1F
100
AcDbEntity
  8
1
100
AcDbSpline
210
0.0
220
0.0
230
1.0
 70
     8
 71
     3
 72
     8
 73
     4
 74
     0
 42
0.000000001
 43
0.0000000001
 40
0.0
 40
0.0
 40
0.0
 40
0.0
 40
1.0
 40
1.0
 40
1.0
 40
1.0
 10
293.7442482849925
 20
226.940446866026
 30
0.0
 10
293.7959811756166
 20
226.939142132214
 30
0.0
 10
293.8477140729117
 20
226.9378374523128
 30
0.0
 10
293.8994469768245
 20
226.9365328257427
 30
0.0
  0
SPLINE
  5
201
330
1F
100
AcDbEntity
  8
1
100
AcDbSpline
210
0.0
220
0.0
230
1.0
 70
    24
 71
     3
 72
    62
 73
    58
 74
     0
 42
0.000000001
 43
0.0000000001
 40
0.0
 40
0.0
 40
0.0
 40
0.0
 40
0.0625000000000023
 40
0.0625000000000023
 40
0.1250000000000046
 40
0.1250000000000046
 40
0.1406250000000042
 40
0.1406250000000042
 40
0.1562500000000038
 40
0.1562500000000038
 40
0.1875000000000046
 40
0.1875000000000046
 40
0.2500000000000052
 40
0.2500000000000052
 40
0.2812500000000053
 40
0.2812500000000053
 40
0.2968750000000053
 40
0.2968750000000053
 40
0.3125000000000053
 40
0.3125000000000053
 40
0.3750000000000052
 40
0.3750000000000052
 40
0.4375000000000052
 40
0.4375000000000052
 40
0.453125000000005
 40
0.453125000000005
 40
0.4687500000000049
 40
0.4687500000000049
 40
0.5000000000000047
 40
0.5000000000000047
 40
0.5625000000000038
 40
0.5625000000000038
 40
0.5937500000000037
 40
0.5937500000000037
 40
0.6093750000000036
 40
0.6093750000000036
 40
0.6250000000000035
 40
0.6250000000000035
 40
0.6875000000000026
 40
0.6875000000000026
 40
0.7500000000000018
 40
0.7500000000000018
 40
0.7656250000000017
 40
0.7656250000000017
 40
0.7812500000000016
 40
0.7812500000000016
 40
0.8125000000000015
 40
0.8125000000000015
 40
0.8750000000000019
 40
0.8750000000000019
 40
0.906250000000003
 40
0.906250000000003
 40
0.9218750000000033
 40
0.9218750000000033
 40
0.9375000000000039
 40
0.9375000000000039
 40
1.0
 40
1.0
 40
1.0
 40
1.0
 10
293.7442482849925
 20
255.7996982597375
 30
0.0
 10
293.7442482849925
 20
255.7079619620523
 30
0.0
 10
293.7442482849925
 20
255.6064410374348
 30
0.0
 10
293.7442482849925
 20
255.3846237629074
 30
0.0
 10
293.7442482849925
 20
255.2643250360797
 30
0.0
 10
293.7442482849925
 20
255.1020435347516
 30
0.0
 10
293.7442482849925
 20
255.0689892481451
 30
0.0
 10
293.7442482849925
 20
255.0016698039725
 30
0.0
 10
293.7442482849925
 20
254.9673748477067
 30
0.0
 10
293.7442482849925
 20
254.862835985826
 30
0.0
 10
293.7442482849925
 20
254.7915036084255
 30
0.0
 10
293.7442482849925
 20
254.5727185444571
 30
0.0
 10
293.7442482849925
 20
254.4204993213625
 30
0.0
 10
293.7442482849925
 20
254.1827395734042
 30
0.0
 10
293.7442482849925
 20
254.1019090841102
 30
0.0
 10
293.7442482849925
 20
253.9782620754707
 30
0.0
 10
293.7442482849925
 20
253.9366458444419
 30
0.0
 10
293.7442482849925
 20
253.8526019806932
 30
0.0
 10
293.7442482849925
 20
253.810111589403
 30
0.0
 10
293.7442482849925
 20
253.5963297798259
 30
0.0
 10
293.7442482849925
 20
253.4227440299611
 30
0.0
 10
293.7442482849925
 20
253.0706459639702
 30
0.0
 10
293.7442482849925
 20
252.8921331523254
 30
0.0
 10
293.7442482849925
 20
252.6658590738637
 30
0.0
 10
293.7442482849925
 20
252.6204469234672
 30
0.0
 10
293.7442482849925
 20
252.5293038039857
 30
0.0
 10
293.7442482849925
 20
252.4834885760817
 30
0.0
 10
293.7442482849925
 20
252.346215729447
 30
0.0
 10
293.7442482849925
 20
252.2551269663165
 30
0.0
 10
293.7442482849925
 20
251.9831075043049
 30
0.0
 10
293.7442482849925
 20
251.8034180502836
 30
0.0
 10
293.7442482849925
 20
251.536345988168
 30
0.0
 10
293.7442482849925
 20
251.4477337310804
 30
0.0
 10
293.7442482849925
 20
251.315443055679
 30
0.0
 10
293.7442482849925
 20
251.2714508739884
 30
0.0
 10
293.7442482849925
 20
251.1836787618659
 30
0.0
 10
293.7442482849925
 20
251.1398139865238
 30
0.0
 10
293.7442482849925
 20
250.9223351137953
 30
0.0
 10
293.7442482849925
 20
250.7541152515091
 30
0.0
 10
293.7442482849925
 20
250.4287920523906
 30
0.0
 10
293.7442482849925
 20
250.271689581003
 30
0.0
 10
293.7442482849925
 20
250.0823980018523
 30
0.0
 10
293.7442482849925
 20
250.0448955590642
 30
0.0
 10
293.7442482849925
 20
249.9706122696738
 30
0.0
 10
293.7442482849925
 20
249.9337698337677
 30
0.0
 10
293.7442482849925
 20
249.8250981850045
 30
0.0
 10
293.7442482849925
 20
249.7549497579487
 30
0.0
 10
293.7442482849925
 20
249.5512351409752
 30
0.0
 10
293.7442482849925
 20
249.4243694244775
 30
0.0
 10
293.7442482849925
 20
249.2473937132643
 30
0.0
 10
293.7442482849925
 20
249.1906298941447
 30
0.0
 10
293.7442482849925
 20
249.1088849324098
 30
0.0
 10
293.7442482849925
 20
249.08220390587
 30
0.0
 10
293.7442482849925
 20
249.0299925128271
 30
0.0
 10
293.7442482849925
 20
249.004444355557
 30
0.0
 10
293.7442482849925
 20
248.8803080058491
 30
0.0
 10
293.7442482849925
 20
248.7919343906116
 30
0.0
 10
293.7442482849925
 20
248.7145368274548
 30
0.0
  0
SPLINE
  5
202
330
1F
100
AcDbEntity
  8
1
100
AcDbSpline
210
0.0
220
0.0
230
1.0
 70
    24
 71
     3
 72
    25
 73
    21
 74
     0
 42
0.000000001
 43
0.0000000001
 40
0.0
 40
0.0
 40
0.0
 40
0.0
 40
0.1249999999999926
 40
0.1249999999999926
 40
0.1874999999999916
 40
0.1874999999999916
 40
0.2187499999999911
 40
0.2187499999999911
 40
0.2499999999999906
 40
0.3749999999999891
 40
0.4999999999999875
 40
0.6249999999999859
 40
0.6249999999999859
 40
0.6562499999999857
 40
0.6562499999999857
 40
0.6874999999999854
 40
0.7499999999999885
 40
0.7499999999999885
 40
0.8749999999999943
 40
1.0
 40
1.0
 40
1.0
 40
1.0
 10
299.1442482849925
 20
248.7145368274548
 30
0.0
 10
299.1442482849925
 20
248.7701617034097
 30
0.0
 10
299.1442482849925
 20
248.8314555146829
 30
0.0
 10
299.1442482849925
 20
248.9318166032272
 30
0.0
 10
299.1442482849925
 20
248.9666762719946
 30
0.0
 10
299.1442482849925
 20
249.0210875474954
 30
0.0
 10
299.1442482849925
 20
249.0395975032883
 30
0.0
 10
299.1442482849925
 20
249.0772274170342
 30
0.0
 10
299.1442482849925
 20
249.1727833921834
 30
0.0
 10
299.1442482849925
 20
249.3579132450851
 30
0.0
 10
299.1442482849925
 20
249.6320448442105
 30
0.0
 10
299.1442482849925
 20
249.8330431698269
 30
0.0
 10
299.1442482849925
 20
249.9645521802497
 30
0.0
 10
299.1442482849925
 20
249.9911767653792
 30
0.0
 10
299.1442482849925
 20
250.0447364725894
 30
0.0
 10
299.1442482849925
 20
250.1256266616276
 30
0.0
 10
299.1442482849925
 20
250.2081499260504
 30
0.0
 10
299.1442482849925
 20
250.3753395382455
 30
0.0
 10
299.1442482849925
 20
250.6039639777584
 30
0.0
 10
299.1442482849925
 20
250.8438847369803
 30
0.0
 10
299.1442482849925
 20
250.9667225707281
 30
0.0
  0
SPLINE
  5
203
330
1F
100
AcDbEntity
  8
1
100
AcDbSpline
210
0.0
220
0.0
230
1.0
 70
     8
 71
     3
 72
    43
 73
    39
 74
     0
 42
0.000000001
 43
0.0000000001
 40
0.0
 40
0.0
 40
0.0
 40
0.0
 40
0.0624999999999932
 40
0.1249999999999863
 40
0.1874999999999795
 40
0.1874999999999795
 40
0.218749999999977
 40
0.218749999999977
 40
0.2343749999999766
 40
0.2343749999999766
 40
0.2499999999999762
 40
0.3124999999999765
 40
0.3749999999999771
 40
0.4374999999999775
 40
0.4374999999999775
 40
0.4687499999999775
 40
0.4687499999999775
 40
0.4999999999999775
 40
0.4999999999999775
 40
0.562499999999978
 40
0.6249999999999788
 40
0.6249999999999788
 40
0.6562499999999796
 40
0.6718749999999801
 40
0.6718749999999801
 40
0.6874999999999806
 40
0.6874999999999806
 40
0.7499999999999837
 40
0.7499999999999837
 40
0.8124999999999866
 40
0.8749999999999896
 40
0.8749999999999896
 40
0.9062499999999912
 40
0.9062499999999912
 40
0.9218749999999927
 40
0.9218749999999927
 40
0.9374999999999943
 40
1.0
 40
1.0
 40
1.0
 40
1.0
 10
296.1762349533525
 20
255.7996982597375
 30
0.0
 10
296.175149347145
 20
255.7373395676833
 30
0.0
 10
296.1735023781374
 20
255.6035560283902
 30
0.0
 10
296.1725520418223
 20
255.3765921324951
 30
0.0
 10
296.1729236099907
 20
255.2079004359903
 30
0.0
 10
296.1735858127018
 20
255.0747490355504
 30
0.0
 10
296.1738705695776
 20
255.0292580413587
 30
0.0
 10
296.1743955343741
 20
254.9593297075801
 30
0.0
 10
296.1745871118972
 20
254.935708618476
 30
0.0
 10
296.1750012723504
 20
254.8881168068204
 30
0.0
 10
296.176114659357
 20
254.7681908572404
 30
0.0
 10
296.1788108540533
 20
254.5439249886936
 30
0.0
 10
296.1838460898184
 20
254.2274245321932
 30
0.0
 10
296.1881639001845
 20
254.0047618940441
 30
0.0
 10
296.1917723492966
 20
253.8332735634546
 30
0.0
 10
296.1930403574484
 20
253.7752161274923
 30
0.0
 10
296.1956777768858
 20
253.6586515513509
 30
0.0
 10
296.1970484184377
 20
253.6000744385778
 30
0.0
 10
296.2013134208844
 20
253.4234740549854
 30
0.0
 10
296.2074076477125
 20
253.1856931160322
 30
0.0
 10
296.2143043957166
 20
252.9433561456001
 30
0.0
 10
296.2197809268097
 20
252.7598777345906
 30
0.0
 10
296.2225953046557
 20
252.6677064282986
 30
0.0
 10
296.2255255475205
 20
252.5748773391478
 30
0.0
 10
296.2275050622222
 20
252.5128435633976
 30
0.0
 10
296.228509139659
 20
252.4817127275468
 30
0.0
 10
296.2335775393942
 20
252.3262283142546
 30
0.0
 10
296.2377770648715
 20
252.2026271028549
 30
0.0
 10
296.2464564889964
 20
251.9569471534996
 30
0.0
 10
296.2554163412969
 20
251.7127899762775
 30
0.0
 10
296.2649334036748
 20
251.4716585434417
 30
0.0
 10
296.2722841959949
 20
251.2919665703827
 30
0.0
 10
296.2747700159247
 20
251.2322623201258
 30
0.0
 10
296.2785531273185
 20
251.1430012454227
 30
0.0
 10
296.2798228798326
 20
251.1133059802169
 30
0.0
 10
296.2823671365747
 20
251.0543264840636
 30
0.0
 10
296.2887479481109
 20
250.9077109307397
 30
0.0
 10
296.295228255861
 20
250.765205455244
 30
0.0
 10
296.3004747240082
 20
250.6537713942107
 30
0.0
  0
SPLINE
  5
204
330
1F
100
AcDbEntity
  8
1
100
AcDbSpline
210
0.0
220
0.0
230
1.0
 70
     8
 71
     3
 72
     8
 73
     4
 74
     0
 42
0.000000001
 43
0.0000000001
 40
0.0
 40
0.0
 40
0.0
 40
0.0
 40
1.0
 40
1.0
 40
1.0
 40
1.0
 10
298.9890495931604
 20
250.9628987852917
 30
0.0
 10
299.0407824970733
 20
250.9641729054989
 30
0.0
 10
299.0925153943683
 20
250.9654475002981
 30
0.0
 10
299.1442482849925
 20
250.9667225707281
 30
0.0
  0
SPLINE
  5
205
330
1F
100
AcDbEntity
  8
1
100
AcDbSpline
210
0.0
220
0.0
230
1.0
 70
     8
 71
     3
 72
     8
 73
     4
 74
     0
 42
0.000000001
 43
0.0000000001
 40
0.0
 40
0.0
 40
0.0
 40
0.0
 40
1.0
 40
1.0
 40
1.0
 40
1.0
 10
298.9890495931605
 20
250.9628987852917
 30
0.0
 10
298.5870954503548
 20
250.9526206487521
 30
0.0
 10
298.1851410648899
 20
250.9423662410132
 30
0.0
 10
297.7831864742259
 20
250.9321347370933
 30
0.0
  0
SPLINE
  5
206
330
1F
100
AcDbEntity
  8
1
100
AcDbSpline
210
0.0
220
0.0
230
1.0
 70
     8
 71
     3
 72
     8
 73
     4
 74
     0
 42
0.000000001
 43
0.0000000001
 40
0.0
 40
0.0
 40
0.0
 40
0.0
 40
1.0
 40
1.0
 40
1.0
 40
1.0
 10
297.7831864742258
 20
250.9321347370933
 30
0.0
 10
297.288565054082
 20
250.8396874453903
 30
0.0
 10
296.7943167609629
 20
250.7468091309923
 30
0.0
 10
296.3004747240082
 20
250.6537713942107
 30
0.0
  0
SPLINE
  5
207
330
1F
100
AcDbEntity
  8
1
100
AcDbSpline
210
0.0
220
0.0
230
1.0
 70
     8
 71
     3
 72
    24
 73
    20
 74
     0
 42
0.000000001
 43
0.0000000001
 40
0.0
 40
0.0
 40
0.0
 40
0.0
 40
0.1250000000000003
 40
0.1250000000000003
 40
0.1875000000000029
 40
0.1875000000000029
 40
0.2500000000000054
 40
0.2500000000000054
 40
0.3750000000000054
 40
0.3750000000000054
 40
0.5000000000000054
 40
0.6250000000000054
 40
0.7500000000000054
 40
0.7500000000000054
 40
0.8125000000000053
 40
0.8125000000000053
 40
0.8750000000000053
 40
0.8750000000000053
 40
1.0
 40
1.0
 40
1.0
 40
1.0
 10
295.1053100957592
 20
226.9049478636121
 30
0.0
 10
295.1082591062678
 20
226.972722507792
 30
0.0
 10
295.1111373030201
 20
227.0420452437471
 30
0.0
 10
295.1153406850226
 20
227.1483738566686
 30
0.0
 10
295.1167251879217
 20
227.1842078289677
 30
0.0
 10
295.1194886503715
 20
227.2566660801811
 30
0.0
 10
295.1208694491119
 20
227.2933397609809
 30
0.0
 10
295.1250627654968
 20
227.4042314572915
 30
0.0
 10
295.1278995586291
 20
227.4788046617869
 30
0.0
 10
295.1342375752812
 20
227.6291794271786
 30
0.0
 10
295.14126204588
 20
227.7807817776901
 30
0.0
 10
295.152070007839
 20
228.0119042492222
 30
0.0
 10
295.1588384867768
 20
228.1685104548303
 30
0.0
 10
295.1637419515794
 20
228.2869372822474
 30
0.0
 10
295.1653514673972
 20
228.3266134395312
 30
0.0
 10
295.1685263066958
 20
228.405805557852
 30
0.0
 10
295.170093948222
 20
228.4453756210327
 30
0.0
 10
295.1748096113182
 20
228.564005157799
 30
0.0
 10
295.1779611753811
 20
228.6429844808207
 30
0.0
 10
295.1814233194479
 20
228.7218436319291
 30
0.0
  0
SPLINE
  5
208
330
1F
100
AcDbEntity
  8
1
100
AcDbSpline
210
0.0
220
0.0
230
1.0
 70
     8
 71
     3
 72
    24
 73
    20
 74
     0
 42
0.000000001
 43
0.0000000001
 40
0.0
 40
0.0
 40
0.0
 40
0.0
 40
0.125000000000015
 40
0.125000000000015
 40
0.1875000000000176
 40
0.1875000000000176
 40
0.2500000000000203
 40
0.2500000000000203
 40
0.3750000000000163
 40
0.3750000000000163
 40
0.5000000000000125
 40
0.6250000000000086
 40
0.7500000000000046
 40
0.7500000000000046
 40
0.8125000000000031
 40
0.8125000000000031
 40
0.8750000000000017
 40
0.8750000000000017
 40
1.0
 40
1.0
 40
1.0
 40
1.0
 10
297.7831864742258
 20
250.9321347370932
 30
0.0
 10
297.7802374637171
 20
250.9638269213577
 30
0.0
 10
297.7773592669649
 20
250.9983312777432
 30
0.0
 10
297.7731558849624
 20
251.0543464261343
 30
0.0
 10
297.7717713820633
 20
251.0737286475066
 30
0.0
 10
297.7690079196134
 20
251.1139300124614
 30
0.0
 10
297.767627120873
 20
251.1347780017976
 30
0.0
 10
297.7634338044881
 20
251.1993173966401
 30
0.0
 10
297.7605970113558
 20
251.244696106202
 30
0.0
 10
297.7542589947037
 20
251.3400023937969
 30
0.0
 10
297.7472345241048
 20
251.4398574369546
 30
0.0
 10
297.7364265621458
 20
251.6031993058372
 30
0.0
 10
297.7296580832082
 20
251.7212225308416
 30
0.0
 10
297.7247546184056
 20
251.813254696171
 30
0.0
 10
297.7231451025879
 20
251.844550567322
 30
0.0
 10
297.7199702632893
 20
251.9079410623748
 30
0.0
 10
297.7184026217629
 20
251.9400768140038
 30
0.0
 10
297.7136869586669
 20
252.0377988316957
 30
0.0
 10
297.7105353946038
 20
252.1046980597617
 30
0.0
 10
297.7070732505371
 20
252.1733520144489
 30
0.0
  0
SPLINE
  5
209
330
1F
100
AcDbEntity
  8
1
100
AcDbSpline
210
0.0
220
0.0
230
1.0
 70
    12
 71
     2
 72
     6
 73
     3
 74
     0
 42
0.000000001
 43
0.0000000001
 40
0.0
 40
0.0
 40
0.0
 40
1.0
 40
1.0
 40
1.0
 10
294.5285058968608
 20
197.7082354669999
 30
0.0
 41
0.4999999666143239
 10
294.136368295543
 20
197.7128320603445
 30
0.0
 41
0.5000000333856761
 10
293.7442482849921
 20
197.7174403393892
 30
0.0
 41
0.4999999666143239
  0
SPLINE
  5
20A
330
1F
100
AcDbEntity
  8
1
100
AcDbSpline
210
0.0
220
0.0
230
1.0
 70
    12
 71
     2
 72
     6
 73
     3
 74
     0
 42
0.000000001
 43
0.0000000001
 40
0.0
 40
0.0
 40
0.0
 40
1.0
 40
1.0
 40
1.0
 10
293.9818496186935
 20
289.8844262105944
 30
0.0
 41
0.500000030220408
 10
293.8630481054366
 20
289.8862397320637
 30
0.0
 41
0.5000000766891551
 10
293.7442482849922
 20
289.888052208942
 30
0.0
 41
0.5000001946110889
  0
SPLINE
  5
20B
330
1F
100
AcDbEntity
  8
1
100
AcDbSpline
210
0.0
220
0.0
230
1.0
 70
    24
 71
     3
 72
    33
 73
    29
 74
     0
 42
0.000000001
 43
0.0000000001
 40
0.0
 40
0.0
 40
0.0
 40
0.0
 40
0.0051070454216666
 40
0.0051070454216666
 40
0.038270143907612
 40
0.038270143907612
 40
0.0714332423935573
 40
0.0714332423935573
 40
0.2040856363373351
 40
0.2040856363373351
 40
0.3367380302811128
 40
0.3367380302811128
 40
0.3699011287670548
 40
0.3699011287670548
 40
0.4030642272529972
 40
0.4693904242248816
 40
0.4693904242248816
 40
0.6020428181686484
 40
0.6020428181686484
 40
0.6683690151405357
 40
0.6683690151405357
 40
0.7015321136264792
 40
0.7015321136264792
 40
0.7346952121124223
 40
0.7346952121124223
 40
0.8673476060562112
 40
0.8673476060562112
 40
1.0
 40
1.0
 40
1.0
 40
1.0
 10
299.1442482849924
 20
273.5288149349673
 30
0.0
 10
299.1442482849924
 20
273.5345875180535
 30
0.0
 10
299.1442482849925
 20
273.5403729314935
 30
0.0
 10
299.1442482849925
 20
273.5838228129648
 30
0.0
 10
299.1442482849925
 20
273.6220764423622
 30
0.0
 10
299.1442482849925
 20
273.6991211342586
 30
0.0
 10
299.1442482849925
 20
273.7379643771624
 30
0.0
 10
299.1442482849925
 20
273.9337627761583
 30
0.0
 10
299.1442482849925
 20
274.0954424689216
 30
0.0
 10
299.1442482849925
 20
274.4286780708628
 30
0.0
 10
299.1442482849925
 20
274.600233309864
 30
0.0
 10
299.1442482849924
 20
274.8210697368294
 30
0.0
 10
299.1442482849925
 20
274.8655924983343
 30
0.0
 10
299.1442482849925
 20
274.9546001574501
 30
0.0
 10
299.1442482849925
 20
275.0883006146714
 30
0.0
 10
299.1442482849925
 20
275.2225595666869
 30
0.0
 10
299.1442482849925
 20
275.4918098753606
 30
0.0
 10
299.1442482849925
 20
275.6722832839085
 30
0.0
 10
299.1442482849925
 20
275.9444658868412
 30
0.0
 10
299.1442482849925
 20
276.0354396622492
 30
0.0
 10
299.1442482849925
 20
276.1722791865024
 30
0.0
 10
299.1442482849925
 20
276.2179440566054
 30
0.0
 10
299.1442482849925
 20
276.3087023261659
 30
0.0
 10
299.1442482849925
 20
276.3538834764715
 30
0.0
 10
299.1442482849925
 20
276.5788119025998
 30
0.0
 10
299.1442482849925
 20
276.7556407389895
 30
0.0
 10
299.1442482849925
 20
277.1031696308114
 30
0.0
 10
299.1442482849925
 20
277.2738703702888
 30
0.0
 10
299.1442482849925
 20
277.4413829349962
 30
0.0
  0
SPLINE
  5
20C
330
1F
100
AcDbEntity
  8
1
100
AcDbSpline
210
0.0
220
0.0
230
1.0
 70
     8
 71
     3
 72
    34
 73
    30
 74
     0
 42
0.000000001
 43
0.0000000001
 40
0.0
 40
0.0
 40
0.0
 40
0.0
 40
0.0895976988944716
 40
0.0895976988944716
 40
0.1791953977889432
 40
0.2687930966834147
 40
0.2687930966834147
 40
0.3135919461306532
 40
0.3135919461306532
 40
0.3359913708542701
 40
0.3359913708542701
 40
0.3583907955778869
 40
0.4479884944723443
 40
0.5375861933668043
 40
0.6271838922612642
 40
0.6271838922612642
 40
0.6719827417084942
 40
0.6719827417084942
 40
0.7167815911557242
 40
0.7167815911557242
 40
0.8063792900501864
 40
0.8959769889446487
 40
0.8959769889446487
 40
0.9407758383918809
 40
0.9631752631154963
 40
0.9631752631154963
 40
0.9855746878391123
 40
0.9855746878391123
 40
1.0
 40
1.0
 40
1.0
 40
1.0
 10
296.7122616166324
 20
277.4413829349962
 30
0.0
 10
296.71334722284
 20
277.32750365564
 30
0.0
 10
296.7141706838627
 20
277.2121669735884
 30
0.0
 10
296.7153109739056
 20
276.9786769762263
 30
0.0
 10
296.7159445281626
 20
276.7423697686193
 30
0.0
 10
296.7155729599942
 20
276.5004745578105
 30
0.0
 10
296.7149107572832
 20
276.3169209240867
 30
0.0
 10
296.7146260004073
 20
276.2553804440543
 30
0.0
 10
296.7141010356109
 20
276.1625258385553
 30
0.0
 10
296.7139094580879
 20
276.1314454894223
 30
0.0
 10
296.7134952976346
 20
276.0693881632283
 30
0.0
 10
296.7123819106279
 20
275.9144058113364
 30
0.0
 10
296.7096857159317
 20
275.636866075036
 30
0.0
 10
296.7046504801666
 20
275.2697859059754
 30
0.0
 10
296.7003326698004
 20
275.0270492786974
 30
0.0
 10
296.6967242206883
 20
274.8457606803204
 30
0.0
 10
296.6954562125366
 20
274.7853127231056
 30
0.0
 10
296.6928187930991
 20
274.665780283163
 30
0.0
 10
296.6914481515473
 20
274.6066169869728
 30
0.0
 10
296.6871831491006
 20
274.4309043174003
 30
0.0
 10
296.6810889222724
 20
274.2013524558813
 30
0.0
 10
296.6741921742684
 20
273.9811177910024
 30
0.0
 10
296.6687156431752
 20
273.8194708569801
 30
0.0
 10
296.6659012653293
 20
273.7395310467263
 30
0.0
 10
296.6629710224645
 20
273.6609364186273
 30
0.0
 10
296.6609915077628
 20
273.6088420834014
 30
0.0
 10
296.6599874303259
 20
273.5829129127844
 30
0.0
 10
296.6583209367532
 20
273.5406835046236
 30
0.0
 10
296.6576643698835
 20
273.5242462172522
 30
0.0
 10
296.657004068918
 20
273.5079135837242
 30
0.0
  0
SPLINE
  5
20D
330
1F
100
AcDbEntity
  8
1
100
AcDbSpline
210
0.0
220
0.0
230
1.0
 70
    12
 71
     2
 72
     6
 73
     3
 74
     0
 42
0.000000001
 43
0.0000000001
 40
0.0
 40
0.0
 40
0.0
 40
1.0
 40
1.0
 40
1.0
 10
299.1442482849929
 20
271.2636118822103
 30
0.0
 41
0.5000001947645969
 10
298.7521282744652
 20
271.2493238710912
 30
0.0
 41
0.499999805235403
 10
298.3599906731243
 20
271.2350291530487
 30
0.0
 41
0.5000001947645969
  0
SPLINE
  5
20E
330
1F
100
AcDbEntity
  8
1
100
AcDbSpline
210
0.0
220
0.0
230
1.0
 70
    12
 71
     2
 72
     6
 73
     3
 74
     0
 42
0.000000001
 43
0.0000000001
 40
0.0
 40
0.0
 40
0.0
 40
1.0
 40
1.0
 40
1.0
 10
297.2077254911972
 20
241.8254604346833
 30
0.0
 41
0.5000001934609533
 10
296.4543897797885
 20
241.7656255798465
 30
0.0
 41
0.4999998065390467
 10
295.7009614622938
 20
241.7057988713407
 30
0.0
 41
0.5000001934609533
  0
SPLINE
  5
20F
330
1F
100
AcDbEntity
  8
1
100
AcDbSpline
210
0.0
220
0.0
230
1.0
 70
    12
 71
     2
 72
     6
 73
     3
 74
     0
 42
0.000000001
 43
0.0000000001
 40
0.0
 40
0.0
 40
0.0
 40
1.0
 40
1.0
 40
1.0
 10
294.5285058968607
 20
242.3569071167194
 30
0.0
 41
0.4999999665887393
 10
294.136368295543
 20
242.3740426856804
 30
0.0
 41
0.5000000334112608
 10
293.7442482849921
 20
242.3911787698796
 30
0.0
 41
0.4999999665887393
  0
SPLINE
  5
210
330
1F
100
AcDbEntity
  8
1
100
AcDbSpline
210
0.0
220
0.0
230
1.0
 70
    12
 71
     2
 72
     6
 73
     3
 74
     0
 42
0.000000001
 43
0.0000000001
 40
0.0
 40
0.0
 40
0.0
 40
1.0
 40
1.0
 40
1.0
 10
295.7009614622935
 20
241.7057988713407
 30
0.0
 41
0.4999999939064922
 10
295.1014855499109
 20
241.7315208017286
 30
0.0
 41
0.5000000060935079
 10
294.5020415524966
 20
241.7572442572119
 30
0.0
 41
0.4999999939064922
  0
SPLINE
  5
21E
330
1F
100
AcDbEntity
  8
1
100
AcDbSpline
210
0.0
220
0.0
230
1.0
 70
    24
 71
     3
 72
     8
 73
     4
 74
     0
 42
0.000000001
 43
0.0000000001
 40
0.0
 40
0.0
 40
0.0
 40
0.0
 40
1.0
 40
1.0
 40
1.0
 40
1.0
 10
249.4442482849925
 20
237.2340184530482
 30
0.0
 10
249.7728043669385
 20
237.5625745349942
 30
0.0
 10
250.1062852140894
 20
237.8960553821451
 30
0.0
 10
250.4442482849925
 20
238.2340184530482
 30
0.0
  0
SPLINE
  5
21F
330
1F
100
AcDbEntity
  8
1
100
AcDbSpline
210
0.0
220
0.0
230
1.0
 70
    24
 71
     3
 72
     8
 73
     4
 74
     0
 42
0.000000001
 43
0.0000000001
 40
0.0
 40
0.0
 40
0.0
 40
0.0
 40
1.0
 40
1.0
 40
1.0
 40
1.0
 10
250.4442482849925
 20
250.6340184530482
 30
0.0
 10
250.1062852140894
 20
250.9719815239513
 30
0.0
 10
249.7728043669385
 20
251.3054623711022
 30
0.0
 10
249.4442482849925
 20
251.6340184530482
 30
0.0
  0
SPLINE
  5
220
330
1F
100
AcDbEntity
  8
1
100
AcDbSpline
210
0.0
220
0.0
230
1.0
 70
     8
 71
     3
 72
    34
 73
    30
 74
     0
 42
0.000000001
 43
0.0000000001
 40
0.0
 40
0.0
 40
0.0
 40
0.0
 40
0.1250000000000026
 40
0.1250000000000026
 40
0.187500000000006
 40
0.187500000000006
 40
0.2500000000000094
 40
0.2500000000000094
 40
0.3750000000000151
 40
0.3750000000000151
 40
0.4375000000000171
 40
0.4375000000000171
 40
0.4687500000000174
 40
0.4687500000000174
 40
0.5000000000000179
 40
0.5000000000000179
 40
0.6250000000000121
 40
0.6250000000000121
 40
0.6562500000000109
 40
0.6562500000000109
 40
0.6875000000000097
 40
0.6875000000000097
 40
0.7500000000000071
 40
0.7500000000000071
 40
0.875000000000003
 40
0.875000000000003
 40
0.9375000000000014
 40
0.9375000000000014
 40
1.0
 40
1.0
 40
1.0
 40
1.0
 10
256.4442482849925
 20
239.0340184530482
 30
0.0
 10
256.4442482849925
 20
238.9817799808166
 30
0.0
 10
256.4391810608723
 20
238.9304214463249
 30
0.0
 10
256.4243043335651
 20
238.854644052484
 30
0.0
 10
256.418123896446
 20
238.8295964640064
 30
0.0
 10
256.4032686050696
 20
238.7799319218894
 30
0.0
 10
256.3945377230251
 20
238.7551980239661
 30
0.0
 10
256.3650282960429
 20
238.683053403994
 30
0.0
 10
256.3409276419558
 20
238.6373786557295
 30
0.0
 10
256.2981842784807
 20
238.5724569401059
 30
0.0
 10
256.2828301305389
 20
238.5514188971119
 30
0.0
 10
256.2580717448765
 20
238.5208001405252
 30
0.0
 10
256.2495408377947
 20
238.5107666730941
 30
0.0
 10
256.2320901276833
 20
238.4912353769627
 30
0.0
 10
256.2231484568018
 20
238.481709948067
 30
0.0
 10
256.1773713232522
 20
238.4352686525441
 30
0.0
 10
256.1373607095052
 20
238.4018757584132
 30
0.0
 10
256.083002560856
 20
238.3649388979796
 30
0.0
 10
256.0719117077497
 20
238.3577939314599
 30
0.0
 10
256.0492804673231
 20
238.3440006720901
 30
0.0
 10
256.0377408635944
 20
238.3373558699167
 30
0.0
 10
256.0028511942783
 20
238.3184036054851
 30
0.0
 10
255.9790982050316
 20
238.3069921447901
 30
0.0
 10
255.9063864397328
 20
238.2763572654269
 30
0.0
 10
255.8559897160865
 20
238.2606963658363
 30
0.0
 10
255.7773577254778
 20
238.2447167059916
 30
0.0
 10
255.7508784400425
 20
238.2407074721683
 30
0.0
 10
255.6977685189144
 20
238.2353646563931
 30
0.0
 10
255.6710775124141
 20
238.2340184530482
 30
0.0
 10
255.6442482849925
 20
238.2340184530482
 30
0.0
  0
SPLINE
  5
221
330
1F
100
AcDbEntity
  8
1
100
AcDbSpline
210
0.0
220
0.0
230
1.0
 70
     8
 71
     3
 72
    33
 73
    29
 74
     0
 42
0.000000001
 43
0.0000000001
 40
0.0
 40
0.0
 40
0.0
 40
0.0
 40
0.1249999999999917
 40
0.1249999999999917
 40
0.1874999999999863
 40
0.1874999999999863
 40
0.2187499999999846
 40
0.2187499999999846
 40
0.2499999999999829
 40
0.2499999999999829
 40
0.3749999999999832
 40
0.3749999999999832
 40
0.4062499999999848
 40
0.4062499999999848
 40
0.4374999999999864
 40
0.4374999999999864
 40
0.4999999999999878
 40
0.5624999999999893
 40
0.5624999999999893
 40
0.6249999999999908
 40
0.6249999999999908
 40
0.7499999999999949
 40
0.7499999999999949
 40
0.8124999999999966
 40
0.8124999999999966
 40
0.8749999999999984
 40
0.8749999999999984
 40
1.0
 40
1.0
 40
1.0
 40
1.0
 10
255.6442482849925
 20
250.6340184530482
 30
0.0
 10
255.6978762646627
 20
250.6340184530482
 30
0.0
 10
255.7505555719424
 20
250.6286807619794
 30
0.0
 10
255.828216006482
 20
250.6130263051098
 30
0.0
 10
255.8538746663325
 20
250.6065236786557
 30
0.0
 10
255.89201312312
 20
250.5948005971761
 30
0.0
 10
255.9047027474504
 20
250.5905504087641
 30
0.0
 10
255.929723191095
 20
250.5814682540511
 30
0.0
 10
255.9420660337604
 20
250.5766348607023
 30
0.0
 10
256.0029619664748
 20
250.5510380769713
 30
0.0
 10
256.0490839114919
 20
250.5260268858053
 30
0.0
 10
256.1035427423977
 20
250.4891684920584
 30
0.0
 10
256.1142733605864
 20
250.4815145114557
 30
0.0
 10
256.1354075797131
 20
250.4656332601497
 30
0.0
 10
256.1457860691249
 20
250.457422570771
 30
0.0
 10
256.1761060739929
 20
250.4321979109909
 30
0.0
 10
256.214568993853
 20
250.3968351144328
 30
0.0
 10
256.2492274312509
 20
250.3581144036535
 30
0.0
 10
256.2819887848298
 20
250.3177160731743
 30
0.0
 10
256.297436921988
 20
250.2966540358784
 30
0.0
 10
256.3407617641698
 20
250.2310288878317
 30
0.0
 10
256.3648724751867
 20
250.18524692561
 30
0.0
 10
256.3942259324359
 20
250.1136587473425
 30
0.0
 10
256.4028664181107
 20
250.089306554131
 30
0.0
 10
256.4178169112606
 20
250.0396031482566
 30
0.0
 10
256.4241271783652
 20
250.0141923221021
 30
0.0
 10
256.4391856425682
 20
249.9377943809069
 30
0.0
 10
256.4442482849925
 20
249.8862294540072
 30
0.0
 10
256.4442482849925
 20
249.8340184530482
 30
0.0
  0
LINE
  5
232
330
1F
100
AcDbEntity
  8
4
100
AcDbLine
 10
245.444248
 20
244.434018
 30
0.0
 11
299.744248
 21
244.434018
 31
0.0
  0
LINE
  5
233
330
1F
100
AcDbEntity
  8
SK4
100
AcDbLine
 10
291.944248
 20
244.434018
 30
0.0
 11
250.044248
 21
244.434018
 31
0.0
  0
MTEXT
  5
234
330
1F
100
AcDbEntity
  8
SK6
100
AcDbMText
 10
253.691841
 20
114.434036
 30
0.0
 40
3.5
 41
0.0
 71
     7
 72
     5
  1
\W0.7426;100A05R-S90SN12N6\P\P\P\P\P\P\P\P\P\P\P\P\P 
  7
cesky
 73
     1
 44
0.8433729999999998
  0
MTEXT
  5
348
330
1F
100
AcDbEntity
  8
2
100
AcDbMText
 10
310.895479
 20
242.252553
 30
0.0
 40
3.5
 41
0.0
 71
     7
 72
     5
  1
\W0.7809;100
  7
cesky
 11
0.0000000000000001
 21
1.0
 31
0.0
 73
     2
 44
0.8433729999999998
  0
MTEXT
  5
349
330
1F
100
AcDbEntity
  8
2
100
AcDbMText
 10
310.895479
 20
235.5150529999999
 30
0.0
 40
3.5
 41
0.0
 71
     7
 72
     5
  1
\W3.0115;\H2.63;%%c\H3.50;
  7
cesky
 11
0.0000000000000001
 21
1.0
 31
0.0
 73
     2
 44
0.8433729999999998
  0
LINE
  5
34A
330
1F
100
AcDbEntity
  8
2
100
AcDbLine
 10
301.444248
 20
294.4340180000001
 30
0.0
 11
312.082896
 21
294.4340180000001
 31
0.0
  0
LINE
  5
34B
330
1F
100
AcDbEntity
  8
2
100
AcDbLine
 10
311.082896
 20
294.4340180000001
 30
0.0
 11
311.082896
 21
235.357553
 31
0.0
  0
SOLID
  5
34C
330
1F
100
AcDbEntity
  8
2
100
AcDbTrace
 10
311.082896
 20
294.4340180000001
 30
0.0
 11
311.70004
 21
290.934021
 31
0.0
 12
310.465752
 22
290.9340160000001
 32
0.0
 13
310.465752
 23
290.9340160000001
 33
0.0
  0
MTEXT
  5
34D
330
1F
100
AcDbEntity
  8
2
100
AcDbMText
 10
272.629748
 20
308.100511
 30
0.0
 40
3.5
 41
0.0
 71
     7
 72
     5
  1
\W0.7045;50
  7
cesky
 73
     2
 44
0.8433729999999998
  0
LINE
  5
34E
330
1F
100
AcDbEntity
  8
2
100
AcDbLine
 10
299.444248
 20
296.434018
 30
0.0
 11
299.444248
 21
309.226344
 31
0.0
  0
LINE
  5
34F
330
1F
100
AcDbEntity
  8
2
100
AcDbLine
 10
249.444248
 20
267.4340180000001
 30
0.0
 11
249.444248
 21
309.226344
 31
0.0
  0
LINE
  5
350
330
1F
100
AcDbEntity
  8
2
100
AcDbLine
 10
299.444248
 20
308.226344
 30
0.0
 11
249.444248
 21
308.226344
 31
0.0
  0
SOLID
  5
351
330
1F
100
AcDbEntity
  8
2
100
AcDbTrace
 10
299.444248
 20
308.226344
 30
0.0
 11
295.944251
 21
307.6092
 31
0.0
 12
295.944246
 22
308.843489
 32
0.0
 13
295.944246
 23
308.843489
 33
0.0
  0
SOLID
  5
352
330
1F
100
AcDbEntity
  8
2
100
AcDbTrace
 10
249.444248
 20
308.226344
 30
0.0
 11
252.944246
 21
308.843489
 31
0.0
 12
252.944251
 22
307.6092
 32
0.0
 13
252.944251
 23
307.6092
 33
0.0
  0
MTEXT
  5
353
330
1F
100
AcDbEntity
  8
2
100
AcDbMText
 10
295.892469
 20
299.063133
 30
0.0
 40
3.5
 41
0.0
 71
     7
 72
     5
  1
\W0.6563;6
  7
cesky
 73
     2
 44
0.8433729999999998
  0
LINE
  5
354
330
1F
100
AcDbEntity
  8
2
100
AcDbLine
 10
299.444248
 20
296.434018
 30
0.0
 11
299.444248
 21
300.188966
 31
0.0
  0
LINE
  5
355
330
1F
100
AcDbEntity
  8
2
100
AcDbLine
 10
293.444689
 20
294.379707
 30
0.0
 11
293.444689
 21
300.188966
 31
0.0
  0
LINE
  5
356
330
1F
100
AcDbEntity
  8
2
100
AcDbLine
 10
308.194248
 20
299.188966
 30
0.0
 11
284.694689
 21
299.188966
 31
0.0
  0
SOLID
  5
357
330
1F
100
AcDbEntity
  8
2
100
AcDbTrace
 10
299.444248
 20
299.188966
 30
0.0
 11
302.944246
 21
299.80611
 31
0.0
 12
302.9442509999999
 22
298.571822
 32
0.0
 13
302.9442509999999
 23
298.571822
 33
0.0
  0
SOLID
  5
358
330
1F
100
AcDbEntity
  8
2
100
AcDbTrace
 10
293.444689
 20
299.188966
 30
0.0
 11
289.944692
 21
298.571822
 31
0.0
 12
289.944687
 22
299.80611
 32
0.0
 13
289.944687
 23
299.80611
 33
0.0
  0
MTEXT
  5
359
330
1F
100
AcDbEntity
  8
SK2
100
AcDbMText
 10
241.912028
 20
240.066518
 30
0.0
 40
3.5
 41
0.0
 71
     7
 72
     5
  1
\W0.8876;12,4
  7
cesky
 11
0.0000000000000001
 21
1.0
 31
0.0
 73
     2
 44
0.8433729999999998
  0
LINE
  5
35A
330
1F
100
AcDbEntity
  8
SK2
100
AcDbLine
 10
250.444248
 20
250.634018
 30
0.0
 11
240.443195
 21
250.634018
 31
0.0
  0
LINE
  5
35B
330
1F
100
AcDbEntity
  8
SK2
100
AcDbLine
 10
250.444248
 20
238.234018
 30
0.0
 11
240.443195
 21
238.234018
 31
0.0
  0
LINE
  5
35C
330
1F
100
AcDbEntity
  8
SK2
100
AcDbLine
 10
241.443195
 20
250.634018
 30
0.0
 11
241.443195
 21
238.234018
 31
0.0
  0
SOLID
  5
35D
330
1F
100
AcDbEntity
  8
SK2
100
AcDbTrace
 10
241.443195
 20
250.634018
 30
0.0
 11
242.060339
 21
247.134021
 31
0.0
 12
240.82605
 22
247.134016
 32
0.0
 13
240.82605
 23
247.134016
 33
0.0
  0
SOLID
  5
35E
330
1F
100
AcDbEntity
  8
SK2
100
AcDbTrace
 10
241.443195
 20
238.234018
 30
0.0
 11
240.82605
 21
241.734016
 31
0.0
 12
242.060339
 22
241.734021
 32
0.0
 13
242.060339
 23
241.734021
 33
0.0
  0
MTEXT
  5
35F
330
1F
100
AcDbEntity
  8
SK2
100
AcDbMText
 10
231.116142
 20
245.960268
 30
0.0
 40
3.5
 41
0.0
 71
     7
 72
     5
  1
\W0.7045;27
  7
cesky
 11
0.0000000000000001
 21
1.0
 31
0.0
 73
     2
 44
0.8433729999999998
  0
MTEXT
  5
360
330
1F
100
AcDbEntity
  8
SK2
100
AcDbMText
 10
231.116142
 20
239.222768
 30
0.0
 40
3.5
 41
0.0
 71
     7
 72
     5
  1
\W3.0115;\H2.63;%%c\H3.50;
  7
cesky
 11
0.0000000000000001
 21
1.0
 31
0.0
 73
     2
 44
0.8433729999999998
  0
LINE
  5
361
330
1F
100
AcDbEntity
  8
SK2
100
AcDbLine
 10
250.444248
 20
257.934018
 30
0.0
 11
230.303559
 21
257.934018
 31
0.0
  0
LINE
  5
362
330
1F
100
AcDbEntity
  8
SK2
100
AcDbLine
 10
250.444248
 20
230.934018
 30
0.0
 11
230.303559
 21
230.934018
 31
0.0
  0
LINE
  5
363
330
1F
100
AcDbEntity
  8
SK2
100
AcDbLine
 10
231.303559
 20
257.934018
 30
0.0
 11
231.303559
 21
230.934018
 31
0.0
  0
SOLID
  5
364
330
1F
100
AcDbEntity
  8
SK2
100
AcDbTrace
 10
231.303559
 20
257.934018
 30
0.0
 11
231.920703
 21
254.434021
 31
0.0
 12
230.686415
 22
254.434016
 32
0.0
 13
230.686415
 23
254.434016
 33
0.0
  0
SOLID
  5
365
330
1F
100
AcDbEntity
  8
SK2
100
AcDbTrace
 10
231.303559
 20
230.934018
 30
0.0
 11
230.686415
 21
234.434016
 31
0.0
 12
231.920703
 22
234.434021
 32
0.0
 13
231.920703
 23
234.434021
 33
0.0
  0
MTEXT
  5
366
330
1F
100
AcDbEntity
  8
SK2
100
AcDbMText
 10
222.06372
 20
245.960268
 30
0.0
 40
3.5
 41
0.0
 71
     7
 72
     5
  1
\W0.7045;48
  7
cesky
 11
0.0000000000000001
 21
1.0
 31
0.0
 73
     2
 44
0.8433729999999998
  0
MTEXT
  5
367
330
1F
100
AcDbEntity
  8
SK2
100
AcDbMText
 10
222.06372
 20
239.222768
 30
0.0
 40
3.5
 41
0.0
 71
     7
 72
     5
  1
\W3.0115;\H2.63;%%c\H3.50;
  7
cesky
 11
0.0000000000000001
 21
1.0
 31
0.0
 73
     2
 44
0.8433729999999998
  0
LINE
  5
368
330
1F
100
AcDbEntity
  8
SK2
100
AcDbLine
 10
250.444248
 20
268.434018
 30
0.0
 11
221.251137
 21
268.434018
 31
0.0
  0
LINE
  5
369
330
1F
100
AcDbEntity
  8
SK2
100
AcDbLine
 10
250.444248
 20
220.434018
 30
0.0
 11
221.251137
 21
220.434018
 31
0.0
  0
LINE
  5
36A
330
1F
100
AcDbEntity
  8
SK2
100
AcDbLine
 10
222.251137
 20
268.434018
 30
0.0
 11
222.251137
 21
220.434018
 31
0.0
  0
SOLID
  5
36B
330
1F
100
AcDbEntity
  8
SK2
100
AcDbTrace
 10
222.251137
 20
268.434018
 30
0.0
 11
222.868281
 21
264.934021
 31
0.0
 12
221.633992
 22
264.934016
 32
0.0
 13
221.633992
 23
264.934016
 33
0.0
  0
SOLID
  5
36C
330
1F
100
AcDbEntity
  8
SK2
100
AcDbTrace
 10
222.251137
 20
220.434018
 30
0.0
 11
221.633992
 21
223.934016
 31
0.0
 12
222.868281
 22
223.934021
 32
0.0
 13
222.868281
 23
223.934021
 33
0.0
  0
MTEXT
  5
36D
330
1F
100
AcDbEntity
  8
SK2
100
AcDbMText
 10
252.392248
 20
210.057289
 30
0.0
 40
3.5
 41
0.0
 71
     7
 72
     5
  1
\W0.6094;7
  7
cesky
 73
     2
 44
0.8433729999999998
  0
LINE
  5
36E
330
1F
100
AcDbEntity
  8
SK2
100
AcDbLine
 10
249.444248
 20
221.434018
 30
0.0
 11
249.444248
 21
209.183122
 31
0.0
  0
LINE
  5
36F
330
1F
100
AcDbEntity
  8
SK2
100
AcDbLine
 10
256.444248
 20
244.434018
 30
0.0
 11
256.444248
 21
209.183122
 31
0.0
  0
LINE
  5
370
330
1F
100
AcDbEntity
  8
SK2
100
AcDbLine
 10
240.694248
 20
210.183122
 30
0.0
 11
265.194248
 21
210.183122
 31
0.0
  0
SOLID
  5
371
330
1F
100
AcDbEntity
  8
SK2
100
AcDbTrace
 10
249.444248
 20
210.183122
 30
0.0
 11
245.944251
 21
209.565978
 31
0.0
 12
245.944246
 22
210.800267
 32
0.0
 13
245.944246
 23
210.800267
 33
0.0
  0
SOLID
  5
372
330
1F
100
AcDbEntity
  8
SK2
100
AcDbTrace
 10
256.444248
 20
210.183122
 30
0.0
 11
259.944246
 21
210.800267
 31
0.0
 12
259.9442509999999
 22
209.565978
 32
0.0
 13
259.9442509999999
 23
209.565978
 33
0.0
  0
LINE
  5
373
330
1F
100
AcDbEntity
  8
CUT
100
AcDbLine
 10
293.4476517835117
 20
294.281824823491
 30
0.0
 11
293.4485264126033
 21
294.1837341514163
 31
0.0
  0
LINE
  5
374
330
1F
100
AcDbEntity
  8
CUT
100
AcDbLine
 10
299.3277464626249
 20
282.1010138731318
 30
0.0
 11
299.3758788311883
 21
286.7923475562694
 31
0.0
  0
LINE
  5
375
330
1F
100
AcDbEntity
  8
CUT
100
AcDbLine
 10
299.4399701573817
 20
294.1837341514163
 30
0.0
 11
299.4408447864733
 21
294.281824823491
 31
0.0
  0
LINE
  5
378
330
1F
100
AcDbEntity
  8
CUT
100
AcDbLine
 10
299.3758788311883
 20
286.7923475562694
 30
0.0
 11
299.4229549276009
 21
292.0438416911842
 31
0.0
  0
LINE
  5
379
330
1F
100
AcDbEntity
  8
CUT
100
AcDbLine
 10
299.3418167840308
 20
294.3814895835808
 30
0.0
 11
296.4442482849928
 21
294.4322754956731
 31
0.0
  0
LINE
  5
37A
330
1F
100
AcDbEntity
  8
CUT
100
AcDbLine
 10
296.4442482849916
 20
282.1866215234958
 30
0.0
 11
299.2322088901448
 21
282.1299934405642
 31
0.0
  0
LINE
  5
37D
330
1F
100
AcDbEntity
  8
CUT
100
AcDbLine
 10
293.6562876798401
 20
282.1299934405642
 30
0.0
 11
296.4442482849916
 21
282.1866215234958
 31
0.0
  0
LINE
  5
382
330
1F
100
AcDbEntity
  8
CUT
100
AcDbLine
 10
293.5466797859541
 20
294.3814895835808
 30
0.0
 11
293.4476517835117
 21
294.281824823491
 31
0.0
  0
LINE
  5
384
330
1F
100
AcDbEntity
  8
CUT
100
AcDbLine
 10
299.4408447864733
 20
294.281824823491
 30
0.0
 11
299.3418167840308
 21
294.3814895835808
 31
0.0
  0
LINE
  5
38C
330
1F
100
AcDbEntity
  8
CUT
100
AcDbLine
 10
293.5126177387967
 20
286.7923475562694
 30
0.0
 11
293.5607501073601
 21
282.1010138731316
 31
0.0
  0
LINE
  5
38D
330
1F
100
AcDbEntity
  8
CUT
100
AcDbLine
 10
293.465541642384
 20
292.0438416911842
 30
0.0
 11
293.5126177387967
 21
286.7923475562694
 31
0.0
  0
LINE
  5
38E
330
1F
100
AcDbEntity
  8
CUT
100
AcDbLine
 10
296.4442482849923
 20
294.4322754956731
 30
0.0
 11
293.5466797859541
 21
294.3814895835808
 31
0.0
  0
ARC
  5
391
330
1F
100
AcDbEntity
  8
CUT
100
AcDbCircle
 10
201.4960029329957
 20
292.3683429104317
 30
0.0
 40
91.97044209758718
100
AcDbArc
 50
359.9644855457761
 51
1.131026550121041
  0
ARC
  5
392
330
1F
100
AcDbEntity
  8
CUT
100
AcDbCircle
 10
221.3188167546849
 20
292.4164808840584
 30
0.0
 40
72.14768722550584
100
AcDbArc
 50
359.7040688512332
 51
359.9164992679045
  0
LINE
  5
393
330
1F
100
AcDbEntity
  8
CUT
100
AcDbLine
 10
299.2322088901448
 20
282.1299934405642
 30
0.0
 11
299.2322088901448
 21
282.1299934405642
 31
0.0
  0
ARC
  5
394
330
1F
100
AcDbEntity
  8
CUT
100
AcDbCircle
 10
310.6257434010682
 20
319.5193371610288
 30
0.0
 40
39.08677081185717
100
AcDbArc
 50
253.0526169796693
 51
253.1989628538544
  0
LINE
  5
395
330
1F
100
AcDbEntity
  8
CUT
100
AcDbLine
 10
299.422954927601
 20
292.0438416911842
 30
0.0
 11
299.422954927601
 21
292.0438416911842
 31
0.0
  0
ARC
  5
396
330
1F
100
AcDbEntity
  8
CUT
100
AcDbCircle
 10
385.4721994214448
 20
292.4296400326983
 30
0.0
 40
86.05010934520432
100
AcDbArc
 50
178.8319695090937
 51
180.2568816115977
  0
LINE
  5
39D
330
1F
100
AcDbEntity
  8
CUT
100
AcDbLine
 10
293.5607501073601
 20
282.1010138731316
 30
0.0
 11
293.5607501073601
 21
282.1010138731316
 31
0.0
  0
ARC
  5
39E
330
1F
100
AcDbEntity
  8
CUT
100
AcDbCircle
 10
282.2627531384932
 20
319.5193372611071
 30
0.0
 40
39.08677091645759
100
AcDbArc
 50
286.801037146435
 51
286.9473830202285
  0
ENDSEC
  0
SECTION
  2
OBJECTS
  0
DICTIONARY
  5
C
330
0
100
AcDbDictionary
281
     1
  3
ACAD_CIP_PREVIOUS_PRODUCT_INFO
350
345
  3
ACAD_COLOR
350
33F
  3
ACAD_DETAILVIEWSTYLE
350
33B
  3
ACAD_GROUP
350
D
  3
ACAD_IMAGE_DICT
350
1C1
  3
ACAD_IMAGE_VARS
350
344
  3
ACAD_LAYOUT
350
1A
  3
ACAD_MATERIAL
350
43
  3
ACAD_MLEADERSTYLE
350
6B
  3
ACAD_MLINESTYLE
350
17
  3
ACAD_PLOTSETTINGS
350
19
  3
ACAD_PLOTSTYLENAME
350
E
  3
ACAD_SCALELIST
350
47
  3
ACAD_SECTIONVIEWSTYLE
350
33C
  3
ACAD_TABLESTYLE
350
69
  3
ACAD_VISUALSTYLE
350
2A
  3
ACDB_RECOMPOSE_DATA
350
3D8
  3
AcDbVariableDictionary
350
2F8
  3
AcDsDecomposeData
350
3DE
  0
DICTIONARY
  5
3CD
330
2
100
AcDbDictionary
280
     1
281
     1
  3
ACAD_LAYERSTATES
360
3CE
  0
DICTIONARY
  5
3AE
330
10
100
AcDbDictionary
280
     1
281
     1
  3
ADSK_XREC_LAYER_RECONCILED
360
3AF
  0
DICTIONARY
  5
3B0
330
79
100
AcDbDictionary
280
     1
281
     1
  3
ADSK_XREC_LAYER_RECONCILED
360
3B1
  0
DICTIONARY
  5
3B2
330
39F
100
AcDbDictionary
280
     1
281
     1
  3
ADSK_XREC_LAYER_RECONCILED
360
3B3
  0
DICTIONARY
  5
3B4
330
3A0
100
AcDbDictionary
280
     1
281
     1
  3
ADSK_XREC_LAYER_RECONCILED
360
3B5
  0
DICTIONARY
  5
3B6
330
3A1
100
AcDbDictionary
280
     1
281
     1
  3
ADSK_XREC_LAYER_RECONCILED
360
3B7
  0
DICTIONARY
  5
3B8
330
3A4
100
AcDbDictionary
280
     1
281
     1
  3
ADSK_XREC_LAYER_RECONCILED
360
3B9
  0
DICTIONARY
  5
3BA
330
3A5
100
AcDbDictionary
280
     1
281
     1
  3
ADSK_XREC_LAYER_RECONCILED
360
3BB
  0
DICTIONARY
  5
3BC
330
3A6
100
AcDbDictionary
280
     1
281
     1
  3
ADSK_XREC_LAYER_RECONCILED
360
3BD
  0
DICTIONARY
  5
3BE
330
3A7
100
AcDbDictionary
280
     1
281
     1
  3
ADSK_XREC_LAYER_RECONCILED
360
3BF
  0
DICTIONARY
  5
3C0
330
3A8
100
AcDbDictionary
280
     1
281
     1
  3
ADSK_XREC_LAYER_RECONCILED
360
3C1
  0
DICTIONARY
  5
3C2
330
3A9
100
AcDbDictionary
280
     1
281
     1
  3
ADSK_XREC_LAYER_RECONCILED
360
3C3
  0
DICTIONARY
  5
3C4
330
3AA
100
AcDbDictionary
280
     1
281
     1
  3
ADSK_XREC_LAYER_RECONCILED
360
3C5
  0
DICTIONARY
  5
3C6
330
3AB
100
AcDbDictionary
280
     1
281
     1
  3
ADSK_XREC_LAYER_RECONCILED
360
3C7
  0
DICTIONARY
  5
3C8
330
3AC
100
AcDbDictionary
280
     1
281
     1
  3
ADSK_XREC_LAYER_RECONCILED
360
3C9
  0
DICTIONARY
  5
346
330
1F
100
AcDbDictionary
280
     1
281
     1
  3
ACAD_SORTENTS
360
347
  0
XRECORD
  5
345
102
{ACAD_REACTORS
330
C
102
}
330
C
100
AcDbXrecord
280
     1
300
ACD
300
2019
300
87084ACD_2019_0F
  0
DICTIONARY
  5
33F
102
{ACAD_REACTORS
330
C
102
}
330
C
100
AcDbDictionary
281
     1
  0
DICTIONARY
  5
33B
102
{ACAD_REACTORS
330
C
102
}
330
C
100
AcDbDictionary
281
     1
  3
Metric50
350
341
  0
DICTIONARY
  5
D
102
{ACAD_REACTORS
330
C
102
}
330
C
100
AcDbDictionary
281
     1
  3
NULOVY_BOD
350
3AD
  0
DICTIONARY
  5
1C1
102
{ACAD_REACTORS
330
C
102
}
330
C
100
AcDbDictionary
281
     1
  3
100A05R_S90SN12N6_2D_DormerPramet_jpg
350
1C2
  0
RASTERVARIABLES
  5
344
102
{ACAD_REACTORS
330
C
102
}
330
C
100
AcDbRasterVariables
 90
        0
 70
     1
 71
     1
 72
     1
  0
DICTIONARY
  5
1A
102
{ACAD_REACTORS
330
C
102
}
330
C
100
AcDbDictionary
281
     1
  3
Layout1
350
1E
  3
Layout2
350
26
  3
Model
350
22
  0
DICTIONARY
  5
43
102
{ACAD_REACTORS
330
C
102
}
330
C
100
AcDbDictionary
281
     1
  3
ByBlock
350
45
  3
ByLayer
350
44
  3
Global
350
46
  0
DICTIONARY
  5
6B
102
{ACAD_REACTORS
330
C
102
}
330
C
100
AcDbDictionary
281
     1
  3
Standard
350
6C
  0
DICTIONARY
  5
17
102
{ACAD_REACTORS
330
C
102
}
330
C
100
AcDbDictionary
281
     1
  3
Standard
350
18
  0
DICTIONARY
  5
19
102
{ACAD_REACTORS
330
C
102
}
330
C
100
AcDbDictionary
281
     1
  0
ACDBDICTIONARYWDFLT
  5
E
102
{ACAD_REACTORS
330
C
102
}
330
C
100
AcDbDictionary
281
     1
  3
Normal
350
F
100
AcDbDictionaryWithDefault
340
F
  0
DICTIONARY
  5
47
102
{ACAD_REACTORS
330
C
102
}
330
C
100
AcDbDictionary
281
     1
  3
A0
350
48
  3
A1
350
49
  3
A2
350
4A
  3
A3
350
4B
  3
A4
350
4C
  3
A5
350
4D
  3
A6
350
4E
  3
A7
350
4F
  3
A8
350
50
  3
A9
350
51
  3
B0
350
52
  3
B1
350
53
  3
B2
350
54
  3
B3
350
55
  3
B4
350
56
  3
B5
350
57
  3
B6
350
58
  3
B7
350
59
  3
B8
350
5A
  3
B9
350
5B
  3
C0
350
5C
  3
C1
350
5D
  3
C2
350
5E
  3
C3
350
5F
  3
C4
350
60
  3
C5
350
61
  3
C6
350
62
  3
C7
350
63
  3
C8
350
64
  3
C9
350
65
  3
D0
350
66
  3
D1
350
67
  3
D2
350
68
  0
DICTIONARY
  5
33C
102
{ACAD_REACTORS
330
C
102
}
330
C
100
AcDbDictionary
281
     1
  3
Metric50
350
340
  0
DICTIONARY
  5
69
102
{ACAD_REACTORS
330
C
102
}
330
C
100
AcDbDictionary
281
     1
  3
Standard
350
6A
  0
DICTIONARY
  5
2A
102
{ACAD_REACTORS
330
C
102
}
330
C
100
AcDbDictionary
281
     1
  3
2dWireframe
350
2F
  3
Basic
350
32
  3
Brighten
350
36
  3
ColorChange
350
3A
  3
Conceptual
350
34
  3
Dim
350
35
  3
EdgeColorOff
350
3D
  3
Facepattern
350
39
  3
Flat
350
2B
  3
FlatWithEdges
350
2C
  3
Gouraud
350
2D
  3
GouraudWithEdges
350
2E
  3
Hidden
350
31
  3
JitterOff
350
3B
  3
Linepattern
350
38
  3
OverhangOff
350
3C
  3
Realistic
350
33
  3
Shaded
350
42
  3
Shaded with edges
350
41
  3
Shades of Gray
350
3E
  3
Sketchy
350
3F
  3
Thicken
350
37
  3
Wireframe
350
30
  3
X-Ray
350
40
  0
XRECORD
  5
3D8
102
{ACAD_REACTORS
330
C
102
}
330
C
100
AcDbXrecord
280
     1
 90
        1
330
6A
  0
DICTIONARY
  5
2F8
102
{ACAD_REACTORS
330
C
102
}
330
C
100
AcDbDictionary
281
     1
  3
CANNOSCALE
350
2F9
  3
CMLEADERSTYLE
350
33A
  3
CTABLESTYLE
350
339
  3
CVIEWDETAILSTYLE
350
3D3
  3
CVIEWSECTIONSTYLE
350
3D4
  3
MSLTSCALE
350
2FA
  3
XCLIPFRAME
350
3D5
  0
DICTIONARY
  5
3DE
102
{ACAD_REACTORS
330
C
102
}
330
C
100
AcDbDictionary
281
     1
  3
AcDsRecords
350
3E0
  3
AcDsSchemas
350
3DF
1001
ACAD
1070
     2
  0
DICTIONARY
  5
3CE
102
{ACAD_REACTORS
330
3CD
102
}
330
3CD
100
AcDbDictionary
281
     1
  0
XRECORD
  5
3AF
102
{ACAD_REACTORS
330
3AE
102
}
330
3AE
100
AcDbXrecord
280
     1
290
     1
  0
XRECORD
  5
3B1
102
{ACAD_REACTORS
330
3B0
102
}
330
3B0
100
AcDbXrecord
280
     1
290
     1
  0
XRECORD
  5
3B3
102
{ACAD_REACTORS
330
3B2
102
}
330
3B2
100
AcDbXrecord
280
     1
290
     1
  0
XRECORD
  5
3B5
102
{ACAD_REACTORS
330
3B4
102
}
330
3B4
100
AcDbXrecord
280
     1
290
     1
  0
XRECORD
  5
3B7
102
{ACAD_REACTORS
330
3B6
102
}
330
3B6
100
AcDbXrecord
280
     1
290
     1
  0
XRECORD
  5
3B9
102
{ACAD_REACTORS
330
3B8
102
}
330
3B8
100
AcDbXrecord
280
     1
290
     1
  0
XRECORD
  5
3BB
102
{ACAD_REACTORS
330
3BA
102
}
330
3BA
100
AcDbXrecord
280
     1
290
     1
  0
XRECORD
  5
3BD
102
{ACAD_REACTORS
330
3BC
102
}
330
3BC
100
AcDbXrecord
280
     1
290
     1
  0
XRECORD
  5
3BF
102
{ACAD_REACTORS
330
3BE
102
}
330
3BE
100
AcDbXrecord
280
     1
290
     1
  0
XRECORD
  5
3C1
102
{ACAD_REACTORS
330
3C0
102
}
330
3C0
100
AcDbXrecord
280
     1
290
     1
  0
XRECORD
  5
3C3
102
{ACAD_REACTORS
330
3C2
102
}
330
3C2
100
AcDbXrecord
280
     1
290
     1
  0
XRECORD
  5
3C5
102
{ACAD_REACTORS
330
3C4
102
}
330
3C4
100
AcDbXrecord
280
     1
290
     1
  0
XRECORD
  5
3C7
102
{ACAD_REACTORS
330
3C6
102
}
330
3C6
100
AcDbXrecord
280
     1
290
     1
  0
XRECORD
  5
3C9
102
{ACAD_REACTORS
330
3C8
102
}
330
3C8
100
AcDbXrecord
280
     1
290
     1
  0
SORTENTSTABLE
  5
347
102
{ACAD_REACTORS
330
346
102
}
330
346
100
AcDbSortentsTable
330
1F
331
348
  5
34D
331
349
  5
34E
331
34A
  5
34F
331
34B
  5
350
331
34C
  5
351
331
34D
  5
361
331
34E
  5
362
331
34F
  5
363
331
350
  5
364
331
351
  5
365
331
352
  5
366
331
353
  5
36D
331
354
  5
36E
331
355
  5
36F
331
356
  5
370
331
357
  5
371
331
358
  5
372
331
359
  5
268
331
35A
  5
281
331
35B
  5
2B2
331
35C
  5
348
331
35D
  5
349
331
35E
  5
34C
331
35F
  5
353
331
360
  5
354
331
361
  5
355
331
362
  5
356
331
363
  5
357
331
364
  5
358
331
365
  5
359
331
366
  5
35A
331
367
  5
35B
331
368
  5
35C
331
369
  5
35D
331
36A
  5
35E
331
36B
  5
35F
331
36C
  5
360
331
36D
  5
367
331
36E
  5
368
331
36F
  5
369
331
370
  5
36A
331
371
  5
36B
331
372
  5
36C
331
378
  5
37A
331
379
  5
37B
331
37A
  5
37C
331
37D
  5
383
331
382
  5
38F
331
384
  5
391
331
38C
  5
39C
331
38D
  5
39D
331
38E
  5
39E
331
391
  5
384
331
392
  5
386
331
393
  5
389
331
394
  5
38A
331
395
  5
38B
331
396
  5
38C
331
39D
  5
397
331
39E
  5
398
  0
ACDBDETAILVIEWSTYLE
  5
341
102
{ACAD_XDICTIONARY
360
414
102
}
102
{ACAD_REACTORS
330
33B
102
}
330
33B
100
AcDbModelDocViewStyle
 70
     0
  3
Metric50
290
     0
100
AcDbDetailViewStyle
 70
     0
 71
     0
 90
        3
 71
     1
340
11
 62
   256
 40
5.0
340
0
 62
   256
 40
5.0
300

 40
0.0
280
     1
 71
     2
340
16
 90
       25
 62
   256
 71
     3
340
11
 62
   256
 40
5.0
 90
        0
 40
15.0
 90
        1
300
%<\AcVar ViewDetailId>% (%<\AcVar ViewScale \f "%sn">%)
 71
     4
340
16
 90
       25
 62
   256
340
16
 90
       25
 62
   256
280
     0
  0
GROUP
  5
3AD
102
{ACAD_REACTORS
330
D
102
}
330
D
100
AcDbGroup
300

 70
     0
 71
     1
340
73
  0
IMAGEDEF
  5
1C2
102
{ACAD_REACTORS
330
1C1
330
1C5
102
}
330
1C1
100
AcDbRasterImageDef
 90
        0
  1
C:\Users\pp0701\Desktop\zakaznik data\100A05R_S90SN12N6_2D_DormerPramet.jpg
 10
2089.0
 20
531.0
 11
0.0004786979415989
 21
0.0004786979415989
280
     1
281
     0
  0
LAYOUT
  5
1E
102
{ACAD_REACTORS
330
1A
102
}
330
1A
100
AcDbPlotSettings
  1

  2
none_device
  4

  6

 40
0.0
 41
0.0
 42
0.0
 43
0.0
 44
0.0
 45
0.0
 46
0.0
 47
0.0
 48
0.0
 49
0.0
140
0.0
141
0.0
142
1.0
143
1.0
 70
   688
 72
     0
 73
     0
 74
     5
  7

 75
    16
147
1.0
 76
     0
 77
     2
 78
   300
148
0.0
149
0.0
100
AcDbLayout
  1
Layout1
 70
     1
 71
     1
 10
-0.5
 20
-0.5
 11
5.0
 21
5.0
 12
0.0
 22
0.0
 32
0.0
 14
-0.5
 24
-0.5
 34
-0.5
 15
5.0
 25
5.0
 35
5.0
146
0.0
 13
0.0
 23
0.0
 33
0.0
 16
1.0
 26
0.0
 36
0.0
 17
0.0
 27
1.0
 37
0.0
 76
     0
330
1B
  0
LAYOUT
  5
26
102
{ACAD_REACTORS
330
1A
102
}
330
1A
100
AcDbPlotSettings
  1

  2
none_device
  4

  6

 40
0.0
 41
0.0
 42
0.0
 43
0.0
 44
0.0
 45
0.0
 46
0.0
 47
0.0
 48
0.0
 49
0.0
140
0.0
141
0.0
142
1.0
143
1.0
 70
   688
 72
     0
 73
     0
 74
     5
  7

 75
    16
147
1.0
 76
     0
 77
     2
 78
   300
148
0.0
149
0.0
100
AcDbLayout
  1
Layout2
 70
     1
 71
     2
 10
0.0
 20
0.0
 11
0.0
 21
0.0
 12
0.0
 22
0.0
 32
0.0
 14
0.0
 24
0.0
 34
0.0
 15
0.0
 25
0.0
 35
0.0
146
0.0
 13
0.0
 23
0.0
 33
0.0
 16
1.0
 26
0.0
 36
0.0
 17
0.0
 27
1.0
 37
0.0
 76
     0
330
23
  0
LAYOUT
  5
22
102
{ACAD_REACTORS
330
1A
102
}
330
1A
100
AcDbPlotSettings
  1

  2
none_device
  4
Letter_(8.50_x_11.00_Inches)
  6

 40
6.349999999999999
 41
6.349999999999999
 42
6.350005
 43
6.350005
 44
215.9
 45
279.4
 46
0.0
 47
0.0
 48
0.0
 49
0.0
140
0.0
141
0.0
142
1.0
143
1.0
 70
  1712
 72
     0
 73
     0
 74
     0
  7

 75
     0
147
1.0
 76
     0
 77
     2
 78
   300
148
0.0
149
0.0
100
AcDbLayout
  1
Model
 70
     1
 71
     0
 10
-0.5
 20
-0.5
 11
5.0
 21
5.0
 12
0.0
 22
0.0
 32
0.0
 14
-0.5
 24
-0.5
 34
-0.5
 15
5.0
 25
5.0
 35
5.0
146
0.0
 13
0.0
 23
0.0
 33
0.0
 16
1.0
 26
0.0
 36
0.0
 17
0.0
 27
1.0
 37
0.0
 76
     0
330
1F
331
29
  0
MATERIAL
  5
45
102
{ACAD_XDICTIONARY
360
32E
102
}
102
{ACAD_REACTORS
330
43
102
}
330
43
100
AcDbMaterial
  1
ByBlock
  0
MATERIAL
  5
44
102
{ACAD_XDICTIONARY
360
32C
102
}
102
{ACAD_REACTORS
330
43
102
}
330
43
100
AcDbMaterial
  1
ByLayer
  0
MATERIAL
  5
46
102
{ACAD_XDICTIONARY
360
330
102
}
102
{ACAD_REACTORS
330
43
102
}
330
43
100
AcDbMaterial
  1
Global
  0
MLEADERSTYLE
  5
6C
102
{ACAD_REACTORS
330
6B
102
}
330
6B
100
AcDbMLeaderStyle
170
     2
171
     1
172
     0
 90
        2
 40
0.0
 41
0.0
173
     1
 91
-1056964608
340
14
 92
       -2
290
     1
 42
0.09
291
     1
 43
0.36
  3
Standard
 44
0.18
300

342
11
174
     1
178
     6
175
     1
176
     0
 93
-1056964608
 45
0.18
292
     0
297
     0
 46
0.18
 94
-1056964608
 47
1.0
 49
1.0
140
1.0
293
     1
141
0.0
294
     1
177
     0
142
1.0
295
     0
296
     0
143
0.125
1001
ACAD_MLEADERVER
1070
     2
  0
MLINESTYLE
  5
18
102
{ACAD_REACTORS
330
17
102
}
330
17
100
AcDbMlineStyle
  2
STANDARD
 70
     0
  3

 62
   256
 51
90.0
 52
90.0
 71
     2
 49
0.5
 62
   256
  6
BYLAYER
 49
-0.5
 62
   256
  6
BYLAYER
  0
ACDBPLACEHOLDER
  5
F
102
{ACAD_REACTORS
330
E
102
}
330
E
  0
SCALE
  5
48
102
{ACAD_REACTORS
330
47
102
}
330
47
100
AcDbScale
 70
     0
300
1:1
140
1.0
141
1.0
290
     1
  0
SCALE
  5
49
102
{ACAD_REACTORS
330
47
102
}
330
47
100
AcDbScale
 70
     0
300
1:2
140
1.0
141
2.0
290
     0
  0
SCALE
  5
4A
102
{ACAD_REACTORS
330
47
102
}
330
47
100
AcDbScale
 70
     0
300
1:4
140
1.0
141
4.0
290
     0
  0
SCALE
  5
4B
102
{ACAD_REACTORS
330
47
102
}
330
47
100
AcDbScale
 70
     0
300
1:5
140
1.0
141
5.0
290
     0
  0
SCALE
  5
4C
102
{ACAD_REACTORS
330
47
102
}
330
47
100
AcDbScale
 70
     0
300
1:8
140
1.0
141
8.0
290
     0
  0
SCALE
  5
4D
102
{ACAD_REACTORS
330
47
102
}
330
47
100
AcDbScale
 70
     0
300
1:10
140
1.0
141
10.0
290
     0
  0
SCALE
  5
4E
102
{ACAD_REACTORS
330
47
102
}
330
47
100
AcDbScale
 70
     0
300
1:16
140
1.0
141
16.0
290
     0
  0
SCALE
  5
4F
102
{ACAD_REACTORS
330
47
102
}
330
47
100
AcDbScale
 70
     0
300
1:20
140
1.0
141
20.0
290
     0
  0
SCALE
  5
50
102
{ACAD_REACTORS
330
47
102
}
330
47
100
AcDbScale
 70
     0
300
1:30
140
1.0
141
30.0
290
     0
  0
SCALE
  5
51
102
{ACAD_REACTORS
330
47
102
}
330
47
100
AcDbScale
 70
     0
300
1:40
140
1.0
141
40.0
290
     0
  0
SCALE
  5
52
102
{ACAD_REACTORS
330
47
102
}
330
47
100
AcDbScale
 70
     0
300
1:50
140
1.0
141
50.0
290
     0
  0
SCALE
  5
53
102
{ACAD_REACTORS
330
47
102
}
330
47
100
AcDbScale
 70
     0
300
1:100
140
1.0
141
100.0
290
     0
  0
SCALE
  5
54
102
{ACAD_REACTORS
330
47
102
}
330
47
100
AcDbScale
 70
     0
300
2:1
140
2.0
141
1.0
290
     0
  0
SCALE
  5
55
102
{ACAD_REACTORS
330
47
102
}
330
47
100
AcDbScale
 70
     0
300
4:1
140
4.0
141
1.0
290
     0
  0
SCALE
  5
56
102
{ACAD_REACTORS
330
47
102
}
330
47
100
AcDbScale
 70
     0
300
8:1
140
8.0
141
1.0
290
     0
  0
SCALE
  5
57
102
{ACAD_REACTORS
330
47
102
}
330
47
100
AcDbScale
 70
     0
300
10:1
140
10.0
141
1.0
290
     0
  0
SCALE
  5
58
102
{ACAD_REACTORS
330
47
102
}
330
47
100
AcDbScale
 70
     0
300
100:1
140
100.0
141
1.0
290
     0
  0
SCALE
  5
59
102
{ACAD_REACTORS
330
47
102
}
330
47
100
AcDbScale
 70
     0
300
1/128" = 1'-0"
140
0.007812
141
12.0
290
     0
  0
SCALE
  5
5A
102
{ACAD_REACTORS
330
47
102
}
330
47
100
AcDbScale
 70
     0
300
1/64" = 1'-0"
140
0.015625
141
12.0
290
     0
  0
SCALE
  5
5B
102
{ACAD_REACTORS
330
47
102
}
330
47
100
AcDbScale
 70
     0
300
1/32" = 1'-0"
140
0.03125
141
12.0
290
     0
  0
SCALE
  5
5C
102
{ACAD_REACTORS
330
47
102
}
330
47
100
AcDbScale
 70
     0
300
1/16" = 1'-0"
140
0.0625
141
12.0
290
     0
  0
SCALE
  5
5D
102
{ACAD_REACTORS
330
47
102
}
330
47
100
AcDbScale
 70
     0
300
3/32" = 1'-0"
140
0.09375
141
12.0
290
     0
  0
SCALE
  5
5E
102
{ACAD_REACTORS
330
47
102
}
330
47
100
AcDbScale
 70
     0
300
1/8" = 1'-0"
140
0.125
141
12.0
290
     0
  0
SCALE
  5
5F
102
{ACAD_REACTORS
330
47
102
}
330
47
100
AcDbScale
 70
     0
300
3/16" = 1'-0"
140
0.1875
141
12.0
290
     0
  0
SCALE
  5
60
102
{ACAD_REACTORS
330
47
102
}
330
47
100
AcDbScale
 70
     0
300
1/4" = 1'-0"
140
0.25
141
12.0
290
     0
  0
SCALE
  5
61
102
{ACAD_REACTORS
330
47
102
}
330
47
100
AcDbScale
 70
     0
300
3/8" = 1'-0"
140
0.375
141
12.0
290
     0
  0
SCALE
  5
62
102
{ACAD_REACTORS
330
47
102
}
330
47
100
AcDbScale
 70
     0
300
1/2" = 1'-0"
140
0.5
141
12.0
290
     0
  0
SCALE
  5
63
102
{ACAD_REACTORS
330
47
102
}
330
47
100
AcDbScale
 70
     0
300
3/4" = 1'-0"
140
0.75
141
12.0
290
     0
  0
SCALE
  5
64
102
{ACAD_REACTORS
330
47
102
}
330
47
100
AcDbScale
 70
     0
300
1" = 1'-0"
140
1.0
141
12.0
290
     0
  0
SCALE
  5
65
102
{ACAD_REACTORS
330
47
102
}
330
47
100
AcDbScale
 70
     0
300
1-1/2" = 1'-0"
140
1.5
141
12.0
290
     0
  0
SCALE
  5
66
102
{ACAD_REACTORS
330
47
102
}
330
47
100
AcDbScale
 70
     0
300
3" = 1'-0"
140
3.0
141
12.0
290
     0
  0
SCALE
  5
67
102
{ACAD_REACTORS
330
47
102
}
330
47
100
AcDbScale
 70
     0
300
6" = 1'-0"
140
6.0
141
12.0
290
     0
  0
SCALE
  5
68
102
{ACAD_REACTORS
330
47
102
}
330
47
100
AcDbScale
 70
     0
300
1'-0" = 1'-0"
140
12.0
141
12.0
290
     0
  0
ACDBSECTIONVIEWSTYLE
  5
340
102
{ACAD_XDICTIONARY
360
412
102
}
102
{ACAD_REACTORS
330
33C
102
}
330
33C
100
AcDbModelDocViewStyle
 70
     0
  3
Metric50
290
     0
100
AcDbSectionViewStyle
 70
     0
 71
     0
 90
      102
 71
     1
340
11
 62
   256
 40
5.0
340
0
340
0
 62
   256
 40
5.0
300
I, O, Q, S, X, Z
 40
10.0
 90
        0
 40
2.5
 90
        0
 71
     2
340
16
 90
       25
 62
   256
340
16
 90
       50
 62
   256
 40
5.0
 40
2.5
 40
5.0
 71
     3
340
11
 62
   256
 40
5.0
 90
        0
 40
15.0
 90
        1
300
%<\AcVar ViewSectionStartId>%-%<\AcVar ViewSectionEndId>% (%<\AcVar ViewScale \f "%sn">%)
 71
     4
 62
   256
 62
   257
300
ANSI31
 40
1.0
 90
        0
290
     0
290
     0
 90
        6
 40
0.0
 40
1.570796326794896
 40
0.2617993877991494
 40
1.308996938995747
 40
-0.2617993877991494
 40
1.832595714594046
  0
TABLESTYLE
  5
6A
102
{ACAD_XDICTIONARY
360
332
102
}
102
{ACAD_REACTORS
330
69
102
}
330
69
100
AcDbTableStyle
  3
Standard
 70
     0
 71
     0
 40
0.06
 41
0.06
280
     0
281
     0
  7
Standard
140
0.18
170
     2
 62
     0
 63
     7
283
     0
274
    -2
284
     1
 64
     0
275
    -2
285
     1
 65
     0
276
    -2
286
     1
 66
     0
277
    -2
287
     1
 67
     0
278
    -2
288
     1
 68
     0
279
    -2
289
     1
 69
     0
  7
Standard
140
0.25
170
     5
 62
     0
 63
     7
283
     0
274
    -2
284
     1
 64
     0
275
    -2
285
     1
 65
     0
276
    -2
286
     1
 66
     0
277
    -2
287
     1
 67
     0
278
    -2
288
     1
 68
     0
279
    -2
289
     1
 69
     0
  7
Standard
140
0.18
170
     5
 62
     0
 63
     7
283
     0
274
    -2
284
     1
 64
     0
275
    -2
285
     1
 65
     0
276
    -2
286
     1
 66
     0
277
    -2
287
     1
 67
     0
278
    -2
288
     1
 68
     0
279
    -2
289
     1
 69
     0
  0
VISUALSTYLE
  5
2F
102
{ACAD_XDICTIONARY
360
3E9
102
}
102
{ACAD_REACTORS
330
2A
102
}
330
2A
100
AcDbVisualStyle
  2

 70
     4
 71
     0
 72
     2
 73
     0
 90
        0
 40
-0.6
 41
-30.0
 62
     5
 63
     7
421
 16777215
 74
     1
 91
        4
 64
     7
 65
   257
 75
     1
175
     1
 42
1.0
 92
        0
 66
   257
 43
1.0
 76
     1
 77
     6
 78
     2
 67
     7
 79
     5
170
     0
171
     0
290
     0
174
     0
 93
        1
 44
0.0
173
     0
291
     0
 45
0.0
1001
ACAD
1000
AcDbSavedByObjectVersion
1070
     0
  0
VISUALSTYLE
  5
32
102
{ACAD_XDICTIONARY
360
3EF
102
}
102
{ACAD_REACTORS
330
2A
102
}
330
2A
100
AcDbVisualStyle
  2

 70
     7
 71
     1
 72
     0
 73
     1
 90
        0
 40
-0.6
 41
-30.0
 62
     5
 63
     7
421
 16777215
 74
     0
 91
        4
 64
     7
 65
   257
 75
     1
175
     1
 42
1.0
 92
        8
 66
     7
 43
1.0
 76
     1
 77
     6
 78
     2
 67
     7
 79
     5
170
     0
171
     0
290
     0
174
     0
 93
        1
 44
0.0
173
     0
291
     1
 45
0.0
1001
ACAD
1000
AcDbSavedByObjectVersion
1070
     0
  0
VISUALSTYLE
  5
36
102
{ACAD_XDICTIONARY
360
3F7
102
}
102
{ACAD_REACTORS
330
2A
102
}
330
2A
100
AcDbVisualStyle
  2

 70
    12
 71
     2
 72
     2
 73
     0
 90
        0
 40
-0.6
 41
-30.0
 62
     5
 63
     7
421
 16777215
 74
     1
 91
        4
 64
     7
 65
   257
 75
     1
175
     1
 42
1.0
 92
        8
 66
     7
 43
1.0
 76
     1
 77
     6
 78
     2
 67
     7
 79
     5
170
     0
171
     0
290
     0
174
     0
 93
        1
 44
50.0
173
     0
291
     1
 45
0.0
1001
ACAD
1000
AcDbSavedByObjectVersion
1070
     0
  0
VISUALSTYLE
  5
3A
102
{ACAD_XDICTIONARY
360
3FF
102
}
102
{ACAD_REACTORS
330
2A
102
}
330
2A
100
AcDbVisualStyle
  2

 70
    16
 71
     2
 72
     2
 73
     3
 90
        0
 40
-0.6
 41
-30.0
 62
     5
 63
     8
421
  8421504
 74
     1
 91
        4
 64
     7
 65
   257
 75
     1
175
     1
 42
1.0
 92
        8
 66
     8
424
  8421504
 43
1.0
 76
     1
 77
     6
 78
     2
 67
     7
 79
     5
170
     0
171
     0
290
     0
174
     0
 93
        1
 44
0.0
173
     0
291
     1
 45
0.0
1001
ACAD
1000
AcDbSavedByObjectVersion
1070
     0
  0
VISUALSTYLE
  5
34
102
{ACAD_XDICTIONARY
360
3F3
102
}
102
{ACAD_REACTORS
330
2A
102
}
330
2A
100
AcDbVisualStyle
  2

 70
     9
 71
     3
 72
     2
 73
     0
 90
        0
 40
-0.6
 41
-30.0
 62
     5
 63
     7
421
 16777215
 74
     2
 91
        2
 64
     7
 65
   257
 75
     1
175
     1
 42
179.0
 92
        8
 66
     7
 43
1.0
 76
     1
 77
     6
 78
     2
 67
     7
 79
     3
170
     0
171
     0
290
     0
174
     0
 93
        1
 44
0.0
173
     0
291
     0
 45
0.0
1001
ACAD
1000
AcDbSavedByObjectVersion
1070
     0
  0
VISUALSTYLE
  5
35
102
{ACAD_XDICTIONARY
360
3F5
102
}
102
{ACAD_REACTORS
330
2A
102
}
330
2A
100
AcDbVisualStyle
  2

 70
    11
 71
     2
 72
     2
 73
     0
 90
        0
 40
-0.6
 41
-30.0
 62
     5
 63
     7
421
 16777215
 74
     1
 91
        4
 64
     7
 65
   257
 75
     1
175
     1
 42
1.0
 92
        8
 66
     7
 43
1.0
 76
     1
 77
     6
 78
     2
 67
     7
 79
     5
170
     0
171
     0
290
     0
174
     0
 93
        1
 44
-50.0
173
     0
291
     1
 45
0.0
1001
ACAD
1000
AcDbSavedByObjectVersion
1070
     0
  0
VISUALSTYLE
  5
3D
102
{ACAD_XDICTIONARY
360
405
102
}
102
{ACAD_REACTORS
330
2A
102
}
330
2A
100
AcDbVisualStyle
  2

 70
    22
 71
     2
 72
     2
 73
     0
 90
        0
 40
-0.6
 41
-30.0
 62
     5
 63
     7
421
 16777215
 74
     1
 91
        4
 64
     7
 65
   257
 75
     1
175
     1
 42
1.0
 92
        8
 66
     7
 43
1.0
 76
     1
 77
     6
 78
     2
 67
     7
 79
     5
170
     0
171
     0
290
     0
174
     0
 93
        1
 44
0.0
173
     0
291
     1
 45
0.0
1001
ACAD
1000
AcDbSavedByObjectVersion
1070
     0
  0
VISUALSTYLE
  5
39
102
{ACAD_XDICTIONARY
360
3FD
102
}
102
{ACAD_REACTORS
330
2A
102
}
330
2A
100
AcDbVisualStyle
  2

 70
    15
 71
     2
 72
     2
 73
     0
 90
        0
 40
-0.6
 41
-30.0
 62
     5
 63
     7
421
 16777215
 74
     1
 91
        4
 64
     7
 65
   257
 75
     1
175
     1
 42
1.0
 92
        8
 66
     7
 43
1.0
 76
     1
 77
     6
 78
     2
 67
     7
 79
     5
170
     0
171
     0
290
     0
174
     0
 93
        1
 44
0.0
173
     0
291
     1
 45
0.0
1001
ACAD
1000
AcDbSavedByObjectVersion
1070
     0
  0
VISUALSTYLE
  5
2B
102
{ACAD_XDICTIONARY
360
3E1
102
}
102
{ACAD_REACTORS
330
2A
102
}
330
2A
100
AcDbVisualStyle
  2

 70
     0
 71
     2
 72
     1
 73
     1
 90
        2
 40
-0.6
 41
30.0
 62
     5
 63
     7
421
 16777215
 74
     0
 91
        0
 64
     7
 65
   257
 75
     1
175
     1
 42
1.0
 92
        8
 66
     7
 43
1.0
 76
     1
 77
     6
 78
     2
 67
     7
 79
     5
170
     0
171
     0
290
     0
174
     0
 93
       13
 44
0.0
173
     0
291
     1
 45
0.0
1001
ACAD
1000
AcDbSavedByObjectVersion
1070
     0
  0
VISUALSTYLE
  5
2C
102
{ACAD_XDICTIONARY
360
3E3
102
}
102
{ACAD_REACTORS
330
2A
102
}
330
2A
100
AcDbVisualStyle
  2

 70
     1
 71
     2
 72
     1
 73
     1
 90
        2
 40
-0.6
 41
30.0
 62
     5
 63
     7
421
 16777215
 74
     1
 91
        0
 64
     7
 65
   257
 75
     1
175
     1
 42
1.0
 92
        0
 66
   257
 43
1.0
 76
     1
 77
     6
 78
     2
 67
     7
 79
     5
170
     0
171
     0
290
     0
174
     0
 93
       13
 44
0.0
173
     0
291
     1
 45
0.0
1001
ACAD
1000
AcDbSavedByObjectVersion
1070
     0
  0
VISUALSTYLE
  5
2D
102
{ACAD_XDICTIONARY
360
3E5
102
}
102
{ACAD_REACTORS
330
2A
102
}
330
2A
100
AcDbVisualStyle
  2

 70
     2
 71
     2
 72
     2
 73
     1
 90
        2
 40
-0.6
 41
30.0
 62
     5
 63
     7
421
 16777215
 74
     0
 91
        0
 64
     7
 65
   257
 75
     1
175
     1
 42
1.0
 92
        0
 66
     7
 43
1.0
 76
     1
 77
     6
 78
     2
 67
     7
 79
     5
170
     0
171
     0
290
     0
174
     0
 93
       13
 44
0.0
173
     0
291
     1
 45
0.0
1001
ACAD
1000
AcDbSavedByObjectVersion
1070
     0
  0
VISUALSTYLE
  5
2E
102
{ACAD_XDICTIONARY
360
3E7
102
}
102
{ACAD_REACTORS
330
2A
102
}
330
2A
100
AcDbVisualStyle
  2

 70
     3
 71
     2
 72
     2
 73
     1
 90
        2
 40
-0.6
 41
30.0
 62
     5
 63
     7
421
 16777215
 74
     1
 91
        0
 64
     7
 65
   257
 75
     1
175
     1
 42
1.0
 92
        0
 66
   257
 43
1.0
 76
     1
 77
     6
 78
     2
 67
     7
 79
     5
170
     0
171
     0
290
     0
174
     0
 93
       13
 44
0.0
173
     0
291
     1
 45
0.0
1001
ACAD
1000
AcDbSavedByObjectVersion
1070
     0
  0
VISUALSTYLE
  5
31
102
{ACAD_XDICTIONARY
360
3ED
102
}
102
{ACAD_REACTORS
330
2A
102
}
330
2A
100
AcDbVisualStyle
  2

 70
     6
 71
     1
 72
     2
 73
     2
 90
        0
 40
-0.6
 41
-30.0
 62
     5
 63
     7
421
 16777215
 74
     2
 91
        2
 64
     7
 65
   257
 75
     2
175
     1
 42
40.0
 92
        0
 66
   257
 43
1.0
 76
     1
 77
     6
 78
     2
 67
     7
 79
     3
170
     0
171
     0
290
     0
174
     0
 93
        1
 44
0.0
173
     0
291
     0
 45
0.0
1001
ACAD
1000
AcDbSavedByObjectVersion
1070
     0
  0
VISUALSTYLE
  5
3B
102
{ACAD_XDICTIONARY
360
401
102
}
102
{ACAD_REACTORS
330
2A
102
}
330
2A
100
AcDbVisualStyle
  2

 70
    20
 71
     2
 72
     2
 73
     0
 90
        0
 40
-0.6
 41
-30.0
 62
     5
 63
     7
421
 16777215
 74
     1
 91
        4
 64
     7
 65
   257
 75
     1
175
     1
 42
1.0
 92
       10
 66
     7
 43
1.0
 76
     1
 77
     6
 78
     2
 67
     7
 79
     5
170
     0
171
     0
290
     0
174
     0
 93
        1
 44
0.0
173
     0
291
     1
 45
0.0
1001
ACAD
1000
AcDbSavedByObjectVersion
1070
     0
  0
VISUALSTYLE
  5
38
102
{ACAD_XDICTIONARY
360
3FB
102
}
102
{ACAD_REACTORS
330
2A
102
}
330
2A
100
AcDbVisualStyle
  2

 70
    14
 71
     2
 72
     2
 73
     0
 90
        0
 40
-0.6
 41
-30.0
 62
     5
 63
     7
421
 16777215
 74
     1
 91
        4
 64
     7
 65
   257
 75
     7
175
     7
 42
1.0
 92
        8
 66
     7
 43
1.0
 76
     1
 77
     6
 78
     2
 67
     7
 79
     5
170
     0
171
     0
290
     0
174
     0
 93
        1
 44
0.0
173
     0
291
     1
 45
0.0
1001
ACAD
1000
AcDbSavedByObjectVersion
1070
     0
  0
VISUALSTYLE
  5
3C
102
{ACAD_XDICTIONARY
360
403
102
}
102
{ACAD_REACTORS
330
2A
102
}
330
2A
100
AcDbVisualStyle
  2

 70
    21
 71
     2
 72
     2
 73
     0
 90
        0
 40
-0.6
 41
-30.0
 62
     5
 63
     7
421
 16777215
 74
     1
 91
        4
 64
     7
 65
   257
 75
     1
175
     1
 42
1.0
 92
        9
 66
     7
 43
1.0
 76
     1
 77
     6
 78
     2
 67
     7
 79
     5
170
     0
171
     0
290
     0
174
     0
 93
        1
 44
0.0
173
     0
291
     1
 45
0.0
1001
ACAD
1000
AcDbSavedByObjectVersion
1070
     0
  0
VISUALSTYLE
  5
33
102
{ACAD_XDICTIONARY
360
3F1
102
}
102
{ACAD_REACTORS
330
2A
102
}
330
2A
100
AcDbVisualStyle
  2

 70
     8
 71
     2
 72
     3
 73
     0
 90
        2
 40
-0.6
 41
30.0
 62
     5
 63
     7
421
 16777215
 74
     0
 91
        0
 64
     7
 65
   257
 75
     1
175
     1
 42
1.0
 92
        8
 66
   257
 43
1.0
 76
     1
 77
     6
 78
     2
 67
     7
 79
     3
170
     0
171
     0
290
     0
174
     0
 93
       13
 44
0.0
173
     0
291
     0
 45
0.0
1001
ACAD
1000
AcDbSavedByObjectVersion
1070
     0
  0
VISUALSTYLE
  5
42
102
{ACAD_XDICTIONARY
360
40F
102
}
102
{ACAD_REACTORS
330
2A
102
}
330
2A
100
AcDbVisualStyle
  2

 70
    27
 71
     2
 72
     2
 73
     1
 90
        2
 40
-0.6
 41
30.0
 62
     5
 63
     7
421
 16777215
 74
     0
 91
        4
 64
     7
 65
   257
 75
     1
175
     1
 42
1.0
 92
        8
 66
   257
 43
1.0
 76
     1
 77
     6
 78
     2
 67
     8
425
  7895160
 79
     3
170
     0
171
     0
290
     0
174
     0
 93
        5
 44
0.0
173
     0
291
     0
 45
0.0
1001
ACAD
1000
AcDbSavedByObjectVersion
1070
     0
  0
VISUALSTYLE
  5
41
102
{ACAD_XDICTIONARY
360
40D
102
}
102
{ACAD_REACTORS
330
2A
102
}
330
2A
100
AcDbVisualStyle
  2

 70
    26
 71
     2
 72
     2
 73
     1
 90
        2
 40
-0.6
 41
30.0
 62
     5
 63
     7
421
 16777215
 74
     1
 91
       10
 64
     7
 65
   257
 75
     2
175
     1
 42
1.0
 92
        8
 66
   257
 43
1.0
 76
     1
 77
     6
 78
     2
 67
     7
 79
     3
170
     0
171
     0
290
     0
174
     0
 93
        5
 44
0.0
173
     0
291
     0
 45
0.0
1001
ACAD
1000
AcDbSavedByObjectVersion
1070
     0
  0
VISUALSTYLE
  5
3E
102
{ACAD_XDICTIONARY
360
407
102
}
102
{ACAD_REACTORS
330
2A
102
}
330
2A
100
AcDbVisualStyle
  2

 70
    23
 71
     2
 72
     2
 73
     3
 90
        0
 40
-0.6
 41
-30.0
 62
     5
 63
     7
421
 16777215
 74
     2
 91
        2
 64
     7
 65
     7
 75
     1
175
     1
 42
40.0
 92
        8
 66
     7
 43
1.0
 76
     1
 77
     6
 78
     2
 67
     7
 79
     3
170
     0
171
     0
290
     0
174
     0
 93
        1
 44
0.0
173
     0
291
     0
 45
0.0
1001
ACAD
1000
AcDbSavedByObjectVersion
1070
     0
  0
VISUALSTYLE
  5
3F
102
{ACAD_XDICTIONARY
360
409
102
}
102
{ACAD_REACTORS
330
2A
102
}
330
2A
100
AcDbVisualStyle
  2

 70
    24
 71
     1
 72
     2
 73
     2
 90
        0
 40
-0.6
 41
-30.0
 62
     5
 63
     7
421
 16777215
 74
     2
 91
        2
 64
     7
 65
     7
 75
     1
175
     1
 42
40.0
 92
       11
 66
     7
 43
1.0
 76
     1
 77
     6
 78
     2
 67
     7
 79
     6
170
     0
171
     0
290
     0
174
     0
 93
        1
 44
0.0
173
     0
291
     0
 45
0.0
1001
ACAD
1000
AcDbSavedByObjectVersion
1070
     0
  0
VISUALSTYLE
  5
37
102
{ACAD_XDICTIONARY
360
3F9
102
}
102
{ACAD_REACTORS
330
2A
102
}
330
2A
100
AcDbVisualStyle
  2

 70
    13
 71
     2
 72
     2
 73
     0
 90
        0
 40
-0.6
 41
-30.0
 62
     5
 63
     7
421
 16777215
 74
     1
 91
        4
 64
     7
 65
   257
 75
     1
175
     1
 42
1.0
 92
       12
 66
     7
 43
1.0
 76
     1
 77
     6
 78
     2
 67
     7
 79
     5
170
     0
171
     0
290
     0
174
     0
 93
        1
 44
0.0
173
     0
291
     1
 45
0.0
1001
ACAD
1000
AcDbSavedByObjectVersion
1070
     0
  0
VISUALSTYLE
  5
30
102
{ACAD_XDICTIONARY
360
3EB
102
}
102
{ACAD_REACTORS
330
2A
102
}
330
2A
100
AcDbVisualStyle
  2

 70
     5
 71
     0
 72
     2
 73
     0
 90
        0
 40
-0.6
 41
-30.0
 62
     5
 63
     7
421
 16777215
 74
     1
 91
        4
 64
     7
 65
   257
 75
     1
175
     1
 42
1.0
 92
        0
 66
   257
 43
1.0
 76
     1
 77
     6
 78
     2
 67
     7
 79
     3
170
     0
171
     0
290
     0
174
     0
 93
        1
 44
0.0
173
     0
291
     0
 45
0.0
1001
ACAD
1000
AcDbSavedByObjectVersion
1070
     0
  0
VISUALSTYLE
  5
40
102
{ACAD_XDICTIONARY
360
40B
102
}
102
{ACAD_REACTORS
330
2A
102
}
330
2A
100
AcDbVisualStyle
  2

 70
    25
 71
     2
 72
     2
 73
     1
 90
        1
 40
0.5
 41
-30.0
 62
     5
 63
     7
421
 16777215
 74
     1
 91
        0
 64
     7
 65
   257
 75
     1
175
     1
 42
1.0
 92
        8
 66
     7
 43
1.0
 76
     1
 77
     6
 78
     2
 67
     7
 79
     3
170
     0
171
     0
290
     0
174
     0
 93
       13
 44
0.0
173
     0
291
     0
 45
0.0
1001
ACAD
1000
AcDbSavedByObjectVersion
1070
     0
  0
DICTIONARYVAR
  5
2F9
102
{ACAD_REACTORS
330
2F8
102
}
330
2F8
100
DictionaryVariables
280
     0
  1
1:1
  0
DICTIONARYVAR
  5
33A
102
{ACAD_REACTORS
330
2F8
102
}
330
2F8
100
DictionaryVariables
280
     0
  1
STANDARD
  0
DICTIONARYVAR
  5
339
102
{ACAD_REACTORS
330
2F8
102
}
330
2F8
100
DictionaryVariables
280
     0
  1
STANDARD
  0
DICTIONARYVAR
  5
3D3
102
{ACAD_REACTORS
330
2F8
102
}
330
2F8
100
DictionaryVariables
280
     0
  1
Metric50
  0
DICTIONARYVAR
  5
3D4
102
{ACAD_REACTORS
330
2F8
102
}
330
2F8
100
DictionaryVariables
280
     0
  1
Metric50
  0
DICTIONARYVAR
  5
2FA
102
{ACAD_REACTORS
330
2F8
102
}
330
2F8
100
DictionaryVariables
280
     0
  1
1
  0
DICTIONARYVAR
  5
3D5
102
{ACAD_REACTORS
330
2F8
102
}
330
2F8
100
DictionaryVariables
280
     0
  1
2
  0
DICTIONARY
  5
3E0
102
{ACAD_REACTORS
330
3DE
102
}
330
3DE
100
AcDbDictionary
281
     1
  0
DICTIONARY
  5
3DF
102
{ACAD_REACTORS
330
3DE
102
}
330
3DE
100
AcDbDictionary
281
     1
  3
1510422151568
350
3D9
  3
1510422151584
350
3DA
  3
1510422151600
350
3DB
  3
1510422151616
350
3DC
  3
1510422151632
350
3DD
  0
DICTIONARY
  5
414
330
341
100
AcDbDictionary
280
     1
281
     1
  3
ACAD_XREC_ROUNDTRIP
360
415
  0
DICTIONARY
  5
32E
330
45
100
AcDbDictionary
280
     1
281
     1
  3
ACAD_XREC_ROUNDTRIP
360
32F
  0
DICTIONARY
  5
32C
330
44
100
AcDbDictionary
280
     1
281
     1
  3
ACAD_XREC_ROUNDTRIP
360
32D
  0
DICTIONARY
  5
330
330
46
100
AcDbDictionary
280
     1
281
     1
  3
ACAD_XREC_ROUNDTRIP
360
331
  0
DICTIONARY
  5
412
330
340
100
AcDbDictionary
280
     1
281
     1
  3
ACAD_XREC_ROUNDTRIP
360
413
  0
DICTIONARY
  5
332
330
6A
100
AcDbDictionary
280
     1
281
     1
  3
ACAD_ROUNDTRIP_2008_TABLESTYLE_CELLSTYLEMAP
360
3D7
  3
ACAD_XREC_ROUNDTRIP
360
411
  0
DICTIONARY
  5
3E9
330
2F
100
AcDbDictionary
280
     1
281
     1
  3
ACAD_XREC_ROUNDTRIP
360
3EA
  0
DICTIONARY
  5
3EF
330
32
100
AcDbDictionary
280
     1
281
     1
  3
ACAD_XREC_ROUNDTRIP
360
3F0
  0
DICTIONARY
  5
3F7
330
36
100
AcDbDictionary
280
     1
281
     1
  3
ACAD_XREC_ROUNDTRIP
360
3F8
  0
DICTIONARY
  5
3FF
330
3A
100
AcDbDictionary
280
     1
281
     1
  3
ACAD_XREC_ROUNDTRIP
360
400
  0
DICTIONARY
  5
3F3
330
34
100
AcDbDictionary
280
     1
281
     1
  3
ACAD_XREC_ROUNDTRIP
360
3F4
  0
DICTIONARY
  5
3F5
330
35
100
AcDbDictionary
280
     1
281
     1
  3
ACAD_XREC_ROUNDTRIP
360
3F6
  0
DICTIONARY
  5
405
330
3D
100
AcDbDictionary
280
     1
281
     1
  3
ACAD_XREC_ROUNDTRIP
360
406
  0
DICTIONARY
  5
3FD
330
39
100
AcDbDictionary
280
     1
281
     1
  3
ACAD_XREC_ROUNDTRIP
360
3FE
  0
DICTIONARY
  5
3E1
330
2B
100
AcDbDictionary
280
     1
281
     1
  3
ACAD_XREC_ROUNDTRIP
360
3E2
  0
DICTIONARY
  5
3E3
330
2C
100
AcDbDictionary
280
     1
281
     1
  3
ACAD_XREC_ROUNDTRIP
360
3E4
  0
DICTIONARY
  5
3E5
330
2D
100
AcDbDictionary
280
     1
281
     1
  3
ACAD_XREC_ROUNDTRIP
360
3E6
  0
DICTIONARY
  5
3E7
330
2E
100
AcDbDictionary
280
     1
281
     1
  3
ACAD_XREC_ROUNDTRIP
360
3E8
  0
DICTIONARY
  5
3ED
330
31
100
AcDbDictionary
280
     1
281
     1
  3
ACAD_XREC_ROUNDTRIP
360
3EE
  0
DICTIONARY
  5
401
330
3B
100
AcDbDictionary
280
     1
281
     1
  3
ACAD_XREC_ROUNDTRIP
360
402
  0
DICTIONARY
  5
3FB
330
38
100
AcDbDictionary
280
     1
281
     1
  3
ACAD_XREC_ROUNDTRIP
360
3FC
  0
DICTIONARY
  5
403
330
3C
100
AcDbDictionary
280
     1
281
     1
  3
ACAD_XREC_ROUNDTRIP
360
404
  0
DICTIONARY
  5
3F1
330
33
100
AcDbDictionary
280
     1
281
     1
  3
ACAD_XREC_ROUNDTRIP
360
3F2
  0
DICTIONARY
  5
40F
330
42
100
AcDbDictionary
280
     1
281
     1
  3
ACAD_XREC_ROUNDTRIP
360
410
  0
DICTIONARY
  5
40D
330
41
100
AcDbDictionary
280
     1
281
     1
  3
ACAD_XREC_ROUNDTRIP
360
40E
  0
DICTIONARY
  5
407
330
3E
100
AcDbDictionary
280
     1
281
     1
  3
ACAD_XREC_ROUNDTRIP
360
408
  0
DICTIONARY
  5
409
330
3F
100
AcDbDictionary
280
     1
281
     1
  3
ACAD_XREC_ROUNDTRIP
360
40A
  0
DICTIONARY
  5
3F9
330
37
100
AcDbDictionary
280
     1
281
     1
  3
ACAD_XREC_ROUNDTRIP
360
3FA
  0
DICTIONARY
  5
3EB
330
30
100
AcDbDictionary
280
     1
281
     1
  3
ACAD_XREC_ROUNDTRIP
360
3EC
  0
DICTIONARY
  5
40B
330
40
100
AcDbDictionary
280
     1
281
     1
  3
ACAD_XREC_ROUNDTRIP
360
40C
  0
XRECORD
  5
3D9
102
{ACAD_REACTORS
330
3DF
102
}
330
3DF
100
AcDbXrecord
280
     1
  1
AcDb_Thumbnail_Schema
102
{ATTRRECORD
341
3DA
  2
AcDbDs::TreatedAsObjectData
280
     1
291
     1
102
ATTRRECORD}
102
{ATTRRECORD
341
3DB
  2
AcDbDs::Legacy
280
     1
291
     1
102
ATTRRECORD}
  2
AcDbDs::ID
280
    10
 91
        8
102
{ATTRRECORD
341
3DC
  2
AcDs:Indexable
280
     1
291
     1
102
ATTRRECORD}
102
{ATTRRECORD
341
3DD
  2
AcDbDs::HandleAttribute
280
     7
282
     1
102
ATTRRECORD}
  2
Thumbnail_Data
280
    15
 91
        0
  0
XRECORD
  5
3DA
102
{ACAD_REACTORS
330
3DF
102
}
330
3DF
100
AcDbXrecord
280
     1
  1
AcDbDs::TreatedAsObjectDataSchema
  2
AcDbDs::TreatedAsObjectData
280
     1
 91
        0
  0
XRECORD
  5
3DB
102
{ACAD_REACTORS
330
3DF
102
}
330
3DF
100
AcDbXrecord
280
     1
  1
AcDbDs::LegacySchema
  2
AcDbDs::Legacy
280
     1
 91
        0
  0
XRECORD
  5
3DC
102
{ACAD_REACTORS
330
3DF
102
}
330
3DF
100
AcDbXrecord
280
     1
  1
AcDbDs::IndexedPropertySchema
  2
AcDs:Indexable
280
     1
 91
        0
  0
XRECORD
  5
3DD
102
{ACAD_REACTORS
330
3DF
102
}
330
3DF
100
AcDbXrecord
280
     1
  1
AcDbDs::HandleAttributeSchema
  2
AcDbDs::HandleAttribute
280
     7
 91
        1
284
     1
  0
XRECORD
  5
415
102
{ACAD_REACTORS
330
414
102
}
330
414
100
AcDbXrecord
280
     1
102
DISPLAYNAME
  1
Metric50
102
FLAGS
 90
        0
  0
XRECORD
  5
32F
102
{ACAD_REACTORS
330
32E
102
}
330
32E
100
AcDbXrecord
280
     1
102
MATERIAL
148
0.0
149
0.0
149
0.0
 93
        0
 94
      127
282
     0
 72
     1
 77
     1
171
     1
175
     1
179
     1
273
     0
  0
XRECORD
  5
32D
102
{ACAD_REACTORS
330
32C
102
}
330
32C
100
AcDbXrecord
280
     1
102
MATERIAL
148
0.0
149
0.0
149
0.0
 93
        0
 94
      127
282
     0
 72
     1
 77
     1
171
     1
175
     1
179
     1
273
     0
  0
XRECORD
  5
331
102
{ACAD_REACTORS
330
330
102
}
330
330
100
AcDbXrecord
280
     1
102
MATERIAL
148
0.0
149
0.0
149
0.0
 93
        0
 94
      127
282
     0
 72
     1
 77
     1
171
     1
175
     1
179
     1
273
     0
  0
XRECORD
  5
413
102
{ACAD_REACTORS
330
412
102
}
330
412
100
AcDbXrecord
280
     1
102
DISPLAYNAME
  1
Metric50
102
FLAGS
 90
        0
  0
CELLSTYLEMAP
  5
3D7
102
{ACAD_REACTORS
330
332
102
}
330
332
100
AcDbCellStyleMap
 90
        3
300
CELLSTYLE
  1
TABLEFORMAT_BEGIN
 90
        5
170
     1
 91
        0
 92
    32768
 62
   257
 93
        1
300
CONTENTFORMAT
  1
CONTENTFORMAT_BEGIN
 90
        0
 91
        0
 92
        4
 93
        0
300

 40
0.0
140
1.0
 94
        5
 62
     0
340
11
144
0.25
309
CONTENTFORMAT_END
171
     1
301
MARGIN
  1
CELLMARGIN_BEGIN
 40
0.06
 40
0.06
 40
0.06
 40
0.06
 40
0.18
 40
0.18
309
CELLMARGIN_END
 94
        6
 95
        1
302
GRIDFORMAT
  1
GRIDFORMAT_BEGIN
 90
        0
 91
        1
 62
     0
 92
       -2
340
14
 93
        0
 40
0.045
309
GRIDFORMAT_END
 95
        2
302
GRIDFORMAT
  1
GRIDFORMAT_BEGIN
 90
        0
 91
        1
 62
     0
 92
       -2
340
14
 93
        0
 40
0.045
309
GRIDFORMAT_END
 95
        4
302
GRIDFORMAT
  1
GRIDFORMAT_BEGIN
 90
        0
 91
        1
 62
     0
 92
       -2
340
14
 93
        0
 40
0.045
309
GRIDFORMAT_END
 95
        8
302
GRIDFORMAT
  1
GRIDFORMAT_BEGIN
 90
        0
 91
        1
 62
     0
 92
       -2
340
14
 93
        0
 40
0.045
309
GRIDFORMAT_END
 95
       16
302
GRIDFORMAT
  1
GRIDFORMAT_BEGIN
 90
        0
 91
        1
 62
     0
 92
       -2
340
14
 93
        0
 40
0.045
309
GRIDFORMAT_END
 95
       32
302
GRIDFORMAT
  1
GRIDFORMAT_BEGIN
 90
        0
 91
        1
 62
     0
 92
       -2
340
14
 93
        0
 40
0.045
309
GRIDFORMAT_END
309
TABLEFORMAT_END
  1
CELLSTYLE_BEGIN
 90
        1
 91
        1
300
_TITLE
309
CELLSTYLE_END
300
CELLSTYLE
  1
TABLEFORMAT_BEGIN
 90
        5
170
     1
 91
        0
 92
        0
 62
   257
 93
        1
300
CONTENTFORMAT
  1
CONTENTFORMAT_BEGIN
 90
        0
 91
        0
 92
        4
 93
        0
300

 40
0.0
140
1.0
 94
        5
 62
     0
340
11
144
0.18
309
CONTENTFORMAT_END
171
     1
301
MARGIN
  1
CELLMARGIN_BEGIN
 40
0.06
 40
0.06
 40
0.06
 40
0.06
 40
0.18
 40
0.18
309
CELLMARGIN_END
 94
        6
 95
        1
302
GRIDFORMAT
  1
GRIDFORMAT_BEGIN
 90
        0
 91
        1
 62
     0
 92
       -2
340
14
 93
        0
 40
0.045
309
GRIDFORMAT_END
 95
        2
302
GRIDFORMAT
  1
GRIDFORMAT_BEGIN
 90
        0
 91
        1
 62
     0
 92
       -2
340
14
 93
        0
 40
0.045
309
GRIDFORMAT_END
 95
        4
302
GRIDFORMAT
  1
GRIDFORMAT_BEGIN
 90
        0
 91
        1
 62
     0
 92
       -2
340
14
 93
        0
 40
0.045
309
GRIDFORMAT_END
 95
        8
302
GRIDFORMAT
  1
GRIDFORMAT_BEGIN
 90
        0
 91
        1
 62
     0
 92
       -2
340
14
 93
        0
 40
0.045
309
GRIDFORMAT_END
 95
       16
302
GRIDFORMAT
  1
GRIDFORMAT_BEGIN
 90
        0
 91
        1
 62
     0
 92
       -2
340
14
 93
        0
 40
0.045
309
GRIDFORMAT_END
 95
       32
302
GRIDFORMAT
  1
GRIDFORMAT_BEGIN
 90
        0
 91
        1
 62
     0
 92
       -2
340
14
 93
        0
 40
0.045
309
GRIDFORMAT_END
309
TABLEFORMAT_END
  1
CELLSTYLE_BEGIN
 90
        2
 91
        1
300
_HEADER
309
CELLSTYLE_END
300
CELLSTYLE
  1
TABLEFORMAT_BEGIN
 90
        5
170
     1
 91
        0
 92
        0
 62
   257
 93
        1
300
CONTENTFORMAT
  1
CONTENTFORMAT_BEGIN
 90
        0
 91
        0
 92
        4
 93
        0
300

 40
0.0
140
1.0
 94
        2
 62
     0
340
11
144
0.18
309
CONTENTFORMAT_END
171
     1
301
MARGIN
  1
CELLMARGIN_BEGIN
 40
0.06
 40
0.06
 40
0.06
 40
0.06
 40
0.18
 40
0.18
309
CELLMARGIN_END
 94
        6
 95
        1
302
GRIDFORMAT
  1
GRIDFORMAT_BEGIN
 90
        0
 91
        1
 62
     0
 92
       -2
340
14
 93
        0
 40
0.045
309
GRIDFORMAT_END
 95
        2
302
GRIDFORMAT
  1
GRIDFORMAT_BEGIN
 90
        0
 91
        1
 62
     0
 92
       -2
340
14
 93
        0
 40
0.045
309
GRIDFORMAT_END
 95
        4
302
GRIDFORMAT
  1
GRIDFORMAT_BEGIN
 90
        0
 91
        1
 62
     0
 92
       -2
340
14
 93
        0
 40
0.045
309
GRIDFORMAT_END
 95
        8
302
GRIDFORMAT
  1
GRIDFORMAT_BEGIN
 90
        0
 91
        1
 62
     0
 92
       -2
340
14
 93
        0
 40
0.045
309
GRIDFORMAT_END
 95
       16
302
GRIDFORMAT
  1
GRIDFORMAT_BEGIN
 90
        0
 91
        1
 62
     0
 92
       -2
340
14
 93
        0
 40
0.045
309
GRIDFORMAT_END
 95
       32
302
GRIDFORMAT
  1
GRIDFORMAT_BEGIN
 90
        0
 91
        1
 62
     0
 92
       -2
340
14
 93
        0
 40
0.045
309
GRIDFORMAT_END
309
TABLEFORMAT_END
  1
CELLSTYLE_BEGIN
 90
        3
 91
        2
300
_DATA
309
CELLSTYLE_END
  0
XRECORD
  5
411
102
{ACAD_REACTORS
330
332
102
}
330
332
100
AcDbXrecord
280
     1
102
ACAD_ROUNDTRIP_PRE2007_TABLESTYLE
 90
        4
 91
        0
  1

 92
        4
 93
        0
  2

 94
        4
 95
        0
  3

  0
XRECORD
  5
3EA
102
{ACAD_REACTORS
330
3E9
102
}
330
3E9
100
AcDbXrecord
280
     1
102
RTVSPost2010Prop28
280
     1
102
RTVSPost2010PropOp28
 70
     1
102
RTVSPost2010Prop29
280
     1
102
RTVSPost2010PropOp29
 70
     1
102
RTVSPost2010Prop30
280
     0
102
RTVSPost2010PropOp30
 70
     1
102
RTVSPost2010Prop31
280
     0
102
RTVSPost2010PropOp31
 70
     1
102
RTVSPost2010Prop32
280
     0
102
RTVSPost2010PropOp32
 70
     1
102
RTVSPost2010Prop33
280
     0
102
RTVSPost2010PropOp33
 70
     1
102
RTVSPost2010Prop34
280
     0
102
RTVSPost2010PropOp34
 70
     1
102
RTVSPost2010Prop35
280
     0
102
RTVSPost2010PropOp35
 70
     1
102
RTVSPost2010Prop36
280
     0
102
RTVSPost2010PropOp36
 70
     1
102
RTVSPost2010Prop37
 90
       50
102
RTVSPost2010PropOp37
 70
     1
102
RTVSPost2010Prop38
140
0.0
102
RTVSPost2010PropOp38
 70
     1
102
RTVSPost2010Prop39
140
1.0
102
RTVSPost2010PropOp39
 70
     1
102
RTVSPost2010Prop40
 90
        0
102
RTVSPost2010PropOp40
 70
     1
102
RTVSPost2010Prop41ColorIndex
 90
       18
102
RTVSPost2010Prop41ColorRGB
 90
        0
102
RTVSPost2010PropOp41
 70
     1
102
RTVSPost2010Prop42
 90
       50
102
RTVSPost2010PropOp42
 70
     1
102
RTVSPost2010Prop43
 90
        3
102
RTVSPost2010PropOp43
 70
     1
102
RTVSPost2010Prop44ColorIndex
 90
        5
102
RTVSPost2010Prop44ColorRGB
 90
      255
102
RTVSPost2010PropOp44
 70
     1
102
RTVSPost2010Prop45
280
     0
102
RTVSPost2010PropOp45
 70
     1
102
RTVSPost2010Prop46
 90
       50
102
RTVSPost2010PropOp46
 70
     1
102
RTVSPost2010Prop47
 90
       50
102
RTVSPost2010PropOp47
 70
     1
102
RTVSPost2010Prop48
 90
       50
102
RTVSPost2010PropOp48
 70
     1
102
RTVSPost2010Prop49
280
     0
102
RTVSPost2010PropOp49
 70
     1
102
RTVSPost2010Prop50
 90
       50
102
RTVSPost2010PropOp50
 70
     1
102
RTVSPost2010Prop51ColorIndex
 90
      256
102
RTVSPost2010Prop51ColorRGB
 90
-16777216
102
RTVSPost2010PropOp51
 70
     0
102
RTVSPost2010Prop52
140
1.0
102
RTVSPost2010PropOp52
 70
     0
102
RTVSPost2010Prop53
 90
        2
102
RTVSPost2010PropOp53
 70
     1
102
RTVSPost2010Prop54
  1
strokes_ogs.tif
102
RTVSPost2010PropOp54
 70
     1
102
RTVSPost2010Prop55
280
     0
102
RTVSPost2010PropOp55
 70
     1
102
RTVSPost2010Prop56
140
1.0
102
RTVSPost2010PropOp56
 70
     1
102
RTVSPost2010Prop57
140
1.0
102
RTVSPost2010PropOp57
 70
     1
102
RTVSPropertyOp0
 70
     1
102
RTVSPropertyOp1
 70
     1
102
RTVSPropertyOp2
 70
     1
102
RTVSPropertyOp3
 70
     1
102
RTVSPropertyOp4
 70
     1
102
RTVSPropertyOp5
 70
     1
102
RTVSPropertyOp6
 70
     1
102
RTVSPropertyOp7
 70
     1
102
RTVSPropertyOp8
 70
     1
102
RTVSPropertyOp9
 70
     1
102
RTVSPropertyOp10
 70
     1
102
RTVSPropertyOp11
 70
     1
102
RTVSPropertyOp12
 70
     1
102
RTVSPropertyOp13
 70
     1
102
RTVSPropertyOp14
 70
     1
102
RTVSPropertyOp15
 70
     1
102
RTVSPropertyOp16
 70
     1
102
RTVSPropertyOp17
 70
     1
102
RTVSPropertyOp18
 70
     1
102
RTVSPropertyOp19
 70
     1
102
RTVSPropertyOp20
 70
     1
102
RTVSPropertyOp21
 70
     1
102
RTVSPropertyOp22
 70
     1
102
RTVSPropertyOp23
 70
     1
102
RTVSPropertyOp24
 70
     1
102
RTVSPropertyOp25
 70
     1
102
RTVSPropertyOp26
 70
     1
102
RTVSPropertyOp27
 70
     1
102
RTVSPropertyOp28
 70
     1
102
RTVSPropertyOp29
 70
     1
102
RTVSPropertyOp30
 70
     1
102
RTVSPropertyOp31
 70
     1
102
RTVSPropertyOp32
 70
     1
102
RTVSPropertyOp33
 70
     1
102
RTVSPropertyOp34
 70
     1
102
RTVSPropertyOp35
 70
     1
102
RTVSPropertyOp36
 70
     1
102
RTVSPropertyOp37
 70
     1
102
RTVSPropertyOp38
 70
     1
102
RTVSPropertyOp39
 70
     1
102
RTVSPropertyOp40
 70
     1
102
RTVSPropertyOp41
 70
     1
102
RTVSPropertyOp42
 70
     1
102
RTVSPropertyOp43
 70
     1
102
RTVSPropertyOp44
 70
     1
102
RTVSPropertyOp45
 70
     1
102
RTVSPropertyOp46
 70
     1
102
RTVSPropertyOp47
 70
     1
102
RTVSPropertyOp48
 70
     1
102
RTVSPropertyOp49
 70
     1
102
RTVSPropertyOp50
 70
     1
102
RTVSPropertyOp51
 70
     0
102
RTVSPropertyOp52
 70
     0
102
RTVSPropertyOp53
 70
     1
102
RTVSPropertyOp54
 70
     1
102
RTVSPropertyOp55
 70
     1
102
RTVSPropertyOp56
 70
     1
102
RTVSPropertyOp57
 70
     1
102
RTVSPropertyOp58
 70
     1
102
RTVSPropertyOp59
 70
     1
102
RTVSPropertyOp60
 70
     1
102
RTVSPropertyOp61
 70
     1
102
RTVSPropertyOp62
 70
     1
  0
XRECORD
  5
3F0
102
{ACAD_REACTORS
330
3EF
102
}
330
3EF
100
AcDbXrecord
280
     1
102
RTVSPost2010Prop28
280
     0
102
RTVSPost2010PropOp28
 70
     1
102
RTVSPost2010Prop29
280
     1
102
RTVSPost2010PropOp29
 70
     1
102
RTVSPost2010Prop30
280
     1
102
RTVSPost2010PropOp30
 70
     1
102
RTVSPost2010Prop31
280
     0
102
RTVSPost2010PropOp31
 70
     1
102
RTVSPost2010Prop32
280
     0
102
RTVSPost2010PropOp32
 70
     1
102
RTVSPost2010Prop33
280
     0
102
RTVSPost2010PropOp33
 70
     1
102
RTVSPost2010Prop34
280
     0
102
RTVSPost2010PropOp34
 70
     1
102
RTVSPost2010Prop35
280
     0
102
RTVSPost2010PropOp35
 70
     1
102
RTVSPost2010Prop36
280
     0
102
RTVSPost2010PropOp36
 70
     1
102
RTVSPost2010Prop37
 90
       50
102
RTVSPost2010PropOp37
 70
     1
102
RTVSPost2010Prop38
140
0.0
102
RTVSPost2010PropOp38
 70
     1
102
RTVSPost2010Prop39
140
1.0
102
RTVSPost2010PropOp39
 70
     1
102
RTVSPost2010Prop40
 90
        0
102
RTVSPost2010PropOp40
 70
     1
102
RTVSPost2010Prop41ColorIndex
 90
       18
102
RTVSPost2010Prop41ColorRGB
 90
        0
102
RTVSPost2010PropOp41
 70
     1
102
RTVSPost2010Prop42
 90
       50
102
RTVSPost2010PropOp42
 70
     1
102
RTVSPost2010Prop43
 90
        3
102
RTVSPost2010PropOp43
 70
     1
102
RTVSPost2010Prop44ColorIndex
 90
        5
102
RTVSPost2010Prop44ColorRGB
 90
      255
102
RTVSPost2010PropOp44
 70
     1
102
RTVSPost2010Prop45
280
     0
102
RTVSPost2010PropOp45
 70
     1
102
RTVSPost2010Prop46
 90
       50
102
RTVSPost2010PropOp46
 70
     1
102
RTVSPost2010Prop47
 90
       50
102
RTVSPost2010PropOp47
 70
     1
102
RTVSPost2010Prop48
 90
       50
102
RTVSPost2010PropOp48
 70
     1
102
RTVSPost2010Prop49
280
     0
102
RTVSPost2010PropOp49
 70
     1
102
RTVSPost2010Prop50
 90
       50
102
RTVSPost2010PropOp50
 70
     1
102
RTVSPost2010Prop51ColorIndex
 90
      256
102
RTVSPost2010Prop51ColorRGB
 90
-16777216
102
RTVSPost2010PropOp51
 70
     0
102
RTVSPost2010Prop52
140
1.0
102
RTVSPost2010PropOp52
 70
     0
102
RTVSPost2010Prop53
 90
        2
102
RTVSPost2010PropOp53
 70
     1
102
RTVSPost2010Prop54
  1
strokes_ogs.tif
102
RTVSPost2010PropOp54
 70
     1
102
RTVSPost2010Prop55
280
     0
102
RTVSPost2010PropOp55
 70
     1
102
RTVSPost2010Prop56
140
1.0
102
RTVSPost2010PropOp56
 70
     1
102
RTVSPost2010Prop57
140
1.0
102
RTVSPost2010PropOp57
 70
     1
102
RTVSPropertyOp0
 70
     1
102
RTVSPropertyOp1
 70
     1
102
RTVSPropertyOp2
 70
     1
102
RTVSPropertyOp3
 70
     1
102
RTVSPropertyOp4
 70
     1
102
RTVSPropertyOp5
 70
     1
102
RTVSPropertyOp6
 70
     1
102
RTVSPropertyOp7
 70
     1
102
RTVSPropertyOp8
 70
     1
102
RTVSPropertyOp9
 70
     1
102
RTVSPropertyOp10
 70
     1
102
RTVSPropertyOp11
 70
     1
102
RTVSPropertyOp12
 70
     1
102
RTVSPropertyOp13
 70
     1
102
RTVSPropertyOp14
 70
     1
102
RTVSPropertyOp15
 70
     1
102
RTVSPropertyOp16
 70
     1
102
RTVSPropertyOp17
 70
     1
102
RTVSPropertyOp18
 70
     1
102
RTVSPropertyOp19
 70
     1
102
RTVSPropertyOp20
 70
     1
102
RTVSPropertyOp21
 70
     1
102
RTVSPropertyOp22
 70
     1
102
RTVSPropertyOp23
 70
     1
102
RTVSPropertyOp24
 70
     1
102
RTVSPropertyOp25
 70
     1
102
RTVSPropertyOp26
 70
     1
102
RTVSPropertyOp27
 70
     1
102
RTVSPropertyOp28
 70
     1
102
RTVSPropertyOp29
 70
     1
102
RTVSPropertyOp30
 70
     1
102
RTVSPropertyOp31
 70
     1
102
RTVSPropertyOp32
 70
     1
102
RTVSPropertyOp33
 70
     1
102
RTVSPropertyOp34
 70
     1
102
RTVSPropertyOp35
 70
     1
102
RTVSPropertyOp36
 70
     1
102
RTVSPropertyOp37
 70
     1
102
RTVSPropertyOp38
 70
     1
102
RTVSPropertyOp39
 70
     1
102
RTVSPropertyOp40
 70
     1
102
RTVSPropertyOp41
 70
     1
102
RTVSPropertyOp42
 70
     1
102
RTVSPropertyOp43
 70
     1
102
RTVSPropertyOp44
 70
     1
102
RTVSPropertyOp45
 70
     1
102
RTVSPropertyOp46
 70
     1
102
RTVSPropertyOp47
 70
     1
102
RTVSPropertyOp48
 70
     1
102
RTVSPropertyOp49
 70
     1
102
RTVSPropertyOp50
 70
     1
102
RTVSPropertyOp51
 70
     0
102
RTVSPropertyOp52
 70
     0
102
RTVSPropertyOp53
 70
     1
102
RTVSPropertyOp54
 70
     1
102
RTVSPropertyOp55
 70
     1
102
RTVSPropertyOp56
 70
     1
102
RTVSPropertyOp57
 70
     1
102
RTVSPropertyOp58
 70
     1
102
RTVSPropertyOp59
 70
     1
102
RTVSPropertyOp60
 70
     1
102
RTVSPropertyOp61
 70
     1
102
RTVSPropertyOp62
 70
     1
  0
XRECORD
  5
3F8
102
{ACAD_REACTORS
330
3F7
102
}
330
3F7
100
AcDbXrecord
280
     1
102
RTVSPost2010Prop28
280
     0
102
RTVSPost2010PropOp28
 70
     1
102
RTVSPost2010Prop29
280
     1
102
RTVSPost2010PropOp29
 70
     1
102
RTVSPost2010Prop30
280
     1
102
RTVSPost2010PropOp30
 70
     1
102
RTVSPost2010Prop31
280
     0
102
RTVSPost2010PropOp31
 70
     1
102
RTVSPost2010Prop32
280
     0
102
RTVSPost2010PropOp32
 70
     1
102
RTVSPost2010Prop33
280
     0
102
RTVSPost2010PropOp33
 70
     1
102
RTVSPost2010Prop34
280
     0
102
RTVSPost2010PropOp34
 70
     1
102
RTVSPost2010Prop35
280
     0
102
RTVSPost2010PropOp35
 70
     1
102
RTVSPost2010Prop36
280
     0
102
RTVSPost2010PropOp36
 70
     1
102
RTVSPost2010Prop37
 90
       50
102
RTVSPost2010PropOp37
 70
     1
102
RTVSPost2010Prop38
140
0.0
102
RTVSPost2010PropOp38
 70
     1
102
RTVSPost2010Prop39
140
1.0
102
RTVSPost2010PropOp39
 70
     1
102
RTVSPost2010Prop40
 90
        0
102
RTVSPost2010PropOp40
 70
     1
102
RTVSPost2010Prop41ColorIndex
 90
       18
102
RTVSPost2010Prop41ColorRGB
 90
        0
102
RTVSPost2010PropOp41
 70
     1
102
RTVSPost2010Prop42
 90
       50
102
RTVSPost2010PropOp42
 70
     1
102
RTVSPost2010Prop43
 90
        3
102
RTVSPost2010PropOp43
 70
     1
102
RTVSPost2010Prop44ColorIndex
 90
        5
102
RTVSPost2010Prop44ColorRGB
 90
      255
102
RTVSPost2010PropOp44
 70
     1
102
RTVSPost2010Prop45
280
     0
102
RTVSPost2010PropOp45
 70
     1
102
RTVSPost2010Prop46
 90
       50
102
RTVSPost2010PropOp46
 70
     1
102
RTVSPost2010Prop47
 90
       50
102
RTVSPost2010PropOp47
 70
     1
102
RTVSPost2010Prop48
 90
       50
102
RTVSPost2010PropOp48
 70
     1
102
RTVSPost2010Prop49
280
     0
102
RTVSPost2010PropOp49
 70
     1
102
RTVSPost2010Prop50
 90
       50
102
RTVSPost2010PropOp50
 70
     1
102
RTVSPost2010Prop51ColorIndex
 90
      256
102
RTVSPost2010Prop51ColorRGB
 90
-16777216
102
RTVSPost2010PropOp51
 70
     0
102
RTVSPost2010Prop52
140
1.0
102
RTVSPost2010PropOp52
 70
     0
102
RTVSPost2010Prop53
 90
        2
102
RTVSPost2010PropOp53
 70
     1
102
RTVSPost2010Prop54
  1
strokes_ogs.tif
102
RTVSPost2010PropOp54
 70
     1
102
RTVSPost2010Prop55
280
     0
102
RTVSPost2010PropOp55
 70
     1
102
RTVSPost2010Prop56
140
1.0
102
RTVSPost2010PropOp56
 70
     1
102
RTVSPost2010Prop57
140
1.0
102
RTVSPost2010PropOp57
 70
     1
102
RTVSPropertyOp0
 70
     1
102
RTVSPropertyOp1
 70
     1
102
RTVSPropertyOp2
 70
     1
102
RTVSPropertyOp3
 70
     1
102
RTVSPropertyOp4
 70
     1
102
RTVSPropertyOp5
 70
     1
102
RTVSPropertyOp6
 70
     1
102
RTVSPropertyOp7
 70
     1
102
RTVSPropertyOp8
 70
     1
102
RTVSPropertyOp9
 70
     1
102
RTVSPropertyOp10
 70
     1
102
RTVSPropertyOp11
 70
     1
102
RTVSPropertyOp12
 70
     1
102
RTVSPropertyOp13
 70
     1
102
RTVSPropertyOp14
 70
     1
102
RTVSPropertyOp15
 70
     1
102
RTVSPropertyOp16
 70
     1
102
RTVSPropertyOp17
 70
     1
102
RTVSPropertyOp18
 70
     1
102
RTVSPropertyOp19
 70
     1
102
RTVSPropertyOp20
 70
     1
102
RTVSPropertyOp21
 70
     1
102
RTVSPropertyOp22
 70
     1
102
RTVSPropertyOp23
 70
     1
102
RTVSPropertyOp24
 70
     1
102
RTVSPropertyOp25
 70
     1
102
RTVSPropertyOp26
 70
     1
102
RTVSPropertyOp27
 70
     1
102
RTVSPropertyOp28
 70
     1
102
RTVSPropertyOp29
 70
     1
102
RTVSPropertyOp30
 70
     1
102
RTVSPropertyOp31
 70
     1
102
RTVSPropertyOp32
 70
     1
102
RTVSPropertyOp33
 70
     1
102
RTVSPropertyOp34
 70
     1
102
RTVSPropertyOp35
 70
     1
102
RTVSPropertyOp36
 70
     1
102
RTVSPropertyOp37
 70
     1
102
RTVSPropertyOp38
 70
     1
102
RTVSPropertyOp39
 70
     1
102
RTVSPropertyOp40
 70
     1
102
RTVSPropertyOp41
 70
     1
102
RTVSPropertyOp42
 70
     1
102
RTVSPropertyOp43
 70
     1
102
RTVSPropertyOp44
 70
     1
102
RTVSPropertyOp45
 70
     1
102
RTVSPropertyOp46
 70
     1
102
RTVSPropertyOp47
 70
     1
102
RTVSPropertyOp48
 70
     1
102
RTVSPropertyOp49
 70
     1
102
RTVSPropertyOp50
 70
     1
102
RTVSPropertyOp51
 70
     0
102
RTVSPropertyOp52
 70
     0
102
RTVSPropertyOp53
 70
     1
102
RTVSPropertyOp54
 70
     1
102
RTVSPropertyOp55
 70
     1
102
RTVSPropertyOp56
 70
     1
102
RTVSPropertyOp57
 70
     1
102
RTVSPropertyOp58
 70
     1
102
RTVSPropertyOp59
 70
     1
102
RTVSPropertyOp60
 70
     1
102
RTVSPropertyOp61
 70
     1
102
RTVSPropertyOp62
 70
     1
  0
XRECORD
  5
400
102
{ACAD_REACTORS
330
3FF
102
}
330
3FF
100
AcDbXrecord
280
     1
102
RTVSPost2010Prop28
280
     0
102
RTVSPost2010PropOp28
 70
     1
102
RTVSPost2010Prop29
280
     1
102
RTVSPost2010PropOp29
 70
     1
102
RTVSPost2010Prop30
280
     1
102
RTVSPost2010PropOp30
 70
     1
102
RTVSPost2010Prop31
280
     0
102
RTVSPost2010PropOp31
 70
     1
102
RTVSPost2010Prop32
280
     0
102
RTVSPost2010PropOp32
 70
     1
102
RTVSPost2010Prop33
280
     0
102
RTVSPost2010PropOp33
 70
     1
102
RTVSPost2010Prop34
280
     0
102
RTVSPost2010PropOp34
 70
     1
102
RTVSPost2010Prop35
280
     0
102
RTVSPost2010PropOp35
 70
     1
102
RTVSPost2010Prop36
280
     0
102
RTVSPost2010PropOp36
 70
     1
102
RTVSPost2010Prop37
 90
       50
102
RTVSPost2010PropOp37
 70
     1
102
RTVSPost2010Prop38
140
0.0
102
RTVSPost2010PropOp38
 70
     1
102
RTVSPost2010Prop39
140
1.0
102
RTVSPost2010PropOp39
 70
     1
102
RTVSPost2010Prop40
 90
        0
102
RTVSPost2010PropOp40
 70
     1
102
RTVSPost2010Prop41ColorIndex
 90
       18
102
RTVSPost2010Prop41ColorRGB
 90
        0
102
RTVSPost2010PropOp41
 70
     1
102
RTVSPost2010Prop42
 90
       50
102
RTVSPost2010PropOp42
 70
     1
102
RTVSPost2010Prop43
 90
        3
102
RTVSPost2010PropOp43
 70
     1
102
RTVSPost2010Prop44ColorIndex
 90
        5
102
RTVSPost2010Prop44ColorRGB
 90
      255
102
RTVSPost2010PropOp44
 70
     1
102
RTVSPost2010Prop45
280
     0
102
RTVSPost2010PropOp45
 70
     1
102
RTVSPost2010Prop46
 90
       50
102
RTVSPost2010PropOp46
 70
     1
102
RTVSPost2010Prop47
 90
       50
102
RTVSPost2010PropOp47
 70
     1
102
RTVSPost2010Prop48
 90
       50
102
RTVSPost2010PropOp48
 70
     1
102
RTVSPost2010Prop49
280
     0
102
RTVSPost2010PropOp49
 70
     1
102
RTVSPost2010Prop50
 90
       50
102
RTVSPost2010PropOp50
 70
     1
102
RTVSPost2010Prop51ColorIndex
 90
      256
102
RTVSPost2010Prop51ColorRGB
 90
-16777216
102
RTVSPost2010PropOp51
 70
     0
102
RTVSPost2010Prop52
140
1.0
102
RTVSPost2010PropOp52
 70
     0
102
RTVSPost2010Prop53
 90
        2
102
RTVSPost2010PropOp53
 70
     1
102
RTVSPost2010Prop54
  1
strokes_ogs.tif
102
RTVSPost2010PropOp54
 70
     1
102
RTVSPost2010Prop55
280
     0
102
RTVSPost2010PropOp55
 70
     1
102
RTVSPost2010Prop56
140
1.0
102
RTVSPost2010PropOp56
 70
     1
102
RTVSPost2010Prop57
140
1.0
102
RTVSPost2010PropOp57
 70
     1
102
RTVSPropertyOp0
 70
     1
102
RTVSPropertyOp1
 70
     1
102
RTVSPropertyOp2
 70
     1
102
RTVSPropertyOp3
 70
     1
102
RTVSPropertyOp4
 70
     1
102
RTVSPropertyOp5
 70
     1
102
RTVSPropertyOp6
 70
     1
102
RTVSPropertyOp7
 70
     1
102
RTVSPropertyOp8
 70
     1
102
RTVSPropertyOp9
 70
     1
102
RTVSPropertyOp10
 70
     1
102
RTVSPropertyOp11
 70
     1
102
RTVSPropertyOp12
 70
     1
102
RTVSPropertyOp13
 70
     1
102
RTVSPropertyOp14
 70
     1
102
RTVSPropertyOp15
 70
     1
102
RTVSPropertyOp16
 70
     1
102
RTVSPropertyOp17
 70
     1
102
RTVSPropertyOp18
 70
     1
102
RTVSPropertyOp19
 70
     1
102
RTVSPropertyOp20
 70
     1
102
RTVSPropertyOp21
 70
     1
102
RTVSPropertyOp22
 70
     1
102
RTVSPropertyOp23
 70
     1
102
RTVSPropertyOp24
 70
     1
102
RTVSPropertyOp25
 70
     1
102
RTVSPropertyOp26
 70
     1
102
RTVSPropertyOp27
 70
     1
102
RTVSPropertyOp28
 70
     1
102
RTVSPropertyOp29
 70
     1
102
RTVSPropertyOp30
 70
     1
102
RTVSPropertyOp31
 70
     1
102
RTVSPropertyOp32
 70
     1
102
RTVSPropertyOp33
 70
     1
102
RTVSPropertyOp34
 70
     1
102
RTVSPropertyOp35
 70
     1
102
RTVSPropertyOp36
 70
     1
102
RTVSPropertyOp37
 70
     1
102
RTVSPropertyOp38
 70
     1
102
RTVSPropertyOp39
 70
     1
102
RTVSPropertyOp40
 70
     1
102
RTVSPropertyOp41
 70
     1
102
RTVSPropertyOp42
 70
     1
102
RTVSPropertyOp43
 70
     1
102
RTVSPropertyOp44
 70
     1
102
RTVSPropertyOp45
 70
     1
102
RTVSPropertyOp46
 70
     1
102
RTVSPropertyOp47
 70
     1
102
RTVSPropertyOp48
 70
     1
102
RTVSPropertyOp49
 70
     1
102
RTVSPropertyOp50
 70
     1
102
RTVSPropertyOp51
 70
     0
102
RTVSPropertyOp52
 70
     0
102
RTVSPropertyOp53
 70
     1
102
RTVSPropertyOp54
 70
     1
102
RTVSPropertyOp55
 70
     1
102
RTVSPropertyOp56
 70
     1
102
RTVSPropertyOp57
 70
     1
102
RTVSPropertyOp58
 70
     1
102
RTVSPropertyOp59
 70
     1
102
RTVSPropertyOp60
 70
     1
102
RTVSPropertyOp61
 70
     1
102
RTVSPropertyOp62
 70
     1
  0
XRECORD
  5
3F4
102
{ACAD_REACTORS
330
3F3
102
}
330
3F3
100
AcDbXrecord
280
     1
102
RTVSPost2010Prop28
280
     0
102
RTVSPost2010PropOp28
 70
     1
102
RTVSPost2010Prop29
280
     1
102
RTVSPost2010PropOp29
 70
     1
102
RTVSPost2010Prop30
280
     1
102
RTVSPost2010PropOp30
 70
     1
102
RTVSPost2010Prop31
280
     0
102
RTVSPost2010PropOp31
 70
     1
102
RTVSPost2010Prop32
280
     0
102
RTVSPost2010PropOp32
 70
     1
102
RTVSPost2010Prop33
280
     0
102
RTVSPost2010PropOp33
 70
     1
102
RTVSPost2010Prop34
280
     0
102
RTVSPost2010PropOp34
 70
     1
102
RTVSPost2010Prop35
280
     0
102
RTVSPost2010PropOp35
 70
     1
102
RTVSPost2010Prop36
280
     0
102
RTVSPost2010PropOp36
 70
     1
102
RTVSPost2010Prop37
 90
       50
102
RTVSPost2010PropOp37
 70
     1
102
RTVSPost2010Prop38
140
0.0
102
RTVSPost2010PropOp38
 70
     1
102
RTVSPost2010Prop39
140
1.0
102
RTVSPost2010PropOp39
 70
     1
102
RTVSPost2010Prop40
 90
        0
102
RTVSPost2010PropOp40
 70
     1
102
RTVSPost2010Prop41ColorIndex
 90
       18
102
RTVSPost2010Prop41ColorRGB
 90
        0
102
RTVSPost2010PropOp41
 70
     1
102
RTVSPost2010Prop42
 90
       50
102
RTVSPost2010PropOp42
 70
     1
102
RTVSPost2010Prop43
 90
        3
102
RTVSPost2010PropOp43
 70
     1
102
RTVSPost2010Prop44ColorIndex
 90
        5
102
RTVSPost2010Prop44ColorRGB
 90
      255
102
RTVSPost2010PropOp44
 70
     1
102
RTVSPost2010Prop45
280
     0
102
RTVSPost2010PropOp45
 70
     1
102
RTVSPost2010Prop46
 90
       50
102
RTVSPost2010PropOp46
 70
     1
102
RTVSPost2010Prop47
 90
       50
102
RTVSPost2010PropOp47
 70
     1
102
RTVSPost2010Prop48
 90
       50
102
RTVSPost2010PropOp48
 70
     1
102
RTVSPost2010Prop49
280
     0
102
RTVSPost2010PropOp49
 70
     1
102
RTVSPost2010Prop50
 90
       50
102
RTVSPost2010PropOp50
 70
     1
102
RTVSPost2010Prop51ColorIndex
 90
      256
102
RTVSPost2010Prop51ColorRGB
 90
-16777216
102
RTVSPost2010PropOp51
 70
     0
102
RTVSPost2010Prop52
140
1.0
102
RTVSPost2010PropOp52
 70
     0
102
RTVSPost2010Prop53
 90
        2
102
RTVSPost2010PropOp53
 70
     1
102
RTVSPost2010Prop54
  1
strokes_ogs.tif
102
RTVSPost2010PropOp54
 70
     1
102
RTVSPost2010Prop55
280
     0
102
RTVSPost2010PropOp55
 70
     1
102
RTVSPost2010Prop56
140
1.0
102
RTVSPost2010PropOp56
 70
     1
102
RTVSPost2010Prop57
140
1.0
102
RTVSPost2010PropOp57
 70
     1
102
RTVSPropertyOp0
 70
     1
102
RTVSPropertyOp1
 70
     1
102
RTVSPropertyOp2
 70
     1
102
RTVSPropertyOp3
 70
     1
102
RTVSPropertyOp4
 70
     1
102
RTVSPropertyOp5
 70
     1
102
RTVSPropertyOp6
 70
     1
102
RTVSPropertyOp7
 70
     1
102
RTVSPropertyOp8
 70
     1
102
RTVSPropertyOp9
 70
     1
102
RTVSPropertyOp10
 70
     1
102
RTVSPropertyOp11
 70
     1
102
RTVSPropertyOp12
 70
     1
102
RTVSPropertyOp13
 70
     1
102
RTVSPropertyOp14
 70
     1
102
RTVSPropertyOp15
 70
     1
102
RTVSPropertyOp16
 70
     1
102
RTVSPropertyOp17
 70
     1
102
RTVSPropertyOp18
 70
     1
102
RTVSPropertyOp19
 70
     1
102
RTVSPropertyOp20
 70
     1
102
RTVSPropertyOp21
 70
     1
102
RTVSPropertyOp22
 70
     1
102
RTVSPropertyOp23
 70
     1
102
RTVSPropertyOp24
 70
     1
102
RTVSPropertyOp25
 70
     1
102
RTVSPropertyOp26
 70
     1
102
RTVSPropertyOp27
 70
     1
102
RTVSPropertyOp28
 70
     1
102
RTVSPropertyOp29
 70
     1
102
RTVSPropertyOp30
 70
     1
102
RTVSPropertyOp31
 70
     1
102
RTVSPropertyOp32
 70
     1
102
RTVSPropertyOp33
 70
     1
102
RTVSPropertyOp34
 70
     1
102
RTVSPropertyOp35
 70
     1
102
RTVSPropertyOp36
 70
     1
102
RTVSPropertyOp37
 70
     1
102
RTVSPropertyOp38
 70
     1
102
RTVSPropertyOp39
 70
     1
102
RTVSPropertyOp40
 70
     1
102
RTVSPropertyOp41
 70
     1
102
RTVSPropertyOp42
 70
     1
102
RTVSPropertyOp43
 70
     1
102
RTVSPropertyOp44
 70
     1
102
RTVSPropertyOp45
 70
     1
102
RTVSPropertyOp46
 70
     1
102
RTVSPropertyOp47
 70
     1
102
RTVSPropertyOp48
 70
     1
102
RTVSPropertyOp49
 70
     1
102
RTVSPropertyOp50
 70
     1
102
RTVSPropertyOp51
 70
     0
102
RTVSPropertyOp52
 70
     0
102
RTVSPropertyOp53
 70
     1
102
RTVSPropertyOp54
 70
     1
102
RTVSPropertyOp55
 70
     1
102
RTVSPropertyOp56
 70
     1
102
RTVSPropertyOp57
 70
     1
102
RTVSPropertyOp58
 70
     1
102
RTVSPropertyOp59
 70
     1
102
RTVSPropertyOp60
 70
     1
102
RTVSPropertyOp61
 70
     1
102
RTVSPropertyOp62
 70
     1
  0
XRECORD
  5
3F6
102
{ACAD_REACTORS
330
3F5
102
}
330
3F5
100
AcDbXrecord
280
     1
102
RTVSPost2010Prop28
280
     0
102
RTVSPost2010PropOp28
 70
     1
102
RTVSPost2010Prop29
280
     1
102
RTVSPost2010PropOp29
 70
     1
102
RTVSPost2010Prop30
280
     1
102
RTVSPost2010PropOp30
 70
     1
102
RTVSPost2010Prop31
280
     0
102
RTVSPost2010PropOp31
 70
     1
102
RTVSPost2010Prop32
280
     0
102
RTVSPost2010PropOp32
 70
     1
102
RTVSPost2010Prop33
280
     0
102
RTVSPost2010PropOp33
 70
     1
102
RTVSPost2010Prop34
280
     0
102
RTVSPost2010PropOp34
 70
     1
102
RTVSPost2010Prop35
280
     0
102
RTVSPost2010PropOp35
 70
     1
102
RTVSPost2010Prop36
280
     0
102
RTVSPost2010PropOp36
 70
     1
102
RTVSPost2010Prop37
 90
       50
102
RTVSPost2010PropOp37
 70
     1
102
RTVSPost2010Prop38
140
0.0
102
RTVSPost2010PropOp38
 70
     1
102
RTVSPost2010Prop39
140
1.0
102
RTVSPost2010PropOp39
 70
     1
102
RTVSPost2010Prop40
 90
        0
102
RTVSPost2010PropOp40
 70
     1
102
RTVSPost2010Prop41ColorIndex
 90
       18
102
RTVSPost2010Prop41ColorRGB
 90
        0
102
RTVSPost2010PropOp41
 70
     1
102
RTVSPost2010Prop42
 90
       50
102
RTVSPost2010PropOp42
 70
     1
102
RTVSPost2010Prop43
 90
        3
102
RTVSPost2010PropOp43
 70
     1
102
RTVSPost2010Prop44ColorIndex
 90
        5
102
RTVSPost2010Prop44ColorRGB
 90
      255
102
RTVSPost2010PropOp44
 70
     1
102
RTVSPost2010Prop45
280
     0
102
RTVSPost2010PropOp45
 70
     1
102
RTVSPost2010Prop46
 90
       50
102
RTVSPost2010PropOp46
 70
     1
102
RTVSPost2010Prop47
 90
       50
102
RTVSPost2010PropOp47
 70
     1
102
RTVSPost2010Prop48
 90
       50
102
RTVSPost2010PropOp48
 70
     1
102
RTVSPost2010Prop49
280
     0
102
RTVSPost2010PropOp49
 70
     1
102
RTVSPost2010Prop50
 90
       50
102
RTVSPost2010PropOp50
 70
     1
102
RTVSPost2010Prop51ColorIndex
 90
      256
102
RTVSPost2010Prop51ColorRGB
 90
-16777216
102
RTVSPost2010PropOp51
 70
     0
102
RTVSPost2010Prop52
140
1.0
102
RTVSPost2010PropOp52
 70
     0
102
RTVSPost2010Prop53
 90
        2
102
RTVSPost2010PropOp53
 70
     1
102
RTVSPost2010Prop54
  1
strokes_ogs.tif
102
RTVSPost2010PropOp54
 70
     1
102
RTVSPost2010Prop55
280
     0
102
RTVSPost2010PropOp55
 70
     1
102
RTVSPost2010Prop56
140
1.0
102
RTVSPost2010PropOp56
 70
     1
102
RTVSPost2010Prop57
140
1.0
102
RTVSPost2010PropOp57
 70
     1
102
RTVSPropertyOp0
 70
     1
102
RTVSPropertyOp1
 70
     1
102
RTVSPropertyOp2
 70
     1
102
RTVSPropertyOp3
 70
     1
102
RTVSPropertyOp4
 70
     1
102
RTVSPropertyOp5
 70
     1
102
RTVSPropertyOp6
 70
     1
102
RTVSPropertyOp7
 70
     1
102
RTVSPropertyOp8
 70
     1
102
RTVSPropertyOp9
 70
     1
102
RTVSPropertyOp10
 70
     1
102
RTVSPropertyOp11
 70
     1
102
RTVSPropertyOp12
 70
     1
102
RTVSPropertyOp13
 70
     1
102
RTVSPropertyOp14
 70
     1
102
RTVSPropertyOp15
 70
     1
102
RTVSPropertyOp16
 70
     1
102
RTVSPropertyOp17
 70
     1
102
RTVSPropertyOp18
 70
     1
102
RTVSPropertyOp19
 70
     1
102
RTVSPropertyOp20
 70
     1
102
RTVSPropertyOp21
 70
     1
102
RTVSPropertyOp22
 70
     1
102
RTVSPropertyOp23
 70
     1
102
RTVSPropertyOp24
 70
     1
102
RTVSPropertyOp25
 70
     1
102
RTVSPropertyOp26
 70
     1
102
RTVSPropertyOp27
 70
     1
102
RTVSPropertyOp28
 70
     1
102
RTVSPropertyOp29
 70
     1
102
RTVSPropertyOp30
 70
     1
102
RTVSPropertyOp31
 70
     1
102
RTVSPropertyOp32
 70
     1
102
RTVSPropertyOp33
 70
     1
102
RTVSPropertyOp34
 70
     1
102
RTVSPropertyOp35
 70
     1
102
RTVSPropertyOp36
 70
     1
102
RTVSPropertyOp37
 70
     1
102
RTVSPropertyOp38
 70
     1
102
RTVSPropertyOp39
 70
     1
102
RTVSPropertyOp40
 70
     1
102
RTVSPropertyOp41
 70
     1
102
RTVSPropertyOp42
 70
     1
102
RTVSPropertyOp43
 70
     1
102
RTVSPropertyOp44
 70
     1
102
RTVSPropertyOp45
 70
     1
102
RTVSPropertyOp46
 70
     1
102
RTVSPropertyOp47
 70
     1
102
RTVSPropertyOp48
 70
     1
102
RTVSPropertyOp49
 70
     1
102
RTVSPropertyOp50
 70
     1
102
RTVSPropertyOp51
 70
     0
102
RTVSPropertyOp52
 70
     0
102
RTVSPropertyOp53
 70
     1
102
RTVSPropertyOp54
 70
     1
102
RTVSPropertyOp55
 70
     1
102
RTVSPropertyOp56
 70
     1
102
RTVSPropertyOp57
 70
     1
102
RTVSPropertyOp58
 70
     1
102
RTVSPropertyOp59
 70
     1
102
RTVSPropertyOp60
 70
     1
102
RTVSPropertyOp61
 70
     1
102
RTVSPropertyOp62
 70
     1
  0
XRECORD
  5
406
102
{ACAD_REACTORS
330
405
102
}
330
405
100
AcDbXrecord
280
     1
102
RTVSPost2010Prop28
280
     0
102
RTVSPost2010PropOp28
 70
     0
102
RTVSPost2010Prop29
280
     1
102
RTVSPost2010PropOp29
 70
     0
102
RTVSPost2010Prop30
280
     1
102
RTVSPost2010PropOp30
 70
     0
102
RTVSPost2010Prop31
280
     0
102
RTVSPost2010PropOp31
 70
     0
102
RTVSPost2010Prop32
280
     0
102
RTVSPost2010PropOp32
 70
     0
102
RTVSPost2010Prop33
280
     0
102
RTVSPost2010PropOp33
 70
     0
102
RTVSPost2010Prop34
280
     0
102
RTVSPost2010PropOp34
 70
     0
102
RTVSPost2010Prop35
280
     0
102
RTVSPost2010PropOp35
 70
     0
102
RTVSPost2010Prop36
280
     0
102
RTVSPost2010PropOp36
 70
     0
102
RTVSPost2010Prop37
 90
       50
102
RTVSPost2010PropOp37
 70
     0
102
RTVSPost2010Prop38
140
0.0
102
RTVSPost2010PropOp38
 70
     0
102
RTVSPost2010Prop39
140
1.0
102
RTVSPost2010PropOp39
 70
     0
102
RTVSPost2010Prop40
 90
        0
102
RTVSPost2010PropOp40
 70
     0
102
RTVSPost2010Prop41ColorIndex
 90
       18
102
RTVSPost2010Prop41ColorRGB
 90
        0
102
RTVSPost2010PropOp41
 70
     0
102
RTVSPost2010Prop42
 90
       50
102
RTVSPost2010PropOp42
 70
     0
102
RTVSPost2010Prop43
 90
        3
102
RTVSPost2010PropOp43
 70
     0
102
RTVSPost2010Prop44ColorIndex
 90
        5
102
RTVSPost2010Prop44ColorRGB
 90
      255
102
RTVSPost2010PropOp44
 70
     0
102
RTVSPost2010Prop45
280
     0
102
RTVSPost2010PropOp45
 70
     0
102
RTVSPost2010Prop46
 90
       50
102
RTVSPost2010PropOp46
 70
     0
102
RTVSPost2010Prop47
 90
       50
102
RTVSPost2010PropOp47
 70
     0
102
RTVSPost2010Prop48
 90
       50
102
RTVSPost2010PropOp48
 70
     0
102
RTVSPost2010Prop49
280
     0
102
RTVSPost2010PropOp49
 70
     0
102
RTVSPost2010Prop50
 90
       50
102
RTVSPost2010PropOp50
 70
     0
102
RTVSPost2010Prop51ColorIndex
 90
      256
102
RTVSPost2010Prop51ColorRGB
 90
-16777216
102
RTVSPost2010PropOp51
 70
     0
102
RTVSPost2010Prop52
140
1.0
102
RTVSPost2010PropOp52
 70
     0
102
RTVSPost2010Prop53
 90
        2
102
RTVSPost2010PropOp53
 70
     0
102
RTVSPost2010Prop54
  1
strokes_ogs.tif
102
RTVSPost2010PropOp54
 70
     0
102
RTVSPost2010Prop55
280
     0
102
RTVSPost2010PropOp55
 70
     0
102
RTVSPost2010Prop56
140
1.0
102
RTVSPost2010PropOp56
 70
     0
102
RTVSPost2010Prop57
140
1.0
102
RTVSPost2010PropOp57
 70
     0
102
RTVSPropertyOp0
 70
     0
102
RTVSPropertyOp1
 70
     0
102
RTVSPropertyOp2
 70
     0
102
RTVSPropertyOp3
 70
     0
102
RTVSPropertyOp4
 70
     0
102
RTVSPropertyOp5
 70
     0
102
RTVSPropertyOp6
 70
     0
102
RTVSPropertyOp7
 70
     0
102
RTVSPropertyOp8
 70
     0
102
RTVSPropertyOp9
 70
     0
102
RTVSPropertyOp10
 70
     0
102
RTVSPropertyOp11
 70
     0
102
RTVSPropertyOp12
 70
     0
102
RTVSPropertyOp13
 70
     0
102
RTVSPropertyOp14
 70
     2
102
RTVSPropertyOp15
 70
     0
102
RTVSPropertyOp16
 70
     0
102
RTVSPropertyOp17
 70
     0
102
RTVSPropertyOp18
 70
     0
102
RTVSPropertyOp19
 70
     0
102
RTVSPropertyOp20
 70
     0
102
RTVSPropertyOp21
 70
     0
102
RTVSPropertyOp22
 70
     0
102
RTVSPropertyOp23
 70
     0
102
RTVSPropertyOp24
 70
     0
102
RTVSPropertyOp25
 70
     0
102
RTVSPropertyOp26
 70
     0
102
RTVSPropertyOp27
 70
     0
102
RTVSPropertyOp28
 70
     0
102
RTVSPropertyOp29
 70
     0
102
RTVSPropertyOp30
 70
     0
102
RTVSPropertyOp31
 70
     0
102
RTVSPropertyOp32
 70
     0
102
RTVSPropertyOp33
 70
     0
102
RTVSPropertyOp34
 70
     0
102
RTVSPropertyOp35
 70
     0
102
RTVSPropertyOp36
 70
     0
102
RTVSPropertyOp37
 70
     0
102
RTVSPropertyOp38
 70
     0
102
RTVSPropertyOp39
 70
     0
102
RTVSPropertyOp40
 70
     0
102
RTVSPropertyOp41
 70
     0
102
RTVSPropertyOp42
 70
     0
102
RTVSPropertyOp43
 70
     0
102
RTVSPropertyOp44
 70
     0
102
RTVSPropertyOp45
 70
     0
102
RTVSPropertyOp46
 70
     0
102
RTVSPropertyOp47
 70
     0
102
RTVSPropertyOp48
 70
     0
102
RTVSPropertyOp49
 70
     0
102
RTVSPropertyOp50
 70
     0
102
RTVSPropertyOp51
 70
     0
102
RTVSPropertyOp52
 70
     0
102
RTVSPropertyOp53
 70
     0
102
RTVSPropertyOp54
 70
     0
102
RTVSPropertyOp55
 70
     0
102
RTVSPropertyOp56
 70
     0
102
RTVSPropertyOp57
 70
     0
102
RTVSPropertyOp58
 70
     1
102
RTVSPropertyOp59
 70
     1
102
RTVSPropertyOp60
 70
     1
102
RTVSPropertyOp61
 70
     1
102
RTVSPropertyOp62
 70
     1
  0
XRECORD
  5
3FE
102
{ACAD_REACTORS
330
3FD
102
}
330
3FD
100
AcDbXrecord
280
     1
102
RTVSPost2010Prop28
280
     0
102
RTVSPost2010PropOp28
 70
     1
102
RTVSPost2010Prop29
280
     1
102
RTVSPost2010PropOp29
 70
     1
102
RTVSPost2010Prop30
280
     1
102
RTVSPost2010PropOp30
 70
     1
102
RTVSPost2010Prop31
280
     0
102
RTVSPost2010PropOp31
 70
     1
102
RTVSPost2010Prop32
280
     0
102
RTVSPost2010PropOp32
 70
     1
102
RTVSPost2010Prop33
280
     0
102
RTVSPost2010PropOp33
 70
     1
102
RTVSPost2010Prop34
280
     0
102
RTVSPost2010PropOp34
 70
     1
102
RTVSPost2010Prop35
280
     0
102
RTVSPost2010PropOp35
 70
     1
102
RTVSPost2010Prop36
280
     0
102
RTVSPost2010PropOp36
 70
     1
102
RTVSPost2010Prop37
 90
       50
102
RTVSPost2010PropOp37
 70
     1
102
RTVSPost2010Prop38
140
0.0
102
RTVSPost2010PropOp38
 70
     1
102
RTVSPost2010Prop39
140
1.0
102
RTVSPost2010PropOp39
 70
     1
102
RTVSPost2010Prop40
 90
        0
102
RTVSPost2010PropOp40
 70
     1
102
RTVSPost2010Prop41ColorIndex
 90
       18
102
RTVSPost2010Prop41ColorRGB
 90
        0
102
RTVSPost2010PropOp41
 70
     1
102
RTVSPost2010Prop42
 90
       50
102
RTVSPost2010PropOp42
 70
     1
102
RTVSPost2010Prop43
 90
        3
102
RTVSPost2010PropOp43
 70
     1
102
RTVSPost2010Prop44ColorIndex
 90
        5
102
RTVSPost2010Prop44ColorRGB
 90
      255
102
RTVSPost2010PropOp44
 70
     1
102
RTVSPost2010Prop45
280
     0
102
RTVSPost2010PropOp45
 70
     1
102
RTVSPost2010Prop46
 90
       50
102
RTVSPost2010PropOp46
 70
     1
102
RTVSPost2010Prop47
 90
       50
102
RTVSPost2010PropOp47
 70
     1
102
RTVSPost2010Prop48
 90
       50
102
RTVSPost2010PropOp48
 70
     1
102
RTVSPost2010Prop49
280
     0
102
RTVSPost2010PropOp49
 70
     1
102
RTVSPost2010Prop50
 90
       50
102
RTVSPost2010PropOp50
 70
     1
102
RTVSPost2010Prop51ColorIndex
 90
      256
102
RTVSPost2010Prop51ColorRGB
 90
-16777216
102
RTVSPost2010PropOp51
 70
     0
102
RTVSPost2010Prop52
140
1.0
102
RTVSPost2010PropOp52
 70
     0
102
RTVSPost2010Prop53
 90
        2
102
RTVSPost2010PropOp53
 70
     1
102
RTVSPost2010Prop54
  1
strokes_ogs.tif
102
RTVSPost2010PropOp54
 70
     1
102
RTVSPost2010Prop55
280
     0
102
RTVSPost2010PropOp55
 70
     1
102
RTVSPost2010Prop56
140
1.0
102
RTVSPost2010PropOp56
 70
     1
102
RTVSPost2010Prop57
140
1.0
102
RTVSPost2010PropOp57
 70
     1
102
RTVSPropertyOp0
 70
     1
102
RTVSPropertyOp1
 70
     1
102
RTVSPropertyOp2
 70
     1
102
RTVSPropertyOp3
 70
     1
102
RTVSPropertyOp4
 70
     1
102
RTVSPropertyOp5
 70
     1
102
RTVSPropertyOp6
 70
     1
102
RTVSPropertyOp7
 70
     1
102
RTVSPropertyOp8
 70
     1
102
RTVSPropertyOp9
 70
     1
102
RTVSPropertyOp10
 70
     1
102
RTVSPropertyOp11
 70
     1
102
RTVSPropertyOp12
 70
     1
102
RTVSPropertyOp13
 70
     1
102
RTVSPropertyOp14
 70
     1
102
RTVSPropertyOp15
 70
     1
102
RTVSPropertyOp16
 70
     1
102
RTVSPropertyOp17
 70
     1
102
RTVSPropertyOp18
 70
     1
102
RTVSPropertyOp19
 70
     1
102
RTVSPropertyOp20
 70
     1
102
RTVSPropertyOp21
 70
     1
102
RTVSPropertyOp22
 70
     1
102
RTVSPropertyOp23
 70
     1
102
RTVSPropertyOp24
 70
     1
102
RTVSPropertyOp25
 70
     1
102
RTVSPropertyOp26
 70
     1
102
RTVSPropertyOp27
 70
     1
102
RTVSPropertyOp28
 70
     1
102
RTVSPropertyOp29
 70
     1
102
RTVSPropertyOp30
 70
     1
102
RTVSPropertyOp31
 70
     1
102
RTVSPropertyOp32
 70
     1
102
RTVSPropertyOp33
 70
     1
102
RTVSPropertyOp34
 70
     1
102
RTVSPropertyOp35
 70
     1
102
RTVSPropertyOp36
 70
     1
102
RTVSPropertyOp37
 70
     1
102
RTVSPropertyOp38
 70
     1
102
RTVSPropertyOp39
 70
     1
102
RTVSPropertyOp40
 70
     1
102
RTVSPropertyOp41
 70
     1
102
RTVSPropertyOp42
 70
     1
102
RTVSPropertyOp43
 70
     1
102
RTVSPropertyOp44
 70
     1
102
RTVSPropertyOp45
 70
     1
102
RTVSPropertyOp46
 70
     1
102
RTVSPropertyOp47
 70
     1
102
RTVSPropertyOp48
 70
     1
102
RTVSPropertyOp49
 70
     1
102
RTVSPropertyOp50
 70
     1
102
RTVSPropertyOp51
 70
     0
102
RTVSPropertyOp52
 70
     0
102
RTVSPropertyOp53
 70
     1
102
RTVSPropertyOp54
 70
     1
102
RTVSPropertyOp55
 70
     1
102
RTVSPropertyOp56
 70
     1
102
RTVSPropertyOp57
 70
     1
102
RTVSPropertyOp58
 70
     1
102
RTVSPropertyOp59
 70
     1
102
RTVSPropertyOp60
 70
     1
102
RTVSPropertyOp61
 70
     1
102
RTVSPropertyOp62
 70
     1
  0
XRECORD
  5
3E2
102
{ACAD_REACTORS
330
3E1
102
}
330
3E1
100
AcDbXrecord
280
     1
102
RTVSPost2010Prop28
280
     0
102
RTVSPost2010PropOp28
 70
     1
102
RTVSPost2010Prop29
280
     1
102
RTVSPost2010PropOp29
 70
     1
102
RTVSPost2010Prop30
280
     1
102
RTVSPost2010PropOp30
 70
     1
102
RTVSPost2010Prop31
280
     0
102
RTVSPost2010PropOp31
 70
     1
102
RTVSPost2010Prop32
280
     0
102
RTVSPost2010PropOp32
 70
     1
102
RTVSPost2010Prop33
280
     0
102
RTVSPost2010PropOp33
 70
     1
102
RTVSPost2010Prop34
280
     0
102
RTVSPost2010PropOp34
 70
     1
102
RTVSPost2010Prop35
280
     0
102
RTVSPost2010PropOp35
 70
     1
102
RTVSPost2010Prop36
280
     0
102
RTVSPost2010PropOp36
 70
     1
102
RTVSPost2010Prop37
 90
       50
102
RTVSPost2010PropOp37
 70
     1
102
RTVSPost2010Prop38
140
0.0
102
RTVSPost2010PropOp38
 70
     1
102
RTVSPost2010Prop39
140
1.0
102
RTVSPost2010PropOp39
 70
     1
102
RTVSPost2010Prop40
 90
        0
102
RTVSPost2010PropOp40
 70
     1
102
RTVSPost2010Prop41ColorIndex
 90
       18
102
RTVSPost2010Prop41ColorRGB
 90
        0
102
RTVSPost2010PropOp41
 70
     1
102
RTVSPost2010Prop42
 90
       50
102
RTVSPost2010PropOp42
 70
     1
102
RTVSPost2010Prop43
 90
        3
102
RTVSPost2010PropOp43
 70
     1
102
RTVSPost2010Prop44ColorIndex
 90
        5
102
RTVSPost2010Prop44ColorRGB
 90
      255
102
RTVSPost2010PropOp44
 70
     1
102
RTVSPost2010Prop45
280
     0
102
RTVSPost2010PropOp45
 70
     1
102
RTVSPost2010Prop46
 90
       50
102
RTVSPost2010PropOp46
 70
     1
102
RTVSPost2010Prop47
 90
       50
102
RTVSPost2010PropOp47
 70
     1
102
RTVSPost2010Prop48
 90
       50
102
RTVSPost2010PropOp48
 70
     1
102
RTVSPost2010Prop49
280
     0
102
RTVSPost2010PropOp49
 70
     1
102
RTVSPost2010Prop50
 90
       50
102
RTVSPost2010PropOp50
 70
     1
102
RTVSPost2010Prop51ColorIndex
 90
      256
102
RTVSPost2010Prop51ColorRGB
 90
-16777216
102
RTVSPost2010PropOp51
 70
     0
102
RTVSPost2010Prop52
140
1.0
102
RTVSPost2010PropOp52
 70
     0
102
RTVSPost2010Prop53
 90
        2
102
RTVSPost2010PropOp53
 70
     1
102
RTVSPost2010Prop54
  1
strokes_ogs.tif
102
RTVSPost2010PropOp54
 70
     1
102
RTVSPost2010Prop55
280
     0
102
RTVSPost2010PropOp55
 70
     1
102
RTVSPost2010Prop56
140
1.0
102
RTVSPost2010PropOp56
 70
     1
102
RTVSPost2010Prop57
140
1.0
102
RTVSPost2010PropOp57
 70
     1
102
RTVSPropertyOp0
 70
     1
102
RTVSPropertyOp1
 70
     1
102
RTVSPropertyOp2
 70
     1
102
RTVSPropertyOp3
 70
     1
102
RTVSPropertyOp4
 70
     1
102
RTVSPropertyOp5
 70
     1
102
RTVSPropertyOp6
 70
     1
102
RTVSPropertyOp7
 70
     1
102
RTVSPropertyOp8
 70
     1
102
RTVSPropertyOp9
 70
     1
102
RTVSPropertyOp10
 70
     1
102
RTVSPropertyOp11
 70
     1
102
RTVSPropertyOp12
 70
     1
102
RTVSPropertyOp13
 70
     1
102
RTVSPropertyOp14
 70
     1
102
RTVSPropertyOp15
 70
     1
102
RTVSPropertyOp16
 70
     1
102
RTVSPropertyOp17
 70
     1
102
RTVSPropertyOp18
 70
     1
102
RTVSPropertyOp19
 70
     1
102
RTVSPropertyOp20
 70
     1
102
RTVSPropertyOp21
 70
     1
102
RTVSPropertyOp22
 70
     1
102
RTVSPropertyOp23
 70
     1
102
RTVSPropertyOp24
 70
     1
102
RTVSPropertyOp25
 70
     1
102
RTVSPropertyOp26
 70
     1
102
RTVSPropertyOp27
 70
     1
102
RTVSPropertyOp28
 70
     1
102
RTVSPropertyOp29
 70
     1
102
RTVSPropertyOp30
 70
     1
102
RTVSPropertyOp31
 70
     1
102
RTVSPropertyOp32
 70
     1
102
RTVSPropertyOp33
 70
     1
102
RTVSPropertyOp34
 70
     1
102
RTVSPropertyOp35
 70
     1
102
RTVSPropertyOp36
 70
     1
102
RTVSPropertyOp37
 70
     1
102
RTVSPropertyOp38
 70
     1
102
RTVSPropertyOp39
 70
     1
102
RTVSPropertyOp40
 70
     1
102
RTVSPropertyOp41
 70
     1
102
RTVSPropertyOp42
 70
     1
102
RTVSPropertyOp43
 70
     1
102
RTVSPropertyOp44
 70
     1
102
RTVSPropertyOp45
 70
     1
102
RTVSPropertyOp46
 70
     1
102
RTVSPropertyOp47
 70
     1
102
RTVSPropertyOp48
 70
     1
102
RTVSPropertyOp49
 70
     1
102
RTVSPropertyOp50
 70
     1
102
RTVSPropertyOp51
 70
     0
102
RTVSPropertyOp52
 70
     0
102
RTVSPropertyOp53
 70
     1
102
RTVSPropertyOp54
 70
     1
102
RTVSPropertyOp55
 70
     1
102
RTVSPropertyOp56
 70
     1
102
RTVSPropertyOp57
 70
     1
102
RTVSPropertyOp58
 70
     1
102
RTVSPropertyOp59
 70
     1
102
RTVSPropertyOp60
 70
     1
102
RTVSPropertyOp61
 70
     1
102
RTVSPropertyOp62
 70
     1
  0
XRECORD
  5
3E4
102
{ACAD_REACTORS
330
3E3
102
}
330
3E3
100
AcDbXrecord
280
     1
102
RTVSPost2010Prop28
280
     0
102
RTVSPost2010PropOp28
 70
     1
102
RTVSPost2010Prop29
280
     1
102
RTVSPost2010PropOp29
 70
     1
102
RTVSPost2010Prop30
280
     1
102
RTVSPost2010PropOp30
 70
     1
102
RTVSPost2010Prop31
280
     0
102
RTVSPost2010PropOp31
 70
     1
102
RTVSPost2010Prop32
280
     0
102
RTVSPost2010PropOp32
 70
     1
102
RTVSPost2010Prop33
280
     0
102
RTVSPost2010PropOp33
 70
     1
102
RTVSPost2010Prop34
280
     0
102
RTVSPost2010PropOp34
 70
     1
102
RTVSPost2010Prop35
280
     0
102
RTVSPost2010PropOp35
 70
     1
102
RTVSPost2010Prop36
280
     0
102
RTVSPost2010PropOp36
 70
     1
102
RTVSPost2010Prop37
 90
       50
102
RTVSPost2010PropOp37
 70
     1
102
RTVSPost2010Prop38
140
0.0
102
RTVSPost2010PropOp38
 70
     1
102
RTVSPost2010Prop39
140
1.0
102
RTVSPost2010PropOp39
 70
     1
102
RTVSPost2010Prop40
 90
        0
102
RTVSPost2010PropOp40
 70
     1
102
RTVSPost2010Prop41ColorIndex
 90
       18
102
RTVSPost2010Prop41ColorRGB
 90
        0
102
RTVSPost2010PropOp41
 70
     1
102
RTVSPost2010Prop42
 90
       50
102
RTVSPost2010PropOp42
 70
     1
102
RTVSPost2010Prop43
 90
        3
102
RTVSPost2010PropOp43
 70
     1
102
RTVSPost2010Prop44ColorIndex
 90
        5
102
RTVSPost2010Prop44ColorRGB
 90
      255
102
RTVSPost2010PropOp44
 70
     1
102
RTVSPost2010Prop45
280
     0
102
RTVSPost2010PropOp45
 70
     1
102
RTVSPost2010Prop46
 90
       50
102
RTVSPost2010PropOp46
 70
     1
102
RTVSPost2010Prop47
 90
       50
102
RTVSPost2010PropOp47
 70
     1
102
RTVSPost2010Prop48
 90
       50
102
RTVSPost2010PropOp48
 70
     1
102
RTVSPost2010Prop49
280
     0
102
RTVSPost2010PropOp49
 70
     1
102
RTVSPost2010Prop50
 90
       50
102
RTVSPost2010PropOp50
 70
     1
102
RTVSPost2010Prop51ColorIndex
 90
      256
102
RTVSPost2010Prop51ColorRGB
 90
-16777216
102
RTVSPost2010PropOp51
 70
     0
102
RTVSPost2010Prop52
140
1.0
102
RTVSPost2010PropOp52
 70
     0
102
RTVSPost2010Prop53
 90
        2
102
RTVSPost2010PropOp53
 70
     1
102
RTVSPost2010Prop54
  1
strokes_ogs.tif
102
RTVSPost2010PropOp54
 70
     1
102
RTVSPost2010Prop55
280
     0
102
RTVSPost2010PropOp55
 70
     1
102
RTVSPost2010Prop56
140
1.0
102
RTVSPost2010PropOp56
 70
     1
102
RTVSPost2010Prop57
140
1.0
102
RTVSPost2010PropOp57
 70
     1
102
RTVSPropertyOp0
 70
     1
102
RTVSPropertyOp1
 70
     1
102
RTVSPropertyOp2
 70
     1
102
RTVSPropertyOp3
 70
     1
102
RTVSPropertyOp4
 70
     1
102
RTVSPropertyOp5
 70
     1
102
RTVSPropertyOp6
 70
     1
102
RTVSPropertyOp7
 70
     1
102
RTVSPropertyOp8
 70
     1
102
RTVSPropertyOp9
 70
     1
102
RTVSPropertyOp10
 70
     1
102
RTVSPropertyOp11
 70
     1
102
RTVSPropertyOp12
 70
     1
102
RTVSPropertyOp13
 70
     1
102
RTVSPropertyOp14
 70
     1
102
RTVSPropertyOp15
 70
     1
102
RTVSPropertyOp16
 70
     1
102
RTVSPropertyOp17
 70
     1
102
RTVSPropertyOp18
 70
     1
102
RTVSPropertyOp19
 70
     1
102
RTVSPropertyOp20
 70
     1
102
RTVSPropertyOp21
 70
     1
102
RTVSPropertyOp22
 70
     1
102
RTVSPropertyOp23
 70
     1
102
RTVSPropertyOp24
 70
     1
102
RTVSPropertyOp25
 70
     1
102
RTVSPropertyOp26
 70
     1
102
RTVSPropertyOp27
 70
     1
102
RTVSPropertyOp28
 70
     1
102
RTVSPropertyOp29
 70
     1
102
RTVSPropertyOp30
 70
     1
102
RTVSPropertyOp31
 70
     1
102
RTVSPropertyOp32
 70
     1
102
RTVSPropertyOp33
 70
     1
102
RTVSPropertyOp34
 70
     1
102
RTVSPropertyOp35
 70
     1
102
RTVSPropertyOp36
 70
     1
102
RTVSPropertyOp37
 70
     1
102
RTVSPropertyOp38
 70
     1
102
RTVSPropertyOp39
 70
     1
102
RTVSPropertyOp40
 70
     1
102
RTVSPropertyOp41
 70
     1
102
RTVSPropertyOp42
 70
     1
102
RTVSPropertyOp43
 70
     1
102
RTVSPropertyOp44
 70
     1
102
RTVSPropertyOp45
 70
     1
102
RTVSPropertyOp46
 70
     1
102
RTVSPropertyOp47
 70
     1
102
RTVSPropertyOp48
 70
     1
102
RTVSPropertyOp49
 70
     1
102
RTVSPropertyOp50
 70
     1
102
RTVSPropertyOp51
 70
     0
102
RTVSPropertyOp52
 70
     0
102
RTVSPropertyOp53
 70
     1
102
RTVSPropertyOp54
 70
     1
102
RTVSPropertyOp55
 70
     1
102
RTVSPropertyOp56
 70
     1
102
RTVSPropertyOp57
 70
     1
102
RTVSPropertyOp58
 70
     1
102
RTVSPropertyOp59
 70
     1
102
RTVSPropertyOp60
 70
     1
102
RTVSPropertyOp61
 70
     1
102
RTVSPropertyOp62
 70
     1
  0
XRECORD
  5
3E6
102
{ACAD_REACTORS
330
3E5
102
}
330
3E5
100
AcDbXrecord
280
     1
102
RTVSPost2010Prop28
280
     0
102
RTVSPost2010PropOp28
 70
     1
102
RTVSPost2010Prop29
280
     1
102
RTVSPost2010PropOp29
 70
     1
102
RTVSPost2010Prop30
280
     1
102
RTVSPost2010PropOp30
 70
     1
102
RTVSPost2010Prop31
280
     0
102
RTVSPost2010PropOp31
 70
     1
102
RTVSPost2010Prop32
280
     0
102
RTVSPost2010PropOp32
 70
     1
102
RTVSPost2010Prop33
280
     0
102
RTVSPost2010PropOp33
 70
     1
102
RTVSPost2010Prop34
280
     0
102
RTVSPost2010PropOp34
 70
     1
102
RTVSPost2010Prop35
280
     0
102
RTVSPost2010PropOp35
 70
     1
102
RTVSPost2010Prop36
280
     0
102
RTVSPost2010PropOp36
 70
     1
102
RTVSPost2010Prop37
 90
       50
102
RTVSPost2010PropOp37
 70
     1
102
RTVSPost2010Prop38
140
0.0
102
RTVSPost2010PropOp38
 70
     1
102
RTVSPost2010Prop39
140
1.0
102
RTVSPost2010PropOp39
 70
     1
102
RTVSPost2010Prop40
 90
        0
102
RTVSPost2010PropOp40
 70
     1
102
RTVSPost2010Prop41ColorIndex
 90
       18
102
RTVSPost2010Prop41ColorRGB
 90
        0
102
RTVSPost2010PropOp41
 70
     1
102
RTVSPost2010Prop42
 90
       50
102
RTVSPost2010PropOp42
 70
     1
102
RTVSPost2010Prop43
 90
        3
102
RTVSPost2010PropOp43
 70
     1
102
RTVSPost2010Prop44ColorIndex
 90
        5
102
RTVSPost2010Prop44ColorRGB
 90
      255
102
RTVSPost2010PropOp44
 70
     1
102
RTVSPost2010Prop45
280
     0
102
RTVSPost2010PropOp45
 70
     1
102
RTVSPost2010Prop46
 90
       50
102
RTVSPost2010PropOp46
 70
     1
102
RTVSPost2010Prop47
 90
       50
102
RTVSPost2010PropOp47
 70
     1
102
RTVSPost2010Prop48
 90
       50
102
RTVSPost2010PropOp48
 70
     1
102
RTVSPost2010Prop49
280
     0
102
RTVSPost2010PropOp49
 70
     1
102
RTVSPost2010Prop50
 90
       50
102
RTVSPost2010PropOp50
 70
     1
102
RTVSPost2010Prop51ColorIndex
 90
      256
102
RTVSPost2010Prop51ColorRGB
 90
-16777216
102
RTVSPost2010PropOp51
 70
     0
102
RTVSPost2010Prop52
140
1.0
102
RTVSPost2010PropOp52
 70
     0
102
RTVSPost2010Prop53
 90
        2
102
RTVSPost2010PropOp53
 70
     1
102
RTVSPost2010Prop54
  1
strokes_ogs.tif
102
RTVSPost2010PropOp54
 70
     1
102
RTVSPost2010Prop55
280
     0
102
RTVSPost2010PropOp55
 70
     1
102
RTVSPost2010Prop56
140
1.0
102
RTVSPost2010PropOp56
 70
     1
102
RTVSPost2010Prop57
140
1.0
102
RTVSPost2010PropOp57
 70
     1
102
RTVSPropertyOp0
 70
     1
102
RTVSPropertyOp1
 70
     1
102
RTVSPropertyOp2
 70
     1
102
RTVSPropertyOp3
 70
     1
102
RTVSPropertyOp4
 70
     1
102
RTVSPropertyOp5
 70
     1
102
RTVSPropertyOp6
 70
     1
102
RTVSPropertyOp7
 70
     1
102
RTVSPropertyOp8
 70
     1
102
RTVSPropertyOp9
 70
     1
102
RTVSPropertyOp10
 70
     1
102
RTVSPropertyOp11
 70
     1
102
RTVSPropertyOp12
 70
     1
102
RTVSPropertyOp13
 70
     1
102
RTVSPropertyOp14
 70
     1
102
RTVSPropertyOp15
 70
     1
102
RTVSPropertyOp16
 70
     1
102
RTVSPropertyOp17
 70
     1
102
RTVSPropertyOp18
 70
     1
102
RTVSPropertyOp19
 70
     1
102
RTVSPropertyOp20
 70
     1
102
RTVSPropertyOp21
 70
     1
102
RTVSPropertyOp22
 70
     1
102
RTVSPropertyOp23
 70
     1
102
RTVSPropertyOp24
 70
     1
102
RTVSPropertyOp25
 70
     1
102
RTVSPropertyOp26
 70
     1
102
RTVSPropertyOp27
 70
     1
102
RTVSPropertyOp28
 70
     1
102
RTVSPropertyOp29
 70
     1
102
RTVSPropertyOp30
 70
     1
102
RTVSPropertyOp31
 70
     1
102
RTVSPropertyOp32
 70
     1
102
RTVSPropertyOp33
 70
     1
102
RTVSPropertyOp34
 70
     1
102
RTVSPropertyOp35
 70
     1
102
RTVSPropertyOp36
 70
     1
102
RTVSPropertyOp37
 70
     1
102
RTVSPropertyOp38
 70
     1
102
RTVSPropertyOp39
 70
     1
102
RTVSPropertyOp40
 70
     1
102
RTVSPropertyOp41
 70
     1
102
RTVSPropertyOp42
 70
     1
102
RTVSPropertyOp43
 70
     1
102
RTVSPropertyOp44
 70
     1
102
RTVSPropertyOp45
 70
     1
102
RTVSPropertyOp46
 70
     1
102
RTVSPropertyOp47
 70
     1
102
RTVSPropertyOp48
 70
     1
102
RTVSPropertyOp49
 70
     1
102
RTVSPropertyOp50
 70
     1
102
RTVSPropertyOp51
 70
     0
102
RTVSPropertyOp52
 70
     0
102
RTVSPropertyOp53
 70
     1
102
RTVSPropertyOp54
 70
     1
102
RTVSPropertyOp55
 70
     1
102
RTVSPropertyOp56
 70
     1
102
RTVSPropertyOp57
 70
     1
102
RTVSPropertyOp58
 70
     1
102
RTVSPropertyOp59
 70
     1
102
RTVSPropertyOp60
 70
     1
102
RTVSPropertyOp61
 70
     1
102
RTVSPropertyOp62
 70
     1
  0
XRECORD
  5
3E8
102
{ACAD_REACTORS
330
3E7
102
}
330
3E7
100
AcDbXrecord
280
     1
102
RTVSPost2010Prop28
280
     0
102
RTVSPost2010PropOp28
 70
     1
102
RTVSPost2010Prop29
280
     1
102
RTVSPost2010PropOp29
 70
     1
102
RTVSPost2010Prop30
280
     1
102
RTVSPost2010PropOp30
 70
     1
102
RTVSPost2010Prop31
280
     0
102
RTVSPost2010PropOp31
 70
     1
102
RTVSPost2010Prop32
280
     0
102
RTVSPost2010PropOp32
 70
     1
102
RTVSPost2010Prop33
280
     0
102
RTVSPost2010PropOp33
 70
     1
102
RTVSPost2010Prop34
280
     0
102
RTVSPost2010PropOp34
 70
     1
102
RTVSPost2010Prop35
280
     0
102
RTVSPost2010PropOp35
 70
     1
102
RTVSPost2010Prop36
280
     0
102
RTVSPost2010PropOp36
 70
     1
102
RTVSPost2010Prop37
 90
       50
102
RTVSPost2010PropOp37
 70
     1
102
RTVSPost2010Prop38
140
0.0
102
RTVSPost2010PropOp38
 70
     1
102
RTVSPost2010Prop39
140
1.0
102
RTVSPost2010PropOp39
 70
     1
102
RTVSPost2010Prop40
 90
        0
102
RTVSPost2010PropOp40
 70
     1
102
RTVSPost2010Prop41ColorIndex
 90
       18
102
RTVSPost2010Prop41ColorRGB
 90
        0
102
RTVSPost2010PropOp41
 70
     1
102
RTVSPost2010Prop42
 90
       50
102
RTVSPost2010PropOp42
 70
     1
102
RTVSPost2010Prop43
 90
        3
102
RTVSPost2010PropOp43
 70
     1
102
RTVSPost2010Prop44ColorIndex
 90
        5
102
RTVSPost2010Prop44ColorRGB
 90
      255
102
RTVSPost2010PropOp44
 70
     1
102
RTVSPost2010Prop45
280
     0
102
RTVSPost2010PropOp45
 70
     1
102
RTVSPost2010Prop46
 90
       50
102
RTVSPost2010PropOp46
 70
     1
102
RTVSPost2010Prop47
 90
       50
102
RTVSPost2010PropOp47
 70
     1
102
RTVSPost2010Prop48
 90
       50
102
RTVSPost2010PropOp48
 70
     1
102
RTVSPost2010Prop49
280
     0
102
RTVSPost2010PropOp49
 70
     1
102
RTVSPost2010Prop50
 90
       50
102
RTVSPost2010PropOp50
 70
     1
102
RTVSPost2010Prop51ColorIndex
 90
      256
102
RTVSPost2010Prop51ColorRGB
 90
-16777216
102
RTVSPost2010PropOp51
 70
     0
102
RTVSPost2010Prop52
140
1.0
102
RTVSPost2010PropOp52
 70
     0
102
RTVSPost2010Prop53
 90
        2
102
RTVSPost2010PropOp53
 70
     1
102
RTVSPost2010Prop54
  1
strokes_ogs.tif
102
RTVSPost2010PropOp54
 70
     1
102
RTVSPost2010Prop55
280
     0
102
RTVSPost2010PropOp55
 70
     1
102
RTVSPost2010Prop56
140
1.0
102
RTVSPost2010PropOp56
 70
     1
102
RTVSPost2010Prop57
140
1.0
102
RTVSPost2010PropOp57
 70
     1
102
RTVSPropertyOp0
 70
     1
102
RTVSPropertyOp1
 70
     1
102
RTVSPropertyOp2
 70
     1
102
RTVSPropertyOp3
 70
     1
102
RTVSPropertyOp4
 70
     1
102
RTVSPropertyOp5
 70
     1
102
RTVSPropertyOp6
 70
     1
102
RTVSPropertyOp7
 70
     1
102
RTVSPropertyOp8
 70
     1
102
RTVSPropertyOp9
 70
     1
102
RTVSPropertyOp10
 70
     1
102
RTVSPropertyOp11
 70
     1
102
RTVSPropertyOp12
 70
     1
102
RTVSPropertyOp13
 70
     1
102
RTVSPropertyOp14
 70
     1
102
RTVSPropertyOp15
 70
     1
102
RTVSPropertyOp16
 70
     1
102
RTVSPropertyOp17
 70
     1
102
RTVSPropertyOp18
 70
     1
102
RTVSPropertyOp19
 70
     1
102
RTVSPropertyOp20
 70
     1
102
RTVSPropertyOp21
 70
     1
102
RTVSPropertyOp22
 70
     1
102
RTVSPropertyOp23
 70
     1
102
RTVSPropertyOp24
 70
     1
102
RTVSPropertyOp25
 70
     1
102
RTVSPropertyOp26
 70
     1
102
RTVSPropertyOp27
 70
     1
102
RTVSPropertyOp28
 70
     1
102
RTVSPropertyOp29
 70
     1
102
RTVSPropertyOp30
 70
     1
102
RTVSPropertyOp31
 70
     1
102
RTVSPropertyOp32
 70
     1
102
RTVSPropertyOp33
 70
     1
102
RTVSPropertyOp34
 70
     1
102
RTVSPropertyOp35
 70
     1
102
RTVSPropertyOp36
 70
     1
102
RTVSPropertyOp37
 70
     1
102
RTVSPropertyOp38
 70
     1
102
RTVSPropertyOp39
 70
     1
102
RTVSPropertyOp40
 70
     1
102
RTVSPropertyOp41
 70
     1
102
RTVSPropertyOp42
 70
     1
102
RTVSPropertyOp43
 70
     1
102
RTVSPropertyOp44
 70
     1
102
RTVSPropertyOp45
 70
     1
102
RTVSPropertyOp46
 70
     1
102
RTVSPropertyOp47
 70
     1
102
RTVSPropertyOp48
 70
     1
102
RTVSPropertyOp49
 70
     1
102
RTVSPropertyOp50
 70
     1
102
RTVSPropertyOp51
 70
     0
102
RTVSPropertyOp52
 70
     0
102
RTVSPropertyOp53
 70
     1
102
RTVSPropertyOp54
 70
     1
102
RTVSPropertyOp55
 70
     1
102
RTVSPropertyOp56
 70
     1
102
RTVSPropertyOp57
 70
     1
102
RTVSPropertyOp58
 70
     1
102
RTVSPropertyOp59
 70
     1
102
RTVSPropertyOp60
 70
     1
102
RTVSPropertyOp61
 70
     1
102
RTVSPropertyOp62
 70
     1
  0
XRECORD
  5
3EE
102
{ACAD_REACTORS
330
3ED
102
}
330
3ED
100
AcDbXrecord
280
     1
102
RTVSPost2010Prop28
280
     0
102
RTVSPost2010PropOp28
 70
     1
102
RTVSPost2010Prop29
280
     1
102
RTVSPost2010PropOp29
 70
     1
102
RTVSPost2010Prop30
280
     1
102
RTVSPost2010PropOp30
 70
     1
102
RTVSPost2010Prop31
280
     0
102
RTVSPost2010PropOp31
 70
     1
102
RTVSPost2010Prop32
280
     0
102
RTVSPost2010PropOp32
 70
     1
102
RTVSPost2010Prop33
280
     0
102
RTVSPost2010PropOp33
 70
     1
102
RTVSPost2010Prop34
280
     0
102
RTVSPost2010PropOp34
 70
     1
102
RTVSPost2010Prop35
280
     0
102
RTVSPost2010PropOp35
 70
     1
102
RTVSPost2010Prop36
280
     0
102
RTVSPost2010PropOp36
 70
     1
102
RTVSPost2010Prop37
 90
       50
102
RTVSPost2010PropOp37
 70
     1
102
RTVSPost2010Prop38
140
0.0
102
RTVSPost2010PropOp38
 70
     1
102
RTVSPost2010Prop39
140
1.0
102
RTVSPost2010PropOp39
 70
     1
102
RTVSPost2010Prop40
 90
        0
102
RTVSPost2010PropOp40
 70
     1
102
RTVSPost2010Prop41ColorIndex
 90
       18
102
RTVSPost2010Prop41ColorRGB
 90
        0
102
RTVSPost2010PropOp41
 70
     1
102
RTVSPost2010Prop42
 90
       50
102
RTVSPost2010PropOp42
 70
     1
102
RTVSPost2010Prop43
 90
        3
102
RTVSPost2010PropOp43
 70
     1
102
RTVSPost2010Prop44ColorIndex
 90
        5
102
RTVSPost2010Prop44ColorRGB
 90
      255
102
RTVSPost2010PropOp44
 70
     1
102
RTVSPost2010Prop45
280
     0
102
RTVSPost2010PropOp45
 70
     1
102
RTVSPost2010Prop46
 90
       50
102
RTVSPost2010PropOp46
 70
     1
102
RTVSPost2010Prop47
 90
       50
102
RTVSPost2010PropOp47
 70
     1
102
RTVSPost2010Prop48
 90
       50
102
RTVSPost2010PropOp48
 70
     1
102
RTVSPost2010Prop49
280
     0
102
RTVSPost2010PropOp49
 70
     1
102
RTVSPost2010Prop50
 90
       50
102
RTVSPost2010PropOp50
 70
     1
102
RTVSPost2010Prop51ColorIndex
 90
      256
102
RTVSPost2010Prop51ColorRGB
 90
-16777216
102
RTVSPost2010PropOp51
 70
     0
102
RTVSPost2010Prop52
140
1.0
102
RTVSPost2010PropOp52
 70
     0
102
RTVSPost2010Prop53
 90
        2
102
RTVSPost2010PropOp53
 70
     1
102
RTVSPost2010Prop54
  1
strokes_ogs.tif
102
RTVSPost2010PropOp54
 70
     1
102
RTVSPost2010Prop55
280
     0
102
RTVSPost2010PropOp55
 70
     1
102
RTVSPost2010Prop56
140
1.0
102
RTVSPost2010PropOp56
 70
     1
102
RTVSPost2010Prop57
140
1.0
102
RTVSPost2010PropOp57
 70
     1
102
RTVSPropertyOp0
 70
     1
102
RTVSPropertyOp1
 70
     1
102
RTVSPropertyOp2
 70
     1
102
RTVSPropertyOp3
 70
     1
102
RTVSPropertyOp4
 70
     1
102
RTVSPropertyOp5
 70
     1
102
RTVSPropertyOp6
 70
     1
102
RTVSPropertyOp7
 70
     1
102
RTVSPropertyOp8
 70
     1
102
RTVSPropertyOp9
 70
     1
102
RTVSPropertyOp10
 70
     1
102
RTVSPropertyOp11
 70
     1
102
RTVSPropertyOp12
 70
     1
102
RTVSPropertyOp13
 70
     1
102
RTVSPropertyOp14
 70
     1
102
RTVSPropertyOp15
 70
     1
102
RTVSPropertyOp16
 70
     1
102
RTVSPropertyOp17
 70
     1
102
RTVSPropertyOp18
 70
     1
102
RTVSPropertyOp19
 70
     1
102
RTVSPropertyOp20
 70
     1
102
RTVSPropertyOp21
 70
     1
102
RTVSPropertyOp22
 70
     1
102
RTVSPropertyOp23
 70
     1
102
RTVSPropertyOp24
 70
     1
102
RTVSPropertyOp25
 70
     1
102
RTVSPropertyOp26
 70
     1
102
RTVSPropertyOp27
 70
     1
102
RTVSPropertyOp28
 70
     1
102
RTVSPropertyOp29
 70
     1
102
RTVSPropertyOp30
 70
     1
102
RTVSPropertyOp31
 70
     1
102
RTVSPropertyOp32
 70
     1
102
RTVSPropertyOp33
 70
     1
102
RTVSPropertyOp34
 70
     1
102
RTVSPropertyOp35
 70
     1
102
RTVSPropertyOp36
 70
     1
102
RTVSPropertyOp37
 70
     1
102
RTVSPropertyOp38
 70
     1
102
RTVSPropertyOp39
 70
     1
102
RTVSPropertyOp40
 70
     1
102
RTVSPropertyOp41
 70
     1
102
RTVSPropertyOp42
 70
     1
102
RTVSPropertyOp43
 70
     1
102
RTVSPropertyOp44
 70
     1
102
RTVSPropertyOp45
 70
     1
102
RTVSPropertyOp46
 70
     1
102
RTVSPropertyOp47
 70
     1
102
RTVSPropertyOp48
 70
     1
102
RTVSPropertyOp49
 70
     1
102
RTVSPropertyOp50
 70
     1
102
RTVSPropertyOp51
 70
     0
102
RTVSPropertyOp52
 70
     0
102
RTVSPropertyOp53
 70
     1
102
RTVSPropertyOp54
 70
     1
102
RTVSPropertyOp55
 70
     1
102
RTVSPropertyOp56
 70
     1
102
RTVSPropertyOp57
 70
     1
102
RTVSPropertyOp58
 70
     1
102
RTVSPropertyOp59
 70
     1
102
RTVSPropertyOp60
 70
     1
102
RTVSPropertyOp61
 70
     1
102
RTVSPropertyOp62
 70
     1
  0
XRECORD
  5
402
102
{ACAD_REACTORS
330
401
102
}
330
401
100
AcDbXrecord
280
     1
102
RTVSPost2010Prop28
280
     0
102
RTVSPost2010PropOp28
 70
     0
102
RTVSPost2010Prop29
280
     1
102
RTVSPost2010PropOp29
 70
     0
102
RTVSPost2010Prop30
280
     1
102
RTVSPost2010PropOp30
 70
     0
102
RTVSPost2010Prop31
280
     0
102
RTVSPost2010PropOp31
 70
     0
102
RTVSPost2010Prop32
280
     0
102
RTVSPost2010PropOp32
 70
     0
102
RTVSPost2010Prop33
280
     0
102
RTVSPost2010PropOp33
 70
     0
102
RTVSPost2010Prop34
280
     0
102
RTVSPost2010PropOp34
 70
     0
102
RTVSPost2010Prop35
280
     0
102
RTVSPost2010PropOp35
 70
     0
102
RTVSPost2010Prop36
280
     0
102
RTVSPost2010PropOp36
 70
     0
102
RTVSPost2010Prop37
 90
       50
102
RTVSPost2010PropOp37
 70
     0
102
RTVSPost2010Prop38
140
0.0
102
RTVSPost2010PropOp38
 70
     0
102
RTVSPost2010Prop39
140
1.0
102
RTVSPost2010PropOp39
 70
     0
102
RTVSPost2010Prop40
 90
        0
102
RTVSPost2010PropOp40
 70
     0
102
RTVSPost2010Prop41ColorIndex
 90
       18
102
RTVSPost2010Prop41ColorRGB
 90
        0
102
RTVSPost2010PropOp41
 70
     0
102
RTVSPost2010Prop42
 90
       50
102
RTVSPost2010PropOp42
 70
     0
102
RTVSPost2010Prop43
 90
        3
102
RTVSPost2010PropOp43
 70
     0
102
RTVSPost2010Prop44ColorIndex
 90
        5
102
RTVSPost2010Prop44ColorRGB
 90
      255
102
RTVSPost2010PropOp44
 70
     0
102
RTVSPost2010Prop45
280
     0
102
RTVSPost2010PropOp45
 70
     0
102
RTVSPost2010Prop46
 90
       50
102
RTVSPost2010PropOp46
 70
     0
102
RTVSPost2010Prop47
 90
       50
102
RTVSPost2010PropOp47
 70
     0
102
RTVSPost2010Prop48
 90
       50
102
RTVSPost2010PropOp48
 70
     0
102
RTVSPost2010Prop49
280
     0
102
RTVSPost2010PropOp49
 70
     0
102
RTVSPost2010Prop50
 90
       50
102
RTVSPost2010PropOp50
 70
     0
102
RTVSPost2010Prop51ColorIndex
 90
      256
102
RTVSPost2010Prop51ColorRGB
 90
-16777216
102
RTVSPost2010PropOp51
 70
     0
102
RTVSPost2010Prop52
140
1.0
102
RTVSPost2010PropOp52
 70
     0
102
RTVSPost2010Prop53
 90
        2
102
RTVSPost2010PropOp53
 70
     0
102
RTVSPost2010Prop54
  1
strokes_ogs.tif
102
RTVSPost2010PropOp54
 70
     0
102
RTVSPost2010Prop55
280
     0
102
RTVSPost2010PropOp55
 70
     0
102
RTVSPost2010Prop56
140
1.0
102
RTVSPost2010PropOp56
 70
     0
102
RTVSPost2010Prop57
140
1.0
102
RTVSPost2010PropOp57
 70
     0
102
RTVSPropertyOp0
 70
     0
102
RTVSPropertyOp1
 70
     0
102
RTVSPropertyOp2
 70
     0
102
RTVSPropertyOp3
 70
     0
102
RTVSPropertyOp4
 70
     0
102
RTVSPropertyOp5
 70
     0
102
RTVSPropertyOp6
 70
     0
102
RTVSPropertyOp7
 70
     0
102
RTVSPropertyOp8
 70
     0
102
RTVSPropertyOp9
 70
     0
102
RTVSPropertyOp10
 70
     0
102
RTVSPropertyOp11
 70
     0
102
RTVSPropertyOp12
 70
     0
102
RTVSPropertyOp13
 70
     0
102
RTVSPropertyOp14
 70
     2
102
RTVSPropertyOp15
 70
     0
102
RTVSPropertyOp16
 70
     0
102
RTVSPropertyOp17
 70
     0
102
RTVSPropertyOp18
 70
     0
102
RTVSPropertyOp19
 70
     0
102
RTVSPropertyOp20
 70
     0
102
RTVSPropertyOp21
 70
     0
102
RTVSPropertyOp22
 70
     0
102
RTVSPropertyOp23
 70
     0
102
RTVSPropertyOp24
 70
     0
102
RTVSPropertyOp25
 70
     0
102
RTVSPropertyOp26
 70
     0
102
RTVSPropertyOp27
 70
     0
102
RTVSPropertyOp28
 70
     0
102
RTVSPropertyOp29
 70
     0
102
RTVSPropertyOp30
 70
     0
102
RTVSPropertyOp31
 70
     0
102
RTVSPropertyOp32
 70
     0
102
RTVSPropertyOp33
 70
     0
102
RTVSPropertyOp34
 70
     0
102
RTVSPropertyOp35
 70
     0
102
RTVSPropertyOp36
 70
     0
102
RTVSPropertyOp37
 70
     0
102
RTVSPropertyOp38
 70
     0
102
RTVSPropertyOp39
 70
     0
102
RTVSPropertyOp40
 70
     0
102
RTVSPropertyOp41
 70
     0
102
RTVSPropertyOp42
 70
     0
102
RTVSPropertyOp43
 70
     0
102
RTVSPropertyOp44
 70
     0
102
RTVSPropertyOp45
 70
     0
102
RTVSPropertyOp46
 70
     0
102
RTVSPropertyOp47
 70
     0
102
RTVSPropertyOp48
 70
     0
102
RTVSPropertyOp49
 70
     0
102
RTVSPropertyOp50
 70
     0
102
RTVSPropertyOp51
 70
     0
102
RTVSPropertyOp52
 70
     0
102
RTVSPropertyOp53
 70
     0
102
RTVSPropertyOp54
 70
     0
102
RTVSPropertyOp55
 70
     0
102
RTVSPropertyOp56
 70
     0
102
RTVSPropertyOp57
 70
     0
102
RTVSPropertyOp58
 70
     1
102
RTVSPropertyOp59
 70
     1
102
RTVSPropertyOp60
 70
     1
102
RTVSPropertyOp61
 70
     1
102
RTVSPropertyOp62
 70
     1
  0
XRECORD
  5
3FC
102
{ACAD_REACTORS
330
3FB
102
}
330
3FB
100
AcDbXrecord
280
     1
102
RTVSPost2010Prop28
280
     0
102
RTVSPost2010PropOp28
 70
     1
102
RTVSPost2010Prop29
280
     1
102
RTVSPost2010PropOp29
 70
     1
102
RTVSPost2010Prop30
280
     1
102
RTVSPost2010PropOp30
 70
     1
102
RTVSPost2010Prop31
280
     0
102
RTVSPost2010PropOp31
 70
     1
102
RTVSPost2010Prop32
280
     0
102
RTVSPost2010PropOp32
 70
     1
102
RTVSPost2010Prop33
280
     0
102
RTVSPost2010PropOp33
 70
     1
102
RTVSPost2010Prop34
280
     0
102
RTVSPost2010PropOp34
 70
     1
102
RTVSPost2010Prop35
280
     0
102
RTVSPost2010PropOp35
 70
     1
102
RTVSPost2010Prop36
280
     0
102
RTVSPost2010PropOp36
 70
     1
102
RTVSPost2010Prop37
 90
       50
102
RTVSPost2010PropOp37
 70
     1
102
RTVSPost2010Prop38
140
0.0
102
RTVSPost2010PropOp38
 70
     1
102
RTVSPost2010Prop39
140
1.0
102
RTVSPost2010PropOp39
 70
     1
102
RTVSPost2010Prop40
 90
        0
102
RTVSPost2010PropOp40
 70
     1
102
RTVSPost2010Prop41ColorIndex
 90
       18
102
RTVSPost2010Prop41ColorRGB
 90
        0
102
RTVSPost2010PropOp41
 70
     1
102
RTVSPost2010Prop42
 90
       50
102
RTVSPost2010PropOp42
 70
     1
102
RTVSPost2010Prop43
 90
        3
102
RTVSPost2010PropOp43
 70
     1
102
RTVSPost2010Prop44ColorIndex
 90
        5
102
RTVSPost2010Prop44ColorRGB
 90
      255
102
RTVSPost2010PropOp44
 70
     1
102
RTVSPost2010Prop45
280
     0
102
RTVSPost2010PropOp45
 70
     1
102
RTVSPost2010Prop46
 90
       50
102
RTVSPost2010PropOp46
 70
     1
102
RTVSPost2010Prop47
 90
       50
102
RTVSPost2010PropOp47
 70
     1
102
RTVSPost2010Prop48
 90
       50
102
RTVSPost2010PropOp48
 70
     1
102
RTVSPost2010Prop49
280
     0
102
RTVSPost2010PropOp49
 70
     1
102
RTVSPost2010Prop50
 90
       50
102
RTVSPost2010PropOp50
 70
     1
102
RTVSPost2010Prop51ColorIndex
 90
      256
102
RTVSPost2010Prop51ColorRGB
 90
-16777216
102
RTVSPost2010PropOp51
 70
     0
102
RTVSPost2010Prop52
140
1.0
102
RTVSPost2010PropOp52
 70
     0
102
RTVSPost2010Prop53
 90
        2
102
RTVSPost2010PropOp53
 70
     1
102
RTVSPost2010Prop54
  1
strokes_ogs.tif
102
RTVSPost2010PropOp54
 70
     1
102
RTVSPost2010Prop55
280
     0
102
RTVSPost2010PropOp55
 70
     1
102
RTVSPost2010Prop56
140
1.0
102
RTVSPost2010PropOp56
 70
     1
102
RTVSPost2010Prop57
140
1.0
102
RTVSPost2010PropOp57
 70
     1
102
RTVSPropertyOp0
 70
     1
102
RTVSPropertyOp1
 70
     1
102
RTVSPropertyOp2
 70
     1
102
RTVSPropertyOp3
 70
     1
102
RTVSPropertyOp4
 70
     1
102
RTVSPropertyOp5
 70
     1
102
RTVSPropertyOp6
 70
     1
102
RTVSPropertyOp7
 70
     1
102
RTVSPropertyOp8
 70
     1
102
RTVSPropertyOp9
 70
     1
102
RTVSPropertyOp10
 70
     1
102
RTVSPropertyOp11
 70
     1
102
RTVSPropertyOp12
 70
     1
102
RTVSPropertyOp13
 70
     1
102
RTVSPropertyOp14
 70
     1
102
RTVSPropertyOp15
 70
     1
102
RTVSPropertyOp16
 70
     1
102
RTVSPropertyOp17
 70
     1
102
RTVSPropertyOp18
 70
     1
102
RTVSPropertyOp19
 70
     1
102
RTVSPropertyOp20
 70
     1
102
RTVSPropertyOp21
 70
     1
102
RTVSPropertyOp22
 70
     1
102
RTVSPropertyOp23
 70
     1
102
RTVSPropertyOp24
 70
     1
102
RTVSPropertyOp25
 70
     1
102
RTVSPropertyOp26
 70
     1
102
RTVSPropertyOp27
 70
     1
102
RTVSPropertyOp28
 70
     1
102
RTVSPropertyOp29
 70
     1
102
RTVSPropertyOp30
 70
     1
102
RTVSPropertyOp31
 70
     1
102
RTVSPropertyOp32
 70
     1
102
RTVSPropertyOp33
 70
     1
102
RTVSPropertyOp34
 70
     1
102
RTVSPropertyOp35
 70
     1
102
RTVSPropertyOp36
 70
     1
102
RTVSPropertyOp37
 70
     1
102
RTVSPropertyOp38
 70
     1
102
RTVSPropertyOp39
 70
     1
102
RTVSPropertyOp40
 70
     1
102
RTVSPropertyOp41
 70
     1
102
RTVSPropertyOp42
 70
     1
102
RTVSPropertyOp43
 70
     1
102
RTVSPropertyOp44
 70
     1
102
RTVSPropertyOp45
 70
     1
102
RTVSPropertyOp46
 70
     1
102
RTVSPropertyOp47
 70
     1
102
RTVSPropertyOp48
 70
     1
102
RTVSPropertyOp49
 70
     1
102
RTVSPropertyOp50
 70
     1
102
RTVSPropertyOp51
 70
     0
102
RTVSPropertyOp52
 70
     0
102
RTVSPropertyOp53
 70
     1
102
RTVSPropertyOp54
 70
     1
102
RTVSPropertyOp55
 70
     1
102
RTVSPropertyOp56
 70
     1
102
RTVSPropertyOp57
 70
     1
102
RTVSPropertyOp58
 70
     1
102
RTVSPropertyOp59
 70
     1
102
RTVSPropertyOp60
 70
     1
102
RTVSPropertyOp61
 70
     1
102
RTVSPropertyOp62
 70
     1
  0
XRECORD
  5
404
102
{ACAD_REACTORS
330
403
102
}
330
403
100
AcDbXrecord
280
     1
102
RTVSPost2010Prop28
280
     0
102
RTVSPost2010PropOp28
 70
     0
102
RTVSPost2010Prop29
280
     1
102
RTVSPost2010PropOp29
 70
     0
102
RTVSPost2010Prop30
280
     1
102
RTVSPost2010PropOp30
 70
     0
102
RTVSPost2010Prop31
280
     0
102
RTVSPost2010PropOp31
 70
     0
102
RTVSPost2010Prop32
280
     0
102
RTVSPost2010PropOp32
 70
     0
102
RTVSPost2010Prop33
280
     0
102
RTVSPost2010PropOp33
 70
     0
102
RTVSPost2010Prop34
280
     0
102
RTVSPost2010PropOp34
 70
     0
102
RTVSPost2010Prop35
280
     0
102
RTVSPost2010PropOp35
 70
     0
102
RTVSPost2010Prop36
280
     0
102
RTVSPost2010PropOp36
 70
     0
102
RTVSPost2010Prop37
 90
       50
102
RTVSPost2010PropOp37
 70
     0
102
RTVSPost2010Prop38
140
0.0
102
RTVSPost2010PropOp38
 70
     0
102
RTVSPost2010Prop39
140
1.0
102
RTVSPost2010PropOp39
 70
     0
102
RTVSPost2010Prop40
 90
        0
102
RTVSPost2010PropOp40
 70
     0
102
RTVSPost2010Prop41ColorIndex
 90
       18
102
RTVSPost2010Prop41ColorRGB
 90
        0
102
RTVSPost2010PropOp41
 70
     0
102
RTVSPost2010Prop42
 90
       50
102
RTVSPost2010PropOp42
 70
     0
102
RTVSPost2010Prop43
 90
        3
102
RTVSPost2010PropOp43
 70
     0
102
RTVSPost2010Prop44ColorIndex
 90
        5
102
RTVSPost2010Prop44ColorRGB
 90
      255
102
RTVSPost2010PropOp44
 70
     0
102
RTVSPost2010Prop45
280
     0
102
RTVSPost2010PropOp45
 70
     0
102
RTVSPost2010Prop46
 90
       50
102
RTVSPost2010PropOp46
 70
     0
102
RTVSPost2010Prop47
 90
       50
102
RTVSPost2010PropOp47
 70
     0
102
RTVSPost2010Prop48
 90
       50
102
RTVSPost2010PropOp48
 70
     0
102
RTVSPost2010Prop49
280
     0
102
RTVSPost2010PropOp49
 70
     0
102
RTVSPost2010Prop50
 90
       50
102
RTVSPost2010PropOp50
 70
     0
102
RTVSPost2010Prop51ColorIndex
 90
      256
102
RTVSPost2010Prop51ColorRGB
 90
-16777216
102
RTVSPost2010PropOp51
 70
     0
102
RTVSPost2010Prop52
140
1.0
102
RTVSPost2010PropOp52
 70
     0
102
RTVSPost2010Prop53
 90
        2
102
RTVSPost2010PropOp53
 70
     0
102
RTVSPost2010Prop54
  1
strokes_ogs.tif
102
RTVSPost2010PropOp54
 70
     0
102
RTVSPost2010Prop55
280
     0
102
RTVSPost2010PropOp55
 70
     0
102
RTVSPost2010Prop56
140
1.0
102
RTVSPost2010PropOp56
 70
     0
102
RTVSPost2010Prop57
140
1.0
102
RTVSPost2010PropOp57
 70
     0
102
RTVSPropertyOp0
 70
     0
102
RTVSPropertyOp1
 70
     0
102
RTVSPropertyOp2
 70
     0
102
RTVSPropertyOp3
 70
     0
102
RTVSPropertyOp4
 70
     0
102
RTVSPropertyOp5
 70
     0
102
RTVSPropertyOp6
 70
     0
102
RTVSPropertyOp7
 70
     0
102
RTVSPropertyOp8
 70
     0
102
RTVSPropertyOp9
 70
     0
102
RTVSPropertyOp10
 70
     0
102
RTVSPropertyOp11
 70
     0
102
RTVSPropertyOp12
 70
     0
102
RTVSPropertyOp13
 70
     0
102
RTVSPropertyOp14
 70
     2
102
RTVSPropertyOp15
 70
     0
102
RTVSPropertyOp16
 70
     0
102
RTVSPropertyOp17
 70
     0
102
RTVSPropertyOp18
 70
     0
102
RTVSPropertyOp19
 70
     0
102
RTVSPropertyOp20
 70
     0
102
RTVSPropertyOp21
 70
     0
102
RTVSPropertyOp22
 70
     0
102
RTVSPropertyOp23
 70
     0
102
RTVSPropertyOp24
 70
     0
102
RTVSPropertyOp25
 70
     0
102
RTVSPropertyOp26
 70
     0
102
RTVSPropertyOp27
 70
     0
102
RTVSPropertyOp28
 70
     0
102
RTVSPropertyOp29
 70
     0
102
RTVSPropertyOp30
 70
     0
102
RTVSPropertyOp31
 70
     0
102
RTVSPropertyOp32
 70
     0
102
RTVSPropertyOp33
 70
     0
102
RTVSPropertyOp34
 70
     0
102
RTVSPropertyOp35
 70
     0
102
RTVSPropertyOp36
 70
     0
102
RTVSPropertyOp37
 70
     0
102
RTVSPropertyOp38
 70
     0
102
RTVSPropertyOp39
 70
     0
102
RTVSPropertyOp40
 70
     0
102
RTVSPropertyOp41
 70
     0
102
RTVSPropertyOp42
 70
     0
102
RTVSPropertyOp43
 70
     0
102
RTVSPropertyOp44
 70
     0
102
RTVSPropertyOp45
 70
     0
102
RTVSPropertyOp46
 70
     0
102
RTVSPropertyOp47
 70
     0
102
RTVSPropertyOp48
 70
     0
102
RTVSPropertyOp49
 70
     0
102
RTVSPropertyOp50
 70
     0
102
RTVSPropertyOp51
 70
     0
102
RTVSPropertyOp52
 70
     0
102
RTVSPropertyOp53
 70
     0
102
RTVSPropertyOp54
 70
     0
102
RTVSPropertyOp55
 70
     0
102
RTVSPropertyOp56
 70
     0
102
RTVSPropertyOp57
 70
     0
102
RTVSPropertyOp58
 70
     1
102
RTVSPropertyOp59
 70
     1
102
RTVSPropertyOp60
 70
     1
102
RTVSPropertyOp61
 70
     1
102
RTVSPropertyOp62
 70
     1
  0
XRECORD
  5
3F2
102
{ACAD_REACTORS
330
3F1
102
}
330
3F1
100
AcDbXrecord
280
     1
102
RTVSPost2010Prop28
280
     0
102
RTVSPost2010PropOp28
 70
     1
102
RTVSPost2010Prop29
280
     1
102
RTVSPost2010PropOp29
 70
     1
102
RTVSPost2010Prop30
280
     1
102
RTVSPost2010PropOp30
 70
     1
102
RTVSPost2010Prop31
280
     0
102
RTVSPost2010PropOp31
 70
     1
102
RTVSPost2010Prop32
280
     0
102
RTVSPost2010PropOp32
 70
     1
102
RTVSPost2010Prop33
280
     0
102
RTVSPost2010PropOp33
 70
     1
102
RTVSPost2010Prop34
280
     0
102
RTVSPost2010PropOp34
 70
     1
102
RTVSPost2010Prop35
280
     0
102
RTVSPost2010PropOp35
 70
     1
102
RTVSPost2010Prop36
280
     0
102
RTVSPost2010PropOp36
 70
     1
102
RTVSPost2010Prop37
 90
       50
102
RTVSPost2010PropOp37
 70
     1
102
RTVSPost2010Prop38
140
0.0
102
RTVSPost2010PropOp38
 70
     1
102
RTVSPost2010Prop39
140
1.0
102
RTVSPost2010PropOp39
 70
     1
102
RTVSPost2010Prop40
 90
        0
102
RTVSPost2010PropOp40
 70
     1
102
RTVSPost2010Prop41ColorIndex
 90
       18
102
RTVSPost2010Prop41ColorRGB
 90
        0
102
RTVSPost2010PropOp41
 70
     1
102
RTVSPost2010Prop42
 90
       50
102
RTVSPost2010PropOp42
 70
     1
102
RTVSPost2010Prop43
 90
        3
102
RTVSPost2010PropOp43
 70
     1
102
RTVSPost2010Prop44ColorIndex
 90
        5
102
RTVSPost2010Prop44ColorRGB
 90
      255
102
RTVSPost2010PropOp44
 70
     1
102
RTVSPost2010Prop45
280
     0
102
RTVSPost2010PropOp45
 70
     1
102
RTVSPost2010Prop46
 90
       50
102
RTVSPost2010PropOp46
 70
     1
102
RTVSPost2010Prop47
 90
       50
102
RTVSPost2010PropOp47
 70
     1
102
RTVSPost2010Prop48
 90
       50
102
RTVSPost2010PropOp48
 70
     1
102
RTVSPost2010Prop49
280
     0
102
RTVSPost2010PropOp49
 70
     1
102
RTVSPost2010Prop50
 90
       50
102
RTVSPost2010PropOp50
 70
     1
102
RTVSPost2010Prop51ColorIndex
 90
      256
102
RTVSPost2010Prop51ColorRGB
 90
-16777216
102
RTVSPost2010PropOp51
 70
     0
102
RTVSPost2010Prop52
140
1.0
102
RTVSPost2010PropOp52
 70
     0
102
RTVSPost2010Prop53
 90
        2
102
RTVSPost2010PropOp53
 70
     1
102
RTVSPost2010Prop54
  1
strokes_ogs.tif
102
RTVSPost2010PropOp54
 70
     1
102
RTVSPost2010Prop55
280
     0
102
RTVSPost2010PropOp55
 70
     1
102
RTVSPost2010Prop56
140
1.0
102
RTVSPost2010PropOp56
 70
     1
102
RTVSPost2010Prop57
140
1.0
102
RTVSPost2010PropOp57
 70
     1
102
RTVSPropertyOp0
 70
     1
102
RTVSPropertyOp1
 70
     1
102
RTVSPropertyOp2
 70
     1
102
RTVSPropertyOp3
 70
     1
102
RTVSPropertyOp4
 70
     1
102
RTVSPropertyOp5
 70
     1
102
RTVSPropertyOp6
 70
     1
102
RTVSPropertyOp7
 70
     1
102
RTVSPropertyOp8
 70
     1
102
RTVSPropertyOp9
 70
     1
102
RTVSPropertyOp10
 70
     1
102
RTVSPropertyOp11
 70
     1
102
RTVSPropertyOp12
 70
     1
102
RTVSPropertyOp13
 70
     1
102
RTVSPropertyOp14
 70
     1
102
RTVSPropertyOp15
 70
     1
102
RTVSPropertyOp16
 70
     1
102
RTVSPropertyOp17
 70
     1
102
RTVSPropertyOp18
 70
     1
102
RTVSPropertyOp19
 70
     1
102
RTVSPropertyOp20
 70
     1
102
RTVSPropertyOp21
 70
     1
102
RTVSPropertyOp22
 70
     1
102
RTVSPropertyOp23
 70
     1
102
RTVSPropertyOp24
 70
     1
102
RTVSPropertyOp25
 70
     1
102
RTVSPropertyOp26
 70
     1
102
RTVSPropertyOp27
 70
     1
102
RTVSPropertyOp28
 70
     1
102
RTVSPropertyOp29
 70
     1
102
RTVSPropertyOp30
 70
     1
102
RTVSPropertyOp31
 70
     1
102
RTVSPropertyOp32
 70
     1
102
RTVSPropertyOp33
 70
     1
102
RTVSPropertyOp34
 70
     1
102
RTVSPropertyOp35
 70
     1
102
RTVSPropertyOp36
 70
     1
102
RTVSPropertyOp37
 70
     1
102
RTVSPropertyOp38
 70
     1
102
RTVSPropertyOp39
 70
     1
102
RTVSPropertyOp40
 70
     1
102
RTVSPropertyOp41
 70
     1
102
RTVSPropertyOp42
 70
     1
102
RTVSPropertyOp43
 70
     1
102
RTVSPropertyOp44
 70
     1
102
RTVSPropertyOp45
 70
     1
102
RTVSPropertyOp46
 70
     1
102
RTVSPropertyOp47
 70
     1
102
RTVSPropertyOp48
 70
     1
102
RTVSPropertyOp49
 70
     1
102
RTVSPropertyOp50
 70
     1
102
RTVSPropertyOp51
 70
     0
102
RTVSPropertyOp52
 70
     0
102
RTVSPropertyOp53
 70
     1
102
RTVSPropertyOp54
 70
     1
102
RTVSPropertyOp55
 70
     1
102
RTVSPropertyOp56
 70
     1
102
RTVSPropertyOp57
 70
     1
102
RTVSPropertyOp58
 70
     1
102
RTVSPropertyOp59
 70
     1
102
RTVSPropertyOp60
 70
     1
102
RTVSPropertyOp61
 70
     1
102
RTVSPropertyOp62
 70
     1
  0
XRECORD
  5
410
102
{ACAD_REACTORS
330
40F
102
}
330
40F
100
AcDbXrecord
280
     1
102
RTVSPost2010Prop28
280
     0
102
RTVSPost2010PropOp28
 70
     1
102
RTVSPost2010Prop29
280
     1
102
RTVSPost2010PropOp29
 70
     1
102
RTVSPost2010Prop30
280
     1
102
RTVSPost2010PropOp30
 70
     1
102
RTVSPost2010Prop31
280
     0
102
RTVSPost2010PropOp31
 70
     1
102
RTVSPost2010Prop32
280
     0
102
RTVSPost2010PropOp32
 70
     1
102
RTVSPost2010Prop33
280
     0
102
RTVSPost2010PropOp33
 70
     1
102
RTVSPost2010Prop34
280
     0
102
RTVSPost2010PropOp34
 70
     1
102
RTVSPost2010Prop35
280
     0
102
RTVSPost2010PropOp35
 70
     1
102
RTVSPost2010Prop36
280
     0
102
RTVSPost2010PropOp36
 70
     1
102
RTVSPost2010Prop37
 90
       50
102
RTVSPost2010PropOp37
 70
     1
102
RTVSPost2010Prop38
140
0.0
102
RTVSPost2010PropOp38
 70
     1
102
RTVSPost2010Prop39
140
1.0
102
RTVSPost2010PropOp39
 70
     1
102
RTVSPost2010Prop40
 90
        0
102
RTVSPost2010PropOp40
 70
     1
102
RTVSPost2010Prop41ColorIndex
 90
       18
102
RTVSPost2010Prop41ColorRGB
 90
        0
102
RTVSPost2010PropOp41
 70
     1
102
RTVSPost2010Prop42
 90
       50
102
RTVSPost2010PropOp42
 70
     1
102
RTVSPost2010Prop43
 90
        3
102
RTVSPost2010PropOp43
 70
     1
102
RTVSPost2010Prop44ColorIndex
 90
        5
102
RTVSPost2010Prop44ColorRGB
 90
      255
102
RTVSPost2010PropOp44
 70
     1
102
RTVSPost2010Prop45
280
     0
102
RTVSPost2010PropOp45
 70
     1
102
RTVSPost2010Prop46
 90
       50
102
RTVSPost2010PropOp46
 70
     1
102
RTVSPost2010Prop47
 90
       50
102
RTVSPost2010PropOp47
 70
     1
102
RTVSPost2010Prop48
 90
       50
102
RTVSPost2010PropOp48
 70
     1
102
RTVSPost2010Prop49
280
     0
102
RTVSPost2010PropOp49
 70
     1
102
RTVSPost2010Prop50
 90
       50
102
RTVSPost2010PropOp50
 70
     1
102
RTVSPost2010Prop51ColorIndex
 90
      256
102
RTVSPost2010Prop51ColorRGB
 90
-16777216
102
RTVSPost2010PropOp51
 70
     0
102
RTVSPost2010Prop52
140
1.0
102
RTVSPost2010PropOp52
 70
     0
102
RTVSPost2010Prop53
 90
        2
102
RTVSPost2010PropOp53
 70
     1
102
RTVSPost2010Prop54
  1
strokes_ogs.tif
102
RTVSPost2010PropOp54
 70
     1
102
RTVSPost2010Prop55
280
     0
102
RTVSPost2010PropOp55
 70
     1
102
RTVSPost2010Prop56
140
1.0
102
RTVSPost2010PropOp56
 70
     1
102
RTVSPost2010Prop57
140
1.0
102
RTVSPost2010PropOp57
 70
     1
102
RTVSPropertyOp0
 70
     1
102
RTVSPropertyOp1
 70
     1
102
RTVSPropertyOp2
 70
     1
102
RTVSPropertyOp3
 70
     1
102
RTVSPropertyOp4
 70
     1
102
RTVSPropertyOp5
 70
     1
102
RTVSPropertyOp6
 70
     1
102
RTVSPropertyOp7
 70
     1
102
RTVSPropertyOp8
 70
     1
102
RTVSPropertyOp9
 70
     1
102
RTVSPropertyOp10
 70
     1
102
RTVSPropertyOp11
 70
     1
102
RTVSPropertyOp12
 70
     1
102
RTVSPropertyOp13
 70
     1
102
RTVSPropertyOp14
 70
     1
102
RTVSPropertyOp15
 70
     1
102
RTVSPropertyOp16
 70
     1
102
RTVSPropertyOp17
 70
     1
102
RTVSPropertyOp18
 70
     1
102
RTVSPropertyOp19
 70
     1
102
RTVSPropertyOp20
 70
     1
102
RTVSPropertyOp21
 70
     1
102
RTVSPropertyOp22
 70
     1
102
RTVSPropertyOp23
 70
     1
102
RTVSPropertyOp24
 70
     1
102
RTVSPropertyOp25
 70
     1
102
RTVSPropertyOp26
 70
     1
102
RTVSPropertyOp27
 70
     1
102
RTVSPropertyOp28
 70
     1
102
RTVSPropertyOp29
 70
     1
102
RTVSPropertyOp30
 70
     1
102
RTVSPropertyOp31
 70
     1
102
RTVSPropertyOp32
 70
     1
102
RTVSPropertyOp33
 70
     1
102
RTVSPropertyOp34
 70
     1
102
RTVSPropertyOp35
 70
     1
102
RTVSPropertyOp36
 70
     1
102
RTVSPropertyOp37
 70
     1
102
RTVSPropertyOp38
 70
     1
102
RTVSPropertyOp39
 70
     1
102
RTVSPropertyOp40
 70
     1
102
RTVSPropertyOp41
 70
     1
102
RTVSPropertyOp42
 70
     1
102
RTVSPropertyOp43
 70
     1
102
RTVSPropertyOp44
 70
     1
102
RTVSPropertyOp45
 70
     1
102
RTVSPropertyOp46
 70
     1
102
RTVSPropertyOp47
 70
     1
102
RTVSPropertyOp48
 70
     1
102
RTVSPropertyOp49
 70
     1
102
RTVSPropertyOp50
 70
     1
102
RTVSPropertyOp51
 70
     0
102
RTVSPropertyOp52
 70
     0
102
RTVSPropertyOp53
 70
     1
102
RTVSPropertyOp54
 70
     1
102
RTVSPropertyOp55
 70
     1
102
RTVSPropertyOp56
 70
     1
102
RTVSPropertyOp57
 70
     1
102
RTVSPropertyOp58
 70
     1
102
RTVSPropertyOp59
 70
     1
102
RTVSPropertyOp60
 70
     1
102
RTVSPropertyOp61
 70
     1
102
RTVSPropertyOp62
 70
     1
  0
XRECORD
  5
40E
102
{ACAD_REACTORS
330
40D
102
}
330
40D
100
AcDbXrecord
280
     1
102
RTVSPost2010Prop28
280
     0
102
RTVSPost2010PropOp28
 70
     1
102
RTVSPost2010Prop29
280
     1
102
RTVSPost2010PropOp29
 70
     1
102
RTVSPost2010Prop30
280
     1
102
RTVSPost2010PropOp30
 70
     1
102
RTVSPost2010Prop31
280
     0
102
RTVSPost2010PropOp31
 70
     1
102
RTVSPost2010Prop32
280
     0
102
RTVSPost2010PropOp32
 70
     1
102
RTVSPost2010Prop33
280
     0
102
RTVSPost2010PropOp33
 70
     1
102
RTVSPost2010Prop34
280
     0
102
RTVSPost2010PropOp34
 70
     1
102
RTVSPost2010Prop35
280
     0
102
RTVSPost2010PropOp35
 70
     1
102
RTVSPost2010Prop36
280
     0
102
RTVSPost2010PropOp36
 70
     1
102
RTVSPost2010Prop37
 90
       50
102
RTVSPost2010PropOp37
 70
     1
102
RTVSPost2010Prop38
140
0.0
102
RTVSPost2010PropOp38
 70
     1
102
RTVSPost2010Prop39
140
1.0
102
RTVSPost2010PropOp39
 70
     1
102
RTVSPost2010Prop40
 90
        0
102
RTVSPost2010PropOp40
 70
     1
102
RTVSPost2010Prop41ColorIndex
 90
       18
102
RTVSPost2010Prop41ColorRGB
 90
        0
102
RTVSPost2010PropOp41
 70
     1
102
RTVSPost2010Prop42
 90
       50
102
RTVSPost2010PropOp42
 70
     1
102
RTVSPost2010Prop43
 90
        3
102
RTVSPost2010PropOp43
 70
     1
102
RTVSPost2010Prop44ColorIndex
 90
        5
102
RTVSPost2010Prop44ColorRGB
 90
      255
102
RTVSPost2010PropOp44
 70
     1
102
RTVSPost2010Prop45
280
     0
102
RTVSPost2010PropOp45
 70
     1
102
RTVSPost2010Prop46
 90
       50
102
RTVSPost2010PropOp46
 70
     1
102
RTVSPost2010Prop47
 90
       50
102
RTVSPost2010PropOp47
 70
     1
102
RTVSPost2010Prop48
 90
       50
102
RTVSPost2010PropOp48
 70
     1
102
RTVSPost2010Prop49
280
     0
102
RTVSPost2010PropOp49
 70
     1
102
RTVSPost2010Prop50
 90
       50
102
RTVSPost2010PropOp50
 70
     1
102
RTVSPost2010Prop51ColorIndex
 90
      256
102
RTVSPost2010Prop51ColorRGB
 90
-16777216
102
RTVSPost2010PropOp51
 70
     0
102
RTVSPost2010Prop52
140
1.0
102
RTVSPost2010PropOp52
 70
     0
102
RTVSPost2010Prop53
 90
        2
102
RTVSPost2010PropOp53
 70
     1
102
RTVSPost2010Prop54
  1
strokes_ogs.tif
102
RTVSPost2010PropOp54
 70
     1
102
RTVSPost2010Prop55
280
     0
102
RTVSPost2010PropOp55
 70
     1
102
RTVSPost2010Prop56
140
1.0
102
RTVSPost2010PropOp56
 70
     1
102
RTVSPost2010Prop57
140
1.0
102
RTVSPost2010PropOp57
 70
     1
102
RTVSPropertyOp0
 70
     1
102
RTVSPropertyOp1
 70
     1
102
RTVSPropertyOp2
 70
     1
102
RTVSPropertyOp3
 70
     1
102
RTVSPropertyOp4
 70
     1
102
RTVSPropertyOp5
 70
     1
102
RTVSPropertyOp6
 70
     1
102
RTVSPropertyOp7
 70
     1
102
RTVSPropertyOp8
 70
     1
102
RTVSPropertyOp9
 70
     1
102
RTVSPropertyOp10
 70
     1
102
RTVSPropertyOp11
 70
     1
102
RTVSPropertyOp12
 70
     1
102
RTVSPropertyOp13
 70
     1
102
RTVSPropertyOp14
 70
     1
102
RTVSPropertyOp15
 70
     1
102
RTVSPropertyOp16
 70
     1
102
RTVSPropertyOp17
 70
     1
102
RTVSPropertyOp18
 70
     1
102
RTVSPropertyOp19
 70
     1
102
RTVSPropertyOp20
 70
     1
102
RTVSPropertyOp21
 70
     1
102
RTVSPropertyOp22
 70
     1
102
RTVSPropertyOp23
 70
     1
102
RTVSPropertyOp24
 70
     1
102
RTVSPropertyOp25
 70
     1
102
RTVSPropertyOp26
 70
     1
102
RTVSPropertyOp27
 70
     1
102
RTVSPropertyOp28
 70
     1
102
RTVSPropertyOp29
 70
     1
102
RTVSPropertyOp30
 70
     1
102
RTVSPropertyOp31
 70
     1
102
RTVSPropertyOp32
 70
     1
102
RTVSPropertyOp33
 70
     1
102
RTVSPropertyOp34
 70
     1
102
RTVSPropertyOp35
 70
     1
102
RTVSPropertyOp36
 70
     1
102
RTVSPropertyOp37
 70
     1
102
RTVSPropertyOp38
 70
     1
102
RTVSPropertyOp39
 70
     1
102
RTVSPropertyOp40
 70
     1
102
RTVSPropertyOp41
 70
     1
102
RTVSPropertyOp42
 70
     1
102
RTVSPropertyOp43
 70
     1
102
RTVSPropertyOp44
 70
     1
102
RTVSPropertyOp45
 70
     1
102
RTVSPropertyOp46
 70
     1
102
RTVSPropertyOp47
 70
     1
102
RTVSPropertyOp48
 70
     1
102
RTVSPropertyOp49
 70
     1
102
RTVSPropertyOp50
 70
     1
102
RTVSPropertyOp51
 70
     0
102
RTVSPropertyOp52
 70
     0
102
RTVSPropertyOp53
 70
     1
102
RTVSPropertyOp54
 70
     1
102
RTVSPropertyOp55
 70
     1
102
RTVSPropertyOp56
 70
     1
102
RTVSPropertyOp57
 70
     1
102
RTVSPropertyOp58
 70
     1
102
RTVSPropertyOp59
 70
     1
102
RTVSPropertyOp60
 70
     1
102
RTVSPropertyOp61
 70
     1
102
RTVSPropertyOp62
 70
     1
  0
XRECORD
  5
408
102
{ACAD_REACTORS
330
407
102
}
330
407
100
AcDbXrecord
280
     1
102
RTVSPost2010Prop28
280
     0
102
RTVSPost2010PropOp28
 70
     1
102
RTVSPost2010Prop29
280
     1
102
RTVSPost2010PropOp29
 70
     1
102
RTVSPost2010Prop30
280
     1
102
RTVSPost2010PropOp30
 70
     1
102
RTVSPost2010Prop31
280
     0
102
RTVSPost2010PropOp31
 70
     1
102
RTVSPost2010Prop32
280
     0
102
RTVSPost2010PropOp32
 70
     1
102
RTVSPost2010Prop33
280
     0
102
RTVSPost2010PropOp33
 70
     1
102
RTVSPost2010Prop34
280
     0
102
RTVSPost2010PropOp34
 70
     1
102
RTVSPost2010Prop35
280
     0
102
RTVSPost2010PropOp35
 70
     1
102
RTVSPost2010Prop36
280
     0
102
RTVSPost2010PropOp36
 70
     1
102
RTVSPost2010Prop37
 90
       50
102
RTVSPost2010PropOp37
 70
     1
102
RTVSPost2010Prop38
140
0.0
102
RTVSPost2010PropOp38
 70
     1
102
RTVSPost2010Prop39
140
1.0
102
RTVSPost2010PropOp39
 70
     1
102
RTVSPost2010Prop40
 90
        0
102
RTVSPost2010PropOp40
 70
     1
102
RTVSPost2010Prop41ColorIndex
 90
       18
102
RTVSPost2010Prop41ColorRGB
 90
        0
102
RTVSPost2010PropOp41
 70
     1
102
RTVSPost2010Prop42
 90
       50
102
RTVSPost2010PropOp42
 70
     1
102
RTVSPost2010Prop43
 90
        3
102
RTVSPost2010PropOp43
 70
     1
102
RTVSPost2010Prop44ColorIndex
 90
        5
102
RTVSPost2010Prop44ColorRGB
 90
      255
102
RTVSPost2010PropOp44
 70
     1
102
RTVSPost2010Prop45
280
     0
102
RTVSPost2010PropOp45
 70
     1
102
RTVSPost2010Prop46
 90
       50
102
RTVSPost2010PropOp46
 70
     1
102
RTVSPost2010Prop47
 90
       50
102
RTVSPost2010PropOp47
 70
     1
102
RTVSPost2010Prop48
 90
       50
102
RTVSPost2010PropOp48
 70
     1
102
RTVSPost2010Prop49
280
     0
102
RTVSPost2010PropOp49
 70
     1
102
RTVSPost2010Prop50
 90
       50
102
RTVSPost2010PropOp50
 70
     1
102
RTVSPost2010Prop51ColorIndex
 90
      256
102
RTVSPost2010Prop51ColorRGB
 90
-16777216
102
RTVSPost2010PropOp51
 70
     0
102
RTVSPost2010Prop52
140
1.0
102
RTVSPost2010PropOp52
 70
     0
102
RTVSPost2010Prop53
 90
        2
102
RTVSPost2010PropOp53
 70
     1
102
RTVSPost2010Prop54
  1
strokes_ogs.tif
102
RTVSPost2010PropOp54
 70
     1
102
RTVSPost2010Prop55
280
     0
102
RTVSPost2010PropOp55
 70
     1
102
RTVSPost2010Prop56
140
1.0
102
RTVSPost2010PropOp56
 70
     1
102
RTVSPost2010Prop57
140
1.0
102
RTVSPost2010PropOp57
 70
     1
102
RTVSPropertyOp0
 70
     1
102
RTVSPropertyOp1
 70
     1
102
RTVSPropertyOp2
 70
     1
102
RTVSPropertyOp3
 70
     1
102
RTVSPropertyOp4
 70
     1
102
RTVSPropertyOp5
 70
     1
102
RTVSPropertyOp6
 70
     1
102
RTVSPropertyOp7
 70
     1
102
RTVSPropertyOp8
 70
     1
102
RTVSPropertyOp9
 70
     1
102
RTVSPropertyOp10
 70
     1
102
RTVSPropertyOp11
 70
     1
102
RTVSPropertyOp12
 70
     1
102
RTVSPropertyOp13
 70
     1
102
RTVSPropertyOp14
 70
     1
102
RTVSPropertyOp15
 70
     1
102
RTVSPropertyOp16
 70
     1
102
RTVSPropertyOp17
 70
     1
102
RTVSPropertyOp18
 70
     1
102
RTVSPropertyOp19
 70
     1
102
RTVSPropertyOp20
 70
     1
102
RTVSPropertyOp21
 70
     1
102
RTVSPropertyOp22
 70
     1
102
RTVSPropertyOp23
 70
     1
102
RTVSPropertyOp24
 70
     1
102
RTVSPropertyOp25
 70
     1
102
RTVSPropertyOp26
 70
     1
102
RTVSPropertyOp27
 70
     1
102
RTVSPropertyOp28
 70
     1
102
RTVSPropertyOp29
 70
     1
102
RTVSPropertyOp30
 70
     1
102
RTVSPropertyOp31
 70
     1
102
RTVSPropertyOp32
 70
     1
102
RTVSPropertyOp33
 70
     1
102
RTVSPropertyOp34
 70
     1
102
RTVSPropertyOp35
 70
     1
102
RTVSPropertyOp36
 70
     1
102
RTVSPropertyOp37
 70
     1
102
RTVSPropertyOp38
 70
     1
102
RTVSPropertyOp39
 70
     1
102
RTVSPropertyOp40
 70
     1
102
RTVSPropertyOp41
 70
     1
102
RTVSPropertyOp42
 70
     1
102
RTVSPropertyOp43
 70
     1
102
RTVSPropertyOp44
 70
     1
102
RTVSPropertyOp45
 70
     1
102
RTVSPropertyOp46
 70
     1
102
RTVSPropertyOp47
 70
     1
102
RTVSPropertyOp48
 70
     1
102
RTVSPropertyOp49
 70
     1
102
RTVSPropertyOp50
 70
     1
102
RTVSPropertyOp51
 70
     0
102
RTVSPropertyOp52
 70
     0
102
RTVSPropertyOp53
 70
     1
102
RTVSPropertyOp54
 70
     1
102
RTVSPropertyOp55
 70
     1
102
RTVSPropertyOp56
 70
     1
102
RTVSPropertyOp57
 70
     1
102
RTVSPropertyOp58
 70
     1
102
RTVSPropertyOp59
 70
     1
102
RTVSPropertyOp60
 70
     1
102
RTVSPropertyOp61
 70
     1
102
RTVSPropertyOp62
 70
     1
  0
XRECORD
  5
40A
102
{ACAD_REACTORS
330
409
102
}
330
409
100
AcDbXrecord
280
     1
102
RTVSPost2010Prop28
280
     0
102
RTVSPost2010PropOp28
 70
     1
102
RTVSPost2010Prop29
280
     1
102
RTVSPost2010PropOp29
 70
     1
102
RTVSPost2010Prop30
280
     1
102
RTVSPost2010PropOp30
 70
     1
102
RTVSPost2010Prop31
280
     0
102
RTVSPost2010PropOp31
 70
     1
102
RTVSPost2010Prop32
280
     0
102
RTVSPost2010PropOp32
 70
     1
102
RTVSPost2010Prop33
280
     0
102
RTVSPost2010PropOp33
 70
     1
102
RTVSPost2010Prop34
280
     0
102
RTVSPost2010PropOp34
 70
     1
102
RTVSPost2010Prop35
280
     0
102
RTVSPost2010PropOp35
 70
     1
102
RTVSPost2010Prop36
280
     0
102
RTVSPost2010PropOp36
 70
     1
102
RTVSPost2010Prop37
 90
       50
102
RTVSPost2010PropOp37
 70
     1
102
RTVSPost2010Prop38
140
0.0
102
RTVSPost2010PropOp38
 70
     1
102
RTVSPost2010Prop39
140
1.0
102
RTVSPost2010PropOp39
 70
     1
102
RTVSPost2010Prop40
 90
        0
102
RTVSPost2010PropOp40
 70
     1
102
RTVSPost2010Prop41ColorIndex
 90
       18
102
RTVSPost2010Prop41ColorRGB
 90
        0
102
RTVSPost2010PropOp41
 70
     1
102
RTVSPost2010Prop42
 90
       50
102
RTVSPost2010PropOp42
 70
     1
102
RTVSPost2010Prop43
 90
        3
102
RTVSPost2010PropOp43
 70
     1
102
RTVSPost2010Prop44ColorIndex
 90
        5
102
RTVSPost2010Prop44ColorRGB
 90
      255
102
RTVSPost2010PropOp44
 70
     1
102
RTVSPost2010Prop45
280
     0
102
RTVSPost2010PropOp45
 70
     1
102
RTVSPost2010Prop46
 90
       50
102
RTVSPost2010PropOp46
 70
     1
102
RTVSPost2010Prop47
 90
       50
102
RTVSPost2010PropOp47
 70
     1
102
RTVSPost2010Prop48
 90
       50
102
RTVSPost2010PropOp48
 70
     1
102
RTVSPost2010Prop49
280
     0
102
RTVSPost2010PropOp49
 70
     1
102
RTVSPost2010Prop50
 90
       50
102
RTVSPost2010PropOp50
 70
     1
102
RTVSPost2010Prop51ColorIndex
 90
      256
102
RTVSPost2010Prop51ColorRGB
 90
-16777216
102
RTVSPost2010PropOp51
 70
     0
102
RTVSPost2010Prop52
140
1.0
102
RTVSPost2010PropOp52
 70
     0
102
RTVSPost2010Prop53
 90
        2
102
RTVSPost2010PropOp53
 70
     1
102
RTVSPost2010Prop54
  1
strokes_ogs.tif
102
RTVSPost2010PropOp54
 70
     1
102
RTVSPost2010Prop55
280
     0
102
RTVSPost2010PropOp55
 70
     1
102
RTVSPost2010Prop56
140
1.0
102
RTVSPost2010PropOp56
 70
     1
102
RTVSPost2010Prop57
140
1.0
102
RTVSPost2010PropOp57
 70
     1
102
RTVSPropertyOp0
 70
     1
102
RTVSPropertyOp1
 70
     1
102
RTVSPropertyOp2
 70
     1
102
RTVSPropertyOp3
 70
     1
102
RTVSPropertyOp4
 70
     1
102
RTVSPropertyOp5
 70
     1
102
RTVSPropertyOp6
 70
     1
102
RTVSPropertyOp7
 70
     1
102
RTVSPropertyOp8
 70
     1
102
RTVSPropertyOp9
 70
     1
102
RTVSPropertyOp10
 70
     1
102
RTVSPropertyOp11
 70
     1
102
RTVSPropertyOp12
 70
     1
102
RTVSPropertyOp13
 70
     1
102
RTVSPropertyOp14
 70
     1
102
RTVSPropertyOp15
 70
     1
102
RTVSPropertyOp16
 70
     1
102
RTVSPropertyOp17
 70
     1
102
RTVSPropertyOp18
 70
     1
102
RTVSPropertyOp19
 70
     1
102
RTVSPropertyOp20
 70
     1
102
RTVSPropertyOp21
 70
     1
102
RTVSPropertyOp22
 70
     1
102
RTVSPropertyOp23
 70
     1
102
RTVSPropertyOp24
 70
     1
102
RTVSPropertyOp25
 70
     1
102
RTVSPropertyOp26
 70
     1
102
RTVSPropertyOp27
 70
     1
102
RTVSPropertyOp28
 70
     1
102
RTVSPropertyOp29
 70
     1
102
RTVSPropertyOp30
 70
     1
102
RTVSPropertyOp31
 70
     1
102
RTVSPropertyOp32
 70
     1
102
RTVSPropertyOp33
 70
     1
102
RTVSPropertyOp34
 70
     1
102
RTVSPropertyOp35
 70
     1
102
RTVSPropertyOp36
 70
     1
102
RTVSPropertyOp37
 70
     1
102
RTVSPropertyOp38
 70
     1
102
RTVSPropertyOp39
 70
     1
102
RTVSPropertyOp40
 70
     1
102
RTVSPropertyOp41
 70
     1
102
RTVSPropertyOp42
 70
     1
102
RTVSPropertyOp43
 70
     1
102
RTVSPropertyOp44
 70
     1
102
RTVSPropertyOp45
 70
     1
102
RTVSPropertyOp46
 70
     1
102
RTVSPropertyOp47
 70
     1
102
RTVSPropertyOp48
 70
     1
102
RTVSPropertyOp49
 70
     1
102
RTVSPropertyOp50
 70
     1
102
RTVSPropertyOp51
 70
     0
102
RTVSPropertyOp52
 70
     0
102
RTVSPropertyOp53
 70
     1
102
RTVSPropertyOp54
 70
     1
102
RTVSPropertyOp55
 70
     1
102
RTVSPropertyOp56
 70
     1
102
RTVSPropertyOp57
 70
     1
102
RTVSPropertyOp58
 70
     1
102
RTVSPropertyOp59
 70
     1
102
RTVSPropertyOp60
 70
     1
102
RTVSPropertyOp61
 70
     1
102
RTVSPropertyOp62
 70
     1
  0
XRECORD
  5
3FA
102
{ACAD_REACTORS
330
3F9
102
}
330
3F9
100
AcDbXrecord
280
     1
102
RTVSPost2010Prop28
280
     0
102
RTVSPost2010PropOp28
 70
     1
102
RTVSPost2010Prop29
280
     1
102
RTVSPost2010PropOp29
 70
     1
102
RTVSPost2010Prop30
280
     1
102
RTVSPost2010PropOp30
 70
     1
102
RTVSPost2010Prop31
280
     0
102
RTVSPost2010PropOp31
 70
     1
102
RTVSPost2010Prop32
280
     0
102
RTVSPost2010PropOp32
 70
     1
102
RTVSPost2010Prop33
280
     0
102
RTVSPost2010PropOp33
 70
     1
102
RTVSPost2010Prop34
280
     0
102
RTVSPost2010PropOp34
 70
     1
102
RTVSPost2010Prop35
280
     0
102
RTVSPost2010PropOp35
 70
     1
102
RTVSPost2010Prop36
280
     0
102
RTVSPost2010PropOp36
 70
     1
102
RTVSPost2010Prop37
 90
       50
102
RTVSPost2010PropOp37
 70
     1
102
RTVSPost2010Prop38
140
0.0
102
RTVSPost2010PropOp38
 70
     1
102
RTVSPost2010Prop39
140
1.0
102
RTVSPost2010PropOp39
 70
     1
102
RTVSPost2010Prop40
 90
        0
102
RTVSPost2010PropOp40
 70
     1
102
RTVSPost2010Prop41ColorIndex
 90
       18
102
RTVSPost2010Prop41ColorRGB
 90
        0
102
RTVSPost2010PropOp41
 70
     1
102
RTVSPost2010Prop42
 90
       50
102
RTVSPost2010PropOp42
 70
     1
102
RTVSPost2010Prop43
 90
        3
102
RTVSPost2010PropOp43
 70
     1
102
RTVSPost2010Prop44ColorIndex
 90
        5
102
RTVSPost2010Prop44ColorRGB
 90
      255
102
RTVSPost2010PropOp44
 70
     1
102
RTVSPost2010Prop45
280
     0
102
RTVSPost2010PropOp45
 70
     1
102
RTVSPost2010Prop46
 90
       50
102
RTVSPost2010PropOp46
 70
     1
102
RTVSPost2010Prop47
 90
       50
102
RTVSPost2010PropOp47
 70
     1
102
RTVSPost2010Prop48
 90
       50
102
RTVSPost2010PropOp48
 70
     1
102
RTVSPost2010Prop49
280
     0
102
RTVSPost2010PropOp49
 70
     1
102
RTVSPost2010Prop50
 90
       50
102
RTVSPost2010PropOp50
 70
     1
102
RTVSPost2010Prop51ColorIndex
 90
      256
102
RTVSPost2010Prop51ColorRGB
 90
-16777216
102
RTVSPost2010PropOp51
 70
     0
102
RTVSPost2010Prop52
140
1.0
102
RTVSPost2010PropOp52
 70
     0
102
RTVSPost2010Prop53
 90
        2
102
RTVSPost2010PropOp53
 70
     1
102
RTVSPost2010Prop54
  1
strokes_ogs.tif
102
RTVSPost2010PropOp54
 70
     1
102
RTVSPost2010Prop55
280
     0
102
RTVSPost2010PropOp55
 70
     1
102
RTVSPost2010Prop56
140
1.0
102
RTVSPost2010PropOp56
 70
     1
102
RTVSPost2010Prop57
140
1.0
102
RTVSPost2010PropOp57
 70
     1
102
RTVSPropertyOp0
 70
     1
102
RTVSPropertyOp1
 70
     1
102
RTVSPropertyOp2
 70
     1
102
RTVSPropertyOp3
 70
     1
102
RTVSPropertyOp4
 70
     1
102
RTVSPropertyOp5
 70
     1
102
RTVSPropertyOp6
 70
     1
102
RTVSPropertyOp7
 70
     1
102
RTVSPropertyOp8
 70
     1
102
RTVSPropertyOp9
 70
     1
102
RTVSPropertyOp10
 70
     1
102
RTVSPropertyOp11
 70
     1
102
RTVSPropertyOp12
 70
     1
102
RTVSPropertyOp13
 70
     1
102
RTVSPropertyOp14
 70
     1
102
RTVSPropertyOp15
 70
     1
102
RTVSPropertyOp16
 70
     1
102
RTVSPropertyOp17
 70
     1
102
RTVSPropertyOp18
 70
     1
102
RTVSPropertyOp19
 70
     1
102
RTVSPropertyOp20
 70
     1
102
RTVSPropertyOp21
 70
     1
102
RTVSPropertyOp22
 70
     1
102
RTVSPropertyOp23
 70
     1
102
RTVSPropertyOp24
 70
     1
102
RTVSPropertyOp25
 70
     1
102
RTVSPropertyOp26
 70
     1
102
RTVSPropertyOp27
 70
     1
102
RTVSPropertyOp28
 70
     1
102
RTVSPropertyOp29
 70
     1
102
RTVSPropertyOp30
 70
     1
102
RTVSPropertyOp31
 70
     1
102
RTVSPropertyOp32
 70
     1
102
RTVSPropertyOp33
 70
     1
102
RTVSPropertyOp34
 70
     1
102
RTVSPropertyOp35
 70
     1
102
RTVSPropertyOp36
 70
     1
102
RTVSPropertyOp37
 70
     1
102
RTVSPropertyOp38
 70
     1
102
RTVSPropertyOp39
 70
     1
102
RTVSPropertyOp40
 70
     1
102
RTVSPropertyOp41
 70
     1
102
RTVSPropertyOp42
 70
     1
102
RTVSPropertyOp43
 70
     1
102
RTVSPropertyOp44
 70
     1
102
RTVSPropertyOp45
 70
     1
102
RTVSPropertyOp46
 70
     1
102
RTVSPropertyOp47
 70
     1
102
RTVSPropertyOp48
 70
     1
102
RTVSPropertyOp49
 70
     1
102
RTVSPropertyOp50
 70
     1
102
RTVSPropertyOp51
 70
     0
102
RTVSPropertyOp52
 70
     0
102
RTVSPropertyOp53
 70
     1
102
RTVSPropertyOp54
 70
     1
102
RTVSPropertyOp55
 70
     1
102
RTVSPropertyOp56
 70
     1
102
RTVSPropertyOp57
 70
     1
102
RTVSPropertyOp58
 70
     1
102
RTVSPropertyOp59
 70
     1
102
RTVSPropertyOp60
 70
     1
102
RTVSPropertyOp61
 70
     1
102
RTVSPropertyOp62
 70
     1
  0
XRECORD
  5
3EC
102
{ACAD_REACTORS
330
3EB
102
}
330
3EB
100
AcDbXrecord
280
     1
102
RTVSPost2010Prop28
280
     0
102
RTVSPost2010PropOp28
 70
     1
102
RTVSPost2010Prop29
280
     1
102
RTVSPost2010PropOp29
 70
     1
102
RTVSPost2010Prop30
280
     1
102
RTVSPost2010PropOp30
 70
     1
102
RTVSPost2010Prop31
280
     0
102
RTVSPost2010PropOp31
 70
     1
102
RTVSPost2010Prop32
280
     0
102
RTVSPost2010PropOp32
 70
     1
102
RTVSPost2010Prop33
280
     0
102
RTVSPost2010PropOp33
 70
     1
102
RTVSPost2010Prop34
280
     0
102
RTVSPost2010PropOp34
 70
     1
102
RTVSPost2010Prop35
280
     0
102
RTVSPost2010PropOp35
 70
     1
102
RTVSPost2010Prop36
280
     0
102
RTVSPost2010PropOp36
 70
     1
102
RTVSPost2010Prop37
 90
       50
102
RTVSPost2010PropOp37
 70
     1
102
RTVSPost2010Prop38
140
0.0
102
RTVSPost2010PropOp38
 70
     1
102
RTVSPost2010Prop39
140
1.0
102
RTVSPost2010PropOp39
 70
     1
102
RTVSPost2010Prop40
 90
        0
102
RTVSPost2010PropOp40
 70
     1
102
RTVSPost2010Prop41ColorIndex
 90
       18
102
RTVSPost2010Prop41ColorRGB
 90
        0
102
RTVSPost2010PropOp41
 70
     1
102
RTVSPost2010Prop42
 90
       50
102
RTVSPost2010PropOp42
 70
     1
102
RTVSPost2010Prop43
 90
        3
102
RTVSPost2010PropOp43
 70
     1
102
RTVSPost2010Prop44ColorIndex
 90
        5
102
RTVSPost2010Prop44ColorRGB
 90
      255
102
RTVSPost2010PropOp44
 70
     1
102
RTVSPost2010Prop45
280
     0
102
RTVSPost2010PropOp45
 70
     1
102
RTVSPost2010Prop46
 90
       50
102
RTVSPost2010PropOp46
 70
     1
102
RTVSPost2010Prop47
 90
       50
102
RTVSPost2010PropOp47
 70
     1
102
RTVSPost2010Prop48
 90
       50
102
RTVSPost2010PropOp48
 70
     1
102
RTVSPost2010Prop49
280
     0
102
RTVSPost2010PropOp49
 70
     1
102
RTVSPost2010Prop50
 90
       50
102
RTVSPost2010PropOp50
 70
     1
102
RTVSPost2010Prop51ColorIndex
 90
      256
102
RTVSPost2010Prop51ColorRGB
 90
-16777216
102
RTVSPost2010PropOp51
 70
     0
102
RTVSPost2010Prop52
140
1.0
102
RTVSPost2010PropOp52
 70
     0
102
RTVSPost2010Prop53
 90
        2
102
RTVSPost2010PropOp53
 70
     1
102
RTVSPost2010Prop54
  1
strokes_ogs.tif
102
RTVSPost2010PropOp54
 70
     1
102
RTVSPost2010Prop55
280
     0
102
RTVSPost2010PropOp55
 70
     1
102
RTVSPost2010Prop56
140
1.0
102
RTVSPost2010PropOp56
 70
     1
102
RTVSPost2010Prop57
140
1.0
102
RTVSPost2010PropOp57
 70
     1
102
RTVSPropertyOp0
 70
     1
102
RTVSPropertyOp1
 70
     1
102
RTVSPropertyOp2
 70
     1
102
RTVSPropertyOp3
 70
     1
102
RTVSPropertyOp4
 70
     1
102
RTVSPropertyOp5
 70
     1
102
RTVSPropertyOp6
 70
     1
102
RTVSPropertyOp7
 70
     1
102
RTVSPropertyOp8
 70
     1
102
RTVSPropertyOp9
 70
     1
102
RTVSPropertyOp10
 70
     1
102
RTVSPropertyOp11
 70
     1
102
RTVSPropertyOp12
 70
     1
102
RTVSPropertyOp13
 70
     1
102
RTVSPropertyOp14
 70
     1
102
RTVSPropertyOp15
 70
     1
102
RTVSPropertyOp16
 70
     1
102
RTVSPropertyOp17
 70
     1
102
RTVSPropertyOp18
 70
     1
102
RTVSPropertyOp19
 70
     1
102
RTVSPropertyOp20
 70
     1
102
RTVSPropertyOp21
 70
     1
102
RTVSPropertyOp22
 70
     1
102
RTVSPropertyOp23
 70
     1
102
RTVSPropertyOp24
 70
     1
102
RTVSPropertyOp25
 70
     1
102
RTVSPropertyOp26
 70
     1
102
RTVSPropertyOp27
 70
     1
102
RTVSPropertyOp28
 70
     1
102
RTVSPropertyOp29
 70
     1
102
RTVSPropertyOp30
 70
     1
102
RTVSPropertyOp31
 70
     1
102
RTVSPropertyOp32
 70
     1
102
RTVSPropertyOp33
 70
     1
102
RTVSPropertyOp34
 70
     1
102
RTVSPropertyOp35
 70
     1
102
RTVSPropertyOp36
 70
     1
102
RTVSPropertyOp37
 70
     1
102
RTVSPropertyOp38
 70
     1
102
RTVSPropertyOp39
 70
     1
102
RTVSPropertyOp40
 70
     1
102
RTVSPropertyOp41
 70
     1
102
RTVSPropertyOp42
 70
     1
102
RTVSPropertyOp43
 70
     1
102
RTVSPropertyOp44
 70
     1
102
RTVSPropertyOp45
 70
     1
102
RTVSPropertyOp46
 70
     1
102
RTVSPropertyOp47
 70
     1
102
RTVSPropertyOp48
 70
     1
102
RTVSPropertyOp49
 70
     1
102
RTVSPropertyOp50
 70
     1
102
RTVSPropertyOp51
 70
     0
102
RTVSPropertyOp52
 70
     0
102
RTVSPropertyOp53
 70
     1
102
RTVSPropertyOp54
 70
     1
102
RTVSPropertyOp55
 70
     1
102
RTVSPropertyOp56
 70
     1
102
RTVSPropertyOp57
 70
     1
102
RTVSPropertyOp58
 70
     1
102
RTVSPropertyOp59
 70
     1
102
RTVSPropertyOp60
 70
     1
102
RTVSPropertyOp61
 70
     1
102
RTVSPropertyOp62
 70
     1
  0
XRECORD
  5
40C
102
{ACAD_REACTORS
330
40B
102
}
330
40B
100
AcDbXrecord
280
     1
102
RTVSPost2010Prop28
280
     0
102
RTVSPost2010PropOp28
 70
     1
102
RTVSPost2010Prop29
280
     1
102
RTVSPost2010PropOp29
 70
     1
102
RTVSPost2010Prop30
280
     1
102
RTVSPost2010PropOp30
 70
     1
102
RTVSPost2010Prop31
280
     0
102
RTVSPost2010PropOp31
 70
     1
102
RTVSPost2010Prop32
280
     0
102
RTVSPost2010PropOp32
 70
     1
102
RTVSPost2010Prop33
280
     0
102
RTVSPost2010PropOp33
 70
     1
102
RTVSPost2010Prop34
280
     0
102
RTVSPost2010PropOp34
 70
     1
102
RTVSPost2010Prop35
280
     0
102
RTVSPost2010PropOp35
 70
     1
102
RTVSPost2010Prop36
280
     0
102
RTVSPost2010PropOp36
 70
     1
102
RTVSPost2010Prop37
 90
       50
102
RTVSPost2010PropOp37
 70
     1
102
RTVSPost2010Prop38
140
0.0
102
RTVSPost2010PropOp38
 70
     1
102
RTVSPost2010Prop39
140
1.0
102
RTVSPost2010PropOp39
 70
     1
102
RTVSPost2010Prop40
 90
        0
102
RTVSPost2010PropOp40
 70
     1
102
RTVSPost2010Prop41ColorIndex
 90
       18
102
RTVSPost2010Prop41ColorRGB
 90
        0
102
RTVSPost2010PropOp41
 70
     1
102
RTVSPost2010Prop42
 90
       50
102
RTVSPost2010PropOp42
 70
     1
102
RTVSPost2010Prop43
 90
        3
102
RTVSPost2010PropOp43
 70
     1
102
RTVSPost2010Prop44ColorIndex
 90
        5
102
RTVSPost2010Prop44ColorRGB
 90
      255
102
RTVSPost2010PropOp44
 70
     1
102
RTVSPost2010Prop45
280
     0
102
RTVSPost2010PropOp45
 70
     1
102
RTVSPost2010Prop46
 90
       50
102
RTVSPost2010PropOp46
 70
     1
102
RTVSPost2010Prop47
 90
       50
102
RTVSPost2010PropOp47
 70
     1
102
RTVSPost2010Prop48
 90
       50
102
RTVSPost2010PropOp48
 70
     1
102
RTVSPost2010Prop49
280
     0
102
RTVSPost2010PropOp49
 70
     1
102
RTVSPost2010Prop50
 90
       50
102
RTVSPost2010PropOp50
 70
     1
102
RTVSPost2010Prop51ColorIndex
 90
      256
102
RTVSPost2010Prop51ColorRGB
 90
-16777216
102
RTVSPost2010PropOp51
 70
     0
102
RTVSPost2010Prop52
140
1.0
102
RTVSPost2010PropOp52
 70
     0
102
RTVSPost2010Prop53
 90
        2
102
RTVSPost2010PropOp53
 70
     1
102
RTVSPost2010Prop54
  1
strokes_ogs.tif
102
RTVSPost2010PropOp54
 70
     1
102
RTVSPost2010Prop55
280
     0
102
RTVSPost2010PropOp55
 70
     1
102
RTVSPost2010Prop56
140
1.0
102
RTVSPost2010PropOp56
 70
     1
102
RTVSPost2010Prop57
140
1.0
102
RTVSPost2010PropOp57
 70
     1
102
RTVSPropertyOp0
 70
     1
102
RTVSPropertyOp1
 70
     1
102
RTVSPropertyOp2
 70
     1
102
RTVSPropertyOp3
 70
     1
102
RTVSPropertyOp4
 70
     1
102
RTVSPropertyOp5
 70
     1
102
RTVSPropertyOp6
 70
     1
102
RTVSPropertyOp7
 70
     1
102
RTVSPropertyOp8
 70
     1
102
RTVSPropertyOp9
 70
     1
102
RTVSPropertyOp10
 70
     1
102
RTVSPropertyOp11
 70
     1
102
RTVSPropertyOp12
 70
     1
102
RTVSPropertyOp13
 70
     1
102
RTVSPropertyOp14
 70
     1
102
RTVSPropertyOp15
 70
     1
102
RTVSPropertyOp16
 70
     1
102
RTVSPropertyOp17
 70
     1
102
RTVSPropertyOp18
 70
     1
102
RTVSPropertyOp19
 70
     1
102
RTVSPropertyOp20
 70
     1
102
RTVSPropertyOp21
 70
     1
102
RTVSPropertyOp22
 70
     1
102
RTVSPropertyOp23
 70
     1
102
RTVSPropertyOp24
 70
     1
102
RTVSPropertyOp25
 70
     1
102
RTVSPropertyOp26
 70
     1
102
RTVSPropertyOp27
 70
     1
102
RTVSPropertyOp28
 70
     1
102
RTVSPropertyOp29
 70
     1
102
RTVSPropertyOp30
 70
     1
102
RTVSPropertyOp31
 70
     1
102
RTVSPropertyOp32
 70
     1
102
RTVSPropertyOp33
 70
     1
102
RTVSPropertyOp34
 70
     1
102
RTVSPropertyOp35
 70
     1
102
RTVSPropertyOp36
 70
     1
102
RTVSPropertyOp37
 70
     1
102
RTVSPropertyOp38
 70
     1
102
RTVSPropertyOp39
 70
     1
102
RTVSPropertyOp40
 70
     1
102
RTVSPropertyOp41
 70
     1
102
RTVSPropertyOp42
 70
     1
102
RTVSPropertyOp43
 70
     1
102
RTVSPropertyOp44
 70
     1
102
RTVSPropertyOp45
 70
     1
102
RTVSPropertyOp46
 70
     1
102
RTVSPropertyOp47
 70
     1
102
RTVSPropertyOp48
 70
     1
102
RTVSPropertyOp49
 70
     1
102
RTVSPropertyOp50
 70
     1
102
RTVSPropertyOp51
 70
     0
102
RTVSPropertyOp52
 70
     0
102
RTVSPropertyOp53
 70
     1
102
RTVSPropertyOp54
 70
     1
102
RTVSPropertyOp55
 70
     1
102
RTVSPropertyOp56
 70
     1
102
RTVSPropertyOp57
 70
     1
102
RTVSPropertyOp58
 70
     1
102
RTVSPropertyOp59
 70
     1
102
RTVSPropertyOp60
 70
     1
102
RTVSPropertyOp61
 70
     1
102
RTVSPropertyOp62
 70
     1
  0
ENDSEC
  0
EOF
