ISO-10303-21;
HEADER;
FILE_DESCRIPTION (( 'STEP AP203' ),
    '1' );
FILE_NAME ('W1901273-74.STEP',
    '2020-04-23T06:21:35',
    ( '' ),
    ( '' ),
    'SwSTEP 2.0',
    'SolidWorks 2017',
    '' );
FILE_SCHEMA (( 'CONFIG_CONTROL_DESIGN' ));
ENDSEC;

DATA;
#1 = ORGANIZATION ( 'UNSPECIFIED', 'UNSPECIFIED', '' ) ;
#2 = VERTEX_POINT ( 'NONE', #239 ) ;
#3 = DIRECTION ( 'NONE',  ( -0.0000000000000000000, -0.0000000000000000000, -1.000000000000000000 ) ) ;
#4 = ORIENTED_EDGE ( 'NONE', *, *, #154, .T. ) ;
#5 = DIRECTION ( 'NONE',  ( 0.0000000000000000000, 1.000000000000000000, 1.224646799147353200E-016 ) ) ;
#6 = CLOSED_SHELL ( 'NONE', ( #95, #7, #408, #240, #215, #157, #92 ) ) ;
#7 = ADVANCED_FACE ( 'NONE', ( #59 ), #43, .T. ) ;
#8 = CARTESIAN_POINT ( 'NONE',  ( -3.999999999999996400, 0.0000000000000000000, 16.87042614893938400 ) ) ;
#9 = CARTESIAN_POINT ( 'NONE',  ( 0.0000000000000000000, 0.0000000000000000000, 1.500000000000001100 ) ) ;
#10 = CARTESIAN_POINT ( 'NONE',  ( 4.408728476930461300E-016, -3.199999999999990000, 100.0000000000000000 ) ) ;
#11 = DIRECTION ( 'NONE',  ( 0.0000000000000000000, 0.0000000000000000000, -1.000000000000000000 ) ) ;
#12 = ORIENTED_EDGE ( 'NONE', *, *, #331, .T. ) ;
#13 = AXIS2_PLACEMENT_3D ( 'NONE', #383, #216, #342 ) ;
#14 = CIRCLE ( 'NONE', #54, 4.000000000000003600 ) ;
#15 = EDGE_LOOP ( 'NONE', ( #67, #138, #302, #25, #50 ) ) ;
#16 = DIRECTION ( 'NONE',  ( 8.659560562354865100E-017, -0.7071067811865418000, -0.7071067811865531200 ) ) ;
#17 = APPLICATION_CONTEXT ( 'configuration controlled 3d designs of mechanical parts and assemblies' ) ;
#18 = CARTESIAN_POINT ( 'NONE',  ( 0.0000000000000000000, 5.999039130647435900E-032, 20.00000000000000400 ) ) ;
#19 = DATE_AND_TIME ( #405, #205 ) ;
#20 = APPROVAL ( #168, 'UNSPECIFIED' ) ;
#21 = CARTESIAN_POINT ( 'NONE',  ( 0.0000000000000000000, 0.0000000000000000000, -1.967181203831876300 ) ) ;
#22 = DIRECTION ( 'NONE',  ( -1.000000000000000000, 0.0000000000000000000, 0.0000000000000000000 ) ) ;
#23 = PRODUCT_DEFINITION_FORMATION_WITH_SPECIFIED_SOURCE ( 'ANY', '', #200, .NOT_KNOWN. ) ;
#24 = CIRCLE ( 'NONE', #229, 4.000000000000003600 ) ;
#25 = ORIENTED_EDGE ( 'NONE', *, *, #154, .F. ) ;
#26 = LOCAL_TIME ( 15, 21, 35.00000000000000000, #220 ) ;
#27 = ORIENTED_EDGE ( 'NONE', *, *, #182, .F. ) ;
#28 = CARTESIAN_POINT ( 'NONE',  ( -3.999999999999996400, 0.0000000000000000000, -1.967181203831876300 ) ) ;
#29 = AXIS2_PLACEMENT_3D ( 'NONE', #316, #71, #125 ) ;
#30 = CARTESIAN_POINT ( 'NONE',  ( 0.0000000000000000000, -9.699202649247032900E-015, 99.19999999999997400 ) ) ;
#31 = CARTESIAN_POINT ( 'NONE',  ( 0.0000000000000000000, 5.999039130647435900E-032, 20.00000000000000400 ) ) ;
#32 = CIRCLE ( 'NONE', #87, 1.500000000000006000 ) ;
#33 = EDGE_CURVE ( 'NONE', #304, #406, #175, .T. ) ;
#34 = EDGE_CURVE ( 'NONE', #238, #308, #123, .T. ) ;
#35 = CARTESIAN_POINT ( 'NONE',  ( 0.0000000000000000000, 0.0000000000000000000, 16.87042614893938400 ) ) ;
#36 = SECURITY_CLASSIFICATION_LEVEL ( 'unclassified' ) ;
#37 = DIRECTION ( 'NONE',  ( 0.0000000000000000000, 0.7071067811865421300, -0.7071067811865530100 ) ) ;
#38 = DIRECTION ( 'NONE',  ( -0.0000000000000000000, 1.224646799147353200E-016, -1.000000000000000000 ) ) ;
#39 = CC_DESIGN_APPROVAL ( #20, ( #23 ) ) ;
#40 = CARTESIAN_POINT ( 'NONE',  ( 0.0000000000000000000, -9.699202649247032900E-015, 99.19999999999997400 ) ) ;
#41 = ORIENTED_EDGE ( 'NONE', *, *, #114, .F. ) ;
#42 = DIRECTION ( 'NONE',  ( 0.0000000000000000000, -1.000000000000000000, 0.0000000000000000000 ) ) ;
#43 = TOROIDAL_SURFACE ( 'NONE', #86, -46.00000000000000700, 50.00000000000000000 ) ;
#44 = CARTESIAN_POINT ( 'NONE',  ( 4.898587196589422700E-016, -4.000000000000013300, 99.19999999999997400 ) ) ;
#45 = EDGE_CURVE ( 'NONE', #118, #212, #155, .T. ) ;
#46 = FACE_OUTER_BOUND ( 'NONE', #113, .T. ) ;
#47 = DIRECTION ( 'NONE',  ( 0.0000000000000000000, 1.000000000000000000, 0.0000000000000000000 ) ) ;
#48 = ORIENTED_EDGE ( 'NONE', *, *, #327, .F. ) ;
#49 = CARTESIAN_POINT ( 'NONE',  ( -1.422680412371139800, 0.0000000000000000000, 1.024625995393626300 ) ) ;
#50 = ORIENTED_EDGE ( 'NONE', *, *, #33, .F. ) ;
#51 = CARTESIAN_POINT ( 'NONE',  ( -3.999999999999997300, 0.0000000000000000000, 20.00000000000000000 ) ) ;
#52 = AXIS2_PLACEMENT_3D ( 'NONE', #176, #61, #271 ) ;
#53 = COORDINATED_UNIVERSAL_TIME_OFFSET ( 9, 0, .AHEAD. ) ;
#54 = AXIS2_PLACEMENT_3D ( 'NONE', #77, #321, #260 ) ;
#55 = DIRECTION ( 'NONE',  ( 1.224646799147353200E-016, -1.000000000000000000, 0.0000000000000000000 ) ) ;
#56 = ORIENTED_EDGE ( 'NONE', *, *, #45, .T. ) ;
#57 = EDGE_CURVE ( 'NONE', #376, #304, #382, .T. ) ;
#58 = FACE_OUTER_BOUND ( 'NONE', #180, .T. ) ;
#59 = FACE_OUTER_BOUND ( 'NONE', #15, .T. ) ;
#60 = AXIS2_PLACEMENT_3D ( 'NONE', #21, #322, #133 ) ;
#61 = DIRECTION ( 'NONE',  ( 0.0000000000000000000, -1.000000000000000000, 0.0000000000000000000 ) ) ;
#62 = PRODUCT_RELATED_PRODUCT_CATEGORY ( 'detail', '', ( #200 ) ) ;
#63 = ORIENTED_EDGE ( 'NONE', *, *, #57, .F. ) ;
#64 = CARTESIAN_POINT ( 'NONE',  ( 0.0000000000000000000, 0.0000000000000000000, 1.024625995393626300 ) ) ;
#65 = PERSON_AND_ORGANIZATION ( #272, #1 ) ;
#66 = CIRCLE ( 'NONE', #381, 3.999999999999997300 ) ;
#67 = ORIENTED_EDGE ( 'NONE', *, *, #108, .T. ) ;
#68 = APPROVAL_STATUS ( 'not_yet_approved' ) ;
#69 = ORIENTED_EDGE ( 'NONE', *, *, #411, .T. ) ;
#70 = EDGE_LOOP ( 'NONE', ( #48, #347, #292, #93, #261 ) ) ;
#71 = DIRECTION ( 'NONE',  ( -1.224646799147353200E-016, 1.000000000000000000, 0.0000000000000000000 ) ) ;
#72 = EDGE_CURVE ( 'NONE', #2, #304, #96, .T. ) ;
#73 = CARTESIAN_POINT ( 'NONE',  ( 0.0000000000000000000, 3.999999999999994200, 99.19999999999997400 ) ) ;
#74 = CARTESIAN_POINT ( 'NONE',  ( 0.0000000000000000000, 0.0000000000000000000, 16.87042614893937700 ) ) ;
#75 = VECTOR ( 'NONE', #82, 1000.000000000000000 ) ;
#76 = EDGE_CURVE ( 'NONE', #230, #83, #144, .T. ) ;
#77 = CARTESIAN_POINT ( 'NONE',  ( 0.0000000000000000000, -9.699202649247032900E-015, 99.19999999999997400 ) ) ;
#78 = CC_DESIGN_DATE_AND_TIME_ASSIGNMENT ( #134, #338, ( #283 ) ) ;
#79 = SPHERICAL_SURFACE ( 'NONE', #241, 1.500000000000006000 ) ;
#80 = AXIS2_PLACEMENT_3D ( 'NONE', #9, #152, #55 ) ;
#81 = CIRCLE ( 'NONE', #340, 1.422680412371139800 ) ;
#82 = DIRECTION ( 'NONE',  ( -0.0000000000000000000, -0.0000000000000000000, -1.000000000000000000 ) ) ;
#83 = VERTEX_POINT ( 'NONE', #193 ) ;
#84 = DIRECTION ( 'NONE',  ( -0.0000000000000000000, -0.0000000000000000000, -1.000000000000000000 ) ) ;
#85 = CARTESIAN_POINT ( 'NONE',  ( 0.0000000000000000000, 0.0000000000000000000, 16.87042614893938400 ) ) ;
#86 = AXIS2_PLACEMENT_3D ( 'NONE', #237, #409, #268 ) ;
#87 = AXIS2_PLACEMENT_3D ( 'NONE', #385, #314, #11 ) ;
#88 = DIRECTION ( 'NONE',  ( 0.0000000000000000000, -1.000000000000000000, 0.0000000000000000000 ) ) ;
#89 = CLOSED_SHELL ( 'NONE', ( #254, #213, #346, #384, #217, #142 ) ) ;
#90 = CC_DESIGN_APPROVAL ( #369, ( #283 ) ) ;
#91 = CARTESIAN_POINT ( 'NONE',  ( -1.742281013219952900E-016, 1.422680412371139800, 1.024625995393626300 ) ) ;
#92 = ADVANCED_FACE ( 'NONE', ( #135 ), #262, .T. ) ;
#93 = ORIENTED_EDGE ( 'NONE', *, *, #119, .F. ) ;
#94 = CC_DESIGN_PERSON_AND_ORGANIZATION_ASSIGNMENT ( #203, #305, ( #23 ) ) ;
#95 = ADVANCED_FACE ( 'NONE', ( #354 ), #242, .T. ) ;
#96 = CIRCLE ( 'NONE', #146, 3.999999999999996400 ) ;
#97 = CARTESIAN_POINT ( 'NONE',  ( 4.898587196589417800E-016, -4.000000000000003600, 20.00000000000000400 ) ) ;
#98 =( NAMED_UNIT ( * ) SI_UNIT ( $, .STERADIAN. ) SOLID_ANGLE_UNIT ( ) );
#99 = MECHANICAL_CONTEXT ( 'NONE', #319, 'mechanical' ) ;
#100 = ORIENTED_EDGE ( 'NONE', *, *, #190, .F. ) ;
#101 = MANIFOLD_SOLID_BREP ( 'CHAMFER', #89 ) ;
#102 = CARTESIAN_POINT ( 'NONE',  ( 0.0000000000000000000, 0.0000000000000000000, 20.00000000000000000 ) ) ;
#103 = AXIS2_PLACEMENT_3D ( 'NONE', #30, #243, #88 ) ;
#104 = COORDINATED_UNIVERSAL_TIME_OFFSET ( 9, 0, .AHEAD. ) ;
#105 = EDGE_LOOP ( 'NONE', ( #275, #358 ) ) ;
#106 = AXIS2_PLACEMENT_3D ( 'NONE', #280, #231, #224 ) ;
#107 = LOCAL_TIME ( 15, 21, 35.00000000000000000, #128 ) ;
#108 = EDGE_CURVE ( 'NONE', #304, #2, #337, .T. ) ;
#109 = CYLINDRICAL_SURFACE ( 'NONE', #363, 4.000000000000003600 ) ;
#110 = DIRECTION ( 'NONE',  ( -0.0000000000000000000, -0.0000000000000000000, -1.000000000000000000 ) ) ;
#111 = CC_DESIGN_PERSON_AND_ORGANIZATION_ASSIGNMENT ( #309, #150, ( #283 ) ) ;
#112 = EDGE_LOOP ( 'NONE', ( #100, #377, #247, #208 ) ) ;
#113 = EDGE_LOOP ( 'NONE', ( #236, #4, #265, #227 ) ) ;
#114 = EDGE_CURVE ( 'NONE', #143, #219, #116, .T. ) ;
#115 = PERSON_AND_ORGANIZATION_ROLE ( 'design_supplier' ) ;
#116 = CIRCLE ( 'NONE', #141, 3.199999999999979700 ) ;
#117 = VERTEX_POINT ( 'NONE', #404 ) ;
#118 = VERTEX_POINT ( 'NONE', #201 ) ;
#119 = EDGE_CURVE ( 'NONE', #117, #406, #81, .T. ) ;
#120 = DIRECTION ( 'NONE',  ( 0.0000000000000000000, 1.000000000000000000, 0.0000000000000000000 ) ) ;
#121 = PERSON_AND_ORGANIZATION ( #272, #1 ) ;
#122 = AXIS2_PLACEMENT_3D ( 'NONE', #31, #244, #334 ) ;
#123 = CIRCLE ( 'NONE', #103, 4.000000000000003600 ) ;
#124 = DIRECTION ( 'NONE',  ( 0.0000000000000000000, 1.000000000000000000, 0.0000000000000000000 ) ) ;
#125 = DIRECTION ( 'NONE',  ( -1.000000000000000000, -1.224646799147353500E-016, 0.0000000000000000000 ) ) ;
#126 = AXIS2_PLACEMENT_3D ( 'NONE', #85, #84, #170 ) ;
#127 = ORIENTED_EDGE ( 'NONE', *, *, #165, .T. ) ;
#128 = COORDINATED_UNIVERSAL_TIME_OFFSET ( 9, 0, .AHEAD. ) ;
#129 = APPROVAL_ROLE ( '' ) ;
#130 = FACE_OUTER_BOUND ( 'NONE', #70, .T. ) ;
#131 = ORIENTED_EDGE ( 'NONE', *, *, #282, .T. ) ;
#132 = DIRECTION ( 'NONE',  ( 1.000000000000000000, 0.0000000000000000000, -0.0000000000000000000 ) ) ;
#133 = DIRECTION ( 'NONE',  ( -1.000000000000000000, 0.0000000000000000000, 0.0000000000000000000 ) ) ;
#134 = DATE_AND_TIME ( #189, #374 ) ;
#135 = FACE_OUTER_BOUND ( 'NONE', #361, .T. ) ;
#136 = AXIS2_PLACEMENT_3D ( 'NONE', #181, #248, #5 ) ;
#137 = CYLINDRICAL_SURFACE ( 'NONE', #263, 3.999999999999996400 ) ;
#138 = ORIENTED_EDGE ( 'NONE', *, *, #327, .T. ) ;
#139 = ORIENTED_EDGE ( 'NONE', *, *, #57, .T. ) ;
#140 = DIRECTION ( 'NONE',  ( 0.0000000000000000000, -1.000000000000000000, 0.0000000000000000000 ) ) ;
#141 = AXIS2_PLACEMENT_3D ( 'NONE', #402, #196, #140 ) ;
#142 = ADVANCED_FACE ( 'NONE', ( #410 ), #233, .T. ) ;
#143 = VERTEX_POINT ( 'NONE', #10 ) ;
#144 = CIRCLE ( 'NONE', #106, 1.422680412371139800 ) ;
#145 = LINE ( 'NONE', #209, #206 ) ;
#146 = AXIS2_PLACEMENT_3D ( 'NONE', #35, #311, #341 ) ;
#147 = DIRECTION ( 'NONE',  ( -1.000000000000000000, 0.0000000000000000000, 0.0000000000000000000 ) ) ;
#148 = CIRCLE ( 'NONE', #350, 1.422680412371139800 ) ;
#149 = LINE ( 'NONE', #211, #397 ) ;
#150 = PERSON_AND_ORGANIZATION_ROLE ( 'classification_officer' ) ;
#151 = EDGE_CURVE ( 'NONE', #83, #117, #148, .T. ) ;
#152 = DIRECTION ( 'NONE',  ( -1.000000000000000000, -1.224646799147353200E-016, 0.0000000000000000000 ) ) ;
#153 = CARTESIAN_POINT ( 'NONE',  ( 4.898587196589417800E-016, -4.000000000000013300, 99.19999999999997400 ) ) ;
#154 = EDGE_CURVE ( 'NONE', #406, #230, #264, .T. ) ;
#155 = CIRCLE ( 'NONE', #122, 4.000000000000003600 ) ;
#156 = CARTESIAN_POINT ( 'NONE',  ( 0.0000000000000000000, -9.699202649247032900E-015, 99.19999999999997400 ) ) ;
#157 = ADVANCED_FACE ( 'NONE', ( #362 ), #137, .T. ) ;
#158 = DIRECTION ( 'NONE',  ( -1.000000000000000000, -0.0000000000000000000, -0.0000000000000000000 ) ) ;
#159 = CARTESIAN_POINT ( 'NONE',  ( 0.0000000000000000000, 0.0000000000000000000, 0.0000000000000000000 ) ) ;
#160 = DIRECTION ( 'NONE',  ( 0.0000000000000000000, 1.000000000000000000, 0.0000000000000000000 ) ) ;
#161 = DIRECTION ( 'NONE',  ( 0.0000000000000000000, -1.000000000000000000, 0.0000000000000000000 ) ) ;
#162 = AXIS2_PLACEMENT_3D ( 'NONE', #301, #403, #22 ) ;
#163 = ORIENTED_EDGE ( 'NONE', *, *, #207, .F. ) ;
#164 = DIRECTION ( 'NONE',  ( -0.0000000000000000000, -0.0000000000000000000, -1.000000000000000000 ) ) ;
#165 = EDGE_CURVE ( 'NONE', #387, #376, #274, .T. ) ;
#166 = ORIENTED_EDGE ( 'NONE', *, *, #182, .T. ) ;
#167 = CARTESIAN_POINT ( 'NONE',  ( 3.999999999999996400, 4.898587196589408900E-016, -1.967181203831876300 ) ) ;
#168 = APPROVAL_STATUS ( 'not_yet_approved' ) ;
#169 = EDGE_CURVE ( 'NONE', #230, #174, #204, .T. ) ;
#170 = DIRECTION ( 'NONE',  ( -1.000000000000000000, 0.0000000000000000000, 0.0000000000000000000 ) ) ;
#171 = CC_DESIGN_SECURITY_CLASSIFICATION ( #283, ( #23 ) ) ;
#172 = ORIENTED_EDGE ( 'NONE', *, *, #76, .T. ) ;
#173 = CC_DESIGN_PERSON_AND_ORGANIZATION_ASSIGNMENT ( #226, #115, ( #23 ) ) ;
#174 = VERTEX_POINT ( 'NONE', #184 ) ;
#175 = CIRCLE ( 'NONE', #52, 50.00000000000000000 ) ;
#176 = CARTESIAN_POINT ( 'NONE',  ( 46.00000000000000700, 0.0000000000000000000, 16.87042614893937700 ) ) ;
#177 = DIRECTION ( 'NONE',  ( -1.000000000000000000, 0.0000000000000000000, 0.0000000000000000000 ) ) ;
#178 = TOROIDAL_SURFACE ( 'NONE', #372, -46.00000000000000700, 50.00000000000000000 ) ;
#179 = DIRECTION ( 'NONE',  ( -1.000000000000000000, 0.0000000000000000000, 0.0000000000000000000 ) ) ;
#180 = EDGE_LOOP ( 'NONE', ( #328, #56 ) ) ;
#181 = CARTESIAN_POINT ( 'NONE',  ( 0.0000000000000000000, 2.999519565323718000E-032, 20.00000000000000400 ) ) ;
#182 = EDGE_CURVE ( 'NONE', #387, #2, #317, .T. ) ;
#183 = PERSON_AND_ORGANIZATION ( #272, #1 ) ;
#184 = CARTESIAN_POINT ( 'NONE',  ( 0.0000000000000000000, -9.184850993605186600E-017, -4.987329993433320400E-015 ) ) ;
#185 = CARTESIAN_POINT ( 'NONE',  ( 0.0000000000000000000, 3.199999999999970400, 100.0000000000000000 ) ) ;
#186 = DIRECTION ( 'NONE',  ( -0.0000000000000000000, 1.224646799147348000E-016, -1.000000000000000000 ) ) ;
#187 = PERSON_AND_ORGANIZATION_ROLE ( 'design_owner' ) ;
#188 = DIRECTION ( 'NONE',  ( -0.0000000000000000000, 1.224646799147353200E-016, -1.000000000000000000 ) ) ;
#189 = CALENDAR_DATE ( 2020, 23, 4 ) ;
#190 = EDGE_CURVE ( 'NONE', #238, #118, #234, .T. ) ;
#191 = ORIENTED_EDGE ( 'NONE', *, *, #108, .F. ) ;
#192 = EDGE_CURVE ( 'NONE', #143, #238, #343, .T. ) ;
#193 = CARTESIAN_POINT ( 'NONE',  ( 1.422680412371139800, 3.320434104904680500E-016, 1.024625995393626300 ) ) ;
#194 = PERSON_AND_ORGANIZATION ( #272, #1 ) ;
#195 = ORIENTED_EDGE ( 'NONE', *, *, #207, .T. ) ;
#196 = DIRECTION ( 'NONE',  ( 0.0000000000000000000, -1.224646799147353200E-016, 1.000000000000000000 ) ) ;
#197 = EDGE_LOOP ( 'NONE', ( #27, #127, #139, #199 ) ) ;
#198 = APPROVAL_DATE_TIME ( #235, #369 ) ;
#199 = ORIENTED_EDGE ( 'NONE', *, *, #72, .F. ) ;
#200 = PRODUCT ( 'W1901273-74', 'W1901273-74', '', ( #99 ) ) ;
#201 = CARTESIAN_POINT ( 'NONE',  ( 4.898587196589417800E-016, -4.000000000000003600, 20.00000000000000400 ) ) ;
#202 = MANIFOLD_SOLID_BREP ( 'APMX_BODY', #6 ) ;
#203 = PERSON_AND_ORGANIZATION ( #272, #1 ) ;
#204 = CIRCLE ( 'NONE', #80, 1.500000000000006000 ) ;
#205 = LOCAL_TIME ( 15, 21, 35.00000000000000000, #53 ) ;
#206 = VECTOR ( 'NONE', #37, 1000.000000000000000 ) ;
#207 = EDGE_CURVE ( 'NONE', #376, #387, #66, .T. ) ;
#208 = ORIENTED_EDGE ( 'NONE', *, *, #45, .F. ) ;
#209 = CARTESIAN_POINT ( 'NONE',  ( 0.0000000000000000000, 3.999999999999994200, 99.19999999999997400 ) ) ;
#210 = DATE_AND_TIME ( #276, #293 ) ;
#211 = CARTESIAN_POINT ( 'NONE',  ( 0.0000000000000000000, 4.000000000000003600, 20.00000000000000400 ) ) ;
#212 = VERTEX_POINT ( 'NONE', #289 ) ;
#213 = ADVANCED_FACE ( 'NONE', ( #223 ), #109, .T. ) ;
#214 = CARTESIAN_POINT ( 'NONE',  ( 0.0000000000000000000, 0.0000000000000000000, 20.00000000000000400 ) ) ;
#215 = ADVANCED_FACE ( 'NONE', ( #130 ), #178, .T. ) ;
#216 = DIRECTION ( 'NONE',  ( 0.0000000000000000000, -1.224646799147353200E-016, 1.000000000000000000 ) ) ;
#217 = ADVANCED_FACE ( 'NONE', ( #330 ), #218, .T. ) ;
#218 = PLANE ( 'NONE',  #398 ) ;
#219 = VERTEX_POINT ( 'NONE', #185 ) ;
#220 = COORDINATED_UNIVERSAL_TIME_OFFSET ( 9, 0, .AHEAD. ) ;
#221 = ORIENTED_EDGE ( 'NONE', *, *, #34, .F. ) ;
#222 = APPLICATION_PROTOCOL_DEFINITION ( 'international standard', 'config_control_design', 1994, #17 ) ;
#223 = FACE_OUTER_BOUND ( 'NONE', #326, .T. ) ;
#224 = DIRECTION ( 'NONE',  ( -1.000000000000000000, 0.0000000000000000000, 0.0000000000000000000 ) ) ;
#225 = CARTESIAN_POINT ( 'NONE',  ( 0.0000000000000000000, 3.999999999999997300, 20.00000000000000400 ) ) ;
#226 = PERSON_AND_ORGANIZATION ( #272, #1 ) ;
#227 = ORIENTED_EDGE ( 'NONE', *, *, #331, .F. ) ;
#228 = FACE_OUTER_BOUND ( 'NONE', #367, .T. ) ;
#229 = AXIS2_PLACEMENT_3D ( 'NONE', #18, #188, #47 ) ;
#230 = VERTEX_POINT ( 'NONE', #91 ) ;
#231 = DIRECTION ( 'NONE',  ( -0.0000000000000000000, -0.0000000000000000000, -1.000000000000000000 ) ) ;
#232 = CONICAL_SURFACE ( 'NONE', #288, 4.000000000000003600, 0.7853981633974405100 ) ;
#233 = CONICAL_SURFACE ( 'NONE', #366, 4.000000000000003600, 0.7853981633974405100 ) ;
#234 = LINE ( 'NONE', #97, #312 ) ;
#235 = DATE_AND_TIME ( #395, #107 ) ;
#236 = ORIENTED_EDGE ( 'NONE', *, *, #119, .T. ) ;
#237 = CARTESIAN_POINT ( 'NONE',  ( 0.0000000000000000000, 0.0000000000000000000, 16.87042614893937700 ) ) ;
#238 = VERTEX_POINT ( 'NONE', #44 ) ;
#239 = CARTESIAN_POINT ( 'NONE',  ( 3.999999999999996400, 4.898587196589409900E-016, 16.87042614893938400 ) ) ;
#240 = ADVANCED_FACE ( 'NONE', ( #400 ), #79, .T. ) ;
#241 = AXIS2_PLACEMENT_3D ( 'NONE', #287, #158, #42 ) ;
#242 = CYLINDRICAL_SURFACE ( 'NONE', #60, 3.999999999999996400 ) ;
#243 = DIRECTION ( 'NONE',  ( -0.0000000000000000000, 1.224646799147348000E-016, -1.000000000000000000 ) ) ;
#244 = DIRECTION ( 'NONE',  ( -0.0000000000000000000, 1.224646799147353200E-016, -1.000000000000000000 ) ) ;
#245 = APPROVAL_ROLE ( '' ) ;
#246 = APPROVAL_PERSON_ORGANIZATION ( #194, #369, #245 ) ;
#247 = ORIENTED_EDGE ( 'NONE', *, *, #375, .T. ) ;
#248 = DIRECTION ( 'NONE',  ( -0.0000000000000000000, 1.224646799147353200E-016, -1.000000000000000000 ) ) ;
#249 = AXIS2_PLACEMENT_3D ( 'NONE', #357, #393, #160 ) ;
#250 = DIRECTION ( 'NONE',  ( -0.0000000000000000000, -0.0000000000000000000, -1.000000000000000000 ) ) ;
#251 = ORIENTED_EDGE ( 'NONE', *, *, #192, .F. ) ;
#252 = CARTESIAN_POINT ( 'NONE',  ( 0.0000000000000000000, 0.0000000000000000000, 20.00000000000000000 ) ) ;
#253 = DIRECTION ( 'NONE',  ( 0.0000000000000000000, -1.000000000000000000, -1.224646799147353200E-016 ) ) ;
#254 = ADVANCED_FACE ( 'NONE', ( #228 ), #232, .T. ) ;
#255 = DIRECTION ( 'NONE',  ( -1.000000000000000000, 0.0000000000000000000, 0.0000000000000000000 ) ) ;
#256 = DIRECTION ( 'NONE',  ( -1.000000000000000000, 0.0000000000000000000, 0.0000000000000000000 ) ) ;
#257 = APPROVAL_STATUS ( 'not_yet_approved' ) ;
#258 = DIRECTION ( 'NONE',  ( -1.000000000000000000, -0.0000000000000000000, -0.0000000000000000000 ) ) ;
#259 = AXIS2_PLACEMENT_3D ( 'NONE', #297, #258, #161 ) ;
#260 = DIRECTION ( 'NONE',  ( 0.0000000000000000000, -1.000000000000000000, 0.0000000000000000000 ) ) ;
#261 = ORIENTED_EDGE ( 'NONE', *, *, #151, .F. ) ;
#262 = PLANE ( 'NONE',  #359 ) ;
#263 = AXIS2_PLACEMENT_3D ( 'NONE', #267, #378, #391 ) ;
#264 = CIRCLE ( 'NONE', #162, 1.422680412371139800 ) ;
#265 = ORIENTED_EDGE ( 'NONE', *, *, #169, .T. ) ;
#266 = AXIS2_PLACEMENT_3D ( 'NONE', #159, #295, #388 ) ;
#267 = CARTESIAN_POINT ( 'NONE',  ( 0.0000000000000000000, 0.0000000000000000000, -1.967181203831876300 ) ) ;
#268 = DIRECTION ( 'NONE',  ( -1.000000000000000000, 0.0000000000000000000, 0.0000000000000000000 ) ) ;
#269 = PERSON_AND_ORGANIZATION ( #272, #1 ) ;
#270 = CIRCLE ( 'NONE', #29, 49.99999999999999300 ) ;
#271 = DIRECTION ( 'NONE',  ( 0.0000000000000000000, 0.0000000000000000000, -1.000000000000000000 ) ) ;
#272 = PERSON ( 'UNSPECIFIED', 'UNSPECIFIED', 'UNSPECIFIED', ('UNSPECIFIED'), ('UNSPECIFIED'), ('UNSPECIFIED') ) ;
#273 =( GEOMETRIC_REPRESENTATION_CONTEXT ( 3 ) GLOBAL_UNCERTAINTY_ASSIGNED_CONTEXT ( ( #298 ) ) GLOBAL_UNIT_ASSIGNED_CONTEXT ( ( #323, #290, #98 ) ) REPRESENTATION_CONTEXT ( 'NONE', 'WORKASPACE' ) );
#274 = CIRCLE ( 'NONE', #394, 3.999999999999997300 ) ;
#275 = ORIENTED_EDGE ( 'NONE', *, *, #291, .T. ) ;
#276 = CALENDAR_DATE ( 2020, 23, 4 ) ;
#277 = CC_DESIGN_PERSON_AND_ORGANIZATION_ASSIGNMENT ( #269, #355, ( #320 ) ) ;
#278 = VECTOR ( 'NONE', #16, 1000.000000000000100 ) ;
#279 = EDGE_LOOP ( 'NONE', ( #195, #166, #191, #63 ) ) ;
#280 = CARTESIAN_POINT ( 'NONE',  ( 0.0000000000000000000, 0.0000000000000000000, 1.024625995393626300 ) ) ;
#281 = DIRECTION ( 'NONE',  ( 0.0000000000000000000, -1.224646799147353200E-016, 1.000000000000000000 ) ) ;
#282 = EDGE_CURVE ( 'NONE', #219, #308, #145, .T. ) ;
#283 = SECURITY_CLASSIFICATION ( '', '', #36 ) ;
#284 = DIRECTION ( 'NONE',  ( 0.0000000000000000000, 1.000000000000000000, 0.0000000000000000000 ) ) ;
#285 = DIRECTION ( 'NONE',  ( -0.0000000000000000000, 1.224646799147348000E-016, -1.000000000000000000 ) ) ;
#286 = ORIENTED_EDGE ( 'NONE', *, *, #190, .T. ) ;
#287 = CARTESIAN_POINT ( 'NONE',  ( 0.0000000000000000000, 0.0000000000000000000, 1.500000000000001100 ) ) ;
#288 = AXIS2_PLACEMENT_3D ( 'NONE', #156, #186, #284 ) ;
#289 = CARTESIAN_POINT ( 'NONE',  ( 0.0000000000000000000, 4.000000000000003600, 20.00000000000000400 ) ) ;
#290 =( NAMED_UNIT ( * ) PLANE_ANGLE_UNIT ( ) SI_UNIT ( $, .RADIAN. ) );
#291 = EDGE_CURVE ( 'NONE', #219, #143, #306, .T. ) ;
#292 = ORIENTED_EDGE ( 'NONE', *, *, #33, .T. ) ;
#293 = LOCAL_TIME ( 15, 21, 35.00000000000000000, #104 ) ;
#294 = ORIENTED_EDGE ( 'NONE', *, *, #169, .F. ) ;
#295 = DIRECTION ( 'NONE',  ( 0.0000000000000000000, 0.0000000000000000000, 1.000000000000000000 ) ) ;
#296 = ORIENTED_EDGE ( 'NONE', *, *, #282, .F. ) ;
#297 = CARTESIAN_POINT ( 'NONE',  ( 0.0000000000000000000, 0.0000000000000000000, 1.500000000000001100 ) ) ;
#298 = UNCERTAINTY_MEASURE_WITH_UNIT (LENGTH_MEASURE( 1.000000000000000100E-005 ), #323, 'distance_accuracy_value', 'NONE');
#299 = CC_DESIGN_PERSON_AND_ORGANIZATION_ASSIGNMENT ( #183, #187, ( #200 ) ) ;
#300 = ORIENTED_EDGE ( 'NONE', *, *, #192, .T. ) ;
#301 = CARTESIAN_POINT ( 'NONE',  ( 0.0000000000000000000, 0.0000000000000000000, 1.024625995393626300 ) ) ;
#302 = ORIENTED_EDGE ( 'NONE', *, *, #76, .F. ) ;
#303 = CALENDAR_DATE ( 2020, 23, 4 ) ;
#304 = VERTEX_POINT ( 'NONE', #8 ) ;
#305 = PERSON_AND_ORGANIZATION_ROLE ( 'creator' ) ;
#306 = CIRCLE ( 'NONE', #13, 3.199999999999979700 ) ;
#307 = APPROVAL_ROLE ( '' ) ;
#308 = VERTEX_POINT ( 'NONE', #73 ) ;
#309 = PERSON_AND_ORGANIZATION ( #272, #1 ) ;
#310 = DIRECTION ( 'NONE',  ( -0.0000000000000000000, -0.0000000000000000000, -1.000000000000000000 ) ) ;
#311 = DIRECTION ( 'NONE',  ( -0.0000000000000000000, -0.0000000000000000000, -1.000000000000000000 ) ) ;
#312 = VECTOR ( 'NONE', #386, 1000.000000000000000 ) ;
#313 = CARTESIAN_POINT ( 'NONE',  ( 0.0000000000000000000, 0.0000000000000000000, 1.024625995393626300 ) ) ;
#314 = DIRECTION ( 'NONE',  ( 1.000000000000000000, -0.0000000000000000000, 0.0000000000000000000 ) ) ;
#315 = CARTESIAN_POINT ( 'NONE',  ( 0.0000000000000000000, -9.797174393178826100E-015, 100.0000000000000000 ) ) ;
#316 = CARTESIAN_POINT ( 'NONE',  ( -46.00000000000000700, -5.633375276077825500E-015, 16.87042614893937700 ) ) ;
#317 = LINE ( 'NONE', #167, #75 ) ;
#318 = DESIGN_CONTEXT ( 'detailed design', #17, 'design' ) ;
#319 = APPLICATION_CONTEXT ( 'configuration controlled 3d designs of mechanical parts and assemblies' ) ;
#320 = PRODUCT_DEFINITION ( 'UNKNOWN', '', #23, #318 ) ;
#321 = DIRECTION ( 'NONE',  ( -0.0000000000000000000, 1.224646799147348000E-016, -1.000000000000000000 ) ) ;
#322 = DIRECTION ( 'NONE',  ( -0.0000000000000000000, -0.0000000000000000000, -1.000000000000000000 ) ) ;
#323 =( LENGTH_UNIT ( ) NAMED_UNIT ( * ) SI_UNIT ( .MILLI., .METRE. ) );
#324 = CC_DESIGN_DATE_AND_TIME_ASSIGNMENT ( #210, #335, ( #320 ) ) ;
#325 = SHAPE_DEFINITION_REPRESENTATION ( #399, #349 ) ;
#326 = EDGE_LOOP ( 'NONE', ( #69, #286, #396, #333 ) ) ;
#327 = EDGE_CURVE ( 'NONE', #2, #83, #270, .T. ) ;
#328 = ORIENTED_EDGE ( 'NONE', *, *, #353, .T. ) ;
#329 = APPROVAL ( #257, 'UNSPECIFIED' ) ;
#330 = FACE_OUTER_BOUND ( 'NONE', #105, .T. ) ;
#331 = EDGE_CURVE ( 'NONE', #117, #174, #32, .T. ) ;
#332 = COORDINATED_UNIVERSAL_TIME_OFFSET ( 9, 0, .AHEAD. ) ;
#333 = ORIENTED_EDGE ( 'NONE', *, *, #375, .F. ) ;
#334 = DIRECTION ( 'NONE',  ( 0.0000000000000000000, 1.000000000000000000, 0.0000000000000000000 ) ) ;
#335 = DATE_TIME_ROLE ( 'creation_date' ) ;
#336 = CC_DESIGN_APPROVAL ( #329, ( #320 ) ) ;
#337 = CIRCLE ( 'NONE', #126, 3.999999999999996400 ) ;
#338 = DATE_TIME_ROLE ( 'classification_date' ) ;
#339 = APPROVAL_PERSON_ORGANIZATION ( #121, #329, #129 ) ;
#340 = AXIS2_PLACEMENT_3D ( 'NONE', #313, #250, #177 ) ;
#341 = DIRECTION ( 'NONE',  ( -1.000000000000000000, 0.0000000000000000000, 0.0000000000000000000 ) ) ;
#342 = DIRECTION ( 'NONE',  ( 0.0000000000000000000, -1.000000000000000000, 0.0000000000000000000 ) ) ;
#343 = LINE ( 'NONE', #153, #278 ) ;
#344 = EDGE_LOOP ( 'NONE', ( #251, #373, #131, #221 ) ) ;
#345 = DIRECTION ( 'NONE',  ( -0.0000000000000000000, 1.224646799147353200E-016, -1.000000000000000000 ) ) ;
#346 = ADVANCED_FACE ( 'NONE', ( #58 ), #379, .T. ) ;
#347 = ORIENTED_EDGE ( 'NONE', *, *, #72, .T. ) ;
#348 = ORIENTED_EDGE ( 'NONE', *, *, #151, .T. ) ;
#349 = ADVANCED_BREP_SHAPE_REPRESENTATION ( 'W1901273-74', ( #202, #101, #266 ), #273 ) ;
#350 = AXIS2_PLACEMENT_3D ( 'NONE', #64, #310, #147 ) ;
#351 = DIRECTION ( 'NONE',  ( -0.0000000000000000000, -0.0000000000000000000, -1.000000000000000000 ) ) ;
#352 = APPLICATION_PROTOCOL_DEFINITION ( 'international standard', 'config_control_design', 1994, #319 ) ;
#353 = EDGE_CURVE ( 'NONE', #212, #118, #24, .T. ) ;
#354 = FACE_OUTER_BOUND ( 'NONE', #279, .T. ) ;
#355 = PERSON_AND_ORGANIZATION_ROLE ( 'creator' ) ;
#356 = DIRECTION ( 'NONE',  ( 0.0000000000000000000, 0.0000000000000000000, 1.000000000000000000 ) ) ;
#357 = CARTESIAN_POINT ( 'NONE',  ( 0.0000000000000000000, 0.0000000000000000000, 20.00000000000000400 ) ) ;
#358 = ORIENTED_EDGE ( 'NONE', *, *, #114, .T. ) ;
#359 = AXIS2_PLACEMENT_3D ( 'NONE', #225, #356, #132 ) ;
#360 = ORIENTED_EDGE ( 'NONE', *, *, #411, .F. ) ;
#361 = EDGE_LOOP ( 'NONE', ( #163, #364 ) ) ;
#362 = FACE_OUTER_BOUND ( 'NONE', #197, .T. ) ;
#363 = AXIS2_PLACEMENT_3D ( 'NONE', #214, #345, #120 ) ;
#364 = ORIENTED_EDGE ( 'NONE', *, *, #165, .F. ) ;
#365 = FACE_OUTER_BOUND ( 'NONE', #112, .T. ) ;
#366 = AXIS2_PLACEMENT_3D ( 'NONE', #40, #285, #124 ) ;
#367 = EDGE_LOOP ( 'NONE', ( #41, #300, #360, #296 ) ) ;
#368 = SPHERICAL_SURFACE ( 'NONE', #259, 1.500000000000006000 ) ;
#369 = APPROVAL ( #68, 'UNSPECIFIED' ) ;
#370 = DATE_AND_TIME ( #303, #26 ) ;
#371 = CYLINDRICAL_SURFACE ( 'NONE', #249, 4.000000000000003600 ) ;
#372 = AXIS2_PLACEMENT_3D ( 'NONE', #74, #3, #179 ) ;
#373 = ORIENTED_EDGE ( 'NONE', *, *, #291, .F. ) ;
#374 = LOCAL_TIME ( 15, 21, 35.00000000000000000, #332 ) ;
#375 = EDGE_CURVE ( 'NONE', #308, #212, #149, .T. ) ;
#376 = VERTEX_POINT ( 'NONE', #51 ) ;
#377 = ORIENTED_EDGE ( 'NONE', *, *, #34, .T. ) ;
#378 = DIRECTION ( 'NONE',  ( -0.0000000000000000000, -0.0000000000000000000, -1.000000000000000000 ) ) ;
#379 = PLANE ( 'NONE',  #136 ) ;
#380 = APPROVAL_DATE_TIME ( #19, #329 ) ;
#381 = AXIS2_PLACEMENT_3D ( 'NONE', #252, #351, #256 ) ;
#382 = LINE ( 'NONE', #28, #407 ) ;
#383 = CARTESIAN_POINT ( 'NONE',  ( 0.0000000000000000000, -9.797174393178826100E-015, 100.0000000000000000 ) ) ;
#384 = ADVANCED_FACE ( 'NONE', ( #365 ), #371, .T. ) ;
#385 = CARTESIAN_POINT ( 'NONE',  ( 0.0000000000000000000, 0.0000000000000000000, 1.500000000000001100 ) ) ;
#386 = DIRECTION ( 'NONE',  ( -0.0000000000000000000, 1.224646799147353200E-016, -1.000000000000000000 ) ) ;
#387 = VERTEX_POINT ( 'NONE', #390 ) ;
#388 = DIRECTION ( 'NONE',  ( 1.000000000000000000, 0.0000000000000000000, 0.0000000000000000000 ) ) ;
#389 = APPROVAL_PERSON_ORGANIZATION ( #65, #20, #307 ) ;
#390 = CARTESIAN_POINT ( 'NONE',  ( 3.999999999999997300, 4.898587196589409900E-016, 20.00000000000000000 ) ) ;
#391 = DIRECTION ( 'NONE',  ( -1.000000000000000000, 0.0000000000000000000, 0.0000000000000000000 ) ) ;
#392 = EDGE_LOOP ( 'NONE', ( #294, #172, #348, #12 ) ) ;
#393 = DIRECTION ( 'NONE',  ( -0.0000000000000000000, 1.224646799147353200E-016, -1.000000000000000000 ) ) ;
#394 = AXIS2_PLACEMENT_3D ( 'NONE', #102, #164, #255 ) ;
#395 = CALENDAR_DATE ( 2020, 23, 4 ) ;
#396 = ORIENTED_EDGE ( 'NONE', *, *, #353, .F. ) ;
#397 = VECTOR ( 'NONE', #38, 1000.000000000000000 ) ;
#398 = AXIS2_PLACEMENT_3D ( 'NONE', #315, #281, #253 ) ;
#399 = PRODUCT_DEFINITION_SHAPE ( 'NONE', 'NONE',  #320 ) ;
#400 = FACE_OUTER_BOUND ( 'NONE', #392, .T. ) ;
#401 = APPROVAL_DATE_TIME ( #370, #20 ) ;
#402 = CARTESIAN_POINT ( 'NONE',  ( 0.0000000000000000000, -9.797174393178826100E-015, 100.0000000000000000 ) ) ;
#403 = DIRECTION ( 'NONE',  ( -0.0000000000000000000, -0.0000000000000000000, -1.000000000000000000 ) ) ;
#404 = CARTESIAN_POINT ( 'NONE',  ( 0.0000000000000000000, -1.422680412371139800, 1.024625995393626300 ) ) ;
#405 = CALENDAR_DATE ( 2020, 23, 4 ) ;
#406 = VERTEX_POINT ( 'NONE', #49 ) ;
#407 = VECTOR ( 'NONE', #110, 1000.000000000000000 ) ;
#408 = ADVANCED_FACE ( 'NONE', ( #46 ), #368, .T. ) ;
#409 = DIRECTION ( 'NONE',  ( -0.0000000000000000000, -0.0000000000000000000, -1.000000000000000000 ) ) ;
#410 = FACE_OUTER_BOUND ( 'NONE', #344, .T. ) ;
#411 = EDGE_CURVE ( 'NONE', #308, #238, #14, .T. ) ;
ENDSEC;
END-ISO-10303-21;
