ISO-10303-21;
HEADER;
/* Generated by software containing ST-Developer
 * from STEP Tools, Inc. (www.steptools.com) 
 */
/* OPTION: using custom schema-name function */

FILE_DESCRIPTION(
/* description */ (''),
/* implementation_level */ '2;1');

FILE_NAME(
/* name */ '3188204.stp',
/* time_stamp */ '2021-01-07T10:17:53+09:00',
/* author */ (''),
/* organization */ (''),
/* preprocessor_version */ 'ST-DEVELOPER v16.7',
/* originating_system */ 'SIEMENS PLM Software NX 12.0',
/* authorisation */ '');

FILE_SCHEMA (('AUTOMOTIVE_DESIGN { 1 0 10303 214 3 1 1 1 }'));
ENDSEC;

DATA;
#10=CONTEXT_DEPENDENT_SHAPE_REPRESENTATION(#14,#36);
#11=CONTEXT_DEPENDENT_SHAPE_REPRESENTATION(#15,#37);
#12=NEXT_ASSEMBLY_USAGE_OCCURRENCE('1001',' ','CUT_3188204',#40,#39,$);
#13=NEXT_ASSEMBLY_USAGE_OCCURRENCE('1002',' ','NOCUT_3188204',#40,#38,$);
#14=(
REPRESENTATION_RELATIONSHIP(' ',' ',#59,#60)
REPRESENTATION_RELATIONSHIP_WITH_TRANSFORMATION(#16)
SHAPE_REPRESENTATION_RELATIONSHIP()
);
#15=(
REPRESENTATION_RELATIONSHIP(' ',' ',#58,#60)
REPRESENTATION_RELATIONSHIP_WITH_TRANSFORMATION(#17)
SHAPE_REPRESENTATION_RELATIONSHIP()
);
#16=ITEM_DEFINED_TRANSFORMATION(' ',' ',#284,#314);
#17=ITEM_DEFINED_TRANSFORMATION(' ',' ',#284,#315);
#18=CONSTRUCTIVE_GEOMETRY_REPRESENTATION_RELATIONSHIP(
'supplemental geometry','',#58,#20);
#19=CONSTRUCTIVE_GEOMETRY_REPRESENTATION_RELATIONSHIP(
'supplemental geometry','',#59,#21);
#20=CONSTRUCTIVE_GEOMETRY_REPRESENTATION('supplemental geometry',(#299,
#300),#466);
#21=CONSTRUCTIVE_GEOMETRY_REPRESENTATION('supplemental geometry',(#289,
#290),#465);
#22=GEOMETRICALLY_BOUNDED_WIREFRAME_SHAPE_REPRESENTATION(
'NOCUT_3188204-None',(#61),#466);
#23=GEOMETRICALLY_BOUNDED_WIREFRAME_SHAPE_REPRESENTATION(
'CUT_3188204-None',(#62),#465);
#24=SHAPE_REPRESENTATION_RELATIONSHIP('None',
'relationship between NOCUT_3188204-None and NOCUT_3188204-None',#58,#28);
#25=SHAPE_REPRESENTATION_RELATIONSHIP('None',
'relationship between NOCUT_3188204-None and NOCUT_3188204-None',#58,#22);
#26=SHAPE_REPRESENTATION_RELATIONSHIP('None',
'relationship between CUT_3188204-None and CUT_3188204-None',#59,#29);
#27=SHAPE_REPRESENTATION_RELATIONSHIP('None',
'relationship between CUT_3188204-None and CUT_3188204-None',#59,#23);
#28=ADVANCED_BREP_SHAPE_REPRESENTATION('NOCUT_3188204-None',(#76),#466);
#29=ADVANCED_BREP_SHAPE_REPRESENTATION('CUT_3188204-None',(#75),#465);
#30=SHAPE_DEFINITION_REPRESENTATION(#33,#58);
#31=SHAPE_DEFINITION_REPRESENTATION(#34,#59);
#32=SHAPE_DEFINITION_REPRESENTATION(#35,#60);
#33=PRODUCT_DEFINITION_SHAPE('','',#38);
#34=PRODUCT_DEFINITION_SHAPE('','',#39);
#35=PRODUCT_DEFINITION_SHAPE('','',#40);
#36=PRODUCT_DEFINITION_SHAPE(' ','NAUO PRDDFN',#12);
#37=PRODUCT_DEFINITION_SHAPE(' ','NAUO PRDDFN',#13);
#38=PRODUCT_DEFINITION(' ','',#44,#41);
#39=PRODUCT_DEFINITION(' ','',#45,#42);
#40=PRODUCT_DEFINITION(' ','',#46,#43);
#41=PRODUCT_DEFINITION_CONTEXT('part definition',#57,'design');
#42=PRODUCT_DEFINITION_CONTEXT('part definition',#57,'design');
#43=PRODUCT_DEFINITION_CONTEXT('part definition',#57,'design');
#44=PRODUCT_DEFINITION_FORMATION_WITH_SPECIFIED_SOURCE(' ',' ',#50,
 .NOT_KNOWN.);
#45=PRODUCT_DEFINITION_FORMATION_WITH_SPECIFIED_SOURCE(' ',' ',#51,
 .NOT_KNOWN.);
#46=PRODUCT_DEFINITION_FORMATION_WITH_SPECIFIED_SOURCE(' ',' ',#52,
 .NOT_KNOWN.);
#47=PRODUCT_RELATED_PRODUCT_CATEGORY('part','',(#50));
#48=PRODUCT_RELATED_PRODUCT_CATEGORY('part','',(#51));
#49=PRODUCT_RELATED_PRODUCT_CATEGORY('part','',(#52));
#50=PRODUCT('NOCUT_3188204','NOCUT_3188204',' ',(#53));
#51=PRODUCT('CUT_3188204','CUT_3188204',' ',(#54));
#52=PRODUCT('3188204','3188204',' ',(#55));
#53=PRODUCT_CONTEXT(' ',#57,'mechanical');
#54=PRODUCT_CONTEXT(' ',#57,'mechanical');
#55=PRODUCT_CONTEXT(' ',#57,'mechanical');
#56=APPLICATION_PROTOCOL_DEFINITION('international standard',
'automotive_design',2010,#57);
#57=APPLICATION_CONTEXT(
'core data for automotive mechanical design processes');
#58=SHAPE_REPRESENTATION('NOCUT_3188204-None',(#284),#466);
#59=SHAPE_REPRESENTATION('CUT_3188204-None',(#284),#465);
#60=SHAPE_REPRESENTATION('3188204-none',(#284,#314,#315),#464);
#61=GEOMETRIC_CURVE_SET('None',(#437,#438));
#62=GEOMETRIC_CURVE_SET('None',(#385,#386,#220,#221,#222,#223,#224,#225,
#226,#227));
#63=CONICAL_SURFACE('',#308,2.20100904014693,14.9627711751409);
#64=CONICAL_SURFACE('',#312,3.,45.);
#65=SURFACE_STYLE_USAGE(.BOTH.,#67);
#66=SURFACE_STYLE_USAGE(.BOTH.,#68);
#67=SURFACE_SIDE_STYLE('',(#69));
#68=SURFACE_SIDE_STYLE('',(#70));
#69=SURFACE_STYLE_FILL_AREA(#71);
#70=SURFACE_STYLE_FILL_AREA(#72);
#71=FILL_AREA_STYLE('',(#73));
#72=FILL_AREA_STYLE('',(#74));
#73=FILL_AREA_STYLE_COLOUR('',#282);
#74=FILL_AREA_STYLE_COLOUR('',#283);
#75=MANIFOLD_SOLID_BREP('',#77);
#76=MANIFOLD_SOLID_BREP('',#78);
#77=CLOSED_SHELL('',(#101,#102,#103,#104,#105));
#78=CLOSED_SHELL('',(#106,#107,#108,#109,#110,#111,#112));
#79=(
BOUNDED_SURFACE()
B_SPLINE_SURFACE(3,3,((#408,#409,#410,#411,#412,#413,#414),(#415,#416,#417,
#418,#419,#420,#421),(#422,#423,#424,#425,#426,#427,#428),(#429,#430,#431,
#432,#433,#434,#435)),.UNSPECIFIED.,.F.,.T.,.F.)
B_SPLINE_SURFACE_WITH_KNOTS((4,4),(1,3,3,3,1),(0.,1.),(-0.5,0.,0.5,1.,1.5),
 .UNSPECIFIED.)
GEOMETRIC_REPRESENTATION_ITEM()
RATIONAL_B_SPLINE_SURFACE(((1.,0.333333333333333,0.333333333333333,1.,0.333333333333333,
0.333333333333333,1.),(0.991969533274937,0.330656511091646,0.330656511091646,
0.991969533274937,0.330656511091646,0.330656511091646,0.991969533274937),
(0.991969533274937,0.330656511091646,0.330656511091646,0.991969533274937,
0.330656511091646,0.330656511091646,0.991969533274937),(1.,0.333333333333333,
0.333333333333333,1.,0.333333333333333,0.333333333333333,1.)))
REPRESENTATION_ITEM('')
SURFACE()
);
#80=TOROIDAL_SURFACE('',#296,1.6,0.4);
#81=TOROIDAL_SURFACE('',#306,11.8619469809175,10.);
#82=CYLINDRICAL_SURFACE('',#294,2.);
#83=CYLINDRICAL_SURFACE('',#304,1.9);
#84=CYLINDRICAL_SURFACE('',#310,3.);
#85=FACE_BOUND('',#122,.T.);
#86=FACE_BOUND('',#123,.T.);
#87=FACE_BOUND('',#124,.T.);
#88=FACE_BOUND('',#125,.T.);
#89=FACE_BOUND('',#126,.T.);
#90=FACE_BOUND('',#127,.T.);
#91=FACE_BOUND('',#130,.T.);
#92=FACE_BOUND('',#131,.T.);
#93=FACE_BOUND('',#132,.T.);
#94=FACE_BOUND('',#133,.T.);
#95=FACE_BOUND('',#134,.T.);
#96=FACE_BOUND('',#135,.T.);
#97=FACE_BOUND('',#136,.T.);
#98=FACE_BOUND('',#137,.T.);
#99=FACE_BOUND('',#138,.T.);
#100=FACE_BOUND('',#139,.T.);
#101=ADVANCED_FACE('',(#117),#113,.F.);
#102=ADVANCED_FACE('',(#85,#86),#82,.T.);
#103=ADVANCED_FACE('',(#87,#88),#80,.T.);
#104=ADVANCED_FACE('',(#89,#90),#79,.T.);
#105=ADVANCED_FACE('',(#118),#114,.F.);
#106=ADVANCED_FACE('',(#119),#115,.T.);
#107=ADVANCED_FACE('',(#91,#92),#83,.T.);
#108=ADVANCED_FACE('',(#93,#94),#81,.F.);
#109=ADVANCED_FACE('',(#95,#96),#63,.T.);
#110=ADVANCED_FACE('',(#97,#98),#84,.T.);
#111=ADVANCED_FACE('',(#99,#100),#64,.T.);
#112=ADVANCED_FACE('',(#120),#116,.T.);
#113=PLANE('',#292);
#114=PLANE('',#298);
#115=PLANE('',#302);
#116=PLANE('',#313);
#117=FACE_OUTER_BOUND('',#121,.T.);
#118=FACE_OUTER_BOUND('',#128,.T.);
#119=FACE_OUTER_BOUND('',#129,.T.);
#120=FACE_OUTER_BOUND('',#140,.T.);
#121=EDGE_LOOP('',(#141));
#122=EDGE_LOOP('',(#142));
#123=EDGE_LOOP('',(#143));
#124=EDGE_LOOP('',(#144));
#125=EDGE_LOOP('',(#145));
#126=EDGE_LOOP('',(#146));
#127=EDGE_LOOP('',(#147));
#128=EDGE_LOOP('',(#148));
#129=EDGE_LOOP('',(#149));
#130=EDGE_LOOP('',(#150));
#131=EDGE_LOOP('',(#151));
#132=EDGE_LOOP('',(#152));
#133=EDGE_LOOP('',(#153));
#134=EDGE_LOOP('',(#154));
#135=EDGE_LOOP('',(#155));
#136=EDGE_LOOP('',(#156));
#137=EDGE_LOOP('',(#157));
#138=EDGE_LOOP('',(#158));
#139=EDGE_LOOP('',(#159));
#140=EDGE_LOOP('',(#160));
#141=ORIENTED_EDGE('',*,*,#171,.T.);
#142=ORIENTED_EDGE('',*,*,#171,.F.);
#143=ORIENTED_EDGE('',*,*,#172,.T.);
#144=ORIENTED_EDGE('',*,*,#172,.F.);
#145=ORIENTED_EDGE('',*,*,#173,.T.);
#146=ORIENTED_EDGE('',*,*,#173,.F.);
#147=ORIENTED_EDGE('',*,*,#174,.T.);
#148=ORIENTED_EDGE('',*,*,#174,.F.);
#149=ORIENTED_EDGE('',*,*,#175,.T.);
#150=ORIENTED_EDGE('',*,*,#176,.T.);
#151=ORIENTED_EDGE('',*,*,#175,.F.);
#152=ORIENTED_EDGE('',*,*,#177,.T.);
#153=ORIENTED_EDGE('',*,*,#176,.F.);
#154=ORIENTED_EDGE('',*,*,#178,.T.);
#155=ORIENTED_EDGE('',*,*,#177,.F.);
#156=ORIENTED_EDGE('',*,*,#179,.T.);
#157=ORIENTED_EDGE('',*,*,#178,.F.);
#158=ORIENTED_EDGE('',*,*,#180,.T.);
#159=ORIENTED_EDGE('',*,*,#179,.F.);
#160=ORIENTED_EDGE('',*,*,#180,.F.);
#161=VERTEX_POINT('',#398);
#162=VERTEX_POINT('',#401);
#163=VERTEX_POINT('',#404);
#164=VERTEX_POINT('',#407);
#165=VERTEX_POINT('',#442);
#166=VERTEX_POINT('',#445);
#167=VERTEX_POINT('',#448);
#168=VERTEX_POINT('',#451);
#169=VERTEX_POINT('',#454);
#170=VERTEX_POINT('',#457);
#171=EDGE_CURVE('',#161,#161,#185,.T.);
#172=EDGE_CURVE('',#162,#162,#186,.T.);
#173=EDGE_CURVE('',#163,#163,#187,.T.);
#174=EDGE_CURVE('',#164,#164,#188,.T.);
#175=EDGE_CURVE('',#165,#165,#189,.T.);
#176=EDGE_CURVE('',#166,#166,#190,.T.);
#177=EDGE_CURVE('',#167,#167,#191,.T.);
#178=EDGE_CURVE('',#168,#168,#192,.T.);
#179=EDGE_CURVE('',#169,#169,#193,.T.);
#180=EDGE_CURVE('',#170,#170,#194,.T.);
#181=CIRCLE('CUTTING EDGE LINE',#285,0.4);
#182=CIRCLE('CUTTING EDGE LINE',#286,2.5);
#183=CIRCLE('CUTTING EDGE LINE',#287,0.4);
#184=CIRCLE('CUTTING EDGE LINE',#288,2.5);
#185=CIRCLE('',#291,2.);
#186=CIRCLE('',#293,2.);
#187=CIRCLE('',#295,1.75238095238096);
#188=CIRCLE('',#297,1.);
#189=CIRCLE('',#301,1.9);
#190=CIRCLE('',#303,1.9);
#191=CIRCLE('',#305,2.20100904014693);
#192=CIRCLE('',#307,3.);
#193=CIRCLE('',#309,3.);
#194=CIRCLE('',#311,2.3);
#195=CURVE_STYLE('',#208,POSITIVE_LENGTH_MEASURE(0.7),#207);
#196=CURVE_STYLE('',#209,POSITIVE_LENGTH_MEASURE(0.7),#207);
#197=CURVE_STYLE('',#210,POSITIVE_LENGTH_MEASURE(0.7),#207);
#198=CURVE_STYLE('',#211,POSITIVE_LENGTH_MEASURE(0.7),#207);
#199=CURVE_STYLE('',#212,POSITIVE_LENGTH_MEASURE(0.7),#207);
#200=CURVE_STYLE('',#213,POSITIVE_LENGTH_MEASURE(0.7),#207);
#201=CURVE_STYLE('',#214,POSITIVE_LENGTH_MEASURE(0.7),#207);
#202=CURVE_STYLE('',#215,POSITIVE_LENGTH_MEASURE(0.7),#207);
#203=CURVE_STYLE('',#216,POSITIVE_LENGTH_MEASURE(0.7),#281);
#204=CURVE_STYLE('',#217,POSITIVE_LENGTH_MEASURE(0.7),#281);
#205=CURVE_STYLE('',#218,POSITIVE_LENGTH_MEASURE(0.7),#281);
#206=CURVE_STYLE('',#219,POSITIVE_LENGTH_MEASURE(0.7),#281);
#207=DRAUGHTING_PRE_DEFINED_COLOUR('blue');
#208=DRAUGHTING_PRE_DEFINED_CURVE_FONT('continuous');
#209=DRAUGHTING_PRE_DEFINED_CURVE_FONT('continuous');
#210=DRAUGHTING_PRE_DEFINED_CURVE_FONT('continuous');
#211=DRAUGHTING_PRE_DEFINED_CURVE_FONT('continuous');
#212=DRAUGHTING_PRE_DEFINED_CURVE_FONT('continuous');
#213=DRAUGHTING_PRE_DEFINED_CURVE_FONT('continuous');
#214=DRAUGHTING_PRE_DEFINED_CURVE_FONT('continuous');
#215=DRAUGHTING_PRE_DEFINED_CURVE_FONT('continuous');
#216=DRAUGHTING_PRE_DEFINED_CURVE_FONT('continuous');
#217=DRAUGHTING_PRE_DEFINED_CURVE_FONT('continuous');
#218=DRAUGHTING_PRE_DEFINED_CURVE_FONT('continuous');
#219=DRAUGHTING_PRE_DEFINED_CURVE_FONT('continuous');
#220=TRIMMED_CURVE('CUTTING EDGE LINE',#228,(PARAMETER_VALUE(0.)),(
PARAMETER_VALUE(1.)),.T.,.PARAMETER.);
#221=TRIMMED_CURVE('CUTTING EDGE LINE',#229,(PARAMETER_VALUE(0.)),(
PARAMETER_VALUE(1.)),.T.,.PARAMETER.);
#222=TRIMMED_CURVE('CUTTING EDGE LINE',#230,(PARAMETER_VALUE(0.)),(
PARAMETER_VALUE(1.)),.T.,.PARAMETER.);
#223=TRIMMED_CURVE('CUTTING EDGE LINE',#231,(PARAMETER_VALUE(0.)),(
PARAMETER_VALUE(1.)),.T.,.PARAMETER.);
#224=TRIMMED_CURVE('CUTTING EDGE LINE',#181,(PARAMETER_VALUE(90.)),(
PARAMETER_VALUE(157.607312194598)),.T.,.PARAMETER.);
#225=TRIMMED_CURVE('CUTTING EDGE LINE',#182,(PARAMETER_VALUE(157.607312194598)),
(PARAMETER_VALUE(175.411434264212)),.T.,.PARAMETER.);
#226=TRIMMED_CURVE('CUTTING EDGE LINE',#183,(PARAMETER_VALUE(202.392687805402)),
(PARAMETER_VALUE(270.)),.T.,.PARAMETER.);
#227=TRIMMED_CURVE('CUTTING EDGE LINE',#184,(PARAMETER_VALUE(184.588565735788)),
(PARAMETER_VALUE(202.392687805402)),.T.,.PARAMETER.);
#228=LINE('CUTTING EDGE LINE',#387,#232);
#229=LINE('CUTTING EDGE LINE',#388,#233);
#230=LINE('CUTTING EDGE LINE',#389,#234);
#231=LINE('CUTTING EDGE LINE',#390,#235);
#232=VECTOR('',#318,7.4496616250193);
#233=VECTOR('',#319,4.);
#234=VECTOR('',#320,7.4496616250193);
#235=VECTOR('',#321,2.00000000000019);
#236=PRESENTATION_LAYER_ASSIGNMENT('1','Layer 1',(#385,#386,#220,#221,#222,
#223,#224,#225,#226,#227,#289,#290,#75,#437,#438,#299,#300,#76));
#237=STYLED_ITEM('',(#255),#385);
#238=STYLED_ITEM('',(#256),#386);
#239=STYLED_ITEM('',(#257),#220);
#240=STYLED_ITEM('',(#258),#221);
#241=STYLED_ITEM('',(#259),#222);
#242=STYLED_ITEM('',(#260),#223);
#243=STYLED_ITEM('',(#261),#224);
#244=STYLED_ITEM('',(#262),#225);
#245=STYLED_ITEM('',(#263),#226);
#246=STYLED_ITEM('',(#264),#227);
#247=STYLED_ITEM('',(#265),#289);
#248=STYLED_ITEM('',(#266),#290);
#249=STYLED_ITEM('',(#267),#75);
#250=STYLED_ITEM('',(#268),#437);
#251=STYLED_ITEM('',(#269),#438);
#252=STYLED_ITEM('',(#270),#299);
#253=STYLED_ITEM('',(#271),#300);
#254=STYLED_ITEM('',(#272),#76);
#255=PRESENTATION_STYLE_ASSIGNMENT((#273));
#256=PRESENTATION_STYLE_ASSIGNMENT((#274));
#257=PRESENTATION_STYLE_ASSIGNMENT((#195));
#258=PRESENTATION_STYLE_ASSIGNMENT((#196));
#259=PRESENTATION_STYLE_ASSIGNMENT((#197));
#260=PRESENTATION_STYLE_ASSIGNMENT((#198));
#261=PRESENTATION_STYLE_ASSIGNMENT((#199));
#262=PRESENTATION_STYLE_ASSIGNMENT((#200));
#263=PRESENTATION_STYLE_ASSIGNMENT((#201));
#264=PRESENTATION_STYLE_ASSIGNMENT((#202));
#265=PRESENTATION_STYLE_ASSIGNMENT((#203));
#266=PRESENTATION_STYLE_ASSIGNMENT((#204));
#267=PRESENTATION_STYLE_ASSIGNMENT((#65));
#268=PRESENTATION_STYLE_ASSIGNMENT((#275));
#269=PRESENTATION_STYLE_ASSIGNMENT((#276));
#270=PRESENTATION_STYLE_ASSIGNMENT((#205));
#271=PRESENTATION_STYLE_ASSIGNMENT((#206));
#272=PRESENTATION_STYLE_ASSIGNMENT((#66));
#273=POINT_STYLE('',#277,POSITIVE_LENGTH_MEASURE(3.),#281);
#274=POINT_STYLE('',#278,POSITIVE_LENGTH_MEASURE(3.),#281);
#275=POINT_STYLE('',#279,POSITIVE_LENGTH_MEASURE(3.),#281);
#276=POINT_STYLE('',#280,POSITIVE_LENGTH_MEASURE(3.),#281);
#277=PRE_DEFINED_POINT_MARKER_SYMBOL('plus');
#278=PRE_DEFINED_POINT_MARKER_SYMBOL('plus');
#279=PRE_DEFINED_POINT_MARKER_SYMBOL('plus');
#280=PRE_DEFINED_POINT_MARKER_SYMBOL('plus');
#281=COLOUR_RGB('Medium Maroon',0.6,0.4,0.4);
#282=COLOUR_RGB('Light Gray',0.8,0.8,0.8);
#283=COLOUR_RGB('Medium Gray',0.490196078431373,0.490196078431373,0.490196078431373);
#284=AXIS2_PLACEMENT_3D('',#384,#316,#317);
#285=AXIS2_PLACEMENT_3D('',#391,#322,#323);
#286=AXIS2_PLACEMENT_3D('',#392,#324,#325);
#287=AXIS2_PLACEMENT_3D('',#393,#326,#327);
#288=AXIS2_PLACEMENT_3D('',#394,#328,#329);
#289=AXIS2_PLACEMENT_3D('CRP',#395,#330,#331);
#290=AXIS2_PLACEMENT_3D('CIP',#396,#332,#333);
#291=AXIS2_PLACEMENT_3D('',#397,#334,#335);
#292=AXIS2_PLACEMENT_3D('',#399,#336,#337);
#293=AXIS2_PLACEMENT_3D('',#400,#338,#339);
#294=AXIS2_PLACEMENT_3D('',#402,#340,#341);
#295=AXIS2_PLACEMENT_3D('',#403,#342,#343);
#296=AXIS2_PLACEMENT_3D('',#405,#344,#345);
#297=AXIS2_PLACEMENT_3D('',#406,#346,#347);
#298=AXIS2_PLACEMENT_3D('',#436,#348,#349);
#299=AXIS2_PLACEMENT_3D('MCS',#439,#350,#351);
#300=AXIS2_PLACEMENT_3D('PCS',#440,#352,#353);
#301=AXIS2_PLACEMENT_3D('',#441,#354,#355);
#302=AXIS2_PLACEMENT_3D('',#443,#356,#357);
#303=AXIS2_PLACEMENT_3D('',#444,#358,#359);
#304=AXIS2_PLACEMENT_3D('',#446,#360,#361);
#305=AXIS2_PLACEMENT_3D('',#447,#362,#363);
#306=AXIS2_PLACEMENT_3D('',#449,#364,#365);
#307=AXIS2_PLACEMENT_3D('',#450,#366,#367);
#308=AXIS2_PLACEMENT_3D('',#452,#368,#369);
#309=AXIS2_PLACEMENT_3D('',#453,#370,#371);
#310=AXIS2_PLACEMENT_3D('',#455,#372,#373);
#311=AXIS2_PLACEMENT_3D('',#456,#374,#375);
#312=AXIS2_PLACEMENT_3D('',#458,#376,#377);
#313=AXIS2_PLACEMENT_3D('',#459,#378,#379);
#314=AXIS2_PLACEMENT_3D('',#460,#380,#381);
#315=AXIS2_PLACEMENT_3D('',#461,#382,#383);
#316=DIRECTION('',(0.,0.,1.));
#317=DIRECTION('',(1.,0.,0.));
#318=DIRECTION('',(0.,0.,-1.));
#319=DIRECTION('',(-1.,0.,0.));
#320=DIRECTION('',(0.,0.,1.));
#321=DIRECTION('',(1.,0.,0.));
#322=DIRECTION('',(0.,-1.,0.));
#323=DIRECTION('',(0.,0.,1.));
#324=DIRECTION('',(0.,-1.,0.));
#325=DIRECTION('',(0.,0.,1.));
#326=DIRECTION('',(0.,-1.,0.));
#327=DIRECTION('',(0.,0.,1.));
#328=DIRECTION('',(0.,-1.,0.));
#329=DIRECTION('',(0.,0.,1.));
#330=DIRECTION('',(0.,0.,1.));
#331=DIRECTION('',(1.,0.,0.));
#332=DIRECTION('',(0.,0.,1.));
#333=DIRECTION('',(1.,0.,0.));
#334=DIRECTION('',(0.,0.,1.));
#335=DIRECTION('',(1.,0.,0.));
#336=DIRECTION('',(0.,0.,-1.));
#337=DIRECTION('',(-1.,0.,0.));
#338=DIRECTION('',(0.,0.,1.));
#339=DIRECTION('',(1.,0.,0.));
#340=DIRECTION('',(0.,0.,1.));
#341=DIRECTION('',(1.,0.,0.));
#342=DIRECTION('',(0.,0.,1.));
#343=DIRECTION('',(1.,0.,0.));
#344=DIRECTION('',(0.,0.,1.));
#345=DIRECTION('',(1.,0.,0.));
#346=DIRECTION('',(0.,0.,1.));
#347=DIRECTION('',(1.,0.,0.));
#348=DIRECTION('',(0.,0.,1.));
#349=DIRECTION('',(1.,0.,0.));
#350=DIRECTION('',(0.,0.,1.));
#351=DIRECTION('',(1.,0.,0.));
#352=DIRECTION('',(0.,0.,1.));
#353=DIRECTION('',(1.,0.,0.));
#354=DIRECTION('',(0.,1.61225664951337E-18,-1.));
#355=DIRECTION('',(0.,1.,0.));
#356=DIRECTION('',(0.,1.61225664951337E-18,-1.));
#357=DIRECTION('',(0.,1.,0.));
#358=DIRECTION('',(0.,1.61225664951337E-18,-1.));
#359=DIRECTION('',(0.,1.,0.));
#360=DIRECTION('',(0.,1.61225664951337E-18,-1.));
#361=DIRECTION('',(0.,1.,0.));
#362=DIRECTION('',(0.,1.61225664951337E-18,-1.));
#363=DIRECTION('',(0.,1.,0.));
#364=DIRECTION('',(0.,1.61225664951337E-18,-1.));
#365=DIRECTION('',(0.,1.,0.));
#366=DIRECTION('',(0.,1.61225664951337E-18,-1.));
#367=DIRECTION('',(0.,1.,0.));
#368=DIRECTION('',(0.,-1.61225664951337E-18,1.));
#369=DIRECTION('',(0.,-1.,0.));
#370=DIRECTION('',(0.,1.61225664951337E-18,-1.));
#371=DIRECTION('',(0.,1.,0.));
#372=DIRECTION('',(0.,1.61225664951337E-18,-1.));
#373=DIRECTION('',(0.,1.,0.));
#374=DIRECTION('',(0.,1.61225664951337E-18,-1.));
#375=DIRECTION('',(0.,1.,1.61225664951338E-18));
#376=DIRECTION('',(0.,1.61225664951337E-18,-1.));
#377=DIRECTION('',(0.,1.,7.68562058461807E-17));
#378=DIRECTION('',(0.,-1.61225664951337E-18,1.));
#379=DIRECTION('',(0.,-1.,-1.61225664951337E-18));
#380=DIRECTION('',(0.,0.,1.));
#381=DIRECTION('',(1.,0.,0.));
#382=DIRECTION('',(0.,0.,1.));
#383=DIRECTION('',(1.,0.,0.));
#384=CARTESIAN_POINT('',(0.,0.,0.));
#385=CARTESIAN_POINT('',(0.,0.,-50.));
#386=CARTESIAN_POINT('',(-2.,0.,-50.));
#387=CARTESIAN_POINT('',(-2.,0.,-42.));
#388=CARTESIAN_POINT('',(2.,0.,-42.));
#389=CARTESIAN_POINT('',(2.,0.,-49.4496616250193));
#390=CARTESIAN_POINT('',(-1.0000000000001,0.,-50.));
#391=CARTESIAN_POINT('',(-1.6,0.,-49.4496616250193));
#392=CARTESIAN_POINT('',(-0.8,0.,-47.5080128411246));
#393=CARTESIAN_POINT('',(1.6,0.,-49.4496616250193));
#394=CARTESIAN_POINT('',(0.8,0.,-47.5080128411246));
#395=CARTESIAN_POINT('',(-2.,0.,-50.));
#396=CARTESIAN_POINT('',(0.,0.,-50.));
#397=CARTESIAN_POINT('',(0.,0.,-42.));
#398=CARTESIAN_POINT('',(2.,0.,-42.));
#399=CARTESIAN_POINT('',(0.,2.,-42.));
#400=CARTESIAN_POINT('',(0.,0.,-49.4496616250193));
#401=CARTESIAN_POINT('',(2.,0.,-49.4496616250193));
#402=CARTESIAN_POINT('',(0.,0.,0.));
#403=CARTESIAN_POINT('',(0.,0.,-49.8194994886183));
#404=CARTESIAN_POINT('',(1.75238095238096,0.,-49.8194994886183));
#405=CARTESIAN_POINT('',(0.,0.,-49.4496616250193));
#406=CARTESIAN_POINT('',(0.,0.,-50.));
#407=CARTESIAN_POINT('',(1.,0.,-50.));
#408=CARTESIAN_POINT('',(1.75238095238097,0.,-49.8194994886183));
#409=CARTESIAN_POINT('',(1.75238095238097,3.50476190476195,-49.8194994886183));
#410=CARTESIAN_POINT('',(-1.75238095238097,3.50476190476195,-49.8194994886183));
#411=CARTESIAN_POINT('',(-1.75238095238097,0.,-49.8194994886183));
#412=CARTESIAN_POINT('',(-1.75238095238097,-3.50476190476195,-49.8194994886183));
#413=CARTESIAN_POINT('',(1.75238095238097,-3.50476190476195,-49.8194994886183));
#414=CARTESIAN_POINT('',(1.75238095238097,0.,-49.8194994886183));
#415=CARTESIAN_POINT('',(1.51198839511838,0.,-49.9185462613433));
#416=CARTESIAN_POINT('',(1.51198839511838,3.02397679023676,-49.9185462613433));
#417=CARTESIAN_POINT('',(-1.51198839511838,3.02397679023676,-49.9185462613433));
#418=CARTESIAN_POINT('',(-1.51198839511838,0.,-49.9185462613433));
#419=CARTESIAN_POINT('',(-1.51198839511838,-3.02397679023676,-49.9185462613433));
#420=CARTESIAN_POINT('',(1.51198839511838,-3.02397679023676,-49.9185462613433));
#421=CARTESIAN_POINT('',(1.51198839511838,0.,-49.9185462613433));
#422=CARTESIAN_POINT('',(1.25916445004653,0.,-49.9792001777278));
#423=CARTESIAN_POINT('',(1.25916445004653,2.51832890009305,-49.9792001777278));
#424=CARTESIAN_POINT('',(-1.25916445004653,2.51832890009305,-49.9792001777278));
#425=CARTESIAN_POINT('',(-1.25916445004653,0.,-49.9792001777278));
#426=CARTESIAN_POINT('',(-1.25916445004653,-2.51832890009305,-49.9792001777278));
#427=CARTESIAN_POINT('',(1.25916445004653,-2.51832890009305,-49.9792001777278));
#428=CARTESIAN_POINT('',(1.25916445004653,0.,-49.9792001777278));
#429=CARTESIAN_POINT('',(1.,0.,-50.));
#430=CARTESIAN_POINT('',(1.,2.,-50.));
#431=CARTESIAN_POINT('',(-1.,2.,-50.));
#432=CARTESIAN_POINT('',(-1.,0.,-50.));
#433=CARTESIAN_POINT('',(-1.,-2.,-50.));
#434=CARTESIAN_POINT('',(1.,-2.,-50.));
#435=CARTESIAN_POINT('',(1.,0.,-50.));
#436=CARTESIAN_POINT('',(0.,1.,-50.));
#437=CARTESIAN_POINT('',(0.,5.49779517484061E-17,-34.1));
#438=CARTESIAN_POINT('',(0.,0.,0.));
#439=CARTESIAN_POINT('',(0.,5.49779517484061E-17,-34.1));
#440=CARTESIAN_POINT('',(0.,0.,0.));
#441=CARTESIAN_POINT('',(0.,6.77147792795618E-17,-42.));
#442=CARTESIAN_POINT('',(0.,1.9,-42.));
#443=CARTESIAN_POINT('',(0.,1.9,-42.));
#444=CARTESIAN_POINT('',(0.,6.2555558001119E-17,-38.8));
#445=CARTESIAN_POINT('',(0.,1.9,-38.8));
#446=CARTESIAN_POINT('',(0.,6.77147792795618E-17,-42.));
#447=CARTESIAN_POINT('',(0.,5.97980248056575E-17,-37.0896437758258));
#448=CARTESIAN_POINT('',(0.,2.20100904014693,-37.0896437758258));
#449=CARTESIAN_POINT('',(0.,0.,-39.6715574274765));
#450=CARTESIAN_POINT('',(0.,5.49779517484061E-17,-34.1));
#451=CARTESIAN_POINT('',(0.,3.,-34.1));
#452=CARTESIAN_POINT('',(0.,5.97980248056575E-17,-37.0896437758258));
#453=CARTESIAN_POINT('',(0.,1.12857965465935E-18,-0.7));
#454=CARTESIAN_POINT('',(0.,3.,-0.7));
#455=CARTESIAN_POINT('',(0.,6.77147792795618E-17,-42.));
#456=CARTESIAN_POINT('',(0.,-1.20370621524202E-32,0.));
#457=CARTESIAN_POINT('',(0.,2.3,3.70819029388076E-18));
#458=CARTESIAN_POINT('',(0.,1.12857965465935E-18,-0.7));
#459=CARTESIAN_POINT('',(0.,2.98927722948511E-36,-1.85409514694038E-18));
#460=CARTESIAN_POINT('',(0.,0.,0.));
#461=CARTESIAN_POINT('',(0.,0.,0.));
#462=MECHANICAL_DESIGN_GEOMETRIC_PRESENTATION_REPRESENTATION('',(#237,#238,
#239,#240,#241,#242,#243,#244,#245,#246,#247,#248,#249),#465);
#463=MECHANICAL_DESIGN_GEOMETRIC_PRESENTATION_REPRESENTATION('',(#250,#251,
#252,#253,#254),#466);
#464=(
GEOMETRIC_REPRESENTATION_CONTEXT(3)
GLOBAL_UNCERTAINTY_ASSIGNED_CONTEXT((#467))
GLOBAL_UNIT_ASSIGNED_CONTEXT((#475,#471,#470))
REPRESENTATION_CONTEXT('3188204','TOP_LEVEL_ASSEMBLY_PART')
);
#465=(
GEOMETRIC_REPRESENTATION_CONTEXT(3)
GLOBAL_UNCERTAINTY_ASSIGNED_CONTEXT((#468))
GLOBAL_UNIT_ASSIGNED_CONTEXT((#475,#471,#470))
REPRESENTATION_CONTEXT('CUT_3188204','COMPONENT_PART')
);
#466=(
GEOMETRIC_REPRESENTATION_CONTEXT(3)
GLOBAL_UNCERTAINTY_ASSIGNED_CONTEXT((#469))
GLOBAL_UNIT_ASSIGNED_CONTEXT((#475,#471,#470))
REPRESENTATION_CONTEXT('NOCUT_3188204','COMPONENT_PART')
);
#467=UNCERTAINTY_MEASURE_WITH_UNIT(LENGTH_MEASURE(2.E-5),#475,
'DISTANCE_ACCURACY_VALUE','Maximum Tolerance applied to model');
#468=UNCERTAINTY_MEASURE_WITH_UNIT(LENGTH_MEASURE(0.0254),#475,
'DISTANCE_ACCURACY_VALUE','Maximum Tolerance applied to model');
#469=UNCERTAINTY_MEASURE_WITH_UNIT(LENGTH_MEASURE(2.E-5),#475,
'DISTANCE_ACCURACY_VALUE','Maximum Tolerance applied to model');
#470=(
NAMED_UNIT(*)
SI_UNIT($,.STERADIAN.)
SOLID_ANGLE_UNIT()
);
#471=(
CONVERSION_BASED_UNIT('DEGREE',#473)
NAMED_UNIT(#472)
PLANE_ANGLE_UNIT()
);
#472=DIMENSIONAL_EXPONENTS(0.,0.,0.,0.,0.,0.,0.);
#473=PLANE_ANGLE_MEASURE_WITH_UNIT(PLANE_ANGLE_MEASURE(0.0174532925),#474);
#474=(
NAMED_UNIT(*)
PLANE_ANGLE_UNIT()
SI_UNIT($,.RADIAN.)
);
#475=(
LENGTH_UNIT()
NAMED_UNIT(*)
SI_UNIT(.MILLI.,.METRE.)
);
ENDSEC;
END-ISO-10303-21;
