  0
SECTION
  2
HEADER
  9
$ACADVER
  1
AC1015
  9
$ACADMAINTVER
 70
     6
  9
$DWGCODEPAGE
  3
ANSI_1252
  9
$INSBASE
 10
0.0
 20
0.0
 30
0.0
  9
$EXTMIN
 10
0.0
 20
0.0
 30
0.0
  9
$EXTMAX
 10
25.0
 20
35.0
 30
0.0
  9
$LIMMIN
 10
0.0
 20
0.0
  9
$LIMMAX
 10
420.0
 20
297.0
  9
$ORTHOMODE
 70
     0
  9
$REGENMODE
 70
     1
  9
$FILLMODE
 70
     1
  9
$QTEXTMODE
 70
     0
  9
$MIRRTEXT
 70
     1
  9
$LTSCALE
 40
4.75
  9
$ATTMODE
 70
     1
  9
$TEXTSIZE
 40
2.5
  9
$TRACEWID
 40
1.0
  9
$TEXTSTYLE
  7
Standard
  9
$CLAYER
  8
0
  9
$CELTYPE
  6
ByLayer
  9
$CECOLOR
 62
   256
  9
$CELTSCALE
 40
1.0
  9
$DISPSILH
 70
     0
  9
$DIMSCALE
 40
1.0
  9
$DIMASZ
 40
2.5
  9
$DIMEXO
 40
0.625
  9
$DIMDLI
 40
3.75
  9
$DIMRND
 40
0.0
  9
$DIMDLE
 40
0.0
  9
$DIMEXE
 40
1.25
  9
$DIMTP
 40
0.0
  9
$DIMTM
 40
0.0
  9
$DIMTXT
 40
2.5
  9
$DIMCEN
 40
2.5
  9
$DIMTSZ
 40
0.0
  9
$DIMTOL
 70
     0
  9
$DIMLIM
 70
     0
  9
$DIMTIH
 70
     0
  9
$DIMTOH
 70
     0
  9
$DIMSE1
 70
     0
  9
$DIMSE2
 70
     0
  9
$DIMTAD
 70
     1
  9
$DIMZIN
 70
     8
  9
$DIMBLK
  1

  9
$DIMASO
 70
     1
  9
$DIMSHO
 70
     1
  9
$DIMPOST
  1

  9
$DIMAPOST
  1

  9
$DIMALT
 70
     0
  9
$DIMALTD
 70
     3
  9
$DIMALTF
 40
0.03937007874016
  9
$DIMLFAC
 40
1.0
  9
$DIMTOFL
 70
     1
  9
$DIMTVP
 40
0.0
  9
$DIMTIX
 70
     0
  9
$DIMSOXD
 70
     0
  9
$DIMSAH
 70
     0
  9
$DIMBLK1
  1

  9
$DIMBLK2
  1

  9
$DIMSTYLE
  2
ISO-25
  9
$DIMCLRD
 70
     0
  9
$DIMCLRE
 70
     0
  9
$DIMCLRT
 70
     0
  9
$DIMTFAC
 40
1.0
  9
$DIMGAP
 40
0.625
  9
$DIMJUST
 70
     0
  9
$DIMSD1
 70
     0
  9
$DIMSD2
 70
     0
  9
$DIMTOLJ
 70
     0
  9
$DIMTZIN
 70
     8
  9
$DIMALTZ
 70
     0
  9
$DIMALTTZ
 70
     0
  9
$DIMUPT
 70
     0
  9
$DIMDEC
 70
     2
  9
$DIMTDEC
 70
     2
  9
$DIMALTU
 70
     2
  9
$DIMALTTD
 70
     3
  9
$DIMTXSTY
  7
Standard
  9
$DIMAUNIT
 70
     0
  9
$DIMADEC
 70
     0
  9
$DIMALTRND
 40
0.0
  9
$DIMAZIN
 70
     0
  9
$DIMDSEP
 70
    44
  9
$DIMATFIT
 70
     3
  9
$DIMFRAC
 70
     0
  9
$DIMLDRBLK
  1

  9
$DIMLUNIT
 70
     2
  9
$DIMLWD
 70
    -2
  9
$DIMLWE
 70
    -2
  9
$DIMTMOVE
 70
     0
  9
$LUNITS
 70
     2
  9
$LUPREC
 70
     4
  9
$SKETCHINC
 40
1.0
  9
$FILLETRAD
 40
10.0
  9
$AUNITS
 70
     0
  9
$AUPREC
 70
     0
  9
$MENU
  1
.
  9
$ELEVATION
 40
0.0
  9
$PELEVATION
 40
0.0
  9
$THICKNESS
 40
0.0
  9
$LIMCHECK
 70
     0
  9
$CHAMFERA
 40
10.0
  9
$CHAMFERB
 40
10.0
  9
$CHAMFERC
 40
20.0
  9
$CHAMFERD
 40
0.0
  9
$SKPOLY
 70
     0
  9
$TDCREATE
 40
2458578.088194444
  9
$TDUCREATE
 40
2458578.004861111
  9
$TDUPDATE
 40
2458578.091666667
  9
$TDUUPDATE
 40
2458578.008333333
  9
$TDINDWG
 40
0.0000000116
  9
$TDUSRTIMER
 40
0.0000000116
  9
$USRTIMER
 70
     1
  9
$ANGBASE
 50
0.0
  9
$ANGDIR
 70
     0
  9
$PDMODE
 70
     0
  9
$PDSIZE
 40
0.0
  9
$PLINEWID
 40
0.0
  9
$SPLFRAME
 70
     0
  9
$SPLINETYPE
 70
     6
  9
$SPLINESEGS
 70
     8
  9
$HANDSEED
  5
E0D
  9
$SURFTAB1
 70
     6
  9
$SURFTAB2
 70
     6
  9
$SURFTYPE
 70
     6
  9
$SURFU
 70
     6
  9
$SURFV
 70
     6
  9
$UCSBASE
  2

  9
$UCSNAME
  2

  9
$UCSORG
 10
0.0
 20
0.0
 30
0.0
  9
$UCSXDIR
 10
1.0
 20
0.0
 30
0.0
  9
$UCSYDIR
 10
0.0
 20
1.0
 30
0.0
  9
$UCSORTHOREF
  2

  9
$UCSORTHOVIEW
 70
     0
  9
$UCSORGTOP
 10
0.0
 20
0.0
 30
0.0
  9
$UCSORGBOTTOM
 10
0.0
 20
0.0
 30
0.0
  9
$UCSORGLEFT
 10
0.0
 20
0.0
 30
0.0
  9
$UCSORGRIGHT
 10
0.0
 20
0.0
 30
0.0
  9
$UCSORGFRONT
 10
0.0
 20
0.0
 30
0.0
  9
$UCSORGBACK
 10
0.0
 20
0.0
 30
0.0
  9
$PUCSBASE
  2

  9
$PUCSNAME
  2

  9
$PUCSORG
 10
0.0
 20
0.0
 30
0.0
  9
$PUCSXDIR
 10
1.0
 20
0.0
 30
0.0
  9
$PUCSYDIR
 10
0.0
 20
1.0
 30
0.0
  9
$PUCSORTHOREF
  2

  9
$PUCSORTHOVIEW
 70
     0
  9
$PUCSORGTOP
 10
0.0
 20
0.0
 30
0.0
  9
$PUCSORGBOTTOM
 10
0.0
 20
0.0
 30
0.0
  9
$PUCSORGLEFT
 10
0.0
 20
0.0
 30
0.0
  9
$PUCSORGRIGHT
 10
0.0
 20
0.0
 30
0.0
  9
$PUCSORGFRONT
 10
0.0
 20
0.0
 30
0.0
  9
$PUCSORGBACK
 10
0.0
 20
0.0
 30
0.0
  9
$USERI1
 70
     0
  9
$USERI2
 70
     0
  9
$USERI3
 70
     0
  9
$USERI4
 70
     0
  9
$USERI5
 70
     0
  9
$USERR1
 40
0.0
  9
$USERR2
 40
0.0
  9
$USERR3
 40
0.0
  9
$USERR4
 40
0.0
  9
$USERR5
 40
0.0
  9
$WORLDVIEW
 70
     1
  9
$SHADEDGE
 70
     3
  9
$SHADEDIF
 70
    70
  9
$TILEMODE
 70
     1
  9
$MAXACTVP
 70
    64
  9
$PINSBASE
 10
0.0
 20
0.0
 30
0.0
  9
$PLIMCHECK
 70
     0
  9
$PEXTMIN
 10
1.000000000000000E+20
 20
1.000000000000000E+20
 30
1.000000000000000E+20
  9
$PEXTMAX
 10
-1.000000000000000E+20
 20
-1.000000000000000E+20
 30
-1.000000000000000E+20
  9
$PLIMMIN
 10
0.0
 20
0.0
  9
$PLIMMAX
 10
420.0
 20
297.0
  9
$UNITMODE
 70
     0
  9
$VISRETAIN
 70
     1
  9
$PLINEGEN
 70
     0
  9
$PSLTSCALE
 70
     1
  9
$TREEDEPTH
 70
  3020
  9
$CMLSTYLE
  2
Standard
  9
$CMLJUST
 70
     0
  9
$CMLSCALE
 40
20.0
  9
$PROXYGRAPHICS
 70
     1
  9
$MEASUREMENT
 70
     1
  9
$CELWEIGHT
370
    -1
  9
$ENDCAPS
280
     0
  9
$JOINSTYLE
280
     0
  9
$LWDISPLAY
290
     0
  9
$INSUNITS
 70
     4
  9
$HYPERLINKBASE
  1

  9
$STYLESHEET
  1

  9
$XEDIT
290
     1
  9
$CEPSNTYPE
380
     0
  9
$PSTYLEMODE
290
     1
  9
$FINGERPRINTGUID
  2
{34B56436-41AD-43A8-B289-732EFF83FF06}
  9
$VERSIONGUID
  2
{FAEB1C32-E019-11D5-929B-00C0DF256EC4}
  9
$EXTNAMES
290
     1
  9
$PSVPSCALE
 40
0.0
  9
$OLESTARTUP
290
     0
  0
ENDSEC
  0
SECTION
  2
CLASSES
  0
CLASS
  1
ACDBDICTIONARYWDFLT
  2
AcDbDictionaryWithDefault
  3
ObjectDBX Classes
 90
        0
280
     0
281
     0
  0
CLASS
  1
VISUALSTYLE
  2
AcDbVisualStyle
  3
ObjectDBX Classes
 90
     4095
280
     0
281
     0
  0
CLASS
  1
MATERIAL
  2
AcDbMaterial
  3
ObjectDBX Classes
 90
     1153
280
     0
281
     0
  0
CLASS
  1
SCALE
  2
AcDbScale
  3
ObjectDBX Classes
 90
     1153
280
     0
281
     0
  0
CLASS
  1
DICTIONARYVAR
  2
AcDbDictionaryVar
  3
ObjectDBX Classes
 90
        0
280
     0
281
     0
  0
CLASS
  1
ACDBPLACEHOLDER
  2
AcDbPlaceHolder
  3
ObjectDBX Classes
 90
        0
280
     0
281
     0
  0
CLASS
  1
LAYOUT
  2
AcDbLayout
  3
ObjectDBX Classes
 90
        0
280
     0
281
     0
  0
ENDSEC
  0
SECTION
  2
TABLES
  0
TABLE
  2
VPORT
  5
8
330
0
100
AcDbSymbolTable
 70
     1
  0
VPORT
  5
29
330
8
100
AcDbSymbolTableRecord
100
AcDbViewportTableRecord
  2
*Active
 70
     0
 10
0.0
 20
0.0
 11
1.0
 21
1.0
 12
11.26
 22
4.5
 13
0.0
 23
0.0
 14
10.0
 24
10.0
 15
10.0
 25
10.0
 16
0.0
 26
0.0
 36
1.0
 17
0.0
 27
0.0
 37
0.0
 40
9.0
 41
2.503333333333333
 42
50.0
 43
0.0
 44
0.0
 50
0.0
 51
0.0
 71
     0
 72
   100
 73
     1
 74
     3
 75
     0
 76
     0
 77
     0
 78
     0
281
     0
 65
     1
110
0.0
120
0.0
130
0.0
111
1.0
121
0.0
131
0.0
112
0.0
122
1.0
132
0.0
 79
     0
146
0.0
  0
ENDTAB
  0
TABLE
  2
LTYPE
  5
5
330
0
100
AcDbSymbolTable
 70
    10
  0
LTYPE
  5
14
330
5
100
AcDbSymbolTableRecord
100
AcDbLinetypeTableRecord
  2
ByBlock
 70
     0
  3

 72
    65
 73
     0
 40
0.0
  0
LTYPE
  5
15
330
5
100
AcDbSymbolTableRecord
100
AcDbLinetypeTableRecord
  2
ByLayer
 70
     0
  3

 72
    65
 73
     0
 40
0.0
  0
LTYPE
  5
16
330
5
100
AcDbSymbolTableRecord
100
AcDbLinetypeTableRecord
  2
Continuous
 70
     0
  3
Solid line
 72
    65
 73
     0
 40
0.0
  0
LTYPE
  5
45
330
5
100
AcDbSymbolTableRecord
100
AcDbLinetypeTableRecord
  2
phl_thick
 70
     0
  3
THICK
 72
    65
 73
     0
 40
0.0
  0
LTYPE
  5
48D
330
5
100
AcDbSymbolTableRecord
100
AcDbLinetypeTableRecord
  2
CUT
 70
     0
  3
THICK
 72
    65
 73
     0
 40
0.0
  0
LTYPE
  5
494
330
5
100
AcDbSymbolTableRecord
100
AcDbLinetypeTableRecord
  2
NOCUT
 70
     0
  3
THICK
 72
    65
 73
     0
 40
0.0
  0
LTYPE
  5
49B
330
5
100
AcDbSymbolTableRecord
100
AcDbLinetypeTableRecord
  2
SK1
 70
     0
  3
THICK
 72
    65
 73
     0
 40
0.0
  0
LTYPE
  5
4A3
330
5
100
AcDbSymbolTableRecord
100
AcDbLinetypeTableRecord
  2
ls_SK2
 70
     0
  3
THIN
 72
    65
 73
     0
 40
0.0
  0
LTYPE
  5
54E
330
5
100
AcDbSymbolTableRecord
100
AcDbLinetypeTableRecord
  2
ls_2
 70
     0
  3
THIN
 72
    65
 73
     0
 40
0.0
  0
LTYPE
  5
6E2
330
5
100
AcDbSymbolTableRecord
100
AcDbLinetypeTableRecord
  2
ls_SK1
 70
     0
  3
THICK
 72
    65
 73
     0
 40
0.0
  0
LTYPE
  5
71C
330
5
100
AcDbSymbolTableRecord
100
AcDbLinetypeTableRecord
  2
LONGDASH_DASH
 70
     0
  3
THIN_DASHDOT
 72
    65
 73
     4
 40
0.85
 49
0.4
 74
     0
 49
-0.2
 74
     0
 49
0.05
 74
     0
 49
-0.2
 74
     0
  0
LTYPE
  5
721
330
5
100
AcDbSymbolTableRecord
100
AcDbLinetypeTableRecord
  2
ls1
 70
     0
  3
THICK
 72
    65
 73
     0
 40
0.0
  0
ENDTAB
  0
TABLE
  2
LAYER
  5
2
330
0
100
AcDbSymbolTable
 70
    10
  0
LAYER
  5
10
330
2
100
AcDbSymbolTableRecord
100
AcDbLayerTableRecord
  2
0
 70
     0
 62
     7
  6
Continuous
370
    -3
390
F
  0
LAYER
  5
44
330
2
100
AcDbSymbolTableRecord
100
AcDbLayerTableRecord
  2
1
 70
     0
 62
4
  6
CONTINUOUS
370
50
370
    -3
390
F
  0
LAYER
  5
48C
330
2
100
AcDbSymbolTableRecord
100
AcDbLayerTableRecord
  2
CUT
 70
     0
 62
1
  6
CONTINUOUS
370
25
370
    -3
390
F
  0
LAYER
  5
493
330
2
100
AcDbSymbolTableRecord
100
AcDbLayerTableRecord
  2
NOCUT
 70
     0
 62
7
  6
CONTINUOUS
370
25
370
    -3
390
F
  0
LAYER
  5
49A
330
2
100
AcDbSymbolTableRecord
100
AcDbLayerTableRecord
  2
SK1
 70
     0
 62
4
  6
CONTINUOUS
370
50
370
    -3
390
F
  0
LAYER
  5
4A2
330
2
100
AcDbSymbolTableRecord
100
AcDbLayerTableRecord
  2
SK2
 70
     0
 62
7
  6
CONTINUOUS
370
25
370
    -3
390
F
  0
LAYER
  5
54D
330
2
100
AcDbSymbolTableRecord
100
AcDbLayerTableRecord
  2
2
 70
     0
 62
7
  6
CONTINUOUS
370
25
370
    -3
390
F
  0
LAYER
  5
71B
330
2
100
AcDbSymbolTableRecord
100
AcDbLayerTableRecord
  2
4
 70
     0
 62
2
  6
LONGDASH_DASH
370
25
370
    -3
390
F
  0
LAYER
  5
71E
330
2
100
AcDbSymbolTableRecord
100
AcDbLayerTableRecord
  2
SK4
 70
     0
 62
2
  6
LONGDASH_DASH
370
25
370
    -3
390
F
  0
LAYER
  5
720
330
2
100
AcDbSymbolTableRecord
100
AcDbLayerTableRecord
  2
SK6
 70
     0
 62
5
  6
CONTINUOUS
370
25
370
    -3
390
F
  0
ENDTAB
  0
TABLE
  2
STYLE
  5
3
330
0
100
AcDbSymbolTable
 70
     1
  0
STYLE
  5
11
330
3
100
AcDbSymbolTableRecord
100
AcDbTextStyleTableRecord
  2
Standard
 70
     0
 40
0.0
 41
1.0
 50
0.0
 71
     0
 42
2.5
  3
Monospac821 BT
  4

  0
ENDTAB
  0
TABLE
  2
VIEW
  5
6
330
0
100
AcDbSymbolTable
 70
     0
  0
ENDTAB
  0
TABLE
  2
UCS
  5
7
330
0
100
AcDbSymbolTable
 70
     0
  0
ENDTAB
  0
TABLE
  2
APPID
  5
9
330
0
100
AcDbSymbolTable
 70
     2
  0
APPID
  5
12
330
9
100
AcDbSymbolTableRecord
100
AcDbRegAppTableRecord
  2
ACAD
 70
     0
  0
APPID
  5
3F
330
9
100
AcDbSymbolTableRecord
100
AcDbRegAppTableRecord
  2
ccLab
 70
     0
  0
ENDTAB
  0
TABLE
  2
DIMSTYLE
  5
A
330
0
100
AcDbSymbolTable
 70
     1
100
AcDbDimStyleTable
  0
DIMSTYLE
105
27
330
A
100
AcDbSymbolTableRecord
100
AcDbDimStyleTableRecord
  2
ISO-25
 70
     0
 41
2.5
 42
0.625
 43
3.75
 44
1.25
 73
     0
 74
     0
 77
     1
 78
     8
140
2.5
141
2.5
143
0.03937007874016
147
0.625
171
     3
172
     1
271
     2
272
     2
274
     3
278
    44
283
     0
284
     8
340
11
  0
ENDTAB
  0
TABLE
  2
BLOCK_RECORD
  5
1
330
0
100
AcDbSymbolTable
 70
     2
  0
BLOCK_RECORD
  5
1F
330
1
100
AcDbSymbolTableRecord
100
AcDbBlockTableRecord
  2
*Model_Space
340
22
  0
BLOCK_RECORD
  5
1B
330
1
100
AcDbSymbolTableRecord
100
AcDbBlockTableRecord
  2
*Paper_Space
340
1E
  0
BLOCK_RECORD
  5
23
330
1
100
AcDbSymbolTableRecord
100
AcDbBlockTableRecord
  2
*Paper_Space0
340
26
  0
ENDTAB
  0
ENDSEC
  0
SECTION
  2
BLOCKS
  0
BLOCK
  5
20
330
1F
100
AcDbEntity
  8
0
100
AcDbBlockBegin
  2
*Model_Space
 70
     0
 10
0.0
 20
0.0
 30
0.0
  3
*Model_Space
  1

  0
ENDBLK
  5
21
330
1F
100
AcDbEntity
  8
0
100
AcDbBlockEnd
  0
BLOCK
  5
1C
330
1B
100
AcDbEntity
 67
     1
  8
0
100
AcDbBlockBegin
  2
*Paper_Space
 70
     0
 10
0.0
 20
0.0
 30
0.0
  3
*Paper_Space
  1

  0
ENDBLK
  5
1D
330
1B
100
AcDbEntity
 67
     1
  8
0
100
AcDbBlockEnd
  0
BLOCK
  5
24
330
23
100
AcDbEntity
  8
0
100
AcDbBlockBegin
  2
*Paper_Space0
 70
     0
 10
0.0
 20
0.0
 30
0.0
  3
*Paper_Space0
  1

  0
ENDBLK
  5
25
330
23
100
AcDbEntity
  8
0
100
AcDbBlockEnd
  0
ENDSEC
  0
SECTION
  2
ENTITIES
  0
LINE
  5
72B
330
1F
100
AcDbEntity
  8
1
  6
CONTINUOUS
370
50
 62
4
100
AcDbLine
 10
78.087547
 20
2.003211
 30
0.0
 11
78.087334
 21
2.060615
 31
0.0
  0
LINE
  5
72C
330
1F
100
AcDbEntity
  8
1
  6
CONTINUOUS
370
50
 62
4
100
AcDbLine
 10
52.526722
 20
-5.330671
 30
0.0
 11
52.526276
 21
-5.30138
 31
0.0
  0
LINE
  5
72D
330
1F
100
AcDbEntity
  8
1
  6
CONTINUOUS
370
50
 62
4
100
AcDbLine
 10
79.397499
 20
-0.869489
 30
0.0
 11
79.39344799999999
 21
-0.670785
 31
0.0
  0
LINE
  5
72E
330
1F
100
AcDbEntity
  8
1
  6
CONTINUOUS
370
50
 62
4
100
AcDbLine
 10
79.40624199999999
 20
-1.07587
 30
0.0
 11
79.397499
 21
-0.869489
 31
0.0
  0
LINE
  5
72F
330
1F
100
AcDbEntity
  8
1
  6
CONTINUOUS
370
50
 62
4
100
AcDbLine
 10
78.087334
 20
2.060615
 30
0.0
 11
78.084801
 21
2.117593
 31
0.0
  0
LINE
  5
730
330
1F
100
AcDbEntity
  8
1
  6
CONTINUOUS
370
50
 62
4
100
AcDbLine
 10
52.528996
 20
0.371538
 30
0.0
 11
52.52556999999999
 21
0.442253
 31
0.0
  0
LINE
  5
731
330
1F
100
AcDbEntity
  8
1
  6
CONTINUOUS
370
50
 62
4
100
AcDbLine
 10
79.41321599999999
 20
-0.125354
 30
0.0
 11
79.409241
 21
-0.060315
 31
0.0
  0
LINE
  5
732
330
1F
100
AcDbEntity
  8
1
  6
CONTINUOUS
370
50
 62
4
100
AcDbLine
 10
79.41973899999999
 20
-1.289644
 30
0.0
 11
79.40624199999999
 21
-1.07587
 31
0.0
  0
LINE
  5
733
330
1F
100
AcDbEntity
  8
1
  6
CONTINUOUS
370
50
 62
4
100
AcDbLine
 10
79.409241
 20
-0.060315
 30
0.0
 11
79.403999
 21
0.006316
 31
0.0
  0
LINE
  5
734
330
1F
100
AcDbEntity
  8
1
  6
CONTINUOUS
370
50
 62
4
100
AcDbLine
 10
79.437973
 20
-1.509693
 30
0.0
 11
79.41973899999999
 21
-1.289644
 31
0.0
  0
LINE
  5
735
330
1F
100
AcDbEntity
  8
1
  6
CONTINUOUS
370
50
 62
4
100
AcDbLine
 10
78.084801
 20
2.117593
 30
0.0
 11
78.07996399999999
 21
2.174048
 31
0.0
  0
LINE
  5
736
330
1F
100
AcDbEntity
  8
1
  6
CONTINUOUS
370
50
 62
4
100
AcDbLine
 10
79.403999
 20
0.006316
 30
0.0
 11
79.397545
 21
0.074303
 31
0.0
  0
LINE
  5
737
330
1F
100
AcDbEntity
  8
1
  6
CONTINUOUS
370
50
 62
4
100
AcDbLine
 10
79.460754
 20
-1.733656
 30
0.0
 11
79.437973
 21
-1.509693
 31
0.0
  0
LINE
  5
738
330
1F
100
AcDbEntity
  8
1
  6
CONTINUOUS
370
50
 62
4
100
AcDbLine
 10
79.397545
 20
0.074303
 30
0.0
 11
79.389954
 21
0.143414
 31
0.0
  0
LINE
  5
739
330
1F
100
AcDbEntity
  8
1
  6
CONTINUOUS
370
50
 62
4
100
AcDbLine
 10
79.48795299999999
 20
-1.960927
 30
0.0
 11
79.460754
 21
-1.733656
 31
0.0
  0
LINE
  5
73A
330
1F
100
AcDbEntity
  8
1
  6
CONTINUOUS
370
50
 62
4
100
AcDbLine
 10
79.389954
 20
0.143414
 30
0.0
 11
79.381287
 21
0.213415
 31
0.0
  0
LINE
  5
73B
330
1F
100
AcDbEntity
  8
1
  6
CONTINUOUS
370
50
 62
4
100
AcDbLine
 10
78.07996399999999
 20
2.174048
 30
0.0
 11
78.072876
 21
2.229883
 31
0.0
  0
LINE
  5
73C
330
1F
100
AcDbEntity
  8
1
  6
CONTINUOUS
370
50
 62
4
100
AcDbLine
 10
52.53847099999999
 20
0.301346
 30
0.0
 11
52.528996
 21
0.371538
 31
0.0
  0
LINE
  5
73D
330
1F
100
AcDbEntity
  8
1
  6
CONTINUOUS
370
50
 62
4
100
AcDbLine
 10
79.381287
 20
0.213415
 30
0.0
 11
79.371613
 21
0.284091
 31
0.0
  0
LINE
  5
73E
330
1F
100
AcDbEntity
  8
1
  6
CONTINUOUS
370
50
 62
4
100
AcDbLine
 10
79.51947
 20
-2.190977
 30
0.0
 11
79.48795299999999
 21
-1.960927
 31
0.0
  0
LINE
  5
73F
330
1F
100
AcDbEntity
  8
1
  6
CONTINUOUS
370
50
 62
4
100
AcDbLine
 10
79.371613
 20
0.284091
 30
0.0
 11
79.360985
 21
0.355266
 31
0.0
  0
LINE
  5
740
330
1F
100
AcDbEntity
  8
1
  6
CONTINUOUS
370
50
 62
4
100
AcDbLine
 10
79.555191
 20
-2.423278
 30
0.0
 11
79.51947
 21
-2.190977
 31
0.0
  0
LINE
  5
741
330
1F
100
AcDbEntity
  8
1
  6
CONTINUOUS
370
50
 62
4
100
AcDbLine
 10
78.072876
 20
2.229883
 30
0.0
 11
78.06354499999999
 21
2.285001
 31
0.0
  0
LINE
  5
742
330
1F
100
AcDbEntity
  8
1
  6
CONTINUOUS
370
50
 62
4
100
AcDbLine
 10
79.595001
 20
-2.6573
 30
0.0
 11
79.555191
 21
-2.423278
 31
0.0
  0
LINE
  5
743
330
1F
100
AcDbEntity
  8
1
  6
CONTINUOUS
370
50
 62
4
100
AcDbLine
 10
79.467682
 20
-4.681004
 30
0.0
 11
79.442123
 21
-4.532299
 31
0.0
  0
LINE
  5
744
330
1F
100
AcDbEntity
  8
1
  6
CONTINUOUS
370
50
 62
4
100
AcDbLine
 10
79.638733
 20
-2.892174
 30
0.0
 11
79.595001
 21
-2.6573
 31
0.0
  0
LINE
  5
745
330
1F
100
AcDbEntity
  8
1
  6
CONTINUOUS
370
50
 62
4
100
AcDbLine
 10
79.685959
 20
-3.125931
 30
0.0
 11
79.638733
 21
-2.892174
 31
0.0
  0
LINE
  5
746
330
1F
100
AcDbEntity
  8
1
  6
CONTINUOUS
370
50
 62
4
100
AcDbLine
 10
78.06354499999999
 20
2.285001
 30
0.0
 11
78.05201699999999
 21
2.339303
 31
0.0
  0
LINE
  5
747
330
1F
100
AcDbEntity
  8
1
  6
CONTINUOUS
370
50
 62
4
100
AcDbLine
 10
79.73644999999999
 20
-3.357917
 30
0.0
 11
79.685959
 21
-3.125931
 31
0.0
  0
LINE
  5
748
330
1F
100
AcDbEntity
  8
1
  6
CONTINUOUS
370
50
 62
4
100
AcDbLine
 10
52.5536
 20
0.232327
 30
0.0
 11
52.53847099999999
 21
0.301346
 31
0.0
  0
LINE
  5
749
330
1F
100
AcDbEntity
  8
1
  6
CONTINUOUS
370
50
 62
4
100
AcDbLine
 10
79.498299
 20
-4.815049999999999
 30
0.0
 11
79.467682
 21
-4.681004
 31
0.0
  0
LINE
  5
74A
330
1F
100
AcDbEntity
  8
1
  6
CONTINUOUS
370
50
 62
4
100
AcDbLine
 10
79.790016
 20
-3.587646
 30
0.0
 11
79.73644999999999
 21
-3.357917
 31
0.0
  0
LINE
  5
74B
330
1F
100
AcDbEntity
  8
1
  6
CONTINUOUS
370
50
 62
4
100
AcDbLine
 10
79.84646599999999
 20
-3.814608
 30
0.0
 11
79.790016
 21
-3.587646
 31
0.0
  0
LINE
  5
74C
330
1F
100
AcDbEntity
  8
1
  6
CONTINUOUS
370
50
 62
4
100
AcDbLine
 10
78.05201699999999
 20
2.339303
 30
0.0
 11
78.038315
 21
2.392693
 31
0.0
  0
LINE
  5
74D
330
1F
100
AcDbEntity
  8
1
  6
CONTINUOUS
370
50
 62
4
100
AcDbLine
 10
79.905441
 20
-4.037718
 30
0.0
 11
79.84646599999999
 21
-3.814608
 31
0.0
  0
LINE
  5
74E
330
1F
100
AcDbEntity
  8
1
  6
CONTINUOUS
370
50
 62
4
100
AcDbLine
 10
77.78707899999999
 20
4.854964
 30
0.0
 11
77.759712
 21
4.958117
 31
0.0
  0
LINE
  5
74F
330
1F
100
AcDbEntity
  8
1
  6
CONTINUOUS
370
50
 62
4
100
AcDbLine
 10
77.81502499999999
 20
4.751564999999999
 30
0.0
 11
77.78707899999999
 21
4.854964
 31
0.0
  0
LINE
  5
750
330
1F
100
AcDbEntity
  8
1
  6
CONTINUOUS
370
50
 62
4
100
AcDbLine
 10
52.534477
 20
-5.359027999999999
 30
0.0
 11
52.526722
 21
-5.330671
 31
0.0
  0
LINE
  5
751
330
1F
100
AcDbEntity
  8
1
  6
CONTINUOUS
370
50
 62
4
100
AcDbLine
 10
77.843567
 20
4.647940999999999
 30
0.0
 11
77.81502499999999
 21
4.751564999999999
 31
0.0
  0
LINE
  5
752
330
1F
100
AcDbEntity
  8
1
  6
CONTINUOUS
370
50
 62
4
100
AcDbLine
 10
79.96665999999999
 20
-4.256311
 30
0.0
 11
79.905441
 21
-4.037718
 31
0.0
  0
LINE
  5
753
330
1F
100
AcDbEntity
  8
1
  6
CONTINUOUS
370
50
 62
4
100
AcDbLine
 10
77.872711
 20
4.544118
 30
0.0
 11
77.843567
 21
4.647940999999999
 31
0.0
  0
LINE
  5
754
330
1F
100
AcDbEntity
  8
1
  6
CONTINUOUS
370
50
 62
4
100
AcDbLine
 10
77.90246599999999
 20
4.440119
 30
0.0
 11
77.872711
 21
4.544118
 31
0.0
  0
LINE
  5
755
330
1F
100
AcDbEntity
  8
1
  6
CONTINUOUS
370
50
 62
4
100
AcDbLine
 10
77.932846
 20
4.335969
 30
0.0
 11
77.90246599999999
 21
4.440119
 31
0.0
  0
LINE
  5
756
330
1F
100
AcDbEntity
  8
1
  6
CONTINUOUS
370
50
 62
4
100
AcDbLine
 10
52.531006
 20
5.567101
 30
0.0
 11
52.525867
 21
5.584567
 31
0.0
  0
LINE
  5
757
330
1F
100
AcDbEntity
  8
1
  6
CONTINUOUS
370
50
 62
4
100
AcDbLine
 10
79.533836
 20
-4.934273999999999
 30
0.0
 11
79.498299
 21
-4.815049999999999
 31
0.0
  0
LINE
  5
758
330
1F
100
AcDbEntity
  8
1
  6
CONTINUOUS
370
50
 62
4
100
AcDbLine
 10
52.57398999999999
 20
0.164611
 30
0.0
 11
52.5536
 21
0.232327
 31
0.0
  0
LINE
  5
759
330
1F
100
AcDbEntity
  8
1
  6
CONTINUOUS
370
50
 62
4
100
AcDbLine
 10
78.038315
 20
2.392693
 30
0.0
 11
78.022476
 21
2.445072
 31
0.0
  0
LINE
  5
75A
330
1F
100
AcDbEntity
  8
1
  6
CONTINUOUS
370
50
 62
4
100
AcDbLine
 10
77.79214499999999
 20
3.120519
 30
0.0
 11
77.759712
 21
3.226927
 31
0.0
  0
LINE
  5
75B
330
1F
100
AcDbEntity
  8
1
  6
CONTINUOUS
370
50
 62
4
100
AcDbLine
 10
77.825401
 20
3.01468
 30
0.0
 11
77.79214499999999
 21
3.120519
 31
0.0
  0
LINE
  5
75C
330
1F
100
AcDbEntity
  8
1
  6
CONTINUOUS
370
50
 62
4
100
AcDbLine
 10
77.859489
 20
2.909477
 30
0.0
 11
77.825401
 21
3.01468
 31
0.0
  0
LINE
  5
75D
330
1F
100
AcDbEntity
  8
1
  6
CONTINUOUS
370
50
 62
4
100
AcDbLine
 10
77.894432
 20
2.804976
 30
0.0
 11
77.859489
 21
2.909477
 31
0.0
  0
LINE
  5
75E
330
1F
100
AcDbEntity
  8
1
  6
CONTINUOUS
370
50
 62
4
100
AcDbLine
 10
77.930244
 20
2.701243
 30
0.0
 11
77.894432
 21
2.804976
 31
0.0
  0
LINE
  5
75F
330
1F
100
AcDbEntity
  8
1
  6
CONTINUOUS
370
50
 62
4
100
AcDbLine
 10
78.022476
 20
2.445072
 30
0.0
 11
78.004532
 21
2.496345
 31
0.0
  0
LINE
  5
760
330
1F
100
AcDbEntity
  8
1
  6
CONTINUOUS
370
50
 62
4
100
AcDbLine
 10
77.966934
 20
2.598344
 30
0.0
 11
77.930244
 21
2.701243
 31
0.0
  0
LINE
  5
761
330
1F
100
AcDbEntity
  8
1
  6
CONTINUOUS
370
50
 62
4
100
AcDbLine
 10
78.004532
 20
2.496345
 30
0.0
 11
77.966934
 21
2.598344
 31
0.0
  0
LINE
  5
762
330
1F
100
AcDbEntity
  8
1
  6
CONTINUOUS
370
50
 62
4
100
AcDbLine
 10
52.599255
 20
0.098326
 30
0.0
 11
52.57398999999999
 21
0.164611
 31
0.0
  0
LINE
  5
763
330
1F
100
AcDbEntity
  8
1
  6
CONTINUOUS
370
50
 62
4
100
AcDbLine
 10
79.574165
 20
-5.038513
 30
0.0
 11
79.533836
 21
-4.934273999999999
 31
0.0
  0
LINE
  5
764
330
1F
100
AcDbEntity
  8
1
  6
CONTINUOUS
370
50
 62
4
100
AcDbLine
 10
79.96665999999999
 20
2.706609
 30
0.0
 11
79.896339
 21
2.864711
 31
0.0
  0
LINE
  5
765
330
1F
100
AcDbEntity
  8
1
  6
CONTINUOUS
370
50
 62
4
100
AcDbLine
 10
78.07296
 20
4.264851999999999
 30
0.0
 11
77.759712
 21
4.958117
 31
0.0
  0
LINE
  5
766
330
1F
100
AcDbEntity
  8
1
  6
CONTINUOUS
370
50
 62
4
100
AcDbLine
 10
52.629009
 20
0.033604
 30
0.0
 11
52.599255
 21
0.098326
 31
0.0
  0
LINE
  5
767
330
1F
100
AcDbEntity
  8
1
  6
CONTINUOUS
370
50
 62
4
100
AcDbLine
 10
79.896339
 20
2.864711
 30
0.0
 11
79.82904099999999
 21
3.009627
 31
0.0
  0
LINE
  5
768
330
1F
100
AcDbEntity
  8
1
  6
CONTINUOUS
370
50
 62
4
100
AcDbLine
 10
79.82904099999999
 20
3.009627
 30
0.0
 11
79.76525099999999
 21
3.140058
 31
0.0
  0
LINE
  5
769
330
1F
100
AcDbEntity
  8
1
  6
CONTINUOUS
370
50
 62
4
100
AcDbLine
 10
79.619141
 20
-5.127597
 30
0.0
 11
79.574165
 21
-5.038513
 31
0.0
  0
LINE
  5
76A
330
1F
100
AcDbEntity
  8
1
  6
CONTINUOUS
370
50
 62
4
100
AcDbLine
 10
79.76525099999999
 20
3.140058
 30
0.0
 11
79.70541399999999
 21
3.254946
 31
0.0
  0
LINE
  5
76B
330
1F
100
AcDbEntity
  8
1
  6
CONTINUOUS
370
50
 62
4
100
AcDbLine
 10
52.549084
 20
-5.385954
 30
0.0
 11
52.534477
 21
-5.359027999999999
 31
0.0
  0
LINE
  5
76C
330
1F
100
AcDbEntity
  8
1
  6
CONTINUOUS
370
50
 62
4
100
AcDbLine
 10
79.70541399999999
 20
3.254946
 30
0.0
 11
79.64980299999999
 21
3.353514
 31
0.0
  0
LINE
  5
76D
330
1F
100
AcDbEntity
  8
1
  6
CONTINUOUS
370
50
 62
4
100
AcDbLine
 10
52.542191
 20
5.549009
 30
0.0
 11
52.531006
 21
5.567101
 31
0.0
  0
LINE
  5
76E
330
1F
100
AcDbEntity
  8
1
  6
CONTINUOUS
370
50
 62
4
100
AcDbLine
 10
79.64980299999999
 20
3.353514
 30
0.0
 11
79.598747
 21
3.434958
 31
0.0
  0
LINE
  5
76F
330
1F
100
AcDbEntity
  8
1
  6
CONTINUOUS
370
50
 62
4
100
AcDbLine
 10
79.668343
 20
-5.201004999999999
 30
0.0
 11
79.619141
 21
-5.127597
 31
0.0
  0
LINE
  5
770
330
1F
100
AcDbEntity
  8
1
  6
CONTINUOUS
370
50
 62
4
100
AcDbLine
 10
79.995689
 20
0.006213
 30
0.0
 11
77.759712
 21
3.226927
 31
0.0
  0
LINE
  5
771
330
1F
100
AcDbEntity
  8
1
  6
CONTINUOUS
370
50
 62
4
100
AcDbLine
 10
79.598747
 20
3.434958
 30
0.0
 11
79.55283399999999
 21
3.498128
 31
0.0
  0
LINE
  5
772
330
1F
100
AcDbEntity
  8
1
  6
CONTINUOUS
370
50
 62
4
100
AcDbLine
 10
53.86042399999999
 20
-1.540802
 30
0.0
 11
53.69194
 21
-1.31753
 31
0.0
  0
LINE
  5
773
330
1F
100
AcDbEntity
  8
1
  6
CONTINUOUS
370
50
 62
4
100
AcDbLine
 10
53.69194
 20
-1.31753
 30
0.0
 11
53.523579
 21
-1.094705
 31
0.0
  0
LINE
  5
774
330
1F
100
AcDbEntity
  8
1
  6
CONTINUOUS
370
50
 62
4
100
AcDbLine
 10
54.02977
 20
-1.764158
 30
0.0
 11
53.86042399999999
 21
-1.540802
 31
0.0
  0
LINE
  5
775
330
1F
100
AcDbEntity
  8
1
  6
CONTINUOUS
370
50
 62
4
100
AcDbLine
 10
53.523579
 20
-1.094705
 30
0.0
 11
53.354595
 21
-0.87269
 31
0.0
  0
LINE
  5
776
330
1F
100
AcDbEntity
  8
1
  6
CONTINUOUS
370
50
 62
4
100
AcDbLine
 10
54.200729
 20
-1.987234
 30
0.0
 11
54.02977
 21
-1.764158
 31
0.0
  0
LINE
  5
777
330
1F
100
AcDbEntity
  8
1
  6
CONTINUOUS
370
50
 62
4
100
AcDbLine
 10
53.354595
 20
-0.87269
 30
0.0
 11
53.184242
 21
-0.651848
 31
0.0
  0
LINE
  5
778
330
1F
100
AcDbEntity
  8
1
  6
CONTINUOUS
370
50
 62
4
100
AcDbLine
 10
54.37398899999999
 20
-2.209587
 30
0.0
 11
54.200729
 21
-1.987234
 31
0.0
  0
LINE
  5
779
330
1F
100
AcDbEntity
  8
1
  6
CONTINUOUS
370
50
 62
4
100
AcDbLine
 10
53.184242
 20
-0.651848
 30
0.0
 11
53.011776
 21
-0.432544
 31
0.0
  0
LINE
  5
77A
330
1F
100
AcDbEntity
  8
1
  6
CONTINUOUS
370
50
 62
4
100
AcDbLine
 10
54.547871
 20
-2.427645
 30
0.0
 11
54.37398899999999
 21
-2.209587
 31
0.0
  0
LINE
  5
77B
330
1F
100
AcDbEntity
  8
1
  6
CONTINUOUS
370
50
 62
4
100
AcDbLine
 10
44.0
 20
5.74995
 30
0.0
 11
43.799999
 21
5.99995
 31
0.0
  0
LINE
  5
77C
330
1F
100
AcDbEntity
  8
1
  6
CONTINUOUS
370
50
 62
4
100
AcDbLine
 10
53.011776
 20
-0.432544
 30
0.0
 11
52.83645199999999
 21
-0.215139
 31
0.0
  0
LINE
  5
77D
330
1F
100
AcDbEntity
  8
1
  6
CONTINUOUS
370
50
 62
4
100
AcDbLine
 10
54.72181699999999
 20
-2.639563
 30
0.0
 11
54.547871
 21
-2.427645
 31
0.0
  0
LINE
  5
77E
330
1F
100
AcDbEntity
  8
1
  6
CONTINUOUS
370
50
 62
4
100
AcDbLine
 10
52.570042
 20
-5.411430999999999
 30
0.0
 11
52.549084
 21
-5.385954
 31
0.0
  0
LINE
  5
77F
330
1F
100
AcDbEntity
  8
1
  6
CONTINUOUS
370
50
 62
4
100
AcDbLine
 10
52.83645199999999
 20
-0.215139
 30
0.0
 11
52.657524
 21
0.000001
 31
0.0
  0
LINE
  5
780
330
1F
100
AcDbEntity
  8
1
  6
CONTINUOUS
370
50
 62
4
100
AcDbLine
 10
52.657524
 20
0.000001
 30
0.0
 11
52.653458
 21
0.004805
 31
0.0
  0
LINE
  5
781
330
1F
100
AcDbEntity
  8
1
  6
CONTINUOUS
370
50
 62
4
100
AcDbLine
 10
52.649387
 20
0.009608
 30
0.0
 11
52.645317
 21
0.01441
 31
0.0
  0
LINE
  5
782
330
1F
100
AcDbEntity
  8
1
  6
CONTINUOUS
370
50
 62
4
100
AcDbLine
 10
52.653458
 20
0.004805
 30
0.0
 11
52.649387
 21
0.009608
 31
0.0
  0
LINE
  5
783
330
1F
100
AcDbEntity
  8
1
  6
CONTINUOUS
370
50
 62
4
100
AcDbLine
 10
52.645317
 20
0.01441
 30
0.0
 11
52.641243
 21
0.019211
 31
0.0
  0
LINE
  5
784
330
1F
100
AcDbEntity
  8
1
  6
CONTINUOUS
370
50
 62
4
100
AcDbLine
 10
54.89652599999999
 20
-2.845256
 30
0.0
 11
54.72181699999999
 21
-2.639563
 31
0.0
  0
LINE
  5
785
330
1F
100
AcDbEntity
  8
1
  6
CONTINUOUS
370
50
 62
4
100
AcDbLine
 10
52.641243
 20
0.019211
 30
0.0
 11
52.637165
 21
0.02401
 31
0.0
  0
LINE
  5
786
330
1F
100
AcDbEntity
  8
1
  6
CONTINUOUS
370
50
 62
4
100
AcDbLine
 10
52.637165
 20
0.02401
 30
0.0
 11
52.629009
 21
0.033604
 31
0.0
  0
LINE
  5
787
330
1F
100
AcDbEntity
  8
1
  6
CONTINUOUS
370
50
 62
4
100
AcDbLine
 10
55.072701
 20
-3.04464
 30
0.0
 11
54.89652599999999
 21
-2.845256
 31
0.0
  0
LINE
  5
788
330
1F
100
AcDbEntity
  8
1
  6
CONTINUOUS
370
50
 62
4
100
AcDbLine
 10
52.55902099999999
 20
5.53043
 30
0.0
 11
52.542191
 21
5.549009
 31
0.0
  0
LINE
  5
789
330
1F
100
AcDbEntity
  8
1
  6
CONTINUOUS
370
50
 62
4
100
AcDbLine
 10
79.55283399999999
 20
3.498128
 30
0.0
 11
79.51235199999999
 21
3.5425
 31
0.0
  0
LINE
  5
78A
330
1F
100
AcDbEntity
  8
1
  6
CONTINUOUS
370
50
 62
4
100
AcDbLine
 10
79.72139
 20
-5.258673
 30
0.0
 11
79.668343
 21
-5.201004999999999
 31
0.0
  0
LINE
  5
78B
330
1F
100
AcDbEntity
  8
1
  6
CONTINUOUS
370
50
 62
4
100
AcDbLine
 10
55.251034
 20
-3.237628
 30
0.0
 11
55.072701
 21
-3.04464
 31
0.0
  0
LINE
  5
78C
330
1F
100
AcDbEntity
  8
1
  6
CONTINUOUS
370
50
 62
4
100
AcDbLine
 10
55.432232
 20
-3.424135
 30
0.0
 11
55.251034
 21
-3.237628
 31
0.0
  0
LINE
  5
78D
330
1F
100
AcDbEntity
  8
1
  6
CONTINUOUS
370
50
 62
4
100
AcDbLine
 10
55.584267
 20
3.180579
 30
0.0
 11
55.384201
 21
3.383964
 31
0.0
  0
LINE
  5
78E
330
1F
100
AcDbEntity
  8
1
  6
CONTINUOUS
370
50
 62
4
100
AcDbLine
 10
55.789234
 20
2.972678
 30
0.0
 11
55.584267
 21
3.180579
 31
0.0
  0
LINE
  5
78F
330
1F
100
AcDbEntity
  8
1
  6
CONTINUOUS
370
50
 62
4
100
AcDbLine
 10
55.384201
 20
3.383964
 30
0.0
 11
55.188129
 21
3.582434
 31
0.0
  0
LINE
  5
790
330
1F
100
AcDbEntity
  8
1
  6
CONTINUOUS
370
50
 62
4
100
AcDbLine
 10
56.0
 20
2.760661
 30
0.0
 11
55.789234
 21
2.972678
 31
0.0
  0
LINE
  5
791
330
1F
100
AcDbEntity
  8
1
  6
CONTINUOUS
370
50
 62
4
100
AcDbLine
 10
55.188129
 20
3.582434
 30
0.0
 11
54.995159
 21
3.775589
 31
0.0
  0
LINE
  5
792
330
1F
100
AcDbEntity
  8
1
  6
CONTINUOUS
370
50
 62
4
100
AcDbLine
 10
54.995159
 20
3.775589
 30
0.0
 11
54.804379
 21
3.963029
 31
0.0
  0
LINE
  5
793
330
1F
100
AcDbEntity
  8
1
  6
CONTINUOUS
370
50
 62
4
100
AcDbLine
 10
55.616989
 20
-3.604076
 30
0.0
 11
55.432232
 21
-3.424135
 31
0.0
  0
LINE
  5
794
330
1F
100
AcDbEntity
  8
1
  6
CONTINUOUS
370
50
 62
4
100
AcDbLine
 10
54.804379
 20
3.963029
 30
0.0
 11
54.61489899999999
 21
4.144355
 31
0.0
  0
LINE
  5
795
330
1F
100
AcDbEntity
  8
1
  6
CONTINUOUS
370
50
 62
4
100
AcDbLine
 10
73.94612099999999
 20
-0.016684
 30
0.0
 11
73.940224
 21
-0.011096
 31
0.0
  0
LINE
  5
796
330
1F
100
AcDbEntity
  8
1
  6
CONTINUOUS
370
50
 62
4
100
AcDbLine
 10
73.95792399999999
 20
-0.027858
 30
0.0
 11
73.952026
 21
-0.022271
 31
0.0
  0
LINE
  5
797
330
1F
100
AcDbEntity
  8
1
  6
CONTINUOUS
370
50
 62
4
100
AcDbLine
 10
73.96382899999999
 20
-0.033445
 30
0.0
 11
73.95792399999999
 21
-0.027858
 31
0.0
  0
LINE
  5
798
330
1F
100
AcDbEntity
  8
1
  6
CONTINUOUS
370
50
 62
4
100
AcDbLine
 10
73.952026
 20
-0.022271
 30
0.0
 11
73.94612099999999
 21
-0.016684
 31
0.0
  0
LINE
  5
799
330
1F
100
AcDbEntity
  8
1
  6
CONTINUOUS
370
50
 62
4
100
AcDbLine
 10
73.940224
 20
-0.011096
 30
0.0
 11
73.934319
 21
-0.005509
 31
0.0
  0
LINE
  5
79A
330
1F
100
AcDbEntity
  8
1
  6
CONTINUOUS
370
50
 62
4
100
AcDbLine
 10
74.292976
 20
-0.344725
 30
0.0
 11
73.96382899999999
 21
-0.033445
 31
0.0
  0
LINE
  5
79B
330
1F
100
AcDbEntity
  8
1
  6
CONTINUOUS
370
50
 62
4
100
AcDbLine
 10
59.341282
 20
-0.5823659999999999
 30
0.0
 11
58.724884
 21
0.0
 31
0.0
  0
LINE
  5
79C
330
1F
100
AcDbEntity
  8
1
  6
CONTINUOUS
370
50
 62
4
100
AcDbLine
 10
73.928345
 20
0.0
 30
0.0
 11
73.424408
 21
0.4736
 31
0.0
  0
LINE
  5
79D
330
1F
100
AcDbEntity
  8
1
  6
CONTINUOUS
370
50
 62
4
100
AcDbLine
 10
74.267174
 20
0.5780759999999999
 30
0.0
 11
73.964569
 21
0.862131
 31
0.0
  0
LINE
  5
79E
330
1F
100
AcDbEntity
  8
1
  6
CONTINUOUS
370
50
 62
4
100
AcDbLine
 10
58.724884
 20
0.0
 30
0.0
 11
58.42398799999999
 21
0.282101
 31
0.0
  0
LINE
  5
79F
330
1F
100
AcDbEntity
  8
1
  6
CONTINUOUS
370
50
 62
4
100
AcDbLine
 10
74.574257
 20
0.290615
 30
0.0
 11
74.267174
 21
0.5780759999999999
 31
0.0
  0
LINE
  5
7A0
330
1F
100
AcDbEntity
  8
1
  6
CONTINUOUS
370
50
 62
4
100
AcDbLine
 10
65.835953
 20
0.0
 30
0.0
 11
65.181885
 21
0.611668
 31
0.0
  0
LINE
  5
7A1
330
1F
100
AcDbEntity
  8
1
  6
CONTINUOUS
370
50
 62
4
100
AcDbLine
 10
74.62693
 20
-0.6569039999999999
 30
0.0
 11
74.292976
 21
-0.344725
 31
0.0
  0
LINE
  5
7A2
330
1F
100
AcDbEntity
  8
1
  6
CONTINUOUS
370
50
 62
4
100
AcDbLine
 10
65.181885
 20
0.611668
 30
0.0
 11
64.534821
 21
1.215132
 31
0.0
  0
LINE
  5
7A3
330
1F
100
AcDbEntity
  8
1
  6
CONTINUOUS
370
50
 62
4
100
AcDbLine
 10
58.808651
 20
-0.974518
 30
0.0
 11
58.557461
 21
-0.7404219999999999
 31
0.0
  0
LINE
  5
7A4
330
1F
100
AcDbEntity
  8
1
  6
CONTINUOUS
370
50
 62
4
100
AcDbLine
 10
73.964569
 20
0.862131
 30
0.0
 11
73.663406
 21
1.142698
 31
0.0
  0
LINE
  5
7A5
330
1F
100
AcDbEntity
  8
1
  6
CONTINUOUS
370
50
 62
4
100
AcDbLine
 10
67.838318
 20
-0.9569259999999999
 30
0.0
 11
67.362663
 21
-0.5138389999999999
 31
0.0
  0
LINE
  5
7A6
330
1F
100
AcDbEntity
  8
1
  6
CONTINUOUS
370
50
 62
4
100
AcDbLine
 10
74.886314
 20
0.0
 30
0.0
 11
74.574257
 21
0.290615
 31
0.0
  0
LINE
  5
7A7
330
1F
100
AcDbEntity
  8
1
  6
CONTINUOUS
370
50
 62
4
100
AcDbLine
 10
59.05780799999999
 20
-1.206479
 30
0.0
 11
58.808651
 21
-0.974518
 31
0.0
  0
LINE
  5
7A8
330
1F
100
AcDbEntity
  8
1
  6
CONTINUOUS
370
50
 62
4
100
AcDbLine
 10
58.557461
 20
-0.7404219999999999
 30
0.0
 11
58.30416899999999
 21
-0.505101
 31
0.0
  0
LINE
  5
7A9
330
1F
100
AcDbEntity
  8
1
  6
CONTINUOUS
370
50
 62
4
100
AcDbLine
 10
58.42398799999999
 20
0.282101
 30
0.0
 11
58.122643
 21
0.561974
 31
0.0
  0
LINE
  5
7AA
330
1F
100
AcDbEntity
  8
1
  6
CONTINUOUS
370
50
 62
4
100
AcDbLine
 10
65.85482
 20
-0.017511
 30
0.0
 11
65.848534
 21
-0.011673
 31
0.0
  0
LINE
  5
7AB
330
1F
100
AcDbEntity
  8
1
  6
CONTINUOUS
370
50
 62
4
100
AcDbLine
 10
65.861107
 20
-0.023349
 30
0.0
 11
65.85482
 21
-0.017511
 31
0.0
  0
LINE
  5
7AC
330
1F
100
AcDbEntity
  8
1
  6
CONTINUOUS
370
50
 62
4
100
AcDbLine
 10
67.362663
 20
-0.5138389999999999
 30
0.0
 11
66.809303
 21
0.0
 31
0.0
  0
LINE
  5
7AD
330
1F
100
AcDbEntity
  8
1
  6
CONTINUOUS
370
50
 62
4
100
AcDbLine
 10
65.873688
 20
-0.035023
 30
0.0
 11
65.867401
 21
-0.029186
 31
0.0
  0
LINE
  5
7AE
330
1F
100
AcDbEntity
  8
1
  6
CONTINUOUS
370
50
 62
4
100
AcDbLine
 10
65.84223899999999
 20
-0.005835
 30
0.0
 11
65.835953
 21
0.0
 31
0.0
  0
LINE
  5
7AF
330
1F
100
AcDbEntity
  8
1
  6
CONTINUOUS
370
50
 62
4
100
AcDbLine
 10
68.234833
 20
-1.324894
 30
0.0
 11
67.838318
 21
-0.9569259999999999
 31
0.0
  0
LINE
  5
7B0
330
1F
100
AcDbEntity
  8
1
  6
CONTINUOUS
370
50
 62
4
100
AcDbLine
 10
65.848534
 20
-0.011673
 30
0.0
 11
65.84223899999999
 21
-0.005835
 31
0.0
  0
LINE
  5
7B1
330
1F
100
AcDbEntity
  8
1
  6
CONTINUOUS
370
50
 62
4
100
AcDbLine
 10
65.867401
 20
-0.029186
 30
0.0
 11
65.861107
 21
-0.023349
 31
0.0
  0
LINE
  5
7B2
330
1F
100
AcDbEntity
  8
1
  6
CONTINUOUS
370
50
 62
4
100
AcDbLine
 10
58.30416899999999
 20
-0.505101
 30
0.0
 11
58.050121
 21
-0.269622
 31
0.0
  0
LINE
  5
7B3
330
1F
100
AcDbEntity
  8
1
  6
CONTINUOUS
370
50
 62
4
100
AcDbLine
 10
75.155807
 20
-0.249442
 30
0.0
 11
74.886314
 21
0.0
 31
0.0
  0
LINE
  5
7B4
330
1F
100
AcDbEntity
  8
1
  6
CONTINUOUS
370
50
 62
4
100
AcDbLine
 10
58.050121
 20
-0.269622
 30
0.0
 11
57.795662
 21
-0.034258
 31
0.0
  0
LINE
  5
7B5
330
1F
100
AcDbEntity
  8
1
  6
CONTINUOUS
370
50
 62
4
100
AcDbLine
 10
66.275009
 20
-0.406084
 30
0.0
 11
65.873688
 21
-0.035023
 31
0.0
  0
LINE
  5
7B6
330
1F
100
AcDbEntity
  8
1
  6
CONTINUOUS
370
50
 62
4
100
AcDbLine
 10
57.76476299999999
 20
-0.00571
 30
0.0
 11
57.758587
 21
0.0
 31
0.0
  0
LINE
  5
7B7
330
1F
100
AcDbEntity
  8
1
  6
CONTINUOUS
370
50
 62
4
100
AcDbLine
 10
54.61489899999999
 20
4.144355
 30
0.0
 11
54.425808
 21
4.319166
 31
0.0
  0
LINE
  5
7B8
330
1F
100
AcDbEntity
  8
1
  6
CONTINUOUS
370
50
 62
4
100
AcDbLine
 10
57.777122
 20
-0.017129
 30
0.0
 11
57.770943
 21
-0.011419
 31
0.0
  0
LINE
  5
7B9
330
1F
100
AcDbEntity
  8
1
  6
CONTINUOUS
370
50
 62
4
100
AcDbLine
 10
57.795662
 20
-0.034258
 30
0.0
 11
57.783302
 21
-0.022838
 31
0.0
  0
LINE
  5
7BA
330
1F
100
AcDbEntity
  8
1
  6
CONTINUOUS
370
50
 62
4
100
AcDbLine
 10
57.783302
 20
-0.022838
 30
0.0
 11
57.777122
 21
-0.017129
 31
0.0
  0
LINE
  5
7BB
330
1F
100
AcDbEntity
  8
1
  6
CONTINUOUS
370
50
 62
4
100
AcDbLine
 10
57.770943
 20
-0.011419
 30
0.0
 11
57.76476299999999
 21
-0.00571
 31
0.0
  0
LINE
  5
7BC
330
1F
100
AcDbEntity
  8
1
  6
CONTINUOUS
370
50
 62
4
100
AcDbLine
 10
57.758587
 20
0.0
 30
0.0
 11
57.44593399999999
 21
0.288524
 31
0.0
  0
LINE
  5
7BD
330
1F
100
AcDbEntity
  8
1
  6
CONTINUOUS
370
50
 62
4
100
AcDbLine
 10
66.809303
 20
0.0
 30
0.0
 11
66.44253499999999
 21
0.338392
 31
0.0
  0
LINE
  5
7BE
330
1F
100
AcDbEntity
  8
1
  6
CONTINUOUS
370
50
 62
4
100
AcDbLine
 10
59.96324199999999
 20
-1.155992
 30
0.0
 11
59.341282
 21
-0.5823659999999999
 31
0.0
  0
LINE
  5
7BF
330
1F
100
AcDbEntity
  8
1
  6
CONTINUOUS
370
50
 62
4
100
AcDbLine
 10
59.307457
 20
-1.436721
 30
0.0
 11
59.05780799999999
 21
-1.206479
 31
0.0
  0
LINE
  5
7C0
330
1F
100
AcDbEntity
  8
1
  6
CONTINUOUS
370
50
 62
4
100
AcDbLine
 10
73.934319
 20
-0.005509
 30
0.0
 11
73.928345
 21
0.0
 31
0.0
  0
LINE
  5
7C1
330
1F
100
AcDbEntity
  8
1
  6
CONTINUOUS
370
50
 62
4
100
AcDbLine
 10
73.424408
 20
0.4736
 30
0.0
 11
72.91566499999999
 21
0.942689
 31
0.0
  0
LINE
  5
7C2
330
1F
100
AcDbEntity
  8
1
  6
CONTINUOUS
370
50
 62
4
100
AcDbLine
 10
75.426064
 20
-0.498522
 30
0.0
 11
75.155807
 21
-0.249442
 31
0.0
  0
LINE
  5
7C3
330
1F
100
AcDbEntity
  8
1
  6
CONTINUOUS
370
50
 62
4
100
AcDbLine
 10
57.44593399999999
 20
0.288524
 30
0.0
 11
57.15130199999999
 21
0.5599959999999999
 31
0.0
  0
LINE
  5
7C4
330
1F
100
AcDbEntity
  8
1
  6
CONTINUOUS
370
50
 62
4
100
AcDbLine
 10
74.964355
 20
-0.9675779999999999
 30
0.0
 11
74.62693
 21
-0.6569039999999999
 31
0.0
  0
LINE
  5
7C5
330
1F
100
AcDbEntity
  8
1
  6
CONTINUOUS
370
50
 62
4
100
AcDbLine
 10
66.44253499999999
 20
0.338392
 30
0.0
 11
66.07029
 21
0.6809219999999999
 31
0.0
  0
LINE
  5
7C6
330
1F
100
AcDbEntity
  8
1
  6
CONTINUOUS
370
50
 62
4
100
AcDbLine
 10
58.122643
 20
0.561974
 30
0.0
 11
57.832249
 21
0.829187
 31
0.0
  0
LINE
  5
7C7
330
1F
100
AcDbEntity
  8
1
  6
CONTINUOUS
370
50
 62
4
100
AcDbLine
 10
57.15130199999999
 20
0.5599959999999999
 30
0.0
 11
56.876839
 21
0.8125279999999999
 31
0.0
  0
LINE
  5
7C8
330
1F
100
AcDbEntity
  8
1
  6
CONTINUOUS
370
50
 62
4
100
AcDbLine
 10
56.876839
 20
0.8125279999999999
 30
0.0
 11
56.62350799999999
 21
1.045316
 31
0.0
  0
LINE
  5
7C9
330
1F
100
AcDbEntity
  8
1
  6
CONTINUOUS
370
50
 62
4
100
AcDbLine
 10
66.676605
 20
-0.774914
 30
0.0
 11
66.275009
 21
-0.406084
 31
0.0
  0
LINE
  5
7CA
330
1F
100
AcDbEntity
  8
1
  6
CONTINUOUS
370
50
 62
4
100
AcDbLine
 10
66.07029
 20
0.6809219999999999
 30
0.0
 11
65.698837
 21
1.022
 31
0.0
  0
LINE
  5
7CB
330
1F
100
AcDbEntity
  8
1
  6
CONTINUOUS
370
50
 62
4
100
AcDbLine
 10
75.69657099999999
 20
-0.746852
 30
0.0
 11
75.426064
 21
-0.498522
 31
0.0
  0
LINE
  5
7CC
330
1F
100
AcDbEntity
  8
1
  6
CONTINUOUS
370
50
 62
4
100
AcDbLine
 10
56.62350799999999
 20
1.045316
 30
0.0
 11
56.392281
 21
1.257558
 31
0.0
  0
LINE
  5
7CD
330
1F
100
AcDbEntity
  8
1
  6
CONTINUOUS
370
50
 62
4
100
AcDbLine
 10
56.392281
 20
1.257558
 30
0.0
 11
56.184124
 21
1.448452
 31
0.0
  0
LINE
  5
7CE
330
1F
100
AcDbEntity
  8
1
  6
CONTINUOUS
370
50
 62
4
100
AcDbLine
 10
55.806015
 20
-3.777366
 30
0.0
 11
55.616989
 21
-3.604076
 31
0.0
  0
LINE
  5
7CF
330
1F
100
AcDbEntity
  8
1
  6
CONTINUOUS
370
50
 62
4
100
AcDbLine
 10
65.698837
 20
1.022
 30
0.0
 11
65.329025
 21
1.361012
 31
0.0
  0
LINE
  5
7D0
330
1F
100
AcDbEntity
  8
1
  6
CONTINUOUS
370
50
 62
4
100
AcDbLine
 10
56.184124
 20
1.448452
 30
0.0
 11
56.0
 21
1.617194
 31
0.0
  0
LINE
  5
7D1
330
1F
100
AcDbEntity
  8
1
  6
CONTINUOUS
370
50
 62
4
100
AcDbLine
 10
75.966904
 20
-0.9941059999999999
 30
0.0
 11
75.69657099999999
 21
-0.746852
 31
0.0
  0
LINE
  5
7D2
330
1F
100
AcDbEntity
  8
1
  6
CONTINUOUS
370
50
 62
4
100
AcDbLine
 10
73.663406
 20
1.142698
 30
0.0
 11
73.36050399999999
 21
1.419649
 31
0.0
  0
LINE
  5
7D3
330
1F
100
AcDbEntity
  8
1
  6
CONTINUOUS
370
50
 62
4
100
AcDbLine
 10
65.329025
 20
1.361012
 30
0.0
 11
64.960831
 21
1.697142
 31
0.0
  0
LINE
  5
7D4
330
1F
100
AcDbEntity
  8
1
  6
CONTINUOUS
370
50
 62
4
100
AcDbLine
 10
67.078064
 20
-1.1414
 30
0.0
 11
66.676605
 21
-0.774914
 31
0.0
  0
LINE
  5
7D5
330
1F
100
AcDbEntity
  8
1
  6
CONTINUOUS
370
50
 62
4
100
AcDbLine
 10
57.832249
 20
0.829187
 30
0.0
 11
57.553902
 21
1.083095
 31
0.0
  0
LINE
  5
7D6
330
1F
100
AcDbEntity
  8
1
  6
CONTINUOUS
370
50
 62
4
100
AcDbLine
 10
76.23661799999999
 20
-1.239956
 30
0.0
 11
75.966904
 21
-0.9941059999999999
 31
0.0
  0
LINE
  5
7D7
330
1F
100
AcDbEntity
  8
1
  6
CONTINUOUS
370
50
 62
4
100
AcDbLine
 10
76.505173
 20
-1.484012
 30
0.0
 11
76.23661799999999
 21
-1.239956
 31
0.0
  0
LINE
  5
7D8
330
1F
100
AcDbEntity
  8
1
  6
CONTINUOUS
370
50
 62
4
100
AcDbLine
 10
75.302795
 20
-1.275013
 30
0.0
 11
74.964355
 21
-0.9675779999999999
 31
0.0
  0
LINE
  5
7D9
330
1F
100
AcDbEntity
  8
1
  6
CONTINUOUS
370
50
 62
4
100
AcDbLine
 10
68.61035199999999
 20
-1.665962
 30
0.0
 11
68.234833
 21
-1.324894
 31
0.0
  0
LINE
  5
7DA
330
1F
100
AcDbEntity
  8
1
  6
CONTINUOUS
370
50
 62
4
100
AcDbLine
 10
76.770035
 20
-1.724464
 30
0.0
 11
76.505173
 21
-1.484012
 31
0.0
  0
LINE
  5
7DB
330
1F
100
AcDbEntity
  8
1
  6
CONTINUOUS
370
50
 62
4
100
AcDbLine
 10
67.478127
 20
-1.504593
 30
0.0
 11
67.078064
 21
-1.1414
 31
0.0
  0
LINE
  5
7DC
330
1F
100
AcDbEntity
  8
1
  6
CONTINUOUS
370
50
 62
4
100
AcDbLine
 10
59.559925
 20
-1.665554
 30
0.0
 11
59.307457
 21
-1.436721
 31
0.0
  0
LINE
  5
7DD
330
1F
100
AcDbEntity
  8
1
  6
CONTINUOUS
370
50
 62
4
100
AcDbLine
 10
72.91566499999999
 20
0.942689
 30
0.0
 11
72.40540299999999
 21
1.404682
 31
0.0
  0
LINE
  5
7DE
330
1F
100
AcDbEntity
  8
1
  6
CONTINUOUS
370
50
 62
4
100
AcDbLine
 10
57.553902
 20
1.083095
 30
0.0
 11
57.288284
 21
1.32339
 31
0.0
  0
LINE
  5
7DF
330
1F
100
AcDbEntity
  8
1
  6
CONTINUOUS
370
50
 62
4
100
AcDbLine
 10
67.87612899999999
 20
-1.863908
 30
0.0
 11
67.478127
 21
-1.504593
 31
0.0
  0
LINE
  5
7E0
330
1F
100
AcDbEntity
  8
1
  6
CONTINUOUS
370
50
 62
4
100
AcDbLine
 10
77.03261599999999
 20
-1.961107
 30
0.0
 11
76.770035
 21
-1.724464
 31
0.0
  0
LINE
  5
7E1
330
1F
100
AcDbEntity
  8
1
  6
CONTINUOUS
370
50
 62
4
100
AcDbLine
 10
64.534821
 20
1.215132
 30
0.0
 11
63.879036
 21
1.804937
 31
0.0
  0
LINE
  5
7E2
330
1F
100
AcDbEntity
  8
1
  6
CONTINUOUS
370
50
 62
4
100
AcDbLine
 10
57.288284
 20
1.32339
 30
0.0
 11
57.03607599999999
 21
1.549767
 31
0.0
  0
LINE
  5
7E3
330
1F
100
AcDbEntity
  8
1
  6
CONTINUOUS
370
50
 62
4
100
AcDbLine
 10
73.36050399999999
 20
1.419649
 30
0.0
 11
73.05641899999999
 21
1.692562
 31
0.0
  0
LINE
  5
7E4
330
1F
100
AcDbEntity
  8
1
  6
CONTINUOUS
370
50
 62
4
100
AcDbLine
 10
60.588257
 20
-1.716354
 30
0.0
 11
59.96324199999999
 21
-1.155992
 31
0.0
  0
LINE
  5
7E5
330
1F
100
AcDbEntity
  8
1
  6
CONTINUOUS
370
50
 62
4
100
AcDbLine
 10
75.64141099999999
 20
-1.578598
 30
0.0
 11
75.302795
 21
-1.275013
 31
0.0
  0
LINE
  5
7E6
330
1F
100
AcDbEntity
  8
1
  6
CONTINUOUS
370
50
 62
4
100
AcDbLine
 10
52.59684799999999
 20
-5.435461999999999
 30
0.0
 11
52.570042
 21
-5.411430999999999
 31
0.0
  0
LINE
  5
7E7
330
1F
100
AcDbEntity
  8
1
  6
CONTINUOUS
370
50
 62
4
100
AcDbLine
 10
64.960831
 20
1.697142
 30
0.0
 11
64.59137
 21
2.028342
 31
0.0
  0
LINE
  5
7E8
330
1F
100
AcDbEntity
  8
1
  6
CONTINUOUS
370
50
 62
4
100
AcDbLine
 10
57.03607599999999
 20
1.549767
 30
0.0
 11
56.79795799999999
 21
1.761917
 31
0.0
  0
LINE
  5
7E9
330
1F
100
AcDbEntity
  8
1
  6
CONTINUOUS
370
50
 62
4
100
AcDbLine
 10
80.0
 20
1.846389
 30
0.0
 11
79.624817
 21
2.180247
 31
0.0
  0
LINE
  5
7EA
330
1F
100
AcDbEntity
  8
1
  6
CONTINUOUS
370
50
 62
4
100
AcDbLine
 10
72.40540299999999
 20
1.404682
 30
0.0
 11
71.89645399999999
 21
1.857465
 31
0.0
  0
LINE
  5
7EB
330
1F
100
AcDbEntity
  8
1
  6
CONTINUOUS
370
50
 62
4
100
AcDbLine
 10
59.814068
 20
-1.891619
 30
0.0
 11
59.559925
 21
-1.665554
 31
0.0
  0
LINE
  5
7EC
330
1F
100
AcDbEntity
  8
1
  6
CONTINUOUS
370
50
 62
4
100
AcDbLine
 10
68.274078
 20
-2.21723
 30
0.0
 11
67.87612899999999
 21
-1.863908
 31
0.0
  0
LINE
  5
7ED
330
1F
100
AcDbEntity
  8
1
  6
CONTINUOUS
370
50
 62
4
100
AcDbLine
 10
77.296043
 20
-2.194611
 30
0.0
 11
77.03261599999999
 21
-1.961107
 31
0.0
  0
LINE
  5
7EE
330
1F
100
AcDbEntity
  8
1
  6
CONTINUOUS
370
50
 62
4
100
AcDbLine
 10
54.425808
 20
4.319166
 30
0.0
 11
54.236912
 21
4.486394
 31
0.0
  0
LINE
  5
7EF
330
1F
100
AcDbEntity
  8
1
  6
CONTINUOUS
370
50
 62
4
100
AcDbLine
 10
75.979378
 20
-1.877743
 30
0.0
 11
75.64141099999999
 21
-1.578598
 31
0.0
  0
LINE
  5
7F0
330
1F
100
AcDbEntity
  8
1
  6
CONTINUOUS
370
50
 62
4
100
AcDbLine
 10
56.79795799999999
 20
1.761917
 30
0.0
 11
56.57461199999999
 21
1.959535
 31
0.0
  0
LINE
  5
7F1
330
1F
100
AcDbEntity
  8
1
  6
CONTINUOUS
370
50
 62
4
100
AcDbLine
 10
68.988022
 20
-2.000083
 30
0.0
 11
68.61035199999999
 21
-1.665962
 31
0.0
  0
LINE
  5
7F2
330
1F
100
AcDbEntity
  8
1
  6
CONTINUOUS
370
50
 62
4
100
AcDbLine
 10
73.05641899999999
 20
1.692562
 30
0.0
 11
72.751747
 21
1.961013
 31
0.0
  0
LINE
  5
7F3
330
1F
100
AcDbEntity
  8
1
  6
CONTINUOUS
370
50
 62
4
100
AcDbLine
 10
56.57461199999999
 20
1.959535
 30
0.0
 11
56.366718
 21
2.142312
 31
0.0
  0
LINE
  5
7F4
330
1F
100
AcDbEntity
  8
1
  6
CONTINUOUS
370
50
 62
4
100
AcDbLine
 10
71.89645399999999
 20
1.857465
 30
0.0
 11
71.395485
 21
2.296647
 31
0.0
  0
LINE
  5
7F5
330
1F
100
AcDbEntity
  8
1
  6
CONTINUOUS
370
50
 62
4
100
AcDbLine
 10
56.366718
 20
2.142312
 30
0.0
 11
56.174953
 21
2.309942
 31
0.0
  0
LINE
  5
7F6
330
1F
100
AcDbEntity
  8
1
  6
CONTINUOUS
370
50
 62
4
100
AcDbLine
 10
76.316605
 20
-2.172492
 30
0.0
 11
75.979378
 21
-1.877743
 31
0.0
  0
LINE
  5
7F7
330
1F
100
AcDbEntity
  8
1
  6
CONTINUOUS
370
50
 62
4
100
AcDbLine
 10
60.068836
 20
-2.114214
 30
0.0
 11
59.814068
 21
-1.891619
 31
0.0
  0
LINE
  5
7F8
330
1F
100
AcDbEntity
  8
1
  6
CONTINUOUS
370
50
 62
4
100
AcDbLine
 10
61.21332899999999
 20
-2.261747
 30
0.0
 11
60.588257
 21
-1.716354
 31
0.0
  0
LINE
  5
7F9
330
1F
100
AcDbEntity
  8
1
  6
CONTINUOUS
370
50
 62
4
100
AcDbLine
 10
64.59137
 20
2.028342
 30
0.0
 11
64.217278
 21
2.354344
 31
0.0
  0
LINE
  5
7FA
330
1F
100
AcDbEntity
  8
1
  6
CONTINUOUS
370
50
 62
4
100
AcDbLine
 10
56.174953
 20
2.309942
 30
0.0
 11
56.0
 21
2.462118
 31
0.0
  0
LINE
  5
7FB
330
1F
100
AcDbEntity
  8
1
  6
CONTINUOUS
370
50
 62
4
100
AcDbLine
 10
63.879036
 20
1.804937
 30
0.0
 11
63.240421
 21
2.357957
 31
0.0
  0
LINE
  5
7FC
330
1F
100
AcDbEntity
  8
1
  6
CONTINUOUS
370
50
 62
4
100
AcDbLine
 10
77.561737
 20
-2.424543
 30
0.0
 11
77.296043
 21
-2.194611
 31
0.0
  0
LINE
  5
7FD
330
1F
100
AcDbEntity
  8
1
  6
CONTINUOUS
370
50
 62
4
100
AcDbLine
 10
72.751747
 20
1.961013
 30
0.0
 11
72.44706699999999
 21
2.22458
 31
0.0
  0
LINE
  5
7FE
330
1F
100
AcDbEntity
  8
1
  6
CONTINUOUS
370
50
 62
4
100
AcDbLine
 10
76.652649
 20
-2.46249
 30
0.0
 11
76.316605
 21
-2.172492
 31
0.0
  0
LINE
  5
7FF
330
1F
100
AcDbEntity
  8
1
  6
CONTINUOUS
370
50
 62
4
100
AcDbLine
 10
69.367302
 20
-2.326992
 30
0.0
 11
68.988022
 21
-2.000083
 31
0.0
  0
LINE
  5
800
330
1F
100
AcDbEntity
  8
1
  6
CONTINUOUS
370
50
 62
4
100
AcDbLine
 10
68.676033
 20
-2.563249
 30
0.0
 11
68.274078
 21
-2.21723
 31
0.0
  0
LINE
  5
801
330
1F
100
AcDbEntity
  8
1
  6
CONTINUOUS
370
50
 62
4
100
AcDbLine
 10
52.581097
 20
5.511449
 30
0.0
 11
52.55902099999999
 21
5.53043
 31
0.0
  0
LINE
  5
802
330
1F
100
AcDbEntity
  8
1
  6
CONTINUOUS
370
50
 62
4
100
AcDbLine
 10
79.624817
 20
2.180247
 30
0.0
 11
79.22022199999999
 21
2.527656
 31
0.0
  0
LINE
  5
803
330
1F
100
AcDbEntity
  8
1
  6
CONTINUOUS
370
50
 62
4
100
AcDbLine
 10
56.0
 20
-3.943919
 30
0.0
 11
55.806015
 21
-3.777366
 31
0.0
  0
LINE
  5
804
330
1F
100
AcDbEntity
  8
1
  6
CONTINUOUS
370
50
 62
4
100
AcDbLine
 10
60.32387499999999
 20
-2.333102
 30
0.0
 11
60.068836
 21
-2.114214
 31
0.0
  0
LINE
  5
805
330
1F
100
AcDbEntity
  8
1
  6
CONTINUOUS
370
50
 62
4
100
AcDbLine
 10
71.395485
 20
2.296647
 30
0.0
 11
70.90246599999999
 21
2.719149
 31
0.0
  0
LINE
  5
806
330
1F
100
AcDbEntity
  8
1
  6
CONTINUOUS
370
50
 62
4
100
AcDbLine
 10
76.985924
 20
-2.746059
 30
0.0
 11
76.652649
 21
-2.46249
 31
0.0
  0
LINE
  5
807
330
1F
100
AcDbEntity
  8
1
  6
CONTINUOUS
370
50
 62
4
100
AcDbLine
 10
61.828941
 20
-2.785407
 30
0.0
 11
61.21332899999999
 21
-2.261747
 31
0.0
  0
LINE
  5
808
330
1F
100
AcDbEntity
  8
1
  6
CONTINUOUS
370
50
 62
4
100
AcDbLine
 10
72.44706699999999
 20
2.22458
 30
0.0
 11
72.14296
 21
2.482848
 31
0.0
  0
LINE
  5
809
330
1F
100
AcDbEntity
  8
1
  6
CONTINUOUS
370
50
 62
4
100
AcDbLine
 10
77.82843
 20
-2.649557
 30
0.0
 11
77.561737
 21
-2.424543
 31
0.0
  0
LINE
  5
80A
330
1F
100
AcDbEntity
  8
1
  6
CONTINUOUS
370
50
 62
4
100
AcDbLine
 10
60.57901
 20
-2.548197
 30
0.0
 11
60.32387499999999
 21
-2.333102
 31
0.0
  0
LINE
  5
80B
330
1F
100
AcDbEntity
  8
1
  6
CONTINUOUS
370
50
 62
4
100
AcDbLine
 10
64.217278
 20
2.354344
 30
0.0
 11
63.83702899999999
 21
2.674298
 31
0.0
  0
LINE
  5
80C
330
1F
100
AcDbEntity
  8
1
  6
CONTINUOUS
370
50
 62
4
100
AcDbLine
 10
69.747002
 20
-2.645874
 30
0.0
 11
69.367302
 21
-2.326992
 31
0.0
  0
LINE
  5
80D
330
1F
100
AcDbEntity
  8
1
  6
CONTINUOUS
370
50
 62
4
100
AcDbLine
 10
54.236912
 20
4.486394
 30
0.0
 11
54.050571
 21
4.642736
 31
0.0
  0
LINE
  5
80E
330
1F
100
AcDbEntity
  8
1
  6
CONTINUOUS
370
50
 62
4
100
AcDbLine
 10
63.240421
 20
2.357957
 30
0.0
 11
62.673798
 21
2.831851
 31
0.0
  0
LINE
  5
80F
330
1F
100
AcDbEntity
  8
1
  6
CONTINUOUS
370
50
 62
4
100
AcDbLine
 10
72.14296
 20
2.482848
 30
0.0
 11
71.83936299999999
 21
2.736006
 31
0.0
  0
LINE
  5
810
330
1F
100
AcDbEntity
  8
1
  6
CONTINUOUS
370
50
 62
4
100
AcDbLine
 10
77.31835199999999
 20
-3.021848
 30
0.0
 11
76.985924
 21
-2.746059
 31
0.0
  0
LINE
  5
811
330
1F
100
AcDbEntity
  8
1
  6
CONTINUOUS
370
50
 62
4
100
AcDbLine
 10
60.834278
 20
-2.7596
 30
0.0
 11
60.57901
 21
-2.548197
 31
0.0
  0
LINE
  5
812
330
1F
100
AcDbEntity
  8
1
  6
CONTINUOUS
370
50
 62
4
100
AcDbLine
 10
79.22022199999999
 20
2.527656
 30
0.0
 11
78.808662
 21
2.868019
 31
0.0
  0
LINE
  5
813
330
1F
100
AcDbEntity
  8
1
  6
CONTINUOUS
370
50
 62
4
100
AcDbLine
 10
69.08498399999999
 20
-2.901449
 30
0.0
 11
68.676033
 21
-2.563249
 31
0.0
  0
LINE
  5
814
330
1F
100
AcDbEntity
  8
1
  6
CONTINUOUS
370
50
 62
4
100
AcDbLine
 10
79.966652
 20
2.706649
 30
0.0
 11
79.544006
 21
3.056086
 31
0.0
  0
LINE
  5
815
330
1F
100
AcDbEntity
  8
1
  6
CONTINUOUS
370
50
 62
4
100
AcDbLine
 10
78.095703
 20
-2.869404
 30
0.0
 11
77.82843
 21
-2.649557
 31
0.0
  0
LINE
  5
816
330
1F
100
AcDbEntity
  8
1
  6
CONTINUOUS
370
50
 62
4
100
AcDbLine
 10
70.90246599999999
 20
2.719149
 30
0.0
 11
70.40869099999999
 21
3.124295
 31
0.0
  0
LINE
  5
817
330
1F
100
AcDbEntity
  8
1
  6
CONTINUOUS
370
50
 62
4
100
AcDbLine
 10
71.83936299999999
 20
2.736006
 30
0.0
 11
71.536446
 21
2.983977
 31
0.0
  0
LINE
  5
818
330
1F
100
AcDbEntity
  8
1
  6
CONTINUOUS
370
50
 62
4
100
AcDbLine
 10
70.125931
 20
-2.955916
 30
0.0
 11
69.747002
 21
-2.645874
 31
0.0
  0
LINE
  5
819
330
1F
100
AcDbEntity
  8
1
  6
CONTINUOUS
370
50
 62
4
100
AcDbLine
 10
62.43721
 20
-3.280503
 30
0.0
 11
61.828941
 21
-2.785407
 31
0.0
  0
LINE
  5
81A
330
1F
100
AcDbEntity
  8
1
  6
CONTINUOUS
370
50
 62
4
100
AcDbLine
 10
63.83702899999999
 20
2.674298
 30
0.0
 11
63.454887
 21
2.985332
 31
0.0
  0
LINE
  5
81B
330
1F
100
AcDbEntity
  8
1
  6
CONTINUOUS
370
50
 62
4
100
AcDbLine
 10
61.089333
 20
-2.967061
 30
0.0
 11
60.834278
 21
-2.7596
 31
0.0
  0
LINE
  5
81C
330
1F
100
AcDbEntity
  8
1
  6
CONTINUOUS
370
50
 62
4
100
AcDbLine
 10
62.673798
 20
2.831851
 30
0.0
 11
62.188736
 21
3.224148
 31
0.0
  0
LINE
  5
81D
330
1F
100
AcDbEntity
  8
1
  6
CONTINUOUS
370
50
 62
4
100
AcDbLine
 10
71.536446
 20
2.983977
 30
0.0
 11
71.234779
 21
3.226285
 31
0.0
  0
LINE
  5
81E
330
1F
100
AcDbEntity
  8
1
  6
CONTINUOUS
370
50
 62
4
100
AcDbLine
 10
78.36325099999999
 20
-3.083913
 30
0.0
 11
78.095703
 21
-2.869404
 31
0.0
  0
LINE
  5
81F
330
1F
100
AcDbEntity
  8
1
  6
CONTINUOUS
370
50
 62
4
100
AcDbLine
 10
61.343822
 20
-3.170316
 30
0.0
 11
61.089333
 21
-2.967061
 31
0.0
  0
LINE
  5
820
330
1F
100
AcDbEntity
  8
1
  6
CONTINUOUS
370
50
 62
4
100
AcDbLine
 10
70.50263199999999
 20
-3.256171
 30
0.0
 11
70.125931
 21
-2.955916
 31
0.0
  0
LINE
  5
821
330
1F
100
AcDbEntity
  8
1
  6
CONTINUOUS
370
50
 62
4
100
AcDbLine
 10
77.656021
 20
-3.29092
 30
0.0
 11
77.31835199999999
 21
-3.021848
 31
0.0
  0
LINE
  5
822
330
1F
100
AcDbEntity
  8
1
  6
CONTINUOUS
370
50
 62
4
100
AcDbLine
 10
78.808662
 20
2.868019
 30
0.0
 11
78.396255
 21
3.196341
 31
0.0
  0
LINE
  5
823
330
1F
100
AcDbEntity
  8
1
  6
CONTINUOUS
370
50
 62
4
100
AcDbLine
 10
69.497429
 20
-3.228867
 30
0.0
 11
69.08498399999999
 21
-2.901449
 31
0.0
  0
LINE
  5
824
330
1F
100
AcDbEntity
  8
1
  6
CONTINUOUS
370
50
 62
4
100
AcDbLine
 10
54.050571
 20
4.642736
 30
0.0
 11
53.866245
 21
4.787932
 31
0.0
  0
LINE
  5
825
330
1F
100
AcDbEntity
  8
1
  6
CONTINUOUS
370
50
 62
4
100
AcDbLine
 10
63.454887
 20
2.985332
 30
0.0
 11
63.072399
 21
3.286435
 31
0.0
  0
LINE
  5
826
330
1F
100
AcDbEntity
  8
1
  6
CONTINUOUS
370
50
 62
4
100
AcDbLine
 10
79.544006
 20
3.056086
 30
0.0
 11
79.118462
 21
3.390339
 31
0.0
  0
LINE
  5
827
330
1F
100
AcDbEntity
  8
1
  6
CONTINUOUS
370
50
 62
4
100
AcDbLine
 10
71.234779
 20
3.226285
 30
0.0
 11
70.93527999999999
 21
3.461465
 31
0.0
  0
LINE
  5
828
330
1F
100
AcDbEntity
  8
1
  6
CONTINUOUS
370
50
 62
4
100
AcDbLine
 10
61.597427
 20
-3.369128
 30
0.0
 11
61.343822
 21
-3.170316
 31
0.0
  0
LINE
  5
829
330
1F
100
AcDbEntity
  8
1
  6
CONTINUOUS
370
50
 62
4
100
AcDbLine
 10
78.631271
 20
-3.293382
 30
0.0
 11
78.36325099999999
 21
-3.083913
 31
0.0
  0
LINE
  5
82A
330
1F
100
AcDbEntity
  8
1
  6
CONTINUOUS
370
50
 62
4
100
AcDbLine
 10
62.188736
 20
3.224148
 30
0.0
 11
61.78475599999999
 21
3.539766
 31
0.0
  0
LINE
  5
82B
330
1F
100
AcDbEntity
  8
1
  6
CONTINUOUS
370
50
 62
4
100
AcDbLine
 10
70.872406
 20
-3.543466
 30
0.0
 11
70.50263199999999
 21
-3.256171
 31
0.0
  0
LINE
  5
82C
330
1F
100
AcDbEntity
  8
1
  6
CONTINUOUS
370
50
 62
4
100
AcDbLine
 10
70.40869099999999
 20
3.124295
 30
0.0
 11
69.911148
 21
3.50912
 31
0.0
  0
LINE
  5
82D
330
1F
100
AcDbEntity
  8
1
  6
CONTINUOUS
370
50
 62
4
100
AcDbLine
 10
61.85012099999999
 20
-3.56343
 30
0.0
 11
61.597427
 21
-3.369128
 31
0.0
  0
LINE
  5
82E
330
1F
100
AcDbEntity
  8
1
  6
CONTINUOUS
370
50
 62
4
100
AcDbLine
 10
78.396255
 20
3.196341
 30
0.0
 11
77.98368099999999
 21
3.512326
 31
0.0
  0
LINE
  5
82F
330
1F
100
AcDbEntity
  8
1
  6
CONTINUOUS
370
50
 62
4
100
AcDbLine
 10
77.996742
 20
-3.55081
 30
0.0
 11
77.656021
 21
-3.29092
 31
0.0
  0
LINE
  5
830
330
1F
100
AcDbEntity
  8
1
  6
CONTINUOUS
370
50
 62
4
100
AcDbLine
 10
69.910515
 20
-3.543736
 30
0.0
 11
69.497429
 21
-3.228867
 31
0.0
  0
LINE
  5
831
330
1F
100
AcDbEntity
  8
1
  6
CONTINUOUS
370
50
 62
4
100
AcDbLine
 10
78.899513
 20
-3.49763
 30
0.0
 11
78.631271
 21
-3.293382
 31
0.0
  0
LINE
  5
832
330
1F
100
AcDbEntity
  8
1
  6
CONTINUOUS
370
50
 62
4
100
AcDbLine
 10
63.072399
 20
3.286435
 30
0.0
 11
62.690777
 21
3.576761
 31
0.0
  0
LINE
  5
833
330
1F
100
AcDbEntity
  8
1
  6
CONTINUOUS
370
50
 62
4
100
AcDbLine
 10
52.588181
 20
5.506063
 30
0.0
 11
52.581097
 21
5.511449
 31
0.0
  0
LINE
  5
834
330
1F
100
AcDbEntity
  8
1
  6
CONTINUOUS
370
50
 62
4
100
AcDbLine
 10
70.93527999999999
 20
3.461465
 30
0.0
 11
70.63533
 21
3.689109
 31
0.0
  0
LINE
  5
835
330
1F
100
AcDbEntity
  8
1
  6
CONTINUOUS
370
50
 62
4
100
AcDbLine
 10
54.202271
 20
4.533348
 30
0.0
 11
53.866238
 21
4.788049
 31
0.0
  0
LINE
  5
836
330
1F
100
AcDbEntity
  8
1
  6
CONTINUOUS
370
50
 62
4
100
AcDbLine
 10
79.445313
 20
1.989441
 30
0.0
 11
79.390579
 21
2.030902
 31
0.0
  0
LINE
  5
837
330
1F
100
AcDbEntity
  8
1
  6
CONTINUOUS
370
50
 62
4
100
AcDbLine
 10
79.390579
 20
2.030902
 30
0.0
 11
79.332191
 21
2.075119
 31
0.0
  0
LINE
  5
838
330
1F
100
AcDbEntity
  8
1
  6
CONTINUOUS
370
50
 62
4
100
AcDbLine
 10
79.50900299999999
 20
1.941237
 30
0.0
 11
79.445313
 21
1.989441
 31
0.0
  0
LINE
  5
839
330
1F
100
AcDbEntity
  8
1
  6
CONTINUOUS
370
50
 62
4
100
AcDbLine
 10
79.332191
 20
2.075119
 30
0.0
 11
79.27031699999999
 21
2.121932
 31
0.0
  0
LINE
  5
83A
330
1F
100
AcDbEntity
  8
1
  6
CONTINUOUS
370
50
 62
4
100
AcDbLine
 10
79.27031699999999
 20
2.121932
 30
0.0
 11
79.20513199999999
 21
2.171183
 31
0.0
  0
LINE
  5
83B
330
1F
100
AcDbEntity
  8
1
  6
CONTINUOUS
370
50
 62
4
100
AcDbLine
 10
79.582481
 20
1.885766
 30
0.0
 11
79.50900299999999
 21
1.941237
 31
0.0
  0
LINE
  5
83C
330
1F
100
AcDbEntity
  8
1
  6
CONTINUOUS
370
50
 62
4
100
AcDbLine
 10
79.20513199999999
 20
2.171183
 30
0.0
 11
79.13679499999999
 21
2.222714
 31
0.0
  0
LINE
  5
83D
330
1F
100
AcDbEntity
  8
1
  6
CONTINUOUS
370
50
 62
4
100
AcDbLine
 10
63.052528
 20
-3.744211
 30
0.0
 11
62.43721
 21
-3.280503
 31
0.0
  0
LINE
  5
83E
330
1F
100
AcDbEntity
  8
1
  6
CONTINUOUS
370
50
 62
4
100
AcDbLine
 10
79.13679499999999
 20
2.222714
 30
0.0
 11
79.06547499999999
 21
2.276367
 31
0.0
  0
LINE
  5
83F
330
1F
100
AcDbEntity
  8
1
  6
CONTINUOUS
370
50
 62
4
100
AcDbLine
 10
54.539272
 20
4.279866
 30
0.0
 11
54.202271
 21
4.533348
 31
0.0
  0
LINE
  5
840
330
1F
100
AcDbEntity
  8
1
  6
CONTINUOUS
370
50
 62
4
100
AcDbLine
 10
62.110287
 20
-3.758665
 30
0.0
 11
61.85012099999999
 21
-3.56343
 31
0.0
  0
LINE
  5
841
330
1F
100
AcDbEntity
  8
1
  6
CONTINUOUS
370
50
 62
4
100
AcDbLine
 10
79.650291
 20
1.83488
 30
0.0
 11
79.582481
 21
1.885766
 31
0.0
  0
LINE
  5
842
330
1F
100
AcDbEntity
  8
1
  6
CONTINUOUS
370
50
 62
4
100
AcDbLine
 10
79.06547499999999
 20
2.276367
 30
0.0
 11
78.991348
 21
2.331983
 31
0.0
  0
LINE
  5
843
330
1F
100
AcDbEntity
  8
1
  6
CONTINUOUS
370
50
 62
4
100
AcDbLine
 10
78.991348
 20
2.331983
 30
0.0
 11
78.914574
 21
2.389404
 31
0.0
  0
LINE
  5
844
330
1F
100
AcDbEntity
  8
1
  6
CONTINUOUS
370
50
 62
4
100
AcDbLine
 10
71.240089
 20
-3.81802
 30
0.0
 11
70.872406
 21
-3.543466
 31
0.0
  0
LINE
  5
845
330
1F
100
AcDbEntity
  8
1
  6
CONTINUOUS
370
50
 62
4
100
AcDbLine
 10
54.877235
 20
4.02761
 30
0.0
 11
54.539272
 21
4.279866
 31
0.0
  0
LINE
  5
846
330
1F
100
AcDbEntity
  8
1
  6
CONTINUOUS
370
50
 62
4
100
AcDbLine
 10
79.118462
 20
3.390339
 30
0.0
 11
78.691628
 21
3.70852
 31
0.0
  0
LINE
  5
847
330
1F
100
AcDbEntity
  8
1
  6
CONTINUOUS
370
50
 62
4
100
AcDbLine
 10
78.914574
 20
2.389404
 30
0.0
 11
78.83563199999999
 21
2.44824
 31
0.0
  0
LINE
  5
848
330
1F
100
AcDbEntity
  8
1
  6
CONTINUOUS
370
50
 62
4
100
AcDbLine
 10
79.778046
 20
-5.30086
 30
0.0
 11
79.72139
 21
-5.258673
 31
0.0
  0
LINE
  5
849
330
1F
100
AcDbEntity
  8
1
  6
CONTINUOUS
370
50
 62
4
100
AcDbLine
 10
78.83563199999999
 20
2.44824
 30
0.0
 11
78.75677499999999
 21
2.506805
 31
0.0
  0
LINE
  5
84A
330
1F
100
AcDbEntity
  8
1
  6
CONTINUOUS
370
50
 62
4
100
AcDbLine
 10
79.717361
 20
1.785148
 30
0.0
 11
79.650291
 21
1.83488
 31
0.0
  0
LINE
  5
84B
330
1F
100
AcDbEntity
  8
1
  6
CONTINUOUS
370
50
 62
4
100
AcDbLine
 10
79.16757199999999
 20
-3.696354
 30
0.0
 11
78.899513
 21
-3.49763
 31
0.0
  0
LINE
  5
84C
330
1F
100
AcDbEntity
  8
1
  6
CONTINUOUS
370
50
 62
4
100
AcDbLine
 10
61.78475599999999
 20
3.539766
 30
0.0
 11
61.395649
 21
3.82784
 31
0.0
  0
LINE
  5
84D
330
1F
100
AcDbEntity
  8
1
  6
CONTINUOUS
370
50
 62
4
100
AcDbLine
 10
55.235195
 20
3.762634
 30
0.0
 11
54.877235
 21
4.02761
 31
0.0
  0
LINE
  5
84E
330
1F
100
AcDbEntity
  8
1
  6
CONTINUOUS
370
50
 62
4
100
AcDbLine
 10
78.75677499999999
 20
2.506805
 30
0.0
 11
78.67836799999999
 21
2.564817
 31
0.0
  0
LINE
  5
84F
330
1F
100
AcDbEntity
  8
1
  6
CONTINUOUS
370
50
 62
4
100
AcDbLine
 10
78.67836799999999
 20
2.564817
 30
0.0
 11
78.600388
 21
2.622299
 31
0.0
  0
LINE
  5
850
330
1F
100
AcDbEntity
  8
1
  6
CONTINUOUS
370
50
 62
4
100
AcDbLine
 10
77.98368099999999
 20
3.512326
 30
0.0
 11
77.57247199999999
 21
3.814928
 31
0.0
  0
LINE
  5
851
330
1F
100
AcDbEntity
  8
1
  6
CONTINUOUS
370
50
 62
4
100
AcDbLine
 10
62.690777
 20
3.576761
 30
0.0
 11
62.311234
 21
3.855466
 31
0.0
  0
LINE
  5
852
330
1F
100
AcDbEntity
  8
1
  6
CONTINUOUS
370
50
 62
4
100
AcDbLine
 10
55.617027
 20
3.482256
 30
0.0
 11
55.235195
 21
3.762634
 31
0.0
  0
LINE
  5
853
330
1F
100
AcDbEntity
  8
1
  6
CONTINUOUS
370
50
 62
4
100
AcDbLine
 10
78.600388
 20
2.622299
 30
0.0
 11
78.522781
 21
2.679279
 31
0.0
  0
LINE
  5
854
330
1F
100
AcDbEntity
  8
1
  6
CONTINUOUS
370
50
 62
4
100
AcDbLine
 10
78.522781
 20
2.679279
 30
0.0
 11
78.445526
 21
2.73578
 31
0.0
  0
LINE
  5
855
330
1F
100
AcDbEntity
  8
1
  6
CONTINUOUS
370
50
 62
4
100
AcDbLine
 10
70.322762
 20
-3.845006
 30
0.0
 11
69.910515
 21
-3.543736
 31
0.0
  0
LINE
  5
856
330
1F
100
AcDbEntity
  8
1
  6
CONTINUOUS
370
50
 62
4
100
AcDbLine
 10
78.338364
 20
-3.800287
 30
0.0
 11
77.996742
 21
-3.55081
 31
0.0
  0
LINE
  5
857
330
1F
100
AcDbEntity
  8
1
  6
CONTINUOUS
370
50
 62
4
100
AcDbLine
 10
53.866245
 20
4.787932
 30
0.0
 11
53.66431799999999
 21
4.935207
 31
0.0
  0
LINE
  5
858
330
1F
100
AcDbEntity
  8
1
  6
CONTINUOUS
370
50
 62
4
100
AcDbLine
 10
78.445526
 20
2.73578
 30
0.0
 11
78.36857599999999
 21
2.791829
 31
0.0
  0
LINE
  5
859
330
1F
100
AcDbEntity
  8
1
  6
CONTINUOUS
370
50
 62
4
100
AcDbLine
 10
56.0
 20
3.203382
 30
0.0
 11
55.617027
 21
3.482256
 31
0.0
  0
LINE
  5
85A
330
1F
100
AcDbEntity
  8
1
  6
CONTINUOUS
370
50
 62
4
100
AcDbLine
 10
69.911148
 20
3.50912
 30
0.0
 11
69.41236099999999
 21
3.872087
 31
0.0
  0
LINE
  5
85B
330
1F
100
AcDbEntity
  8
1
  6
CONTINUOUS
370
50
 62
4
100
AcDbLine
 10
52.595634
 20
5.500652
 30
0.0
 11
52.588181
 21
5.506063
 31
0.0
  0
LINE
  5
85C
330
1F
100
AcDbEntity
  8
1
  6
CONTINUOUS
370
50
 62
4
100
AcDbLine
 10
78.36857599999999
 20
2.791829
 30
0.0
 11
78.291901
 21
2.84745
 31
0.0
  0
LINE
  5
85D
330
1F
100
AcDbEntity
  8
1
  6
CONTINUOUS
370
50
 62
4
100
AcDbLine
 10
79.51235199999999
 20
3.5425
 30
0.0
 11
79.477486
 21
3.567776
 31
0.0
  0
LINE
  5
85E
330
1F
100
AcDbEntity
  8
1
  6
CONTINUOUS
370
50
 62
4
100
AcDbLine
 10
70.63533
 20
3.689109
 30
0.0
 11
70.330727
 21
3.909891
 31
0.0
  0
LINE
  5
85F
330
1F
100
AcDbEntity
  8
1
  6
CONTINUOUS
370
50
 62
4
100
AcDbLine
 10
79.784111
 20
1.736846
 30
0.0
 11
79.717361
 21
1.785148
 31
0.0
  0
LINE
  5
860
330
1F
100
AcDbEntity
  8
1
  6
CONTINUOUS
370
50
 62
4
100
AcDbLine
 10
78.291901
 20
2.84745
 30
0.0
 11
78.215462
 21
2.90267
 31
0.0
  0
LINE
  5
861
330
1F
100
AcDbEntity
  8
1
  6
CONTINUOUS
370
50
 62
4
100
AcDbLine
 10
79.435043
 20
-3.889248
 30
0.0
 11
79.16757199999999
 21
-3.696354
 31
0.0
  0
LINE
  5
862
330
1F
100
AcDbEntity
  8
1
  6
CONTINUOUS
370
50
 62
4
100
AcDbLine
 10
62.406048
 20
-3.971571
 30
0.0
 11
62.110287
 21
-3.758665
 31
0.0
  0
LINE
  5
863
330
1F
100
AcDbEntity
  8
1
  6
CONTINUOUS
370
50
 62
4
100
AcDbLine
 10
78.215462
 20
2.90267
 30
0.0
 11
78.13922099999999
 21
2.957514
 31
0.0
  0
LINE
  5
864
330
1F
100
AcDbEntity
  8
1
  6
CONTINUOUS
370
50
 62
4
100
AcDbLine
 10
78.13922099999999
 20
2.957514
 30
0.0
 11
78.063141
 21
3.012007
 31
0.0
  0
LINE
  5
865
330
1F
100
AcDbEntity
  8
1
  6
CONTINUOUS
370
50
 62
4
100
AcDbLine
 10
78.063141
 20
3.012007
 30
0.0
 11
77.987183
 21
3.066174
 31
0.0
  0
LINE
  5
866
330
1F
100
AcDbEntity
  8
1
  6
CONTINUOUS
370
50
 62
4
100
AcDbLine
 10
77.987183
 20
3.066174
 30
0.0
 11
77.911316
 21
3.120041
 31
0.0
  0
LINE
  5
867
330
1F
100
AcDbEntity
  8
1
  6
CONTINUOUS
370
50
 62
4
100
AcDbLine
 10
77.57247199999999
 20
3.814928
 30
0.0
 11
77.167259
 21
4.101391
 31
0.0
  0
LINE
  5
868
330
1F
100
AcDbEntity
  8
1
  6
CONTINUOUS
370
50
 62
4
100
AcDbLine
 10
77.911316
 20
3.120041
 30
0.0
 11
77.835503
 21
3.173634
 31
0.0
  0
LINE
  5
869
330
1F
100
AcDbEntity
  8
1
  6
CONTINUOUS
370
50
 62
4
100
AcDbLine
 10
78.691628
 20
3.70852
 30
0.0
 11
78.265114
 21
4.009739
 31
0.0
  0
LINE
  5
86A
330
1F
100
AcDbEntity
  8
1
  6
CONTINUOUS
370
50
 62
4
100
AcDbLine
 10
62.311234
 20
3.855466
 30
0.0
 11
61.935028
 21
4.120992999999999
 31
0.0
  0
LINE
  5
86B
330
1F
100
AcDbEntity
  8
1
  6
CONTINUOUS
370
50
 62
4
100
AcDbLine
 10
71.61074099999999
 20
-4.07961
 30
0.0
 11
71.240089
 21
-3.81802
 31
0.0
  0
LINE
  5
86C
330
1F
100
AcDbEntity
  8
1
  6
CONTINUOUS
370
50
 62
4
100
AcDbLine
 10
77.835503
 20
3.173634
 30
0.0
 11
77.759705
 21
3.226978
 31
0.0
  0
LINE
  5
86D
330
1F
100
AcDbEntity
  8
1
  6
CONTINUOUS
370
50
 62
4
100
AcDbLine
 10
52.629009
 20
-5.45805
 30
0.0
 11
52.59684799999999
 21
-5.435461999999999
 31
0.0
  0
LINE
  5
86E
330
1F
100
AcDbEntity
  8
1
  6
CONTINUOUS
370
50
 62
4
100
AcDbLine
 10
79.701538
 20
-4.076009
 30
0.0
 11
79.435043
 21
-3.889248
 31
0.0
  0
LINE
  5
86F
330
1F
100
AcDbEntity
  8
1
  6
CONTINUOUS
370
50
 62
4
100
AcDbLine
 10
70.732666
 20
-4.131628
 30
0.0
 11
70.322762
 21
-3.845006
 31
0.0
  0
LINE
  5
870
330
1F
100
AcDbEntity
  8
1
  6
CONTINUOUS
370
50
 62
4
100
AcDbLine
 10
78.680016
 20
-4.038887
 30
0.0
 11
78.338364
 21
-3.800287
 31
0.0
  0
LINE
  5
871
330
1F
100
AcDbEntity
  8
1
  6
CONTINUOUS
370
50
 62
4
100
AcDbLine
 10
61.395649
 20
3.82784
 30
0.0
 11
61.004482
 21
4.100584
 31
0.0
  0
LINE
  5
872
330
1F
100
AcDbEntity
  8
1
  6
CONTINUOUS
370
50
 62
4
100
AcDbLine
 10
52.603455
 20
5.495221
 30
0.0
 11
52.595634
 21
5.500652
 31
0.0
  0
LINE
  5
873
330
1F
100
AcDbEntity
  8
1
  6
CONTINUOUS
370
50
 62
4
100
AcDbLine
 10
63.67027299999999
 20
-4.172385
 30
0.0
 11
63.052528
 21
-3.744211
 31
0.0
  0
LINE
  5
874
330
1F
100
AcDbEntity
  8
1
  6
CONTINUOUS
370
50
 62
4
100
AcDbLine
 10
70.330727
 20
3.909891
 30
0.0
 11
70.023018
 21
4.122179
 31
0.0
  0
LINE
  5
875
330
1F
100
AcDbEntity
  8
1
  6
CONTINUOUS
370
50
 62
4
100
AcDbLine
 10
79.843018
 20
1.696303
 30
0.0
 11
79.784111
 21
1.736846
 31
0.0
  0
LINE
  5
876
330
1F
100
AcDbEntity
  8
1
  6
CONTINUOUS
370
50
 62
4
100
AcDbLine
 10
62.737907
 20
-4.198588
 30
0.0
 11
62.406048
 21
-3.971571
 31
0.0
  0
LINE
  5
877
330
1F
100
AcDbEntity
  8
1
  6
CONTINUOUS
370
50
 62
4
100
AcDbLine
 10
69.41236099999999
 20
3.872087
 30
0.0
 11
68.914993
 21
4.211704999999999
 31
0.0
  0
LINE
  5
878
330
1F
100
AcDbEntity
  8
1
  6
CONTINUOUS
370
50
 62
4
100
AcDbLine
 10
79.966652
 20
-4.256330999999999
 30
0.0
 11
79.701538
 21
-4.076009
 31
0.0
  0
LINE
  5
879
330
1F
100
AcDbEntity
  8
1
  6
CONTINUOUS
370
50
 62
4
100
AcDbLine
 10
73.96414899999999
 20
-0.033989
 30
0.0
 11
73.267815
 21
0.433758
 31
0.0
  0
LINE
  5
87A
330
1F
100
AcDbEntity
  8
1
  6
CONTINUOUS
370
50
 62
4
100
AcDbLine
 10
77.167259
 20
4.101391
 30
0.0
 11
76.766037
 21
4.370153999999999
 31
0.0
  0
LINE
  5
87B
330
1F
100
AcDbEntity
  8
1
  6
CONTINUOUS
370
50
 62
4
100
AcDbLine
 10
65.873108
 20
-0.034379
 30
0.0
 11
65.167885
 21
0.437441
 31
0.0
  0
LINE
  5
87C
330
1F
100
AcDbEntity
  8
1
  6
CONTINUOUS
370
50
 62
4
100
AcDbLine
 10
78.265114
 20
4.009739
 30
0.0
 11
77.839561
 21
4.293835
 31
0.0
  0
LINE
  5
87D
330
1F
100
AcDbEntity
  8
1
  6
CONTINUOUS
370
50
 62
4
100
AcDbLine
 10
65.167885
 20
0.437441
 30
0.0
 11
64.462662
 21
0.9082159999999999
 31
0.0
  0
LINE
  5
87E
330
1F
100
AcDbEntity
  8
1
  6
CONTINUOUS
370
50
 62
4
100
AcDbLine
 10
52.611629
 20
5.48977
 30
0.0
 11
52.603455
 21
5.495221
 31
0.0
  0
LINE
  5
87F
330
1F
100
AcDbEntity
  8
1
  6
CONTINUOUS
370
50
 62
4
100
AcDbLine
 10
79.02108799999999
 20
-4.266337
 30
0.0
 11
78.680016
 21
-4.038887
 31
0.0
  0
LINE
  5
880
330
1F
100
AcDbEntity
  8
1
  6
CONTINUOUS
370
50
 62
4
100
AcDbLine
 10
61.935028
 20
4.120992999999999
 30
0.0
 11
61.558052
 21
4.372335
 31
0.0
  0
LINE
  5
881
330
1F
100
AcDbEntity
  8
1
  6
CONTINUOUS
370
50
 62
4
100
AcDbLine
 10
53.66431799999999
 20
4.935207
 30
0.0
 11
53.462391
 21
5.069351
 31
0.0
  0
LINE
  5
882
330
1F
100
AcDbEntity
  8
1
  6
CONTINUOUS
370
50
 62
4
100
AcDbLine
 10
71.140221
 20
-4.402111
 30
0.0
 11
70.732666
 21
-4.131628
 31
0.0
  0
LINE
  5
883
330
1F
100
AcDbEntity
  8
1
  6
CONTINUOUS
370
50
 62
4
100
AcDbLine
 10
71.983063
 20
-4.326394
 30
0.0
 11
71.61074099999999
 21
-4.07961
 31
0.0
  0
LINE
  5
884
330
1F
100
AcDbEntity
  8
1
  6
CONTINUOUS
370
50
 62
4
100
AcDbLine
 10
57.795101
 20
-0.03382
 30
0.0
 11
57.495918
 21
0.163972
 31
0.0
  0
LINE
  5
885
330
1F
100
AcDbEntity
  8
1
  6
CONTINUOUS
370
50
 62
4
100
AcDbLine
 10
57.495918
 20
0.163972
 30
0.0
 11
57.196735
 21
0.361425
 31
0.0
  0
LINE
  5
886
330
1F
100
AcDbEntity
  8
1
  6
CONTINUOUS
370
50
 62
4
100
AcDbLine
 10
57.196735
 20
0.361425
 30
0.0
 11
56.897552
 21
0.558596
 31
0.0
  0
LINE
  5
887
330
1F
100
AcDbEntity
  8
1
  6
CONTINUOUS
370
50
 62
4
100
AcDbLine
 10
56.897552
 20
0.558596
 30
0.0
 11
56.598366
 21
0.755535
 31
0.0
  0
LINE
  5
888
330
1F
100
AcDbEntity
  8
1
  6
CONTINUOUS
370
50
 62
4
100
AcDbLine
 10
56.598366
 20
0.755535
 30
0.0
 11
56.299183
 21
0.952295
 31
0.0
  0
LINE
  5
889
330
1F
100
AcDbEntity
  8
1
  6
CONTINUOUS
370
50
 62
4
100
AcDbLine
 10
56.299183
 20
0.952295
 30
0.0
 11
56.0
 21
1.148928
 31
0.0
  0
LINE
  5
88A
330
1F
100
AcDbEntity
  8
1
  6
CONTINUOUS
370
50
 62
4
100
AcDbLine
 10
70.023018
 20
4.122179
 30
0.0
 11
69.714226
 21
4.324913
 31
0.0
  0
LINE
  5
88B
330
1F
100
AcDbEntity
  8
1
  6
CONTINUOUS
370
50
 62
4
100
AcDbLine
 10
61.004482
 20
4.100584
 30
0.0
 11
60.61225899999999
 21
4.357584999999999
 31
0.0
  0
LINE
  5
88C
330
1F
100
AcDbEntity
  8
1
  6
CONTINUOUS
370
50
 62
4
100
AcDbLine
 10
73.267815
 20
0.433758
 30
0.0
 11
72.57148
 21
0.889589
 31
0.0
  0
LINE
  5
88D
330
1F
100
AcDbEntity
  8
1
  6
CONTINUOUS
370
50
 62
4
100
AcDbLine
 10
63.103939
 20
-4.434467
 30
0.0
 11
62.737907
 21
-4.198588
 31
0.0
  0
LINE
  5
88E
330
1F
100
AcDbEntity
  8
1
  6
CONTINUOUS
370
50
 62
4
100
AcDbLine
 10
52.620148
 20
5.484302
 30
0.0
 11
52.611629
 21
5.48977
 31
0.0
  0
LINE
  5
88F
330
1F
100
AcDbEntity
  8
1
  6
CONTINUOUS
370
50
 62
4
100
AcDbLine
 10
64.462662
 20
0.9082159999999999
 30
0.0
 11
63.75744599999999
 21
1.360072
 31
0.0
  0
LINE
  5
890
330
1F
100
AcDbEntity
  8
1
  6
CONTINUOUS
370
50
 62
4
100
AcDbLine
 10
68.914993
 20
4.211704999999999
 30
0.0
 11
68.42575099999999
 21
4.524786
 31
0.0
  0
LINE
  5
891
330
1F
100
AcDbEntity
  8
1
  6
CONTINUOUS
370
50
 62
4
100
AcDbLine
 10
72.57148
 20
0.889589
 30
0.0
 11
71.875137
 21
1.33462
 31
0.0
  0
LINE
  5
892
330
1F
100
AcDbEntity
  8
1
  6
CONTINUOUS
370
50
 62
4
100
AcDbLine
 10
79.36142
 20
-4.48259
 30
0.0
 11
79.02108799999999
 21
-4.266337
 31
0.0
  0
LINE
  5
893
330
1F
100
AcDbEntity
  8
1
  6
CONTINUOUS
370
50
 62
4
100
AcDbLine
 10
64.284576
 20
-4.562099
 30
0.0
 11
63.67027299999999
 21
-4.172385
 31
0.0
  0
LINE
  5
894
330
1F
100
AcDbEntity
  8
1
  6
CONTINUOUS
370
50
 62
4
100
AcDbLine
 10
77.839561
 20
4.293835
 30
0.0
 11
77.415459
 21
4.560612
 31
0.0
  0
LINE
  5
895
330
1F
100
AcDbEntity
  8
1
  6
CONTINUOUS
370
50
 62
4
100
AcDbLine
 10
71.875137
 20
1.33462
 30
0.0
 11
71.178795
 21
1.769309
 31
0.0
  0
LINE
  5
896
330
1F
100
AcDbEntity
  8
1
  6
CONTINUOUS
370
50
 62
4
100
AcDbLine
 10
69.714226
 20
4.324913
 30
0.0
 11
69.404984
 21
4.51777
 31
0.0
  0
LINE
  5
897
330
1F
100
AcDbEntity
  8
1
  6
CONTINUOUS
370
50
 62
4
100
AcDbLine
 10
79.89061
 20
1.666744
 30
0.0
 11
79.843018
 21
1.696303
 31
0.0
  0
LINE
  5
898
330
1F
100
AcDbEntity
  8
1
  6
CONTINUOUS
370
50
 62
4
100
AcDbLine
 10
72.356178
 20
-4.558059
 30
0.0
 11
71.983063
 21
-4.326394
 31
0.0
  0
LINE
  5
899
330
1F
100
AcDbEntity
  8
1
  6
CONTINUOUS
370
50
 62
4
100
AcDbLine
 10
76.766037
 20
4.370153999999999
 30
0.0
 11
76.360756
 21
4.621652
 31
0.0
  0
LINE
  5
89A
330
1F
100
AcDbEntity
  8
1
  6
CONTINUOUS
370
50
 62
4
100
AcDbLine
 10
52.629009
 20
5.478818
 30
0.0
 11
52.620148
 21
5.484302
 31
0.0
  0
LINE
  5
89B
330
1F
100
AcDbEntity
  8
1
  6
CONTINUOUS
370
50
 62
4
100
AcDbLine
 10
61.558052
 20
4.372335
 30
0.0
 11
61.173908
 21
4.609913
 31
0.0
  0
LINE
  5
89C
330
1F
100
AcDbEntity
  8
1
  6
CONTINUOUS
370
50
 62
4
100
AcDbLine
 10
71.55019399999999
 20
-4.655088
 30
0.0
 11
71.140221
 21
-4.402111
 31
0.0
  0
LINE
  5
89D
330
1F
100
AcDbEntity
  8
1
  6
CONTINUOUS
370
50
 62
4
100
AcDbLine
 10
63.75744599999999
 20
1.360072
 30
0.0
 11
63.052223
 21
1.79369
 31
0.0
  0
LINE
  5
89E
330
1F
100
AcDbEntity
  8
1
  6
CONTINUOUS
370
50
 62
4
100
AcDbLine
 10
56.367771
 20
-4.668854
 30
0.0
 11
56.0
 21
-4.442822
 31
0.0
  0
LINE
  5
89F
330
1F
100
AcDbEntity
  8
1
  6
CONTINUOUS
370
50
 62
4
100
AcDbLine
 10
60.61225899999999
 20
4.357584999999999
 30
0.0
 11
60.22015399999999
 21
4.59832
 31
0.0
  0
LINE
  5
8A0
330
1F
100
AcDbEntity
  8
1
  6
CONTINUOUS
370
50
 62
4
100
AcDbLine
 10
79.69162
 20
-4.682055
 30
0.0
 11
79.36142
 21
-4.48259
 31
0.0
  0
LINE
  5
8A1
330
1F
100
AcDbEntity
  8
1
  6
CONTINUOUS
370
50
 62
4
100
AcDbLine
 10
63.50221999999999
 20
-4.673960999999999
 30
0.0
 11
63.103939
 21
-4.434467
 31
0.0
  0
LINE
  5
8A2
330
1F
100
AcDbEntity
  8
1
  6
CONTINUOUS
370
50
 62
4
100
AcDbLine
 10
71.178795
 20
1.769309
 30
0.0
 11
70.48246
 21
2.187127
 31
0.0
  0
LINE
  5
8A3
330
1F
100
AcDbEntity
  8
1
  6
CONTINUOUS
370
50
 62
4
100
AcDbLine
 10
53.462391
 20
5.069351
 30
0.0
 11
53.259178
 21
5.190574
 31
0.0
  0
LINE
  5
8A4
330
1F
100
AcDbEntity
  8
1
  6
CONTINUOUS
370
50
 62
4
100
AcDbLine
 10
68.42575099999999
 20
4.524786
 30
0.0
 11
67.944214
 21
4.809782
 31
0.0
  0
LINE
  5
8A5
330
1F
100
AcDbEntity
  8
1
  6
CONTINUOUS
370
50
 62
4
100
AcDbLine
 10
69.404984
 20
4.51777
 30
0.0
 11
69.095947
 21
4.700432
 31
0.0
  0
LINE
  5
8A6
330
1F
100
AcDbEntity
  8
1
  6
CONTINUOUS
370
50
 62
4
100
AcDbLine
 10
63.052223
 20
1.79369
 30
0.0
 11
62.346996
 21
2.209625
 31
0.0
  0
LINE
  5
8A7
330
1F
100
AcDbEntity
  8
1
  6
CONTINUOUS
370
50
 62
4
100
AcDbLine
 10
77.415459
 20
4.560612
 30
0.0
 11
76.99544499999999
 21
4.808085999999999
 31
0.0
  0
LINE
  5
8A8
330
1F
100
AcDbEntity
  8
1
  6
CONTINUOUS
370
50
 62
4
100
AcDbLine
 10
72.73020199999999
 20
-4.774909
 30
0.0
 11
72.356178
 21
-4.558059
 31
0.0
  0
LINE
  5
8A9
330
1F
100
AcDbEntity
  8
1
  6
CONTINUOUS
370
50
 62
4
100
AcDbLine
 10
64.884903
 20
-4.90791
 30
0.0
 11
64.284576
 21
-4.562099
 31
0.0
  0
LINE
  5
8AA
330
1F
100
AcDbEntity
  8
1
  6
CONTINUOUS
370
50
 62
4
100
AcDbLine
 10
80.0
 20
-4.858862999999999
 30
0.0
 11
79.69162
 21
-4.682055
 31
0.0
  0
LINE
  5
8AB
330
1F
100
AcDbEntity
  8
1
  6
CONTINUOUS
370
50
 62
4
100
AcDbLine
 10
60.22015399999999
 20
4.59832
 30
0.0
 11
59.828438
 21
4.822774
 31
0.0
  0
LINE
  5
8AC
330
1F
100
AcDbEntity
  8
1
  6
CONTINUOUS
370
50
 62
4
100
AcDbLine
 10
61.173908
 20
4.609913
 30
0.0
 11
60.787086
 21
4.830824
 31
0.0
  0
LINE
  5
8AD
330
1F
100
AcDbEntity
  8
1
  6
CONTINUOUS
370
50
 62
4
100
AcDbLine
 10
76.360756
 20
4.621652
 30
0.0
 11
75.953552
 21
4.853521
 31
0.0
  0
LINE
  5
8AE
330
1F
100
AcDbEntity
  8
1
  6
CONTINUOUS
370
50
 62
4
100
AcDbLine
 10
71.967247
 20
-4.890302999999999
 30
0.0
 11
71.55019399999999
 21
-4.655088
 31
0.0
  0
LINE
  5
8AF
330
1F
100
AcDbEntity
  8
1
  6
CONTINUOUS
370
50
 62
4
100
AcDbLine
 10
56.800594
 20
-4.911934
 30
0.0
 11
56.367771
 21
-4.668854
 31
0.0
  0
LINE
  5
8B0
330
1F
100
AcDbEntity
  8
1
  6
CONTINUOUS
370
50
 62
4
100
AcDbLine
 10
62.346996
 20
2.209625
 30
0.0
 11
61.641773
 21
2.604799
 31
0.0
  0
LINE
  5
8B1
330
1F
100
AcDbEntity
  8
1
  6
CONTINUOUS
370
50
 62
4
100
AcDbLine
 10
69.095947
 20
4.700432
 30
0.0
 11
68.78775
 21
4.872578
 31
0.0
  0
LINE
  5
8B2
330
1F
100
AcDbEntity
  8
1
  6
CONTINUOUS
370
50
 62
4
100
AcDbLine
 10
63.926689
 20
-4.909668
 30
0.0
 11
63.50221999999999
 21
-4.673960999999999
 31
0.0
  0
LINE
  5
8B3
330
1F
100
AcDbEntity
  8
1
  6
CONTINUOUS
370
50
 62
4
100
AcDbLine
 10
70.48246
 20
2.187127
 30
0.0
 11
69.786125
 21
2.572261
 31
0.0
  0
LINE
  5
8B4
330
1F
100
AcDbEntity
  8
1
  6
CONTINUOUS
370
50
 62
4
100
AcDbLine
 10
80.0
 20
0.00384
 30
0.0
 11
79.360985
 21
0.355266
 31
0.0
  0
LINE
  5
8B5
330
1F
100
AcDbEntity
  8
1
  6
CONTINUOUS
370
50
 62
4
100
AcDbLine
 10
76.99544499999999
 20
4.808085999999999
 30
0.0
 11
76.576218
 21
5.034479999999999
 31
0.0
  0
LINE
  5
8B6
330
1F
100
AcDbEntity
  8
1
  6
CONTINUOUS
370
50
 62
4
100
AcDbLine
 10
73.10427899999999
 20
-4.976452999999999
 30
0.0
 11
72.73020199999999
 21
-4.774909
 31
0.0
  0
LINE
  5
8B7
330
1F
100
AcDbEntity
  8
1
  6
CONTINUOUS
370
50
 62
4
100
AcDbLine
 10
79.36097699999999
 20
0.355266
 30
0.0
 11
79.113564
 21
0.488052
 31
0.0
  0
LINE
  5
8B8
330
1F
100
AcDbEntity
  8
1
  6
CONTINUOUS
370
50
 62
4
100
AcDbLine
 10
79.113564
 20
0.488052
 30
0.0
 11
78.86923999999999
 21
0.619155
 31
0.0
  0
LINE
  5
8B9
330
1F
100
AcDbEntity
  8
1
  6
CONTINUOUS
370
50
 62
4
100
AcDbLine
 10
78.86923999999999
 20
0.619155
 30
0.0
 11
78.63484199999999
 21
0.744915
 31
0.0
  0
LINE
  5
8BA
330
1F
100
AcDbEntity
  8
1
  6
CONTINUOUS
370
50
 62
4
100
AcDbLine
 10
78.63484199999999
 20
0.744915
 30
0.0
 11
78.410927
 21
0.8650319999999999
 31
0.0
  0
LINE
  5
8BB
330
1F
100
AcDbEntity
  8
1
  6
CONTINUOUS
370
50
 62
4
100
AcDbLine
 10
78.410927
 20
0.8650319999999999
 30
0.0
 11
78.197723
 21
0.979383
 31
0.0
  0
LINE
  5
8BC
330
1F
100
AcDbEntity
  8
1
  6
CONTINUOUS
370
50
 62
4
100
AcDbLine
 10
78.197723
 20
0.979383
 30
0.0
 11
77.995476
 21
1.087845
 31
0.0
  0
LINE
  5
8BD
330
1F
100
AcDbEntity
  8
1
  6
CONTINUOUS
370
50
 62
4
100
AcDbLine
 10
77.995476
 20
1.087845
 30
0.0
 11
77.804413
 21
1.190295
 31
0.0
  0
LINE
  5
8BE
330
1F
100
AcDbEntity
  8
1
  6
CONTINUOUS
370
50
 62
4
100
AcDbLine
 10
67.944214
 20
4.809782
 30
0.0
 11
67.46373
 21
5.066238999999999
 31
0.0
  0
LINE
  5
8BF
330
1F
100
AcDbEntity
  8
1
  6
CONTINUOUS
370
50
 62
4
100
AcDbLine
 10
59.828438
 20
4.822774
 30
0.0
 11
59.438194
 21
5.03031
 31
0.0
  0
LINE
  5
8C0
330
1F
100
AcDbEntity
  8
1
  6
CONTINUOUS
370
50
 62
4
100
AcDbLine
 10
53.259178
 20
5.190574
 30
0.0
 11
53.05339799999999
 21
5.299086
 31
0.0
  0
LINE
  5
8C1
330
1F
100
AcDbEntity
  8
1
  6
CONTINUOUS
370
50
 62
4
100
AcDbLine
 10
68.78775
 20
4.872578
 30
0.0
 11
68.480988
 21
5.033914999999999
 31
0.0
  0
LINE
  5
8C2
330
1F
100
AcDbEntity
  8
1
  6
CONTINUOUS
370
50
 62
4
100
AcDbLine
 10
60.787086
 20
4.830824
 30
0.0
 11
60.399635
 21
5.034223
 31
0.0
  0
LINE
  5
8C3
330
1F
100
AcDbEntity
  8
1
  6
CONTINUOUS
370
50
 62
4
100
AcDbLine
 10
71.12441299999999
 20
-0.024404
 30
0.0
 11
70.29027599999999
 21
0.413119
 31
0.0
  0
LINE
  5
8C4
330
1F
100
AcDbEntity
  8
1
  6
CONTINUOUS
370
50
 62
4
100
AcDbLine
 10
77.026367
 20
4.802154
 30
0.0
 11
76.96206699999999
 21
4.835668
 31
0.0
  0
LINE
  5
8C5
330
1F
100
AcDbEntity
  8
1
  6
CONTINUOUS
370
50
 62
4
100
AcDbLine
 10
78.004524
 20
2.496487
 30
0.0
 11
77.29682199999999
 21
2.865294
 31
0.0
  0
LINE
  5
8C6
330
1F
100
AcDbEntity
  8
1
  6
CONTINUOUS
370
50
 62
4
100
AcDbLine
 10
71.938828
 20
-0.44854
 30
0.0
 11
71.12441299999999
 21
-0.024404
 31
0.0
  0
LINE
  5
8C7
330
1F
100
AcDbEntity
  8
1
  6
CONTINUOUS
370
50
 62
4
100
AcDbLine
 10
77.090668
 20
4.768672
 30
0.0
 11
77.026367
 21
4.802154
 31
0.0
  0
LINE
  5
8C8
330
1F
100
AcDbEntity
  8
1
  6
CONTINUOUS
370
50
 62
4
100
AcDbLine
 10
79.408852
 20
-0.123623
 30
0.0
 11
79.37689999999999
 21
-0.106994
 31
0.0
  0
LINE
  5
8C9
330
1F
100
AcDbEntity
  8
1
  6
CONTINUOUS
370
50
 62
4
100
AcDbLine
 10
63.036934
 20
-0.024483
 30
0.0
 11
62.20449799999999
 21
0.408442
 31
0.0
  0
LINE
  5
8CA
330
1F
100
AcDbEntity
  8
1
  6
CONTINUOUS
370
50
 62
4
100
AcDbLine
 10
79.37689999999999
 20
-0.106994
 30
0.0
 11
79.34494
 21
-0.090376
 31
0.0
  0
LINE
  5
8CB
330
1F
100
AcDbEntity
  8
1
  6
CONTINUOUS
370
50
 62
4
100
AcDbLine
 10
79.34494
 20
-0.090376
 30
0.0
 11
79.31298799999999
 21
-0.073767
 31
0.0
  0
LINE
  5
8CC
330
1F
100
AcDbEntity
  8
1
  6
CONTINUOUS
370
50
 62
4
100
AcDbLine
 10
76.96206699999999
 20
4.835668
 30
0.0
 11
76.897774
 21
4.869085
 31
0.0
  0
LINE
  5
8CD
330
1F
100
AcDbEntity
  8
1
  6
CONTINUOUS
370
50
 62
4
100
AcDbLine
 10
77.168106
 20
4.728431
 30
0.0
 11
77.090668
 21
4.768672
 31
0.0
  0
LINE
  5
8CE
330
1F
100
AcDbEntity
  8
1
  6
CONTINUOUS
370
50
 62
4
100
AcDbLine
 10
79.31298799999999
 20
-0.073767
 30
0.0
 11
79.281036
 21
-0.057168
 31
0.0
  0
LINE
  5
8CF
330
1F
100
AcDbEntity
  8
1
  6
CONTINUOUS
370
50
 62
4
100
AcDbLine
 10
75.953552
 20
4.853521
 30
0.0
 11
75.545219
 21
5.065607
 31
0.0
  0
LINE
  5
8D0
330
1F
100
AcDbEntity
  8
1
  6
CONTINUOUS
370
50
 62
4
100
AcDbLine
 10
79.281036
 20
-0.057168
 30
0.0
 11
79.249077
 21
-0.040579
 31
0.0
  0
LINE
  5
8D1
330
1F
100
AcDbEntity
  8
1
  6
CONTINUOUS
370
50
 62
4
100
AcDbLine
 10
79.249077
 20
-0.040579
 30
0.0
 11
79.217125
 21
-0.024
 31
0.0
  0
LINE
  5
8D2
330
1F
100
AcDbEntity
  8
1
  6
CONTINUOUS
370
50
 62
4
100
AcDbLine
 10
61.98494299999999
 20
4.22519
 30
0.0
 11
61.868416
 21
4.285644
 31
0.0
  0
LINE
  5
8D3
330
1F
100
AcDbEntity
  8
1
  6
CONTINUOUS
370
50
 62
4
100
AcDbLine
 10
77.245544
 20
4.688281
 30
0.0
 11
77.168106
 21
4.728431
 31
0.0
  0
LINE
  5
8D4
330
1F
100
AcDbEntity
  8
1
  6
CONTINUOUS
370
50
 62
4
100
AcDbLine
 10
62.101471
 20
4.16479
 30
0.0
 11
61.98494299999999
 21
4.22519
 31
0.0
  0
LINE
  5
8D5
330
1F
100
AcDbEntity
  8
1
  6
CONTINUOUS
370
50
 62
4
100
AcDbLine
 10
79.413208
 20
-0.125361
 30
0.0
 11
79.380539
 21
-0.108429
 31
0.0
  0
LINE
  5
8D6
330
1F
100
AcDbEntity
  8
1
  6
CONTINUOUS
370
50
 62
4
100
AcDbLine
 10
76.897774
 20
4.869085
 30
0.0
 11
76.833473
 21
4.902392
 31
0.0
  0
LINE
  5
8D7
330
1F
100
AcDbEntity
  8
1
  6
CONTINUOUS
370
50
 62
4
100
AcDbLine
 10
79.380539
 20
-0.108429
 30
0.0
 11
79.347855
 21
-0.091505
 31
0.0
  0
LINE
  5
8D8
330
1F
100
AcDbEntity
  8
1
  6
CONTINUOUS
370
50
 62
4
100
AcDbLine
 10
79.347855
 20
-0.091505
 30
0.0
 11
79.315178
 21
-0.074591
 31
0.0
  0
LINE
  5
8D9
330
1F
100
AcDbEntity
  8
1
  6
CONTINUOUS
370
50
 62
4
100
AcDbLine
 10
61.868416
 20
4.285644
 30
0.0
 11
61.751884
 21
4.345931999999999
 31
0.0
  0
LINE
  5
8DA
330
1F
100
AcDbEntity
  8
1
  6
CONTINUOUS
370
50
 62
4
100
AcDbLine
 10
77.32298999999999
 20
4.648223
 30
0.0
 11
77.245544
 21
4.688281
 31
0.0
  0
LINE
  5
8DB
330
1F
100
AcDbEntity
  8
1
  6
CONTINUOUS
370
50
 62
4
100
AcDbLine
 10
72.07002299999999
 20
-0.513486
 30
0.0
 11
71.124397
 21
-0.024398
 31
0.0
  0
LINE
  5
8DC
330
1F
100
AcDbEntity
  8
1
  6
CONTINUOUS
370
50
 62
4
100
AcDbLine
 10
79.315178
 20
-0.074591
 30
0.0
 11
79.282494
 21
-0.057687
 31
0.0
  0
LINE
  5
8DD
330
1F
100
AcDbEntity
  8
1
  6
CONTINUOUS
370
50
 62
4
100
AcDbLine
 10
62.20449799999999
 20
0.408442
 30
0.0
 11
61.371975
 21
0.838919
 31
0.0
  0
LINE
  5
8DE
330
1F
100
AcDbEntity
  8
1
  6
CONTINUOUS
370
50
 62
4
100
AcDbLine
 10
79.282494
 20
-0.057687
 30
0.0
 11
79.249802
 21
-0.040792
 31
0.0
  0
LINE
  5
8DF
330
1F
100
AcDbEntity
  8
1
  6
CONTINUOUS
370
50
 62
4
100
AcDbLine
 10
79.249802
 20
-0.040792
 30
0.0
 11
79.217117
 21
-0.023908
 31
0.0
  0
LINE
  5
8E0
330
1F
100
AcDbEntity
  8
1
  6
CONTINUOUS
370
50
 62
4
100
AcDbLine
 10
76.833473
 20
4.902392
 30
0.0
 11
76.76915699999999
 21
4.935597
 31
0.0
  0
LINE
  5
8E1
330
1F
100
AcDbEntity
  8
1
  6
CONTINUOUS
370
50
 62
4
100
AcDbLine
 10
77.400429
 20
4.608258999999999
 30
0.0
 11
77.32298999999999
 21
4.648223
 31
0.0
  0
LINE
  5
8E2
330
1F
100
AcDbEntity
  8
1
  6
CONTINUOUS
370
50
 62
4
100
AcDbLine
 10
61.751884
 20
4.345931999999999
 30
0.0
 11
61.65089399999999
 21
4.398047
 31
0.0
  0
LINE
  5
8E3
330
1F
100
AcDbEntity
  8
1
  6
CONTINUOUS
370
50
 62
4
100
AcDbLine
 10
56.165581
 20
-5.080630999999999
 30
0.0
 11
56.0
 21
-4.995316
 31
0.0
  0
LINE
  5
8E4
330
1F
100
AcDbEntity
  8
1
  6
CONTINUOUS
370
50
 62
4
100
AcDbLine
 10
79.217125
 20
-0.024
 30
0.0
 11
78.381813
 21
0.406136
 31
0.0
  0
LINE
  5
8E5
330
1F
100
AcDbEntity
  8
1
  6
CONTINUOUS
370
50
 62
4
100
AcDbLine
 10
77.477875
 20
4.568379999999999
 30
0.0
 11
77.400429
 21
4.608258999999999
 31
0.0
  0
LINE
  5
8E6
330
1F
100
AcDbEntity
  8
1
  6
CONTINUOUS
370
50
 62
4
100
AcDbLine
 10
62.217999
 20
4.104795
 30
0.0
 11
62.101471
 21
4.16479
 31
0.0
  0
LINE
  5
8E7
330
1F
100
AcDbEntity
  8
1
  6
CONTINUOUS
370
50
 62
4
100
AcDbLine
 10
61.65089399999999
 20
4.398047
 30
0.0
 11
61.549904
 21
4.450038999999999
 31
0.0
  0
LINE
  5
8E8
330
1F
100
AcDbEntity
  8
1
  6
CONTINUOUS
370
50
 62
4
100
AcDbLine
 10
76.76915699999999
 20
4.935597
 30
0.0
 11
76.704842
 21
4.968693
 31
0.0
  0
LINE
  5
8E9
330
1F
100
AcDbEntity
  8
1
  6
CONTINUOUS
370
50
 62
4
100
AcDbLine
 10
63.85017
 20
-0.442645
 30
0.0
 11
63.036934
 21
-0.024483
 31
0.0
  0
LINE
  5
8EA
330
1F
100
AcDbEntity
  8
1
  6
CONTINUOUS
370
50
 62
4
100
AcDbLine
 10
77.555328
 20
4.528594
 30
0.0
 11
77.477875
 21
4.568379999999999
 31
0.0
  0
LINE
  5
8EB
330
1F
100
AcDbEntity
  8
1
  6
CONTINUOUS
370
50
 62
4
100
AcDbLine
 10
61.549904
 20
4.450038999999999
 30
0.0
 11
61.45531099999999
 21
4.498629
 31
0.0
  0
LINE
  5
8EC
330
1F
100
AcDbEntity
  8
1
  6
CONTINUOUS
370
50
 62
4
100
AcDbLine
 10
76.704842
 20
4.968693
 30
0.0
 11
76.640526
 21
5.001679
 31
0.0
  0
LINE
  5
8ED
330
1F
100
AcDbEntity
  8
1
  6
CONTINUOUS
370
50
 62
4
100
AcDbLine
 10
61.45531099999999
 20
4.498629
 30
0.0
 11
61.36071399999999
 21
4.547113
 31
0.0
  0
LINE
  5
8EE
330
1F
100
AcDbEntity
  8
1
  6
CONTINUOUS
370
50
 62
4
100
AcDbLine
 10
77.63278199999999
 20
4.4889
 30
0.0
 11
77.555328
 21
4.528594
 31
0.0
  0
LINE
  5
8EF
330
1F
100
AcDbEntity
  8
1
  6
CONTINUOUS
370
50
 62
4
100
AcDbLine
 10
63.849148
 20
-0.440094
 30
0.0
 11
63.036964
 21
-0.024384
 31
0.0
  0
LINE
  5
8F0
330
1F
100
AcDbEntity
  8
1
  6
CONTINUOUS
370
50
 62
4
100
AcDbLine
 10
61.36071399999999
 20
4.547113
 30
0.0
 11
61.266121
 21
4.595495
 31
0.0
  0
LINE
  5
8F1
330
1F
100
AcDbEntity
  8
1
  6
CONTINUOUS
370
50
 62
4
100
AcDbLine
 10
62.33454099999999
 20
4.045198
 30
0.0
 11
62.217999
 21
4.104795
 31
0.0
  0
LINE
  5
8F2
330
1F
100
AcDbEntity
  8
1
  6
CONTINUOUS
370
50
 62
4
100
AcDbLine
 10
77.710228
 20
4.449295999999999
 30
0.0
 11
77.63278199999999
 21
4.4889
 31
0.0
  0
LINE
  5
8F3
330
1F
100
AcDbEntity
  8
1
  6
CONTINUOUS
370
50
 62
4
100
AcDbLine
 10
76.640526
 20
5.001679
 30
0.0
 11
76.576218
 21
5.034555999999999
 31
0.0
  0
LINE
  5
8F4
330
1F
100
AcDbEntity
  8
1
  6
CONTINUOUS
370
50
 62
4
100
AcDbLine
 10
72.38887799999999
 20
-5.105657
 30
0.0
 11
71.967247
 21
-4.890302999999999
 31
0.0
  0
LINE
  5
8F5
330
1F
100
AcDbEntity
  8
1
  6
CONTINUOUS
370
50
 62
4
100
AcDbLine
 10
61.266121
 20
4.595495
 30
0.0
 11
61.171528
 21
4.643774
 31
0.0
  0
LINE
  5
8F6
330
1F
100
AcDbEntity
  8
1
  6
CONTINUOUS
370
50
 62
4
100
AcDbLine
 10
56.77581
 20
-0.961297
 30
0.0
 11
56.0
 21
-0.565346
 31
0.0
  0
LINE
  5
8F7
330
1F
100
AcDbEntity
  8
1
  6
CONTINUOUS
370
50
 62
4
100
AcDbLine
 10
77.79502099999999
 20
4.406044
 30
0.0
 11
77.710228
 21
4.449295999999999
 31
0.0
  0
LINE
  5
8F8
330
1F
100
AcDbEntity
  8
1
  6
CONTINUOUS
370
50
 62
4
100
AcDbLine
 10
64.66347499999999
 20
-0.8569979999999999
 30
0.0
 11
63.85017
 21
-0.442645
 31
0.0
  0
LINE
  5
8F9
330
1F
100
AcDbEntity
  8
1
  6
CONTINUOUS
370
50
 62
4
100
AcDbLine
 10
61.171528
 20
4.643774
 30
0.0
 11
61.07691999999999
 21
4.691961
 31
0.0
  0
LINE
  5
8FA
330
1F
100
AcDbEntity
  8
1
  6
CONTINUOUS
370
50
 62
4
100
AcDbLine
 10
68.598511
 20
4.974067
 30
0.0
 11
68.480988
 21
5.033913999999999
 31
0.0
  0
LINE
  5
8FB
330
1F
100
AcDbEntity
  8
1
  6
CONTINUOUS
370
50
 62
4
100
AcDbLine
 10
77.879807
 20
4.362897999999999
 30
0.0
 11
77.79502099999999
 21
4.406044
 31
0.0
  0
LINE
  5
8FC
330
1F
100
AcDbEntity
  8
1
  6
CONTINUOUS
370
50
 62
4
100
AcDbLine
 10
68.716034
 20
4.914266
 30
0.0
 11
68.598511
 21
4.974067
 31
0.0
  0
LINE
  5
8FD
330
1F
100
AcDbEntity
  8
1
  6
CONTINUOUS
370
50
 62
4
100
AcDbLine
 10
68.83354899999999
 20
4.854512
 30
0.0
 11
68.716034
 21
4.914266
 31
0.0
  0
LINE
  5
8FE
330
1F
100
AcDbEntity
  8
1
  6
CONTINUOUS
370
50
 62
4
100
AcDbLine
 10
78.381813
 20
0.406136
 30
0.0
 11
77.54660799999999
 21
0.830737
 31
0.0
  0
LINE
  5
8FF
330
1F
100
AcDbEntity
  8
1
  6
CONTINUOUS
370
50
 62
4
100
AcDbLine
 10
61.07691999999999
 20
4.691961
 30
0.0
 11
60.982315
 21
4.740050999999999
 31
0.0
  0
LINE
  5
900
330
1F
100
AcDbEntity
  8
1
  6
CONTINUOUS
370
50
 62
4
100
AcDbLine
 10
64.353714
 20
-5.126666999999999
 30
0.0
 11
63.926689
 21
-4.909668
 31
0.0
  0
LINE
  5
901
330
1F
100
AcDbEntity
  8
1
  6
CONTINUOUS
370
50
 62
4
100
AcDbLine
 10
56.77553899999999
 20
-0.95707
 30
0.0
 11
56.0
 21
-0.562971
 31
0.0
  0
LINE
  5
902
330
1F
100
AcDbEntity
  8
1
  6
CONTINUOUS
370
50
 62
4
100
AcDbLine
 10
68.951073
 20
4.794803
 30
0.0
 11
68.83354899999999
 21
4.854512
 31
0.0
  0
LINE
  5
903
330
1F
100
AcDbEntity
  8
1
  6
CONTINUOUS
370
50
 62
4
100
AcDbLine
 10
62.45108399999999
 20
3.986008
 30
0.0
 11
62.33454099999999
 21
4.045198
 31
0.0
  0
LINE
  5
904
330
1F
100
AcDbEntity
  8
1
  6
CONTINUOUS
370
50
 62
4
100
AcDbLine
 10
69.068619
 20
4.735126
 30
0.0
 11
68.951073
 21
4.794803
 31
0.0
  0
LINE
  5
905
330
1F
100
AcDbEntity
  8
1
  6
CONTINUOUS
370
50
 62
4
100
AcDbLine
 10
69.786125
 20
2.572261
 30
0.0
 11
69.089783
 21
2.925759
 31
0.0
  0
LINE
  5
906
330
1F
100
AcDbEntity
  8
1
  6
CONTINUOUS
370
50
 62
4
100
AcDbLine
 10
77.96459999999999
 20
4.319858
 30
0.0
 11
77.879807
 21
4.362897999999999
 31
0.0
  0
LINE
  5
907
330
1F
100
AcDbEntity
  8
1
  6
CONTINUOUS
370
50
 62
4
100
AcDbLine
 10
61.641773
 20
2.604799
 30
0.0
 11
60.936558
 21
2.962633
 31
0.0
  0
LINE
  5
908
330
1F
100
AcDbEntity
  8
1
  6
CONTINUOUS
370
50
 62
4
100
AcDbLine
 10
69.186157
 20
4.675488
 30
0.0
 11
69.068619
 21
4.735126
 31
0.0
  0
LINE
  5
909
330
1F
100
AcDbEntity
  8
1
  6
CONTINUOUS
370
50
 62
4
100
AcDbLine
 10
64.65523499999999
 20
-0.849024
 30
0.0
 11
63.849148
 21
-0.440094
 31
0.0
  0
LINE
  5
90A
330
1F
100
AcDbEntity
  8
1
  6
CONTINUOUS
370
50
 62
4
100
AcDbLine
 10
60.982315
 20
4.740050999999999
 30
0.0
 11
60.887707
 21
4.788044999999999
 31
0.0
  0
LINE
  5
90B
330
1F
100
AcDbEntity
  8
1
  6
CONTINUOUS
370
50
 62
4
100
AcDbLine
 10
70.29027599999999
 20
0.413119
 30
0.0
 11
69.456131
 21
0.836166
 31
0.0
  0
LINE
  5
90C
330
1F
100
AcDbEntity
  8
1
  6
CONTINUOUS
370
50
 62
4
100
AcDbLine
 10
69.303703
 20
4.615887
 30
0.0
 11
69.186157
 21
4.675488
 31
0.0
  0
LINE
  5
90D
330
1F
100
AcDbEntity
  8
1
  6
CONTINUOUS
370
50
 62
4
100
AcDbLine
 10
69.42124199999999
 20
4.556317
 30
0.0
 11
69.303703
 21
4.615887
 31
0.0
  0
LINE
  5
90E
330
1F
100
AcDbEntity
  8
1
  6
CONTINUOUS
370
50
 62
4
100
AcDbLine
 10
69.526421
 20
4.503036
 30
0.0
 11
69.42124199999999
 21
4.556317
 31
0.0
  0
LINE
  5
90F
330
1F
100
AcDbEntity
  8
1
  6
CONTINUOUS
370
50
 62
4
100
AcDbLine
 10
78.049385
 20
4.276923
 30
0.0
 11
77.96459999999999
 21
4.319858
 31
0.0
  0
LINE
  5
910
330
1F
100
AcDbEntity
  8
1
  6
CONTINUOUS
370
50
 62
4
100
AcDbLine
 10
69.631607
 20
4.449774
 30
0.0
 11
69.526421
 21
4.503036
 31
0.0
  0
LINE
  5
911
330
1F
100
AcDbEntity
  8
1
  6
CONTINUOUS
370
50
 62
4
100
AcDbLine
 10
60.887707
 20
4.788044999999999
 30
0.0
 11
60.793102
 21
4.835948
 31
0.0
  0
LINE
  5
912
330
1F
100
AcDbEntity
  8
1
  6
CONTINUOUS
370
50
 62
4
100
AcDbLine
 10
69.72515899999999
 20
4.402413
 30
0.0
 11
69.631607
 21
4.449774
 31
0.0
  0
LINE
  5
913
330
1F
100
AcDbEntity
  8
1
  6
CONTINUOUS
370
50
 62
4
100
AcDbLine
 10
70.918274
 20
3.798645
 30
0.0
 11
70.77810699999999
 21
3.869602
 31
0.0
  0
LINE
  5
914
330
1F
100
AcDbEntity
  8
1
  6
CONTINUOUS
370
50
 62
4
100
AcDbLine
 10
69.81871
 20
4.355062
 30
0.0
 11
69.72515899999999
 21
4.402413
 31
0.0
  0
LINE
  5
915
330
1F
100
AcDbEntity
  8
1
  6
CONTINUOUS
370
50
 62
4
100
AcDbLine
 10
70.77810699999999
 20
3.869602
 30
0.0
 11
70.678581
 21
3.919976
 31
0.0
  0
LINE
  5
916
330
1F
100
AcDbEntity
  8
1
  6
CONTINUOUS
370
50
 62
4
100
AcDbLine
 10
70.678581
 20
3.919976
 30
0.0
 11
70.579056
 21
3.970344
 31
0.0
  0
LINE
  5
917
330
1F
100
AcDbEntity
  8
1
  6
CONTINUOUS
370
50
 62
4
100
AcDbLine
 10
70.47953
 20
4.020706
 30
0.0
 11
70.38001299999999
 21
4.071064
 31
0.0
  0
LINE
  5
918
330
1F
100
AcDbEntity
  8
1
  6
CONTINUOUS
370
50
 62
4
100
AcDbLine
 10
70.579056
 20
3.970344
 30
0.0
 11
70.47953
 21
4.020706
 31
0.0
  0
LINE
  5
919
330
1F
100
AcDbEntity
  8
1
  6
CONTINUOUS
370
50
 62
4
100
AcDbLine
 10
69.91226999999999
 20
4.307719
 30
0.0
 11
69.81871
 21
4.355062
 31
0.0
  0
LINE
  5
91A
330
1F
100
AcDbEntity
  8
1
  6
CONTINUOUS
370
50
 62
4
100
AcDbLine
 10
70.005821
 20
4.260381
 30
0.0
 11
69.91226999999999
 21
4.307719
 31
0.0
  0
LINE
  5
91B
330
1F
100
AcDbEntity
  8
1
  6
CONTINUOUS
370
50
 62
4
100
AcDbLine
 10
70.286461
 20
4.118393999999999
 30
0.0
 11
70.192917
 21
4.165723
 31
0.0
  0
LINE
  5
91C
330
1F
100
AcDbEntity
  8
1
  6
CONTINUOUS
370
50
 62
4
100
AcDbLine
 10
70.192917
 20
4.165723
 30
0.0
 11
70.099373
 21
4.213051
 31
0.0
  0
LINE
  5
91D
330
1F
100
AcDbEntity
  8
1
  6
CONTINUOUS
370
50
 62
4
100
AcDbLine
 10
70.38001299999999
 20
4.071064
 30
0.0
 11
70.286461
 21
4.118393999999999
 31
0.0
  0
LINE
  5
91E
330
1F
100
AcDbEntity
  8
1
  6
CONTINUOUS
370
50
 62
4
100
AcDbLine
 10
70.099373
 20
4.213051
 30
0.0
 11
70.005821
 21
4.260381
 31
0.0
  0
LINE
  5
91F
330
1F
100
AcDbEntity
  8
1
  6
CONTINUOUS
370
50
 62
4
100
AcDbLine
 10
71.058441
 20
3.727751
 30
0.0
 11
70.918274
 21
3.798645
 31
0.0
  0
LINE
  5
920
330
1F
100
AcDbEntity
  8
1
  6
CONTINUOUS
370
50
 62
4
100
AcDbLine
 10
72.753265
 20
-0.8603759999999999
 30
0.0
 11
71.938828
 21
-0.44854
 31
0.0
  0
LINE
  5
921
330
1F
100
AcDbEntity
  8
1
  6
CONTINUOUS
370
50
 62
4
100
AcDbLine
 10
65.480148
 20
-5.208782999999999
 30
0.0
 11
64.884903
 21
-4.90791
 31
0.0
  0
LINE
  5
922
330
1F
100
AcDbEntity
  8
1
  6
CONTINUOUS
370
50
 62
4
100
AcDbLine
 10
60.793102
 20
4.835948
 30
0.0
 11
60.694736
 21
4.885657999999999
 31
0.0
  0
LINE
  5
923
330
1F
100
AcDbEntity
  8
1
  6
CONTINUOUS
370
50
 62
4
100
AcDbLine
 10
78.151093
 20
4.225555
 30
0.0
 11
78.049385
 21
4.276923
 31
0.0
  0
LINE
  5
924
330
1F
100
AcDbEntity
  8
1
  6
CONTINUOUS
370
50
 62
4
100
AcDbLine
 10
62.567642
 20
3.927214
 30
0.0
 11
62.45108399999999
 21
3.986008
 31
0.0
  0
LINE
  5
925
330
1F
100
AcDbEntity
  8
1
  6
CONTINUOUS
370
50
 62
4
100
AcDbLine
 10
60.694736
 20
4.885657999999999
 30
0.0
 11
60.596367
 21
4.935273
 31
0.0
  0
LINE
  5
926
330
1F
100
AcDbEntity
  8
1
  6
CONTINUOUS
370
50
 62
4
100
AcDbLine
 10
78.2528
 20
4.174332
 30
0.0
 11
78.151093
 21
4.225555
 31
0.0
  0
LINE
  5
927
330
1F
100
AcDbEntity
  8
1
  6
CONTINUOUS
370
50
 62
4
100
AcDbLine
 10
60.596367
 20
4.935273
 30
0.0
 11
60.498001
 21
4.984796999999999
 31
0.0
  0
LINE
  5
928
330
1F
100
AcDbEntity
  8
1
  6
CONTINUOUS
370
50
 62
4
100
AcDbLine
 10
60.498001
 20
4.984796999999999
 30
0.0
 11
60.399635
 21
5.034229
 31
0.0
  0
LINE
  5
929
330
1F
100
AcDbEntity
  8
1
  6
CONTINUOUS
370
50
 62
4
100
AcDbLine
 10
57.293034
 20
-5.159354
 30
0.0
 11
56.800594
 21
-4.911934
 31
0.0
  0
LINE
  5
92A
330
1F
100
AcDbEntity
  8
1
  6
CONTINUOUS
370
50
 62
4
100
AcDbLine
 10
78.35451499999999
 20
4.12325
 30
0.0
 11
78.2528
 21
4.174332
 31
0.0
  0
LINE
  5
92B
330
1F
100
AcDbEntity
  8
1
  6
CONTINUOUS
370
50
 62
4
100
AcDbLine
 10
71.198601
 20
3.65753
 30
0.0
 11
71.058441
 21
3.727751
 31
0.0
  0
LINE
  5
92C
330
1F
100
AcDbEntity
  8
1
  6
CONTINUOUS
370
50
 62
4
100
AcDbLine
 10
62.6842
 20
3.86882
 30
0.0
 11
62.567642
 21
3.927214
 31
0.0
  0
LINE
  5
92D
330
1F
100
AcDbEntity
  8
1
  6
CONTINUOUS
370
50
 62
4
100
AcDbLine
 10
77.54660799999999
 20
0.830737
 30
0.0
 11
76.711372
 21
1.249118
 31
0.0
  0
LINE
  5
92E
330
1F
100
AcDbEntity
  8
1
  6
CONTINUOUS
370
50
 62
4
100
AcDbLine
 10
78.456223
 20
4.072306999999999
 30
0.0
 11
78.35451499999999
 21
4.12325
 31
0.0
  0
LINE
  5
92F
330
1F
100
AcDbEntity
  8
1
  6
CONTINUOUS
370
50
 62
4
100
AcDbLine
 10
73.02153799999999
 20
-0.989016
 30
0.0
 11
72.07002299999999
 21
-0.513486
 31
0.0
  0
LINE
  5
930
330
1F
100
AcDbEntity
  8
1
  6
CONTINUOUS
370
50
 62
4
100
AcDbLine
 10
65.47670699999999
 20
-1.263319
 30
0.0
 11
64.66347499999999
 21
-0.8569979999999999
 31
0.0
  0
LINE
  5
931
330
1F
100
AcDbEntity
  8
1
  6
CONTINUOUS
370
50
 62
4
100
AcDbLine
 10
78.557938
 20
4.021498
 30
0.0
 11
78.456223
 21
4.072306999999999
 31
0.0
  0
LINE
  5
932
330
1F
100
AcDbEntity
  8
1
  6
CONTINUOUS
370
50
 62
4
100
AcDbLine
 10
79.92678099999999
 20
1.648693
 30
0.0
 11
79.89061
 21
1.666744
 31
0.0
  0
LINE
  5
933
330
1F
100
AcDbEntity
  8
1
  6
CONTINUOUS
370
50
 62
4
100
AcDbLine
 10
65.452736
 20
-1.246514
 30
0.0
 11
64.65523499999999
 21
-0.849024
 31
0.0
  0
LINE
  5
934
330
1F
100
AcDbEntity
  8
1
  6
CONTINUOUS
370
50
 62
4
100
AcDbLine
 10
78.659645
 20
3.97082
 30
0.0
 11
78.557938
 21
4.021498
 31
0.0
  0
LINE
  5
935
330
1F
100
AcDbEntity
  8
1
  6
CONTINUOUS
370
50
 62
4
100
AcDbLine
 10
62.807331
 20
3.807564
 30
0.0
 11
62.6842
 21
3.86882
 31
0.0
  0
LINE
  5
936
330
1F
100
AcDbEntity
  8
1
  6
CONTINUOUS
370
50
 62
4
100
AcDbLine
 10
73.477325
 20
-5.162031
 30
0.0
 11
73.10427899999999
 21
-4.976452999999999
 31
0.0
  0
LINE
  5
937
330
1F
100
AcDbEntity
  8
1
  6
CONTINUOUS
370
50
 62
4
100
AcDbLine
 10
78.76136
 20
3.92027
 30
0.0
 11
78.659645
 21
3.97082
 31
0.0
  0
LINE
  5
938
330
1F
100
AcDbEntity
  8
1
  6
CONTINUOUS
370
50
 62
4
100
AcDbLine
 10
78.863075
 20
3.869846
 30
0.0
 11
78.76136
 21
3.92027
 31
0.0
  0
LINE
  5
939
330
1F
100
AcDbEntity
  8
1
  6
CONTINUOUS
370
50
 62
4
100
AcDbLine
 10
71.33876
 20
3.588119
 30
0.0
 11
71.198601
 21
3.65753
 31
0.0
  0
LINE
  5
93A
330
1F
100
AcDbEntity
  8
1
  6
CONTINUOUS
370
50
 62
4
100
AcDbLine
 10
78.9356
 20
3.833966
 30
0.0
 11
78.863075
 21
3.869846
 31
0.0
  0
LINE
  5
93B
330
1F
100
AcDbEntity
  8
1
  6
CONTINUOUS
370
50
 62
4
100
AcDbLine
 10
62.93045799999999
 20
3.746746
 30
0.0
 11
62.807331
 21
3.807564
 31
0.0
  0
LINE
  5
93C
330
1F
100
AcDbEntity
  8
1
  6
CONTINUOUS
370
50
 62
4
100
AcDbLine
 10
79.008133
 20
3.798147
 30
0.0
 11
78.9356
 21
3.833966
 31
0.0
  0
LINE
  5
93D
330
1F
100
AcDbEntity
  8
1
  6
CONTINUOUS
370
50
 62
4
100
AcDbLine
 10
79.12546499999999
 20
3.740325
 30
0.0
 11
79.008133
 21
3.798147
 31
0.0
  0
LINE
  5
93E
330
1F
100
AcDbEntity
  8
1
  6
CONTINUOUS
370
50
 62
4
100
AcDbLine
 10
73.567787
 20
-1.260854
 30
0.0
 11
72.753265
 21
-0.8603759999999999
 31
0.0
  0
LINE
  5
93F
330
1F
100
AcDbEntity
  8
1
  6
CONTINUOUS
370
50
 62
4
100
AcDbLine
 10
68.480988
 20
5.033914999999999
 30
0.0
 11
68.155487
 21
5.193955
 31
0.0
  0
LINE
  5
940
330
1F
100
AcDbEntity
  8
1
  6
CONTINUOUS
370
50
 62
4
100
AcDbLine
 10
79.24280499999999
 20
3.682657
 30
0.0
 11
79.12546499999999
 21
3.740325
 31
0.0
  0
LINE
  5
941
330
1F
100
AcDbEntity
  8
1
  6
CONTINUOUS
370
50
 62
4
100
AcDbLine
 10
69.456131
 20
0.836166
 30
0.0
 11
68.622086
 21
1.245796
 31
0.0
  0
LINE
  5
942
330
1F
100
AcDbEntity
  8
1
  6
CONTINUOUS
370
50
 62
4
100
AcDbLine
 10
61.371975
 20
0.838919
 30
0.0
 11
60.539429
 21
1.247597
 31
0.0
  0
LINE
  5
943
330
1F
100
AcDbEntity
  8
1
  6
CONTINUOUS
370
50
 62
4
100
AcDbLine
 10
63.053589
 20
3.686358
 30
0.0
 11
62.93045799999999
 21
3.746746
 31
0.0
  0
LINE
  5
944
330
1F
100
AcDbEntity
  8
1
  6
CONTINUOUS
370
50
 62
4
100
AcDbLine
 10
59.438194
 20
5.03031
 30
0.0
 11
59.05349
 21
5.218946
 31
0.0
  0
LINE
  5
945
330
1F
100
AcDbEntity
  8
1
  6
CONTINUOUS
370
50
 62
4
100
AcDbLine
 10
79.360146
 20
3.625141
 30
0.0
 11
79.24280499999999
 21
3.682657
 31
0.0
  0
LINE
  5
946
330
1F
100
AcDbEntity
  8
1
  6
CONTINUOUS
370
50
 62
4
100
AcDbLine
 10
56.350925
 20
-5.171467
 30
0.0
 11
56.165581
 21
-5.080630999999999
 31
0.0
  0
LINE
  5
947
330
1F
100
AcDbEntity
  8
1
  6
CONTINUOUS
370
50
 62
4
100
AcDbLine
 10
71.48275799999999
 20
3.517641
 30
0.0
 11
71.33876
 21
3.588119
 31
0.0
  0
LINE
  5
948
330
1F
100
AcDbEntity
  8
1
  6
CONTINUOUS
370
50
 62
4
100
AcDbLine
 10
79.477486
 20
3.567773
 30
0.0
 11
79.360146
 21
3.625141
 31
0.0
  0
LINE
  5
949
330
1F
100
AcDbEntity
  8
1
  6
CONTINUOUS
370
50
 62
4
100
AcDbLine
 10
63.17672
 20
3.626396
 30
0.0
 11
63.053589
 21
3.686358
 31
0.0
  0
LINE
  5
94A
330
1F
100
AcDbEntity
  8
1
  6
CONTINUOUS
370
50
 62
4
100
AcDbLine
 10
57.551628
 20
-1.337479
 30
0.0
 11
56.77581
 21
-0.961297
 31
0.0
  0
LINE
  5
94B
330
1F
100
AcDbEntity
  8
1
  6
CONTINUOUS
370
50
 62
4
100
AcDbLine
 10
73.961739
 20
-1.444206
 30
0.0
 11
73.02153799999999
 21
-0.989016
 31
0.0
  0
LINE
  5
94C
330
1F
100
AcDbEntity
  8
1
  6
CONTINUOUS
370
50
 62
4
100
AcDbLine
 10
76.576218
 20
5.034479999999999
 30
0.0
 11
76.183922
 21
5.224237
 31
0.0
  0
LINE
  5
94D
330
1F
100
AcDbEntity
  8
1
  6
CONTINUOUS
370
50
 62
4
100
AcDbLine
 10
71.626755
 20
3.448001
 30
0.0
 11
71.48275799999999
 21
3.517641
 31
0.0
  0
LINE
  5
94E
330
1F
100
AcDbEntity
  8
1
  6
CONTINUOUS
370
50
 62
4
100
AcDbLine
 10
63.299862
 20
3.566846
 30
0.0
 11
63.17672
 21
3.626396
 31
0.0
  0
LINE
  5
94F
330
1F
100
AcDbEntity
  8
1
  6
CONTINUOUS
370
50
 62
4
100
AcDbLine
 10
57.556786
 20
-1.333983
 30
0.0
 11
56.77553899999999
 21
-0.95707
 31
0.0
  0
LINE
  5
950
330
1F
100
AcDbEntity
  8
1
  6
CONTINUOUS
370
50
 62
4
100
AcDbLine
 10
63.423008
 20
3.507708
 30
0.0
 11
63.299862
 21
3.566846
 31
0.0
  0
LINE
  5
951
330
1F
100
AcDbEntity
  8
1
  6
CONTINUOUS
370
50
 62
4
100
AcDbLine
 10
77.29682199999999
 20
2.865294
 30
0.0
 11
76.58912699999999
 21
3.203983
 31
0.0
  0
LINE
  5
952
330
1F
100
AcDbEntity
  8
1
  6
CONTINUOUS
370
50
 62
4
100
AcDbLine
 10
71.77076699999999
 20
3.379178
 30
0.0
 11
71.626755
 21
3.448001
 31
0.0
  0
LINE
  5
953
330
1F
100
AcDbEntity
  8
1
  6
CONTINUOUS
370
50
 62
4
100
AcDbLine
 10
63.54615399999999
 20
3.448976
 30
0.0
 11
63.423008
 21
3.507708
 31
0.0
  0
LINE
  5
954
330
1F
100
AcDbEntity
  8
1
  6
CONTINUOUS
370
50
 62
4
100
AcDbLine
 10
60.399635
 20
5.034223
 30
0.0
 11
59.967308
 21
5.240292999999999
 31
0.0
  0
LINE
  5
955
330
1F
100
AcDbEntity
  8
1
  6
CONTINUOUS
370
50
 62
4
100
AcDbLine
 10
68.622086
 20
1.245796
 30
0.0
 11
67.78801
 21
1.641936
 31
0.0
  0
LINE
  5
956
330
1F
100
AcDbEntity
  8
1
  6
CONTINUOUS
370
50
 62
4
100
AcDbLine
 10
74.382256
 20
-1.647166
 30
0.0
 11
73.567787
 21
-1.260854
 31
0.0
  0
LINE
  5
957
330
1F
100
AcDbEntity
  8
1
  6
CONTINUOUS
370
50
 62
4
100
AcDbLine
 10
63.6693
 20
3.390644
 30
0.0
 11
63.54615399999999
 21
3.448976
 31
0.0
  0
LINE
  5
958
330
1F
100
AcDbEntity
  8
1
  6
CONTINUOUS
370
50
 62
4
100
AcDbLine
 10
71.91478699999999
 20
3.311172
 30
0.0
 11
71.77076699999999
 21
3.379178
 31
0.0
  0
LINE
  5
959
330
1F
100
AcDbEntity
  8
1
  6
CONTINUOUS
370
50
 62
4
100
AcDbLine
 10
56.110985
 20
3.141556
 30
0.0
 11
55.999958
 21
3.193887
 31
0.0
  0
LINE
  5
95A
330
1F
100
AcDbEntity
  8
1
  6
CONTINUOUS
370
50
 62
4
100
AcDbLine
 10
63.75309799999999
 20
3.351179
 30
0.0
 11
63.6693
 21
3.390644
 31
0.0
  0
LINE
  5
95B
330
1F
100
AcDbEntity
  8
1
  6
CONTINUOUS
370
50
 62
4
100
AcDbLine
 10
75.545219
 20
5.065607
 30
0.0
 11
75.136269
 21
5.257836
 31
0.0
  0
LINE
  5
95C
330
1F
100
AcDbEntity
  8
1
  6
CONTINUOUS
370
50
 62
4
100
AcDbLine
 10
76.711372
 20
1.249118
 30
0.0
 11
75.87606
 21
1.640768
 31
0.0
  0
LINE
  5
95D
330
1F
100
AcDbEntity
  8
1
  6
CONTINUOUS
370
50
 62
4
100
AcDbLine
 10
63.83689099999999
 20
3.311894
 30
0.0
 11
63.75309799999999
 21
3.351179
 31
0.0
  0
LINE
  5
95E
330
1F
100
AcDbEntity
  8
1
  6
CONTINUOUS
370
50
 62
4
100
AcDbLine
 10
67.46373
 20
5.066238999999999
 30
0.0
 11
66.98035399999999
 21
5.292618
 31
0.0
  0
LINE
  5
95F
330
1F
100
AcDbEntity
  8
1
  6
CONTINUOUS
370
50
 62
4
100
AcDbLine
 10
72.01044499999999
 20
3.266447
 30
0.0
 11
71.91478699999999
 21
3.311172
 31
0.0
  0
LINE
  5
960
330
1F
100
AcDbEntity
  8
1
  6
CONTINUOUS
370
50
 62
4
100
AcDbLine
 10
66.289894
 20
-1.64284
 30
0.0
 11
65.47670699999999
 21
-1.263319
 31
0.0
  0
LINE
  5
961
330
1F
100
AcDbEntity
  8
1
  6
CONTINUOUS
370
50
 62
4
100
AcDbLine
 10
63.935795
 20
3.265758
 30
0.0
 11
63.83689099999999
 21
3.311894
 31
0.0
  0
LINE
  5
962
330
1F
100
AcDbEntity
  8
1
  6
CONTINUOUS
370
50
 62
4
100
AcDbLine
 10
60.539429
 20
1.247597
 30
0.0
 11
59.706978
 21
1.635348
 31
0.0
  0
LINE
  5
963
330
1F
100
AcDbEntity
  8
1
  6
CONTINUOUS
370
50
 62
4
100
AcDbLine
 10
66.262695
 20
-1.623704
 30
0.0
 11
65.452736
 21
-1.246514
 31
0.0
  0
LINE
  5
964
330
1F
100
AcDbEntity
  8
1
  6
CONTINUOUS
370
50
 62
4
100
AcDbLine
 10
56.222012
 20
3.089895
 30
0.0
 11
56.110985
 21
3.141556
 31
0.0
  0
LINE
  5
965
330
1F
100
AcDbEntity
  8
1
  6
CONTINUOUS
370
50
 62
4
100
AcDbLine
 10
64.03469799999999
 20
3.219869
 30
0.0
 11
63.935795
 21
3.265758
 31
0.0
  0
LINE
  5
966
330
1F
100
AcDbEntity
  8
1
  6
CONTINUOUS
370
50
 62
4
100
AcDbLine
 10
72.10610199999999
 20
3.222073
 30
0.0
 11
72.01044499999999
 21
3.266447
 31
0.0
  0
LINE
  5
967
330
1F
100
AcDbEntity
  8
1
  6
CONTINUOUS
370
50
 62
4
100
AcDbLine
 10
69.089783
 20
2.925759
 30
0.0
 11
68.39344
 21
3.247992
 31
0.0
  0
LINE
  5
968
330
1F
100
AcDbEntity
  8
1
  6
CONTINUOUS
370
50
 62
4
100
AcDbLine
 10
56.55530899999999
 20
-5.265967
 30
0.0
 11
56.350925
 21
-5.171467
 31
0.0
  0
LINE
  5
969
330
1F
100
AcDbEntity
  8
1
  6
CONTINUOUS
370
50
 62
4
100
AcDbLine
 10
64.133606
 20
3.174227
 30
0.0
 11
64.03469799999999
 21
3.219869
 31
0.0
  0
LINE
  5
96A
330
1F
100
AcDbEntity
  8
1
  6
CONTINUOUS
370
50
 62
4
100
AcDbLine
 10
58.32752199999999
 20
-1.695007
 30
0.0
 11
57.551628
 21
-1.337479
 31
0.0
  0
LINE
  5
96B
330
1F
100
AcDbEntity
  8
1
  6
CONTINUOUS
370
50
 62
4
100
AcDbLine
 10
64.77812999999999
 20
-5.322026999999999
 30
0.0
 11
64.353714
 21
-5.126666999999999
 31
0.0
  0
LINE
  5
96C
330
1F
100
AcDbEntity
  8
1
  6
CONTINUOUS
370
50
 62
4
100
AcDbLine
 10
72.201767
 20
3.178047
 30
0.0
 11
72.10610199999999
 21
3.222073
 31
0.0
  0
LINE
  5
96D
330
1F
100
AcDbEntity
  8
1
  6
CONTINUOUS
370
50
 62
4
100
AcDbLine
 10
56.333054
 20
3.03889
 30
0.0
 11
56.222012
 21
3.089895
 31
0.0
  0
LINE
  5
96E
330
1F
100
AcDbEntity
  8
1
  6
CONTINUOUS
370
50
 62
4
100
AcDbLine
 10
72.811478
 20
-5.299652
 30
0.0
 11
72.38887799999999
 21
-5.105657
 31
0.0
  0
LINE
  5
96F
330
1F
100
AcDbEntity
  8
1
  6
CONTINUOUS
370
50
 62
4
100
AcDbLine
 10
64.232513
 20
3.128829
 30
0.0
 11
64.133606
 21
3.174227
 31
0.0
  0
LINE
  5
970
330
1F
100
AcDbEntity
  8
1
  6
CONTINUOUS
370
50
 62
4
100
AcDbLine
 10
58.334908
 20
-1.690585
 30
0.0
 11
57.556786
 21
-1.333983
 31
0.0
  0
LINE
  5
971
330
1F
100
AcDbEntity
  8
1
  6
CONTINUOUS
370
50
 62
4
100
AcDbLine
 10
53.05339799999999
 20
5.299086
 30
0.0
 11
52.84376899999999
 21
5.395097
 31
0.0
  0
LINE
  5
972
330
1F
100
AcDbEntity
  8
1
  6
CONTINUOUS
370
50
 62
4
100
AcDbLine
 10
72.29742399999999
 20
3.134367
 30
0.0
 11
72.201767
 21
3.178047
 31
0.0
  0
LINE
  5
973
330
1F
100
AcDbEntity
  8
1
  6
CONTINUOUS
370
50
 62
4
100
AcDbLine
 10
64.331398
 20
3.083683
 30
0.0
 11
64.232513
 21
3.128829
 31
0.0
  0
LINE
  5
974
330
1F
100
AcDbEntity
  8
1
  6
CONTINUOUS
370
50
 62
4
100
AcDbLine
 10
73.848259
 20
-5.330988
 30
0.0
 11
73.477325
 21
-5.162031
 31
0.0
  0
LINE
  5
975
330
1F
100
AcDbEntity
  8
1
  6
CONTINUOUS
370
50
 62
4
100
AcDbLine
 10
64.43029
 20
3.038781
 30
0.0
 11
64.331398
 21
3.083683
 31
0.0
  0
LINE
  5
976
330
1F
100
AcDbEntity
  8
1
  6
CONTINUOUS
370
50
 62
4
100
AcDbLine
 10
60.936558
 20
2.962633
 30
0.0
 11
60.231339
 21
3.282405
 31
0.0
  0
LINE
  5
977
330
1F
100
AcDbEntity
  8
1
  6
CONTINUOUS
370
50
 62
4
100
AcDbLine
 10
56.44409599999999
 20
2.988546
 30
0.0
 11
56.333054
 21
3.03889
 31
0.0
  0
LINE
  5
978
330
1F
100
AcDbEntity
  8
1
  6
CONTINUOUS
370
50
 62
4
100
AcDbLine
 10
72.393822
 20
3.090698
 30
0.0
 11
72.29742399999999
 21
3.134367
 31
0.0
  0
LINE
  5
979
330
1F
100
AcDbEntity
  8
1
  6
CONTINUOUS
370
50
 62
4
100
AcDbLine
 10
74.90497599999999
 20
-1.870659
 30
0.0
 11
73.961739
 21
-1.444206
 31
0.0
  0
LINE
  5
97A
330
1F
100
AcDbEntity
  8
1
  6
CONTINUOUS
370
50
 62
4
100
AcDbLine
 10
64.52918199999999
 20
2.994122
 30
0.0
 11
64.43029
 21
3.038781
 31
0.0
  0
LINE
  5
97B
330
1F
100
AcDbEntity
  8
1
  6
CONTINUOUS
370
50
 62
4
100
AcDbLine
 10
68.155487
 20
5.193955
 30
0.0
 11
67.803185
 21
5.352646
 31
0.0
  0
LINE
  5
97C
330
1F
100
AcDbEntity
  8
1
  6
CONTINUOUS
370
50
 62
4
100
AcDbLine
 10
72.490211
 20
3.047374
 30
0.0
 11
72.393822
 21
3.090698
 31
0.0
  0
LINE
  5
97D
330
1F
100
AcDbEntity
  8
1
  6
CONTINUOUS
370
50
 62
4
100
AcDbLine
 10
79.83805799999999
 20
-5.327821999999999
 30
0.0
 11
79.778046
 21
-5.30086
 31
0.0
  0
LINE
  5
97E
330
1F
100
AcDbEntity
  8
1
  6
CONTINUOUS
370
50
 62
4
100
AcDbLine
 10
64.628067
 20
2.949707
 30
0.0
 11
64.52918199999999
 21
2.994122
 31
0.0
  0
LINE
  5
97F
330
1F
100
AcDbEntity
  8
1
  6
CONTINUOUS
370
50
 62
4
100
AcDbLine
 10
56.55515699999999
 20
2.938847
 30
0.0
 11
56.44409599999999
 21
2.988546
 31
0.0
  0
LINE
  5
980
330
1F
100
AcDbEntity
  8
1
  6
CONTINUOUS
370
50
 62
4
100
AcDbLine
 10
64.715935
 20
2.910447
 30
0.0
 11
64.628067
 21
2.949707
 31
0.0
  0
LINE
  5
981
330
1F
100
AcDbEntity
  8
1
  6
CONTINUOUS
370
50
 62
4
100
AcDbLine
 10
72.586609
 20
3.00439
 30
0.0
 11
72.490211
 21
3.047374
 31
0.0
  0
LINE
  5
982
330
1F
100
AcDbEntity
  8
1
  6
CONTINUOUS
370
50
 62
4
100
AcDbLine
 10
64.80380199999999
 20
2.871382
 30
0.0
 11
64.715935
 21
2.910447
 31
0.0
  0
LINE
  5
983
330
1F
100
AcDbEntity
  8
1
  6
CONTINUOUS
370
50
 62
4
100
AcDbLine
 10
72.68300599999999
 20
2.961744
 30
0.0
 11
72.586609
 21
3.00439
 31
0.0
  0
LINE
  5
984
330
1F
100
AcDbEntity
  8
1
  6
CONTINUOUS
370
50
 62
4
100
AcDbLine
 10
64.89166999999999
 20
2.832515
 30
0.0
 11
64.80380199999999
 21
2.871382
 31
0.0
  0
LINE
  5
985
330
1F
100
AcDbEntity
  8
1
  6
CONTINUOUS
370
50
 62
4
100
AcDbLine
 10
56.666214
 20
2.889795
 30
0.0
 11
56.55515699999999
 21
2.938847
 31
0.0
  0
LINE
  5
986
330
1F
100
AcDbEntity
  8
1
  6
CONTINUOUS
370
50
 62
4
100
AcDbLine
 10
59.05349
 20
5.218946
 30
0.0
 11
58.669838
 21
5.388242
 31
0.0
  0
LINE
  5
987
330
1F
100
AcDbEntity
  8
1
  6
CONTINUOUS
370
50
 62
4
100
AcDbLine
 10
59.706978
 20
1.635348
 30
0.0
 11
58.874519
 21
2.002592
 31
0.0
  0
LINE
  5
988
330
1F
100
AcDbEntity
  8
1
  6
CONTINUOUS
370
50
 62
4
100
AcDbLine
 10
64.97953
 20
2.793847
 30
0.0
 11
64.89166999999999
 21
2.832515
 31
0.0
  0
LINE
  5
989
330
1F
100
AcDbEntity
  8
1
  6
CONTINUOUS
370
50
 62
4
100
AcDbLine
 10
72.779404
 20
2.919433
 30
0.0
 11
72.68300599999999
 21
2.961744
 31
0.0
  0
LINE
  5
98A
330
1F
100
AcDbEntity
  8
1
  6
CONTINUOUS
370
50
 62
4
100
AcDbLine
 10
57.839642
 20
-5.398406
 30
0.0
 11
57.293034
 21
-5.159354
 31
0.0
  0
LINE
  5
98B
330
1F
100
AcDbEntity
  8
1
  6
CONTINUOUS
370
50
 62
4
100
AcDbLine
 10
65.05542799999999
 20
2.760664
 30
0.0
 11
64.97953
 21
2.793847
 31
0.0
  0
LINE
  5
98C
330
1F
100
AcDbEntity
  8
1
  6
CONTINUOUS
370
50
 62
4
100
AcDbLine
 10
67.78801
 20
1.641936
 30
0.0
 11
66.95385
 21
2.006047
 31
0.0
  0
LINE
  5
98D
330
1F
100
AcDbEntity
  8
1
  6
CONTINUOUS
370
50
 62
4
100
AcDbLine
 10
59.103405
 20
-2.033283
 30
0.0
 11
58.32752199999999
 21
-1.695007
 31
0.0
  0
LINE
  5
98E
330
1F
100
AcDbEntity
  8
1
  6
CONTINUOUS
370
50
 62
4
100
AcDbLine
 10
56.777275
 20
2.841385
 30
0.0
 11
56.666214
 21
2.889795
 31
0.0
  0
LINE
  5
98F
330
1F
100
AcDbEntity
  8
1
  6
CONTINUOUS
370
50
 62
4
100
AcDbLine
 10
72.875801
 20
2.877455
 30
0.0
 11
72.779404
 21
2.919433
 31
0.0
  0
LINE
  5
990
330
1F
100
AcDbEntity
  8
1
  6
CONTINUOUS
370
50
 62
4
100
AcDbLine
 10
75.196663
 20
-2.001464
 30
0.0
 11
74.382256
 21
-1.647166
 31
0.0
  0
LINE
  5
991
330
1F
100
AcDbEntity
  8
1
  6
CONTINUOUS
370
50
 62
4
100
AcDbLine
 10
59.097153
 20
-2.021956
 30
0.0
 11
58.334908
 21
-1.690585
 31
0.0
  0
LINE
  5
992
330
1F
100
AcDbEntity
  8
1
  6
CONTINUOUS
370
50
 62
4
100
AcDbLine
 10
67.10316499999999
 20
-1.994995
 30
0.0
 11
66.289894
 21
-1.64284
 31
0.0
  0
LINE
  5
993
330
1F
100
AcDbEntity
  8
1
  6
CONTINUOUS
370
50
 62
4
100
AcDbLine
 10
65.131325
 20
2.727839
 30
0.0
 11
65.05542799999999
 21
2.760664
 31
0.0
  0
LINE
  5
994
330
1F
100
AcDbEntity
  8
1
  6
CONTINUOUS
370
50
 62
4
100
AcDbLine
 10
56.778023
 20
-5.362276
 30
0.0
 11
56.55530899999999
 21
-5.265967
 31
0.0
  0
LINE
  5
995
330
1F
100
AcDbEntity
  8
1
  6
CONTINUOUS
370
50
 62
4
100
AcDbLine
 10
72.97219799999999
 20
2.835808
 30
0.0
 11
72.875801
 21
2.877455
 31
0.0
  0
LINE
  5
996
330
1F
100
AcDbEntity
  8
1
  6
CONTINUOUS
370
50
 62
4
100
AcDbLine
 10
75.87606
 20
1.640768
 30
0.0
 11
75.04081
 21
2.00161
 31
0.0
  0
LINE
  5
997
330
1F
100
AcDbEntity
  8
1
  6
CONTINUOUS
370
50
 62
4
100
AcDbLine
 10
67.072639
 20
-1.973325
 30
0.0
 11
66.262695
 21
-1.623704
 31
0.0
  0
LINE
  5
998
330
1F
100
AcDbEntity
  8
1
  6
CONTINUOUS
370
50
 62
4
100
AcDbLine
 10
76.183922
 20
5.224237
 30
0.0
 11
75.789078
 21
5.394285
 31
0.0
  0
LINE
  5
999
330
1F
100
AcDbEntity
  8
1
  6
CONTINUOUS
370
50
 62
4
100
AcDbLine
 10
56.888336
 20
2.793611
 30
0.0
 11
56.777275
 21
2.841385
 31
0.0
  0
LINE
  5
99A
330
1F
100
AcDbEntity
  8
1
  6
CONTINUOUS
370
50
 62
4
100
AcDbLine
 10
73.068596
 20
2.794491
 30
0.0
 11
72.97219799999999
 21
2.835808
 31
0.0
  0
LINE
  5
99B
330
1F
100
AcDbEntity
  8
1
  6
CONTINUOUS
370
50
 62
4
100
AcDbLine
 10
65.207214
 20
2.695379
 30
0.0
 11
65.131325
 21
2.727839
 31
0.0
  0
LINE
  5
99C
330
1F
100
AcDbEntity
  8
1
  6
CONTINUOUS
370
50
 62
4
100
AcDbLine
 10
59.967308
 20
5.240292999999999
 30
0.0
 11
59.536362
 21
5.423689
 31
0.0
  0
LINE
  5
99D
330
1F
100
AcDbEntity
  8
1
  6
CONTINUOUS
370
50
 62
4
100
AcDbLine
 10
56.958611
 20
2.763705
 30
0.0
 11
56.888336
 21
2.793611
 31
0.0
  0
LINE
  5
99E
330
1F
100
AcDbEntity
  8
1
  6
CONTINUOUS
370
50
 62
4
100
AcDbLine
 10
73.162376
 20
2.754612
 30
0.0
 11
73.068596
 21
2.794491
 31
0.0
  0
LINE
  5
99F
330
1F
100
AcDbEntity
  8
1
  6
CONTINUOUS
370
50
 62
4
100
AcDbLine
 10
66.079399
 20
-5.462494
 30
0.0
 11
65.480148
 21
-5.208782999999999
 31
0.0
  0
LINE
  5
9A0
330
1F
100
AcDbEntity
  8
1
  6
CONTINUOUS
370
50
 62
4
100
AcDbLine
 10
65.283112
 20
2.663282
 30
0.0
 11
65.207214
 21
2.695379
 31
0.0
  0
LINE
  5
9A1
330
1F
100
AcDbEntity
  8
1
  6
CONTINUOUS
370
50
 62
4
100
AcDbLine
 10
73.256157
 20
2.715044
 30
0.0
 11
73.162376
 21
2.754612
 31
0.0
  0
LINE
  5
9A2
330
1F
100
AcDbEntity
  8
1
  6
CONTINUOUS
370
50
 62
4
100
AcDbLine
 10
75.136269
 20
5.257836
 30
0.0
 11
74.72818
 21
5.429552
 31
0.0
  0
LINE
  5
9A3
330
1F
100
AcDbEntity
  8
1
  6
CONTINUOUS
370
50
 62
4
100
AcDbLine
 10
57.078442
 20
2.713289
 30
0.0
 11
56.958611
 21
2.763705
 31
0.0
  0
LINE
  5
9A4
330
1F
100
AcDbEntity
  8
1
  6
CONTINUOUS
370
50
 62
4
100
AcDbLine
 10
79.411964
 20
-0.124839
 30
0.0
 11
79.411346
 21
-0.12458
 31
0.0
  0
LINE
  5
9A5
330
1F
100
AcDbEntity
  8
1
  6
CONTINUOUS
370
50
 62
4
100
AcDbLine
 10
65.35902399999999
 20
2.631536
 30
0.0
 11
65.283112
 21
2.663282
 31
0.0
  0
LINE
  5
9A6
330
1F
100
AcDbEntity
  8
1
  6
CONTINUOUS
370
50
 62
4
100
AcDbLine
 10
73.374855
 20
2.665407
 30
0.0
 11
73.256157
 21
2.715044
 31
0.0
  0
LINE
  5
9A7
330
1F
100
AcDbEntity
  8
1
  6
CONTINUOUS
370
50
 62
4
100
AcDbLine
 10
79.40947
 20
-0.123803
 30
0.0
 11
79.408844
 21
-0.123542
 31
0.0
  0
LINE
  5
9A8
330
1F
100
AcDbEntity
  8
1
  6
CONTINUOUS
370
50
 62
4
100
AcDbLine
 10
76.58912699999999
 20
3.203983
 30
0.0
 11
75.881439
 21
3.498397
 31
0.0
  0
LINE
  5
9A9
330
1F
100
AcDbEntity
  8
1
  6
CONTINUOUS
370
50
 62
4
100
AcDbLine
 10
79.410721
 20
-0.124322
 30
0.0
 11
79.410095
 21
-0.124062
 31
0.0
  0
LINE
  5
9AA
330
1F
100
AcDbEntity
  8
1
  6
CONTINUOUS
370
50
 62
4
100
AcDbLine
 10
57.198273
 20
2.663593
 30
0.0
 11
57.078442
 21
2.713289
 31
0.0
  0
LINE
  5
9AB
330
1F
100
AcDbEntity
  8
1
  6
CONTINUOUS
370
50
 62
4
100
AcDbLine
 10
68.39344
 20
3.247992
 30
0.0
 11
67.697098
 21
3.536595
 31
0.0
  0
LINE
  5
9AC
330
1F
100
AcDbEntity
  8
1
  6
CONTINUOUS
370
50
 62
4
100
AcDbLine
 10
79.410095
 20
-0.124062
 30
0.0
 11
79.40947
 21
-0.123803
 31
0.0
  0
LINE
  5
9AD
330
1F
100
AcDbEntity
  8
1
  6
CONTINUOUS
370
50
 62
4
100
AcDbLine
 10
73.49355299999999
 20
2.616267
 30
0.0
 11
73.374855
 21
2.665407
 31
0.0
  0
LINE
  5
9AE
330
1F
100
AcDbEntity
  8
1
  6
CONTINUOUS
370
50
 62
4
100
AcDbLine
 10
65.434929
 20
2.600148
 30
0.0
 11
65.35902399999999
 21
2.631536
 31
0.0
  0
LINE
  5
9AF
330
1F
100
AcDbEntity
  8
1
  6
CONTINUOUS
370
50
 62
4
100
AcDbLine
 10
79.411346
 20
-0.12458
 30
0.0
 11
79.410721
 21
-0.124322
 31
0.0
  0
LINE
  5
9B0
330
1F
100
AcDbEntity
  8
1
  6
CONTINUOUS
370
50
 62
4
100
AcDbLine
 10
79.41259
 20
-0.125097
 30
0.0
 11
79.411964
 21
-0.124839
 31
0.0
  0
LINE
  5
9B1
330
1F
100
AcDbEntity
  8
1
  6
CONTINUOUS
370
50
 62
4
100
AcDbLine
 10
79.41321599999999
 20
-0.125354
 30
0.0
 11
79.41259
 21
-0.125097
 31
0.0
  0
LINE
  5
9B2
330
1F
100
AcDbEntity
  8
1
  6
CONTINUOUS
370
50
 62
4
100
AcDbLine
 10
73.61224399999999
 20
2.567626
 30
0.0
 11
73.49355299999999
 21
2.616267
 31
0.0
  0
LINE
  5
9B3
330
1F
100
AcDbEntity
  8
1
  6
CONTINUOUS
370
50
 62
4
100
AcDbLine
 10
74.21875
 20
-5.482759
 30
0.0
 11
73.848259
 21
-5.330988
 31
0.0
  0
LINE
  5
9B4
330
1F
100
AcDbEntity
  8
1
  6
CONTINUOUS
370
50
 62
4
100
AcDbLine
 10
65.19768499999999
 20
-5.493605
 30
0.0
 11
64.77812999999999
 21
-5.322026999999999
 31
0.0
  0
LINE
  5
9B5
330
1F
100
AcDbEntity
  8
1
  6
CONTINUOUS
370
50
 62
4
100
AcDbLine
 10
65.510841
 20
2.569116
 30
0.0
 11
65.434929
 21
2.600148
 31
0.0
  0
LINE
  5
9B6
330
1F
100
AcDbEntity
  8
1
  6
CONTINUOUS
370
50
 62
4
100
AcDbLine
 10
57.318104
 20
2.614608
 30
0.0
 11
57.198273
 21
2.663593
 31
0.0
  0
LINE
  5
9B7
330
1F
100
AcDbEntity
  8
1
  6
CONTINUOUS
370
50
 62
4
100
AcDbLine
 10
73.23342099999999
 20
-5.471566999999999
 30
0.0
 11
72.811478
 21
-5.299652
 31
0.0
  0
LINE
  5
9B8
330
1F
100
AcDbEntity
  8
1
  6
CONTINUOUS
370
50
 62
4
100
AcDbLine
 10
73.730942
 20
2.519487
 30
0.0
 11
73.61224399999999
 21
2.567626
 31
0.0
  0
LINE
  5
9B9
330
1F
100
AcDbEntity
  8
1
  6
CONTINUOUS
370
50
 62
4
100
AcDbLine
 10
66.98035399999999
 20
5.292618
 30
0.0
 11
66.495415
 21
5.488709
 31
0.0
  0
LINE
  5
9BA
330
1F
100
AcDbEntity
  8
1
  6
CONTINUOUS
370
50
 62
4
100
AcDbLine
 10
65.586754
 20
2.538437
 30
0.0
 11
65.510841
 21
2.569116
 31
0.0
  0
LINE
  5
9BB
330
1F
100
AcDbEntity
  8
1
  6
CONTINUOUS
370
50
 62
4
100
AcDbLine
 10
57.437939
 20
2.566329
 30
0.0
 11
57.318104
 21
2.614608
 31
0.0
  0
LINE
  5
9BC
330
1F
100
AcDbEntity
  8
1
  6
CONTINUOUS
370
50
 62
4
100
AcDbLine
 10
75.854652
 20
-2.253003
 30
0.0
 11
74.90497599999999
 21
-1.870659
 31
0.0
  0
LINE
  5
9BD
330
1F
100
AcDbEntity
  8
1
  6
CONTINUOUS
370
50
 62
4
100
AcDbLine
 10
73.84960199999999
 20
2.471867
 30
0.0
 11
73.730942
 21
2.519487
 31
0.0
  0
LINE
  5
9BE
330
1F
100
AcDbEntity
  8
1
  6
CONTINUOUS
370
50
 62
4
100
AcDbLine
 10
60.231339
 20
3.282405
 30
0.0
 11
59.526112
 21
3.564916
 31
0.0
  0
LINE
  5
9BF
330
1F
100
AcDbEntity
  8
1
  6
CONTINUOUS
370
50
 62
4
100
AcDbLine
 10
57.018349
 20
-5.458537
 30
0.0
 11
56.778023
 21
-5.362276
 31
0.0
  0
LINE
  5
9C0
330
1F
100
AcDbEntity
  8
1
  6
CONTINUOUS
370
50
 62
4
100
AcDbLine
 10
67.91645799999999
 20
-2.319526
 30
0.0
 11
67.10316499999999
 21
-1.994995
 31
0.0
  0
LINE
  5
9C1
330
1F
100
AcDbEntity
  8
1
  6
CONTINUOUS
370
50
 62
4
100
AcDbLine
 10
67.881287
 20
-2.295895
 30
0.0
 11
67.072639
 21
-1.973325
 31
0.0
  0
LINE
  5
9C2
330
1F
100
AcDbEntity
  8
1
  6
CONTINUOUS
370
50
 62
4
100
AcDbLine
 10
65.719994
 20
2.485433
 30
0.0
 11
65.586754
 21
2.538437
 31
0.0
  0
LINE
  5
9C3
330
1F
100
AcDbEntity
  8
1
  6
CONTINUOUS
370
50
 62
4
100
AcDbLine
 10
58.874519
 20
2.002592
 30
0.0
 11
58.04196899999999
 21
2.333514
 31
0.0
  0
LINE
  5
9C4
330
1F
100
AcDbEntity
  8
1
  6
CONTINUOUS
370
50
 62
4
100
AcDbLine
 10
57.55777399999999
 20
2.518749
 30
0.0
 11
57.437939
 21
2.566329
 31
0.0
  0
LINE
  5
9C5
330
1F
100
AcDbEntity
  8
1
  6
CONTINUOUS
370
50
 62
4
100
AcDbLine
 10
73.968254
 20
2.424761
 30
0.0
 11
73.84960199999999
 21
2.471867
 31
0.0
  0
LINE
  5
9C6
330
1F
100
AcDbEntity
  8
1
  6
CONTINUOUS
370
50
 62
4
100
AcDbLine
 10
67.803185
 20
5.352646
 30
0.0
 11
67.38924399999999
 21
5.516903
 31
0.0
  0
LINE
  5
9C7
330
1F
100
AcDbEntity
  8
1
  6
CONTINUOUS
370
50
 62
4
100
AcDbLine
 10
75.04081
 20
2.00161
 30
0.0
 11
74.20560499999999
 21
2.332837
 31
0.0
  0
LINE
  5
9C8
330
1F
100
AcDbEntity
  8
1
  6
CONTINUOUS
370
50
 62
4
100
AcDbLine
 10
59.879208
 20
-2.340027
 30
0.0
 11
59.103405
 21
-2.033283
 31
0.0
  0
LINE
  5
9C9
330
1F
100
AcDbEntity
  8
1
  6
CONTINUOUS
370
50
 62
4
100
AcDbLine
 10
59.861301
 20
-2.323536
 30
0.0
 11
59.097153
 21
-2.021956
 31
0.0
  0
LINE
  5
9CA
330
1F
100
AcDbEntity
  8
1
  6
CONTINUOUS
370
50
 62
4
100
AcDbLine
 10
76.01113099999999
 20
-2.322106
 30
0.0
 11
75.196663
 21
-2.001464
 31
0.0
  0
LINE
  5
9CB
330
1F
100
AcDbEntity
  8
1
  6
CONTINUOUS
370
50
 62
4
100
AcDbLine
 10
66.95385
 20
2.006047
 30
0.0
 11
66.119743
 21
2.332862
 31
0.0
  0
LINE
  5
9CC
330
1F
100
AcDbEntity
  8
1
  6
CONTINUOUS
370
50
 62
4
100
AcDbLine
 10
74.086906
 20
2.378303
 30
0.0
 11
73.968254
 21
2.424761
 31
0.0
  0
LINE
  5
9CD
330
1F
100
AcDbEntity
  8
1
  6
CONTINUOUS
370
50
 62
4
100
AcDbLine
 10
57.677612
 20
2.471864
 30
0.0
 11
57.55777399999999
 21
2.518749
 31
0.0
  0
LINE
  5
9CE
330
1F
100
AcDbEntity
  8
1
  6
CONTINUOUS
370
50
 62
4
100
AcDbLine
 10
52.84376899999999
 20
5.395097
 30
0.0
 11
52.629009
 21
5.478818
 31
0.0
  0
LINE
  5
9CF
330
1F
100
AcDbEntity
  8
1
  6
CONTINUOUS
370
50
 62
4
100
AcDbLine
 10
65.853233
 20
2.433498
 30
0.0
 11
65.719994
 21
2.485433
 31
0.0
  0
LINE
  5
9D0
330
1F
100
AcDbEntity
  8
1
  6
CONTINUOUS
370
50
 62
4
100
AcDbLine
 10
58.669838
 20
5.388242
 30
0.0
 11
58.281036
 21
5.538232
 31
0.0
  0
LINE
  5
9D1
330
1F
100
AcDbEntity
  8
1
  6
CONTINUOUS
370
50
 62
4
100
AcDbLine
 10
57.797451
 20
2.425666
 30
0.0
 11
57.677612
 21
2.471864
 31
0.0
  0
LINE
  5
9D2
330
1F
100
AcDbEntity
  8
1
  6
CONTINUOUS
370
50
 62
4
100
AcDbLine
 10
74.205559
 20
2.332829
 30
0.0
 11
74.086906
 21
2.378303
 31
0.0
  0
LINE
  5
9D3
330
1F
100
AcDbEntity
  8
1
  6
CONTINUOUS
370
50
 62
4
100
AcDbLine
 10
65.986473
 20
2.382617
 30
0.0
 11
65.853233
 21
2.433498
 31
0.0
  0
LINE
  5
9D4
330
1F
100
AcDbEntity
  8
1
  6
CONTINUOUS
370
50
 62
4
100
AcDbLine
 10
57.917294
 20
2.380154
 30
0.0
 11
57.797451
 21
2.425666
 31
0.0
  0
LINE
  5
9D5
330
1F
100
AcDbEntity
  8
1
  6
CONTINUOUS
370
50
 62
4
100
AcDbLine
 10
75.789078
 20
5.394285
 30
0.0
 11
75.393532
 21
5.544086999999999
 31
0.0
  0
LINE
  5
9D6
330
1F
100
AcDbEntity
  8
1
  6
CONTINUOUS
370
50
 62
4
100
AcDbLine
 10
57.979656
 20
2.35674
 30
0.0
 11
57.917294
 21
2.380154
 31
0.0
  0
LINE
  5
9D7
330
1F
100
AcDbEntity
  8
1
  6
CONTINUOUS
370
50
 62
4
100
AcDbLine
 10
66.11972
 20
2.33278
 30
0.0
 11
65.986473
 21
2.382617
 31
0.0
  0
LINE
  5
9D8
330
1F
100
AcDbEntity
  8
1
  6
CONTINUOUS
370
50
 62
4
100
AcDbLine
 10
59.536362
 20
5.423689
 30
0.0
 11
59.107822
 21
5.583705
 31
0.0
  0
LINE
  5
9D9
330
1F
100
AcDbEntity
  8
1
  6
CONTINUOUS
370
50
 62
4
100
AcDbLine
 10
58.042023
 20
2.333511
 30
0.0
 11
57.979656
 21
2.35674
 31
0.0
  0
LINE
  5
9DA
330
1F
100
AcDbEntity
  8
1
  6
CONTINUOUS
370
50
 62
4
100
AcDbLine
 10
74.72818
 20
5.429552
 30
0.0
 11
74.323708
 21
5.579795
 31
0.0
  0
LINE
  5
9DB
330
1F
100
AcDbEntity
  8
1
  6
CONTINUOUS
370
50
 62
4
100
AcDbLine
 10
57.27556999999999
 20
-5.552894999999999
 30
0.0
 11
57.018349
 21
-5.458537
 31
0.0
  0
LINE
  5
9DC
330
1F
100
AcDbEntity
  8
1
  6
CONTINUOUS
370
50
 62
4
100
AcDbLine
 10
58.433849
 20
-5.616047
 30
0.0
 11
57.839642
 21
-5.398406
 31
0.0
  0
LINE
  5
9DD
330
1F
100
AcDbEntity
  8
1
  6
CONTINUOUS
370
50
 62
4
100
AcDbLine
 10
74.59556599999999
 20
-5.616862999999999
 30
0.0
 11
74.21875
 21
-5.482759
 31
0.0
  0
LINE
  5
9DE
330
1F
100
AcDbEntity
  8
1
  6
CONTINUOUS
370
50
 62
4
100
AcDbLine
 10
68.70809899999999
 20
-2.59
 30
0.0
 11
67.881287
 21
-2.295895
 31
0.0
  0
LINE
  5
9DF
330
1F
100
AcDbEntity
  8
1
  6
CONTINUOUS
370
50
 62
4
100
AcDbLine
 10
73.653114
 20
-5.620680999999999
 30
0.0
 11
73.23342099999999
 21
-5.471566999999999
 31
0.0
  0
LINE
  5
9E0
330
1F
100
AcDbEntity
  8
1
  6
CONTINUOUS
370
50
 62
4
100
AcDbLine
 10
76.801529
 20
-2.589295
 30
0.0
 11
75.854652
 21
-2.253003
 31
0.0
  0
LINE
  5
9E1
330
1F
100
AcDbEntity
  8
1
  6
CONTINUOUS
370
50
 62
4
100
AcDbLine
 10
68.729668
 20
-2.608006
 30
0.0
 11
67.91645799999999
 21
-2.319526
 31
0.0
  0
LINE
  5
9E2
330
1F
100
AcDbEntity
  8
1
  6
CONTINUOUS
370
50
 62
4
100
AcDbLine
 10
75.881439
 20
3.498397
 30
0.0
 11
75.173744
 21
3.748983
 31
0.0
  0
LINE
  5
9E3
330
1F
100
AcDbEntity
  8
1
  6
CONTINUOUS
370
50
 62
4
100
AcDbLine
 10
52.822693
 20
-5.526541
 30
0.0
 11
52.629009
 21
-5.45805
 31
0.0
  0
LINE
  5
9E4
330
1F
100
AcDbEntity
  8
1
  6
CONTINUOUS
370
50
 62
4
100
AcDbLine
 10
76.825645
 20
-2.608861
 30
0.0
 11
76.01113099999999
 21
-2.322106
 31
0.0
  0
LINE
  5
9E5
330
1F
100
AcDbEntity
  8
1
  6
CONTINUOUS
370
50
 62
4
100
AcDbLine
 10
67.697098
 20
3.536595
 30
0.0
 11
67.00076299999999
 21
3.779663
 31
0.0
  0
LINE
  5
9E6
330
1F
100
AcDbEntity
  8
1
  6
CONTINUOUS
370
50
 62
4
100
AcDbLine
 10
65.62187999999999
 20
-5.641588
 30
0.0
 11
65.19768499999999
 21
-5.493605
 31
0.0
  0
LINE
  5
9E7
330
1F
100
AcDbEntity
  8
1
  6
CONTINUOUS
370
50
 62
4
100
AcDbLine
 10
60.655029
 20
-2.609422
 30
0.0
 11
59.879208
 21
-2.340027
 31
0.0
  0
LINE
  5
9E8
330
1F
100
AcDbEntity
  8
1
  6
CONTINUOUS
370
50
 62
4
100
AcDbLine
 10
60.63285399999999
 20
-2.59079
 30
0.0
 11
59.861301
 21
-2.323536
 31
0.0
  0
LINE
  5
9E9
330
1F
100
AcDbEntity
  8
1
  6
CONTINUOUS
370
50
 62
4
100
AcDbLine
 10
59.526112
 20
3.564916
 30
0.0
 11
58.82088899999999
 21
3.808664
 31
0.0
  0
LINE
  5
9EA
330
1F
100
AcDbEntity
  8
1
  6
CONTINUOUS
370
50
 62
4
100
AcDbLine
 10
66.67957299999999
 20
-5.668139
 30
0.0
 11
66.079399
 21
-5.462494
 31
0.0
  0
LINE
  5
9EB
330
1F
100
AcDbEntity
  8
1
  6
CONTINUOUS
370
50
 62
4
100
AcDbLine
 10
66.495415
 20
5.488709
 30
0.0
 11
66.01059699999999
 21
5.654176
 31
0.0
  0
LINE
  5
9EC
330
1F
100
AcDbEntity
  8
1
  6
CONTINUOUS
370
50
 62
4
100
AcDbLine
 10
67.38924399999999
 20
5.516903
 30
0.0
 11
66.916512
 21
5.674809
 31
0.0
  0
LINE
  5
9ED
330
1F
100
AcDbEntity
  8
1
  6
CONTINUOUS
370
50
 62
4
100
AcDbLine
 10
57.548965
 20
-5.643495
 30
0.0
 11
57.27556999999999
 21
-5.552894999999999
 31
0.0
  0
LINE
  5
9EE
330
1F
100
AcDbEntity
  8
1
  6
CONTINUOUS
370
50
 62
4
100
AcDbLine
 10
58.281036
 20
5.538232
 30
0.0
 11
57.890335
 21
5.667447999999999
 31
0.0
  0
LINE
  5
9EF
330
1F
100
AcDbEntity
  8
1
  6
CONTINUOUS
370
50
 62
4
100
AcDbLine
 10
75.393532
 20
5.544086999999999
 30
0.0
 11
74.99865
 21
5.673287999999999
 31
0.0
  0
LINE
  5
9F0
330
1F
100
AcDbEntity
  8
1
  6
CONTINUOUS
370
50
 62
4
100
AcDbLine
 10
74.323708
 20
5.579795
 30
0.0
 11
73.926086
 21
5.707044
 31
0.0
  0
LINE
  5
9F1
330
1F
100
AcDbEntity
  8
1
  6
CONTINUOUS
370
50
 62
4
100
AcDbLine
 10
53.01211199999999
 20
-5.586729999999999
 30
0.0
 11
52.822693
 21
-5.526541
 31
0.0
  0
LINE
  5
9F2
330
1F
100
AcDbEntity
  8
1
  6
CONTINUOUS
370
50
 62
4
100
AcDbLine
 10
59.107822
 20
5.583705
 30
0.0
 11
58.680775
 21
5.718756
 31
0.0
  0
LINE
  5
9F3
330
1F
100
AcDbEntity
  8
1
  6
CONTINUOUS
370
50
 62
4
100
AcDbLine
 10
74.06843599999999
 20
-5.745912
 30
0.0
 11
73.653114
 21
-5.620680999999999
 31
0.0
  0
LINE
  5
9F4
330
1F
100
AcDbEntity
  8
1
  6
CONTINUOUS
370
50
 62
4
100
AcDbLine
 10
74.979935
 20
-5.732538
 30
0.0
 11
74.59556599999999
 21
-5.616862999999999
 31
0.0
  0
LINE
  5
9F5
330
1F
100
AcDbEntity
  8
1
  6
CONTINUOUS
370
50
 62
4
100
AcDbLine
 10
57.83453
 20
-5.727546999999999
 30
0.0
 11
57.548965
 21
-5.643495
 31
0.0
  0
LINE
  5
9F6
330
1F
100
AcDbEntity
  8
1
  6
CONTINUOUS
370
50
 62
4
100
AcDbLine
 10
75.173744
 20
3.748983
 30
0.0
 11
74.466042
 21
3.956243
 31
0.0
  0
LINE
  5
9F7
330
1F
100
AcDbEntity
  8
1
  6
CONTINUOUS
370
50
 62
4
100
AcDbLine
 10
59.031052
 20
-5.789299
 30
0.0
 11
58.433849
 21
-5.616047
 31
0.0
  0
LINE
  5
9F8
330
1F
100
AcDbEntity
  8
1
  6
CONTINUOUS
370
50
 62
4
100
AcDbLine
 10
79.95333099999999
 20
1.641005
 30
0.0
 11
79.92678099999999
 21
1.648693
 31
0.0
  0
LINE
  5
9F9
330
1F
100
AcDbEntity
  8
1
  6
CONTINUOUS
370
50
 62
4
100
AcDbLine
 10
66.051102
 20
-5.764743999999999
 30
0.0
 11
65.62187999999999
 21
-5.641588
 31
0.0
  0
LINE
  5
9FA
330
1F
100
AcDbEntity
  8
1
  6
CONTINUOUS
370
50
 62
4
100
AcDbLine
 10
67.00076299999999
 20
3.779663
 30
0.0
 11
66.304428
 21
3.976709
 31
0.0
  0
LINE
  5
9FB
330
1F
100
AcDbEntity
  8
1
  6
CONTINUOUS
370
50
 62
4
100
AcDbLine
 10
66.01059699999999
 20
5.654176
 30
0.0
 11
65.527176
 21
5.78858
 31
0.0
  0
LINE
  5
9FC
330
1F
100
AcDbEntity
  8
1
  6
CONTINUOUS
370
50
 62
4
100
AcDbLine
 10
58.82088899999999
 20
3.808664
 30
0.0
 11
58.115669
 21
4.004124
 31
0.0
  0
LINE
  5
9FD
330
1F
100
AcDbEntity
  8
1
  6
CONTINUOUS
370
50
 62
4
100
AcDbLine
 10
57.890335
 20
5.667447999999999
 30
0.0
 11
57.50111
 21
5.775224
 31
0.0
  0
LINE
  5
9FE
330
1F
100
AcDbEntity
  8
1
  6
CONTINUOUS
370
50
 62
4
100
AcDbLine
 10
53.1982
 20
-5.638179999999999
 30
0.0
 11
53.01211199999999
 21
-5.586729999999999
 31
0.0
  0
LINE
  5
9FF
330
1F
100
AcDbEntity
  8
1
  6
CONTINUOUS
370
50
 62
4
100
AcDbLine
 10
74.99865
 20
5.673287999999999
 30
0.0
 11
74.607964
 21
5.781082
 31
0.0
  0
LINE
  5
A00
330
1F
100
AcDbEntity
  8
1
  6
CONTINUOUS
370
50
 62
4
100
AcDbLine
 10
67.233864
 20
-5.815799
 30
0.0
 11
66.67957299999999
 21
-5.668139
 31
0.0
  0
LINE
  5
A01
330
1F
100
AcDbEntity
  8
1
  6
CONTINUOUS
370
50
 62
4
100
AcDbLine
 10
66.916512
 20
5.674809
 30
0.0
 11
66.39102199999999
 21
5.813706
 31
0.0
  0
LINE
  5
A02
330
1F
100
AcDbEntity
  8
1
  6
CONTINUOUS
370
50
 62
4
100
AcDbLine
 10
73.926086
 20
5.707044
 30
0.0
 11
73.526276
 21
5.811936999999999
 31
0.0
  0
LINE
  5
A03
330
1F
100
AcDbEntity
  8
1
  6
CONTINUOUS
370
50
 62
4
100
AcDbLine
 10
58.12079199999999
 20
-5.800891
 30
0.0
 11
57.83453
 21
-5.727546999999999
 31
0.0
  0
LINE
  5
A04
330
1F
100
AcDbEntity
  8
1
  6
CONTINUOUS
370
50
 62
4
100
AcDbLine
 10
58.680775
 20
5.718756
 30
0.0
 11
58.247135
 21
5.828452
 31
0.0
  0
LINE
  5
A05
330
1F
100
AcDbEntity
  8
1
  6
CONTINUOUS
370
50
 62
4
100
AcDbLine
 10
75.368645
 20
-5.828281
 30
0.0
 11
74.979935
 21
-5.732538
 31
0.0
  0
LINE
  5
A06
330
1F
100
AcDbEntity
  8
1
  6
CONTINUOUS
370
50
 62
4
100
AcDbLine
 10
74.484962
 20
-5.846636999999999
 30
0.0
 11
74.06843599999999
 21
-5.745912
 31
0.0
  0
LINE
  5
A07
330
1F
100
AcDbEntity
  8
1
  6
CONTINUOUS
370
50
 62
4
100
AcDbLine
 10
53.381897
 20
-5.680456
 30
0.0
 11
53.1982
 21
-5.638179999999999
 31
0.0
  0
LINE
  5
A08
330
1F
100
AcDbEntity
  8
1
  6
CONTINUOUS
370
50
 62
4
100
AcDbLine
 10
74.466042
 20
3.956243
 30
0.0
 11
73.75833899999999
 21
4.118199
 31
0.0
  0
LINE
  5
A09
330
1F
100
AcDbEntity
  8
1
  6
CONTINUOUS
370
50
 62
4
100
AcDbLine
 10
66.481262
 20
-5.862194
 30
0.0
 11
66.051102
 21
-5.764743999999999
 31
0.0
  0
LINE
  5
A0A
330
1F
100
AcDbEntity
  8
1
  6
CONTINUOUS
370
50
 62
4
100
AcDbLine
 10
57.50111
 20
5.775224
 30
0.0
 11
57.135445
 21
5.857716
 31
0.0
  0
LINE
  5
A0B
330
1F
100
AcDbEntity
  8
1
  6
CONTINUOUS
370
50
 62
4
100
AcDbLine
 10
74.607964
 20
5.781082
 30
0.0
 11
74.22505199999999
 21
5.866859
 31
0.0
  0
LINE
  5
A0C
330
1F
100
AcDbEntity
  8
1
  6
CONTINUOUS
370
50
 62
4
100
AcDbLine
 10
66.304428
 20
3.976709
 30
0.0
 11
65.60807799999999
 21
4.128654
 31
0.0
  0
LINE
  5
A0D
330
1F
100
AcDbEntity
  8
1
  6
CONTINUOUS
370
50
 62
4
100
AcDbLine
 10
58.406414
 20
-5.863065
 30
0.0
 11
58.12079199999999
 21
-5.800891
 31
0.0
  0
LINE
  5
A0E
330
1F
100
AcDbEntity
  8
1
  6
CONTINUOUS
370
50
 62
4
100
AcDbLine
 10
65.527176
 20
5.78858
 30
0.0
 11
65.051575
 21
5.890337
 31
0.0
  0
LINE
  5
A0F
330
1F
100
AcDbEntity
  8
1
  6
CONTINUOUS
370
50
 62
4
100
AcDbLine
 10
58.115669
 20
4.004124
 30
0.0
 11
57.41045399999999
 21
4.149603
 31
0.0
  0
LINE
  5
A10
330
1F
100
AcDbEntity
  8
1
  6
CONTINUOUS
370
50
 62
4
100
AcDbLine
 10
59.627857
 20
-5.91115
 30
0.0
 11
59.031052
 21
-5.789299
 31
0.0
  0
LINE
  5
A11
330
1F
100
AcDbEntity
  8
1
  6
CONTINUOUS
370
50
 62
4
100
AcDbLine
 10
73.526276
 20
5.811936999999999
 30
0.0
 11
73.122978
 21
5.893808
 31
0.0
  0
LINE
  5
A12
330
1F
100
AcDbEntity
  8
1
  6
CONTINUOUS
370
50
 62
4
100
AcDbLine
 10
67.715858
 20
-5.910223999999999
 30
0.0
 11
67.233864
 21
-5.815799
 31
0.0
  0
LINE
  5
A13
330
1F
100
AcDbEntity
  8
1
  6
CONTINUOUS
370
50
 62
4
100
AcDbLine
 10
75.75807999999999
 20
-5.903162
 30
0.0
 11
75.368645
 21
-5.828281
 31
0.0
  0
LINE
  5
A14
330
1F
100
AcDbEntity
  8
1
  6
CONTINUOUS
370
50
 62
4
100
AcDbLine
 10
66.39102199999999
 20
5.813706
 30
0.0
 11
65.853828
 21
5.916468
 31
0.0
  0
LINE
  5
A15
330
1F
100
AcDbEntity
  8
1
  6
CONTINUOUS
370
50
 62
4
100
AcDbLine
 10
58.247135
 20
5.828452
 30
0.0
 11
57.824047
 21
5.90919
 31
0.0
  0
LINE
  5
A16
330
1F
100
AcDbEntity
  8
1
  6
CONTINUOUS
370
50
 62
4
100
AcDbLine
 10
79.901062
 20
-5.339776
 30
0.0
 11
79.83805799999999
 21
-5.327821999999999
 31
0.0
  0
LINE
  5
A17
330
1F
100
AcDbEntity
  8
1
  6
CONTINUOUS
370
50
 62
4
100
AcDbLine
 10
53.564137
 20
-5.71312
 30
0.0
 11
53.381897
 21
-5.680456
 31
0.0
  0
LINE
  5
A18
330
1F
100
AcDbEntity
  8
1
  6
CONTINUOUS
370
50
 62
4
100
AcDbLine
 10
74.909142
 20
-5.922654
 30
0.0
 11
74.484962
 21
-5.846636999999999
 31
0.0
  0
LINE
  5
A19
330
1F
100
AcDbEntity
  8
1
  6
CONTINUOUS
370
50
 62
4
100
AcDbLine
 10
58.69062
 20
-5.913854
 30
0.0
 11
58.406414
 21
-5.863065
 31
0.0
  0
LINE
  5
A1A
330
1F
100
AcDbEntity
  8
1
  6
CONTINUOUS
370
50
 62
4
100
AcDbLine
 10
57.135445
 20
5.857716
 30
0.0
 11
56.800674
 21
5.917128
 31
0.0
  0
LINE
  5
A1B
330
1F
100
AcDbEntity
  8
1
  6
CONTINUOUS
370
50
 62
4
100
AcDbLine
 10
74.22505199999999
 20
5.866859
 30
0.0
 11
73.84870099999999
 21
5.931102999999999
 31
0.0
  0
LINE
  5
A1C
330
1F
100
AcDbEntity
  8
1
  6
CONTINUOUS
370
50
 62
4
100
AcDbLine
 10
66.91156
 20
-5.933948
 30
0.0
 11
66.481262
 21
-5.862194
 31
0.0
  0
LINE
  5
A1D
330
1F
100
AcDbEntity
  8
1
  6
CONTINUOUS
370
50
 62
4
100
AcDbLine
 10
73.75833899999999
 20
4.118199
 30
0.0
 11
73.050652
 21
4.228236
 31
0.0
  0
LINE
  5
A1E
330
1F
100
AcDbEntity
  8
1
  6
CONTINUOUS
370
50
 62
4
100
AcDbLine
 10
65.60807799999999
 20
4.128654
 30
0.0
 11
64.91173599999999
 21
4.233951999999999
 31
0.0
  0
LINE
  5
A1F
330
1F
100
AcDbEntity
  8
1
  6
CONTINUOUS
370
50
 62
4
100
AcDbLine
 10
73.122978
 20
5.893808
 30
0.0
 11
72.717995
 21
5.952448
 31
0.0
  0
LINE
  5
A20
330
1F
100
AcDbEntity
  8
1
  6
CONTINUOUS
370
50
 62
4
100
AcDbLine
 10
65.051575
 20
5.890337
 30
0.0
 11
64.576904
 21
5.959057
 31
0.0
  0
LINE
  5
A21
330
1F
100
AcDbEntity
  8
1
  6
CONTINUOUS
370
50
 62
4
100
AcDbLine
 10
58.971619
 20
-5.952916999999999
 30
0.0
 11
58.69062
 21
-5.913854
 31
0.0
  0
LINE
  5
A22
330
1F
100
AcDbEntity
  8
1
  6
CONTINUOUS
370
50
 62
4
100
AcDbLine
 10
76.146942
 20
-5.956917
 30
0.0
 11
75.75807999999999
 21
-5.903162
 31
0.0
  0
LINE
  5
A23
330
1F
100
AcDbEntity
  8
1
  6
CONTINUOUS
370
50
 62
4
100
AcDbLine
 10
57.41045399999999
 20
4.149603
 30
0.0
 11
56.705227
 21
4.246427
 31
0.0
  0
LINE
  5
A24
330
1F
100
AcDbEntity
  8
1
  6
CONTINUOUS
370
50
 62
4
100
AcDbLine
 10
56.800674
 20
5.917128
 30
0.0
 11
56.498627
 21
5.957252
 31
0.0
  0
LINE
  5
A25
330
1F
100
AcDbEntity
  8
1
  6
CONTINUOUS
370
50
 62
4
100
AcDbLine
 10
68.121376
 20
-5.964091
 30
0.0
 11
67.715858
 21
-5.910223999999999
 31
0.0
  0
LINE
  5
A26
330
1F
100
AcDbEntity
  8
1
  6
CONTINUOUS
370
50
 62
4
100
AcDbLine
 10
57.824047
 20
5.90919
 30
0.0
 11
57.426342
 21
5.961933999999999
 31
0.0
  0
LINE
  5
A27
330
1F
100
AcDbEntity
  8
1
  6
CONTINUOUS
370
50
 62
4
100
AcDbLine
 10
53.745861
 20
-5.735736
 30
0.0
 11
53.564137
 21
-5.71312
 31
0.0
  0
LINE
  5
A28
330
1F
100
AcDbEntity
  8
1
  6
CONTINUOUS
370
50
 62
4
100
AcDbLine
 10
75.33524299999999
 20
-5.972907999999999
 30
0.0
 11
74.909142
 21
-5.922654
 31
0.0
  0
LINE
  5
A29
330
1F
100
AcDbEntity
  8
1
  6
CONTINUOUS
370
50
 62
4
100
AcDbLine
 10
65.853828
 20
5.916468
 30
0.0
 11
65.319374
 21
5.978876
 31
0.0
  0
LINE
  5
A2A
330
1F
100
AcDbEntity
  8
1
  6
CONTINUOUS
370
50
 62
4
100
AcDbLine
 10
60.22884
 20
-5.981045
 30
0.0
 11
59.627857
 21
-5.91115
 31
0.0
  0
LINE
  5
A2B
330
1F
100
AcDbEntity
  8
1
  6
CONTINUOUS
370
50
 62
4
100
AcDbLine
 10
73.84870099999999
 20
5.931102999999999
 30
0.0
 11
73.471931
 21
5.974254999999999
 31
0.0
  0
LINE
  5
A2C
330
1F
100
AcDbEntity
  8
1
  6
CONTINUOUS
370
50
 62
4
100
AcDbLine
 10
67.340881
 20
-5.979765
 30
0.0
 11
66.91156
 21
-5.933948
 31
0.0
  0
LINE
  5
A2D
330
1F
100
AcDbEntity
  8
1
  6
CONTINUOUS
370
50
 62
4
100
AcDbLine
 10
59.252125
 20
-5.980242
 30
0.0
 11
58.971619
 21
-5.952916999999999
 31
0.0
  0
LINE
  5
A2E
330
1F
100
AcDbEntity
  8
1
  6
CONTINUOUS
370
50
 62
4
100
AcDbLine
 10
56.498627
 20
5.957252
 30
0.0
 11
56.231129
 21
5.981877
 31
0.0
  0
LINE
  5
A2F
330
1F
100
AcDbEntity
  8
1
  6
CONTINUOUS
370
50
 62
4
100
AcDbLine
 10
72.717995
 20
5.952448
 30
0.0
 11
72.312744
 21
5.987839
 31
0.0
  0
LINE
  5
A30
330
1F
100
AcDbEntity
  8
1
  6
CONTINUOUS
370
50
 62
4
100
AcDbLine
 10
76.533699
 20
-5.989278
 30
0.0
 11
76.146942
 21
-5.956917
 31
0.0
  0
LINE
  5
A31
330
1F
100
AcDbEntity
  8
1
  6
CONTINUOUS
370
50
 62
4
100
AcDbLine
 10
73.050652
 20
4.228236
 30
0.0
 11
72.342957
 21
4.286538
 31
0.0
  0
LINE
  5
A32
330
1F
100
AcDbEntity
  8
1
  6
CONTINUOUS
370
50
 62
4
100
AcDbLine
 10
64.91173599999999
 20
4.233951999999999
 30
0.0
 11
64.215401
 21
4.288768
 31
0.0
  0
LINE
  5
A33
330
1F
100
AcDbEntity
  8
1
  6
CONTINUOUS
370
50
 62
4
100
AcDbLine
 10
57.426342
 20
5.961933999999999
 30
0.0
 11
57.056038
 21
5.990867
 31
0.0
  0
LINE
  5
A34
330
1F
100
AcDbEntity
  8
1
  6
CONTINUOUS
370
50
 62
4
100
AcDbLine
 10
68.485466
 20
-5.991763
 30
0.0
 11
68.121376
 21
-5.964091
 31
0.0
  0
LINE
  5
A35
330
1F
100
AcDbEntity
  8
1
  6
CONTINUOUS
370
50
 62
4
100
AcDbLine
 10
64.576904
 20
5.959057
 30
0.0
 11
64.096558
 21
5.994599
 31
0.0
  0
LINE
  5
A36
330
1F
100
AcDbEntity
  8
1
  6
CONTINUOUS
370
50
 62
4
100
AcDbLine
 10
53.928005
 20
-5.747869
 30
0.0
 11
53.745861
 21
-5.735736
 31
0.0
  0
LINE
  5
A37
330
1F
100
AcDbEntity
  8
1
  6
CONTINUOUS
370
50
 62
4
100
AcDbLine
 10
56.705227
 20
4.246427
 30
0.0
 11
56.0
 21
4.293041
 31
0.0
  0
LINE
  5
A38
330
1F
100
AcDbEntity
  8
1
  6
CONTINUOUS
370
50
 62
4
100
AcDbLine
 10
73.471931
 20
5.974254999999999
 30
0.0
 11
73.093002
 21
5.996537
 31
0.0
  0
LINE
  5
A39
330
1F
100
AcDbEntity
  8
1
  6
CONTINUOUS
370
50
 62
4
100
AcDbLine
 10
75.761482
 20
-5.997382
 30
0.0
 11
75.33524299999999
 21
-5.972907999999999
 31
0.0
  0
LINE
  5
A3A
330
1F
100
AcDbEntity
  8
1
  6
CONTINUOUS
370
50
 62
4
100
AcDbLine
 10
56.231129
 20
5.981877
 30
0.0
 11
56.0
 21
5.994797
 31
0.0
  0
LINE
  5
A3B
330
1F
100
AcDbEntity
  8
1
  6
CONTINUOUS
370
50
 62
4
100
AcDbLine
 10
59.535652
 20
-5.995886
 30
0.0
 11
59.252125
 21
-5.980242
 31
0.0
  0
LINE
  5
A3C
330
1F
100
AcDbEntity
  8
1
  6
CONTINUOUS
370
50
 62
4
100
AcDbLine
 10
67.76799
 20
-5.999245999999999
 30
0.0
 11
67.340881
 21
-5.979765
 31
0.0
  0
LINE
  5
A3D
330
1F
100
AcDbEntity
  8
1
  6
CONTINUOUS
370
50
 62
4
100
AcDbLine
 10
65.319374
 20
5.978876
 30
0.0
 11
64.78752899999999
 21
5.999972
 31
0.0
  0
LINE
  5
A3E
330
1F
100
AcDbEntity
  8
1
  6
CONTINUOUS
370
50
 62
4
100
AcDbLine
 10
60.831936
 20
-5.999376
 30
0.0
 11
60.22884
 21
-5.981045
 31
0.0
  0
LINE
  5
A3F
330
1F
100
AcDbEntity
  8
1
  6
CONTINUOUS
370
50
 62
4
100
AcDbLine
 10
72.312744
 20
5.987839
 30
0.0
 11
71.90864599999999
 21
5.999961
 31
0.0
  0
LINE
  5
A40
330
1F
100
AcDbEntity
  8
1
  6
CONTINUOUS
370
50
 62
4
100
AcDbLine
 10
76.91366599999999
 20
-6.000038
 30
0.0
 11
76.533699
 21
-5.989278
 31
0.0
  0
LINE
  5
A41
330
1F
100
AcDbEntity
  8
1
  6
CONTINUOUS
370
50
 62
4
100
AcDbLine
 10
57.056038
 20
5.990867
 30
0.0
 11
56.715153
 21
6.00017
 31
0.0
  0
LINE
  5
A42
330
1F
100
AcDbEntity
  8
1
  6
CONTINUOUS
370
50
 62
4
100
AcDbLine
 10
68.851479
 20
-5.999891
 30
0.0
 11
68.485466
 21
-5.991763
 31
0.0
  0
LINE
  5
A43
330
1F
100
AcDbEntity
  8
1
  6
CONTINUOUS
370
50
 62
4
100
AcDbLine
 10
59.82159799999999
 20
-5.999736
 30
0.0
 11
59.535652
 21
-5.995886
 31
0.0
  0
LINE
  5
A44
330
1F
100
AcDbEntity
  8
1
  6
CONTINUOUS
370
50
 62
4
100
AcDbLine
 10
72.342957
 20
4.286538
 30
0.0
 11
71.635254
 21
4.294054
 31
0.0
  0
LINE
  5
A45
330
1F
100
AcDbEntity
  8
1
  6
CONTINUOUS
370
50
 62
4
100
AcDbLine
 10
54.111504
 20
-5.749082
 30
0.0
 11
53.928005
 21
-5.747869
 31
0.0
  0
LINE
  5
A46
330
1F
100
AcDbEntity
  8
1
  6
CONTINUOUS
370
50
 62
4
100
AcDbLine
 10
64.215401
 20
4.288768
 30
0.0
 11
63.519066
 21
4.292917
 31
0.0
  0
LINE
  5
A47
330
1F
100
AcDbEntity
  8
1
  6
CONTINUOUS
370
50
 62
4
100
AcDbLine
 10
64.096558
 20
5.994599
 30
0.0
 11
63.61516599999999
 21
5.996858
 31
0.0
  0
LINE
  5
A48
330
1F
100
AcDbEntity
  8
1
  6
CONTINUOUS
370
50
 62
4
100
AcDbLine
 10
73.093002
 20
5.996537
 30
0.0
 11
72.713043
 21
5.99813
 31
0.0
  0
LINE
  5
A49
330
1F
100
AcDbEntity
  8
1
  6
CONTINUOUS
370
50
 62
4
100
AcDbLine
 10
76.913506
 20
-5.999987
 30
0.0
 11
75.950806
 21
-5.999982999999999
 31
0.0
  0
LINE
  5
A4A
330
1F
100
AcDbEntity
  8
1
  6
CONTINUOUS
370
50
 62
4
100
AcDbLine
 10
68.8218
 20
-5.999953
 30
0.0
 11
67.864357
 21
-5.999949
 31
0.0
  0
LINE
  5
A4B
330
1F
100
AcDbEntity
  8
1
  6
CONTINUOUS
370
50
 62
4
100
AcDbLine
 10
60.743092
 20
-5.999919999999999
 30
0.0
 11
59.771145
 21
-5.999916
 31
0.0
  0
LINE
  5
A4C
330
1F
100
AcDbEntity
  8
1
  6
CONTINUOUS
370
50
 62
4
100
AcDbLine
 10
44.0
 20
-5.74995
 30
0.0
 11
54.038967
 21
-5.74995
 31
0.0
  0
LINE
  5
A4D
330
1F
100
AcDbEntity
  8
1
  6
CONTINUOUS
370
50
 62
4
100
AcDbLine
 10
44.0
 20
5.74995
 30
0.0
 11
56.0
 21
5.74995
 31
0.0
  0
LINE
  5
A4E
330
1F
100
AcDbEntity
  8
1
  6
CONTINUOUS
370
50
 62
4
100
AcDbLine
 10
71.900078
 20
5.999966
 30
0.0
 11
72.874138
 21
5.999969999999999
 31
0.0
  0
LINE
  5
A4F
330
1F
100
AcDbEntity
  8
1
  6
CONTINUOUS
370
50
 62
4
100
AcDbLine
 10
63.822773
 20
5.999933
 30
0.0
 11
64.787621
 21
5.999937
 31
0.0
  0
LINE
  5
A50
330
1F
100
AcDbEntity
  8
1
  6
CONTINUOUS
370
50
 62
4
100
AcDbLine
 10
56.0
 20
5.999899999999999
 30
0.0
 11
56.693405
 21
5.999903
 31
0.0
  0
LINE
  5
A51
330
1F
100
AcDbEntity
  8
1
  6
CONTINUOUS
370
50
 62
4
100
AcDbLine
 10
55.722988
 20
5.745177
 30
0.0
 11
56.0
 21
5.745385
 31
0.0
  0
LINE
  5
A52
330
1F
100
AcDbEntity
  8
1
  6
CONTINUOUS
370
50
 62
4
100
AcDbLine
 10
55.445972
 20
5.744958
 30
0.0
 11
55.722988
 21
5.745177
 31
0.0
  0
LINE
  5
A53
330
1F
100
AcDbEntity
  8
1
  6
CONTINUOUS
370
50
 62
4
100
AcDbLine
 10
55.16895299999999
 20
5.744727999999999
 30
0.0
 11
55.445972
 21
5.744958
 31
0.0
  0
LINE
  5
A54
330
1F
100
AcDbEntity
  8
1
  6
CONTINUOUS
370
50
 62
4
100
AcDbLine
 10
54.891937
 20
5.744485
 30
0.0
 11
55.16895299999999
 21
5.744727999999999
 31
0.0
  0
LINE
  5
A55
330
1F
100
AcDbEntity
  8
1
  6
CONTINUOUS
370
50
 62
4
100
AcDbLine
 10
54.614925
 20
5.74423
 30
0.0
 11
54.891937
 21
5.744485
 31
0.0
  0
LINE
  5
A56
330
1F
100
AcDbEntity
  8
1
  6
CONTINUOUS
370
50
 62
4
100
AcDbLine
 10
54.33792099999999
 20
5.743963
 30
0.0
 11
54.614925
 21
5.74423
 31
0.0
  0
LINE
  5
A57
330
1F
100
AcDbEntity
  8
1
  6
CONTINUOUS
370
50
 62
4
100
AcDbLine
 10
54.060928
 20
5.743683
 30
0.0
 11
54.33792099999999
 21
5.743963
 31
0.0
  0
LINE
  5
A58
330
1F
100
AcDbEntity
  8
1
  6
CONTINUOUS
370
50
 62
4
100
AcDbLine
 10
53.988304
 20
5.743558
 30
0.0
 11
54.060928
 21
5.743683
 31
0.0
  0
LINE
  5
A59
330
1F
100
AcDbEntity
  8
1
  6
CONTINUOUS
370
50
 62
4
100
AcDbLine
 10
53.915722
 20
5.743325
 30
0.0
 11
53.988304
 21
5.743558
 31
0.0
  0
LINE
  5
A5A
330
1F
100
AcDbEntity
  8
1
  6
CONTINUOUS
370
50
 62
4
100
AcDbLine
 10
53.8433
 20
5.74297
 30
0.0
 11
53.915722
 21
5.743325
 31
0.0
  0
LINE
  5
A5B
330
1F
100
AcDbEntity
  8
1
  6
CONTINUOUS
370
50
 62
4
100
AcDbLine
 10
53.77114899999999
 20
5.742478999999999
 30
0.0
 11
53.8433
 21
5.74297
 31
0.0
  0
LINE
  5
A5C
330
1F
100
AcDbEntity
  8
1
  6
CONTINUOUS
370
50
 62
4
100
AcDbLine
 10
53.699398
 20
5.741841
 30
0.0
 11
53.77114899999999
 21
5.742478999999999
 31
0.0
  0
LINE
  5
A5D
330
1F
100
AcDbEntity
  8
1
  6
CONTINUOUS
370
50
 62
4
100
AcDbLine
 10
79.406258
 20
5.102728
 30
0.0
 11
79.46804
 21
5.103357
 31
0.0
  0
LINE
  5
A5E
330
1F
100
AcDbEntity
  8
1
  6
CONTINUOUS
370
50
 62
4
100
AcDbLine
 10
79.338326
 20
5.102029
 30
0.0
 11
79.406258
 21
5.102728
 31
0.0
  0
LINE
  5
A5F
330
1F
100
AcDbEntity
  8
1
  6
CONTINUOUS
370
50
 62
4
100
AcDbLine
 10
55.722988
 20
-4.785627
 30
0.0
 11
56.0
 21
-4.782763
 31
0.0
  0
LINE
  5
A60
330
1F
100
AcDbEntity
  8
1
  6
CONTINUOUS
370
50
 62
4
100
AcDbLine
 10
55.445972
 20
-4.788571999999999
 30
0.0
 11
55.722988
 21
-4.785627
 31
0.0
  0
LINE
  5
A61
330
1F
100
AcDbEntity
  8
1
  6
CONTINUOUS
370
50
 62
4
100
AcDbLine
 10
55.16895299999999
 20
-4.791598
 30
0.0
 11
55.445972
 21
-4.788571999999999
 31
0.0
  0
LINE
  5
A62
330
1F
100
AcDbEntity
  8
1
  6
CONTINUOUS
370
50
 62
4
100
AcDbLine
 10
54.891937
 20
-4.794703999999999
 30
0.0
 11
55.16895299999999
 21
-4.791598
 31
0.0
  0
LINE
  5
A63
330
1F
100
AcDbEntity
  8
1
  6
CONTINUOUS
370
50
 62
4
100
AcDbLine
 10
53.628159
 20
5.74104
 30
0.0
 11
53.699398
 21
5.741841
 31
0.0
  0
LINE
  5
A64
330
1F
100
AcDbEntity
  8
1
  6
CONTINUOUS
370
50
 62
4
100
AcDbLine
 10
54.614925
 20
-4.797889
 30
0.0
 11
54.891937
 21
-4.794703999999999
 31
0.0
  0
LINE
  5
A65
330
1F
100
AcDbEntity
  8
1
  6
CONTINUOUS
370
50
 62
4
100
AcDbLine
 10
54.33792099999999
 20
-4.801152
 30
0.0
 11
54.614925
 21
-4.797889
 31
0.0
  0
LINE
  5
A66
330
1F
100
AcDbEntity
  8
1
  6
CONTINUOUS
370
50
 62
4
100
AcDbLine
 10
54.060928
 20
-4.804492
 30
0.0
 11
54.33792099999999
 21
-4.801152
 31
0.0
  0
LINE
  5
A67
330
1F
100
AcDbEntity
  8
1
  6
CONTINUOUS
370
50
 62
4
100
AcDbLine
 10
79.264046
 20
5.101088
 30
0.0
 11
79.338326
 21
5.102029
 31
0.0
  0
LINE
  5
A68
330
1F
100
AcDbEntity
  8
1
  6
CONTINUOUS
370
50
 62
4
100
AcDbLine
 10
79.46804
 20
5.103357
 30
0.0
 11
79.526169
 21
5.104126
 31
0.0
  0
LINE
  5
A69
330
1F
100
AcDbEntity
  8
1
  6
CONTINUOUS
370
50
 62
4
100
AcDbLine
 10
53.557556
 20
5.740063999999999
 30
0.0
 11
53.628159
 21
5.74104
 31
0.0
  0
LINE
  5
A6A
330
1F
100
AcDbEntity
  8
1
  6
CONTINUOUS
370
50
 62
4
100
AcDbLine
 10
53.487671
 20
5.738899
 30
0.0
 11
53.557556
 21
5.740063999999999
 31
0.0
  0
LINE
  5
A6B
330
1F
100
AcDbEntity
  8
1
  6
CONTINUOUS
370
50
 62
4
100
AcDbLine
 10
79.18646199999999
 20
5.099784
 30
0.0
 11
79.264046
 21
5.101088
 31
0.0
  0
LINE
  5
A6C
330
1F
100
AcDbEntity
  8
1
  6
CONTINUOUS
370
50
 62
4
100
AcDbLine
 10
55.722988
 20
1.552584
 30
0.0
 11
56.0
 21
1.557554
 31
0.0
  0
LINE
  5
A6D
330
1F
100
AcDbEntity
  8
1
  6
CONTINUOUS
370
50
 62
4
100
AcDbLine
 10
55.445972
 20
1.547464
 30
0.0
 11
55.722988
 21
1.552584
 31
0.0
  0
LINE
  5
A6E
330
1F
100
AcDbEntity
  8
1
  6
CONTINUOUS
370
50
 62
4
100
AcDbLine
 10
55.16895299999999
 20
1.542195
 30
0.0
 11
55.445972
 21
1.547464
 31
0.0
  0
LINE
  5
A6F
330
1F
100
AcDbEntity
  8
1
  6
CONTINUOUS
370
50
 62
4
100
AcDbLine
 10
54.891937
 20
1.536777
 30
0.0
 11
55.16895299999999
 21
1.542195
 31
0.0
  0
LINE
  5
A70
330
1F
100
AcDbEntity
  8
1
  6
CONTINUOUS
370
50
 62
4
100
AcDbLine
 10
79.526169
 20
5.104126
 30
0.0
 11
79.583305
 21
5.105252
 31
0.0
  0
LINE
  5
A71
330
1F
100
AcDbEntity
  8
1
  6
CONTINUOUS
370
50
 62
4
100
AcDbLine
 10
53.41836499999999
 20
5.737515999999999
 30
0.0
 11
53.487671
 21
5.738899
 31
0.0
  0
LINE
  5
A72
330
1F
100
AcDbEntity
  8
1
  6
CONTINUOUS
370
50
 62
4
100
AcDbLine
 10
54.614925
 20
1.531212
 30
0.0
 11
54.891937
 21
1.536777
 31
0.0
  0
LINE
  5
A73
330
1F
100
AcDbEntity
  8
1
  6
CONTINUOUS
370
50
 62
4
100
AcDbLine
 10
54.33792099999999
 20
1.5255
 30
0.0
 11
54.614925
 21
1.531212
 31
0.0
  0
LINE
  5
A74
330
1F
100
AcDbEntity
  8
1
  6
CONTINUOUS
370
50
 62
4
100
AcDbLine
 10
79.70193499999999
 20
5.993749999999999
 30
0.0
 11
80.0
 21
5.999994999999999
 31
0.0
  0
LINE
  5
A75
330
1F
100
AcDbEntity
  8
1
  6
CONTINUOUS
370
50
 62
4
100
AcDbLine
 10
54.060928
 20
1.519643
 30
0.0
 11
54.33792099999999
 21
1.5255
 31
0.0
  0
LINE
  5
A76
330
1F
100
AcDbEntity
  8
1
  6
CONTINUOUS
370
50
 62
4
100
AcDbLine
 10
53.985722
 20
-4.806099
 30
0.0
 11
54.060928
 21
-4.804492
 31
0.0
  0
LINE
  5
A77
330
1F
100
AcDbEntity
  8
1
  6
CONTINUOUS
370
50
 62
4
100
AcDbLine
 10
79.105598
 20
5.09796
 30
0.0
 11
79.18646199999999
 21
5.099784
 31
0.0
  0
LINE
  5
A78
330
1F
100
AcDbEntity
  8
1
  6
CONTINUOUS
370
50
 62
4
100
AcDbLine
 10
53.349785
 20
5.735875
 30
0.0
 11
53.41836499999999
 21
5.737515999999999
 31
0.0
  0
LINE
  5
A79
330
1F
100
AcDbEntity
  8
1
  6
CONTINUOUS
370
50
 62
4
100
AcDbLine
 10
53.282139
 20
5.733933
 30
0.0
 11
53.349785
 21
5.735875
 31
0.0
  0
LINE
  5
A7A
330
1F
100
AcDbEntity
  8
1
  6
CONTINUOUS
370
50
 62
4
100
AcDbLine
 10
79.0214
 20
5.095453
 30
0.0
 11
79.105598
 21
5.09796
 31
0.0
  0
LINE
  5
A7B
330
1F
100
AcDbEntity
  8
1
  6
CONTINUOUS
370
50
 62
4
100
AcDbLine
 10
71.457054
 20
5.985729999999999
 30
0.0
 11
71.90864599999999
 21
5.999961
 31
0.0
  0
LINE
  5
A7C
330
1F
100
AcDbEntity
  8
1
  6
CONTINUOUS
370
50
 62
4
100
AcDbLine
 10
79.583305
 20
5.105252
 30
0.0
 11
79.641617
 21
5.107119
 31
0.0
  0
LINE
  5
A7D
330
1F
100
AcDbEntity
  8
1
  6
CONTINUOUS
370
50
 62
4
100
AcDbLine
 10
76.91366599999999
 20
-6.000038
 30
0.0
 11
77.344528
 21
-5.986161
 31
0.0
  0
LINE
  5
A7E
330
1F
100
AcDbEntity
  8
1
  6
CONTINUOUS
370
50
 62
4
100
AcDbLine
 10
68.851479
 20
-5.999891
 30
0.0
 11
69.248978
 21
-5.986929
 31
0.0
  0
LINE
  5
A7F
330
1F
100
AcDbEntity
  8
1
  6
CONTINUOUS
370
50
 62
4
100
AcDbLine
 10
53.215652
 20
5.731648
 30
0.0
 11
53.282139
 21
5.733933
 31
0.0
  0
LINE
  5
A80
330
1F
100
AcDbEntity
  8
1
  6
CONTINUOUS
370
50
 62
4
100
AcDbLine
 10
53.988964
 20
1.517001
 30
0.0
 11
54.060928
 21
1.519643
 31
0.0
  0
LINE
  5
A81
330
1F
100
AcDbEntity
  8
1
  6
CONTINUOUS
370
50
 62
4
100
AcDbLine
 10
78.933807
 20
5.092103
 30
0.0
 11
79.0214
 21
5.095453
 31
0.0
  0
LINE
  5
A82
330
1F
100
AcDbEntity
  8
1
  6
CONTINUOUS
370
50
 62
4
100
AcDbLine
 10
53.910564
 20
-4.809083
 30
0.0
 11
53.985722
 21
-4.806099
 31
0.0
  0
LINE
  5
A83
330
1F
100
AcDbEntity
  8
1
  6
CONTINUOUS
370
50
 62
4
100
AcDbLine
 10
79.901062
 20
-5.339776
 30
0.0
 11
79.96665999999999
 21
-5.337154
 31
0.0
  0
LINE
  5
A84
330
1F
100
AcDbEntity
  8
1
  6
CONTINUOUS
370
50
 62
4
100
AcDbLine
 10
53.150543
 20
5.72898
 30
0.0
 11
53.215652
 21
5.731648
 31
0.0
  0
LINE
  5
A85
330
1F
100
AcDbEntity
  8
1
  6
CONTINUOUS
370
50
 62
4
100
AcDbLine
 10
78.842773
 20
5.087747999999999
 30
0.0
 11
78.933807
 21
5.092103
 31
0.0
  0
LINE
  5
A86
330
1F
100
AcDbEntity
  8
1
  6
CONTINUOUS
370
50
 62
4
100
AcDbLine
 10
53.087029
 20
5.725886
 30
0.0
 11
53.150543
 21
5.72898
 31
0.0
  0
LINE
  5
A87
330
1F
100
AcDbEntity
  8
1
  6
CONTINUOUS
370
50
 62
4
100
AcDbLine
 10
79.641617
 20
5.107119
 30
0.0
 11
79.699387
 21
5.110272999999999
 31
0.0
  0
LINE
  5
A88
330
1F
100
AcDbEntity
  8
1
  6
CONTINUOUS
370
50
 62
4
100
AcDbLine
 10
60.831936
 20
-5.999376
 30
0.0
 11
61.419281
 21
-5.967296
 31
0.0
  0
LINE
  5
A89
330
1F
100
AcDbEntity
  8
1
  6
CONTINUOUS
370
50
 62
4
100
AcDbLine
 10
54.111504
 20
-5.749082
 30
0.0
 11
54.312805
 21
-5.737576
 31
0.0
  0
LINE
  5
A8A
330
1F
100
AcDbEntity
  8
1
  6
CONTINUOUS
370
50
 62
4
100
AcDbLine
 10
53.025318
 20
5.722325
 30
0.0
 11
53.087029
 21
5.725886
 31
0.0
  0
LINE
  5
A8B
330
1F
100
AcDbEntity
  8
1
  6
CONTINUOUS
370
50
 62
4
100
AcDbLine
 10
53.835583
 20
-4.813437
 30
0.0
 11
53.910564
 21
-4.809083
 31
0.0
  0
LINE
  5
A8C
330
1F
100
AcDbEntity
  8
1
  6
CONTINUOUS
370
50
 62
4
100
AcDbLine
 10
78.748238
 20
5.082228
 30
0.0
 11
78.842773
 21
5.087747999999999
 31
0.0
  0
LINE
  5
A8D
330
1F
100
AcDbEntity
  8
1
  6
CONTINUOUS
370
50
 62
4
100
AcDbLine
 10
79.95333099999999
 20
1.641005
 30
0.0
 11
79.973114
 21
1.64217
 31
0.0
  0
LINE
  5
A8E
330
1F
100
AcDbEntity
  8
1
  6
CONTINUOUS
370
50
 62
4
100
AcDbLine
 10
63.148964
 20
5.96768
 30
0.0
 11
63.61516599999999
 21
5.996858
 31
0.0
  0
LINE
  5
A8F
330
1F
100
AcDbEntity
  8
1
  6
CONTINUOUS
370
50
 62
4
100
AcDbLine
 10
70.927551
 20
4.248877999999999
 30
0.0
 11
71.635254
 21
4.294054
 31
0.0
  0
LINE
  5
A90
330
1F
100
AcDbEntity
  8
1
  6
CONTINUOUS
370
50
 62
4
100
AcDbLine
 10
62.822723
 20
4.247837
 30
0.0
 11
63.519066
 21
4.292917
 31
0.0
  0
LINE
  5
A91
330
1F
100
AcDbEntity
  8
1
  6
CONTINUOUS
370
50
 62
4
100
AcDbLine
 10
79.383392
 20
5.972728
 30
0.0
 11
79.70193499999999
 21
5.993749999999999
 31
0.0
  0
LINE
  5
A92
330
1F
100
AcDbEntity
  8
1
  6
CONTINUOUS
370
50
 62
4
100
AcDbLine
 10
53.917034
 20
1.512146
 30
0.0
 11
53.988964
 21
1.517001
 31
0.0
  0
LINE
  5
A93
330
1F
100
AcDbEntity
  8
1
  6
CONTINUOUS
370
50
 62
4
100
AcDbLine
 10
52.965435
 20
5.718226
 30
0.0
 11
53.025318
 21
5.722325
 31
0.0
  0
LINE
  5
A94
330
1F
100
AcDbEntity
  8
1
  6
CONTINUOUS
370
50
 62
4
100
AcDbLine
 10
78.650154
 20
5.075381
 30
0.0
 11
78.748238
 21
5.082228
 31
0.0
  0
LINE
  5
A95
330
1F
100
AcDbEntity
  8
1
  6
CONTINUOUS
370
50
 62
4
100
AcDbLine
 10
53.76091
 20
-4.819153
 30
0.0
 11
53.835583
 21
-4.813437
 31
0.0
  0
LINE
  5
A96
330
1F
100
AcDbEntity
  8
1
  6
CONTINUOUS
370
50
 62
4
100
AcDbLine
 10
52.907627
 20
5.713507
 30
0.0
 11
52.965435
 21
5.718226
 31
0.0
  0
LINE
  5
A97
330
1F
100
AcDbEntity
  8
1
  6
CONTINUOUS
370
50
 62
4
100
AcDbLine
 10
78.548462
 20
5.067048
 30
0.0
 11
78.650154
 21
5.075381
 31
0.0
  0
LINE
  5
A98
330
1F
100
AcDbEntity
  8
1
  6
CONTINUOUS
370
50
 62
4
100
AcDbLine
 10
69.248978
 20
-5.986929
 30
0.0
 11
69.647339
 21
-5.951489
 31
0.0
  0
LINE
  5
A99
330
1F
100
AcDbEntity
  8
1
  6
CONTINUOUS
370
50
 62
4
100
AcDbLine
 10
78.443108
 20
5.057066
 30
0.0
 11
78.548462
 21
5.067048
 31
0.0
  0
LINE
  5
A9A
330
1F
100
AcDbEntity
  8
1
  6
CONTINUOUS
370
50
 62
4
100
AcDbLine
 10
77.344528
 20
-5.986161
 30
0.0
 11
77.780113
 21
-5.944804
 31
0.0
  0
LINE
  5
A9B
330
1F
100
AcDbEntity
  8
1
  6
CONTINUOUS
370
50
 62
4
100
AcDbLine
 10
53.686684
 20
-4.826223
 30
0.0
 11
53.76091
 21
-4.819153
 31
0.0
  0
LINE
  5
A9C
330
1F
100
AcDbEntity
  8
1
  6
CONTINUOUS
370
50
 62
4
100
AcDbLine
 10
79.699387
 20
5.110272999999999
 30
0.0
 11
79.757256
 21
5.115792
 31
0.0
  0
LINE
  5
A9D
330
1F
100
AcDbEntity
  8
1
  6
CONTINUOUS
370
50
 62
4
100
AcDbLine
 10
71.012733
 20
5.942260999999999
 30
0.0
 11
71.457054
 21
5.985729999999999
 31
0.0
  0
LINE
  5
A9E
330
1F
100
AcDbEntity
  8
1
  6
CONTINUOUS
370
50
 62
4
100
AcDbLine
 10
52.852291
 20
5.708093
 30
0.0
 11
52.907627
 21
5.713507
 31
0.0
  0
LINE
  5
A9F
330
1F
100
AcDbEntity
  8
1
  6
CONTINUOUS
370
50
 62
4
100
AcDbLine
 10
53.845257
 20
1.505068
 30
0.0
 11
53.917034
 21
1.512146
 31
0.0
  0
LINE
  5
AA0
330
1F
100
AcDbEntity
  8
1
  6
CONTINUOUS
370
50
 62
4
100
AcDbLine
 10
78.33403799999999
 20
5.045275999999999
 30
0.0
 11
78.443108
 21
5.057066
 31
0.0
  0
LINE
  5
AA1
330
1F
100
AcDbEntity
  8
1
  6
CONTINUOUS
370
50
 62
4
100
AcDbLine
 10
79.054161
 20
5.935836999999999
 30
0.0
 11
79.383392
 21
5.972728
 31
0.0
  0
LINE
  5
AA2
330
1F
100
AcDbEntity
  8
1
  6
CONTINUOUS
370
50
 62
4
100
AcDbLine
 10
53.613029
 20
-4.834641
 30
0.0
 11
53.686684
 21
-4.826223
 31
0.0
  0
LINE
  5
AA3
330
1F
100
AcDbEntity
  8
1
  6
CONTINUOUS
370
50
 62
4
100
AcDbLine
 10
52.799809
 20
5.701906999999999
 30
0.0
 11
52.852291
 21
5.708093
 31
0.0
  0
LINE
  5
AA4
330
1F
100
AcDbEntity
  8
1
  6
CONTINUOUS
370
50
 62
4
100
AcDbLine
 10
78.22120699999999
 20
5.031516
 30
0.0
 11
78.33403799999999
 21
5.045275999999999
 31
0.0
  0
LINE
  5
AA5
330
1F
100
AcDbEntity
  8
1
  6
CONTINUOUS
370
50
 62
4
100
AcDbLine
 10
54.312805
 20
-5.737576
 30
0.0
 11
54.516136
 21
-5.712543
 31
0.0
  0
LINE
  5
AA6
330
1F
100
AcDbEntity
  8
1
  6
CONTINUOUS
370
50
 62
4
100
AcDbLine
 10
62.72534599999999
 20
5.914177
 30
0.0
 11
63.148964
 21
5.96768
 31
0.0
  0
LINE
  5
AA7
330
1F
100
AcDbEntity
  8
1
  6
CONTINUOUS
370
50
 62
4
100
AcDbLine
 10
53.77375
 20
1.495757
 30
0.0
 11
53.845257
 21
1.505068
 31
0.0
  0
LINE
  5
AA8
330
1F
100
AcDbEntity
  8
1
  6
CONTINUOUS
370
50
 62
4
100
AcDbLine
 10
53.540081
 20
-4.844399
 30
0.0
 11
53.613029
 21
-4.834641
 31
0.0
  0
LINE
  5
AA9
330
1F
100
AcDbEntity
  8
1
  6
CONTINUOUS
370
50
 62
4
100
AcDbLine
 10
78.105537
 20
5.015749
 30
0.0
 11
78.22120699999999
 21
5.031516
 31
0.0
  0
LINE
  5
AAA
330
1F
100
AcDbEntity
  8
1
  6
CONTINUOUS
370
50
 62
4
100
AcDbLine
 10
70.219864
 20
4.152121999999999
 30
0.0
 11
70.927551
 21
4.248877999999999
 31
0.0
  0
LINE
  5
AAB
330
1F
100
AcDbEntity
  8
1
  6
CONTINUOUS
370
50
 62
4
100
AcDbLine
 10
62.126377
 20
4.15203
 30
0.0
 11
62.822723
 21
4.247837
 31
0.0
  0
LINE
  5
AAC
330
1F
100
AcDbEntity
  8
1
  6
CONTINUOUS
370
50
 62
4
100
AcDbLine
 10
61.419281
 20
-5.967296
 30
0.0
 11
61.994179
 21
-5.886609
 31
0.0
  0
LINE
  5
AAD
330
1F
100
AcDbEntity
  8
1
  6
CONTINUOUS
370
50
 62
4
100
AcDbLine
 10
52.750572
 20
5.694872999999999
 30
0.0
 11
52.799809
 21
5.701906999999999
 31
0.0
  0
LINE
  5
AAE
330
1F
100
AcDbEntity
  8
1
  6
CONTINUOUS
370
50
 62
4
100
AcDbLine
 10
69.647339
 20
-5.951489
 30
0.0
 11
70.045197
 21
-5.893676
 31
0.0
  0
LINE
  5
AAF
330
1F
100
AcDbEntity
  8
1
  6
CONTINUOUS
370
50
 62
4
100
AcDbLine
 10
77.989983
 20
4.998256
 30
0.0
 11
78.105537
 21
5.015749
 31
0.0
  0
LINE
  5
AB0
330
1F
100
AcDbEntity
  8
1
  6
CONTINUOUS
370
50
 62
4
100
AcDbLine
 10
53.467884
 20
-4.855506
 30
0.0
 11
53.540081
 21
-4.844399
 31
0.0
  0
LINE
  5
AB1
330
1F
100
AcDbEntity
  8
1
  6
CONTINUOUS
370
50
 62
4
100
AcDbLine
 10
77.780113
 20
-5.944804
 30
0.0
 11
78.217468
 21
-5.876503
 31
0.0
  0
LINE
  5
AB2
330
1F
100
AcDbEntity
  8
1
  6
CONTINUOUS
370
50
 62
4
100
AcDbLine
 10
78.72417399999999
 20
5.883679
 30
0.0
 11
79.054161
 21
5.935836999999999
 31
0.0
  0
LINE
  5
AB3
330
1F
100
AcDbEntity
  8
1
  6
CONTINUOUS
370
50
 62
4
100
AcDbLine
 10
53.70262899999999
 20
1.484202
 30
0.0
 11
53.77375
 21
1.495757
 31
0.0
  0
LINE
  5
AB4
330
1F
100
AcDbEntity
  8
1
  6
CONTINUOUS
370
50
 62
4
100
AcDbLine
 10
70.569321
 20
5.870025
 30
0.0
 11
71.012733
 21
5.942260999999999
 31
0.0
  0
LINE
  5
AB5
330
1F
100
AcDbEntity
  8
1
  6
CONTINUOUS
370
50
 62
4
100
AcDbLine
 10
77.874718
 20
4.97905
 30
0.0
 11
77.989983
 21
4.998256
 31
0.0
  0
LINE
  5
AB6
330
1F
100
AcDbEntity
  8
1
  6
CONTINUOUS
370
50
 62
4
100
AcDbLine
 10
79.757256
 20
5.115792
 30
0.0
 11
79.81547499999999
 21
5.125902
 31
0.0
  0
LINE
  5
AB7
330
1F
100
AcDbEntity
  8
1
  6
CONTINUOUS
370
50
 62
4
100
AcDbLine
 10
52.704983
 20
5.686916
 30
0.0
 11
52.750572
 21
5.694872999999999
 31
0.0
  0
LINE
  5
AB8
330
1F
100
AcDbEntity
  8
1
  6
CONTINUOUS
370
50
 62
4
100
AcDbLine
 10
53.396317
 20
-4.867999
 30
0.0
 11
53.467884
 21
-4.855506
 31
0.0
  0
LINE
  5
AB9
330
1F
100
AcDbEntity
  8
1
  6
CONTINUOUS
370
50
 62
4
100
AcDbLine
 10
77.759712
 20
4.958119
 30
0.0
 11
77.874718
 21
4.97905
 31
0.0
  0
LINE
  5
ABA
330
1F
100
AcDbEntity
  8
1
  6
CONTINUOUS
370
50
 62
4
100
AcDbLine
 10
62.347263
 20
5.844329
 30
0.0
 11
62.72534599999999
 21
5.914177
 31
0.0
  0
LINE
  5
ABB
330
1F
100
AcDbEntity
  8
1
  6
CONTINUOUS
370
50
 62
4
100
AcDbLine
 10
54.516136
 20
-5.712543
 30
0.0
 11
54.71944
 21
-5.674568
 31
0.0
  0
LINE
  5
ABC
330
1F
100
AcDbEntity
  8
1
  6
CONTINUOUS
370
50
 62
4
100
AcDbLine
 10
53.632008
 20
1.470391
 30
0.0
 11
53.70262899999999
 21
1.484202
 31
0.0
  0
LINE
  5
ABD
330
1F
100
AcDbEntity
  8
1
  6
CONTINUOUS
370
50
 62
4
100
AcDbLine
 10
53.325596
 20
-4.881862
 30
0.0
 11
53.396317
 21
-4.867999
 31
0.0
  0
LINE
  5
ABE
330
1F
100
AcDbEntity
  8
1
  6
CONTINUOUS
370
50
 62
4
100
AcDbLine
 10
70.045197
 20
-5.893676
 30
0.0
 11
70.44113899999999
 21
-5.813600999999999
 31
0.0
  0
LINE
  5
ABF
330
1F
100
AcDbEntity
  8
1
  6
CONTINUOUS
370
50
 62
4
100
AcDbLine
 10
78.39364599999999
 20
5.816338
 30
0.0
 11
78.72417399999999
 21
5.883679
 31
0.0
  0
LINE
  5
AC0
330
1F
100
AcDbEntity
  8
1
  6
CONTINUOUS
370
50
 62
4
100
AcDbLine
 10
52.663597
 20
5.677979
 30
0.0
 11
52.704983
 21
5.686916
 31
0.0
  0
LINE
  5
AC1
330
1F
100
AcDbEntity
  8
1
  6
CONTINUOUS
370
50
 62
4
100
AcDbLine
 10
78.217468
 20
-5.876503
 30
0.0
 11
78.6558
 21
-5.781565
 31
0.0
  0
LINE
  5
AC2
330
1F
100
AcDbEntity
  8
1
  6
CONTINUOUS
370
50
 62
4
100
AcDbLine
 10
53.25597
 20
-4.897075
 30
0.0
 11
53.325596
 21
-4.881862
 31
0.0
  0
LINE
  5
AC3
330
1F
100
AcDbEntity
  8
1
  6
CONTINUOUS
370
50
 62
4
100
AcDbLine
 10
61.994179
 20
-5.886609
 30
0.0
 11
62.568504
 21
-5.75824
 31
0.0
  0
LINE
  5
AC4
330
1F
100
AcDbEntity
  8
1
  6
CONTINUOUS
370
50
 62
4
100
AcDbLine
 10
70.122574
 20
5.76976
 30
0.0
 11
70.569321
 21
5.870025
 31
0.0
  0
LINE
  5
AC5
330
1F
100
AcDbEntity
  8
1
  6
CONTINUOUS
370
50
 62
4
100
AcDbLine
 10
53.562
 20
1.454314
 30
0.0
 11
53.632008
 21
1.470391
 31
0.0
  0
LINE
  5
AC6
330
1F
100
AcDbEntity
  8
1
  6
CONTINUOUS
370
50
 62
4
100
AcDbLine
 10
62.01767299999999
 20
5.766114
 30
0.0
 11
62.347263
 21
5.844329
 31
0.0
  0
LINE
  5
AC7
330
1F
100
AcDbEntity
  8
1
  6
CONTINUOUS
370
50
 62
4
100
AcDbLine
 10
53.187672
 20
-4.91362
 30
0.0
 11
53.25597
 21
-4.897075
 31
0.0
  0
LINE
  5
AC8
330
1F
100
AcDbEntity
  8
1
  6
CONTINUOUS
370
50
 62
4
100
AcDbLine
 10
54.71944
 20
-5.674568
 30
0.0
 11
54.923771
 21
-5.624069
 31
0.0
  0
LINE
  5
AC9
330
1F
100
AcDbEntity
  8
1
  6
CONTINUOUS
370
50
 62
4
100
AcDbLine
 10
78.06300399999999
 20
5.733847
 30
0.0
 11
78.39364599999999
 21
5.816338
 31
0.0
  0
LINE
  5
ACA
330
1F
100
AcDbEntity
  8
1
  6
CONTINUOUS
370
50
 62
4
100
AcDbLine
 10
70.44113899999999
 20
-5.813600999999999
 30
0.0
 11
70.830116
 21
-5.71228
 31
0.0
  0
LINE
  5
ACB
330
1F
100
AcDbEntity
  8
1
  6
CONTINUOUS
370
50
 62
4
100
AcDbLine
 10
53.49270199999999
 20
1.435955
 30
0.0
 11
53.562
 21
1.454314
 31
0.0
  0
LINE
  5
ACC
330
1F
100
AcDbEntity
  8
1
  6
CONTINUOUS
370
50
 62
4
100
AcDbLine
 10
53.120953
 20
-4.931475
 30
0.0
 11
53.187672
 21
-4.91362
 31
0.0
  0
LINE
  5
ACD
330
1F
100
AcDbEntity
  8
1
  6
CONTINUOUS
370
50
 62
4
100
AcDbLine
 10
52.626865
 20
5.667992
 30
0.0
 11
52.663597
 21
5.677979
 31
0.0
  0
LINE
  5
ACE
330
1F
100
AcDbEntity
  8
1
  6
CONTINUOUS
370
50
 62
4
100
AcDbLine
 10
78.6558
 20
-5.781565
 30
0.0
 11
79.094597
 21
-5.659943
 31
0.0
  0
LINE
  5
ACF
330
1F
100
AcDbEntity
  8
1
  6
CONTINUOUS
370
50
 62
4
100
AcDbLine
 10
61.725025
 20
5.683434
 30
0.0
 11
62.01767299999999
 21
5.766114
 31
0.0
  0
LINE
  5
AD0
330
1F
100
AcDbEntity
  8
1
  6
CONTINUOUS
370
50
 62
4
100
AcDbLine
 10
69.67392
 20
5.642170999999999
 30
0.0
 11
70.122574
 21
5.76976
 31
0.0
  0
LINE
  5
AD1
330
1F
100
AcDbEntity
  8
1
  6
CONTINUOUS
370
50
 62
4
100
AcDbLine
 10
53.056053
 20
-4.95062
 30
0.0
 11
53.120953
 21
-4.931475
 31
0.0
  0
LINE
  5
AD2
330
1F
100
AcDbEntity
  8
1
  6
CONTINUOUS
370
50
 62
4
100
AcDbLine
 10
77.733047
 20
5.636292
 30
0.0
 11
78.06300399999999
 21
5.733847
 31
0.0
  0
LINE
  5
AD3
330
1F
100
AcDbEntity
  8
1
  6
CONTINUOUS
370
50
 62
4
100
AcDbLine
 10
62.568504
 20
-5.75824
 30
0.0
 11
63.148685
 21
-5.58393
 31
0.0
  0
LINE
  5
AD4
330
1F
100
AcDbEntity
  8
1
  6
CONTINUOUS
370
50
 62
4
100
AcDbLine
 10
53.423981
 20
1.415209
 30
0.0
 11
53.49270199999999
 21
1.435955
 31
0.0
  0
LINE
  5
AD5
330
1F
100
AcDbEntity
  8
1
  6
CONTINUOUS
370
50
 62
4
100
AcDbLine
 10
54.923771
 20
-5.624069
 30
0.0
 11
55.130249
 21
-5.561459
 31
0.0
  0
LINE
  5
AD6
330
1F
100
AcDbEntity
  8
1
  6
CONTINUOUS
370
50
 62
4
100
AcDbLine
 10
70.830116
 20
-5.71228
 30
0.0
 11
71.21575899999999
 21
-5.590106
 31
0.0
  0
LINE
  5
AD7
330
1F
100
AcDbEntity
  8
1
  6
CONTINUOUS
370
50
 62
4
100
AcDbLine
 10
61.433025
 20
5.589761999999999
 30
0.0
 11
61.725025
 21
5.683434
 31
0.0
  0
LINE
  5
AD8
330
1F
100
AcDbEntity
  8
1
  6
CONTINUOUS
370
50
 62
4
100
AcDbLine
 10
79.81547499999999
 20
5.125902
 30
0.0
 11
79.865295
 21
5.141946
 31
0.0
  0
LINE
  5
AD9
330
1F
100
AcDbEntity
  8
1
  6
CONTINUOUS
370
50
 62
4
100
AcDbLine
 10
52.993122
 20
-4.971066
 30
0.0
 11
53.056053
 21
-4.95062
 31
0.0
  0
LINE
  5
ADA
330
1F
100
AcDbEntity
  8
1
  6
CONTINUOUS
370
50
 62
4
100
AcDbLine
 10
79.094597
 20
-5.659943
 30
0.0
 11
79.532135
 21
-5.511775999999999
 31
0.0
  0
LINE
  5
ADB
330
1F
100
AcDbEntity
  8
1
  6
CONTINUOUS
370
50
 62
4
100
AcDbLine
 10
53.355946
 20
1.392016
 30
0.0
 11
53.423981
 21
1.415209
 31
0.0
  0
LINE
  5
ADC
330
1F
100
AcDbEntity
  8
1
  6
CONTINUOUS
370
50
 62
4
100
AcDbLine
 10
77.40505999999999
 20
5.523892
 30
0.0
 11
77.733047
 21
5.636292
 31
0.0
  0
LINE
  5
ADD
330
1F
100
AcDbEntity
  8
1
  6
CONTINUOUS
370
50
 62
4
100
AcDbLine
 10
69.225281
 20
5.487941
 30
0.0
 11
69.67392
 21
5.642170999999999
 31
0.0
  0
LINE
  5
ADE
330
1F
100
AcDbEntity
  8
1
  6
CONTINUOUS
370
50
 62
4
100
AcDbLine
 10
52.595169
 20
5.65688
 30
0.0
 11
52.626865
 21
5.667992
 31
0.0
  0
LINE
  5
ADF
330
1F
100
AcDbEntity
  8
1
  6
CONTINUOUS
370
50
 62
4
100
AcDbLine
 10
55.130249
 20
-5.561459
 30
0.0
 11
55.339993
 21
-5.487149
 31
0.0
  0
LINE
  5
AE0
330
1F
100
AcDbEntity
  8
1
  6
CONTINUOUS
370
50
 62
4
100
AcDbLine
 10
61.139812
 20
5.48482
 30
0.0
 11
61.433025
 21
5.589761999999999
 31
0.0
  0
LINE
  5
AE1
330
1F
100
AcDbEntity
  8
1
  6
CONTINUOUS
370
50
 62
4
100
AcDbLine
 10
52.932247
 20
-4.992862
 30
0.0
 11
52.993122
 21
-4.971066
 31
0.0
  0
LINE
  5
AE2
330
1F
100
AcDbEntity
  8
1
  6
CONTINUOUS
370
50
 62
4
100
AcDbLine
 10
71.21575899999999
 20
-5.590106
 30
0.0
 11
71.60451499999999
 21
-5.447363
 31
0.0
  0
LINE
  5
AE3
330
1F
100
AcDbEntity
  8
1
  6
CONTINUOUS
370
50
 62
4
100
AcDbLine
 10
63.148685
 20
-5.58393
 30
0.0
 11
63.730309
 21
-5.365383
 31
0.0
  0
LINE
  5
AE4
330
1F
100
AcDbEntity
  8
1
  6
CONTINUOUS
370
50
 62
4
100
AcDbLine
 10
53.288815
 20
1.366337
 30
0.0
 11
53.355946
 21
1.392016
 31
0.0
  0
LINE
  5
AE5
330
1F
100
AcDbEntity
  8
1
  6
CONTINUOUS
370
50
 62
4
100
AcDbLine
 10
77.082504
 20
5.397878
 30
0.0
 11
77.40505999999999
 21
5.523892
 31
0.0
  0
LINE
  5
AE6
330
1F
100
AcDbEntity
  8
1
  6
CONTINUOUS
370
50
 62
4
100
AcDbLine
 10
60.845757
 20
5.368812
 30
0.0
 11
61.139812
 21
5.48482
 31
0.0
  0
LINE
  5
AE7
330
1F
100
AcDbEntity
  8
1
  6
CONTINUOUS
370
50
 62
4
100
AcDbLine
 10
52.87383699999999
 20
-5.015949
 30
0.0
 11
52.932247
 21
-4.992862
 31
0.0
  0
LINE
  5
AE8
330
1F
100
AcDbEntity
  8
1
  6
CONTINUOUS
370
50
 62
4
100
AcDbLine
 10
55.339993
 20
-5.487149
 30
0.0
 11
55.554123
 21
-5.401551
 31
0.0
  0
LINE
  5
AE9
330
1F
100
AcDbEntity
  8
1
  6
CONTINUOUS
370
50
 62
4
100
AcDbLine
 10
79.532135
 20
-5.511775999999999
 30
0.0
 11
79.966652
 21
-5.337206999999999
 31
0.0
  0
LINE
  5
AEA
330
1F
100
AcDbEntity
  8
1
  6
CONTINUOUS
370
50
 62
4
100
AcDbLine
 10
68.779121
 20
5.307907999999999
 30
0.0
 11
69.225281
 21
5.487941
 31
0.0
  0
LINE
  5
AEB
330
1F
100
AcDbEntity
  8
1
  6
CONTINUOUS
370
50
 62
4
100
AcDbLine
 10
71.60451499999999
 20
-5.447363
 30
0.0
 11
71.995148
 21
-5.28533
 31
0.0
  0
LINE
  5
AEC
330
1F
100
AcDbEntity
  8
1
  6
CONTINUOUS
370
50
 62
4
100
AcDbLine
 10
53.222801
 20
1.338135
 30
0.0
 11
53.288815
 21
1.366337
 31
0.0
  0
LINE
  5
AED
330
1F
100
AcDbEntity
  8
1
  6
CONTINUOUS
370
50
 62
4
100
AcDbLine
 10
60.551395
 20
5.241982999999999
 30
0.0
 11
60.845757
 21
5.368812
 31
0.0
  0
LINE
  5
AEE
330
1F
100
AcDbEntity
  8
1
  6
CONTINUOUS
370
50
 62
4
100
AcDbLine
 10
76.760933
 20
5.258077
 30
0.0
 11
77.082504
 21
5.397878
 31
0.0
  0
LINE
  5
AEF
330
1F
100
AcDbEntity
  8
1
  6
CONTINUOUS
370
50
 62
4
100
AcDbLine
 10
52.81832499999999
 20
-5.04026
 30
0.0
 11
52.87383699999999
 21
-5.015949
 31
0.0
  0
LINE
  5
AF0
330
1F
100
AcDbEntity
  8
1
  6
CONTINUOUS
370
50
 62
4
100
AcDbLine
 10
55.554123
 20
-5.401551
 30
0.0
 11
55.77375
 21
-5.305076
 31
0.0
  0
LINE
  5
AF1
330
1F
100
AcDbEntity
  8
1
  6
CONTINUOUS
370
50
 62
4
100
AcDbLine
 10
63.730309
 20
-5.365383
 30
0.0
 11
64.308182
 21
-5.104490999999999
 31
0.0
  0
LINE
  5
AF2
330
1F
100
AcDbEntity
  8
1
  6
CONTINUOUS
370
50
 62
4
100
AcDbLine
 10
71.995148
 20
-5.28533
 30
0.0
 11
72.386658
 21
-5.104579999999999
 31
0.0
  0
LINE
  5
AF3
330
1F
100
AcDbEntity
  8
1
  6
CONTINUOUS
370
50
 62
4
100
AcDbLine
 10
68.340919
 20
5.104215
 30
0.0
 11
68.779121
 21
5.307907999999999
 31
0.0
  0
LINE
  5
AF4
330
1F
100
AcDbEntity
  8
1
  6
CONTINUOUS
370
50
 62
4
100
AcDbLine
 10
60.25721
 20
5.104546
 30
0.0
 11
60.551395
 21
5.241982999999999
 31
0.0
  0
LINE
  5
AF5
330
1F
100
AcDbEntity
  8
1
  6
CONTINUOUS
370
50
 62
4
100
AcDbLine
 10
52.568905
 20
5.644566999999999
 30
0.0
 11
52.595169
 21
5.65688
 31
0.0
  0
LINE
  5
AF6
330
1F
100
AcDbEntity
  8
1
  6
CONTINUOUS
370
50
 62
4
100
AcDbLine
 10
55.77375
 20
-5.305076
 30
0.0
 11
56.0
 21
-5.198137
 31
0.0
  0
LINE
  5
AF7
330
1F
100
AcDbEntity
  8
1
  6
CONTINUOUS
370
50
 62
4
100
AcDbLine
 10
76.436356
 20
5.104589
 30
0.0
 11
76.760933
 21
5.258077
 31
0.0
  0
LINE
  5
AF8
330
1F
100
AcDbEntity
  8
1
  6
CONTINUOUS
370
50
 62
4
100
AcDbLine
 10
56.0
 20
-5.207933
 30
0.0
 11
56.03384399999999
 21
-5.191878
 31
0.0
  0
LINE
  5
AF9
330
1F
100
AcDbEntity
  8
1
  6
CONTINUOUS
370
50
 62
4
100
AcDbLine
 10
53.158115
 20
1.307373
 30
0.0
 11
53.222801
 21
1.338135
 31
0.0
  0
LINE
  5
AFA
330
1F
100
AcDbEntity
  8
1
  6
CONTINUOUS
370
50
 62
4
100
AcDbLine
 10
56.03384399999999
 20
-5.191878
 30
0.0
 11
56.068394
 21
-5.175363
 31
0.0
  0
LINE
  5
AFB
330
1F
100
AcDbEntity
  8
1
  6
CONTINUOUS
370
50
 62
4
100
AcDbLine
 10
56.068394
 20
-5.175363
 30
0.0
 11
56.103642
 21
-5.158382
 31
0.0
  0
LINE
  5
AFC
330
1F
100
AcDbEntity
  8
1
  6
CONTINUOUS
370
50
 62
4
100
AcDbLine
 10
56.103642
 20
-5.158382
 30
0.0
 11
56.13958
 21
-5.140931999999999
 31
0.0
  0
LINE
  5
AFD
330
1F
100
AcDbEntity
  8
1
  6
CONTINUOUS
370
50
 62
4
100
AcDbLine
 10
52.766144
 20
-5.065732
 30
0.0
 11
52.81832499999999
 21
-5.04026
 31
0.0
  0
LINE
  5
AFE
330
1F
100
AcDbEntity
  8
1
  6
CONTINUOUS
370
50
 62
4
100
AcDbLine
 10
56.13958
 20
-5.140931999999999
 30
0.0
 11
56.176205
 21
-5.123004
 31
0.0
  0
LINE
  5
AFF
330
1F
100
AcDbEntity
  8
1
  6
CONTINUOUS
370
50
 62
4
100
AcDbLine
 10
56.176205
 20
-5.123004
 30
0.0
 11
56.21351199999999
 21
-5.104596
 31
0.0
  0
LINE
  5
B00
330
1F
100
AcDbEntity
  8
1
  6
CONTINUOUS
370
50
 62
4
100
AcDbLine
 10
53.094967
 20
1.274014
 30
0.0
 11
53.158115
 21
1.307373
 31
0.0
  0
LINE
  5
B01
330
1F
100
AcDbEntity
  8
1
  6
CONTINUOUS
370
50
 62
4
100
AcDbLine
 10
52.717724
 20
-5.0923
 30
0.0
 11
52.766144
 21
-5.065732
 31
0.0
  0
LINE
  5
B02
330
1F
100
AcDbEntity
  8
1
  6
CONTINUOUS
370
50
 62
4
100
AcDbLine
 10
79.865295
 20
5.141946
 30
0.0
 11
79.90431199999999
 21
5.164701
 31
0.0
  0
LINE
  5
B03
330
1F
100
AcDbEntity
  8
1
  6
CONTINUOUS
370
50
 62
4
100
AcDbLine
 10
53.033573
 20
1.238021
 30
0.0
 11
53.094967
 21
1.274014
 31
0.0
  0
LINE
  5
B04
330
1F
100
AcDbEntity
  8
1
  6
CONTINUOUS
370
50
 62
4
100
AcDbLine
 10
52.673637
 20
-5.119813
 30
0.0
 11
52.717724
 21
-5.0923
 31
0.0
  0
LINE
  5
B05
330
1F
100
AcDbEntity
  8
1
  6
CONTINUOUS
370
50
 62
4
100
AcDbLine
 10
79.973114
 20
1.64217
 30
0.0
 11
79.988396
 21
1.651982
 31
0.0
  0
LINE
  5
B06
330
1F
100
AcDbEntity
  8
1
  6
CONTINUOUS
370
50
 62
4
100
AcDbLine
 10
52.973972
 20
1.199221
 30
0.0
 11
53.033573
 21
1.238021
 31
0.0
  0
LINE
  5
B07
330
1F
100
AcDbEntity
  8
1
  6
CONTINUOUS
370
50
 62
4
100
AcDbLine
 10
52.548592
 20
5.63108
 30
0.0
 11
52.568905
 21
5.644566999999999
 31
0.0
  0
LINE
  5
B08
330
1F
100
AcDbEntity
  8
1
  6
CONTINUOUS
370
50
 62
4
100
AcDbLine
 10
52.632931
 20
-5.149264
 30
0.0
 11
52.673637
 21
-5.119813
 31
0.0
  0
LINE
  5
B09
330
1F
100
AcDbEntity
  8
1
  6
CONTINUOUS
370
50
 62
4
100
AcDbLine
 10
52.916359
 20
1.157476
 30
0.0
 11
52.973972
 21
1.199221
 31
0.0
  0
LINE
  5
B0A
330
1F
100
AcDbEntity
  8
1
  6
CONTINUOUS
370
50
 62
4
100
AcDbLine
 10
52.861107
 20
1.112758
 30
0.0
 11
52.916359
 21
1.157476
 31
0.0
  0
LINE
  5
B0B
330
1F
100
AcDbEntity
  8
1
  6
CONTINUOUS
370
50
 62
4
100
AcDbLine
 10
52.598003
 20
-5.179409
 30
0.0
 11
52.632931
 21
-5.149264
 31
0.0
  0
LINE
  5
B0C
330
1F
100
AcDbEntity
  8
1
  6
CONTINUOUS
370
50
 62
4
100
AcDbLine
 10
52.808598
 20
1.065039
 30
0.0
 11
52.861107
 21
1.112758
 31
0.0
  0
LINE
  5
B0D
330
1F
100
AcDbEntity
  8
1
  6
CONTINUOUS
370
50
 62
4
100
AcDbLine
 10
79.90431199999999
 20
5.164701
 30
0.0
 11
79.934647
 21
5.19574
 31
0.0
  0
LINE
  5
B0E
330
1F
100
AcDbEntity
  8
1
  6
CONTINUOUS
370
50
 62
4
100
AcDbLine
 10
52.759209
 20
1.014291
 30
0.0
 11
52.808598
 21
1.065039
 31
0.0
  0
LINE
  5
B0F
330
1F
100
AcDbEntity
  8
1
  6
CONTINUOUS
370
50
 62
4
100
AcDbLine
 10
52.53464899999999
 20
5.61658
 30
0.0
 11
52.548592
 21
5.63108
 31
0.0
  0
LINE
  5
B10
330
1F
100
AcDbEntity
  8
1
  6
CONTINUOUS
370
50
 62
4
100
AcDbLine
 10
52.569344
 20
-5.210113
 30
0.0
 11
52.598003
 21
-5.179409
 31
0.0
  0
LINE
  5
B11
330
1F
100
AcDbEntity
  8
1
  6
CONTINUOUS
370
50
 62
4
100
AcDbLine
 10
52.713326
 20
0.9604889999999999
 30
0.0
 11
52.759209
 21
1.014291
 31
0.0
  0
LINE
  5
B12
330
1F
100
AcDbEntity
  8
1
  6
CONTINUOUS
370
50
 62
4
100
AcDbLine
 10
43.799999
 20
-5.99995
 30
0.0
 11
44.0
 21
-5.74995
 31
0.0
  0
LINE
  5
B13
330
1F
100
AcDbEntity
  8
1
  6
CONTINUOUS
370
50
 62
4
100
AcDbLine
 10
77.804405
 20
1.190298
 30
0.0
 11
77.84273499999999
 21
1.240852
 31
0.0
  0
LINE
  5
B14
330
1F
100
AcDbEntity
  8
1
  6
CONTINUOUS
370
50
 62
4
100
AcDbLine
 10
52.671467
 20
0.903779
 30
0.0
 11
52.713326
 21
0.9604889999999999
 31
0.0
  0
LINE
  5
B15
330
1F
100
AcDbEntity
  8
1
  6
CONTINUOUS
370
50
 62
4
100
AcDbLine
 10
52.547585
 20
-5.240993
 30
0.0
 11
52.569344
 21
-5.210113
 31
0.0
  0
LINE
  5
B16
330
1F
100
AcDbEntity
  8
1
  6
CONTINUOUS
370
50
 62
4
100
AcDbLine
 10
77.84273499999999
 20
1.240852
 30
0.0
 11
77.878807
 21
1.294146
 31
0.0
  0
LINE
  5
B17
330
1F
100
AcDbEntity
  8
1
  6
CONTINUOUS
370
50
 62
4
100
AcDbLine
 10
52.63409799999999
 20
0.844302
 30
0.0
 11
52.671467
 21
0.903779
 31
0.0
  0
LINE
  5
B18
330
1F
100
AcDbEntity
  8
1
  6
CONTINUOUS
370
50
 62
4
100
AcDbLine
 10
79.988396
 20
1.651982
 30
0.0
 11
80.000008
 21
1.670751
 31
0.0
  0
LINE
  5
B19
330
1F
100
AcDbEntity
  8
1
  6
CONTINUOUS
370
50
 62
4
100
AcDbLine
 10
77.878807
 20
1.294146
 30
0.0
 11
77.9123
 21
1.349697
 31
0.0
  0
LINE
  5
B1A
330
1F
100
AcDbEntity
  8
1
  6
CONTINUOUS
370
50
 62
4
100
AcDbLine
 10
79.934647
 20
5.19574
 30
0.0
 11
79.958168
 21
5.237113
 31
0.0
  0
LINE
  5
B1B
330
1F
100
AcDbEntity
  8
1
  6
CONTINUOUS
370
50
 62
4
100
AcDbLine
 10
77.9123
 20
1.349697
 30
0.0
 11
77.94281
 21
1.406717
 31
0.0
  0
LINE
  5
B1C
330
1F
100
AcDbEntity
  8
1
  6
CONTINUOUS
370
50
 62
4
100
AcDbLine
 10
52.601597
 20
0.7821089999999999
 30
0.0
 11
52.63409799999999
 21
0.844302
 31
0.0
  0
LINE
  5
B1D
330
1F
100
AcDbEntity
  8
1
  6
CONTINUOUS
370
50
 62
4
100
AcDbLine
 10
52.527077
 20
5.601075
 30
0.0
 11
52.53464899999999
 21
5.61658
 31
0.0
  0
LINE
  5
B1E
330
1F
100
AcDbEntity
  8
1
  6
CONTINUOUS
370
50
 62
4
100
AcDbLine
 10
77.94281
 20
1.406717
 30
0.0
 11
77.970337
 21
1.465003
 31
0.0
  0
LINE
  5
B1F
330
1F
100
AcDbEntity
  8
1
  6
CONTINUOUS
370
50
 62
4
100
AcDbLine
 10
52.53323
 20
-5.271453
 30
0.0
 11
52.547585
 21
-5.240993
 31
0.0
  0
LINE
  5
B20
330
1F
100
AcDbEntity
  8
1
  6
CONTINUOUS
370
50
 62
4
100
AcDbLine
 10
52.574345
 20
0.717248
 30
0.0
 11
52.601597
 21
0.7821089999999999
 31
0.0
  0
LINE
  5
B21
330
1F
100
AcDbEntity
  8
1
  6
CONTINUOUS
370
50
 62
4
100
AcDbLine
 10
77.970337
 20
1.465003
 30
0.0
 11
77.99490399999999
 21
1.52436
 31
0.0
  0
LINE
  5
B22
330
1F
100
AcDbEntity
  8
1
  6
CONTINUOUS
370
50
 62
4
100
AcDbLine
 10
77.99490399999999
 20
1.52436
 30
0.0
 11
78.016533
 21
1.584597
 31
0.0
  0
LINE
  5
B23
330
1F
100
AcDbEntity
  8
1
  6
CONTINUOUS
370
50
 62
4
100
AcDbLine
 10
79.958168
 20
5.237113
 30
0.0
 11
79.976494
 21
5.291899
 31
0.0
  0
LINE
  5
B24
330
1F
100
AcDbEntity
  8
1
  6
CONTINUOUS
370
50
 62
4
100
AcDbLine
 10
52.552792
 20
0.650034
 30
0.0
 11
52.574345
 21
0.717248
 31
0.0
  0
LINE
  5
B25
330
1F
100
AcDbEntity
  8
1
  6
CONTINUOUS
370
50
 62
4
100
AcDbLine
 10
78.016533
 20
1.584597
 30
0.0
 11
78.035202
 21
1.645393
 31
0.0
  0
LINE
  5
B26
330
1F
100
AcDbEntity
  8
1
  6
CONTINUOUS
370
50
 62
4
100
AcDbLine
 10
78.035202
 20
1.645393
 30
0.0
 11
78.05085799999999
 21
1.706134
 31
0.0
  0
LINE
  5
B27
330
1F
100
AcDbEntity
  8
1
  6
CONTINUOUS
370
50
 62
4
100
AcDbLine
 10
52.526276
 20
-5.30138
 30
0.0
 11
52.53323
 21
-5.271453
 31
0.0
  0
LINE
  5
B28
330
1F
100
AcDbEntity
  8
1
  6
CONTINUOUS
370
50
 62
4
100
AcDbLine
 10
52.53746
 20
0.5816479999999999
 30
0.0
 11
52.552792
 21
0.650034
 31
0.0
  0
LINE
  5
B29
330
1F
100
AcDbEntity
  8
1
  6
CONTINUOUS
370
50
 62
4
100
AcDbLine
 10
78.05085799999999
 20
1.706134
 30
0.0
 11
78.063591
 21
1.766633
 31
0.0
  0
LINE
  5
B2A
330
1F
100
AcDbEntity
  8
1
  6
CONTINUOUS
370
50
 62
4
100
AcDbLine
 10
79.976494
 20
5.291899
 30
0.0
 11
79.990273
 21
5.360823
 31
0.0
  0
LINE
  5
B2B
330
1F
100
AcDbEntity
  8
1
  6
CONTINUOUS
370
50
 62
4
100
AcDbLine
 10
78.063591
 20
1.766633
 30
0.0
 11
78.073517
 21
1.826738
 31
0.0
  0
LINE
  5
B2C
330
1F
100
AcDbEntity
  8
1
  6
CONTINUOUS
370
50
 62
4
100
AcDbLine
 10
52.528389
 20
0.512343
 30
0.0
 11
52.53746
 21
0.5816479999999999
 31
0.0
  0
LINE
  5
B2D
330
1F
100
AcDbEntity
  8
1
  6
CONTINUOUS
370
50
 62
4
100
AcDbLine
 10
79.990273
 20
5.360823
 30
0.0
 11
80.0
 21
5.439088
 31
0.0
  0
LINE
  5
B2E
330
1F
100
AcDbEntity
  8
1
  6
CONTINUOUS
370
50
 62
4
100
AcDbLine
 10
78.073517
 20
1.826738
 30
0.0
 11
78.08075
 21
1.886303
 31
0.0
  0
LINE
  5
B2F
330
1F
100
AcDbEntity
  8
1
  6
CONTINUOUS
370
50
 62
4
100
AcDbLine
 10
78.08075
 20
1.886303
 30
0.0
 11
78.085388
 21
1.945177
 31
0.0
  0
LINE
  5
B30
330
1F
100
AcDbEntity
  8
1
  6
CONTINUOUS
370
50
 62
4
100
AcDbLine
 10
52.525867
 20
5.584567
 30
0.0
 11
52.527077
 21
5.601075
 31
0.0
  0
LINE
  5
B31
330
1F
100
AcDbEntity
  8
1
  6
CONTINUOUS
370
50
 62
4
100
AcDbLine
 10
79.399185
 20
-0.29753
 30
0.0
 11
79.408844
 21
-0.123542
 31
0.0
  0
LINE
  5
B32
330
1F
100
AcDbEntity
  8
1
  6
CONTINUOUS
370
50
 62
4
100
AcDbLine
 10
52.52556999999999
 20
0.442253
 30
0.0
 11
52.528389
 21
0.512343
 31
0.0
  0
LINE
  5
B33
330
1F
100
AcDbEntity
  8
1
  6
CONTINUOUS
370
50
 62
4
100
AcDbLine
 10
78.085388
 20
1.945177
 30
0.0
 11
78.087547
 21
2.003211
 31
0.0
  0
LINE
  5
B34
330
1F
100
AcDbEntity
  8
1
  6
CONTINUOUS
370
50
 62
4
100
AcDbLine
 10
79.394035
 20
-0.480038
 30
0.0
 11
79.399185
 21
-0.29753
 31
0.0
  0
LINE
  5
B35
330
1F
100
AcDbEntity
  8
1
  6
CONTINUOUS
370
50
 62
4
100
AcDbLine
 10
79.39344799999999
 20
-0.670785
 30
0.0
 11
79.394035
 21
-0.480038
 31
0.0
  0
LINE
  5
B36
330
1F
100
AcDbEntity
  8
1
  6
CONTINUOUS
370
50
 62
4
100
AcDbLine
 10
43.799999
 20
-5.99995
 30
0.0
 11
43.799999
 21
5.99995
 31
0.0
  0
LINE
  5
B37
330
1F
100
AcDbEntity
  8
1
  6
CONTINUOUS
370
50
 62
4
100
AcDbLine
 10
44.0
 20
-5.74995
 30
0.0
 11
44.0
 21
5.74995
 31
0.0
  0
LINE
  5
B38
330
1F
100
AcDbEntity
  8
1
  6
CONTINUOUS
370
50
 62
4
100
AcDbLine
 10
56.0
 20
-5.198137
 30
0.0
 11
56.0
 21
3.203382
 31
0.0
  0
LINE
  5
B39
330
1F
100
AcDbEntity
  8
1
  6
CONTINUOUS
370
50
 62
4
100
AcDbLine
 10
56.0
 20
5.745385
 30
0.0
 11
56.0
 21
5.74995
 31
0.0
  0
LINE
  5
B3A
330
1F
100
AcDbEntity
  8
1
  6
CONTINUOUS
370
50
 62
4
100
AcDbLine
 10
56.0
 20
4.292589
 30
0.0
 11
56.0
 21
5.745385
 31
0.0
  0
LINE
  5
B3B
330
1F
100
AcDbEntity
  8
1
  6
CONTINUOUS
370
50
 62
4
100
AcDbLine
 10
56.0
 20
3.203384
 30
0.0
 11
56.0
 21
4.292589
 31
0.0
  0
LINE
  5
B3C
330
1F
100
AcDbEntity
  8
1
  6
CONTINUOUS
370
50
 62
4
100
AcDbLine
 10
56.0
 20
5.994797
 30
0.0
 11
56.0
 21
5.999899999999999
 31
0.0
  0
LINE
  5
B3D
330
1F
100
AcDbEntity
  8
1
  6
CONTINUOUS
370
50
 62
4
100
AcDbLine
 10
56.0
 20
-5.207933
 30
0.0
 11
56.0
 21
-5.206591
 31
0.0
  0
LINE
  5
B3E
330
1F
100
AcDbEntity
  8
1
  6
CONTINUOUS
370
50
 62
4
100
AcDbLine
 10
56.0
 20
-5.206591
 30
0.0
 11
56.0
 21
-5.205133
 31
0.0
  0
LINE
  5
B3F
330
1F
100
AcDbEntity
  8
1
  6
CONTINUOUS
370
50
 62
4
100
AcDbLine
 10
56.0
 20
-5.205133
 30
0.0
 11
56.0
 21
-5.20356
 31
0.0
  0
LINE
  5
B40
330
1F
100
AcDbEntity
  8
1
  6
CONTINUOUS
370
50
 62
4
100
AcDbLine
 10
56.0
 20
-5.20356
 30
0.0
 11
56.0
 21
-5.201871
 31
0.0
  0
LINE
  5
B41
330
1F
100
AcDbEntity
  8
1
  6
CONTINUOUS
370
50
 62
4
100
AcDbLine
 10
56.0
 20
-5.201871
 30
0.0
 11
56.0
 21
-5.200066
 31
0.0
  0
LINE
  5
B42
330
1F
100
AcDbEntity
  8
1
  6
CONTINUOUS
370
50
 62
4
100
AcDbLine
 10
56.0
 20
-5.200066
 30
0.0
 11
56.0
 21
-5.198144999999999
 31
0.0
  0
LINE
  5
B43
330
1F
100
AcDbEntity
  8
1
  6
CONTINUOUS
370
50
 62
4
100
AcDbLine
 10
56.0
 20
3.203384
 30
0.0
 11
56.0
 21
3.241915
 31
0.0
  0
LINE
  5
B44
330
1F
100
AcDbEntity
  8
1
  6
CONTINUOUS
370
50
 62
4
100
AcDbLine
 10
56.0
 20
3.241915
 30
0.0
 11
56.0
 21
3.282891
 31
0.0
  0
LINE
  5
B45
330
1F
100
AcDbEntity
  8
1
  6
CONTINUOUS
370
50
 62
4
100
AcDbLine
 10
56.0
 20
3.282891
 30
0.0
 11
56.0
 21
3.326117
 31
0.0
  0
LINE
  5
B46
330
1F
100
AcDbEntity
  8
1
  6
CONTINUOUS
370
50
 62
4
100
AcDbLine
 10
56.0
 20
3.326117
 30
0.0
 11
56.0
 21
3.371441
 31
0.0
  0
LINE
  5
B47
330
1F
100
AcDbEntity
  8
1
  6
CONTINUOUS
370
50
 62
4
100
AcDbLine
 10
56.0
 20
3.371441
 30
0.0
 11
56.0
 21
3.418776
 31
0.0
  0
LINE
  5
B48
330
1F
100
AcDbEntity
  8
1
  6
CONTINUOUS
370
50
 62
4
100
AcDbLine
 10
56.0
 20
3.418776
 30
0.0
 11
56.0
 21
3.468032
 31
0.0
  0
LINE
  5
B49
330
1F
100
AcDbEntity
  8
1
  6
CONTINUOUS
370
50
 62
4
100
AcDbLine
 10
56.0
 20
3.468032
 30
0.0
 11
56.0
 21
3.519123
 31
0.0
  0
LINE
  5
B4A
330
1F
100
AcDbEntity
  8
1
  6
CONTINUOUS
370
50
 62
4
100
AcDbLine
 10
56.0
 20
3.519123
 30
0.0
 11
56.0
 21
3.571958
 31
0.0
  0
LINE
  5
B4B
330
1F
100
AcDbEntity
  8
1
  6
CONTINUOUS
370
50
 62
4
100
AcDbLine
 10
56.0
 20
3.571958
 30
0.0
 11
56.0
 21
3.626451
 31
0.0
  0
LINE
  5
B4C
330
1F
100
AcDbEntity
  8
1
  6
CONTINUOUS
370
50
 62
4
100
AcDbLine
 10
56.0
 20
3.626451
 30
0.0
 11
56.0
 21
3.682509
 31
0.0
  0
LINE
  5
B4D
330
1F
100
AcDbEntity
  8
1
  6
CONTINUOUS
370
50
 62
4
100
AcDbLine
 10
56.0
 20
3.682509
 30
0.0
 11
56.0
 21
3.7399
 31
0.0
  0
LINE
  5
B4E
330
1F
100
AcDbEntity
  8
1
  6
CONTINUOUS
370
50
 62
4
100
AcDbLine
 10
56.0
 20
3.7399
 30
0.0
 11
56.0
 21
3.798442
 31
0.0
  0
LINE
  5
B4F
330
1F
100
AcDbEntity
  8
1
  6
CONTINUOUS
370
50
 62
4
100
AcDbLine
 10
56.0
 20
3.798442
 30
0.0
 11
56.0
 21
3.858031
 31
0.0
  0
LINE
  5
B50
330
1F
100
AcDbEntity
  8
1
  6
CONTINUOUS
370
50
 62
4
100
AcDbLine
 10
56.0
 20
3.858031
 30
0.0
 11
56.0
 21
3.91856
 31
0.0
  0
LINE
  5
B51
330
1F
100
AcDbEntity
  8
1
  6
CONTINUOUS
370
50
 62
4
100
AcDbLine
 10
56.0
 20
3.91856
 30
0.0
 11
56.0
 21
3.979923
 31
0.0
  0
LINE
  5
B52
330
1F
100
AcDbEntity
  8
1
  6
CONTINUOUS
370
50
 62
4
100
AcDbLine
 10
56.0
 20
3.979923
 30
0.0
 11
56.0
 21
4.041906
 31
0.0
  0
LINE
  5
B53
330
1F
100
AcDbEntity
  8
1
  6
CONTINUOUS
370
50
 62
4
100
AcDbLine
 10
56.0
 20
4.041906
 30
0.0
 11
56.0
 21
4.104321
 31
0.0
  0
LINE
  5
B54
330
1F
100
AcDbEntity
  8
1
  6
CONTINUOUS
370
50
 62
4
100
AcDbLine
 10
56.0
 20
4.104321
 30
0.0
 11
56.0
 21
4.167057
 31
0.0
  0
LINE
  5
B55
330
1F
100
AcDbEntity
  8
1
  6
CONTINUOUS
370
50
 62
4
100
AcDbLine
 10
56.0
 20
4.167057
 30
0.0
 11
56.0
 21
4.23
 31
0.0
  0
LINE
  5
B56
330
1F
100
AcDbEntity
  8
1
  6
CONTINUOUS
370
50
 62
4
100
AcDbLine
 10
56.0
 20
4.23
 30
0.0
 11
56.0
 21
4.293041
 31
0.0
  0
LINE
  5
B57
330
1F
100
AcDbEntity
  8
1
  6
CONTINUOUS
370
50
 62
4
100
AcDbLine
 10
56.0
 20
4.293041
 30
0.0
 11
56.0
 21
4.536149
 31
0.0
  0
LINE
  5
B58
330
1F
100
AcDbEntity
  8
1
  6
CONTINUOUS
370
50
 62
4
100
AcDbLine
 10
56.0
 20
4.536149
 30
0.0
 11
56.0
 21
4.779256999999999
 31
0.0
  0
LINE
  5
B59
330
1F
100
AcDbEntity
  8
1
  6
CONTINUOUS
370
50
 62
4
100
AcDbLine
 10
56.0
 20
4.779256999999999
 30
0.0
 11
56.0
 21
5.022365
 31
0.0
  0
LINE
  5
B5A
330
1F
100
AcDbEntity
  8
1
  6
CONTINUOUS
370
50
 62
4
100
AcDbLine
 10
56.0
 20
5.022365
 30
0.0
 11
56.0
 21
5.265473
 31
0.0
  0
LINE
  5
B5B
330
1F
100
AcDbEntity
  8
1
  6
CONTINUOUS
370
50
 62
4
100
AcDbLine
 10
56.0
 20
5.265473
 30
0.0
 11
56.0
 21
5.508581
 31
0.0
  0
LINE
  5
B5C
330
1F
100
AcDbEntity
  8
1
  6
CONTINUOUS
370
50
 62
4
100
AcDbLine
 10
56.0
 20
5.508581
 30
0.0
 11
56.0
 21
5.751689
 31
0.0
  0
LINE
  5
B5D
330
1F
100
AcDbEntity
  8
1
  6
CONTINUOUS
370
50
 62
4
100
AcDbLine
 10
56.0
 20
5.751689
 30
0.0
 11
56.0
 21
5.994797
 31
0.0
  0
LINE
  5
B5E
330
1F
100
AcDbEntity
  8
1
  6
CONTINUOUS
370
50
 62
4
100
AcDbLine
 10
80.0
 20
0.003841
 30
0.0
 11
80.0
 21
2.613677
 31
0.0
  0
LINE
  5
B5F
330
1F
100
AcDbEntity
  8
1
  6
CONTINUOUS
370
50
 62
4
100
AcDbLine
 10
80.0
 20
5.919865
 30
0.0
 11
80.0
 21
5.999994999999999
 31
0.0
  0
LINE
  5
B60
330
1F
100
AcDbEntity
  8
1
  6
CONTINUOUS
370
50
 62
4
100
AcDbLine
 10
80.0
 20
5.839735999999999
 30
0.0
 11
80.0
 21
5.919865
 31
0.0
  0
LINE
  5
B61
330
1F
100
AcDbEntity
  8
1
  6
CONTINUOUS
370
50
 62
4
100
AcDbLine
 10
80.0
 20
5.759606
 30
0.0
 11
80.0
 21
5.839735999999999
 31
0.0
  0
LINE
  5
B62
330
1F
100
AcDbEntity
  8
1
  6
CONTINUOUS
370
50
 62
4
100
AcDbLine
 10
80.0
 20
5.679476999999999
 30
0.0
 11
80.0
 21
5.759606
 31
0.0
  0
LINE
  5
B63
330
1F
100
AcDbEntity
  8
1
  6
CONTINUOUS
370
50
 62
4
100
AcDbLine
 10
80.0
 20
5.599348
 30
0.0
 11
80.0
 21
5.679476999999999
 31
0.0
  0
LINE
  5
B64
330
1F
100
AcDbEntity
  8
1
  6
CONTINUOUS
370
50
 62
4
100
AcDbLine
 10
80.0
 20
5.519218
 30
0.0
 11
80.0
 21
5.599348
 31
0.0
  0
LINE
  5
B65
330
1F
100
AcDbEntity
  8
1
  6
CONTINUOUS
370
50
 62
4
100
AcDbLine
 10
80.0
 20
5.439089
 30
0.0
 11
80.0
 21
5.519218
 31
0.0
  0
LINE
  5
B66
330
1F
100
AcDbEntity
  8
1
  6
CONTINUOUS
370
50
 62
4
100
AcDbLine
 10
80.0
 20
-4.858862999999999
 30
0.0
 11
80.0
 21
-4.3288
 31
0.0
  0
LINE
  5
B67
330
1F
100
AcDbEntity
  8
1
  6
CONTINUOUS
370
50
 62
4
100
AcDbLine
 10
80.0
 20
-4.3288
 30
0.0
 11
80.0
 21
0.00384
 31
0.0
  0
LINE
  5
B68
330
1F
100
AcDbEntity
  8
1
  6
CONTINUOUS
370
50
 62
4
100
AcDbLine
 10
80.0
 20
2.613692
 30
0.0
 11
80.0
 21
5.439089
 31
0.0
  0
LINE
  5
B69
330
1F
100
AcDbEntity
  8
1
  6
CONTINUOUS
370
50
 62
4
100
AcDbLine
 10
80.0
 20
-5.289022
 30
0.0
 11
80.0
 21
-4.858857
 31
0.0
  0
ELLIPSE
  5
B6A
330
1F
100
AcDbEntity
  8
1
  6
CONTINUOUS
370
50
 62
4
100
AcDbEllipse
 10
80.265402
 20
-0.000008
 30
0.0
 11
-1.870546260555983
 21
5.997554918736553
 31
0.0
210
0.0
220
0.0
230
0.9999999999999999
 40
0.091579502371739
 41
5.1345548883634
 42
5.151842573732601
  0
ELLIPSE
  5
B6B
330
1F
100
AcDbEntity
  8
1
  6
CONTINUOUS
370
50
 62
4
100
AcDbEllipse
 10
80.265402
 20
-0.000005
 30
0.0
 11
-1.225888042211054
 21
5.99198099136412
 31
0.0
210
0.0
220
0.0
230
1.0
 40
0.2529809324830083
 41
2.307714754018711
 42
2.325002437837241
  0
ELLIPSE
  5
B6C
330
1F
100
AcDbEntity
  8
1
  6
CONTINUOUS
370
50
 62
4
100
AcDbEllipse
 10
80.265402
 20
0.000005
 30
0.0
 11
1.225888042211046
 21
5.991980991364123
 31
0.0
210
0.0
220
0.0
230
0.9999999999999999
 40
0.2529809324830092
 41
3.667773065997516
 42
3.68506074750303
  0
ELLIPSE
  5
B6D
330
1F
100
AcDbEntity
  8
1
  6
CONTINUOUS
370
50
 62
4
100
AcDbEllipse
 10
109.498333
 20
-89.561588
 30
0.0
 11
-60.79880069728014
 21
81.32451522631555
 31
0.0
210
0.0
220
0.0
230
1.0
 40
0.9473259333124897
 41
6.22149351488239
 42
6.233147087515587
  0
ELLIPSE
  5
B6E
330
1F
100
AcDbEntity
  8
1
  6
CONTINUOUS
370
50
 62
4
100
AcDbEllipse
 10
109.498333
 20
-24.408864
 30
0.0
 11
-98.09902606643274
 21
26.20595475131651
 31
0.0
210
0.0
220
0.0
230
1.0
 40
0.1103560601541997
 41
5.3183851843967
 42
5.359928777550545
  0
ELLIPSE
  5
B6F
330
1F
100
AcDbEntity
  8
1
  6
CONTINUOUS
370
50
 62
4
100
AcDbEllipse
 10
109.952788
 20
-22.707662
 30
0.0
 11
-97.83147599400199
 21
26.13448202245288
 31
0.0
210
0.0
220
0.0
230
1.0
 40
0.1103560565728874
 41
5.325719431489663
 42
5.349656560834111
  0
ELLIPSE
  5
B70
330
1F
100
AcDbEntity
  8
1
  6
CONTINUOUS
370
50
 62
4
100
AcDbEllipse
 10
109.952788
 20
75.187727
 30
0.0
 11
-85.34447911072743
 21
54.50072182660827
 31
0.0
210
0.0
220
0.0
230
0.9999999999999999
 40
0.8791221379764727
 41
1.474557507346769
 42
1.498494636694307
  0
LINE
  5
B71
330
1F
100
AcDbEntity
  8
CUT
  6
CONTINUOUS
370
25
 62
1
100
AcDbLine
 10
56.0
 20
0.0
 30
0.0
 11
80.0
 21
0.0
 31
0.0
  0
LINE
  5
B72
330
1F
100
AcDbEntity
  8
CUT
  6
CONTINUOUS
370
25
 62
1
100
AcDbLine
 10
80.0
 20
0.0
 30
0.0
 11
80.0
 21
5.995
 31
0.0
  0
LINE
  5
B73
330
1F
100
AcDbEntity
  8
CUT
  6
CONTINUOUS
370
25
 62
1
100
AcDbLine
 10
80.0
 20
5.995
 30
0.0
 11
80.0
 21
6.0
 31
0.0
  0
LINE
  5
B74
330
1F
100
AcDbEntity
  8
CUT
  6
CONTINUOUS
370
25
 62
1
100
AcDbLine
 10
80.0
 20
6.0
 30
0.0
 11
56.0
 21
5.9999
 31
0.0
  0
LINE
  5
B75
330
1F
100
AcDbEntity
  8
CUT
  6
CONTINUOUS
370
25
 62
1
100
AcDbLine
 10
56.0
 20
5.9999
 30
0.0
 11
56.0
 21
0.0
 31
0.0
  0
LINE
  5
B76
330
1F
100
AcDbEntity
  8
NOCUT
  6
CONTINUOUS
370
25
 62
7
100
AcDbLine
 10
43.8
 20
0.0
 30
0.0
 11
56.0
 21
0.0
 31
0.0
  0
LINE
  5
B77
330
1F
100
AcDbEntity
  8
NOCUT
  6
CONTINUOUS
370
25
 62
7
100
AcDbLine
 10
56.0
 20
0.0
 30
0.0
 11
56.0
 21
5.74995
 31
0.0
  0
LINE
  5
B78
330
1F
100
AcDbEntity
  8
NOCUT
  6
CONTINUOUS
370
25
 62
7
100
AcDbLine
 10
56.0
 20
5.74995
 30
0.0
 11
44.0
 21
5.74995
 31
0.0
  0
LINE
  5
B79
330
1F
100
AcDbEntity
  8
NOCUT
  6
CONTINUOUS
370
25
 62
7
100
AcDbLine
 10
44.0
 20
5.74995
 30
0.0
 11
43.8
 21
5.99995
 31
0.0
  0
LINE
  5
B7A
330
1F
100
AcDbEntity
  8
NOCUT
  6
CONTINUOUS
370
25
 62
7
100
AcDbLine
 10
43.8
 20
5.99995
 30
0.0
 11
43.8
 21
0.0
 31
0.0
  0
LINE
  5
B7B
330
1F
100
AcDbEntity
  8
SK1
  6
CONTINUOUS
370
50
 62
4
100
AcDbLine
 10
43.8
 20
6.0
 30
0.0
 11
0.6000000000000014
 21
6.0
 31
0.0
  0
LINE
  5
B7C
330
1F
100
AcDbEntity
  8
SK1
  6
CONTINUOUS
370
50
 62
4
100
AcDbLine
 10
0.6000000000000014
 20
6.0
 30
0.0
 11
0.0
 21
5.4
 31
0.0
  0
LINE
  5
B7D
330
1F
100
AcDbEntity
  8
SK1
  6
CONTINUOUS
370
50
 62
4
100
AcDbLine
 10
0.0
 20
5.4
 30
0.0
 11
0.0
 21
-5.4
 31
0.0
  0
LINE
  5
B7E
330
1F
100
AcDbEntity
  8
SK1
  6
CONTINUOUS
370
50
 62
4
100
AcDbLine
 10
0.0
 20
-5.4
 30
0.0
 11
0.6000000000000014
 21
-6.0
 31
0.0
  0
LINE
  5
B7F
330
1F
100
AcDbEntity
  8
SK1
  6
CONTINUOUS
370
50
 62
4
100
AcDbLine
 10
0.6000000000000014
 20
-6.0
 30
0.0
 11
43.8
 21
-6.0
 31
0.0
  0
LINE
  5
B80
330
1F
100
AcDbEntity
  8
SK1
  6
CONTINUOUS
370
50
 62
4
100
AcDbLine
 10
0.6000000000000014
 20
6.0
 30
0.0
 11
0.6000000000000014
 21
-6.0
 31
0.0
  0
LINE
  5
B81
330
1F
100
AcDbEntity
  8
SK2
  6
CONTINUOUS
370
25
 62
7
100
AcDbLine
 10
-12.0000002
 20
-6.000001
 30
0.0
 11
-13.00000000000008
 21
-6.000001
 31
0.0
  0
LINE
  5
B82
330
1F
100
AcDbEntity
  8
SK2
  6
CONTINUOUS
370
25
 62
7
100
AcDbLine
 10
0.0
 20
-6.000001
 30
0.0
 11
-11.9999998
 21
-6.000001
 31
0.0
  0
LINE
  5
B83
330
1F
100
AcDbEntity
  8
SK2
  6
CONTINUOUS
370
25
 62
7
100
AcDbLine
 10
-13.0
 20
6.0
 30
0.0
 11
0.0
 21
6.0
 31
0.0
  0
LINE
  5
B84
330
1F
100
AcDbEntity
  8
SK2
  6
CONTINUOUS
370
25
 62
7
100
AcDbLine
 10
-12.0
 20
-13.0
 30
0.0
 11
-12.0
 21
13.0
 31
0.0
  0
LINE
  5
B85
330
1F
100
AcDbEntity
  8
SK2
  6
CONTINUOUS
370
25
 62
7
100
AcDbLine
 10
-12.0
 20
-6.0
 30
0.0
 11
-11.0
 21
-11.0
 31
0.0
  0
LINE
  5
B86
330
1F
100
AcDbEntity
  8
SK2
  6
CONTINUOUS
370
25
 62
7
100
AcDbLine
 10
-11.0
 20
-11.0
 30
0.0
 11
-13.0
 21
-11.0
 31
0.0
  0
LINE
  5
B87
330
1F
100
AcDbEntity
  8
SK2
  6
CONTINUOUS
370
25
 62
7
100
AcDbLine
 10
-13.0
 20
-11.0
 30
0.0
 11
-12.0
 21
-6.0
 31
0.0
  0
LINE
  5
B88
330
1F
100
AcDbEntity
  8
SK2
  6
CONTINUOUS
370
25
 62
7
100
AcDbLine
 10
-11.32346314604051
 20
-11.0
 30
0.0
 11
-11.05391052434009
 21
-10.73044737829958
 31
0.0
  0
LINE
  5
B89
330
1F
100
AcDbEntity
  8
SK2
  6
CONTINUOUS
370
25
 62
7
100
AcDbLine
 10
-11.74772721475244
 20
-11.0
 30
0.0
 11
-11.12462120245875
 21
-10.37689398770631
 31
0.0
  0
LINE
  5
B8A
330
1F
100
AcDbEntity
  8
SK2
  6
CONTINUOUS
370
25
 62
7
100
AcDbLine
 10
-12.17199128346437
 20
-11.0
 30
0.0
 11
-11.1953318805774
 21
-10.02334059711303
 31
0.0
  0
LINE
  5
B8B
330
1F
100
AcDbEntity
  8
SK2
  6
CONTINUOUS
370
25
 62
7
100
AcDbLine
 10
-12.5962553521763
 20
-11.0
 30
0.0
 11
-11.26604255869605
 21
-9.66978720651975
 31
0.0
  0
LINE
  5
B8C
330
1F
100
AcDbEntity
  8
SK2
  6
CONTINUOUS
370
25
 62
7
100
AcDbLine
 10
-12.99487014477795
 20
-10.97435072388971
 30
0.0
 11
-11.33675323681471
 21
-9.316233815926473
 31
0.0
  0
LINE
  5
B8D
330
1F
100
AcDbEntity
  8
SK2
  6
CONTINUOUS
370
25
 62
7
100
AcDbLine
 10
-12.88880412759996
 20
-10.4440206379998
 30
0.0
 11
-11.40746391493336
 21
-8.962680425333197
 31
0.0
  0
LINE
  5
B8E
330
1F
100
AcDbEntity
  8
SK2
  6
CONTINUOUS
370
25
 62
7
100
AcDbLine
 10
-12.78273811042198
 20
-9.913690552109891
 30
0.0
 11
-11.47817459305201
 21
-8.60912703473992
 31
0.0
  0
LINE
  5
B8F
330
1F
100
AcDbEntity
  8
SK2
  6
CONTINUOUS
370
25
 62
7
100
AcDbLine
 10
-12.67667209324399
 20
-9.383360466219969
 30
0.0
 11
-11.54888527117068
 21
-8.25557364414665
 31
0.0
  0
LINE
  5
B90
330
1F
100
AcDbEntity
  8
SK2
  6
CONTINUOUS
370
25
 62
7
100
AcDbLine
 10
-12.57060607606601
 20
-8.853030380330054
 30
0.0
 11
-11.61959594928933
 21
-7.902020253553367
 31
0.0
  0
LINE
  5
B91
330
1F
100
AcDbEntity
  8
SK2
  6
CONTINUOUS
370
25
 62
7
100
AcDbLine
 10
-12.46454005888803
 20
-8.32270029444014
 30
0.0
 11
-11.69030662740798
 21
-7.548466862960098
 31
0.0
  0
LINE
  5
B92
330
1F
100
AcDbEntity
  8
SK2
  6
CONTINUOUS
370
25
 62
7
100
AcDbLine
 10
-12.35847404171005
 20
-7.792370208550231
 30
0.0
 11
-11.76101730552664
 21
-7.194913472366828
 31
0.0
  0
LINE
  5
B93
330
1F
100
AcDbEntity
  8
SK2
  6
CONTINUOUS
370
25
 62
7
100
AcDbLine
 10
-12.25240802453206
 20
-7.262040122660309
 30
0.0
 11
-11.8317279836453
 21
-6.841360081773551
 31
0.0
  0
LINE
  5
B94
330
1F
100
AcDbEntity
  8
SK2
  6
CONTINUOUS
370
25
 62
7
100
AcDbLine
 10
-12.14634200735409
 20
-6.731710036770394
 30
0.0
 11
-11.90243866176395
 21
-6.487806691180261
 31
0.0
  0
LINE
  5
B95
330
1F
100
AcDbEntity
  8
SK2
  6
CONTINUOUS
370
25
 62
7
100
AcDbLine
 10
-12.0402759901761
 20
-6.201379950880479
 30
0.0
 11
-11.9731493398826
 21
-6.134253300586984
 31
0.0
  0
LINE
  5
B96
330
1F
100
AcDbEntity
  8
SK2
  6
CONTINUOUS
370
25
 62
7
100
AcDbLine
 10
-12.93300786532207
 20
-10.6650393266103
 30
0.0
 11
-12.59804719193237
 21
-11.0
 31
0.0
  0
LINE
  5
B97
330
1F
100
AcDbEntity
  8
SK2
  6
CONTINUOUS
370
25
 62
7
100
AcDbLine
 10
-12.8622971872034
 20
-10.31148593601703
 30
0.0
 11
-12.17378312322043
 21
-11.0
 31
0.0
  0
LINE
  5
B98
330
1F
100
AcDbEntity
  8
SK2
  6
CONTINUOUS
370
25
 62
7
100
AcDbLine
 10
-12.79158650908475
 20
-9.957932545423745
 30
0.0
 11
-11.7495190545085
 21
-11.0
 31
0.0
  0
LINE
  5
B99
330
1F
100
AcDbEntity
  8
SK2
  6
CONTINUOUS
370
25
 62
7
100
AcDbLine
 10
-12.7208758309661
 20
-9.604379154830475
 30
0.0
 11
-11.32525498579658
 21
-11.0
 31
0.0
  0
LINE
  5
B9A
330
1F
100
AcDbEntity
  8
SK2
  6
CONTINUOUS
370
25
 62
7
100
AcDbLine
 10
-12.65016515284744
 20
-9.250825764237199
 30
0.0
 11
-11.02475227072885
 21
-10.8762386463558
 31
0.0
  0
LINE
  5
B9B
330
1F
100
AcDbEntity
  8
SK2
  6
CONTINUOUS
370
25
 62
7
100
AcDbLine
 10
-12.57945447472879
 20
-8.897272373643915
 30
0.0
 11
-11.13081828790683
 21
-10.34590856046589
 31
0.0
  0
LINE
  5
B9C
330
1F
100
AcDbEntity
  8
SK2
  6
CONTINUOUS
370
25
 62
7
100
AcDbLine
 10
-12.50874379661013
 20
-8.543718983050653
 30
0.0
 11
-11.23688430508481
 21
-9.815578474575965
 31
0.0
  0
LINE
  5
B9D
330
1F
100
AcDbEntity
  8
SK2
  6
CONTINUOUS
370
25
 62
7
100
AcDbLine
 10
-12.43803311849148
 20
-8.190165592457369
 30
0.0
 11
-11.34295032226279
 21
-9.28524838868605
 31
0.0
  0
LINE
  5
B9E
330
1F
100
AcDbEntity
  8
SK2
  6
CONTINUOUS
370
25
 62
7
100
AcDbLine
 10
-12.36732244037282
 20
-7.836612201864099
 30
0.0
 11
-11.44901633944077
 21
-8.754918302796149
 31
0.0
  0
LINE
  5
B9F
330
1F
100
AcDbEntity
  8
SK2
  6
CONTINUOUS
370
25
 62
7
100
AcDbLine
 10
-12.29661176225417
 20
-7.483058811270823
 30
0.0
 11
-11.55508235661876
 21
-8.224588216906227
 31
0.0
  0
LINE
  5
BA0
330
1F
100
AcDbEntity
  8
SK2
  6
CONTINUOUS
370
25
 62
7
100
AcDbLine
 10
-12.22590108413551
 20
-7.129505420677546
 30
0.0
 11
-11.66114837379675
 21
-7.694258131016305
 31
0.0
  0
LINE
  5
BA1
330
1F
100
AcDbEntity
  8
SK2
  6
CONTINUOUS
370
25
 62
7
100
AcDbLine
 10
-12.15519040601686
 20
-6.775952030084262
 30
0.0
 11
-11.76721439097473
 21
-7.16392804512639
 31
0.0
  0
LINE
  5
BA2
330
1F
100
AcDbEntity
  8
SK2
  6
CONTINUOUS
370
25
 62
7
100
AcDbLine
 10
-12.0844797278982
 20
-6.422398639490993
 30
0.0
 11
-11.87328040815271
 21
-6.633597959236482
 31
0.0
  0
LINE
  5
BA3
330
1F
100
AcDbEntity
  8
SK2
  6
CONTINUOUS
370
25
 62
7
100
AcDbLine
 10
-12.01376904977955
 20
-6.068845248897702
 30
0.0
 11
-11.97934642533069
 21
-6.10326787334656
 31
0.0
  0
LINE
  5
BA4
330
1F
100
AcDbEntity
  8
SK2
  6
CONTINUOUS
370
25
 62
7
100
AcDbLine
 10
-12.0
 20
6.0
 30
0.0
 11
-13.0
 21
11.0
 31
0.0
  0
LINE
  5
BA5
330
1F
100
AcDbEntity
  8
SK2
  6
CONTINUOUS
370
25
 62
7
100
AcDbLine
 10
-13.0
 20
11.0
 30
0.0
 11
-11.0
 21
11.0
 31
0.0
  0
LINE
  5
BA6
330
1F
100
AcDbEntity
  8
SK2
  6
CONTINUOUS
370
25
 62
7
100
AcDbLine
 10
-11.0
 20
11.0
 30
0.0
 11
-12.0
 21
6.0
 31
0.0
  0
LINE
  5
BA7
330
1F
100
AcDbEntity
  8
SK2
  6
CONTINUOUS
370
25
 62
7
100
AcDbLine
 10
-12.02375900532359
 20
6.11879502661796
 30
0.0
 11
-11.96436149201462
 21
6.178192539926933
 31
0.0
  0
LINE
  5
BA8
330
1F
100
AcDbEntity
  8
SK2
  6
CONTINUOUS
370
25
 62
7
100
AcDbLine
 10
-12.09446968344225
 20
6.472348417211229
 30
0.0
 11
-11.85829547483664
 21
6.70852262581684
 31
0.0
  0
LINE
  5
BA9
330
1F
100
AcDbEntity
  8
SK2
  6
CONTINUOUS
370
25
 62
7
100
AcDbLine
 10
-12.1651803615609
 20
6.825901807804513
 30
0.0
 11
-11.75222945765866
 21
7.238852711706755
 31
0.0
  0
LINE
  5
BAA
330
1F
100
AcDbEntity
  8
SK2
  6
CONTINUOUS
370
25
 62
7
100
AcDbLine
 10
-12.23589103967955
 20
7.179455198397797
 30
0.0
 11
-11.64616344048067
 21
7.769182797596677
 31
0.0
  0
LINE
  5
BAB
330
1F
100
AcDbEntity
  8
SK2
  6
CONTINUOUS
370
25
 62
7
100
AcDbLine
 10
-12.30660171779821
 20
7.533008588991066
 30
0.0
 11
-11.54009742330269
 21
8.299512883486585
 31
0.0
  0
LINE
  5
BAC
330
1F
100
AcDbEntity
  8
SK2
  6
CONTINUOUS
370
25
 62
7
100
AcDbLine
 10
-12.37731239591688
 20
7.886561979584322
 30
0.0
 11
-11.4340314061247
 21
8.829842969376507
 31
0.0
  0
LINE
  5
BAD
330
1F
100
AcDbEntity
  8
SK2
  6
CONTINUOUS
370
25
 62
7
100
AcDbLine
 10
-12.44802307403553
 20
8.240115370177605
 30
0.0
 11
-11.32796538894671
 21
9.36017305526643
 31
0.0
  0
LINE
  5
BAE
330
1F
100
AcDbEntity
  8
SK2
  6
CONTINUOUS
370
25
 62
7
100
AcDbLine
 10
-12.51873375215418
 20
8.593668760770875
 30
0.0
 11
-11.22189937176873
 21
9.89050314115633
 31
0.0
  0
LINE
  5
BAF
330
1F
100
AcDbEntity
  8
SK2
  6
CONTINUOUS
370
25
 62
7
100
AcDbLine
 10
-12.58944443027284
 20
8.947222151364151
 30
0.0
 11
-11.11583335459075
 21
10.42083322704624
 31
0.0
  0
LINE
  5
BB0
330
1F
100
AcDbEntity
  8
SK2
  6
CONTINUOUS
370
25
 62
7
100
AcDbLine
 10
-12.66015510839149
 20
9.300775541957435
 30
0.0
 11
-11.00976733741277
 21
10.95116331293616
 31
0.0
  0
LINE
  5
BB1
330
1F
100
AcDbEntity
  8
SK2
  6
CONTINUOUS
370
25
 62
7
100
AcDbLine
 10
-12.73086578651016
 20
9.654328932550705
 30
0.0
 11
-11.38519471906086
 21
11.0
 31
0.0
  0
LINE
  5
BB2
330
1F
100
AcDbEntity
  8
SK2
  6
CONTINUOUS
370
25
 62
7
100
AcDbLine
 10
-12.8015764646288
 20
10.00788232314398
 30
0.0
 11
-11.80945878777278
 21
11.0
 31
0.0
  0
LINE
  5
BB3
330
1F
100
AcDbEntity
  8
SK2
  6
CONTINUOUS
370
25
 62
7
100
AcDbLine
 10
-12.87228714274746
 20
10.36143571373726
 30
0.0
 11
-12.23372285648472
 21
11.0
 31
0.0
  0
LINE
  5
BB4
330
1F
100
AcDbEntity
  8
SK2
  6
CONTINUOUS
370
25
 62
7
100
AcDbLine
 10
-12.94299782086612
 20
10.71498910433053
 30
0.0
 11
-12.65798692519665
 21
11.0
 31
0.0
  0
LINE
  5
BB5
330
1F
100
AcDbEntity
  8
SK2
  6
CONTINUOUS
370
25
 62
7
100
AcDbLine
 10
-12.06997954925359
 20
6.349897746267956
 30
0.0
 11
-11.95334696716428
 21
6.233265164178647
 31
0.0
  0
LINE
  5
BB6
330
1F
100
AcDbEntity
  8
SK2
  6
CONTINUOUS
370
25
 62
7
100
AcDbLine
 10
-12.17604556643158
 20
6.880227832157871
 30
0.0
 11
-11.88263628904561
 21
6.586818554771909
 31
0.0
  0
LINE
  5
BB7
330
1F
100
AcDbEntity
  8
SK2
  6
CONTINUOUS
370
25
 62
7
100
AcDbLine
 10
-12.28211158360956
 20
7.410557918047786
 30
0.0
 11
-11.81192561092696
 21
6.940371945365186
 31
0.0
  0
LINE
  5
BB8
330
1F
100
AcDbEntity
  8
SK2
  6
CONTINUOUS
370
25
 62
7
100
AcDbLine
 10
-12.38817760078754
 20
7.940888003937701
 30
0.0
 11
-11.7412149328083
 21
7.293925335958463
 31
0.0
  0
LINE
  5
BB9
330
1F
100
AcDbEntity
  8
SK2
  6
CONTINUOUS
370
25
 62
7
100
AcDbLine
 10
-12.49424361796552
 20
8.471218089827609
 30
0.0
 11
-11.67050425468965
 21
7.647478726551739
 31
0.0
  0
LINE
  5
BBA
330
1F
100
AcDbEntity
  8
SK2
  6
CONTINUOUS
370
25
 62
7
100
AcDbLine
 10
-12.60030963514351
 20
9.001548175717524
 30
0.0
 11
-11.599793576571
 21
8.001032117145016
 31
0.0
  0
LINE
  5
BBB
330
1F
100
AcDbEntity
  8
SK2
  6
CONTINUOUS
370
25
 62
7
100
AcDbLine
 10
-12.70637565232149
 20
9.531878261607432
 30
0.0
 11
-11.52908289845234
 21
8.354585507738278
 31
0.0
  0
LINE
  5
BBC
330
1F
100
AcDbEntity
  8
SK2
  6
CONTINUOUS
370
25
 62
7
100
AcDbLine
 10
-12.81244166949948
 20
10.06220834749735
 30
0.0
 11
-11.45837222033369
 21
8.708138898331562
 31
0.0
  0
LINE
  5
BBD
330
1F
100
AcDbEntity
  8
SK2
  6
CONTINUOUS
370
25
 62
7
100
AcDbLine
 10
-12.91850768667744
 20
10.59253843338725
 30
0.0
 11
-11.38766154221504
 21
9.06169228892486
 31
0.0
  0
LINE
  5
BBE
330
1F
100
AcDbEntity
  8
SK2
  6
CONTINUOUS
370
25
 62
7
100
AcDbLine
 10
-12.90170518457825
 20
11.0
 30
0.0
 11
-11.31695086409638
 21
9.415245679518122
 31
0.0
  0
LINE
  5
BBF
330
1F
100
AcDbEntity
  8
SK2
  6
CONTINUOUS
370
25
 62
7
100
AcDbLine
 10
-12.47744111586633
 20
11.0
 30
0.0
 11
-11.24624018597773
 21
9.768799070111399
 31
0.0
  0
LINE
  5
BC0
330
1F
100
AcDbEntity
  8
SK2
  6
CONTINUOUS
370
25
 62
7
100
AcDbLine
 10
-12.05317704715439
 20
11.0
 30
0.0
 11
-11.17552950785907
 21
10.12235246070468
 31
0.0
  0
LINE
  5
BC1
330
1F
100
AcDbEntity
  8
SK2
  6
CONTINUOUS
370
25
 62
7
100
AcDbLine
 10
-11.62891297844246
 20
11.0
 30
0.0
 11
-11.10481882974041
 21
10.47590585129795
 31
0.0
  0
LINE
  5
BC2
330
1F
100
AcDbEntity
  8
SK2
  6
CONTINUOUS
370
25
 62
7
100
AcDbLine
 10
-11.20464890973053
 20
11.0
 30
0.0
 11
-11.03410815162175
 21
10.82945924189122
 31
0.0
  0
TEXT
  5
BC3
330
1F
100
AcDbEntity
  8
SK2
  6
CONTINUOUS
370
25
 62
7
100
AcDbText
 10
-13.5
 20
-0.0583333333333336
 30
0.0
 40
3.5
  1
12
 50
90.0
 72
     1
 11
-13.5
 21
2.275
 31
0.0
100
AcDbText
  0
CIRCLE
  5
BC4
330
1F
100
AcDbEntity
  8
SK2
  6
CONTINUOUS
370
25
 62
7
100
AcDbCircle
 10
-15.25
 20
-2.625
 30
0.0
 40
1.4
  0
LINE
  5
BC5
330
1F
100
AcDbEntity
  8
SK2
  6
CONTINUOUS
370
25
 62
7
100
AcDbLine
 10
-13.85
 20
-4.024999999999999
 30
0.0
 11
-16.65
 21
-1.224999999999999
 31
0.0
  0
LINE
  5
BC6
330
1F
100
AcDbEntity
  8
SK2
  6
CONTINUOUS
370
25
 62
7
100
AcDbLine
 10
0.0
 20
6.0
 30
0.0
 11
0.0
 21
19.00001
 31
0.0
  0
LINE
  5
BC7
330
1F
100
AcDbEntity
  8
SK2
  6
CONTINUOUS
370
25
 62
7
100
AcDbLine
 10
43.8
 20
19.00001
 30
0.0
 11
43.8
 21
6.0
 31
0.0
  0
LINE
  5
BC8
330
1F
100
AcDbEntity
  8
SK2
  6
CONTINUOUS
370
25
 62
7
100
AcDbLine
 10
0.0
 20
18.00001
 30
0.0
 11
43.8
 21
18.00001
 31
0.0
  0
LINE
  5
BC9
330
1F
100
AcDbEntity
  8
SK2
  6
CONTINUOUS
370
25
 62
7
100
AcDbLine
 10
0.0
 20
18.00001
 30
0.0
 11
5.0
 21
19.00001
 31
0.0
  0
LINE
  5
BCA
330
1F
100
AcDbEntity
  8
SK2
  6
CONTINUOUS
370
25
 62
7
100
AcDbLine
 10
5.0
 20
19.00001
 30
0.0
 11
5.0
 21
17.00001
 31
0.0
  0
LINE
  5
BCB
330
1F
100
AcDbEntity
  8
SK2
  6
CONTINUOUS
370
25
 62
7
100
AcDbLine
 10
5.0
 20
17.00001
 30
0.0
 11
0.0
 21
18.00001
 31
0.0
  0
LINE
  5
BCC
330
1F
100
AcDbEntity
  8
SK2
  6
CONTINUOUS
370
25
 62
7
100
AcDbLine
 10
4.83096077502119
 20
17.03381784499576
 30
0.0
 11
5.0
 21
17.20285706997457
 31
0.0
  0
LINE
  5
BCD
330
1F
100
AcDbEntity
  8
SK2
  6
CONTINUOUS
370
25
 62
7
100
AcDbLine
 10
4.477407384427913
 20
17.10452852311442
 30
0.0
 11
5.0
 21
17.6271211386865
 31
0.0
  0
LINE
  5
BCE
330
1F
100
AcDbEntity
  8
SK2
  6
CONTINUOUS
370
25
 62
7
100
AcDbLine
 10
4.123853993834643
 20
17.17523920123308
 30
0.0
 11
5.0
 21
18.05138520739843
 31
0.0
  0
LINE
  5
BCF
330
1F
100
AcDbEntity
  8
SK2
  6
CONTINUOUS
370
25
 62
7
100
AcDbLine
 10
3.770300603241367
 20
17.24594987935173
 30
0.0
 11
5.0
 21
18.47564927611036
 31
0.0
  0
LINE
  5
BD0
330
1F
100
AcDbEntity
  8
SK2
  6
CONTINUOUS
370
25
 62
7
100
AcDbLine
 10
3.41674721264809
 20
17.31666055747039
 30
0.0
 11
5.0
 21
18.89991334482229
 31
0.0
  0
LINE
  5
BD1
330
1F
100
AcDbEntity
  8
SK2
  6
CONTINUOUS
370
25
 62
7
100
AcDbLine
 10
3.063193822054807
 20
17.38737123558904
 30
0.0
 11
4.594790733082213
 21
18.91896814661644
 31
0.0
  0
LINE
  5
BD2
330
1F
100
AcDbEntity
  8
SK2
  6
CONTINUOUS
370
25
 62
7
100
AcDbLine
 10
2.709640431461537
 20
17.45808191370769
 30
0.0
 11
4.064460647192305
 21
18.81290212943846
 31
0.0
  0
LINE
  5
BD3
330
1F
100
AcDbEntity
  8
SK2
  6
CONTINUOUS
370
25
 62
7
100
AcDbLine
 10
2.35608704086826
 20
17.52879259182635
 30
0.0
 11
3.534130561302391
 21
18.70683611226048
 31
0.0
  0
LINE
  5
BD4
330
1F
100
AcDbEntity
  8
SK2
  6
CONTINUOUS
370
25
 62
7
100
AcDbLine
 10
2.002533650274984
 20
17.599503269945
 30
0.0
 11
3.003800475412476
 21
18.6007700950825
 31
0.0
  0
LINE
  5
BD5
330
1F
100
AcDbEntity
  8
SK2
  6
CONTINUOUS
370
25
 62
7
100
AcDbLine
 10
1.648980259681707
 20
17.67021394806366
 30
0.0
 11
2.473470389522554
 21
18.49470407790451
 31
0.0
  0
LINE
  5
BD6
330
1F
100
AcDbEntity
  8
SK2
  6
CONTINUOUS
370
25
 62
7
100
AcDbLine
 10
1.295426869088431
 20
17.74092462618231
 30
0.0
 11
1.943140303632646
 21
18.38863806072653
 31
0.0
  0
LINE
  5
BD7
330
1F
100
AcDbEntity
  8
SK2
  6
CONTINUOUS
370
25
 62
7
100
AcDbLine
 10
0.941873478495161
 20
17.81163530430097
 30
0.0
 11
1.412810217742738
 21
18.28257204354855
 31
0.0
  0
LINE
  5
BD8
330
1F
100
AcDbEntity
  8
SK2
  6
CONTINUOUS
370
25
 62
7
100
AcDbLine
 10
0.5883200879018773
 20
17.88234598241962
 30
0.0
 11
0.8824801318528159
 21
18.17650602637056
 31
0.0
  0
LINE
  5
BD9
330
1F
100
AcDbEntity
  8
SK2
  6
CONTINUOUS
370
25
 62
7
100
AcDbLine
 10
0.2347666973086007
 20
17.95305666053828
 30
0.0
 11
0.352150045962901
 21
18.07044000919258
 31
0.0
  0
LINE
  5
BDA
330
1F
100
AcDbEntity
  8
SK2
  6
CONTINUOUS
370
25
 62
7
100
AcDbLine
 10
0.0807302336953981
 20
18.01615604673908
 30
0.0
 11
0.1210953505430936
 21
17.97579092989138
 31
0.0
  0
LINE
  5
BDB
330
1F
100
AcDbEntity
  8
SK2
  6
CONTINUOUS
370
25
 62
7
100
AcDbLine
 10
0.4342836242886747
 20
18.08686672485773
 30
0.0
 11
0.6514254364330085
 21
17.8697249127134
 31
0.0
  0
LINE
  5
BDC
330
1F
100
AcDbEntity
  8
SK2
  6
CONTINUOUS
370
25
 62
7
100
AcDbLine
 10
0.7878370148819513
 20
18.15757740297639
 30
0.0
 11
1.181755522322923
 21
17.76365889553541
 31
0.0
  0
LINE
  5
BDD
330
1F
100
AcDbEntity
  8
SK2
  6
CONTINUOUS
370
25
 62
7
100
AcDbLine
 10
1.141390405475221
 20
18.22828808109505
 30
0.0
 11
1.712085608212838
 21
17.65759287835743
 31
0.0
  0
LINE
  5
BDE
330
1F
100
AcDbEntity
  8
SK2
  6
CONTINUOUS
370
25
 62
7
100
AcDbLine
 10
1.494943796068505
 20
18.2989987592137
 30
0.0
 11
2.242415694102753
 21
17.55152686117945
 31
0.0
  0
LINE
  5
BDF
330
1F
100
AcDbEntity
  8
SK2
  6
CONTINUOUS
370
25
 62
7
100
AcDbLine
 10
1.848497186661781
 20
18.36970943733235
 30
0.0
 11
2.772745779992661
 21
17.44546084400148
 31
0.0
  0
LINE
  5
BE0
330
1F
100
AcDbEntity
  8
SK2
  6
CONTINUOUS
370
25
 62
7
100
AcDbLine
 10
2.202050577255058
 20
18.440420115451
 30
0.0
 11
3.303075865882583
 21
17.33939482682349
 31
0.0
  0
LINE
  5
BE1
330
1F
100
AcDbEntity
  8
SK2
  6
CONTINUOUS
370
25
 62
7
100
AcDbLine
 10
2.555603967848327
 20
18.51113079356967
 30
0.0
 11
3.833405951772491
 21
17.23332880964551
 31
0.0
  0
LINE
  5
BE2
330
1F
100
AcDbEntity
  8
SK2
  6
CONTINUOUS
370
25
 62
7
100
AcDbLine
 10
2.909157358441611
 20
18.58184147168832
 30
0.0
 11
4.363736037662413
 21
17.12726279246752
 31
0.0
  0
LINE
  5
BE3
330
1F
100
AcDbEntity
  8
SK2
  6
CONTINUOUS
370
25
 62
7
100
AcDbLine
 10
3.262710749034888
 20
18.65255214980698
 30
0.0
 11
4.894066123552321
 21
17.02119677528954
 31
0.0
  0
LINE
  5
BE4
330
1F
100
AcDbEntity
  8
SK2
  6
CONTINUOUS
370
25
 62
7
100
AcDbLine
 10
3.616264139628157
 20
18.72326282792564
 30
0.0
 11
5.0
 21
17.33952696755379
 31
0.0
  0
LINE
  5
BE5
330
1F
100
AcDbEntity
  8
SK2
  6
CONTINUOUS
370
25
 62
7
100
AcDbLine
 10
3.969817530221434
 20
18.79397350604429
 30
0.0
 11
5.0
 21
17.76379103626573
 31
0.0
  0
LINE
  5
BE6
330
1F
100
AcDbEntity
  8
SK2
  6
CONTINUOUS
370
25
 62
7
100
AcDbLine
 10
4.32337092081471
 20
18.86468418416295
 30
0.0
 11
5.0
 21
18.18805510497766
 31
0.0
  0
LINE
  5
BE7
330
1F
100
AcDbEntity
  8
SK2
  6
CONTINUOUS
370
25
 62
7
100
AcDbLine
 10
4.676924311407994
 20
18.93539486228159
 30
0.0
 11
5.0
 21
18.61231917368959
 31
0.0
  0
LINE
  5
BE8
330
1F
100
AcDbEntity
  8
SK2
  6
CONTINUOUS
370
25
 62
7
100
AcDbLine
 10
43.8
 20
18.00001
 30
0.0
 11
38.8
 21
17.00001
 31
0.0
  0
LINE
  5
BE9
330
1F
100
AcDbEntity
  8
SK2
  6
CONTINUOUS
370
25
 62
7
100
AcDbLine
 10
38.8
 20
17.00001
 30
0.0
 11
38.8
 21
19.00001
 31
0.0
  0
LINE
  5
BEA
330
1F
100
AcDbEntity
  8
SK2
  6
CONTINUOUS
370
25
 62
7
100
AcDbLine
 10
38.8
 20
19.00001
 30
0.0
 11
43.8
 21
18.00001
 31
0.0
  0
LINE
  5
BEB
330
1F
100
AcDbEntity
  8
SK2
  6
CONTINUOUS
370
25
 62
7
100
AcDbLine
 10
43.49581880673384
 20
17.93917376134677
 30
0.0
 11
43.59721253782256
 21
18.04056749243549
 31
0.0
  0
LINE
  5
BEC
330
1F
100
AcDbEntity
  8
SK2
  6
CONTINUOUS
370
25
 62
7
100
AcDbLine
 10
42.96548872084393
 20
17.83310774416879
 30
0.0
 11
43.24365914722929
 21
18.11127817055414
 31
0.0
  0
LINE
  5
BED
330
1F
100
AcDbEntity
  8
SK2
  6
CONTINUOUS
370
25
 62
7
100
AcDbLine
 10
42.43515863495402
 20
17.72704172699081
 30
0.0
 11
42.89010575663601
 21
18.18198884867279
 31
0.0
  0
LINE
  5
BEE
330
1F
100
AcDbEntity
  8
SK2
  6
CONTINUOUS
370
25
 62
7
100
AcDbLine
 10
41.90482854906411
 20
17.62097570981282
 30
0.0
 11
42.53655236604274
 21
18.25269952679145
 31
0.0
  0
LINE
  5
BEF
330
1F
100
AcDbEntity
  8
SK2
  6
CONTINUOUS
370
25
 62
7
100
AcDbLine
 10
41.3744984631742
 20
17.51490969263484
 30
0.0
 11
42.18299897544946
 21
18.32341020491011
 31
0.0
  0
LINE
  5
BF0
330
1F
100
AcDbEntity
  8
SK2
  6
CONTINUOUS
370
25
 62
7
100
AcDbLine
 10
40.84416837728429
 20
17.40884367545686
 30
0.0
 11
41.82944558485619
 21
18.39412088302876
 31
0.0
  0
LINE
  5
BF1
330
1F
100
AcDbEntity
  8
SK2
  6
CONTINUOUS
370
25
 62
7
100
AcDbLine
 10
40.31383829139438
 20
17.30277765827888
 30
0.0
 11
41.47589219426292
 21
18.46483156114742
 31
0.0
  0
LINE
  5
BF2
330
1F
100
AcDbEntity
  8
SK2
  6
CONTINUOUS
370
25
 62
7
100
AcDbLine
 10
39.78350820550447
 20
17.19671164110089
 30
0.0
 11
41.12233880366964
 21
18.53554223926607
 31
0.0
  0
LINE
  5
BF3
330
1F
100
AcDbEntity
  8
SK2
  6
CONTINUOUS
370
25
 62
7
100
AcDbLine
 10
39.25317811961456
 20
17.09064562392291
 30
0.0
 11
40.76878541307637
 21
18.60625291738473
 31
0.0
  0
LINE
  5
BF4
330
1F
100
AcDbEntity
  8
SK2
  6
CONTINUOUS
370
25
 62
7
100
AcDbLine
 10
38.8
 20
17.06173157302028
 30
0.0
 11
40.4152320224831
 21
18.67696359550338
 31
0.0
  0
LINE
  5
BF5
330
1F
100
AcDbEntity
  8
SK2
  6
CONTINUOUS
370
25
 62
7
100
AcDbLine
 10
38.8
 20
17.48599564173221
 30
0.0
 11
40.06167863188983
 21
18.74767427362204
 31
0.0
  0
LINE
  5
BF6
330
1F
100
AcDbEntity
  8
SK2
  6
CONTINUOUS
370
25
 62
7
100
AcDbLine
 10
38.8
 20
17.91025971044414
 30
0.0
 11
39.70812524129655
 21
18.81838495174069
 31
0.0
  0
LINE
  5
BF7
330
1F
100
AcDbEntity
  8
SK2
  6
CONTINUOUS
370
25
 62
7
100
AcDbLine
 10
38.8
 20
18.33452377915606
 30
0.0
 11
39.35457185070328
 21
18.88909562985934
 31
0.0
  0
LINE
  5
BF8
330
1F
100
AcDbEntity
  8
SK2
  6
CONTINUOUS
370
25
 62
7
100
AcDbLine
 10
38.8
 20
18.75878784786799
 30
0.0
 11
39.00101846011
 21
18.959806307978
 31
0.0
  0
LINE
  5
BF9
330
1F
100
AcDbEntity
  8
SK2
  6
CONTINUOUS
370
25
 62
7
100
AcDbLine
 10
38.8
 20
17.3036579926459
 30
0.0
 11
39.05303999387158
 21
17.05061799877432
 31
0.0
  0
LINE
  5
BFA
330
1F
100
AcDbEntity
  8
SK2
  6
CONTINUOUS
370
25
 62
7
100
AcDbLine
 10
38.8
 20
17.72792206135782
 30
0.0
 11
39.40659338446485
 21
17.12132867689297
 31
0.0
  0
LINE
  5
BFB
330
1F
100
AcDbEntity
  8
SK2
  6
CONTINUOUS
370
25
 62
7
100
AcDbLine
 10
38.8
 20
18.15218613006975
 30
0.0
 11
39.76014677505813
 21
17.19203935501162
 31
0.0
  0
LINE
  5
BFC
330
1F
100
AcDbEntity
  8
SK2
  6
CONTINUOUS
370
25
 62
7
100
AcDbLine
 10
38.8
 20
18.57645019878168
 30
0.0
 11
40.11370016565139
 21
17.26275003313028
 31
0.0
  0
LINE
  5
BFD
330
1F
100
AcDbEntity
  8
SK2
  6
CONTINUOUS
370
25
 62
7
100
AcDbLine
 10
38.80088033436701
 20
18.9998339331266
 30
0.0
 11
40.46725355624467
 21
17.33346071124894
 31
0.0
  0
LINE
  5
BFE
330
1F
100
AcDbEntity
  8
SK2
  6
CONTINUOUS
370
25
 62
7
100
AcDbLine
 10
39.33121042025692
 20
18.89376791594862
 30
0.0
 11
40.82080694683794
 21
17.40417138936759
 31
0.0
  0
LINE
  5
BFF
330
1F
100
AcDbEntity
  8
SK2
  6
CONTINUOUS
370
25
 62
7
100
AcDbLine
 10
39.86154050614682
 20
18.78770189877064
 30
0.0
 11
41.17436033743122
 21
17.47488206748625
 31
0.0
  0
LINE
  5
C00
330
1F
100
AcDbEntity
  8
SK2
  6
CONTINUOUS
370
25
 62
7
100
AcDbLine
 10
40.39187059203674
 20
18.68163588159265
 30
0.0
 11
41.52791372802449
 21
17.5455927456049
 31
0.0
  0
LINE
  5
C01
330
1F
100
AcDbEntity
  8
SK2
  6
CONTINUOUS
370
25
 62
7
100
AcDbLine
 10
40.92220067792665
 20
18.57556986441467
 30
0.0
 11
41.88146711861776
 21
17.61630342372355
 31
0.0
  0
LINE
  5
C02
330
1F
100
AcDbEntity
  8
SK2
  6
CONTINUOUS
370
25
 62
7
100
AcDbLine
 10
41.45253076381655
 20
18.46950384723669
 30
0.0
 11
42.23502050921104
 21
17.68701410184221
 31
0.0
  0
LINE
  5
C03
330
1F
100
AcDbEntity
  8
SK2
  6
CONTINUOUS
370
25
 62
7
100
AcDbLine
 10
41.98286084970647
 20
18.36343783005871
 30
0.0
 11
42.58857389980431
 21
17.75772477996086
 31
0.0
  0
LINE
  5
C04
330
1F
100
AcDbEntity
  8
SK2
  6
CONTINUOUS
370
25
 62
7
100
AcDbLine
 10
42.51319093559638
 20
18.25737181288072
 30
0.0
 11
42.94212729039759
 21
17.82843545807952
 31
0.0
  0
LINE
  5
C05
330
1F
100
AcDbEntity
  8
SK2
  6
CONTINUOUS
370
25
 62
7
100
AcDbLine
 10
43.04352102148629
 20
18.15130579570274
 30
0.0
 11
43.29568068099086
 21
17.89914613619817
 31
0.0
  0
LINE
  5
C06
330
1F
100
AcDbEntity
  8
SK2
  6
CONTINUOUS
370
25
 62
7
100
AcDbLine
 10
43.5738511073762
 20
18.04523977852476
 30
0.0
 11
43.64923407158413
 21
17.96985681431683
 31
0.0
  0
TEXT
  5
C07
330
1F
100
AcDbEntity
  8
SK2
  6
CONTINUOUS
370
25
 62
7
100
AcDbText
 10
16.65
 20
19.50001
 30
0.0
 40
3.5
  1
43.8
 72
     1
 11
21.9
 21
19.50001
 31
0.0
100
AcDbText
  0
LINE
  5
C08
330
1F
100
AcDbEntity
  8
2
  6
CONTINUOUS
370
25
 62
7
100
AcDbLine
 10
80.0
 20
-6.0
 30
0.0
 11
93.0
 21
-6.000000000000002
 31
0.0
  0
LINE
  5
C09
330
1F
100
AcDbEntity
  8
2
  6
CONTINUOUS
370
25
 62
7
100
AcDbLine
 10
93.0
 20
5.999999999999998
 30
0.0
 11
80.0
 21
6.0
 31
0.0
  0
LINE
  5
C0A
330
1F
100
AcDbEntity
  8
2
  6
CONTINUOUS
370
25
 62
7
100
AcDbLine
 10
92.0
 20
-13.0
 30
0.0
 11
92.0
 21
13.0
 31
0.0
  0
LINE
  5
C0B
330
1F
100
AcDbEntity
  8
2
  6
CONTINUOUS
370
25
 62
7
100
AcDbLine
 10
92.0
 20
-6.000000000000002
 30
0.0
 11
93.0
 21
-11.0
 31
0.0
  0
LINE
  5
C0C
330
1F
100
AcDbEntity
  8
2
  6
CONTINUOUS
370
25
 62
7
100
AcDbLine
 10
93.0
 20
-11.0
 30
0.0
 11
91.0
 21
-11.0
 31
0.0
  0
LINE
  5
C0D
330
1F
100
AcDbEntity
  8
2
  6
CONTINUOUS
370
25
 62
7
100
AcDbLine
 10
91.0
 20
-11.0
 30
0.0
 11
92.0
 21
-6.000000000000002
 31
0.0
  0
LINE
  5
C0E
330
1F
100
AcDbEntity
  8
2
  6
CONTINUOUS
370
25
 62
7
100
AcDbLine
 10
92.6348004287471
 20
-11.0
 30
0.0
 11
92.93913340479118
 21
-10.69566702395592
 31
0.0
  0
LINE
  5
C0F
330
1F
100
AcDbEntity
  8
2
  6
CONTINUOUS
370
25
 62
7
100
AcDbLine
 10
92.21053636003518
 20
-11.0
 30
0.0
 11
92.86842272667252
 21
-10.34211363336264
 31
0.0
  0
LINE
  5
C10
330
1F
100
AcDbEntity
  8
2
  6
CONTINUOUS
370
25
 62
7
100
AcDbLine
 10
91.78627229132323
 20
-11.0
 30
0.0
 11
92.79771204855388
 21
-9.988560242769367
 31
0.0
  0
LINE
  5
C11
330
1F
100
AcDbEntity
  8
2
  6
CONTINUOUS
370
25
 62
7
100
AcDbLine
 10
91.36200822261131
 20
-11.0
 30
0.0
 11
92.72700137043522
 21
-9.63500685217609
 31
0.0
  0
LINE
  5
C12
330
1F
100
AcDbEntity
  8
2
  6
CONTINUOUS
370
25
 62
7
100
AcDbLine
 10
91.01556396152515
 20
-10.92218019237422
 30
0.0
 11
92.65629069231656
 21
-9.28145346158282
 31
0.0
  0
LINE
  5
C13
330
1F
100
AcDbEntity
  8
2
  6
CONTINUOUS
370
25
 62
7
100
AcDbLine
 10
91.12162997870314
 20
-10.39185010648431
 30
0.0
 11
92.5855800141979
 21
-8.927900070989544
 31
0.0
  0
LINE
  5
C14
330
1F
100
AcDbEntity
  8
2
  6
CONTINUOUS
370
25
 62
7
100
AcDbLine
 10
91.22769599588112
 20
-9.86152002059439
 30
0.0
 11
92.51486933607924
 21
-8.57434668039626
 31
0.0
  0
LINE
  5
C15
330
1F
100
AcDbEntity
  8
2
  6
CONTINUOUS
370
25
 62
7
100
AcDbLine
 10
91.3337620130591
 20
-9.331189934704483
 30
0.0
 11
92.4441586579606
 21
-8.220793289802991
 31
0.0
  0
LINE
  5
C16
330
1F
100
AcDbEntity
  8
2
  6
CONTINUOUS
370
25
 62
7
100
AcDbLine
 10
91.43982803023708
 20
-8.800859848814568
 30
0.0
 11
92.37344797984194
 21
-7.867239899209707
 31
0.0
  0
LINE
  5
C17
330
1F
100
AcDbEntity
  8
2
  6
CONTINUOUS
370
25
 62
7
100
AcDbLine
 10
91.54589404741506
 20
-8.27052976292466
 30
0.0
 11
92.30273730172328
 21
-7.513686508616424
 31
0.0
  0
LINE
  5
C18
330
1F
100
AcDbEntity
  8
2
  6
CONTINUOUS
370
25
 62
7
100
AcDbLine
 10
91.65196006459306
 20
-7.740199677034738
 30
0.0
 11
92.23202662360464
 21
-7.160133118023147
 31
0.0
  0
LINE
  5
C19
330
1F
100
AcDbEntity
  8
2
  6
CONTINUOUS
370
25
 62
7
100
AcDbLine
 10
91.75802608177102
 20
-7.20986959114483
 30
0.0
 11
92.16131594548597
 21
-6.806579727429877
 31
0.0
  0
LINE
  5
C1A
330
1F
100
AcDbEntity
  8
2
  6
CONTINUOUS
370
25
 62
7
100
AcDbLine
 10
91.86409209894902
 20
-6.679539505254908
 30
0.0
 11
92.09060526736732
 21
-6.453026336836608
 31
0.0
  0
LINE
  5
C1B
330
1F
100
AcDbEntity
  8
2
  6
CONTINUOUS
370
25
 62
7
100
AcDbLine
 10
91.97015811612701
 20
-6.149209419364993
 30
0.0
 11
92.01989458924866
 21
-6.099472946243331
 31
0.0
  0
LINE
  5
C1C
330
1F
100
AcDbEntity
  8
2
  6
CONTINUOUS
370
25
 62
7
100
AcDbLine
 10
91.04778498487099
 20
-10.76107507564511
 30
0.0
 11
91.28670990922586
 21
-11.0
 31
0.0
  0
LINE
  5
C1D
330
1F
100
AcDbEntity
  8
2
  6
CONTINUOUS
370
25
 62
7
100
AcDbLine
 10
91.11849566298963
 20
-10.40752168505184
 30
0.0
 11
91.71097397793778
 21
-11.0
 31
0.0
  0
LINE
  5
C1E
330
1F
100
AcDbEntity
  8
2
  6
CONTINUOUS
370
25
 62
7
100
AcDbLine
 10
91.18920634110829
 20
-10.05396829445856
 30
0.0
 11
92.13523804664973
 21
-11.0
 31
0.0
  0
LINE
  5
C1F
330
1F
100
AcDbEntity
  8
2
  6
CONTINUOUS
370
25
 62
7
100
AcDbLine
 10
91.25991701922695
 20
-9.70041490386528
 30
0.0
 11
92.55950211536165
 21
-11.0
 31
0.0
  0
LINE
  5
C20
330
1F
100
AcDbEntity
  8
2
  6
CONTINUOUS
370
25
 62
7
100
AcDbLine
 10
91.3306276973456
 20
-9.34686151327201
 30
0.0
 11
92.9837661840736
 21
-11.0
 31
0.0
  0
LINE
  5
C21
330
1F
100
AcDbEntity
  8
2
  6
CONTINUOUS
370
25
 62
7
100
AcDbLine
 10
91.40133837546425
 20
-8.993308122678727
 30
0.0
 11
92.89799243680362
 21
-10.4899621840181
 31
0.0
  0
LINE
  5
C22
330
1F
100
AcDbEntity
  8
2
  6
CONTINUOUS
370
25
 62
7
100
AcDbLine
 10
91.47204905358291
 20
-8.639754732085443
 30
0.0
 11
92.79192641962564
 21
-9.959632098128182
 31
0.0
  0
LINE
  5
C23
330
1F
100
AcDbEntity
  8
2
  6
CONTINUOUS
370
25
 62
7
100
AcDbLine
 10
91.54275973170155
 20
-8.286201341492173
 30
0.0
 11
92.68586040244764
 21
-9.429302012238267
 31
0.0
  0
LINE
  5
C24
330
1F
100
AcDbEntity
  8
2
  6
CONTINUOUS
370
25
 62
7
100
AcDbLine
 10
91.61347040982022
 20
-7.932647950898897
 30
0.0
 11
92.57979438526966
 21
-8.898971926348338
 31
0.0
  0
LINE
  5
C25
330
1F
100
AcDbEntity
  8
2
  6
CONTINUOUS
370
25
 62
7
100
AcDbLine
 10
91.68418108793887
 20
-7.579094560305627
 30
0.0
 11
92.47372836809168
 21
-8.36864184045843
 31
0.0
  0
LINE
  5
C26
330
1F
100
AcDbEntity
  8
2
  6
CONTINUOUS
370
25
 62
7
100
AcDbLine
 10
91.75489176605753
 20
-7.225541169712344
 30
0.0
 11
92.3676623509137
 21
-7.838311754568515
 31
0.0
  0
LINE
  5
C27
330
1F
100
AcDbEntity
  8
2
  6
CONTINUOUS
370
25
 62
7
100
AcDbLine
 10
91.82560244417618
 20
-6.871987779119067
 30
0.0
 11
92.26159633373572
 21
-7.307981668678607
 31
0.0
  0
LINE
  5
C28
330
1F
100
AcDbEntity
  8
2
  6
CONTINUOUS
370
25
 62
7
100
AcDbLine
 10
91.89631312229484
 20
-6.518434388525797
 30
0.0
 11
92.15553031655773
 21
-6.777651582788693
 31
0.0
  0
LINE
  5
C29
330
1F
100
AcDbEntity
  8
2
  6
CONTINUOUS
370
25
 62
7
100
AcDbLine
 10
91.9670238004135
 20
-6.164880997932521
 30
0.0
 11
92.04946429937975
 21
-6.247321496898778
 31
0.0
  0
LINE
  5
C2A
330
1F
100
AcDbEntity
  8
2
  6
CONTINUOUS
370
25
 62
7
100
AcDbLine
 10
92.0
 20
5.999999999999998
 30
0.0
 11
91.0
 21
11.0
 31
0.0
  0
LINE
  5
C2B
330
1F
100
AcDbEntity
  8
2
  6
CONTINUOUS
370
25
 62
7
100
AcDbLine
 10
91.0
 20
11.0
 30
0.0
 11
93.0
 21
11.0
 31
0.0
  0
LINE
  5
C2C
330
1F
100
AcDbEntity
  8
2
  6
CONTINUOUS
370
25
 62
7
100
AcDbLine
 10
93.0
 20
11.0
 30
0.0
 11
92.0
 21
5.999999999999998
 31
0.0
  0
LINE
  5
C2D
330
1F
100
AcDbEntity
  8
2
  6
CONTINUOUS
370
25
 62
7
100
AcDbLine
 10
91.95947250663339
 20
6.202637466833046
 30
0.0
 11
92.06079124004992
 21
6.303956200249573
 31
0.0
  0
LINE
  5
C2E
330
1F
100
AcDbEntity
  8
2
  6
CONTINUOUS
370
25
 62
7
100
AcDbLine
 10
91.88876182851473
 20
6.556190857426309
 30
0.0
 11
92.16685725722789
 21
6.834286286139481
 31
0.0
  0
LINE
  5
C2F
330
1F
100
AcDbEntity
  8
2
  6
CONTINUOUS
370
25
 62
7
100
AcDbLine
 10
91.81805115039607
 20
6.909744248019592
 30
0.0
 11
92.27292327440588
 21
7.364616372029403
 31
0.0
  0
LINE
  5
C30
330
1F
100
AcDbEntity
  8
2
  6
CONTINUOUS
370
25
 62
7
100
AcDbLine
 10
91.74734047227741
 20
7.263297638612876
 30
0.0
 11
92.37898929158386
 21
7.894946457919318
 31
0.0
  0
LINE
  5
C31
330
1F
100
AcDbEntity
  8
2
  6
CONTINUOUS
370
25
 62
7
100
AcDbLine
 10
91.67662979415877
 20
7.616851029206146
 30
0.0
 11
92.48505530876184
 21
8.425276543809225
 31
0.0
  0
LINE
  5
C32
330
1F
100
AcDbEntity
  8
2
  6
CONTINUOUS
370
25
 62
7
100
AcDbLine
 10
91.60591911604013
 20
7.970404419799429
 30
0.0
 11
92.59112132593981
 21
8.955606629699126
 31
0.0
  0
LINE
  5
C33
330
1F
100
AcDbEntity
  8
2
  6
CONTINUOUS
370
25
 62
7
100
AcDbLine
 10
91.53520843792145
 20
8.323957810392692
 30
0.0
 11
92.6971873431178
 21
9.485936715589034
 31
0.0
  0
LINE
  5
C34
330
1F
100
AcDbEntity
  8
2
  6
CONTINUOUS
370
25
 62
7
100
AcDbLine
 10
91.46449775980281
 20
8.677511200985975
 30
0.0
 11
92.80325336029578
 21
10.01626680147896
 31
0.0
  0
LINE
  5
C35
330
1F
100
AcDbEntity
  8
2
  6
CONTINUOUS
370
25
 62
7
100
AcDbLine
 10
91.39378708168415
 20
9.031064591579252
 30
0.0
 11
92.90931937747376
 21
10.54659688736886
 31
0.0
  0
LINE
  5
C36
330
1F
100
AcDbEntity
  8
2
  6
CONTINUOUS
370
25
 62
7
100
AcDbLine
 10
91.3230764035655
 20
9.384617982172529
 30
0.0
 11
92.93845842139297
 21
11.0
 31
0.0
  0
LINE
  5
C37
330
1F
100
AcDbEntity
  8
2
  6
CONTINUOUS
370
25
 62
7
100
AcDbLine
 10
91.25236572544685
 20
9.738171372765805
 30
0.0
 11
92.51419435268105
 21
11.0
 31
0.0
  0
LINE
  5
C38
330
1F
100
AcDbEntity
  8
2
  6
CONTINUOUS
370
25
 62
7
100
AcDbLine
 10
91.18165504732818
 20
10.09172476335907
 30
0.0
 11
92.0899302839691
 21
11.0
 31
0.0
  0
LINE
  5
C39
330
1F
100
AcDbEntity
  8
2
  6
CONTINUOUS
370
25
 62
7
100
AcDbLine
 10
91.11094436920953
 20
10.44527815395235
 30
0.0
 11
91.66566621525718
 21
11.0
 31
0.0
  0
LINE
  5
C3A
330
1F
100
AcDbEntity
  8
2
  6
CONTINUOUS
370
25
 62
7
100
AcDbLine
 10
91.04023369109088
 20
10.79883154454564
 30
0.0
 11
91.24140214654524
 21
11.0
 31
0.0
  0
LINE
  5
C3B
330
1F
100
AcDbEntity
  8
2
  6
CONTINUOUS
370
25
 62
7
100
AcDbLine
 10
91.97354980121828
 20
6.132250993908563
 30
0.0
 11
92.01763346585446
 21
6.08816732927238
 31
0.0
  0
LINE
  5
C3C
330
1F
100
AcDbEntity
  8
2
  6
CONTINUOUS
370
25
 62
7
100
AcDbLine
 10
91.8674837840403
 20
6.662581079798464
 30
0.0
 11
92.08834414397313
 21
6.441720719865643
 31
0.0
  0
LINE
  5
C3D
330
1F
100
AcDbEntity
  8
2
  6
CONTINUOUS
370
25
 62
7
100
AcDbLine
 10
91.76141776686232
 20
7.192911165688372
 30
0.0
 11
92.15905482209178
 21
6.795274110458919
 31
0.0
  0
LINE
  5
C3E
330
1F
100
AcDbEntity
  8
2
  6
CONTINUOUS
370
25
 62
7
100
AcDbLine
 10
91.65535174968434
 20
7.723241251578294
 30
0.0
 11
92.22976550021045
 21
7.148827501052189
 31
0.0
  0
LINE
  5
C3F
330
1F
100
AcDbEntity
  8
2
  6
CONTINUOUS
370
25
 62
7
100
AcDbLine
 10
91.54928573250635
 20
8.253571337468216
 30
0.0
 11
92.30047617832909
 21
7.50238089164548
 31
0.0
  0
LINE
  5
C40
330
1F
100
AcDbEntity
  8
2
  6
CONTINUOUS
370
25
 62
7
100
AcDbLine
 10
91.44321971532838
 20
8.783901423358117
 30
0.0
 11
92.37118685644774
 21
7.855934282238749
 31
0.0
  0
LINE
  5
C41
330
1F
100
AcDbEntity
  8
2
  6
CONTINUOUS
370
25
 62
7
100
AcDbLine
 10
91.33715369815039
 20
9.314231509248032
 30
0.0
 11
92.44189753456641
 21
8.209487672832026
 31
0.0
  0
LINE
  5
C42
330
1F
100
AcDbEntity
  8
2
  6
CONTINUOUS
370
25
 62
7
100
AcDbLine
 10
91.23108768097241
 20
9.844561595137947
 30
0.0
 11
92.51260821268505
 21
8.563041063425302
 31
0.0
  0
LINE
  5
C43
330
1F
100
AcDbEntity
  8
2
  6
CONTINUOUS
370
25
 62
7
100
AcDbLine
 10
91.12502166379443
 20
10.37489168102786
 30
0.0
 11
92.58331889080372
 21
8.916594454018572
 31
0.0
  0
LINE
  5
C44
330
1F
100
AcDbEntity
  8
2
  6
CONTINUOUS
370
25
 62
7
100
AcDbLine
 10
91.01895564661643
 20
10.90522176691777
 30
0.0
 11
92.65402956892237
 21
9.270147844611849
 31
0.0
  0
LINE
  5
C45
330
1F
100
AcDbEntity
  8
2
  6
CONTINUOUS
370
25
 62
7
100
AcDbLine
 10
91.34844148224614
 20
11.0
 30
0.0
 11
92.72474024704103
 21
9.623701235205118
 31
0.0
  0
LINE
  5
C46
330
1F
100
AcDbEntity
  8
2
  6
CONTINUOUS
370
25
 62
7
100
AcDbLine
 10
91.77270555095808
 20
11.0
 30
0.0
 11
92.79545092515968
 21
9.977254625798395
 31
0.0
  0
LINE
  5
C47
330
1F
100
AcDbEntity
  8
2
  6
CONTINUOUS
370
25
 62
7
100
AcDbLine
 10
92.19696961967
 20
11.0
 30
0.0
 11
92.86616160327833
 21
10.33080801639168
 31
0.0
  0
LINE
  5
C48
330
1F
100
AcDbEntity
  8
2
  6
CONTINUOUS
370
25
 62
7
100
AcDbLine
 10
92.62123368838195
 20
11.0
 30
0.0
 11
92.93687228139699
 21
10.68436140698496
 31
0.0
  0
TEXT
  5
C49
330
1F
100
AcDbEntity
  8
2
  6
CONTINUOUS
370
25
 62
7
100
AcDbText
 10
90.5
 20
-0.0583333333333336
 30
0.0
 40
3.5
  1
12
 50
90.0
 72
     1
 11
90.5
 21
2.275
 31
0.0
100
AcDbText
  0
CIRCLE
  5
C4A
330
1F
100
AcDbEntity
  8
2
  6
CONTINUOUS
370
25
 62
7
100
AcDbCircle
 10
88.75
 20
-2.625
 30
0.0
 40
1.4
  0
LINE
  5
C4B
330
1F
100
AcDbEntity
  8
2
  6
CONTINUOUS
370
25
 62
7
100
AcDbLine
 10
90.15
 20
-4.024999999999999
 30
0.0
 11
87.35
 21
-1.224999999999999
 31
0.0
  0
LINE
  5
C4C
330
1F
100
AcDbEntity
  8
2
  6
CONTINUOUS
370
25
 62
7
100
AcDbLine
 10
56.0
 20
-5.74995
 30
0.0
 11
53.0
 21
-5.74995
 31
0.0
  0
LINE
  5
C4D
330
1F
100
AcDbEntity
  8
2
  6
CONTINUOUS
370
25
 62
7
100
AcDbLine
 10
53.0
 20
5.74995
 30
0.0
 11
56.0
 21
5.74995
 31
0.0
  0
LINE
  5
C4E
330
1F
100
AcDbEntity
  8
2
  6
CONTINUOUS
370
25
 62
7
100
AcDbLine
 10
54.0
 20
-12.74995
 30
0.0
 11
54.0
 21
28.14995
 31
0.0
  0
LINE
  5
C4F
330
1F
100
AcDbEntity
  8
2
  6
CONTINUOUS
370
25
 62
7
100
AcDbLine
 10
54.0
 20
-5.74995
 30
0.0
 11
55.0
 21
-10.74995
 31
0.0
  0
LINE
  5
C50
330
1F
100
AcDbEntity
  8
2
  6
CONTINUOUS
370
25
 62
7
100
AcDbLine
 10
55.0
 20
-10.74995
 30
0.0
 11
53.0
 21
-10.74995
 31
0.0
  0
LINE
  5
C51
330
1F
100
AcDbEntity
  8
2
  6
CONTINUOUS
370
25
 62
7
100
AcDbLine
 10
53.0
 20
-10.74995
 30
0.0
 11
54.0
 21
-5.74995
 31
0.0
  0
LINE
  5
C52
330
1F
100
AcDbEntity
  8
2
  6
CONTINUOUS
370
25
 62
7
100
AcDbLine
 10
54.99278068153254
 20
-10.74995
 30
0.0
 11
54.99879678025542
 21
-10.74393390127712
 31
0.0
  0
LINE
  5
C53
330
1F
100
AcDbEntity
  8
2
  6
CONTINUOUS
370
25
 62
7
100
AcDbLine
 10
54.56851661282061
 20
-10.74995
 30
0.0
 11
54.92808610213677
 21
-10.39038051068385
 31
0.0
  0
LINE
  5
C54
330
1F
100
AcDbEntity
  8
2
  6
CONTINUOUS
370
25
 62
7
100
AcDbLine
 10
54.14425254410868
 20
-10.74995
 30
0.0
 11
54.85737542401811
 21
-10.03682712009057
 31
0.0
  0
LINE
  5
C55
330
1F
100
AcDbEntity
  8
2
  6
CONTINUOUS
370
25
 62
7
100
AcDbLine
 10
53.71998847539675
 20
-10.74995
 30
0.0
 11
54.78666474589946
 21
-9.683273729497298
 31
0.0
  0
LINE
  5
C56
330
1F
100
AcDbEntity
  8
2
  6
CONTINUOUS
370
25
 62
7
100
AcDbLine
 10
53.29572440668483
 20
-10.74995
 30
0.0
 11
54.7159540677808
 21
-9.329720338904027
 31
0.0
  0
LINE
  5
C57
330
1F
100
AcDbEntity
  8
2
  6
CONTINUOUS
370
25
 62
7
100
AcDbLine
 10
53.03213491550677
 20
-10.58927542246613
 30
0.0
 11
54.64524338966215
 21
-8.976166948310754
 31
0.0
  0
LINE
  5
C58
330
1F
100
AcDbEntity
  8
2
  6
CONTINUOUS
370
25
 62
7
100
AcDbLine
 10
53.13820093268475
 20
-10.05894533657622
 30
0.0
 11
54.57453271154349
 21
-8.62261355771748
 31
0.0
  0
LINE
  5
C59
330
1F
100
AcDbEntity
  8
2
  6
CONTINUOUS
370
25
 62
7
100
AcDbLine
 10
53.24426694986273
 20
-9.528615250686308
 30
0.0
 11
54.50382203342484
 21
-8.269060167124204
 31
0.0
  0
LINE
  5
C5A
330
1F
100
AcDbEntity
  8
2
  6
CONTINUOUS
370
25
 62
7
100
AcDbLine
 10
53.35033296704071
 20
-8.998285164796398
 30
0.0
 11
54.43311135530618
 21
-7.915506776530933
 31
0.0
  0
LINE
  5
C5B
330
1F
100
AcDbEntity
  8
2
  6
CONTINUOUS
370
25
 62
7
100
AcDbLine
 10
53.4563989842187
 20
-8.467955078906488
 30
0.0
 11
54.36240067718753
 21
-7.56195338593766
 31
0.0
  0
LINE
  5
C5C
330
1F
100
AcDbEntity
  8
2
  6
CONTINUOUS
370
25
 62
7
100
AcDbLine
 10
53.56246500139668
 20
-7.937624993016577
 30
0.0
 11
54.29168999906887
 21
-7.208399995344385
 31
0.0
  0
LINE
  5
C5D
330
1F
100
AcDbEntity
  8
2
  6
CONTINUOUS
370
25
 62
7
100
AcDbLine
 10
53.66853101857466
 20
-7.407294907126667
 30
0.0
 11
54.22097932095022
 21
-6.854846604751112
 31
0.0
  0
LINE
  5
C5E
330
1F
100
AcDbEntity
  8
2
  6
CONTINUOUS
370
25
 62
7
100
AcDbLine
 10
53.77459703575265
 20
-6.876964821236758
 30
0.0
 11
54.15026864283156
 21
-6.501293214157839
 31
0.0
  0
LINE
  5
C5F
330
1F
100
AcDbEntity
  8
2
  6
CONTINUOUS
370
25
 62
7
100
AcDbLine
 10
53.88066305293063
 20
-6.346634735346848
 30
0.0
 11
54.07955796471291
 21
-6.147739823564565
 31
0.0
  0
LINE
  5
C60
330
1F
100
AcDbEntity
  8
2
  6
CONTINUOUS
370
25
 62
7
100
AcDbLine
 10
53.98672907010861
 20
-5.816304649456939
 30
0.0
 11
54.00884728659425
 21
-5.794186432971292
 31
0.0
  0
LINE
  5
C61
330
1F
100
AcDbEntity
  8
2
  6
CONTINUOUS
370
25
 62
7
100
AcDbLine
 10
53.00709067004914
 20
-10.71449664975428
 30
0.0
 11
53.04254402029486
 21
-10.74995
 31
0.0
  0
LINE
  5
C62
330
1F
100
AcDbEntity
  8
2
  6
CONTINUOUS
370
25
 62
7
100
AcDbLine
 10
53.0778013481678
 20
-10.360943259161
 30
0.0
 11
53.46680808900679
 21
-10.74995
 31
0.0
  0
LINE
  5
C63
330
1F
100
AcDbEntity
  8
2
  6
CONTINUOUS
370
25
 62
7
100
AcDbLine
 10
53.14851202628645
 20
-10.00738986856773
 30
0.0
 11
53.89107215771872
 21
-10.74995
 31
0.0
  0
LINE
  5
C64
330
1F
100
AcDbEntity
  8
2
  6
CONTINUOUS
370
25
 62
7
100
AcDbLine
 10
53.21922270440511
 20
-9.653836477974458
 30
0.0
 11
54.31533622643065
 21
-10.74995
 31
0.0
  0
LINE
  5
C65
330
1F
100
AcDbEntity
  8
2
  6
CONTINUOUS
370
25
 62
7
100
AcDbLine
 10
53.28993338252376
 20
-9.300283087381183
 30
0.0
 11
54.73960029514257
 21
-10.74995
 31
0.0
  0
LINE
  5
C66
330
1F
100
AcDbEntity
  8
2
  6
CONTINUOUS
370
25
 62
7
100
AcDbLine
 10
53.36064406064241
 20
-8.946729696787912
 30
0.0
 11
54.95903390903637
 21
-10.54511954518187
 31
0.0
  0
LINE
  5
C67
330
1F
100
AcDbEntity
  8
2
  6
CONTINUOUS
370
25
 62
7
100
AcDbLine
 10
53.43135473876107
 20
-8.593176306194637
 30
0.0
 11
54.85296789185839
 21
-10.01478945929196
 31
0.0
  0
LINE
  5
C68
330
1F
100
AcDbEntity
  8
2
  6
CONTINUOUS
370
25
 62
7
100
AcDbLine
 10
53.50206541687972
 20
-8.239622915601364
 30
0.0
 11
54.7469018746804
 21
-9.484459373402048
 31
0.0
  0
LINE
  5
C69
330
1F
100
AcDbEntity
  8
2
  6
CONTINUOUS
370
25
 62
7
100
AcDbLine
 10
53.57277609499837
 20
-7.886069525008091
 30
0.0
 11
54.64083585750242
 21
-8.954129287512139
 31
0.0
  0
LINE
  5
C6A
330
1F
100
AcDbEntity
  8
2
  6
CONTINUOUS
370
25
 62
7
100
AcDbLine
 10
53.64348677311703
 20
-7.532516134414818
 30
0.0
 11
54.53476984032444
 21
-8.423799201622229
 31
0.0
  0
LINE
  5
C6B
330
1F
100
AcDbEntity
  8
2
  6
CONTINUOUS
370
25
 62
7
100
AcDbLine
 10
53.71419745123569
 20
-7.178962743821545
 30
0.0
 11
54.42870382314646
 21
-7.893469115732319
 31
0.0
  0
LINE
  5
C6C
330
1F
100
AcDbEntity
  8
2
  6
CONTINUOUS
370
25
 62
7
100
AcDbLine
 10
53.78490812935434
 20
-6.825409353228272
 30
0.0
 11
54.32263780596848
 21
-7.36313902984241
 31
0.0
  0
LINE
  5
C6D
330
1F
100
AcDbEntity
  8
2
  6
CONTINUOUS
370
25
 62
7
100
AcDbLine
 10
53.85561880747299
 20
-6.471855962634998
 30
0.0
 11
54.2165717887905
 21
-6.832808943952499
 31
0.0
  0
LINE
  5
C6E
330
1F
100
AcDbEntity
  8
2
  6
CONTINUOUS
370
25
 62
7
100
AcDbLine
 10
53.92632948559165
 20
-6.118302572041724
 30
0.0
 11
54.11050577161252
 21
-6.302478858062589
 31
0.0
  0
LINE
  5
C6F
330
1F
100
AcDbEntity
  8
2
  6
CONTINUOUS
370
25
 62
7
100
AcDbLine
 10
53.99704016371031
 20
-5.764749181448453
 30
0.0
 11
54.00443975443453
 21
-5.772148772172677
 31
0.0
  0
LINE
  5
C70
330
1F
100
AcDbEntity
  8
2
  6
CONTINUOUS
370
25
 62
7
100
AcDbLine
 10
54.0
 20
5.74995
 30
0.0
 11
53.0
 21
10.74995
 31
0.0
  0
LINE
  5
C71
330
1F
100
AcDbEntity
  8
2
  6
CONTINUOUS
370
25
 62
7
100
AcDbLine
 10
53.0
 20
10.74995
 30
0.0
 11
55.0
 21
10.74995
 31
0.0
  0
LINE
  5
C72
330
1F
100
AcDbEntity
  8
2
  6
CONTINUOUS
370
25
 62
7
100
AcDbLine
 10
55.0
 20
10.74995
 30
0.0
 11
54.0
 21
5.74995
 31
0.0
  0
LINE
  5
C73
330
1F
100
AcDbEntity
  8
2
  6
CONTINUOUS
370
25
 62
7
100
AcDbLine
 10
53.96106452586032
 20
5.944627370698371
 30
0.0
 11
54.05840321120951
 21
6.041966056047561
 31
0.0
  0
LINE
  5
C74
330
1F
100
AcDbEntity
  8
2
  6
CONTINUOUS
370
25
 62
7
100
AcDbLine
 10
53.89035384774166
 20
6.298180761291643
 30
0.0
 11
54.16446922838749
 21
6.572296141937469
 31
0.0
  0
LINE
  5
C75
330
1F
100
AcDbEntity
  8
2
  6
CONTINUOUS
370
25
 62
7
100
AcDbLine
 10
53.81964316962301
 20
6.651734151884916
 30
0.0
 11
54.27053524556548
 21
7.102626227827379
 31
0.0
  0
LINE
  5
C76
330
1F
100
AcDbEntity
  8
2
  6
CONTINUOUS
370
25
 62
7
100
AcDbLine
 10
53.74893249150436
 20
7.00528754247819
 30
0.0
 11
54.37660126274346
 21
7.632956313717289
 31
0.0
  0
LINE
  5
C77
330
1F
100
AcDbEntity
  8
2
  6
CONTINUOUS
370
25
 62
7
100
AcDbLine
 10
53.6782218133857
 20
7.358840933071465
 30
0.0
 11
54.48266727992144
 21
8.163286399607198
 31
0.0
  0
LINE
  5
C78
330
1F
100
AcDbEntity
  8
2
  6
CONTINUOUS
370
25
 62
7
100
AcDbLine
 10
53.60751113526705
 20
7.712394323664739
 30
0.0
 11
54.58873329709942
 21
8.693616485497108
 31
0.0
  0
LINE
  5
C79
330
1F
100
AcDbEntity
  8
2
  6
CONTINUOUS
370
25
 62
7
100
AcDbLine
 10
53.5368004571484
 20
8.065947714258012
 30
0.0
 11
54.6947993142774
 21
9.223946571387017
 31
0.0
  0
LINE
  5
C7A
330
1F
100
AcDbEntity
  8
2
  6
CONTINUOUS
370
25
 62
7
100
AcDbLine
 10
53.46608977902974
 20
8.419501104851285
 30
0.0
 11
54.80086533145538
 21
9.754276657276927
 31
0.0
  0
LINE
  5
C7B
330
1F
100
AcDbEntity
  8
2
  6
CONTINUOUS
370
25
 62
7
100
AcDbLine
 10
53.39537910091109
 20
8.773054495444558
 30
0.0
 11
54.90693134863336
 21
10.28460674316684
 31
0.0
  0
LINE
  5
C7C
330
1F
100
AcDbEntity
  8
2
  6
CONTINUOUS
370
25
 62
7
100
AcDbLine
 10
53.32466842279243
 20
9.126607886037831
 30
0.0
 11
54.9480105367546
 21
10.74995
 31
0.0
  0
LINE
  5
C7D
330
1F
100
AcDbEntity
  8
2
  6
CONTINUOUS
370
25
 62
7
100
AcDbLine
 10
53.25395774467378
 20
9.480161276631105
 30
0.0
 11
54.52374646804267
 21
10.74995
 31
0.0
  0
LINE
  5
C7E
330
1F
100
AcDbEntity
  8
2
  6
CONTINUOUS
370
25
 62
7
100
AcDbLine
 10
53.18324706655513
 20
9.833714667224378
 30
0.0
 11
54.09948239933075
 21
10.74995
 31
0.0
  0
LINE
  5
C7F
330
1F
100
AcDbEntity
  8
2
  6
CONTINUOUS
370
25
 62
7
100
AcDbLine
 10
53.11253638843647
 20
10.18726805781765
 30
0.0
 11
53.67521833061882
 21
10.74995
 31
0.0
  0
LINE
  5
C80
330
1F
100
AcDbEntity
  8
2
  6
CONTINUOUS
370
25
 62
7
100
AcDbLine
 10
53.04182571031781
 20
10.54082144841092
 30
0.0
 11
53.25095426190689
 21
10.74995
 31
0.0
  0
LINE
  5
C81
330
1F
100
AcDbEntity
  8
2
  6
CONTINUOUS
370
25
 62
7
100
AcDbLine
 10
53.95697884723668
 20
5.965055763816608
 30
0.0
 11
54.02868076850888
 21
5.893353842544405
 31
0.0
  0
LINE
  5
C82
330
1F
100
AcDbEntity
  8
2
  6
CONTINUOUS
370
25
 62
7
100
AcDbLine
 10
53.85091283005869
 20
6.495385849706519
 30
0.0
 11
54.09939144662754
 21
6.246907233137676
 31
0.0
  0
LINE
  5
C83
330
1F
100
AcDbEntity
  8
2
  6
CONTINUOUS
370
25
 62
7
100
AcDbLine
 10
53.74484681288071
 20
7.025715935596425
 30
0.0
 11
54.17010212474619
 21
6.600460623730951
 31
0.0
  0
LINE
  5
C84
330
1F
100
AcDbEntity
  8
2
  6
CONTINUOUS
370
25
 62
7
100
AcDbLine
 10
53.63878079570273
 20
7.556046021486337
 30
0.0
 11
54.24081280286484
 21
6.954014014324223
 31
0.0
  0
LINE
  5
C85
330
1F
100
AcDbEntity
  8
2
  6
CONTINUOUS
370
25
 62
7
100
AcDbLine
 10
53.53271477852475
 20
8.086376107376244
 30
0.0
 11
54.3115234809835
 21
7.307567404917497
 31
0.0
  0
LINE
  5
C86
330
1F
100
AcDbEntity
  8
2
  6
CONTINUOUS
370
25
 62
7
100
AcDbLine
 10
53.42664876134677
 20
8.616706193266152
 30
0.0
 11
54.38223415910215
 21
7.661120795510771
 31
0.0
  0
LINE
  5
C87
330
1F
100
AcDbEntity
  8
2
  6
CONTINUOUS
370
25
 62
7
100
AcDbLine
 10
53.32058274416879
 20
9.147036279156062
 30
0.0
 11
54.45294483722081
 21
8.014674186104044
 31
0.0
  0
LINE
  5
C88
330
1F
100
AcDbEntity
  8
2
  6
CONTINUOUS
370
25
 62
7
100
AcDbLine
 10
53.2145167269908
 20
9.67736636504597
 30
0.0
 11
54.52365551533946
 21
8.368227576697317
 31
0.0
  0
LINE
  5
C89
330
1F
100
AcDbEntity
  8
2
  6
CONTINUOUS
370
25
 62
7
100
AcDbLine
 10
53.10845070981282
 20
10.20769645093588
 30
0.0
 11
54.59436619345811
 21
8.72178096729059
 31
0.0
  0
LINE
  5
C8A
330
1F
100
AcDbEntity
  8
2
  6
CONTINUOUS
370
25
 62
7
100
AcDbLine
 10
53.00238469263484
 20
10.73802653682579
 30
0.0
 11
54.66507687157677
 21
9.075334357883863
 31
0.0
  0
LINE
  5
C8B
330
1F
100
AcDbEntity
  8
2
  6
CONTINUOUS
370
25
 62
7
100
AcDbLine
 10
53.41472529817256
 20
10.74995
 30
0.0
 11
54.73578754969542
 21
9.428887748477138
 31
0.0
  0
LINE
  5
C8C
330
1F
100
AcDbEntity
  8
2
  6
CONTINUOUS
370
25
 62
7
100
AcDbLine
 10
53.83898936688448
 20
10.74995
 30
0.0
 11
54.80649822781407
 21
9.782441139070409
 31
0.0
  0
LINE
  5
C8D
330
1F
100
AcDbEntity
  8
2
  6
CONTINUOUS
370
25
 62
7
100
AcDbLine
 10
54.26325343559641
 20
10.74995
 30
0.0
 11
54.87720890593273
 21
10.13599452966368
 31
0.0
  0
LINE
  5
C8E
330
1F
100
AcDbEntity
  8
2
  6
CONTINUOUS
370
25
 62
7
100
AcDbLine
 10
54.68751750430834
 20
10.74995
 30
0.0
 11
54.94791958405139
 21
10.48954792025695
 31
0.0
  0
TEXT
  5
C8F
330
1F
100
AcDbEntity
  8
2
  6
CONTINUOUS
370
25
 62
7
100
AcDbText
 10
52.5
 20
17.64161666666666
 30
0.0
 40
3.5
  1
11.5
 50
90.00000000000001
 72
     1
 11
52.5
 21
21.72495
 31
0.0
100
AcDbText
  0
CIRCLE
  5
C90
330
1F
100
AcDbEntity
  8
2
  6
CONTINUOUS
370
25
 62
7
100
AcDbCircle
 10
50.75
 20
13.67495
 30
0.0
 40
1.4
  0
LINE
  5
C91
330
1F
100
AcDbEntity
  8
2
  6
CONTINUOUS
370
25
 62
7
100
AcDbLine
 10
52.15
 20
12.27495
 30
0.0
 11
49.34999999999999
 21
15.07495
 31
0.0
  0
LINE
  5
C92
330
1F
100
AcDbEntity
  8
2
  6
CONTINUOUS
370
25
 62
7
100
AcDbLine
 10
56.0
 20
-6.0
 30
0.0
 11
56.0
 21
-19.0
 31
0.0
  0
LINE
  5
C93
330
1F
100
AcDbEntity
  8
2
  6
CONTINUOUS
370
25
 62
7
100
AcDbLine
 10
80.0
 20
-19.0
 30
0.0
 11
80.0
 21
-6.0
 31
0.0
  0
LINE
  5
C94
330
1F
100
AcDbEntity
  8
2
  6
CONTINUOUS
370
25
 62
7
100
AcDbLine
 10
56.0
 20
-18.0
 30
0.0
 11
80.0
 21
-18.0
 31
0.0
  0
LINE
  5
C95
330
1F
100
AcDbEntity
  8
2
  6
CONTINUOUS
370
25
 62
7
100
AcDbLine
 10
56.0
 20
-18.0
 30
0.0
 11
61.0
 21
-17.0
 31
0.0
  0
LINE
  5
C96
330
1F
100
AcDbEntity
  8
2
  6
CONTINUOUS
370
25
 62
7
100
AcDbLine
 10
61.0
 20
-17.0
 30
0.0
 11
61.0
 21
-19.0
 31
0.0
  0
LINE
  5
C97
330
1F
100
AcDbEntity
  8
2
  6
CONTINUOUS
370
25
 62
7
100
AcDbLine
 10
61.0
 20
-19.0
 30
0.0
 11
56.0
 21
-18.0
 31
0.0
  0
LINE
  5
C98
330
1F
100
AcDbEntity
  8
2
  6
CONTINUOUS
370
25
 62
7
100
AcDbLine
 10
60.84821028777247
 20
-18.9696420575545
 30
0.0
 11
61.0
 21
-18.81785234532698
 31
0.0
  0
LINE
  5
C99
330
1F
100
AcDbEntity
  8
2
  6
CONTINUOUS
370
25
 62
7
100
AcDbLine
 10
60.4946568971792
 20
-18.89893137943584
 30
0.0
 11
61.0
 21
-18.39358827661505
 31
0.0
  0
LINE
  5
C9A
330
1F
100
AcDbEntity
  8
2
  6
CONTINUOUS
370
25
 62
7
100
AcDbLine
 10
60.14110350658594
 20
-18.82822070131719
 30
0.0
 11
61.0
 21
-17.96932420790312
 31
0.0
  0
LINE
  5
C9B
330
1F
100
AcDbEntity
  8
2
  6
CONTINUOUS
370
25
 62
7
100
AcDbLine
 10
59.78755011599266
 20
-18.75751002319853
 30
0.0
 11
61.0
 21
-17.5450601391912
 31
0.0
  0
LINE
  5
C9C
330
1F
100
AcDbEntity
  8
2
  6
CONTINUOUS
370
25
 62
7
100
AcDbLine
 10
59.43399672539938
 20
-18.68679934507988
 30
0.0
 11
61.0
 21
-17.12079607047927
 31
0.0
  0
LINE
  5
C9D
330
1F
100
AcDbEntity
  8
2
  6
CONTINUOUS
370
25
 62
7
100
AcDbLine
 10
59.08044333480611
 20
-18.61608866696123
 30
0.0
 11
60.62066500220917
 21
-17.07586699955817
 31
0.0
  0
LINE
  5
C9E
330
1F
100
AcDbEntity
  8
2
  6
CONTINUOUS
370
25
 62
7
100
AcDbLine
 10
58.72688994421284
 20
-18.54537798884257
 30
0.0
 11
60.09033491631926
 21
-17.18193301673615
 31
0.0
  0
LINE
  5
C9F
330
1F
100
AcDbEntity
  8
2
  6
CONTINUOUS
370
25
 62
7
100
AcDbLine
 10
58.37333655361957
 20
-18.47466731072392
 30
0.0
 11
59.56000483042935
 21
-17.28799903391413
 31
0.0
  0
LINE
  5
CA0
330
1F
100
AcDbEntity
  8
2
  6
CONTINUOUS
370
25
 62
7
100
AcDbLine
 10
58.01978316302629
 20
-18.40395663260526
 30
0.0
 11
59.02967474453944
 21
-17.39406505109211
 31
0.0
  0
LINE
  5
CA1
330
1F
100
AcDbEntity
  8
2
  6
CONTINUOUS
370
25
 62
7
100
AcDbLine
 10
57.66622977243302
 20
-18.33324595448661
 30
0.0
 11
58.49934465864953
 21
-17.50013106827009
 31
0.0
  0
LINE
  5
CA2
330
1F
100
AcDbEntity
  8
2
  6
CONTINUOUS
370
25
 62
7
100
AcDbLine
 10
57.31267638183975
 20
-18.26253527636795
 30
0.0
 11
57.96901457275962
 21
-17.60619708544808
 31
0.0
  0
LINE
  5
CA3
330
1F
100
AcDbEntity
  8
2
  6
CONTINUOUS
370
25
 62
7
100
AcDbLine
 10
56.95912299124647
 20
-18.1918245982493
 30
0.0
 11
57.43868448686971
 21
-17.71226310262606
 31
0.0
  0
LINE
  5
CA4
330
1F
100
AcDbEntity
  8
2
  6
CONTINUOUS
370
25
 62
7
100
AcDbLine
 10
56.6055696006532
 20
-18.12111392013064
 30
0.0
 11
56.9083544009798
 21
-17.81832911980404
 31
0.0
  0
LINE
  5
CA5
330
1F
100
AcDbEntity
  8
2
  6
CONTINUOUS
370
25
 62
7
100
AcDbLine
 10
56.25201621005993
 20
-18.05040324201199
 30
0.0
 11
56.3780243150899
 21
-17.92439513698202
 31
0.0
  0
LINE
  5
CA6
330
1F
100
AcDbEntity
  8
2
  6
CONTINUOUS
370
25
 62
7
100
AcDbLine
 10
56.1303792091448
 20
-17.97392415817104
 30
0.0
 11
56.1955688137172
 21
-18.03911376274344
 31
0.0
  0
LINE
  5
CA7
330
1F
100
AcDbEntity
  8
2
  6
CONTINUOUS
370
25
 62
7
100
AcDbLine
 10
56.48393259973808
 20
-17.90321348005239
 30
0.0
 11
56.72589889960711
 21
-18.14517977992142
 31
0.0
  0
LINE
  5
CA8
330
1F
100
AcDbEntity
  8
2
  6
CONTINUOUS
370
25
 62
7
100
AcDbLine
 10
56.83748599033134
 20
-17.83250280193373
 30
0.0
 11
57.25622898549702
 21
-18.2512457970994
 31
0.0
  0
LINE
  5
CA9
330
1F
100
AcDbEntity
  8
2
  6
CONTINUOUS
370
25
 62
7
100
AcDbLine
 10
57.19103938092462
 20
-17.76179212381508
 30
0.0
 11
57.78655907138693
 21
-18.35731181427739
 31
0.0
  0
LINE
  5
CAA
330
1F
100
AcDbEntity
  8
2
  6
CONTINUOUS
370
25
 62
7
100
AcDbLine
 10
57.5445927715179
 20
-17.69108144569642
 30
0.0
 11
58.31688915727684
 21
-18.46337783145537
 31
0.0
  0
LINE
  5
CAB
330
1F
100
AcDbEntity
  8
2
  6
CONTINUOUS
370
25
 62
7
100
AcDbLine
 10
57.89814616211117
 20
-17.62037076757777
 30
0.0
 11
58.84721924316676
 21
-18.56944384863335
 31
0.0
  0
LINE
  5
CAC
330
1F
100
AcDbEntity
  8
2
  6
CONTINUOUS
370
25
 62
7
100
AcDbLine
 10
58.25169955270444
 20
-17.54966008945912
 30
0.0
 11
59.37754932905666
 21
-18.67550986581133
 31
0.0
  0
LINE
  5
CAD
330
1F
100
AcDbEntity
  8
2
  6
CONTINUOUS
370
25
 62
7
100
AcDbLine
 10
58.60525294329771
 20
-17.47894941134046
 30
0.0
 11
59.90787941494657
 21
-18.78157588298932
 31
0.0
  0
LINE
  5
CAE
330
1F
100
AcDbEntity
  8
2
  6
CONTINUOUS
370
25
 62
7
100
AcDbLine
 10
58.95880633389099
 20
-17.40823873322181
 30
0.0
 11
60.43820950083648
 21
-18.8876419001673
 31
0.0
  0
LINE
  5
CAF
330
1F
100
AcDbEntity
  8
2
  6
CONTINUOUS
370
25
 62
7
100
AcDbLine
 10
59.31235972448426
 20
-17.33752805510315
 30
0.0
 11
60.96853958672639
 21
-18.99370791734528
 31
0.0
  0
LINE
  5
CB0
330
1F
100
AcDbEntity
  8
2
  6
CONTINUOUS
370
25
 62
7
100
AcDbLine
 10
59.66591311507754
 20
-17.2668173769845
 30
0.0
 11
61.0
 21
-18.60090426190695
 31
0.0
  0
LINE
  5
CB1
330
1F
100
AcDbEntity
  8
2
  6
CONTINUOUS
370
25
 62
7
100
AcDbLine
 10
60.01946650567081
 20
-17.19610669886584
 30
0.0
 11
61.0
 21
-18.17664019319503
 31
0.0
  0
LINE
  5
CB2
330
1F
100
AcDbEntity
  8
2
  6
CONTINUOUS
370
25
 62
7
100
AcDbLine
 10
60.37301989626408
 20
-17.12539602074719
 30
0.0
 11
61.0
 21
-17.7523761244831
 31
0.0
  0
LINE
  5
CB3
330
1F
100
AcDbEntity
  8
2
  6
CONTINUOUS
370
25
 62
7
100
AcDbLine
 10
60.72657328685735
 20
-17.05468534262853
 30
0.0
 11
61.0
 21
-17.32811205577118
 31
0.0
  0
LINE
  5
CB4
330
1F
100
AcDbEntity
  8
2
  6
CONTINUOUS
370
25
 62
7
100
AcDbLine
 10
80.0
 20
-18.0
 30
0.0
 11
75.0
 21
-19.0
 31
0.0
  0
LINE
  5
CB5
330
1F
100
AcDbEntity
  8
2
  6
CONTINUOUS
370
25
 62
7
100
AcDbLine
 10
75.0
 20
-19.0
 30
0.0
 11
75.0
 21
-17.0
 31
0.0
  0
LINE
  5
CB6
330
1F
100
AcDbEntity
  8
2
  6
CONTINUOUS
370
25
 62
7
100
AcDbLine
 10
75.0
 20
-17.0
 30
0.0
 11
80.0
 21
-18.0
 31
0.0
  0
LINE
  5
CB7
330
1F
100
AcDbEntity
  8
2
  6
CONTINUOUS
370
25
 62
7
100
AcDbLine
 10
79.8468013948329
 20
-18.03063972103342
 30
0.0
 11
79.89786759655527
 21
-17.97957351931105
 31
0.0
  0
LINE
  5
CB8
330
1F
100
AcDbEntity
  8
2
  6
CONTINUOUS
370
25
 62
7
100
AcDbLine
 10
79.31647130894298
 20
-18.13670573821141
 30
0.0
 11
79.544314205962
 21
-17.90886284119239
 31
0.0
  0
LINE
  5
CB9
330
1F
100
AcDbEntity
  8
2
  6
CONTINUOUS
370
25
 62
7
100
AcDbLine
 10
78.78614122305308
 20
-18.24277175538939
 30
0.0
 11
79.19076081536872
 21
-17.83815216307374
 31
0.0
  0
LINE
  5
CBA
330
1F
100
AcDbEntity
  8
2
  6
CONTINUOUS
370
25
 62
7
100
AcDbLine
 10
78.25581113716316
 20
-18.34883777256737
 30
0.0
 11
78.83720742477544
 21
-17.76744148495509
 31
0.0
  0
LINE
  5
CBB
330
1F
100
AcDbEntity
  8
2
  6
CONTINUOUS
370
25
 62
7
100
AcDbLine
 10
77.72548105127325
 20
-18.45490378974535
 30
0.0
 11
78.48365403418217
 21
-17.69673080683643
 31
0.0
  0
LINE
  5
CBC
330
1F
100
AcDbEntity
  8
2
  6
CONTINUOUS
370
25
 62
7
100
AcDbLine
 10
77.19515096538333
 20
-18.56096980692333
 30
0.0
 11
78.13010064358889
 21
-17.62602012871778
 31
0.0
  0
LINE
  5
CBD
330
1F
100
AcDbEntity
  8
2
  6
CONTINUOUS
370
25
 62
7
100
AcDbLine
 10
76.66482087949343
 20
-18.66703582410131
 30
0.0
 11
77.77654725299561
 21
-17.55530945059913
 31
0.0
  0
LINE
  5
CBE
330
1F
100
AcDbEntity
  8
2
  6
CONTINUOUS
370
25
 62
7
100
AcDbLine
 10
76.13449079360352
 20
-18.7731018412793
 30
0.0
 11
77.42299386240234
 21
-17.48459877248047
 31
0.0
  0
LINE
  5
CBF
330
1F
100
AcDbEntity
  8
2
  6
CONTINUOUS
370
25
 62
7
100
AcDbLine
 10
75.60416070771362
 20
-18.87916785845728
 30
0.0
 11
77.06944047180907
 21
-17.41388809436181
 31
0.0
  0
LINE
  5
CC0
330
1F
100
AcDbEntity
  8
2
  6
CONTINUOUS
370
25
 62
7
100
AcDbLine
 10
75.0738306218237
 20
-18.98523387563526
 30
0.0
 11
76.7158870812158
 21
-17.34317741624315
 31
0.0
  0
LINE
  5
CC1
330
1F
100
AcDbEntity
  8
2
  6
CONTINUOUS
370
25
 62
7
100
AcDbLine
 10
75.0
 20
-18.63480042874704
 30
0.0
 11
76.36233369062253
 21
-17.27246673812451
 31
0.0
  0
LINE
  5
CC2
330
1F
100
AcDbEntity
  8
2
  6
CONTINUOUS
370
25
 62
7
100
AcDbLine
 10
75.0
 20
-18.2105363600351
 30
0.0
 11
76.00878030002926
 21
-17.20175606000585
 31
0.0
  0
LINE
  5
CC3
330
1F
100
AcDbEntity
  8
2
  6
CONTINUOUS
370
25
 62
7
100
AcDbLine
 10
75.0
 20
-17.78627229132318
 30
0.0
 11
75.65522690943598
 21
-17.13104538188719
 31
0.0
  0
LINE
  5
CC4
330
1F
100
AcDbEntity
  8
2
  6
CONTINUOUS
370
25
 62
7
100
AcDbLine
 10
75.0
 20
-17.36200822261124
 30
0.0
 11
75.3016735188427
 21
-17.06033470376854
 31
0.0
  0
LINE
  5
CC5
330
1F
100
AcDbEntity
  8
2
  6
CONTINUOUS
370
25
 62
7
100
AcDbLine
 10
75.0
 20
-18.89634200735408
 30
0.0
 11
75.08638166053827
 21
-18.98272366789234
 31
0.0
  0
LINE
  5
CC6
330
1F
100
AcDbEntity
  8
2
  6
CONTINUOUS
370
25
 62
7
100
AcDbLine
 10
75.0
 20
-18.47207793864215
 30
0.0
 11
75.43993505113154
 21
-18.91201298977369
 31
0.0
  0
LINE
  5
CC7
330
1F
100
AcDbEntity
  8
2
  6
CONTINUOUS
370
25
 62
7
100
AcDbLine
 10
75.0
 20
-18.04781386993022
 30
0.0
 11
75.79348844172482
 21
-18.84130231165504
 31
0.0
  0
LINE
  5
CC8
330
1F
100
AcDbEntity
  8
2
  6
CONTINUOUS
370
25
 62
7
100
AcDbLine
 10
75.0
 20
-17.6235498012183
 30
0.0
 11
76.14704183231808
 21
-18.77059163353638
 31
0.0
  0
LINE
  5
CC9
330
1F
100
AcDbEntity
  8
2
  6
CONTINUOUS
370
25
 62
7
100
AcDbLine
 10
75.0
 20
-17.19928573250636
 30
0.0
 11
76.50059522291136
 21
-18.69988095541772
 31
0.0
  0
LINE
  5
CCA
330
1F
100
AcDbEntity
  8
2
  6
CONTINUOUS
370
25
 62
7
100
AcDbLine
 10
75.28122292025697
 20
-17.0562445840514
 30
0.0
 11
76.85414861350463
 21
-18.62917027729907
 31
0.0
  0
LINE
  5
CCB
330
1F
100
AcDbEntity
  8
2
  6
CONTINUOUS
370
25
 62
7
100
AcDbLine
 10
75.81155300614687
 20
-17.16231060122937
 30
0.0
 11
77.20770200409791
 21
-18.55845959918042
 31
0.0
  0
LINE
  5
CCC
330
1F
100
AcDbEntity
  8
2
  6
CONTINUOUS
370
25
 62
7
100
AcDbLine
 10
76.34188309203677
 20
-17.26837661840735
 30
0.0
 11
77.56125539469119
 21
-18.48774892106177
 31
0.0
  0
LINE
  5
CCD
330
1F
100
AcDbEntity
  8
2
  6
CONTINUOUS
370
25
 62
7
100
AcDbLine
 10
76.8722131779267
 20
-17.37444263558534
 30
0.0
 11
77.91480878528446
 21
-18.41703824294311
 31
0.0
  0
LINE
  5
CCE
330
1F
100
AcDbEntity
  8
2
  6
CONTINUOUS
370
25
 62
7
100
AcDbLine
 10
77.40254326381661
 20
-17.48050865276332
 30
0.0
 11
78.26836217587774
 21
-18.34632756482445
 31
0.0
  0
LINE
  5
CCF
330
1F
100
AcDbEntity
  8
2
  6
CONTINUOUS
370
25
 62
7
100
AcDbLine
 10
77.93287334970651
 20
-17.5865746699413
 30
0.0
 11
78.62191556647102
 21
-18.2756168867058
 31
0.0
  0
LINE
  5
CD0
330
1F
100
AcDbEntity
  8
2
  6
CONTINUOUS
370
25
 62
7
100
AcDbLine
 10
78.46320343559644
 20
-17.69264068711929
 30
0.0
 11
78.9754689570643
 21
-18.20490620858714
 31
0.0
  0
LINE
  5
CD1
330
1F
100
AcDbEntity
  8
2
  6
CONTINUOUS
370
25
 62
7
100
AcDbLine
 10
78.99353352148636
 20
-17.79870670429728
 30
0.0
 11
79.32902234765757
 21
-18.13419553046848
 31
0.0
  0
LINE
  5
CD2
330
1F
100
AcDbEntity
  8
2
  6
CONTINUOUS
370
25
 62
7
100
AcDbLine
 10
79.52386360737626
 20
-17.90477272147525
 30
0.0
 11
79.68257573825085
 21
-18.06348485234983
 31
0.0
  0
TEXT
  5
CD3
330
1F
100
AcDbEntity
  8
2
  6
CONTINUOUS
370
25
 62
7
100
AcDbText
 10
65.08333333333333
 20
-16.5
 30
0.0
 40
3.5
  1
24
 72
     1
 11
68.0
 21
-16.5
 31
0.0
100
AcDbText
  0
LINE
  5
CD4
330
1F
100
AcDbEntity
  8
2
  6
CONTINUOUS
370
25
 62
7
100
AcDbLine
 10
43.8
 20
0.0
 30
0.0
 11
43.8
 21
32.4
 31
0.0
  0
LINE
  5
CD5
330
1F
100
AcDbEntity
  8
2
  6
CONTINUOUS
370
25
 62
7
100
AcDbLine
 10
80.0
 20
32.4
 30
0.0
 11
80.0
 21
6.0
 31
0.0
  0
LINE
  5
CD6
330
1F
100
AcDbEntity
  8
2
  6
CONTINUOUS
370
25
 62
7
100
AcDbLine
 10
43.8
 20
31.4
 30
0.0
 11
80.0
 21
31.4
 31
0.0
  0
LINE
  5
CD7
330
1F
100
AcDbEntity
  8
2
  6
CONTINUOUS
370
25
 62
7
100
AcDbLine
 10
43.8
 20
31.4
 30
0.0
 11
48.8
 21
32.4
 31
0.0
  0
LINE
  5
CD8
330
1F
100
AcDbEntity
  8
2
  6
CONTINUOUS
370
25
 62
7
100
AcDbLine
 10
48.8
 20
32.4
 30
0.0
 11
48.8
 21
30.4
 31
0.0
  0
LINE
  5
CD9
330
1F
100
AcDbEntity
  8
2
  6
CONTINUOUS
370
25
 62
7
100
AcDbLine
 10
48.8
 20
30.4
 30
0.0
 11
43.8
 21
31.4
 31
0.0
  0
LINE
  5
CDA
330
1F
100
AcDbEntity
  8
2
  6
CONTINUOUS
370
25
 62
7
100
AcDbLine
 10
48.75346323107027
 20
30.40930735378594
 30
0.0
 11
48.8
 21
30.45584412271567
 31
0.0
  0
LINE
  5
CDB
330
1F
100
AcDbEntity
  8
2
  6
CONTINUOUS
370
25
 62
7
100
AcDbLine
 10
48.39990984047699
 20
30.4800180319046
 30
0.0
 11
48.8
 21
30.8801081914276
 31
0.0
  0
LINE
  5
CDC
330
1F
100
AcDbEntity
  8
2
  6
CONTINUOUS
370
25
 62
7
100
AcDbLine
 10
48.04635644988372
 20
30.55072871002325
 30
0.0
 11
48.8
 21
31.30437226013953
 31
0.0
  0
LINE
  5
CDD
330
1F
100
AcDbEntity
  8
2
  6
CONTINUOUS
370
25
 62
7
100
AcDbLine
 10
47.69280305929044
 20
30.62143938814191
 30
0.0
 11
48.8
 21
31.72863632885147
 31
0.0
  0
LINE
  5
CDE
330
1F
100
AcDbEntity
  8
2
  6
CONTINUOUS
370
25
 62
7
100
AcDbLine
 10
47.33924966869717
 20
30.69215006626056
 30
0.0
 11
48.8
 21
32.15290039756339
 31
0.0
  0
LINE
  5
CDF
330
1F
100
AcDbEntity
  8
2
  6
CONTINUOUS
370
25
 62
7
100
AcDbLine
 10
46.98569627810389
 20
30.76286074437922
 30
0.0
 11
48.57854441715584
 21
32.35570888343117
 31
0.0
  0
LINE
  5
CE0
330
1F
100
AcDbEntity
  8
2
  6
CONTINUOUS
370
25
 62
7
100
AcDbLine
 10
46.63214288751062
 20
30.83357142249788
 30
0.0
 11
48.04821433126592
 21
32.24964286625318
 31
0.0
  0
LINE
  5
CE1
330
1F
100
AcDbEntity
  8
2
  6
CONTINUOUS
370
25
 62
7
100
AcDbLine
 10
46.27858949691735
 20
30.90428210061653
 30
0.0
 11
47.51788424537602
 21
32.1435768490752
 31
0.0
  0
LINE
  5
CE2
330
1F
100
AcDbEntity
  8
2
  6
CONTINUOUS
370
25
 62
7
100
AcDbLine
 10
45.92503610632407
 20
30.97499277873519
 30
0.0
 11
46.9875541594861
 21
32.03751083189722
 31
0.0
  0
LINE
  5
CE3
330
1F
100
AcDbEntity
  8
2
  6
CONTINUOUS
370
25
 62
7
100
AcDbLine
 10
45.5714827157308
 20
31.04570345685384
 30
0.0
 11
46.45722407359619
 21
31.93144481471924
 31
0.0
  0
LINE
  5
CE4
330
1F
100
AcDbEntity
  8
2
  6
CONTINUOUS
370
25
 62
7
100
AcDbLine
 10
45.21792932513753
 20
31.11641413497249
 30
0.0
 11
45.92689398770629
 21
31.82537879754125
 31
0.0
  0
LINE
  5
CE5
330
1F
100
AcDbEntity
  8
2
  6
CONTINUOUS
370
25
 62
7
100
AcDbLine
 10
44.86437593454425
 20
31.18712481309115
 30
0.0
 11
45.39656390181637
 21
31.71931278036327
 31
0.0
  0
LINE
  5
CE6
330
1F
100
AcDbEntity
  8
2
  6
CONTINUOUS
370
25
 62
7
100
AcDbLine
 10
44.51082254395098
 20
31.2578354912098
 30
0.0
 11
44.86623381592646
 21
31.61324676318529
 31
0.0
  0
LINE
  5
CE7
330
1F
100
AcDbEntity
  8
2
  6
CONTINUOUS
370
25
 62
7
100
AcDbLine
 10
44.1572691533577
 20
31.32854616932846
 30
0.0
 11
44.33590373003656
 21
31.50718074600731
 31
0.0
  0
LINE
  5
CE8
330
1F
100
AcDbEntity
  8
2
  6
CONTINUOUS
370
25
 62
7
100
AcDbLine
 10
43.80371576276443
 20
31.39925684744711
 30
0.0
 11
43.80557364414665
 21
31.40111472882933
 31
0.0
  0
LINE
  5
CE9
330
1F
100
AcDbEntity
  8
2
  6
CONTINUOUS
370
25
 62
7
100
AcDbLine
 10
44.14983762782884
 20
31.46996752556577
 30
0.0
 11
44.32475644174325
 21
31.29504871165135
 31
0.0
  0
LINE
  5
CEA
330
1F
100
AcDbEntity
  8
2
  6
CONTINUOUS
370
25
 62
7
100
AcDbLine
 10
44.50339101842211
 20
31.54067820368442
 30
0.0
 11
44.85508652763317
 21
31.18898269447336
 31
0.0
  0
LINE
  5
CEB
330
1F
100
AcDbEntity
  8
2
  6
CONTINUOUS
370
25
 62
7
100
AcDbLine
 10
44.85694440901538
 20
31.61138888180308
 30
0.0
 11
45.38541661352308
 21
31.08291667729538
 31
0.0
  0
LINE
  5
CEC
330
1F
100
AcDbEntity
  8
2
  6
CONTINUOUS
370
25
 62
7
100
AcDbLine
 10
45.21049779960866
 20
31.68209955992173
 30
0.0
 11
45.91574669941299
 21
30.9768506601174
 31
0.0
  0
LINE
  5
CED
330
1F
100
AcDbEntity
  8
2
  6
CONTINUOUS
370
25
 62
7
100
AcDbLine
 10
45.56405119020194
 20
31.75281023804039
 30
0.0
 11
46.44607678530291
 21
30.87078464293942
 31
0.0
  0
LINE
  5
CEE
330
1F
100
AcDbEntity
  8
2
  6
CONTINUOUS
370
25
 62
7
100
AcDbLine
 10
45.91760458079521
 20
31.82352091615904
 30
0.0
 11
46.97640687119281
 21
30.76471862576144
 31
0.0
  0
LINE
  5
CEF
330
1F
100
AcDbEntity
  8
2
  6
CONTINUOUS
370
25
 62
7
100
AcDbLine
 10
46.27115797138849
 20
31.8942315942777
 30
0.0
 11
47.50673695708273
 21
30.65865260858345
 31
0.0
  0
LINE
  5
CF0
330
1F
100
AcDbEntity
  8
2
  6
CONTINUOUS
370
25
 62
7
100
AcDbLine
 10
46.62471136198176
 20
31.96494227239635
 30
0.0
 11
48.03706704297263
 21
30.55258659140547
 31
0.0
  0
LINE
  5
CF1
330
1F
100
AcDbEntity
  8
2
  6
CONTINUOUS
370
25
 62
7
100
AcDbLine
 10
46.97826475257504
 20
32.03565295051501
 30
0.0
 11
48.56739712886255
 21
30.44652057422749
 31
0.0
  0
LINE
  5
CF2
330
1F
100
AcDbEntity
  8
2
  6
CONTINUOUS
370
25
 62
7
100
AcDbLine
 10
47.33181814316831
 20
32.10636362863366
 30
0.0
 11
48.8
 21
30.63818177180196
 31
0.0
  0
LINE
  5
CF3
330
1F
100
AcDbEntity
  8
2
  6
CONTINUOUS
370
25
 62
7
100
AcDbLine
 10
47.68537153376158
 20
32.17707430675232
 30
0.0
 11
48.8
 21
31.0624458405139
 31
0.0
  0
LINE
  5
CF4
330
1F
100
AcDbEntity
  8
2
  6
CONTINUOUS
370
25
 62
7
100
AcDbLine
 10
48.03892492435486
 20
32.24778498487097
 30
0.0
 11
48.8
 21
31.48670990922583
 31
0.0
  0
LINE
  5
CF5
330
1F
100
AcDbEntity
  8
2
  6
CONTINUOUS
370
25
 62
7
100
AcDbLine
 10
48.39247831494813
 20
32.31849566298963
 30
0.0
 11
48.8
 21
31.91097397793775
 31
0.0
  0
LINE
  5
CF6
330
1F
100
AcDbEntity
  8
2
  6
CONTINUOUS
370
25
 62
7
100
AcDbLine
 10
48.74603170554141
 20
32.38920634110828
 30
0.0
 11
48.8
 21
32.33523804664969
 31
0.0
  0
LINE
  5
CF7
330
1F
100
AcDbEntity
  8
2
  6
CONTINUOUS
370
25
 62
7
100
AcDbLine
 10
80.0
 20
31.4
 30
0.0
 11
75.0
 21
30.4
 31
0.0
  0
LINE
  5
CF8
330
1F
100
AcDbEntity
  8
2
  6
CONTINUOUS
370
25
 62
7
100
AcDbLine
 10
75.0
 20
30.4
 30
0.0
 11
75.0
 21
32.4
 31
0.0
  0
LINE
  5
CF9
330
1F
100
AcDbEntity
  8
2
  6
CONTINUOUS
370
25
 62
7
100
AcDbLine
 10
75.0
 20
32.4
 30
0.0
 11
80.0
 21
31.4
 31
0.0
  0
LINE
  5
CFA
330
1F
100
AcDbEntity
  8
2
  6
CONTINUOUS
370
25
 62
7
100
AcDbLine
 10
79.61509135806253
 20
31.3230182716125
 30
0.0
 11
79.74339423870836
 21
31.45132115225833
 31
0.0
  0
LINE
  5
CFB
330
1F
100
AcDbEntity
  8
2
  6
CONTINUOUS
370
25
 62
7
100
AcDbLine
 10
79.08476127217261
 20
31.21695225443452
 30
0.0
 11
79.38984084811509
 21
31.52203183037699
 31
0.0
  0
LINE
  5
CFC
330
1F
100
AcDbEntity
  8
2
  6
CONTINUOUS
370
25
 62
7
100
AcDbLine
 10
78.5544311862827
 20
31.11088623725653
 30
0.0
 11
79.03628745752181
 21
31.59274250849564
 31
0.0
  0
LINE
  5
CFD
330
1F
100
AcDbEntity
  8
2
  6
CONTINUOUS
370
25
 62
7
100
AcDbLine
 10
78.02410110039278
 20
31.00482022007855
 30
0.0
 11
78.68273406692853
 21
31.66345318661429
 31
0.0
  0
LINE
  5
CFE
330
1F
100
AcDbEntity
  8
2
  6
CONTINUOUS
370
25
 62
7
100
AcDbLine
 10
77.49377101450288
 20
30.89875420290058
 30
0.0
 11
78.32918067633526
 21
31.73416386473296
 31
0.0
  0
LINE
  5
CFF
330
1F
100
AcDbEntity
  8
2
  6
CONTINUOUS
370
25
 62
7
100
AcDbLine
 10
76.96344092861297
 20
30.79268818572259
 30
0.0
 11
77.97562728574198
 21
31.8048745428516
 31
0.0
  0
LINE
  5
D00
330
1F
100
AcDbEntity
  8
2
  6
CONTINUOUS
370
25
 62
7
100
AcDbLine
 10
76.43311084272305
 20
30.68662216854461
 30
0.0
 11
77.6220738951487
 21
31.87558522097025
 31
0.0
  0
LINE
  5
D01
330
1F
100
AcDbEntity
  8
2
  6
CONTINUOUS
370
25
 62
7
100
AcDbLine
 10
75.90278075683315
 20
30.58055615136662
 30
0.0
 11
77.26852050455543
 21
31.94629589908892
 31
0.0
  0
LINE
  5
D02
330
1F
100
AcDbEntity
  8
2
  6
CONTINUOUS
370
25
 62
7
100
AcDbLine
 10
75.37245067094324
 20
30.47449013418865
 30
0.0
 11
76.91496711396215
 21
32.01700657720757
 31
0.0
  0
LINE
  5
D03
330
1F
100
AcDbEntity
  8
2
  6
CONTINUOUS
370
25
 62
7
100
AcDbLine
 10
75.0
 20
30.52630353195734
 30
0.0
 11
76.56141372336887
 21
32.08771725532623
 31
0.0
  0
LINE
  5
D04
330
1F
100
AcDbEntity
  8
2
  6
CONTINUOUS
370
25
 62
7
100
AcDbLine
 10
75.0
 20
30.95056760066926
 30
0.0
 11
76.2078603327756
 21
32.15842793344488
 31
0.0
  0
LINE
  5
D05
330
1F
100
AcDbEntity
  8
2
  6
CONTINUOUS
370
25
 62
7
100
AcDbLine
 10
75.0
 20
31.3748316693812
 30
0.0
 11
75.85430694218232
 21
32.22913861156353
 31
0.0
  0
LINE
  5
D06
330
1F
100
AcDbEntity
  8
2
  6
CONTINUOUS
370
25
 62
7
100
AcDbLine
 10
75.0
 20
31.79909573809313
 30
0.0
 11
75.50075355158906
 21
32.29984928968219
 31
0.0
  0
LINE
  5
D07
330
1F
100
AcDbEntity
  8
2
  6
CONTINUOUS
370
25
 62
7
100
AcDbLine
 10
75.0
 20
32.22335980680506
 30
0.0
 11
75.14720016099578
 21
32.37055996780084
 31
0.0
  0
LINE
  5
D08
330
1F
100
AcDbEntity
  8
2
  6
CONTINUOUS
370
25
 62
7
100
AcDbLine
 10
75.0
 20
30.74255403194157
 30
0.0
 11
75.28546169328465
 21
30.45709233865693
 31
0.0
  0
LINE
  5
D09
330
1F
100
AcDbEntity
  8
2
  6
CONTINUOUS
370
25
 62
7
100
AcDbLine
 10
75.0
 20
31.16681810065351
 30
0.0
 11
75.63901508387792
 21
30.52780301677558
 31
0.0
  0
LINE
  5
D0A
330
1F
100
AcDbEntity
  8
2
  6
CONTINUOUS
370
25
 62
7
100
AcDbLine
 10
75.0
 20
31.59108216936544
 30
0.0
 11
75.9925684744712
 21
30.59851369489424
 31
0.0
  0
LINE
  5
D0B
330
1F
100
AcDbEntity
  8
2
  6
CONTINUOUS
370
25
 62
7
100
AcDbLine
 10
75.0
 20
32.01534623807737
 30
0.0
 11
76.34612186506448
 21
30.66922437301289
 31
0.0
  0
LINE
  5
D0C
330
1F
100
AcDbEntity
  8
2
  6
CONTINUOUS
370
25
 62
7
100
AcDbLine
 10
75.04951288348661
 20
32.39009742330268
 30
0.0
 11
76.69967525565775
 21
30.73993505113155
 31
0.0
  0
LINE
  5
D0D
330
1F
100
AcDbEntity
  8
2
  6
CONTINUOUS
370
25
 62
7
100
AcDbLine
 10
75.57984296937654
 20
32.2840314061247
 30
0.0
 11
77.05322864625103
 21
30.8106457292502
 31
0.0
  0
LINE
  5
D0E
330
1F
100
AcDbEntity
  8
2
  6
CONTINUOUS
370
25
 62
7
100
AcDbLine
 10
76.11017305526646
 20
32.17796538894671
 30
0.0
 11
77.4067820368443
 21
30.88135640736886
 31
0.0
  0
LINE
  5
D0F
330
1F
100
AcDbEntity
  8
2
  6
CONTINUOUS
370
25
 62
7
100
AcDbLine
 10
76.64050314115636
 20
32.07189937176873
 30
0.0
 11
77.76033542743758
 21
30.95206708548751
 31
0.0
  0
LINE
  5
D10
330
1F
100
AcDbEntity
  8
2
  6
CONTINUOUS
370
25
 62
7
100
AcDbLine
 10
77.17083322704627
 20
31.96583335459074
 30
0.0
 11
78.11388881803086
 21
31.02277776360617
 31
0.0
  0
LINE
  5
D11
330
1F
100
AcDbEntity
  8
2
  6
CONTINUOUS
370
25
 62
7
100
AcDbLine
 10
77.7011633129362
 20
31.85976733741276
 30
0.0
 11
78.46744220862413
 21
31.09348844172482
 31
0.0
  0
LINE
  5
D12
330
1F
100
AcDbEntity
  8
2
  6
CONTINUOUS
370
25
 62
7
100
AcDbLine
 10
78.2314933988261
 20
31.75370132023478
 30
0.0
 11
78.82099559921741
 21
31.16419911984348
 31
0.0
  0
LINE
  5
D13
330
1F
100
AcDbEntity
  8
2
  6
CONTINUOUS
370
25
 62
7
100
AcDbLine
 10
78.76182348471602
 20
31.6476353030568
 30
0.0
 11
79.17454898981069
 21
31.23490979796213
 31
0.0
  0
LINE
  5
D14
330
1F
100
AcDbEntity
  8
2
  6
CONTINUOUS
370
25
 62
7
100
AcDbLine
 10
79.29215357060593
 20
31.54156928587881
 30
0.0
 11
79.52810238040396
 21
31.30562047608079
 31
0.0
  0
LINE
  5
D15
330
1F
100
AcDbEntity
  8
2
  6
CONTINUOUS
370
25
 62
7
100
AcDbLine
 10
79.82248365649586
 20
31.43550326870083
 30
0.0
 11
79.88165577099724
 21
31.37633115419945
 31
0.0
  0
TEXT
  5
D16
330
1F
100
AcDbEntity
  8
2
  6
CONTINUOUS
370
25
 62
7
100
AcDbText
 10
56.65
 20
32.9
 30
0.0
 40
3.5
  1
36.2
 72
     1
 11
61.9
 21
32.9
 31
0.0
100
AcDbText
  0
LINE
  5
D17
330
1F
100
AcDbEntity
  8
SK2
  6
CONTINUOUS
370
25
 62
7
100
AcDbLine
 10
0.0
 20
4.0
 30
0.0
 11
0.0
 21
42.4
 31
0.0
  0
LINE
  5
D18
330
1F
100
AcDbEntity
  8
SK2
  6
CONTINUOUS
370
25
 62
7
100
AcDbLine
 10
80.0
 20
42.4
 30
0.0
 11
80.0
 21
6.0
 31
0.0
  0
LINE
  5
D19
330
1F
100
AcDbEntity
  8
SK2
  6
CONTINUOUS
370
25
 62
7
100
AcDbLine
 10
0.0
 20
41.4
 30
0.0
 11
80.0
 21
41.4
 31
0.0
  0
LINE
  5
D1A
330
1F
100
AcDbEntity
  8
SK2
  6
CONTINUOUS
370
25
 62
7
100
AcDbLine
 10
0.0
 20
41.4
 30
0.0
 11
5.0
 21
42.4
 31
0.0
  0
LINE
  5
D1B
330
1F
100
AcDbEntity
  8
SK2
  6
CONTINUOUS
370
25
 62
7
100
AcDbLine
 10
5.0
 20
42.4
 30
0.0
 11
5.0
 21
40.4
 31
0.0
  0
LINE
  5
D1C
330
1F
100
AcDbEntity
  8
SK2
  6
CONTINUOUS
370
25
 62
7
100
AcDbLine
 10
5.0
 20
40.4
 30
0.0
 11
0.0
 21
41.4
 31
0.0
  0
LINE
  5
D1D
330
1F
100
AcDbEntity
  8
SK2
  6
CONTINUOUS
370
25
 62
7
100
AcDbLine
 10
4.885515959057805
 20
40.42289680818843
 30
0.0
 11
5.0
 21
40.53738084913063
 31
0.0
  0
LINE
  5
D1E
330
1F
100
AcDbEntity
  8
SK2
  6
CONTINUOUS
370
25
 62
7
100
AcDbLine
 10
4.531962568464515
 20
40.49360748630709
 30
0.0
 11
5.0
 21
40.96164491784258
 31
0.0
  0
LINE
  5
D1F
330
1F
100
AcDbEntity
  8
SK2
  6
CONTINUOUS
370
25
 62
7
100
AcDbLine
 10
4.178409177871252
 20
40.56431816442575
 30
0.0
 11
5.0
 21
41.3859089865545
 31
0.0
  0
LINE
  5
D20
330
1F
100
AcDbEntity
  8
SK2
  6
CONTINUOUS
370
25
 62
7
100
AcDbLine
 10
3.824855787277961
 20
40.63502884254441
 30
0.0
 11
5.0
 21
41.81017305526645
 31
0.0
  0
LINE
  5
D21
330
1F
100
AcDbEntity
  8
SK2
  6
CONTINUOUS
370
25
 62
7
100
AcDbLine
 10
3.471302396684692
 20
40.70573952066306
 30
0.0
 11
5.0
 21
42.23443712397837
 31
0.0
  0
LINE
  5
D22
330
1F
100
AcDbEntity
  8
SK2
  6
CONTINUOUS
370
25
 62
7
100
AcDbLine
 10
3.117749006091401
 20
40.77645019878172
 30
0.0
 11
4.676623509137102
 21
42.33532470182742
 31
0.0
  0
LINE
  5
D23
330
1F
100
AcDbEntity
  8
SK2
  6
CONTINUOUS
370
25
 62
7
100
AcDbLine
 10
2.764195615498132
 20
40.84716087690037
 30
0.0
 11
4.146293423247201
 21
42.22925868464944
 31
0.0
  0
LINE
  5
D24
330
1F
100
AcDbEntity
  8
SK2
  6
CONTINUOUS
370
25
 62
7
100
AcDbLine
 10
2.410642224904841
 20
40.91787155501903
 30
0.0
 11
3.615963337357265
 21
42.12319266747145
 31
0.0
  0
LINE
  5
D25
330
1F
100
AcDbEntity
  8
SK2
  6
CONTINUOUS
370
25
 62
7
100
AcDbLine
 10
2.057088834311578
 20
40.98858223313768
 30
0.0
 11
3.085633251467364
 21
42.01712665029347
 31
0.0
  0
LINE
  5
D26
330
1F
100
AcDbEntity
  8
SK2
  6
CONTINUOUS
370
25
 62
7
100
AcDbLine
 10
1.703535443718287
 20
41.05929291125634
 30
0.0
 11
2.555303165577428
 21
41.91106063311548
 31
0.0
  0
LINE
  5
D27
330
1F
100
AcDbEntity
  8
SK2
  6
CONTINUOUS
370
25
 62
7
100
AcDbLine
 10
1.349982053125018
 20
41.13000358937499
 30
0.0
 11
2.024973079687527
 21
41.8049946159375
 31
0.0
  0
LINE
  5
D28
330
1F
100
AcDbEntity
  8
SK2
  6
CONTINUOUS
370
25
 62
7
100
AcDbLine
 10
0.9964286625317271
 20
41.20071426749365
 30
0.0
 11
1.494642993797591
 21
41.69892859875952
 31
0.0
  0
LINE
  5
D29
330
1F
100
AcDbEntity
  8
SK2
  6
CONTINUOUS
370
25
 62
7
100
AcDbLine
 10
0.6428752719384576
 20
41.2714249456123
 30
0.0
 11
0.96431290790769
 21
41.59286258158154
 31
0.0
  0
LINE
  5
D2A
330
1F
100
AcDbEntity
  8
SK2
  6
CONTINUOUS
370
25
 62
7
100
AcDbLine
 10
0.2893218813451668
 20
41.34213562373096
 30
0.0
 11
0.4339828220177537
 21
41.48679656440355
 31
0.0
  0
LINE
  5
D2B
330
1F
100
AcDbEntity
  8
SK2
  6
CONTINUOUS
370
25
 62
7
100
AcDbLine
 10
0.1352854177320211
 20
41.4270570835464
 30
0.0
 11
0.2029281265980316
 21
41.35941437468039
 31
0.0
  0
LINE
  5
D2C
330
1F
100
AcDbEntity
  8
SK2
  6
CONTINUOUS
370
25
 62
7
100
AcDbLine
 10
0.4888388083253048
 20
41.49776776166506
 30
0.0
 11
0.7332582124879536
 21
41.25334835750241
 31
0.0
  0
LINE
  5
D2D
330
1F
100
AcDbEntity
  8
SK2
  6
CONTINUOUS
370
25
 62
7
100
AcDbLine
 10
0.8423921989185814
 20
41.56847843978372
 30
0.0
 11
1.263588298377876
 21
41.14728234032442
 31
0.0
  0
LINE
  5
D2E
330
1F
100
AcDbEntity
  8
SK2
  6
CONTINUOUS
370
25
 62
7
100
AcDbLine
 10
1.195945589511858
 20
41.63918911790238
 30
0.0
 11
1.793918384267791
 21
41.04121632314644
 31
0.0
  0
LINE
  5
D2F
330
1F
100
AcDbEntity
  8
SK2
  6
CONTINUOUS
370
25
 62
7
100
AcDbLine
 10
1.549498980105142
 20
41.70989979602103
 30
0.0
 11
2.324248470157713
 21
40.93515030596846
 31
0.0
  0
LINE
  5
D30
330
1F
100
AcDbEntity
  8
SK2
  6
CONTINUOUS
370
25
 62
7
100
AcDbLine
 10
1.903052370698418
 20
41.78061047413969
 30
0.0
 11
2.854578556047635
 21
40.82908428879047
 31
0.0
  0
LINE
  5
D31
330
1F
100
AcDbEntity
  8
SK2
  6
CONTINUOUS
370
25
 62
7
100
AcDbLine
 10
2.256605761291702
 20
41.85132115225834
 30
0.0
 11
3.38490864193755
 21
40.72301827161249
 31
0.0
  0
LINE
  5
D32
330
1F
100
AcDbEntity
  8
SK2
  6
CONTINUOUS
370
25
 62
7
100
AcDbLine
 10
2.610159151884979
 20
41.92203183037699
 30
0.0
 11
3.915238727827472
 21
40.6169522544345
 31
0.0
  0
LINE
  5
D33
330
1F
100
AcDbEntity
  8
SK2
  6
CONTINUOUS
370
25
 62
7
100
AcDbLine
 10
2.963712542478255
 20
41.99274250849565
 30
0.0
 11
4.445568813717394
 21
40.51088623725651
 31
0.0
  0
LINE
  5
D34
330
1F
100
AcDbEntity
  8
SK2
  6
CONTINUOUS
370
25
 62
7
100
AcDbLine
 10
3.317265933071539
 20
42.0634531866143
 30
0.0
 11
4.975898899607309
 21
40.40482022007854
 31
0.0
  0
LINE
  5
D35
330
1F
100
AcDbEntity
  8
SK2
  6
CONTINUOUS
370
25
 62
7
100
AcDbLine
 10
3.670819323664816
 20
42.13416386473296
 30
0.0
 11
5.0
 21
40.80498318839778
 31
0.0
  0
LINE
  5
D36
330
1F
100
AcDbEntity
  8
SK2
  6
CONTINUOUS
370
25
 62
7
100
AcDbLine
 10
4.024372714258099
 20
42.20487454285161
 30
0.0
 11
5.0
 21
41.22924725710972
 31
0.0
  0
LINE
  5
D37
330
1F
100
AcDbEntity
  8
SK2
  6
CONTINUOUS
370
25
 62
7
100
AcDbLine
 10
4.377926104851376
 20
42.27558522097027
 30
0.0
 11
5.0
 21
41.65351132582165
 31
0.0
  0
LINE
  5
D38
330
1F
100
AcDbEntity
  8
SK2
  6
CONTINUOUS
370
25
 62
7
100
AcDbLine
 10
4.731479495444653
 20
42.34629589908893
 30
0.0
 11
5.0
 21
42.07777539453359
 31
0.0
  0
LINE
  5
D39
330
1F
100
AcDbEntity
  8
SK2
  6
CONTINUOUS
370
25
 62
7
100
AcDbLine
 10
80.0
 20
41.4
 30
0.0
 11
75.0
 21
40.4
 31
0.0
  0
LINE
  5
D3A
330
1F
100
AcDbEntity
  8
SK2
  6
CONTINUOUS
370
25
 62
7
100
AcDbLine
 10
75.0
 20
40.4
 30
0.0
 11
75.0
 21
42.4
 31
0.0
  0
LINE
  5
D3B
330
1F
100
AcDbEntity
  8
SK2
  6
CONTINUOUS
370
25
 62
7
100
AcDbLine
 10
75.0
 20
42.4
 30
0.0
 11
80.0
 21
41.4
 31
0.0
  0
LINE
  5
D3C
330
1F
100
AcDbEntity
  8
SK2
  6
CONTINUOUS
370
25
 62
7
100
AcDbLine
 10
79.60570888343113
 20
41.32114177668622
 30
0.0
 11
79.73713925562075
 21
41.45257214887584
 31
0.0
  0
LINE
  5
D3D
330
1F
100
AcDbEntity
  8
SK2
  6
CONTINUOUS
370
25
 62
7
100
AcDbLine
 10
79.0753787975412
 20
41.21507575950824
 30
0.0
 11
79.38358586502747
 21
41.5232828269945
 31
0.0
  0
LINE
  5
D3E
330
1F
100
AcDbEntity
  8
SK2
  6
CONTINUOUS
370
25
 62
7
100
AcDbLine
 10
78.54504871165129
 20
41.10900974233025
 30
0.0
 11
79.0300324744342
 21
41.59399350511316
 31
0.0
  0
LINE
  5
D3F
330
1F
100
AcDbEntity
  8
SK2
  6
CONTINUOUS
370
25
 62
7
100
AcDbLine
 10
78.01471862576138
 20
41.00294372515226
 30
0.0
 11
78.67647908384092
 21
41.66470418323181
 31
0.0
  0
LINE
  5
D40
330
1F
100
AcDbEntity
  8
SK2
  6
CONTINUOUS
370
25
 62
7
100
AcDbLine
 10
77.48438853987146
 20
40.89687770797428
 30
0.0
 11
78.32292569324764
 21
41.73541486135048
 31
0.0
  0
LINE
  5
D41
330
1F
100
AcDbEntity
  8
SK2
  6
CONTINUOUS
370
25
 62
7
100
AcDbLine
 10
76.95405845398156
 20
40.79081169079631
 30
0.0
 11
77.96937230265436
 21
41.80612553946913
 31
0.0
  0
LINE
  5
D42
330
1F
100
AcDbEntity
  8
SK2
  6
CONTINUOUS
370
25
 62
7
100
AcDbLine
 10
76.42372836809163
 20
40.68474567361832
 30
0.0
 11
77.61581891206109
 21
41.87683621758778
 31
0.0
  0
LINE
  5
D43
330
1F
100
AcDbEntity
  8
SK2
  6
CONTINUOUS
370
25
 62
7
100
AcDbLine
 10
75.89339828220172
 20
40.57867965644034
 30
0.0
 11
77.26226552146781
 21
41.94754689570644
 31
0.0
  0
LINE
  5
D44
330
1F
100
AcDbEntity
  8
SK2
  6
CONTINUOUS
370
25
 62
7
100
AcDbLine
 10
75.36306819631181
 20
40.47261363926236
 30
0.0
 11
76.90871213087453
 21
42.0182575738251
 31
0.0
  0
LINE
  5
D45
330
1F
100
AcDbEntity
  8
SK2
  6
CONTINUOUS
370
25
 62
7
100
AcDbLine
 10
75.0
 20
40.53380951166248
 30
0.0
 11
76.55515874028126
 21
42.08896825194375
 31
0.0
  0
LINE
  5
D46
330
1F
100
AcDbEntity
  8
SK2
  6
CONTINUOUS
370
25
 62
7
100
AcDbLine
 10
75.0
 20
40.95807358037442
 30
0.0
 11
76.20160534968798
 21
42.15967893006241
 31
0.0
  0
LINE
  5
D47
330
1F
100
AcDbEntity
  8
SK2
  6
CONTINUOUS
370
25
 62
7
100
AcDbLine
 10
75.0
 20
41.38233764908635
 30
0.0
 11
75.8480519590947
 21
42.23038960818106
 31
0.0
  0
LINE
  5
D48
330
1F
100
AcDbEntity
  8
SK2
  6
CONTINUOUS
370
25
 62
7
100
AcDbLine
 10
75.0
 20
41.80660171779828
 30
0.0
 11
75.49449856850143
 21
42.30110028629971
 31
0.0
  0
LINE
  5
D49
330
1F
100
AcDbEntity
  8
SK2
  6
CONTINUOUS
370
25
 62
7
100
AcDbLine
 10
75.0
 20
42.23086578651021
 30
0.0
 11
75.14094517790815
 21
42.37181096441837
 31
0.0
  0
LINE
  5
D4A
330
1F
100
AcDbEntity
  8
SK2
  6
CONTINUOUS
370
25
 62
7
100
AcDbLine
 10
75.0
 20
40.50062761231591
 30
0.0
 11
75.0838563435966
 21
40.41677126871932
 31
0.0
  0
LINE
  5
D4B
330
1F
100
AcDbEntity
  8
SK2
  6
CONTINUOUS
370
25
 62
7
100
AcDbLine
 10
75.0
 20
40.92489168102784
 30
0.0
 11
75.43740973418987
 21
40.48748194683797
 31
0.0
  0
LINE
  5
D4C
330
1F
100
AcDbEntity
  8
SK2
  6
CONTINUOUS
370
25
 62
7
100
AcDbLine
 10
75.0
 20
41.34915574973978
 30
0.0
 11
75.79096312478316
 21
40.55819262495663
 31
0.0
  0
LINE
  5
D4D
330
1F
100
AcDbEntity
  8
SK2
  6
CONTINUOUS
370
25
 62
7
100
AcDbLine
 10
75.0
 20
41.77341981845171
 30
0.0
 11
76.14451651537644
 21
40.62890330307528
 31
0.0
  0
LINE
  5
D4E
330
1F
100
AcDbEntity
  8
SK2
  6
CONTINUOUS
370
25
 62
7
100
AcDbLine
 10
75.0
 20
42.19768388716364
 30
0.0
 11
76.49806990596971
 21
40.69961398119394
 31
0.0
  0
LINE
  5
D4F
330
1F
100
AcDbEntity
  8
SK2
  6
CONTINUOUS
370
25
 62
7
100
AcDbLine
 10
75.27743494484447
 20
42.3445130110311
 30
0.0
 11
76.85162329656299
 21
40.7703246593126
 31
0.0
  0
LINE
  5
D50
330
1F
100
AcDbEntity
  8
SK2
  6
CONTINUOUS
370
25
 62
7
100
AcDbLine
 10
75.80776503073439
 20
42.23844699385312
 30
0.0
 11
77.20517668715627
 21
40.84103533743125
 31
0.0
  0
LINE
  5
D51
330
1F
100
AcDbEntity
  8
SK2
  6
CONTINUOUS
370
25
 62
7
100
AcDbLine
 10
76.33809511662432
 20
42.13238097667514
 30
0.0
 11
77.55873007774954
 21
40.9117460155499
 31
0.0
  0
LINE
  5
D52
330
1F
100
AcDbEntity
  8
SK2
  6
CONTINUOUS
370
25
 62
7
100
AcDbLine
 10
76.86842520251423
 20
42.02631495949715
 30
0.0
 11
77.91228346834282
 21
40.98245669366857
 31
0.0
  0
LINE
  5
D53
330
1F
100
AcDbEntity
  8
SK2
  6
CONTINUOUS
370
25
 62
7
100
AcDbLine
 10
77.39875528840415
 20
41.92024894231917
 30
0.0
 11
78.2658368589361
 21
41.05316737178722
 31
0.0
  0
LINE
  5
D54
330
1F
100
AcDbEntity
  8
SK2
  6
CONTINUOUS
370
25
 62
7
100
AcDbLine
 10
77.92908537429405
 20
41.8141829251412
 30
0.0
 11
78.61939024952937
 21
41.12387804990587
 31
0.0
  0
LINE
  5
D55
330
1F
100
AcDbEntity
  8
SK2
  6
CONTINUOUS
370
25
 62
7
100
AcDbLine
 10
78.45941546018398
 20
41.7081169079632
 30
0.0
 11
78.97294364012265
 21
41.19458872802453
 31
0.0
  0
LINE
  5
D56
330
1F
100
AcDbEntity
  8
SK2
  6
CONTINUOUS
370
25
 62
7
100
AcDbLine
 10
78.98974554607389
 20
41.60205089078521
 30
0.0
 11
79.32649703071593
 21
41.26529940614319
 31
0.0
  0
LINE
  5
D57
330
1F
100
AcDbEntity
  8
SK2
  6
CONTINUOUS
370
25
 62
7
100
AcDbLine
 10
79.5200756319638
 20
41.49598487360724
 30
0.0
 11
79.6800504213092
 21
41.33601008426184
 31
0.0
  0
TEXT
  5
D58
330
1F
100
AcDbEntity
  8
SK2
  6
CONTINUOUS
370
25
 62
7
100
AcDbText
 10
37.375
 20
42.9
 30
0.0
 40
3.5
  1
80
 72
     1
 11
40.0
 21
42.9
 31
0.0
100
AcDbText
  0
LINE
  5
D59
330
1F
100
AcDbEntity
  8
2
  6
CONTINUOUS
370
25
 62
7
100
AcDbLine
 10
44.0
 20
-5.74995
 30
0.0
 11
43.99999999999999
 21
-29.0
 31
0.0
  0
LINE
  5
D5A
330
1F
100
AcDbEntity
  8
2
  6
CONTINUOUS
370
25
 62
7
100
AcDbLine
 10
80.0
 20
-29.0
 30
0.0
 11
80.0
 21
-6.0
 31
0.0
  0
LINE
  5
D5B
330
1F
100
AcDbEntity
  8
2
  6
CONTINUOUS
370
25
 62
7
100
AcDbLine
 10
43.99999999999999
 20
-28.0
 30
0.0
 11
80.0
 21
-28.0
 31
0.0
  0
LINE
  5
D5C
330
1F
100
AcDbEntity
  8
2
  6
CONTINUOUS
370
25
 62
7
100
AcDbLine
 10
43.99999999999999
 20
-28.0
 30
0.0
 11
48.99999999999999
 21
-27.0
 31
0.0
  0
LINE
  5
D5D
330
1F
100
AcDbEntity
  8
2
  6
CONTINUOUS
370
25
 62
7
100
AcDbLine
 10
48.99999999999999
 20
-27.0
 30
0.0
 11
48.99999999999999
 21
-29.0
 31
0.0
  0
LINE
  5
D5E
330
1F
100
AcDbEntity
  8
2
  6
CONTINUOUS
370
25
 62
7
100
AcDbLine
 10
48.99999999999999
 20
-29.0
 30
0.0
 11
43.99999999999999
 21
-28.0
 31
0.0
  0
LINE
  5
D5F
330
1F
100
AcDbEntity
  8
2
  6
CONTINUOUS
370
25
 62
7
100
AcDbLine
 10
48.9493105740722
 20
-28.98986211481444
 30
0.0
 11
48.99999999999999
 21
-28.93917268888665
 31
0.0
  0
LINE
  5
D60
330
1F
100
AcDbEntity
  8
2
  6
CONTINUOUS
370
25
 62
7
100
AcDbLine
 10
48.59575718347893
 20
-28.91915143669579
 30
0.0
 11
48.99999999999999
 21
-28.51490862017472
 31
0.0
  0
LINE
  5
D61
330
1F
100
AcDbEntity
  8
2
  6
CONTINUOUS
370
25
 62
7
100
AcDbLine
 10
48.24220379288565
 20
-28.84844075857713
 30
0.0
 11
48.99999999999999
 21
-28.09064455146279
 31
0.0
  0
LINE
  5
D62
330
1F
100
AcDbEntity
  8
2
  6
CONTINUOUS
370
25
 62
7
100
AcDbLine
 10
47.88865040229238
 20
-28.77773008045848
 30
0.0
 11
48.99999999999999
 21
-27.66638048275086
 31
0.0
  0
LINE
  5
D63
330
1F
100
AcDbEntity
  8
2
  6
CONTINUOUS
370
25
 62
7
100
AcDbLine
 10
47.53509701169911
 20
-28.70701940233982
 30
0.0
 11
48.99999999999999
 21
-27.24211641403894
 31
0.0
  0
LINE
  5
D64
330
1F
100
AcDbEntity
  8
2
  6
CONTINUOUS
370
25
 62
7
100
AcDbLine
 10
47.18154362110583
 20
-28.63630872422117
 30
0.0
 11
48.77231543165875
 21
-27.04553691366825
 31
0.0
  0
LINE
  5
D65
330
1F
100
AcDbEntity
  8
2
  6
CONTINUOUS
370
25
 62
7
100
AcDbLine
 10
46.82799023051255
 20
-28.56559804610251
 30
0.0
 11
48.24198534576885
 21
-27.15160293084623
 31
0.0
  0
LINE
  5
D66
330
1F
100
AcDbEntity
  8
2
  6
CONTINUOUS
370
25
 62
7
100
AcDbLine
 10
46.47443683991928
 20
-28.49488736798386
 30
0.0
 11
47.71165525987892
 21
-27.25766894802421
 31
0.0
  0
LINE
  5
D67
330
1F
100
AcDbEntity
  8
2
  6
CONTINUOUS
370
25
 62
7
100
AcDbLine
 10
46.120883449326
 20
-28.4241766898652
 30
0.0
 11
47.18132517398902
 21
-27.36373496520219
 31
0.0
  0
LINE
  5
D68
330
1F
100
AcDbEntity
  8
2
  6
CONTINUOUS
370
25
 62
7
100
AcDbLine
 10
45.76733005873273
 20
-28.35346601174655
 30
0.0
 11
46.6509950880991
 21
-27.46980098238018
 31
0.0
  0
LINE
  5
D69
330
1F
100
AcDbEntity
  8
2
  6
CONTINUOUS
370
25
 62
7
100
AcDbLine
 10
45.41377666813945
 20
-28.28275533362789
 30
0.0
 11
46.12066500220919
 21
-27.57586699955816
 31
0.0
  0
LINE
  5
D6A
330
1F
100
AcDbEntity
  8
2
  6
CONTINUOUS
370
25
 62
7
100
AcDbLine
 10
45.06022327754618
 20
-28.21204465550924
 30
0.0
 11
45.59033491631927
 21
-27.68193301673615
 31
0.0
  0
LINE
  5
D6B
330
1F
100
AcDbEntity
  8
2
  6
CONTINUOUS
370
25
 62
7
100
AcDbLine
 10
44.7066698869529
 20
-28.14133397739058
 30
0.0
 11
45.06000483042936
 21
-27.78799903391413
 31
0.0
  0
LINE
  5
D6C
330
1F
100
AcDbEntity
  8
2
  6
CONTINUOUS
370
25
 62
7
100
AcDbLine
 10
44.35311649635963
 20
-28.07062329927193
 30
0.0
 11
44.52967474453945
 21
-27.89406505109211
 31
0.0
  0
LINE
  5
D6D
330
1F
100
AcDbEntity
  8
2
  6
CONTINUOUS
370
25
 62
7
100
AcDbLine
 10
44.18182218666171
 20
-27.96363556266766
 30
0.0
 11
44.27273327999256
 21
-28.05454665599851
 31
0.0
  0
LINE
  5
D6E
330
1F
100
AcDbEntity
  8
2
  6
CONTINUOUS
370
25
 62
7
100
AcDbLine
 10
44.53537557725498
 20
-27.892924884549
 30
0.0
 11
44.80306336588248
 21
-28.1606126731765
 31
0.0
  0
LINE
  5
D6F
330
1F
100
AcDbEntity
  8
2
  6
CONTINUOUS
370
25
 62
7
100
AcDbLine
 10
44.88892896784826
 20
-27.82221420643035
 30
0.0
 11
45.33339345177239
 21
-28.26667869035448
 31
0.0
  0
LINE
  5
D70
330
1F
100
AcDbEntity
  8
2
  6
CONTINUOUS
370
25
 62
7
100
AcDbLine
 10
45.24248235844153
 20
-27.75150352831169
 30
0.0
 11
45.8637235376623
 21
-28.37274470753246
 31
0.0
  0
LINE
  5
D71
330
1F
100
AcDbEntity
  8
2
  6
CONTINUOUS
370
25
 62
7
100
AcDbLine
 10
45.5960357490348
 20
-27.68079285019304
 30
0.0
 11
46.39405362355222
 21
-28.47881072471045
 31
0.0
  0
LINE
  5
D72
330
1F
100
AcDbEntity
  8
2
  6
CONTINUOUS
370
25
 62
7
100
AcDbLine
 10
45.94958913962808
 20
-27.61008217207438
 30
0.0
 11
46.92438370944213
 21
-28.58487674188843
 31
0.0
  0
LINE
  5
D73
330
1F
100
AcDbEntity
  8
2
  6
CONTINUOUS
370
25
 62
7
100
AcDbLine
 10
46.30314253022136
 20
-27.53937149395573
 30
0.0
 11
47.45471379533205
 21
-28.69094275906641
 31
0.0
  0
LINE
  5
D74
330
1F
100
AcDbEntity
  8
2
  6
CONTINUOUS
370
25
 62
7
100
AcDbLine
 10
46.65669592081463
 20
-27.46866081583707
 30
0.0
 11
47.98504388122196
 21
-28.79700877624439
 31
0.0
  0
LINE
  5
D75
330
1F
100
AcDbEntity
  8
2
  6
CONTINUOUS
370
25
 62
7
100
AcDbLine
 10
47.01024931140791
 20
-27.39795013771842
 30
0.0
 11
48.51537396711188
 21
-28.90307479342238
 31
0.0
  0
LINE
  5
D76
330
1F
100
AcDbEntity
  8
2
  6
CONTINUOUS
370
25
 62
7
100
AcDbLine
 10
47.36380270200118
 20
-27.32723945959976
 30
0.0
 11
48.99999999999999
 21
-28.96343675759856
 31
0.0
  0
LINE
  5
D77
330
1F
100
AcDbEntity
  8
2
  6
CONTINUOUS
370
25
 62
7
100
AcDbLine
 10
47.71735609259446
 20
-27.25652878148111
 30
0.0
 11
48.99999999999999
 21
-28.53917268888664
 31
0.0
  0
LINE
  5
D78
330
1F
100
AcDbEntity
  8
2
  6
CONTINUOUS
370
25
 62
7
100
AcDbLine
 10
48.07090948318773
 20
-27.18581810336245
 30
0.0
 11
48.99999999999999
 21
-28.11490862017471
 31
0.0
  0
LINE
  5
D79
330
1F
100
AcDbEntity
  8
2
  6
CONTINUOUS
370
25
 62
7
100
AcDbLine
 10
48.424462873781
 20
-27.1151074252438
 30
0.0
 11
48.99999999999999
 21
-27.69064455146278
 31
0.0
  0
LINE
  5
D7A
330
1F
100
AcDbEntity
  8
2
  6
CONTINUOUS
370
25
 62
7
100
AcDbLine
 10
48.77801626437428
 20
-27.04439674712514
 30
0.0
 11
48.99999999999999
 21
-27.26638048275086
 31
0.0
  0
LINE
  5
D7B
330
1F
100
AcDbEntity
  8
2
  6
CONTINUOUS
370
25
 62
7
100
AcDbLine
 10
80.0
 20
-28.0
 30
0.0
 11
75.0
 21
-29.0
 31
0.0
  0
LINE
  5
D7C
330
1F
100
AcDbEntity
  8
2
  6
CONTINUOUS
370
25
 62
7
100
AcDbLine
 10
75.0
 20
-29.0
 30
0.0
 11
75.0
 21
-27.0
 31
0.0
  0
LINE
  5
D7D
330
1F
100
AcDbEntity
  8
2
  6
CONTINUOUS
370
25
 62
7
100
AcDbLine
 10
75.0
 20
-27.0
 30
0.0
 11
80.0
 21
-28.0
 31
0.0
  0
LINE
  5
D7E
330
1F
100
AcDbEntity
  8
2
  6
CONTINUOUS
370
25
 62
7
100
AcDbLine
 10
79.61887933347504
 20
-28.076224133305
 30
0.0
 11
79.74591955565
 21
-27.94918391113001
 31
0.0
  0
LINE
  5
D7F
330
1F
100
AcDbEntity
  8
2
  6
CONTINUOUS
370
25
 62
7
100
AcDbLine
 10
79.08854924758512
 20
-28.18229015048298
 30
0.0
 11
79.39236616505673
 21
-27.87847323301136
 31
0.0
  0
LINE
  5
D80
330
1F
100
AcDbEntity
  8
2
  6
CONTINUOUS
370
25
 62
7
100
AcDbLine
 10
78.5582191616952
 20
-28.28835616766096
 30
0.0
 11
79.03881277446347
 21
-27.8077625548927
 31
0.0
  0
LINE
  5
D81
330
1F
100
AcDbEntity
  8
2
  6
CONTINUOUS
370
25
 62
7
100
AcDbLine
 10
78.02788907580529
 20
-28.39442218483894
 30
0.0
 11
78.68525938387019
 21
-27.73705187677405
 31
0.0
  0
LINE
  5
D82
330
1F
100
AcDbEntity
  8
2
  6
CONTINUOUS
370
25
 62
7
100
AcDbLine
 10
77.49755898991538
 20
-28.50048820201692
 30
0.0
 11
78.3317059932769
 21
-27.6663411986554
 31
0.0
  0
LINE
  5
D83
330
1F
100
AcDbEntity
  8
2
  6
CONTINUOUS
370
25
 62
7
100
AcDbLine
 10
76.96722890402546
 20
-28.60655421919491
 30
0.0
 11
77.97815260268362
 21
-27.59563052053674
 31
0.0
  0
LINE
  5
D84
330
1F
100
AcDbEntity
  8
2
  6
CONTINUOUS
370
25
 62
7
100
AcDbLine
 10
76.43689881813555
 20
-28.71262023637289
 30
0.0
 11
77.62459921209036
 21
-27.52491984241808
 31
0.0
  0
LINE
  5
D85
330
1F
100
AcDbEntity
  8
2
  6
CONTINUOUS
370
25
 62
7
100
AcDbLine
 10
75.90656873224563
 20
-28.81868625355087
 30
0.0
 11
77.27104582149708
 21
-27.45420916429943
 31
0.0
  0
LINE
  5
D86
330
1F
100
AcDbEntity
  8
2
  6
CONTINUOUS
370
25
 62
7
100
AcDbLine
 10
75.37623864635572
 20
-28.92475227072886
 30
0.0
 11
76.9174924309038
 21
-27.38349848618077
 31
0.0
  0
LINE
  5
D87
330
1F
100
AcDbEntity
  8
2
  6
CONTINUOUS
370
25
 62
7
100
AcDbLine
 10
75.0
 20
-28.87672684837265
 30
0.0
 11
76.56393904031053
 21
-27.31278780806211
 31
0.0
  0
LINE
  5
D88
330
1F
100
AcDbEntity
  8
2
  6
CONTINUOUS
370
25
 62
7
100
AcDbLine
 10
75.0
 20
-28.45246277966073
 30
0.0
 11
76.21038564971727
 21
-27.24207712994346
 31
0.0
  0
LINE
  5
D89
330
1F
100
AcDbEntity
  8
2
  6
CONTINUOUS
370
25
 62
7
100
AcDbLine
 10
75.0
 20
-28.02819871094879
 30
0.0
 11
75.85683225912399
 21
-27.1713664518248
 31
0.0
  0
LINE
  5
D8A
330
1F
100
AcDbEntity
  8
2
  6
CONTINUOUS
370
25
 62
7
100
AcDbLine
 10
75.0
 20
-27.60393464223687
 30
0.0
 11
75.50327886853071
 21
-27.10065577370615
 31
0.0
  0
LINE
  5
D8B
330
1F
100
AcDbEntity
  8
2
  6
CONTINUOUS
370
25
 62
7
100
AcDbLine
 10
75.0
 20
-27.17967057352493
 30
0.0
 11
75.14972547793744
 21
-27.02994509558749
 31
0.0
  0
LINE
  5
D8C
330
1F
100
AcDbEntity
  8
2
  6
CONTINUOUS
370
25
 62
7
100
AcDbLine
 10
75.0
 20
-28.65441558772841
 30
0.0
 11
75.28798701022632
 21
-28.94240259795474
 31
0.0
  0
LINE
  5
D8D
330
1F
100
AcDbEntity
  8
2
  6
CONTINUOUS
370
25
 62
7
100
AcDbLine
 10
75.0
 20
-28.23015151901648
 30
0.0
 11
75.6415404008196
 21
-28.87169191983608
 31
0.0
  0
LINE
  5
D8E
330
1F
100
AcDbEntity
  8
2
  6
CONTINUOUS
370
25
 62
7
100
AcDbLine
 10
75.0
 20
-27.80588745030455
 30
0.0
 11
75.99509379141287
 21
-28.80098124171742
 31
0.0
  0
LINE
  5
D8F
330
1F
100
AcDbEntity
  8
2
  6
CONTINUOUS
370
25
 62
7
100
AcDbLine
 10
75.0
 20
-27.38162338159263
 30
0.0
 11
76.34864718200615
 21
-28.73027056359877
 31
0.0
  0
LINE
  5
D90
330
1F
100
AcDbEntity
  8
2
  6
CONTINUOUS
370
25
 62
7
100
AcDbLine
 10
75.05330085889912
 20
-27.01066017177983
 30
0.0
 11
76.70220057259942
 21
-28.65955988548012
 31
0.0
  0
LINE
  5
D91
330
1F
100
AcDbEntity
  8
2
  6
CONTINUOUS
370
25
 62
7
100
AcDbLine
 10
75.58363094478904
 20
-27.11672618895781
 30
0.0
 11
77.0557539631927
 21
-28.58884920736146
 31
0.0
  0
LINE
  5
D92
330
1F
100
AcDbEntity
  8
2
  6
CONTINUOUS
370
25
 62
7
100
AcDbLine
 10
76.11396103067895
 20
-27.2227922061358
 30
0.0
 11
77.40930735378598
 21
-28.5181385292428
 31
0.0
  0
LINE
  5
D93
330
1F
100
AcDbEntity
  8
2
  6
CONTINUOUS
370
25
 62
7
100
AcDbLine
 10
76.64429111656887
 20
-27.32885822331377
 30
0.0
 11
77.76286074437925
 21
-28.44742785112415
 31
0.0
  0
LINE
  5
D94
330
1F
100
AcDbEntity
  8
2
  6
CONTINUOUS
370
25
 62
7
100
AcDbLine
 10
77.17462120245878
 20
-27.43492424049176
 30
0.0
 11
78.11641413497253
 21
-28.37671717300549
 31
0.0
  0
LINE
  5
D95
330
1F
100
AcDbEntity
  8
2
  6
CONTINUOUS
370
25
 62
7
100
AcDbLine
 10
77.7049512883487
 20
-27.54099025766974
 30
0.0
 11
78.4699675255658
 21
-28.30600649488684
 31
0.0
  0
LINE
  5
D96
330
1F
100
AcDbEntity
  8
2
  6
CONTINUOUS
370
25
 62
7
100
AcDbLine
 10
78.23528137423864
 20
-27.64705627484773
 30
0.0
 11
78.82352091615908
 21
-28.23529581676818
 31
0.0
  0
LINE
  5
D97
330
1F
100
AcDbEntity
  8
2
  6
CONTINUOUS
370
25
 62
7
100
AcDbLine
 10
78.76561146012854
 20
-27.75312229202571
 30
0.0
 11
79.17707430675236
 21
-28.16458513864953
 31
0.0
  0
LINE
  5
D98
330
1F
100
AcDbEntity
  8
2
  6
CONTINUOUS
370
25
 62
7
100
AcDbLine
 10
79.29594154601847
 20
-27.8591883092037
 30
0.0
 11
79.53062769734564
 21
-28.09387446053087
 31
0.0
  0
LINE
  5
D99
330
1F
100
AcDbEntity
  8
2
  6
CONTINUOUS
370
25
 62
7
100
AcDbLine
 10
79.82627163190838
 20
-27.96525432638168
 30
0.0
 11
79.88418108793891
 21
-28.02316378241222
 31
0.0
  0
TEXT
  5
D9A
330
1F
100
AcDbEntity
  8
2
  6
CONTINUOUS
370
25
 62
7
100
AcDbText
 10
59.08333333333334
 20
-26.5
 30
0.0
 40
3.5
  1
36
 72
     1
 11
62.0
 21
-26.5
 31
0.0
100
AcDbText
  0
LINE
  5
D9B
330
1F
100
AcDbEntity
  8
SK1
  6
CONTINUOUS
370
50
 62
4
100
AcDbLine
 10
43.8
 20
0.0
 30
0.0
 11
45.55
 21
0.0
 31
0.0
  0
LINE
  5
D9C
330
1F
100
AcDbEntity
  8
SK1
  6
CONTINUOUS
370
50
 62
4
100
AcDbLine
 10
43.8
 20
0.0
 30
0.0
 11
43.8
 21
1.75
 31
0.0
  0
ARC
  5
D9D
330
1F
100
AcDbEntity
  8
SK1
  6
CONTINUOUS
370
50
 62
4
100
AcDbCircle
 10
43.8
 20
0.0
 30
0.0
 40
1.75
100
AcDbArc
 50
0.0
 51
90.0
  0
LINE
  5
D9E
330
1F
100
AcDbEntity
  8
SK1
  6
CONTINUOUS
370
50
 62
4
100
AcDbLine
 10
43.8
 20
0.0
 30
0.0
 11
42.05
 21
0.0
 31
0.0
  0
ARC
  5
D9F
330
1F
100
AcDbEntity
  8
SK1
  6
CONTINUOUS
370
50
 62
4
100
AcDbCircle
 10
43.8
 20
0.0
 30
0.0
 40
1.75
100
AcDbArc
 50
180.0
 51
270.0
  0
LINE
  5
DA0
330
1F
100
AcDbEntity
  8
SK1
  6
CONTINUOUS
370
50
 62
4
100
AcDbLine
 10
43.8
 20
-1.75
 30
0.0
 11
43.8
 21
0.0
 31
0.0
  0
ARC
  5
DA1
330
1F
100
AcDbEntity
  8
SK1
  6
CONTINUOUS
370
50
 62
4
100
AcDbCircle
 10
43.8
 20
0.0
 30
0.0
 40
1.75
100
AcDbArc
 50
270.0
 51
0.0
  0
ARC
  5
DA2
330
1F
100
AcDbEntity
  8
SK1
  6
CONTINUOUS
370
50
 62
4
100
AcDbCircle
 10
43.8
 20
0.0
 30
0.0
 40
1.75
100
AcDbArc
 50
90.0
 51
180.0
  0
LINE
  5
DA3
330
1F
100
AcDbEntity
  8
SK1
  6
CONTINUOUS
370
50
 62
4
100
AcDbLine
 10
43.57717274741573
 20
-1.73564731720198
 30
0.0
 11
43.8
 21
-1.512820064617713
 31
0.0
  0
LINE
  5
DA4
330
1F
100
AcDbEntity
  8
SK1
  6
CONTINUOUS
370
50
 62
4
100
AcDbLine
 10
45.31282006461771
 20
0.0
 30
0.0
 11
45.53564731720198
 21
0.2228272525842674
 31
0.0
  0
LINE
  5
DA5
330
1F
100
AcDbEntity
  8
SK1
  6
CONTINUOUS
370
50
 62
4
100
AcDbLine
 10
43.36930380681873
 20
-1.69602888438369
 30
0.0
 11
43.8
 21
-1.265332691202421
 31
0.0
  0
LINE
  5
DA6
330
1F
100
AcDbEntity
  8
SK1
  6
CONTINUOUS
370
50
 62
4
100
AcDbLine
 10
45.06533269120241
 20
0.0
 30
0.0
 11
45.49602888438368
 21
0.4306961931812696
 31
0.0
  0
LINE
  5
DA7
330
1F
100
AcDbEntity
  8
SK1
  6
CONTINUOUS
370
50
 62
4
100
AcDbLine
 10
43.18148340435764
 20
-1.636361913429485
 30
0.0
 11
43.8
 21
-1.01784531778713
 31
0.0
  0
LINE
  5
DA8
330
1F
100
AcDbEntity
  8
SK1
  6
CONTINUOUS
370
50
 62
4
100
AcDbLine
 10
44.81784531778712
 20
0.0
 30
0.0
 11
45.43636191342948
 21
0.6185165956423557
 31
0.0
  0
LINE
  5
DA9
330
1F
100
AcDbEntity
  8
SK1
  6
CONTINUOUS
370
50
 62
4
100
AcDbLine
 10
43.0098551094628
 20
-1.560502834909039
 30
0.0
 11
43.8
 21
-0.7703579443718382
 31
0.0
  0
LINE
  5
DAA
330
1F
100
AcDbEntity
  8
SK1
  6
CONTINUOUS
370
50
 62
4
100
AcDbLine
 10
44.57035794437184
 20
0.0
 30
0.0
 11
45.36050283490903
 21
0.7901448905372013
 31
0.0
  0
LINE
  5
DAB
330
1F
100
AcDbEntity
  8
SK1
  6
CONTINUOUS
370
50
 62
4
100
AcDbLine
 10
42.85217783219446
 20
-1.470692738762079
 30
0.0
 11
43.8
 21
-0.5228705709565462
 31
0.0
  0
LINE
  5
DAC
330
1F
100
AcDbEntity
  8
SK1
  6
CONTINUOUS
370
50
 62
4
100
AcDbLine
 10
44.32287057095655
 20
0.0
 30
0.0
 11
45.27069273876207
 21
0.947822167805533
 31
0.0
  0
LINE
  5
DAD
330
1F
100
AcDbEntity
  8
SK1
  6
CONTINUOUS
370
50
 62
4
100
AcDbLine
 10
42.70842956711547
 20
-1.366953630425777
 30
0.0
 11
43.8
 21
-0.2753831975412551
 31
0.0
  0
LINE
  5
DAE
330
1F
100
AcDbEntity
  8
SK1
  6
CONTINUOUS
370
50
 62
4
100
AcDbLine
 10
44.07538319754125
 20
0.0
 30
0.0
 11
45.16695363042577
 21
1.091570432884522
 31
0.0
  0
LINE
  5
DAF
330
1F
100
AcDbEntity
  8
SK1
  6
CONTINUOUS
370
50
 62
4
100
AcDbLine
 10
42.57712164538165
 20
-1.25077417874432
 30
0.0
 11
43.8
 21
-0.0278958241259639
 31
0.0
  0
LINE
  5
DB0
330
1F
100
AcDbEntity
  8
SK1
  6
CONTINUOUS
370
50
 62
4
100
AcDbLine
 10
43.82789582412596
 20
0.0
 30
0.0
 11
45.05077417874432
 21
1.222878354618356
 31
0.0
  0
LINE
  5
DB1
330
1F
100
AcDbEntity
  8
SK1
  6
CONTINUOUS
370
50
 62
4
100
AcDbLine
 10
42.45784030371346
 20
-1.122568146997212
 30
0.0
 11
43.58040845071067
 21
0.0
 31
0.0
  0
LINE
  5
DB2
330
1F
100
AcDbEntity
  8
SK1
  6
CONTINUOUS
370
50
 62
4
100
AcDbLine
 10
43.8
 20
0.2195915492893277
 30
0.0
 11
44.92256814699721
 21
1.34215969628654
 31
0.0
  0
LINE
  5
DB3
330
1F
100
AcDbEntity
  8
SK1
  6
CONTINUOUS
370
50
 62
4
100
AcDbLine
 10
42.35188167231256
 20
-0.9810394049828186
 30
0.0
 11
43.33292107729538
 21
0.0
 31
0.0
  0
LINE
  5
DB4
330
1F
100
AcDbEntity
  8
SK1
  6
CONTINUOUS
370
50
 62
4
100
AcDbLine
 10
43.8
 20
0.4670789227046193
 30
0.0
 11
44.78103940498281
 21
1.448118327687438
 31
0.0
  0
LINE
  5
DB5
330
1F
100
AcDbEntity
  8
SK1
  6
CONTINUOUS
370
50
 62
4
100
AcDbLine
 10
42.25832908651575
 20
-0.8271046173643402
 30
0.0
 11
43.08543370388008
 21
0.0
 31
0.0
  0
LINE
  5
DB6
330
1F
100
AcDbEntity
  8
SK1
  6
CONTINUOUS
370
50
 62
4
100
AcDbLine
 10
43.8
 20
0.71456629611991
 30
0.0
 11
44.62710461736434
 21
1.54167091348425
 31
0.0
  0
LINE
  5
DB7
330
1F
100
AcDbEntity
  8
SK1
  6
CONTINUOUS
370
50
 62
4
100
AcDbLine
 10
42.17918473824204
 20
-0.6587615922227528
 30
0.0
 11
42.8379463304648
 21
0.0
 31
0.0
  0
LINE
  5
DB8
330
1F
100
AcDbEntity
  8
SK1
  6
CONTINUOUS
370
50
 62
4
100
AcDbLine
 10
43.8
 20
0.9620536695352015
 30
0.0
 11
44.45876159222275
 21
1.620815261757954
 31
0.0
  0
LINE
  5
DB9
330
1F
100
AcDbEntity
  8
SK1
  6
CONTINUOUS
370
50
 62
4
100
AcDbLine
 10
42.11629687706963
 20
-0.474162079979876
 30
0.0
 11
42.59045895704951
 21
0.0
 31
0.0
  0
LINE
  5
DBA
330
1F
100
AcDbEntity
  8
SK1
  6
CONTINUOUS
370
50
 62
4
100
AcDbLine
 10
43.8
 20
1.209541042950494
 30
0.0
 11
44.27416207997987
 21
1.683703122930369
 31
0.0
  0
LINE
  5
DBB
330
1F
100
AcDbEntity
  8
SK1
  6
CONTINUOUS
370
50
 62
4
100
AcDbLine
 10
42.07198100434271
 20
-0.2709905792915031
 30
0.0
 11
42.34297158363422
 21
0.0
 31
0.0
  0
LINE
  5
DBC
330
1F
100
AcDbEntity
  8
SK1
  6
CONTINUOUS
370
50
 62
4
100
AcDbLine
 10
43.8
 20
1.457028416365784
 30
0.0
 11
44.0709905792915
 21
1.728018995657286
 31
0.0
  0
LINE
  5
DBD
330
1F
100
AcDbEntity
  8
SK1
  6
CONTINUOUS
370
50
 62
4
100
AcDbLine
 10
42.0513858468978
 20
-0.0440983633211194
 30
0.0
 11
42.09548421021892
 21
0.0
 31
0.0
  0
LINE
  5
DBE
330
1F
100
AcDbEntity
  8
SK1
  6
CONTINUOUS
370
50
 62
4
100
AcDbLine
 10
43.8
 20
1.704515789781075
 30
0.0
 11
43.84409836332112
 21
1.748614153102194
 31
0.0
  0
LINE
  5
DBF
330
1F
100
AcDbEntity
  8
SK1
  6
CONTINUOUS
370
50
 62
4
100
AcDbLine
 10
42.16386517603681
 20
-0.6191473609004006
 30
0.0
 11
43.1808526390996
 21
-1.636134823963186
 31
0.0
  0
LINE
  5
DC0
330
1F
100
AcDbEntity
  8
SK1
  6
CONTINUOUS
370
50
 62
4
100
AcDbLine
 10
42.07363430643545
 20
-0.2814291178837463
 30
0.0
 11
43.51857088211625
 21
-1.726365693564548
 31
0.0
  0
LINE
  5
DC1
330
1F
100
AcDbEntity
  8
SK1
  6
CONTINUOUS
370
50
 62
4
100
AcDbLine
 10
42.05033443431149
 20
-0.0106418723445003
 30
0.0
 11
43.7893581276555
 21
-1.749665565688503
 31
0.0
  0
LINE
  5
DC2
330
1F
100
AcDbEntity
  8
SK1
  6
CONTINUOUS
370
50
 62
4
100
AcDbLine
 10
42.28717993538228
 20
0.0
 30
0.0
 11
43.8
 21
-1.51282006461771
 31
0.0
  0
LINE
  5
DC3
330
1F
100
AcDbEntity
  8
SK1
  6
CONTINUOUS
370
50
 62
4
100
AcDbLine
 10
42.53466730879758
 20
0.0
 30
0.0
 11
43.8
 21
-1.265332691202418
 31
0.0
  0
LINE
  5
DC4
330
1F
100
AcDbEntity
  8
SK1
  6
CONTINUOUS
370
50
 62
4
100
AcDbLine
 10
42.78215468221287
 20
0.0
 30
0.0
 11
43.8
 21
-1.017845317787128
 31
0.0
  0
LINE
  5
DC5
330
1F
100
AcDbEntity
  8
SK1
  6
CONTINUOUS
370
50
 62
4
100
AcDbLine
 10
43.02964205562816
 20
0.0
 30
0.0
 11
43.8
 21
-0.7703579443718369
 31
0.0
  0
LINE
  5
DC6
330
1F
100
AcDbEntity
  8
SK1
  6
CONTINUOUS
370
50
 62
4
100
AcDbLine
 10
43.27712942904345
 20
0.0
 30
0.0
 11
43.8
 21
-0.5228705709565453
 31
0.0
  0
LINE
  5
DC7
330
1F
100
AcDbEntity
  8
SK1
  6
CONTINUOUS
370
50
 62
4
100
AcDbLine
 10
43.52461680245874
 20
0.0
 30
0.0
 11
43.8
 21
-0.2753831975412537
 31
0.0
  0
LINE
  5
DC8
330
1F
100
AcDbEntity
  8
SK1
  6
CONTINUOUS
370
50
 62
4
100
AcDbLine
 10
43.77210417587403
 20
0.0
 30
0.0
 11
43.8
 21
-0.027895824125963
 31
0.0
  0
LINE
  5
DC9
330
1F
100
AcDbEntity
  8
SK1
  6
CONTINUOUS
370
50
 62
4
100
AcDbLine
 10
43.8
 20
0.219591549289329
 30
0.0
 11
44.01959154928932
 21
0.0
 31
0.0
  0
LINE
  5
DCA
330
1F
100
AcDbEntity
  8
SK1
  6
CONTINUOUS
370
50
 62
4
100
AcDbLine
 10
43.8
 20
0.4670789227046202
 30
0.0
 11
44.26707892270462
 21
0.0
 31
0.0
  0
LINE
  5
DCB
330
1F
100
AcDbEntity
  8
SK1
  6
CONTINUOUS
370
50
 62
4
100
AcDbLine
 10
43.8
 20
0.7145662961199113
 30
0.0
 11
44.51456629611991
 21
0.0
 31
0.0
  0
LINE
  5
DCC
330
1F
100
AcDbEntity
  8
SK1
  6
CONTINUOUS
370
50
 62
4
100
AcDbLine
 10
43.8
 20
0.9620536695352029
 30
0.0
 11
44.7620536695352
 21
0.0
 31
0.0
  0
LINE
  5
DCD
330
1F
100
AcDbEntity
  8
SK1
  6
CONTINUOUS
370
50
 62
4
100
AcDbLine
 10
43.8
 20
1.209541042950494
 30
0.0
 11
45.0095410429505
 21
0.0
 31
0.0
  0
LINE
  5
DCE
330
1F
100
AcDbEntity
  8
SK1
  6
CONTINUOUS
370
50
 62
4
100
AcDbLine
 10
43.8
 20
1.457028416365785
 30
0.0
 11
45.25702841636578
 21
0.0
 31
0.0
  0
LINE
  5
DCF
330
1F
100
AcDbEntity
  8
SK1
  6
CONTINUOUS
370
50
 62
4
100
AcDbLine
 10
43.8
 20
1.704515789781076
 30
0.0
 11
45.50451578978107
 21
0.0
 31
0.0
  0
LINE
  5
DD0
330
1F
100
AcDbEntity
  8
SK1
  6
CONTINUOUS
370
50
 62
4
100
AcDbLine
 10
44.01543384193567
 20
1.736569321260697
 30
0.0
 11
45.53656932126069
 21
0.2154338419356714
 31
0.0
  0
LINE
  5
DD1
330
1F
100
AcDbEntity
  8
SK1
  6
CONTINUOUS
370
50
 62
4
100
AcDbLine
 10
44.33283284728993
 20
1.666657689321729
 30
0.0
 11
45.46665768932173
 21
0.5328328472899322
 31
0.0
  0
LINE
  5
DD2
330
1F
100
AcDbEntity
  8
SK1
  6
CONTINUOUS
370
50
 62
4
100
AcDbLine
 10
44.84009874905674
 20
1.406879160970207
 30
0.0
 11
45.2068791609702
 21
1.040098749056747
 31
0.0
  0
LINE
  5
DD3
330
1F
100
AcDbEntity
  8
4
  6
LONGDASH_DASH
370
25
 62
2
100
AcDbLine
 10
43.8
 20
0.0
 30
0.0
 11
80.0
 21
0.0
 31
0.0
  0
LINE
  5
DD4
330
1F
100
AcDbEntity
  8
SK4
  6
LONGDASH_DASH
370
25
 62
2
100
AcDbLine
 10
-6.0
 20
0.0
 30
0.0
 11
86.0
 21
0.0
 31
0.0
  0
ARC
  5
DD5
330
1F
100
AcDbEntity
  8
SK6
  6
CONTINUOUS
370
25
 62
5
100
AcDbCircle
 10
107.4613820083765
 20
-31.14524575338786
 30
0.0
 40
2.760489128492211
100
AcDbArc
 50
338.9379403434233
 51
90.44457437511365
  0
LINE
  5
DD6
330
1F
100
AcDbEntity
  8
SK6
  6
CONTINUOUS
370
25
 62
5
100
AcDbLine
 10
107.4399627969598
 20
-28.38483972421281
 30
0.0
 11
107.4399627969598
 21
-29.48789835613464
 31
0.0
  0
ARC
  5
DD7
330
1F
100
AcDbEntity
  8
SK6
  6
CONTINUOUS
370
25
 62
5
100
AcDbCircle
 10
107.4505090293692
 20
-31.16523924566821
 30
0.0
 40
1.677374043771776
100
AcDbArc
 50
243.4214706017868
 51
90.36024081226083
  0
ARC
  5
DD8
330
1F
100
AcDbEntity
  8
SK6
  6
CONTINUOUS
370
25
 62
5
100
AcDbCircle
 10
109.9727598968496
 20
-30.73383199215561
 30
0.0
 40
3.800217030022758
100
AcDbArc
 50
210.5483731288539
 51
236.97801693668
  0
LINE
  5
DD9
330
1F
100
AcDbEntity
  8
SK6
  6
CONTINUOUS
370
25
 62
5
100
AcDbLine
 10
107.9017906851249
 20
-33.92016781867535
 30
0.0
 11
112.0437309674267
 21
-33.92016781867535
 31
0.0
  0
ARC
  5
DDA
330
1F
100
AcDbEntity
  8
SK6
  6
CONTINUOUS
370
25
 62
5
100
AcDbCircle
 10
109.9727618387726
 20
-30.7338320937346
 30
0.0
 40
3.800216899582472
100
AcDbArc
 50
303.0219828477959
 51
326.3732153033476
  0
LINE
  5
DDB
330
1F
100
AcDbEntity
  8
SK6
  6
CONTINUOUS
370
25
 62
5
100
AcDbLine
 10
113.1370597513572
 20
-32.8383194907709
 30
0.0
 11
109.7797617057546
 21
-32.8383194907709
 31
0.0
  0
LINE
  5
DDC
330
1F
100
AcDbEntity
  8
SK6
  6
CONTINUOUS
370
25
 62
5
100
AcDbLine
 10
109.7797617057546
 20
-32.8383194907709
 30
0.0
 11
113.6996210977199
 21
-31.47691829641694
 31
0.0
  0
ARC
  5
DDD
330
1F
100
AcDbEntity
  8
SK6
  6
CONTINUOUS
370
25
 62
5
100
AcDbCircle
 10
109.9727625615721
 20
-30.7338326048594
 30
0.0
 40
3.800217216614723
100
AcDbArc
 50
348.7238644184696
 51
53.4691051260885
  0
LINE
  5
DDE
330
1F
100
AcDbEntity
  8
SK6
  6
CONTINUOUS
370
25
 62
5
100
AcDbLine
 10
112.2348652453854
 20
-27.68022124429967
 30
0.0
 11
110.0374504788274
 21
-32.13730973507057
 31
0.0
  0
ENDSEC
  0
SECTION
  2
OBJECTS
  0
DICTIONARY
  5
C
330
0
100
AcDbDictionary
281
     1
  3
ACAD_GROUP
350
D
  3
ACAD_LAYOUT
350
1A
  3
ACAD_MATERIAL
350
3B
  3
ACAD_MLEADERSTYLE
350
DE1
  3
ACAD_MLINESTYLE
350
17
  3
ACAD_PLOTSETTINGS
350
19
  3
ACAD_PLOTSTYLENAME
350
E
  3
ACAD_SCALELIST
350
4E6
  3
ACAD_VISUALSTYLE
350
2A
  3
AcDbVariableDictionary
350
DDF
  0
DICTIONARY
  5
D
102
{ACAD_REACTORS
330
C
102
}
330
C
100
AcDbDictionary
281
     1
  0
DICTIONARY
  5
1A
102
{ACAD_REACTORS
330
C
102
}
330
C
100
AcDbDictionary
281
     1
  3
Layout1
350
1E
  3
Layout2
350
26
  3
Model
350
22
  0
DICTIONARY
  5
3B
102
{ACAD_REACTORS
330
C
102
}
330
C
100
AcDbDictionary
281
     1
  3
ByBlock
350
3D
  3
ByLayer
350
3C
  3
Global
350
3E
  0
DICTIONARY
  5
DE1
102
{ACAD_REACTORS
330
C
102
}
330
C
100
AcDbDictionary
281
     1
  0
DICTIONARY
  5
17
102
{ACAD_REACTORS
330
C
102
}
330
C
100
AcDbDictionary
281
     1
  3
Standard
350
18
  0
DICTIONARY
  5
19
102
{ACAD_REACTORS
330
C
102
}
330
C
100
AcDbDictionary
281
     1
  0
ACDBDICTIONARYWDFLT
  5
E
102
{ACAD_REACTORS
330
C
102
}
330
C
100
AcDbDictionary
281
     1
  3
Normal
350
F
100
AcDbDictionaryWithDefault
340
F
  0
DICTIONARY
  5
4E6
102
{ACAD_REACTORS
330
C
102
}
330
C
100
AcDbDictionary
281
     1
  3
A0
350
4E7
  3
A1
350
4E8
  3
A2
350
4E9
  3
A3
350
4EA
  3
A4
350
4EB
  3
A5
350
4EC
  3
A6
350
4ED
  3
A7
350
4EE
  3
A8
350
4EF
  3
A9
350
4F0
  3
B0
350
4F1
  3
B1
350
4F2
  3
B2
350
4F3
  3
B3
350
4F4
  3
B4
350
4F5
  3
B5
350
4F6
  3
B6
350
4F7
  3
B7
350
4F8
  3
B8
350
4F9
  3
B9
350
4FA
  3
C0
350
4FB
  3
C1
350
4FC
  3
C2
350
4FD
  3
C3
350
4FE
  3
C4
350
4FF
  3
C5
350
500
  3
C6
350
501
  3
C7
350
502
  3
C8
350
503
  3
C9
350
504
  3
D0
350
505
  3
D1
350
506
  3
D2
350
507
  0
DICTIONARY
  5
2A
102
{ACAD_REACTORS
330
C
102
}
330
C
100
AcDbDictionary
281
     1
  3
2dWireframe
350
2F
  3
3D Hidden
350
31
  3
3dWireframe
350
30
  3
Basic
350
32
  3
Brighten
350
36
  3
ColorChange
350
3A
  3
Conceptual
350
34
  3
Dim
350
35
  3
Facepattern
350
39
  3
Flat
350
2B
  3
FlatWithEdges
350
2C
  3
Gouraud
350
2D
  3
GouraudWithEdges
350
2E
  3
Linepattern
350
38
  3
Realistic
350
33
  3
Thicken
350
37
  0
DICTIONARY
  5
DDF
102
{ACAD_REACTORS
330
C
102
}
330
C
100
AcDbDictionary
281
     1
  3
CANNOSCALE
350
DE4
  3
DIMASSOC
350
DE5
  3
HIDETEXT
350
DE6
  3
PSOLHEIGHT
350
DE3
  3
PSOLWIDTH
350
DE2
  0
LAYOUT
  5
1E
102
{ACAD_REACTORS
330
1A
102
}
330
1A
100
AcDbPlotSettings
  1

  2
none_device
  4

  6

 40
0.0
 41
0.0
 42
0.0
 43
0.0
 44
0.0
 45
0.0
 46
0.0
 47
0.0
 48
0.0
 49
0.0
140
0.0
141
0.0
142
1.0
143
1.0
 70
   688
 72
     0
 73
     0
 74
     5
  7

 75
    16
147
1.0
148
0.0
149
0.0
100
AcDbLayout
  1
Layout1
 70
     1
 71
     1
 10
0.0
 20
0.0
 11
420.0
 21
297.0
 12
0.0
 22
0.0
 32
0.0
 14
1.000000000000000E+20
 24
1.000000000000000E+20
 34
1.000000000000000E+20
 15
-1.000000000000000E+20
 25
-1.000000000000000E+20
 35
-1.000000000000000E+20
146
0.0
 13
0.0
 23
0.0
 33
0.0
 16
1.0
 26
0.0
 36
0.0
 17
0.0
 27
1.0
 37
0.0
 76
     0
330
1B
  0
LAYOUT
  5
26
102
{ACAD_REACTORS
330
1A
102
}
330
1A
100
AcDbPlotSettings
  1

  2
none_device
  4

  6

 40
0.0
 41
0.0
 42
0.0
 43
0.0
 44
0.0
 45
0.0
 46
0.0
 47
0.0
 48
0.0
 49
0.0
140
0.0
141
0.0
142
1.0
143
1.0
 70
   688
 72
     0
 73
     0
 74
     5
  7

 75
    16
147
1.0
148
0.0
149
0.0
100
AcDbLayout
  1
Layout2
 70
     1
 71
     2
 10
0.0
 20
0.0
 11
0.0
 21
0.0
 12
0.0
 22
0.0
 32
0.0
 14
0.0
 24
0.0
 34
0.0
 15
0.0
 25
0.0
 35
0.0
146
0.0
 13
0.0
 23
0.0
 33
0.0
 16
1.0
 26
0.0
 36
0.0
 17
0.0
 27
1.0
 37
0.0
 76
     0
330
23
  0
LAYOUT
  5
22
102
{ACAD_REACTORS
330
1A
102
}
330
1A
100
AcDbPlotSettings
  1

  2
none_device
  4

  6

 40
0.0
 41
0.0
 42
0.0
 43
0.0
 44
0.0
 45
0.0
 46
0.0
 47
0.0
 48
0.0
 49
0.0
140
0.0
141
0.0
142
1.0
143
1.0
 70
  1712
 72
     0
 73
     0
 74
     0
  7

 75
     0
147
1.0
148
0.0
149
0.0
100
AcDbLayout
  1
Model
 70
     1
 71
     0
 10
0.0
 20
0.0
 11
420.0
 21
297.0
 12
0.0
 22
0.0
 32
0.0
 14
0.0
 24
0.0
 34
0.0
 15
25.0
 25
35.0
 35
0.0
146
0.0
 13
0.0
 23
0.0
 33
0.0
 16
1.0
 26
0.0
 36
0.0
 17
0.0
 27
1.0
 37
0.0
 76
     0
330
1F
331
29
  0
MATERIAL
  5
3D
102
{ACAD_REACTORS
330
3B
102
}
102
{ACAD_XDICTIONARY
360
E09
102
}
330
3B
100
AcDbMaterial
  1
ByBlock
  0
MATERIAL
  5
3C
102
{ACAD_REACTORS
330
3B
102
}
102
{ACAD_XDICTIONARY
360
E07
102
}
330
3B
100
AcDbMaterial
  1
ByLayer
  0
MATERIAL
  5
3E
102
{ACAD_REACTORS
330
3B
102
}
102
{ACAD_XDICTIONARY
360
E0B
102
}
330
3B
100
AcDbMaterial
  1
Global
  0
MLINESTYLE
  5
18
102
{ACAD_REACTORS
330
17
102
}
330
17
100
AcDbMlineStyle
  2
Standard
 70
     0
  3

 62
   256
 51
90.0
 52
90.0
 71
     2
 49
0.5
 62
   256
  6
BYLAYER
 49
-0.5
 62
   256
  6
BYLAYER
  0
ACDBPLACEHOLDER
  5
F
102
{ACAD_REACTORS
330
E
102
}
330
E
  0
SCALE
  5
4E7
102
{ACAD_REACTORS
330
4E6
102
}
330
4E6
100
AcDbScale
 70
     0
300
1:1
140
1.0
141
1.0
290
     1
  0
SCALE
  5
4E8
102
{ACAD_REACTORS
330
4E6
102
}
330
4E6
100
AcDbScale
 70
     0
300
1:2
140
1.0
141
2.0
290
     0
  0
SCALE
  5
4E9
102
{ACAD_REACTORS
330
4E6
102
}
330
4E6
100
AcDbScale
 70
     0
300
1:4
140
1.0
141
4.0
290
     0
  0
SCALE
  5
4EA
102
{ACAD_REACTORS
330
4E6
102
}
330
4E6
100
AcDbScale
 70
     0
300
1:5
140
1.0
141
5.0
290
     0
  0
SCALE
  5
4EB
102
{ACAD_REACTORS
330
4E6
102
}
330
4E6
100
AcDbScale
 70
     0
300
1:8
140
1.0
141
8.0
290
     0
  0
SCALE
  5
4EC
102
{ACAD_REACTORS
330
4E6
102
}
330
4E6
100
AcDbScale
 70
     0
300
1:10
140
1.0
141
10.0
290
     0
  0
SCALE
  5
4ED
102
{ACAD_REACTORS
330
4E6
102
}
330
4E6
100
AcDbScale
 70
     0
300
1:16
140
1.0
141
16.0
290
     0
  0
SCALE
  5
4EE
102
{ACAD_REACTORS
330
4E6
102
}
330
4E6
100
AcDbScale
 70
     0
300
1:20
140
1.0
141
20.0
290
     0
  0
SCALE
  5
4EF
102
{ACAD_REACTORS
330
4E6
102
}
330
4E6
100
AcDbScale
 70
     0
300
1:30
140
1.0
141
30.0
290
     0
  0
SCALE
  5
4F0
102
{ACAD_REACTORS
330
4E6
102
}
330
4E6
100
AcDbScale
 70
     0
300
1:40
140
1.0
141
40.0
290
     0
  0
SCALE
  5
4F1
102
{ACAD_REACTORS
330
4E6
102
}
330
4E6
100
AcDbScale
 70
     0
300
1:50
140
1.0
141
50.0
290
     0
  0
SCALE
  5
4F2
102
{ACAD_REACTORS
330
4E6
102
}
330
4E6
100
AcDbScale
 70
     0
300
1:100
140
1.0
141
100.0
290
     0
  0
SCALE
  5
4F3
102
{ACAD_REACTORS
330
4E6
102
}
330
4E6
100
AcDbScale
 70
     0
300
2:1
140
2.0
141
1.0
290
     0
  0
SCALE
  5
4F4
102
{ACAD_REACTORS
330
4E6
102
}
330
4E6
100
AcDbScale
 70
     0
300
4:1
140
4.0
141
1.0
290
     0
  0
SCALE
  5
4F5
102
{ACAD_REACTORS
330
4E6
102
}
330
4E6
100
AcDbScale
 70
     0
300
8:1
140
8.0
141
1.0
290
     0
  0
SCALE
  5
4F6
102
{ACAD_REACTORS
330
4E6
102
}
330
4E6
100
AcDbScale
 70
     0
300
10:1
140
10.0
141
1.0
290
     0
  0
SCALE
  5
4F7
102
{ACAD_REACTORS
330
4E6
102
}
330
4E6
100
AcDbScale
 70
     0
300
100:1
140
100.0
141
1.0
290
     0
  0
SCALE
  5
4F8
102
{ACAD_REACTORS
330
4E6
102
}
330
4E6
100
AcDbScale
 70
     0
300
1/128" = 1'-0"
140
0.0078125
141
12.0
290
     0
  0
SCALE
  5
4F9
102
{ACAD_REACTORS
330
4E6
102
}
330
4E6
100
AcDbScale
 70
     0
300
1/64" = 1'-0"
140
0.015625
141
12.0
290
     0
  0
SCALE
  5
4FA
102
{ACAD_REACTORS
330
4E6
102
}
330
4E6
100
AcDbScale
 70
     0
300
1/32" = 1'-0"
140
0.03125
141
12.0
290
     0
  0
SCALE
  5
4FB
102
{ACAD_REACTORS
330
4E6
102
}
330
4E6
100
AcDbScale
 70
     0
300
1/16" = 1'-0"
140
0.0625
141
12.0
290
     0
  0
SCALE
  5
4FC
102
{ACAD_REACTORS
330
4E6
102
}
330
4E6
100
AcDbScale
 70
     0
300
3/32" = 1'-0"
140
0.09375
141
12.0
290
     0
  0
SCALE
  5
4FD
102
{ACAD_REACTORS
330
4E6
102
}
330
4E6
100
AcDbScale
 70
     0
300
1/8" = 1'-0"
140
0.125
141
12.0
290
     0
  0
SCALE
  5
4FE
102
{ACAD_REACTORS
330
4E6
102
}
330
4E6
100
AcDbScale
 70
     0
300
3/16" = 1'-0"
140
0.1875
141
12.0
290
     0
  0
SCALE
  5
4FF
102
{ACAD_REACTORS
330
4E6
102
}
330
4E6
100
AcDbScale
 70
     0
300
1/4" = 1'-0"
140
0.25
141
12.0
290
     0
  0
SCALE
  5
500
102
{ACAD_REACTORS
330
4E6
102
}
330
4E6
100
AcDbScale
 70
     0
300
3/8" = 1'-0"
140
0.375
141
12.0
290
     0
  0
SCALE
  5
501
102
{ACAD_REACTORS
330
4E6
102
}
330
4E6
100
AcDbScale
 70
     0
300
1/2" = 1'-0"
140
0.5
141
12.0
290
     0
  0
SCALE
  5
502
102
{ACAD_REACTORS
330
4E6
102
}
330
4E6
100
AcDbScale
 70
     0
300
3/4" = 1'-0"
140
0.75
141
12.0
290
     0
  0
SCALE
  5
503
102
{ACAD_REACTORS
330
4E6
102
}
330
4E6
100
AcDbScale
 70
     0
300
1" = 1'-0"
140
1.0
141
12.0
290
     0
  0
SCALE
  5
504
102
{ACAD_REACTORS
330
4E6
102
}
330
4E6
100
AcDbScale
 70
     0
300
1-1/2" = 1'-0"
140
1.5
141
12.0
290
     0
  0
SCALE
  5
505
102
{ACAD_REACTORS
330
4E6
102
}
330
4E6
100
AcDbScale
 70
     0
300
3" = 1'-0"
140
3.0
141
12.0
290
     0
  0
SCALE
  5
506
102
{ACAD_REACTORS
330
4E6
102
}
330
4E6
100
AcDbScale
 70
     0
300
6" = 1'-0"
140
6.0
141
12.0
290
     0
  0
SCALE
  5
507
102
{ACAD_REACTORS
330
4E6
102
}
330
4E6
100
AcDbScale
 70
     0
300
1'-0" = 1'-0"
140
12.0
141
12.0
290
     0
  0
VISUALSTYLE
  5
2F
102
{ACAD_REACTORS
330
2A
102
}
102
{ACAD_XDICTIONARY
360
DEF
102
}
330
2A
100
AcDbVisualStyle
  2
2dWireframe
 70
     4
 71
     0
 72
     2
 73
     0
 90
        0
 40
-0.6
 41
-30.0
 62
     5
 63
     7
 74
     1
 91
        4
 64
     7
 65
   257
 75
     1
175
     1
 42
1.0
 92
        0
 66
   257
 43
1.0
 76
     1
 77
     6
 78
     2
 67
     7
 79
     5
170
     0
171
     0
290
     0
174
     0
 93
        1
 44
0.0
173
     0
291
     0
 45
0.0
1001
ACAD
1000
AcDbSavedByObjectVersion
1070
     0
  0
VISUALSTYLE
  5
31
102
{ACAD_REACTORS
330
2A
102
}
102
{ACAD_XDICTIONARY
360
DF3
102
}
330
2A
100
AcDbVisualStyle
  2
3D Hidden
 70
     6
 71
     1
 72
     2
 73
     2
 90
        0
 40
-0.6
 41
-30.0
 62
     5
 63
     7
 74
     2
 91
        2
 64
     7
 65
   257
 75
     2
175
     1
 42
40.0
 92
        0
 66
   257
 43
1.0
 76
     1
 77
     6
 78
     2
 67
     7
 79
     3
170
     0
171
     0
290
     0
174
     0
 93
        1
 44
0.0
173
     0
291
     0
 45
0.0
1001
ACAD
1000
AcDbSavedByObjectVersion
1070
     0
  0
VISUALSTYLE
  5
30
102
{ACAD_REACTORS
330
2A
102
}
102
{ACAD_XDICTIONARY
360
DF1
102
}
330
2A
100
AcDbVisualStyle
  2
3dWireframe
 70
     5
 71
     0
 72
     2
 73
     0
 90
        0
 40
-0.6
 41
-30.0
 62
     5
 63
     7
 74
     1
 91
        4
 64
     7
 65
   257
 75
     1
175
     1
 42
1.0
 92
        0
 66
   257
 43
1.0
 76
     1
 77
     6
 78
     2
 67
     7
 79
     5
170
     0
171
     0
290
     0
174
     0
 93
        1
 44
0.0
173
     0
291
     0
 45
0.0
1001
ACAD
1000
AcDbSavedByObjectVersion
1070
     0
  0
VISUALSTYLE
  5
32
102
{ACAD_REACTORS
330
2A
102
}
102
{ACAD_XDICTIONARY
360
DF5
102
}
330
2A
100
AcDbVisualStyle
  2
Basic
 70
     7
 71
     1
 72
     0
 73
     1
 90
        0
 40
-0.6
 41
-30.0
 62
     5
 63
     7
 74
     0
 91
        4
 64
     7
 65
   257
 75
     1
175
     1
 42
1.0
 92
        8
 66
     7
 43
1.0
 76
     1
 77
     6
 78
     2
 67
     7
 79
     5
170
     0
171
     0
290
     0
174
     0
 93
        1
 44
0.0
173
     0
291
     1
 45
0.0
1001
ACAD
1000
AcDbSavedByObjectVersion
1070
     0
  0
VISUALSTYLE
  5
36
102
{ACAD_REACTORS
330
2A
102
}
102
{ACAD_XDICTIONARY
360
DFD
102
}
330
2A
100
AcDbVisualStyle
  2
Brighten
 70
    12
 71
     2
 72
     2
 73
     0
 90
        0
 40
-0.6
 41
-30.0
 62
     5
 63
     7
 74
     1
 91
        4
 64
     7
 65
   257
 75
     1
175
     1
 42
1.0
 92
        8
 66
     7
 43
1.0
 76
     1
 77
     6
 78
     2
 67
     7
 79
     5
170
     0
171
     0
290
     0
174
     0
 93
        1
 44
50.0
173
     0
291
     1
 45
0.0
1001
ACAD
1000
AcDbSavedByObjectVersion
1070
     0
  0
VISUALSTYLE
  5
3A
102
{ACAD_REACTORS
330
2A
102
}
102
{ACAD_XDICTIONARY
360
E05
102
}
330
2A
100
AcDbVisualStyle
  2
ColorChange
 70
    16
 71
     2
 72
     2
 73
     3
 90
        0
 40
-0.6
 41
-30.0
 62
     5
 63
     8
 74
     1
 91
        4
 64
     7
 65
   257
 75
     1
175
     1
 42
1.0
 92
        8
 66
     8
 43
1.0
 76
     1
 77
     6
 78
     2
 67
     7
 79
     5
170
     0
171
     0
290
     0
174
     0
 93
        1
 44
0.0
173
     0
291
     1
 45
0.0
1001
ACAD
1000
AcDbSavedByObjectVersion
1070
     0
  0
VISUALSTYLE
  5
34
102
{ACAD_REACTORS
330
2A
102
}
102
{ACAD_XDICTIONARY
360
DF9
102
}
330
2A
100
AcDbVisualStyle
  2
Conceptual
 70
     9
 71
     3
 72
     2
 73
     0
 90
        0
 40
-0.6
 41
-30.0
 62
     5
 63
     7
 74
     2
 91
        2
 64
     7
 65
   257
 75
     1
175
     1
 42
40.0
 92
        8
 66
     7
 43
1.0
 76
     1
 77
     6
 78
     2
 67
     7
 79
     3
170
     0
171
     0
290
     0
174
     0
 93
        1
 44
0.0
173
     0
291
     0
 45
0.0
1001
ACAD
1000
AcDbSavedByObjectVersion
1070
     0
  0
VISUALSTYLE
  5
35
102
{ACAD_REACTORS
330
2A
102
}
102
{ACAD_XDICTIONARY
360
DFB
102
}
330
2A
100
AcDbVisualStyle
  2
Dim
 70
    11
 71
     2
 72
     2
 73
     0
 90
        0
 40
-0.6
 41
-30.0
 62
     5
 63
     7
 74
     1
 91
        4
 64
     7
 65
   257
 75
     1
175
     1
 42
1.0
 92
        8
 66
     7
 43
1.0
 76
     1
 77
     6
 78
     2
 67
     7
 79
     5
170
     0
171
     0
290
     0
174
     0
 93
        1
 44
-50.0
173
     0
291
     1
 45
0.0
1001
ACAD
1000
AcDbSavedByObjectVersion
1070
     0
  0
VISUALSTYLE
  5
39
102
{ACAD_REACTORS
330
2A
102
}
102
{ACAD_XDICTIONARY
360
E03
102
}
330
2A
100
AcDbVisualStyle
  2
Facepattern
 70
    15
 71
     2
 72
     2
 73
     0
 90
        0
 40
-0.6
 41
-30.0
 62
     5
 63
     7
 74
     1
 91
        4
 64
     7
 65
   257
 75
     1
175
     1
 42
1.0
 92
        8
 66
     7
 43
1.0
 76
     1
 77
     6
 78
     2
 67
     7
 79
     5
170
     0
171
     0
290
     0
174
     0
 93
        1
 44
0.0
173
     0
291
     1
 45
0.0
1001
ACAD
1000
AcDbSavedByObjectVersion
1070
     0
  0
VISUALSTYLE
  5
2B
102
{ACAD_REACTORS
330
2A
102
}
102
{ACAD_XDICTIONARY
360
DE7
102
}
330
2A
100
AcDbVisualStyle
  2
Flat
 70
     0
 71
     2
 72
     1
 73
     1
 90
        2
 40
-0.6
 41
30.0
 62
     5
 63
     7
 74
     0
 91
        4
 64
     7
 65
   257
 75
     1
175
     1
 42
1.0
 92
        8
 66
     7
 43
1.0
 76
     1
 77
     6
 78
     2
 67
     7
 79
     5
170
     0
171
     0
290
     0
174
     0
 93
       13
 44
0.0
173
     0
291
     1
 45
0.0
1001
ACAD
1000
AcDbSavedByObjectVersion
1070
     0
  0
VISUALSTYLE
  5
2C
102
{ACAD_REACTORS
330
2A
102
}
102
{ACAD_XDICTIONARY
360
DE9
102
}
330
2A
100
AcDbVisualStyle
  2
FlatWithEdges
 70
     1
 71
     2
 72
     1
 73
     1
 90
        2
 40
-0.6
 41
30.0
 62
     5
 63
     7
 74
     1
 91
        4
 64
     7
 65
   257
 75
     1
175
     1
 42
1.0
 92
        0
 66
   257
 43
1.0
 76
     1
 77
     6
 78
     2
 67
     7
 79
     5
170
     0
171
     0
290
     0
174
     0
 93
       13
 44
0.0
173
     0
291
     1
 45
0.0
1001
ACAD
1000
AcDbSavedByObjectVersion
1070
     0
  0
VISUALSTYLE
  5
2D
102
{ACAD_REACTORS
330
2A
102
}
102
{ACAD_XDICTIONARY
360
DEB
102
}
330
2A
100
AcDbVisualStyle
  2
Gouraud
 70
     2
 71
     2
 72
     2
 73
     1
 90
        2
 40
-0.6
 41
30.0
 62
     5
 63
     7
 74
     0
 91
        4
 64
     7
 65
   257
 75
     1
175
     1
 42
1.0
 92
        0
 66
     7
 43
1.0
 76
     1
 77
     6
 78
     2
 67
     7
 79
     5
170
     0
171
     0
290
     0
174
     0
 93
       13
 44
0.0
173
     0
291
     1
 45
0.0
1001
ACAD
1000
AcDbSavedByObjectVersion
1070
     0
  0
VISUALSTYLE
  5
2E
102
{ACAD_REACTORS
330
2A
102
}
102
{ACAD_XDICTIONARY
360
DED
102
}
330
2A
100
AcDbVisualStyle
  2
GouraudWithEdges
 70
     3
 71
     2
 72
     2
 73
     1
 90
        2
 40
-0.6
 41
30.0
 62
     5
 63
     7
 74
     1
 91
        4
 64
     7
 65
   257
 75
     1
175
     1
 42
1.0
 92
        0
 66
   257
 43
1.0
 76
     1
 77
     6
 78
     2
 67
     7
 79
     5
170
     0
171
     0
290
     0
174
     0
 93
       13
 44
0.0
173
     0
291
     1
 45
0.0
1001
ACAD
1000
AcDbSavedByObjectVersion
1070
     0
  0
VISUALSTYLE
  5
38
102
{ACAD_REACTORS
330
2A
102
}
102
{ACAD_XDICTIONARY
360
E01
102
}
330
2A
100
AcDbVisualStyle
  2
Linepattern
 70
    14
 71
     2
 72
     2
 73
     0
 90
        0
 40
-0.6
 41
-30.0
 62
     5
 63
     7
 74
     1
 91
        4
 64
     7
 65
   257
 75
     7
175
     7
 42
1.0
 92
        8
 66
     7
 43
1.0
 76
     1
 77
     6
 78
     2
 67
     7
 79
     5
170
     0
171
     0
290
     0
174
     0
 93
        1
 44
0.0
173
     0
291
     1
 45
0.0
1001
ACAD
1000
AcDbSavedByObjectVersion
1070
     0
  0
VISUALSTYLE
  5
33
102
{ACAD_REACTORS
330
2A
102
}
102
{ACAD_XDICTIONARY
360
DF7
102
}
330
2A
100
AcDbVisualStyle
  2
Realistic
 70
     8
 71
     2
 72
     2
 73
     0
 90
        0
 40
-0.6
 41
-30.0
 62
     5
 63
     7
 74
     1
 91
        0
 64
     7
 65
   257
 75
     1
175
     1
 42
1.0
 92
        8
 66
     8
 43
1.0
 76
     1
 77
     6
 78
     2
 67
     7
 79
     5
170
     0
171
     0
290
     0
174
     0
 93
       13
 44
0.0
173
     0
291
     0
 45
0.0
1001
ACAD
1000
AcDbSavedByObjectVersion
1070
     0
  0
VISUALSTYLE
  5
37
102
{ACAD_REACTORS
330
2A
102
}
102
{ACAD_XDICTIONARY
360
DFF
102
}
330
2A
100
AcDbVisualStyle
  2
Thicken
 70
    13
 71
     2
 72
     2
 73
     0
 90
        0
 40
-0.6
 41
-30.0
 62
     5
 63
     7
 74
     1
 91
        4
 64
     7
 65
   257
 75
     1
175
     1
 42
1.0
 92
       12
 66
     7
 43
1.0
 76
     1
 77
     6
 78
     2
 67
     7
 79
     5
170
     0
171
     0
290
     0
174
     0
 93
        1
 44
0.0
173
     0
291
     1
 45
0.0
1001
ACAD
1000
AcDbSavedByObjectVersion
1070
     0
  0
DICTIONARYVAR
  5
DE4
102
{ACAD_REACTORS
330
DDF
102
}
330
DDF
100
DictionaryVariables
280
     0
  1
1:1
  0
DICTIONARYVAR
  5
DE5
102
{ACAD_REACTORS
330
DDF
102
}
330
DDF
100
DictionaryVariables
280
     0
  1
2
  0
DICTIONARYVAR
  5
DE6
102
{ACAD_REACTORS
330
DDF
102
}
330
DDF
100
DictionaryVariables
280
     0
  1
1
  0
DICTIONARYVAR
  5
DE3
102
{ACAD_REACTORS
330
DDF
102
}
330
DDF
100
DictionaryVariables
280
     0
  1
80.000000
  0
DICTIONARYVAR
  5
DE2
102
{ACAD_REACTORS
330
DDF
102
}
330
DDF
100
DictionaryVariables
280
     0
  1
5.000000
  0
DICTIONARY
  5
E09
330
3D
100
AcDbDictionary
280
     1
281
     1
  3
ACAD_XREC_ROUNDTRIP
360
E0A
  0
DICTIONARY
  5
E07
330
3C
100
AcDbDictionary
280
     1
281
     1
  3
ACAD_XREC_ROUNDTRIP
360
E08
  0
DICTIONARY
  5
E0B
330
3E
100
AcDbDictionary
280
     1
281
     1
  3
ACAD_XREC_ROUNDTRIP
360
E0C
  0
DICTIONARY
  5
DEF
330
2F
100
AcDbDictionary
280
     1
281
     1
  3
ACAD_XREC_ROUNDTRIP
360
DF0
  0
DICTIONARY
  5
DF3
330
31
100
AcDbDictionary
280
     1
281
     1
  3
ACAD_XREC_ROUNDTRIP
360
DF4
  0
DICTIONARY
  5
DF1
330
30
100
AcDbDictionary
280
     1
281
     1
  3
ACAD_XREC_ROUNDTRIP
360
DF2
  0
DICTIONARY
  5
DF5
330
32
100
AcDbDictionary
280
     1
281
     1
  3
ACAD_XREC_ROUNDTRIP
360
DF6
  0
DICTIONARY
  5
DFD
330
36
100
AcDbDictionary
280
     1
281
     1
  3
ACAD_XREC_ROUNDTRIP
360
DFE
  0
DICTIONARY
  5
E05
330
3A
100
AcDbDictionary
280
     1
281
     1
  3
ACAD_XREC_ROUNDTRIP
360
E06
  0
DICTIONARY
  5
DF9
330
34
100
AcDbDictionary
280
     1
281
     1
  3
ACAD_XREC_ROUNDTRIP
360
DFA
  0
DICTIONARY
  5
DFB
330
35
100
AcDbDictionary
280
     1
281
     1
  3
ACAD_XREC_ROUNDTRIP
360
DFC
  0
DICTIONARY
  5
E03
330
39
100
AcDbDictionary
280
     1
281
     1
  3
ACAD_XREC_ROUNDTRIP
360
E04
  0
DICTIONARY
  5
DE7
330
2B
100
AcDbDictionary
280
     1
281
     1
  3
ACAD_XREC_ROUNDTRIP
360
DE8
  0
DICTIONARY
  5
DE9
330
2C
100
AcDbDictionary
280
     1
281
     1
  3
ACAD_XREC_ROUNDTRIP
360
DEA
  0
DICTIONARY
  5
DEB
330
2D
100
AcDbDictionary
280
     1
281
     1
  3
ACAD_XREC_ROUNDTRIP
360
DEC
  0
DICTIONARY
  5
DED
330
2E
100
AcDbDictionary
280
     1
281
     1
  3
ACAD_XREC_ROUNDTRIP
360
DEE
  0
DICTIONARY
  5
E01
330
38
100
AcDbDictionary
280
     1
281
     1
  3
ACAD_XREC_ROUNDTRIP
360
E02
  0
DICTIONARY
  5
DF7
330
33
100
AcDbDictionary
280
     1
281
     1
  3
ACAD_XREC_ROUNDTRIP
360
DF8
  0
DICTIONARY
  5
DFF
330
37
100
AcDbDictionary
280
     1
281
     1
  3
ACAD_XREC_ROUNDTRIP
360
E00
  0
XRECORD
  5
E0A
102
{ACAD_REACTORS
330
E09
102
}
330
E09
100
AcDbXrecord
280
     1
102
MATERIAL
148
0.0
149
0.0
149
0.0
 93
        0
 94
      127
282
     0
 72
     1
 77
     1
171
     1
175
     1
179
     1
273
     0
  0
XRECORD
  5
E08
102
{ACAD_REACTORS
330
E07
102
}
330
E07
100
AcDbXrecord
280
     1
102
MATERIAL
148
0.0
149
0.0
149
0.0
 93
        0
 94
      127
282
     0
 72
     1
 77
     1
171
     1
175
     1
179
     1
273
     0
  0
XRECORD
  5
E0C
102
{ACAD_REACTORS
330
E0B
102
}
330
E0B
100
AcDbXrecord
280
     1
102
MATERIAL
148
0.0
149
0.0
149
0.0
 93
        0
 94
      127
282
     0
 72
     1
 77
     1
171
     1
175
     1
179
     1
273
     0
  0
XRECORD
  5
DF0
102
{ACAD_REACTORS
330
DEF
102
}
330
DEF
100
AcDbXrecord
280
     1
102
RTVSPropertyOp0
 70
     1
102
RTVSPropertyOp1
 70
     1
102
RTVSPropertyOp2
 70
     1
102
RTVSPropertyOp3
 70
     1
102
RTVSPropertyOp4
 70
     1
102
RTVSPropertyOp5
 70
     1
102
RTVSPropertyOp6
 70
     1
102
RTVSPropertyOp7
 70
     1
102
RTVSPropertyOp8
 70
     1
102
RTVSPropertyOp9
 70
     1
102
RTVSPropertyOp10
 70
     1
102
RTVSPropertyOp11
 70
     1
102
RTVSPropertyOp12
 70
     1
102
RTVSPropertyOp13
 70
     1
102
RTVSPropertyOp14
 70
     1
102
RTVSPropertyOp15
 70
     1
102
RTVSPropertyOp16
 70
     1
102
RTVSPropertyOp17
 70
     1
102
RTVSPropertyOp18
 70
     1
102
RTVSPropertyOp19
 70
     1
102
RTVSPropertyOp20
 70
     1
102
RTVSPropertyOp21
 70
     1
102
RTVSPropertyOp22
 70
     1
102
RTVSPropertyOp23
 70
     1
102
RTVSPropertyOp24
 70
     1
102
RTVSPropertyOp25
 70
     1
102
RTVSPropertyOp26
 70
     1
102
RTVSPropertyOp27
 70
     1
  0
XRECORD
  5
DF4
102
{ACAD_REACTORS
330
DF3
102
}
330
DF3
100
AcDbXrecord
280
     1
102
RTVSPropertyOp0
 70
     1
102
RTVSPropertyOp1
 70
     1
102
RTVSPropertyOp2
 70
     1
102
RTVSPropertyOp3
 70
     1
102
RTVSPropertyOp4
 70
     1
102
RTVSPropertyOp5
 70
     1
102
RTVSPropertyOp6
 70
     1
102
RTVSPropertyOp7
 70
     1
102
RTVSPropertyOp8
 70
     1
102
RTVSPropertyOp9
 70
     1
102
RTVSPropertyOp10
 70
     1
102
RTVSPropertyOp11
 70
     1
102
RTVSPropertyOp12
 70
     1
102
RTVSPropertyOp13
 70
     1
102
RTVSPropertyOp14
 70
     1
102
RTVSPropertyOp15
 70
     1
102
RTVSPropertyOp16
 70
     1
102
RTVSPropertyOp17
 70
     1
102
RTVSPropertyOp18
 70
     1
102
RTVSPropertyOp19
 70
     1
102
RTVSPropertyOp20
 70
     1
102
RTVSPropertyOp21
 70
     1
102
RTVSPropertyOp22
 70
     1
102
RTVSPropertyOp23
 70
     1
102
RTVSPropertyOp24
 70
     1
102
RTVSPropertyOp25
 70
     1
102
RTVSPropertyOp26
 70
     1
102
RTVSPropertyOp27
 70
     1
  0
XRECORD
  5
DF2
102
{ACAD_REACTORS
330
DF1
102
}
330
DF1
100
AcDbXrecord
280
     1
102
RTVSPropertyOp0
 70
     1
102
RTVSPropertyOp1
 70
     1
102
RTVSPropertyOp2
 70
     1
102
RTVSPropertyOp3
 70
     1
102
RTVSPropertyOp4
 70
     1
102
RTVSPropertyOp5
 70
     1
102
RTVSPropertyOp6
 70
     1
102
RTVSPropertyOp7
 70
     1
102
RTVSPropertyOp8
 70
     1
102
RTVSPropertyOp9
 70
     1
102
RTVSPropertyOp10
 70
     1
102
RTVSPropertyOp11
 70
     1
102
RTVSPropertyOp12
 70
     1
102
RTVSPropertyOp13
 70
     1
102
RTVSPropertyOp14
 70
     1
102
RTVSPropertyOp15
 70
     1
102
RTVSPropertyOp16
 70
     1
102
RTVSPropertyOp17
 70
     1
102
RTVSPropertyOp18
 70
     1
102
RTVSPropertyOp19
 70
     1
102
RTVSPropertyOp20
 70
     1
102
RTVSPropertyOp21
 70
     1
102
RTVSPropertyOp22
 70
     1
102
RTVSPropertyOp23
 70
     1
102
RTVSPropertyOp24
 70
     1
102
RTVSPropertyOp25
 70
     1
102
RTVSPropertyOp26
 70
     1
102
RTVSPropertyOp27
 70
     1
  0
XRECORD
  5
DF6
102
{ACAD_REACTORS
330
DF5
102
}
330
DF5
100
AcDbXrecord
280
     1
102
RTVSPropertyOp0
 70
     1
102
RTVSPropertyOp1
 70
     1
102
RTVSPropertyOp2
 70
     1
102
RTVSPropertyOp3
 70
     1
102
RTVSPropertyOp4
 70
     1
102
RTVSPropertyOp5
 70
     1
102
RTVSPropertyOp6
 70
     1
102
RTVSPropertyOp7
 70
     1
102
RTVSPropertyOp8
 70
     1
102
RTVSPropertyOp9
 70
     1
102
RTVSPropertyOp10
 70
     1
102
RTVSPropertyOp11
 70
     1
102
RTVSPropertyOp12
 70
     1
102
RTVSPropertyOp13
 70
     1
102
RTVSPropertyOp14
 70
     1
102
RTVSPropertyOp15
 70
     1
102
RTVSPropertyOp16
 70
     1
102
RTVSPropertyOp17
 70
     1
102
RTVSPropertyOp18
 70
     1
102
RTVSPropertyOp19
 70
     1
102
RTVSPropertyOp20
 70
     1
102
RTVSPropertyOp21
 70
     1
102
RTVSPropertyOp22
 70
     1
102
RTVSPropertyOp23
 70
     1
102
RTVSPropertyOp24
 70
     1
102
RTVSPropertyOp25
 70
     1
102
RTVSPropertyOp26
 70
     1
102
RTVSPropertyOp27
 70
     1
  0
XRECORD
  5
DFE
102
{ACAD_REACTORS
330
DFD
102
}
330
DFD
100
AcDbXrecord
280
     1
102
RTVSPropertyOp0
 70
     1
102
RTVSPropertyOp1
 70
     1
102
RTVSPropertyOp2
 70
     1
102
RTVSPropertyOp3
 70
     1
102
RTVSPropertyOp4
 70
     1
102
RTVSPropertyOp5
 70
     1
102
RTVSPropertyOp6
 70
     1
102
RTVSPropertyOp7
 70
     1
102
RTVSPropertyOp8
 70
     1
102
RTVSPropertyOp9
 70
     1
102
RTVSPropertyOp10
 70
     1
102
RTVSPropertyOp11
 70
     1
102
RTVSPropertyOp12
 70
     1
102
RTVSPropertyOp13
 70
     1
102
RTVSPropertyOp14
 70
     1
102
RTVSPropertyOp15
 70
     1
102
RTVSPropertyOp16
 70
     1
102
RTVSPropertyOp17
 70
     1
102
RTVSPropertyOp18
 70
     1
102
RTVSPropertyOp19
 70
     1
102
RTVSPropertyOp20
 70
     1
102
RTVSPropertyOp21
 70
     1
102
RTVSPropertyOp22
 70
     1
102
RTVSPropertyOp23
 70
     1
102
RTVSPropertyOp24
 70
     1
102
RTVSPropertyOp25
 70
     1
102
RTVSPropertyOp26
 70
     1
102
RTVSPropertyOp27
 70
     1
  0
XRECORD
  5
E06
102
{ACAD_REACTORS
330
E05
102
}
330
E05
100
AcDbXrecord
280
     1
102
RTVSPropertyOp0
 70
     1
102
RTVSPropertyOp1
 70
     1
102
RTVSPropertyOp2
 70
     1
102
RTVSPropertyOp3
 70
     1
102
RTVSPropertyOp4
 70
     1
102
RTVSPropertyOp5
 70
     1
102
RTVSPropertyOp6
 70
     1
102
RTVSPropertyOp7
 70
     1
102
RTVSPropertyOp8
 70
     1
102
RTVSPropertyOp9
 70
     1
102
RTVSPropertyOp10
 70
     1
102
RTVSPropertyOp11
 70
     1
102
RTVSPropertyOp12
 70
     1
102
RTVSPropertyOp13
 70
     1
102
RTVSPropertyOp14
 70
     1
102
RTVSPropertyOp15
 70
     1
102
RTVSPropertyOp16
 70
     1
102
RTVSPropertyOp17
 70
     1
102
RTVSPropertyOp18
 70
     1
102
RTVSPropertyOp19
 70
     1
102
RTVSPropertyOp20
 70
     1
102
RTVSPropertyOp21
 70
     1
102
RTVSPropertyOp22
 70
     1
102
RTVSPropertyOp23
 70
     1
102
RTVSPropertyOp24
 70
     1
102
RTVSPropertyOp25
 70
     1
102
RTVSPropertyOp26
 70
     1
102
RTVSPropertyOp27
 70
     1
  0
XRECORD
  5
DFA
102
{ACAD_REACTORS
330
DF9
102
}
330
DF9
100
AcDbXrecord
280
     1
102
RTVSPropertyOp0
 70
     1
102
RTVSPropertyOp1
 70
     1
102
RTVSPropertyOp2
 70
     1
102
RTVSPropertyOp3
 70
     1
102
RTVSPropertyOp4
 70
     1
102
RTVSPropertyOp5
 70
     1
102
RTVSPropertyOp6
 70
     1
102
RTVSPropertyOp7
 70
     1
102
RTVSPropertyOp8
 70
     1
102
RTVSPropertyOp9
 70
     1
102
RTVSPropertyOp10
 70
     1
102
RTVSPropertyOp11
 70
     1
102
RTVSPropertyOp12
 70
     1
102
RTVSPropertyOp13
 70
     1
102
RTVSPropertyOp14
 70
     1
102
RTVSPropertyOp15
 70
     1
102
RTVSPropertyOp16
 70
     1
102
RTVSPropertyOp17
 70
     1
102
RTVSPropertyOp18
 70
     1
102
RTVSPropertyOp19
 70
     1
102
RTVSPropertyOp20
 70
     1
102
RTVSPropertyOp21
 70
     1
102
RTVSPropertyOp22
 70
     1
102
RTVSPropertyOp23
 70
     1
102
RTVSPropertyOp24
 70
     1
102
RTVSPropertyOp25
 70
     1
102
RTVSPropertyOp26
 70
     1
102
RTVSPropertyOp27
 70
     1
  0
XRECORD
  5
DFC
102
{ACAD_REACTORS
330
DFB
102
}
330
DFB
100
AcDbXrecord
280
     1
102
RTVSPropertyOp0
 70
     1
102
RTVSPropertyOp1
 70
     1
102
RTVSPropertyOp2
 70
     1
102
RTVSPropertyOp3
 70
     1
102
RTVSPropertyOp4
 70
     1
102
RTVSPropertyOp5
 70
     1
102
RTVSPropertyOp6
 70
     1
102
RTVSPropertyOp7
 70
     1
102
RTVSPropertyOp8
 70
     1
102
RTVSPropertyOp9
 70
     1
102
RTVSPropertyOp10
 70
     1
102
RTVSPropertyOp11
 70
     1
102
RTVSPropertyOp12
 70
     1
102
RTVSPropertyOp13
 70
     1
102
RTVSPropertyOp14
 70
     1
102
RTVSPropertyOp15
 70
     1
102
RTVSPropertyOp16
 70
     1
102
RTVSPropertyOp17
 70
     1
102
RTVSPropertyOp18
 70
     1
102
RTVSPropertyOp19
 70
     1
102
RTVSPropertyOp20
 70
     1
102
RTVSPropertyOp21
 70
     1
102
RTVSPropertyOp22
 70
     1
102
RTVSPropertyOp23
 70
     1
102
RTVSPropertyOp24
 70
     1
102
RTVSPropertyOp25
 70
     1
102
RTVSPropertyOp26
 70
     1
102
RTVSPropertyOp27
 70
     1
  0
XRECORD
  5
E04
102
{ACAD_REACTORS
330
E03
102
}
330
E03
100
AcDbXrecord
280
     1
102
RTVSPropertyOp0
 70
     1
102
RTVSPropertyOp1
 70
     1
102
RTVSPropertyOp2
 70
     1
102
RTVSPropertyOp3
 70
     1
102
RTVSPropertyOp4
 70
     1
102
RTVSPropertyOp5
 70
     1
102
RTVSPropertyOp6
 70
     1
102
RTVSPropertyOp7
 70
     1
102
RTVSPropertyOp8
 70
     1
102
RTVSPropertyOp9
 70
     1
102
RTVSPropertyOp10
 70
     1
102
RTVSPropertyOp11
 70
     1
102
RTVSPropertyOp12
 70
     1
102
RTVSPropertyOp13
 70
     1
102
RTVSPropertyOp14
 70
     1
102
RTVSPropertyOp15
 70
     1
102
RTVSPropertyOp16
 70
     1
102
RTVSPropertyOp17
 70
     1
102
RTVSPropertyOp18
 70
     1
102
RTVSPropertyOp19
 70
     1
102
RTVSPropertyOp20
 70
     1
102
RTVSPropertyOp21
 70
     1
102
RTVSPropertyOp22
 70
     1
102
RTVSPropertyOp23
 70
     1
102
RTVSPropertyOp24
 70
     1
102
RTVSPropertyOp25
 70
     1
102
RTVSPropertyOp26
 70
     1
102
RTVSPropertyOp27
 70
     1
  0
XRECORD
  5
DE8
102
{ACAD_REACTORS
330
DE7
102
}
330
DE7
100
AcDbXrecord
280
     1
102
RTVSPropertyOp0
 70
     1
102
RTVSPropertyOp1
 70
     1
102
RTVSPropertyOp2
 70
     1
102
RTVSPropertyOp3
 70
     1
102
RTVSPropertyOp4
 70
     1
102
RTVSPropertyOp5
 70
     1
102
RTVSPropertyOp6
 70
     1
102
RTVSPropertyOp7
 70
     1
102
RTVSPropertyOp8
 70
     1
102
RTVSPropertyOp9
 70
     1
102
RTVSPropertyOp10
 70
     1
102
RTVSPropertyOp11
 70
     1
102
RTVSPropertyOp12
 70
     1
102
RTVSPropertyOp13
 70
     1
102
RTVSPropertyOp14
 70
     1
102
RTVSPropertyOp15
 70
     1
102
RTVSPropertyOp16
 70
     1
102
RTVSPropertyOp17
 70
     1
102
RTVSPropertyOp18
 70
     1
102
RTVSPropertyOp19
 70
     1
102
RTVSPropertyOp20
 70
     1
102
RTVSPropertyOp21
 70
     1
102
RTVSPropertyOp22
 70
     1
102
RTVSPropertyOp23
 70
     1
102
RTVSPropertyOp24
 70
     1
102
RTVSPropertyOp25
 70
     1
102
RTVSPropertyOp26
 70
     1
102
RTVSPropertyOp27
 70
     1
  0
XRECORD
  5
DEA
102
{ACAD_REACTORS
330
DE9
102
}
330
DE9
100
AcDbXrecord
280
     1
102
RTVSPropertyOp0
 70
     1
102
RTVSPropertyOp1
 70
     1
102
RTVSPropertyOp2
 70
     1
102
RTVSPropertyOp3
 70
     1
102
RTVSPropertyOp4
 70
     1
102
RTVSPropertyOp5
 70
     1
102
RTVSPropertyOp6
 70
     1
102
RTVSPropertyOp7
 70
     1
102
RTVSPropertyOp8
 70
     1
102
RTVSPropertyOp9
 70
     1
102
RTVSPropertyOp10
 70
     1
102
RTVSPropertyOp11
 70
     1
102
RTVSPropertyOp12
 70
     1
102
RTVSPropertyOp13
 70
     1
102
RTVSPropertyOp14
 70
     1
102
RTVSPropertyOp15
 70
     1
102
RTVSPropertyOp16
 70
     1
102
RTVSPropertyOp17
 70
     1
102
RTVSPropertyOp18
 70
     1
102
RTVSPropertyOp19
 70
     1
102
RTVSPropertyOp20
 70
     1
102
RTVSPropertyOp21
 70
     1
102
RTVSPropertyOp22
 70
     1
102
RTVSPropertyOp23
 70
     1
102
RTVSPropertyOp24
 70
     1
102
RTVSPropertyOp25
 70
     1
102
RTVSPropertyOp26
 70
     1
102
RTVSPropertyOp27
 70
     1
  0
XRECORD
  5
DEC
102
{ACAD_REACTORS
330
DEB
102
}
330
DEB
100
AcDbXrecord
280
     1
102
RTVSPropertyOp0
 70
     1
102
RTVSPropertyOp1
 70
     1
102
RTVSPropertyOp2
 70
     1
102
RTVSPropertyOp3
 70
     1
102
RTVSPropertyOp4
 70
     1
102
RTVSPropertyOp5
 70
     1
102
RTVSPropertyOp6
 70
     1
102
RTVSPropertyOp7
 70
     1
102
RTVSPropertyOp8
 70
     1
102
RTVSPropertyOp9
 70
     1
102
RTVSPropertyOp10
 70
     1
102
RTVSPropertyOp11
 70
     1
102
RTVSPropertyOp12
 70
     1
102
RTVSPropertyOp13
 70
     1
102
RTVSPropertyOp14
 70
     1
102
RTVSPropertyOp15
 70
     1
102
RTVSPropertyOp16
 70
     1
102
RTVSPropertyOp17
 70
     1
102
RTVSPropertyOp18
 70
     1
102
RTVSPropertyOp19
 70
     1
102
RTVSPropertyOp20
 70
     1
102
RTVSPropertyOp21
 70
     1
102
RTVSPropertyOp22
 70
     1
102
RTVSPropertyOp23
 70
     1
102
RTVSPropertyOp24
 70
     1
102
RTVSPropertyOp25
 70
     1
102
RTVSPropertyOp26
 70
     1
102
RTVSPropertyOp27
 70
     1
  0
XRECORD
  5
DEE
102
{ACAD_REACTORS
330
DED
102
}
330
DED
100
AcDbXrecord
280
     1
102
RTVSPropertyOp0
 70
     1
102
RTVSPropertyOp1
 70
     1
102
RTVSPropertyOp2
 70
     1
102
RTVSPropertyOp3
 70
     1
102
RTVSPropertyOp4
 70
     1
102
RTVSPropertyOp5
 70
     1
102
RTVSPropertyOp6
 70
     1
102
RTVSPropertyOp7
 70
     1
102
RTVSPropertyOp8
 70
     1
102
RTVSPropertyOp9
 70
     1
102
RTVSPropertyOp10
 70
     1
102
RTVSPropertyOp11
 70
     1
102
RTVSPropertyOp12
 70
     1
102
RTVSPropertyOp13
 70
     1
102
RTVSPropertyOp14
 70
     1
102
RTVSPropertyOp15
 70
     1
102
RTVSPropertyOp16
 70
     1
102
RTVSPropertyOp17
 70
     1
102
RTVSPropertyOp18
 70
     1
102
RTVSPropertyOp19
 70
     1
102
RTVSPropertyOp20
 70
     1
102
RTVSPropertyOp21
 70
     1
102
RTVSPropertyOp22
 70
     1
102
RTVSPropertyOp23
 70
     1
102
RTVSPropertyOp24
 70
     1
102
RTVSPropertyOp25
 70
     1
102
RTVSPropertyOp26
 70
     1
102
RTVSPropertyOp27
 70
     1
  0
XRECORD
  5
E02
102
{ACAD_REACTORS
330
E01
102
}
330
E01
100
AcDbXrecord
280
     1
102
RTVSPropertyOp0
 70
     1
102
RTVSPropertyOp1
 70
     1
102
RTVSPropertyOp2
 70
     1
102
RTVSPropertyOp3
 70
     1
102
RTVSPropertyOp4
 70
     1
102
RTVSPropertyOp5
 70
     1
102
RTVSPropertyOp6
 70
     1
102
RTVSPropertyOp7
 70
     1
102
RTVSPropertyOp8
 70
     1
102
RTVSPropertyOp9
 70
     1
102
RTVSPropertyOp10
 70
     1
102
RTVSPropertyOp11
 70
     1
102
RTVSPropertyOp12
 70
     1
102
RTVSPropertyOp13
 70
     1
102
RTVSPropertyOp14
 70
     1
102
RTVSPropertyOp15
 70
     1
102
RTVSPropertyOp16
 70
     1
102
RTVSPropertyOp17
 70
     1
102
RTVSPropertyOp18
 70
     1
102
RTVSPropertyOp19
 70
     1
102
RTVSPropertyOp20
 70
     1
102
RTVSPropertyOp21
 70
     1
102
RTVSPropertyOp22
 70
     1
102
RTVSPropertyOp23
 70
     1
102
RTVSPropertyOp24
 70
     1
102
RTVSPropertyOp25
 70
     1
102
RTVSPropertyOp26
 70
     1
102
RTVSPropertyOp27
 70
     1
  0
XRECORD
  5
DF8
102
{ACAD_REACTORS
330
DF7
102
}
330
DF7
100
AcDbXrecord
280
     1
102
RTVSPropertyOp0
 70
     1
102
RTVSPropertyOp1
 70
     1
102
RTVSPropertyOp2
 70
     1
102
RTVSPropertyOp3
 70
     1
102
RTVSPropertyOp4
 70
     1
102
RTVSPropertyOp5
 70
     1
102
RTVSPropertyOp6
 70
     1
102
RTVSPropertyOp7
 70
     1
102
RTVSPropertyOp8
 70
     1
102
RTVSPropertyOp9
 70
     1
102
RTVSPropertyOp10
 70
     1
102
RTVSPropertyOp11
 70
     1
102
RTVSPropertyOp12
 70
     1
102
RTVSPropertyOp13
 70
     1
102
RTVSPropertyOp14
 70
     1
102
RTVSPropertyOp15
 70
     1
102
RTVSPropertyOp16
 70
     1
102
RTVSPropertyOp17
 70
     1
102
RTVSPropertyOp18
 70
     1
102
RTVSPropertyOp19
 70
     1
102
RTVSPropertyOp20
 70
     1
102
RTVSPropertyOp21
 70
     1
102
RTVSPropertyOp22
 70
     1
102
RTVSPropertyOp23
 70
     1
102
RTVSPropertyOp24
 70
     1
102
RTVSPropertyOp25
 70
     1
102
RTVSPropertyOp26
 70
     1
102
RTVSPropertyOp27
 70
     1
  0
XRECORD
  5
E00
102
{ACAD_REACTORS
330
DFF
102
}
330
DFF
100
AcDbXrecord
280
     1
102
RTVSPropertyOp0
 70
     1
102
RTVSPropertyOp1
 70
     1
102
RTVSPropertyOp2
 70
     1
102
RTVSPropertyOp3
 70
     1
102
RTVSPropertyOp4
 70
     1
102
RTVSPropertyOp5
 70
     1
102
RTVSPropertyOp6
 70
     1
102
RTVSPropertyOp7
 70
     1
102
RTVSPropertyOp8
 70
     1
102
RTVSPropertyOp9
 70
     1
102
RTVSPropertyOp10
 70
     1
102
RTVSPropertyOp11
 70
     1
102
RTVSPropertyOp12
 70
     1
102
RTVSPropertyOp13
 70
     1
102
RTVSPropertyOp14
 70
     1
102
RTVSPropertyOp15
 70
     1
102
RTVSPropertyOp16
 70
     1
102
RTVSPropertyOp17
 70
     1
102
RTVSPropertyOp18
 70
     1
102
RTVSPropertyOp19
 70
     1
102
RTVSPropertyOp20
 70
     1
102
RTVSPropertyOp21
 70
     1
102
RTVSPropertyOp22
 70
     1
102
RTVSPropertyOp23
 70
     1
102
RTVSPropertyOp24
 70
     1
102
RTVSPropertyOp25
 70
     1
102
RTVSPropertyOp26
 70
     1
102
RTVSPropertyOp27
 70
     1
  0
ENDSEC
  0
EOF
