  0
SECTION
  2
HEADER
  9
$ACADVER
  1
AC1015
  9
$ACADMAINTVER
 70
     6
  9
$DWGCODEPAGE
  3
ANSI_1252
  9
$INSBASE
 10
0.0
 20
0.0
 30
0.0
  9
$EXTMIN
 10
0.0
 20
0.0
 30
0.0
  9
$EXTMAX
 10
25.0
 20
35.0
 30
0.0
  9
$LIMMIN
 10
0.0
 20
0.0
  9
$LIMMAX
 10
420.0
 20
297.0
  9
$ORTHOMODE
 70
     0
  9
$REGENMODE
 70
     1
  9
$FILLMODE
 70
     1
  9
$QTEXTMODE
 70
     0
  9
$MIRRTEXT
 70
     1
  9
$LTSCALE
 40
4.25
  9
$ATTMODE
 70
     1
  9
$TEXTSIZE
 40
2.5
  9
$TRACEWID
 40
1.0
  9
$TEXTSTYLE
  7
Standard
  9
$CLAYER
  8
0
  9
$CELTYPE
  6
ByLayer
  9
$CECOLOR
 62
   256
  9
$CELTSCALE
 40
1.0
  9
$DISPSILH
 70
     0
  9
$DIMSCALE
 40
1.0
  9
$DIMASZ
 40
2.5
  9
$DIMEXO
 40
0.625
  9
$DIMDLI
 40
3.75
  9
$DIMRND
 40
0.0
  9
$DIMDLE
 40
0.0
  9
$DIMEXE
 40
1.25
  9
$DIMTP
 40
0.0
  9
$DIMTM
 40
0.0
  9
$DIMTXT
 40
2.5
  9
$DIMCEN
 40
2.5
  9
$DIMTSZ
 40
0.0
  9
$DIMTOL
 70
     0
  9
$DIMLIM
 70
     0
  9
$DIMTIH
 70
     0
  9
$DIMTOH
 70
     0
  9
$DIMSE1
 70
     0
  9
$DIMSE2
 70
     0
  9
$DIMTAD
 70
     1
  9
$DIMZIN
 70
     8
  9
$DIMBLK
  1

  9
$DIMASO
 70
     1
  9
$DIMSHO
 70
     1
  9
$DIMPOST
  1

  9
$DIMAPOST
  1

  9
$DIMALT
 70
     0
  9
$DIMALTD
 70
     3
  9
$DIMALTF
 40
0.03937007874016
  9
$DIMLFAC
 40
1.0
  9
$DIMTOFL
 70
     1
  9
$DIMTVP
 40
0.0
  9
$DIMTIX
 70
     0
  9
$DIMSOXD
 70
     0
  9
$DIMSAH
 70
     0
  9
$DIMBLK1
  1

  9
$DIMBLK2
  1

  9
$DIMSTYLE
  2
ISO-25
  9
$DIMCLRD
 70
     0
  9
$DIMCLRE
 70
     0
  9
$DIMCLRT
 70
     0
  9
$DIMTFAC
 40
1.0
  9
$DIMGAP
 40
0.625
  9
$DIMJUST
 70
     0
  9
$DIMSD1
 70
     0
  9
$DIMSD2
 70
     0
  9
$DIMTOLJ
 70
     0
  9
$DIMTZIN
 70
     8
  9
$DIMALTZ
 70
     0
  9
$DIMALTTZ
 70
     0
  9
$DIMUPT
 70
     0
  9
$DIMDEC
 70
     2
  9
$DIMTDEC
 70
     2
  9
$DIMALTU
 70
     2
  9
$DIMALTTD
 70
     3
  9
$DIMTXSTY
  7
Standard
  9
$DIMAUNIT
 70
     0
  9
$DIMADEC
 70
     0
  9
$DIMALTRND
 40
0.0
  9
$DIMAZIN
 70
     0
  9
$DIMDSEP
 70
    44
  9
$DIMATFIT
 70
     3
  9
$DIMFRAC
 70
     0
  9
$DIMLDRBLK
  1

  9
$DIMLUNIT
 70
     2
  9
$DIMLWD
 70
    -2
  9
$DIMLWE
 70
    -2
  9
$DIMTMOVE
 70
     0
  9
$LUNITS
 70
     2
  9
$LUPREC
 70
     4
  9
$SKETCHINC
 40
1.0
  9
$FILLETRAD
 40
10.0
  9
$AUNITS
 70
     0
  9
$AUPREC
 70
     0
  9
$MENU
  1
.
  9
$ELEVATION
 40
0.0
  9
$PELEVATION
 40
0.0
  9
$THICKNESS
 40
0.0
  9
$LIMCHECK
 70
     0
  9
$CHAMFERA
 40
10.0
  9
$CHAMFERB
 40
10.0
  9
$CHAMFERC
 40
20.0
  9
$CHAMFERD
 40
0.0
  9
$SKPOLY
 70
     0
  9
$TDCREATE
 40
2458577.055555556
  9
$TDUCREATE
 40
2458576.972222222
  9
$TDUPDATE
 40
2458577.059027778
  9
$TDUUPDATE
 40
2458576.975694444
  9
$TDINDWG
 40
0.0000000116
  9
$TDUSRTIMER
 40
0.0000000116
  9
$USRTIMER
 70
     1
  9
$ANGBASE
 50
0.0
  9
$ANGDIR
 70
     0
  9
$PDMODE
 70
     0
  9
$PDSIZE
 40
0.0
  9
$PLINEWID
 40
0.0
  9
$SPLFRAME
 70
     0
  9
$SPLINETYPE
 70
     6
  9
$SPLINESEGS
 70
     8
  9
$HANDSEED
  5
9EB
  9
$SURFTAB1
 70
     6
  9
$SURFTAB2
 70
     6
  9
$SURFTYPE
 70
     6
  9
$SURFU
 70
     6
  9
$SURFV
 70
     6
  9
$UCSBASE
  2

  9
$UCSNAME
  2

  9
$UCSORG
 10
0.0
 20
0.0
 30
0.0
  9
$UCSXDIR
 10
1.0
 20
0.0
 30
0.0
  9
$UCSYDIR
 10
0.0
 20
1.0
 30
0.0
  9
$UCSORTHOREF
  2

  9
$UCSORTHOVIEW
 70
     0
  9
$UCSORGTOP
 10
0.0
 20
0.0
 30
0.0
  9
$UCSORGBOTTOM
 10
0.0
 20
0.0
 30
0.0
  9
$UCSORGLEFT
 10
0.0
 20
0.0
 30
0.0
  9
$UCSORGRIGHT
 10
0.0
 20
0.0
 30
0.0
  9
$UCSORGFRONT
 10
0.0
 20
0.0
 30
0.0
  9
$UCSORGBACK
 10
0.0
 20
0.0
 30
0.0
  9
$PUCSBASE
  2

  9
$PUCSNAME
  2

  9
$PUCSORG
 10
0.0
 20
0.0
 30
0.0
  9
$PUCSXDIR
 10
1.0
 20
0.0
 30
0.0
  9
$PUCSYDIR
 10
0.0
 20
1.0
 30
0.0
  9
$PUCSORTHOREF
  2

  9
$PUCSORTHOVIEW
 70
     0
  9
$PUCSORGTOP
 10
0.0
 20
0.0
 30
0.0
  9
$PUCSORGBOTTOM
 10
0.0
 20
0.0
 30
0.0
  9
$PUCSORGLEFT
 10
0.0
 20
0.0
 30
0.0
  9
$PUCSORGRIGHT
 10
0.0
 20
0.0
 30
0.0
  9
$PUCSORGFRONT
 10
0.0
 20
0.0
 30
0.0
  9
$PUCSORGBACK
 10
0.0
 20
0.0
 30
0.0
  9
$USERI1
 70
     0
  9
$USERI2
 70
     0
  9
$USERI3
 70
     0
  9
$USERI4
 70
     0
  9
$USERI5
 70
     0
  9
$USERR1
 40
0.0
  9
$USERR2
 40
0.0
  9
$USERR3
 40
0.0
  9
$USERR4
 40
0.0
  9
$USERR5
 40
0.0
  9
$WORLDVIEW
 70
     1
  9
$SHADEDGE
 70
     3
  9
$SHADEDIF
 70
    70
  9
$TILEMODE
 70
     1
  9
$MAXACTVP
 70
    64
  9
$PINSBASE
 10
0.0
 20
0.0
 30
0.0
  9
$PLIMCHECK
 70
     0
  9
$PEXTMIN
 10
1.000000000000000E+20
 20
1.000000000000000E+20
 30
1.000000000000000E+20
  9
$PEXTMAX
 10
-1.000000000000000E+20
 20
-1.000000000000000E+20
 30
-1.000000000000000E+20
  9
$PLIMMIN
 10
0.0
 20
0.0
  9
$PLIMMAX
 10
420.0
 20
297.0
  9
$UNITMODE
 70
     0
  9
$VISRETAIN
 70
     1
  9
$PLINEGEN
 70
     0
  9
$PSLTSCALE
 70
     1
  9
$TREEDEPTH
 70
  3020
  9
$CMLSTYLE
  2
Standard
  9
$CMLJUST
 70
     0
  9
$CMLSCALE
 40
20.0
  9
$PROXYGRAPHICS
 70
     1
  9
$MEASUREMENT
 70
     1
  9
$CELWEIGHT
370
    -1
  9
$ENDCAPS
280
     0
  9
$JOINSTYLE
280
     0
  9
$LWDISPLAY
290
     0
  9
$INSUNITS
 70
     4
  9
$HYPERLINKBASE
  1

  9
$STYLESHEET
  1

  9
$XEDIT
290
     1
  9
$CEPSNTYPE
380
     0
  9
$PSTYLEMODE
290
     1
  9
$FINGERPRINTGUID
  2
{CA0A5EE2-49F8-45BE-9430-C6D16F34AC42}
  9
$VERSIONGUID
  2
{FAEB1C32-E019-11D5-929B-00C0DF256EC4}
  9
$EXTNAMES
290
     1
  9
$PSVPSCALE
 40
0.0
  9
$OLESTARTUP
290
     0
  0
ENDSEC
  0
SECTION
  2
CLASSES
  0
CLASS
  1
ACDBDICTIONARYWDFLT
  2
AcDbDictionaryWithDefault
  3
ObjectDBX Classes
 90
        0
280
     0
281
     0
  0
CLASS
  1
VISUALSTYLE
  2
AcDbVisualStyle
  3
ObjectDBX Classes
 90
     4095
280
     0
281
     0
  0
CLASS
  1
MATERIAL
  2
AcDbMaterial
  3
ObjectDBX Classes
 90
     1153
280
     0
281
     0
  0
CLASS
  1
SCALE
  2
AcDbScale
  3
ObjectDBX Classes
 90
     1153
280
     0
281
     0
  0
CLASS
  1
DICTIONARYVAR
  2
AcDbDictionaryVar
  3
ObjectDBX Classes
 90
        0
280
     0
281
     0
  0
CLASS
  1
ACDBPLACEHOLDER
  2
AcDbPlaceHolder
  3
ObjectDBX Classes
 90
        0
280
     0
281
     0
  0
CLASS
  1
LAYOUT
  2
AcDbLayout
  3
ObjectDBX Classes
 90
        0
280
     0
281
     0
  0
ENDSEC
  0
SECTION
  2
TABLES
  0
TABLE
  2
VPORT
  5
8
330
0
100
AcDbSymbolTable
 70
     1
  0
VPORT
  5
29
330
8
100
AcDbSymbolTableRecord
100
AcDbViewportTableRecord
  2
*Active
 70
     0
 10
0.0
 20
0.0
 11
1.0
 21
1.0
 12
11.26
 22
4.5
 13
0.0
 23
0.0
 14
10.0
 24
10.0
 15
10.0
 25
10.0
 16
0.0
 26
0.0
 36
1.0
 17
0.0
 27
0.0
 37
0.0
 40
9.0
 41
2.503333333333333
 42
50.0
 43
0.0
 44
0.0
 50
0.0
 51
0.0
 71
     0
 72
   100
 73
     1
 74
     3
 75
     0
 76
     0
 77
     0
 78
     0
281
     0
 65
     1
110
0.0
120
0.0
130
0.0
111
1.0
121
0.0
131
0.0
112
0.0
122
1.0
132
0.0
 79
     0
146
0.0
  0
ENDTAB
  0
TABLE
  2
LTYPE
  5
5
330
0
100
AcDbSymbolTable
 70
    10
  0
LTYPE
  5
14
330
5
100
AcDbSymbolTableRecord
100
AcDbLinetypeTableRecord
  2
ByBlock
 70
     0
  3

 72
    65
 73
     0
 40
0.0
  0
LTYPE
  5
15
330
5
100
AcDbSymbolTableRecord
100
AcDbLinetypeTableRecord
  2
ByLayer
 70
     0
  3

 72
    65
 73
     0
 40
0.0
  0
LTYPE
  5
16
330
5
100
AcDbSymbolTableRecord
100
AcDbLinetypeTableRecord
  2
Continuous
 70
     0
  3
Solid line
 72
    65
 73
     0
 40
0.0
  0
LTYPE
  5
45
330
5
100
AcDbSymbolTableRecord
100
AcDbLinetypeTableRecord
  2
phl_thick
 70
     0
  3
THICK
 72
    65
 73
     0
 40
0.0
  0
LTYPE
  5
25C
330
5
100
AcDbSymbolTableRecord
100
AcDbLinetypeTableRecord
  2
CUT
 70
     0
  3
THICK
 72
    65
 73
     0
 40
0.0
  0
LTYPE
  5
263
330
5
100
AcDbSymbolTableRecord
100
AcDbLinetypeTableRecord
  2
NOCUT
 70
     0
  3
THICK
 72
    65
 73
     0
 40
0.0
  0
LTYPE
  5
26A
330
5
100
AcDbSymbolTableRecord
100
AcDbLinetypeTableRecord
  2
SK1
 70
     0
  3
THICK
 72
    65
 73
     0
 40
0.0
  0
LTYPE
  5
272
330
5
100
AcDbSymbolTableRecord
100
AcDbLinetypeTableRecord
  2
ls_SK2
 70
     0
  3
THIN
 72
    65
 73
     0
 40
0.0
  0
LTYPE
  5
31E
330
5
100
AcDbSymbolTableRecord
100
AcDbLinetypeTableRecord
  2
ls_2
 70
     0
  3
THIN
 72
    65
 73
     0
 40
0.0
  0
LTYPE
  5
4D1
330
5
100
AcDbSymbolTableRecord
100
AcDbLinetypeTableRecord
  2
ls_SK1
 70
     0
  3
THICK
 72
    65
 73
     0
 40
0.0
  0
LTYPE
  5
50B
330
5
100
AcDbSymbolTableRecord
100
AcDbLinetypeTableRecord
  2
LONGDASH_DASH
 70
     0
  3
THIN_DASHDOT
 72
    65
 73
     4
 40
0.85
 49
0.4
 74
     0
 49
-0.2
 74
     0
 49
0.05
 74
     0
 49
-0.2
 74
     0
  0
LTYPE
  5
510
330
5
100
AcDbSymbolTableRecord
100
AcDbLinetypeTableRecord
  2
ls1
 70
     0
  3
THICK
 72
    65
 73
     0
 40
0.0
  0
ENDTAB
  0
TABLE
  2
LAYER
  5
2
330
0
100
AcDbSymbolTable
 70
    10
  0
LAYER
  5
10
330
2
100
AcDbSymbolTableRecord
100
AcDbLayerTableRecord
  2
0
 70
     0
 62
     7
  6
Continuous
370
    -3
390
F
  0
LAYER
  5
44
330
2
100
AcDbSymbolTableRecord
100
AcDbLayerTableRecord
  2
1
 70
     0
 62
4
  6
CONTINUOUS
370
50
370
    -3
390
F
  0
LAYER
  5
25B
330
2
100
AcDbSymbolTableRecord
100
AcDbLayerTableRecord
  2
CUT
 70
     0
 62
1
  6
CONTINUOUS
370
25
370
    -3
390
F
  0
LAYER
  5
262
330
2
100
AcDbSymbolTableRecord
100
AcDbLayerTableRecord
  2
NOCUT
 70
     0
 62
7
  6
CONTINUOUS
370
25
370
    -3
390
F
  0
LAYER
  5
269
330
2
100
AcDbSymbolTableRecord
100
AcDbLayerTableRecord
  2
SK1
 70
     0
 62
4
  6
CONTINUOUS
370
50
370
    -3
390
F
  0
LAYER
  5
271
330
2
100
AcDbSymbolTableRecord
100
AcDbLayerTableRecord
  2
SK2
 70
     0
 62
7
  6
CONTINUOUS
370
25
370
    -3
390
F
  0
LAYER
  5
31D
330
2
100
AcDbSymbolTableRecord
100
AcDbLayerTableRecord
  2
2
 70
     0
 62
7
  6
CONTINUOUS
370
25
370
    -3
390
F
  0
LAYER
  5
50A
330
2
100
AcDbSymbolTableRecord
100
AcDbLayerTableRecord
  2
4
 70
     0
 62
2
  6
LONGDASH_DASH
370
25
370
    -3
390
F
  0
LAYER
  5
50D
330
2
100
AcDbSymbolTableRecord
100
AcDbLayerTableRecord
  2
SK4
 70
     0
 62
2
  6
LONGDASH_DASH
370
25
370
    -3
390
F
  0
LAYER
  5
50F
330
2
100
AcDbSymbolTableRecord
100
AcDbLayerTableRecord
  2
SK6
 70
     0
 62
5
  6
CONTINUOUS
370
25
370
    -3
390
F
  0
ENDTAB
  0
TABLE
  2
STYLE
  5
3
330
0
100
AcDbSymbolTable
 70
     1
  0
STYLE
  5
11
330
3
100
AcDbSymbolTableRecord
100
AcDbTextStyleTableRecord
  2
Standard
 70
     0
 40
0.0
 41
1.0
 50
0.0
 71
     0
 42
2.5
  3
Monospac821 BT
  4

  0
ENDTAB
  0
TABLE
  2
VIEW
  5
6
330
0
100
AcDbSymbolTable
 70
     0
  0
ENDTAB
  0
TABLE
  2
UCS
  5
7
330
0
100
AcDbSymbolTable
 70
     0
  0
ENDTAB
  0
TABLE
  2
APPID
  5
9
330
0
100
AcDbSymbolTable
 70
     2
  0
APPID
  5
12
330
9
100
AcDbSymbolTableRecord
100
AcDbRegAppTableRecord
  2
ACAD
 70
     0
  0
APPID
  5
3F
330
9
100
AcDbSymbolTableRecord
100
AcDbRegAppTableRecord
  2
ccLab
 70
     0
  0
ENDTAB
  0
TABLE
  2
DIMSTYLE
  5
A
330
0
100
AcDbSymbolTable
 70
     1
100
AcDbDimStyleTable
  0
DIMSTYLE
105
27
330
A
100
AcDbSymbolTableRecord
100
AcDbDimStyleTableRecord
  2
ISO-25
 70
     0
 41
2.5
 42
0.625
 43
3.75
 44
1.25
 73
     0
 74
     0
 77
     1
 78
     8
140
2.5
141
2.5
143
0.03937007874016
147
0.625
171
     3
172
     1
271
     2
272
     2
274
     3
278
    44
283
     0
284
     8
340
11
  0
ENDTAB
  0
TABLE
  2
BLOCK_RECORD
  5
1
330
0
100
AcDbSymbolTable
 70
     2
  0
BLOCK_RECORD
  5
1F
330
1
100
AcDbSymbolTableRecord
100
AcDbBlockTableRecord
  2
*Model_Space
340
22
  0
BLOCK_RECORD
  5
1B
330
1
100
AcDbSymbolTableRecord
100
AcDbBlockTableRecord
  2
*Paper_Space
340
1E
  0
BLOCK_RECORD
  5
23
330
1
100
AcDbSymbolTableRecord
100
AcDbBlockTableRecord
  2
*Paper_Space0
340
26
  0
ENDTAB
  0
ENDSEC
  0
SECTION
  2
BLOCKS
  0
BLOCK
  5
20
330
1F
100
AcDbEntity
  8
0
100
AcDbBlockBegin
  2
*Model_Space
 70
     0
 10
0.0
 20
0.0
 30
0.0
  3
*Model_Space
  1

  0
ENDBLK
  5
21
330
1F
100
AcDbEntity
  8
0
100
AcDbBlockEnd
  0
BLOCK
  5
1C
330
1B
100
AcDbEntity
 67
     1
  8
0
100
AcDbBlockBegin
  2
*Paper_Space
 70
     0
 10
0.0
 20
0.0
 30
0.0
  3
*Paper_Space
  1

  0
ENDBLK
  5
1D
330
1B
100
AcDbEntity
 67
     1
  8
0
100
AcDbBlockEnd
  0
BLOCK
  5
24
330
23
100
AcDbEntity
  8
0
100
AcDbBlockBegin
  2
*Paper_Space0
 70
     0
 10
0.0
 20
0.0
 30
0.0
  3
*Paper_Space0
  1

  0
ENDBLK
  5
25
330
23
100
AcDbEntity
  8
0
100
AcDbBlockEnd
  0
ENDSEC
  0
SECTION
  2
ENTITIES
  0
LINE
  5
51A
330
1F
100
AcDbEntity
  8
1
  6
CONTINUOUS
370
50
 62
4
100
AcDbLine
 10
49.83972199999999
 20
-0.299565
 30
0.0
 11
49.839672
 21
-0.247582
 31
0.0
  0
LINE
  5
51B
330
1F
100
AcDbEntity
  8
1
  6
CONTINUOUS
370
50
 62
4
100
AcDbLine
 10
50.0
 20
0.799999
 30
0.0
 11
49.999966
 21
0.803608
 31
0.0
  0
LINE
  5
51C
330
1F
100
AcDbEntity
  8
1
  6
CONTINUOUS
370
50
 62
4
100
AcDbLine
 10
47.083633
 20
0.062819
 30
0.0
 11
47.083496
 21
0.06998
 31
0.0
  0
LINE
  5
51D
330
1F
100
AcDbEntity
  8
1
  6
CONTINUOUS
370
50
 62
4
100
AcDbLine
 10
49.840858
 20
-0.351484
 30
0.0
 11
49.83972199999999
 21
-0.299565
 31
0.0
  0
LINE
  5
51E
330
1F
100
AcDbEntity
  8
1
  6
CONTINUOUS
370
50
 62
4
100
AcDbLine
 10
49.999966
 20
0.803608
 30
0.0
 11
49.99986999999999
 21
0.807215
 31
0.0
  0
LINE
  5
51F
330
1F
100
AcDbEntity
  8
1
  6
CONTINUOUS
370
50
 62
4
100
AcDbLine
 10
49.843082
 20
-0.403196
 30
0.0
 11
49.840858
 21
-0.351484
 31
0.0
  0
LINE
  5
520
330
1F
100
AcDbEntity
  8
1
  6
CONTINUOUS
370
50
 62
4
100
AcDbLine
 10
49.99986999999999
 20
0.807215
 30
0.0
 11
49.999706
 21
0.81082
 31
0.0
  0
LINE
  5
521
330
1F
100
AcDbEntity
  8
1
  6
CONTINUOUS
370
50
 62
4
100
AcDbLine
 10
49.642334
 20
0.564489
 30
0.0
 11
49.641701
 21
0.578085
 31
0.0
  0
LINE
  5
522
330
1F
100
AcDbEntity
  8
1
  6
CONTINUOUS
370
50
 62
4
100
AcDbLine
 10
47.761654
 20
0.848923
 30
0.0
 11
47.760468
 21
0.8695609999999999
 31
0.0
  0
LINE
  5
523
330
1F
100
AcDbEntity
  8
1
  6
CONTINUOUS
370
50
 62
4
100
AcDbLine
 10
49.999706
 20
0.81082
 30
0.0
 11
49.999481
 21
0.814422
 31
0.0
  0
LINE
  5
524
330
1F
100
AcDbEntity
  8
1
  6
CONTINUOUS
370
50
 62
4
100
AcDbLine
 10
49.84639
 20
-0.454347
 30
0.0
 11
49.843082
 21
-0.403196
 31
0.0
  0
LINE
  5
525
330
1F
100
AcDbEntity
  8
1
  6
CONTINUOUS
370
50
 62
4
100
AcDbLine
 10
47.084122
 20
0.055494
 30
0.0
 11
47.083633
 21
0.062819
 31
0.0
  0
LINE
  5
526
330
1F
100
AcDbEntity
  8
1
  6
CONTINUOUS
370
50
 62
4
100
AcDbLine
 10
49.999481
 20
0.814422
 30
0.0
 11
49.999187
 21
0.818021
 31
0.0
  0
LINE
  5
527
330
1F
100
AcDbEntity
  8
1
  6
CONTINUOUS
370
50
 62
4
100
AcDbLine
 10
49.85075
 20
-0.504477
 30
0.0
 11
49.84639
 21
-0.454347
 31
0.0
  0
LINE
  5
528
330
1F
100
AcDbEntity
  8
1
  6
CONTINUOUS
370
50
 62
4
100
AcDbLine
 10
49.641701
 20
0.578085
 30
0.0
 11
49.64038799999999
 21
0.592301
 31
0.0
  0
LINE
  5
529
330
1F
100
AcDbEntity
  8
1
  6
CONTINUOUS
370
50
 62
4
100
AcDbLine
 10
49.999187
 20
0.818021
 30
0.0
 11
49.998829
 21
0.821614
 31
0.0
  0
LINE
  5
52A
330
1F
100
AcDbEntity
  8
1
  6
CONTINUOUS
370
50
 62
4
100
AcDbLine
 10
49.85614
 20
-0.553455
 30
0.0
 11
49.85075
 21
-0.504477
 31
0.0
  0
LINE
  5
52B
330
1F
100
AcDbEntity
  8
1
  6
CONTINUOUS
370
50
 62
4
100
AcDbLine
 10
47.084961
 20
0.048009
 30
0.0
 11
47.084122
 21
0.055494
 31
0.0
  0
LINE
  5
52C
330
1F
100
AcDbEntity
  8
1
  6
CONTINUOUS
370
50
 62
4
100
AcDbLine
 10
49.998829
 20
0.821614
 30
0.0
 11
49.998405
 21
0.825202
 31
0.0
  0
LINE
  5
52D
330
1F
100
AcDbEntity
  8
1
  6
CONTINUOUS
370
50
 62
4
100
AcDbLine
 10
49.64038799999999
 20
0.592301
 30
0.0
 11
49.638428
 21
0.60707
 31
0.0
  0
LINE
  5
52E
330
1F
100
AcDbEntity
  8
1
  6
CONTINUOUS
370
50
 62
4
100
AcDbLine
 10
49.862534
 20
-0.601152
 30
0.0
 11
49.85614
 21
-0.553455
 31
0.0
  0
LINE
  5
52F
330
1F
100
AcDbEntity
  8
1
  6
CONTINUOUS
370
50
 62
4
100
AcDbLine
 10
49.998405
 20
0.825202
 30
0.0
 11
49.996635
 21
0.83654
 31
0.0
  0
LINE
  5
530
330
1F
100
AcDbEntity
  8
1
  6
CONTINUOUS
370
50
 62
4
100
AcDbLine
 10
47.086166
 20
0.04037
 30
0.0
 11
47.084961
 21
0.048009
 31
0.0
  0
LINE
  5
531
330
1F
100
AcDbEntity
  8
1
  6
CONTINUOUS
370
50
 62
4
100
AcDbLine
 10
49.86991099999999
 20
-0.647442
 30
0.0
 11
49.862534
 21
-0.601152
 31
0.0
  0
LINE
  5
532
330
1F
100
AcDbEntity
  8
1
  6
CONTINUOUS
370
50
 62
4
100
AcDbLine
 10
49.638428
 20
0.60707
 30
0.0
 11
49.63585699999999
 21
0.6223299999999999
 31
0.0
  0
LINE
  5
533
330
1F
100
AcDbEntity
  8
1
  6
CONTINUOUS
370
50
 62
4
100
AcDbLine
 10
47.760468
 20
0.8695609999999999
 30
0.0
 11
47.757259
 21
0.888207
 31
0.0
  0
LINE
  5
534
330
1F
100
AcDbEntity
  8
1
  6
CONTINUOUS
370
50
 62
4
100
AcDbLine
 10
49.87824999999999
 20
-0.692198
 30
0.0
 11
49.86991099999999
 21
-0.647442
 31
0.0
  0
LINE
  5
535
330
1F
100
AcDbEntity
  8
1
  6
CONTINUOUS
370
50
 62
4
100
AcDbLine
 10
49.63585699999999
 20
0.6223299999999999
 30
0.0
 11
49.63269
 21
0.638115
 31
0.0
  0
LINE
  5
536
330
1F
100
AcDbEntity
  8
1
  6
CONTINUOUS
370
50
 62
4
100
AcDbLine
 10
47.087734
 20
0.032582
 30
0.0
 11
47.086166
 21
0.04037
 31
0.0
  0
LINE
  5
537
330
1F
100
AcDbEntity
  8
1
  6
CONTINUOUS
370
50
 62
4
100
AcDbLine
 10
49.887489
 20
-0.735146
 30
0.0
 11
49.87824999999999
 21
-0.692198
 31
0.0
  0
LINE
  5
538
330
1F
100
AcDbEntity
  8
1
  6
CONTINUOUS
370
50
 62
4
100
AcDbLine
 10
49.996635
 20
0.83654
 30
0.0
 11
49.994228
 21
0.847704
 31
0.0
  0
LINE
  5
539
330
1F
100
AcDbEntity
  8
1
  6
CONTINUOUS
370
50
 62
4
100
AcDbLine
 10
49.63269
 20
0.638115
 30
0.0
 11
49.628925
 21
0.65447
 31
0.0
  0
LINE
  5
53A
330
1F
100
AcDbEntity
  8
1
  6
CONTINUOUS
370
50
 62
4
100
AcDbLine
 10
47.089684
 20
0.024646
 30
0.0
 11
47.087734
 21
0.032582
 31
0.0
  0
LINE
  5
53B
330
1F
100
AcDbEntity
  8
1
  6
CONTINUOUS
370
50
 62
4
100
AcDbLine
 10
49.897564
 20
-0.776033
 30
0.0
 11
49.887489
 21
-0.735146
 31
0.0
  0
LINE
  5
53C
330
1F
100
AcDbEntity
  8
1
  6
CONTINUOUS
370
50
 62
4
100
AcDbLine
 10
50.0
 20
0.175257
 30
0.0
 11
49.93953699999999
 21
0.415294
 31
0.0
  0
LINE
  5
53D
330
1F
100
AcDbEntity
  8
1
  6
CONTINUOUS
370
50
 62
4
100
AcDbLine
 10
49.628925
 20
0.65447
 30
0.0
 11
49.624577
 21
0.6713669999999999
 31
0.0
  0
LINE
  5
53E
330
1F
100
AcDbEntity
  8
1
  6
CONTINUOUS
370
50
 62
4
100
AcDbLine
 10
49.994228
 20
0.847704
 30
0.0
 11
49.99119899999999
 21
0.8586699999999999
 31
0.0
  0
LINE
  5
53F
330
1F
100
AcDbEntity
  8
1
  6
CONTINUOUS
370
50
 62
4
100
AcDbLine
 10
49.908428
 20
-0.814777
 30
0.0
 11
49.897564
 21
-0.776033
 31
0.0
  0
LINE
  5
540
330
1F
100
AcDbEntity
  8
1
  6
CONTINUOUS
370
50
 62
4
100
AcDbLine
 10
49.624577
 20
0.6713669999999999
 30
0.0
 11
49.619656
 21
0.688773
 31
0.0
  0
LINE
  5
541
330
1F
100
AcDbEntity
  8
1
  6
CONTINUOUS
370
50
 62
4
100
AcDbLine
 10
47.548008
 20
-0.9418949999999999
 30
0.0
 11
47.546799
 21
-0.93768
 31
0.0
  0
LINE
  5
542
330
1F
100
AcDbEntity
  8
1
  6
CONTINUOUS
370
50
 62
4
100
AcDbLine
 10
47.09200999999999
 20
0.016566
 30
0.0
 11
47.089684
 21
0.024646
 31
0.0
  0
LINE
  5
543
330
1F
100
AcDbEntity
  8
1
  6
CONTINUOUS
370
50
 62
4
100
AcDbLine
 10
49.619656
 20
0.688773
 30
0.0
 11
49.61416999999999
 21
0.706661
 31
0.0
  0
LINE
  5
544
330
1F
100
AcDbEntity
  8
1
  6
CONTINUOUS
370
50
 62
4
100
AcDbLine
 10
47.757259
 20
0.888207
 30
0.0
 11
47.752167
 21
0.9047109999999999
 31
0.0
  0
LINE
  5
545
330
1F
100
AcDbEntity
  8
1
  6
CONTINUOUS
370
50
 62
4
100
AcDbLine
 10
49.920036
 20
-0.851262
 30
0.0
 11
49.908428
 21
-0.814777
 31
0.0
  0
LINE
  5
546
330
1F
100
AcDbEntity
  8
1
  6
CONTINUOUS
370
50
 62
4
100
AcDbLine
 10
49.61416999999999
 20
0.706661
 30
0.0
 11
49.60813899999999
 21
0.724999
 31
0.0
  0
LINE
  5
547
330
1F
100
AcDbEntity
  8
1
  6
CONTINUOUS
370
50
 62
4
100
AcDbLine
 10
47.09473
 20
0.008349
 30
0.0
 11
47.09200999999999
 21
0.016566
 31
0.0
  0
LINE
  5
548
330
1F
100
AcDbEntity
  8
1
  6
CONTINUOUS
370
50
 62
4
100
AcDbLine
 10
49.99119899999999
 20
0.8586699999999999
 30
0.0
 11
49.98755999999999
 21
0.869413
 31
0.0
  0
LINE
  5
549
330
1F
100
AcDbEntity
  8
1
  6
CONTINUOUS
370
50
 62
4
100
AcDbLine
 10
49.60813899999999
 20
0.724999
 30
0.0
 11
49.601566
 21
0.7437579999999999
 31
0.0
  0
LINE
  5
54A
330
1F
100
AcDbEntity
  8
1
  6
CONTINUOUS
370
50
 62
4
100
AcDbLine
 10
49.932308
 20
-0.8853289999999999
 30
0.0
 11
49.920036
 21
-0.851262
 31
0.0
  0
LINE
  5
54B
330
1F
100
AcDbEntity
  8
1
  6
CONTINUOUS
370
50
 62
4
100
AcDbLine
 10
49.601566
 20
0.7437579999999999
 30
0.0
 11
49.59446699999999
 21
0.762909
 31
0.0
  0
LINE
  5
54C
330
1F
100
AcDbEntity
  8
1
  6
CONTINUOUS
370
50
 62
4
100
AcDbLine
 10
47.09784699999999
 20
0.0
 30
0.0
 11
47.09473
 21
0.008349
 31
0.0
  0
LINE
  5
54D
330
1F
100
AcDbEntity
  8
1
  6
CONTINUOUS
370
50
 62
4
100
AcDbLine
 10
49.59446699999999
 20
0.762909
 30
0.0
 11
49.586853
 21
0.78242
 31
0.0
  0
LINE
  5
54E
330
1F
100
AcDbEntity
  8
1
  6
CONTINUOUS
370
50
 62
4
100
AcDbLine
 10
49.552456
 20
0.8661449999999999
 30
0.0
 11
49.548172
 21
0.876761
 31
0.0
  0
LINE
  5
54F
330
1F
100
AcDbEntity
  8
1
  6
CONTINUOUS
370
50
 62
4
100
AcDbLine
 10
49.98755999999999
 20
0.869413
 30
0.0
 11
49.98333
 21
0.879894
 31
0.0
  0
LINE
  5
550
330
1F
100
AcDbEntity
  8
1
  6
CONTINUOUS
370
50
 62
4
100
AcDbLine
 10
49.556763
 20
0.85552
 30
0.0
 11
49.552456
 21
0.8661449999999999
 31
0.0
  0
LINE
  5
551
330
1F
100
AcDbEntity
  8
1
  6
CONTINUOUS
370
50
 62
4
100
AcDbLine
 10
49.5611
 20
0.8448859999999999
 30
0.0
 11
49.556763
 21
0.85552
 31
0.0
  0
LINE
  5
552
330
1F
100
AcDbEntity
  8
1
  6
CONTINUOUS
370
50
 62
4
100
AcDbLine
 10
49.586853
 20
0.78242
 30
0.0
 11
49.57873499999999
 21
0.802263
 31
0.0
  0
LINE
  5
553
330
1F
100
AcDbEntity
  8
1
  6
CONTINUOUS
370
50
 62
4
100
AcDbLine
 10
49.565468
 20
0.834243
 30
0.0
 11
49.5611
 21
0.8448859999999999
 31
0.0
  0
LINE
  5
554
330
1F
100
AcDbEntity
  8
1
  6
CONTINUOUS
370
50
 62
4
100
AcDbLine
 10
49.569862
 20
0.823592
 30
0.0
 11
49.565468
 21
0.834243
 31
0.0
  0
LINE
  5
555
330
1F
100
AcDbEntity
  8
1
  6
CONTINUOUS
370
50
 62
4
100
AcDbLine
 10
47.100903
 20
-0.007404
 30
0.0
 11
47.09784699999999
 21
0.0
 31
0.0
  0
LINE
  5
556
330
1F
100
AcDbEntity
  8
1
  6
CONTINUOUS
370
50
 62
4
100
AcDbLine
 10
49.574284
 20
0.812931
 30
0.0
 11
49.569862
 21
0.823592
 31
0.0
  0
LINE
  5
557
330
1F
100
AcDbEntity
  8
1
  6
CONTINUOUS
370
50
 62
4
100
AcDbLine
 10
49.57873499999999
 20
0.802263
 30
0.0
 11
49.574284
 21
0.812931
 31
0.0
  0
LINE
  5
558
330
1F
100
AcDbEntity
  8
1
  6
CONTINUOUS
370
50
 62
4
100
AcDbLine
 10
47.104271
 20
-0.014901
 30
0.0
 11
47.100903
 21
-0.007404
 31
0.0
  0
LINE
  5
559
330
1F
100
AcDbEntity
  8
1
  6
CONTINUOUS
370
50
 62
4
100
AcDbLine
 10
49.98333
 20
0.879894
 30
0.0
 11
49.978554
 21
0.8900349999999999
 31
0.0
  0
LINE
  5
55A
330
1F
100
AcDbEntity
  8
1
  6
CONTINUOUS
370
50
 62
4
100
AcDbLine
 10
47.752167
 20
0.9047109999999999
 30
0.0
 11
47.74531899999999
 21
0.919055
 31
0.0
  0
LINE
  5
55B
330
1F
100
AcDbEntity
  8
1
  6
CONTINUOUS
370
50
 62
4
100
AcDbLine
 10
47.10796
 20
-0.022487
 30
0.0
 11
47.104271
 21
-0.014901
 31
0.0
  0
LINE
  5
55C
330
1F
100
AcDbEntity
  8
1
  6
CONTINUOUS
370
50
 62
4
100
AcDbLine
 10
49.785526
 20
0.416184
 30
0.0
 11
49.548172
 21
0.876761
 31
0.0
  0
LINE
  5
55D
330
1F
100
AcDbEntity
  8
1
  6
CONTINUOUS
370
50
 62
4
100
AcDbLine
 10
47.11196899999999
 20
-0.030157
 30
0.0
 11
47.10796
 21
-0.022487
 31
0.0
  0
LINE
  5
55E
330
1F
100
AcDbEntity
  8
1
  6
CONTINUOUS
370
50
 62
4
100
AcDbLine
 10
49.978554
 20
0.8900349999999999
 30
0.0
 11
49.973251
 21
0.89981
 31
0.0
  0
LINE
  5
55F
330
1F
100
AcDbEntity
  8
1
  6
CONTINUOUS
370
50
 62
4
100
AcDbLine
 10
47.11631
 20
-0.037908
 30
0.0
 11
47.11196899999999
 21
-0.030157
 31
0.0
  0
LINE
  5
560
330
1F
100
AcDbEntity
  8
1
  6
CONTINUOUS
370
50
 62
4
100
AcDbLine
 10
47.120983
 20
-0.045736
 30
0.0
 11
47.11631
 21
-0.037908
 31
0.0
  0
LINE
  5
561
330
1F
100
AcDbEntity
  8
1
  6
CONTINUOUS
370
50
 62
4
100
AcDbLine
 10
49.973251
 20
0.89981
 30
0.0
 11
49.96744899999999
 21
0.909203
 31
0.0
  0
LINE
  5
562
330
1F
100
AcDbEntity
  8
1
  6
CONTINUOUS
370
50
 62
4
100
AcDbLine
 10
47.125992
 20
-0.053638
 30
0.0
 11
47.120983
 21
-0.045736
 31
0.0
  0
LINE
  5
563
330
1F
100
AcDbEntity
  8
1
  6
CONTINUOUS
370
50
 62
4
100
AcDbLine
 10
49.969887
 20
0.8210409999999999
 30
0.0
 11
49.96711
 21
0.82507
 31
0.0
  0
LINE
  5
564
330
1F
100
AcDbEntity
  8
1
  6
CONTINUOUS
370
50
 62
4
100
AcDbLine
 10
47.74531899999999
 20
0.919055
 30
0.0
 11
47.736839
 21
0.931232
 31
0.0
  0
LINE
  5
565
330
1F
100
AcDbEntity
  8
1
  6
CONTINUOUS
370
50
 62
4
100
AcDbLine
 10
49.96744899999999
 20
0.909203
 30
0.0
 11
49.961166
 21
0.918196
 31
0.0
  0
LINE
  5
566
330
1F
100
AcDbEntity
  8
1
  6
CONTINUOUS
370
50
 62
4
100
AcDbLine
 10
49.96711
 20
0.82507
 30
0.0
 11
49.958801
 21
0.8365819999999999
 31
0.0
  0
LINE
  5
567
330
1F
100
AcDbEntity
  8
1
  6
CONTINUOUS
370
50
 62
4
100
AcDbLine
 10
47.16296
 20
-0.102147
 30
0.0
 11
47.125992
 21
-0.053638
 31
0.0
  0
LINE
  5
568
330
1F
100
AcDbEntity
  8
1
  6
CONTINUOUS
370
50
 62
4
100
AcDbLine
 10
47.550919
 20
-0.945649
 30
0.0
 11
47.548008
 21
-0.9418949999999999
 31
0.0
  0
LINE
  5
569
330
1F
100
AcDbEntity
  8
1
  6
CONTINUOUS
370
50
 62
4
100
AcDbLine
 10
49.961166
 20
0.918196
 30
0.0
 11
49.95443
 21
0.926765
 31
0.0
  0
LINE
  5
56A
330
1F
100
AcDbEntity
  8
1
  6
CONTINUOUS
370
50
 62
4
100
AcDbLine
 10
49.973343
 20
0.816858
 30
0.0
 11
49.969887
 21
0.8210409999999999
 31
0.0
  0
LINE
  5
56B
330
1F
100
AcDbEntity
  8
1
  6
CONTINUOUS
370
50
 62
4
100
AcDbLine
 10
47.201714
 20
-0.148976
 30
0.0
 11
47.16296
 21
-0.102147
 31
0.0
  0
LINE
  5
56C
330
1F
100
AcDbEntity
  8
1
  6
CONTINUOUS
370
50
 62
4
100
AcDbLine
 10
47.748795
 20
0.917211
 30
0.0
 11
47.736835
 21
0.931237
 31
0.0
  0
LINE
  5
56D
330
1F
100
AcDbEntity
  8
1
  6
CONTINUOUS
370
50
 62
4
100
AcDbLine
 10
49.95443
 20
0.926765
 30
0.0
 11
49.94729599999999
 21
0.9348609999999999
 31
0.0
  0
LINE
  5
56E
330
1F
100
AcDbEntity
  8
1
  6
CONTINUOUS
370
50
 62
4
100
AcDbLine
 10
47.242382
 20
-0.193901
 30
0.0
 11
47.201714
 21
-0.148976
 31
0.0
  0
LINE
  5
56F
330
1F
100
AcDbEntity
  8
1
  6
CONTINUOUS
370
50
 62
4
100
AcDbLine
 10
47.784302
 20
0.878791
 30
0.0
 11
47.748795
 21
0.917211
 31
0.0
  0
LINE
  5
570
330
1F
100
AcDbEntity
  8
1
  6
CONTINUOUS
370
50
 62
4
100
AcDbLine
 10
49.977459
 20
0.812519
 30
0.0
 11
49.973343
 21
0.816858
 31
0.0
  0
LINE
  5
571
330
1F
100
AcDbEntity
  8
1
  6
CONTINUOUS
370
50
 62
4
100
AcDbLine
 10
47.736839
 20
0.931232
 30
0.0
 11
47.728172
 21
0.9401109999999999
 31
0.0
  0
LINE
  5
572
330
1F
100
AcDbEntity
  8
1
  6
CONTINUOUS
370
50
 62
4
100
AcDbLine
 10
49.94729599999999
 20
0.9348609999999999
 30
0.0
 11
49.939789
 21
0.942468
 31
0.0
  0
LINE
  5
573
330
1F
100
AcDbEntity
  8
1
  6
CONTINUOUS
370
50
 62
4
100
AcDbLine
 10
49.958801
 20
0.8365819999999999
 30
0.0
 11
49.949089
 21
0.846379
 31
0.0
  0
LINE
  5
574
330
1F
100
AcDbEntity
  8
1
  6
CONTINUOUS
370
50
 62
4
100
AcDbLine
 10
47.284927
 20
-0.23661
 30
0.0
 11
47.242382
 21
-0.193901
 31
0.0
  0
LINE
  5
575
330
1F
100
AcDbEntity
  8
1
  6
CONTINUOUS
370
50
 62
4
100
AcDbLine
 10
47.819351
 20
0.844576
 30
0.0
 11
47.784302
 21
0.878791
 31
0.0
  0
LINE
  5
576
330
1F
100
AcDbEntity
  8
1
  6
CONTINUOUS
370
50
 62
4
100
AcDbLine
 10
49.982224
 20
0.808021
 30
0.0
 11
49.977459
 21
0.812519
 31
0.0
  0
LINE
  5
577
330
1F
100
AcDbEntity
  8
1
  6
CONTINUOUS
370
50
 62
4
100
AcDbLine
 10
47.32946
 20
-0.277043
 30
0.0
 11
47.284927
 21
-0.23661
 31
0.0
  0
LINE
  5
578
330
1F
100
AcDbEntity
  8
1
  6
CONTINUOUS
370
50
 62
4
100
AcDbLine
 10
49.939789
 20
0.942468
 30
0.0
 11
49.931938
 21
0.94958
 31
0.0
  0
LINE
  5
579
330
1F
100
AcDbEntity
  8
1
  6
CONTINUOUS
370
50
 62
4
100
AcDbLine
 10
47.861942
 20
0.806801
 30
0.0
 11
47.819351
 21
0.844576
 31
0.0
  0
LINE
  5
57A
330
1F
100
AcDbEntity
  8
1
  6
CONTINUOUS
370
50
 62
4
100
AcDbLine
 10
49.987617
 20
0.8033629999999999
 30
0.0
 11
49.982224
 21
0.808021
 31
0.0
  0
LINE
  5
57B
330
1F
100
AcDbEntity
  8
1
  6
CONTINUOUS
370
50
 62
4
100
AcDbLine
 10
47.375813
 20
-0.314956
 30
0.0
 11
47.32946
 21
-0.277043
 31
0.0
  0
LINE
  5
57C
330
1F
100
AcDbEntity
  8
1
  6
CONTINUOUS
370
50
 62
4
100
AcDbLine
 10
49.931938
 20
0.94958
 30
0.0
 11
49.923763
 21
0.956189
 31
0.0
  0
LINE
  5
57D
330
1F
100
AcDbEntity
  8
1
  6
CONTINUOUS
370
50
 62
4
100
AcDbLine
 10
47.90954199999999
 20
0.768544
 30
0.0
 11
47.861942
 21
0.806801
 31
0.0
  0
LINE
  5
57E
330
1F
100
AcDbEntity
  8
1
  6
CONTINUOUS
370
50
 62
4
100
AcDbLine
 10
49.993614
 20
0.798555
 30
0.0
 11
49.987617
 21
0.8033629999999999
 31
0.0
  0
LINE
  5
57F
330
1F
100
AcDbEntity
  8
1
  6
CONTINUOUS
370
50
 62
4
100
AcDbLine
 10
50.0
 20
0.7937329999999999
 30
0.0
 11
49.993614
 21
0.798555
 31
0.0
  0
LINE
  5
580
330
1F
100
AcDbEntity
  8
1
  6
CONTINUOUS
370
50
 62
4
100
AcDbLine
 10
47.728172
 20
0.9401109999999999
 30
0.0
 11
47.718422
 21
0.9473229999999999
 31
0.0
  0
LINE
  5
581
330
1F
100
AcDbEntity
  8
1
  6
CONTINUOUS
370
50
 62
4
100
AcDbLine
 10
49.949089
 20
0.846379
 30
0.0
 11
49.93777499999999
 21
0.854714
 31
0.0
  0
LINE
  5
582
330
1F
100
AcDbEntity
  8
1
  6
CONTINUOUS
370
50
 62
4
100
AcDbLine
 10
47.424004
 20
-0.350357
 30
0.0
 11
47.375813
 21
-0.314956
 31
0.0
  0
LINE
  5
583
330
1F
100
AcDbEntity
  8
1
  6
CONTINUOUS
370
50
 62
4
100
AcDbLine
 10
47.961182
 20
0.730926
 30
0.0
 11
47.90954199999999
 21
0.768544
 31
0.0
  0
LINE
  5
584
330
1F
100
AcDbEntity
  8
1
  6
CONTINUOUS
370
50
 62
4
100
AcDbLine
 10
49.923763
 20
0.956189
 30
0.0
 11
49.915287
 21
0.9622879999999999
 31
0.0
  0
LINE
  5
585
330
1F
100
AcDbEntity
  8
1
  6
CONTINUOUS
370
50
 62
4
100
AcDbLine
 10
47.55560699999999
 20
-0.948932
 30
0.0
 11
47.550919
 21
-0.945649
 31
0.0
  0
LINE
  5
586
330
1F
100
AcDbEntity
  8
1
  6
CONTINUOUS
370
50
 62
4
100
AcDbLine
 10
48.016941
 20
0.694143
 30
0.0
 11
47.961182
 21
0.730926
 31
0.0
  0
LINE
  5
587
330
1F
100
AcDbEntity
  8
1
  6
CONTINUOUS
370
50
 62
4
100
AcDbLine
 10
47.473797
 20
-0.383127
 30
0.0
 11
47.424004
 21
-0.350357
 31
0.0
  0
LINE
  5
588
330
1F
100
AcDbEntity
  8
1
  6
CONTINUOUS
370
50
 62
4
100
AcDbLine
 10
49.915287
 20
0.9622879999999999
 30
0.0
 11
49.906544
 21
0.967868
 31
0.0
  0
LINE
  5
589
330
1F
100
AcDbEntity
  8
1
  6
CONTINUOUS
370
50
 62
4
100
AcDbLine
 10
48.07589
 20
0.659026
 30
0.0
 11
48.016941
 21
0.694143
 31
0.0
  0
LINE
  5
58A
330
1F
100
AcDbEntity
  8
1
  6
CONTINUOUS
370
50
 62
4
100
AcDbLine
 10
47.52516199999999
 20
-0.413345
 30
0.0
 11
47.473797
 21
-0.383127
 31
0.0
  0
LINE
  5
58B
330
1F
100
AcDbEntity
  8
1
  6
CONTINUOUS
370
50
 62
4
100
AcDbLine
 10
49.906544
 20
0.967868
 30
0.0
 11
49.897568
 21
0.972911
 31
0.0
  0
LINE
  5
58C
330
1F
100
AcDbEntity
  8
1
  6
CONTINUOUS
370
50
 62
4
100
AcDbLine
 10
49.93777499999999
 20
0.854714
 30
0.0
 11
49.924248
 21
0.861976
 31
0.0
  0
LINE
  5
58D
330
1F
100
AcDbEntity
  8
1
  6
CONTINUOUS
370
50
 62
4
100
AcDbLine
 10
48.137764
 20
0.6258819999999999
 30
0.0
 11
48.07589
 21
0.659026
 31
0.0
  0
LINE
  5
58E
330
1F
100
AcDbEntity
  8
1
  6
CONTINUOUS
370
50
 62
4
100
AcDbLine
 10
47.578014
 20
-0.441077
 30
0.0
 11
47.52516199999999
 21
-0.413345
 31
0.0
  0
LINE
  5
58F
330
1F
100
AcDbEntity
  8
1
  6
CONTINUOUS
370
50
 62
4
100
AcDbLine
 10
47.718422
 20
0.9473229999999999
 30
0.0
 11
47.707642
 21
0.952886
 31
0.0
  0
LINE
  5
590
330
1F
100
AcDbEntity
  8
1
  6
CONTINUOUS
370
50
 62
4
100
AcDbLine
 10
49.897568
 20
0.972911
 30
0.0
 11
49.88839
 21
0.977414
 31
0.0
  0
LINE
  5
591
330
1F
100
AcDbEntity
  8
1
  6
CONTINUOUS
370
50
 62
4
100
AcDbLine
 10
48.65273699999999
 20
-0.558871
 30
0.0
 11
48.400002
 21
-0.43595
 31
0.0
  0
LINE
  5
592
330
1F
100
AcDbEntity
  8
1
  6
CONTINUOUS
370
50
 62
4
100
AcDbLine
 10
48.201775
 20
0.595252
 30
0.0
 11
48.137764
 21
0.6258819999999999
 31
0.0
  0
LINE
  5
593
330
1F
100
AcDbEntity
  8
1
  6
CONTINUOUS
370
50
 62
4
100
AcDbLine
 10
47.63211099999999
 20
-0.466332
 30
0.0
 11
47.578014
 21
-0.441077
 31
0.0
  0
LINE
  5
594
330
1F
100
AcDbEntity
  8
1
  6
CONTINUOUS
370
50
 62
4
100
AcDbLine
 10
48.870174
 20
-0.657138
 30
0.0
 11
48.65273699999999
 21
-0.558871
 31
0.0
  0
LINE
  5
595
330
1F
100
AcDbEntity
  8
1
  6
CONTINUOUS
370
50
 62
4
100
AcDbLine
 10
48.525547
 20
-0.659391
 30
0.0
 11
48.400002
 21
-0.60491
 31
0.0
  0
LINE
  5
596
330
1F
100
AcDbEntity
  8
1
  6
CONTINUOUS
370
50
 62
4
100
AcDbLine
 10
47.562061
 20
-0.951711
 30
0.0
 11
47.55560699999999
 21
-0.948932
 31
0.0
  0
LINE
  5
597
330
1F
100
AcDbEntity
  8
1
  6
CONTINUOUS
370
50
 62
4
100
AcDbLine
 10
48.267273
 20
0.567511
 30
0.0
 11
48.201775
 21
0.595252
 31
0.0
  0
LINE
  5
598
330
1F
100
AcDbEntity
  8
1
  6
CONTINUOUS
370
50
 62
4
100
AcDbLine
 10
49.88839
 20
0.977414
 30
0.0
 11
49.879025
 21
0.981378
 31
0.0
  0
LINE
  5
599
330
1F
100
AcDbEntity
  8
1
  6
CONTINUOUS
370
50
 62
4
100
AcDbLine
 10
49.048569
 20
-0.732084
 30
0.0
 11
48.870174
 21
-0.657138
 31
0.0
  0
LINE
  5
59A
330
1F
100
AcDbEntity
  8
1
  6
CONTINUOUS
370
50
 62
4
100
AcDbLine
 10
47.687363
 20
-0.489204
 30
0.0
 11
47.63211099999999
 21
-0.466332
 31
0.0
  0
LINE
  5
59B
330
1F
100
AcDbEntity
  8
1
  6
CONTINUOUS
370
50
 62
4
100
AcDbLine
 10
48.651878
 20
-0.711028
 30
0.0
 11
48.525547
 21
-0.659391
 31
0.0
  0
LINE
  5
59C
330
1F
100
AcDbEntity
  8
1
  6
CONTINUOUS
370
50
 62
4
100
AcDbLine
 10
49.184166
 20
-0.7850429999999999
 30
0.0
 11
49.048569
 21
-0.732084
 31
0.0
  0
LINE
  5
59D
330
1F
100
AcDbEntity
  8
1
  6
CONTINUOUS
370
50
 62
4
100
AcDbLine
 10
49.924248
 20
0.861976
 30
0.0
 11
49.908096
 21
0.8682519999999999
 31
0.0
  0
LINE
  5
59E
330
1F
100
AcDbEntity
  8
1
  6
CONTINUOUS
370
50
 62
4
100
AcDbLine
 10
48.778431
 20
-0.759512
 30
0.0
 11
48.651878
 21
-0.711028
 31
0.0
  0
LINE
  5
59F
330
1F
100
AcDbEntity
  8
1
  6
CONTINUOUS
370
50
 62
4
100
AcDbLine
 10
48.333717
 20
0.542928
 30
0.0
 11
48.267273
 21
0.567511
 31
0.0
  0
LINE
  5
5A0
330
1F
100
AcDbEntity
  8
1
  6
CONTINUOUS
370
50
 62
4
100
AcDbLine
 10
47.743679
 20
-0.509788
 30
0.0
 11
47.687363
 21
-0.489204
 31
0.0
  0
LINE
  5
5A1
330
1F
100
AcDbEntity
  8
1
  6
CONTINUOUS
370
50
 62
4
100
AcDbLine
 10
49.277699
 20
-0.818873
 30
0.0
 11
49.184166
 21
-0.7850429999999999
 31
0.0
  0
LINE
  5
5A2
330
1F
100
AcDbEntity
  8
1
  6
CONTINUOUS
370
50
 62
4
100
AcDbLine
 10
49.879025
 20
0.981378
 30
0.0
 11
49.869499
 21
0.9848
 31
0.0
  0
LINE
  5
5A3
330
1F
100
AcDbEntity
  8
1
  6
CONTINUOUS
370
50
 62
4
100
AcDbLine
 10
48.904633
 20
-0.804539
 30
0.0
 11
48.778431
 21
-0.759512
 31
0.0
  0
LINE
  5
5A4
330
1F
100
AcDbEntity
  8
1
  6
CONTINUOUS
370
50
 62
4
100
AcDbLine
 10
47.707642
 20
0.952886
 30
0.0
 11
47.695873
 21
0.9568289999999999
 31
0.0
  0
LINE
  5
5A5
330
1F
100
AcDbEntity
  8
1
  6
CONTINUOUS
370
50
 62
4
100
AcDbLine
 10
49.02990699999999
 20
-0.8458019999999999
 30
0.0
 11
48.904633
 21
-0.804539
 31
0.0
  0
LINE
  5
5A6
330
1F
100
AcDbEntity
  8
1
  6
CONTINUOUS
370
50
 62
4
100
AcDbLine
 10
49.363979
 20
-0.8472219999999999
 30
0.0
 11
49.277699
 21
-0.818873
 31
0.0
  0
LINE
  5
5A7
330
1F
100
AcDbEntity
  8
1
  6
CONTINUOUS
370
50
 62
4
100
AcDbLine
 10
47.800976
 20
-0.528181
 30
0.0
 11
47.743679
 21
-0.509788
 31
0.0
  0
LINE
  5
5A8
330
1F
100
AcDbEntity
  8
1
  6
CONTINUOUS
370
50
 62
4
100
AcDbLine
 10
48.400002
 20
0.521898
 30
0.0
 11
48.333717
 21
0.542928
 31
0.0
  0
LINE
  5
5A9
330
1F
100
AcDbEntity
  8
1
  6
CONTINUOUS
370
50
 62
4
100
AcDbLine
 10
48.122238
 20
0.646003
 30
0.0
 11
48.068901
 21
0.662797
 31
0.0
  0
LINE
  5
5AA
330
1F
100
AcDbEntity
  8
1
  6
CONTINUOUS
370
50
 62
4
100
AcDbLine
 10
49.153477
 20
-0.8829089999999999
 30
0.0
 11
49.02990699999999
 21
-0.8458019999999999
 31
0.0
  0
LINE
  5
5AB
330
1F
100
AcDbEntity
  8
1
  6
CONTINUOUS
370
50
 62
4
100
AcDbLine
 10
49.869499
 20
0.9848
 30
0.0
 11
49.859829
 21
0.9876809999999999
 31
0.0
  0
LINE
  5
5AC
330
1F
100
AcDbEntity
  8
1
  6
CONTINUOUS
370
50
 62
4
100
AcDbLine
 10
49.450935
 20
-0.8730549999999999
 30
0.0
 11
49.363979
 21
-0.8472219999999999
 31
0.0
  0
LINE
  5
5AD
330
1F
100
AcDbEntity
  8
1
  6
CONTINUOUS
370
50
 62
4
100
AcDbLine
 10
48.176346
 20
0.630208
 30
0.0
 11
48.122238
 21
0.646003
 31
0.0
  0
LINE
  5
5AE
330
1F
100
AcDbEntity
  8
1
  6
CONTINUOUS
370
50
 62
4
100
AcDbLine
 10
47.570232
 20
-0.9540019999999999
 30
0.0
 11
47.562061
 21
-0.951711
 31
0.0
  0
LINE
  5
5AF
330
1F
100
AcDbEntity
  8
1
  6
CONTINUOUS
370
50
 62
4
100
AcDbLine
 10
47.85916899999999
 20
-0.5444789999999999
 30
0.0
 11
47.800976
 21
-0.528181
 31
0.0
  0
LINE
  5
5B0
330
1F
100
AcDbEntity
  8
1
  6
CONTINUOUS
370
50
 62
4
100
AcDbLine
 10
49.908096
 20
0.8682519999999999
 30
0.0
 11
49.88899199999999
 21
0.87357
 31
0.0
  0
LINE
  5
5B1
330
1F
100
AcDbEntity
  8
1
  6
CONTINUOUS
370
50
 62
4
100
AcDbLine
 10
48.23119699999999
 20
0.615495
 30
0.0
 11
48.176346
 21
0.630208
 31
0.0
  0
LINE
  5
5B2
330
1F
100
AcDbEntity
  8
1
  6
CONTINUOUS
370
50
 62
4
100
AcDbLine
 10
49.538292
 20
-0.8964
 30
0.0
 11
49.450935
 21
-0.8730549999999999
 31
0.0
  0
LINE
  5
5B3
330
1F
100
AcDbEntity
  8
1
  6
CONTINUOUS
370
50
 62
4
100
AcDbLine
 10
49.275284
 20
-0.915106
 30
0.0
 11
49.153477
 21
-0.8829089999999999
 31
0.0
  0
LINE
  5
5B4
330
1F
100
AcDbEntity
  8
1
  6
CONTINUOUS
370
50
 62
4
100
AcDbLine
 10
49.884727
 20
0.192496
 30
0.0
 11
49.43803399999999
 21
0.305289
 31
0.0
  0
LINE
  5
5B5
330
1F
100
AcDbEntity
  8
1
  6
CONTINUOUS
370
50
 62
4
100
AcDbLine
 10
49.43803399999999
 20
0.305289
 30
0.0
 11
49.156006
 21
0.375792
 31
0.0
  0
LINE
  5
5B6
330
1F
100
AcDbEntity
  8
1
  6
CONTINUOUS
370
50
 62
4
100
AcDbLine
 10
48.286774
 20
0.601947
 30
0.0
 11
48.23119699999999
 21
0.615495
 31
0.0
  0
LINE
  5
5B7
330
1F
100
AcDbEntity
  8
1
  6
CONTINUOUS
370
50
 62
4
100
AcDbLine
 10
40.0
 20
0.95995
 30
0.0
 11
35.700001
 21
1.99995
 31
0.0
  0
LINE
  5
5B8
330
1F
100
AcDbEntity
  8
1
  6
CONTINUOUS
370
50
 62
4
100
AcDbLine
 10
49.625774
 20
-0.917287
 30
0.0
 11
49.538292
 21
-0.8964
 31
0.0
  0
LINE
  5
5B9
330
1F
100
AcDbEntity
  8
1
  6
CONTINUOUS
370
50
 62
4
100
AcDbLine
 10
49.859829
 20
0.9876809999999999
 30
0.0
 11
49.850033
 21
0.990019
 31
0.0
  0
LINE
  5
5BA
330
1F
100
AcDbEntity
  8
1
  6
CONTINUOUS
370
50
 62
4
100
AcDbLine
 10
49.400398
 20
-0.942553
 30
0.0
 11
49.275284
 21
-0.915106
 31
0.0
  0
LINE
  5
5BB
330
1F
100
AcDbEntity
  8
1
  6
CONTINUOUS
370
50
 62
4
100
AcDbLine
 10
48.343048
 20
0.589648
 30
0.0
 11
48.286774
 21
0.601947
 31
0.0
  0
LINE
  5
5BC
330
1F
100
AcDbEntity
  8
1
  6
CONTINUOUS
370
50
 62
4
100
AcDbLine
 10
49.156006
 20
0.375792
 30
0.0
 11
48.946449
 21
0.420317
 31
0.0
  0
LINE
  5
5BD
330
1F
100
AcDbEntity
  8
1
  6
CONTINUOUS
370
50
 62
4
100
AcDbLine
 10
49.7131
 20
-0.935743
 30
0.0
 11
49.625774
 21
-0.917287
 31
0.0
  0
LINE
  5
5BE
330
1F
100
AcDbEntity
  8
1
  6
CONTINUOUS
370
50
 62
4
100
AcDbLine
 10
49.93536
 20
-0.885961
 30
0.0
 11
49.932308
 21
-0.8853289999999999
 31
0.0
  0
LINE
  5
5BF
330
1F
100
AcDbEntity
  8
1
  6
CONTINUOUS
370
50
 62
4
100
AcDbLine
 10
47.883755
 20
-0.549553
 30
0.0
 11
47.85916899999999
 21
-0.5444789999999999
 31
0.0
  0
LINE
  5
5C0
330
1F
100
AcDbEntity
  8
1
  6
CONTINUOUS
370
50
 62
4
100
AcDbLine
 10
49.88899199999999
 20
0.87357
 30
0.0
 11
49.8675
 21
0.8778269999999999
 31
0.0
  0
LINE
  5
5C1
330
1F
100
AcDbEntity
  8
1
  6
CONTINUOUS
370
50
 62
4
100
AcDbLine
 10
48.400002
 20
0.578681
 30
0.0
 11
48.343048
 21
0.589648
 31
0.0
  0
LINE
  5
5C2
330
1F
100
AcDbEntity
  8
1
  6
CONTINUOUS
370
50
 62
4
100
AcDbLine
 10
47.580101
 20
-0.955847
 30
0.0
 11
47.570232
 21
-0.9540019999999999
 31
0.0
  0
LINE
  5
5C3
330
1F
100
AcDbEntity
  8
1
  6
CONTINUOUS
370
50
 62
4
100
AcDbLine
 10
49.799999
 20
-0.951797
 30
0.0
 11
49.7131
 21
-0.935743
 31
0.0
  0
LINE
  5
5C4
330
1F
100
AcDbEntity
  8
1
  6
CONTINUOUS
370
50
 62
4
100
AcDbLine
 10
47.695873
 20
0.9568289999999999
 30
0.0
 11
47.683155
 21
0.959175
 31
0.0
  0
LINE
  5
5C5
330
1F
100
AcDbEntity
  8
1
  6
CONTINUOUS
370
50
 62
4
100
AcDbLine
 10
49.850033
 20
0.990019
 30
0.0
 11
49.840141
 21
0.991814
 31
0.0
  0
LINE
  5
5C6
330
1F
100
AcDbEntity
  8
1
  6
CONTINUOUS
370
50
 62
4
100
AcDbLine
 10
49.532478
 20
-0.9652719999999999
 30
0.0
 11
49.400398
 21
-0.942553
 31
0.0
  0
LINE
  5
5C7
330
1F
100
AcDbEntity
  8
1
  6
CONTINUOUS
370
50
 62
4
100
AcDbLine
 10
47.908558
 20
-0.553751
 30
0.0
 11
47.883755
 21
-0.549553
 31
0.0
  0
LINE
  5
5C8
330
1F
100
AcDbEntity
  8
1
  6
CONTINUOUS
370
50
 62
4
100
AcDbLine
 10
48.946449
 20
0.420317
 30
0.0
 11
48.74551
 21
0.45388
 31
0.0
  0
LINE
  5
5C9
330
1F
100
AcDbEntity
  8
1
  6
CONTINUOUS
370
50
 62
4
100
AcDbLine
 10
49.805466
 20
-0.9525969999999999
 30
0.0
 11
49.799999
 21
-0.951797
 31
0.0
  0
LINE
  5
5CA
330
1F
100
AcDbEntity
  8
1
  6
CONTINUOUS
370
50
 62
4
100
AcDbLine
 10
49.938393
 20
-0.8864019999999999
 30
0.0
 11
49.93536
 21
-0.885961
 31
0.0
  0
LINE
  5
5CB
330
1F
100
AcDbEntity
  8
1
  6
CONTINUOUS
370
50
 62
4
100
AcDbLine
 10
49.8675
 20
0.8778269999999999
 30
0.0
 11
49.844143
 21
0.8810819999999999
 31
0.0
  0
LINE
  5
5CC
330
1F
100
AcDbEntity
  8
1
  6
CONTINUOUS
370
50
 62
4
100
AcDbLine
 10
48.74551
 20
0.45388
 30
0.0
 11
48.560432
 21
0.478479
 31
0.0
  0
LINE
  5
5CD
330
1F
100
AcDbEntity
  8
1
  6
CONTINUOUS
370
50
 62
4
100
AcDbLine
 10
47.93354
 20
-0.5570689999999999
 30
0.0
 11
47.908558
 21
-0.553751
 31
0.0
  0
LINE
  5
5CE
330
1F
100
AcDbEntity
  8
1
  6
CONTINUOUS
370
50
 62
4
100
AcDbLine
 10
49.666229
 20
-0.982281
 30
0.0
 11
49.532478
 21
-0.9652719999999999
 31
0.0
  0
LINE
  5
5CF
330
1F
100
AcDbEntity
  8
1
  6
CONTINUOUS
370
50
 62
4
100
AcDbLine
 10
49.840141
 20
0.991814
 30
0.0
 11
49.83017299999999
 21
0.993065
 31
0.0
  0
LINE
  5
5D0
330
1F
100
AcDbEntity
  8
1
  6
CONTINUOUS
370
50
 62
4
100
AcDbLine
 10
47.591648
 20
-0.957289
 30
0.0
 11
47.580101
 21
-0.955847
 31
0.0
  0
LINE
  5
5D1
330
1F
100
AcDbEntity
  8
1
  6
CONTINUOUS
370
50
 62
4
100
AcDbLine
 10
49.577644
 20
0.476232
 30
0.0
 11
49.455879
 21
0.490873
 31
0.0
  0
LINE
  5
5D2
330
1F
100
AcDbEntity
  8
1
  6
CONTINUOUS
370
50
 62
4
100
AcDbLine
 10
48.560432
 20
0.478479
 30
0.0
 11
48.400002
 21
0.49579
 31
0.0
  0
LINE
  5
5D3
330
1F
100
AcDbEntity
  8
1
  6
CONTINUOUS
370
50
 62
4
100
AcDbLine
 10
49.455879
 20
0.490873
 30
0.0
 11
49.334114
 21
0.502942
 31
0.0
  0
LINE
  5
5D4
330
1F
100
AcDbEntity
  8
1
  6
CONTINUOUS
370
50
 62
4
100
AcDbLine
 10
47.958679
 20
-0.559508
 30
0.0
 11
47.93354
 21
-0.5570689999999999
 31
0.0
  0
LINE
  5
5D5
330
1F
100
AcDbEntity
  8
1
  6
CONTINUOUS
370
50
 62
4
100
AcDbLine
 10
49.81108099999999
 20
-0.953135
 30
0.0
 11
49.805466
 21
-0.9525969999999999
 31
0.0
  0
LINE
  5
5D6
330
1F
100
AcDbEntity
  8
1
  6
CONTINUOUS
370
50
 62
4
100
AcDbLine
 10
49.844143
 20
0.8810819999999999
 30
0.0
 11
49.81926
 21
0.8834599999999999
 31
0.0
  0
LINE
  5
5D7
330
1F
100
AcDbEntity
  8
1
  6
CONTINUOUS
370
50
 62
4
100
AcDbLine
 10
49.799999
 20
-0.9935719999999999
 30
0.0
 11
49.666229
 21
-0.982281
 31
0.0
  0
LINE
  5
5D8
330
1F
100
AcDbEntity
  8
1
  6
CONTINUOUS
370
50
 62
4
100
AcDbLine
 10
47.604717
 20
-0.958363
 30
0.0
 11
47.591648
 21
-0.957289
 31
0.0
  0
LINE
  5
5D9
330
1F
100
AcDbEntity
  8
1
  6
CONTINUOUS
370
50
 62
4
100
AcDbLine
 10
49.334114
 20
0.502942
 30
0.0
 11
49.212345
 21
0.512617
 31
0.0
  0
LINE
  5
5DA
330
1F
100
AcDbEntity
  8
1
  6
CONTINUOUS
370
50
 62
4
100
AcDbLine
 10
49.94141
 20
-0.886625
 30
0.0
 11
49.938393
 21
-0.8864019999999999
 31
0.0
  0
LINE
  5
5DB
330
1F
100
AcDbEntity
  8
1
  6
CONTINUOUS
370
50
 62
4
100
AcDbLine
 10
49.83017299999999
 20
0.993065
 30
0.0
 11
49.820148
 21
0.9937739999999999
 31
0.0
  0
LINE
  5
5DC
330
1F
100
AcDbEntity
  8
1
  6
CONTINUOUS
370
50
 62
4
100
AcDbLine
 10
49.587467
 20
0.475609
 30
0.0
 11
49.577644
 21
0.476232
 31
0.0
  0
LINE
  5
5DD
330
1F
100
AcDbEntity
  8
1
  6
CONTINUOUS
370
50
 62
4
100
AcDbLine
 10
49.81926
 20
0.8834599999999999
 30
0.0
 11
49.79317899999999
 21
0.885084
 31
0.0
  0
LINE
  5
5DE
330
1F
100
AcDbEntity
  8
1
  6
CONTINUOUS
370
50
 62
4
100
AcDbLine
 10
47.983936
 20
-0.561067
 30
0.0
 11
47.958679
 21
-0.559508
 31
0.0
  0
LINE
  5
5DF
330
1F
100
AcDbEntity
  8
1
  6
CONTINUOUS
370
50
 62
4
100
AcDbLine
 10
49.212345
 20
0.512617
 30
0.0
 11
49.09058
 21
0.519689
 31
0.0
  0
LINE
  5
5E0
330
1F
100
AcDbEntity
  8
1
  6
CONTINUOUS
370
50
 62
4
100
AcDbLine
 10
47.683155
 20
0.959175
 30
0.0
 11
47.669533
 21
0.95995
 31
0.0
  0
LINE
  5
5E1
330
1F
100
AcDbEntity
  8
1
  6
CONTINUOUS
370
50
 62
4
100
AcDbLine
 10
47.61906099999999
 20
-0.9591139999999999
 30
0.0
 11
47.604717
 21
-0.958363
 31
0.0
  0
LINE
  5
5E2
330
1F
100
AcDbEntity
  8
1
  6
CONTINUOUS
370
50
 62
4
100
AcDbLine
 10
49.816845
 20
-0.9533889999999999
 30
0.0
 11
49.81108099999999
 21
-0.953135
 31
0.0
  0
LINE
  5
5E3
330
1F
100
AcDbEntity
  8
1
  6
CONTINUOUS
370
50
 62
4
100
AcDbLine
 10
49.810085
 20
-0.993942
 30
0.0
 11
49.799999
 21
-0.9935719999999999
 31
0.0
  0
LINE
  5
5E4
330
1F
100
AcDbEntity
  8
1
  6
CONTINUOUS
370
50
 62
4
100
AcDbLine
 10
49.79317899999999
 20
0.885084
 30
0.0
 11
49.76622
 21
0.886042
 31
0.0
  0
LINE
  5
5E5
330
1F
100
AcDbEntity
  8
1
  6
CONTINUOUS
370
50
 62
4
100
AcDbLine
 10
49.09058
 20
0.519689
 30
0.0
 11
48.96883
 21
0.524
 31
0.0
  0
LINE
  5
5E6
330
1F
100
AcDbEntity
  8
1
  6
CONTINUOUS
370
50
 62
4
100
AcDbLine
 10
47.634571
 20
-0.9595929999999999
 30
0.0
 11
47.61906099999999
 21
-0.9591139999999999
 31
0.0
  0
LINE
  5
5E7
330
1F
100
AcDbEntity
  8
1
  6
CONTINUOUS
370
50
 62
4
100
AcDbLine
 10
48.009274
 20
-0.561738
 30
0.0
 11
47.983936
 21
-0.561067
 31
0.0
  0
LINE
  5
5E8
330
1F
100
AcDbEntity
  8
1
  6
CONTINUOUS
370
50
 62
4
100
AcDbLine
 10
49.820148
 20
0.9937739999999999
 30
0.0
 11
49.810085
 21
0.993942
 31
0.0
  0
LINE
  5
5E9
330
1F
100
AcDbEntity
  8
1
  6
CONTINUOUS
370
50
 62
4
100
AcDbLine
 10
47.651134
 20
-0.959853
 30
0.0
 11
47.634571
 21
-0.9595929999999999
 31
0.0
  0
LINE
  5
5EA
330
1F
100
AcDbEntity
  8
1
  6
CONTINUOUS
370
50
 62
4
100
AcDbLine
 10
48.96883
 20
0.524
 30
0.0
 11
48.847084
 21
0.525644
 31
0.0
  0
LINE
  5
5EB
330
1F
100
AcDbEntity
  8
1
  6
CONTINUOUS
370
50
 62
4
100
AcDbLine
 10
49.76622
 20
0.886042
 30
0.0
 11
49.738674
 21
0.8863979999999999
 31
0.0
  0
LINE
  5
5EC
330
1F
100
AcDbEntity
  8
1
  6
CONTINUOUS
370
50
 62
4
100
AcDbLine
 10
47.668945
 20
-0.9599489999999999
 30
0.0
 11
47.668797
 21
-0.9599479999999999
 31
0.0
  0
LINE
  5
5ED
330
1F
100
AcDbEntity
  8
1
  6
CONTINUOUS
370
50
 62
4
100
AcDbLine
 10
47.669239
 20
-0.95995
 30
0.0
 11
47.66909
 21
-0.9599489999999999
 31
0.0
  0
LINE
  5
5EE
330
1F
100
AcDbEntity
  8
1
  6
CONTINUOUS
370
50
 62
4
100
AcDbLine
 10
49.826218
 20
0.415947
 30
0.0
 11
49.77196499999999
 21
0.416263
 31
0.0
  0
LINE
  5
5EF
330
1F
100
AcDbEntity
  8
1
  6
CONTINUOUS
370
50
 62
4
100
AcDbLine
 10
49.882
 20
0.415624
 30
0.0
 11
49.826218
 21
0.415947
 31
0.0
  0
LINE
  5
5F0
330
1F
100
AcDbEntity
  8
1
  6
CONTINUOUS
370
50
 62
4
100
AcDbLine
 10
49.77196499999999
 20
0.416263
 30
0.0
 11
49.719013
 21
0.416569
 31
0.0
  0
LINE
  5
5F1
330
1F
100
AcDbEntity
  8
1
  6
CONTINUOUS
370
50
 62
4
100
AcDbLine
 10
49.93953699999999
 20
0.415294
 30
0.0
 11
49.882
 21
0.415624
 31
0.0
  0
LINE
  5
5F2
330
1F
100
AcDbEntity
  8
1
  6
CONTINUOUS
370
50
 62
4
100
AcDbLine
 10
49.719013
 20
0.416569
 30
0.0
 11
49.667137
 21
0.416864
 31
0.0
  0
LINE
  5
5F3
330
1F
100
AcDbEntity
  8
1
  6
CONTINUOUS
370
50
 62
4
100
AcDbLine
 10
49.667137
 20
0.416864
 30
0.0
 11
49.616108
 21
0.417146
 31
0.0
  0
LINE
  5
5F4
330
1F
100
AcDbEntity
  8
1
  6
CONTINUOUS
370
50
 62
4
100
AcDbLine
 10
47.668648
 20
-0.959947
 30
0.0
 11
47.651134
 21
-0.959853
 31
0.0
  0
LINE
  5
5F5
330
1F
100
AcDbEntity
  8
1
  6
CONTINUOUS
370
50
 62
4
100
AcDbLine
 10
49.616108
 20
0.417146
 30
0.0
 11
49.565701
 21
0.417404
 31
0.0
  0
LINE
  5
5F6
330
1F
100
AcDbEntity
  8
1
  6
CONTINUOUS
370
50
 62
4
100
AcDbLine
 10
48.582752
 20
0.526301
 30
0.0
 11
48.537064
 21
0.526452
 31
0.0
  0
LINE
  5
5F7
330
1F
100
AcDbEntity
  8
1
  6
CONTINUOUS
370
50
 62
4
100
AcDbLine
 10
48.537064
 20
0.526452
 30
0.0
 11
48.491375
 21
0.526602
 31
0.0
  0
LINE
  5
5F8
330
1F
100
AcDbEntity
  8
1
  6
CONTINUOUS
370
50
 62
4
100
AcDbLine
 10
48.656593
 20
0.52606
 30
0.0
 11
48.582752
 21
0.526301
 31
0.0
  0
LINE
  5
5F9
330
1F
100
AcDbEntity
  8
1
  6
CONTINUOUS
370
50
 62
4
100
AcDbLine
 10
48.491375
 20
0.526602
 30
0.0
 11
48.445683
 21
0.5267499999999999
 31
0.0
  0
LINE
  5
5FA
330
1F
100
AcDbEntity
  8
1
  6
CONTINUOUS
370
50
 62
4
100
AcDbLine
 10
48.70424999999999
 20
0.5259079999999999
 30
0.0
 11
48.656593
 21
0.52606
 31
0.0
  0
LINE
  5
5FB
330
1F
100
AcDbEntity
  8
1
  6
CONTINUOUS
370
50
 62
4
100
AcDbLine
 10
48.445683
 20
0.5267499999999999
 30
0.0
 11
48.39999
 21
0.526894
 31
0.0
  0
LINE
  5
5FC
330
1F
100
AcDbEntity
  8
1
  6
CONTINUOUS
370
50
 62
4
100
AcDbLine
 10
48.751907
 20
0.525762
 30
0.0
 11
48.70424999999999
 21
0.5259079999999999
 31
0.0
  0
LINE
  5
5FD
330
1F
100
AcDbEntity
  8
1
  6
CONTINUOUS
370
50
 62
4
100
AcDbLine
 10
48.79948
 20
0.525621
 30
0.0
 11
48.751907
 21
0.525762
 31
0.0
  0
LINE
  5
5FE
330
1F
100
AcDbEntity
  8
1
  6
CONTINUOUS
370
50
 62
4
100
AcDbLine
 10
48.847054
 20
0.525488
 30
0.0
 11
48.79948
 21
0.525621
 31
0.0
  0
LINE
  5
5FF
330
1F
100
AcDbEntity
  8
1
  6
CONTINUOUS
370
50
 62
4
100
AcDbLine
 10
49.972328
 20
0.8250609999999999
 30
0.0
 11
49.96711
 21
0.82507
 31
0.0
  0
LINE
  5
600
330
1F
100
AcDbEntity
  8
1
  6
CONTINUOUS
370
50
 62
4
100
AcDbLine
 10
49.944401
 20
-0.886629
 30
0.0
 11
49.94141
 21
-0.886625
 31
0.0
  0
LINE
  5
601
330
1F
100
AcDbEntity
  8
1
  6
CONTINUOUS
370
50
 62
4
100
AcDbLine
 10
40.0
 20
-0.95995
 30
0.0
 11
47.66957499999999
 21
-0.95995
 31
0.0
  0
LINE
  5
602
330
1F
100
AcDbEntity
  8
1
  6
CONTINUOUS
370
50
 62
4
100
AcDbLine
 10
47.668945
 20
-0.9599489999999999
 30
0.0
 11
47.66909
 21
-0.9599489999999999
 31
0.0
  0
LINE
  5
603
330
1F
100
AcDbEntity
  8
1
  6
CONTINUOUS
370
50
 62
4
100
AcDbLine
 10
47.668648
 20
-0.959947
 30
0.0
 11
47.668797
 21
-0.9599479999999999
 31
0.0
  0
LINE
  5
604
330
1F
100
AcDbEntity
  8
1
  6
CONTINUOUS
370
50
 62
4
100
AcDbLine
 10
40.0
 20
0.95995
 30
0.0
 11
47.66957499999999
 21
0.95995
 31
0.0
  0
LINE
  5
605
330
1F
100
AcDbEntity
  8
1
  6
CONTINUOUS
370
50
 62
4
100
AcDbLine
 10
49.987976
 20
0.825137
 30
0.0
 11
49.993191
 21
0.825148
 31
0.0
  0
LINE
  5
606
330
1F
100
AcDbEntity
  8
1
  6
CONTINUOUS
370
50
 62
4
100
AcDbLine
 10
49.982758
 20
0.825118
 30
0.0
 11
49.987976
 21
0.825137
 31
0.0
  0
LINE
  5
607
330
1F
100
AcDbEntity
  8
1
  6
CONTINUOUS
370
50
 62
4
100
AcDbLine
 10
49.977543
 20
0.825093
 30
0.0
 11
49.982758
 21
0.825118
 31
0.0
  0
LINE
  5
608
330
1F
100
AcDbEntity
  8
1
  6
CONTINUOUS
370
50
 62
4
100
AcDbLine
 10
49.972328
 20
0.8250609999999999
 30
0.0
 11
49.977543
 21
0.825093
 31
0.0
  0
LINE
  5
609
330
1F
100
AcDbEntity
  8
1
  6
CONTINUOUS
370
50
 62
4
100
AcDbLine
 10
49.710838
 20
0.886214
 30
0.0
 11
49.738674
 21
0.8863979999999999
 31
0.0
  0
LINE
  5
60A
330
1F
100
AcDbEntity
  8
1
  6
CONTINUOUS
370
50
 62
4
100
AcDbLine
 10
49.816845
 20
-0.9533889999999999
 30
0.0
 11
49.822739
 21
-0.9533379999999999
 31
0.0
  0
LINE
  5
60B
330
1F
100
AcDbEntity
  8
1
  6
CONTINUOUS
370
50
 62
4
100
AcDbLine
 10
48.009274
 20
-0.561738
 30
0.0
 11
48.034626
 21
-0.561507
 31
0.0
  0
LINE
  5
60C
330
1F
100
AcDbEntity
  8
1
  6
CONTINUOUS
370
50
 62
4
100
AcDbLine
 10
49.993191
 20
0.825148
 30
0.0
 11
49.998405
 21
0.825202
 31
0.0
  0
LINE
  5
60D
330
1F
100
AcDbEntity
  8
1
  6
CONTINUOUS
370
50
 62
4
100
AcDbLine
 10
49.810085
 20
-0.993942
 30
0.0
 11
49.820148
 21
-0.9937739999999999
 31
0.0
  0
LINE
  5
60E
330
1F
100
AcDbEntity
  8
1
  6
CONTINUOUS
370
50
 62
4
100
AcDbLine
 10
49.68300199999999
 20
0.885552
 30
0.0
 11
49.710838
 21
0.886214
 31
0.0
  0
LINE
  5
60F
330
1F
100
AcDbEntity
  8
1
  6
CONTINUOUS
370
50
 62
4
100
AcDbLine
 10
49.799999
 20
0.9935719999999999
 30
0.0
 11
49.810085
 21
0.993942
 31
0.0
  0
LINE
  5
610
330
1F
100
AcDbEntity
  8
1
  6
CONTINUOUS
370
50
 62
4
100
AcDbLine
 10
49.655457
 20
0.884475
 30
0.0
 11
49.68300199999999
 21
0.885552
 31
0.0
  0
LINE
  5
611
330
1F
100
AcDbEntity
  8
1
  6
CONTINUOUS
370
50
 62
4
100
AcDbLine
 10
48.034626
 20
-0.561507
 30
0.0
 11
48.059925
 21
-0.56036
 31
0.0
  0
LINE
  5
612
330
1F
100
AcDbEntity
  8
1
  6
CONTINUOUS
370
50
 62
4
100
AcDbLine
 10
49.62849
 20
0.883046
 30
0.0
 11
49.655457
 21
0.884475
 31
0.0
  0
LINE
  5
613
330
1F
100
AcDbEntity
  8
1
  6
CONTINUOUS
370
50
 62
4
100
AcDbLine
 10
47.669533
 20
-0.95995
 30
0.0
 11
47.683155
 21
-0.959175
 31
0.0
  0
LINE
  5
614
330
1F
100
AcDbEntity
  8
1
  6
CONTINUOUS
370
50
 62
4
100
AcDbLine
 10
49.822739
 20
-0.9533379999999999
 30
0.0
 11
49.828674
 21
-0.952969
 31
0.0
  0
LINE
  5
615
330
1F
100
AcDbEntity
  8
1
  6
CONTINUOUS
370
50
 62
4
100
AcDbLine
 10
49.601814
 20
0.881289
 30
0.0
 11
49.62849
 21
0.883046
 31
0.0
  0
LINE
  5
616
330
1F
100
AcDbEntity
  8
1
  6
CONTINUOUS
370
50
 62
4
100
AcDbLine
 10
49.820148
 20
-0.9937739999999999
 30
0.0
 11
49.83017299999999
 21
-0.993065
 31
0.0
  0
LINE
  5
617
330
1F
100
AcDbEntity
  8
1
  6
CONTINUOUS
370
50
 62
4
100
AcDbLine
 10
49.944401
 20
-0.886629
 30
0.0
 11
49.94736899999999
 21
-0.8864099999999999
 31
0.0
  0
LINE
  5
618
330
1F
100
AcDbEntity
  8
1
  6
CONTINUOUS
370
50
 62
4
100
AcDbLine
 10
49.575035
 20
0.879197
 30
0.0
 11
49.601814
 21
0.881289
 31
0.0
  0
LINE
  5
619
330
1F
100
AcDbEntity
  8
1
  6
CONTINUOUS
370
50
 62
4
100
AcDbLine
 10
49.587467
 20
0.475609
 30
0.0
 11
49.596542
 21
0.476337
 31
0.0
  0
LINE
  5
61A
330
1F
100
AcDbEntity
  8
1
  6
CONTINUOUS
370
50
 62
4
100
AcDbLine
 10
48.059925
 20
-0.56036
 30
0.0
 11
48.085106
 21
-0.558281
 31
0.0
  0
LINE
  5
61B
330
1F
100
AcDbEntity
  8
1
  6
CONTINUOUS
370
50
 62
4
100
AcDbLine
 10
49.666229
 20
0.982281
 30
0.0
 11
49.799999
 21
0.9935719999999999
 31
0.0
  0
LINE
  5
61C
330
1F
100
AcDbEntity
  8
1
  6
CONTINUOUS
370
50
 62
4
100
AcDbLine
 10
49.548172
 20
0.876761
 30
0.0
 11
49.575035
 21
0.879197
 31
0.0
  0
LINE
  5
61D
330
1F
100
AcDbEntity
  8
1
  6
CONTINUOUS
370
50
 62
4
100
AcDbLine
 10
49.828674
 20
-0.952969
 30
0.0
 11
49.834629
 21
-0.952276
 31
0.0
  0
LINE
  5
61E
330
1F
100
AcDbEntity
  8
1
  6
CONTINUOUS
370
50
 62
4
100
AcDbLine
 10
48.085106
 20
-0.558281
 30
0.0
 11
48.109898
 21
-0.555283
 31
0.0
  0
LINE
  5
61F
330
1F
100
AcDbEntity
  8
1
  6
CONTINUOUS
370
50
 62
4
100
AcDbLine
 10
49.83017299999999
 20
-0.993065
 30
0.0
 11
49.840141
 21
-0.991814
 31
0.0
  0
LINE
  5
620
330
1F
100
AcDbEntity
  8
1
  6
CONTINUOUS
370
50
 62
4
100
AcDbLine
 10
49.532478
 20
0.9652719999999999
 30
0.0
 11
49.666229
 21
0.982281
 31
0.0
  0
LINE
  5
621
330
1F
100
AcDbEntity
  8
1
  6
CONTINUOUS
370
50
 62
4
100
AcDbLine
 10
49.39376799999999
 20
0.7773049999999999
 30
0.0
 11
49.57873499999999
 21
0.802263
 31
0.0
  0
LINE
  5
622
330
1F
100
AcDbEntity
  8
1
  6
CONTINUOUS
370
50
 62
4
100
AcDbLine
 10
49.94736899999999
 20
-0.8864099999999999
 30
0.0
 11
49.950302
 21
-0.885964
 31
0.0
  0
LINE
  5
623
330
1F
100
AcDbEntity
  8
1
  6
CONTINUOUS
370
50
 62
4
100
AcDbLine
 10
48.109898
 20
-0.555283
 30
0.0
 11
48.133785
 21
-0.5514399999999999
 31
0.0
  0
LINE
  5
624
330
1F
100
AcDbEntity
  8
1
  6
CONTINUOUS
370
50
 62
4
100
AcDbLine
 10
49.834629
 20
-0.952276
 30
0.0
 11
49.840599
 21
-0.951255
 31
0.0
  0
LINE
  5
625
330
1F
100
AcDbEntity
  8
1
  6
CONTINUOUS
370
50
 62
4
100
AcDbLine
 10
49.400398
 20
0.942553
 30
0.0
 11
49.532478
 21
0.9652719999999999
 31
0.0
  0
LINE
  5
626
330
1F
100
AcDbEntity
  8
1
  6
CONTINUOUS
370
50
 62
4
100
AcDbLine
 10
49.840141
 20
-0.991814
 30
0.0
 11
49.850033
 21
-0.990019
 31
0.0
  0
LINE
  5
627
330
1F
100
AcDbEntity
  8
1
  6
CONTINUOUS
370
50
 62
4
100
AcDbLine
 10
47.683155
 20
-0.959175
 30
0.0
 11
47.695873
 21
-0.9568289999999999
 31
0.0
  0
LINE
  5
628
330
1F
100
AcDbEntity
  8
1
  6
CONTINUOUS
370
50
 62
4
100
AcDbLine
 10
49.208797
 20
0.741703
 30
0.0
 11
49.39376799999999
 21
0.7773049999999999
 31
0.0
  0
LINE
  5
629
330
1F
100
AcDbEntity
  8
1
  6
CONTINUOUS
370
50
 62
4
100
AcDbLine
 10
48.336277
 20
-0.591052
 30
0.0
 11
48.400002
 21
-0.578681
 31
0.0
  0
LINE
  5
62A
330
1F
100
AcDbEntity
  8
1
  6
CONTINUOUS
370
50
 62
4
100
AcDbLine
 10
48.133785
 20
-0.5514399999999999
 30
0.0
 11
48.156689
 21
-0.5468029999999999
 31
0.0
  0
LINE
  5
62B
330
1F
100
AcDbEntity
  8
1
  6
CONTINUOUS
370
50
 62
4
100
AcDbLine
 10
49.275284
 20
0.915106
 30
0.0
 11
49.400398
 21
0.942553
 31
0.0
  0
LINE
  5
62C
330
1F
100
AcDbEntity
  8
1
  6
CONTINUOUS
370
50
 62
4
100
AcDbLine
 10
48.273411
 20
-0.6050789999999999
 30
0.0
 11
48.336277
 21
-0.591052
 31
0.0
  0
LINE
  5
62D
330
1F
100
AcDbEntity
  8
1
  6
CONTINUOUS
370
50
 62
4
100
AcDbLine
 10
49.840599
 20
-0.951255
 30
0.0
 11
49.846577
 21
-0.9498989999999999
 31
0.0
  0
LINE
  5
62E
330
1F
100
AcDbEntity
  8
1
  6
CONTINUOUS
370
50
 62
4
100
AcDbLine
 10
49.950302
 20
-0.885964
 30
0.0
 11
49.953201
 21
-0.885289
 31
0.0
  0
LINE
  5
62F
330
1F
100
AcDbEntity
  8
1
  6
CONTINUOUS
370
50
 62
4
100
AcDbLine
 10
49.850033
 20
-0.990019
 30
0.0
 11
49.859829
 21
-0.9876809999999999
 31
0.0
  0
LINE
  5
630
330
1F
100
AcDbEntity
  8
1
  6
CONTINUOUS
370
50
 62
4
100
AcDbLine
 10
49.023834
 20
0.6970609999999999
 30
0.0
 11
49.208797
 21
0.741703
 31
0.0
  0
LINE
  5
631
330
1F
100
AcDbEntity
  8
1
  6
CONTINUOUS
370
50
 62
4
100
AcDbLine
 10
35.700001
 20
-1.99995
 30
0.0
 11
40.0
 21
-0.95995
 31
0.0
  0
LINE
  5
632
330
1F
100
AcDbEntity
  8
1
  6
CONTINUOUS
370
50
 62
4
100
AcDbLine
 10
48.156689
 20
-0.5468029999999999
 30
0.0
 11
48.178535
 21
-0.541422
 31
0.0
  0
LINE
  5
633
330
1F
100
AcDbEntity
  8
1
  6
CONTINUOUS
370
50
 62
4
100
AcDbLine
 10
49.596542
 20
0.476337
 30
0.0
 11
49.604858
 21
0.478413
 31
0.0
  0
LINE
  5
634
330
1F
100
AcDbEntity
  8
1
  6
CONTINUOUS
370
50
 62
4
100
AcDbLine
 10
48.211422
 20
-0.620647
 30
0.0
 11
48.273411
 21
-0.6050789999999999
 31
0.0
  0
LINE
  5
635
330
1F
100
AcDbEntity
  8
1
  6
CONTINUOUS
370
50
 62
4
100
AcDbLine
 10
49.153477
 20
0.8829089999999999
 30
0.0
 11
49.275284
 21
0.915106
 31
0.0
  0
LINE
  5
636
330
1F
100
AcDbEntity
  8
1
  6
CONTINUOUS
370
50
 62
4
100
AcDbLine
 10
47.157211
 20
0.17452
 30
0.0
 11
47.16354
 21
0.176248
 31
0.0
  0
LINE
  5
637
330
1F
100
AcDbEntity
  8
1
  6
CONTINUOUS
370
50
 62
4
100
AcDbLine
 10
48.838871
 20
0.645797
 30
0.0
 11
49.023834
 21
0.6970609999999999
 31
0.0
  0
LINE
  5
638
330
1F
100
AcDbEntity
  8
1
  6
CONTINUOUS
370
50
 62
4
100
AcDbLine
 10
48.150352
 20
-0.6376379999999999
 30
0.0
 11
48.211422
 21
-0.620647
 31
0.0
  0
LINE
  5
639
330
1F
100
AcDbEntity
  8
1
  6
CONTINUOUS
370
50
 62
4
100
AcDbLine
 10
49.846577
 20
-0.9498989999999999
 30
0.0
 11
49.85248199999999
 21
-0.948228
 31
0.0
  0
LINE
  5
63A
330
1F
100
AcDbEntity
  8
1
  6
CONTINUOUS
370
50
 62
4
100
AcDbLine
 10
48.178535
 20
-0.541422
 30
0.0
 11
48.199253
 21
-0.535346
 31
0.0
  0
LINE
  5
63B
330
1F
100
AcDbEntity
  8
1
  6
CONTINUOUS
370
50
 62
4
100
AcDbLine
 10
49.859829
 20
-0.9876809999999999
 30
0.0
 11
49.869499
 21
-0.9848
 31
0.0
  0
LINE
  5
63C
330
1F
100
AcDbEntity
  8
1
  6
CONTINUOUS
370
50
 62
4
100
AcDbLine
 10
49.02990699999999
 20
0.8458019999999999
 30
0.0
 11
49.153477
 21
0.8829089999999999
 31
0.0
  0
LINE
  5
63D
330
1F
100
AcDbEntity
  8
1
  6
CONTINUOUS
370
50
 62
4
100
AcDbLine
 10
48.090233
 20
-0.655936
 30
0.0
 11
48.150352
 21
-0.6376379999999999
 31
0.0
  0
LINE
  5
63E
330
1F
100
AcDbEntity
  8
1
  6
CONTINUOUS
370
50
 62
4
100
AcDbLine
 10
48.653908
 20
0.588317
 30
0.0
 11
48.838871
 21
0.645797
 31
0.0
  0
LINE
  5
63F
330
1F
100
AcDbEntity
  8
1
  6
CONTINUOUS
370
50
 62
4
100
AcDbLine
 10
49.953201
 20
-0.885289
 30
0.0
 11
49.956062
 21
-0.8843829999999999
 31
0.0
  0
LINE
  5
640
330
1F
100
AcDbEntity
  8
1
  6
CONTINUOUS
370
50
 62
4
100
AcDbLine
 10
48.904633
 20
0.804539
 30
0.0
 11
49.02990699999999
 21
0.8458019999999999
 31
0.0
  0
LINE
  5
641
330
1F
100
AcDbEntity
  8
1
  6
CONTINUOUS
370
50
 62
4
100
AcDbLine
 10
48.031094
 20
-0.675423
 30
0.0
 11
48.090233
 21
-0.655936
 31
0.0
  0
LINE
  5
642
330
1F
100
AcDbEntity
  8
1
  6
CONTINUOUS
370
50
 62
4
100
AcDbLine
 10
47.695873
 20
-0.9568289999999999
 30
0.0
 11
47.707642
 21
-0.952886
 31
0.0
  0
LINE
  5
643
330
1F
100
AcDbEntity
  8
1
  6
CONTINUOUS
370
50
 62
4
100
AcDbLine
 10
47.15101199999999
 20
0.17244
 30
0.0
 11
47.157211
 21
0.17452
 31
0.0
  0
LINE
  5
644
330
1F
100
AcDbEntity
  8
1
  6
CONTINUOUS
370
50
 62
4
100
AcDbLine
 10
49.85248199999999
 20
-0.948228
 30
0.0
 11
49.858234
 21
-0.9462769999999999
 31
0.0
  0
LINE
  5
645
330
1F
100
AcDbEntity
  8
1
  6
CONTINUOUS
370
50
 62
4
100
AcDbLine
 10
48.468945
 20
0.525018
 30
0.0
 11
48.653908
 21
0.588317
 31
0.0
  0
LINE
  5
646
330
1F
100
AcDbEntity
  8
1
  6
CONTINUOUS
370
50
 62
4
100
AcDbLine
 10
48.199253
 20
-0.535346
 30
0.0
 11
48.21876899999999
 21
-0.528624
 31
0.0
  0
LINE
  5
647
330
1F
100
AcDbEntity
  8
1
  6
CONTINUOUS
370
50
 62
4
100
AcDbLine
 10
47.97296499999999
 20
-0.6959839999999999
 30
0.0
 11
48.031094
 21
-0.675423
 31
0.0
  0
LINE
  5
648
330
1F
100
AcDbEntity
  8
1
  6
CONTINUOUS
370
50
 62
4
100
AcDbLine
 10
48.778431
 20
0.759512
 30
0.0
 11
48.904633
 21
0.804539
 31
0.0
  0
LINE
  5
649
330
1F
100
AcDbEntity
  8
1
  6
CONTINUOUS
370
50
 62
4
100
AcDbLine
 10
49.869499
 20
-0.9848
 30
0.0
 11
49.879025
 21
-0.981378
 31
0.0
  0
LINE
  5
64A
330
1F
100
AcDbEntity
  8
1
  6
CONTINUOUS
370
50
 62
4
100
AcDbLine
 10
47.947453
 20
-0.705499
 30
0.0
 11
47.97296499999999
 21
-0.6959839999999999
 31
0.0
  0
LINE
  5
64B
330
1F
100
AcDbEntity
  8
1
  6
CONTINUOUS
370
50
 62
4
100
AcDbLine
 10
48.651878
 20
0.711028
 30
0.0
 11
48.778431
 21
0.759512
 31
0.0
  0
LINE
  5
64C
330
1F
100
AcDbEntity
  8
1
  6
CONTINUOUS
370
50
 62
4
100
AcDbLine
 10
47.922504
 20
-0.7151719999999999
 30
0.0
 11
47.947453
 21
-0.705499
 31
0.0
  0
LINE
  5
64D
330
1F
100
AcDbEntity
  8
1
  6
CONTINUOUS
370
50
 62
4
100
AcDbLine
 10
49.858234
 20
-0.9462769999999999
 30
0.0
 11
49.863827
 21
-0.944062
 31
0.0
  0
LINE
  5
64E
330
1F
100
AcDbEntity
  8
1
  6
CONTINUOUS
370
50
 62
4
100
AcDbLine
 10
48.21876899999999
 20
-0.528624
 30
0.0
 11
48.237011
 21
-0.5213059999999999
 31
0.0
  0
LINE
  5
64F
330
1F
100
AcDbEntity
  8
1
  6
CONTINUOUS
370
50
 62
4
100
AcDbLine
 10
47.89814
 20
-0.7249749999999999
 30
0.0
 11
47.922504
 21
-0.7151719999999999
 31
0.0
  0
LINE
  5
650
330
1F
100
AcDbEntity
  8
1
  6
CONTINUOUS
370
50
 62
4
100
AcDbLine
 10
47.144966
 20
0.170004
 30
0.0
 11
47.15101199999999
 21
0.17244
 31
0.0
  0
LINE
  5
651
330
1F
100
AcDbEntity
  8
1
  6
CONTINUOUS
370
50
 62
4
100
AcDbLine
 10
48.525547
 20
0.659391
 30
0.0
 11
48.651878
 21
0.711028
 31
0.0
  0
LINE
  5
652
330
1F
100
AcDbEntity
  8
1
  6
CONTINUOUS
370
50
 62
4
100
AcDbLine
 10
49.956062
 20
-0.8843829999999999
 30
0.0
 11
49.958958
 21
-0.883184
 31
0.0
  0
LINE
  5
653
330
1F
100
AcDbEntity
  8
1
  6
CONTINUOUS
370
50
 62
4
100
AcDbLine
 10
47.16354
 20
0.176248
 30
0.0
 11
47.206467
 21
0.194058
 31
0.0
  0
LINE
  5
654
330
1F
100
AcDbEntity
  8
1
  6
CONTINUOUS
370
50
 62
4
100
AcDbLine
 10
47.874382
 20
-0.73488
 30
0.0
 11
47.89814
 21
-0.7249749999999999
 31
0.0
  0
LINE
  5
655
330
1F
100
AcDbEntity
  8
1
  6
CONTINUOUS
370
50
 62
4
100
AcDbLine
 10
49.879025
 20
-0.981378
 30
0.0
 11
49.88839
 21
-0.977414
 31
0.0
  0
LINE
  5
656
330
1F
100
AcDbEntity
  8
1
  6
CONTINUOUS
370
50
 62
4
100
AcDbLine
 10
47.851246
 20
-0.744861
 30
0.0
 11
47.874382
 21
-0.73488
 31
0.0
  0
LINE
  5
657
330
1F
100
AcDbEntity
  8
1
  6
CONTINUOUS
370
50
 62
4
100
AcDbLine
 10
48.400002
 20
0.60491
 30
0.0
 11
48.525547
 21
0.659391
 31
0.0
  0
LINE
  5
658
330
1F
100
AcDbEntity
  8
1
  6
CONTINUOUS
370
50
 62
4
100
AcDbLine
 10
47.828751
 20
-0.7548889999999999
 30
0.0
 11
47.851246
 21
-0.744861
 31
0.0
  0
LINE
  5
659
330
1F
100
AcDbEntity
  8
1
  6
CONTINUOUS
370
50
 62
4
100
AcDbLine
 10
49.863827
 20
-0.944062
 30
0.0
 11
49.869259
 21
-0.941604
 31
0.0
  0
LINE
  5
65A
330
1F
100
AcDbEntity
  8
1
  6
CONTINUOUS
370
50
 62
4
100
AcDbLine
 10
49.604858
 20
0.478413
 30
0.0
 11
49.612396
 21
0.481831
 31
0.0
  0
LINE
  5
65B
330
1F
100
AcDbEntity
  8
1
  6
CONTINUOUS
370
50
 62
4
100
AcDbLine
 10
47.806915
 20
-0.764938
 30
0.0
 11
47.828751
 21
-0.7548889999999999
 31
0.0
  0
LINE
  5
65C
330
1F
100
AcDbEntity
  8
1
  6
CONTINUOUS
370
50
 62
4
100
AcDbLine
 10
48.237011
 20
-0.5213059999999999
 30
0.0
 11
48.253864
 21
-0.513466
 31
0.0
  0
LINE
  5
65D
330
1F
100
AcDbEntity
  8
1
  6
CONTINUOUS
370
50
 62
4
100
AcDbLine
 10
47.785759
 20
-0.77498
 30
0.0
 11
47.806915
 21
-0.764938
 31
0.0
  0
LINE
  5
65E
330
1F
100
AcDbEntity
  8
1
  6
CONTINUOUS
370
50
 62
4
100
AcDbLine
 10
47.139088
 20
0.167209
 30
0.0
 11
47.144966
 21
0.170004
 31
0.0
  0
LINE
  5
65F
330
1F
100
AcDbEntity
  8
1
  6
CONTINUOUS
370
50
 62
4
100
AcDbLine
 10
47.206467
 20
0.194058
 30
0.0
 11
47.248199
 21
0.214059
 31
0.0
  0
LINE
  5
660
330
1F
100
AcDbEntity
  8
1
  6
CONTINUOUS
370
50
 62
4
100
AcDbLine
 10
47.765305
 20
-0.784987
 30
0.0
 11
47.785759
 21
-0.77498
 31
0.0
  0
LINE
  5
661
330
1F
100
AcDbEntity
  8
1
  6
CONTINUOUS
370
50
 62
4
100
AcDbLine
 10
49.88839
 20
-0.977414
 30
0.0
 11
49.897568
 21
-0.972911
 31
0.0
  0
LINE
  5
662
330
1F
100
AcDbEntity
  8
1
  6
CONTINUOUS
370
50
 62
4
100
AcDbLine
 10
47.74556399999999
 20
-0.794932
 30
0.0
 11
47.765305
 21
-0.784987
 31
0.0
  0
LINE
  5
663
330
1F
100
AcDbEntity
  8
1
  6
CONTINUOUS
370
50
 62
4
100
AcDbLine
 10
49.869259
 20
-0.941604
 30
0.0
 11
49.874531
 21
-0.93892
 31
0.0
  0
LINE
  5
664
330
1F
100
AcDbEntity
  8
1
  6
CONTINUOUS
370
50
 62
4
100
AcDbLine
 10
47.707642
 20
-0.952886
 30
0.0
 11
47.718422
 21
-0.9473229999999999
 31
0.0
  0
LINE
  5
665
330
1F
100
AcDbEntity
  8
1
  6
CONTINUOUS
370
50
 62
4
100
AcDbLine
 10
49.958958
 20
-0.883184
 30
0.0
 11
49.961952
 21
-0.8816379999999999
 31
0.0
  0
LINE
  5
666
330
1F
100
AcDbEntity
  8
1
  6
CONTINUOUS
370
50
 62
4
100
AcDbLine
 10
47.726555
 20
-0.804789
 30
0.0
 11
47.74556399999999
 21
-0.794932
 31
0.0
  0
LINE
  5
667
330
1F
100
AcDbEntity
  8
1
  6
CONTINUOUS
370
50
 62
4
100
AcDbLine
 10
47.708305
 20
-0.8145279999999999
 30
0.0
 11
47.726555
 21
-0.804789
 31
0.0
  0
LINE
  5
668
330
1F
100
AcDbEntity
  8
1
  6
CONTINUOUS
370
50
 62
4
100
AcDbLine
 10
48.253864
 20
-0.513466
 30
0.0
 11
48.269234
 21
-0.505176
 31
0.0
  0
LINE
  5
669
330
1F
100
AcDbEntity
  8
1
  6
CONTINUOUS
370
50
 62
4
100
AcDbLine
 10
47.248199
 20
0.214059
 30
0.0
 11
47.288708
 21
0.236075
 31
0.0
  0
LINE
  5
66A
330
1F
100
AcDbEntity
  8
1
  6
CONTINUOUS
370
50
 62
4
100
AcDbLine
 10
47.690857
 20
-0.8241069999999999
 30
0.0
 11
47.708305
 21
-0.8145279999999999
 31
0.0
  0
LINE
  5
66B
330
1F
100
AcDbEntity
  8
1
  6
CONTINUOUS
370
50
 62
4
100
AcDbLine
 10
47.133389
 20
0.164052
 30
0.0
 11
47.139088
 21
0.167209
 31
0.0
  0
LINE
  5
66C
330
1F
100
AcDbEntity
  8
1
  6
CONTINUOUS
370
50
 62
4
100
AcDbLine
 10
49.897568
 20
-0.972911
 30
0.0
 11
49.906544
 21
-0.967868
 31
0.0
  0
LINE
  5
66D
330
1F
100
AcDbEntity
  8
1
  6
CONTINUOUS
370
50
 62
4
100
AcDbLine
 10
47.674358
 20
-0.833433
 30
0.0
 11
47.690857
 21
-0.8241069999999999
 31
0.0
  0
LINE
  5
66E
330
1F
100
AcDbEntity
  8
1
  6
CONTINUOUS
370
50
 62
4
100
AcDbLine
 10
49.874531
 20
-0.93892
 30
0.0
 11
49.87962
 21
-0.936037
 31
0.0
  0
LINE
  5
66F
330
1F
100
AcDbEntity
  8
1
  6
CONTINUOUS
370
50
 62
4
100
AcDbLine
 10
47.658829
 20
-0.842486
 30
0.0
 11
47.674358
 21
-0.833433
 31
0.0
  0
LINE
  5
670
330
1F
100
AcDbEntity
  8
1
  6
CONTINUOUS
370
50
 62
4
100
AcDbLine
 10
47.644272
 20
-0.851255
 30
0.0
 11
47.658829
 21
-0.842486
 31
0.0
  0
LINE
  5
671
330
1F
100
AcDbEntity
  8
1
  6
CONTINUOUS
370
50
 62
4
100
AcDbLine
 10
48.003437
 20
-0.702716
 30
0.0
 11
48.069328
 21
-0.662756
 31
0.0
  0
LINE
  5
672
330
1F
100
AcDbEntity
  8
1
  6
CONTINUOUS
370
50
 62
4
100
AcDbLine
 10
47.288708
 20
0.236075
 30
0.0
 11
47.327976
 21
0.259927
 31
0.0
  0
LINE
  5
673
330
1F
100
AcDbEntity
  8
1
  6
CONTINUOUS
370
50
 62
4
100
AcDbLine
 10
49.961952
 20
-0.8816379999999999
 30
0.0
 11
49.964996
 21
-0.879755
 31
0.0
  0
LINE
  5
674
330
1F
100
AcDbEntity
  8
1
  6
CONTINUOUS
370
50
 62
4
100
AcDbLine
 10
49.87962
 20
-0.936037
 30
0.0
 11
49.884525
 21
-0.932979
 31
0.0
  0
LINE
  5
675
330
1F
100
AcDbEntity
  8
1
  6
CONTINUOUS
370
50
 62
4
100
AcDbLine
 10
47.630695
 20
-0.859726
 30
0.0
 11
47.644272
 21
-0.851255
 31
0.0
  0
LINE
  5
676
330
1F
100
AcDbEntity
  8
1
  6
CONTINUOUS
370
50
 62
4
100
AcDbLine
 10
48.269234
 20
-0.505176
 30
0.0
 11
48.28307
 21
-0.49649
 31
0.0
  0
LINE
  5
677
330
1F
100
AcDbEntity
  8
1
  6
CONTINUOUS
370
50
 62
4
100
AcDbLine
 10
49.906544
 20
-0.967868
 30
0.0
 11
49.915287
 21
-0.9622879999999999
 31
0.0
  0
LINE
  5
678
330
1F
100
AcDbEntity
  8
1
  6
CONTINUOUS
370
50
 62
4
100
AcDbLine
 10
47.127892
 20
0.16053
 30
0.0
 11
47.133389
 21
0.164052
 31
0.0
  0
LINE
  5
679
330
1F
100
AcDbEntity
  8
1
  6
CONTINUOUS
370
50
 62
4
100
AcDbLine
 10
47.618099
 20
-0.8678889999999999
 30
0.0
 11
47.630695
 21
-0.859726
 31
0.0
  0
LINE
  5
67A
330
1F
100
AcDbEntity
  8
1
  6
CONTINUOUS
370
50
 62
4
100
AcDbLine
 10
47.327976
 20
0.259927
 30
0.0
 11
47.365978
 21
0.285438
 31
0.0
  0
LINE
  5
67B
330
1F
100
AcDbEntity
  8
1
  6
CONTINUOUS
370
50
 62
4
100
AcDbLine
 10
47.606491
 20
-0.87573
 30
0.0
 11
47.618099
 21
-0.8678889999999999
 31
0.0
  0
LINE
  5
67C
330
1F
100
AcDbEntity
  8
1
  6
CONTINUOUS
370
50
 62
4
100
AcDbLine
 10
47.941967
 20
-0.744494
 30
0.0
 11
48.003437
 21
-0.702716
 31
0.0
  0
LINE
  5
67D
330
1F
100
AcDbEntity
  8
1
  6
CONTINUOUS
370
50
 62
4
100
AcDbLine
 10
49.884525
 20
-0.932979
 30
0.0
 11
49.88924
 21
-0.929767
 31
0.0
  0
LINE
  5
67E
330
1F
100
AcDbEntity
  8
1
  6
CONTINUOUS
370
50
 62
4
100
AcDbLine
 10
49.612396
 20
0.481831
 30
0.0
 11
49.619133
 21
0.486586
 31
0.0
  0
LINE
  5
67F
330
1F
100
AcDbEntity
  8
1
  6
CONTINUOUS
370
50
 62
4
100
AcDbLine
 10
47.595879
 20
-0.8832369999999999
 30
0.0
 11
47.606491
 21
-0.87573
 31
0.0
  0
LINE
  5
680
330
1F
100
AcDbEntity
  8
1
  6
CONTINUOUS
370
50
 62
4
100
AcDbLine
 10
49.915287
 20
-0.9622879999999999
 30
0.0
 11
49.923763
 21
-0.956189
 31
0.0
  0
LINE
  5
681
330
1F
100
AcDbEntity
  8
1
  6
CONTINUOUS
370
50
 62
4
100
AcDbLine
 10
49.964996
 20
-0.879755
 30
0.0
 11
49.968048
 21
-0.877547
 31
0.0
  0
LINE
  5
682
330
1F
100
AcDbEntity
  8
1
  6
CONTINUOUS
370
50
 62
4
100
AcDbLine
 10
47.365978
 20
0.285438
 30
0.0
 11
47.402687
 21
0.312431
 31
0.0
  0
LINE
  5
683
330
1F
100
AcDbEntity
  8
1
  6
CONTINUOUS
370
50
 62
4
100
AcDbLine
 10
47.122643
 20
0.156664
 30
0.0
 11
47.127892
 21
0.16053
 31
0.0
  0
LINE
  5
684
330
1F
100
AcDbEntity
  8
1
  6
CONTINUOUS
370
50
 62
4
100
AcDbLine
 10
48.28307
 20
-0.49649
 30
0.0
 11
48.295326
 21
-0.487462
 31
0.0
  0
LINE
  5
685
330
1F
100
AcDbEntity
  8
1
  6
CONTINUOUS
370
50
 62
4
100
AcDbLine
 10
49.88924
 20
-0.929767
 30
0.0
 11
49.89376799999999
 21
-0.926423
 31
0.0
  0
LINE
  5
686
330
1F
100
AcDbEntity
  8
1
  6
CONTINUOUS
370
50
 62
4
100
AcDbLine
 10
47.718422
 20
-0.9473229999999999
 30
0.0
 11
47.728172
 21
-0.9401109999999999
 31
0.0
  0
LINE
  5
687
330
1F
100
AcDbEntity
  8
1
  6
CONTINUOUS
370
50
 62
4
100
AcDbLine
 10
47.58626599999999
 20
-0.8903989999999999
 30
0.0
 11
47.595879
 21
-0.8832369999999999
 31
0.0
  0
LINE
  5
688
330
1F
100
AcDbEntity
  8
1
  6
CONTINUOUS
370
50
 62
4
100
AcDbLine
 10
47.885578
 20
-0.7873359999999999
 30
0.0
 11
47.941967
 21
-0.744494
 31
0.0
  0
LINE
  5
689
330
1F
100
AcDbEntity
  8
1
  6
CONTINUOUS
370
50
 62
4
100
AcDbLine
 10
47.577587
 20
-0.897264
 30
0.0
 11
47.58626599999999
 21
-0.8903989999999999
 31
0.0
  0
LINE
  5
68A
330
1F
100
AcDbEntity
  8
1
  6
CONTINUOUS
370
50
 62
4
100
AcDbLine
 10
49.89376799999999
 20
-0.926423
 30
0.0
 11
49.898106
 21
-0.9229689999999999
 31
0.0
  0
LINE
  5
68B
330
1F
100
AcDbEntity
  8
1
  6
CONTINUOUS
370
50
 62
4
100
AcDbLine
 10
47.402687
 20
0.312431
 30
0.0
 11
47.438091
 21
0.340733
 31
0.0
  0
LINE
  5
68C
330
1F
100
AcDbEntity
  8
1
  6
CONTINUOUS
370
50
 62
4
100
AcDbLine
 10
49.923763
 20
-0.956189
 30
0.0
 11
49.931938
 21
-0.94958
 31
0.0
  0
LINE
  5
68D
330
1F
100
AcDbEntity
  8
1
  6
CONTINUOUS
370
50
 62
4
100
AcDbLine
 10
49.968048
 20
-0.877547
 30
0.0
 11
49.971058
 21
-0.8750249999999999
 31
0.0
  0
LINE
  5
68E
330
1F
100
AcDbEntity
  8
1
  6
CONTINUOUS
370
50
 62
4
100
AcDbLine
 10
47.117683
 20
0.152483
 30
0.0
 11
47.122643
 21
0.156664
 31
0.0
  0
LINE
  5
68F
330
1F
100
AcDbEntity
  8
1
  6
CONTINUOUS
370
50
 62
4
100
AcDbLine
 10
47.834633
 20
-0.830602
 30
0.0
 11
47.885578
 21
-0.7873359999999999
 31
0.0
  0
LINE
  5
690
330
1F
100
AcDbEntity
  8
1
  6
CONTINUOUS
370
50
 62
4
100
AcDbLine
 10
47.569778
 20
-0.90391
 30
0.0
 11
47.577587
 21
-0.897264
 31
0.0
  0
LINE
  5
691
330
1F
100
AcDbEntity
  8
1
  6
CONTINUOUS
370
50
 62
4
100
AcDbLine
 10
49.898106
 20
-0.9229689999999999
 30
0.0
 11
49.902248
 21
-0.919427
 31
0.0
  0
LINE
  5
692
330
1F
100
AcDbEntity
  8
1
  6
CONTINUOUS
370
50
 62
4
100
AcDbLine
 10
47.438091
 20
0.340733
 30
0.0
 11
47.47222499999999
 21
0.370218
 31
0.0
  0
LINE
  5
693
330
1F
100
AcDbEntity
  8
1
  6
CONTINUOUS
370
50
 62
4
100
AcDbLine
 10
48.295326
 20
-0.487462
 30
0.0
 11
48.30612199999999
 21
-0.477975
 31
0.0
  0
LINE
  5
694
330
1F
100
AcDbEntity
  8
1
  6
CONTINUOUS
370
50
 62
4
100
AcDbLine
 10
49.931938
 20
-0.94958
 30
0.0
 11
49.939789
 21
-0.942468
 31
0.0
  0
LINE
  5
695
330
1F
100
AcDbEntity
  8
1
  6
CONTINUOUS
370
50
 62
4
100
AcDbLine
 10
49.902248
 20
-0.919427
 30
0.0
 11
49.906242
 21
-0.915778
 31
0.0
  0
LINE
  5
696
330
1F
100
AcDbEntity
  8
1
  6
CONTINUOUS
370
50
 62
4
100
AcDbLine
 10
47.47222499999999
 20
0.370218
 30
0.0
 11
47.505009
 21
0.400713
 31
0.0
  0
LINE
  5
697
330
1F
100
AcDbEntity
  8
1
  6
CONTINUOUS
370
50
 62
4
100
AcDbLine
 10
47.562946
 20
-0.910306
 30
0.0
 11
47.569778
 21
-0.90391
 31
0.0
  0
LINE
  5
698
330
1F
100
AcDbEntity
  8
1
  6
CONTINUOUS
370
50
 62
4
100
AcDbLine
 10
47.79287
 20
-0.8701249999999999
 30
0.0
 11
47.834633
 21
-0.830602
 31
0.0
  0
LINE
  5
699
330
1F
100
AcDbEntity
  8
1
  6
CONTINUOUS
370
50
 62
4
100
AcDbLine
 10
47.113022
 20
0.147997
 30
0.0
 11
47.117683
 21
0.152483
 31
0.0
  0
LINE
  5
69A
330
1F
100
AcDbEntity
  8
1
  6
CONTINUOUS
370
50
 62
4
100
AcDbLine
 10
49.971058
 20
-0.8750249999999999
 30
0.0
 11
49.97398399999999
 21
-0.8722
 31
0.0
  0
LINE
  5
69B
330
1F
100
AcDbEntity
  8
1
  6
CONTINUOUS
370
50
 62
4
100
AcDbLine
 10
49.906242
 20
-0.915778
 30
0.0
 11
49.910172
 21
-0.9119569999999999
 31
0.0
  0
LINE
  5
69C
330
1F
100
AcDbEntity
  8
1
  6
CONTINUOUS
370
50
 62
4
100
AcDbLine
 10
47.505009
 20
0.400713
 30
0.0
 11
47.536324
 21
0.43203
 31
0.0
  0
LINE
  5
69D
330
1F
100
AcDbEntity
  8
1
  6
CONTINUOUS
370
50
 62
4
100
AcDbLine
 10
49.939789
 20
-0.942468
 30
0.0
 11
49.94729599999999
 21
-0.9348609999999999
 31
0.0
  0
LINE
  5
69E
330
1F
100
AcDbEntity
  8
1
  6
CONTINUOUS
370
50
 62
4
100
AcDbLine
 10
47.728172
 20
-0.9401109999999999
 30
0.0
 11
47.736839
 21
-0.931232
 31
0.0
  0
LINE
  5
69F
330
1F
100
AcDbEntity
  8
1
  6
CONTINUOUS
370
50
 62
4
100
AcDbLine
 10
49.619133
 20
0.486586
 30
0.0
 11
49.625004
 21
0.492613
 31
0.0
  0
LINE
  5
6A0
330
1F
100
AcDbEntity
  8
1
  6
CONTINUOUS
370
50
 62
4
100
AcDbLine
 10
49.910172
 20
-0.9119569999999999
 30
0.0
 11
49.914032
 21
-0.907959
 31
0.0
  0
LINE
  5
6A1
330
1F
100
AcDbEntity
  8
1
  6
CONTINUOUS
370
50
 62
4
100
AcDbLine
 10
47.557102
 20
-0.9165059999999999
 30
0.0
 11
47.562946
 21
-0.910306
 31
0.0
  0
LINE
  5
6A2
330
1F
100
AcDbEntity
  8
1
  6
CONTINUOUS
370
50
 62
4
100
AcDbLine
 10
47.751091
 20
-0.914623
 30
0.0
 11
47.79287
 21
-0.8701249999999999
 31
0.0
  0
LINE
  5
6A3
330
1F
100
AcDbEntity
  8
1
  6
CONTINUOUS
370
50
 62
4
100
AcDbLine
 10
47.536324
 20
0.43203
 30
0.0
 11
47.566063
 21
0.463984
 31
0.0
  0
LINE
  5
6A4
330
1F
100
AcDbEntity
  8
1
  6
CONTINUOUS
370
50
 62
4
100
AcDbLine
 10
48.30612199999999
 20
-0.477975
 30
0.0
 11
48.315784
 21
-0.467478
 31
0.0
  0
LINE
  5
6A5
330
1F
100
AcDbEntity
  8
1
  6
CONTINUOUS
370
50
 62
4
100
AcDbLine
 10
47.108673
 20
0.143212
 30
0.0
 11
47.113022
 21
0.147997
 31
0.0
  0
LINE
  5
6A6
330
1F
100
AcDbEntity
  8
1
  6
CONTINUOUS
370
50
 62
4
100
AcDbLine
 10
49.914032
 20
-0.907959
 30
0.0
 11
49.917824
 21
-0.903786
 31
0.0
  0
LINE
  5
6A7
330
1F
100
AcDbEntity
  8
1
  6
CONTINUOUS
370
50
 62
4
100
AcDbLine
 10
49.97398399999999
 20
-0.8722
 30
0.0
 11
49.976776
 21
-0.869085
 31
0.0
  0
LINE
  5
6A8
330
1F
100
AcDbEntity
  8
1
  6
CONTINUOUS
370
50
 62
4
100
AcDbLine
 10
49.94729599999999
 20
-0.9348609999999999
 30
0.0
 11
49.95443
 21
-0.926765
 31
0.0
  0
LINE
  5
6A9
330
1F
100
AcDbEntity
  8
1
  6
CONTINUOUS
370
50
 62
4
100
AcDbLine
 10
47.566063
 20
0.463984
 30
0.0
 11
47.594116
 21
0.496387
 31
0.0
  0
LINE
  5
6AA
330
1F
100
AcDbEntity
  8
1
  6
CONTINUOUS
370
50
 62
4
100
AcDbLine
 10
47.736835
 20
-0.931237
 30
0.0
 11
47.751091
 21
-0.914623
 31
0.0
  0
LINE
  5
6AB
330
1F
100
AcDbEntity
  8
1
  6
CONTINUOUS
370
50
 62
4
100
AcDbLine
 10
49.917824
 20
-0.903786
 30
0.0
 11
49.921551
 21
-0.8994369999999999
 31
0.0
  0
LINE
  5
6AC
330
1F
100
AcDbEntity
  8
1
  6
CONTINUOUS
370
50
 62
4
100
AcDbLine
 10
49.921551
 20
-0.8994369999999999
 30
0.0
 11
49.925209
 21
-0.894911
 31
0.0
  0
LINE
  5
6AD
330
1F
100
AcDbEntity
  8
1
  6
CONTINUOUS
370
50
 62
4
100
AcDbLine
 10
47.594116
 20
0.496387
 30
0.0
 11
47.620373
 21
0.529053
 31
0.0
  0
LINE
  5
6AE
330
1F
100
AcDbEntity
  8
1
  6
CONTINUOUS
370
50
 62
4
100
AcDbLine
 10
47.104637
 20
0.138138
 30
0.0
 11
47.108673
 21
0.143212
 31
0.0
  0
LINE
  5
6AF
330
1F
100
AcDbEntity
  8
1
  6
CONTINUOUS
370
50
 62
4
100
AcDbLine
 10
47.55246
 20
-0.922381
 30
0.0
 11
47.557102
 21
-0.9165059999999999
 31
0.0
  0
LINE
  5
6B0
330
1F
100
AcDbEntity
  8
1
  6
CONTINUOUS
370
50
 62
4
100
AcDbLine
 10
49.95443
 20
-0.926765
 30
0.0
 11
49.961166
 21
-0.918196
 31
0.0
  0
LINE
  5
6B1
330
1F
100
AcDbEntity
  8
1
  6
CONTINUOUS
370
50
 62
4
100
AcDbLine
 10
48.323746
 20
-0.456007
 30
0.0
 11
48.335155
 21
-0.441489
 31
0.0
  0
LINE
  5
6B2
330
1F
100
AcDbEntity
  8
1
  6
CONTINUOUS
370
50
 62
4
100
AcDbLine
 10
49.976776
 20
-0.869085
 30
0.0
 11
49.979481
 21
-0.865574
 31
0.0
  0
LINE
  5
6B3
330
1F
100
AcDbEntity
  8
1
  6
CONTINUOUS
370
50
 62
4
100
AcDbLine
 10
48.335155
 20
-0.441489
 30
0.0
 11
48.34639
 21
-0.426758
 31
0.0
  0
LINE
  5
6B4
330
1F
100
AcDbEntity
  8
1
  6
CONTINUOUS
370
50
 62
4
100
AcDbLine
 10
49.925209
 20
-0.894911
 30
0.0
 11
49.928795
 21
-0.8902089999999999
 31
0.0
  0
LINE
  5
6B5
330
1F
100
AcDbEntity
  8
1
  6
CONTINUOUS
370
50
 62
4
100
AcDbLine
 10
47.620373
 20
0.529053
 30
0.0
 11
47.64472199999999
 21
0.561793
 31
0.0
  0
LINE
  5
6B6
330
1F
100
AcDbEntity
  8
1
  6
CONTINUOUS
370
50
 62
4
100
AcDbLine
 10
48.34639
 20
-0.426758
 30
0.0
 11
48.357445
 21
-0.41181
 31
0.0
  0
LINE
  5
6B7
330
1F
100
AcDbEntity
  8
1
  6
CONTINUOUS
370
50
 62
4
100
AcDbLine
 10
49.928795
 20
-0.8902089999999999
 30
0.0
 11
49.932308
 21
-0.8853289999999999
 31
0.0
  0
LINE
  5
6B8
330
1F
100
AcDbEntity
  8
1
  6
CONTINUOUS
370
50
 62
4
100
AcDbLine
 10
48.357445
 20
-0.41181
 30
0.0
 11
48.368332
 21
-0.396642
 31
0.0
  0
LINE
  5
6B9
330
1F
100
AcDbEntity
  8
1
  6
CONTINUOUS
370
50
 62
4
100
AcDbLine
 10
49.961166
 20
-0.918196
 30
0.0
 11
49.96744899999999
 21
-0.909203
 31
0.0
  0
LINE
  5
6BA
330
1F
100
AcDbEntity
  8
1
  6
CONTINUOUS
370
50
 62
4
100
AcDbLine
 10
48.368332
 20
-0.396642
 30
0.0
 11
48.379051
 21
-0.381252
 31
0.0
  0
LINE
  5
6BB
330
1F
100
AcDbEntity
  8
1
  6
CONTINUOUS
370
50
 62
4
100
AcDbLine
 10
48.315784
 20
-0.467478
 30
0.0
 11
48.323746
 21
-0.456007
 31
0.0
  0
LINE
  5
6BC
330
1F
100
AcDbEntity
  8
1
  6
CONTINUOUS
370
50
 62
4
100
AcDbLine
 10
47.100929
 20
0.132784
 30
0.0
 11
47.104637
 21
0.138138
 31
0.0
  0
LINE
  5
6BD
330
1F
100
AcDbEntity
  8
1
  6
CONTINUOUS
370
50
 62
4
100
AcDbLine
 10
49.625004
 20
0.492613
 30
0.0
 11
49.629986
 21
0.499831
 31
0.0
  0
LINE
  5
6BE
330
1F
100
AcDbEntity
  8
1
  6
CONTINUOUS
370
50
 62
4
100
AcDbLine
 10
47.64472199999999
 20
0.561793
 30
0.0
 11
47.666973
 21
0.594339
 31
0.0
  0
LINE
  5
6BF
330
1F
100
AcDbEntity
  8
1
  6
CONTINUOUS
370
50
 62
4
100
AcDbLine
 10
48.379051
 20
-0.381252
 30
0.0
 11
48.389606
 21
-0.365636
 31
0.0
  0
LINE
  5
6C0
330
1F
100
AcDbEntity
  8
1
  6
CONTINUOUS
370
50
 62
4
100
AcDbLine
 10
49.979481
 20
-0.865574
 30
0.0
 11
49.98225799999999
 21
-0.8614149999999999
 31
0.0
  0
LINE
  5
6C1
330
1F
100
AcDbEntity
  8
1
  6
CONTINUOUS
370
50
 62
4
100
AcDbLine
 10
48.389606
 20
-0.365636
 30
0.0
 11
48.400002
 21
-0.349791
 31
0.0
  0
LINE
  5
6C2
330
1F
100
AcDbEntity
  8
1
  6
CONTINUOUS
370
50
 62
4
100
AcDbLine
 10
47.666973
 20
0.594339
 30
0.0
 11
47.686989
 21
0.626458
 31
0.0
  0
LINE
  5
6C3
330
1F
100
AcDbEntity
  8
1
  6
CONTINUOUS
370
50
 62
4
100
AcDbLine
 10
49.96744899999999
 20
-0.909203
 30
0.0
 11
49.973251
 21
-0.89981
 31
0.0
  0
LINE
  5
6C4
330
1F
100
AcDbEntity
  8
1
  6
CONTINUOUS
370
50
 62
4
100
AcDbLine
 10
47.549126
 20
-0.927898
 30
0.0
 11
47.55246
 21
-0.922381
 31
0.0
  0
LINE
  5
6C5
330
1F
100
AcDbEntity
  8
1
  6
CONTINUOUS
370
50
 62
4
100
AcDbLine
 10
47.09758
 20
0.127203
 30
0.0
 11
47.100929
 21
0.132784
 31
0.0
  0
LINE
  5
6C6
330
1F
100
AcDbEntity
  8
1
  6
CONTINUOUS
370
50
 62
4
100
AcDbLine
 10
49.98225799999999
 20
-0.8614149999999999
 30
0.0
 11
49.985012
 21
-0.856695
 31
0.0
  0
LINE
  5
6C7
330
1F
100
AcDbEntity
  8
1
  6
CONTINUOUS
370
50
 62
4
100
AcDbLine
 10
47.686989
 20
0.626458
 30
0.0
 11
47.70471999999999
 21
0.658026
 31
0.0
  0
LINE
  5
6C8
330
1F
100
AcDbEntity
  8
1
  6
CONTINUOUS
370
50
 62
4
100
AcDbLine
 10
49.973251
 20
-0.89981
 30
0.0
 11
49.978554
 21
-0.8900349999999999
 31
0.0
  0
LINE
  5
6C9
330
1F
100
AcDbEntity
  8
1
  6
CONTINUOUS
370
50
 62
4
100
AcDbLine
 10
47.094604
 20
0.121442
 30
0.0
 11
47.09758
 21
0.127203
 31
0.0
  0
LINE
  5
6CA
330
1F
100
AcDbEntity
  8
1
  6
CONTINUOUS
370
50
 62
4
100
AcDbLine
 10
49.985012
 20
-0.856695
 30
0.0
 11
49.987652
 21
-0.8515159999999999
 31
0.0
  0
LINE
  5
6CB
330
1F
100
AcDbEntity
  8
1
  6
CONTINUOUS
370
50
 62
4
100
AcDbLine
 10
47.70471999999999
 20
0.658026
 30
0.0
 11
47.720123
 21
0.688921
 31
0.0
  0
LINE
  5
6CC
330
1F
100
AcDbEntity
  8
1
  6
CONTINUOUS
370
50
 62
4
100
AcDbLine
 10
49.629986
 20
0.499831
 30
0.0
 11
49.63409799999999
 21
0.508185
 31
0.0
  0
LINE
  5
6CD
330
1F
100
AcDbEntity
  8
1
  6
CONTINUOUS
370
50
 62
4
100
AcDbLine
 10
49.978554
 20
-0.8900349999999999
 30
0.0
 11
49.98333
 21
-0.879894
 31
0.0
  0
LINE
  5
6CE
330
1F
100
AcDbEntity
  8
1
  6
CONTINUOUS
370
50
 62
4
100
AcDbLine
 10
47.091999
 20
0.115513
 30
0.0
 11
47.094604
 21
0.121442
 31
0.0
  0
LINE
  5
6CF
330
1F
100
AcDbEntity
  8
1
  6
CONTINUOUS
370
50
 62
4
100
AcDbLine
 10
49.987652
 20
-0.8515159999999999
 30
0.0
 11
49.990067
 21
-0.845982
 31
0.0
  0
LINE
  5
6D0
330
1F
100
AcDbEntity
  8
1
  6
CONTINUOUS
370
50
 62
4
100
AcDbLine
 10
47.720123
 20
0.688921
 30
0.0
 11
47.733158
 21
0.719017
 31
0.0
  0
LINE
  5
6D1
330
1F
100
AcDbEntity
  8
1
  6
CONTINUOUS
370
50
 62
4
100
AcDbLine
 10
49.57468799999999
 20
0.4692
 30
0.0
 11
49.577644
 21
0.476232
 31
0.0
  0
LINE
  5
6D2
330
1F
100
AcDbEntity
  8
1
  6
CONTINUOUS
370
50
 62
4
100
AcDbLine
 10
49.93309
 20
0.399379
 30
0.0
 11
49.93953699999999
 21
0.415294
 31
0.0
  0
LINE
  5
6D3
330
1F
100
AcDbEntity
  8
1
  6
CONTINUOUS
370
50
 62
4
100
AcDbLine
 10
49.98333
 20
-0.879894
 30
0.0
 11
49.98755999999999
 21
-0.869413
 31
0.0
  0
LINE
  5
6D4
330
1F
100
AcDbEntity
  8
1
  6
CONTINUOUS
370
50
 62
4
100
AcDbLine
 10
47.547203
 20
-0.933012
 30
0.0
 11
47.549126
 21
-0.927898
 31
0.0
  0
LINE
  5
6D5
330
1F
100
AcDbEntity
  8
1
  6
CONTINUOUS
370
50
 62
4
100
AcDbLine
 10
47.089756
 20
0.109433
 30
0.0
 11
47.091999
 21
0.115513
 31
0.0
  0
LINE
  5
6D6
330
1F
100
AcDbEntity
  8
1
  6
CONTINUOUS
370
50
 62
4
100
AcDbLine
 10
49.926891
 20
0.382492
 30
0.0
 11
49.93309
 21
0.399379
 31
0.0
  0
LINE
  5
6D7
330
1F
100
AcDbEntity
  8
1
  6
CONTINUOUS
370
50
 62
4
100
AcDbLine
 10
47.733158
 20
0.719017
 30
0.0
 11
47.74377399999999
 21
0.748184
 31
0.0
  0
LINE
  5
6D8
330
1F
100
AcDbEntity
  8
1
  6
CONTINUOUS
370
50
 62
4
100
AcDbLine
 10
49.990067
 20
-0.845982
 30
0.0
 11
49.992302
 21
-0.8398
 31
0.0
  0
LINE
  5
6D9
330
1F
100
AcDbEntity
  8
1
  6
CONTINUOUS
370
50
 62
4
100
AcDbLine
 10
49.63409799999999
 20
0.508185
 30
0.0
 11
49.637367
 21
0.517618
 31
0.0
  0
LINE
  5
6DA
330
1F
100
AcDbEntity
  8
1
  6
CONTINUOUS
370
50
 62
4
100
AcDbLine
 10
49.57214399999999
 20
0.461704
 30
0.0
 11
49.57468799999999
 21
0.4692
 31
0.0
  0
LINE
  5
6DB
330
1F
100
AcDbEntity
  8
1
  6
CONTINUOUS
370
50
 62
4
100
AcDbLine
 10
49.98755999999999
 20
-0.869413
 30
0.0
 11
49.99119899999999
 21
-0.8586699999999999
 31
0.0
  0
LINE
  5
6DC
330
1F
100
AcDbEntity
  8
1
  6
CONTINUOUS
370
50
 62
4
100
AcDbLine
 10
49.920956
 20
0.364656
 30
0.0
 11
49.926891
 21
0.382492
 31
0.0
  0
LINE
  5
6DD
330
1F
100
AcDbEntity
  8
1
  6
CONTINUOUS
370
50
 62
4
100
AcDbLine
 10
47.087864
 20
0.103215
 30
0.0
 11
47.089756
 21
0.109433
 31
0.0
  0
LINE
  5
6DE
330
1F
100
AcDbEntity
  8
1
  6
CONTINUOUS
370
50
 62
4
100
AcDbLine
 10
49.915298
 20
0.345899
 30
0.0
 11
49.920956
 21
0.364656
 31
0.0
  0
LINE
  5
6DF
330
1F
100
AcDbEntity
  8
1
  6
CONTINUOUS
370
50
 62
4
100
AcDbLine
 10
49.992302
 20
-0.8398
 30
0.0
 11
49.994434
 21
-0.83266
 31
0.0
  0
LINE
  5
6E0
330
1F
100
AcDbEntity
  8
1
  6
CONTINUOUS
370
50
 62
4
100
AcDbLine
 10
47.74377399999999
 20
0.748184
 30
0.0
 11
47.751865
 21
0.7759539999999999
 31
0.0
  0
LINE
  5
6E1
330
1F
100
AcDbEntity
  8
1
  6
CONTINUOUS
370
50
 62
4
100
AcDbLine
 10
49.99119899999999
 20
-0.8586699999999999
 30
0.0
 11
49.994228
 21
-0.847704
 31
0.0
  0
LINE
  5
6E2
330
1F
100
AcDbEntity
  8
1
  6
CONTINUOUS
370
50
 62
4
100
AcDbLine
 10
49.909931
 20
0.326246
 30
0.0
 11
49.915298
 21
0.345899
 31
0.0
  0
LINE
  5
6E3
330
1F
100
AcDbEntity
  8
1
  6
CONTINUOUS
370
50
 62
4
100
AcDbLine
 10
49.570011
 20
0.453747
 30
0.0
 11
49.57214399999999
 21
0.461704
 31
0.0
  0
LINE
  5
6E4
330
1F
100
AcDbEntity
  8
1
  6
CONTINUOUS
370
50
 62
4
100
AcDbLine
 10
49.904865
 20
0.30573
 30
0.0
 11
49.909931
 21
0.326246
 31
0.0
  0
LINE
  5
6E5
330
1F
100
AcDbEntity
  8
1
  6
CONTINUOUS
370
50
 62
4
100
AcDbLine
 10
49.994434
 20
-0.83266
 30
0.0
 11
49.996342
 21
-0.82482
 31
0.0
  0
LINE
  5
6E6
330
1F
100
AcDbEntity
  8
1
  6
CONTINUOUS
370
50
 62
4
100
AcDbLine
 10
47.086323
 20
0.096875
 30
0.0
 11
47.087864
 21
0.103215
 31
0.0
  0
LINE
  5
6E7
330
1F
100
AcDbEntity
  8
1
  6
CONTINUOUS
370
50
 62
4
100
AcDbLine
 10
49.637367
 20
0.517618
 30
0.0
 11
49.639801
 21
0.528068
 31
0.0
  0
LINE
  5
6E8
330
1F
100
AcDbEntity
  8
1
  6
CONTINUOUS
370
50
 62
4
100
AcDbLine
 10
49.90013099999999
 20
0.284444
 30
0.0
 11
49.904865
 21
0.30573
 31
0.0
  0
LINE
  5
6E9
330
1F
100
AcDbEntity
  8
1
  6
CONTINUOUS
370
50
 62
4
100
AcDbLine
 10
49.994228
 20
-0.847704
 30
0.0
 11
49.996635
 21
-0.83654
 31
0.0
  0
LINE
  5
6EA
330
1F
100
AcDbEntity
  8
1
  6
CONTINUOUS
370
50
 62
4
100
AcDbLine
 10
47.751865
 20
0.7759539999999999
 30
0.0
 11
47.757465
 21
0.802048
 31
0.0
  0
LINE
  5
6EB
330
1F
100
AcDbEntity
  8
1
  6
CONTINUOUS
370
50
 62
4
100
AcDbLine
 10
49.568298
 20
0.445334
 30
0.0
 11
49.570011
 21
0.453747
 31
0.0
  0
LINE
  5
6EC
330
1F
100
AcDbEntity
  8
1
  6
CONTINUOUS
370
50
 62
4
100
AcDbLine
 10
49.895741
 20
0.26244
 30
0.0
 11
49.90013099999999
 21
0.284444
 31
0.0
  0
LINE
  5
6ED
330
1F
100
AcDbEntity
  8
1
  6
CONTINUOUS
370
50
 62
4
100
AcDbLine
 10
49.87604899999999
 20
0.148304
 30
0.0
 11
49.884727
 21
0.192496
 31
0.0
  0
LINE
  5
6EE
330
1F
100
AcDbEntity
  8
1
  6
CONTINUOUS
370
50
 62
4
100
AcDbLine
 10
49.996342
 20
-0.82482
 30
0.0
 11
49.997894
 21
-0.816541
 31
0.0
  0
LINE
  5
6EF
330
1F
100
AcDbEntity
  8
1
  6
CONTINUOUS
370
50
 62
4
100
AcDbLine
 10
47.085121
 20
0.090416
 30
0.0
 11
47.086323
 21
0.096875
 31
0.0
  0
LINE
  5
6F0
330
1F
100
AcDbEntity
  8
1
  6
CONTINUOUS
370
50
 62
4
100
AcDbLine
 10
49.89170499999999
 20
0.239755
 30
0.0
 11
49.895741
 21
0.26244
 31
0.0
  0
LINE
  5
6F1
330
1F
100
AcDbEntity
  8
1
  6
CONTINUOUS
370
50
 62
4
100
AcDbLine
 10
49.86821
 20
0.102639
 30
0.0
 11
49.87604899999999
 21
0.148304
 31
0.0
  0
LINE
  5
6F2
330
1F
100
AcDbEntity
  8
1
  6
CONTINUOUS
370
50
 62
4
100
AcDbLine
 10
49.888031
 20
0.216428
 30
0.0
 11
49.89170499999999
 21
0.239755
 31
0.0
  0
LINE
  5
6F3
330
1F
100
AcDbEntity
  8
1
  6
CONTINUOUS
370
50
 62
4
100
AcDbLine
 10
49.996635
 20
-0.83654
 30
0.0
 11
49.998405
 21
-0.825202
 31
0.0
  0
LINE
  5
6F4
330
1F
100
AcDbEntity
  8
1
  6
CONTINUOUS
370
50
 62
4
100
AcDbLine
 10
49.861244
 20
0.055606
 30
0.0
 11
49.86821
 21
0.102639
 31
0.0
  0
LINE
  5
6F5
330
1F
100
AcDbEntity
  8
1
  6
CONTINUOUS
370
50
 62
4
100
AcDbLine
 10
49.567009
 20
0.43647
 30
0.0
 11
49.568298
 21
0.445334
 31
0.0
  0
LINE
  5
6F6
330
1F
100
AcDbEntity
  8
1
  6
CONTINUOUS
370
50
 62
4
100
AcDbLine
 10
49.639801
 20
0.528068
 30
0.0
 11
49.64141799999999
 21
0.539416
 31
0.0
  0
LINE
  5
6F7
330
1F
100
AcDbEntity
  8
1
  6
CONTINUOUS
370
50
 62
4
100
AcDbLine
 10
49.884727
 20
0.192496
 30
0.0
 11
49.888031
 21
0.216428
 31
0.0
  0
LINE
  5
6F8
330
1F
100
AcDbEntity
  8
1
  6
CONTINUOUS
370
50
 62
4
100
AcDbLine
 10
47.757465
 20
0.802048
 30
0.0
 11
47.760689
 21
0.826395
 31
0.0
  0
LINE
  5
6F9
330
1F
100
AcDbEntity
  8
1
  6
CONTINUOUS
370
50
 62
4
100
AcDbLine
 10
47.084248
 20
0.083784
 30
0.0
 11
47.085121
 21
0.090416
 31
0.0
  0
LINE
  5
6FA
330
1F
100
AcDbEntity
  8
1
  6
CONTINUOUS
370
50
 62
4
100
AcDbLine
 10
49.997894
 20
-0.816541
 30
0.0
 11
49.999027
 21
-0.807708
 31
0.0
  0
LINE
  5
6FB
330
1F
100
AcDbEntity
  8
1
  6
CONTINUOUS
370
50
 62
4
100
AcDbLine
 10
49.855183
 20
0.007308
 30
0.0
 11
49.861244
 21
0.055606
 31
0.0
  0
LINE
  5
6FC
330
1F
100
AcDbEntity
  8
1
  6
CONTINUOUS
370
50
 62
4
100
AcDbLine
 10
49.998405
 20
-0.825202
 30
0.0
 11
49.998829
 21
-0.821614
 31
0.0
  0
LINE
  5
6FD
330
1F
100
AcDbEntity
  8
1
  6
CONTINUOUS
370
50
 62
4
100
AcDbLine
 10
49.85006
 20
-0.042152
 30
0.0
 11
49.855183
 21
0.007308
 31
0.0
  0
LINE
  5
6FE
330
1F
100
AcDbEntity
  8
1
  6
CONTINUOUS
370
50
 62
4
100
AcDbLine
 10
49.998829
 20
-0.821614
 30
0.0
 11
49.999187
 21
-0.818021
 31
0.0
  0
LINE
  5
6FF
330
1F
100
AcDbEntity
  8
1
  6
CONTINUOUS
370
50
 62
4
100
AcDbLine
 10
49.566139
 20
0.427159
 30
0.0
 11
49.567009
 21
0.43647
 31
0.0
  0
LINE
  5
700
330
1F
100
AcDbEntity
  8
1
  6
CONTINUOUS
370
50
 62
4
100
AcDbLine
 10
47.546799
 20
-0.93768
 30
0.0
 11
47.547203
 21
-0.933012
 31
0.0
  0
LINE
  5
701
330
1F
100
AcDbEntity
  8
1
  6
CONTINUOUS
370
50
 62
4
100
AcDbLine
 10
49.845909
 20
-0.092669
 30
0.0
 11
49.85006
 21
-0.042152
 31
0.0
  0
LINE
  5
702
330
1F
100
AcDbEntity
  8
1
  6
CONTINUOUS
370
50
 62
4
100
AcDbLine
 10
49.999187
 20
-0.818021
 30
0.0
 11
49.999481
 21
-0.814422
 31
0.0
  0
LINE
  5
703
330
1F
100
AcDbEntity
  8
1
  6
CONTINUOUS
370
50
 62
4
100
AcDbLine
 10
47.083702
 20
0.07697
 30
0.0
 11
47.084248
 21
0.083784
 31
0.0
  0
LINE
  5
704
330
1F
100
AcDbEntity
  8
1
  6
CONTINUOUS
370
50
 62
4
100
AcDbLine
 10
49.999027
 20
-0.807708
 30
0.0
 11
49.99976299999999
 21
-0.7980579999999999
 31
0.0
  0
LINE
  5
705
330
1F
100
AcDbEntity
  8
1
  6
CONTINUOUS
370
50
 62
4
100
AcDbLine
 10
49.64141799999999
 20
0.539416
 30
0.0
 11
49.64225
 21
0.551578
 31
0.0
  0
LINE
  5
706
330
1F
100
AcDbEntity
  8
1
  6
CONTINUOUS
370
50
 62
4
100
AcDbLine
 10
49.999481
 20
-0.814422
 30
0.0
 11
49.999706
 21
-0.81082
 31
0.0
  0
LINE
  5
707
330
1F
100
AcDbEntity
  8
1
  6
CONTINUOUS
370
50
 62
4
100
AcDbLine
 10
49.842777
 20
-0.143988
 30
0.0
 11
49.845909
 21
-0.092669
 31
0.0
  0
LINE
  5
708
330
1F
100
AcDbEntity
  8
1
  6
CONTINUOUS
370
50
 62
4
100
AcDbLine
 10
49.999706
 20
-0.81082
 30
0.0
 11
49.99986999999999
 21
-0.807215
 31
0.0
  0
LINE
  5
709
330
1F
100
AcDbEntity
  8
1
  6
CONTINUOUS
370
50
 62
4
100
AcDbLine
 10
49.565701
 20
0.417405
 30
0.0
 11
49.566139
 21
0.427159
 31
0.0
  0
LINE
  5
70A
330
1F
100
AcDbEntity
  8
1
  6
CONTINUOUS
370
50
 62
4
100
AcDbLine
 10
47.760689
 20
0.826395
 30
0.0
 11
47.761654
 21
0.848923
 31
0.0
  0
LINE
  5
70B
330
1F
100
AcDbEntity
  8
1
  6
CONTINUOUS
370
50
 62
4
100
AcDbLine
 10
49.840694
 20
-0.195676
 30
0.0
 11
49.842777
 21
-0.143988
 31
0.0
  0
LINE
  5
70C
330
1F
100
AcDbEntity
  8
1
  6
CONTINUOUS
370
50
 62
4
100
AcDbLine
 10
47.083496
 20
0.06998
 30
0.0
 11
47.083702
 21
0.07697
 31
0.0
  0
LINE
  5
70D
330
1F
100
AcDbEntity
  8
1
  6
CONTINUOUS
370
50
 62
4
100
AcDbLine
 10
49.99986999999999
 20
-0.807215
 30
0.0
 11
49.999966
 21
-0.803608
 31
0.0
  0
LINE
  5
70E
330
1F
100
AcDbEntity
  8
1
  6
CONTINUOUS
370
50
 62
4
100
AcDbLine
 10
49.99976299999999
 20
-0.7980579999999999
 30
0.0
 11
50.0
 21
-0.7883319999999999
 31
0.0
  0
LINE
  5
70F
330
1F
100
AcDbEntity
  8
1
  6
CONTINUOUS
370
50
 62
4
100
AcDbLine
 10
49.839672
 20
-0.247582
 30
0.0
 11
49.840694
 21
-0.195676
 31
0.0
  0
LINE
  5
710
330
1F
100
AcDbEntity
  8
1
  6
CONTINUOUS
370
50
 62
4
100
AcDbLine
 10
49.999966
 20
-0.803608
 30
0.0
 11
50.0
 21
-0.799999
 31
0.0
  0
LINE
  5
711
330
1F
100
AcDbEntity
  8
1
  6
CONTINUOUS
370
50
 62
4
100
AcDbLine
 10
49.64225
 20
0.551578
 30
0.0
 11
49.642334
 21
0.564489
 31
0.0
  0
LINE
  5
712
330
1F
100
AcDbEntity
  8
1
  6
CONTINUOUS
370
50
 62
4
100
AcDbLine
 10
35.700001
 20
-1.99995
 30
0.0
 11
35.700001
 21
1.99995
 31
0.0
  0
LINE
  5
713
330
1F
100
AcDbEntity
  8
1
  6
CONTINUOUS
370
50
 62
4
100
AcDbLine
 10
40.0
 20
-0.95995
 30
0.0
 11
40.0
 21
0.95995
 31
0.0
  0
LINE
  5
714
330
1F
100
AcDbEntity
  8
1
  6
CONTINUOUS
370
50
 62
4
100
AcDbLine
 10
48.400002
 20
-0.60491
 30
0.0
 11
48.400002
 21
0.121063
 31
0.0
  0
LINE
  5
715
330
1F
100
AcDbEntity
  8
1
  6
CONTINUOUS
370
50
 62
4
100
AcDbLine
 10
48.400002
 20
0.526895
 30
0.0
 11
48.400002
 21
0.578681
 31
0.0
  0
LINE
  5
716
330
1F
100
AcDbEntity
  8
1
  6
CONTINUOUS
370
50
 62
4
100
AcDbLine
 10
48.400002
 20
0.121094
 30
0.0
 11
48.400002
 21
0.520525
 31
0.0
  0
LINE
  5
717
330
1F
100
AcDbEntity
  8
1
  6
CONTINUOUS
370
50
 62
4
100
AcDbLine
 10
48.400002
 20
0.526895
 30
0.0
 11
48.400002
 21
0.539897
 31
0.0
  0
LINE
  5
718
330
1F
100
AcDbEntity
  8
1
  6
CONTINUOUS
370
50
 62
4
100
AcDbLine
 10
48.400002
 20
0.539897
 30
0.0
 11
48.400002
 21
0.5529
 31
0.0
  0
LINE
  5
719
330
1F
100
AcDbEntity
  8
1
  6
CONTINUOUS
370
50
 62
4
100
AcDbLine
 10
48.400002
 20
0.5529
 30
0.0
 11
48.400002
 21
0.565902
 31
0.0
  0
LINE
  5
71A
330
1F
100
AcDbEntity
  8
1
  6
CONTINUOUS
370
50
 62
4
100
AcDbLine
 10
48.400002
 20
0.565902
 30
0.0
 11
48.400002
 21
0.578905
 31
0.0
  0
LINE
  5
71B
330
1F
100
AcDbEntity
  8
1
  6
CONTINUOUS
370
50
 62
4
100
AcDbLine
 10
48.400002
 20
0.578905
 30
0.0
 11
48.400002
 21
0.591908
 31
0.0
  0
LINE
  5
71C
330
1F
100
AcDbEntity
  8
1
  6
CONTINUOUS
370
50
 62
4
100
AcDbLine
 10
48.400002
 20
0.591908
 30
0.0
 11
48.400002
 21
0.60491
 31
0.0
  0
LINE
  5
71D
330
1F
100
AcDbEntity
  8
1
  6
CONTINUOUS
370
50
 62
4
100
AcDbLine
 10
48.400002
 20
0.520525
 30
0.0
 11
48.400002
 21
0.522465
 31
0.0
  0
LINE
  5
71E
330
1F
100
AcDbEntity
  8
1
  6
CONTINUOUS
370
50
 62
4
100
AcDbLine
 10
48.400002
 20
0.522465
 30
0.0
 11
48.400002
 21
0.524056
 31
0.0
  0
LINE
  5
71F
330
1F
100
AcDbEntity
  8
1
  6
CONTINUOUS
370
50
 62
4
100
AcDbLine
 10
48.400002
 20
0.524056
 30
0.0
 11
48.400002
 21
0.525296
 31
0.0
  0
LINE
  5
720
330
1F
100
AcDbEntity
  8
1
  6
CONTINUOUS
370
50
 62
4
100
AcDbLine
 10
48.400002
 20
0.525296
 30
0.0
 11
48.400002
 21
0.526183
 31
0.0
  0
LINE
  5
721
330
1F
100
AcDbEntity
  8
1
  6
CONTINUOUS
370
50
 62
4
100
AcDbLine
 10
48.400002
 20
0.526183
 30
0.0
 11
48.400002
 21
0.526716
 31
0.0
  0
LINE
  5
722
330
1F
100
AcDbEntity
  8
1
  6
CONTINUOUS
370
50
 62
4
100
AcDbLine
 10
48.400002
 20
0.526716
 30
0.0
 11
48.400002
 21
0.526894
 31
0.0
  0
LINE
  5
723
330
1F
100
AcDbEntity
  8
1
  6
CONTINUOUS
370
50
 62
4
100
AcDbLine
 10
49.799999
 20
-0.9935719999999999
 30
0.0
 11
49.799999
 21
-0.951797
 31
0.0
  0
LINE
  5
724
330
1F
100
AcDbEntity
  8
1
  6
CONTINUOUS
370
50
 62
4
100
AcDbLine
 10
50.0
 20
0.175258
 30
0.0
 11
50.0
 21
0.799999
 31
0.0
  0
LINE
  5
725
330
1F
100
AcDbEntity
  8
1
  6
CONTINUOUS
370
50
 62
4
100
AcDbLine
 10
50.0
 20
-0.7883319999999999
 30
0.0
 11
50.0
 21
0.175257
 31
0.0
  0
LINE
  5
726
330
1F
100
AcDbEntity
  8
1
  6
CONTINUOUS
370
50
 62
4
100
AcDbLine
 10
50.0
 20
-0.791453
 30
0.0
 11
50.0
 21
-0.7883319999999999
 31
0.0
  0
LINE
  5
727
330
1F
100
AcDbEntity
  8
1
  6
CONTINUOUS
370
50
 62
4
100
AcDbLine
 10
50.0
 20
-0.794117
 30
0.0
 11
50.0
 21
-0.791453
 31
0.0
  0
LINE
  5
728
330
1F
100
AcDbEntity
  8
1
  6
CONTINUOUS
370
50
 62
4
100
AcDbLine
 10
50.0
 20
-0.7965829999999999
 30
0.0
 11
50.0
 21
-0.794117
 31
0.0
  0
LINE
  5
729
330
1F
100
AcDbEntity
  8
1
  6
CONTINUOUS
370
50
 62
4
100
AcDbLine
 10
50.0
 20
-0.7985669999999999
 30
0.0
 11
50.0
 21
-0.7965829999999999
 31
0.0
  0
LINE
  5
72A
330
1F
100
AcDbEntity
  8
1
  6
CONTINUOUS
370
50
 62
4
100
AcDbLine
 10
50.0
 20
-0.799662
 30
0.0
 11
50.0
 21
-0.7985669999999999
 31
0.0
  0
LINE
  5
72B
330
1F
100
AcDbEntity
  8
1
  6
CONTINUOUS
370
50
 62
4
100
AcDbLine
 10
50.0
 20
-0.7999999999999999
 30
0.0
 11
50.0
 21
-0.799662
 31
0.0
  0
ELLIPSE
  5
72C
330
1F
100
AcDbEntity
  8
1
  6
CONTINUOUS
370
50
 62
4
100
AcDbEllipse
 10
47.956779
 20
0.136255
 30
0.0
 11
-0.9810918406141979
 21
0.4621663383461069
 31
0.0
210
0.0
220
0.0
230
1.0
 40
0.6169736273669266
 41
0.904100411733134
 42
1.757962209531485
  0
ELLIPSE
  5
72D
330
1F
100
AcDbEntity
  8
1
  6
CONTINUOUS
370
50
 62
4
100
AcDbEllipse
 10
48.018958
 20
0.26825
 30
0.0
 11
-0.934213833734674
 21
0.4400833529500564
 31
0.0
210
0.0
220
0.0
230
1.0
 40
0.6169734397465328
 41
0.7793096722430425
 42
2.172295260287147
  0
ELLIPSE
  5
72E
330
1F
100
AcDbEntity
  8
1
  6
CONTINUOUS
370
50
 62
4
100
AcDbEllipse
 10
48.458662
 20
-1.201658
 30
0.0
 11
0.9844960202312335
 21
0.4637699570529151
 31
0.0
210
0.0
220
0.0
230
0.9999999999999999
 40
0.6169736257841055
 41
1.746349684685336
 42
2.167681000393884
  0
LINE
  5
72F
330
1F
100
AcDbEntity
  8
CUT
  6
CONTINUOUS
370
25
 62
1
100
AcDbLine
 10
48.40000000000001
 20
0.0
 30
0.0
 11
50.00000000000001
 21
0.0
 31
0.0
  0
LINE
  5
730
330
1F
100
AcDbEntity
  8
CUT
  6
CONTINUOUS
370
25
 62
1
100
AcDbLine
 10
50.00000000000001
 20
0.0
 30
0.0
 11
50.00000000000001
 21
0.8
 31
0.0
  0
ARC
  5
731
330
1F
100
AcDbEntity
  8
CUT
  6
CONTINUOUS
370
25
 62
1
100
AcDbCircle
 10
49.8
 20
0.8
 30
0.0
 40
0.2000000000000028
100
AcDbArc
 50
0.0
 51
90.0
  0
LINE
  5
732
330
1F
100
AcDbEntity
  8
CUT
  6
CONTINUOUS
370
25
 62
1
100
AcDbLine
 10
49.8
 20
1.0
 30
0.0
 11
48.40000000000001
 21
0.9999
 31
0.0
  0
LINE
  5
733
330
1F
100
AcDbEntity
  8
CUT
  6
CONTINUOUS
370
25
 62
1
100
AcDbLine
 10
48.40000000000001
 20
0.9999
 30
0.0
 11
48.40000000000001
 21
0.0
 31
0.0
  0
LINE
  5
734
330
1F
100
AcDbEntity
  8
NOCUT
  6
CONTINUOUS
370
25
 62
7
100
AcDbLine
 10
35.7
 20
0.0
 30
0.0
 11
48.40000000000001
 21
0.0
 31
0.0
  0
LINE
  5
735
330
1F
100
AcDbEntity
  8
NOCUT
  6
CONTINUOUS
370
25
 62
7
100
AcDbLine
 10
48.40000000000001
 20
0.0
 30
0.0
 11
48.40000000000001
 21
0.95995
 31
0.0
  0
LINE
  5
736
330
1F
100
AcDbEntity
  8
NOCUT
  6
CONTINUOUS
370
25
 62
7
100
AcDbLine
 10
48.40000000000001
 20
0.95995
 30
0.0
 11
40.0
 21
0.95995
 31
0.0
  0
LINE
  5
737
330
1F
100
AcDbEntity
  8
NOCUT
  6
CONTINUOUS
370
25
 62
7
100
AcDbLine
 10
40.0
 20
0.95995
 30
0.0
 11
35.7
 21
1.99995
 31
0.0
  0
LINE
  5
738
330
1F
100
AcDbEntity
  8
NOCUT
  6
CONTINUOUS
370
25
 62
7
100
AcDbLine
 10
35.7
 20
1.99995
 30
0.0
 11
35.7
 21
0.0
 31
0.0
  0
LINE
  5
739
330
1F
100
AcDbEntity
  8
SK1
  6
CONTINUOUS
370
50
 62
4
100
AcDbLine
 10
35.7
 20
2.0
 30
0.0
 11
0.2999999999999972
 21
2.0
 31
0.0
  0
LINE
  5
73A
330
1F
100
AcDbEntity
  8
SK1
  6
CONTINUOUS
370
50
 62
4
100
AcDbLine
 10
0.2999999999999972
 20
2.0
 30
0.0
 11
0.0
 21
1.7
 31
0.0
  0
LINE
  5
73B
330
1F
100
AcDbEntity
  8
SK1
  6
CONTINUOUS
370
50
 62
4
100
AcDbLine
 10
0.0
 20
1.7
 30
0.0
 11
0.0
 21
-1.7
 31
0.0
  0
LINE
  5
73C
330
1F
100
AcDbEntity
  8
SK1
  6
CONTINUOUS
370
50
 62
4
100
AcDbLine
 10
0.0
 20
-1.7
 30
0.0
 11
0.2999999999999972
 21
-2.0
 31
0.0
  0
LINE
  5
73D
330
1F
100
AcDbEntity
  8
SK1
  6
CONTINUOUS
370
50
 62
4
100
AcDbLine
 10
0.2999999999999972
 20
-2.0
 30
0.0
 11
35.7
 21
-2.0
 31
0.0
  0
LINE
  5
73E
330
1F
100
AcDbEntity
  8
SK1
  6
CONTINUOUS
370
50
 62
4
100
AcDbLine
 10
0.2999999999999972
 20
2.0
 30
0.0
 11
0.2999999999999972
 21
-2.0
 31
0.0
  0
LINE
  5
73F
330
1F
100
AcDbEntity
  8
SK2
  6
CONTINUOUS
370
25
 62
7
100
AcDbLine
 10
-12.0000002
 20
-2.000001
 30
0.0
 11
-13.00000000000008
 21
-2.000001
 31
0.0
  0
LINE
  5
740
330
1F
100
AcDbEntity
  8
SK2
  6
CONTINUOUS
370
25
 62
7
100
AcDbLine
 10
0.0
 20
-2.000001
 30
0.0
 11
-11.9999998
 21
-2.000001
 31
0.0
  0
LINE
  5
741
330
1F
100
AcDbEntity
  8
SK2
  6
CONTINUOUS
370
25
 62
7
100
AcDbLine
 10
-13.0
 20
2.0
 30
0.0
 11
0.0
 21
2.0
 31
0.0
  0
LINE
  5
742
330
1F
100
AcDbEntity
  8
SK2
  6
CONTINUOUS
370
25
 62
7
100
AcDbLine
 10
-12.0
 20
-9.0
 30
0.0
 11
-12.0
 21
15.475
 31
0.0
  0
LINE
  5
743
330
1F
100
AcDbEntity
  8
SK2
  6
CONTINUOUS
370
25
 62
7
100
AcDbLine
 10
-12.0
 20
-2.0
 30
0.0
 11
-11.0
 21
-7.0
 31
0.0
  0
LINE
  5
744
330
1F
100
AcDbEntity
  8
SK2
  6
CONTINUOUS
370
25
 62
7
100
AcDbLine
 10
-11.0
 20
-7.0
 30
0.0
 11
-13.0
 21
-7.0
 31
0.0
  0
LINE
  5
745
330
1F
100
AcDbEntity
  8
SK2
  6
CONTINUOUS
370
25
 62
7
100
AcDbLine
 10
-13.0
 20
-7.0
 30
0.0
 11
-12.0
 21
-2.0
 31
0.0
  0
LINE
  5
746
330
1F
100
AcDbEntity
  8
SK2
  6
CONTINUOUS
370
25
 62
7
100
AcDbLine
 10
-11.18082245892124
 20
-7.0
 30
0.0
 11
-11.03013707648687
 21
-6.849314617565632
 31
0.0
  0
LINE
  5
747
330
1F
100
AcDbEntity
  8
SK2
  6
CONTINUOUS
370
25
 62
7
100
AcDbLine
 10
-11.60508652763318
 20
-7.0
 30
0.0
 11
-11.10084775460553
 21
-6.495761226972355
 31
0.0
  0
LINE
  5
748
330
1F
100
AcDbEntity
  8
SK2
  6
CONTINUOUS
370
25
 62
7
100
AcDbLine
 10
-12.0293505963451
 20
-7.0
 30
0.0
 11
-11.17155843272418
 21
-6.142207836379079
 31
0.0
  0
LINE
  5
749
330
1F
100
AcDbEntity
  8
SK2
  6
CONTINUOUS
370
25
 62
7
100
AcDbLine
 10
-12.45361466505704
 20
-7.0
 30
0.0
 11
-11.24226911084283
 21
-5.788654445785795
 31
0.0
  0
LINE
  5
74A
330
1F
100
AcDbEntity
  8
SK2
  6
CONTINUOUS
370
25
 62
7
100
AcDbLine
 10
-12.87787873376897
 20
-7.0
 30
0.0
 11
-11.3129797889615
 21
-5.435101055192533
 31
0.0
  0
LINE
  5
74B
330
1F
100
AcDbEntity
  8
SK2
  6
CONTINUOUS
370
25
 62
7
100
AcDbLine
 10
-12.92446429937978
 20
-6.622321496898877
 30
0.0
 11
-11.38369046708014
 21
-5.081547664599235
 31
0.0
  0
LINE
  5
74C
330
1F
100
AcDbEntity
  8
SK2
  6
CONTINUOUS
370
25
 62
7
100
AcDbLine
 10
-12.8183982822018
 20
-6.091991411008969
 30
0.0
 11
-11.4544011451988
 21
-4.727994274005965
 31
0.0
  0
LINE
  5
74D
330
1F
100
AcDbEntity
  8
SK2
  6
CONTINUOUS
370
25
 62
7
100
AcDbLine
 10
-12.71233226502381
 20
-5.561661325119047
 30
0.0
 11
-11.52511182331746
 21
-4.374440883412689
 31
0.0
  0
LINE
  5
74E
330
1F
100
AcDbEntity
  8
SK2
  6
CONTINUOUS
370
25
 62
7
100
AcDbLine
 10
-12.60626624784583
 20
-5.031331239229139
 30
0.0
 11
-11.59582250143612
 21
-4.020887492819419
 31
0.0
  0
LINE
  5
74F
330
1F
100
AcDbEntity
  8
SK2
  6
CONTINUOUS
370
25
 62
7
100
AcDbLine
 10
-12.50020023066784
 20
-4.501001153339217
 30
0.0
 11
-11.66653317955477
 21
-3.667334102226135
 31
0.0
  0
LINE
  5
750
330
1F
100
AcDbEntity
  8
SK2
  6
CONTINUOUS
370
25
 62
7
100
AcDbLine
 10
-12.39413421348986
 20
-3.97067106744931
 30
0.0
 11
-11.73724385767342
 21
-3.313780711632859
 31
0.0
  0
LINE
  5
751
330
1F
100
AcDbEntity
  8
SK2
  6
CONTINUOUS
370
25
 62
7
100
AcDbLine
 10
-12.28806819631188
 20
-3.44034098155938
 30
0.0
 11
-11.80795453579208
 21
-2.960227321039582
 31
0.0
  0
LINE
  5
752
330
1F
100
AcDbEntity
  8
SK2
  6
CONTINUOUS
370
25
 62
7
100
AcDbLine
 10
-12.18200217913389
 20
-2.910010895669465
 30
0.0
 11
-11.87866521391073
 21
-2.606673930446306
 31
0.0
  0
LINE
  5
753
330
1F
100
AcDbEntity
  8
SK2
  6
CONTINUOUS
370
25
 62
7
100
AcDbLine
 10
-12.0759361619559
 20
-2.379680809779543
 30
0.0
 11
-11.94937589202939
 21
-2.253120539853036
 31
0.0
  0
LINE
  5
754
330
1F
100
AcDbEntity
  8
SK2
  6
CONTINUOUS
370
25
 62
7
100
AcDbLine
 10
-12.96695086409638
 20
-6.834754320481899
 30
0.0
 11
-12.80170518457828
 21
-7.0
 31
0.0
  0
LINE
  5
755
330
1F
100
AcDbEntity
  8
SK2
  6
CONTINUOUS
370
25
 62
7
100
AcDbLine
 10
-12.89624018597772
 20
-6.48120092988863
 30
0.0
 11
-12.37744111586635
 21
-7.0
 31
0.0
  0
LINE
  5
756
330
1F
100
AcDbEntity
  8
SK2
  6
CONTINUOUS
370
25
 62
7
100
AcDbLine
 10
-12.82552950785907
 20
-6.127647539295346
 30
0.0
 11
-11.95317704715441
 21
-7.0
 31
0.0
  0
LINE
  5
757
330
1F
100
AcDbEntity
  8
SK2
  6
CONTINUOUS
370
25
 62
7
100
AcDbLine
 10
-12.75481882974041
 20
-5.774094148702083
 30
0.0
 11
-11.52891297844248
 21
-7.0
 31
0.0
  0
LINE
  5
758
330
1F
100
AcDbEntity
  8
SK2
  6
CONTINUOUS
370
25
 62
7
100
AcDbLine
 10
-12.68410815162176
 20
-5.4205407581088
 30
0.0
 11
-11.10464890973055
 21
-7.0
 31
0.0
  0
LINE
  5
759
330
1F
100
AcDbEntity
  8
SK2
  6
CONTINUOUS
370
25
 62
7
100
AcDbLine
 10
-12.61339747350311
 20
-5.066987367515516
 30
0.0
 11
-11.07990378974534
 21
-6.600481051273277
 31
0.0
  0
LINE
  5
75A
330
1F
100
AcDbEntity
  8
SK2
  6
CONTINUOUS
370
25
 62
7
100
AcDbLine
 10
-12.54268679538445
 20
-4.713433976922246
 30
0.0
 11
-11.18596980692332
 21
-6.070150965383377
 31
0.0
  0
LINE
  5
75B
330
1F
100
AcDbEntity
  8
SK2
  6
CONTINUOUS
370
25
 62
7
100
AcDbLine
 10
-12.4719761172658
 20
-4.359880586328963
 30
0.0
 11
-11.2920358241013
 21
-5.539820879493462
 31
0.0
  0
LINE
  5
75C
330
1F
100
AcDbEntity
  8
SK2
  6
CONTINUOUS
370
25
 62
7
100
AcDbLine
 10
-12.40126543914715
 20
-4.006327195735686
 30
0.0
 11
-11.39810184127928
 21
-5.009490793603547
 31
0.0
  0
LINE
  5
75D
330
1F
100
AcDbEntity
  8
SK2
  6
CONTINUOUS
370
25
 62
7
100
AcDbLine
 10
-12.33055476102848
 20
-3.652773805142424
 30
0.0
 11
-11.50416785845728
 21
-4.479160707713618
 31
0.0
  0
LINE
  5
75E
330
1F
100
AcDbEntity
  8
SK2
  6
CONTINUOUS
370
25
 62
7
100
AcDbLine
 10
-12.25984408290982
 20
-3.299220414549147
 30
0.0
 11
-11.61023387563526
 21
-3.94883062182371
 31
0.0
  0
LINE
  5
75F
330
1F
100
AcDbEntity
  8
SK2
  6
CONTINUOUS
370
25
 62
7
100
AcDbLine
 10
-12.18913340479116
 20
-2.94566702395587
 30
0.0
 11
-11.71629989281325
 21
-3.418500535933788
 31
0.0
  0
LINE
  5
760
330
1F
100
AcDbEntity
  8
SK2
  6
CONTINUOUS
370
25
 62
7
100
AcDbLine
 10
-12.11842272667251
 20
-2.592113633362587
 30
0.0
 11
-11.82236590999123
 21
-2.888170450043873
 31
0.0
  0
LINE
  5
761
330
1F
100
AcDbEntity
  8
SK2
  6
CONTINUOUS
370
25
 62
7
100
AcDbLine
 10
-12.04771204855386
 20
-2.238560242769317
 30
0.0
 11
-11.92843192716921
 21
-2.357840364153972
 31
0.0
  0
LINE
  5
762
330
1F
100
AcDbEntity
  8
SK2
  6
CONTINUOUS
370
25
 62
7
100
AcDbLine
 10
-12.0
 20
2.0
 30
0.0
 11
-13.0
 21
7.0
 31
0.0
  0
LINE
  5
763
330
1F
100
AcDbEntity
  8
SK2
  6
CONTINUOUS
370
25
 62
7
100
AcDbLine
 10
-13.0
 20
7.0
 30
0.0
 11
-11.0
 21
7.0
 31
0.0
  0
LINE
  5
764
330
1F
100
AcDbEntity
  8
SK2
  6
CONTINUOUS
370
25
 62
7
100
AcDbLine
 10
-11.0
 20
7.0
 30
0.0
 11
-12.0
 21
2.0
 31
0.0
  0
LINE
  5
765
330
1F
100
AcDbEntity
  8
SK2
  6
CONTINUOUS
370
25
 62
7
100
AcDbLine
 10
-12.06052668466792
 20
2.302633423339614
 30
0.0
 11
-11.90920997299811
 21
2.453950135009421
 31
0.0
  0
LINE
  5
766
330
1F
100
AcDbEntity
  8
SK2
  6
CONTINUOUS
370
25
 62
7
100
AcDbLine
 10
-12.13123736278657
 20
2.656186813932905
 30
0.0
 11
-11.80314395582013
 21
2.984280220899343
 31
0.0
  0
LINE
  5
767
330
1F
100
AcDbEntity
  8
SK2
  6
CONTINUOUS
370
25
 62
7
100
AcDbLine
 10
-12.20194804090523
 20
3.009740204526175
 30
0.0
 11
-11.69707793864215
 21
3.514610306789251
 31
0.0
  0
LINE
  5
768
330
1F
100
AcDbEntity
  8
SK2
  6
CONTINUOUS
370
25
 62
7
100
AcDbLine
 10
-12.27265871902389
 20
3.363293595119451
 30
0.0
 11
-11.59101192146417
 21
4.044940392679173
 31
0.0
  0
LINE
  5
769
330
1F
100
AcDbEntity
  8
SK2
  6
CONTINUOUS
370
25
 62
7
100
AcDbLine
 10
-12.34336939714255
 20
3.716846985712721
 30
0.0
 11
-11.48494590428619
 21
4.575270478569081
 31
0.0
  0
LINE
  5
76A
330
1F
100
AcDbEntity
  8
SK2
  6
CONTINUOUS
370
25
 62
7
100
AcDbLine
 10
-12.4140800752612
 20
4.070400376306004
 30
0.0
 11
-11.3788798871082
 21
5.105600564459003
 31
0.0
  0
LINE
  5
76B
330
1F
100
AcDbEntity
  8
SK2
  6
CONTINUOUS
370
25
 62
7
100
AcDbLine
 10
-12.48479075337985
 20
4.423953766899274
 30
0.0
 11
-11.27281386993021
 21
5.635930650348918
 31
0.0
  0
LINE
  5
76C
330
1F
100
AcDbEntity
  8
SK2
  6
CONTINUOUS
370
25
 62
7
100
AcDbLine
 10
-12.55550143149851
 20
4.777507157492551
 30
0.0
 11
-11.16674785275223
 21
6.166260736238833
 31
0.0
  0
LINE
  5
76D
330
1F
100
AcDbEntity
  8
SK2
  6
CONTINUOUS
370
25
 62
7
100
AcDbLine
 10
-12.62621210961716
 20
5.131060548085834
 30
0.0
 11
-11.06068183557425
 21
6.696590822128748
 31
0.0
  0
LINE
  5
76E
330
1F
100
AcDbEntity
  8
SK2
  6
CONTINUOUS
370
25
 62
7
100
AcDbLine
 10
-12.69692278773582
 20
5.484613938679111
 30
0.0
 11
-11.18153672641493
 21
7.0
 31
0.0
  0
LINE
  5
76F
330
1F
100
AcDbEntity
  8
SK2
  6
CONTINUOUS
370
25
 62
7
100
AcDbLine
 10
-12.76763346585447
 20
5.83816732927238
 30
0.0
 11
-11.60580079512685
 21
7.0
 31
0.0
  0
LINE
  5
770
330
1F
100
AcDbEntity
  8
SK2
  6
CONTINUOUS
370
25
 62
7
100
AcDbLine
 10
-12.83834414397312
 20
6.191720719865657
 30
0.0
 11
-12.03006486383878
 21
7.0
 31
0.0
  0
LINE
  5
771
330
1F
100
AcDbEntity
  8
SK2
  6
CONTINUOUS
370
25
 62
7
100
AcDbLine
 10
-12.90905482209179
 20
6.545274110458926
 30
0.0
 11
-12.45432893255072
 21
7.0
 31
0.0
  0
LINE
  5
772
330
1F
100
AcDbEntity
  8
SK2
  6
CONTINUOUS
370
25
 62
7
100
AcDbLine
 10
-12.97976550021044
 20
6.898827501052203
 30
0.0
 11
-12.87859300126264
 21
7.0
 31
0.0
  0
LINE
  5
773
330
1F
100
AcDbEntity
  8
SK2
  6
CONTINUOUS
370
25
 62
7
100
AcDbLine
 10
-12.03431937747376
 20
2.171596887368857
 30
0.0
 11
-11.97712041501748
 21
2.114397924912574
 31
0.0
  0
LINE
  5
774
330
1F
100
AcDbEntity
  8
SK2
  6
CONTINUOUS
370
25
 62
7
100
AcDbLine
 10
-12.14038539465175
 20
2.701926973258772
 30
0.0
 11
-11.90640973689883
 21
2.46795131550585
 31
0.0
  0
LINE
  5
775
330
1F
100
AcDbEntity
  8
SK2
  6
CONTINUOUS
370
25
 62
7
100
AcDbLine
 10
-12.24645141182973
 20
3.232257059148679
 30
0.0
 11
-11.83569905878017
 21
2.82150470609912
 31
0.0
  0
LINE
  5
776
330
1F
100
AcDbEntity
  8
SK2
  6
CONTINUOUS
370
25
 62
7
100
AcDbLine
 10
-12.35251742900771
 20
3.762587145038587
 30
0.0
 11
-11.76498838066152
 21
3.175058096692396
 31
0.0
  0
LINE
  5
777
330
1F
100
AcDbEntity
  8
SK2
  6
CONTINUOUS
370
25
 62
7
100
AcDbLine
 10
-12.4585834461857
 20
4.292917230928509
 30
0.0
 11
-11.69427770254286
 21
3.528611487285666
 31
0.0
  0
LINE
  5
778
330
1F
100
AcDbEntity
  8
SK2
  6
CONTINUOUS
370
25
 62
7
100
AcDbLine
 10
-12.56464946336369
 20
4.823247316818424
 30
0.0
 11
-11.6235670244242
 21
3.882164877878942
 31
0.0
  0
LINE
  5
779
330
1F
100
AcDbEntity
  8
SK2
  6
CONTINUOUS
370
25
 62
7
100
AcDbLine
 10
-12.67071548054167
 20
5.353577402708339
 30
0.0
 11
-11.55285634630555
 21
4.235718268472226
 31
0.0
  0
LINE
  5
77A
330
1F
100
AcDbEntity
  8
SK2
  6
CONTINUOUS
370
25
 62
7
100
AcDbLine
 10
-12.77678149771965
 20
5.883907488598247
 30
0.0
 11
-11.4821456681869
 21
4.589271659065496
 31
0.0
  0
LINE
  5
77B
330
1F
100
AcDbEntity
  8
SK2
  6
CONTINUOUS
370
25
 62
7
100
AcDbLine
 10
-12.88284751489763
 20
6.414237574488169
 30
0.0
 11
-11.41143499006824
 21
4.942825049658779
 31
0.0
  0
LINE
  5
77C
330
1F
100
AcDbEntity
  8
SK2
  6
CONTINUOUS
370
25
 62
7
100
AcDbLine
 10
-12.98891353207561
 20
6.944567660378077
 30
0.0
 11
-11.34072431194958
 21
5.296378440252042
 31
0.0
  0
LINE
  5
77D
330
1F
100
AcDbEntity
  8
SK2
  6
CONTINUOUS
370
25
 62
7
100
AcDbLine
 10
-12.6200818029856
 20
7.0
 30
0.0
 11
-11.27001363383093
 21
5.649931830845325
 31
0.0
  0
LINE
  5
77E
330
1F
100
AcDbEntity
  8
SK2
  6
CONTINUOUS
370
25
 62
7
100
AcDbLine
 10
-12.19581773427367
 20
7.0
 30
0.0
 11
-11.19930295571228
 21
6.003485221438616
 31
0.0
  0
LINE
  5
77F
330
1F
100
AcDbEntity
  8
SK2
  6
CONTINUOUS
370
25
 62
7
100
AcDbLine
 10
-11.77155366556174
 20
7.0
 30
0.0
 11
-11.12859227759362
 21
6.357038612031886
 31
0.0
  0
LINE
  5
780
330
1F
100
AcDbEntity
  8
SK2
  6
CONTINUOUS
370
25
 62
7
100
AcDbLine
 10
-11.34728959684981
 20
7.0
 30
0.0
 11
-11.05788159947497
 21
6.710592002625162
 31
0.0
  0
TEXT
  5
781
330
1F
100
AcDbEntity
  8
SK2
  6
CONTINUOUS
370
25
 62
7
100
AcDbText
 10
-13.5
 20
12.34583333333333
 30
0.0
 40
3.5
  1
4
 50
90.00000000000001
 72
     1
 11
-13.5
 21
13.5125
 31
0.0
100
AcDbText
  0
CIRCLE
  5
782
330
1F
100
AcDbEntity
  8
SK2
  6
CONTINUOUS
370
25
 62
7
100
AcDbCircle
 10
-15.25
 20
10.1875
 30
0.0
 40
1.4
  0
LINE
  5
783
330
1F
100
AcDbEntity
  8
SK2
  6
CONTINUOUS
370
25
 62
7
100
AcDbLine
 10
-13.85
 20
8.787500000000001
 30
0.0
 11
-16.65
 21
11.5875
 31
0.0
  0
LINE
  5
784
330
1F
100
AcDbEntity
  8
SK2
  6
CONTINUOUS
370
25
 62
7
100
AcDbLine
 10
0.0
 20
2.0
 30
0.0
 11
0.0
 21
15.00001
 31
0.0
  0
LINE
  5
785
330
1F
100
AcDbEntity
  8
SK2
  6
CONTINUOUS
370
25
 62
7
100
AcDbLine
 10
35.7
 20
15.00001
 30
0.0
 11
35.7
 21
2.0
 31
0.0
  0
LINE
  5
786
330
1F
100
AcDbEntity
  8
SK2
  6
CONTINUOUS
370
25
 62
7
100
AcDbLine
 10
0.0
 20
14.00001
 30
0.0
 11
35.7
 21
14.00001
 31
0.0
  0
LINE
  5
787
330
1F
100
AcDbEntity
  8
SK2
  6
CONTINUOUS
370
25
 62
7
100
AcDbLine
 10
0.0
 20
14.00001
 30
0.0
 11
5.0
 21
15.00001
 31
0.0
  0
LINE
  5
788
330
1F
100
AcDbEntity
  8
SK2
  6
CONTINUOUS
370
25
 62
7
100
AcDbLine
 10
5.0
 20
15.00001
 30
0.0
 11
5.0
 21
13.00001
 31
0.0
  0
LINE
  5
789
330
1F
100
AcDbEntity
  8
SK2
  6
CONTINUOUS
370
25
 62
7
100
AcDbLine
 10
5.0
 20
13.00001
 30
0.0
 11
0.0
 21
14.00001
 31
0.0
  0
LINE
  5
78A
330
1F
100
AcDbEntity
  8
SK2
  6
CONTINUOUS
370
25
 62
7
100
AcDbLine
 10
4.647122378299546
 20
13.07058552434009
 30
0.0
 11
5.0
 21
13.42346314604054
 31
0.0
  0
LINE
  5
78B
330
1F
100
AcDbEntity
  8
SK2
  6
CONTINUOUS
370
25
 62
7
100
AcDbLine
 10
4.29356898770628
 20
13.14129620245875
 30
0.0
 11
5.0
 21
13.84772721475247
 31
0.0
  0
LINE
  5
78C
330
1F
100
AcDbEntity
  8
SK2
  6
CONTINUOUS
370
25
 62
7
100
AcDbLine
 10
3.940015597113
 20
13.2120068805774
 30
0.0
 11
5.0
 21
14.2719912834644
 31
0.0
  0
LINE
  5
78D
330
1F
100
AcDbEntity
  8
SK2
  6
CONTINUOUS
370
25
 62
7
100
AcDbLine
 10
3.58646220651972
 20
13.28271755869606
 30
0.0
 11
5.0
 21
14.69625535217633
 31
0.0
  0
LINE
  5
78E
330
1F
100
AcDbEntity
  8
SK2
  6
CONTINUOUS
370
25
 62
7
100
AcDbLine
 10
3.232908815926443
 20
13.35342823681471
 30
0.0
 11
4.849363223889675
 21
14.96988264477793
 31
0.0
  0
LINE
  5
78F
330
1F
100
AcDbEntity
  8
SK2
  6
CONTINUOUS
370
25
 62
7
100
AcDbLine
 10
2.879355425333181
 20
13.42413891493337
 30
0.0
 11
4.319033137999764
 21
14.86381662759995
 31
0.0
  0
LINE
  5
790
330
1F
100
AcDbEntity
  8
SK2
  6
CONTINUOUS
370
25
 62
7
100
AcDbLine
 10
2.525802034739897
 20
13.49484959305202
 30
0.0
 11
3.788703052109852
 21
14.75775061042197
 31
0.0
  0
LINE
  5
791
330
1F
100
AcDbEntity
  8
SK2
  6
CONTINUOUS
370
25
 62
7
100
AcDbLine
 10
2.172248644146627
 20
13.56556027117067
 30
0.0
 11
3.258372966219952
 21
14.65168459324399
 31
0.0
  0
LINE
  5
792
330
1F
100
AcDbEntity
  8
SK2
  6
CONTINUOUS
370
25
 62
7
100
AcDbLine
 10
1.818695253553351
 20
13.63627094928933
 30
0.0
 11
2.72804288033003
 21
14.545618576066
 31
0.0
  0
LINE
  5
793
330
1F
100
AcDbEntity
  8
SK2
  6
CONTINUOUS
370
25
 62
7
100
AcDbLine
 10
1.465141862960074
 20
13.70698162740799
 30
0.0
 11
2.1977127944401
 21
14.43955255888802
 31
0.0
  0
LINE
  5
794
330
1F
100
AcDbEntity
  8
SK2
  6
CONTINUOUS
370
25
 62
7
100
AcDbLine
 10
1.11158847236679
 20
13.77769230552664
 30
0.0
 11
1.6673827085502
 21
14.33348654171004
 31
0.0
  0
LINE
  5
795
330
1F
100
AcDbEntity
  8
SK2
  6
CONTINUOUS
370
25
 62
7
100
AcDbLine
 10
0.758035081773528
 20
13.8484029836453
 30
0.0
 11
1.137052622660285
 21
14.22742052453206
 31
0.0
  0
LINE
  5
796
330
1F
100
AcDbEntity
  8
SK2
  6
CONTINUOUS
370
25
 62
7
100
AcDbLine
 10
0.4044816911802442
 20
13.91911366176395
 30
0.0
 11
0.6067225367703699
 21
14.12135450735407
 31
0.0
  0
LINE
  5
797
330
1F
100
AcDbEntity
  8
SK2
  6
CONTINUOUS
370
25
 62
7
100
AcDbLine
 10
0.0509283005869747
 20
13.98982433988261
 30
0.0
 11
0.0763924508804621
 21
14.0152884901761
 31
0.0
  0
LINE
  5
798
330
1F
100
AcDbEntity
  8
SK2
  6
CONTINUOUS
370
25
 62
7
100
AcDbLine
 10
0.3154163850225373
 20
14.06309327700452
 30
0.0
 11
0.4731245775338167
 21
13.90538508449324
 31
0.0
  0
LINE
  5
799
330
1F
100
AcDbEntity
  8
SK2
  6
CONTINUOUS
370
25
 62
7
100
AcDbLine
 10
0.668969775615821
 20
14.13380395512317
 30
0.0
 11
1.003454663423732
 21
13.79931906731526
 31
0.0
  0
LINE
  5
79A
330
1F
100
AcDbEntity
  8
SK2
  6
CONTINUOUS
370
25
 62
7
100
AcDbLine
 10
1.022523166209091
 20
14.20451463324182
 30
0.0
 11
1.533784749313639
 21
13.69325305013727
 31
0.0
  0
LINE
  5
79B
330
1F
100
AcDbEntity
  8
SK2
  6
CONTINUOUS
370
25
 62
7
100
AcDbLine
 10
1.376076556802367
 20
14.27522531136048
 30
0.0
 11
2.064114835203554
 21
13.58718703295929
 31
0.0
  0
LINE
  5
79C
330
1F
100
AcDbEntity
  8
SK2
  6
CONTINUOUS
370
25
 62
7
100
AcDbLine
 10
1.729629947395637
 20
14.34593598947914
 30
0.0
 11
2.594444921093462
 21
13.48112101578131
 31
0.0
  0
LINE
  5
79D
330
1F
100
AcDbEntity
  8
SK2
  6
CONTINUOUS
370
25
 62
7
100
AcDbLine
 10
2.083183337988913
 20
14.41664666759779
 30
0.0
 11
3.12477500698337
 21
13.37505499860332
 31
0.0
  0
LINE
  5
79E
330
1F
100
AcDbEntity
  8
SK2
  6
CONTINUOUS
370
25
 62
7
100
AcDbLine
 10
2.436736728582183
 20
14.48735734571645
 30
0.0
 11
3.655105092873278
 21
13.26898898142534
 31
0.0
  0
LINE
  5
79F
330
1F
100
AcDbEntity
  8
SK2
  6
CONTINUOUS
370
25
 62
7
100
AcDbLine
 10
2.790290119175467
 20
14.55806802383509
 30
0.0
 11
4.185435178763193
 21
13.16292296424736
 31
0.0
  0
LINE
  5
7A0
330
1F
100
AcDbEntity
  8
SK2
  6
CONTINUOUS
370
25
 62
7
100
AcDbLine
 10
3.143843509768736
 20
14.62877870195375
 30
0.0
 11
4.715765264653104
 21
13.05685694706938
 31
0.0
  0
LINE
  5
7A1
330
1F
100
AcDbEntity
  8
SK2
  6
CONTINUOUS
370
25
 62
7
100
AcDbLine
 10
3.497396900362013
 20
14.6994893800724
 30
0.0
 11
5.0
 21
13.19688628043441
 31
0.0
  0
LINE
  5
7A2
330
1F
100
AcDbEntity
  8
SK2
  6
CONTINUOUS
370
25
 62
7
100
AcDbLine
 10
3.850950290955289
 20
14.77020005819106
 30
0.0
 11
5.0
 21
13.62115034914634
 31
0.0
  0
LINE
  5
7A3
330
1F
100
AcDbEntity
  8
SK2
  6
CONTINUOUS
370
25
 62
7
100
AcDbLine
 10
4.204503681548562
 20
14.84091073630971
 30
0.0
 11
5.0
 21
14.04541441785827
 31
0.0
  0
LINE
  5
7A4
330
1F
100
AcDbEntity
  8
SK2
  6
CONTINUOUS
370
25
 62
7
100
AcDbLine
 10
4.558057072141828
 20
14.91162141442837
 30
0.0
 11
5.0
 21
14.4696784865702
 31
0.0
  0
LINE
  5
7A5
330
1F
100
AcDbEntity
  8
SK2
  6
CONTINUOUS
370
25
 62
7
100
AcDbLine
 10
4.911610462735105
 20
14.98233209254702
 30
0.0
 11
5.0
 21
14.89394255528213
 31
0.0
  0
LINE
  5
7A6
330
1F
100
AcDbEntity
  8
SK2
  6
CONTINUOUS
370
25
 62
7
100
AcDbLine
 10
35.7
 20
14.00001
 30
0.0
 11
30.7
 21
13.00001
 31
0.0
  0
LINE
  5
7A7
330
1F
100
AcDbEntity
  8
SK2
  6
CONTINUOUS
370
25
 62
7
100
AcDbLine
 10
30.7
 20
13.00001
 30
0.0
 11
30.7
 21
15.00001
 31
0.0
  0
LINE
  5
7A8
330
1F
100
AcDbEntity
  8
SK2
  6
CONTINUOUS
370
25
 62
7
100
AcDbLine
 10
30.7
 20
15.00001
 30
0.0
 11
35.7
 21
14.00001
 31
0.0
  0
LINE
  5
7A9
330
1F
100
AcDbEntity
  8
SK2
  6
CONTINUOUS
370
25
 62
7
100
AcDbLine
 10
35.69911966563295
 20
13.99983393312659
 30
0.0
 11
35.69941311042196
 21
14.00012737791561
 31
0.0
  0
LINE
  5
7AA
330
1F
100
AcDbEntity
  8
SK2
  6
CONTINUOUS
370
25
 62
7
100
AcDbLine
 10
35.16878957974304
 20
13.89376791594861
 30
0.0
 11
35.3458597198287
 21
14.07083805603426
 31
0.0
  0
LINE
  5
7AB
330
1F
100
AcDbEntity
  8
SK2
  6
CONTINUOUS
370
25
 62
7
100
AcDbLine
 10
34.63845949385313
 20
13.78770189877063
 30
0.0
 11
34.99230632923542
 21
14.14154873415292
 31
0.0
  0
LINE
  5
7AC
330
1F
100
AcDbEntity
  8
SK2
  6
CONTINUOUS
370
25
 62
7
100
AcDbLine
 10
34.10812940796322
 20
13.68163588159264
 30
0.0
 11
34.63875293864215
 21
14.21225941227157
 31
0.0
  0
LINE
  5
7AD
330
1F
100
AcDbEntity
  8
SK2
  6
CONTINUOUS
370
25
 62
7
100
AcDbLine
 10
33.57779932207331
 20
13.57556986441466
 30
0.0
 11
34.28519954804887
 21
14.28297009039023
 31
0.0
  0
LINE
  5
7AE
330
1F
100
AcDbEntity
  8
SK2
  6
CONTINUOUS
370
25
 62
7
100
AcDbLine
 10
33.0474692361834
 20
13.46950384723668
 30
0.0
 11
33.9316461574556
 21
14.35368076850888
 31
0.0
  0
LINE
  5
7AF
330
1F
100
AcDbEntity
  8
SK2
  6
CONTINUOUS
370
25
 62
7
100
AcDbLine
 10
32.51713915029349
 20
13.3634378300587
 30
0.0
 11
33.57809276686233
 21
14.42439144662753
 31
0.0
  0
LINE
  5
7B0
330
1F
100
AcDbEntity
  8
SK2
  6
CONTINUOUS
370
25
 62
7
100
AcDbLine
 10
31.98680906440358
 20
13.25737181288071
 30
0.0
 11
33.22453937626906
 21
14.49510212474619
 31
0.0
  0
LINE
  5
7B1
330
1F
100
AcDbEntity
  8
SK2
  6
CONTINUOUS
370
25
 62
7
100
AcDbLine
 10
31.45647897851367
 20
13.15130579570273
 30
0.0
 11
32.87098598567578
 21
14.56581280286484
 31
0.0
  0
LINE
  5
7B2
330
1F
100
AcDbEntity
  8
SK2
  6
CONTINUOUS
370
25
 62
7
100
AcDbLine
 10
30.92614889262376
 20
13.04523977852475
 30
0.0
 11
32.51743259508251
 21
14.6365234809835
 31
0.0
  0
LINE
  5
7B3
330
1F
100
AcDbEntity
  8
SK2
  6
CONTINUOUS
370
25
 62
7
100
AcDbLine
 10
30.7
 20
13.24335495461292
 30
0.0
 11
32.16387920448923
 21
14.70723415910215
 31
0.0
  0
LINE
  5
7B4
330
1F
100
AcDbEntity
  8
SK2
  6
CONTINUOUS
370
25
 62
7
100
AcDbLine
 10
30.7
 20
13.66761902332485
 30
0.0
 11
31.81032581389596
 21
14.77794483722081
 31
0.0
  0
LINE
  5
7B5
330
1F
100
AcDbEntity
  8
SK2
  6
CONTINUOUS
370
25
 62
7
100
AcDbLine
 10
30.7
 20
14.09188309203677
 30
0.0
 11
31.45677242330269
 21
14.84865551533946
 31
0.0
  0
LINE
  5
7B6
330
1F
100
AcDbEntity
  8
SK2
  6
CONTINUOUS
370
25
 62
7
100
AcDbLine
 10
30.7
 20
14.5161471607487
 30
0.0
 11
31.10321903270942
 21
14.91936619345812
 31
0.0
  0
LINE
  5
7B7
330
1F
100
AcDbEntity
  8
SK2
  6
CONTINUOUS
370
25
 62
7
100
AcDbLine
 10
30.7
 20
14.94041122946063
 30
0.0
 11
30.74966564211615
 21
14.99007687157677
 31
0.0
  0
LINE
  5
7B8
330
1F
100
AcDbEntity
  8
SK2
  6
CONTINUOUS
370
25
 62
7
100
AcDbLine
 10
30.7
 20
13.06101730552664
 30
0.0
 11
30.7508394212722
 21
13.01017788425444
 31
0.0
  0
LINE
  5
7B9
330
1F
100
AcDbEntity
  8
SK2
  6
CONTINUOUS
370
25
 62
7
100
AcDbLine
 10
30.7
 20
13.48528137423857
 30
0.0
 11
31.10439281186548
 21
13.08088856237309
 31
0.0
  0
LINE
  5
7BA
330
1F
100
AcDbEntity
  8
SK2
  6
CONTINUOUS
370
25
 62
7
100
AcDbLine
 10
30.7
 20
13.9095454429505
 30
0.0
 11
31.45794620245875
 21
13.15159924049175
 31
0.0
  0
LINE
  5
7BB
330
1F
100
AcDbEntity
  8
SK2
  6
CONTINUOUS
370
25
 62
7
100
AcDbLine
 10
30.7
 20
14.33380951166242
 30
0.0
 11
31.81149959305202
 21
13.2223099186104
 31
0.0
  0
LINE
  5
7BC
330
1F
100
AcDbEntity
  8
SK2
  6
CONTINUOUS
370
25
 62
7
100
AcDbLine
 10
30.7
 20
14.75807358037435
 30
0.0
 11
32.1650529836453
 21
13.29302059672906
 31
0.0
  0
LINE
  5
7BD
330
1F
100
AcDbEntity
  8
SK2
  6
CONTINUOUS
370
25
 62
7
100
AcDbLine
 10
30.92790956135785
 20
14.95442808772843
 30
0.0
 11
32.51860637423857
 21
13.36373127484771
 31
0.0
  0
LINE
  5
7BE
330
1F
100
AcDbEntity
  8
SK2
  6
CONTINUOUS
370
25
 62
7
100
AcDbLine
 10
31.45823964724776
 20
14.84836207055045
 30
0.0
 11
32.87215976483184
 21
13.43444195296637
 31
0.0
  0
LINE
  5
7BF
330
1F
100
AcDbEntity
  8
SK2
  6
CONTINUOUS
370
25
 62
7
100
AcDbLine
 10
31.98856973313767
 20
14.74229605337247
 30
0.0
 11
33.22571315542512
 21
13.50515263108502
 31
0.0
  0
LINE
  5
7C0
330
1F
100
AcDbEntity
  8
SK2
  6
CONTINUOUS
370
25
 62
7
100
AcDbLine
 10
32.51889981902758
 20
14.63623003619448
 30
0.0
 11
33.57926654601839
 21
13.57586330920368
 31
0.0
  0
LINE
  5
7C1
330
1F
100
AcDbEntity
  8
SK2
  6
CONTINUOUS
370
25
 62
7
100
AcDbLine
 10
33.04922990491749
 20
14.5301640190165
 30
0.0
 11
33.93281993661166
 21
13.64657398732233
 31
0.0
  0
LINE
  5
7C2
330
1F
100
AcDbEntity
  8
SK2
  6
CONTINUOUS
370
25
 62
7
100
AcDbLine
 10
33.5795599908074
 20
14.42409800183852
 30
0.0
 11
34.28637332720494
 21
13.71728466544099
 31
0.0
  0
LINE
  5
7C3
330
1F
100
AcDbEntity
  8
SK2
  6
CONTINUOUS
370
25
 62
7
100
AcDbLine
 10
34.10989007669731
 20
14.31803198466054
 30
0.0
 11
34.63992671779821
 21
13.78799534355964
 31
0.0
  0
LINE
  5
7C4
330
1F
100
AcDbEntity
  8
SK2
  6
CONTINUOUS
370
25
 62
7
100
AcDbLine
 10
34.64022016258723
 20
14.21196596748256
 30
0.0
 11
34.99348010839149
 21
13.8587060216783
 31
0.0
  0
LINE
  5
7C5
330
1F
100
AcDbEntity
  8
SK2
  6
CONTINUOUS
370
25
 62
7
100
AcDbLine
 10
35.17055024847713
 20
14.10589995030457
 30
0.0
 11
35.34703349898476
 21
13.92941669979695
 31
0.0
  0
TEXT
  5
7C6
330
1F
100
AcDbEntity
  8
SK2
  6
CONTINUOUS
370
25
 62
7
100
AcDbText
 10
12.6
 20
15.50001
 30
0.0
 40
3.5
  1
35.7
 72
     1
 11
17.85
 21
15.50001
 31
0.0
100
AcDbText
  0
LINE
  5
7C7
330
1F
100
AcDbEntity
  8
2
  6
CONTINUOUS
370
25
 62
7
100
AcDbLine
 10
49.8
 20
-1.0
 30
0.0
 11
70.0
 21
-1.000000000000002
 31
0.0
  0
LINE
  5
7C8
330
1F
100
AcDbEntity
  8
2
  6
CONTINUOUS
370
25
 62
7
100
AcDbLine
 10
70.0
 20
0.9999999999999977
 30
0.0
 11
49.8
 21
1.0
 31
0.0
  0
LINE
  5
7C9
330
1F
100
AcDbEntity
  8
2
  6
CONTINUOUS
370
25
 62
7
100
AcDbLine
 10
69.0
 20
-8.000000000000002
 30
0.0
 11
69.0
 21
14.475
 31
0.0
  0
LINE
  5
7CA
330
1F
100
AcDbEntity
  8
2
  6
CONTINUOUS
370
25
 62
7
100
AcDbLine
 10
69.0
 20
-1.000000000000002
 30
0.0
 11
70.0
 21
-6.000000000000002
 31
0.0
  0
LINE
  5
7CB
330
1F
100
AcDbEntity
  8
2
  6
CONTINUOUS
370
25
 62
7
100
AcDbLine
 10
70.0
 20
-6.000000000000002
 30
0.0
 11
68.0
 21
-6.000000000000002
 31
0.0
  0
LINE
  5
7CC
330
1F
100
AcDbEntity
  8
2
  6
CONTINUOUS
370
25
 62
7
100
AcDbLine
 10
68.0
 20
-6.000000000000002
 30
0.0
 11
69.0
 21
-1.000000000000002
 31
0.0
  0
LINE
  5
7CD
330
1F
100
AcDbEntity
  8
2
  6
CONTINUOUS
370
25
 62
7
100
AcDbLine
 10
69.67521165820773
 20
-6.0
 30
0.0
 11
69.9458686097013
 21
-5.729343048506429
 31
0.0
  0
LINE
  5
7CE
330
1F
100
AcDbEntity
  8
2
  6
CONTINUOUS
370
25
 62
7
100
AcDbLine
 10
69.2509475894958
 20
-6.0
 30
0.0
 11
69.87515793158263
 21
-5.375789657913145
 31
0.0
  0
LINE
  5
7CF
330
1F
100
AcDbEntity
  8
2
  6
CONTINUOUS
370
25
 62
7
100
AcDbLine
 10
68.82668352078386
 20
-6.0
 30
0.0
 11
69.80444725346399
 21
-5.022236267319876
 31
0.0
  0
LINE
  5
7D0
330
1F
100
AcDbEntity
  8
2
  6
CONTINUOUS
370
25
 62
7
100
AcDbLine
 10
68.40241945207194
 20
-6.0
 30
0.0
 11
69.73373657534532
 21
-4.668682876726614
 31
0.0
  0
LINE
  5
7D1
330
1F
100
AcDbEntity
  8
2
  6
CONTINUOUS
370
25
 62
7
100
AcDbLine
 10
68.00546115416
 20
-5.972694229200002
 30
0.0
 11
69.66302589722667
 21
-4.31512948613333
 31
0.0
  0
LINE
  5
7D2
330
1F
100
AcDbEntity
  8
2
  6
CONTINUOUS
370
25
 62
7
100
AcDbLine
 10
68.11152717133798
 20
-5.442364143310094
 30
0.0
 11
69.59231521910802
 21
-3.961576095540053
 31
0.0
  0
LINE
  5
7D3
330
1F
100
AcDbEntity
  8
2
  6
CONTINUOUS
370
25
 62
7
100
AcDbLine
 10
68.21759318851596
 20
-4.912034057420179
 30
0.0
 11
69.52160454098936
 21
-3.608022704946784
 31
0.0
  0
LINE
  5
7D4
330
1F
100
AcDbEntity
  8
2
  6
CONTINUOUS
370
25
 62
7
100
AcDbLine
 10
68.32365920569396
 20
-4.381703971530271
 30
0.0
 11
69.4508938628707
 21
-3.254469314353514
 31
0.0
  0
LINE
  5
7D5
330
1F
100
AcDbEntity
  8
2
  6
CONTINUOUS
370
25
 62
7
100
AcDbLine
 10
68.42972522287194
 20
-3.851373885640342
 30
0.0
 11
69.38018318475204
 21
-2.900915923760238
 31
0.0
  0
LINE
  5
7D6
330
1F
100
AcDbEntity
  8
2
  6
CONTINUOUS
370
25
 62
7
100
AcDbLine
 10
68.53579124004992
 20
-3.321043799750441
 30
0.0
 11
69.3094725066334
 21
-2.547362533166954
 31
0.0
  0
LINE
  5
7D7
330
1F
100
AcDbEntity
  8
2
  6
CONTINUOUS
370
25
 62
7
100
AcDbLine
 10
68.6418572572279
 20
-2.790713713860526
 30
0.0
 11
69.23876182851474
 21
-2.193809142573684
 31
0.0
  0
LINE
  5
7D8
330
1F
100
AcDbEntity
  8
2
  6
CONTINUOUS
370
25
 62
7
100
AcDbLine
 10
68.74792327440588
 20
-2.260383627970612
 30
0.0
 11
69.16805115039608
 21
-1.840255751980408
 31
0.0
  0
LINE
  5
7D9
330
1F
100
AcDbEntity
  8
2
  6
CONTINUOUS
370
25
 62
7
100
AcDbLine
 10
68.85398929158387
 20
-1.730053542080697
 30
0.0
 11
69.09734047227742
 21
-1.486702361387138
 31
0.0
  0
LINE
  5
7DA
330
1F
100
AcDbEntity
  8
2
  6
CONTINUOUS
370
25
 62
7
100
AcDbLine
 10
68.96005530876184
 20
-1.199723456190796
 30
0.0
 11
69.02662979415878
 21
-1.133148970793854
 31
0.0
  0
LINE
  5
7DB
330
1F
100
AcDbEntity
  8
2
  6
CONTINUOUS
370
25
 62
7
100
AcDbLine
 10
68.00072871002328
 20
-5.996356449883628
 30
0.0
 11
68.00437226013965
 21
-6.0
 31
0.0
  0
LINE
  5
7DC
330
1F
100
AcDbEntity
  8
2
  6
CONTINUOUS
370
25
 62
7
100
AcDbLine
 10
68.07143938814193
 20
-5.642803059290358
 30
0.0
 11
68.42863632885158
 21
-6.0
 31
0.0
  0
LINE
  5
7DD
330
1F
100
AcDbEntity
  8
2
  6
CONTINUOUS
370
25
 62
7
100
AcDbLine
 10
68.1421500662606
 20
-5.289249668697085
 30
0.0
 11
68.8529003975635
 21
-6.000000000000004
 31
0.0
  0
LINE
  5
7DE
330
1F
100
AcDbEntity
  8
2
  6
CONTINUOUS
370
25
 62
7
100
AcDbLine
 10
68.21286074437924
 20
-4.935696278103805
 30
0.0
 11
69.27716446627544
 21
-6.0
 31
0.0
  0
LINE
  5
7DF
330
1F
100
AcDbEntity
  8
2
  6
CONTINUOUS
370
25
 62
7
100
AcDbLine
 10
68.28357142249789
 20
-4.582142887510528
 30
0.0
 11
69.70142853498737
 21
-6.0
 31
0.0
  0
LINE
  5
7E0
330
1F
100
AcDbEntity
  8
2
  6
CONTINUOUS
370
25
 62
7
100
AcDbLine
 10
68.35428210061656
 20
-4.228589496917259
 30
0.0
 11
69.96857684907519
 21
-5.842884245375885
 31
0.0
  0
LINE
  5
7E1
330
1F
100
AcDbEntity
  8
2
  6
CONTINUOUS
370
25
 62
7
100
AcDbLine
 10
68.4249927787352
 20
-3.875036106323982
 30
0.0
 11
69.8625108318972
 21
-5.312554159485977
 31
0.0
  0
LINE
  5
7E2
330
1F
100
AcDbEntity
  8
2
  6
CONTINUOUS
370
25
 62
7
100
AcDbLine
 10
68.49570345685386
 20
-3.521482715730709
 30
0.0
 11
69.75644481471922
 21
-4.782224073596058
 31
0.0
  0
LINE
  5
7E3
330
1F
100
AcDbEntity
  8
2
  6
CONTINUOUS
370
25
 62
7
100
AcDbLine
 10
68.56641413497252
 20
-3.167929325137433
 30
0.0
 11
69.65037879754124
 21
-4.251893987706151
 31
0.0
  0
LINE
  5
7E4
330
1F
100
AcDbEntity
  8
2
  6
CONTINUOUS
370
25
 62
7
100
AcDbLine
 10
68.63712481309116
 20
-2.814375934544159
 30
0.0
 11
69.54431278036326
 21
-3.721563901816246
 31
0.0
  0
LINE
  5
7E5
330
1F
100
AcDbEntity
  8
2
  6
CONTINUOUS
370
25
 62
7
100
AcDbLine
 10
68.70783549120983
 20
-2.460822543950894
 30
0.0
 11
69.43824676318528
 21
-3.191233815926328
 31
0.0
  0
LINE
  5
7E6
330
1F
100
AcDbEntity
  8
2
  6
CONTINUOUS
370
25
 62
7
100
AcDbLine
 10
68.77854616932848
 20
-2.107269153357613
 30
0.0
 11
69.33218074600728
 21
-2.660903730036416
 31
0.0
  0
LINE
  5
7E7
330
1F
100
AcDbEntity
  8
2
  6
CONTINUOUS
370
25
 62
7
100
AcDbLine
 10
68.84925684744714
 20
-1.75371576276434
 30
0.0
 11
69.22611472882932
 21
-2.130573644146505
 31
0.0
  0
LINE
  5
7E8
330
1F
100
AcDbEntity
  8
2
  6
CONTINUOUS
370
25
 62
7
100
AcDbLine
 10
68.9199675255658
 20
-1.400162372171064
 30
0.0
 11
69.12004871165132
 21
-1.600243558256597
 31
0.0
  0
LINE
  5
7E9
330
1F
100
AcDbEntity
  8
2
  6
CONTINUOUS
370
25
 62
7
100
AcDbLine
 10
68.99067820368444
 20
-1.046608981577791
 30
0.0
 11
69.01398269447334
 21
-1.069913472366686
 31
0.0
  0
LINE
  5
7EA
330
1F
100
AcDbEntity
  8
2
  6
CONTINUOUS
370
25
 62
7
100
AcDbLine
 10
69.0
 20
0.9999999999999978
 30
0.0
 11
68.0
 21
5.999999999999998
 31
0.0
  0
LINE
  5
7EB
330
1F
100
AcDbEntity
  8
2
  6
CONTINUOUS
370
25
 62
7
100
AcDbLine
 10
68.0
 20
5.999999999999998
 30
0.0
 11
70.0
 21
5.999999999999998
 31
0.0
  0
LINE
  5
7EC
330
1F
100
AcDbEntity
  8
2
  6
CONTINUOUS
370
25
 62
7
100
AcDbLine
 10
70.0
 20
5.999999999999998
 30
0.0
 11
69.0
 21
0.9999999999999978
 31
0.0
  0
LINE
  5
7ED
330
1F
100
AcDbEntity
  8
2
  6
CONTINUOUS
370
25
 62
7
100
AcDbLine
 10
68.93581810336246
 20
1.320909483187744
 30
0.0
 11
69.09627284495633
 21
1.481364224781618
 31
0.0
  0
LINE
  5
7EE
330
1F
100
AcDbEntity
  8
2
  6
CONTINUOUS
370
25
 62
7
100
AcDbLine
 10
68.86510742524379
 20
1.674462873781017
 30
0.0
 11
69.20233886213431
 21
2.011694310671537
 31
0.0
  0
LINE
  5
7EF
330
1F
100
AcDbEntity
  8
2
  6
CONTINUOUS
370
25
 62
7
100
AcDbLine
 10
68.79439674712515
 20
2.028016264374287
 30
0.0
 11
69.30840487931229
 21
2.542024396561445
 31
0.0
  0
LINE
  5
7F0
330
1F
100
AcDbEntity
  8
2
  6
CONTINUOUS
370
25
 62
7
100
AcDbLine
 10
68.72368606900648
 20
2.38156965496756
 30
0.0
 11
69.41447089649029
 21
3.072354482451363
 31
0.0
  0
LINE
  5
7F1
330
1F
100
AcDbEntity
  8
2
  6
CONTINUOUS
370
25
 62
7
100
AcDbLine
 10
68.65297539088783
 20
2.735123045560847
 30
0.0
 11
69.52053691366825
 21
3.602684568341267
 31
0.0
  0
LINE
  5
7F2
330
1F
100
AcDbEntity
  8
2
  6
CONTINUOUS
370
25
 62
7
100
AcDbLine
 10
68.58226471276919
 20
3.08867643615412
 30
0.0
 11
69.62660293084625
 21
4.133014654231186
 31
0.0
  0
LINE
  5
7F3
330
1F
100
AcDbEntity
  8
2
  6
CONTINUOUS
370
25
 62
7
100
AcDbLine
 10
68.51155403465052
 20
3.44222982674739
 30
0.0
 11
69.73266894802421
 21
4.663344740121094
 31
0.0
  0
LINE
  5
7F4
330
1F
100
AcDbEntity
  8
2
  6
CONTINUOUS
370
25
 62
7
100
AcDbLine
 10
68.44084335653187
 20
3.79578321734067
 30
0.0
 11
69.8387349652022
 21
5.193674826011005
 31
0.0
  0
LINE
  5
7F5
330
1F
100
AcDbEntity
  8
2
  6
CONTINUOUS
370
25
 62
7
100
AcDbLine
 10
68.37013267841321
 20
4.14933660793394
 30
0.0
 11
69.94480098238019
 21
5.724004911900927
 31
0.0
  0
LINE
  5
7F6
330
1F
100
AcDbEntity
  8
2
  6
CONTINUOUS
370
25
 62
7
100
AcDbLine
 10
68.29942200029456
 20
4.50288999852722
 30
0.0
 11
69.79653200176733
 21
5.999999999999996
 31
0.0
  0
LINE
  5
7F7
330
1F
100
AcDbEntity
  8
2
  6
CONTINUOUS
370
25
 62
7
100
AcDbLine
 10
68.22871132217591
 20
4.856443389120493
 30
0.0
 11
69.37226793305541
 21
6.0
 31
0.0
  0
LINE
  5
7F8
330
1F
100
AcDbEntity
  8
2
  6
CONTINUOUS
370
25
 62
7
100
AcDbLine
 10
68.15800064405725
 20
5.209996779713769
 30
0.0
 11
68.94800386434348
 21
6.0
 31
0.0
  0
LINE
  5
7F9
330
1F
100
AcDbEntity
  8
2
  6
CONTINUOUS
370
25
 62
7
100
AcDbLine
 10
68.0872899659386
 20
5.563550170307042
 30
0.0
 11
68.52373979563154
 21
5.999999999999996
 31
0.0
  0
LINE
  5
7FA
330
1F
100
AcDbEntity
  8
2
  6
CONTINUOUS
370
25
 62
7
100
AcDbLine
 10
68.01657928781995
 20
5.917103560900326
 30
0.0
 11
68.09947572691962
 21
5.999999999999996
 31
0.0
  0
LINE
  5
7FB
330
1F
100
AcDbEntity
  8
2
  6
CONTINUOUS
370
25
 62
7
100
AcDbLine
 10
68.98365260858344
 20
1.081736957082846
 30
0.0
 11
69.01089826094437
 21
1.0544913047219
 31
0.0
  0
LINE
  5
7FC
330
1F
100
AcDbEntity
  8
2
  6
CONTINUOUS
370
25
 62
7
100
AcDbLine
 10
68.87758659140545
 20
1.612067042972761
 30
0.0
 11
69.08160893906305
 21
1.408044695315176
 31
0.0
  0
LINE
  5
7FD
330
1F
100
AcDbEntity
  8
2
  6
CONTINUOUS
370
25
 62
7
100
AcDbLine
 10
68.77152057422747
 20
2.142397128862676
 30
0.0
 11
69.15231961718169
 21
1.761598085908446
 31
0.0
  0
LINE
  5
7FE
330
1F
100
AcDbEntity
  8
2
  6
CONTINUOUS
370
25
 62
7
100
AcDbLine
 10
68.66545455704949
 20
2.672727214752577
 30
0.0
 11
69.22303029530033
 21
2.11515147650173
 31
0.0
  0
LINE
  5
7FF
330
1F
100
AcDbEntity
  8
2
  6
CONTINUOUS
370
25
 62
7
100
AcDbLine
 10
68.5593885398715
 20
3.203057300642492
 30
0.0
 11
69.293740973419
 21
2.468704867094999
 31
0.0
  0
LINE
  5
800
330
1F
100
AcDbEntity
  8
2
  6
CONTINUOUS
370
25
 62
7
100
AcDbLine
 10
68.45332252269353
 20
3.733387386532399
 30
0.0
 11
69.36445165153765
 21
2.822258257688276
 31
0.0
  0
LINE
  5
801
330
1F
100
AcDbEntity
  8
2
  6
CONTINUOUS
370
25
 62
7
100
AcDbLine
 10
68.34725650551555
 20
4.263717472422314
 30
0.0
 11
69.43516232965631
 21
3.175811648281552
 31
0.0
  0
LINE
  5
802
330
1F
100
AcDbEntity
  8
2
  6
CONTINUOUS
370
25
 62
7
100
AcDbLine
 10
68.24119048833757
 20
4.794047558312222
 30
0.0
 11
69.50587300777497
 21
3.529365038874822
 31
0.0
  0
LINE
  5
803
330
1F
100
AcDbEntity
  8
2
  6
CONTINUOUS
370
25
 62
7
100
AcDbLine
 10
68.13512447115957
 20
5.32437764420213
 30
0.0
 11
69.57658368589362
 21
3.882918429468091
 31
0.0
  0
LINE
  5
804
330
1F
100
AcDbEntity
  8
2
  6
CONTINUOUS
370
25
 62
7
100
AcDbLine
 10
68.02905845398159
 20
5.854707730092045
 30
0.0
 11
69.64729436401228
 21
4.236471820061368
 31
0.0
  0
LINE
  5
805
330
1F
100
AcDbEntity
  8
2
  6
CONTINUOUS
370
25
 62
7
100
AcDbLine
 10
68.30803025278557
 20
6.0
 30
0.0
 11
69.71800504213093
 21
4.590025210654652
 31
0.0
  0
LINE
  5
806
330
1F
100
AcDbEntity
  8
2
  6
CONTINUOUS
370
25
 62
7
100
AcDbLine
 10
68.7322943214975
 20
6.0
 30
0.0
 11
69.78871572024958
 21
4.943578601247921
 31
0.0
  0
LINE
  5
807
330
1F
100
AcDbEntity
  8
2
  6
CONTINUOUS
370
25
 62
7
100
AcDbLine
 10
69.15655839020943
 20
6.0
 30
0.0
 11
69.85942639836824
 21
5.297131991841191
 31
0.0
  0
LINE
  5
808
330
1F
100
AcDbEntity
  8
2
  6
CONTINUOUS
370
25
 62
7
100
AcDbLine
 10
69.58082245892135
 20
6.0
 30
0.0
 11
69.93013707648689
 21
5.650685382434467
 31
0.0
  0
TEXT
  5
809
330
1F
100
AcDbEntity
  8
2
  6
CONTINUOUS
370
25
 62
7
100
AcDbText
 10
67.5
 20
11.34583333333333
 30
0.0
 40
3.5
  1
2
 50
90.00000000000001
 72
     1
 11
67.5
 21
12.5125
 31
0.0
100
AcDbText
  0
CIRCLE
  5
80A
330
1F
100
AcDbEntity
  8
2
  6
CONTINUOUS
370
25
 62
7
100
AcDbCircle
 10
65.75
 20
9.187499999999998
 30
0.0
 40
1.4
  0
LINE
  5
80B
330
1F
100
AcDbEntity
  8
2
  6
CONTINUOUS
370
25
 62
7
100
AcDbLine
 10
67.15
 20
7.7875
 30
0.0
 11
64.35
 21
10.5875
 31
0.0
  0
LINE
  5
80C
330
1F
100
AcDbEntity
  8
2
  6
CONTINUOUS
370
25
 62
7
100
AcDbLine
 10
48.40000000000001
 20
-0.95995
 30
0.0
 11
45.40000000000001
 21
-0.9599499999999996
 31
0.0
  0
LINE
  5
80D
330
1F
100
AcDbEntity
  8
2
  6
CONTINUOUS
370
25
 62
7
100
AcDbLine
 10
45.40000000000001
 20
0.9599500000000003
 30
0.0
 11
48.40000000000001
 21
0.95995
 31
0.0
  0
LINE
  5
80E
330
1F
100
AcDbEntity
  8
2
  6
CONTINUOUS
370
25
 62
7
100
AcDbLine
 10
46.40000000000001
 20
-7.95995
 30
0.0
 11
46.40000000000001
 21
23.35995
 31
0.0
  0
LINE
  5
80F
330
1F
100
AcDbEntity
  8
2
  6
CONTINUOUS
370
25
 62
7
100
AcDbLine
 10
46.40000000000001
 20
-0.9599499999999997
 30
0.0
 11
47.40000000000001
 21
-5.95995
 31
0.0
  0
LINE
  5
810
330
1F
100
AcDbEntity
  8
2
  6
CONTINUOUS
370
25
 62
7
100
AcDbLine
 10
47.40000000000001
 20
-5.95995
 30
0.0
 11
45.40000000000001
 21
-5.95995
 31
0.0
  0
LINE
  5
811
330
1F
100
AcDbEntity
  8
2
  6
CONTINUOUS
370
25
 62
7
100
AcDbLine
 10
45.40000000000001
 20
-5.95995
 30
0.0
 11
46.40000000000001
 21
-0.9599499999999997
 31
0.0
  0
LINE
  5
812
330
1F
100
AcDbEntity
  8
2
  6
CONTINUOUS
370
25
 62
7
100
AcDbLine
 10
47.34542136865183
 20
-5.959949999999999
 30
0.0
 11
47.39090356144197
 21
-5.914467807209851
 31
0.0
  0
LINE
  5
813
330
1F
100
AcDbEntity
  8
2
  6
CONTINUOUS
370
25
 62
7
100
AcDbLine
 10
46.9211572999399
 20
-5.959949999999999
 30
0.0
 11
47.32019288332332
 21
-5.56091441661658
 31
0.0
  0
LINE
  5
814
330
1F
100
AcDbEntity
  8
2
  6
CONTINUOUS
370
25
 62
7
100
AcDbLine
 10
46.49689323122797
 20
-5.959949999999999
 30
0.0
 11
47.24948220520466
 21
-5.207361026023305
 31
0.0
  0
LINE
  5
815
330
1F
100
AcDbEntity
  8
2
  6
CONTINUOUS
370
25
 62
7
100
AcDbLine
 10
46.07262916251604
 20
-5.959949999999999
 30
0.0
 11
47.17877152708601
 21
-4.853807635430034
 31
0.0
  0
LINE
  5
816
330
1F
100
AcDbEntity
  8
2
  6
CONTINUOUS
370
25
 62
7
100
AcDbLine
 10
45.64836509380412
 20
-5.959950000000001
 30
0.0
 11
47.10806084896736
 21
-4.500254244836759
 31
0.0
  0
LINE
  5
817
330
1F
100
AcDbEntity
  8
2
  6
CONTINUOUS
370
25
 62
7
100
AcDbLine
 10
45.44397474372695
 20
-5.74007628136523
 30
0.0
 11
47.0373501708487
 21
-4.146700854243488
 31
0.0
  0
LINE
  5
818
330
1F
100
AcDbEntity
  8
2
  6
CONTINUOUS
370
25
 62
7
100
AcDbLine
 10
45.55004076090493
 20
-5.20974619547532
 30
0.0
 11
46.96663949273005
 21
-3.793147463650213
 31
0.0
  0
LINE
  5
819
330
1F
100
AcDbEntity
  8
2
  6
CONTINUOUS
370
25
 62
7
100
AcDbLine
 10
45.65610677808292
 20
-4.679416109585411
 30
0.0
 11
46.89592881461139
 21
-3.439594073056941
 31
0.0
  0
LINE
  5
81A
330
1F
100
AcDbEntity
  8
2
  6
CONTINUOUS
370
25
 62
7
100
AcDbLine
 10
45.7621727952609
 20
-4.149086023695501
 30
0.0
 11
46.82521813649274
 21
-3.086040682463667
 31
0.0
  0
LINE
  5
81B
330
1F
100
AcDbEntity
  8
2
  6
CONTINUOUS
370
25
 62
7
100
AcDbLine
 10
45.86823881243888
 20
-3.618755937805592
 30
0.0
 11
46.75450745837409
 21
-2.732487291870392
 31
0.0
  0
LINE
  5
81C
330
1F
100
AcDbEntity
  8
2
  6
CONTINUOUS
370
25
 62
7
100
AcDbLine
 10
45.97430482961687
 20
-3.088425851915682
 30
0.0
 11
46.68379678025543
 21
-2.37893390127712
 31
0.0
  0
LINE
  5
81D
330
1F
100
AcDbEntity
  8
2
  6
CONTINUOUS
370
25
 62
7
100
AcDbLine
 10
46.08037084679485
 20
-2.558095766025772
 30
0.0
 11
46.61308610213677
 21
-2.025380510683849
 31
0.0
  0
LINE
  5
81E
330
1F
100
AcDbEntity
  8
2
  6
CONTINUOUS
370
25
 62
7
100
AcDbLine
 10
46.18643686397283
 20
-2.027765680135857
 30
0.0
 11
46.54237542401812
 21
-1.671827120090571
 31
0.0
  0
LINE
  5
81F
330
1F
100
AcDbEntity
  8
2
  6
CONTINUOUS
370
25
 62
7
100
AcDbLine
 10
46.29250288115081
 20
-1.497435594245948
 30
0.0
 11
46.47166474589947
 21
-1.318273729497296
 31
0.0
  0
LINE
  5
820
330
1F
100
AcDbEntity
  8
2
  6
CONTINUOUS
370
25
 62
7
100
AcDbLine
 10
46.3985688983288
 20
-0.9671055083560383
 30
0.0
 11
46.40095406778081
 21
-0.9647203389040246
 31
0.0
  0
LINE
  5
821
330
1F
100
AcDbEntity
  8
2
  6
CONTINUOUS
370
25
 62
7
100
AcDbLine
 10
45.41305443640123
 20
-5.894677817993863
 30
0.0
 11
45.47832661840737
 21
-5.959950000000001
 31
0.0
  0
LINE
  5
822
330
1F
100
AcDbEntity
  8
2
  6
CONTINUOUS
370
25
 62
7
100
AcDbLine
 10
45.48376511451988
 20
-5.54112442740059
 30
0.0
 11
45.9025906871193
 21
-5.959950000000001
 31
0.0
  0
LINE
  5
823
330
1F
100
AcDbEntity
  8
2
  6
CONTINUOUS
370
25
 62
7
100
AcDbLine
 10
45.55447579263854
 20
-5.187571036807316
 30
0.0
 11
46.32685475583122
 21
-5.959949999999999
 31
0.0
  0
LINE
  5
824
330
1F
100
AcDbEntity
  8
2
  6
CONTINUOUS
370
25
 62
7
100
AcDbLine
 10
45.62518647075719
 20
-4.834017646214043
 30
0.0
 11
46.75111882454316
 21
-5.95995
 31
0.0
  0
LINE
  5
825
330
1F
100
AcDbEntity
  8
2
  6
CONTINUOUS
370
25
 62
7
100
AcDbLine
 10
45.69589714887585
 20
-4.480464255620769
 30
0.0
 11
47.17538289325508
 21
-5.95995
 31
0.0
  0
LINE
  5
826
330
1F
100
AcDbEntity
  8
2
  6
CONTINUOUS
370
25
 62
7
100
AcDbLine
 10
45.7666078269945
 20
-4.126910865027497
 30
0.0
 11
47.35008825950825
 21
-5.710391297541241
 31
0.0
  0
LINE
  5
827
330
1F
100
AcDbEntity
  8
2
  6
CONTINUOUS
370
25
 62
7
100
AcDbLine
 10
45.83731850511316
 20
-3.773357474434222
 30
0.0
 11
47.24402224233027
 21
-5.180061211651335
 31
0.0
  0
LINE
  5
828
330
1F
100
AcDbEntity
  8
2
  6
CONTINUOUS
370
25
 62
7
100
AcDbLine
 10
45.90802918323181
 20
-3.419804083840949
 30
0.0
 11
47.13795622515229
 21
-4.649731125761425
 31
0.0
  0
LINE
  5
829
330
1F
100
AcDbEntity
  8
2
  6
CONTINUOUS
370
25
 62
7
100
AcDbLine
 10
45.97873986135047
 20
-3.066250693247675
 30
0.0
 11
47.03189020797431
 21
-4.119401039871515
 31
0.0
  0
LINE
  5
82A
330
1F
100
AcDbEntity
  8
2
  6
CONTINUOUS
370
25
 62
7
100
AcDbLine
 10
46.04945053946912
 20
-2.712697302654402
 30
0.0
 11
46.92582419079633
 21
-3.589070953981605
 31
0.0
  0
LINE
  5
82B
330
1F
100
AcDbEntity
  8
2
  6
CONTINUOUS
370
25
 62
7
100
AcDbLine
 10
46.12016121758778
 20
-2.359143912061128
 30
0.0
 11
46.81975817361834
 21
-3.058740868091695
 31
0.0
  0
LINE
  5
82C
330
1F
100
AcDbEntity
  8
2
  6
CONTINUOUS
370
25
 62
7
100
AcDbLine
 10
46.19087189570643
 20
-2.005590521467855
 30
0.0
 11
46.71369215644036
 21
-2.528410782201785
 31
0.0
  0
LINE
  5
82D
330
1F
100
AcDbEntity
  8
2
  6
CONTINUOUS
370
25
 62
7
100
AcDbLine
 10
46.26158257382509
 20
-1.652037130874582
 30
0.0
 11
46.60762613926238
 21
-1.998080696311872
 31
0.0
  0
LINE
  5
82E
330
1F
100
AcDbEntity
  8
2
  6
CONTINUOUS
370
25
 62
7
100
AcDbLine
 10
46.33229325194374
 20
-1.298483740281307
 30
0.0
 11
46.5015601220844
 21
-1.467750610421961
 31
0.0
  0
LINE
  5
82F
330
1F
100
AcDbEntity
  8
2
  6
CONTINUOUS
370
25
 62
7
100
AcDbLine
 10
46.40000000000001
 20
0.9599500000000002
 30
0.0
 11
45.40000000000001
 21
5.95995
 31
0.0
  0
LINE
  5
830
330
1F
100
AcDbEntity
  8
2
  6
CONTINUOUS
370
25
 62
7
100
AcDbLine
 10
45.40000000000001
 20
5.95995
 30
0.0
 11
47.40000000000001
 21
5.95995
 31
0.0
  0
LINE
  5
831
330
1F
100
AcDbEntity
  8
2
  6
CONTINUOUS
370
25
 62
7
100
AcDbLine
 10
47.40000000000001
 20
5.95995
 30
0.0
 11
46.40000000000001
 21
0.9599500000000002
 31
0.0
  0
LINE
  5
832
330
1F
100
AcDbEntity
  8
2
  6
CONTINUOUS
370
25
 62
7
100
AcDbLine
 10
46.39420305510314
 20
0.9889347244843147
 30
0.0
 11
46.4086954173453
 21
1.003427086726475
 31
0.0
  0
LINE
  5
833
330
1F
100
AcDbEntity
  8
2
  6
CONTINUOUS
370
25
 62
7
100
AcDbLine
 10
46.32349237698448
 20
1.342488115077588
 30
0.0
 11
46.51476143452328
 21
1.533757172616383
 31
0.0
  0
LINE
  5
834
330
1F
100
AcDbEntity
  8
2
  6
CONTINUOUS
370
25
 62
7
100
AcDbLine
 10
46.25278169886583
 20
1.696041505670863
 30
0.0
 11
46.62082745170126
 21
2.064087258506296
 31
0.0
  0
LINE
  5
835
330
1F
100
AcDbEntity
  8
2
  6
CONTINUOUS
370
25
 62
7
100
AcDbLine
 10
46.18207102074717
 20
2.049594896264136
 30
0.0
 11
46.72689346887925
 21
2.594417344396206
 31
0.0
  0
LINE
  5
836
330
1F
100
AcDbEntity
  8
2
  6
CONTINUOUS
370
25
 62
7
100
AcDbLine
 10
46.11136034262852
 20
2.403148286857411
 30
0.0
 11
46.83295948605723
 21
3.124747430286114
 31
0.0
  0
LINE
  5
837
330
1F
100
AcDbEntity
  8
2
  6
CONTINUOUS
370
25
 62
7
100
AcDbLine
 10
46.04064966450987
 20
2.756701677450684
 30
0.0
 11
46.93902550323521
 21
3.655077516176021
 31
0.0
  0
LINE
  5
838
330
1F
100
AcDbEntity
  8
2
  6
CONTINUOUS
370
25
 62
7
100
AcDbLine
 10
45.96993898639121
 20
3.110255068043957
 30
0.0
 11
47.04509152041319
 21
4.185407602065931
 31
0.0
  0
LINE
  5
839
330
1F
100
AcDbEntity
  8
2
  6
CONTINUOUS
370
25
 62
7
100
AcDbLine
 10
45.89922830827255
 20
3.46380845863723
 30
0.0
 11
47.15115753759117
 21
4.715737687955841
 31
0.0
  0
LINE
  5
83A
330
1F
100
AcDbEntity
  8
2
  6
CONTINUOUS
370
25
 62
7
100
AcDbLine
 10
45.8285176301539
 20
3.817361849230503
 30
0.0
 11
47.25722355476915
 21
5.24606777384575
 31
0.0
  0
LINE
  5
83B
330
1F
100
AcDbEntity
  8
2
  6
CONTINUOUS
370
25
 62
7
100
AcDbLine
 10
45.75780695203525
 20
4.170915239823777
 30
0.0
 11
47.36328957194713
 21
5.776397859735661
 31
0.0
  0
LINE
  5
83C
330
1F
100
AcDbEntity
  8
2
  6
CONTINUOUS
370
25
 62
7
100
AcDbLine
 10
45.68709627391659
 20
4.524468630417049
 30
0.0
 11
47.12257764349955
 21
5.959949999999999
 31
0.0
  0
LINE
  5
83D
330
1F
100
AcDbEntity
  8
2
  6
CONTINUOUS
370
25
 62
7
100
AcDbLine
 10
45.61638559579794
 20
4.878022021010321
 30
0.0
 11
46.69831357478762
 21
5.95995
 31
0.0
  0
LINE
  5
83E
330
1F
100
AcDbEntity
  8
2
  6
CONTINUOUS
370
25
 62
7
100
AcDbLine
 10
45.54567491767929
 20
5.231575411603592
 30
0.0
 11
46.27404950607569
 21
5.959949999999999
 31
0.0
  0
LINE
  5
83F
330
1F
100
AcDbEntity
  8
2
  6
CONTINUOUS
370
25
 62
7
100
AcDbLine
 10
45.47496423956063
 20
5.585128802196867
 30
0.0
 11
45.84978543736376
 21
5.95995
 31
0.0
  0
LINE
  5
840
330
1F
100
AcDbEntity
  8
2
  6
CONTINUOUS
370
25
 62
7
100
AcDbLine
 10
45.40425356144198
 20
5.938682192790141
 30
0.0
 11
45.42552136865184
 21
5.959950000000001
 31
0.0
  0
LINE
  5
841
330
1F
100
AcDbEntity
  8
2
  6
CONTINUOUS
370
25
 62
7
100
AcDbLine
 10
46.3451390190165
 20
1.234254904917506
 30
0.0
 11
46.43657398732233
 21
1.142819936611671
 31
0.0
  0
LINE
  5
842
330
1F
100
AcDbEntity
  8
2
  6
CONTINUOUS
370
25
 62
7
100
AcDbLine
 10
46.23907300183852
 20
1.764584990807416
 30
0.0
 11
46.50728466544099
 21
1.496373327204942
 31
0.0
  0
LINE
  5
843
330
1F
100
AcDbEntity
  8
2
  6
CONTINUOUS
370
25
 62
7
100
AcDbLine
 10
46.13300698466054
 20
2.294915076697325
 30
0.0
 11
46.57799534355965
 21
1.849926717798217
 31
0.0
  0
LINE
  5
844
330
1F
100
AcDbEntity
  8
2
  6
CONTINUOUS
370
25
 62
7
100
AcDbLine
 10
46.02694096748255
 20
2.825245162587237
 30
0.0
 11
46.6487060216783
 21
2.203480108391489
 31
0.0
  0
LINE
  5
845
330
1F
100
AcDbEntity
  8
2
  6
CONTINUOUS
370
25
 62
7
100
AcDbLine
 10
45.92087495030457
 20
3.355575248477145
 30
0.0
 11
46.71941669979695
 21
2.557033498984763
 31
0.0
  0
LINE
  5
846
330
1F
100
AcDbEntity
  8
2
  6
CONTINUOUS
370
25
 62
7
100
AcDbLine
 10
45.81480893312659
 20
3.885905334367056
 30
0.0
 11
46.79012737791561
 21
2.910586889578035
 31
0.0
  0
LINE
  5
847
330
1F
100
AcDbEntity
  8
2
  6
CONTINUOUS
370
25
 62
7
100
AcDbLine
 10
45.7087429159486
 20
4.416235420256967
 30
0.0
 11
46.86083805603427
 21
3.264140280171311
 31
0.0
  0
LINE
  5
848
330
1F
100
AcDbEntity
  8
2
  6
CONTINUOUS
370
25
 62
7
100
AcDbLine
 10
45.60267689877062
 20
4.946565506146877
 30
0.0
 11
46.93154873415292
 21
3.617693670764584
 31
0.0
  0
LINE
  5
849
330
1F
100
AcDbEntity
  8
2
  6
CONTINUOUS
370
25
 62
7
100
AcDbLine
 10
45.49661088159264
 20
5.476895592036787
 30
0.0
 11
47.00225941227157
 21
3.971247061357859
 31
0.0
  0
LINE
  5
84A
330
1F
100
AcDbEntity
  8
2
  6
CONTINUOUS
370
25
 62
7
100
AcDbLine
 10
45.43782054234136
 20
5.959949999999999
 30
0.0
 11
47.07297009039023
 21
4.32480045195113
 31
0.0
  0
LINE
  5
84B
330
1F
100
AcDbEntity
  8
2
  6
CONTINUOUS
370
25
 62
7
100
AcDbLine
 10
45.86208461105329
 20
5.959949999999999
 30
0.0
 11
47.14368076850889
 21
4.678353842544404
 31
0.0
  0
LINE
  5
84C
330
1F
100
AcDbEntity
  8
2
  6
CONTINUOUS
370
25
 62
7
100
AcDbLine
 10
46.28634867976521
 20
5.959949999999999
 30
0.0
 11
47.21439144662754
 21
5.031907233137677
 31
0.0
  0
LINE
  5
84D
330
1F
100
AcDbEntity
  8
2
  6
CONTINUOUS
370
25
 62
7
100
AcDbLine
 10
46.71061274847715
 20
5.959949999999999
 30
0.0
 11
47.28510212474619
 21
5.385460623730951
 31
0.0
  0
LINE
  5
84E
330
1F
100
AcDbEntity
  8
2
  6
CONTINUOUS
370
25
 62
7
100
AcDbLine
 10
47.13487681718907
 20
5.959949999999999
 30
0.0
 11
47.35581280286485
 21
5.739014014324223
 31
0.0
  0
TEXT
  5
84F
330
1F
100
AcDbEntity
  8
2
  6
CONTINUOUS
370
25
 62
7
100
AcDbText
 10
44.90000000000001
 20
12.26828333333333
 30
0.0
 40
3.5
  1
1.92
 50
90.00000000000001
 72
     1
 11
44.90000000000001
 21
16.93495
 31
0.0
100
AcDbText
  0
CIRCLE
  5
850
330
1F
100
AcDbEntity
  8
2
  6
CONTINUOUS
370
25
 62
7
100
AcDbCircle
 10
43.15000000000001
 20
8.88495
 30
0.0
 40
1.4
  0
LINE
  5
851
330
1F
100
AcDbEntity
  8
2
  6
CONTINUOUS
370
25
 62
7
100
AcDbLine
 10
44.55
 20
7.484950000000001
 30
0.0
 11
41.75
 21
10.28495
 31
0.0
  0
LINE
  5
852
330
1F
100
AcDbEntity
  8
2
  6
CONTINUOUS
370
25
 62
7
100
AcDbLine
 10
48.40000000000001
 20
-1.0
 30
0.0
 11
48.40000000000001
 21
-14.0
 31
0.0
  0
LINE
  5
853
330
1F
100
AcDbEntity
  8
2
  6
CONTINUOUS
370
25
 62
7
100
AcDbLine
 10
50.0
 20
-14.0
 30
0.0
 11
50.0
 21
-0.8000000000000007
 31
0.0
  0
LINE
  5
854
330
1F
100
AcDbEntity
  8
2
  6
CONTINUOUS
370
25
 62
7
100
AcDbLine
 10
41.40000000000001
 20
-13.0
 30
0.0
 11
65.925
 21
-13.0
 31
0.0
  0
LINE
  5
855
330
1F
100
AcDbEntity
  8
2
  6
CONTINUOUS
370
25
 62
7
100
AcDbLine
 10
48.40000000000001
 20
-13.0
 30
0.0
 11
43.40000000000001
 21
-14.0
 31
0.0
  0
LINE
  5
856
330
1F
100
AcDbEntity
  8
2
  6
CONTINUOUS
370
25
 62
7
100
AcDbLine
 10
43.40000000000001
 20
-14.0
 30
0.0
 11
43.40000000000001
 21
-12.0
 31
0.0
  0
LINE
  5
857
330
1F
100
AcDbEntity
  8
2
  6
CONTINUOUS
370
25
 62
7
100
AcDbLine
 10
43.40000000000001
 20
-12.0
 30
0.0
 11
48.40000000000001
 21
-13.0
 31
0.0
  0
LINE
  5
858
330
1F
100
AcDbEntity
  8
2
  6
CONTINUOUS
370
25
 62
7
100
AcDbLine
 10
48.15391714945693
 20
-13.04921657010861
 30
0.0
 11
48.23594476630463
 21
-12.96718895326092
 31
0.0
  0
LINE
  5
859
330
1F
100
AcDbEntity
  8
2
  6
CONTINUOUS
370
25
 62
7
100
AcDbLine
 10
47.62358706356702
 20
-13.1552825872866
 30
0.0
 11
47.88239137571135
 21
-12.89647827514227
 31
0.0
  0
LINE
  5
85A
330
1F
100
AcDbEntity
  8
2
  6
CONTINUOUS
370
25
 62
7
100
AcDbLine
 10
47.09325697767711
 20
-13.26134860446458
 30
0.0
 11
47.52883798511807
 21
-12.82576759702362
 31
0.0
  0
LINE
  5
85B
330
1F
100
AcDbEntity
  8
2
  6
CONTINUOUS
370
25
 62
7
100
AcDbLine
 10
46.56292689178721
 20
-13.36741462164256
 30
0.0
 11
47.1752845945248
 21
-12.75505691890496
 31
0.0
  0
LINE
  5
85C
330
1F
100
AcDbEntity
  8
2
  6
CONTINUOUS
370
25
 62
7
100
AcDbLine
 10
46.0325968058973
 20
-13.47348063882054
 30
0.0
 11
46.82173120393153
 21
-12.68434624078631
 31
0.0
  0
LINE
  5
85D
330
1F
100
AcDbEntity
  8
2
  6
CONTINUOUS
370
25
 62
7
100
AcDbLine
 10
45.50226672000738
 20
-13.57954665599852
 30
0.0
 11
46.46817781333826
 21
-12.61363556266765
 31
0.0
  0
LINE
  5
85E
330
1F
100
AcDbEntity
  8
2
  6
CONTINUOUS
370
25
 62
7
100
AcDbLine
 10
44.97193663411748
 20
-13.68561267317651
 30
0.0
 11
46.11462442274498
 21
-12.542924884549
 31
0.0
  0
LINE
  5
85F
330
1F
100
AcDbEntity
  8
2
  6
CONTINUOUS
370
25
 62
7
100
AcDbLine
 10
44.44160654822757
 20
-13.79167869035449
 30
0.0
 11
45.76107103215171
 21
-12.47221420643034
 31
0.0
  0
LINE
  5
860
330
1F
100
AcDbEntity
  8
2
  6
CONTINUOUS
370
25
 62
7
100
AcDbLine
 10
43.91127646233765
 20
-13.89774470753247
 30
0.0
 11
45.40751764155844
 21
-12.40150352831169
 31
0.0
  0
LINE
  5
861
330
1F
100
AcDbEntity
  8
2
  6
CONTINUOUS
370
25
 62
7
100
AcDbLine
 10
43.40000000000001
 20
-13.9847571011582
 30
0.0
 11
45.05396425096517
 21
-12.33079285019303
 31
0.0
  0
LINE
  5
862
330
1F
100
AcDbEntity
  8
2
  6
CONTINUOUS
370
25
 62
7
100
AcDbLine
 10
43.40000000000001
 20
-13.56049303244627
 30
0.0
 11
44.70041086037189
 21
-12.26008217207438
 31
0.0
  0
LINE
  5
863
330
1F
100
AcDbEntity
  8
2
  6
CONTINUOUS
370
25
 62
7
100
AcDbLine
 10
43.40000000000001
 20
-13.13622896373434
 30
0.0
 11
44.34685746977862
 21
-12.18937149395572
 31
0.0
  0
LINE
  5
864
330
1F
100
AcDbEntity
  8
2
  6
CONTINUOUS
370
25
 62
7
100
AcDbLine
 10
43.40000000000001
 20
-12.71196489502241
 30
0.0
 11
43.99330407918535
 21
-12.11866081583707
 31
0.0
  0
LINE
  5
865
330
1F
100
AcDbEntity
  8
2
  6
CONTINUOUS
370
25
 62
7
100
AcDbLine
 10
43.40000000000001
 20
-12.28770082631049
 30
0.0
 11
43.63975068859207
 21
-12.04795013771841
 31
0.0
  0
LINE
  5
866
330
1F
100
AcDbEntity
  8
2
  6
CONTINUOUS
370
25
 62
7
100
AcDbLine
 10
43.40000000000001
 20
-13.61633715516197
 30
0.0
 11
43.71971903736502
 21
-13.936056192527
 31
0.0
  0
LINE
  5
867
330
1F
100
AcDbEntity
  8
2
  6
CONTINUOUS
370
25
 62
7
100
AcDbLine
 10
43.40000000000001
 20
-13.19207308645004
 30
0.0
 11
44.0732724279583
 21
-13.86534551440834
 31
0.0
  0
LINE
  5
868
330
1F
100
AcDbEntity
  8
2
  6
CONTINUOUS
370
25
 62
7
100
AcDbLine
 10
43.40000000000001
 20
-12.76780901773812
 30
0.0
 11
44.42682581855157
 21
-13.79463483628968
 31
0.0
  0
LINE
  5
869
330
1F
100
AcDbEntity
  8
2
  6
CONTINUOUS
370
25
 62
7
100
AcDbLine
 10
43.40000000000001
 20
-12.34354494902619
 30
0.0
 11
44.78037920914484
 21
-13.72392415817103
 31
0.0
  0
LINE
  5
86A
330
1F
100
AcDbEntity
  8
2
  6
CONTINUOUS
370
25
 62
7
100
AcDbLine
 10
43.50089889960717
 20
-12.02017977992143
 30
0.0
 11
45.13393259973812
 21
-13.65321348005238
 31
0.0
  0
LINE
  5
86B
330
1F
100
AcDbEntity
  8
2
  6
CONTINUOUS
370
25
 62
7
100
AcDbLine
 10
44.03122898549709
 20
-12.12624579709942
 30
0.0
 11
45.48748599033139
 21
-13.58250280193372
 31
0.0
  0
LINE
  5
86C
330
1F
100
AcDbEntity
  8
2
  6
CONTINUOUS
370
25
 62
7
100
AcDbLine
 10
44.56155907138699
 20
-12.2323118142774
 30
0.0
 11
45.84103938092466
 21
-13.51179212381507
 31
0.0
  0
LINE
  5
86D
330
1F
100
AcDbEntity
  8
2
  6
CONTINUOUS
370
25
 62
7
100
AcDbLine
 10
45.0918891572769
 20
-12.33837783145538
 30
0.0
 11
46.19459277151794
 21
-13.44108144569641
 31
0.0
  0
LINE
  5
86E
330
1F
100
AcDbEntity
  8
2
  6
CONTINUOUS
370
25
 62
7
100
AcDbLine
 10
45.62221924316681
 20
-12.44444384863336
 30
0.0
 11
46.54814616211121
 21
-13.37037076757776
 31
0.0
  0
LINE
  5
86F
330
1F
100
AcDbEntity
  8
2
  6
CONTINUOUS
370
25
 62
7
100
AcDbLine
 10
46.15254932905673
 20
-12.55050986581134
 30
0.0
 11
46.90169955270449
 21
-13.2996600894591
 31
0.0
  0
LINE
  5
870
330
1F
100
AcDbEntity
  8
2
  6
CONTINUOUS
370
25
 62
7
100
AcDbLine
 10
46.68287941494663
 20
-12.65657588298933
 30
0.0
 11
47.25525294329776
 21
-13.22894941134045
 31
0.0
  0
LINE
  5
871
330
1F
100
AcDbEntity
  8
2
  6
CONTINUOUS
370
25
 62
7
100
AcDbLine
 10
47.21320950083655
 20
-12.76264190016731
 30
0.0
 11
47.60880633389103
 21
-13.15823873322179
 31
0.0
  0
LINE
  5
872
330
1F
100
AcDbEntity
  8
2
  6
CONTINUOUS
370
25
 62
7
100
AcDbLine
 10
47.74353958672646
 20
-12.86870791734529
 30
0.0
 11
47.9623597244843
 21
-13.08752805510314
 31
0.0
  0
LINE
  5
873
330
1F
100
AcDbEntity
  8
2
  6
CONTINUOUS
370
25
 62
7
100
AcDbLine
 10
48.27386967261637
 20
-12.97477393452327
 30
0.0
 11
48.31591311507758
 21
-13.01681737698448
 31
0.0
  0
LINE
  5
874
330
1F
100
AcDbEntity
  8
2
  6
CONTINUOUS
370
25
 62
7
100
AcDbLine
 10
50.0
 20
-13.0
 30
0.0
 11
55.0
 21
-12.0
 31
0.0
  0
LINE
  5
875
330
1F
100
AcDbEntity
  8
2
  6
CONTINUOUS
370
25
 62
7
100
AcDbLine
 10
55.0
 20
-12.0
 30
0.0
 11
55.0
 21
-14.0
 31
0.0
  0
LINE
  5
876
330
1F
100
AcDbEntity
  8
2
  6
CONTINUOUS
370
25
 62
7
100
AcDbLine
 10
55.0
 20
-14.0
 30
0.0
 11
50.0
 21
-13.0
 31
0.0
  0
LINE
  5
877
330
1F
100
AcDbEntity
  8
2
  6
CONTINUOUS
370
25
 62
7
100
AcDbLine
 10
54.90641735525872
 20
-13.98128347105175
 30
0.0
 11
55.0
 21
-13.88770082631047
 31
0.0
  0
LINE
  5
878
330
1F
100
AcDbEntity
  8
2
  6
CONTINUOUS
370
25
 62
7
100
AcDbLine
 10
54.55286396466545
 20
-13.91057279293309
 30
0.0
 11
55.0
 21
-13.46343675759854
 31
0.0
  0
LINE
  5
879
330
1F
100
AcDbEntity
  8
2
  6
CONTINUOUS
370
25
 62
7
100
AcDbLine
 10
54.19931057407218
 20
-13.83986211481444
 30
0.0
 11
55.0
 21
-13.03917268888662
 31
0.0
  0
LINE
  5
87A
330
1F
100
AcDbEntity
  8
2
  6
CONTINUOUS
370
25
 62
7
100
AcDbLine
 10
53.84575718347891
 20
-13.76915143669578
 30
0.0
 11
55.0
 21
-12.61490862017469
 31
0.0
  0
LINE
  5
87B
330
1F
100
AcDbEntity
  8
2
  6
CONTINUOUS
370
25
 62
7
100
AcDbLine
 10
53.49220379288563
 20
-13.69844075857713
 30
0.0
 11
55.0
 21
-12.19064455146276
 31
0.0
  0
LINE
  5
87C
330
1F
100
AcDbEntity
  8
2
  6
CONTINUOUS
370
25
 62
7
100
AcDbLine
 10
53.13865040229236
 20
-13.62773008045847
 30
0.0
 11
54.70797560343854
 21
-12.05840487931229
 31
0.0
  0
LINE
  5
87D
330
1F
100
AcDbEntity
  8
2
  6
CONTINUOUS
370
25
 62
7
100
AcDbLine
 10
52.78509701169909
 20
-13.55701940233982
 30
0.0
 11
54.17764551754863
 21
-12.16447089649028
 31
0.0
  0
LINE
  5
87E
330
1F
100
AcDbEntity
  8
2
  6
CONTINUOUS
370
25
 62
7
100
AcDbLine
 10
52.43154362110582
 20
-13.48630872422116
 30
0.0
 11
53.64731543165873
 21
-12.27053691366826
 31
0.0
  0
LINE
  5
87F
330
1F
100
AcDbEntity
  8
2
  6
CONTINUOUS
370
25
 62
7
100
AcDbLine
 10
52.07799023051254
 20
-13.41559804610251
 30
0.0
 11
53.11698534576881
 21
-12.37660293084624
 31
0.0
  0
LINE
  5
880
330
1F
100
AcDbEntity
  8
2
  6
CONTINUOUS
370
25
 62
7
100
AcDbLine
 10
51.72443683991926
 20
-13.34488736798385
 30
0.0
 11
52.5866552598789
 21
-12.48266894802422
 31
0.0
  0
LINE
  5
881
330
1F
100
AcDbEntity
  8
2
  6
CONTINUOUS
370
25
 62
7
100
AcDbLine
 10
51.37088344932599
 20
-13.2741766898652
 30
0.0
 11
52.05632517398899
 21
-12.5887349652022
 31
0.0
  0
LINE
  5
882
330
1F
100
AcDbEntity
  8
2
  6
CONTINUOUS
370
25
 62
7
100
AcDbLine
 10
51.01733005873272
 20
-13.20346601174655
 30
0.0
 11
51.52599508809908
 21
-12.69480098238019
 31
0.0
  0
LINE
  5
883
330
1F
100
AcDbEntity
  8
2
  6
CONTINUOUS
370
25
 62
7
100
AcDbLine
 10
50.66377666813945
 20
-13.13275533362789
 30
0.0
 11
50.99566500220917
 21
-12.80086699955817
 31
0.0
  0
LINE
  5
884
330
1F
100
AcDbEntity
  8
2
  6
CONTINUOUS
370
25
 62
7
100
AcDbLine
 10
50.31022327754617
 20
-13.06204465550924
 30
0.0
 11
50.46533491631926
 21
-12.90693301673615
 31
0.0
  0
LINE
  5
885
330
1F
100
AcDbEntity
  8
2
  6
CONTINUOUS
370
25
 62
7
100
AcDbLine
 10
50.03663823572585
 20
-12.99267235285483
 30
0.0
 11
50.05495735358878
 21
-13.01099147071776
 31
0.0
  0
LINE
  5
886
330
1F
100
AcDbEntity
  8
2
  6
CONTINUOUS
370
25
 62
7
100
AcDbLine
 10
50.39019162631913
 20
-12.92196167473618
 30
0.0
 11
50.58528743947869
 21
-13.11705748789574
 31
0.0
  0
LINE
  5
887
330
1F
100
AcDbEntity
  8
2
  6
CONTINUOUS
370
25
 62
7
100
AcDbLine
 10
50.7437450169124
 20
-12.85125099661752
 30
0.0
 11
51.1156175253686
 21
-13.22312350507372
 31
0.0
  0
LINE
  5
888
330
1F
100
AcDbEntity
  8
2
  6
CONTINUOUS
370
25
 62
7
100
AcDbLine
 10
51.09729840750568
 20
-12.78054031849887
 30
0.0
 11
51.64594761125851
 21
-13.3291895222517
 31
0.0
  0
LINE
  5
889
330
1F
100
AcDbEntity
  8
2
  6
CONTINUOUS
370
25
 62
7
100
AcDbLine
 10
51.45085179809895
 20
-12.70982964038021
 30
0.0
 11
52.17627769714842
 21
-13.43525553942968
 31
0.0
  0
LINE
  5
88A
330
1F
100
AcDbEntity
  8
2
  6
CONTINUOUS
370
25
 62
7
100
AcDbLine
 10
51.80440518869221
 20
-12.63911896226156
 30
0.0
 11
52.70660778303833
 21
-13.54132155660767
 31
0.0
  0
LINE
  5
88B
330
1F
100
AcDbEntity
  8
2
  6
CONTINUOUS
370
25
 62
7
100
AcDbLine
 10
52.15795857928549
 20
-12.5684082841429
 30
0.0
 11
53.23693786892824
 21
-13.64738757378565
 31
0.0
  0
LINE
  5
88C
330
1F
100
AcDbEntity
  8
2
  6
CONTINUOUS
370
25
 62
7
100
AcDbLine
 10
52.51151196987877
 20
-12.49769760602425
 30
0.0
 11
53.76726795481815
 21
-13.75345359096363
 31
0.0
  0
LINE
  5
88D
330
1F
100
AcDbEntity
  8
2
  6
CONTINUOUS
370
25
 62
7
100
AcDbLine
 10
52.86506536047204
 20
-12.4269869279056
 30
0.0
 11
54.29759804070807
 21
-13.85951960814161
 31
0.0
  0
LINE
  5
88E
330
1F
100
AcDbEntity
  8
2
  6
CONTINUOUS
370
25
 62
7
100
AcDbLine
 10
53.21861875106531
 20
-12.35627624978694
 30
0.0
 11
54.82792812659797
 21
-13.96558562531959
 31
0.0
  0
LINE
  5
88F
330
1F
100
AcDbEntity
  8
2
  6
CONTINUOUS
370
25
 62
7
100
AcDbLine
 10
53.57217214165858
 20
-12.28556557166828
 30
0.0
 11
55.0
 21
-13.7133934300097
 31
0.0
  0
LINE
  5
890
330
1F
100
AcDbEntity
  8
2
  6
CONTINUOUS
370
25
 62
7
100
AcDbLine
 10
53.92572553225186
 20
-12.21485489354963
 30
0.0
 11
55.0
 21
-13.28912936129777
 31
0.0
  0
LINE
  5
891
330
1F
100
AcDbEntity
  8
2
  6
CONTINUOUS
370
25
 62
7
100
AcDbLine
 10
54.27927892284514
 20
-12.14414421543098
 30
0.0
 11
55.0
 21
-12.86486529258584
 31
0.0
  0
LINE
  5
892
330
1F
100
AcDbEntity
  8
2
  6
CONTINUOUS
370
25
 62
7
100
AcDbLine
 10
54.63283231343841
 20
-12.07343353731232
 30
0.0
 11
55.0
 21
-12.44060122387391
 31
0.0
  0
LINE
  5
893
330
1F
100
AcDbEntity
  8
2
  6
CONTINUOUS
370
25
 62
7
100
AcDbLine
 10
54.98638570403168
 20
-12.00272285919366
 30
0.0
 11
55.0
 21
-12.01633715516198
 31
0.0
  0
TEXT
  5
894
330
1F
100
AcDbEntity
  8
2
  6
CONTINUOUS
370
25
 62
7
100
AcDbText
 10
57.54583333333333
 20
-11.5
 30
0.0
 40
3.5
  1
1.6
 72
     1
 11
60.4625
 21
-11.5
 31
0.0
100
AcDbText
  0
LINE
  5
895
330
1F
100
AcDbEntity
  8
2
  6
CONTINUOUS
370
25
 62
7
100
AcDbLine
 10
35.7
 20
0.0
 30
0.0
 11
35.7
 21
28.39995
 31
0.0
  0
LINE
  5
896
330
1F
100
AcDbEntity
  8
2
  6
CONTINUOUS
370
25
 62
7
100
AcDbLine
 10
50.00000000000001
 20
28.39995
 30
0.0
 11
50.0
 21
0.7999999999999972
 31
0.0
  0
LINE
  5
897
330
1F
100
AcDbEntity
  8
2
  6
CONTINUOUS
370
25
 62
7
100
AcDbLine
 10
28.7
 20
27.39995
 30
0.0
 11
57.0
 21
27.39995
 31
0.0
  0
LINE
  5
898
330
1F
100
AcDbEntity
  8
2
  6
CONTINUOUS
370
25
 62
7
100
AcDbLine
 10
35.7
 20
27.39995
 30
0.0
 11
30.7
 21
26.39995
 31
0.0
  0
LINE
  5
899
330
1F
100
AcDbEntity
  8
2
  6
CONTINUOUS
370
25
 62
7
100
AcDbLine
 10
30.7
 20
26.39995
 30
0.0
 11
30.7
 21
28.39995
 31
0.0
  0
LINE
  5
89A
330
1F
100
AcDbEntity
  8
2
  6
CONTINUOUS
370
25
 62
7
100
AcDbLine
 10
30.7
 20
28.39995
 30
0.0
 11
35.7
 21
27.39995
 31
0.0
  0
LINE
  5
89B
330
1F
100
AcDbEntity
  8
2
  6
CONTINUOUS
370
25
 62
7
100
AcDbLine
 10
35.47848191715585
 20
27.35564638343116
 30
0.0
 11
35.5523212781039
 21
27.42948574437922
 31
0.0
  0
LINE
  5
89C
330
1F
100
AcDbEntity
  8
2
  6
CONTINUOUS
370
25
 62
7
100
AcDbLine
 10
34.94815183126593
 20
27.24958036625318
 30
0.0
 11
35.19876788751062
 21
27.50019642249787
 31
0.0
  0
LINE
  5
89D
330
1F
100
AcDbEntity
  8
2
  6
CONTINUOUS
370
25
 62
7
100
AcDbLine
 10
34.41782174537602
 20
27.1435143490752
 30
0.0
 11
34.84521449691735
 21
27.57090710061653
 31
0.0
  0
LINE
  5
89E
330
1F
100
AcDbEntity
  8
2
  6
CONTINUOUS
370
25
 62
7
100
AcDbLine
 10
33.88749165948611
 20
27.03744833189722
 30
0.0
 11
34.49166110632407
 21
27.64161777873518
 31
0.0
  0
LINE
  5
89F
330
1F
100
AcDbEntity
  8
2
  6
CONTINUOUS
370
25
 62
7
100
AcDbLine
 10
33.3571615735962
 20
26.93138231471924
 30
0.0
 11
34.1381077157308
 21
27.71232845685384
 31
0.0
  0
LINE
  5
8A0
330
1F
100
AcDbEntity
  8
2
  6
CONTINUOUS
370
25
 62
7
100
AcDbLine
 10
32.82683148770629
 20
26.82531629754126
 30
0.0
 11
33.78455432513753
 21
27.78303913497249
 31
0.0
  0
LINE
  5
8A1
330
1F
100
AcDbEntity
  8
2
  6
CONTINUOUS
370
25
 62
7
100
AcDbLine
 10
32.29650140181639
 20
26.71925028036327
 30
0.0
 11
33.43100093454426
 21
27.85374981309115
 31
0.0
  0
LINE
  5
8A2
330
1F
100
AcDbEntity
  8
2
  6
CONTINUOUS
370
25
 62
7
100
AcDbLine
 10
31.76617131592648
 20
26.61318426318529
 30
0.0
 11
33.07744754395098
 21
27.9244604912098
 31
0.0
  0
LINE
  5
8A3
330
1F
100
AcDbEntity
  8
2
  6
CONTINUOUS
370
25
 62
7
100
AcDbLine
 10
31.23584123003656
 20
26.50711824600731
 30
0.0
 11
32.7238941533577
 21
27.99517116932846
 31
0.0
  0
LINE
  5
8A4
330
1F
100
AcDbEntity
  8
2
  6
CONTINUOUS
370
25
 62
7
100
AcDbLine
 10
30.70551114414665
 20
26.40105222882933
 30
0.0
 11
32.37034076276444
 21
28.06588184744711
 31
0.0
  0
LINE
  5
8A5
330
1F
100
AcDbEntity
  8
2
  6
CONTINUOUS
370
25
 62
7
100
AcDbLine
 10
30.7
 20
26.81980515339461
 30
0.0
 11
32.01678737217116
 21
28.13659252556577
 31
0.0
  0
LINE
  5
8A6
330
1F
100
AcDbEntity
  8
2
  6
CONTINUOUS
370
25
 62
7
100
AcDbLine
 10
30.7
 20
27.24406922210653
 30
0.0
 11
31.66323398157789
 21
28.20730320368442
 31
0.0
  0
LINE
  5
8A7
330
1F
100
AcDbEntity
  8
2
  6
CONTINUOUS
370
25
 62
7
100
AcDbLine
 10
30.7
 20
27.66833329081847
 30
0.0
 11
31.30968059098461
 21
28.27801388180308
 31
0.0
  0
LINE
  5
8A8
330
1F
100
AcDbEntity
  8
2
  6
CONTINUOUS
370
25
 62
7
100
AcDbLine
 10
30.7
 20
28.0925973595304
 30
0.0
 11
30.95612720039134
 21
28.34872455992173
 31
0.0
  0
LINE
  5
8A9
330
1F
100
AcDbEntity
  8
2
  6
CONTINUOUS
370
25
 62
7
100
AcDbLine
 10
30.7
 20
26.63746750430832
 30
0.0
 11
30.89793125359027
 21
26.43953625071805
 31
0.0
  0
LINE
  5
8AA
330
1F
100
AcDbEntity
  8
2
  6
CONTINUOUS
370
25
 62
7
100
AcDbLine
 10
30.7
 20
27.06173157302024
 30
0.0
 11
31.25148464418354
 21
26.5102469288367
 31
0.0
  0
LINE
  5
8AB
330
1F
100
AcDbEntity
  8
2
  6
CONTINUOUS
370
25
 62
7
100
AcDbLine
 10
30.7
 20
27.48599564173217
 30
0.0
 11
31.60503803477681
 21
26.58095760695536
 31
0.0
  0
LINE
  5
8AC
330
1F
100
AcDbEntity
  8
2
  6
CONTINUOUS
370
25
 62
7
100
AcDbLine
 10
30.7
 20
27.91025971044409
 30
0.0
 11
31.95859142537008
 21
26.65166828507401
 31
0.0
  0
LINE
  5
8AD
330
1F
100
AcDbEntity
  8
2
  6
CONTINUOUS
370
25
 62
7
100
AcDbLine
 10
30.7
 20
28.33452377915602
 30
0.0
 11
32.31214481596336
 21
26.72237896319267
 31
0.0
  0
LINE
  5
8AE
330
1F
100
AcDbEntity
  8
2
  6
CONTINUOUS
370
25
 62
7
100
AcDbLine
 10
31.14854730983495
 20
28.31024053803301
 30
0.0
 11
32.66569820655663
 21
26.79308964131132
 31
0.0
  0
LINE
  5
8AF
330
1F
100
AcDbEntity
  8
2
  6
CONTINUOUS
370
25
 62
7
100
AcDbLine
 10
31.67887739572486
 20
28.20417452085503
 30
0.0
 11
33.01925159714991
 21
26.86380031942998
 31
0.0
  0
LINE
  5
8B0
330
1F
100
AcDbEntity
  8
2
  6
CONTINUOUS
370
25
 62
7
100
AcDbLine
 10
32.20920748161477
 20
28.09810850367704
 30
0.0
 11
33.37280498774318
 21
26.93451099754863
 31
0.0
  0
LINE
  5
8B1
330
1F
100
AcDbEntity
  8
2
  6
CONTINUOUS
370
25
 62
7
100
AcDbLine
 10
32.73953756750468
 20
27.99204248649906
 30
0.0
 11
33.72635837833645
 21
27.00522167566729
 31
0.0
  0
LINE
  5
8B2
330
1F
100
AcDbEntity
  8
2
  6
CONTINUOUS
370
25
 62
7
100
AcDbLine
 10
33.26986765339459
 20
27.88597646932108
 30
0.0
 11
34.07991176892973
 21
27.07593235378594
 31
0.0
  0
LINE
  5
8B3
330
1F
100
AcDbEntity
  8
2
  6
CONTINUOUS
370
25
 62
7
100
AcDbLine
 10
33.80019773928451
 20
27.7799104521431
 30
0.0
 11
34.433465159523
 21
27.1466430319046
 31
0.0
  0
LINE
  5
8B4
330
1F
100
AcDbEntity
  8
2
  6
CONTINUOUS
370
25
 62
7
100
AcDbLine
 10
34.33052782517442
 20
27.67384443496512
 30
0.0
 11
34.78701855011628
 21
27.21735371002325
 31
0.0
  0
LINE
  5
8B5
330
1F
100
AcDbEntity
  8
2
  6
CONTINUOUS
370
25
 62
7
100
AcDbLine
 10
34.86085791106433
 20
27.56777841778713
 30
0.0
 11
35.14057194070956
 21
27.28806438814191
 31
0.0
  0
LINE
  5
8B6
330
1F
100
AcDbEntity
  8
2
  6
CONTINUOUS
370
25
 62
7
100
AcDbLine
 10
35.39118799695424
 20
27.46171240060915
 30
0.0
 11
35.49412533130283
 21
27.35877506626056
 31
0.0
  0
LINE
  5
8B7
330
1F
100
AcDbEntity
  8
2
  6
CONTINUOUS
370
25
 62
7
100
AcDbLine
 10
50.00000000000001
 20
27.39995
 30
0.0
 11
55.00000000000001
 21
28.39995
 31
0.0
  0
LINE
  5
8B8
330
1F
100
AcDbEntity
  8
2
  6
CONTINUOUS
370
25
 62
7
100
AcDbLine
 10
55.00000000000001
 20
28.39995
 30
0.0
 11
55.00000000000001
 21
26.39995
 31
0.0
  0
LINE
  5
8B9
330
1F
100
AcDbEntity
  8
2
  6
CONTINUOUS
370
25
 62
7
100
AcDbLine
 10
55.00000000000001
 20
26.39995
 30
0.0
 11
50.00000000000001
 21
27.39995
 31
0.0
  0
LINE
  5
8BA
330
1F
100
AcDbEntity
  8
2
  6
CONTINUOUS
370
25
 62
7
100
AcDbLine
 10
54.90621735991435
 20
26.41870652801713
 30
0.0
 11
55.00000000000001
 21
26.51248916810278
 31
0.0
  0
LINE
  5
8BB
330
1F
100
AcDbEntity
  8
2
  6
CONTINUOUS
370
25
 62
7
100
AcDbLine
 10
54.55266396932107
 20
26.48941720613578
 30
0.0
 11
55.00000000000001
 21
26.93675323681471
 31
0.0
  0
LINE
  5
8BC
330
1F
100
AcDbEntity
  8
2
  6
CONTINUOUS
370
25
 62
7
100
AcDbLine
 10
54.1991105787278
 20
26.56012788425443
 30
0.0
 11
55.00000000000001
 21
27.36101730552664
 31
0.0
  0
LINE
  5
8BD
330
1F
100
AcDbEntity
  8
2
  6
CONTINUOUS
370
25
 62
7
100
AcDbLine
 10
53.84555718813453
 20
26.63083856237309
 30
0.0
 11
55.00000000000001
 21
27.78528137423856
 31
0.0
  0
LINE
  5
8BE
330
1F
100
AcDbEntity
  8
2
  6
CONTINUOUS
370
25
 62
7
100
AcDbLine
 10
53.49200379754126
 20
26.70154924049174
 30
0.0
 11
55.00000000000001
 21
28.20954544295049
 31
0.0
  0
LINE
  5
8BF
330
1F
100
AcDbEntity
  8
2
  6
CONTINUOUS
370
25
 62
7
100
AcDbLine
 10
53.13845040694798
 20
26.7722599186104
 30
0.0
 11
54.70767561042197
 21
28.34148512208439
 31
0.0
  0
LINE
  5
8C0
330
1F
100
AcDbEntity
  8
2
  6
CONTINUOUS
370
25
 62
7
100
AcDbLine
 10
52.78489701635471
 20
26.84297059672905
 30
0.0
 11
54.17734552453206
 21
28.23541910490641
 31
0.0
  0
LINE
  5
8C1
330
1F
100
AcDbEntity
  8
2
  6
CONTINUOUS
370
25
 62
7
100
AcDbLine
 10
52.43134362576144
 20
26.91368127484771
 30
0.0
 11
53.64701543864216
 21
28.12935308772843
 31
0.0
  0
LINE
  5
8C2
330
1F
100
AcDbEntity
  8
2
  6
CONTINUOUS
370
25
 62
7
100
AcDbLine
 10
52.07779023516817
 20
26.98439195296637
 30
0.0
 11
53.11668535275224
 21
28.02328707055045
 31
0.0
  0
LINE
  5
8C3
330
1F
100
AcDbEntity
  8
2
  6
CONTINUOUS
370
25
 62
7
100
AcDbLine
 10
51.72423684457489
 20
27.05510263108502
 30
0.0
 11
52.58635526686233
 21
27.91722105337246
 31
0.0
  0
LINE
  5
8C4
330
1F
100
AcDbEntity
  8
2
  6
CONTINUOUS
370
25
 62
7
100
AcDbLine
 10
51.37068345398161
 20
27.12581330920367
 30
0.0
 11
52.05602518097242
 21
27.81115503619448
 31
0.0
  0
LINE
  5
8C5
330
1F
100
AcDbEntity
  8
2
  6
CONTINUOUS
370
25
 62
7
100
AcDbLine
 10
51.01713006338834
 20
27.19652398732233
 30
0.0
 11
51.52569509508251
 21
27.7050890190165
 31
0.0
  0
LINE
  5
8C6
330
1F
100
AcDbEntity
  8
2
  6
CONTINUOUS
370
25
 62
7
100
AcDbLine
 10
50.66357667279507
 20
27.26723466544098
 30
0.0
 11
50.9953650091926
 21
27.59902300183852
 31
0.0
  0
LINE
  5
8C7
330
1F
100
AcDbEntity
  8
2
  6
CONTINUOUS
370
25
 62
7
100
AcDbLine
 10
50.31002328220179
 20
27.33794534355964
 30
0.0
 11
50.46503492330269
 21
27.49295698466053
 31
0.0
  0
LINE
  5
8C8
330
1F
100
AcDbEntity
  8
2
  6
CONTINUOUS
370
25
 62
7
100
AcDbLine
 10
50.25182733540076
 20
27.45031546708015
 30
0.0
 11
50.37774100310114
 21
27.32440179937977
 31
0.0
  0
LINE
  5
8C9
330
1F
100
AcDbEntity
  8
2
  6
CONTINUOUS
370
25
 62
7
100
AcDbLine
 10
50.60538072599404
 20
27.5210261451988
 30
0.0
 11
50.90807108899105
 21
27.21833578220178
 31
0.0
  0
LINE
  5
8CA
330
1F
100
AcDbEntity
  8
2
  6
CONTINUOUS
370
25
 62
7
100
AcDbLine
 10
50.95893411658731
 20
27.59173682331746
 30
0.0
 11
51.43840117488097
 21
27.1122697650238
 31
0.0
  0
LINE
  5
8CB
330
1F
100
AcDbEntity
  8
2
  6
CONTINUOUS
370
25
 62
7
100
AcDbLine
 10
51.31248750718058
 20
27.66244750143611
 30
0.0
 11
51.96873126077087
 21
27.00620374784582
 31
0.0
  0
LINE
  5
8CC
330
1F
100
AcDbEntity
  8
2
  6
CONTINUOUS
370
25
 62
7
100
AcDbLine
 10
51.66604089777385
 20
27.73315817955477
 30
0.0
 11
52.49906134666078
 21
26.90013773066784
 31
0.0
  0
LINE
  5
8CD
330
1F
100
AcDbEntity
  8
2
  6
CONTINUOUS
370
25
 62
7
100
AcDbLine
 10
52.01959428836712
 20
27.80386885767342
 30
0.0
 11
53.02939143255068
 21
26.79407171348986
 31
0.0
  0
LINE
  5
8CE
330
1F
100
AcDbEntity
  8
2
  6
CONTINUOUS
370
25
 62
7
100
AcDbLine
 10
52.3731476789604
 20
27.87457953579208
 30
0.0
 11
53.5597215184406
 21
26.68800569631188
 31
0.0
  0
LINE
  5
8CF
330
1F
100
AcDbEntity
  8
2
  6
CONTINUOUS
370
25
 62
7
100
AcDbLine
 10
52.72670106955368
 20
27.94529021391073
 30
0.0
 11
54.09005160433051
 21
26.5819396791339
 31
0.0
  0
LINE
  5
8D0
330
1F
100
AcDbEntity
  8
2
  6
CONTINUOUS
370
25
 62
7
100
AcDbLine
 10
53.08025446014695
 20
28.01600089202939
 30
0.0
 11
54.62038169022043
 21
26.47587366195591
 31
0.0
  0
LINE
  5
8D1
330
1F
100
AcDbEntity
  8
2
  6
CONTINUOUS
370
25
 62
7
100
AcDbLine
 10
53.43380785074022
 20
28.08671157014804
 30
0.0
 11
55.00000000000001
 21
26.52051942088826
 31
0.0
  0
LINE
  5
8D2
330
1F
100
AcDbEntity
  8
2
  6
CONTINUOUS
370
25
 62
7
100
AcDbLine
 10
53.7873612413335
 20
28.1574222482667
 30
0.0
 11
55.00000000000001
 21
26.94478348960019
 31
0.0
  0
LINE
  5
8D3
330
1F
100
AcDbEntity
  8
2
  6
CONTINUOUS
370
25
 62
7
100
AcDbLine
 10
54.14091463192678
 20
28.22813292638535
 30
0.0
 11
55.00000000000001
 21
27.36904755831212
 31
0.0
  0
LINE
  5
8D4
330
1F
100
AcDbEntity
  8
2
  6
CONTINUOUS
370
25
 62
7
100
AcDbLine
 10
54.49446802252005
 20
28.29884360450401
 30
0.0
 11
55.00000000000001
 21
27.79331162702405
 31
0.0
  0
LINE
  5
8D5
330
1F
100
AcDbEntity
  8
2
  6
CONTINUOUS
370
25
 62
7
100
AcDbLine
 10
54.84802141311332
 20
28.36955428262266
 30
0.0
 11
55.00000000000001
 21
28.21757569573597
 31
0.0
  0
TEXT
  5
8D6
330
1F
100
AcDbEntity
  8
2
  6
CONTINUOUS
370
25
 62
7
100
AcDbText
 10
38.18333333333334
 20
28.89995
 30
0.0
 40
3.5
  1
14.3
 72
     1
 11
42.85000000000001
 21
28.89995
 31
0.0
100
AcDbText
  0
LINE
  5
8D7
330
1F
100
AcDbEntity
  8
SK2
  6
CONTINUOUS
370
25
 62
7
100
AcDbLine
 10
0.0
 20
-0.0000500000000001
 30
0.0
 11
0.0
 21
38.39995
 31
0.0
  0
LINE
  5
8D8
330
1F
100
AcDbEntity
  8
SK2
  6
CONTINUOUS
370
25
 62
7
100
AcDbLine
 10
50.0
 20
38.39995
 30
0.0
 11
50.0
 21
0.7999999999999972
 31
0.0
  0
LINE
  5
8D9
330
1F
100
AcDbEntity
  8
SK2
  6
CONTINUOUS
370
25
 62
7
100
AcDbLine
 10
0.0
 20
37.39995
 30
0.0
 11
50.0
 21
37.39995
 31
0.0
  0
LINE
  5
8DA
330
1F
100
AcDbEntity
  8
SK2
  6
CONTINUOUS
370
25
 62
7
100
AcDbLine
 10
0.0
 20
37.39995
 30
0.0
 11
5.0
 21
38.39995
 31
0.0
  0
LINE
  5
8DB
330
1F
100
AcDbEntity
  8
SK2
  6
CONTINUOUS
370
25
 62
7
100
AcDbLine
 10
5.0
 20
38.39995
 30
0.0
 11
5.0
 21
36.39995
 31
0.0
  0
LINE
  5
8DC
330
1F
100
AcDbEntity
  8
SK2
  6
CONTINUOUS
370
25
 62
7
100
AcDbLine
 10
5.0
 20
36.39995
 30
0.0
 11
0.0
 21
37.39995
 31
0.0
  0
LINE
  5
8DD
330
1F
100
AcDbEntity
  8
SK2
  6
CONTINUOUS
370
25
 62
7
100
AcDbLine
 10
4.701635895669458
 20
36.4596228208661
 30
0.0
 11
5.0
 21
36.75798692519665
 31
0.0
  0
LINE
  5
8DE
330
1F
100
AcDbEntity
  8
SK2
  6
CONTINUOUS
370
25
 62
7
100
AcDbLine
 10
4.348082505076189
 20
36.53033349898476
 30
0.0
 11
5.0
 21
37.18225099390857
 31
0.0
  0
LINE
  5
8DF
330
1F
100
AcDbEntity
  8
SK2
  6
CONTINUOUS
370
25
 62
7
100
AcDbLine
 10
3.994529114482912
 20
36.60104417710342
 30
0.0
 11
5.0
 21
37.6065150626205
 31
0.0
  0
LINE
  5
8E0
330
1F
100
AcDbEntity
  8
SK2
  6
CONTINUOUS
370
25
 62
7
100
AcDbLine
 10
3.640975723889632
 20
36.67175485522207
 30
0.0
 11
5.0
 21
38.03077913133244
 31
0.0
  0
LINE
  5
8E1
330
1F
100
AcDbEntity
  8
SK2
  6
CONTINUOUS
370
25
 62
7
100
AcDbLine
 10
3.287422333296362
 20
36.74246553334072
 30
0.0
 11
4.931133499944551
 21
38.38617669998891
 31
0.0
  0
LINE
  5
8E2
330
1F
100
AcDbEntity
  8
SK2
  6
CONTINUOUS
370
25
 62
7
100
AcDbLine
 10
2.933868942703093
 20
36.81317621145939
 30
0.0
 11
4.400803414054632
 21
38.28011068281092
 31
0.0
  0
LINE
  5
8E3
330
1F
100
AcDbEntity
  8
SK2
  6
CONTINUOUS
370
25
 62
7
100
AcDbLine
 10
2.580315552109809
 20
36.88388688957804
 30
0.0
 11
3.870473328164714
 21
38.17404466563293
 31
0.0
  0
LINE
  5
8E4
330
1F
100
AcDbEntity
  8
SK2
  6
CONTINUOUS
370
25
 62
7
100
AcDbLine
 10
2.226762161516533
 20
36.95459756769669
 30
0.0
 11
3.340143242274806
 21
38.06797864845496
 31
0.0
  0
LINE
  5
8E5
330
1F
100
AcDbEntity
  8
SK2
  6
CONTINUOUS
370
25
 62
7
100
AcDbLine
 10
1.873208770923249
 20
37.02530824581534
 30
0.0
 11
2.809813156384884
 21
37.96191263127697
 31
0.0
  0
LINE
  5
8E6
330
1F
100
AcDbEntity
  8
SK2
  6
CONTINUOUS
370
25
 62
7
100
AcDbLine
 10
1.519655380329979
 20
37.096018923934
 30
0.0
 11
2.279483070494962
 21
37.85584661409899
 31
0.0
  0
LINE
  5
8E7
330
1F
100
AcDbEntity
  8
SK2
  6
CONTINUOUS
370
25
 62
7
100
AcDbLine
 10
1.166101989736696
 20
37.16672960205265
 30
0.0
 11
1.74915298460504
 21
37.749780596921
 31
0.0
  0
LINE
  5
8E8
330
1F
100
AcDbEntity
  8
SK2
  6
CONTINUOUS
370
25
 62
7
100
AcDbLine
 10
0.8125485991434189
 20
37.23744028017131
 30
0.0
 11
1.218822898715132
 21
37.64371457974303
 31
0.0
  0
LINE
  5
8E9
330
1F
100
AcDbEntity
  8
SK2
  6
CONTINUOUS
370
25
 62
7
100
AcDbLine
 10
0.4589952085501352
 20
37.30815095828996
 30
0.0
 11
0.6884928128252099
 21
37.53764856256504
 31
0.0
  0
LINE
  5
8EA
330
1F
100
AcDbEntity
  8
SK2
  6
CONTINUOUS
370
25
 62
7
100
AcDbLine
 10
0.1054418179568586
 20
37.37886163640862
 30
0.0
 11
0.1581627269352879
 21
37.43158254538705
 31
0.0
  0
LINE
  5
8EB
330
1F
100
AcDbEntity
  8
SK2
  6
CONTINUOUS
370
25
 62
7
100
AcDbLine
 10
0.0163765117992725
 20
37.40322530235985
 30
0.0
 11
0.0245647676989051
 21
37.39503704646022
 31
0.0
  0
LINE
  5
8EC
330
1F
100
AcDbEntity
  8
SK2
  6
CONTINUOUS
370
25
 62
7
100
AcDbLine
 10
0.3699299023925491
 20
37.47393598047851
 30
0.0
 11
0.5548948535888272
 21
37.28897102928223
 31
0.0
  0
LINE
  5
8ED
330
1F
100
AcDbEntity
  8
SK2
  6
CONTINUOUS
370
25
 62
7
100
AcDbLine
 10
0.7234832929858257
 20
37.54464665859716
 30
0.0
 11
1.085224939478735
 21
37.18290501210425
 31
0.0
  0
LINE
  5
8EE
330
1F
100
AcDbEntity
  8
SK2
  6
CONTINUOUS
370
25
 62
7
100
AcDbLine
 10
1.077036683579095
 20
37.61535733671582
 30
0.0
 11
1.615555025368643
 21
37.07683899492627
 31
0.0
  0
LINE
  5
8EF
330
1F
100
AcDbEntity
  8
SK2
  6
CONTINUOUS
370
25
 62
7
100
AcDbLine
 10
1.430590074172372
 20
37.68606801483448
 30
0.0
 11
2.145885111258558
 21
36.97077297774828
 31
0.0
  0
LINE
  5
8F0
330
1F
100
AcDbEntity
  8
SK2
  6
CONTINUOUS
370
25
 62
7
100
AcDbLine
 10
1.784143464765656
 20
37.75677869295313
 30
0.0
 11
2.676215197148473
 21
36.8647069605703
 31
0.0
  0
LINE
  5
8F1
330
1F
100
AcDbEntity
  8
SK2
  6
CONTINUOUS
370
25
 62
7
100
AcDbLine
 10
2.137696855358932
 20
37.82748937107178
 30
0.0
 11
3.206545283038388
 21
36.75864094339232
 31
0.0
  0
LINE
  5
8F2
330
1F
100
AcDbEntity
  8
SK2
  6
CONTINUOUS
370
25
 62
7
100
AcDbLine
 10
2.491250245952209
 20
37.89820004919044
 30
0.0
 11
3.736875368928303
 21
36.65257492621433
 31
0.0
  0
LINE
  5
8F3
330
1F
100
AcDbEntity
  8
SK2
  6
CONTINUOUS
370
25
 62
7
100
AcDbLine
 10
2.844803636545485
 20
37.96891072730909
 30
0.0
 11
4.267205454818214
 21
36.54650890903635
 31
0.0
  0
LINE
  5
8F4
330
1F
100
AcDbEntity
  8
SK2
  6
CONTINUOUS
370
25
 62
7
100
AcDbLine
 10
3.198357027138762
 20
38.03962140542775
 30
0.0
 11
4.797535540708129
 21
36.44044289185837
 31
0.0
  0
LINE
  5
8F5
330
1F
100
AcDbEntity
  8
SK2
  6
CONTINUOUS
370
25
 62
7
100
AcDbLine
 10
3.551910417732039
 20
38.1103320835464
 30
0.0
 11
5.0
 21
36.66224250127843
 31
0.0
  0
LINE
  5
8F6
330
1F
100
AcDbEntity
  8
SK2
  6
CONTINUOUS
370
25
 62
7
100
AcDbLine
 10
3.905463808325315
 20
38.18104276166505
 30
0.0
 11
5.0
 21
37.08650656999036
 31
0.0
  0
LINE
  5
8F7
330
1F
100
AcDbEntity
  8
SK2
  6
CONTINUOUS
370
25
 62
7
100
AcDbLine
 10
4.259017198918588
 20
38.25175343978371
 30
0.0
 11
5.0
 21
37.5107706387023
 31
0.0
  0
LINE
  5
8F8
330
1F
100
AcDbEntity
  8
SK2
  6
CONTINUOUS
370
25
 62
7
100
AcDbLine
 10
4.612570589511865
 20
38.32246411790237
 30
0.0
 11
5.0
 21
37.93503470741423
 31
0.0
  0
LINE
  5
8F9
330
1F
100
AcDbEntity
  8
SK2
  6
CONTINUOUS
370
25
 62
7
100
AcDbLine
 10
4.966123980105142
 20
38.39317479602103
 30
0.0
 11
5.0
 21
38.35929877612617
 31
0.0
  0
LINE
  5
8FA
330
1F
100
AcDbEntity
  8
SK2
  6
CONTINUOUS
370
25
 62
7
100
AcDbLine
 10
50.0
 20
37.39995
 30
0.0
 11
45.0
 21
36.39995
 31
0.0
  0
LINE
  5
8FB
330
1F
100
AcDbEntity
  8
SK2
  6
CONTINUOUS
370
25
 62
7
100
AcDbLine
 10
45.0
 20
36.39995
 30
0.0
 11
45.0
 21
38.39995
 31
0.0
  0
LINE
  5
8FC
330
1F
100
AcDbEntity
  8
SK2
  6
CONTINUOUS
370
25
 62
7
100
AcDbLine
 10
45.0
 20
38.39995
 30
0.0
 11
50.0
 21
37.39995
 31
0.0
  0
LINE
  5
8FD
330
1F
100
AcDbEntity
  8
SK2
  6
CONTINUOUS
370
25
 62
7
100
AcDbLine
 10
49.70678277605499
 20
37.34130655521099
 30
0.0
 11
49.80452185070332
 21
37.43904562985934
 31
0.0
  0
LINE
  5
8FE
330
1F
100
AcDbEntity
  8
SK2
  6
CONTINUOUS
370
25
 62
7
100
AcDbLine
 10
49.17645269016508
 20
37.23524053803301
 30
0.0
 11
49.45096846011005
 21
37.50975630797799
 31
0.0
  0
LINE
  5
8FF
330
1F
100
AcDbEntity
  8
SK2
  6
CONTINUOUS
370
25
 62
7
100
AcDbLine
 10
48.64612260427516
 20
37.12917452085503
 30
0.0
 11
49.09741506951678
 21
37.58046698609664
 31
0.0
  0
LINE
  5
900
330
1F
100
AcDbEntity
  8
SK2
  6
CONTINUOUS
370
25
 62
7
100
AcDbLine
 10
48.11579251838525
 20
37.02310850367705
 30
0.0
 11
48.7438616789235
 21
37.6511776642153
 31
0.0
  0
LINE
  5
901
330
1F
100
AcDbEntity
  8
SK2
  6
CONTINUOUS
370
25
 62
7
100
AcDbLine
 10
47.58546243249534
 20
36.91704248649906
 30
0.0
 11
48.39030828833022
 21
37.72188834233395
 31
0.0
  0
LINE
  5
902
330
1F
100
AcDbEntity
  8
SK2
  6
CONTINUOUS
370
25
 62
7
100
AcDbLine
 10
47.05513234660543
 20
36.81097646932108
 30
0.0
 11
48.03675489773695
 21
37.79259902045261
 31
0.0
  0
LINE
  5
903
330
1F
100
AcDbEntity
  8
SK2
  6
CONTINUOUS
370
25
 62
7
100
AcDbLine
 10
46.52480226071551
 20
36.7049104521431
 30
0.0
 11
47.68320150714367
 21
37.86330969857126
 31
0.0
  0
LINE
  5
904
330
1F
100
AcDbEntity
  8
SK2
  6
CONTINUOUS
370
25
 62
7
100
AcDbLine
 10
45.9944721748256
 20
36.59884443496512
 30
0.0
 11
47.32964811655039
 21
37.93402037668992
 31
0.0
  0
LINE
  5
905
330
1F
100
AcDbEntity
  8
SK2
  6
CONTINUOUS
370
25
 62
7
100
AcDbLine
 10
45.46414208893569
 20
36.49277841778714
 30
0.0
 11
46.97609472595713
 21
38.00473105480857
 31
0.0
  0
LINE
  5
906
330
1F
100
AcDbEntity
  8
SK2
  6
CONTINUOUS
370
25
 62
7
100
AcDbLine
 10
45.0
 20
36.45290039756338
 30
0.0
 11
46.62254133536385
 21
38.07544173292723
 31
0.0
  0
LINE
  5
907
330
1F
100
AcDbEntity
  8
SK2
  6
CONTINUOUS
370
25
 62
7
100
AcDbLine
 10
45.0
 20
36.87716446627531
 30
0.0
 11
46.26898794477057
 21
38.14615241104588
 31
0.0
  0
LINE
  5
908
330
1F
100
AcDbEntity
  8
SK2
  6
CONTINUOUS
370
25
 62
7
100
AcDbLine
 10
45.0
 20
37.30142853498724
 30
0.0
 11
45.9154345541773
 21
38.21686308916454
 31
0.0
  0
LINE
  5
909
330
1F
100
AcDbEntity
  8
SK2
  6
CONTINUOUS
370
25
 62
7
100
AcDbLine
 10
45.0
 20
37.72569260369917
 30
0.0
 11
45.56188116358402
 21
38.28757376728319
 31
0.0
  0
LINE
  5
90A
330
1F
100
AcDbEntity
  8
SK2
  6
CONTINUOUS
370
25
 62
7
100
AcDbLine
 10
45.0
 20
38.14995667241111
 30
0.0
 11
45.20832777299074
 21
38.35828444540185
 31
0.0
  0
LINE
  5
90B
330
1F
100
AcDbEntity
  8
SK2
  6
CONTINUOUS
370
25
 62
7
100
AcDbLine
 10
45.0
 20
36.52051942088826
 30
0.0
 11
45.10047451740688
 21
36.42004490348137
 31
0.0
  0
LINE
  5
90C
330
1F
100
AcDbEntity
  8
SK2
  6
CONTINUOUS
370
25
 62
7
100
AcDbLine
 10
45.0
 20
36.94478348960018
 30
0.0
 11
45.45402790800016
 21
36.49075558160003
 31
0.0
  0
LINE
  5
90D
330
1F
100
AcDbEntity
  8
SK2
  6
CONTINUOUS
370
25
 62
7
100
AcDbLine
 10
45.0
 20
37.36904755831212
 30
0.0
 11
45.80758129859343
 21
36.56146625971869
 31
0.0
  0
LINE
  5
90E
330
1F
100
AcDbEntity
  8
SK2
  6
CONTINUOUS
370
25
 62
7
100
AcDbLine
 10
45.0
 20
37.79331162702405
 30
0.0
 11
46.16113468918671
 21
36.63217693783734
 31
0.0
  0
LINE
  5
90F
330
1F
100
AcDbEntity
  8
SK2
  6
CONTINUOUS
370
25
 62
7
100
AcDbLine
 10
45.0
 20
38.21757569573597
 30
0.0
 11
46.51468807977998
 21
36.70288761595599
 31
0.0
  0
LINE
  5
910
330
1F
100
AcDbEntity
  8
SK2
  6
CONTINUOUS
370
25
 62
7
100
AcDbLine
 10
45.30236220555989
 20
38.33947755888802
 30
0.0
 11
46.86824147037326
 21
36.77359829407465
 31
0.0
  0
LINE
  5
911
330
1F
100
AcDbEntity
  8
SK2
  6
CONTINUOUS
370
25
 62
7
100
AcDbLine
 10
45.8326922914498
 20
38.23341154171003
 30
0.0
 11
47.22179486096654
 21
36.8443089721933
 31
0.0
  0
LINE
  5
912
330
1F
100
AcDbEntity
  8
SK2
  6
CONTINUOUS
370
25
 62
7
100
AcDbLine
 10
46.36302237733972
 20
38.12734552453205
 30
0.0
 11
47.57534825155981
 21
36.91501965031196
 31
0.0
  0
LINE
  5
913
330
1F
100
AcDbEntity
  8
SK2
  6
CONTINUOUS
370
25
 62
7
100
AcDbLine
 10
46.89335246322963
 20
38.02127950735407
 30
0.0
 11
47.92890164215309
 21
36.98573032843061
 31
0.0
  0
LINE
  5
914
330
1F
100
AcDbEntity
  8
SK2
  6
CONTINUOUS
370
25
 62
7
100
AcDbLine
 10
47.42368254911954
 20
37.91521349017609
 30
0.0
 11
48.28245503274636
 21
37.05644100654927
 31
0.0
  0
LINE
  5
915
330
1F
100
AcDbEntity
  8
SK2
  6
CONTINUOUS
370
25
 62
7
100
AcDbLine
 10
47.95401263500946
 20
37.80914747299811
 30
0.0
 11
48.63600842333964
 21
37.12715168466792
 31
0.0
  0
LINE
  5
916
330
1F
100
AcDbEntity
  8
SK2
  6
CONTINUOUS
370
25
 62
7
100
AcDbLine
 10
48.48434272089936
 20
37.70308145582013
 30
0.0
 11
48.98956181393291
 21
37.19786236278658
 31
0.0
  0
LINE
  5
917
330
1F
100
AcDbEntity
  8
SK2
  6
CONTINUOUS
370
25
 62
7
100
AcDbLine
 10
49.01467280678928
 20
37.59701543864215
 30
0.0
 11
49.34311520452619
 21
37.26857304090523
 31
0.0
  0
LINE
  5
918
330
1F
100
AcDbEntity
  8
SK2
  6
CONTINUOUS
370
25
 62
7
100
AcDbLine
 10
49.54500289267919
 20
37.49094942146416
 30
0.0
 11
49.69666859511946
 21
37.33928371902389
 31
0.0
  0
TEXT
  5
919
330
1F
100
AcDbEntity
  8
SK2
  6
CONTINUOUS
370
25
 62
7
100
AcDbText
 10
22.375
 20
38.89995
 30
0.0
 40
3.5
  1
50
 72
     1
 11
25.0
 21
38.89995
 31
0.0
100
AcDbText
  0
LINE
  5
91A
330
1F
100
AcDbEntity
  8
2
  6
CONTINUOUS
370
25
 62
7
100
AcDbLine
 10
40.0
 20
-0.95995
 30
0.0
 11
40.0
 21
-24.0
 31
0.0
  0
LINE
  5
91B
330
1F
100
AcDbEntity
  8
2
  6
CONTINUOUS
370
25
 62
7
100
AcDbLine
 10
50.0
 20
-24.0
 30
0.0
 11
50.0
 21
-0.8000000000000007
 31
0.0
  0
LINE
  5
91C
330
1F
100
AcDbEntity
  8
2
  6
CONTINUOUS
370
25
 62
7
100
AcDbLine
 10
33.0
 20
-23.0
 30
0.0
 11
57.0
 21
-23.0
 31
0.0
  0
LINE
  5
91D
330
1F
100
AcDbEntity
  8
2
  6
CONTINUOUS
370
25
 62
7
100
AcDbLine
 10
40.0
 20
-23.0
 30
0.0
 11
35.0
 21
-24.0
 31
0.0
  0
LINE
  5
91E
330
1F
100
AcDbEntity
  8
2
  6
CONTINUOUS
370
25
 62
7
100
AcDbLine
 10
35.0
 20
-24.0
 30
0.0
 11
35.0
 21
-22.0
 31
0.0
  0
LINE
  5
91F
330
1F
100
AcDbEntity
  8
2
  6
CONTINUOUS
370
25
 62
7
100
AcDbLine
 10
35.0
 20
-22.0
 30
0.0
 11
40.0
 21
-23.0
 31
0.0
  0
LINE
  5
920
330
1F
100
AcDbEntity
  8
2
  6
CONTINUOUS
370
25
 62
7
100
AcDbLine
 10
39.63259680589733
 20
-23.07348063882053
 30
0.0
 11
39.75506453726489
 21
-22.95101290745298
 31
0.0
  0
LINE
  5
921
330
1F
100
AcDbEntity
  8
2
  6
CONTINUOUS
370
25
 62
7
100
AcDbLine
 10
39.10226672000741
 20
-23.17954665599852
 30
0.0
 11
39.40151114667161
 21
-22.88030222933432
 31
0.0
  0
LINE
  5
922
330
1F
100
AcDbEntity
  8
2
  6
CONTINUOUS
370
25
 62
7
100
AcDbLine
 10
38.57193663411751
 20
-23.2856126731765
 30
0.0
 11
39.04795775607834
 21
-22.80959155121567
 31
0.0
  0
LINE
  5
923
330
1F
100
AcDbEntity
  8
2
  6
CONTINUOUS
370
25
 62
7
100
AcDbLine
 10
38.0416065482276
 20
-23.39167869035448
 30
0.0
 11
38.69440436548506
 21
-22.73888087309701
 31
0.0
  0
LINE
  5
924
330
1F
100
AcDbEntity
  8
2
  6
CONTINUOUS
370
25
 62
7
100
AcDbLine
 10
37.51127646233769
 20
-23.49774470753246
 30
0.0
 11
38.34085097489179
 21
-22.66817019497836
 31
0.0
  0
LINE
  5
925
330
1F
100
AcDbEntity
  8
2
  6
CONTINUOUS
370
25
 62
7
100
AcDbLine
 10
36.98094637644778
 20
-23.60381072471045
 30
0.0
 11
37.98729758429852
 21
-22.5974595168597
 31
0.0
  0
LINE
  5
926
330
1F
100
AcDbEntity
  8
2
  6
CONTINUOUS
370
25
 62
7
100
AcDbLine
 10
36.45061629055787
 20
-23.70987674188843
 30
0.0
 11
37.63374419370525
 21
-22.52674883874105
 31
0.0
  0
LINE
  5
927
330
1F
100
AcDbEntity
  8
2
  6
CONTINUOUS
370
25
 62
7
100
AcDbLine
 10
35.92028620466796
 20
-23.81594275906641
 30
0.0
 11
37.28019080311197
 21
-22.45603816062239
 31
0.0
  0
LINE
  5
928
330
1F
100
AcDbEntity
  8
2
  6
CONTINUOUS
370
25
 62
7
100
AcDbLine
 10
35.38995611877804
 20
-23.92200877624439
 30
0.0
 11
36.9266374125187
 21
-22.38532748250374
 31
0.0
  0
LINE
  5
929
330
1F
100
AcDbEntity
  8
2
  6
CONTINUOUS
370
25
 62
7
100
AcDbLine
 10
35.0
 20
-23.88770082631051
 30
0.0
 11
36.57308402192542
 21
-22.31461680438509
 31
0.0
  0
LINE
  5
92A
330
1F
100
AcDbEntity
  8
2
  6
CONTINUOUS
370
25
 62
7
100
AcDbLine
 10
35.0
 20
-23.46343675759858
 30
0.0
 11
36.21953063133216
 21
-22.24390612626643
 31
0.0
  0
LINE
  5
92B
330
1F
100
AcDbEntity
  8
2
  6
CONTINUOUS
370
25
 62
7
100
AcDbLine
 10
35.0
 20
-23.03917268888666
 30
0.0
 11
35.86597724073888
 21
-22.17319544814778
 31
0.0
  0
LINE
  5
92C
330
1F
100
AcDbEntity
  8
2
  6
CONTINUOUS
370
25
 62
7
100
AcDbLine
 10
35.0
 20
-22.61490862017473
 30
0.0
 11
35.51242385014561
 21
-22.10248477002912
 31
0.0
  0
LINE
  5
92D
330
1F
100
AcDbEntity
  8
2
  6
CONTINUOUS
370
25
 62
7
100
AcDbLine
 10
35.0
 20
-22.1906445514628
 30
0.0
 11
35.15887045955233
 21
-22.03177409191047
 31
0.0
  0
LINE
  5
92E
330
1F
100
AcDbEntity
  8
2
  6
CONTINUOUS
370
25
 62
7
100
AcDbLine
 10
35.0
 20
-23.77298220054909
 30
0.0
 11
35.18918149954243
 21
-23.96216370009152
 31
0.0
  0
LINE
  5
92F
330
1F
100
AcDbEntity
  8
2
  6
CONTINUOUS
370
25
 62
7
100
AcDbLine
 10
35.0
 20
-23.34871813183716
 30
0.0
 11
35.5427348901357
 21
-23.89145302197286
 31
0.0
  0
LINE
  5
930
330
1F
100
AcDbEntity
  8
2
  6
CONTINUOUS
370
25
 62
7
100
AcDbLine
 10
35.0
 20
-22.92445406312523
 30
0.0
 11
35.89628828072897
 21
-23.8207423438542
 31
0.0
  0
LINE
  5
931
330
1F
100
AcDbEntity
  8
2
  6
CONTINUOUS
370
25
 62
7
100
AcDbLine
 10
35.0
 20
-22.5001899944133
 30
0.0
 11
36.24984167132224
 21
-23.75003166573555
 31
0.0
  0
LINE
  5
932
330
1F
100
AcDbEntity
  8
2
  6
CONTINUOUS
370
25
 62
7
100
AcDbLine
 10
35.0
 20
-22.07592592570138
 30
0.0
 11
36.60339506191552
 21
-23.67932098761689
 31
0.0
  0
LINE
  5
933
330
1F
100
AcDbEntity
  8
2
  6
CONTINUOUS
370
25
 62
7
100
AcDbLine
 10
35.4354226787632
 20
-22.08708453575264
 30
0.0
 11
36.9569484525088
 21
-23.60861030949824
 31
0.0
  0
LINE
  5
934
330
1F
100
AcDbEntity
  8
2
  6
CONTINUOUS
370
25
 62
7
100
AcDbLine
 10
35.9657527646531
 20
-22.19315055293062
 30
0.0
 11
37.31050184310207
 21
-23.53789963137959
 31
0.0
  0
LINE
  5
935
330
1F
100
AcDbEntity
  8
2
  6
CONTINUOUS
370
25
 62
7
100
AcDbLine
 10
36.49608285054301
 20
-22.2992165701086
 30
0.0
 11
37.66405523369534
 21
-23.46718895326093
 31
0.0
  0
LINE
  5
936
330
1F
100
AcDbEntity
  8
2
  6
CONTINUOUS
370
25
 62
7
100
AcDbLine
 10
37.02641293643293
 20
-22.40528258728659
 30
0.0
 11
38.01760862428862
 21
-23.39647827514228
 31
0.0
  0
LINE
  5
937
330
1F
100
AcDbEntity
  8
2
  6
CONTINUOUS
370
25
 62
7
100
AcDbLine
 10
37.55674302232283
 20
-22.51134860446457
 30
0.0
 11
38.37116201488189
 21
-23.32576759702362
 31
0.0
  0
LINE
  5
938
330
1F
100
AcDbEntity
  8
2
  6
CONTINUOUS
370
25
 62
7
100
AcDbLine
 10
38.08707310821274
 20
-22.61741462164255
 30
0.0
 11
38.72471540547517
 21
-23.25505691890497
 31
0.0
  0
LINE
  5
939
330
1F
100
AcDbEntity
  8
2
  6
CONTINUOUS
370
25
 62
7
100
AcDbLine
 10
38.61740319410266
 20
-22.72348063882053
 30
0.0
 11
39.07826879606844
 21
-23.18434624078631
 31
0.0
  0
LINE
  5
93A
330
1F
100
AcDbEntity
  8
2
  6
CONTINUOUS
370
25
 62
7
100
AcDbLine
 10
39.14773327999256
 20
-22.82954665599851
 30
0.0
 11
39.43182218666171
 21
-23.11363556266766
 31
0.0
  0
LINE
  5
93B
330
1F
100
AcDbEntity
  8
2
  6
CONTINUOUS
370
25
 62
7
100
AcDbLine
 10
39.67806336588247
 20
-22.9356126731765
 30
0.0
 11
39.78537557725498
 21
-23.042924884549
 31
0.0
  0
LINE
  5
93C
330
1F
100
AcDbEntity
  8
2
  6
CONTINUOUS
370
25
 62
7
100
AcDbLine
 10
50.0
 20
-23.0
 30
0.0
 11
55.0
 21
-22.0
 31
0.0
  0
LINE
  5
93D
330
1F
100
AcDbEntity
  8
2
  6
CONTINUOUS
370
25
 62
7
100
AcDbLine
 10
55.0
 20
-22.0
 30
0.0
 11
55.0
 21
-24.0
 31
0.0
  0
LINE
  5
93E
330
1F
100
AcDbEntity
  8
2
  6
CONTINUOUS
370
25
 62
7
100
AcDbLine
 10
55.0
 20
-24.0
 30
0.0
 11
50.0
 21
-23.0
 31
0.0
  0
LINE
  5
93F
330
1F
100
AcDbEntity
  8
2
  6
CONTINUOUS
370
25
 62
7
100
AcDbLine
 10
54.75446931435349
 20
-23.9508938628707
 30
0.0
 11
55.0
 21
-23.70536317722419
 31
0.0
  0
LINE
  5
940
330
1F
100
AcDbEntity
  8
2
  6
CONTINUOUS
370
25
 62
7
100
AcDbLine
 10
54.40091592376022
 20
-23.88018318475204
 30
0.0
 11
55.0
 21
-23.28109910851227
 31
0.0
  0
LINE
  5
941
330
1F
100
AcDbEntity
  8
2
  6
CONTINUOUS
370
25
 62
7
100
AcDbLine
 10
54.04736253316695
 20
-23.80947250663339
 30
0.0
 11
55.0
 21
-22.85683503980033
 31
0.0
  0
LINE
  5
942
330
1F
100
AcDbEntity
  8
2
  6
CONTINUOUS
370
25
 62
7
100
AcDbLine
 10
53.69380914257368
 20
-23.73876182851473
 30
0.0
 11
55.0
 21
-22.43257097108841
 31
0.0
  0
LINE
  5
943
330
1F
100
AcDbEntity
  8
2
  6
CONTINUOUS
370
25
 62
7
100
AcDbLine
 10
53.34025575198039
 20
-23.66805115039608
 30
0.0
 11
55.0
 21
-22.00830690237648
 31
0.0
  0
LINE
  5
944
330
1F
100
AcDbEntity
  8
2
  6
CONTINUOUS
370
25
 62
7
100
AcDbLine
 10
52.98670236138713
 20
-23.59734047227742
 30
0.0
 11
54.4800535420807
 21
-22.10398929158386
 31
0.0
  0
LINE
  5
945
330
1F
100
AcDbEntity
  8
2
  6
CONTINUOUS
370
25
 62
7
100
AcDbLine
 10
52.63314897079385
 20
-23.52662979415877
 30
0.0
 11
53.94972345619077
 21
-22.21005530876185
 31
0.0
  0
LINE
  5
946
330
1F
100
AcDbEntity
  8
2
  6
CONTINUOUS
370
25
 62
7
100
AcDbLine
 10
52.27959558020058
 20
-23.45591911604011
 30
0.0
 11
53.41939337030087
 21
-22.31612132593983
 31
0.0
  0
LINE
  5
947
330
1F
100
AcDbEntity
  8
2
  6
CONTINUOUS
370
25
 62
7
100
AcDbLine
 10
51.9260421896073
 20
-23.38520843792146
 30
0.0
 11
52.88906328441095
 21
-22.42218734311781
 31
0.0
  0
LINE
  5
948
330
1F
100
AcDbEntity
  8
2
  6
CONTINUOUS
370
25
 62
7
100
AcDbLine
 10
51.57248879901404
 20
-23.3144977598028
 30
0.0
 11
52.35873319852105
 21
-22.52825336029579
 31
0.0
  0
LINE
  5
949
330
1F
100
AcDbEntity
  8
2
  6
CONTINUOUS
370
25
 62
7
100
AcDbLine
 10
51.21893540842076
 20
-23.24378708168415
 30
0.0
 11
51.82840311263114
 21
-22.63431937747377
 31
0.0
  0
LINE
  5
94A
330
1F
100
AcDbEntity
  8
2
  6
CONTINUOUS
370
25
 62
7
100
AcDbLine
 10
50.86538201782749
 20
-23.1730764035655
 30
0.0
 11
51.29807302674124
 21
-22.74038539465175
 31
0.0
  0
LINE
  5
94B
330
1F
100
AcDbEntity
  8
2
  6
CONTINUOUS
370
25
 62
7
100
AcDbLine
 10
50.51182862723421
 20
-23.10236572544684
 30
0.0
 11
50.76774294085132
 21
-22.84645141182974
 31
0.0
  0
LINE
  5
94C
330
1F
100
AcDbEntity
  8
2
  6
CONTINUOUS
370
25
 62
7
100
AcDbLine
 10
50.15827523664095
 20
-23.03165504732819
 30
0.0
 11
50.23741285496142
 21
-22.95251742900772
 31
0.0
  0
LINE
  5
94D
330
1F
100
AcDbEntity
  8
2
  6
CONTINUOUS
370
25
 62
7
100
AcDbLine
 10
50.18858627663104
 20
-22.96228274467379
 30
0.0
 11
50.28287941494656
 21
-23.05657588298931
 31
0.0
  0
LINE
  5
94E
330
1F
100
AcDbEntity
  8
2
  6
CONTINUOUS
370
25
 62
7
100
AcDbLine
 10
50.54213966722432
 20
-22.89157206655513
 30
0.0
 11
50.81320950083647
 21
-23.16264190016729
 31
0.0
  0
LINE
  5
94F
330
1F
100
AcDbEntity
  8
2
  6
CONTINUOUS
370
25
 62
7
100
AcDbLine
 10
50.89569305781759
 20
-22.82086138843648
 30
0.0
 11
51.34353958672639
 21
-23.26870791734527
 31
0.0
  0
LINE
  5
950
330
1F
100
AcDbEntity
  8
2
  6
CONTINUOUS
370
25
 62
7
100
AcDbLine
 10
51.24924644841087
 20
-22.75015071031783
 30
0.0
 11
51.87386967261629
 21
-23.37477393452326
 31
0.0
  0
LINE
  5
951
330
1F
100
AcDbEntity
  8
2
  6
CONTINUOUS
370
25
 62
7
100
AcDbLine
 10
51.60279983900413
 20
-22.67944003219917
 30
0.0
 11
52.40419975850621
 21
-23.48083995170124
 31
0.0
  0
LINE
  5
952
330
1F
100
AcDbEntity
  8
2
  6
CONTINUOUS
370
25
 62
7
100
AcDbLine
 10
51.95635322959741
 20
-22.60872935408052
 30
0.0
 11
52.93452984439611
 21
-23.58690596887922
 31
0.0
  0
LINE
  5
953
330
1F
100
AcDbEntity
  8
2
  6
CONTINUOUS
370
25
 62
7
100
AcDbLine
 10
52.30990662019069
 20
-22.53801867596187
 30
0.0
 11
53.46485993028602
 21
-23.6929719860572
 31
0.0
  0
LINE
  5
954
330
1F
100
AcDbEntity
  8
2
  6
CONTINUOUS
370
25
 62
7
100
AcDbLine
 10
52.66346001078396
 20
-22.46730799784321
 30
0.0
 11
53.99519001617594
 21
-23.79903800323519
 31
0.0
  0
LINE
  5
955
330
1F
100
AcDbEntity
  8
2
  6
CONTINUOUS
370
25
 62
7
100
AcDbLine
 10
53.01701340137723
 20
-22.39659731972456
 30
0.0
 11
54.52552010206584
 21
-23.90510402041317
 31
0.0
  0
LINE
  5
956
330
1F
100
AcDbEntity
  8
2
  6
CONTINUOUS
370
25
 62
7
100
AcDbLine
 10
53.3705667919705
 20
-22.3258866416059
 30
0.0
 11
55.0
 21
-23.95531984963539
 31
0.0
  0
LINE
  5
957
330
1F
100
AcDbEntity
  8
2
  6
CONTINUOUS
370
25
 62
7
100
AcDbLine
 10
53.72412018256378
 20
-22.25517596348725
 30
0.0
 11
55.0
 21
-23.53105578092347
 31
0.0
  0
LINE
  5
958
330
1F
100
AcDbEntity
  8
2
  6
CONTINUOUS
370
25
 62
7
100
AcDbLine
 10
54.07767357315705
 20
-22.18446528536859
 30
0.0
 11
55.0
 21
-23.10679171221154
 31
0.0
  0
LINE
  5
959
330
1F
100
AcDbEntity
  8
2
  6
CONTINUOUS
370
25
 62
7
100
AcDbLine
 10
54.43122696375032
 20
-22.11375460724994
 30
0.0
 11
55.0
 21
-22.68252764349961
 31
0.0
  0
LINE
  5
95A
330
1F
100
AcDbEntity
  8
2
  6
CONTINUOUS
370
25
 62
7
100
AcDbLine
 10
54.7847803543436
 20
-22.04304392913128
 30
0.0
 11
55.0
 21
-22.25826357478769
 31
0.0
  0
TEXT
  5
95B
330
1F
100
AcDbEntity
  8
2
  6
CONTINUOUS
370
25
 62
7
100
AcDbText
 10
42.95833333333334
 20
-21.5
 30
0.0
 40
3.5
  1
10
 72
     1
 11
45.0
 21
-21.5
 31
0.0
100
AcDbText
  0
LINE
  5
95C
330
1F
100
AcDbEntity
  8
2
  6
CONTINUOUS
370
25
 62
7
100
AcDbLine
 10
49.94142136000001
 20
-0.94142136
 30
0.0
 11
67.99995000057208
 21
-18.99995000057206
 31
0.0
  0
LINE
  5
95D
330
1F
100
AcDbEntity
  8
2
  6
CONTINUOUS
370
25
 62
7
100
AcDbLine
 10
67.99995000057208
 20
-18.99995000057206
 30
0.0
 11
81.4249500005721
 21
-18.99995000057206
 31
0.0
  0
LINE
  5
95E
330
1F
100
AcDbEntity
  8
2
  6
CONTINUOUS
370
25
 62
7
100
AcDbLine
 10
49.94142136000001
 20
-0.94142136
 30
0.0
 11
49.80000000376269
 21
-0.8000000037626904
 31
0.0
  0
LINE
  5
95F
330
1F
100
AcDbEntity
  8
2
  6
CONTINUOUS
370
25
 62
7
100
AcDbLine
 10
49.94142136000001
 20
-0.94142136
 30
0.0
 11
54.18406204711929
 21
-3.769848484746187
 31
0.0
  0
LINE
  5
960
330
1F
100
AcDbEntity
  8
2
  6
CONTINUOUS
370
25
 62
7
100
AcDbLine
 10
54.18406204711929
 20
-3.769848484746187
 30
0.0
 11
52.7698484847462
 21
-5.184062047119283
 31
0.0
  0
LINE
  5
961
330
1F
100
AcDbEntity
  8
2
  6
CONTINUOUS
370
25
 62
7
100
AcDbLine
 10
52.7698484847462
 20
-5.184062047119283
 30
0.0
 11
49.94142136000001
 21
-0.94142136
 31
0.0
  0
LINE
  5
962
330
1F
100
AcDbEntity
  8
2
  6
CONTINUOUS
370
25
 62
7
100
AcDbLine
 10
52.62044765830458
 20
-4.959960807456874
 30
0.0
 11
53.95996080745688
 21
-3.620447658304581
 31
0.0
  0
LINE
  5
963
330
1F
100
AcDbEntity
  8
2
  6
CONTINUOUS
370
25
 62
7
100
AcDbLine
 10
52.45074203081982
 20
-4.705402366229713
 30
0.0
 11
53.70540236622972
 21
-3.450742030819811
 31
0.0
  0
LINE
  5
964
330
1F
100
AcDbEntity
  8
2
  6
CONTINUOUS
370
25
 62
7
100
AcDbLine
 10
52.28103640333505
 20
-4.450843925002559
 30
0.0
 11
53.45084392500257
 21
-3.28103640333504
 31
0.0
  0
LINE
  5
965
330
1F
100
AcDbEntity
  8
2
  6
CONTINUOUS
370
25
 62
7
100
AcDbLine
 10
52.11133077585028
 20
-4.196285483775402
 30
0.0
 11
53.19628548377541
 21
-3.11133077585027
 31
0.0
  0
LINE
  5
966
330
1F
100
AcDbEntity
  8
2
  6
CONTINUOUS
370
25
 62
7
100
AcDbLine
 10
51.9416251483655
 20
-3.941727042548244
 30
0.0
 11
52.94172704254825
 21
-2.941625148365496
 31
0.0
  0
LINE
  5
967
330
1F
100
AcDbEntity
  8
2
  6
CONTINUOUS
370
25
 62
7
100
AcDbLine
 10
51.77191952088074
 20
-3.687168601321087
 30
0.0
 11
52.6871686013211
 21
-2.771919520880722
 31
0.0
  0
LINE
  5
968
330
1F
100
AcDbEntity
  8
2
  6
CONTINUOUS
370
25
 62
7
100
AcDbLine
 10
51.60221389339596
 20
-3.432610160093931
 30
0.0
 11
52.43261016009394
 21
-2.602213893395952
 31
0.0
  0
LINE
  5
969
330
1F
100
AcDbEntity
  8
2
  6
CONTINUOUS
370
25
 62
7
100
AcDbLine
 10
51.4325082659112
 20
-3.178051718866776
 30
0.0
 11
52.17805171886678
 21
-2.432508265911181
 31
0.0
  0
LINE
  5
96A
330
1F
100
AcDbEntity
  8
2
  6
CONTINUOUS
370
25
 62
7
100
AcDbLine
 10
51.26280263842642
 20
-2.923493277639619
 30
0.0
 11
51.92349327763962
 21
-2.262802638426411
 31
0.0
  0
LINE
  5
96B
330
1F
100
AcDbEntity
  8
2
  6
CONTINUOUS
370
25
 62
7
100
AcDbLine
 10
51.09309701094165
 20
-2.668934836412461
 30
0.0
 11
51.66893483641247
 21
-2.093097010941641
 31
0.0
  0
LINE
  5
96C
330
1F
100
AcDbEntity
  8
2
  6
CONTINUOUS
370
25
 62
7
100
AcDbLine
 10
50.92339138345687
 20
-2.414376395185306
 30
0.0
 11
51.41437639518531
 21
-1.92339138345687
 31
0.0
  0
LINE
  5
96D
330
1F
100
AcDbEntity
  8
2
  6
CONTINUOUS
370
25
 62
7
100
AcDbLine
 10
50.75368575597211
 20
-2.159817953958148
 30
0.0
 11
51.15981795395815
 21
-1.753685755972098
 31
0.0
  0
LINE
  5
96E
330
1F
100
AcDbEntity
  8
2
  6
CONTINUOUS
370
25
 62
7
100
AcDbLine
 10
50.58398012848733
 20
-1.905259512730993
 30
0.0
 11
50.905259512731
 21
-1.583980128487328
 31
0.0
  0
LINE
  5
96F
330
1F
100
AcDbEntity
  8
2
  6
CONTINUOUS
370
25
 62
7
100
AcDbLine
 10
50.41427450100256
 20
-1.650701071503837
 30
0.0
 11
50.65070107150384
 21
-1.414274501002557
 31
0.0
  0
LINE
  5
970
330
1F
100
AcDbEntity
  8
2
  6
CONTINUOUS
370
25
 62
7
100
AcDbLine
 10
50.24456887351779
 20
-1.39614263027668
 30
0.0
 11
50.39614263027669
 21
-1.244568873517785
 31
0.0
  0
LINE
  5
971
330
1F
100
AcDbEntity
  8
2
  6
CONTINUOUS
370
25
 62
7
100
AcDbLine
 10
50.07486324603302
 20
-1.141584189049524
 30
0.0
 11
50.14158418904952
 21
-1.074863246033015
 31
0.0
  0
LINE
  5
972
330
1F
100
AcDbEntity
  8
2
  6
CONTINUOUS
370
25
 62
7
100
AcDbLine
 10
51.93410537470815
 20
-3.930447382062212
 30
0.0
 11
52.97878426225572
 21
-4.975126269609774
 31
0.0
  0
LINE
  5
973
330
1F
100
AcDbEntity
  8
2
  6
CONTINUOUS
370
25
 62
7
100
AcDbLine
 10
51.08557723728428
 20
-2.657655175926422
 30
0.0
 11
53.19091629661168
 21
-4.76299423525381
 31
0.0
  0
LINE
  5
974
330
1F
100
AcDbEntity
  8
2
  6
CONTINUOUS
370
25
 62
7
100
AcDbLine
 10
50.23704909986043
 20
-1.384862969790642
 30
0.0
 11
53.40304833096764
 21
-4.550862200897845
 31
0.0
  0
LINE
  5
975
330
1F
100
AcDbEntity
  8
2
  6
CONTINUOUS
370
25
 62
7
100
AcDbLine
 10
50.77077195634514
 20
-1.494321757563423
 30
0.0
 11
53.6151803653236
 21
-4.338730166541881
 31
0.0
  0
LINE
  5
976
330
1F
100
AcDbEntity
  8
2
  6
CONTINUOUS
370
25
 62
7
100
AcDbLine
 10
52.04356416248093
 20
-2.342849894987282
 30
0.0
 11
53.82731239967956
 21
-4.126598132185908
 31
0.0
  0
LINE
  5
977
330
1F
100
AcDbEntity
  8
2
  6
CONTINUOUS
370
25
 62
7
100
AcDbLine
 10
53.31635636861671
 20
-3.191378032411137
 30
0.0
 11
54.03944443403553
 21
-3.914466097829948
 31
0.0
  0
TEXT
  5
978
330
1F
100
AcDbEntity
  8
2
  6
CONTINUOUS
370
25
 62
7
100
AcDbText
 10
69.75411666723876
 20
-17.49995000057206
 30
0.0
 40
3.5
  1
R0.2
 72
     1
 11
74.71245000057209
 21
-17.49995000057206
 31
0.0
100
AcDbText
  0
LINE
  5
979
330
1F
100
AcDbEntity
  8
SK1
  6
CONTINUOUS
370
50
 62
4
100
AcDbLine
 10
35.7
 20
0.0
 30
0.0
 11
37.45
 21
0.0
 31
0.0
  0
LINE
  5
97A
330
1F
100
AcDbEntity
  8
SK1
  6
CONTINUOUS
370
50
 62
4
100
AcDbLine
 10
35.7
 20
0.0
 30
0.0
 11
35.7
 21
1.75
 31
0.0
  0
ARC
  5
97B
330
1F
100
AcDbEntity
  8
SK1
  6
CONTINUOUS
370
50
 62
4
100
AcDbCircle
 10
35.7
 20
0.0
 30
0.0
 40
1.75
100
AcDbArc
 50
0.0
 51
90.0
  0
LINE
  5
97C
330
1F
100
AcDbEntity
  8
SK1
  6
CONTINUOUS
370
50
 62
4
100
AcDbLine
 10
35.7
 20
0.0
 30
0.0
 11
33.95
 21
0.0
 31
0.0
  0
ARC
  5
97D
330
1F
100
AcDbEntity
  8
SK1
  6
CONTINUOUS
370
50
 62
4
100
AcDbCircle
 10
35.7
 20
0.0
 30
0.0
 40
1.75
100
AcDbArc
 50
180.0
 51
270.0
  0
LINE
  5
97E
330
1F
100
AcDbEntity
  8
SK1
  6
CONTINUOUS
370
50
 62
4
100
AcDbLine
 10
35.7
 20
-1.75
 30
0.0
 11
35.7
 21
0.0
 31
0.0
  0
ARC
  5
97F
330
1F
100
AcDbEntity
  8
SK1
  6
CONTINUOUS
370
50
 62
4
100
AcDbCircle
 10
35.7
 20
0.0
 30
0.0
 40
1.75
100
AcDbArc
 50
270.0
 51
0.0
  0
ARC
  5
980
330
1F
100
AcDbEntity
  8
SK1
  6
CONTINUOUS
370
50
 62
4
100
AcDbCircle
 10
35.7
 20
0.0
 30
0.0
 40
1.75
100
AcDbArc
 50
90.0
 51
180.0
  0
LINE
  5
981
330
1F
100
AcDbEntity
  8
SK1
  6
CONTINUOUS
370
50
 62
4
100
AcDbLine
 10
35.47717274741574
 20
-1.73564731720198
 30
0.0
 11
35.7
 21
-1.512820064617713
 31
0.0
  0
LINE
  5
982
330
1F
100
AcDbEntity
  8
SK1
  6
CONTINUOUS
370
50
 62
4
100
AcDbLine
 10
37.21282006461772
 20
0.0
 30
0.0
 11
37.43564731720198
 21
0.2228272525842674
 31
0.0
  0
LINE
  5
983
330
1F
100
AcDbEntity
  8
SK1
  6
CONTINUOUS
370
50
 62
4
100
AcDbLine
 10
35.26930380681873
 20
-1.69602888438369
 30
0.0
 11
35.7
 21
-1.265332691202421
 31
0.0
  0
LINE
  5
984
330
1F
100
AcDbEntity
  8
SK1
  6
CONTINUOUS
370
50
 62
4
100
AcDbLine
 10
36.96533269120242
 20
0.0
 30
0.0
 11
37.39602888438369
 21
0.4306961931812696
 31
0.0
  0
LINE
  5
985
330
1F
100
AcDbEntity
  8
SK1
  6
CONTINUOUS
370
50
 62
4
100
AcDbLine
 10
35.08148340435765
 20
-1.636361913429485
 30
0.0
 11
35.7
 21
-1.01784531778713
 31
0.0
  0
LINE
  5
986
330
1F
100
AcDbEntity
  8
SK1
  6
CONTINUOUS
370
50
 62
4
100
AcDbLine
 10
36.71784531778713
 20
0.0
 30
0.0
 11
37.33636191342949
 21
0.6185165956423557
 31
0.0
  0
LINE
  5
987
330
1F
100
AcDbEntity
  8
SK1
  6
CONTINUOUS
370
50
 62
4
100
AcDbLine
 10
34.9098551094628
 20
-1.560502834909039
 30
0.0
 11
35.7
 21
-0.7703579443718382
 31
0.0
  0
LINE
  5
988
330
1F
100
AcDbEntity
  8
SK1
  6
CONTINUOUS
370
50
 62
4
100
AcDbLine
 10
36.47035794437184
 20
0.0
 30
0.0
 11
37.26050283490904
 21
0.7901448905372013
 31
0.0
  0
LINE
  5
989
330
1F
100
AcDbEntity
  8
SK1
  6
CONTINUOUS
370
50
 62
4
100
AcDbLine
 10
34.75217783219447
 20
-1.470692738762079
 30
0.0
 11
35.7
 21
-0.5228705709565462
 31
0.0
  0
LINE
  5
98A
330
1F
100
AcDbEntity
  8
SK1
  6
CONTINUOUS
370
50
 62
4
100
AcDbLine
 10
36.22287057095655
 20
0.0
 30
0.0
 11
37.17069273876208
 21
0.947822167805533
 31
0.0
  0
LINE
  5
98B
330
1F
100
AcDbEntity
  8
SK1
  6
CONTINUOUS
370
50
 62
4
100
AcDbLine
 10
34.60842956711548
 20
-1.366953630425777
 30
0.0
 11
35.7
 21
-0.2753831975412551
 31
0.0
  0
LINE
  5
98C
330
1F
100
AcDbEntity
  8
SK1
  6
CONTINUOUS
370
50
 62
4
100
AcDbLine
 10
35.97538319754126
 20
0.0
 30
0.0
 11
37.06695363042578
 21
1.091570432884522
 31
0.0
  0
LINE
  5
98D
330
1F
100
AcDbEntity
  8
SK1
  6
CONTINUOUS
370
50
 62
4
100
AcDbLine
 10
34.47712164538165
 20
-1.25077417874432
 30
0.0
 11
35.7
 21
-0.0278958241259639
 31
0.0
  0
LINE
  5
98E
330
1F
100
AcDbEntity
  8
SK1
  6
CONTINUOUS
370
50
 62
4
100
AcDbLine
 10
35.72789582412597
 20
0.0
 30
0.0
 11
36.95077417874433
 21
1.222878354618356
 31
0.0
  0
LINE
  5
98F
330
1F
100
AcDbEntity
  8
SK1
  6
CONTINUOUS
370
50
 62
4
100
AcDbLine
 10
34.35784030371347
 20
-1.122568146997212
 30
0.0
 11
35.48040845071068
 21
0.0
 31
0.0
  0
LINE
  5
990
330
1F
100
AcDbEntity
  8
SK1
  6
CONTINUOUS
370
50
 62
4
100
AcDbLine
 10
35.7
 20
0.2195915492893277
 30
0.0
 11
36.82256814699721
 21
1.34215969628654
 31
0.0
  0
LINE
  5
991
330
1F
100
AcDbEntity
  8
SK1
  6
CONTINUOUS
370
50
 62
4
100
AcDbLine
 10
34.25188167231256
 20
-0.9810394049828186
 30
0.0
 11
35.23292107729539
 21
0.0
 31
0.0
  0
LINE
  5
992
330
1F
100
AcDbEntity
  8
SK1
  6
CONTINUOUS
370
50
 62
4
100
AcDbLine
 10
35.7
 20
0.4670789227046193
 30
0.0
 11
36.68103940498282
 21
1.448118327687438
 31
0.0
  0
LINE
  5
993
330
1F
100
AcDbEntity
  8
SK1
  6
CONTINUOUS
370
50
 62
4
100
AcDbLine
 10
34.15832908651576
 20
-0.8271046173643402
 30
0.0
 11
34.98543370388009
 21
0.0
 31
0.0
  0
LINE
  5
994
330
1F
100
AcDbEntity
  8
SK1
  6
CONTINUOUS
370
50
 62
4
100
AcDbLine
 10
35.7
 20
0.71456629611991
 30
0.0
 11
36.52710461736434
 21
1.54167091348425
 31
0.0
  0
LINE
  5
995
330
1F
100
AcDbEntity
  8
SK1
  6
CONTINUOUS
370
50
 62
4
100
AcDbLine
 10
34.07918473824205
 20
-0.6587615922227528
 30
0.0
 11
34.7379463304648
 21
0.0
 31
0.0
  0
LINE
  5
996
330
1F
100
AcDbEntity
  8
SK1
  6
CONTINUOUS
370
50
 62
4
100
AcDbLine
 10
35.7
 20
0.9620536695352015
 30
0.0
 11
36.35876159222276
 21
1.620815261757954
 31
0.0
  0
LINE
  5
997
330
1F
100
AcDbEntity
  8
SK1
  6
CONTINUOUS
370
50
 62
4
100
AcDbLine
 10
34.01629687706964
 20
-0.474162079979876
 30
0.0
 11
34.49045895704951
 21
0.0
 31
0.0
  0
LINE
  5
998
330
1F
100
AcDbEntity
  8
SK1
  6
CONTINUOUS
370
50
 62
4
100
AcDbLine
 10
35.7
 20
1.209541042950494
 30
0.0
 11
36.17416207997988
 21
1.683703122930369
 31
0.0
  0
LINE
  5
999
330
1F
100
AcDbEntity
  8
SK1
  6
CONTINUOUS
370
50
 62
4
100
AcDbLine
 10
33.97198100434272
 20
-0.2709905792915031
 30
0.0
 11
34.24297158363422
 21
0.0
 31
0.0
  0
LINE
  5
99A
330
1F
100
AcDbEntity
  8
SK1
  6
CONTINUOUS
370
50
 62
4
100
AcDbLine
 10
35.7
 20
1.457028416365784
 30
0.0
 11
35.9709905792915
 21
1.728018995657286
 31
0.0
  0
LINE
  5
99B
330
1F
100
AcDbEntity
  8
SK1
  6
CONTINUOUS
370
50
 62
4
100
AcDbLine
 10
33.95138584689781
 20
-0.0440983633211194
 30
0.0
 11
33.99548421021893
 21
0.0
 31
0.0
  0
LINE
  5
99C
330
1F
100
AcDbEntity
  8
SK1
  6
CONTINUOUS
370
50
 62
4
100
AcDbLine
 10
35.7
 20
1.704515789781075
 30
0.0
 11
35.74409836332112
 21
1.748614153102194
 31
0.0
  0
LINE
  5
99D
330
1F
100
AcDbEntity
  8
SK1
  6
CONTINUOUS
370
50
 62
4
100
AcDbLine
 10
34.06386517603682
 20
-0.6191473609004006
 30
0.0
 11
35.0808526390996
 21
-1.636134823963186
 31
0.0
  0
LINE
  5
99E
330
1F
100
AcDbEntity
  8
SK1
  6
CONTINUOUS
370
50
 62
4
100
AcDbLine
 10
33.97363430643546
 20
-0.2814291178837463
 30
0.0
 11
35.41857088211626
 21
-1.726365693564548
 31
0.0
  0
LINE
  5
99F
330
1F
100
AcDbEntity
  8
SK1
  6
CONTINUOUS
370
50
 62
4
100
AcDbLine
 10
33.9503344343115
 20
-0.0106418723445003
 30
0.0
 11
35.6893581276555
 21
-1.749665565688503
 31
0.0
  0
LINE
  5
9A0
330
1F
100
AcDbEntity
  8
SK1
  6
CONTINUOUS
370
50
 62
4
100
AcDbLine
 10
34.18717993538229
 20
0.0
 30
0.0
 11
35.7
 21
-1.51282006461771
 31
0.0
  0
LINE
  5
9A1
330
1F
100
AcDbEntity
  8
SK1
  6
CONTINUOUS
370
50
 62
4
100
AcDbLine
 10
34.43466730879759
 20
0.0
 30
0.0
 11
35.7
 21
-1.265332691202418
 31
0.0
  0
LINE
  5
9A2
330
1F
100
AcDbEntity
  8
SK1
  6
CONTINUOUS
370
50
 62
4
100
AcDbLine
 10
34.68215468221288
 20
0.0
 30
0.0
 11
35.7
 21
-1.017845317787128
 31
0.0
  0
LINE
  5
9A3
330
1F
100
AcDbEntity
  8
SK1
  6
CONTINUOUS
370
50
 62
4
100
AcDbLine
 10
34.92964205562816
 20
0.0
 30
0.0
 11
35.7
 21
-0.7703579443718369
 31
0.0
  0
LINE
  5
9A4
330
1F
100
AcDbEntity
  8
SK1
  6
CONTINUOUS
370
50
 62
4
100
AcDbLine
 10
35.17712942904345
 20
0.0
 30
0.0
 11
35.7
 21
-0.5228705709565453
 31
0.0
  0
LINE
  5
9A5
330
1F
100
AcDbEntity
  8
SK1
  6
CONTINUOUS
370
50
 62
4
100
AcDbLine
 10
35.42461680245875
 20
0.0
 30
0.0
 11
35.7
 21
-0.2753831975412537
 31
0.0
  0
LINE
  5
9A6
330
1F
100
AcDbEntity
  8
SK1
  6
CONTINUOUS
370
50
 62
4
100
AcDbLine
 10
35.67210417587404
 20
0.0
 30
0.0
 11
35.7
 21
-0.027895824125963
 31
0.0
  0
LINE
  5
9A7
330
1F
100
AcDbEntity
  8
SK1
  6
CONTINUOUS
370
50
 62
4
100
AcDbLine
 10
35.7
 20
0.219591549289329
 30
0.0
 11
35.91959154928933
 21
0.0
 31
0.0
  0
LINE
  5
9A8
330
1F
100
AcDbEntity
  8
SK1
  6
CONTINUOUS
370
50
 62
4
100
AcDbLine
 10
35.7
 20
0.4670789227046202
 30
0.0
 11
36.16707892270463
 21
0.0
 31
0.0
  0
LINE
  5
9A9
330
1F
100
AcDbEntity
  8
SK1
  6
CONTINUOUS
370
50
 62
4
100
AcDbLine
 10
35.7
 20
0.7145662961199113
 30
0.0
 11
36.41456629611992
 21
0.0
 31
0.0
  0
LINE
  5
9AA
330
1F
100
AcDbEntity
  8
SK1
  6
CONTINUOUS
370
50
 62
4
100
AcDbLine
 10
35.7
 20
0.9620536695352029
 30
0.0
 11
36.6620536695352
 21
0.0
 31
0.0
  0
LINE
  5
9AB
330
1F
100
AcDbEntity
  8
SK1
  6
CONTINUOUS
370
50
 62
4
100
AcDbLine
 10
35.7
 20
1.209541042950494
 30
0.0
 11
36.9095410429505
 21
0.0
 31
0.0
  0
LINE
  5
9AC
330
1F
100
AcDbEntity
  8
SK1
  6
CONTINUOUS
370
50
 62
4
100
AcDbLine
 10
35.7
 20
1.457028416365785
 30
0.0
 11
37.15702841636579
 21
0.0
 31
0.0
  0
LINE
  5
9AD
330
1F
100
AcDbEntity
  8
SK1
  6
CONTINUOUS
370
50
 62
4
100
AcDbLine
 10
35.7
 20
1.704515789781076
 30
0.0
 11
37.40451578978108
 21
0.0
 31
0.0
  0
LINE
  5
9AE
330
1F
100
AcDbEntity
  8
SK1
  6
CONTINUOUS
370
50
 62
4
100
AcDbLine
 10
35.91543384193567
 20
1.736569321260697
 30
0.0
 11
37.4365693212607
 21
0.2154338419356714
 31
0.0
  0
LINE
  5
9AF
330
1F
100
AcDbEntity
  8
SK1
  6
CONTINUOUS
370
50
 62
4
100
AcDbLine
 10
36.23283284728993
 20
1.666657689321729
 30
0.0
 11
37.36665768932173
 21
0.5328328472899322
 31
0.0
  0
LINE
  5
9B0
330
1F
100
AcDbEntity
  8
SK1
  6
CONTINUOUS
370
50
 62
4
100
AcDbLine
 10
36.74009874905675
 20
1.406879160970207
 30
0.0
 11
37.10687916097021
 21
1.040098749056747
 31
0.0
  0
LINE
  5
9B1
330
1F
100
AcDbEntity
  8
4
  6
LONGDASH_DASH
370
25
 62
2
100
AcDbLine
 10
35.7
 20
0.0
 30
0.0
 11
50.0
 21
0.0
 31
0.0
  0
LINE
  5
9B2
330
1F
100
AcDbEntity
  8
SK4
  6
LONGDASH_DASH
370
25
 62
2
100
AcDbLine
 10
-6.0
 20
0.0
 30
0.0
 11
56.0
 21
0.0
 31
0.0
  0
ARC
  5
9B3
330
1F
100
AcDbEntity
  8
SK6
  6
CONTINUOUS
370
25
 62
5
100
AcDbCircle
 10
74.4613820083765
 20
-26.74524575338786
 30
0.0
 40
2.76048912849221
100
AcDbArc
 50
338.9379403434233
 51
90.44457437511365
  0
LINE
  5
9B4
330
1F
100
AcDbEntity
  8
SK6
  6
CONTINUOUS
370
25
 62
5
100
AcDbLine
 10
74.43996279695983
 20
-23.98483972421281
 30
0.0
 11
74.43996279695983
 21
-25.08789835613463
 31
0.0
  0
ARC
  5
9B5
330
1F
100
AcDbEntity
  8
SK6
  6
CONTINUOUS
370
25
 62
5
100
AcDbCircle
 10
74.45050902936916
 20
-26.76523924566821
 30
0.0
 40
1.677374043771779
100
AcDbArc
 50
243.4214706017868
 51
90.36024081226083
  0
ARC
  5
9B6
330
1F
100
AcDbEntity
  8
SK6
  6
CONTINUOUS
370
25
 62
5
100
AcDbCircle
 10
76.97275989684958
 20
-26.33383199215561
 30
0.0
 40
3.80021703002276
100
AcDbArc
 50
210.5483731288539
 51
236.97801693668
  0
LINE
  5
9B7
330
1F
100
AcDbEntity
  8
SK6
  6
CONTINUOUS
370
25
 62
5
100
AcDbLine
 10
74.90179068512487
 20
-29.52016781867535
 30
0.0
 11
79.04373096742671
 21
-29.52016781867535
 31
0.0
  0
ARC
  5
9B8
330
1F
100
AcDbEntity
  8
SK6
  6
CONTINUOUS
370
25
 62
5
100
AcDbCircle
 10
76.97276183877257
 20
-26.3338320937346
 30
0.0
 40
3.800216899582472
100
AcDbArc
 50
303.0219828477959
 51
326.3732153033476
  0
LINE
  5
9B9
330
1F
100
AcDbEntity
  8
SK6
  6
CONTINUOUS
370
25
 62
5
100
AcDbLine
 10
80.13705975135723
 20
-28.4383194907709
 30
0.0
 11
76.77976170575462
 21
-28.4383194907709
 31
0.0
  0
LINE
  5
9BA
330
1F
100
AcDbEntity
  8
SK6
  6
CONTINUOUS
370
25
 62
5
100
AcDbLine
 10
76.77976170575462
 20
-28.4383194907709
 30
0.0
 11
80.69962109771987
 21
-27.07691829641694
 31
0.0
  0
ARC
  5
9BB
330
1F
100
AcDbEntity
  8
SK6
  6
CONTINUOUS
370
25
 62
5
100
AcDbCircle
 10
76.97276256157211
 20
-26.3338326048594
 30
0.0
 40
3.800217216614723
100
AcDbArc
 50
348.7238644184696
 51
53.4691051260885
  0
LINE
  5
9BC
330
1F
100
AcDbEntity
  8
SK6
  6
CONTINUOUS
370
25
 62
5
100
AcDbLine
 10
79.23486524538545
 20
-23.28022124429967
 30
0.0
 11
77.03745047882737
 21
-27.73730973507057
 31
0.0
  0
ENDSEC
  0
SECTION
  2
OBJECTS
  0
DICTIONARY
  5
C
330
0
100
AcDbDictionary
281
     1
  3
ACAD_GROUP
350
D
  3
ACAD_LAYOUT
350
1A
  3
ACAD_MATERIAL
350
3B
  3
ACAD_MLEADERSTYLE
350
9BF
  3
ACAD_MLINESTYLE
350
17
  3
ACAD_PLOTSETTINGS
350
19
  3
ACAD_PLOTSTYLENAME
350
E
  3
ACAD_SCALELIST
350
2B5
  3
ACAD_VISUALSTYLE
350
2A
  3
AcDbVariableDictionary
350
9BD
  0
DICTIONARY
  5
D
102
{ACAD_REACTORS
330
C
102
}
330
C
100
AcDbDictionary
281
     1
  0
DICTIONARY
  5
1A
102
{ACAD_REACTORS
330
C
102
}
330
C
100
AcDbDictionary
281
     1
  3
Layout1
350
1E
  3
Layout2
350
26
  3
Model
350
22
  0
DICTIONARY
  5
3B
102
{ACAD_REACTORS
330
C
102
}
330
C
100
AcDbDictionary
281
     1
  3
ByBlock
350
3D
  3
ByLayer
350
3C
  3
Global
350
3E
  0
DICTIONARY
  5
9BF
102
{ACAD_REACTORS
330
C
102
}
330
C
100
AcDbDictionary
281
     1
  0
DICTIONARY
  5
17
102
{ACAD_REACTORS
330
C
102
}
330
C
100
AcDbDictionary
281
     1
  3
Standard
350
18
  0
DICTIONARY
  5
19
102
{ACAD_REACTORS
330
C
102
}
330
C
100
AcDbDictionary
281
     1
  0
ACDBDICTIONARYWDFLT
  5
E
102
{ACAD_REACTORS
330
C
102
}
330
C
100
AcDbDictionary
281
     1
  3
Normal
350
F
100
AcDbDictionaryWithDefault
340
F
  0
DICTIONARY
  5
2B5
102
{ACAD_REACTORS
330
C
102
}
330
C
100
AcDbDictionary
281
     1
  3
A0
350
2B6
  3
A1
350
2B7
  3
A2
350
2B8
  3
A3
350
2B9
  3
A4
350
2BA
  3
A5
350
2BB
  3
A6
350
2BC
  3
A7
350
2BD
  3
A8
350
2BE
  3
A9
350
2BF
  3
B0
350
2C0
  3
B1
350
2C1
  3
B2
350
2C2
  3
B3
350
2C3
  3
B4
350
2C4
  3
B5
350
2C5
  3
B6
350
2C6
  3
B7
350
2C7
  3
B8
350
2C8
  3
B9
350
2C9
  3
C0
350
2CA
  3
C1
350
2CB
  3
C2
350
2CC
  3
C3
350
2CD
  3
C4
350
2CE
  3
C5
350
2CF
  3
C6
350
2D0
  3
C7
350
2D1
  3
C8
350
2D2
  3
C9
350
2D3
  3
D0
350
2D4
  3
D1
350
2D5
  3
D2
350
2D6
  0
DICTIONARY
  5
2A
102
{ACAD_REACTORS
330
C
102
}
330
C
100
AcDbDictionary
281
     1
  3
2dWireframe
350
2F
  3
3D Hidden
350
31
  3
3dWireframe
350
30
  3
Basic
350
32
  3
Brighten
350
36
  3
ColorChange
350
3A
  3
Conceptual
350
34
  3
Dim
350
35
  3
Facepattern
350
39
  3
Flat
350
2B
  3
FlatWithEdges
350
2C
  3
Gouraud
350
2D
  3
GouraudWithEdges
350
2E
  3
Linepattern
350
38
  3
Realistic
350
33
  3
Thicken
350
37
  0
DICTIONARY
  5
9BD
102
{ACAD_REACTORS
330
C
102
}
330
C
100
AcDbDictionary
281
     1
  3
CANNOSCALE
350
9C2
  3
DIMASSOC
350
9C3
  3
HIDETEXT
350
9C4
  3
PSOLHEIGHT
350
9C1
  3
PSOLWIDTH
350
9C0
  0
LAYOUT
  5
1E
102
{ACAD_REACTORS
330
1A
102
}
330
1A
100
AcDbPlotSettings
  1

  2
none_device
  4

  6

 40
0.0
 41
0.0
 42
0.0
 43
0.0
 44
0.0
 45
0.0
 46
0.0
 47
0.0
 48
0.0
 49
0.0
140
0.0
141
0.0
142
1.0
143
1.0
 70
   688
 72
     0
 73
     0
 74
     5
  7

 75
    16
147
1.0
148
0.0
149
0.0
100
AcDbLayout
  1
Layout1
 70
     1
 71
     1
 10
0.0
 20
0.0
 11
420.0
 21
297.0
 12
0.0
 22
0.0
 32
0.0
 14
1.000000000000000E+20
 24
1.000000000000000E+20
 34
1.000000000000000E+20
 15
-1.000000000000000E+20
 25
-1.000000000000000E+20
 35
-1.000000000000000E+20
146
0.0
 13
0.0
 23
0.0
 33
0.0
 16
1.0
 26
0.0
 36
0.0
 17
0.0
 27
1.0
 37
0.0
 76
     0
330
1B
  0
LAYOUT
  5
26
102
{ACAD_REACTORS
330
1A
102
}
330
1A
100
AcDbPlotSettings
  1

  2
none_device
  4

  6

 40
0.0
 41
0.0
 42
0.0
 43
0.0
 44
0.0
 45
0.0
 46
0.0
 47
0.0
 48
0.0
 49
0.0
140
0.0
141
0.0
142
1.0
143
1.0
 70
   688
 72
     0
 73
     0
 74
     5
  7

 75
    16
147
1.0
148
0.0
149
0.0
100
AcDbLayout
  1
Layout2
 70
     1
 71
     2
 10
0.0
 20
0.0
 11
0.0
 21
0.0
 12
0.0
 22
0.0
 32
0.0
 14
0.0
 24
0.0
 34
0.0
 15
0.0
 25
0.0
 35
0.0
146
0.0
 13
0.0
 23
0.0
 33
0.0
 16
1.0
 26
0.0
 36
0.0
 17
0.0
 27
1.0
 37
0.0
 76
     0
330
23
  0
LAYOUT
  5
22
102
{ACAD_REACTORS
330
1A
102
}
330
1A
100
AcDbPlotSettings
  1

  2
none_device
  4

  6

 40
0.0
 41
0.0
 42
0.0
 43
0.0
 44
0.0
 45
0.0
 46
0.0
 47
0.0
 48
0.0
 49
0.0
140
0.0
141
0.0
142
1.0
143
1.0
 70
  1712
 72
     0
 73
     0
 74
     0
  7

 75
     0
147
1.0
148
0.0
149
0.0
100
AcDbLayout
  1
Model
 70
     1
 71
     0
 10
0.0
 20
0.0
 11
420.0
 21
297.0
 12
0.0
 22
0.0
 32
0.0
 14
0.0
 24
0.0
 34
0.0
 15
25.0
 25
35.0
 35
0.0
146
0.0
 13
0.0
 23
0.0
 33
0.0
 16
1.0
 26
0.0
 36
0.0
 17
0.0
 27
1.0
 37
0.0
 76
     0
330
1F
331
29
  0
MATERIAL
  5
3D
102
{ACAD_REACTORS
330
3B
102
}
102
{ACAD_XDICTIONARY
360
9E7
102
}
330
3B
100
AcDbMaterial
  1
ByBlock
  0
MATERIAL
  5
3C
102
{ACAD_REACTORS
330
3B
102
}
102
{ACAD_XDICTIONARY
360
9E5
102
}
330
3B
100
AcDbMaterial
  1
ByLayer
  0
MATERIAL
  5
3E
102
{ACAD_REACTORS
330
3B
102
}
102
{ACAD_XDICTIONARY
360
9E9
102
}
330
3B
100
AcDbMaterial
  1
Global
  0
MLINESTYLE
  5
18
102
{ACAD_REACTORS
330
17
102
}
330
17
100
AcDbMlineStyle
  2
Standard
 70
     0
  3

 62
   256
 51
90.0
 52
90.0
 71
     2
 49
0.5
 62
   256
  6
BYLAYER
 49
-0.5
 62
   256
  6
BYLAYER
  0
ACDBPLACEHOLDER
  5
F
102
{ACAD_REACTORS
330
E
102
}
330
E
  0
SCALE
  5
2B6
102
{ACAD_REACTORS
330
2B5
102
}
330
2B5
100
AcDbScale
 70
     0
300
1:1
140
1.0
141
1.0
290
     1
  0
SCALE
  5
2B7
102
{ACAD_REACTORS
330
2B5
102
}
330
2B5
100
AcDbScale
 70
     0
300
1:2
140
1.0
141
2.0
290
     0
  0
SCALE
  5
2B8
102
{ACAD_REACTORS
330
2B5
102
}
330
2B5
100
AcDbScale
 70
     0
300
1:4
140
1.0
141
4.0
290
     0
  0
SCALE
  5
2B9
102
{ACAD_REACTORS
330
2B5
102
}
330
2B5
100
AcDbScale
 70
     0
300
1:5
140
1.0
141
5.0
290
     0
  0
SCALE
  5
2BA
102
{ACAD_REACTORS
330
2B5
102
}
330
2B5
100
AcDbScale
 70
     0
300
1:8
140
1.0
141
8.0
290
     0
  0
SCALE
  5
2BB
102
{ACAD_REACTORS
330
2B5
102
}
330
2B5
100
AcDbScale
 70
     0
300
1:10
140
1.0
141
10.0
290
     0
  0
SCALE
  5
2BC
102
{ACAD_REACTORS
330
2B5
102
}
330
2B5
100
AcDbScale
 70
     0
300
1:16
140
1.0
141
16.0
290
     0
  0
SCALE
  5
2BD
102
{ACAD_REACTORS
330
2B5
102
}
330
2B5
100
AcDbScale
 70
     0
300
1:20
140
1.0
141
20.0
290
     0
  0
SCALE
  5
2BE
102
{ACAD_REACTORS
330
2B5
102
}
330
2B5
100
AcDbScale
 70
     0
300
1:30
140
1.0
141
30.0
290
     0
  0
SCALE
  5
2BF
102
{ACAD_REACTORS
330
2B5
102
}
330
2B5
100
AcDbScale
 70
     0
300
1:40
140
1.0
141
40.0
290
     0
  0
SCALE
  5
2C0
102
{ACAD_REACTORS
330
2B5
102
}
330
2B5
100
AcDbScale
 70
     0
300
1:50
140
1.0
141
50.0
290
     0
  0
SCALE
  5
2C1
102
{ACAD_REACTORS
330
2B5
102
}
330
2B5
100
AcDbScale
 70
     0
300
1:100
140
1.0
141
100.0
290
     0
  0
SCALE
  5
2C2
102
{ACAD_REACTORS
330
2B5
102
}
330
2B5
100
AcDbScale
 70
     0
300
2:1
140
2.0
141
1.0
290
     0
  0
SCALE
  5
2C3
102
{ACAD_REACTORS
330
2B5
102
}
330
2B5
100
AcDbScale
 70
     0
300
4:1
140
4.0
141
1.0
290
     0
  0
SCALE
  5
2C4
102
{ACAD_REACTORS
330
2B5
102
}
330
2B5
100
AcDbScale
 70
     0
300
8:1
140
8.0
141
1.0
290
     0
  0
SCALE
  5
2C5
102
{ACAD_REACTORS
330
2B5
102
}
330
2B5
100
AcDbScale
 70
     0
300
10:1
140
10.0
141
1.0
290
     0
  0
SCALE
  5
2C6
102
{ACAD_REACTORS
330
2B5
102
}
330
2B5
100
AcDbScale
 70
     0
300
100:1
140
100.0
141
1.0
290
     0
  0
SCALE
  5
2C7
102
{ACAD_REACTORS
330
2B5
102
}
330
2B5
100
AcDbScale
 70
     0
300
1/128" = 1'-0"
140
0.0078125
141
12.0
290
     0
  0
SCALE
  5
2C8
102
{ACAD_REACTORS
330
2B5
102
}
330
2B5
100
AcDbScale
 70
     0
300
1/64" = 1'-0"
140
0.015625
141
12.0
290
     0
  0
SCALE
  5
2C9
102
{ACAD_REACTORS
330
2B5
102
}
330
2B5
100
AcDbScale
 70
     0
300
1/32" = 1'-0"
140
0.03125
141
12.0
290
     0
  0
SCALE
  5
2CA
102
{ACAD_REACTORS
330
2B5
102
}
330
2B5
100
AcDbScale
 70
     0
300
1/16" = 1'-0"
140
0.0625
141
12.0
290
     0
  0
SCALE
  5
2CB
102
{ACAD_REACTORS
330
2B5
102
}
330
2B5
100
AcDbScale
 70
     0
300
3/32" = 1'-0"
140
0.09375
141
12.0
290
     0
  0
SCALE
  5
2CC
102
{ACAD_REACTORS
330
2B5
102
}
330
2B5
100
AcDbScale
 70
     0
300
1/8" = 1'-0"
140
0.125
141
12.0
290
     0
  0
SCALE
  5
2CD
102
{ACAD_REACTORS
330
2B5
102
}
330
2B5
100
AcDbScale
 70
     0
300
3/16" = 1'-0"
140
0.1875
141
12.0
290
     0
  0
SCALE
  5
2CE
102
{ACAD_REACTORS
330
2B5
102
}
330
2B5
100
AcDbScale
 70
     0
300
1/4" = 1'-0"
140
0.25
141
12.0
290
     0
  0
SCALE
  5
2CF
102
{ACAD_REACTORS
330
2B5
102
}
330
2B5
100
AcDbScale
 70
     0
300
3/8" = 1'-0"
140
0.375
141
12.0
290
     0
  0
SCALE
  5
2D0
102
{ACAD_REACTORS
330
2B5
102
}
330
2B5
100
AcDbScale
 70
     0
300
1/2" = 1'-0"
140
0.5
141
12.0
290
     0
  0
SCALE
  5
2D1
102
{ACAD_REACTORS
330
2B5
102
}
330
2B5
100
AcDbScale
 70
     0
300
3/4" = 1'-0"
140
0.75
141
12.0
290
     0
  0
SCALE
  5
2D2
102
{ACAD_REACTORS
330
2B5
102
}
330
2B5
100
AcDbScale
 70
     0
300
1" = 1'-0"
140
1.0
141
12.0
290
     0
  0
SCALE
  5
2D3
102
{ACAD_REACTORS
330
2B5
102
}
330
2B5
100
AcDbScale
 70
     0
300
1-1/2" = 1'-0"
140
1.5
141
12.0
290
     0
  0
SCALE
  5
2D4
102
{ACAD_REACTORS
330
2B5
102
}
330
2B5
100
AcDbScale
 70
     0
300
3" = 1'-0"
140
3.0
141
12.0
290
     0
  0
SCALE
  5
2D5
102
{ACAD_REACTORS
330
2B5
102
}
330
2B5
100
AcDbScale
 70
     0
300
6" = 1'-0"
140
6.0
141
12.0
290
     0
  0
SCALE
  5
2D6
102
{ACAD_REACTORS
330
2B5
102
}
330
2B5
100
AcDbScale
 70
     0
300
1'-0" = 1'-0"
140
12.0
141
12.0
290
     0
  0
VISUALSTYLE
  5
2F
102
{ACAD_REACTORS
330
2A
102
}
102
{ACAD_XDICTIONARY
360
9CD
102
}
330
2A
100
AcDbVisualStyle
  2
2dWireframe
 70
     4
 71
     0
 72
     2
 73
     0
 90
        0
 40
-0.6
 41
-30.0
 62
     5
 63
     7
 74
     1
 91
        4
 64
     7
 65
   257
 75
     1
175
     1
 42
1.0
 92
        0
 66
   257
 43
1.0
 76
     1
 77
     6
 78
     2
 67
     7
 79
     5
170
     0
171
     0
290
     0
174
     0
 93
        1
 44
0.0
173
     0
291
     0
 45
0.0
1001
ACAD
1000
AcDbSavedByObjectVersion
1070
     0
  0
VISUALSTYLE
  5
31
102
{ACAD_REACTORS
330
2A
102
}
102
{ACAD_XDICTIONARY
360
9D1
102
}
330
2A
100
AcDbVisualStyle
  2
3D Hidden
 70
     6
 71
     1
 72
     2
 73
     2
 90
        0
 40
-0.6
 41
-30.0
 62
     5
 63
     7
 74
     2
 91
        2
 64
     7
 65
   257
 75
     2
175
     1
 42
40.0
 92
        0
 66
   257
 43
1.0
 76
     1
 77
     6
 78
     2
 67
     7
 79
     3
170
     0
171
     0
290
     0
174
     0
 93
        1
 44
0.0
173
     0
291
     0
 45
0.0
1001
ACAD
1000
AcDbSavedByObjectVersion
1070
     0
  0
VISUALSTYLE
  5
30
102
{ACAD_REACTORS
330
2A
102
}
102
{ACAD_XDICTIONARY
360
9CF
102
}
330
2A
100
AcDbVisualStyle
  2
3dWireframe
 70
     5
 71
     0
 72
     2
 73
     0
 90
        0
 40
-0.6
 41
-30.0
 62
     5
 63
     7
 74
     1
 91
        4
 64
     7
 65
   257
 75
     1
175
     1
 42
1.0
 92
        0
 66
   257
 43
1.0
 76
     1
 77
     6
 78
     2
 67
     7
 79
     5
170
     0
171
     0
290
     0
174
     0
 93
        1
 44
0.0
173
     0
291
     0
 45
0.0
1001
ACAD
1000
AcDbSavedByObjectVersion
1070
     0
  0
VISUALSTYLE
  5
32
102
{ACAD_REACTORS
330
2A
102
}
102
{ACAD_XDICTIONARY
360
9D3
102
}
330
2A
100
AcDbVisualStyle
  2
Basic
 70
     7
 71
     1
 72
     0
 73
     1
 90
        0
 40
-0.6
 41
-30.0
 62
     5
 63
     7
 74
     0
 91
        4
 64
     7
 65
   257
 75
     1
175
     1
 42
1.0
 92
        8
 66
     7
 43
1.0
 76
     1
 77
     6
 78
     2
 67
     7
 79
     5
170
     0
171
     0
290
     0
174
     0
 93
        1
 44
0.0
173
     0
291
     1
 45
0.0
1001
ACAD
1000
AcDbSavedByObjectVersion
1070
     0
  0
VISUALSTYLE
  5
36
102
{ACAD_REACTORS
330
2A
102
}
102
{ACAD_XDICTIONARY
360
9DB
102
}
330
2A
100
AcDbVisualStyle
  2
Brighten
 70
    12
 71
     2
 72
     2
 73
     0
 90
        0
 40
-0.6
 41
-30.0
 62
     5
 63
     7
 74
     1
 91
        4
 64
     7
 65
   257
 75
     1
175
     1
 42
1.0
 92
        8
 66
     7
 43
1.0
 76
     1
 77
     6
 78
     2
 67
     7
 79
     5
170
     0
171
     0
290
     0
174
     0
 93
        1
 44
50.0
173
     0
291
     1
 45
0.0
1001
ACAD
1000
AcDbSavedByObjectVersion
1070
     0
  0
VISUALSTYLE
  5
3A
102
{ACAD_REACTORS
330
2A
102
}
102
{ACAD_XDICTIONARY
360
9E3
102
}
330
2A
100
AcDbVisualStyle
  2
ColorChange
 70
    16
 71
     2
 72
     2
 73
     3
 90
        0
 40
-0.6
 41
-30.0
 62
     5
 63
     8
 74
     1
 91
        4
 64
     7
 65
   257
 75
     1
175
     1
 42
1.0
 92
        8
 66
     8
 43
1.0
 76
     1
 77
     6
 78
     2
 67
     7
 79
     5
170
     0
171
     0
290
     0
174
     0
 93
        1
 44
0.0
173
     0
291
     1
 45
0.0
1001
ACAD
1000
AcDbSavedByObjectVersion
1070
     0
  0
VISUALSTYLE
  5
34
102
{ACAD_REACTORS
330
2A
102
}
102
{ACAD_XDICTIONARY
360
9D7
102
}
330
2A
100
AcDbVisualStyle
  2
Conceptual
 70
     9
 71
     3
 72
     2
 73
     0
 90
        0
 40
-0.6
 41
-30.0
 62
     5
 63
     7
 74
     2
 91
        2
 64
     7
 65
   257
 75
     1
175
     1
 42
40.0
 92
        8
 66
     7
 43
1.0
 76
     1
 77
     6
 78
     2
 67
     7
 79
     3
170
     0
171
     0
290
     0
174
     0
 93
        1
 44
0.0
173
     0
291
     0
 45
0.0
1001
ACAD
1000
AcDbSavedByObjectVersion
1070
     0
  0
VISUALSTYLE
  5
35
102
{ACAD_REACTORS
330
2A
102
}
102
{ACAD_XDICTIONARY
360
9D9
102
}
330
2A
100
AcDbVisualStyle
  2
Dim
 70
    11
 71
     2
 72
     2
 73
     0
 90
        0
 40
-0.6
 41
-30.0
 62
     5
 63
     7
 74
     1
 91
        4
 64
     7
 65
   257
 75
     1
175
     1
 42
1.0
 92
        8
 66
     7
 43
1.0
 76
     1
 77
     6
 78
     2
 67
     7
 79
     5
170
     0
171
     0
290
     0
174
     0
 93
        1
 44
-50.0
173
     0
291
     1
 45
0.0
1001
ACAD
1000
AcDbSavedByObjectVersion
1070
     0
  0
VISUALSTYLE
  5
39
102
{ACAD_REACTORS
330
2A
102
}
102
{ACAD_XDICTIONARY
360
9E1
102
}
330
2A
100
AcDbVisualStyle
  2
Facepattern
 70
    15
 71
     2
 72
     2
 73
     0
 90
        0
 40
-0.6
 41
-30.0
 62
     5
 63
     7
 74
     1
 91
        4
 64
     7
 65
   257
 75
     1
175
     1
 42
1.0
 92
        8
 66
     7
 43
1.0
 76
     1
 77
     6
 78
     2
 67
     7
 79
     5
170
     0
171
     0
290
     0
174
     0
 93
        1
 44
0.0
173
     0
291
     1
 45
0.0
1001
ACAD
1000
AcDbSavedByObjectVersion
1070
     0
  0
VISUALSTYLE
  5
2B
102
{ACAD_REACTORS
330
2A
102
}
102
{ACAD_XDICTIONARY
360
9C5
102
}
330
2A
100
AcDbVisualStyle
  2
Flat
 70
     0
 71
     2
 72
     1
 73
     1
 90
        2
 40
-0.6
 41
30.0
 62
     5
 63
     7
 74
     0
 91
        4
 64
     7
 65
   257
 75
     1
175
     1
 42
1.0
 92
        8
 66
     7
 43
1.0
 76
     1
 77
     6
 78
     2
 67
     7
 79
     5
170
     0
171
     0
290
     0
174
     0
 93
       13
 44
0.0
173
     0
291
     1
 45
0.0
1001
ACAD
1000
AcDbSavedByObjectVersion
1070
     0
  0
VISUALSTYLE
  5
2C
102
{ACAD_REACTORS
330
2A
102
}
102
{ACAD_XDICTIONARY
360
9C7
102
}
330
2A
100
AcDbVisualStyle
  2
FlatWithEdges
 70
     1
 71
     2
 72
     1
 73
     1
 90
        2
 40
-0.6
 41
30.0
 62
     5
 63
     7
 74
     1
 91
        4
 64
     7
 65
   257
 75
     1
175
     1
 42
1.0
 92
        0
 66
   257
 43
1.0
 76
     1
 77
     6
 78
     2
 67
     7
 79
     5
170
     0
171
     0
290
     0
174
     0
 93
       13
 44
0.0
173
     0
291
     1
 45
0.0
1001
ACAD
1000
AcDbSavedByObjectVersion
1070
     0
  0
VISUALSTYLE
  5
2D
102
{ACAD_REACTORS
330
2A
102
}
102
{ACAD_XDICTIONARY
360
9C9
102
}
330
2A
100
AcDbVisualStyle
  2
Gouraud
 70
     2
 71
     2
 72
     2
 73
     1
 90
        2
 40
-0.6
 41
30.0
 62
     5
 63
     7
 74
     0
 91
        4
 64
     7
 65
   257
 75
     1
175
     1
 42
1.0
 92
        0
 66
     7
 43
1.0
 76
     1
 77
     6
 78
     2
 67
     7
 79
     5
170
     0
171
     0
290
     0
174
     0
 93
       13
 44
0.0
173
     0
291
     1
 45
0.0
1001
ACAD
1000
AcDbSavedByObjectVersion
1070
     0
  0
VISUALSTYLE
  5
2E
102
{ACAD_REACTORS
330
2A
102
}
102
{ACAD_XDICTIONARY
360
9CB
102
}
330
2A
100
AcDbVisualStyle
  2
GouraudWithEdges
 70
     3
 71
     2
 72
     2
 73
     1
 90
        2
 40
-0.6
 41
30.0
 62
     5
 63
     7
 74
     1
 91
        4
 64
     7
 65
   257
 75
     1
175
     1
 42
1.0
 92
        0
 66
   257
 43
1.0
 76
     1
 77
     6
 78
     2
 67
     7
 79
     5
170
     0
171
     0
290
     0
174
     0
 93
       13
 44
0.0
173
     0
291
     1
 45
0.0
1001
ACAD
1000
AcDbSavedByObjectVersion
1070
     0
  0
VISUALSTYLE
  5
38
102
{ACAD_REACTORS
330
2A
102
}
102
{ACAD_XDICTIONARY
360
9DF
102
}
330
2A
100
AcDbVisualStyle
  2
Linepattern
 70
    14
 71
     2
 72
     2
 73
     0
 90
        0
 40
-0.6
 41
-30.0
 62
     5
 63
     7
 74
     1
 91
        4
 64
     7
 65
   257
 75
     7
175
     7
 42
1.0
 92
        8
 66
     7
 43
1.0
 76
     1
 77
     6
 78
     2
 67
     7
 79
     5
170
     0
171
     0
290
     0
174
     0
 93
        1
 44
0.0
173
     0
291
     1
 45
0.0
1001
ACAD
1000
AcDbSavedByObjectVersion
1070
     0
  0
VISUALSTYLE
  5
33
102
{ACAD_REACTORS
330
2A
102
}
102
{ACAD_XDICTIONARY
360
9D5
102
}
330
2A
100
AcDbVisualStyle
  2
Realistic
 70
     8
 71
     2
 72
     2
 73
     0
 90
        0
 40
-0.6
 41
-30.0
 62
     5
 63
     7
 74
     1
 91
        0
 64
     7
 65
   257
 75
     1
175
     1
 42
1.0
 92
        8
 66
     8
 43
1.0
 76
     1
 77
     6
 78
     2
 67
     7
 79
     5
170
     0
171
     0
290
     0
174
     0
 93
       13
 44
0.0
173
     0
291
     0
 45
0.0
1001
ACAD
1000
AcDbSavedByObjectVersion
1070
     0
  0
VISUALSTYLE
  5
37
102
{ACAD_REACTORS
330
2A
102
}
102
{ACAD_XDICTIONARY
360
9DD
102
}
330
2A
100
AcDbVisualStyle
  2
Thicken
 70
    13
 71
     2
 72
     2
 73
     0
 90
        0
 40
-0.6
 41
-30.0
 62
     5
 63
     7
 74
     1
 91
        4
 64
     7
 65
   257
 75
     1
175
     1
 42
1.0
 92
       12
 66
     7
 43
1.0
 76
     1
 77
     6
 78
     2
 67
     7
 79
     5
170
     0
171
     0
290
     0
174
     0
 93
        1
 44
0.0
173
     0
291
     1
 45
0.0
1001
ACAD
1000
AcDbSavedByObjectVersion
1070
     0
  0
DICTIONARYVAR
  5
9C2
102
{ACAD_REACTORS
330
9BD
102
}
330
9BD
100
DictionaryVariables
280
     0
  1
1:1
  0
DICTIONARYVAR
  5
9C3
102
{ACAD_REACTORS
330
9BD
102
}
330
9BD
100
DictionaryVariables
280
     0
  1
2
  0
DICTIONARYVAR
  5
9C4
102
{ACAD_REACTORS
330
9BD
102
}
330
9BD
100
DictionaryVariables
280
     0
  1
1
  0
DICTIONARYVAR
  5
9C1
102
{ACAD_REACTORS
330
9BD
102
}
330
9BD
100
DictionaryVariables
280
     0
  1
80.000000
  0
DICTIONARYVAR
  5
9C0
102
{ACAD_REACTORS
330
9BD
102
}
330
9BD
100
DictionaryVariables
280
     0
  1
5.000000
  0
DICTIONARY
  5
9E7
330
3D
100
AcDbDictionary
280
     1
281
     1
  3
ACAD_XREC_ROUNDTRIP
360
9E8
  0
DICTIONARY
  5
9E5
330
3C
100
AcDbDictionary
280
     1
281
     1
  3
ACAD_XREC_ROUNDTRIP
360
9E6
  0
DICTIONARY
  5
9E9
330
3E
100
AcDbDictionary
280
     1
281
     1
  3
ACAD_XREC_ROUNDTRIP
360
9EA
  0
DICTIONARY
  5
9CD
330
2F
100
AcDbDictionary
280
     1
281
     1
  3
ACAD_XREC_ROUNDTRIP
360
9CE
  0
DICTIONARY
  5
9D1
330
31
100
AcDbDictionary
280
     1
281
     1
  3
ACAD_XREC_ROUNDTRIP
360
9D2
  0
DICTIONARY
  5
9CF
330
30
100
AcDbDictionary
280
     1
281
     1
  3
ACAD_XREC_ROUNDTRIP
360
9D0
  0
DICTIONARY
  5
9D3
330
32
100
AcDbDictionary
280
     1
281
     1
  3
ACAD_XREC_ROUNDTRIP
360
9D4
  0
DICTIONARY
  5
9DB
330
36
100
AcDbDictionary
280
     1
281
     1
  3
ACAD_XREC_ROUNDTRIP
360
9DC
  0
DICTIONARY
  5
9E3
330
3A
100
AcDbDictionary
280
     1
281
     1
  3
ACAD_XREC_ROUNDTRIP
360
9E4
  0
DICTIONARY
  5
9D7
330
34
100
AcDbDictionary
280
     1
281
     1
  3
ACAD_XREC_ROUNDTRIP
360
9D8
  0
DICTIONARY
  5
9D9
330
35
100
AcDbDictionary
280
     1
281
     1
  3
ACAD_XREC_ROUNDTRIP
360
9DA
  0
DICTIONARY
  5
9E1
330
39
100
AcDbDictionary
280
     1
281
     1
  3
ACAD_XREC_ROUNDTRIP
360
9E2
  0
DICTIONARY
  5
9C5
330
2B
100
AcDbDictionary
280
     1
281
     1
  3
ACAD_XREC_ROUNDTRIP
360
9C6
  0
DICTIONARY
  5
9C7
330
2C
100
AcDbDictionary
280
     1
281
     1
  3
ACAD_XREC_ROUNDTRIP
360
9C8
  0
DICTIONARY
  5
9C9
330
2D
100
AcDbDictionary
280
     1
281
     1
  3
ACAD_XREC_ROUNDTRIP
360
9CA
  0
DICTIONARY
  5
9CB
330
2E
100
AcDbDictionary
280
     1
281
     1
  3
ACAD_XREC_ROUNDTRIP
360
9CC
  0
DICTIONARY
  5
9DF
330
38
100
AcDbDictionary
280
     1
281
     1
  3
ACAD_XREC_ROUNDTRIP
360
9E0
  0
DICTIONARY
  5
9D5
330
33
100
AcDbDictionary
280
     1
281
     1
  3
ACAD_XREC_ROUNDTRIP
360
9D6
  0
DICTIONARY
  5
9DD
330
37
100
AcDbDictionary
280
     1
281
     1
  3
ACAD_XREC_ROUNDTRIP
360
9DE
  0
XRECORD
  5
9E8
102
{ACAD_REACTORS
330
9E7
102
}
330
9E7
100
AcDbXrecord
280
     1
102
MATERIAL
148
0.0
149
0.0
149
0.0
 93
        0
 94
      127
282
     0
 72
     1
 77
     1
171
     1
175
     1
179
     1
273
     0
  0
XRECORD
  5
9E6
102
{ACAD_REACTORS
330
9E5
102
}
330
9E5
100
AcDbXrecord
280
     1
102
MATERIAL
148
0.0
149
0.0
149
0.0
 93
        0
 94
      127
282
     0
 72
     1
 77
     1
171
     1
175
     1
179
     1
273
     0
  0
XRECORD
  5
9EA
102
{ACAD_REACTORS
330
9E9
102
}
330
9E9
100
AcDbXrecord
280
     1
102
MATERIAL
148
0.0
149
0.0
149
0.0
 93
        0
 94
      127
282
     0
 72
     1
 77
     1
171
     1
175
     1
179
     1
273
     0
  0
XRECORD
  5
9CE
102
{ACAD_REACTORS
330
9CD
102
}
330
9CD
100
AcDbXrecord
280
     1
102
RTVSPropertyOp0
 70
     1
102
RTVSPropertyOp1
 70
     1
102
RTVSPropertyOp2
 70
     1
102
RTVSPropertyOp3
 70
     1
102
RTVSPropertyOp4
 70
     1
102
RTVSPropertyOp5
 70
     1
102
RTVSPropertyOp6
 70
     1
102
RTVSPropertyOp7
 70
     1
102
RTVSPropertyOp8
 70
     1
102
RTVSPropertyOp9
 70
     1
102
RTVSPropertyOp10
 70
     1
102
RTVSPropertyOp11
 70
     1
102
RTVSPropertyOp12
 70
     1
102
RTVSPropertyOp13
 70
     1
102
RTVSPropertyOp14
 70
     1
102
RTVSPropertyOp15
 70
     1
102
RTVSPropertyOp16
 70
     1
102
RTVSPropertyOp17
 70
     1
102
RTVSPropertyOp18
 70
     1
102
RTVSPropertyOp19
 70
     1
102
RTVSPropertyOp20
 70
     1
102
RTVSPropertyOp21
 70
     1
102
RTVSPropertyOp22
 70
     1
102
RTVSPropertyOp23
 70
     1
102
RTVSPropertyOp24
 70
     1
102
RTVSPropertyOp25
 70
     1
102
RTVSPropertyOp26
 70
     1
102
RTVSPropertyOp27
 70
     1
  0
XRECORD
  5
9D2
102
{ACAD_REACTORS
330
9D1
102
}
330
9D1
100
AcDbXrecord
280
     1
102
RTVSPropertyOp0
 70
     1
102
RTVSPropertyOp1
 70
     1
102
RTVSPropertyOp2
 70
     1
102
RTVSPropertyOp3
 70
     1
102
RTVSPropertyOp4
 70
     1
102
RTVSPropertyOp5
 70
     1
102
RTVSPropertyOp6
 70
     1
102
RTVSPropertyOp7
 70
     1
102
RTVSPropertyOp8
 70
     1
102
RTVSPropertyOp9
 70
     1
102
RTVSPropertyOp10
 70
     1
102
RTVSPropertyOp11
 70
     1
102
RTVSPropertyOp12
 70
     1
102
RTVSPropertyOp13
 70
     1
102
RTVSPropertyOp14
 70
     1
102
RTVSPropertyOp15
 70
     1
102
RTVSPropertyOp16
 70
     1
102
RTVSPropertyOp17
 70
     1
102
RTVSPropertyOp18
 70
     1
102
RTVSPropertyOp19
 70
     1
102
RTVSPropertyOp20
 70
     1
102
RTVSPropertyOp21
 70
     1
102
RTVSPropertyOp22
 70
     1
102
RTVSPropertyOp23
 70
     1
102
RTVSPropertyOp24
 70
     1
102
RTVSPropertyOp25
 70
     1
102
RTVSPropertyOp26
 70
     1
102
RTVSPropertyOp27
 70
     1
  0
XRECORD
  5
9D0
102
{ACAD_REACTORS
330
9CF
102
}
330
9CF
100
AcDbXrecord
280
     1
102
RTVSPropertyOp0
 70
     1
102
RTVSPropertyOp1
 70
     1
102
RTVSPropertyOp2
 70
     1
102
RTVSPropertyOp3
 70
     1
102
RTVSPropertyOp4
 70
     1
102
RTVSPropertyOp5
 70
     1
102
RTVSPropertyOp6
 70
     1
102
RTVSPropertyOp7
 70
     1
102
RTVSPropertyOp8
 70
     1
102
RTVSPropertyOp9
 70
     1
102
RTVSPropertyOp10
 70
     1
102
RTVSPropertyOp11
 70
     1
102
RTVSPropertyOp12
 70
     1
102
RTVSPropertyOp13
 70
     1
102
RTVSPropertyOp14
 70
     1
102
RTVSPropertyOp15
 70
     1
102
RTVSPropertyOp16
 70
     1
102
RTVSPropertyOp17
 70
     1
102
RTVSPropertyOp18
 70
     1
102
RTVSPropertyOp19
 70
     1
102
RTVSPropertyOp20
 70
     1
102
RTVSPropertyOp21
 70
     1
102
RTVSPropertyOp22
 70
     1
102
RTVSPropertyOp23
 70
     1
102
RTVSPropertyOp24
 70
     1
102
RTVSPropertyOp25
 70
     1
102
RTVSPropertyOp26
 70
     1
102
RTVSPropertyOp27
 70
     1
  0
XRECORD
  5
9D4
102
{ACAD_REACTORS
330
9D3
102
}
330
9D3
100
AcDbXrecord
280
     1
102
RTVSPropertyOp0
 70
     1
102
RTVSPropertyOp1
 70
     1
102
RTVSPropertyOp2
 70
     1
102
RTVSPropertyOp3
 70
     1
102
RTVSPropertyOp4
 70
     1
102
RTVSPropertyOp5
 70
     1
102
RTVSPropertyOp6
 70
     1
102
RTVSPropertyOp7
 70
     1
102
RTVSPropertyOp8
 70
     1
102
RTVSPropertyOp9
 70
     1
102
RTVSPropertyOp10
 70
     1
102
RTVSPropertyOp11
 70
     1
102
RTVSPropertyOp12
 70
     1
102
RTVSPropertyOp13
 70
     1
102
RTVSPropertyOp14
 70
     1
102
RTVSPropertyOp15
 70
     1
102
RTVSPropertyOp16
 70
     1
102
RTVSPropertyOp17
 70
     1
102
RTVSPropertyOp18
 70
     1
102
RTVSPropertyOp19
 70
     1
102
RTVSPropertyOp20
 70
     1
102
RTVSPropertyOp21
 70
     1
102
RTVSPropertyOp22
 70
     1
102
RTVSPropertyOp23
 70
     1
102
RTVSPropertyOp24
 70
     1
102
RTVSPropertyOp25
 70
     1
102
RTVSPropertyOp26
 70
     1
102
RTVSPropertyOp27
 70
     1
  0
XRECORD
  5
9DC
102
{ACAD_REACTORS
330
9DB
102
}
330
9DB
100
AcDbXrecord
280
     1
102
RTVSPropertyOp0
 70
     1
102
RTVSPropertyOp1
 70
     1
102
RTVSPropertyOp2
 70
     1
102
RTVSPropertyOp3
 70
     1
102
RTVSPropertyOp4
 70
     1
102
RTVSPropertyOp5
 70
     1
102
RTVSPropertyOp6
 70
     1
102
RTVSPropertyOp7
 70
     1
102
RTVSPropertyOp8
 70
     1
102
RTVSPropertyOp9
 70
     1
102
RTVSPropertyOp10
 70
     1
102
RTVSPropertyOp11
 70
     1
102
RTVSPropertyOp12
 70
     1
102
RTVSPropertyOp13
 70
     1
102
RTVSPropertyOp14
 70
     1
102
RTVSPropertyOp15
 70
     1
102
RTVSPropertyOp16
 70
     1
102
RTVSPropertyOp17
 70
     1
102
RTVSPropertyOp18
 70
     1
102
RTVSPropertyOp19
 70
     1
102
RTVSPropertyOp20
 70
     1
102
RTVSPropertyOp21
 70
     1
102
RTVSPropertyOp22
 70
     1
102
RTVSPropertyOp23
 70
     1
102
RTVSPropertyOp24
 70
     1
102
RTVSPropertyOp25
 70
     1
102
RTVSPropertyOp26
 70
     1
102
RTVSPropertyOp27
 70
     1
  0
XRECORD
  5
9E4
102
{ACAD_REACTORS
330
9E3
102
}
330
9E3
100
AcDbXrecord
280
     1
102
RTVSPropertyOp0
 70
     1
102
RTVSPropertyOp1
 70
     1
102
RTVSPropertyOp2
 70
     1
102
RTVSPropertyOp3
 70
     1
102
RTVSPropertyOp4
 70
     1
102
RTVSPropertyOp5
 70
     1
102
RTVSPropertyOp6
 70
     1
102
RTVSPropertyOp7
 70
     1
102
RTVSPropertyOp8
 70
     1
102
RTVSPropertyOp9
 70
     1
102
RTVSPropertyOp10
 70
     1
102
RTVSPropertyOp11
 70
     1
102
RTVSPropertyOp12
 70
     1
102
RTVSPropertyOp13
 70
     1
102
RTVSPropertyOp14
 70
     1
102
RTVSPropertyOp15
 70
     1
102
RTVSPropertyOp16
 70
     1
102
RTVSPropertyOp17
 70
     1
102
RTVSPropertyOp18
 70
     1
102
RTVSPropertyOp19
 70
     1
102
RTVSPropertyOp20
 70
     1
102
RTVSPropertyOp21
 70
     1
102
RTVSPropertyOp22
 70
     1
102
RTVSPropertyOp23
 70
     1
102
RTVSPropertyOp24
 70
     1
102
RTVSPropertyOp25
 70
     1
102
RTVSPropertyOp26
 70
     1
102
RTVSPropertyOp27
 70
     1
  0
XRECORD
  5
9D8
102
{ACAD_REACTORS
330
9D7
102
}
330
9D7
100
AcDbXrecord
280
     1
102
RTVSPropertyOp0
 70
     1
102
RTVSPropertyOp1
 70
     1
102
RTVSPropertyOp2
 70
     1
102
RTVSPropertyOp3
 70
     1
102
RTVSPropertyOp4
 70
     1
102
RTVSPropertyOp5
 70
     1
102
RTVSPropertyOp6
 70
     1
102
RTVSPropertyOp7
 70
     1
102
RTVSPropertyOp8
 70
     1
102
RTVSPropertyOp9
 70
     1
102
RTVSPropertyOp10
 70
     1
102
RTVSPropertyOp11
 70
     1
102
RTVSPropertyOp12
 70
     1
102
RTVSPropertyOp13
 70
     1
102
RTVSPropertyOp14
 70
     1
102
RTVSPropertyOp15
 70
     1
102
RTVSPropertyOp16
 70
     1
102
RTVSPropertyOp17
 70
     1
102
RTVSPropertyOp18
 70
     1
102
RTVSPropertyOp19
 70
     1
102
RTVSPropertyOp20
 70
     1
102
RTVSPropertyOp21
 70
     1
102
RTVSPropertyOp22
 70
     1
102
RTVSPropertyOp23
 70
     1
102
RTVSPropertyOp24
 70
     1
102
RTVSPropertyOp25
 70
     1
102
RTVSPropertyOp26
 70
     1
102
RTVSPropertyOp27
 70
     1
  0
XRECORD
  5
9DA
102
{ACAD_REACTORS
330
9D9
102
}
330
9D9
100
AcDbXrecord
280
     1
102
RTVSPropertyOp0
 70
     1
102
RTVSPropertyOp1
 70
     1
102
RTVSPropertyOp2
 70
     1
102
RTVSPropertyOp3
 70
     1
102
RTVSPropertyOp4
 70
     1
102
RTVSPropertyOp5
 70
     1
102
RTVSPropertyOp6
 70
     1
102
RTVSPropertyOp7
 70
     1
102
RTVSPropertyOp8
 70
     1
102
RTVSPropertyOp9
 70
     1
102
RTVSPropertyOp10
 70
     1
102
RTVSPropertyOp11
 70
     1
102
RTVSPropertyOp12
 70
     1
102
RTVSPropertyOp13
 70
     1
102
RTVSPropertyOp14
 70
     1
102
RTVSPropertyOp15
 70
     1
102
RTVSPropertyOp16
 70
     1
102
RTVSPropertyOp17
 70
     1
102
RTVSPropertyOp18
 70
     1
102
RTVSPropertyOp19
 70
     1
102
RTVSPropertyOp20
 70
     1
102
RTVSPropertyOp21
 70
     1
102
RTVSPropertyOp22
 70
     1
102
RTVSPropertyOp23
 70
     1
102
RTVSPropertyOp24
 70
     1
102
RTVSPropertyOp25
 70
     1
102
RTVSPropertyOp26
 70
     1
102
RTVSPropertyOp27
 70
     1
  0
XRECORD
  5
9E2
102
{ACAD_REACTORS
330
9E1
102
}
330
9E1
100
AcDbXrecord
280
     1
102
RTVSPropertyOp0
 70
     1
102
RTVSPropertyOp1
 70
     1
102
RTVSPropertyOp2
 70
     1
102
RTVSPropertyOp3
 70
     1
102
RTVSPropertyOp4
 70
     1
102
RTVSPropertyOp5
 70
     1
102
RTVSPropertyOp6
 70
     1
102
RTVSPropertyOp7
 70
     1
102
RTVSPropertyOp8
 70
     1
102
RTVSPropertyOp9
 70
     1
102
RTVSPropertyOp10
 70
     1
102
RTVSPropertyOp11
 70
     1
102
RTVSPropertyOp12
 70
     1
102
RTVSPropertyOp13
 70
     1
102
RTVSPropertyOp14
 70
     1
102
RTVSPropertyOp15
 70
     1
102
RTVSPropertyOp16
 70
     1
102
RTVSPropertyOp17
 70
     1
102
RTVSPropertyOp18
 70
     1
102
RTVSPropertyOp19
 70
     1
102
RTVSPropertyOp20
 70
     1
102
RTVSPropertyOp21
 70
     1
102
RTVSPropertyOp22
 70
     1
102
RTVSPropertyOp23
 70
     1
102
RTVSPropertyOp24
 70
     1
102
RTVSPropertyOp25
 70
     1
102
RTVSPropertyOp26
 70
     1
102
RTVSPropertyOp27
 70
     1
  0
XRECORD
  5
9C6
102
{ACAD_REACTORS
330
9C5
102
}
330
9C5
100
AcDbXrecord
280
     1
102
RTVSPropertyOp0
 70
     1
102
RTVSPropertyOp1
 70
     1
102
RTVSPropertyOp2
 70
     1
102
RTVSPropertyOp3
 70
     1
102
RTVSPropertyOp4
 70
     1
102
RTVSPropertyOp5
 70
     1
102
RTVSPropertyOp6
 70
     1
102
RTVSPropertyOp7
 70
     1
102
RTVSPropertyOp8
 70
     1
102
RTVSPropertyOp9
 70
     1
102
RTVSPropertyOp10
 70
     1
102
RTVSPropertyOp11
 70
     1
102
RTVSPropertyOp12
 70
     1
102
RTVSPropertyOp13
 70
     1
102
RTVSPropertyOp14
 70
     1
102
RTVSPropertyOp15
 70
     1
102
RTVSPropertyOp16
 70
     1
102
RTVSPropertyOp17
 70
     1
102
RTVSPropertyOp18
 70
     1
102
RTVSPropertyOp19
 70
     1
102
RTVSPropertyOp20
 70
     1
102
RTVSPropertyOp21
 70
     1
102
RTVSPropertyOp22
 70
     1
102
RTVSPropertyOp23
 70
     1
102
RTVSPropertyOp24
 70
     1
102
RTVSPropertyOp25
 70
     1
102
RTVSPropertyOp26
 70
     1
102
RTVSPropertyOp27
 70
     1
  0
XRECORD
  5
9C8
102
{ACAD_REACTORS
330
9C7
102
}
330
9C7
100
AcDbXrecord
280
     1
102
RTVSPropertyOp0
 70
     1
102
RTVSPropertyOp1
 70
     1
102
RTVSPropertyOp2
 70
     1
102
RTVSPropertyOp3
 70
     1
102
RTVSPropertyOp4
 70
     1
102
RTVSPropertyOp5
 70
     1
102
RTVSPropertyOp6
 70
     1
102
RTVSPropertyOp7
 70
     1
102
RTVSPropertyOp8
 70
     1
102
RTVSPropertyOp9
 70
     1
102
RTVSPropertyOp10
 70
     1
102
RTVSPropertyOp11
 70
     1
102
RTVSPropertyOp12
 70
     1
102
RTVSPropertyOp13
 70
     1
102
RTVSPropertyOp14
 70
     1
102
RTVSPropertyOp15
 70
     1
102
RTVSPropertyOp16
 70
     1
102
RTVSPropertyOp17
 70
     1
102
RTVSPropertyOp18
 70
     1
102
RTVSPropertyOp19
 70
     1
102
RTVSPropertyOp20
 70
     1
102
RTVSPropertyOp21
 70
     1
102
RTVSPropertyOp22
 70
     1
102
RTVSPropertyOp23
 70
     1
102
RTVSPropertyOp24
 70
     1
102
RTVSPropertyOp25
 70
     1
102
RTVSPropertyOp26
 70
     1
102
RTVSPropertyOp27
 70
     1
  0
XRECORD
  5
9CA
102
{ACAD_REACTORS
330
9C9
102
}
330
9C9
100
AcDbXrecord
280
     1
102
RTVSPropertyOp0
 70
     1
102
RTVSPropertyOp1
 70
     1
102
RTVSPropertyOp2
 70
     1
102
RTVSPropertyOp3
 70
     1
102
RTVSPropertyOp4
 70
     1
102
RTVSPropertyOp5
 70
     1
102
RTVSPropertyOp6
 70
     1
102
RTVSPropertyOp7
 70
     1
102
RTVSPropertyOp8
 70
     1
102
RTVSPropertyOp9
 70
     1
102
RTVSPropertyOp10
 70
     1
102
RTVSPropertyOp11
 70
     1
102
RTVSPropertyOp12
 70
     1
102
RTVSPropertyOp13
 70
     1
102
RTVSPropertyOp14
 70
     1
102
RTVSPropertyOp15
 70
     1
102
RTVSPropertyOp16
 70
     1
102
RTVSPropertyOp17
 70
     1
102
RTVSPropertyOp18
 70
     1
102
RTVSPropertyOp19
 70
     1
102
RTVSPropertyOp20
 70
     1
102
RTVSPropertyOp21
 70
     1
102
RTVSPropertyOp22
 70
     1
102
RTVSPropertyOp23
 70
     1
102
RTVSPropertyOp24
 70
     1
102
RTVSPropertyOp25
 70
     1
102
RTVSPropertyOp26
 70
     1
102
RTVSPropertyOp27
 70
     1
  0
XRECORD
  5
9CC
102
{ACAD_REACTORS
330
9CB
102
}
330
9CB
100
AcDbXrecord
280
     1
102
RTVSPropertyOp0
 70
     1
102
RTVSPropertyOp1
 70
     1
102
RTVSPropertyOp2
 70
     1
102
RTVSPropertyOp3
 70
     1
102
RTVSPropertyOp4
 70
     1
102
RTVSPropertyOp5
 70
     1
102
RTVSPropertyOp6
 70
     1
102
RTVSPropertyOp7
 70
     1
102
RTVSPropertyOp8
 70
     1
102
RTVSPropertyOp9
 70
     1
102
RTVSPropertyOp10
 70
     1
102
RTVSPropertyOp11
 70
     1
102
RTVSPropertyOp12
 70
     1
102
RTVSPropertyOp13
 70
     1
102
RTVSPropertyOp14
 70
     1
102
RTVSPropertyOp15
 70
     1
102
RTVSPropertyOp16
 70
     1
102
RTVSPropertyOp17
 70
     1
102
RTVSPropertyOp18
 70
     1
102
RTVSPropertyOp19
 70
     1
102
RTVSPropertyOp20
 70
     1
102
RTVSPropertyOp21
 70
     1
102
RTVSPropertyOp22
 70
     1
102
RTVSPropertyOp23
 70
     1
102
RTVSPropertyOp24
 70
     1
102
RTVSPropertyOp25
 70
     1
102
RTVSPropertyOp26
 70
     1
102
RTVSPropertyOp27
 70
     1
  0
XRECORD
  5
9E0
102
{ACAD_REACTORS
330
9DF
102
}
330
9DF
100
AcDbXrecord
280
     1
102
RTVSPropertyOp0
 70
     1
102
RTVSPropertyOp1
 70
     1
102
RTVSPropertyOp2
 70
     1
102
RTVSPropertyOp3
 70
     1
102
RTVSPropertyOp4
 70
     1
102
RTVSPropertyOp5
 70
     1
102
RTVSPropertyOp6
 70
     1
102
RTVSPropertyOp7
 70
     1
102
RTVSPropertyOp8
 70
     1
102
RTVSPropertyOp9
 70
     1
102
RTVSPropertyOp10
 70
     1
102
RTVSPropertyOp11
 70
     1
102
RTVSPropertyOp12
 70
     1
102
RTVSPropertyOp13
 70
     1
102
RTVSPropertyOp14
 70
     1
102
RTVSPropertyOp15
 70
     1
102
RTVSPropertyOp16
 70
     1
102
RTVSPropertyOp17
 70
     1
102
RTVSPropertyOp18
 70
     1
102
RTVSPropertyOp19
 70
     1
102
RTVSPropertyOp20
 70
     1
102
RTVSPropertyOp21
 70
     1
102
RTVSPropertyOp22
 70
     1
102
RTVSPropertyOp23
 70
     1
102
RTVSPropertyOp24
 70
     1
102
RTVSPropertyOp25
 70
     1
102
RTVSPropertyOp26
 70
     1
102
RTVSPropertyOp27
 70
     1
  0
XRECORD
  5
9D6
102
{ACAD_REACTORS
330
9D5
102
}
330
9D5
100
AcDbXrecord
280
     1
102
RTVSPropertyOp0
 70
     1
102
RTVSPropertyOp1
 70
     1
102
RTVSPropertyOp2
 70
     1
102
RTVSPropertyOp3
 70
     1
102
RTVSPropertyOp4
 70
     1
102
RTVSPropertyOp5
 70
     1
102
RTVSPropertyOp6
 70
     1
102
RTVSPropertyOp7
 70
     1
102
RTVSPropertyOp8
 70
     1
102
RTVSPropertyOp9
 70
     1
102
RTVSPropertyOp10
 70
     1
102
RTVSPropertyOp11
 70
     1
102
RTVSPropertyOp12
 70
     1
102
RTVSPropertyOp13
 70
     1
102
RTVSPropertyOp14
 70
     1
102
RTVSPropertyOp15
 70
     1
102
RTVSPropertyOp16
 70
     1
102
RTVSPropertyOp17
 70
     1
102
RTVSPropertyOp18
 70
     1
102
RTVSPropertyOp19
 70
     1
102
RTVSPropertyOp20
 70
     1
102
RTVSPropertyOp21
 70
     1
102
RTVSPropertyOp22
 70
     1
102
RTVSPropertyOp23
 70
     1
102
RTVSPropertyOp24
 70
     1
102
RTVSPropertyOp25
 70
     1
102
RTVSPropertyOp26
 70
     1
102
RTVSPropertyOp27
 70
     1
  0
XRECORD
  5
9DE
102
{ACAD_REACTORS
330
9DD
102
}
330
9DD
100
AcDbXrecord
280
     1
102
RTVSPropertyOp0
 70
     1
102
RTVSPropertyOp1
 70
     1
102
RTVSPropertyOp2
 70
     1
102
RTVSPropertyOp3
 70
     1
102
RTVSPropertyOp4
 70
     1
102
RTVSPropertyOp5
 70
     1
102
RTVSPropertyOp6
 70
     1
102
RTVSPropertyOp7
 70
     1
102
RTVSPropertyOp8
 70
     1
102
RTVSPropertyOp9
 70
     1
102
RTVSPropertyOp10
 70
     1
102
RTVSPropertyOp11
 70
     1
102
RTVSPropertyOp12
 70
     1
102
RTVSPropertyOp13
 70
     1
102
RTVSPropertyOp14
 70
     1
102
RTVSPropertyOp15
 70
     1
102
RTVSPropertyOp16
 70
     1
102
RTVSPropertyOp17
 70
     1
102
RTVSPropertyOp18
 70
     1
102
RTVSPropertyOp19
 70
     1
102
RTVSPropertyOp20
 70
     1
102
RTVSPropertyOp21
 70
     1
102
RTVSPropertyOp22
 70
     1
102
RTVSPropertyOp23
 70
     1
102
RTVSPropertyOp24
 70
     1
102
RTVSPropertyOp25
 70
     1
102
RTVSPropertyOp26
 70
     1
102
RTVSPropertyOp27
 70
     1
  0
ENDSEC
  0
EOF
