  0
SECTION
  2
HEADER
  9
$ACADVER
  1
AC1015
  9
$ACADMAINTVER
 70
     6
  9
$DWGCODEPAGE
  3
ANSI_1252
  9
$INSBASE
 10
0.0
 20
0.0
 30
0.0
  9
$EXTMIN
 10
0.0
 20
0.0
 30
0.0
  9
$EXTMAX
 10
25.0
 20
35.0
 30
0.0
  9
$LIMMIN
 10
0.0
 20
0.0
  9
$LIMMAX
 10
420.0
 20
297.0
  9
$ORTHOMODE
 70
     0
  9
$REGENMODE
 70
     1
  9
$FILLMODE
 70
     1
  9
$QTEXTMODE
 70
     0
  9
$MIRRTEXT
 70
     1
  9
$LTSCALE
 40
3.25
  9
$ATTMODE
 70
     1
  9
$TEXTSIZE
 40
2.5
  9
$TRACEWID
 40
1.0
  9
$TEXTSTYLE
  7
Standard
  9
$CLAYER
  8
0
  9
$CELTYPE
  6
ByLayer
  9
$CECOLOR
 62
   256
  9
$CELTSCALE
 40
1.0
  9
$DISPSILH
 70
     0
  9
$DIMSCALE
 40
1.0
  9
$DIMASZ
 40
2.5
  9
$DIMEXO
 40
0.625
  9
$DIMDLI
 40
3.75
  9
$DIMRND
 40
0.0
  9
$DIMDLE
 40
0.0
  9
$DIMEXE
 40
1.25
  9
$DIMTP
 40
0.0
  9
$DIMTM
 40
0.0
  9
$DIMTXT
 40
2.5
  9
$DIMCEN
 40
2.5
  9
$DIMTSZ
 40
0.0
  9
$DIMTOL
 70
     0
  9
$DIMLIM
 70
     0
  9
$DIMTIH
 70
     0
  9
$DIMTOH
 70
     0
  9
$DIMSE1
 70
     0
  9
$DIMSE2
 70
     0
  9
$DIMTAD
 70
     1
  9
$DIMZIN
 70
     8
  9
$DIMBLK
  1

  9
$DIMASO
 70
     1
  9
$DIMSHO
 70
     1
  9
$DIMPOST
  1

  9
$DIMAPOST
  1

  9
$DIMALT
 70
     0
  9
$DIMALTD
 70
     3
  9
$DIMALTF
 40
0.03937007874016
  9
$DIMLFAC
 40
1.0
  9
$DIMTOFL
 70
     1
  9
$DIMTVP
 40
0.0
  9
$DIMTIX
 70
     0
  9
$DIMSOXD
 70
     0
  9
$DIMSAH
 70
     0
  9
$DIMBLK1
  1

  9
$DIMBLK2
  1

  9
$DIMSTYLE
  2
ISO-25
  9
$DIMCLRD
 70
     0
  9
$DIMCLRE
 70
     0
  9
$DIMCLRT
 70
     0
  9
$DIMTFAC
 40
1.0
  9
$DIMGAP
 40
0.625
  9
$DIMJUST
 70
     0
  9
$DIMSD1
 70
     0
  9
$DIMSD2
 70
     0
  9
$DIMTOLJ
 70
     0
  9
$DIMTZIN
 70
     8
  9
$DIMALTZ
 70
     0
  9
$DIMALTTZ
 70
     0
  9
$DIMUPT
 70
     0
  9
$DIMDEC
 70
     2
  9
$DIMTDEC
 70
     2
  9
$DIMALTU
 70
     2
  9
$DIMALTTD
 70
     3
  9
$DIMTXSTY
  7
Standard
  9
$DIMAUNIT
 70
     0
  9
$DIMADEC
 70
     0
  9
$DIMALTRND
 40
0.0
  9
$DIMAZIN
 70
     0
  9
$DIMDSEP
 70
    44
  9
$DIMATFIT
 70
     3
  9
$DIMFRAC
 70
     0
  9
$DIMLDRBLK
  1

  9
$DIMLUNIT
 70
     2
  9
$DIMLWD
 70
    -2
  9
$DIMLWE
 70
    -2
  9
$DIMTMOVE
 70
     0
  9
$LUNITS
 70
     2
  9
$LUPREC
 70
     4
  9
$SKETCHINC
 40
1.0
  9
$FILLETRAD
 40
10.0
  9
$AUNITS
 70
     0
  9
$AUPREC
 70
     0
  9
$MENU
  1
.
  9
$ELEVATION
 40
0.0
  9
$PELEVATION
 40
0.0
  9
$THICKNESS
 40
0.0
  9
$LIMCHECK
 70
     0
  9
$CHAMFERA
 40
10.0
  9
$CHAMFERB
 40
10.0
  9
$CHAMFERC
 40
20.0
  9
$CHAMFERD
 40
0.0
  9
$SKPOLY
 70
     0
  9
$TDCREATE
 40
2458993.034722222
  9
$TDUCREATE
 40
2458992.951388889
  9
$TDUPDATE
 40
2458993.038194444
  9
$TDUUPDATE
 40
2458992.954861111
  9
$TDINDWG
 40
0.0000000116
  9
$TDUSRTIMER
 40
0.0000000116
  9
$USRTIMER
 70
     1
  9
$ANGBASE
 50
0.0
  9
$ANGDIR
 70
     0
  9
$PDMODE
 70
     0
  9
$PDSIZE
 40
0.0
  9
$PLINEWID
 40
0.0
  9
$SPLFRAME
 70
     0
  9
$SPLINETYPE
 70
     6
  9
$SPLINESEGS
 70
     8
  9
$HANDSEED
  5
963
  9
$SURFTAB1
 70
     6
  9
$SURFTAB2
 70
     6
  9
$SURFTYPE
 70
     6
  9
$SURFU
 70
     6
  9
$SURFV
 70
     6
  9
$UCSBASE
  2

  9
$UCSNAME
  2

  9
$UCSORG
 10
0.0
 20
0.0
 30
0.0
  9
$UCSXDIR
 10
1.0
 20
0.0
 30
0.0
  9
$UCSYDIR
 10
0.0
 20
1.0
 30
0.0
  9
$UCSORTHOREF
  2

  9
$UCSORTHOVIEW
 70
     0
  9
$UCSORGTOP
 10
0.0
 20
0.0
 30
0.0
  9
$UCSORGBOTTOM
 10
0.0
 20
0.0
 30
0.0
  9
$UCSORGLEFT
 10
0.0
 20
0.0
 30
0.0
  9
$UCSORGRIGHT
 10
0.0
 20
0.0
 30
0.0
  9
$UCSORGFRONT
 10
0.0
 20
0.0
 30
0.0
  9
$UCSORGBACK
 10
0.0
 20
0.0
 30
0.0
  9
$PUCSBASE
  2

  9
$PUCSNAME
  2

  9
$PUCSORG
 10
0.0
 20
0.0
 30
0.0
  9
$PUCSXDIR
 10
1.0
 20
0.0
 30
0.0
  9
$PUCSYDIR
 10
0.0
 20
1.0
 30
0.0
  9
$PUCSORTHOREF
  2

  9
$PUCSORTHOVIEW
 70
     0
  9
$PUCSORGTOP
 10
0.0
 20
0.0
 30
0.0
  9
$PUCSORGBOTTOM
 10
0.0
 20
0.0
 30
0.0
  9
$PUCSORGLEFT
 10
0.0
 20
0.0
 30
0.0
  9
$PUCSORGRIGHT
 10
0.0
 20
0.0
 30
0.0
  9
$PUCSORGFRONT
 10
0.0
 20
0.0
 30
0.0
  9
$PUCSORGBACK
 10
0.0
 20
0.0
 30
0.0
  9
$USERI1
 70
     0
  9
$USERI2
 70
     0
  9
$USERI3
 70
     0
  9
$USERI4
 70
     0
  9
$USERI5
 70
     0
  9
$USERR1
 40
0.0
  9
$USERR2
 40
0.0
  9
$USERR3
 40
0.0
  9
$USERR4
 40
0.0
  9
$USERR5
 40
0.0
  9
$WORLDVIEW
 70
     1
  9
$SHADEDGE
 70
     3
  9
$SHADEDIF
 70
    70
  9
$TILEMODE
 70
     1
  9
$MAXACTVP
 70
    64
  9
$PINSBASE
 10
0.0
 20
0.0
 30
0.0
  9
$PLIMCHECK
 70
     0
  9
$PEXTMIN
 10
1.000000000000000E+20
 20
1.000000000000000E+20
 30
1.000000000000000E+20
  9
$PEXTMAX
 10
-1.000000000000000E+20
 20
-1.000000000000000E+20
 30
-1.000000000000000E+20
  9
$PLIMMIN
 10
0.0
 20
0.0
  9
$PLIMMAX
 10
420.0
 20
297.0
  9
$UNITMODE
 70
     0
  9
$VISRETAIN
 70
     1
  9
$PLINEGEN
 70
     0
  9
$PSLTSCALE
 70
     1
  9
$TREEDEPTH
 70
  3020
  9
$CMLSTYLE
  2
Standard
  9
$CMLJUST
 70
     0
  9
$CMLSCALE
 40
20.0
  9
$PROXYGRAPHICS
 70
     1
  9
$MEASUREMENT
 70
     1
  9
$CELWEIGHT
370
    -1
  9
$ENDCAPS
280
     0
  9
$JOINSTYLE
280
     0
  9
$LWDISPLAY
290
     0
  9
$INSUNITS
 70
     4
  9
$HYPERLINKBASE
  1

  9
$STYLESHEET
  1

  9
$XEDIT
290
     1
  9
$CEPSNTYPE
380
     0
  9
$PSTYLEMODE
290
     1
  9
$FINGERPRINTGUID
  2
{8CBA7100-D842-4848-B426-DF9481E5C6BF}
  9
$VERSIONGUID
  2
{FAEB1C32-E019-11D5-929B-00C0DF256EC4}
  9
$EXTNAMES
290
     1
  9
$PSVPSCALE
 40
0.0
  9
$OLESTARTUP
290
     0
  0
ENDSEC
  0
SECTION
  2
CLASSES
  0
CLASS
  1
ACDBDICTIONARYWDFLT
  2
AcDbDictionaryWithDefault
  3
ObjectDBX Classes
 90
        0
280
     0
281
     0
  0
CLASS
  1
VISUALSTYLE
  2
AcDbVisualStyle
  3
ObjectDBX Classes
 90
     4095
280
     0
281
     0
  0
CLASS
  1
MATERIAL
  2
AcDbMaterial
  3
ObjectDBX Classes
 90
     1153
280
     0
281
     0
  0
CLASS
  1
SCALE
  2
AcDbScale
  3
ObjectDBX Classes
 90
     1153
280
     0
281
     0
  0
CLASS
  1
DICTIONARYVAR
  2
AcDbDictionaryVar
  3
ObjectDBX Classes
 90
        0
280
     0
281
     0
  0
CLASS
  1
ACDBPLACEHOLDER
  2
AcDbPlaceHolder
  3
ObjectDBX Classes
 90
        0
280
     0
281
     0
  0
CLASS
  1
LAYOUT
  2
AcDbLayout
  3
ObjectDBX Classes
 90
        0
280
     0
281
     0
  0
ENDSEC
  0
SECTION
  2
TABLES
  0
TABLE
  2
VPORT
  5
8
330
0
100
AcDbSymbolTable
 70
     1
  0
VPORT
  5
29
330
8
100
AcDbSymbolTableRecord
100
AcDbViewportTableRecord
  2
*Active
 70
     0
 10
0.0
 20
0.0
 11
1.0
 21
1.0
 12
11.26
 22
4.5
 13
0.0
 23
0.0
 14
10.0
 24
10.0
 15
10.0
 25
10.0
 16
0.0
 26
0.0
 36
1.0
 17
0.0
 27
0.0
 37
0.0
 40
9.0
 41
2.503333333333333
 42
50.0
 43
0.0
 44
0.0
 50
0.0
 51
0.0
 71
     0
 72
   100
 73
     1
 74
     3
 75
     0
 76
     0
 77
     0
 78
     0
281
     0
 65
     1
110
0.0
120
0.0
130
0.0
111
1.0
121
0.0
131
0.0
112
0.0
122
1.0
132
0.0
 79
     0
146
0.0
  0
ENDTAB
  0
TABLE
  2
LTYPE
  5
5
330
0
100
AcDbSymbolTable
 70
     9
  0
LTYPE
  5
14
330
5
100
AcDbSymbolTableRecord
100
AcDbLinetypeTableRecord
  2
ByBlock
 70
     0
  3

 72
    65
 73
     0
 40
0.0
  0
LTYPE
  5
15
330
5
100
AcDbSymbolTableRecord
100
AcDbLinetypeTableRecord
  2
ByLayer
 70
     0
  3

 72
    65
 73
     0
 40
0.0
  0
LTYPE
  5
16
330
5
100
AcDbSymbolTableRecord
100
AcDbLinetypeTableRecord
  2
Continuous
 70
     0
  3
Solid line
 72
    65
 73
     0
 40
0.0
  0
LTYPE
  5
45
330
5
100
AcDbSymbolTableRecord
100
AcDbLinetypeTableRecord
  2
phl_thick
 70
     0
  3
THICK
 72
    65
 73
     0
 40
0.0
  0
LTYPE
  5
2C1
330
5
100
AcDbSymbolTableRecord
100
AcDbLinetypeTableRecord
  2
CUT
 70
     0
  3
THICK
 72
    65
 73
     0
 40
0.0
  0
LTYPE
  5
2C9
330
5
100
AcDbSymbolTableRecord
100
AcDbLinetypeTableRecord
  2
NOCUT
 70
     0
  3
THICK
 72
    65
 73
     0
 40
0.0
  0
LTYPE
  5
2D1
330
5
100
AcDbSymbolTableRecord
100
AcDbLinetypeTableRecord
  2
SK1
 70
     0
  3
THICK
 72
    65
 73
     0
 40
0.0
  0
LTYPE
  5
2D9
330
5
100
AcDbSymbolTableRecord
100
AcDbLinetypeTableRecord
  2
ls_SK2
 70
     0
  3
THIN
 72
    65
 73
     0
 40
0.0
  0
LTYPE
  5
386
330
5
100
AcDbSymbolTableRecord
100
AcDbLinetypeTableRecord
  2
ls_2
 70
     0
  3
THIN
 72
    65
 73
     0
 40
0.0
  0
LTYPE
  5
498
330
5
100
AcDbSymbolTableRecord
100
AcDbLinetypeTableRecord
  2
ls_SK1
 70
     0
  3
THICK
 72
    65
 73
     0
 40
0.0
  0
LTYPE
  5
4D2
330
5
100
AcDbSymbolTableRecord
100
AcDbLinetypeTableRecord
  2
LONGDASH_DASH
 70
     0
  3
THIN_DASHDOT
 72
    65
 73
     4
 40
0.85
 49
0.4
 74
     0
 49
-0.2
 74
     0
 49
0.05
 74
     0
 49
-0.2
 74
     0
  0
ENDTAB
  0
TABLE
  2
LAYER
  5
2
330
0
100
AcDbSymbolTable
 70
     9
  0
LAYER
  5
10
330
2
100
AcDbSymbolTableRecord
100
AcDbLayerTableRecord
  2
0
 70
     0
 62
     7
  6
Continuous
370
    -3
390
F
  0
LAYER
  5
44
330
2
100
AcDbSymbolTableRecord
100
AcDbLayerTableRecord
  2
1
 70
     0
 62
4
  6
CONTINUOUS
370
50
370
    -3
390
F
  0
LAYER
  5
2C0
330
2
100
AcDbSymbolTableRecord
100
AcDbLayerTableRecord
  2
CUT
 70
     0
 62
1
  6
CONTINUOUS
370
25
370
    -3
390
F
  0
LAYER
  5
2C8
330
2
100
AcDbSymbolTableRecord
100
AcDbLayerTableRecord
  2
NOCUT
 70
     0
 62
7
  6
CONTINUOUS
370
25
370
    -3
390
F
  0
LAYER
  5
2D0
330
2
100
AcDbSymbolTableRecord
100
AcDbLayerTableRecord
  2
SK1
 70
     0
 62
4
  6
CONTINUOUS
370
50
370
    -3
390
F
  0
LAYER
  5
2D8
330
2
100
AcDbSymbolTableRecord
100
AcDbLayerTableRecord
  2
SK2
 70
     0
 62
7
  6
CONTINUOUS
370
25
370
    -3
390
F
  0
LAYER
  5
385
330
2
100
AcDbSymbolTableRecord
100
AcDbLayerTableRecord
  2
2
 70
     0
 62
7
  6
CONTINUOUS
370
25
370
    -3
390
F
  0
LAYER
  5
4D1
330
2
100
AcDbSymbolTableRecord
100
AcDbLayerTableRecord
  2
4
 70
     0
 62
2
  6
LONGDASH_DASH
370
25
370
    -3
390
F
  0
LAYER
  5
4D4
330
2
100
AcDbSymbolTableRecord
100
AcDbLayerTableRecord
  2
SK4
 70
     0
 62
2
  6
LONGDASH_DASH
370
25
370
    -3
390
F
  0
ENDTAB
  0
TABLE
  2
STYLE
  5
3
330
0
100
AcDbSymbolTable
 70
     1
  0
STYLE
  5
11
330
3
100
AcDbSymbolTableRecord
100
AcDbTextStyleTableRecord
  2
Standard
 70
     0
 40
0.0
 41
1.0
 50
0.0
 71
     0
 42
2.5
  3
Monospac821 BT
  4

  0
ENDTAB
  0
TABLE
  2
VIEW
  5
6
330
0
100
AcDbSymbolTable
 70
     0
  0
ENDTAB
  0
TABLE
  2
UCS
  5
7
330
0
100
AcDbSymbolTable
 70
     0
  0
ENDTAB
  0
TABLE
  2
APPID
  5
9
330
0
100
AcDbSymbolTable
 70
     2
  0
APPID
  5
12
330
9
100
AcDbSymbolTableRecord
100
AcDbRegAppTableRecord
  2
ACAD
 70
     0
  0
APPID
  5
3F
330
9
100
AcDbSymbolTableRecord
100
AcDbRegAppTableRecord
  2
ccLab
 70
     0
  0
ENDTAB
  0
TABLE
  2
DIMSTYLE
  5
A
330
0
100
AcDbSymbolTable
 70
     1
100
AcDbDimStyleTable
  0
DIMSTYLE
105
27
330
A
100
AcDbSymbolTableRecord
100
AcDbDimStyleTableRecord
  2
ISO-25
 70
     0
 41
2.5
 42
0.625
 43
3.75
 44
1.25
 73
     0
 74
     0
 77
     1
 78
     8
140
2.5
141
2.5
143
0.03937007874016
147
0.625
171
     3
172
     1
271
     2
272
     2
274
     3
278
    44
283
     0
284
     8
340
11
  0
ENDTAB
  0
TABLE
  2
BLOCK_RECORD
  5
1
330
0
100
AcDbSymbolTable
 70
     2
  0
BLOCK_RECORD
  5
1F
330
1
100
AcDbSymbolTableRecord
100
AcDbBlockTableRecord
  2
*Model_Space
340
22
  0
BLOCK_RECORD
  5
1B
330
1
100
AcDbSymbolTableRecord
100
AcDbBlockTableRecord
  2
*Paper_Space
340
1E
  0
BLOCK_RECORD
  5
23
330
1
100
AcDbSymbolTableRecord
100
AcDbBlockTableRecord
  2
*Paper_Space0
340
26
  0
ENDTAB
  0
ENDSEC
  0
SECTION
  2
BLOCKS
  0
BLOCK
  5
20
330
1F
100
AcDbEntity
  8
0
100
AcDbBlockBegin
  2
*Model_Space
 70
     0
 10
0.0
 20
0.0
 30
0.0
  3
*Model_Space
  1

  0
ENDBLK
  5
21
330
1F
100
AcDbEntity
  8
0
100
AcDbBlockEnd
  0
BLOCK
  5
1C
330
1B
100
AcDbEntity
 67
     1
  8
0
100
AcDbBlockBegin
  2
*Paper_Space
 70
     0
 10
0.0
 20
0.0
 30
0.0
  3
*Paper_Space
  1

  0
ENDBLK
  5
1D
330
1B
100
AcDbEntity
 67
     1
  8
0
100
AcDbBlockEnd
  0
BLOCK
  5
24
330
23
100
AcDbEntity
  8
0
100
AcDbBlockBegin
  2
*Paper_Space0
 70
     0
 10
0.0
 20
0.0
 30
0.0
  3
*Paper_Space0
  1

  0
ENDBLK
  5
25
330
23
100
AcDbEntity
  8
0
100
AcDbBlockEnd
  0
ENDSEC
  0
SECTION
  2
ENTITIES
  0
LINE
  5
4D5
330
1F
100
AcDbEntity
  8
1
  6
CONTINUOUS
370
50
 62
4
100
AcDbLine
 10
4.700435
 20
-1.6715
 30
0.0
 11
4.700356
 21
-1.647607
 31
0.0
  0
LINE
  5
4D6
330
1F
100
AcDbEntity
  8
1
  6
CONTINUOUS
370
50
 62
4
100
AcDbLine
 10
4.754591
 20
-1.957687
 30
0.0
 11
4.754379
 21
-1.937703
 31
0.0
  0
LINE
  5
4D7
330
1F
100
AcDbEntity
  8
1
  6
CONTINUOUS
370
50
 62
4
100
AcDbLine
 10
4.754623
 20
1.374434
 30
0.0
 11
4.753659
 21
1.432348
 31
0.0
  0
LINE
  5
4D8
330
1F
100
AcDbEntity
  8
1
  6
CONTINUOUS
370
50
 62
4
100
AcDbLine
 10
11.819243
 20
-1.406483
 30
0.0
 11
11.817937
 21
-1.347061
 31
0.0
  0
LINE
  5
4D9
330
1F
100
AcDbEntity
  8
1
  6
CONTINUOUS
370
50
 62
4
100
AcDbLine
 10
11.395061
 20
1.202682
 30
0.0
 11
11.394326
 21
1.233378
 31
0.0
  0
LINE
  5
4DA
330
1F
100
AcDbEntity
  8
1
  6
CONTINUOUS
370
50
 62
4
100
AcDbLine
 10
4.753659
 20
1.432348
 30
0.0
 11
4.751569
 21
1.487929
 31
0.0
  0
LINE
  5
4DB
330
1F
100
AcDbEntity
  8
1
  6
CONTINUOUS
370
50
 62
4
100
AcDbLine
 10
11.844422
 20
0.9313539999999999
 30
0.0
 11
11.844343
 21
0.933326
 31
0.0
  0
LINE
  5
4DC
330
1F
100
AcDbEntity
  8
1
  6
CONTINUOUS
370
50
 62
4
100
AcDbLine
 10
11.844505
 20
0.929373
 30
0.0
 11
11.844422
 21
0.9313539999999999
 31
0.0
  0
LINE
  5
4DD
330
1F
100
AcDbEntity
  8
1
  6
CONTINUOUS
370
50
 62
4
100
AcDbLine
 10
11.820966
 20
0.645601
 30
0.0
 11
11.818243
 21
0.709942
 31
0.0
  0
LINE
  5
4DE
330
1F
100
AcDbEntity
  8
1
  6
CONTINUOUS
370
50
 62
4
100
AcDbLine
 10
4.073919
 20
0.29841
 30
0.0
 11
4.073356
 21
0.311692
 31
0.0
  0
LINE
  5
4DF
330
1F
100
AcDbEntity
  8
1
  6
CONTINUOUS
370
50
 62
4
100
AcDbLine
 10
11.844592
 20
0.927384
 30
0.0
 11
11.844505
 21
0.929373
 31
0.0
  0
LINE
  5
4E0
330
1F
100
AcDbEntity
  8
1
  6
CONTINUOUS
370
50
 62
4
100
AcDbLine
 10
11.844683
 20
0.925385
 30
0.0
 11
11.844592
 21
0.927384
 31
0.0
  0
LINE
  5
4E1
330
1F
100
AcDbEntity
  8
1
  6
CONTINUOUS
370
50
 62
4
100
AcDbLine
 10
11.844777
 20
0.923377
 30
0.0
 11
11.844683
 21
0.925385
 31
0.0
  0
LINE
  5
4E2
330
1F
100
AcDbEntity
  8
1
  6
CONTINUOUS
370
50
 62
4
100
AcDbLine
 10
11.844874
 20
0.9213589999999999
 30
0.0
 11
11.844777
 21
0.923377
 31
0.0
  0
LINE
  5
4E3
330
1F
100
AcDbEntity
  8
1
  6
CONTINUOUS
370
50
 62
4
100
AcDbLine
 10
11.844975
 20
0.919333
 30
0.0
 11
11.844874
 21
0.9213589999999999
 31
0.0
  0
LINE
  5
4E4
330
1F
100
AcDbEntity
  8
1
  6
CONTINUOUS
370
50
 62
4
100
AcDbLine
 10
11.844422
 20
-1.019917
 30
0.0
 11
11.844343
 21
-1.01837
 31
0.0
  0
LINE
  5
4E5
330
1F
100
AcDbEntity
  8
1
  6
CONTINUOUS
370
50
 62
4
100
AcDbLine
 10
11.844505
 20
-1.021454
 30
0.0
 11
11.844422
 21
-1.019917
 31
0.0
  0
LINE
  5
4E6
330
1F
100
AcDbEntity
  8
1
  6
CONTINUOUS
370
50
 62
4
100
AcDbLine
 10
11.844592
 20
-1.022981
 30
0.0
 11
11.844505
 21
-1.021454
 31
0.0
  0
LINE
  5
4E7
330
1F
100
AcDbEntity
  8
1
  6
CONTINUOUS
370
50
 62
4
100
AcDbLine
 10
4.751569
 20
1.487929
 30
0.0
 11
4.748397
 21
1.541019
 31
0.0
  0
LINE
  5
4E8
330
1F
100
AcDbEntity
  8
1
  6
CONTINUOUS
370
50
 62
4
100
AcDbLine
 10
11.844683
 20
-1.024499
 30
0.0
 11
11.844592
 21
-1.022981
 31
0.0
  0
LINE
  5
4E9
330
1F
100
AcDbEntity
  8
1
  6
CONTINUOUS
370
50
 62
4
100
AcDbLine
 10
11.844777
 20
-1.026006
 30
0.0
 11
11.844683
 21
-1.024499
 31
0.0
  0
LINE
  5
4EA
330
1F
100
AcDbEntity
  8
1
  6
CONTINUOUS
370
50
 62
4
100
AcDbLine
 10
11.844874
 20
-1.027503
 30
0.0
 11
11.844777
 21
-1.026006
 31
0.0
  0
LINE
  5
4EB
330
1F
100
AcDbEntity
  8
1
  6
CONTINUOUS
370
50
 62
4
100
AcDbLine
 10
4.754379
 20
-1.937703
 30
0.0
 11
4.752759
 21
-1.913581
 31
0.0
  0
LINE
  5
4EC
330
1F
100
AcDbEntity
  8
1
  6
CONTINUOUS
370
50
 62
4
100
AcDbLine
 10
11.844975
 20
-1.028989
 30
0.0
 11
11.844874
 21
-1.027503
 31
0.0
  0
LINE
  5
4ED
330
1F
100
AcDbEntity
  8
1
  6
CONTINUOUS
370
50
 62
4
100
AcDbLine
 10
4.701101
 20
1.782226
 30
0.0
 11
4.699891
 21
1.799737
 31
0.0
  0
LINE
  5
4EE
330
1F
100
AcDbEntity
  8
1
  6
CONTINUOUS
370
50
 62
4
100
AcDbLine
 10
11.394326
 20
1.233378
 30
0.0
 11
11.391854
 21
1.265527
 31
0.0
  0
LINE
  5
4EF
330
1F
100
AcDbEntity
  8
1
  6
CONTINUOUS
370
50
 62
4
100
AcDbLine
 10
11.826424
 20
0.57472
 30
0.0
 11
11.820966
 21
0.645601
 31
0.0
  0
LINE
  5
4F0
330
1F
100
AcDbEntity
  8
1
  6
CONTINUOUS
370
50
 62
4
100
AcDbLine
 10
4.748397
 20
1.541019
 30
0.0
 11
4.74418
 21
1.591544
 31
0.0
  0
LINE
  5
4F1
330
1F
100
AcDbEntity
  8
1
  6
CONTINUOUS
370
50
 62
4
100
AcDbLine
 10
11.823872
 20
-1.456448
 30
0.0
 11
11.819243
 21
-1.406483
 31
0.0
  0
LINE
  5
4F2
330
1F
100
AcDbEntity
  8
1
  6
CONTINUOUS
370
50
 62
4
100
AcDbLine
 10
11.834579
 20
0.4976
 30
0.0
 11
11.826424
 21
0.57472
 31
0.0
  0
LINE
  5
4F3
330
1F
100
AcDbEntity
  8
1
  6
CONTINUOUS
370
50
 62
4
100
AcDbLine
 10
4.752759
 20
-1.913581
 30
0.0
 11
4.749802
 21
-1.885638
 31
0.0
  0
LINE
  5
4F4
330
1F
100
AcDbEntity
  8
1
  6
CONTINUOUS
370
50
 62
4
100
AcDbLine
 10
4.74418
 20
1.591544
 30
0.0
 11
4.738957
 21
1.639431
 31
0.0
  0
LINE
  5
4F5
330
1F
100
AcDbEntity
  8
1
  6
CONTINUOUS
370
50
 62
4
100
AcDbLine
 10
11.391854
 20
1.265527
 30
0.0
 11
11.387745
 21
1.298982
 31
0.0
  0
LINE
  5
4F6
330
1F
100
AcDbEntity
  8
1
  6
CONTINUOUS
370
50
 62
4
100
AcDbLine
 10
11.845397
 20
0.414539
 30
0.0
 11
11.834579
 21
0.4976
 31
0.0
  0
LINE
  5
4F7
330
1F
100
AcDbEntity
  8
1
  6
CONTINUOUS
370
50
 62
4
100
AcDbLine
 10
4.749802
 20
-1.885638
 30
0.0
 11
4.745560999999999
 21
-1.85394
 31
0.0
  0
LINE
  5
4F8
330
1F
100
AcDbEntity
  8
1
  6
CONTINUOUS
370
50
 62
4
100
AcDbLine
 10
4.738957
 20
1.639431
 30
0.0
 11
4.732769
 21
1.684605
 31
0.0
  0
LINE
  5
4F9
330
1F
100
AcDbEntity
  8
1
  6
CONTINUOUS
370
50
 62
4
100
AcDbLine
 10
11.858838
 20
0.325833
 30
0.0
 11
11.845397
 21
0.414539
 31
0.0
  0
LINE
  5
4FA
330
1F
100
AcDbEntity
  8
1
  6
CONTINUOUS
370
50
 62
4
100
AcDbLine
 10
4.745560999999999
 20
-1.85394
 30
0.0
 11
4.740088
 21
-1.818553
 31
0.0
  0
LINE
  5
4FB
330
1F
100
AcDbEntity
  8
1
  6
CONTINUOUS
370
50
 62
4
100
AcDbLine
 10
11.387745
 20
1.298982
 30
0.0
 11
11.382029
 21
1.33395
 31
0.0
  0
LINE
  5
4FC
330
1F
100
AcDbEntity
  8
1
  6
CONTINUOUS
370
50
 62
4
100
AcDbLine
 10
4.732769
 20
1.684605
 30
0.0
 11
4.725655
 21
1.726994
 31
0.0
  0
LINE
  5
4FD
330
1F
100
AcDbEntity
  8
1
  6
CONTINUOUS
370
50
 62
4
100
AcDbLine
 10
11.8748
 20
0.232156
 30
0.0
 11
11.858838
 21
0.325833
 31
0.0
  0
LINE
  5
4FE
330
1F
100
AcDbEntity
  8
1
  6
CONTINUOUS
370
50
 62
4
100
AcDbLine
 10
4.740088
 20
-1.818553
 30
0.0
 11
4.733435
 21
-1.779544
 31
0.0
  0
LINE
  5
4FF
330
1F
100
AcDbEntity
  8
1
  6
CONTINUOUS
370
50
 62
4
100
AcDbLine
 10
4.733435
 20
-1.779544
 30
0.0
 11
4.725655
 21
-1.736978
 31
0.0
  0
LINE
  5
500
330
1F
100
AcDbEntity
  8
1
  6
CONTINUOUS
370
50
 62
4
100
AcDbLine
 10
11.893073
 20
0.134596
 30
0.0
 11
11.8748
 21
0.232156
 31
0.0
  0
LINE
  5
501
330
1F
100
AcDbEntity
  8
1
  6
CONTINUOUS
370
50
 62
4
100
AcDbLine
 10
4.704885
 20
-1.694377
 30
0.0
 11
4.700435
 21
-1.6715
 31
0.0
  0
LINE
  5
502
330
1F
100
AcDbEntity
  8
1
  6
CONTINUOUS
370
50
 62
4
100
AcDbLine
 10
11.831776
 20
-1.49663
 30
0.0
 11
11.823872
 21
-1.456448
 31
0.0
  0
LINE
  5
503
330
1F
100
AcDbEntity
  8
1
  6
CONTINUOUS
370
50
 62
4
100
AcDbLine
 10
11.382029
 20
1.33395
 30
0.0
 11
11.374735
 21
1.370393
 31
0.0
  0
LINE
  5
504
330
1F
100
AcDbEntity
  8
1
  6
CONTINUOUS
370
50
 62
4
100
AcDbLine
 10
11.913541
 20
0.033595
 30
0.0
 11
11.893073
 21
0.134596
 31
0.0
  0
LINE
  5
505
330
1F
100
AcDbEntity
  8
1
  6
CONTINUOUS
370
50
 62
4
100
AcDbLine
 10
4.076772
 20
0.28508
 30
0.0
 11
4.073919
 21
0.29841
 31
0.0
  0
LINE
  5
506
330
1F
100
AcDbEntity
  8
1
  6
CONTINUOUS
370
50
 62
4
100
AcDbLine
 10
11.93609
 20
-0.070423
 30
0.0
 11
11.913541
 21
0.033595
 31
0.0
  0
LINE
  5
507
330
1F
100
AcDbEntity
  8
1
  6
CONTINUOUS
370
50
 62
4
100
AcDbLine
 10
11.96061
 20
-0.177035
 30
0.0
 11
11.93609
 21
-0.070423
 31
0.0
  0
LINE
  5
508
330
1F
100
AcDbEntity
  8
1
  6
CONTINUOUS
370
50
 62
4
100
AcDbLine
 10
11.374735
 20
1.370393
 30
0.0
 11
11.365895
 21
1.408218
 31
0.0
  0
LINE
  5
509
330
1F
100
AcDbEntity
  8
1
  6
CONTINUOUS
370
50
 62
4
100
AcDbLine
 10
11.98696
 20
-0.285711
 30
0.0
 11
11.96061
 21
-0.177035
 31
0.0
  0
LINE
  5
50A
330
1F
100
AcDbEntity
  8
1
  6
CONTINUOUS
370
50
 62
4
100
AcDbLine
 10
12.014893
 20
-0.395526
 30
0.0
 11
11.98696
 21
-0.285711
 31
0.0
  0
LINE
  5
50B
330
1F
100
AcDbEntity
  8
1
  6
CONTINUOUS
370
50
 62
4
100
AcDbLine
 10
11.365895
 20
1.408218
 30
0.0
 11
11.355544
 21
1.447334
 31
0.0
  0
LINE
  5
50C
330
1F
100
AcDbEntity
  8
1
  6
CONTINUOUS
370
50
 62
4
100
AcDbLine
 10
12.044257
 20
-0.5060049999999999
 30
0.0
 11
12.014893
 21
-0.395526
 31
0.0
  0
LINE
  5
50D
330
1F
100
AcDbEntity
  8
1
  6
CONTINUOUS
370
50
 62
4
100
AcDbLine
 10
4.705960999999999
 20
1.764223
 30
0.0
 11
4.701101
 21
1.782226
 31
0.0
  0
LINE
  5
50E
330
1F
100
AcDbEntity
  8
1
  6
CONTINUOUS
370
50
 62
4
100
AcDbLine
 10
12.074907
 20
-0.6166889999999999
 30
0.0
 11
12.044257
 21
-0.5060049999999999
 31
0.0
  0
LINE
  5
50F
330
1F
100
AcDbEntity
  8
1
  6
CONTINUOUS
370
50
 62
4
100
AcDbLine
 10
11.355544
 20
1.447334
 30
0.0
 11
11.343716
 21
1.487647
 31
0.0
  0
LINE
  5
510
330
1F
100
AcDbEntity
  8
1
  6
CONTINUOUS
370
50
 62
4
100
AcDbLine
 10
11.343716
 20
1.487647
 30
0.0
 11
11.330442
 21
1.529065
 31
0.0
  0
LINE
  5
511
330
1F
100
AcDbEntity
  8
1
  6
CONTINUOUS
370
50
 62
4
100
AcDbLine
 10
4.081161
 20
0.272209
 30
0.0
 11
4.076772
 21
0.28508
 31
0.0
  0
LINE
  5
512
330
1F
100
AcDbEntity
  8
1
  6
CONTINUOUS
370
50
 62
4
100
AcDbLine
 10
11.330442
 20
1.529065
 30
0.0
 11
11.315759
 21
1.571495
 31
0.0
  0
LINE
  5
513
330
1F
100
AcDbEntity
  8
1
  6
CONTINUOUS
370
50
 62
4
100
AcDbLine
 10
12.122
 20
0.244409
 30
0.0
 11
11.870101
 21
0.967556
 31
0.0
  0
LINE
  5
514
330
1F
100
AcDbEntity
  8
1
  6
CONTINUOUS
370
50
 62
4
100
AcDbLine
 10
11.842906
 20
-1.526896
 30
0.0
 11
11.831776
 21
-1.49663
 31
0.0
  0
LINE
  5
515
330
1F
100
AcDbEntity
  8
1
  6
CONTINUOUS
370
50
 62
4
100
AcDbLine
 10
11.315759
 20
1.571495
 30
0.0
 11
11.299697
 21
1.614846
 31
0.0
  0
LINE
  5
516
330
1F
100
AcDbEntity
  8
1
  6
CONTINUOUS
370
50
 62
4
100
AcDbLine
 10
11.271731
 20
1.688867
 30
0.0
 11
11.267143
 21
1.701182
 31
0.0
  0
LINE
  5
517
330
1F
100
AcDbEntity
  8
1
  6
CONTINUOUS
370
50
 62
4
100
AcDbLine
 10
11.27634
 20
1.676547
 30
0.0
 11
11.271731
 21
1.688867
 31
0.0
  0
LINE
  5
518
330
1F
100
AcDbEntity
  8
1
  6
CONTINUOUS
370
50
 62
4
100
AcDbLine
 10
11.28097
 20
1.664219
 30
0.0
 11
11.27634
 21
1.676547
 31
0.0
  0
LINE
  5
519
330
1F
100
AcDbEntity
  8
1
  6
CONTINUOUS
370
50
 62
4
100
AcDbLine
 10
11.28562
 20
1.651885
 30
0.0
 11
11.28097
 21
1.664219
 31
0.0
  0
LINE
  5
51A
330
1F
100
AcDbEntity
  8
1
  6
CONTINUOUS
370
50
 62
4
100
AcDbLine
 10
11.290291
 20
1.639545
 30
0.0
 11
11.28562
 21
1.651885
 31
0.0
  0
LINE
  5
51B
330
1F
100
AcDbEntity
  8
1
  6
CONTINUOUS
370
50
 62
4
100
AcDbLine
 10
11.294984
 20
1.627198
 30
0.0
 11
11.290291
 21
1.639545
 31
0.0
  0
LINE
  5
51C
330
1F
100
AcDbEntity
  8
1
  6
CONTINUOUS
370
50
 62
4
100
AcDbLine
 10
11.299697
 20
1.614846
 30
0.0
 11
11.294984
 21
1.627198
 31
0.0
  0
LINE
  5
51D
330
1F
100
AcDbEntity
  8
1
  6
CONTINUOUS
370
50
 62
4
100
AcDbLine
 10
4.713395999999999
 20
-1.716212
 30
0.0
 11
4.704885
 21
-1.694377
 31
0.0
  0
LINE
  5
51E
330
1F
100
AcDbEntity
  8
1
  6
CONTINUOUS
370
50
 62
4
100
AcDbLine
 10
4.086601
 20
0.259803
 30
0.0
 11
4.081161
 21
0.272209
 31
0.0
  0
LINE
  5
51F
330
1F
100
AcDbEntity
  8
1
  6
CONTINUOUS
370
50
 62
4
100
AcDbLine
 10
4.714227
 20
1.745792
 30
0.0
 11
4.705960999999999
 21
1.764223
 31
0.0
  0
LINE
  5
520
330
1F
100
AcDbEntity
  8
1
  6
CONTINUOUS
370
50
 62
4
100
AcDbLine
 10
11.624062
 20
0.9909079999999999
 30
0.0
 11
11.267143
 21
1.701182
 31
0.0
  0
LINE
  5
521
330
1F
100
AcDbEntity
  8
1
  6
CONTINUOUS
370
50
 62
4
100
AcDbLine
 10
4.093057
 20
0.247335
 30
0.0
 11
4.086601
 21
0.259803
 31
0.0
  0
LINE
  5
522
330
1F
100
AcDbEntity
  8
1
  6
CONTINUOUS
370
50
 62
4
100
AcDbLine
 10
4.100314
 20
0.234941
 30
0.0
 11
4.093057
 21
0.247335
 31
0.0
  0
LINE
  5
523
330
1F
100
AcDbEntity
  8
1
  6
CONTINUOUS
370
50
 62
4
100
AcDbLine
 10
4.725655
 20
-1.736978
 30
0.0
 11
4.713395999999999
 21
-1.716212
 31
0.0
  0
LINE
  5
524
330
1F
100
AcDbEntity
  8
1
  6
CONTINUOUS
370
50
 62
4
100
AcDbLine
 10
4.725655
 20
1.726994
 30
0.0
 11
4.714227
 21
1.745792
 31
0.0
  0
LINE
  5
525
330
1F
100
AcDbEntity
  8
1
  6
CONTINUOUS
370
50
 62
4
100
AcDbLine
 10
4.108152
 20
0.222762
 30
0.0
 11
4.100314
 21
0.234941
 31
0.0
  0
LINE
  5
526
330
1F
100
AcDbEntity
  8
1
  6
CONTINUOUS
370
50
 62
4
100
AcDbLine
 10
4.116353999999999
 20
0.210941
 30
0.0
 11
4.108152
 21
0.222762
 31
0.0
  0
LINE
  5
527
330
1F
100
AcDbEntity
  8
1
  6
CONTINUOUS
370
50
 62
4
100
AcDbLine
 10
11.857215
 20
-1.547111
 30
0.0
 11
11.842906
 21
-1.526896
 31
0.0
  0
LINE
  5
528
330
1F
100
AcDbEntity
  8
1
  6
CONTINUOUS
370
50
 62
4
100
AcDbLine
 10
4.124699
 20
0.199619
 30
0.0
 11
4.116353999999999
 21
0.210941
 31
0.0
  0
LINE
  5
529
330
1F
100
AcDbEntity
  8
1
  6
CONTINUOUS
370
50
 62
4
100
AcDbLine
 10
4.133014999999999
 20
0.188881
 30
0.0
 11
4.124699
 21
0.199619
 31
0.0
  0
LINE
  5
52A
330
1F
100
AcDbEntity
  8
1
  6
CONTINUOUS
370
50
 62
4
100
AcDbLine
 10
4.141738
 20
0.178085
 30
0.0
 11
4.133014999999999
 21
0.188881
 31
0.0
  0
LINE
  5
52B
330
1F
100
AcDbEntity
  8
1
  6
CONTINUOUS
370
50
 62
4
100
AcDbLine
 10
4.15103
 20
0.167017
 30
0.0
 11
4.141738
 21
0.178085
 31
0.0
  0
LINE
  5
52C
330
1F
100
AcDbEntity
  8
1
  6
CONTINUOUS
370
50
 62
4
100
AcDbLine
 10
4.160885
 20
0.155681
 30
0.0
 11
4.15103
 21
0.167017
 31
0.0
  0
LINE
  5
52D
330
1F
100
AcDbEntity
  8
1
  6
CONTINUOUS
370
50
 62
4
100
AcDbLine
 10
4.171301
 20
0.14408
 30
0.0
 11
4.160885
 21
0.155681
 31
0.0
  0
LINE
  5
52E
330
1F
100
AcDbEntity
  8
1
  6
CONTINUOUS
370
50
 62
4
100
AcDbLine
 10
4.182274
 20
0.132218
 30
0.0
 11
4.171301
 21
0.14408
 31
0.0
  0
LINE
  5
52F
330
1F
100
AcDbEntity
  8
1
  6
CONTINUOUS
370
50
 62
4
100
AcDbLine
 10
4.1938
 20
0.120099
 30
0.0
 11
4.182274
 21
0.132218
 31
0.0
  0
LINE
  5
530
330
1F
100
AcDbEntity
  8
1
  6
CONTINUOUS
370
50
 62
4
100
AcDbLine
 10
4.205876
 20
0.107725
 30
0.0
 11
4.1938
 21
0.120099
 31
0.0
  0
LINE
  5
531
330
1F
100
AcDbEntity
  8
1
  6
CONTINUOUS
370
50
 62
4
100
AcDbLine
 10
4.218497
 20
0.095101
 30
0.0
 11
4.205876
 21
0.107725
 31
0.0
  0
LINE
  5
532
330
1F
100
AcDbEntity
  8
1
  6
CONTINUOUS
370
50
 62
4
100
AcDbLine
 10
4.231661
 20
0.082229
 30
0.0
 11
4.218497
 21
0.095101
 31
0.0
  0
LINE
  5
533
330
1F
100
AcDbEntity
  8
1
  6
CONTINUOUS
370
50
 62
4
100
AcDbLine
 10
4.245363
 20
0.069114
 30
0.0
 11
4.231661
 21
0.082229
 31
0.0
  0
LINE
  5
534
330
1F
100
AcDbEntity
  8
1
  6
CONTINUOUS
370
50
 62
4
100
AcDbLine
 10
4.2596
 20
0.055758
 30
0.0
 11
4.245363
 21
0.069114
 31
0.0
  0
LINE
  5
535
330
1F
100
AcDbEntity
  8
1
  6
CONTINUOUS
370
50
 62
4
100
AcDbLine
 10
4.274368
 20
0.042165
 30
0.0
 11
4.2596
 21
0.055758
 31
0.0
  0
LINE
  5
536
330
1F
100
AcDbEntity
  8
1
  6
CONTINUOUS
370
50
 62
4
100
AcDbLine
 10
4.289664
 20
0.028339
 30
0.0
 11
4.274368
 21
0.042165
 31
0.0
  0
LINE
  5
537
330
1F
100
AcDbEntity
  8
1
  6
CONTINUOUS
370
50
 62
4
100
AcDbLine
 10
4.305483
 20
0.014283
 30
0.0
 11
4.289664
 21
0.028339
 31
0.0
  0
LINE
  5
538
330
1F
100
AcDbEntity
  8
1
  6
CONTINUOUS
370
50
 62
4
100
AcDbLine
 10
10.522763
 20
-0.002301
 30
0.0
 11
10.520134
 21
0.0
 31
0.0
  0
LINE
  5
539
330
1F
100
AcDbEntity
  8
1
  6
CONTINUOUS
370
50
 62
4
100
AcDbLine
 10
4.321823
 20
0.0
 30
0.0
 11
4.305483
 21
0.014283
 31
0.0
  0
LINE
  5
53A
330
1F
100
AcDbEntity
  8
1
  6
CONTINUOUS
370
50
 62
4
100
AcDbLine
 10
4.42023
 20
-0.081975
 30
0.0
 11
4.321823
 21
0.0
 31
0.0
  0
LINE
  5
53B
330
1F
100
AcDbEntity
  8
1
  6
CONTINUOUS
370
50
 62
4
100
AcDbLine
 10
4.525844999999999
 20
-0.16427
 30
0.0
 11
4.42023
 21
-0.081975
 31
0.0
  0
LINE
  5
53C
330
1F
100
AcDbEntity
  8
1
  6
CONTINUOUS
370
50
 62
4
100
AcDbLine
 10
4.633122
 20
-0.243523
 30
0.0
 11
4.525844999999999
 21
-0.16427
 31
0.0
  0
LINE
  5
53D
330
1F
100
AcDbEntity
  8
1
  6
CONTINUOUS
370
50
 62
4
100
AcDbLine
 10
4.74158
 20
-0.320142
 30
0.0
 11
4.633122
 21
-0.243523
 31
0.0
  0
LINE
  5
53E
330
1F
100
AcDbEntity
  8
1
  6
CONTINUOUS
370
50
 62
4
100
AcDbLine
 10
4.851239
 20
-0.394503
 30
0.0
 11
4.74158
 21
-0.320142
 31
0.0
  0
LINE
  5
53F
330
1F
100
AcDbEntity
  8
1
  6
CONTINUOUS
370
50
 62
4
100
AcDbLine
 10
11.100585
 20
0.0
 30
0.0
 11
10.878273
 21
0.147536
 31
0.0
  0
LINE
  5
540
330
1F
100
AcDbEntity
  8
1
  6
CONTINUOUS
370
50
 62
4
100
AcDbLine
 10
10.878273
 20
0.147536
 30
0.0
 11
10.65508
 21
0.294072
 31
0.0
  0
LINE
  5
541
330
1F
100
AcDbEntity
  8
1
  6
CONTINUOUS
370
50
 62
4
100
AcDbLine
 10
10.8672
 20
-0.228185
 30
0.0
 11
10.537174
 21
-0.011681
 31
0.0
  0
LINE
  5
542
330
1F
100
AcDbEntity
  8
1
  6
CONTINUOUS
370
50
 62
4
100
AcDbLine
 10
11.119091
 20
-0.392676
 30
0.0
 11
10.8672
 21
-0.228185
 31
0.0
  0
LINE
  5
543
330
1F
100
AcDbEntity
  8
1
  6
CONTINUOUS
370
50
 62
4
100
AcDbLine
 10
4.961207
 20
-0.466194
 30
0.0
 11
4.851239
 21
-0.394503
 31
0.0
  0
LINE
  5
544
330
1F
100
AcDbEntity
  8
1
  6
CONTINUOUS
370
50
 62
4
100
AcDbLine
 10
10.537174
 20
-0.011681
 30
0.0
 11
10.534304
 21
-0.009812
 31
0.0
  0
LINE
  5
545
330
1F
100
AcDbEntity
  8
1
  6
CONTINUOUS
370
50
 62
4
100
AcDbLine
 10
11.236815
 20
-0.088695
 30
0.0
 11
11.100585
 21
0.0
 31
0.0
  0
LINE
  5
546
330
1F
100
AcDbEntity
  8
1
  6
CONTINUOUS
370
50
 62
4
100
AcDbLine
 10
10.534304
 20
-0.009812
 30
0.0
 11
10.531427
 21
-0.007939
 31
0.0
  0
LINE
  5
547
330
1F
100
AcDbEntity
  8
1
  6
CONTINUOUS
370
50
 62
4
100
AcDbLine
 10
10.528545
 20
-0.006063
 30
0.0
 11
10.525657
 21
-0.004183
 31
0.0
  0
LINE
  5
548
330
1F
100
AcDbEntity
  8
1
  6
CONTINUOUS
370
50
 62
4
100
AcDbLine
 10
10.531427
 20
-0.007939
 30
0.0
 11
10.528545
 21
-0.006063
 31
0.0
  0
LINE
  5
549
330
1F
100
AcDbEntity
  8
1
  6
CONTINUOUS
370
50
 62
4
100
AcDbLine
 10
10.525657
 20
-0.004183
 30
0.0
 11
10.522763
 21
-0.002301
 31
0.0
  0
LINE
  5
54A
330
1F
100
AcDbEntity
  8
1
  6
CONTINUOUS
370
50
 62
4
100
AcDbLine
 10
11.375177
 20
-0.178101
 30
0.0
 11
11.236815
 21
-0.088695
 31
0.0
  0
LINE
  5
54B
330
1F
100
AcDbEntity
  8
1
  6
CONTINUOUS
370
50
 62
4
100
AcDbLine
 10
10.520134
 20
0.0
 30
0.0
 11
10.334569
 21
0.119535
 31
0.0
  0
LINE
  5
54C
330
1F
100
AcDbEntity
  8
1
  6
CONTINUOUS
370
50
 62
4
100
AcDbLine
 10
10.65508
 20
0.294072
 30
0.0
 11
10.427488
 21
0.439829
 31
0.0
  0
LINE
  5
54D
330
1F
100
AcDbEntity
  8
1
  6
CONTINUOUS
370
50
 62
4
100
AcDbLine
 10
10.334569
 20
0.119535
 30
0.0
 11
10.129717
 21
0.250683
 31
0.0
  0
LINE
  5
54E
330
1F
100
AcDbEntity
  8
1
  6
CONTINUOUS
370
50
 62
4
100
AcDbLine
 10
11.514817
 20
-0.267237
 30
0.0
 11
11.375177
 21
-0.178101
 31
0.0
  0
LINE
  5
54F
330
1F
100
AcDbEntity
  8
1
  6
CONTINUOUS
370
50
 62
4
100
AcDbLine
 10
11.654922
 20
-0.355797
 30
0.0
 11
11.514817
 21
-0.267237
 31
0.0
  0
LINE
  5
550
330
1F
100
AcDbEntity
  8
1
  6
CONTINUOUS
370
50
 62
4
100
AcDbLine
 10
10.129717
 20
0.250683
 30
0.0
 11
9.906392
 21
0.391842
 31
0.0
  0
LINE
  5
551
330
1F
100
AcDbEntity
  8
1
  6
CONTINUOUS
370
50
 62
4
100
AcDbLine
 10
11.369283
 20
-0.550504
 30
0.0
 11
11.119091
 21
-0.392676
 31
0.0
  0
LINE
  5
552
330
1F
100
AcDbEntity
  8
1
  6
CONTINUOUS
370
50
 62
4
100
AcDbLine
 10
11.795179
 20
-0.443646
 30
0.0
 11
11.654922
 21
-0.355797
 31
0.0
  0
LINE
  5
553
330
1F
100
AcDbEntity
  8
1
  6
CONTINUOUS
370
50
 62
4
100
AcDbLine
 10
5.069815
 20
-0.534208
 30
0.0
 11
4.961207
 21
-0.466194
 31
0.0
  0
LINE
  5
554
330
1F
100
AcDbEntity
  8
1
  6
CONTINUOUS
370
50
 62
4
100
AcDbLine
 10
9.906392
 20
0.391842
 30
0.0
 11
9.672443
 21
0.537843
 31
0.0
  0
LINE
  5
555
330
1F
100
AcDbEntity
  8
1
  6
CONTINUOUS
370
50
 62
4
100
AcDbLine
 10
10.427488
 20
0.439829
 30
0.0
 11
10.198217
 21
0.582452
 31
0.0
  0
LINE
  5
556
330
1F
100
AcDbEntity
  8
1
  6
CONTINUOUS
370
50
 62
4
100
AcDbLine
 10
11.935278
 20
-0.530655
 30
0.0
 11
11.795179
 21
-0.443646
 31
0.0
  0
LINE
  5
557
330
1F
100
AcDbEntity
  8
1
  6
CONTINUOUS
370
50
 62
4
100
AcDbLine
 10
9.672443
 20
0.537843
 30
0.0
 11
9.438558
 21
0.68211
 31
0.0
  0
LINE
  5
558
330
1F
100
AcDbEntity
  8
1
  6
CONTINUOUS
370
50
 62
4
100
AcDbLine
 10
12.074907
 20
-0.6166889999999999
 30
0.0
 11
11.935278
 21
-0.530655
 31
0.0
  0
LINE
  5
559
330
1F
100
AcDbEntity
  8
1
  6
CONTINUOUS
370
50
 62
4
100
AcDbLine
 10
11.619925
 20
-0.703218
 30
0.0
 11
11.369283
 21
-0.550504
 31
0.0
  0
LINE
  5
55A
330
1F
100
AcDbEntity
  8
1
  6
CONTINUOUS
370
50
 62
4
100
AcDbLine
 10
9.438558
 20
0.68211
 30
0.0
 11
9.205831
 21
0.823886
 31
0.0
  0
LINE
  5
55B
330
1F
100
AcDbEntity
  8
1
  6
CONTINUOUS
370
50
 62
4
100
AcDbLine
 10
10.198217
 20
0.582452
 30
0.0
 11
9.96858
 21
0.72134
 31
0.0
  0
LINE
  5
55C
330
1F
100
AcDbEntity
  8
1
  6
CONTINUOUS
370
50
 62
4
100
AcDbLine
 10
5.17674
 20
-0.598337
 30
0.0
 11
5.069815
 21
-0.534208
 31
0.0
  0
LINE
  5
55D
330
1F
100
AcDbEntity
  8
1
  6
CONTINUOUS
370
50
 62
4
100
AcDbLine
 10
9.205831
 20
0.823886
 30
0.0
 11
8.948357999999999
 21
0.976436
 31
0.0
  0
LINE
  5
55E
330
1F
100
AcDbEntity
  8
1
  6
CONTINUOUS
370
50
 62
4
100
AcDbLine
 10
11.871252
 20
-0.851308
 30
0.0
 11
11.619925
 21
-0.703218
 31
0.0
  0
LINE
  5
55F
330
1F
100
AcDbEntity
  8
1
  6
CONTINUOUS
370
50
 62
4
100
AcDbLine
 10
9.96858
 20
0.72134
 30
0.0
 11
9.738128
 21
0.856946
 31
0.0
  0
LINE
  5
560
330
1F
100
AcDbEntity
  8
1
  6
CONTINUOUS
370
50
 62
4
100
AcDbLine
 10
1.722051
 20
1.99995
 30
0.0
 11
-0.01
 21
2.99995
 31
0.0
  0
LINE
  5
561
330
1F
100
AcDbEntity
  8
1
  6
CONTINUOUS
370
50
 62
4
100
AcDbLine
 10
11.874587
 20
-1.557127
 30
0.0
 11
11.857215
 21
-1.547111
 31
0.0
  0
LINE
  5
562
330
1F
100
AcDbEntity
  8
1
  6
CONTINUOUS
370
50
 62
4
100
AcDbLine
 10
9.738128
 20
0.856946
 30
0.0
 11
9.507857
 21
0.988729
 31
0.0
  0
LINE
  5
563
330
1F
100
AcDbEntity
  8
1
  6
CONTINUOUS
370
50
 62
4
100
AcDbLine
 10
5.281689999999999
 20
-0.658389
 30
0.0
 11
5.17674
 21
-0.598337
 31
0.0
  0
LINE
  5
564
330
1F
100
AcDbEntity
  8
1
  6
CONTINUOUS
370
50
 62
4
100
AcDbLine
 10
12.122
 20
-0.994332
 30
0.0
 11
11.871252
 21
-0.851308
 31
0.0
  0
LINE
  5
565
330
1F
100
AcDbEntity
  8
1
  6
CONTINUOUS
370
50
 62
4
100
AcDbLine
 10
9.507857
 20
0.988729
 30
0.0
 11
9.278933
 21
1.116033
 31
0.0
  0
LINE
  5
566
330
1F
100
AcDbEntity
  8
1
  6
CONTINUOUS
370
50
 62
4
100
AcDbLine
 10
8.948357999999999
 20
0.976436
 30
0.0
 11
8.596682999999999
 21
1.169092
 31
0.0
  0
LINE
  5
567
330
1F
100
AcDbEntity
  8
1
  6
CONTINUOUS
370
50
 62
4
100
AcDbLine
 10
6.593462
 20
-1.176417
 30
0.0
 11
6.132
 21
-0.9254129999999999
 31
0.0
  0
LINE
  5
568
330
1F
100
AcDbEntity
  8
1
  6
CONTINUOUS
370
50
 62
4
100
AcDbLine
 10
5.384372
 20
-0.7141719999999999
 30
0.0
 11
5.281689999999999
 21
-0.658389
 31
0.0
  0
LINE
  5
569
330
1F
100
AcDbEntity
  8
1
  6
CONTINUOUS
370
50
 62
4
100
AcDbLine
 10
10.537123
 20
-0.011142
 30
0.0
 11
10.243449
 21
0.147368
 31
0.0
  0
LINE
  5
56A
330
1F
100
AcDbEntity
  8
1
  6
CONTINUOUS
370
50
 62
4
100
AcDbLine
 10
9.278933
 20
1.116033
 30
0.0
 11
9.039759
 21
1.243939
 31
0.0
  0
LINE
  5
56B
330
1F
100
AcDbEntity
  8
1
  6
CONTINUOUS
370
50
 62
4
100
AcDbLine
 10
10.243449
 20
0.147368
 30
0.0
 11
9.949774
 21
0.303318
 31
0.0
  0
LINE
  5
56C
330
1F
100
AcDbEntity
  8
1
  6
CONTINUOUS
370
50
 62
4
100
AcDbLine
 10
9.949774
 20
0.303318
 30
0.0
 11
9.656096
 21
0.456887
 31
0.0
  0
LINE
  5
56D
330
1F
100
AcDbEntity
  8
1
  6
CONTINUOUS
370
50
 62
4
100
AcDbLine
 10
9.656096
 20
0.456887
 30
0.0
 11
9.362419
 21
0.608112
 31
0.0
  0
LINE
  5
56E
330
1F
100
AcDbEntity
  8
1
  6
CONTINUOUS
370
50
 62
4
100
AcDbLine
 10
5.484493
 20
-0.7654949999999999
 30
0.0
 11
5.384372
 21
-0.7141719999999999
 31
0.0
  0
LINE
  5
56F
330
1F
100
AcDbEntity
  8
1
  6
CONTINUOUS
370
50
 62
4
100
AcDbLine
 10
9.362419
 20
0.608112
 30
0.0
 11
9.068743999999999
 21
0.7567969999999999
 31
0.0
  0
LINE
  5
570
330
1F
100
AcDbEntity
  8
1
  6
CONTINUOUS
370
50
 62
4
100
AcDbLine
 10
9.039759
 20
1.243939
 30
0.0
 11
8.762374
 21
1.381233
 31
0.0
  0
LINE
  5
571
330
1F
100
AcDbEntity
  8
1
  6
CONTINUOUS
370
50
 62
4
100
AcDbLine
 10
8.596682999999999
 20
1.169092
 30
0.0
 11
8.157357
 21
1.385031
 31
0.0
  0
LINE
  5
572
330
1F
100
AcDbEntity
  8
1
  6
CONTINUOUS
370
50
 62
4
100
AcDbLine
 10
7.053808
 20
-1.402448
 30
0.0
 11
6.593462
 21
-1.176417
 31
0.0
  0
LINE
  5
573
330
1F
100
AcDbEntity
  8
1
  6
CONTINUOUS
370
50
 62
4
100
AcDbLine
 10
5.581760999999999
 20
-0.8121649999999999
 30
0.0
 11
5.484493
 21
-0.7654949999999999
 31
0.0
  0
LINE
  5
574
330
1F
100
AcDbEntity
  8
1
  6
CONTINUOUS
370
50
 62
4
100
AcDbLine
 10
9.068743999999999
 20
0.7567969999999999
 30
0.0
 11
8.775072
 21
0.897034
 31
0.0
  0
LINE
  5
575
330
1F
100
AcDbEntity
  8
1
  6
CONTINUOUS
370
50
 62
4
100
AcDbLine
 10
6.529911999999999
 20
-1.435133
 30
0.0
 11
6.132
 21
-1.24626
 31
0.0
  0
LINE
  5
576
330
1F
100
AcDbEntity
  8
1
  6
CONTINUOUS
370
50
 62
4
100
AcDbLine
 10
12.122005
 20
1.578655
 30
0.0
 11
12.091302
 21
1.592615
 31
0.0
  0
LINE
  5
577
330
1F
100
AcDbEntity
  8
1
  6
CONTINUOUS
370
50
 62
4
100
AcDbLine
 10
12.091302
 20
1.592615
 30
0.0
 11
12.060587
 21
1.606352
 31
0.0
  0
LINE
  5
578
330
1F
100
AcDbEntity
  8
1
  6
CONTINUOUS
370
50
 62
4
100
AcDbLine
 10
5.675782
 20
-0.8539479999999999
 30
0.0
 11
5.581760999999999
 21
-0.8121649999999999
 31
0.0
  0
LINE
  5
579
330
1F
100
AcDbEntity
  8
1
  6
CONTINUOUS
370
50
 62
4
100
AcDbLine
 10
8.762374
 20
1.381233
 30
0.0
 11
8.443059
 21
1.522704
 31
0.0
  0
LINE
  5
57A
330
1F
100
AcDbEntity
  8
1
  6
CONTINUOUS
370
50
 62
4
100
AcDbLine
 10
8.775072
 20
0.897034
 30
0.0
 11
8.481399999999999
 21
1.026579
 31
0.0
  0
LINE
  5
57B
330
1F
100
AcDbEntity
  8
1
  6
CONTINUOUS
370
50
 62
4
100
AcDbLine
 10
12.060587
 20
1.606352
 30
0.0
 11
12.029963
 21
1.619805
 31
0.0
  0
LINE
  5
57C
330
1F
100
AcDbEntity
  8
1
  6
CONTINUOUS
370
50
 62
4
100
AcDbLine
 10
7.500938
 20
-1.596843
 30
0.0
 11
7.053808
 21
-1.402448
 31
0.0
  0
LINE
  5
57D
330
1F
100
AcDbEntity
  8
1
  6
CONTINUOUS
370
50
 62
4
100
AcDbLine
 10
8.157357
 20
1.385031
 30
0.0
 11
7.713228
 21
1.577067
 31
0.0
  0
LINE
  5
57E
330
1F
100
AcDbEntity
  8
1
  6
CONTINUOUS
370
50
 62
4
100
AcDbLine
 10
12.029963
 20
1.619805
 30
0.0
 11
11.999535
 21
1.632915
 31
0.0
  0
LINE
  5
57F
330
1F
100
AcDbEntity
  8
1
  6
CONTINUOUS
370
50
 62
4
100
AcDbLine
 10
11.999535
 20
1.632915
 30
0.0
 11
11.969403
 21
1.645624
 31
0.0
  0
LINE
  5
580
330
1F
100
AcDbEntity
  8
1
  6
CONTINUOUS
370
50
 62
4
100
AcDbLine
 10
6.929326
 20
-1.601436
 30
0.0
 11
6.529911999999999
 21
-1.435133
 31
0.0
  0
LINE
  5
581
330
1F
100
AcDbEntity
  8
1
  6
CONTINUOUS
370
50
 62
4
100
AcDbLine
 10
11.969403
 20
1.645624
 30
0.0
 11
11.939672
 21
1.657871
 31
0.0
  0
LINE
  5
582
330
1F
100
AcDbEntity
  8
1
  6
CONTINUOUS
370
50
 62
4
100
AcDbLine
 10
8.481399999999999
 20
1.026579
 30
0.0
 11
8.187726
 21
1.146044
 31
0.0
  0
LINE
  5
583
330
1F
100
AcDbEntity
  8
1
  6
CONTINUOUS
370
50
 62
4
100
AcDbLine
 10
5.764056999999999
 20
-0.8897879999999999
 30
0.0
 11
5.675782
 21
-0.8539479999999999
 31
0.0
  0
LINE
  5
584
330
1F
100
AcDbEntity
  8
1
  6
CONTINUOUS
370
50
 62
4
100
AcDbLine
 10
11.939672
 20
1.657871
 30
0.0
 11
11.910446
 21
1.669597
 31
0.0
  0
LINE
  5
585
330
1F
100
AcDbEntity
  8
1
  6
CONTINUOUS
370
50
 62
4
100
AcDbLine
 10
8.443059
 20
1.522704
 30
0.0
 11
8.097044
 21
1.656468
 31
0.0
  0
LINE
  5
586
330
1F
100
AcDbEntity
  8
1
  6
CONTINUOUS
370
50
 62
4
100
AcDbLine
 10
8.187726
 20
1.146044
 30
0.0
 11
7.894049
 21
1.255743
 31
0.0
  0
LINE
  5
587
330
1F
100
AcDbEntity
  8
1
  6
CONTINUOUS
370
50
 62
4
100
AcDbLine
 10
7.713228
 20
1.577067
 30
0.0
 11
7.346864
 21
1.713598
 31
0.0
  0
LINE
  5
588
330
1F
100
AcDbEntity
  8
1
  6
CONTINUOUS
370
50
 62
4
100
AcDbLine
 10
9.093399
 20
-0.281231
 30
0.0
 11
8.781511
 21
-0.166497
 31
0.0
  0
LINE
  5
589
330
1F
100
AcDbEntity
  8
1
  6
CONTINUOUS
370
50
 62
4
100
AcDbLine
 10
8.988128999999999
 20
-0.218397
 30
0.0
 11
8.6708
 21
-0.102697
 31
0.0
  0
LINE
  5
58A
330
1F
100
AcDbEntity
  8
1
  6
CONTINUOUS
370
50
 62
4
100
AcDbLine
 10
5.845382
 20
-0.9194089999999999
 30
0.0
 11
5.764056999999999
 21
-0.8897879999999999
 31
0.0
  0
LINE
  5
58B
330
1F
100
AcDbEntity
  8
1
  6
CONTINUOUS
370
50
 62
4
100
AcDbLine
 10
9.305475999999999
 20
-0.333898
 30
0.0
 11
8.988128999999999
 21
-0.218397
 31
0.0
  0
LINE
  5
58C
330
1F
100
AcDbEntity
  8
1
  6
CONTINUOUS
370
50
 62
4
100
AcDbLine
 10
8.6708
 20
-0.102697
 30
0.0
 11
8.353469
 21
0.01226
 31
0.0
  0
LINE
  5
58D
330
1F
100
AcDbEntity
  8
1
  6
CONTINUOUS
370
50
 62
4
100
AcDbLine
 10
7.831117
 20
0.175011
 30
0.0
 11
7.513059999999999
 21
0.290119
 31
0.0
  0
LINE
  5
58E
330
1F
100
AcDbEntity
  8
1
  6
CONTINUOUS
370
50
 62
4
100
AcDbLine
 10
7.513059999999999
 20
0.290119
 30
0.0
 11
7.188363
 21
0.407371
 31
0.0
  0
LINE
  5
58F
330
1F
100
AcDbEntity
  8
1
  6
CONTINUOUS
370
50
 62
4
100
AcDbLine
 10
8.781511
 20
-0.166497
 30
0.0
 11
8.470423
 21
-0.054171
 31
0.0
  0
LINE
  5
590
330
1F
100
AcDbEntity
  8
1
  6
CONTINUOUS
370
50
 62
4
100
AcDbLine
 10
8.353469
 20
0.01226
 30
0.0
 11
8.036113
 21
0.126722
 31
0.0
  0
LINE
  5
591
330
1F
100
AcDbEntity
  8
1
  6
CONTINUOUS
370
50
 62
4
100
AcDbLine
 10
8.036113
 20
0.126722
 30
0.0
 11
7.718739999999999
 21
0.240828
 31
0.0
  0
LINE
  5
592
330
1F
100
AcDbEntity
  8
1
  6
CONTINUOUS
370
50
 62
4
100
AcDbLine
 10
9.420392
 20
-0.398552
 30
0.0
 11
9.093399
 21
-0.281231
 31
0.0
  0
LINE
  5
593
330
1F
100
AcDbEntity
  8
1
  6
CONTINUOUS
370
50
 62
4
100
AcDbLine
 10
8.152002
 20
0.059912
 30
0.0
 11
7.831117
 21
0.175011
 31
0.0
  0
LINE
  5
594
330
1F
100
AcDbEntity
  8
1
  6
CONTINUOUS
370
50
 62
4
100
AcDbLine
 10
7.718739999999999
 20
0.240828
 30
0.0
 11
7.401374
 21
0.354647
 31
0.0
  0
LINE
  5
595
330
1F
100
AcDbEntity
  8
1
  6
CONTINUOUS
370
50
 62
4
100
AcDbLine
 10
8.470423
 20
-0.054171
 30
0.0
 11
8.152002
 21
0.059912
 31
0.0
  0
LINE
  5
596
330
1F
100
AcDbEntity
  8
1
  6
CONTINUOUS
370
50
 62
4
100
AcDbLine
 10
7.32856
 20
-1.743921
 30
0.0
 11
6.929326
 21
-1.601436
 31
0.0
  0
LINE
  5
597
330
1F
100
AcDbEntity
  8
1
  6
CONTINUOUS
370
50
 62
4
100
AcDbLine
 10
11.910446
 20
1.669597
 30
0.0
 11
11.883276
 21
1.679234
 31
0.0
  0
LINE
  5
598
330
1F
100
AcDbEntity
  8
1
  6
CONTINUOUS
370
50
 62
4
100
AcDbLine
 10
7.953926999999999
 20
-1.75677
 30
0.0
 11
7.500938
 21
-1.596843
 31
0.0
  0
LINE
  5
599
330
1F
100
AcDbEntity
  8
1
  6
CONTINUOUS
370
50
 62
4
100
AcDbLine
 10
7.401374
 20
0.354647
 30
0.0
 11
7.084033
 21
0.465002
 31
0.0
  0
LINE
  5
59A
330
1F
100
AcDbEntity
  8
1
  6
CONTINUOUS
370
50
 62
4
100
AcDbLine
 10
9.622847
 20
-0.443524
 30
0.0
 11
9.305475999999999
 21
-0.333898
 31
0.0
  0
LINE
  5
59B
330
1F
100
AcDbEntity
  8
1
  6
CONTINUOUS
370
50
 62
4
100
AcDbLine
 10
7.894049
 20
1.255743
 30
0.0
 11
7.600371
 21
1.355389
 31
0.0
  0
LINE
  5
59C
330
1F
100
AcDbEntity
  8
1
  6
CONTINUOUS
370
50
 62
4
100
AcDbLine
 10
7.188363
 20
0.407371
 30
0.0
 11
6.836691999999999
 21
0.5248999999999999
 31
0.0
  0
LINE
  5
59D
330
1F
100
AcDbEntity
  8
1
  6
CONTINUOUS
370
50
 62
4
100
AcDbLine
 10
9.770650999999999
 20
-0.51545
 30
0.0
 11
9.420392
 21
-0.398552
 31
0.0
  0
LINE
  5
59E
330
1F
100
AcDbEntity
  8
1
  6
CONTINUOUS
370
50
 62
4
100
AcDbLine
 10
8.097044
 20
1.656468
 30
0.0
 11
7.752752999999999
 21
1.770346
 31
0.0
  0
LINE
  5
59F
330
1F
100
AcDbEntity
  8
1
  6
CONTINUOUS
370
50
 62
4
100
AcDbLine
 10
9.940216999999999
 20
-0.546874
 30
0.0
 11
9.622847
 21
-0.443524
 31
0.0
  0
LINE
  5
5A0
330
1F
100
AcDbEntity
  8
1
  6
CONTINUOUS
370
50
 62
4
100
AcDbLine
 10
7.084033
 20
0.465002
 30
0.0
 11
6.766703
 21
0.568085
 31
0.0
  0
LINE
  5
5A1
330
1F
100
AcDbEntity
  8
1
  6
CONTINUOUS
370
50
 62
4
100
AcDbLine
 10
5.919442999999999
 20
-0.942954
 30
0.0
 11
5.845382
 21
-0.9194089999999999
 31
0.0
  0
LINE
  5
5A2
330
1F
100
AcDbEntity
  8
1
  6
CONTINUOUS
370
50
 62
4
100
AcDbLine
 10
7.346864
 20
1.713598
 30
0.0
 11
7.041423999999999
 21
1.808324
 31
0.0
  0
LINE
  5
5A3
330
1F
100
AcDbEntity
  8
1
  6
CONTINUOUS
370
50
 62
4
100
AcDbLine
 10
10.127691
 20
-0.625803
 30
0.0
 11
9.770650999999999
 21
-0.51545
 31
0.0
  0
LINE
  5
5A4
330
1F
100
AcDbEntity
  8
1
  6
CONTINUOUS
370
50
 62
4
100
AcDbLine
 10
6.836691999999999
 20
0.5248999999999999
 30
0.0
 11
6.482175
 21
0.634205
 31
0.0
  0
LINE
  5
5A5
330
1F
100
AcDbEntity
  8
1
  6
CONTINUOUS
370
50
 62
4
100
AcDbLine
 10
10.257568
 20
-0.6443329999999999
 30
0.0
 11
9.940216999999999
 21
-0.546874
 31
0.0
  0
LINE
  5
5A6
330
1F
100
AcDbEntity
  8
1
  6
CONTINUOUS
370
50
 62
4
100
AcDbLine
 10
7.600371
 20
1.355389
 30
0.0
 11
7.306694999999999
 21
1.44445
 31
0.0
  0
LINE
  5
5A7
330
1F
100
AcDbEntity
  8
1
  6
CONTINUOUS
370
50
 62
4
100
AcDbLine
 10
6.766703
 20
0.568085
 30
0.0
 11
6.449362
 21
0.664322
 31
0.0
  0
LINE
  5
5A8
330
1F
100
AcDbEntity
  8
1
  6
CONTINUOUS
370
50
 62
4
100
AcDbLine
 10
10.48178
 20
-0.728105
 30
0.0
 11
10.127691
 21
-0.625803
 31
0.0
  0
LINE
  5
5A9
330
1F
100
AcDbEntity
  8
1
  6
CONTINUOUS
370
50
 62
4
100
AcDbLine
 10
10.574911
 20
-0.73598
 30
0.0
 11
10.257568
 21
-0.6443329999999999
 31
0.0
  0
LINE
  5
5AA
330
1F
100
AcDbEntity
  8
1
  6
CONTINUOUS
370
50
 62
4
100
AcDbLine
 10
6.482175
 20
0.634205
 30
0.0
 11
6.132
 21
0.7344769999999999
 31
0.0
  0
LINE
  5
5AB
330
1F
100
AcDbEntity
  8
1
  6
CONTINUOUS
370
50
 62
4
100
AcDbLine
 10
6.449362
 20
0.664322
 30
0.0
 11
6.131997999999999
 21
0.7539359999999999
 31
0.0
  0
LINE
  5
5AC
330
1F
100
AcDbEntity
  8
1
  6
CONTINUOUS
370
50
 62
4
100
AcDbLine
 10
11.883276
 20
1.679234
 30
0.0
 11
11.850202
 21
1.688485
 31
0.0
  0
LINE
  5
5AD
330
1F
100
AcDbEntity
  8
1
  6
CONTINUOUS
370
50
 62
4
100
AcDbLine
 10
7.8205
 20
-1.878803
 30
0.0
 11
7.32856
 21
-1.743921
 31
0.0
  0
LINE
  5
5AE
330
1F
100
AcDbEntity
  8
1
  6
CONTINUOUS
370
50
 62
4
100
AcDbLine
 10
7.752752999999999
 20
1.770346
 30
0.0
 11
7.418339
 21
1.861986
 31
0.0
  0
LINE
  5
5AF
330
1F
100
AcDbEntity
  8
1
  6
CONTINUOUS
370
50
 62
4
100
AcDbLine
 10
10.818343
 20
-0.820002
 30
0.0
 11
10.48178
 21
-0.728105
 31
0.0
  0
LINE
  5
5B0
330
1F
100
AcDbEntity
  8
1
  6
CONTINUOUS
370
50
 62
4
100
AcDbLine
 10
10.892268
 20
-0.8217479999999999
 30
0.0
 11
10.574911
 21
-0.73598
 31
0.0
  0
LINE
  5
5B1
330
1F
100
AcDbEntity
  8
1
  6
CONTINUOUS
370
50
 62
4
100
AcDbLine
 10
5.985929
 20
-0.960567
 30
0.0
 11
5.919442999999999
 21
-0.942954
 31
0.0
  0
LINE
  5
5B2
330
1F
100
AcDbEntity
  8
1
  6
CONTINUOUS
370
50
 62
4
100
AcDbLine
 10
8.417093999999999
 20
-1.878589
 30
0.0
 11
7.953926999999999
 21
-1.75677
 31
0.0
  0
LINE
  5
5B3
330
1F
100
AcDbEntity
  8
1
  6
CONTINUOUS
370
50
 62
4
100
AcDbLine
 10
7.306694999999999
 20
1.44445
 30
0.0
 11
7.013021999999999
 21
1.519206
 31
0.0
  0
LINE
  5
5B4
330
1F
100
AcDbEntity
  8
1
  6
CONTINUOUS
370
50
 62
4
100
AcDbLine
 10
7.041423999999999
 20
1.808324
 30
0.0
 11
6.738344
 21
1.883092
 31
0.0
  0
LINE
  5
5B5
330
1F
100
AcDbEntity
  8
1
  6
CONTINUOUS
370
50
 62
4
100
AcDbLine
 10
9.138995999999999
 20
1.443079
 30
0.0
 11
9.086224999999999
 21
1.456015
 31
0.0
  0
LINE
  5
5B6
330
1F
100
AcDbEntity
  8
1
  6
CONTINUOUS
370
50
 62
4
100
AcDbLine
 10
9.086224999999999
 20
1.456015
 30
0.0
 11
9.03342
 21
1.468946
 31
0.0
  0
LINE
  5
5B7
330
1F
100
AcDbEntity
  8
1
  6
CONTINUOUS
370
50
 62
4
100
AcDbLine
 10
9.03342
 20
1.468946
 30
0.0
 11
8.980615
 21
1.481865
 31
0.0
  0
LINE
  5
5B8
330
1F
100
AcDbEntity
  8
1
  6
CONTINUOUS
370
50
 62
4
100
AcDbLine
 10
8.980615
 20
1.481865
 30
0.0
 11
8.927764
 21
1.494781
 31
0.0
  0
LINE
  5
5B9
330
1F
100
AcDbEntity
  8
1
  6
CONTINUOUS
370
50
 62
4
100
AcDbLine
 10
8.927764
 20
1.494781
 30
0.0
 11
8.874913
 21
1.507684
 31
0.0
  0
LINE
  5
5BA
330
1F
100
AcDbEntity
  8
1
  6
CONTINUOUS
370
50
 62
4
100
AcDbLine
 10
8.874913
 20
1.507684
 30
0.0
 11
8.834833
 21
1.517461
 31
0.0
  0
LINE
  5
5BB
330
1F
100
AcDbEntity
  8
1
  6
CONTINUOUS
370
50
 62
4
100
AcDbLine
 10
7.503385
 20
1.840905
 30
0.0
 11
7.418341
 21
1.861641
 31
0.0
  0
LINE
  5
5BC
330
1F
100
AcDbEntity
  8
1
  6
CONTINUOUS
370
50
 62
4
100
AcDbLine
 10
7.551037999999999
 20
1.82929
 30
0.0
 11
7.503385
 21
1.840905
 31
0.0
  0
LINE
  5
5BD
330
1F
100
AcDbEntity
  8
1
  6
CONTINUOUS
370
50
 62
4
100
AcDbLine
 10
8.834833
 20
1.517461
 30
0.0
 11
8.782729
 21
1.53016
 31
0.0
  0
LINE
  5
5BE
330
1F
100
AcDbEntity
  8
1
  6
CONTINUOUS
370
50
 62
4
100
AcDbLine
 10
11.153202
 20
-0.901598
 30
0.0
 11
10.818343
 21
-0.820002
 31
0.0
  0
LINE
  5
5BF
330
1F
100
AcDbEntity
  8
1
  6
CONTINUOUS
370
50
 62
4
100
AcDbLine
 10
7.59869
 20
1.81768
 30
0.0
 11
7.551037999999999
 21
1.82929
 31
0.0
  0
LINE
  5
5C0
330
1F
100
AcDbEntity
  8
1
  6
CONTINUOUS
370
50
 62
4
100
AcDbLine
 10
9.191766
 20
1.430225
 30
0.0
 11
9.138995999999999
 21
1.443079
 31
0.0
  0
LINE
  5
5C1
330
1F
100
AcDbEntity
  8
1
  6
CONTINUOUS
370
50
 62
4
100
AcDbLine
 10
7.646373
 20
1.806067
 30
0.0
 11
7.59869
 21
1.81768
 31
0.0
  0
LINE
  5
5C2
330
1F
100
AcDbEntity
  8
1
  6
CONTINUOUS
370
50
 62
4
100
AcDbLine
 10
8.782729
 20
1.53016
 30
0.0
 11
8.730625
 21
1.542847
 31
0.0
  0
LINE
  5
5C3
330
1F
100
AcDbEntity
  8
1
  6
CONTINUOUS
370
50
 62
4
100
AcDbLine
 10
7.694057
 20
1.79446
 30
0.0
 11
7.646373
 21
1.806067
 31
0.0
  0
LINE
  5
5C4
330
1F
100
AcDbEntity
  8
1
  6
CONTINUOUS
370
50
 62
4
100
AcDbLine
 10
7.741778999999999
 20
1.782848
 30
0.0
 11
7.694057
 21
1.79446
 31
0.0
  0
LINE
  5
5C5
330
1F
100
AcDbEntity
  8
1
  6
CONTINUOUS
370
50
 62
4
100
AcDbLine
 10
8.730625
 20
1.542847
 30
0.0
 11
8.678492
 21
1.55553
 31
0.0
  0
LINE
  5
5C6
330
1F
100
AcDbEntity
  8
1
  6
CONTINUOUS
370
50
 62
4
100
AcDbLine
 10
7.789501
 20
1.771243
 30
0.0
 11
7.741778999999999
 21
1.782848
 31
0.0
  0
LINE
  5
5C7
330
1F
100
AcDbEntity
  8
1
  6
CONTINUOUS
370
50
 62
4
100
AcDbLine
 10
8.678492
 20
1.55553
 30
0.0
 11
8.626358
 21
1.568204
 31
0.0
  0
LINE
  5
5C8
330
1F
100
AcDbEntity
  8
1
  6
CONTINUOUS
370
50
 62
4
100
AcDbLine
 10
7.837223
 20
1.759644
 30
0.0
 11
7.789501
 21
1.771243
 31
0.0
  0
LINE
  5
5C9
330
1F
100
AcDbEntity
  8
1
  6
CONTINUOUS
370
50
 62
4
100
AcDbLine
 10
7.884944999999999
 20
1.74805
 30
0.0
 11
7.837223
 21
1.759644
 31
0.0
  0
LINE
  5
5CA
330
1F
100
AcDbEntity
  8
1
  6
CONTINUOUS
370
50
 62
4
100
AcDbLine
 10
8.626358
 20
1.568204
 30
0.0
 11
8.574195999999999
 21
1.580875
 31
0.0
  0
LINE
  5
5CB
330
1F
100
AcDbEntity
  8
1
  6
CONTINUOUS
370
50
 62
4
100
AcDbLine
 10
7.960546
 20
1.729695
 30
0.0
 11
7.884944999999999
 21
1.74805
 31
0.0
  0
LINE
  5
5CC
330
1F
100
AcDbEntity
  8
1
  6
CONTINUOUS
370
50
 62
4
100
AcDbLine
 10
8.574195999999999
 20
1.580875
 30
0.0
 11
8.522034
 21
1.593539
 31
0.0
  0
LINE
  5
5CD
330
1F
100
AcDbEntity
  8
1
  6
CONTINUOUS
370
50
 62
4
100
AcDbLine
 10
8.010622999999999
 20
1.717543
 30
0.0
 11
7.960546
 21
1.729695
 31
0.0
  0
LINE
  5
5CE
330
1F
100
AcDbEntity
  8
1
  6
CONTINUOUS
370
50
 62
4
100
AcDbLine
 10
8.522034
 20
1.593539
 30
0.0
 11
8.469871999999999
 21
1.606196
 31
0.0
  0
LINE
  5
5CF
330
1F
100
AcDbEntity
  8
1
  6
CONTINUOUS
370
50
 62
4
100
AcDbLine
 10
8.060699999999999
 20
1.705396
 30
0.0
 11
8.010622999999999
 21
1.717543
 31
0.0
  0
LINE
  5
5D0
330
1F
100
AcDbEntity
  8
1
  6
CONTINUOUS
370
50
 62
4
100
AcDbLine
 10
8.469871999999999
 20
1.606196
 30
0.0
 11
8.417712
 21
1.618847
 31
0.0
  0
LINE
  5
5D1
330
1F
100
AcDbEntity
  8
1
  6
CONTINUOUS
370
50
 62
4
100
AcDbLine
 10
8.110776999999999
 20
1.693253
 30
0.0
 11
8.060699999999999
 21
1.705396
 31
0.0
  0
LINE
  5
5D2
330
1F
100
AcDbEntity
  8
1
  6
CONTINUOUS
370
50
 62
4
100
AcDbLine
 10
8.417712
 20
1.618847
 30
0.0
 11
8.361169
 21
1.632557
 31
0.0
  0
LINE
  5
5D3
330
1F
100
AcDbEntity
  8
1
  6
CONTINUOUS
370
50
 62
4
100
AcDbLine
 10
8.160854
 20
1.681112
 30
0.0
 11
8.110776999999999
 21
1.693253
 31
0.0
  0
LINE
  5
5D4
330
1F
100
AcDbEntity
  8
1
  6
CONTINUOUS
370
50
 62
4
100
AcDbLine
 10
8.361169
 20
1.632557
 30
0.0
 11
8.31109
 21
1.644697
 31
0.0
  0
LINE
  5
5D5
330
1F
100
AcDbEntity
  8
1
  6
CONTINUOUS
370
50
 62
4
100
AcDbLine
 10
8.210932999999999
 20
1.668973
 30
0.0
 11
8.160854
 21
1.681112
 31
0.0
  0
LINE
  5
5D6
330
1F
100
AcDbEntity
  8
1
  6
CONTINUOUS
370
50
 62
4
100
AcDbLine
 10
8.261011
 20
1.656835
 30
0.0
 11
8.210932999999999
 21
1.668973
 31
0.0
  0
LINE
  5
5D7
330
1F
100
AcDbEntity
  8
1
  6
CONTINUOUS
370
50
 62
4
100
AcDbLine
 10
8.31109
 20
1.644697
 30
0.0
 11
8.261011
 21
1.656835
 31
0.0
  0
LINE
  5
5D8
330
1F
100
AcDbEntity
  8
1
  6
CONTINUOUS
370
50
 62
4
100
AcDbLine
 10
11.209642
 20
-0.8984
 30
0.0
 11
10.892268
 21
-0.8217479999999999
 31
0.0
  0
LINE
  5
5D9
330
1F
100
AcDbEntity
  8
1
  6
CONTINUOUS
370
50
 62
4
100
AcDbLine
 10
9.244568
 20
1.4175
 30
0.0
 11
9.191766
 21
1.430225
 31
0.0
  0
LINE
  5
5DA
330
1F
100
AcDbEntity
  8
1
  6
CONTINUOUS
370
50
 62
4
100
AcDbLine
 10
9.297367
 20
1.404911
 30
0.0
 11
9.244568
 21
1.4175
 31
0.0
  0
LINE
  5
5DB
330
1F
100
AcDbEntity
  8
1
  6
CONTINUOUS
370
50
 62
4
100
AcDbLine
 10
9.332094999999999
 20
1.396705
 30
0.0
 11
9.297367
 21
1.404911
 31
0.0
  0
LINE
  5
5DC
330
1F
100
AcDbEntity
  8
1
  6
CONTINUOUS
370
50
 62
4
100
AcDbLine
 10
9.386522
 20
1.383962
 30
0.0
 11
9.332094999999999
 21
1.396705
 31
0.0
  0
LINE
  5
5DD
330
1F
100
AcDbEntity
  8
1
  6
CONTINUOUS
370
50
 62
4
100
AcDbLine
 10
9.440947999999999
 20
1.371361
 30
0.0
 11
9.386522
 21
1.383962
 31
0.0
  0
LINE
  5
5DE
330
1F
100
AcDbEntity
  8
1
  6
CONTINUOUS
370
50
 62
4
100
AcDbLine
 10
9.495375
 20
1.358901
 30
0.0
 11
9.440947999999999
 21
1.371361
 31
0.0
  0
LINE
  5
5DF
330
1F
100
AcDbEntity
  8
1
  6
CONTINUOUS
370
50
 62
4
100
AcDbLine
 10
9.5498
 20
1.346581
 30
0.0
 11
9.495375
 21
1.358901
 31
0.0
  0
LINE
  5
5E0
330
1F
100
AcDbEntity
  8
1
  6
CONTINUOUS
370
50
 62
4
100
AcDbLine
 10
9.604274
 20
1.334387
 30
0.0
 11
9.5498
 21
1.346581
 31
0.0
  0
LINE
  5
5E1
330
1F
100
AcDbEntity
  8
1
  6
CONTINUOUS
370
50
 62
4
100
AcDbLine
 10
7.418339
 20
1.861986
 30
0.0
 11
7.246815
 21
1.900369
 31
0.0
  0
LINE
  5
5E2
330
1F
100
AcDbEntity
  8
1
  6
CONTINUOUS
370
50
 62
4
100
AcDbLine
 10
9.658748
 20
1.32233
 30
0.0
 11
9.604274
 21
1.334387
 31
0.0
  0
LINE
  5
5E3
330
1F
100
AcDbEntity
  8
1
  6
CONTINUOUS
370
50
 62
4
100
AcDbLine
 10
9.713222
 20
1.310408
 30
0.0
 11
9.658748
 21
1.32233
 31
0.0
  0
LINE
  5
5E4
330
1F
100
AcDbEntity
  8
1
  6
CONTINUOUS
370
50
 62
4
100
AcDbLine
 10
9.767695
 20
1.298618
 30
0.0
 11
9.713222
 21
1.310408
 31
0.0
  0
LINE
  5
5E5
330
1F
100
AcDbEntity
  8
1
  6
CONTINUOUS
370
50
 62
4
100
AcDbLine
 10
9.789221
 20
1.293996
 30
0.0
 11
9.767695
 21
1.298618
 31
0.0
  0
LINE
  5
5E6
330
1F
100
AcDbEntity
  8
1
  6
CONTINUOUS
370
50
 62
4
100
AcDbLine
 10
9.846058
 20
1.281888
 30
0.0
 11
9.789221
 21
1.293996
 31
0.0
  0
LINE
  5
5E7
330
1F
100
AcDbEntity
  8
1
  6
CONTINUOUS
370
50
 62
4
100
AcDbLine
 10
11.850202
 20
1.688485
 30
0.0
 11
11.810273
 21
1.696976
 31
0.0
  0
LINE
  5
5E8
330
1F
100
AcDbEntity
  8
1
  6
CONTINUOUS
370
50
 62
4
100
AcDbLine
 10
9.902895
 20
1.26992
 30
0.0
 11
9.846058
 21
1.281888
 31
0.0
  0
LINE
  5
5E9
330
1F
100
AcDbEntity
  8
1
  6
CONTINUOUS
370
50
 62
4
100
AcDbLine
 10
9.959731999999999
 20
1.25809
 30
0.0
 11
9.902895
 21
1.26992
 31
0.0
  0
LINE
  5
5EA
330
1F
100
AcDbEntity
  8
1
  6
CONTINUOUS
370
50
 62
4
100
AcDbLine
 10
10.016571
 20
1.246396
 30
0.0
 11
9.959731999999999
 21
1.25809
 31
0.0
  0
LINE
  5
5EB
330
1F
100
AcDbEntity
  8
1
  6
CONTINUOUS
370
50
 62
4
100
AcDbLine
 10
11.527009
 20
-0.96368
 30
0.0
 11
11.209642
 21
-0.8984
 31
0.0
  0
LINE
  5
5EC
330
1F
100
AcDbEntity
  8
1
  6
CONTINUOUS
370
50
 62
4
100
AcDbLine
 10
11.844975
 20
0.919333
 30
0.0
 11
11.731881
 21
0.9423509999999999
 31
0.0
  0
LINE
  5
5ED
330
1F
100
AcDbEntity
  8
1
  6
CONTINUOUS
370
50
 62
4
100
AcDbLine
 10
10.073426
 20
1.234833
 30
0.0
 11
10.016571
 21
1.246396
 31
0.0
  0
LINE
  5
5EE
330
1F
100
AcDbEntity
  8
1
  6
CONTINUOUS
370
50
 62
4
100
AcDbLine
 10
11.844343
 20
0.933326
 30
0.0
 11
11.831827
 21
0.93587
 31
0.0
  0
LINE
  5
5EF
330
1F
100
AcDbEntity
  8
1
  6
CONTINUOUS
370
50
 62
4
100
AcDbLine
 10
11.498086
 20
-0.97166
 30
0.0
 11
11.153202
 21
-0.901598
 31
0.0
  0
LINE
  5
5F0
330
1F
100
AcDbEntity
  8
1
  6
CONTINUOUS
370
50
 62
4
100
AcDbLine
 10
7.013021999999999
 20
1.519206
 30
0.0
 11
6.719349999999999
 21
1.578816
 31
0.0
  0
LINE
  5
5F1
330
1F
100
AcDbEntity
  8
1
  6
CONTINUOUS
370
50
 62
4
100
AcDbLine
 10
11.831827
 20
0.93587
 30
0.0
 11
11.819312
 21
0.9384049999999999
 31
0.0
  0
LINE
  5
5F2
330
1F
100
AcDbEntity
  8
1
  6
CONTINUOUS
370
50
 62
4
100
AcDbLine
 10
11.819312
 20
0.9384049999999999
 30
0.0
 11
11.806796
 21
0.940925
 31
0.0
  0
LINE
  5
5F3
330
1F
100
AcDbEntity
  8
1
  6
CONTINUOUS
370
50
 62
4
100
AcDbLine
 10
10.130281
 20
1.223403
 30
0.0
 11
10.073426
 21
1.234833
 31
0.0
  0
LINE
  5
5F4
330
1F
100
AcDbEntity
  8
1
  6
CONTINUOUS
370
50
 62
4
100
AcDbLine
 10
11.806796
 20
0.940925
 30
0.0
 11
11.794281
 21
0.9434309999999999
 31
0.0
  0
LINE
  5
5F5
330
1F
100
AcDbEntity
  8
1
  6
CONTINUOUS
370
50
 62
4
100
AcDbLine
 10
11.794281
 20
0.9434309999999999
 30
0.0
 11
11.781765
 21
0.945921
 31
0.0
  0
LINE
  5
5F6
330
1F
100
AcDbEntity
  8
1
  6
CONTINUOUS
370
50
 62
4
100
AcDbLine
 10
10.187106
 20
1.212109
 30
0.0
 11
10.130281
 21
1.223403
 31
0.0
  0
LINE
  5
5F7
330
1F
100
AcDbEntity
  8
1
  6
CONTINUOUS
370
50
 62
4
100
AcDbLine
 10
6.049544999999999
 20
-0.973178
 30
0.0
 11
5.985929
 21
-0.960567
 31
0.0
  0
LINE
  5
5F8
330
1F
100
AcDbEntity
  8
1
  6
CONTINUOUS
370
50
 62
4
100
AcDbLine
 10
11.781765
 20
0.945921
 30
0.0
 11
11.769249
 21
0.948395
 31
0.0
  0
LINE
  5
5F9
330
1F
100
AcDbEntity
  8
1
  6
CONTINUOUS
370
50
 62
4
100
AcDbLine
 10
10.243931
 20
1.200946
 30
0.0
 11
10.187106
 21
1.212109
 31
0.0
  0
LINE
  5
5FA
330
1F
100
AcDbEntity
  8
1
  6
CONTINUOUS
370
50
 62
4
100
AcDbLine
 10
10.301435
 20
1.189781
 30
0.0
 11
10.243931
 21
1.200946
 31
0.0
  0
LINE
  5
5FB
330
1F
100
AcDbEntity
  8
1
  6
CONTINUOUS
370
50
 62
4
100
AcDbLine
 10
11.731881
 20
0.9423509999999999
 30
0.0
 11
11.619504
 21
0.9640329999999999
 31
0.0
  0
LINE
  5
5FC
330
1F
100
AcDbEntity
  8
1
  6
CONTINUOUS
370
50
 62
4
100
AcDbLine
 10
10.358938
 20
1.178746
 30
0.0
 11
10.301435
 21
1.189781
 31
0.0
  0
LINE
  5
5FD
330
1F
100
AcDbEntity
  8
1
  6
CONTINUOUS
370
50
 62
4
100
AcDbLine
 10
11.769249
 20
0.948395
 30
0.0
 11
11.6235
 21
0.976107
 31
0.0
  0
LINE
  5
5FE
330
1F
100
AcDbEntity
  8
1
  6
CONTINUOUS
370
50
 62
4
100
AcDbLine
 10
10.416407
 20
1.167849
 30
0.0
 11
10.358938
 21
1.178746
 31
0.0
  0
LINE
  5
5FF
330
1F
100
AcDbEntity
  8
1
  6
CONTINUOUS
370
50
 62
4
100
AcDbLine
 10
10.473874
 20
1.157081
 30
0.0
 11
10.416407
 21
1.167849
 31
0.0
  0
LINE
  5
600
330
1F
100
AcDbEntity
  8
1
  6
CONTINUOUS
370
50
 62
4
100
AcDbLine
 10
7.246815
 20
1.900369
 30
0.0
 11
7.073502
 21
1.932716
 31
0.0
  0
LINE
  5
601
330
1F
100
AcDbEntity
  8
1
  6
CONTINUOUS
370
50
 62
4
100
AcDbLine
 10
6.738344
 20
1.883092
 30
0.0
 11
6.434322
 21
1.939607
 31
0.0
  0
LINE
  5
602
330
1F
100
AcDbEntity
  8
1
  6
CONTINUOUS
370
50
 62
4
100
AcDbLine
 10
10.531311
 20
1.14645
 30
0.0
 11
10.473874
 21
1.157081
 31
0.0
  0
LINE
  5
603
330
1F
100
AcDbEntity
  8
1
  6
CONTINUOUS
370
50
 62
4
100
AcDbLine
 10
10.588747
 20
1.135948
 30
0.0
 11
10.531311
 21
1.14645
 31
0.0
  0
LINE
  5
604
330
1F
100
AcDbEntity
  8
1
  6
CONTINUOUS
370
50
 62
4
100
AcDbLine
 10
11.619504
 20
0.9640329999999999
 30
0.0
 11
11.507812
 21
0.984413
 31
0.0
  0
LINE
  5
605
330
1F
100
AcDbEntity
  8
1
  6
CONTINUOUS
370
50
 62
4
100
AcDbLine
 10
10.646143
 20
1.125585
 30
0.0
 11
10.588747
 21
1.135948
 31
0.0
  0
LINE
  5
606
330
1F
100
AcDbEntity
  8
1
  6
CONTINUOUS
370
50
 62
4
100
AcDbLine
 10
8.839023
 20
-1.954599
 30
0.0
 11
8.417093999999999
 21
-1.878589
 31
0.0
  0
LINE
  5
607
330
1F
100
AcDbEntity
  8
1
  6
CONTINUOUS
370
50
 62
4
100
AcDbLine
 10
10.703538
 20
1.115354
 30
0.0
 11
10.646143
 21
1.125585
 31
0.0
  0
LINE
  5
608
330
1F
100
AcDbEntity
  8
1
  6
CONTINUOUS
370
50
 62
4
100
AcDbLine
 10
10.762172
 20
1.105041
 30
0.0
 11
10.703538
 21
1.115354
 31
0.0
  0
LINE
  5
609
330
1F
100
AcDbEntity
  8
1
  6
CONTINUOUS
370
50
 62
4
100
AcDbLine
 10
11.6235
 20
0.976107
 30
0.0
 11
11.477741
 21
1.001741
 31
0.0
  0
LINE
  5
60A
330
1F
100
AcDbEntity
  8
1
  6
CONTINUOUS
370
50
 62
4
100
AcDbLine
 10
10.820804
 20
1.094869
 30
0.0
 11
10.762172
 21
1.105041
 31
0.0
  0
LINE
  5
60B
330
1F
100
AcDbEntity
  8
1
  6
CONTINUOUS
370
50
 62
4
100
AcDbLine
 10
11.844342
 20
-1.018395
 30
0.0
 11
11.527009
 21
-0.96368
 31
0.0
  0
LINE
  5
60C
330
1F
100
AcDbEntity
  8
1
  6
CONTINUOUS
370
50
 62
4
100
AcDbLine
 10
11.507812
 20
0.984413
 30
0.0
 11
11.395996
 21
1.003662
 31
0.0
  0
LINE
  5
60D
330
1F
100
AcDbEntity
  8
1
  6
CONTINUOUS
370
50
 62
4
100
AcDbLine
 10
10.879391
 20
1.084848
 30
0.0
 11
10.820804
 21
1.094869
 31
0.0
  0
LINE
  5
60E
330
1F
100
AcDbEntity
  8
1
  6
CONTINUOUS
370
50
 62
4
100
AcDbLine
 10
10.937977
 20
1.07504
 30
0.0
 11
10.879391
 21
1.084848
 31
0.0
  0
LINE
  5
60F
330
1F
100
AcDbEntity
  8
1
  6
CONTINUOUS
370
50
 62
4
100
AcDbLine
 10
11.844967
 20
-1.029
 30
0.0
 11
11.498086
 21
-0.97166
 31
0.0
  0
LINE
  5
610
330
1F
100
AcDbEntity
  8
1
  6
CONTINUOUS
370
50
 62
4
100
AcDbLine
 10
10.996605
 20
1.065514
 30
0.0
 11
10.937977
 21
1.07504
 31
0.0
  0
LINE
  5
611
330
1F
100
AcDbEntity
  8
1
  6
CONTINUOUS
370
50
 62
4
100
AcDbLine
 10
11.395996
 20
1.003662
 30
0.0
 11
11.284183
 21
1.021746
 31
0.0
  0
LINE
  5
612
330
1F
100
AcDbEntity
  8
1
  6
CONTINUOUS
370
50
 62
4
100
AcDbLine
 10
11.477741
 20
1.001741
 30
0.0
 11
11.331978
 21
1.025247
 31
0.0
  0
LINE
  5
613
330
1F
100
AcDbEntity
  8
1
  6
CONTINUOUS
370
50
 62
4
100
AcDbLine
 10
8.419186
 20
-1.975202
 30
0.0
 11
7.8205
 21
-1.878803
 31
0.0
  0
LINE
  5
614
330
1F
100
AcDbEntity
  8
1
  6
CONTINUOUS
370
50
 62
4
100
AcDbLine
 10
11.055233
 20
1.056272
 30
0.0
 11
10.996605
 21
1.065514
 31
0.0
  0
LINE
  5
615
330
1F
100
AcDbEntity
  8
1
  6
CONTINUOUS
370
50
 62
4
100
AcDbLine
 10
11.810273
 20
1.696976
 30
0.0
 11
11.762537
 21
1.704329
 31
0.0
  0
LINE
  5
616
330
1F
100
AcDbEntity
  8
1
  6
CONTINUOUS
370
50
 62
4
100
AcDbLine
 10
6.719349999999999
 20
1.578816
 30
0.0
 11
6.425675999999999
 21
1.623993
 31
0.0
  0
LINE
  5
617
330
1F
100
AcDbEntity
  8
1
  6
CONTINUOUS
370
50
 62
4
100
AcDbLine
 10
11.113911
 20
1.047304
 30
0.0
 11
11.055233
 21
1.056272
 31
0.0
  0
LINE
  5
618
330
1F
100
AcDbEntity
  8
1
  6
CONTINUOUS
370
50
 62
4
100
AcDbLine
 10
11.284183
 20
1.021746
 30
0.0
 11
11.172588
 21
1.038612
 31
0.0
  0
LINE
  5
619
330
1F
100
AcDbEntity
  8
1
  6
CONTINUOUS
370
50
 62
4
100
AcDbLine
 10
7.073502
 20
1.932716
 30
0.0
 11
6.897158999999999
 21
1.958949
 31
0.0
  0
LINE
  5
61A
330
1F
100
AcDbEntity
  8
1
  6
CONTINUOUS
370
50
 62
4
100
AcDbLine
 10
11.172588
 20
1.038612
 30
0.0
 11
11.113911
 21
1.047304
 31
0.0
  0
LINE
  5
61B
330
1F
100
AcDbEntity
  8
1
  6
CONTINUOUS
370
50
 62
4
100
AcDbLine
 10
11.331978
 20
1.025247
 30
0.0
 11
11.18621
 21
1.046571
 31
0.0
  0
LINE
  5
61C
330
1F
100
AcDbEntity
  8
1
  6
CONTINUOUS
370
50
 62
4
100
AcDbLine
 10
11.18621
 20
1.046571
 30
0.0
 11
11.040441
 21
1.065663
 31
0.0
  0
LINE
  5
61D
330
1F
100
AcDbEntity
  8
1
  6
CONTINUOUS
370
50
 62
4
100
AcDbLine
 10
4.18691
 20
0.353573
 30
0.0
 11
4.173248
 21
0.355302
 31
0.0
  0
LINE
  5
61E
330
1F
100
AcDbEntity
  8
1
  6
CONTINUOUS
370
50
 62
4
100
AcDbLine
 10
6.434322
 20
1.939607
 30
0.0
 11
6.132
 21
1.977688
 31
0.0
  0
LINE
  5
61F
330
1F
100
AcDbEntity
  8
1
  6
CONTINUOUS
370
50
 62
4
100
AcDbLine
 10
11.370475
 20
-0.786677
 30
0.0
 11
11.268453
 21
-0.77433
 31
0.0
  0
LINE
  5
620
330
1F
100
AcDbEntity
  8
1
  6
CONTINUOUS
370
50
 62
4
100
AcDbLine
 10
11.468685
 20
-0.798553
 30
0.0
 11
11.370475
 21
-0.786677
 31
0.0
  0
LINE
  5
621
330
1F
100
AcDbEntity
  8
1
  6
CONTINUOUS
370
50
 62
4
100
AcDbLine
 10
11.566896
 20
-0.81038
 30
0.0
 11
11.468685
 21
-0.798553
 31
0.0
  0
LINE
  5
622
330
1F
100
AcDbEntity
  8
1
  6
CONTINUOUS
370
50
 62
4
100
AcDbLine
 10
11.665108
 20
-0.8221569999999999
 30
0.0
 11
11.566896
 21
-0.81038
 31
0.0
  0
LINE
  5
623
330
1F
100
AcDbEntity
  8
1
  6
CONTINUOUS
370
50
 62
4
100
AcDbLine
 10
11.763319
 20
-0.8338829999999999
 30
0.0
 11
11.665108
 21
-0.8221569999999999
 31
0.0
  0
LINE
  5
624
330
1F
100
AcDbEntity
  8
1
  6
CONTINUOUS
370
50
 62
4
100
AcDbLine
 10
11.86153
 20
-0.8455579999999999
 30
0.0
 11
11.763319
 21
-0.8338829999999999
 31
0.0
  0
LINE
  5
625
330
1F
100
AcDbEntity
  8
1
  6
CONTINUOUS
370
50
 62
4
100
AcDbLine
 10
11.040441
 20
1.065663
 30
0.0
 11
10.894671
 21
1.082471
 31
0.0
  0
LINE
  5
626
330
1F
100
AcDbEntity
  8
1
  6
CONTINUOUS
370
50
 62
4
100
AcDbLine
 10
6.897158999999999
 20
1.958949
 30
0.0
 11
6.719478
 21
1.978746
 31
0.0
  0
LINE
  5
627
330
1F
100
AcDbEntity
  8
1
  6
CONTINUOUS
370
50
 62
4
100
AcDbLine
 10
6.425675999999999
 20
1.623993
 30
0.0
 11
6.132
 21
1.654879
 31
0.0
  0
LINE
  5
628
330
1F
100
AcDbEntity
  8
1
  6
CONTINUOUS
370
50
 62
4
100
AcDbLine
 10
11.762537
 20
1.704329
 30
0.0
 11
11.706042
 21
1.71017
 31
0.0
  0
LINE
  5
629
330
1F
100
AcDbEntity
  8
1
  6
CONTINUOUS
370
50
 62
4
100
AcDbLine
 10
9.187256
 20
-1.990209
 30
0.0
 11
8.839023
 21
-1.954599
 31
0.0
  0
LINE
  5
62A
330
1F
100
AcDbEntity
  8
1
  6
CONTINUOUS
370
50
 62
4
100
AcDbLine
 10
11.870101
 20
0.9672799999999999
 30
0.0
 11
11.797705
 21
0.9742689999999999
 31
0.0
  0
LINE
  5
62B
330
1F
100
AcDbEntity
  8
1
  6
CONTINUOUS
370
50
 62
4
100
AcDbLine
 10
11.797705
 20
0.9742689999999999
 30
0.0
 11
11.725308
 21
0.981227
 31
0.0
  0
LINE
  5
62C
330
1F
100
AcDbEntity
  8
1
  6
CONTINUOUS
370
50
 62
4
100
AcDbLine
 10
11.725308
 20
0.981227
 30
0.0
 11
11.652913
 21
0.988155
 31
0.0
  0
LINE
  5
62D
330
1F
100
AcDbEntity
  8
1
  6
CONTINUOUS
370
50
 62
4
100
AcDbLine
 10
11.652913
 20
0.988155
 30
0.0
 11
11.580517
 21
0.995053
 31
0.0
  0
LINE
  5
62E
330
1F
100
AcDbEntity
  8
1
  6
CONTINUOUS
370
50
 62
4
100
AcDbLine
 10
11.580517
 20
0.995053
 30
0.0
 11
11.508121
 21
1.001922
 31
0.0
  0
LINE
  5
62F
330
1F
100
AcDbEntity
  8
1
  6
CONTINUOUS
370
50
 62
4
100
AcDbLine
 10
11.508121
 20
1.001922
 30
0.0
 11
11.435725
 21
1.008762
 31
0.0
  0
LINE
  5
630
330
1F
100
AcDbEntity
  8
1
  6
CONTINUOUS
370
50
 62
4
100
AcDbLine
 10
6.122
 20
-0.97912
 30
0.0
 11
6.049544999999999
 21
-0.973178
 31
0.0
  0
LINE
  5
631
330
1F
100
AcDbEntity
  8
1
  6
CONTINUOUS
370
50
 62
4
100
AcDbLine
 10
4.173248
 20
0.355302
 30
0.0
 11
4.159075
 21
0.356464
 31
0.0
  0
LINE
  5
632
330
1F
100
AcDbEntity
  8
1
  6
CONTINUOUS
370
50
 62
4
100
AcDbLine
 10
6.719478
 20
1.978746
 30
0.0
 11
6.541246
 21
1.992065
 31
0.0
  0
LINE
  5
633
330
1F
100
AcDbEntity
  8
1
  6
CONTINUOUS
370
50
 62
4
100
AcDbLine
 10
11.706042
 20
1.71017
 30
0.0
 11
11.639837
 21
1.714121
 31
0.0
  0
LINE
  5
634
330
1F
100
AcDbEntity
  8
1
  6
CONTINUOUS
370
50
 62
4
100
AcDbLine
 10
8.913573
 20
-2.000051
 30
0.0
 11
8.419186
 21
-1.975202
 31
0.0
  0
LINE
  5
635
330
1F
100
AcDbEntity
  8
1
  6
CONTINUOUS
370
50
 62
4
100
AcDbLine
 10
6.541246
 20
1.992065
 30
0.0
 11
6.363033
 21
1.998904
 31
0.0
  0
LINE
  5
636
330
1F
100
AcDbEntity
  8
1
  6
CONTINUOUS
370
50
 62
4
100
AcDbLine
 10
9.493572
 20
-1.999954
 30
0.0
 11
9.187256
 21
-1.990209
 31
0.0
  0
LINE
  5
637
330
1F
100
AcDbEntity
  8
1
  6
CONTINUOUS
370
50
 62
4
100
AcDbLine
 10
4.159075
 20
0.356464
 30
0.0
 11
4.144774
 21
0.356831
 31
0.0
  0
LINE
  5
638
330
1F
100
AcDbEntity
  8
1
  6
CONTINUOUS
370
50
 62
4
100
AcDbLine
 10
11.639837
 20
1.714121
 30
0.0
 11
11.567057
 21
1.715749
 31
0.0
  0
LINE
  5
639
330
1F
100
AcDbEntity
  8
1
  6
CONTINUOUS
370
50
 62
4
100
AcDbLine
 10
9.487822
 20
-1.999956
 30
0.0
 11
8.906616999999999
 21
-1.999946
 31
0.0
  0
LINE
  5
63A
330
1F
100
AcDbEntity
  8
1
  6
CONTINUOUS
370
50
 62
4
100
AcDbLine
 10
1.722051
 20
-1.99995
 30
0.0
 11
4.730771
 21
-1.99995
 31
0.0
  0
LINE
  5
63B
330
1F
100
AcDbEntity
  8
1
  6
CONTINUOUS
370
50
 62
4
100
AcDbLine
 10
1.722051
 20
1.99995
 30
0.0
 11
6.122
 21
1.99995
 31
0.0
  0
LINE
  5
63C
330
1F
100
AcDbEntity
  8
1
  6
CONTINUOUS
370
50
 62
4
100
AcDbLine
 10
6.122
 20
1.9999
 30
0.0
 11
6.264588
 21
1.999902
 31
0.0
  0
LINE
  5
63D
330
1F
100
AcDbEntity
  8
1
  6
CONTINUOUS
370
50
 62
4
100
AcDbLine
 10
12.08674
 20
1.673656
 30
0.0
 11
12.122
 21
1.673699
 31
0.0
  0
LINE
  5
63E
330
1F
100
AcDbEntity
  8
1
  6
CONTINUOUS
370
50
 62
4
100
AcDbLine
 10
6.122
 20
1.978524
 30
0.0
 11
6.123666999999999
 21
1.978528
 31
0.0
  0
LINE
  5
63F
330
1F
100
AcDbEntity
  8
1
  6
CONTINUOUS
370
50
 62
4
100
AcDbLine
 10
6.125332999999999
 20
1.978533
 30
0.0
 11
6.127
 21
1.978537
 31
0.0
  0
LINE
  5
640
330
1F
100
AcDbEntity
  8
1
  6
CONTINUOUS
370
50
 62
4
100
AcDbLine
 10
6.130332999999999
 20
1.978547
 30
0.0
 11
6.132
 21
1.978551
 31
0.0
  0
LINE
  5
641
330
1F
100
AcDbEntity
  8
1
  6
CONTINUOUS
370
50
 62
4
100
AcDbLine
 10
6.056622
 20
1.97839
 30
0.0
 11
6.122
 21
1.978573
 31
0.0
  0
LINE
  5
642
330
1F
100
AcDbEntity
  8
1
  6
CONTINUOUS
370
50
 62
4
100
AcDbLine
 10
5.991244
 20
1.978202
 30
0.0
 11
6.056622
 21
1.97839
 31
0.0
  0
LINE
  5
643
330
1F
100
AcDbEntity
  8
1
  6
CONTINUOUS
370
50
 62
4
100
AcDbLine
 10
5.925866
 20
1.978008
 30
0.0
 11
5.991244
 21
1.978202
 31
0.0
  0
LINE
  5
644
330
1F
100
AcDbEntity
  8
1
  6
CONTINUOUS
370
50
 62
4
100
AcDbLine
 10
6.127
 20
1.978537
 30
0.0
 11
6.128667
 21
1.978542
 31
0.0
  0
LINE
  5
645
330
1F
100
AcDbEntity
  8
1
  6
CONTINUOUS
370
50
 62
4
100
AcDbLine
 10
6.123666999999999
 20
1.978528
 30
0.0
 11
6.125332999999999
 21
1.978533
 31
0.0
  0
LINE
  5
646
330
1F
100
AcDbEntity
  8
1
  6
CONTINUOUS
370
50
 62
4
100
AcDbLine
 10
6.128667
 20
1.978542
 30
0.0
 11
6.130332999999999
 21
1.978547
 31
0.0
  0
LINE
  5
647
330
1F
100
AcDbEntity
  8
1
  6
CONTINUOUS
370
50
 62
4
100
AcDbLine
 10
5.860488
 20
1.977809
 30
0.0
 11
5.925866
 21
1.978008
 31
0.0
  0
LINE
  5
648
330
1F
100
AcDbEntity
  8
1
  6
CONTINUOUS
370
50
 62
4
100
AcDbLine
 10
5.795112
 20
1.977604
 30
0.0
 11
5.860488
 21
1.977809
 31
0.0
  0
LINE
  5
649
330
1F
100
AcDbEntity
  8
1
  6
CONTINUOUS
370
50
 62
4
100
AcDbLine
 10
5.729736
 20
1.977393
 30
0.0
 11
5.795112
 21
1.977604
 31
0.0
  0
LINE
  5
64A
330
1F
100
AcDbEntity
  8
1
  6
CONTINUOUS
370
50
 62
4
100
AcDbLine
 10
5.664362
 20
1.977177
 30
0.0
 11
5.729736
 21
1.977393
 31
0.0
  0
LINE
  5
64B
330
1F
100
AcDbEntity
  8
1
  6
CONTINUOUS
370
50
 62
4
100
AcDbLine
 10
5.624143
 20
1.976971
 30
0.0
 11
5.664362
 21
1.977177
 31
0.0
  0
LINE
  5
64C
330
1F
100
AcDbEntity
  8
1
  6
CONTINUOUS
370
50
 62
4
100
AcDbLine
 10
11.874587
 20
-1.557127
 30
0.0
 11
11.894754
 21
-1.556959
 31
0.0
  0
LINE
  5
64D
330
1F
100
AcDbEntity
  8
1
  6
CONTINUOUS
370
50
 62
4
100
AcDbLine
 10
5.583914
 20
1.976614
 30
0.0
 11
5.624143
 21
1.976971
 31
0.0
  0
LINE
  5
64E
330
1F
100
AcDbEntity
  8
1
  6
CONTINUOUS
370
50
 62
4
100
AcDbLine
 10
11.492559
 20
1.715016
 30
0.0
 11
11.567057
 21
1.715749
 31
0.0
  0
LINE
  5
64F
330
1F
100
AcDbEntity
  8
1
  6
CONTINUOUS
370
50
 62
4
100
AcDbLine
 10
12.051482
 20
1.673285
 30
0.0
 11
12.08674
 21
1.673656
 31
0.0
  0
LINE
  5
650
330
1F
100
AcDbEntity
  8
1
  6
CONTINUOUS
370
50
 62
4
100
AcDbLine
 10
5.543724999999999
 20
1.9761
 30
0.0
 11
5.583914
 21
1.976614
 31
0.0
  0
LINE
  5
651
330
1F
100
AcDbEntity
  8
1
  6
CONTINUOUS
370
50
 62
4
100
AcDbLine
 10
6.123428
 20
-1.241794
 30
0.0
 11
6.126285999999999
 21
-1.241752
 31
0.0
  0
LINE
  5
652
330
1F
100
AcDbEntity
  8
1
  6
CONTINUOUS
370
50
 62
4
100
AcDbLine
 10
6.127714
 20
-1.241731
 30
0.0
 11
6.129143
 21
-1.24171
 31
0.0
  0
LINE
  5
653
330
1F
100
AcDbEntity
  8
1
  6
CONTINUOUS
370
50
 62
4
100
AcDbLine
 10
6.130571
 20
-1.241689
 30
0.0
 11
6.132
 21
-1.241668
 31
0.0
  0
LINE
  5
654
330
1F
100
AcDbEntity
  8
1
  6
CONTINUOUS
370
50
 62
4
100
AcDbLine
 10
6.122
 20
-1.241815
 30
0.0
 11
6.123428
 21
-1.241794
 31
0.0
  0
LINE
  5
655
330
1F
100
AcDbEntity
  8
1
  6
CONTINUOUS
370
50
 62
4
100
AcDbLine
 10
6.126285999999999
 20
-1.241752
 30
0.0
 11
6.127714
 21
-1.241731
 31
0.0
  0
LINE
  5
656
330
1F
100
AcDbEntity
  8
1
  6
CONTINUOUS
370
50
 62
4
100
AcDbLine
 10
6.129143
 20
-1.24171
 30
0.0
 11
6.130571
 21
-1.241689
 31
0.0
  0
LINE
  5
657
330
1F
100
AcDbEntity
  8
1
  6
CONTINUOUS
370
50
 62
4
100
AcDbLine
 10
6.056622
 20
-1.242827
 30
0.0
 11
6.122
 21
-1.241847
 31
0.0
  0
LINE
  5
658
330
1F
100
AcDbEntity
  8
1
  6
CONTINUOUS
370
50
 62
4
100
AcDbLine
 10
5.991244
 20
-1.243832
 30
0.0
 11
6.056622
 21
-1.242827
 31
0.0
  0
LINE
  5
659
330
1F
100
AcDbEntity
  8
1
  6
CONTINUOUS
370
50
 62
4
100
AcDbLine
 10
5.925866
 20
-1.244861
 30
0.0
 11
5.991244
 21
-1.243832
 31
0.0
  0
LINE
  5
65A
330
1F
100
AcDbEntity
  8
1
  6
CONTINUOUS
370
50
 62
4
100
AcDbLine
 10
5.860488
 20
-1.245914
 30
0.0
 11
5.925866
 21
-1.244861
 31
0.0
  0
LINE
  5
65B
330
1F
100
AcDbEntity
  8
1
  6
CONTINUOUS
370
50
 62
4
100
AcDbLine
 10
5.795112
 20
-1.246992
 30
0.0
 11
5.860488
 21
-1.245914
 31
0.0
  0
LINE
  5
65C
330
1F
100
AcDbEntity
  8
1
  6
CONTINUOUS
370
50
 62
4
100
AcDbLine
 10
12.016223
 20
1.672696
 30
0.0
 11
12.051482
 21
1.673285
 31
0.0
  0
LINE
  5
65D
330
1F
100
AcDbEntity
  8
1
  6
CONTINUOUS
370
50
 62
4
100
AcDbLine
 10
5.729736
 20
-1.248093
 30
0.0
 11
5.795112
 21
-1.246992
 31
0.0
  0
LINE
  5
65E
330
1F
100
AcDbEntity
  8
1
  6
CONTINUOUS
370
50
 62
4
100
AcDbLine
 10
5.503626
 20
1.975419
 30
0.0
 11
5.543724999999999
 21
1.9761
 31
0.0
  0
LINE
  5
65F
330
1F
100
AcDbEntity
  8
1
  6
CONTINUOUS
370
50
 62
4
100
AcDbLine
 10
5.664362
 20
-1.249218
 30
0.0
 11
5.729736
 21
-1.248093
 31
0.0
  0
LINE
  5
660
330
1F
100
AcDbEntity
  8
1
  6
CONTINUOUS
370
50
 62
4
100
AcDbLine
 10
11.966366
 20
1.997145
 30
0.0
 11
12.122
 21
1.999989
 31
0.0
  0
LINE
  5
661
330
1F
100
AcDbEntity
  8
1
  6
CONTINUOUS
370
50
 62
4
100
AcDbLine
 10
9.493572
 20
-1.999954
 30
0.0
 11
9.686651
 21
-1.995835
 31
0.0
  0
LINE
  5
662
330
1F
100
AcDbEntity
  8
1
  6
CONTINUOUS
370
50
 62
4
100
AcDbLine
 10
5.463665
 20
1.974563
 30
0.0
 11
5.503626
 21
1.975419
 31
0.0
  0
LINE
  5
663
330
1F
100
AcDbEntity
  8
1
  6
CONTINUOUS
370
50
 62
4
100
AcDbLine
 10
6.122
 20
-0.978981
 30
0.0
 11
6.123666999999999
 21
-0.978943
 31
0.0
  0
LINE
  5
664
330
1F
100
AcDbEntity
  8
1
  6
CONTINUOUS
370
50
 62
4
100
AcDbLine
 10
11.980964
 20
1.671891
 30
0.0
 11
12.016223
 21
1.672696
 31
0.0
  0
LINE
  5
665
330
1F
100
AcDbEntity
  8
1
  6
CONTINUOUS
370
50
 62
4
100
AcDbLine
 10
5.42389
 20
1.973524
 30
0.0
 11
5.463665
 21
1.974563
 31
0.0
  0
LINE
  5
666
330
1F
100
AcDbEntity
  8
1
  6
CONTINUOUS
370
50
 62
4
100
AcDbLine
 10
5.622529999999999
 20
-1.250368
 30
0.0
 11
5.664362
 21
-1.249218
 31
0.0
  0
LINE
  5
667
330
1F
100
AcDbEntity
  8
1
  6
CONTINUOUS
370
50
 62
4
100
AcDbLine
 10
6.123666999999999
 20
-0.978943
 30
0.0
 11
6.125335
 21
-0.978895
 31
0.0
  0
LINE
  5
668
330
1F
100
AcDbEntity
  8
1
  6
CONTINUOUS
370
50
 62
4
100
AcDbLine
 10
11.945705
 20
1.670872
 30
0.0
 11
11.980964
 21
1.671891
 31
0.0
  0
LINE
  5
669
330
1F
100
AcDbEntity
  8
1
  6
CONTINUOUS
370
50
 62
4
100
AcDbLine
 10
5.38435
 20
1.972292
 30
0.0
 11
5.42389
 21
1.973524
 31
0.0
  0
LINE
  5
66A
330
1F
100
AcDbEntity
  8
1
  6
CONTINUOUS
370
50
 62
4
100
AcDbLine
 10
11.910446
 20
1.669597
 30
0.0
 11
11.945705
 21
1.670872
 31
0.0
  0
LINE
  5
66B
330
1F
100
AcDbEntity
  8
1
  6
CONTINUOUS
370
50
 62
4
100
AcDbLine
 10
5.345096
 20
1.970859
 30
0.0
 11
5.38435
 21
1.972292
 31
0.0
  0
LINE
  5
66C
330
1F
100
AcDbEntity
  8
1
  6
CONTINUOUS
370
50
 62
4
100
AcDbLine
 10
6.125335
 20
-0.978895
 30
0.0
 11
6.127002999999999
 21
-0.978834
 31
0.0
  0
LINE
  5
66D
330
1F
100
AcDbEntity
  8
1
  6
CONTINUOUS
370
50
 62
4
100
AcDbLine
 10
11.417185
 20
1.712175
 30
0.0
 11
11.492559
 21
1.715016
 31
0.0
  0
LINE
  5
66E
330
1F
100
AcDbEntity
  8
1
  6
CONTINUOUS
370
50
 62
4
100
AcDbLine
 10
4.731123
 20
-1.999931
 30
0.0
 11
4.732774
 21
-1.999862
 31
0.0
  0
LINE
  5
66F
330
1F
100
AcDbEntity
  8
1
  6
CONTINUOUS
370
50
 62
4
100
AcDbLine
 10
5.306108
 20
1.969213
 30
0.0
 11
5.345096
 21
1.970859
 31
0.0
  0
LINE
  5
670
330
1F
100
AcDbEntity
  8
1
  6
CONTINUOUS
370
50
 62
4
100
AcDbLine
 10
6.127002999999999
 20
-0.978834
 30
0.0
 11
6.12867
 21
-0.9787619999999999
 31
0.0
  0
LINE
  5
671
330
1F
100
AcDbEntity
  8
1
  6
CONTINUOUS
370
50
 62
4
100
AcDbLine
 10
4.130732
 20
0.356177
 30
0.0
 11
4.144774
 21
0.356831
 31
0.0
  0
LINE
  5
672
330
1F
100
AcDbEntity
  8
1
  6
CONTINUOUS
370
50
 62
4
100
AcDbLine
 10
5.580691
 20
-1.252362
 30
0.0
 11
5.622529999999999
 21
-1.250368
 31
0.0
  0
LINE
  5
673
330
1F
100
AcDbEntity
  8
1
  6
CONTINUOUS
370
50
 62
4
100
AcDbLine
 10
5.267266999999999
 20
1.967327
 30
0.0
 11
5.306108
 21
1.969213
 31
0.0
  0
LINE
  5
674
330
1F
100
AcDbEntity
  8
1
  6
CONTINUOUS
370
50
 62
4
100
AcDbLine
 10
11.810251
 20
1.989305
 30
0.0
 11
11.966366
 21
1.997145
 31
0.0
  0
LINE
  5
675
330
1F
100
AcDbEntity
  8
1
  6
CONTINUOUS
370
50
 62
4
100
AcDbLine
 10
6.12867
 20
-0.9787619999999999
 30
0.0
 11
6.130336
 21
-0.9786769999999999
 31
0.0
  0
LINE
  5
676
330
1F
100
AcDbEntity
  8
1
  6
CONTINUOUS
370
50
 62
4
100
AcDbLine
 10
5.228668
 20
1.965173
 30
0.0
 11
5.267266999999999
 21
1.967327
 31
0.0
  0
LINE
  5
677
330
1F
100
AcDbEntity
  8
1
  6
CONTINUOUS
370
50
 62
4
100
AcDbLine
 10
6.130336
 20
-0.9786769999999999
 30
0.0
 11
6.132
 21
-0.978579
 31
0.0
  0
LINE
  5
678
330
1F
100
AcDbEntity
  8
1
  6
CONTINUOUS
370
50
 62
4
100
AcDbLine
 10
9.686651
 20
-1.995835
 30
0.0
 11
9.880041
 21
-1.984037
 31
0.0
  0
LINE
  5
679
330
1F
100
AcDbEntity
  8
1
  6
CONTINUOUS
370
50
 62
4
100
AcDbLine
 10
11.341768
 20
1.707479
 30
0.0
 11
11.417185
 21
1.712175
 31
0.0
  0
LINE
  5
67A
330
1F
100
AcDbEntity
  8
1
  6
CONTINUOUS
370
50
 62
4
100
AcDbLine
 10
5.190414
 20
1.962722
 30
0.0
 11
5.228668
 21
1.965173
 31
0.0
  0
LINE
  5
67B
330
1F
100
AcDbEntity
  8
1
  6
CONTINUOUS
370
50
 62
4
100
AcDbLine
 10
5.538899
 20
-1.255201
 30
0.0
 11
5.580691
 21
-1.252362
 31
0.0
  0
LINE
  5
67C
330
1F
100
AcDbEntity
  8
1
  6
CONTINUOUS
370
50
 62
4
100
AcDbLine
 10
5.152612
 20
1.959947
 30
0.0
 11
5.190414
 21
1.962722
 31
0.0
  0
LINE
  5
67D
330
1F
100
AcDbEntity
  8
1
  6
CONTINUOUS
370
50
 62
4
100
AcDbLine
 10
11.654078
 20
1.976512
 30
0.0
 11
11.810251
 21
1.989305
 31
0.0
  0
LINE
  5
67E
330
1F
100
AcDbEntity
  8
1
  6
CONTINUOUS
370
50
 62
4
100
AcDbLine
 10
5.115368
 20
1.956819
 30
0.0
 11
5.152612
 21
1.959947
 31
0.0
  0
LINE
  5
67F
330
1F
100
AcDbEntity
  8
1
  6
CONTINUOUS
370
50
 62
4
100
AcDbLine
 10
11.267143
 20
1.701182
 30
0.0
 11
11.341768
 21
1.707479
 31
0.0
  0
LINE
  5
680
330
1F
100
AcDbEntity
  8
1
  6
CONTINUOUS
370
50
 62
4
100
AcDbLine
 10
5.49721
 20
-1.258884
 30
0.0
 11
5.538899
 21
-1.255201
 31
0.0
  0
LINE
  5
681
330
1F
100
AcDbEntity
  8
1
  6
CONTINUOUS
370
50
 62
4
100
AcDbLine
 10
5.078787999999999
 20
1.953311
 30
0.0
 11
5.115368
 21
1.956819
 31
0.0
  0
LINE
  5
682
330
1F
100
AcDbEntity
  8
1
  6
CONTINUOUS
370
50
 62
4
100
AcDbLine
 10
9.880041
 20
-1.984037
 30
0.0
 11
10.073053
 21
-1.96472
 31
0.0
  0
LINE
  5
683
330
1F
100
AcDbEntity
  8
1
  6
CONTINUOUS
370
50
 62
4
100
AcDbLine
 10
11.844343
 20
0.933326
 30
0.0
 11
11.84933
 21
0.9338259999999999
 31
0.0
  0
LINE
  5
684
330
1F
100
AcDbEntity
  8
1
  6
CONTINUOUS
370
50
 62
4
100
AcDbLine
 10
4.732774
 20
-1.999862
 30
0.0
 11
4.734362
 21
-1.999697
 31
0.0
  0
LINE
  5
685
330
1F
100
AcDbEntity
  8
1
  6
CONTINUOUS
370
50
 62
4
100
AcDbLine
 10
5.455678
 20
-1.263409
 30
0.0
 11
5.49721
 21
-1.258884
 31
0.0
  0
LINE
  5
686
330
1F
100
AcDbEntity
  8
1
  6
CONTINUOUS
370
50
 62
4
100
AcDbLine
 10
5.042978
 20
1.949394
 30
0.0
 11
5.078787999999999
 21
1.953311
 31
0.0
  0
LINE
  5
687
330
1F
100
AcDbEntity
  8
1
  6
CONTINUOUS
370
50
 62
4
100
AcDbLine
 10
11.498252
 20
1.95881
 30
0.0
 11
11.654078
 21
1.976512
 31
0.0
  0
LINE
  5
688
330
1F
100
AcDbEntity
  8
1
  6
CONTINUOUS
370
50
 62
4
100
AcDbLine
 10
5.007889
 20
1.945017
 30
0.0
 11
5.042978
 21
1.949394
 31
0.0
  0
LINE
  5
689
330
1F
100
AcDbEntity
  8
1
  6
CONTINUOUS
370
50
 62
4
100
AcDbLine
 10
4.18691
 20
0.353573
 30
0.0
 11
4.249377
 21
0.361608
 31
0.0
  0
LINE
  5
68A
330
1F
100
AcDbEntity
  8
1
  6
CONTINUOUS
370
50
 62
4
100
AcDbLine
 10
5.414359999999999
 20
-1.268777
 30
0.0
 11
5.455678
 21
-1.263409
 31
0.0
  0
LINE
  5
68B
330
1F
100
AcDbEntity
  8
1
  6
CONTINUOUS
370
50
 62
4
100
AcDbLine
 10
10.073053
 20
-1.96472
 30
0.0
 11
10.265515
 21
-1.937954
 31
0.0
  0
LINE
  5
68C
330
1F
100
AcDbEntity
  8
1
  6
CONTINUOUS
370
50
 62
4
100
AcDbLine
 10
4.117283
 20
0.354267
 30
0.0
 11
4.130732
 21
0.356177
 31
0.0
  0
LINE
  5
68D
330
1F
100
AcDbEntity
  8
1
  6
CONTINUOUS
370
50
 62
4
100
AcDbLine
 10
4.973479999999999
 20
1.940097
 30
0.0
 11
5.007889
 21
1.945017
 31
0.0
  0
LINE
  5
68E
330
1F
100
AcDbEntity
  8
1
  6
CONTINUOUS
370
50
 62
4
100
AcDbLine
 10
11.342563
 20
1.936137
 30
0.0
 11
11.498252
 21
1.95881
 31
0.0
  0
LINE
  5
68F
330
1F
100
AcDbEntity
  8
1
  6
CONTINUOUS
370
50
 62
4
100
AcDbLine
 10
5.373308
 20
-1.274986
 30
0.0
 11
5.414359999999999
 21
-1.268777
 31
0.0
  0
LINE
  5
690
330
1F
100
AcDbEntity
  8
1
  6
CONTINUOUS
370
50
 62
4
100
AcDbLine
 10
11.070589
 20
1.577529
 30
0.0
 11
11.299697
 21
1.614846
 31
0.0
  0
LINE
  5
691
330
1F
100
AcDbEntity
  8
1
  6
CONTINUOUS
370
50
 62
4
100
AcDbLine
 10
4.939983
 20
1.934576
 30
0.0
 11
4.973479999999999
 21
1.940097
 31
0.0
  0
LINE
  5
692
330
1F
100
AcDbEntity
  8
1
  6
CONTINUOUS
370
50
 62
4
100
AcDbLine
 10
4.734362
 20
-1.999697
 30
0.0
 11
4.735888
 21
-1.999434
 31
0.0
  0
LINE
  5
693
330
1F
100
AcDbEntity
  8
1
  6
CONTINUOUS
370
50
 62
4
100
AcDbLine
 10
5.332579
 20
-1.282036
 30
0.0
 11
5.373308
 21
-1.274986
 31
0.0
  0
LINE
  5
694
330
1F
100
AcDbEntity
  8
1
  6
CONTINUOUS
370
50
 62
4
100
AcDbLine
 10
11.18704
 20
1.908408
 30
0.0
 11
11.342563
 21
1.936137
 31
0.0
  0
LINE
  5
695
330
1F
100
AcDbEntity
  8
1
  6
CONTINUOUS
370
50
 62
4
100
AcDbLine
 10
10.265515
 20
-1.937954
 30
0.0
 11
10.457741
 21
-1.903625
 31
0.0
  0
LINE
  5
696
330
1F
100
AcDbEntity
  8
1
  6
CONTINUOUS
370
50
 62
4
100
AcDbLine
 10
4.907630999999999
 20
1.928393
 30
0.0
 11
4.939983
 21
1.934576
 31
0.0
  0
LINE
  5
697
330
1F
100
AcDbEntity
  8
1
  6
CONTINUOUS
370
50
 62
4
100
AcDbLine
 10
5.292078
 20
-1.289959
 30
0.0
 11
5.332579
 21
-1.282036
 31
0.0
  0
LINE
  5
698
330
1F
100
AcDbEntity
  8
1
  6
CONTINUOUS
370
50
 62
4
100
AcDbLine
 10
10.841482
 20
1.530395
 30
0.0
 11
11.070589
 21
1.577529
 31
0.0
  0
LINE
  5
699
330
1F
100
AcDbEntity
  8
1
  6
CONTINUOUS
370
50
 62
4
100
AcDbLine
 10
11.032028
 20
1.875571
 30
0.0
 11
11.18704
 21
1.908408
 31
0.0
  0
LINE
  5
69A
330
1F
100
AcDbEntity
  8
1
  6
CONTINUOUS
370
50
 62
4
100
AcDbLine
 10
4.249377
 20
0.361608
 30
0.0
 11
4.306906
 21
0.373813
 31
0.0
  0
LINE
  5
69B
330
1F
100
AcDbEntity
  8
1
  6
CONTINUOUS
370
50
 62
4
100
AcDbLine
 10
5.251764
 20
-1.298783
 30
0.0
 11
5.292078
 21
-1.289959
 31
0.0
  0
LINE
  5
69C
330
1F
100
AcDbEntity
  8
1
  6
CONTINUOUS
370
50
 62
4
100
AcDbLine
 10
10.457741
 20
-1.903625
 30
0.0
 11
10.648568
 21
-1.861824
 31
0.0
  0
LINE
  5
69D
330
1F
100
AcDbEntity
  8
1
  6
CONTINUOUS
370
50
 62
4
100
AcDbLine
 10
6.3003
 20
-1.352541
 30
0.0
 11
6.333963
 21
-1.345051
 31
0.0
  0
LINE
  5
69E
330
1F
100
AcDbEntity
  8
1
  6
CONTINUOUS
370
50
 62
4
100
AcDbLine
 10
4.876657
 20
1.921491
 30
0.0
 11
4.907630999999999
 21
1.928393
 31
0.0
  0
LINE
  5
69F
330
1F
100
AcDbEntity
  8
1
  6
CONTINUOUS
370
50
 62
4
100
AcDbLine
 10
6.266636
 20
-1.360074
 30
0.0
 11
6.3003
 21
-1.352541
 31
0.0
  0
LINE
  5
6A0
330
1F
100
AcDbEntity
  8
1
  6
CONTINUOUS
370
50
 62
4
100
AcDbLine
 10
6.232972999999999
 20
-1.367651
 30
0.0
 11
6.266636
 21
-1.360074
 31
0.0
  0
LINE
  5
6A1
330
1F
100
AcDbEntity
  8
1
  6
CONTINUOUS
370
50
 62
4
100
AcDbLine
 10
6.19931
 20
-1.37527
 30
0.0
 11
6.232972999999999
 21
-1.367651
 31
0.0
  0
LINE
  5
6A2
330
1F
100
AcDbEntity
  8
1
  6
CONTINUOUS
370
50
 62
4
100
AcDbLine
 10
6.165647
 20
-1.382934
 30
0.0
 11
6.19931
 21
-1.37527
 31
0.0
  0
LINE
  5
6A3
330
1F
100
AcDbEntity
  8
1
  6
CONTINUOUS
370
50
 62
4
100
AcDbLine
 10
6.131984
 20
-1.390643
 30
0.0
 11
6.165647
 21
-1.382934
 31
0.0
  0
LINE
  5
6A4
330
1F
100
AcDbEntity
  8
1
  6
CONTINUOUS
370
50
 62
4
100
AcDbLine
 10
10.648568
 20
-1.861828
 30
0.0
 11
10.703447
 21
-1.848615
 31
0.0
  0
LINE
  5
6A5
330
1F
100
AcDbEntity
  8
1
  6
CONTINUOUS
370
50
 62
4
100
AcDbLine
 10
11.825501
 20
-1.573661
 30
0.0
 11
11.894754
 21
-1.556954
 31
0.0
  0
LINE
  5
6A6
330
1F
100
AcDbEntity
  8
1
  6
CONTINUOUS
370
50
 62
4
100
AcDbLine
 10
11.756251
 20
-1.590388
 30
0.0
 11
11.825501
 21
-1.573661
 31
0.0
  0
LINE
  5
6A7
330
1F
100
AcDbEntity
  8
1
  6
CONTINUOUS
370
50
 62
4
100
AcDbLine
 10
11.687004
 20
-1.607139
 30
0.0
 11
11.756251
 21
-1.590388
 31
0.0
  0
LINE
  5
6A8
330
1F
100
AcDbEntity
  8
1
  6
CONTINUOUS
370
50
 62
4
100
AcDbLine
 10
10.612376
 20
1.474919
 30
0.0
 11
10.841482
 21
1.530395
 31
0.0
  0
LINE
  5
6A9
330
1F
100
AcDbEntity
  8
1
  6
CONTINUOUS
370
50
 62
4
100
AcDbLine
 10
11.617758
 20
-1.623918
 30
0.0
 11
11.687004
 21
-1.607139
 31
0.0
  0
LINE
  5
6AA
330
1F
100
AcDbEntity
  8
1
  6
CONTINUOUS
370
50
 62
4
100
AcDbLine
 10
11.582919
 20
-1.632373
 30
0.0
 11
11.617758
 21
-1.623918
 31
0.0
  0
LINE
  5
6AB
330
1F
100
AcDbEntity
  8
1
  6
CONTINUOUS
370
50
 62
4
100
AcDbLine
 10
10.703447
 20
-1.848615
 30
0.0
 11
10.754345
 21
-1.83625
 31
0.0
  0
LINE
  5
6AC
330
1F
100
AcDbEntity
  8
1
  6
CONTINUOUS
370
50
 62
4
100
AcDbLine
 10
11.530107
 20
-1.645205
 30
0.0
 11
11.582919
 21
-1.632373
 31
0.0
  0
LINE
  5
6AD
330
1F
100
AcDbEntity
  8
1
  6
CONTINUOUS
370
50
 62
4
100
AcDbLine
 10
5.211755999999999
 20
-1.308506
 30
0.0
 11
5.251764
 21
-1.298783
 31
0.0
  0
LINE
  5
6AE
330
1F
100
AcDbEntity
  8
1
  6
CONTINUOUS
370
50
 62
4
100
AcDbLine
 10
11.477295
 20
-1.658059
 30
0.0
 11
11.530107
 21
-1.645205
 31
0.0
  0
LINE
  5
6AF
330
1F
100
AcDbEntity
  8
1
  6
CONTINUOUS
370
50
 62
4
100
AcDbLine
 10
11.424483
 20
-1.670936
 30
0.0
 11
11.477295
 21
-1.658059
 31
0.0
  0
LINE
  5
6B0
330
1F
100
AcDbEntity
  8
1
  6
CONTINUOUS
370
50
 62
4
100
AcDbLine
 10
11.371673
 20
-1.683837
 30
0.0
 11
11.424483
 21
-1.670936
 31
0.0
  0
LINE
  5
6B1
330
1F
100
AcDbEntity
  8
1
  6
CONTINUOUS
370
50
 62
4
100
AcDbLine
 10
11.318906
 20
-1.696754
 30
0.0
 11
11.371673
 21
-1.683837
 31
0.0
  0
LINE
  5
6B2
330
1F
100
AcDbEntity
  8
1
  6
CONTINUOUS
370
50
 62
4
100
AcDbLine
 10
10.754345
 20
-1.83625
 30
0.0
 11
10.805242
 21
-1.823777
 31
0.0
  0
LINE
  5
6B3
330
1F
100
AcDbEntity
  8
1
  6
CONTINUOUS
370
50
 62
4
100
AcDbLine
 10
11.266139
 20
-1.709696
 30
0.0
 11
11.318906
 21
-1.696754
 31
0.0
  0
LINE
  5
6B4
330
1F
100
AcDbEntity
  8
1
  6
CONTINUOUS
370
50
 62
4
100
AcDbLine
 10
11.213372
 20
-1.722666
 30
0.0
 11
11.266139
 21
-1.709696
 31
0.0
  0
LINE
  5
6B5
330
1F
100
AcDbEntity
  8
1
  6
CONTINUOUS
370
50
 62
4
100
AcDbLine
 10
11.160605
 20
-1.735664
 30
0.0
 11
11.213372
 21
-1.722666
 31
0.0
  0
LINE
  5
6B6
330
1F
100
AcDbEntity
  8
1
  6
CONTINUOUS
370
50
 62
4
100
AcDbLine
 10
10.875239
 20
1.836944
 30
0.0
 11
11.032028
 21
1.875571
 31
0.0
  0
LINE
  5
6B7
330
1F
100
AcDbEntity
  8
1
  6
CONTINUOUS
370
50
 62
4
100
AcDbLine
 10
11.11045
 20
-1.748045
 30
0.0
 11
11.160605
 21
-1.735664
 31
0.0
  0
LINE
  5
6B8
330
1F
100
AcDbEntity
  8
1
  6
CONTINUOUS
370
50
 62
4
100
AcDbLine
 10
10.805242
 20
-1.823777
 30
0.0
 11
10.856097
 21
-1.811205
 31
0.0
  0
LINE
  5
6B9
330
1F
100
AcDbEntity
  8
1
  6
CONTINUOUS
370
50
 62
4
100
AcDbLine
 10
11.059551
 20
-1.760635
 30
0.0
 11
11.11045
 21
-1.748045
 31
0.0
  0
LINE
  5
6BA
330
1F
100
AcDbEntity
  8
1
  6
CONTINUOUS
370
50
 62
4
100
AcDbLine
 10
11.008653
 20
-1.773253
 30
0.0
 11
11.059551
 21
-1.760635
 31
0.0
  0
LINE
  5
6BB
330
1F
100
AcDbEntity
  8
1
  6
CONTINUOUS
370
50
 62
4
100
AcDbLine
 10
4.735888
 20
-1.999434
 30
0.0
 11
4.73735
 21
-1.999071
 31
0.0
  0
LINE
  5
6BC
330
1F
100
AcDbEntity
  8
1
  6
CONTINUOUS
370
50
 62
4
100
AcDbLine
 10
10.957803
 20
-1.785883
 30
0.0
 11
11.008653
 21
-1.773253
 31
0.0
  0
LINE
  5
6BD
330
1F
100
AcDbEntity
  8
1
  6
CONTINUOUS
370
50
 62
4
100
AcDbLine
 10
10.906953
 20
-1.79854
 30
0.0
 11
10.957803
 21
-1.785883
 31
0.0
  0
LINE
  5
6BE
330
1F
100
AcDbEntity
  8
1
  6
CONTINUOUS
370
50
 62
4
100
AcDbLine
 10
10.856097
 20
-1.811205
 30
0.0
 11
10.906953
 21
-1.79854
 31
0.0
  0
LINE
  5
6BF
330
1F
100
AcDbEntity
  8
1
  6
CONTINUOUS
370
50
 62
4
100
AcDbLine
 10
4.847293
 20
1.913809
 30
0.0
 11
4.876657
 21
1.921491
 31
0.0
  0
LINE
  5
6C0
330
1F
100
AcDbEntity
  8
1
  6
CONTINUOUS
370
50
 62
4
100
AcDbLine
 10
5.172173
 20
-1.319125
 30
0.0
 11
5.211755999999999
 21
-1.308506
 31
0.0
  0
LINE
  5
6C1
330
1F
100
AcDbEntity
  8
1
  6
CONTINUOUS
370
50
 62
4
100
AcDbLine
 10
10.383272
 20
1.412095
 30
0.0
 11
10.612376
 21
1.474919
 31
0.0
  0
LINE
  5
6C2
330
1F
100
AcDbEntity
  8
1
  6
CONTINUOUS
370
50
 62
4
100
AcDbLine
 10
4.104217
 20
0.35063
 30
0.0
 11
4.117283
 21
0.354267
 31
0.0
  0
LINE
  5
6C3
330
1F
100
AcDbEntity
  8
1
  6
CONTINUOUS
370
50
 62
4
100
AcDbLine
 10
10.684752
 20
1.783649
 30
0.0
 11
10.875239
 21
1.836944
 31
0.0
  0
LINE
  5
6C4
330
1F
100
AcDbEntity
  8
1
  6
CONTINUOUS
370
50
 62
4
100
AcDbLine
 10
5.133133
 20
-1.330638
 30
0.0
 11
5.172173
 21
-1.319125
 31
0.0
  0
LINE
  5
6C5
330
1F
100
AcDbEntity
  8
1
  6
CONTINUOUS
370
50
 62
4
100
AcDbLine
 10
10.154167
 20
1.342132
 30
0.0
 11
10.383272
 21
1.412095
 31
0.0
  0
LINE
  5
6C6
330
1F
100
AcDbEntity
  8
1
  6
CONTINUOUS
370
50
 62
4
100
AcDbLine
 10
4.819767
 20
1.905283
 30
0.0
 11
4.847293
 21
1.913809
 31
0.0
  0
LINE
  5
6C7
330
1F
100
AcDbEntity
  8
1
  6
CONTINUOUS
370
50
 62
4
100
AcDbLine
 10
4.306906
 20
0.373813
 30
0.0
 11
4.359756
 21
0.390185
 31
0.0
  0
LINE
  5
6C8
330
1F
100
AcDbEntity
  8
1
  6
CONTINUOUS
370
50
 62
4
100
AcDbLine
 10
10.453262
 20
1.710322
 30
0.0
 11
10.684752
 21
1.783649
 31
0.0
  0
LINE
  5
6C9
330
1F
100
AcDbEntity
  8
1
  6
CONTINUOUS
370
50
 62
4
100
AcDbLine
 10
5.094757
 20
-1.343042
 30
0.0
 11
5.133133
 21
-1.330638
 31
0.0
  0
LINE
  5
6CA
330
1F
100
AcDbEntity
  8
1
  6
CONTINUOUS
370
50
 62
4
100
AcDbLine
 10
4.73735
 20
-1.999071
 30
0.0
 11
4.738751
 21
-1.998604
 31
0.0
  0
LINE
  5
6CB
330
1F
100
AcDbEntity
  8
1
  6
CONTINUOUS
370
50
 62
4
100
AcDbLine
 10
9.925061999999999
 20
1.265234
 30
0.0
 11
10.154167
 21
1.342132
 31
0.0
  0
LINE
  5
6CC
330
1F
100
AcDbEntity
  8
1
  6
CONTINUOUS
370
50
 62
4
100
AcDbLine
 10
5.057163
 20
-1.356336
 30
0.0
 11
5.094757
 21
-1.343042
 31
0.0
  0
LINE
  5
6CD
330
1F
100
AcDbEntity
  8
1
  6
CONTINUOUS
370
50
 62
4
100
AcDbLine
 10
10.183586
 20
1.613745
 30
0.0
 11
10.453262
 21
1.710322
 31
0.0
  0
LINE
  5
6CE
330
1F
100
AcDbEntity
  8
1
  6
CONTINUOUS
370
50
 62
4
100
AcDbLine
 10
4.794306
 20
1.89582
 30
0.0
 11
4.819767
 21
1.905283
 31
0.0
  0
LINE
  5
6CF
330
1F
100
AcDbEntity
  8
1
  6
CONTINUOUS
370
50
 62
4
100
AcDbLine
 10
5.020411999999999
 20
-1.37054
 30
0.0
 11
5.057163
 21
-1.356336
 31
0.0
  0
LINE
  5
6D0
330
1F
100
AcDbEntity
  8
1
  6
CONTINUOUS
370
50
 62
4
100
AcDbLine
 10
11.308325
 20
1.028849
 30
0.0
 11
11.326918
 21
1.036324
 31
0.0
  0
LINE
  5
6D1
330
1F
100
AcDbEntity
  8
1
  6
CONTINUOUS
370
50
 62
4
100
AcDbLine
 10
9.878537999999999
 20
1.4907
 30
0.0
 11
10.183586
 21
1.613745
 31
0.0
  0
LINE
  5
6D2
330
1F
100
AcDbEntity
  8
1
  6
CONTINUOUS
370
50
 62
4
100
AcDbLine
 10
6.125285
 20
-1.384804
 30
0.0
 11
6.126964
 21
-1.384116
 31
0.0
  0
LINE
  5
6D3
330
1F
100
AcDbEntity
  8
1
  6
CONTINUOUS
370
50
 62
4
100
AcDbLine
 10
6.128642
 20
-1.383428
 30
0.0
 11
6.132
 21
-1.382052
 31
0.0
  0
LINE
  5
6D4
330
1F
100
AcDbEntity
  8
1
  6
CONTINUOUS
370
50
 62
4
100
AcDbLine
 10
6.121928
 20
-1.386181
 30
0.0
 11
6.123606
 21
-1.385493
 31
0.0
  0
LINE
  5
6D5
330
1F
100
AcDbEntity
  8
1
  6
CONTINUOUS
370
50
 62
4
100
AcDbLine
 10
6.126964
 20
-1.384116
 30
0.0
 11
6.128642
 21
-1.383428
 31
0.0
  0
LINE
  5
6D6
330
1F
100
AcDbEntity
  8
1
  6
CONTINUOUS
370
50
 62
4
100
AcDbLine
 10
6.123606
 20
-1.385493
 30
0.0
 11
6.125285
 21
-1.384804
 31
0.0
  0
LINE
  5
6D7
330
1F
100
AcDbEntity
  8
1
  6
CONTINUOUS
370
50
 62
4
100
AcDbLine
 10
5.802983999999999
 20
-1.519334
 30
0.0
 11
6.122
 21
-1.386151
 31
0.0
  0
LINE
  5
6D8
330
1F
100
AcDbEntity
  8
1
  6
CONTINUOUS
370
50
 62
4
100
AcDbLine
 10
4.98436
 20
-1.385779
 30
0.0
 11
5.020411999999999
 21
-1.37054
 31
0.0
  0
LINE
  5
6D9
330
1F
100
AcDbEntity
  8
1
  6
CONTINUOUS
370
50
 62
4
100
AcDbLine
 10
4.359756
 20
0.390185
 30
0.0
 11
4.408185
 21
0.410723
 31
0.0
  0
LINE
  5
6DA
330
1F
100
AcDbEntity
  8
1
  6
CONTINUOUS
370
50
 62
4
100
AcDbLine
 10
4.738751
 20
-1.998604
 30
0.0
 11
4.740089999999999
 21
-1.998032
 31
0.0
  0
LINE
  5
6DB
330
1F
100
AcDbEntity
  8
1
  6
CONTINUOUS
370
50
 62
4
100
AcDbLine
 10
5.486336
 20
-1.656235
 30
0.0
 11
5.802983999999999
 21
-1.519334
 31
0.0
  0
LINE
  5
6DC
330
1F
100
AcDbEntity
  8
1
  6
CONTINUOUS
370
50
 62
4
100
AcDbLine
 10
11.84933
 20
0.9338259999999999
 30
0.0
 11
11.853878
 21
0.935839
 31
0.0
  0
LINE
  5
6DD
330
1F
100
AcDbEntity
  8
1
  6
CONTINUOUS
370
50
 62
4
100
AcDbLine
 10
5.109425
 20
-1.826325
 30
0.0
 11
5.486336
 21
-1.656235
 31
0.0
  0
LINE
  5
6DE
330
1F
100
AcDbEntity
  8
1
  6
CONTINUOUS
370
50
 62
4
100
AcDbLine
 10
9.557032999999999
 20
1.34507
 30
0.0
 11
9.878537999999999
 21
1.4907
 31
0.0
  0
LINE
  5
6DF
330
1F
100
AcDbEntity
  8
1
  6
CONTINUOUS
370
50
 62
4
100
AcDbLine
 10
11.894754
 20
-1.556959
 30
0.0
 11
11.918736
 21
-1.546093
 31
0.0
  0
LINE
  5
6E0
330
1F
100
AcDbEntity
  8
1
  6
CONTINUOUS
370
50
 62
4
100
AcDbLine
 10
4.771209
 20
1.88534
 30
0.0
 11
4.794306
 21
1.89582
 31
0.0
  0
LINE
  5
6E1
330
1F
100
AcDbEntity
  8
1
  6
CONTINUOUS
370
50
 62
4
100
AcDbLine
 10
4.86016
 20
-1.941189
 30
0.0
 11
5.109425
 21
-1.826325
 31
0.0
  0
LINE
  5
6E2
330
1F
100
AcDbEntity
  8
1
  6
CONTINUOUS
370
50
 62
4
100
AcDbLine
 10
4.949212999999999
 20
-1.402046
 30
0.0
 11
4.98436
 21
-1.385779
 31
0.0
  0
LINE
  5
6E3
330
1F
100
AcDbEntity
  8
1
  6
CONTINUOUS
370
50
 62
4
100
AcDbLine
 10
4.800074
 20
-1.969551
 30
0.0
 11
4.86016
 21
-1.941189
 31
0.0
  0
LINE
  5
6E4
330
1F
100
AcDbEntity
  8
1
  6
CONTINUOUS
370
50
 62
4
100
AcDbLine
 10
4.740082
 20
-1.99805
 30
0.0
 11
4.800074
 21
-1.969551
 31
0.0
  0
LINE
  5
6E5
330
1F
100
AcDbEntity
  8
1
  6
CONTINUOUS
370
50
 62
4
100
AcDbLine
 10
4.092232
 20
0.344697
 30
0.0
 11
4.104217
 21
0.35063
 31
0.0
  0
LINE
  5
6E6
330
1F
100
AcDbEntity
  8
1
  6
CONTINUOUS
370
50
 62
4
100
AcDbLine
 10
4.913787999999999
 20
-1.420086
 30
0.0
 11
4.949212999999999
 21
-1.402046
 31
0.0
  0
LINE
  5
6E7
330
1F
100
AcDbEntity
  8
1
  6
CONTINUOUS
370
50
 62
4
100
AcDbLine
 10
4.408185
 20
0.410723
 30
0.0
 11
4.452542
 21
0.435485
 31
0.0
  0
LINE
  5
6E8
330
1F
100
AcDbEntity
  8
1
  6
CONTINUOUS
370
50
 62
4
100
AcDbLine
 10
4.879932999999999
 20
-1.439187
 30
0.0
 11
4.913787999999999
 21
-1.420086
 31
0.0
  0
LINE
  5
6E9
330
1F
100
AcDbEntity
  8
1
  6
CONTINUOUS
370
50
 62
4
100
AcDbLine
 10
4.750785
 20
1.873767
 30
0.0
 11
4.771209
 21
1.88534
 31
0.0
  0
LINE
  5
6EA
330
1F
100
AcDbEntity
  8
1
  6
CONTINUOUS
370
50
 62
4
100
AcDbLine
 10
-0.01
 20
-2.99995
 30
0.0
 11
1.722051
 21
-1.99995
 31
0.0
  0
LINE
  5
6EB
330
1F
100
AcDbEntity
  8
1
  6
CONTINUOUS
370
50
 62
4
100
AcDbLine
 10
4.847947
 20
-1.459317
 30
0.0
 11
4.879932999999999
 21
-1.439187
 31
0.0
  0
LINE
  5
6EC
330
1F
100
AcDbEntity
  8
1
  6
CONTINUOUS
370
50
 62
4
100
AcDbLine
 10
11.326918
 20
1.036324
 30
0.0
 11
11.343234
 21
1.047223
 31
0.0
  0
LINE
  5
6ED
330
1F
100
AcDbEntity
  8
1
  6
CONTINUOUS
370
50
 62
4
100
AcDbLine
 10
4.818117
 20
-1.480452
 30
0.0
 11
4.847947
 21
-1.459317
 31
0.0
  0
LINE
  5
6EE
330
1F
100
AcDbEntity
  8
1
  6
CONTINUOUS
370
50
 62
4
100
AcDbLine
 10
4.452542
 20
0.435485
 30
0.0
 11
4.493163
 21
0.464576
 31
0.0
  0
LINE
  5
6EF
330
1F
100
AcDbEntity
  8
1
  6
CONTINUOUS
370
50
 62
4
100
AcDbLine
 10
4.733347999999999
 20
1.861028
 30
0.0
 11
4.750785
 21
1.873767
 31
0.0
  0
LINE
  5
6F0
330
1F
100
AcDbEntity
  8
1
  6
CONTINUOUS
370
50
 62
4
100
AcDbLine
 10
4.740089999999999
 20
-1.998032
 30
0.0
 11
4.746119
 21
-1.993218
 31
0.0
  0
LINE
  5
6F1
330
1F
100
AcDbEntity
  8
1
  6
CONTINUOUS
370
50
 62
4
100
AcDbLine
 10
11.918736
 20
-1.546093
 30
0.0
 11
11.945446
 21
-1.524552
 31
0.0
  0
LINE
  5
6F2
330
1F
100
AcDbEntity
  8
1
  6
CONTINUOUS
370
50
 62
4
100
AcDbLine
 10
4.790741
 20
-1.50257
 30
0.0
 11
4.818117
 21
-1.480452
 31
0.0
  0
LINE
  5
6F3
330
1F
100
AcDbEntity
  8
1
  6
CONTINUOUS
370
50
 62
4
100
AcDbLine
 10
11.853878
 20
0.935839
 30
0.0
 11
11.857988
 21
0.939336
 31
0.0
  0
LINE
  5
6F4
330
1F
100
AcDbEntity
  8
1
  6
CONTINUOUS
370
50
 62
4
100
AcDbLine
 10
4.082365999999999
 20
0.33593
 30
0.0
 11
4.092232
 21
0.344697
 31
0.0
  0
LINE
  5
6F5
330
1F
100
AcDbEntity
  8
1
  6
CONTINUOUS
370
50
 62
4
100
AcDbLine
 10
4.493163
 20
0.464576
 30
0.0
 11
4.530216999999999
 21
0.498025
 31
0.0
  0
LINE
  5
6F6
330
1F
100
AcDbEntity
  8
1
  6
CONTINUOUS
370
50
 62
4
100
AcDbLine
 10
11.268453
 20
-0.7743249999999999
 30
0.0
 11
11.456163
 21
-0.604036
 31
0.0
  0
LINE
  5
6F7
330
1F
100
AcDbEntity
  8
1
  6
CONTINUOUS
370
50
 62
4
100
AcDbLine
 10
4.766204
 20
-1.525591
 30
0.0
 11
4.790741
 21
-1.50257
 31
0.0
  0
LINE
  5
6F8
330
1F
100
AcDbEntity
  8
1
  6
CONTINUOUS
370
50
 62
4
100
AcDbLine
 10
4.71937
 20
1.847232
 30
0.0
 11
4.733347999999999
 21
1.861028
 31
0.0
  0
LINE
  5
6F9
330
1F
100
AcDbEntity
  8
1
  6
CONTINUOUS
370
50
 62
4
100
AcDbLine
 10
11.343234
 20
1.047223
 30
0.0
 11
11.357233
 21
1.061352
 31
0.0
  0
LINE
  5
6FA
330
1F
100
AcDbEntity
  8
1
  6
CONTINUOUS
370
50
 62
4
100
AcDbLine
 10
11.945446
 20
-1.524552
 30
0.0
 11
11.974712
 21
-1.492608
 31
0.0
  0
LINE
  5
6FB
330
1F
100
AcDbEntity
  8
1
  6
CONTINUOUS
370
50
 62
4
100
AcDbLine
 10
4.744899999999999
 20
-1.549425
 30
0.0
 11
4.766204
 21
-1.525591
 31
0.0
  0
LINE
  5
6FC
330
1F
100
AcDbEntity
  8
1
  6
CONTINUOUS
370
50
 62
4
100
AcDbLine
 10
4.530216999999999
 20
0.498025
 30
0.0
 11
4.563688
 21
0.535624
 31
0.0
  0
LINE
  5
6FD
330
1F
100
AcDbEntity
  8
1
  6
CONTINUOUS
370
50
 62
4
100
AcDbLine
 10
11.974712
 20
-1.492608
 30
0.0
 11
12.006227
 21
-1.450729
 31
0.0
  0
LINE
  5
6FE
330
1F
100
AcDbEntity
  8
1
  6
CONTINUOUS
370
50
 62
4
100
AcDbLine
 10
11.857988
 20
0.939336
 30
0.0
 11
11.861664
 21
0.944286
 31
0.0
  0
LINE
  5
6FF
330
1F
100
AcDbEntity
  8
1
  6
CONTINUOUS
370
50
 62
4
100
AcDbLine
 10
4.563688
 20
0.535624
 30
0.0
 11
4.592989
 21
0.5760529999999999
 31
0.0
  0
LINE
  5
700
330
1F
100
AcDbEntity
  8
1
  6
CONTINUOUS
370
50
 62
4
100
AcDbLine
 10
4.727274
 20
-1.573901
 30
0.0
 11
4.744899999999999
 21
-1.549425
 31
0.0
  0
LINE
  5
701
330
1F
100
AcDbEntity
  8
1
  6
CONTINUOUS
370
50
 62
4
100
AcDbLine
 10
4.709073
 20
1.83243
 30
0.0
 11
4.71937
 21
1.847232
 31
0.0
  0
LINE
  5
702
330
1F
100
AcDbEntity
  8
1
  6
CONTINUOUS
370
50
 62
4
100
AcDbLine
 10
11.357233
 20
1.061352
 30
0.0
 11
11.368958
 21
1.078543
 31
0.0
  0
LINE
  5
703
330
1F
100
AcDbEntity
  8
1
  6
CONTINUOUS
370
50
 62
4
100
AcDbLine
 10
12.006227
 20
-1.450729
 30
0.0
 11
12.039699
 21
-1.399466
 31
0.0
  0
LINE
  5
704
330
1F
100
AcDbEntity
  8
1
  6
CONTINUOUS
370
50
 62
4
100
AcDbLine
 10
11.268453
 20
-0.7743249999999999
 30
0.0
 11
11.291763
 21
-0.73846
 31
0.0
  0
LINE
  5
705
330
1F
100
AcDbEntity
  8
1
  6
CONTINUOUS
370
50
 62
4
100
AcDbLine
 10
11.291763
 20
-0.73846
 30
0.0
 11
11.312924
 21
-0.703846
 31
0.0
  0
LINE
  5
706
330
1F
100
AcDbEntity
  8
1
  6
CONTINUOUS
370
50
 62
4
100
AcDbLine
 10
4.592989
 20
0.5760529999999999
 30
0.0
 11
4.61842
 21
0.618594
 31
0.0
  0
LINE
  5
707
330
1F
100
AcDbEntity
  8
1
  6
CONTINUOUS
370
50
 62
4
100
AcDbLine
 10
12.039699
 20
-1.399466
 30
0.0
 11
12.074907
 21
-1.339312
 31
0.0
  0
LINE
  5
708
330
1F
100
AcDbEntity
  8
1
  6
CONTINUOUS
370
50
 62
4
100
AcDbLine
 10
11.312924
 20
-0.703846
 30
0.0
 11
11.331807
 21
-0.670698
 31
0.0
  0
LINE
  5
709
330
1F
100
AcDbEntity
  8
1
  6
CONTINUOUS
370
50
 62
4
100
AcDbLine
 10
4.075953
 20
0.324585
 30
0.0
 11
4.082365999999999
 21
0.33593
 31
0.0
  0
LINE
  5
70A
330
1F
100
AcDbEntity
  8
1
  6
CONTINUOUS
370
50
 62
4
100
AcDbLine
 10
4.713874
 20
-1.598514
 30
0.0
 11
4.727274
 21
-1.573901
 31
0.0
  0
LINE
  5
70B
330
1F
100
AcDbEntity
  8
1
  6
CONTINUOUS
370
50
 62
4
100
AcDbLine
 10
4.746119
 20
-1.993218
 30
0.0
 11
4.750512
 21
-1.985112
 31
0.0
  0
LINE
  5
70C
330
1F
100
AcDbEntity
  8
1
  6
CONTINUOUS
370
50
 62
4
100
AcDbLine
 10
11.331807
 20
-0.670698
 30
0.0
 11
11.348147
 21
-0.639531
 31
0.0
  0
LINE
  5
70D
330
1F
100
AcDbEntity
  8
1
  6
CONTINUOUS
370
50
 62
4
100
AcDbLine
 10
11.861664
 20
0.944286
 30
0.0
 11
11.864906
 21
0.9506589999999999
 31
0.0
  0
LINE
  5
70E
330
1F
100
AcDbEntity
  8
1
  6
CONTINUOUS
370
50
 62
4
100
AcDbLine
 10
4.61842
 20
0.618594
 30
0.0
 11
4.640389
 21
0.6626489999999999
 31
0.0
  0
LINE
  5
70F
330
1F
100
AcDbEntity
  8
1
  6
CONTINUOUS
370
50
 62
4
100
AcDbLine
 10
11.348147
 20
-0.639531
 30
0.0
 11
11.361959
 21
-0.610429
 31
0.0
  0
LINE
  5
710
330
1F
100
AcDbEntity
  8
1
  6
CONTINUOUS
370
50
 62
4
100
AcDbLine
 10
11.368958
 20
1.078543
 30
0.0
 11
11.378451
 21
1.09863
 31
0.0
  0
LINE
  5
711
330
1F
100
AcDbEntity
  8
1
  6
CONTINUOUS
370
50
 62
4
100
AcDbLine
 10
4.640389
 20
0.6626489999999999
 30
0.0
 11
4.659635
 21
0.7085119999999999
 31
0.0
  0
LINE
  5
712
330
1F
100
AcDbEntity
  8
1
  6
CONTINUOUS
370
50
 62
4
100
AcDbLine
 10
11.361959
 20
-0.610429
 30
0.0
 11
11.373294
 21
-0.583413
 31
0.0
  0
LINE
  5
713
330
1F
100
AcDbEntity
  8
1
  6
CONTINUOUS
370
50
 62
4
100
AcDbLine
 10
4.702548999999999
 20
1.816597
 30
0.0
 11
4.709073
 21
1.83243
 31
0.0
  0
LINE
  5
714
330
1F
100
AcDbEntity
  8
1
  6
CONTINUOUS
370
50
 62
4
100
AcDbLine
 10
11.834441
 20
0.8927299999999999
 30
0.0
 11
11.844975
 21
0.919333
 31
0.0
  0
LINE
  5
715
330
1F
100
AcDbEntity
  8
1
  6
CONTINUOUS
370
50
 62
4
100
AcDbLine
 10
4.704861999999999
 20
-1.623114
 30
0.0
 11
4.713874
 21
-1.598514
 31
0.0
  0
LINE
  5
716
330
1F
100
AcDbEntity
  8
1
  6
CONTINUOUS
370
50
 62
4
100
AcDbLine
 10
11.864906
 20
0.9506589999999999
 30
0.0
 11
11.867718
 21
0.958426
 31
0.0
  0
LINE
  5
717
330
1F
100
AcDbEntity
  8
1
  6
CONTINUOUS
370
50
 62
4
100
AcDbLine
 10
11.373294
 20
-0.583413
 30
0.0
 11
11.3822
 21
-0.558504
 31
0.0
  0
LINE
  5
718
330
1F
100
AcDbEntity
  8
1
  6
CONTINUOUS
370
50
 62
4
100
AcDbLine
 10
4.659635
 20
0.7085119999999999
 30
0.0
 11
4.676689
 21
0.7566459999999999
 31
0.0
  0
LINE
  5
719
330
1F
100
AcDbEntity
  8
1
  6
CONTINUOUS
370
50
 62
4
100
AcDbLine
 10
11.378451
 20
1.09863
 30
0.0
 11
11.385751
 21
1.121403
 31
0.0
  0
LINE
  5
71A
330
1F
100
AcDbEntity
  8
1
  6
CONTINUOUS
370
50
 62
4
100
AcDbLine
 10
4.676689
 20
0.7566459999999999
 30
0.0
 11
4.691688
 21
0.8067869999999999
 31
0.0
  0
LINE
  5
71B
330
1F
100
AcDbEntity
  8
1
  6
CONTINUOUS
370
50
 62
4
100
AcDbLine
 10
11.867718
 20
0.958426
 30
0.0
 11
11.870101
 21
0.967556
 31
0.0
  0
LINE
  5
71C
330
1F
100
AcDbEntity
  8
1
  6
CONTINUOUS
370
50
 62
4
100
AcDbLine
 10
4.691688
 20
0.8067869999999999
 30
0.0
 11
4.704769
 21
0.8586699999999999
 31
0.0
  0
LINE
  5
71D
330
1F
100
AcDbEntity
  8
1
  6
CONTINUOUS
370
50
 62
4
100
AcDbLine
 10
4.750512
 20
-1.985112
 30
0.0
 11
4.753318999999999
 21
-1.973379
 31
0.0
  0
LINE
  5
71E
330
1F
100
AcDbEntity
  8
1
  6
CONTINUOUS
370
50
 62
4
100
AcDbLine
 10
11.82644
 20
0.8584649999999999
 30
0.0
 11
11.834441
 21
0.8927299999999999
 31
0.0
  0
LINE
  5
71F
330
1F
100
AcDbEntity
  8
1
  6
CONTINUOUS
370
50
 62
4
100
AcDbLine
 10
4.704769
 20
0.8586699999999999
 30
0.0
 11
4.716070999999999
 21
0.912032
 31
0.0
  0
LINE
  5
720
330
1F
100
AcDbEntity
  8
1
  6
CONTINUOUS
370
50
 62
4
100
AcDbLine
 10
11.385751
 20
1.121403
 30
0.0
 11
11.390882
 21
1.146486
 31
0.0
  0
LINE
  5
721
330
1F
100
AcDbEntity
  8
1
  6
CONTINUOUS
370
50
 62
4
100
AcDbLine
 10
4.073356
 20
0.311692
 30
0.0
 11
4.075953
 21
0.324585
 31
0.0
  0
LINE
  5
722
330
1F
100
AcDbEntity
  8
1
  6
CONTINUOUS
370
50
 62
4
100
AcDbLine
 10
4.700356
 20
-1.647607
 30
0.0
 11
4.704861999999999
 21
-1.623114
 31
0.0
  0
LINE
  5
723
330
1F
100
AcDbEntity
  8
1
  6
CONTINUOUS
370
50
 62
4
100
AcDbLine
 10
11.844343
 20
-1.01837
 30
0.0
 11
11.849976
 21
-0.987655
 31
0.0
  0
LINE
  5
724
330
1F
100
AcDbEntity
  8
1
  6
CONTINUOUS
370
50
 62
4
100
AcDbLine
 10
4.716070999999999
 20
0.912032
 30
0.0
 11
4.725752
 21
0.9667389999999999
 31
0.0
  0
LINE
  5
725
330
1F
100
AcDbEntity
  8
1
  6
CONTINUOUS
370
50
 62
4
100
AcDbLine
 10
11.849976
 20
-0.987655
 30
0.0
 11
11.855046
 21
-0.9579869999999999
 31
0.0
  0
LINE
  5
726
330
1F
100
AcDbEntity
  8
1
  6
CONTINUOUS
370
50
 62
4
100
AcDbLine
 10
11.855046
 20
-0.9579869999999999
 30
0.0
 11
11.859555
 21
-0.929399
 31
0.0
  0
LINE
  5
727
330
1F
100
AcDbEntity
  8
1
  6
CONTINUOUS
370
50
 62
4
100
AcDbLine
 10
4.699891
 20
1.799737
 30
0.0
 11
4.702548999999999
 21
1.816597
 31
0.0
  0
LINE
  5
728
330
1F
100
AcDbEntity
  8
1
  6
CONTINUOUS
370
50
 62
4
100
AcDbLine
 10
4.725752
 20
0.9667389999999999
 30
0.0
 11
4.733963999999999
 21
1.022894
 31
0.0
  0
LINE
  5
729
330
1F
100
AcDbEntity
  8
1
  6
CONTINUOUS
370
50
 62
4
100
AcDbLine
 10
11.859555
 20
-0.929399
 30
0.0
 11
11.863504
 21
-0.9019199999999999
 31
0.0
  0
LINE
  5
72A
330
1F
100
AcDbEntity
  8
1
  6
CONTINUOUS
370
50
 62
4
100
AcDbLine
 10
11.821033
 20
0.8165629999999999
 30
0.0
 11
11.82644
 21
0.8584649999999999
 31
0.0
  0
LINE
  5
72B
330
1F
100
AcDbEntity
  8
1
  6
CONTINUOUS
370
50
 62
4
100
AcDbLine
 10
11.863504
 20
-0.9019199999999999
 30
0.0
 11
11.866897
 21
-0.875582
 31
0.0
  0
LINE
  5
72C
330
1F
100
AcDbEntity
  8
1
  6
CONTINUOUS
370
50
 62
4
100
AcDbLine
 10
11.833537
 20
-1.119611
 30
0.0
 11
11.844975
 21
-1.028989
 31
0.0
  0
LINE
  5
72D
330
1F
100
AcDbEntity
  8
1
  6
CONTINUOUS
370
50
 62
4
100
AcDbLine
 10
4.733963999999999
 20
1.022894
 30
0.0
 11
4.740750999999999
 21
1.08023
 31
0.0
  0
LINE
  5
72E
330
1F
100
AcDbEntity
  8
1
  6
CONTINUOUS
370
50
 62
4
100
AcDbLine
 10
11.390882
 20
1.146486
 30
0.0
 11
11.39395
 21
1.173649
 31
0.0
  0
LINE
  5
72F
330
1F
100
AcDbEntity
  8
1
  6
CONTINUOUS
370
50
 62
4
100
AcDbLine
 10
11.866897
 20
-0.875582
 30
0.0
 11
11.869731
 21
-0.850433
 31
0.0
  0
LINE
  5
730
330
1F
100
AcDbEntity
  8
1
  6
CONTINUOUS
370
50
 62
4
100
AcDbLine
 10
11.825164
 20
-1.203139
 30
0.0
 11
11.833537
 21
-1.119611
 31
0.0
  0
LINE
  5
731
330
1F
100
AcDbEntity
  8
1
  6
CONTINUOUS
370
50
 62
4
100
AcDbLine
 10
4.740750999999999
 20
1.08023
 30
0.0
 11
4.74615
 21
1.138456
 31
0.0
  0
LINE
  5
732
330
1F
100
AcDbEntity
  8
1
  6
CONTINUOUS
370
50
 62
4
100
AcDbLine
 10
4.753318999999999
 20
-1.973379
 30
0.0
 11
4.754591
 21
-1.957687
 31
0.0
  0
LINE
  5
733
330
1F
100
AcDbEntity
  8
1
  6
CONTINUOUS
370
50
 62
4
100
AcDbLine
 10
4.74615
 20
1.138456
 30
0.0
 11
4.750198999999999
 21
1.19728
 31
0.0
  0
LINE
  5
734
330
1F
100
AcDbEntity
  8
1
  6
CONTINUOUS
370
50
 62
4
100
AcDbLine
 10
11.819937
 20
-1.27911
 30
0.0
 11
11.825164
 21
-1.203139
 31
0.0
  0
LINE
  5
735
330
1F
100
AcDbEntity
  8
1
  6
CONTINUOUS
370
50
 62
4
100
AcDbLine
 10
11.818279
 20
0.7670469999999999
 30
0.0
 11
11.821033
 21
0.8165629999999999
 31
0.0
  0
LINE
  5
736
330
1F
100
AcDbEntity
  8
1
  6
CONTINUOUS
370
50
 62
4
100
AcDbLine
 10
4.750198999999999
 20
1.19728
 30
0.0
 11
4.752935
 21
1.256412
 31
0.0
  0
LINE
  5
737
330
1F
100
AcDbEntity
  8
1
  6
CONTINUOUS
370
50
 62
4
100
AcDbLine
 10
11.39395
 20
1.173649
 30
0.0
 11
11.395061
 21
1.202682
 31
0.0
  0
LINE
  5
738
330
1F
100
AcDbEntity
  8
1
  6
CONTINUOUS
370
50
 62
4
100
AcDbLine
 10
11.817937
 20
-1.347061
 30
0.0
 11
11.819937
 21
-1.27911
 31
0.0
  0
LINE
  5
739
330
1F
100
AcDbEntity
  8
1
  6
CONTINUOUS
370
50
 62
4
100
AcDbLine
 10
4.752935
 20
1.256412
 30
0.0
 11
4.754398
 21
1.315561
 31
0.0
  0
LINE
  5
73A
330
1F
100
AcDbEntity
  8
1
  6
CONTINUOUS
370
50
 62
4
100
AcDbLine
 10
4.754398
 20
1.315561
 30
0.0
 11
4.754623
 21
1.374434
 31
0.0
  0
LINE
  5
73B
330
1F
100
AcDbEntity
  8
1
  6
CONTINUOUS
370
50
 62
4
100
AcDbLine
 10
11.818243
 20
0.709942
 30
0.0
 11
11.818279
 21
0.7670469999999999
 31
0.0
  0
LINE
  5
73C
330
1F
100
AcDbEntity
  8
1
  6
CONTINUOUS
370
50
 62
4
100
AcDbLine
 10
-0.01
 20
-2.99995
 30
0.0
 11
-0.01
 21
2.99995
 31
0.0
  0
LINE
  5
73D
330
1F
100
AcDbEntity
  8
1
  6
CONTINUOUS
370
50
 62
4
100
AcDbLine
 10
1.722051
 20
-1.99995
 30
0.0
 11
1.722051
 21
1.99995
 31
0.0
  0
LINE
  5
73E
330
1F
100
AcDbEntity
  8
1
  6
CONTINUOUS
370
50
 62
4
100
AcDbLine
 10
6.122
 20
-1.386151
 30
0.0
 11
6.122
 21
1.99995
 31
0.0
  0
LINE
  5
73F
330
1F
100
AcDbEntity
  8
1
  6
CONTINUOUS
370
50
 62
4
100
AcDbLine
 10
6.132
 20
-0.978579
 30
0.0
 11
6.132
 21
1.978551
 31
0.0
  0
LINE
  5
740
330
1F
100
AcDbEntity
  8
1
  6
CONTINUOUS
370
50
 62
4
100
AcDbLine
 10
6.132
 20
-1.24626
 30
0.0
 11
6.132
 21
-1.241668
 31
0.0
  0
LINE
  5
741
330
1F
100
AcDbEntity
  8
1
  6
CONTINUOUS
370
50
 62
4
100
AcDbLine
 10
6.132
 20
-1.303294
 30
0.0
 11
6.132
 21
-1.265408
 31
0.0
  0
LINE
  5
742
330
1F
100
AcDbEntity
  8
1
  6
CONTINUOUS
370
50
 62
4
100
AcDbLine
 10
6.132
 20
-1.334563
 30
0.0
 11
6.132
 21
-1.303294
 31
0.0
  0
LINE
  5
743
330
1F
100
AcDbEntity
  8
1
  6
CONTINUOUS
370
50
 62
4
100
AcDbLine
 10
6.132
 20
-1.359063
 30
0.0
 11
6.132
 21
-1.334563
 31
0.0
  0
LINE
  5
744
330
1F
100
AcDbEntity
  8
1
  6
CONTINUOUS
370
50
 62
4
100
AcDbLine
 10
6.132
 20
-1.376599
 30
0.0
 11
6.132
 21
-1.359063
 31
0.0
  0
LINE
  5
745
330
1F
100
AcDbEntity
  8
1
  6
CONTINUOUS
370
50
 62
4
100
AcDbLine
 10
6.132
 20
-1.387127
 30
0.0
 11
6.132
 21
-1.376599
 31
0.0
  0
LINE
  5
746
330
1F
100
AcDbEntity
  8
1
  6
CONTINUOUS
370
50
 62
4
100
AcDbLine
 10
6.132
 20
-1.390638
 30
0.0
 11
6.132
 21
-1.387127
 31
0.0
  0
LINE
  5
747
330
1F
100
AcDbEntity
  8
1
  6
CONTINUOUS
370
50
 62
4
100
AcDbLine
 10
6.132
 20
-1.265408
 30
0.0
 11
6.132
 21
-1.246261
 31
0.0
  0
LINE
  5
748
330
1F
100
AcDbEntity
  8
1
  6
CONTINUOUS
370
50
 62
4
100
AcDbLine
 10
12.122
 20
-1.226484
 30
0.0
 11
12.122
 21
1.999989
 31
0.0
  0
ELLIPSE
  5
749
330
1F
100
AcDbEntity
  8
1
  6
CONTINUOUS
370
50
 62
4
100
AcDbEllipse
 10
12.21047
 20
-0.000009
 30
0.0
 11
-0.5763191392986265
 21
1.998125959822125
 31
0.0
210
0.0
220
0.0
230
1.0
 40
0.1502642750246616
 41
1.840929578141104
 42
1.914516443072581
  0
ELLIPSE
  5
74A
330
1F
100
AcDbEntity
  8
1
  6
CONTINUOUS
370
50
 62
4
100
AcDbEllipse
 10
12.21047
 20
0.000009
 30
0.0
 11
0.5763191392986268
 21
1.998125959822125
 31
0.0
210
0.0
220
0.0
230
1.0
 40
0.1502642750246616
 41
4.021951812438588
 42
4.095538674697675
  0
ELLIPSE
  5
74B
330
1F
100
AcDbEntity
  8
1
  6
CONTINUOUS
370
50
 62
4
100
AcDbEllipse
 10
21.738624
 20
21.37395
 30
0.0
 11
-29.40027722946677
 21
14.28148952761325
 31
0.0
210
0.0
220
0.0
230
1.0
 40
0.8302218669235096
 41
1.367378725741596
 42
1.439398392794219
  0
ELLIPSE
  5
74C
330
1F
100
AcDbEntity
  8
1
  6
CONTINUOUS
370
50
 62
4
100
AcDbEllipse
 10
22.132403
 20
-27.088198
 30
0.0
 11
-28.42322703656428
 21
14.78327492969928
 31
0.0
210
0.0
220
0.0
230
0.9999999999999999
 40
0.8493417305134613
 41
5.682433478247086
 42
5.722976503105985
  0
ELLIPSE
  5
74D
330
1F
100
AcDbEntity
  8
1
  6
CONTINUOUS
370
50
 62
4
100
AcDbEllipse
 10
22.132403
 20
22.184594
 30
0.0
 11
-28.81780275210618
 21
13.99854651032119
 31
0.0
210
0.0
220
0.0
230
1.0
 40
0.8302218331049173
 41
1.359521981084684
 42
1.413210288423856
  0
ELLIPSE
  5
74E
330
1F
100
AcDbEntity
  8
1
  6
CONTINUOUS
370
50
 62
4
100
AcDbEllipse
 10
22.361741
 20
22.656715
 30
0.0
 11
-28.56904424878068
 21
13.87770948785309
 31
0.0
210
0.0
220
0.0
230
0.9999999999999999
 40
0.8302218614301852
 41
1.38127454369028
 42
1.39923607588249
  0
LINE
  5
74F
330
1F
100
AcDbEntity
  8
CUT
  6
CONTINUOUS
370
25
 62
1
100
AcDbLine
 10
6.122
 20
0.0
 30
0.0
 11
12.122
 21
0.0
 31
0.0
  0
LINE
  5
750
330
1F
100
AcDbEntity
  8
CUT
  6
CONTINUOUS
370
25
 62
1
100
AcDbLine
 10
12.122
 20
0.0
 30
0.0
 11
12.122
 21
1.995
 31
0.0
  0
LINE
  5
751
330
1F
100
AcDbEntity
  8
CUT
  6
CONTINUOUS
370
25
 62
1
100
AcDbLine
 10
12.122
 20
1.995
 30
0.0
 11
12.122
 21
2.0
 31
0.0
  0
LINE
  5
752
330
1F
100
AcDbEntity
  8
CUT
  6
CONTINUOUS
370
25
 62
1
100
AcDbLine
 10
12.122
 20
2.0
 30
0.0
 11
6.122
 21
1.9999
 31
0.0
  0
LINE
  5
753
330
1F
100
AcDbEntity
  8
CUT
  6
CONTINUOUS
370
25
 62
1
100
AcDbLine
 10
6.122
 20
1.9999
 30
0.0
 11
6.122
 21
1.9949
 31
0.0
  0
LINE
  5
754
330
1F
100
AcDbEntity
  8
CUT
  6
CONTINUOUS
370
25
 62
1
100
AcDbLine
 10
6.122
 20
1.9949
 30
0.0
 11
6.122
 21
0.0
 31
0.0
  0
LINE
  5
755
330
1F
100
AcDbEntity
  8
NOCUT
  6
CONTINUOUS
370
25
 62
7
100
AcDbLine
 10
-0.01
 20
0.0
 30
0.0
 11
6.122
 21
0.0
 31
0.0
  0
LINE
  5
756
330
1F
100
AcDbEntity
  8
NOCUT
  6
CONTINUOUS
370
25
 62
7
100
AcDbLine
 10
6.122
 20
0.0
 30
0.0
 11
6.122
 21
1.99495
 31
0.0
  0
LINE
  5
757
330
1F
100
AcDbEntity
  8
NOCUT
  6
CONTINUOUS
370
25
 62
7
100
AcDbLine
 10
6.122
 20
1.99495
 30
0.0
 11
6.122
 21
1.99995
 31
0.0
  0
LINE
  5
758
330
1F
100
AcDbEntity
  8
NOCUT
  6
CONTINUOUS
370
25
 62
7
100
AcDbLine
 10
6.122
 20
1.99995
 30
0.0
 11
1.722050807568878
 21
1.99995
 31
0.0
  0
LINE
  5
759
330
1F
100
AcDbEntity
  8
NOCUT
  6
CONTINUOUS
370
25
 62
7
100
AcDbLine
 10
1.722050807568878
 20
1.99995
 30
0.0
 11
-0.01
 21
2.99995
 31
0.0
  0
LINE
  5
75A
330
1F
100
AcDbEntity
  8
NOCUT
  6
CONTINUOUS
370
25
 62
7
100
AcDbLine
 10
-0.01
 20
2.99995
 30
0.0
 11
-0.01
 21
0.0
 31
0.0
  0
LINE
  5
75B
330
1F
100
AcDbEntity
  8
SK1
  6
CONTINUOUS
370
50
 62
4
100
AcDbLine
 10
-0.01
 20
3.0
 30
0.0
 11
-44.478
 21
3.0
 31
0.0
  0
LINE
  5
75C
330
1F
100
AcDbEntity
  8
SK1
  6
CONTINUOUS
370
50
 62
4
100
AcDbLine
 10
-44.478
 20
3.0
 30
0.0
 11
-44.878
 21
2.6
 31
0.0
  0
LINE
  5
75D
330
1F
100
AcDbEntity
  8
SK1
  6
CONTINUOUS
370
50
 62
4
100
AcDbLine
 10
-44.878
 20
2.6
 30
0.0
 11
-44.878
 21
-2.6
 31
0.0
  0
LINE
  5
75E
330
1F
100
AcDbEntity
  8
SK1
  6
CONTINUOUS
370
50
 62
4
100
AcDbLine
 10
-44.878
 20
-2.6
 30
0.0
 11
-44.478
 21
-3.0
 31
0.0
  0
LINE
  5
75F
330
1F
100
AcDbEntity
  8
SK1
  6
CONTINUOUS
370
50
 62
4
100
AcDbLine
 10
-44.478
 20
-3.0
 30
0.0
 11
-0.01
 21
-3.0
 31
0.0
  0
LINE
  5
760
330
1F
100
AcDbEntity
  8
SK1
  6
CONTINUOUS
370
50
 62
4
100
AcDbLine
 10
-44.478
 20
3.0
 30
0.0
 11
-44.478
 21
-3.0
 31
0.0
  0
LINE
  5
761
330
1F
100
AcDbEntity
  8
SK2
  6
CONTINUOUS
370
25
 62
7
100
AcDbLine
 10
-56.8780002
 20
-3.000001
 30
0.0
 11
-57.87800000000008
 21
-3.000001
 31
0.0
  0
LINE
  5
762
330
1F
100
AcDbEntity
  8
SK2
  6
CONTINUOUS
370
25
 62
7
100
AcDbLine
 10
-44.878
 20
-3.000001
 30
0.0
 11
-56.8779998
 21
-3.000001
 31
0.0
  0
LINE
  5
763
330
1F
100
AcDbEntity
  8
SK2
  6
CONTINUOUS
370
25
 62
7
100
AcDbLine
 10
-57.878
 20
3.0
 30
0.0
 11
-44.878
 21
3.0
 31
0.0
  0
LINE
  5
764
330
1F
100
AcDbEntity
  8
SK2
  6
CONTINUOUS
370
25
 62
7
100
AcDbLine
 10
-56.878
 20
-10.0
 30
0.0
 11
-56.878
 21
16.475
 31
0.0
  0
LINE
  5
765
330
1F
100
AcDbEntity
  8
SK2
  6
CONTINUOUS
370
25
 62
7
100
AcDbLine
 10
-56.878
 20
-3.0
 30
0.0
 11
-55.878
 21
-8.0
 31
0.0
  0
LINE
  5
766
330
1F
100
AcDbEntity
  8
SK2
  6
CONTINUOUS
370
25
 62
7
100
AcDbLine
 10
-55.878
 20
-8.0
 30
0.0
 11
-57.878
 21
-8.0
 31
0.0
  0
LINE
  5
767
330
1F
100
AcDbEntity
  8
SK2
  6
CONTINUOUS
370
25
 62
7
100
AcDbLine
 10
-57.878
 20
-8.0
 30
0.0
 11
-56.878
 21
-3.0
 31
0.0
  0
LINE
  5
768
330
1F
100
AcDbEntity
  8
SK2
  6
CONTINUOUS
370
25
 62
7
100
AcDbLine
 10
-55.95183976444789
 20
-8.0
 30
0.0
 11
-55.89030662740798
 21
-7.938466862960091
 31
0.0
  0
LINE
  5
769
330
1F
100
AcDbEntity
  8
SK2
  6
CONTINUOUS
370
25
 62
7
100
AcDbLine
 10
-56.37610383315982
 20
-8.0
 30
0.0
 11
-55.96101730552665
 21
-7.584913472366829
 31
0.0
  0
LINE
  5
76A
330
1F
100
AcDbEntity
  8
SK2
  6
CONTINUOUS
370
25
 62
7
100
AcDbLine
 10
-56.80036790187174
 20
-8.0
 30
0.0
 11
-56.0317279836453
 21
-7.231360081773552
 31
0.0
  0
LINE
  5
76B
330
1F
100
AcDbEntity
  8
SK2
  6
CONTINUOUS
370
25
 62
7
100
AcDbLine
 10
-57.22463197058368
 20
-8.0
 30
0.0
 11
-56.10243866176395
 21
-6.877806691180275
 31
0.0
  0
LINE
  5
76C
330
1F
100
AcDbEntity
  8
SK2
  6
CONTINUOUS
370
25
 62
7
100
AcDbLine
 10
-57.64889603929561
 20
-8.0
 30
0.0
 11
-56.17314933988261
 21
-6.524253300586999
 31
0.0
  0
LINE
  5
76D
330
1F
100
AcDbEntity
  8
SK2
  6
CONTINUOUS
370
25
 62
7
100
AcDbLine
 10
-57.82920997299812
 20
-7.75604986499058
 30
0.0
 11
-56.24386001800127
 21
-6.170699909993729
 31
0.0
  0
LINE
  5
76E
330
1F
100
AcDbEntity
  8
SK2
  6
CONTINUOUS
370
25
 62
7
100
AcDbLine
 10
-57.72314395582013
 20
-7.225719779100665
 30
0.0
 11
-56.31457069611992
 21
-5.817146519400453
 31
0.0
  0
LINE
  5
76F
330
1F
100
AcDbEntity
  8
SK2
  6
CONTINUOUS
370
25
 62
7
100
AcDbLine
 10
-57.61707793864215
 20
-6.69538969321075
 30
0.0
 11
-56.38528137423857
 21
-5.463593128807169
 31
0.0
  0
LINE
  5
770
330
1F
100
AcDbEntity
  8
SK2
  6
CONTINUOUS
370
25
 62
7
100
AcDbLine
 10
-57.51101192146417
 20
-6.165059607320828
 30
0.0
 11
-56.45599205235722
 21
-5.110039738213871
 31
0.0
  0
LINE
  5
771
330
1F
100
AcDbEntity
  8
SK2
  6
CONTINUOUS
370
25
 62
7
100
AcDbLine
 10
-57.40494590428619
 20
-5.63472952143092
 30
0.0
 11
-56.52670273047588
 21
-4.756486347620609
 31
0.0
  0
LINE
  5
772
330
1F
100
AcDbEntity
  8
SK2
  6
CONTINUOUS
370
25
 62
7
100
AcDbLine
 10
-57.29887988710821
 20
-5.104399435541005
 30
0.0
 11
-56.59741340859453
 21
-4.402932957027332
 31
0.0
  0
LINE
  5
773
330
1F
100
AcDbEntity
  8
SK2
  6
CONTINUOUS
370
25
 62
7
100
AcDbLine
 10
-57.19281386993023
 20
-4.57406934965109
 30
0.0
 11
-56.66812408671319
 21
-4.049379566434055
 31
0.0
  0
LINE
  5
774
330
1F
100
AcDbEntity
  8
SK2
  6
CONTINUOUS
370
25
 62
7
100
AcDbLine
 10
-57.08674785275225
 20
-4.043739263761175
 30
0.0
 11
-56.73883476483184
 21
-3.695826175840772
 31
0.0
  0
LINE
  5
775
330
1F
100
AcDbEntity
  8
SK2
  6
CONTINUOUS
370
25
 62
7
100
AcDbLine
 10
-56.98068183557426
 20
-3.51340917787126
 30
0.0
 11
-56.80954544295049
 21
-3.342272785247495
 31
0.0
  0
LINE
  5
776
330
1F
100
AcDbEntity
  8
SK2
  6
CONTINUOUS
370
25
 62
7
100
AcDbLine
 10
-57.84256125591534
 20
-7.822806279576682
 30
0.0
 11
-57.66536753549202
 21
-8.0
 31
0.0
  0
LINE
  5
777
330
1F
100
AcDbEntity
  8
SK2
  6
CONTINUOUS
370
25
 62
7
100
AcDbLine
 10
-57.77185057779668
 20
-7.469252888983412
 30
0.0
 11
-57.24110346678009
 21
-8.0
 31
0.0
  0
LINE
  5
778
330
1F
100
AcDbEntity
  8
SK2
  6
CONTINUOUS
370
25
 62
7
100
AcDbLine
 10
-57.70113989967803
 20
-7.115699498390136
 30
0.0
 11
-56.81683939806817
 21
-8.0
 31
0.0
  0
LINE
  5
779
330
1F
100
AcDbEntity
  8
SK2
  6
CONTINUOUS
370
25
 62
7
100
AcDbLine
 10
-57.63042922155937
 20
-6.762146107796859
 30
0.0
 11
-56.39257532935623
 21
-8.0
 31
0.0
  0
LINE
  5
77A
330
1F
100
AcDbEntity
  8
SK2
  6
CONTINUOUS
370
25
 62
7
100
AcDbLine
 10
-57.55971854344072
 20
-6.408592717203582
 30
0.0
 11
-55.9683112606443
 21
-8.0
 31
0.0
  0
LINE
  5
77B
330
1F
100
AcDbEntity
  8
SK2
  6
CONTINUOUS
370
25
 62
7
100
AcDbLine
 10
-57.48900786532207
 20
-6.055039326610306
 30
0.0
 11
-55.96148820201692
 21
-7.582558989915455
 31
0.0
  0
LINE
  5
77C
330
1F
100
AcDbEntity
  8
SK2
  6
CONTINUOUS
370
25
 62
7
100
AcDbLine
 10
-57.41829718720341
 20
-5.701485936017029
 30
0.0
 11
-56.0675542191949
 21
-7.05222890402554
 31
0.0
  0
LINE
  5
77D
330
1F
100
AcDbEntity
  8
SK2
  6
CONTINUOUS
370
25
 62
7
100
AcDbLine
 10
-57.34758650908476
 20
-5.347932545423753
 30
0.0
 11
-56.17362023637288
 21
-6.521898818135632
 31
0.0
  0
LINE
  5
77E
330
1F
100
AcDbEntity
  8
SK2
  6
CONTINUOUS
370
25
 62
7
100
AcDbLine
 10
-57.27687583096611
 20
-4.994379154830469
 30
0.0
 11
-56.27968625355086
 21
-5.99156873224571
 31
0.0
  0
LINE
  5
77F
330
1F
100
AcDbEntity
  8
SK2
  6
CONTINUOUS
370
25
 62
7
100
AcDbLine
 10
-57.20616515284744
 20
-4.640825764237199
 30
0.0
 11
-56.38575227072884
 21
-5.461238646355795
 31
0.0
  0
LINE
  5
780
330
1F
100
AcDbEntity
  8
SK2
  6
CONTINUOUS
370
25
 62
7
100
AcDbLine
 10
-57.13545447472879
 20
-4.287272373643923
 30
0.0
 11
-56.49181828790682
 21
-4.930908560465888
 31
0.0
  0
LINE
  5
781
330
1F
100
AcDbEntity
  8
SK2
  6
CONTINUOUS
370
25
 62
7
100
AcDbLine
 10
-57.06474379661013
 20
-3.933718983050646
 30
0.0
 11
-56.59788430508481
 21
-4.400578474575966
 31
0.0
  0
LINE
  5
782
330
1F
100
AcDbEntity
  8
SK2
  6
CONTINUOUS
370
25
 62
7
100
AcDbLine
 10
-56.99403311849148
 20
-3.580165592457369
 30
0.0
 11
-56.70395032226279
 21
-3.870248388686058
 31
0.0
  0
LINE
  5
783
330
1F
100
AcDbEntity
  8
SK2
  6
CONTINUOUS
370
25
 62
7
100
AcDbLine
 10
-56.92332244037283
 20
-3.226612201864086
 30
0.0
 11
-56.81001633944078
 21
-3.339918302796136
 31
0.0
  0
LINE
  5
784
330
1F
100
AcDbEntity
  8
SK2
  6
CONTINUOUS
370
25
 62
7
100
AcDbLine
 10
-56.878
 20
3.0
 30
0.0
 11
-57.878
 21
8.0
 31
0.0
  0
LINE
  5
785
330
1F
100
AcDbEntity
  8
SK2
  6
CONTINUOUS
370
25
 62
7
100
AcDbLine
 10
-57.878
 20
8.0
 30
0.0
 11
-55.878
 21
8.0
 31
0.0
  0
LINE
  5
786
330
1F
100
AcDbEntity
  8
SK2
  6
CONTINUOUS
370
25
 62
7
100
AcDbLine
 10
-55.878
 20
8.0
 30
0.0
 11
-56.878
 21
3.0
 31
0.0
  0
LINE
  5
787
330
1F
100
AcDbEntity
  8
SK2
  6
CONTINUOUS
370
25
 62
7
100
AcDbLine
 10
-56.94091629284897
 20
3.314581464244846
 30
0.0
 11
-56.78362556072656
 21
3.471872196367258
 31
0.0
  0
LINE
  5
788
330
1F
100
AcDbEntity
  8
SK2
  6
CONTINUOUS
370
25
 62
7
100
AcDbLine
 10
-57.01162697096763
 20
3.668134854838122
 30
0.0
 11
-56.67755954354858
 21
4.002202282257173
 31
0.0
  0
LINE
  5
789
330
1F
100
AcDbEntity
  8
SK2
  6
CONTINUOUS
370
25
 62
7
100
AcDbLine
 10
-57.08233764908628
 20
4.021688245431399
 30
0.0
 11
-56.57149352637059
 21
4.532532368147088
 31
0.0
  0
LINE
  5
78A
330
1F
100
AcDbEntity
  8
SK2
  6
CONTINUOUS
370
25
 62
7
100
AcDbLine
 10
-57.15304832720493
 20
4.375241636024683
 30
0.0
 11
-56.46542750919261
 21
5.062862454037003
 31
0.0
  0
LINE
  5
78B
330
1F
100
AcDbEntity
  8
SK2
  6
CONTINUOUS
370
25
 62
7
100
AcDbLine
 10
-57.22375900532359
 20
4.728795026617945
 30
0.0
 11
-56.35936149201463
 21
5.59319253992691
 31
0.0
  0
LINE
  5
78C
330
1F
100
AcDbEntity
  8
SK2
  6
CONTINUOUS
370
25
 62
7
100
AcDbLine
 10
-57.29446968344224
 20
5.082348417211229
 30
0.0
 11
-56.25329547483664
 21
6.123522625816832
 31
0.0
  0
LINE
  5
78D
330
1F
100
AcDbEntity
  8
SK2
  6
CONTINUOUS
370
25
 62
7
100
AcDbLine
 10
-57.3651803615609
 20
5.435901807804505
 30
0.0
 11
-56.14722945765866
 21
6.653852711706747
 31
0.0
  0
LINE
  5
78E
330
1F
100
AcDbEntity
  8
SK2
  6
CONTINUOUS
370
25
 62
7
100
AcDbLine
 10
-57.43589103967956
 20
5.789455198397768
 30
0.0
 11
-56.04116344048067
 21
7.184182797596662
 31
0.0
  0
LINE
  5
78F
330
1F
100
AcDbEntity
  8
SK2
  6
CONTINUOUS
370
25
 62
7
100
AcDbLine
 10
-57.50660171779822
 20
6.143008588991044
 30
0.0
 11
-55.93509742330269
 21
7.714512883486577
 31
0.0
  0
LINE
  5
790
330
1F
100
AcDbEntity
  8
SK2
  6
CONTINUOUS
370
25
 62
7
100
AcDbLine
 10
-57.57731239591688
 20
6.496561979584321
 30
0.0
 11
-56.0738743755012
 21
8.0
 31
0.0
  0
LINE
  5
791
330
1F
100
AcDbEntity
  8
SK2
  6
CONTINUOUS
370
25
 62
7
100
AcDbLine
 10
-57.64802307403552
 20
6.850115370177605
 30
0.0
 11
-56.49813844421312
 21
8.0
 31
0.0
  0
LINE
  5
792
330
1F
100
AcDbEntity
  8
SK2
  6
CONTINUOUS
370
25
 62
7
100
AcDbLine
 10
-57.71873375215419
 20
7.203668760770867
 30
0.0
 11
-56.92240251292505
 21
8.0
 31
0.0
  0
LINE
  5
793
330
1F
100
AcDbEntity
  8
SK2
  6
CONTINUOUS
370
25
 62
7
100
AcDbLine
 10
-57.78944443027284
 20
7.557222151364151
 30
0.0
 11
-57.34666658163699
 21
8.0
 31
0.0
  0
LINE
  5
794
330
1F
100
AcDbEntity
  8
SK2
  6
CONTINUOUS
370
25
 62
7
100
AcDbLine
 10
-57.8601551083915
 20
7.910775541957427
 30
0.0
 11
-57.77093065034892
 21
8.0
 31
0.0
  0
LINE
  5
795
330
1F
100
AcDbEntity
  8
SK2
  6
CONTINUOUS
370
25
 62
7
100
AcDbLine
 10
-56.88557370385543
 20
3.037868519277154
 30
0.0
 11
-56.87295086409638
 21
3.025245679518108
 31
0.0
  0
LINE
  5
796
330
1F
100
AcDbEntity
  8
SK2
  6
CONTINUOUS
370
25
 62
7
100
AcDbLine
 10
-56.99163972103342
 20
3.568198605167076
 30
0.0
 11
-56.80224018597773
 21
3.378799070111391
 31
0.0
  0
LINE
  5
797
330
1F
100
AcDbEntity
  8
SK2
  6
CONTINUOUS
370
25
 62
7
100
AcDbLine
 10
-57.0977057382114
 20
4.098528691056984
 30
0.0
 11
-56.73152950785907
 21
3.732352460704661
 31
0.0
  0
LINE
  5
798
330
1F
100
AcDbEntity
  8
SK2
  6
CONTINUOUS
370
25
 62
7
100
AcDbLine
 10
-57.20377175538938
 20
4.628858776946906
 30
0.0
 11
-56.66081882974042
 21
4.085905851297944
 31
0.0
  0
LINE
  5
799
330
1F
100
AcDbEntity
  8
SK2
  6
CONTINUOUS
370
25
 62
7
100
AcDbLine
 10
-57.30983777256736
 20
5.159188862836807
 30
0.0
 11
-56.59010815162176
 21
4.4394592418912
 31
0.0
  0
LINE
  5
79A
330
1F
100
AcDbEntity
  8
SK2
  6
CONTINUOUS
370
25
 62
7
100
AcDbLine
 10
-57.41590378974535
 20
5.689518948726729
 30
0.0
 11
-56.5193974735031
 21
4.793012632484484
 31
0.0
  0
LINE
  5
79B
330
1F
100
AcDbEntity
  8
SK2
  6
CONTINUOUS
370
25
 62
7
100
AcDbLine
 10
-57.52196980692333
 20
6.219849034616637
 30
0.0
 11
-56.44868679538445
 21
5.14656602307776
 31
0.0
  0
LINE
  5
79C
330
1F
100
AcDbEntity
  8
SK2
  6
CONTINUOUS
370
25
 62
7
100
AcDbLine
 10
-57.62803582410131
 20
6.750179120506552
 30
0.0
 11
-56.3779761172658
 21
5.500119413671037
 31
0.0
  0
LINE
  5
79D
330
1F
100
AcDbEntity
  8
SK2
  6
CONTINUOUS
370
25
 62
7
100
AcDbLine
 10
-57.7341018412793
 20
7.280509206396466
 30
0.0
 11
-56.30726543914714
 21
5.853672804264313
 31
0.0
  0
LINE
  5
79E
330
1F
100
AcDbEntity
  8
SK2
  6
CONTINUOUS
370
25
 62
7
100
AcDbLine
 10
-57.84016785845728
 20
7.810839292286381
 30
0.0
 11
-56.23655476102848
 21
6.207226194857583
 31
0.0
  0
LINE
  5
79F
330
1F
100
AcDbEntity
  8
SK2
  6
CONTINUOUS
370
25
 62
7
100
AcDbLine
 10
-57.60506449745897
 20
8.0
 30
0.0
 11
-56.16584408290983
 21
6.560779585450859
 31
0.0
  0
LINE
  5
7A0
330
1F
100
AcDbEntity
  8
SK2
  6
CONTINUOUS
370
25
 62
7
100
AcDbLine
 10
-57.18080042874703
 20
8.0
 30
0.0
 11
-56.09513340479118
 21
6.914332976044143
 31
0.0
  0
LINE
  5
7A1
330
1F
100
AcDbEntity
  8
SK2
  6
CONTINUOUS
370
25
 62
7
100
AcDbLine
 10
-56.75653636003511
 20
8.0
 30
0.0
 11
-56.02442272667252
 21
7.267886366637413
 31
0.0
  0
LINE
  5
7A2
330
1F
100
AcDbEntity
  8
SK2
  6
CONTINUOUS
370
25
 62
7
100
AcDbLine
 10
-56.33227229132316
 20
8.0
 30
0.0
 11
-55.95371204855387
 21
7.621439757230704
 31
0.0
  0
LINE
  5
7A3
330
1F
100
AcDbEntity
  8
SK2
  6
CONTINUOUS
370
25
 62
7
100
AcDbLine
 10
-55.90800822261124
 20
8.0
 30
0.0
 11
-55.88300137043521
 21
7.974993147823973
 31
0.0
  0
TEXT
  5
7A4
330
1F
100
AcDbEntity
  8
SK2
  6
CONTINUOUS
370
25
 62
7
100
AcDbText
 10
-58.378
 20
13.34583333333333
 30
0.0
 40
3.5
  1
6
 50
90.00000000000001
 72
     1
 11
-58.378
 21
14.5125
 31
0.0
100
AcDbText
  0
CIRCLE
  5
7A5
330
1F
100
AcDbEntity
  8
SK2
  6
CONTINUOUS
370
25
 62
7
100
AcDbCircle
 10
-60.128
 20
11.1875
 30
0.0
 40
1.4
  0
LINE
  5
7A6
330
1F
100
AcDbEntity
  8
SK2
  6
CONTINUOUS
370
25
 62
7
100
AcDbLine
 10
-58.728
 20
9.787500000000001
 30
0.0
 11
-61.528
 21
12.5875
 31
0.0
  0
LINE
  5
7A7
330
1F
100
AcDbEntity
  8
SK2
  6
CONTINUOUS
370
25
 62
7
100
AcDbLine
 10
-44.878
 20
3.0
 30
0.0
 11
-44.878
 21
16.0
 31
0.0
  0
LINE
  5
7A8
330
1F
100
AcDbEntity
  8
SK2
  6
CONTINUOUS
370
25
 62
7
100
AcDbLine
 10
-0.0099999999999999
 20
16.0
 30
0.0
 11
-0.0100000000000007
 21
3.0
 31
0.0
  0
LINE
  5
7A9
330
1F
100
AcDbEntity
  8
SK2
  6
CONTINUOUS
370
25
 62
7
100
AcDbLine
 10
-44.878
 20
15.0
 30
0.0
 11
-0.01
 21
15.0
 31
0.0
  0
LINE
  5
7AA
330
1F
100
AcDbEntity
  8
SK2
  6
CONTINUOUS
370
25
 62
7
100
AcDbLine
 10
-44.878
 20
15.0
 30
0.0
 11
-39.878
 21
16.0
 31
0.0
  0
LINE
  5
7AB
330
1F
100
AcDbEntity
  8
SK2
  6
CONTINUOUS
370
25
 62
7
100
AcDbLine
 10
-39.878
 20
16.0
 30
0.0
 11
-39.878
 21
14.0
 31
0.0
  0
LINE
  5
7AC
330
1F
100
AcDbEntity
  8
SK2
  6
CONTINUOUS
370
25
 62
7
100
AcDbLine
 10
-39.878
 20
14.0
 30
0.0
 11
-44.878
 21
15.0
 31
0.0
  0
LINE
  5
7AD
330
1F
100
AcDbEntity
  8
SK2
  6
CONTINUOUS
370
25
 62
7
100
AcDbLine
 10
-39.88928060534575
 20
14.00225612106914
 30
0.0
 11
-39.878
 21
14.01353672641489
 31
0.0
  0
LINE
  5
7AE
330
1F
100
AcDbEntity
  8
SK2
  6
CONTINUOUS
370
25
 62
7
100
AcDbLine
 10
-40.24283399593902
 20
14.0729667991878
 30
0.0
 11
-39.878
 21
14.43780079512682
 31
0.0
  0
LINE
  5
7AF
330
1F
100
AcDbEntity
  8
SK2
  6
CONTINUOUS
370
25
 62
7
100
AcDbLine
 10
-40.5963873865323
 20
14.14367747730645
 30
0.0
 11
-39.878
 21
14.86206486383875
 31
0.0
  0
LINE
  5
7B0
330
1F
100
AcDbEntity
  8
SK2
  6
CONTINUOUS
370
25
 62
7
100
AcDbLine
 10
-40.94994077712557
 20
14.21438815542511
 30
0.0
 11
-39.878
 21
15.28632893255068
 31
0.0
  0
LINE
  5
7B1
330
1F
100
AcDbEntity
  8
SK2
  6
CONTINUOUS
370
25
 62
7
100
AcDbLine
 10
-41.30349416771885
 20
14.28509883354377
 30
0.0
 11
-39.878
 21
15.71059300126262
 31
0.0
  0
LINE
  5
7B2
330
1F
100
AcDbEntity
  8
SK2
  6
CONTINUOUS
370
25
 62
7
100
AcDbLine
 10
-41.65704755831213
 20
14.35580951166241
 30
0.0
 11
-40.04657133746817
 21
15.96628573250637
 31
0.0
  0
LINE
  5
7B3
330
1F
100
AcDbEntity
  8
SK2
  6
CONTINUOUS
370
25
 62
7
100
AcDbLine
 10
-42.01060094890541
 20
14.42652018978107
 30
0.0
 11
-40.57690142335809
 21
15.86021971532838
 31
0.0
  0
LINE
  5
7B4
330
1F
100
AcDbEntity
  8
SK2
  6
CONTINUOUS
370
25
 62
7
100
AcDbLine
 10
-42.36415433949868
 20
14.49723086789973
 30
0.0
 11
-41.10723150924801
 21
15.7541536981504
 31
0.0
  0
LINE
  5
7B5
330
1F
100
AcDbEntity
  8
SK2
  6
CONTINUOUS
370
25
 62
7
100
AcDbLine
 10
-42.71770773009195
 20
14.56794154601839
 30
0.0
 11
-41.63756159513793
 21
15.64808768097241
 31
0.0
  0
LINE
  5
7B6
330
1F
100
AcDbEntity
  8
SK2
  6
CONTINUOUS
370
25
 62
7
100
AcDbLine
 10
-43.07126112068523
 20
14.63865222413704
 30
0.0
 11
-42.16789168102783
 21
15.54202166379444
 31
0.0
  0
LINE
  5
7B7
330
1F
100
AcDbEntity
  8
SK2
  6
CONTINUOUS
370
25
 62
7
100
AcDbLine
 10
-43.42481451127851
 20
14.70936290225569
 30
0.0
 11
-42.69822176691775
 21
15.43595564661646
 31
0.0
  0
LINE
  5
7B8
330
1F
100
AcDbEntity
  8
SK2
  6
CONTINUOUS
370
25
 62
7
100
AcDbLine
 10
-43.77836790187177
 20
14.78007358037436
 30
0.0
 11
-43.22855185280767
 21
15.32988962943846
 31
0.0
  0
LINE
  5
7B9
330
1F
100
AcDbEntity
  8
SK2
  6
CONTINUOUS
370
25
 62
7
100
AcDbLine
 10
-44.13192129246506
 20
14.85078425849301
 30
0.0
 11
-43.75888193869758
 21
15.22382361226048
 31
0.0
  0
LINE
  5
7BA
330
1F
100
AcDbEntity
  8
SK2
  6
CONTINUOUS
370
25
 62
7
100
AcDbLine
 10
-44.48547468305834
 20
14.92149493661166
 30
0.0
 11
-44.28921202458748
 21
15.11775759508251
 31
0.0
  0
LINE
  5
7BB
330
1F
100
AcDbEntity
  8
SK2
  6
CONTINUOUS
370
25
 62
7
100
AcDbLine
 10
-44.8390280736516
 20
14.99220561473032
 30
0.0
 11
-44.81954211047741
 21
15.01169157790451
 31
0.0
  0
LINE
  5
7BC
330
1F
100
AcDbEntity
  8
SK2
  6
CONTINUOUS
370
25
 62
7
100
AcDbLine
 10
-44.65174419370521
 20
15.04525116125896
 30
0.0
 11
-44.5386162905578
 21
14.93212325811156
 31
0.0
  0
LINE
  5
7BD
330
1F
100
AcDbEntity
  8
SK2
  6
CONTINUOUS
370
25
 62
7
100
AcDbLine
 10
-44.29819080311194
 20
15.11596183937762
 30
0.0
 11
-44.00828620466789
 21
14.82605724093357
 31
0.0
  0
LINE
  5
7BE
330
1F
100
AcDbEntity
  8
SK2
  6
CONTINUOUS
370
25
 62
7
100
AcDbLine
 10
-43.94463741251866
 20
15.18667251749627
 30
0.0
 11
-43.47795611877797
 21
14.71999122375559
 31
0.0
  0
LINE
  5
7BF
330
1F
100
AcDbEntity
  8
SK2
  6
CONTINUOUS
370
25
 62
7
100
AcDbLine
 10
-43.59108402192538
 20
15.25738319561492
 30
0.0
 11
-42.94762603288807
 21
14.61392520657761
 31
0.0
  0
LINE
  5
7C0
330
1F
100
AcDbEntity
  8
SK2
  6
CONTINUOUS
370
25
 62
7
100
AcDbLine
 10
-43.23753063133211
 20
15.32809387373358
 30
0.0
 11
-42.41729594699814
 21
14.50785918939962
 31
0.0
  0
LINE
  5
7C1
330
1F
100
AcDbEntity
  8
SK2
  6
CONTINUOUS
370
25
 62
7
100
AcDbLine
 10
-42.88397724073883
 20
15.39880455185224
 30
0.0
 11
-41.88696586110823
 21
14.40179317222164
 31
0.0
  0
LINE
  5
7C2
330
1F
100
AcDbEntity
  8
SK2
  6
CONTINUOUS
370
25
 62
7
100
AcDbLine
 10
-42.53042385014555
 20
15.46951522997089
 30
0.0
 11
-41.35663577521832
 21
14.29572715504367
 31
0.0
  0
LINE
  5
7C3
330
1F
100
AcDbEntity
  8
SK2
  6
CONTINUOUS
370
25
 62
7
100
AcDbLine
 10
-42.17687045955227
 20
15.54022590808954
 30
0.0
 11
-40.82630568932841
 21
14.18966113786568
 31
0.0
  0
LINE
  5
7C4
330
1F
100
AcDbEntity
  8
SK2
  6
CONTINUOUS
370
25
 62
7
100
AcDbLine
 10
-41.823317068959
 20
15.6109365862082
 30
0.0
 11
-40.29597560343849
 21
14.0835951206877
 31
0.0
  0
LINE
  5
7C5
330
1F
100
AcDbEntity
  8
SK2
  6
CONTINUOUS
370
25
 62
7
100
AcDbLine
 10
-41.46976367836572
 20
15.68164726432686
 30
0.0
 11
-39.878
 21
14.08988358596114
 31
0.0
  0
LINE
  5
7C6
330
1F
100
AcDbEntity
  8
SK2
  6
CONTINUOUS
370
25
 62
7
100
AcDbLine
 10
-41.11621028777245
 20
15.75235794244552
 30
0.0
 11
-39.878
 21
14.51414765467307
 31
0.0
  0
LINE
  5
7C7
330
1F
100
AcDbEntity
  8
SK2
  6
CONTINUOUS
370
25
 62
7
100
AcDbLine
 10
-40.76265689717917
 20
15.82306862056417
 30
0.0
 11
-39.878
 21
14.938411723385
 31
0.0
  0
LINE
  5
7C8
330
1F
100
AcDbEntity
  8
SK2
  6
CONTINUOUS
370
25
 62
7
100
AcDbLine
 10
-40.40910350658589
 20
15.89377929868283
 30
0.0
 11
-39.878
 21
15.36267579209693
 31
0.0
  0
LINE
  5
7C9
330
1F
100
AcDbEntity
  8
SK2
  6
CONTINUOUS
370
25
 62
7
100
AcDbLine
 10
-40.05555011599262
 20
15.96448997680148
 30
0.0
 11
-39.878
 21
15.78693986080886
 31
0.0
  0
LINE
  5
7CA
330
1F
100
AcDbEntity
  8
SK2
  6
CONTINUOUS
370
25
 62
7
100
AcDbLine
 10
-0.01
 20
15.0
 30
0.0
 11
-5.01
 21
14.0
 31
0.0
  0
LINE
  5
7CB
330
1F
100
AcDbEntity
  8
SK2
  6
CONTINUOUS
370
25
 62
7
100
AcDbLine
 10
-5.01
 20
14.0
 30
0.0
 11
-5.01
 21
16.0
 31
0.0
  0
LINE
  5
7CC
330
1F
100
AcDbEntity
  8
SK2
  6
CONTINUOUS
370
25
 62
7
100
AcDbLine
 10
-5.01
 20
16.0
 30
0.0
 11
-0.01
 21
15.0
 31
0.0
  0
LINE
  5
7CD
330
1F
100
AcDbEntity
  8
SK2
  6
CONTINUOUS
370
25
 62
7
100
AcDbLine
 10
-0.351883092036781
 20
14.93162338159264
 30
0.0
 11
-0.237922061357854
 21
15.04558441227157
 31
0.0
  0
LINE
  5
7CE
330
1F
100
AcDbEntity
  8
SK2
  6
CONTINUOUS
370
25
 62
7
100
AcDbLine
 10
-0.8822131779266906
 20
14.82555736441466
 30
0.0
 11
-0.5914754519511272
 21
15.11629509039023
 31
0.0
  0
LINE
  5
7CF
330
1F
100
AcDbEntity
  8
SK2
  6
CONTINUOUS
370
25
 62
7
100
AcDbLine
 10
-1.4125432638166
 20
14.71949134723668
 30
0.0
 11
-0.9450288425444002
 21
15.18700576850888
 31
0.0
  0
LINE
  5
7D0
330
1F
100
AcDbEntity
  8
SK2
  6
CONTINUOUS
370
25
 62
7
100
AcDbLine
 10
-1.94287334970651
 20
14.6134253300587
 30
0.0
 11
-1.298582233137673
 21
15.25771644662754
 31
0.0
  0
LINE
  5
7D1
330
1F
100
AcDbEntity
  8
SK2
  6
CONTINUOUS
370
25
 62
7
100
AcDbLine
 10
-2.473203435596419
 20
14.50735931288072
 30
0.0
 11
-1.652135623730946
 21
15.32842712474619
 31
0.0
  0
LINE
  5
7D2
330
1F
100
AcDbEntity
  8
SK2
  6
CONTINUOUS
370
25
 62
7
100
AcDbLine
 10
-3.003533521486328
 20
14.40129329570273
 30
0.0
 11
-2.005689014324219
 21
15.39913780286484
 31
0.0
  0
LINE
  5
7D3
330
1F
100
AcDbEntity
  8
SK2
  6
CONTINUOUS
370
25
 62
7
100
AcDbLine
 10
-3.533863607376237
 20
14.29522727852475
 30
0.0
 11
-2.359242404917492
 21
15.4698484809835
 31
0.0
  0
LINE
  5
7D4
330
1F
100
AcDbEntity
  8
SK2
  6
CONTINUOUS
370
25
 62
7
100
AcDbLine
 10
-4.064193693266146
 20
14.18916126134677
 30
0.0
 11
-2.712795795510765
 21
15.54055915910215
 31
0.0
  0
LINE
  5
7D5
330
1F
100
AcDbEntity
  8
SK2
  6
CONTINUOUS
370
25
 62
7
100
AcDbLine
 10
-4.594523779156059
 20
14.08309524416879
 30
0.0
 11
-3.06634918610404
 21
15.61126983722081
 31
0.0
  0
LINE
  5
7D6
330
1F
100
AcDbEntity
  8
SK2
  6
CONTINUOUS
370
25
 62
7
100
AcDbLine
 10
-5.01
 20
14.09188309203678
 30
0.0
 11
-3.419902576697313
 21
15.68198051533946
 31
0.0
  0
LINE
  5
7D7
330
1F
100
AcDbEntity
  8
SK2
  6
CONTINUOUS
370
25
 62
7
100
AcDbLine
 10
-5.01
 20
14.5161471607487
 30
0.0
 11
-3.773455967290586
 21
15.75269119345812
 31
0.0
  0
LINE
  5
7D8
330
1F
100
AcDbEntity
  8
SK2
  6
CONTINUOUS
370
25
 62
7
100
AcDbLine
 10
-5.01
 20
14.94041122946063
 30
0.0
 11
-4.127009357883859
 21
15.82340187157677
 31
0.0
  0
LINE
  5
7D9
330
1F
100
AcDbEntity
  8
SK2
  6
CONTINUOUS
370
25
 62
7
100
AcDbLine
 10
-5.01
 20
15.36467529817256
 30
0.0
 11
-4.480562748477132
 21
15.89411254969543
 31
0.0
  0
LINE
  5
7DA
330
1F
100
AcDbEntity
  8
SK2
  6
CONTINUOUS
370
25
 62
7
100
AcDbLine
 10
-5.01
 20
15.78893936688449
 30
0.0
 11
-4.834116139070405
 21
15.96482322781408
 31
0.0
  0
LINE
  5
7DB
330
1F
100
AcDbEntity
  8
SK2
  6
CONTINUOUS
370
25
 62
7
100
AcDbLine
 10
-5.01
 20
14.3338095116624
 30
0.0
 11
-4.731825406947999
 21
14.0556349186104
 31
0.0
  0
LINE
  5
7DC
330
1F
100
AcDbEntity
  8
SK2
  6
CONTINUOUS
370
25
 62
7
100
AcDbLine
 10
-5.01
 20
14.75807358037433
 30
0.0
 11
-4.378272016354726
 21
14.12634559672905
 31
0.0
  0
LINE
  5
7DD
330
1F
100
AcDbEntity
  8
SK2
  6
CONTINUOUS
370
25
 62
7
100
AcDbLine
 10
-5.01
 20
15.18233764908625
 30
0.0
 11
-4.024718625761453
 21
14.19705627484771
 31
0.0
  0
LINE
  5
7DE
330
1F
100
AcDbEntity
  8
SK2
  6
CONTINUOUS
370
25
 62
7
100
AcDbLine
 10
-5.01
 20
15.60660171779818
 30
0.0
 11
-3.671165235168179
 21
14.26776695296637
 31
0.0
  0
LINE
  5
7DF
330
1F
100
AcDbEntity
  8
SK2
  6
CONTINUOUS
370
25
 62
7
100
AcDbLine
 10
-4.971417766862361
 20
15.99228355337247
 30
0.0
 11
-3.317611844574905
 21
14.33847763108502
 31
0.0
  0
LINE
  5
7E0
330
1F
100
AcDbEntity
  8
SK2
  6
CONTINUOUS
370
25
 62
7
100
AcDbLine
 10
-4.44108768097245
 20
15.88621753619449
 30
0.0
 11
-2.964058453981631
 21
14.40918830920367
 31
0.0
  0
LINE
  5
7E1
330
1F
100
AcDbEntity
  8
SK2
  6
CONTINUOUS
370
25
 62
7
100
AcDbLine
 10
-3.91075759508254
 20
15.78015151901651
 30
0.0
 11
-2.610505063388358
 21
14.47989898732233
 31
0.0
  0
LINE
  5
7E2
330
1F
100
AcDbEntity
  8
SK2
  6
CONTINUOUS
370
25
 62
7
100
AcDbLine
 10
-3.380427509192631
 20
15.67408550183853
 30
0.0
 11
-2.256951672795086
 21
14.55060966544098
 31
0.0
  0
LINE
  5
7E3
330
1F
100
AcDbEntity
  8
SK2
  6
CONTINUOUS
370
25
 62
7
100
AcDbLine
 10
-2.85009742330272
 20
15.56801948466054
 30
0.0
 11
-1.903398282201813
 21
14.62132034355964
 31
0.0
  0
LINE
  5
7E4
330
1F
100
AcDbEntity
  8
SK2
  6
CONTINUOUS
370
25
 62
7
100
AcDbLine
 10
-2.319767337412809
 20
15.46195346748256
 30
0.0
 11
-1.549844891608539
 21
14.69203102167829
 31
0.0
  0
LINE
  5
7E5
330
1F
100
AcDbEntity
  8
SK2
  6
CONTINUOUS
370
25
 62
7
100
AcDbLine
 10
-1.7894372515229
 20
15.35588745030458
 30
0.0
 11
-1.196291501015265
 21
14.76274169979695
 31
0.0
  0
LINE
  5
7E6
330
1F
100
AcDbEntity
  8
SK2
  6
CONTINUOUS
370
25
 62
7
100
AcDbLine
 10
-1.259107165632989
 20
15.2498214331266
 30
0.0
 11
-0.8427381104219916
 21
14.8334523779156
 31
0.0
  0
LINE
  5
7E7
330
1F
100
AcDbEntity
  8
SK2
  6
CONTINUOUS
370
25
 62
7
100
AcDbLine
 10
-0.7287770797430799
 20
15.14375541594862
 30
0.0
 11
-0.4891847198287195
 21
14.90416305603426
 31
0.0
  0
LINE
  5
7E8
330
1F
100
AcDbEntity
  8
SK2
  6
CONTINUOUS
370
25
 62
7
100
AcDbLine
 10
-0.1984469938531668
 20
15.03768939877063
 30
0.0
 11
-0.1356313292354444
 21
14.97487373415291
 31
0.0
  0
TEXT
  5
7E9
330
1F
100
AcDbEntity
  8
SK2
  6
CONTINUOUS
370
25
 62
7
100
AcDbText
 10
-31.194
 20
16.5
 30
0.0
 40
3.5
  1
44.868
 72
     1
 11
-22.444
 21
16.5
 31
0.0
100
AcDbText
  0
LINE
  5
7EA
330
1F
100
AcDbEntity
  8
2
  6
CONTINUOUS
370
25
 62
7
100
AcDbLine
 10
12.122
 20
-2.0
 30
0.0
 11
47.972
 21
-2.000000000000004
 31
0.0
  0
LINE
  5
7EB
330
1F
100
AcDbEntity
  8
2
  6
CONTINUOUS
370
25
 62
7
100
AcDbLine
 10
47.972
 20
1.999999999999995
 30
0.0
 11
12.122
 21
2.0
 31
0.0
  0
LINE
  5
7EC
330
1F
100
AcDbEntity
  8
2
  6
CONTINUOUS
370
25
 62
7
100
AcDbLine
 10
46.972
 20
-9.000000000000004
 30
0.0
 11
46.972
 21
15.475
 31
0.0
  0
LINE
  5
7ED
330
1F
100
AcDbEntity
  8
2
  6
CONTINUOUS
370
25
 62
7
100
AcDbLine
 10
46.972
 20
-2.000000000000004
 30
0.0
 11
47.972
 21
-7.000000000000004
 31
0.0
  0
LINE
  5
7EE
330
1F
100
AcDbEntity
  8
2
  6
CONTINUOUS
370
25
 62
7
100
AcDbLine
 10
47.972
 20
-7.000000000000004
 30
0.0
 11
45.972
 21
-7.000000000000004
 31
0.0
  0
LINE
  5
7EF
330
1F
100
AcDbEntity
  8
2
  6
CONTINUOUS
370
25
 62
7
100
AcDbLine
 10
45.972
 20
-7.000000000000004
 30
0.0
 11
46.972
 21
-2.000000000000004
 31
0.0
  0
LINE
  5
7F0
330
1F
100
AcDbEntity
  8
2
  6
CONTINUOUS
370
25
 62
7
100
AcDbLine
 10
47.90423332200217
 20
-7.000000000000007
 30
0.0
 11
47.96070555366704
 21
-6.943527768335137
 31
0.0
  0
LINE
  5
7F1
330
1F
100
AcDbEntity
  8
2
  6
CONTINUOUS
370
25
 62
7
100
AcDbLine
 10
47.47996925329024
 20
-7.000000000000007
 30
0.0
 11
47.88999487554837
 21
-6.589974377741875
 31
0.0
  0
LINE
  5
7F2
330
1F
100
AcDbEntity
  8
2
  6
CONTINUOUS
370
25
 62
7
100
AcDbLine
 10
47.05570518457831
 20
-7.000000000000007
 30
0.0
 11
47.81928419742972
 21
-6.236420987148591
 31
0.0
  0
LINE
  5
7F3
330
1F
100
AcDbEntity
  8
2
  6
CONTINUOUS
370
25
 62
7
100
AcDbLine
 10
46.63144111586637
 20
-7.000000000000007
 30
0.0
 11
47.74857351931107
 21
-5.882867596555315
 31
0.0
  0
LINE
  5
7F4
330
1F
100
AcDbEntity
  8
2
  6
CONTINUOUS
370
25
 62
7
100
AcDbLine
 10
46.20717704715445
 20
-7.000000000000007
 30
0.0
 11
47.67786284119241
 21
-5.529314205962045
 31
0.0
  0
LINE
  5
7F5
330
1F
100
AcDbEntity
  8
2
  6
CONTINUOUS
370
25
 62
7
100
AcDbLine
 10
46.01927175538937
 20
-6.763641223053149
 30
0.0
 11
47.60715216307376
 21
-5.175760815368761
 31
0.0
  0
LINE
  5
7F6
330
1F
100
AcDbEntity
  8
2
  6
CONTINUOUS
370
25
 62
7
100
AcDbLine
 10
46.12533777256736
 20
-6.233311137163234
 30
0.0
 11
47.5364414849551
 21
-4.822207424775492
 31
0.0
  0
LINE
  5
7F7
330
1F
100
AcDbEntity
  8
2
  6
CONTINUOUS
370
25
 62
7
100
AcDbLine
 10
46.23140378974534
 20
-5.702981051273326
 30
0.0
 11
47.46573080683645
 21
-4.468654034182215
 31
0.0
  0
LINE
  5
7F8
330
1F
100
AcDbEntity
  8
2
  6
CONTINUOUS
370
25
 62
7
100
AcDbLine
 10
46.33746980692332
 20
-5.172650965383404
 30
0.0
 11
47.39502012871778
 21
-4.115100643588946
 31
0.0
  0
LINE
  5
7F9
330
1F
100
AcDbEntity
  8
2
  6
CONTINUOUS
370
25
 62
7
100
AcDbLine
 10
46.4435358241013
 20
-4.642320879493489
 30
0.0
 11
47.32430945059913
 21
-3.761547252995662
 31
0.0
  0
LINE
  5
7FA
330
1F
100
AcDbEntity
  8
2
  6
CONTINUOUS
370
25
 62
7
100
AcDbLine
 10
46.54960184127928
 20
-4.111990793603582
 30
0.0
 11
47.25359877248048
 21
-3.407993862402385
 31
0.0
  0
LINE
  5
7FB
330
1F
100
AcDbEntity
  8
2
  6
CONTINUOUS
370
25
 62
7
100
AcDbLine
 10
46.65566785845726
 20
-3.581660707713674
 30
0.0
 11
47.18288809436182
 21
-3.054440471809116
 31
0.0
  0
LINE
  5
7FC
330
1F
100
AcDbEntity
  8
2
  6
CONTINUOUS
370
25
 62
7
100
AcDbLine
 10
46.76173387563525
 20
-3.051330621823745
 30
0.0
 11
47.11217741624317
 21
-2.700887081215825
 31
0.0
  0
LINE
  5
7FD
330
1F
100
AcDbEntity
  8
2
  6
CONTINUOUS
370
25
 62
7
100
AcDbLine
 10
46.86779989281323
 20
-2.521000535933837
 30
0.0
 11
47.04146673812451
 21
-2.347333690622563
 31
0.0
  0
LINE
  5
7FE
330
1F
100
AcDbEntity
  8
2
  6
CONTINUOUS
370
25
 62
7
100
AcDbLine
 10
45.98038238691623
 20
-6.958088065418835
 30
0.0
 11
46.02229432149741
 21
-7.000000000000007
 31
0.0
  0
LINE
  5
7FF
330
1F
100
AcDbEntity
  8
2
  6
CONTINUOUS
370
25
 62
7
100
AcDbLine
 10
46.05109306503488
 20
-6.604534674825551
 30
0.0
 11
46.44655839020935
 21
-7.000000000000007
 31
0.0
  0
LINE
  5
800
330
1F
100
AcDbEntity
  8
2
  6
CONTINUOUS
370
25
 62
7
100
AcDbLine
 10
46.12180374315355
 20
-6.250981284232282
 30
0.0
 11
46.87082245892128
 21
-7.000000000000007
 31
0.0
  0
LINE
  5
801
330
1F
100
AcDbEntity
  8
2
  6
CONTINUOUS
370
25
 62
7
100
AcDbLine
 10
46.1925144212722
 20
-5.897427893639005
 30
0.0
 11
47.2950865276332
 21
-7.000000000000007
 31
0.0
  0
LINE
  5
802
330
1F
100
AcDbEntity
  8
2
  6
CONTINUOUS
370
25
 62
7
100
AcDbLine
 10
46.26322509939086
 20
-5.543874503045728
 30
0.0
 11
47.71935059634514
 21
-7.000000000000007
 31
0.0
  0
LINE
  5
803
330
1F
100
AcDbEntity
  8
2
  6
CONTINUOUS
370
25
 62
7
100
AcDbLine
 10
46.33393577750951
 20
-5.190321112452452
 30
0.0
 11
47.92909633373574
 21
-6.785481668678685
 31
0.0
  0
LINE
  5
804
330
1F
100
AcDbEntity
  8
2
  6
CONTINUOUS
370
25
 62
7
100
AcDbLine
 10
46.40464645562817
 20
-4.836767721859182
 30
0.0
 11
47.82303031655776
 21
-6.255151582788763
 31
0.0
  0
LINE
  5
805
330
1F
100
AcDbEntity
  8
2
  6
CONTINUOUS
370
25
 62
7
100
AcDbLine
 10
46.47535713374683
 20
-4.483214331265899
 30
0.0
 11
47.71696429937977
 21
-5.724821496898841
 31
0.0
  0
LINE
  5
806
330
1F
100
AcDbEntity
  8
2
  6
CONTINUOUS
370
25
 62
7
100
AcDbLine
 10
46.54606781186548
 20
-4.129660940672615
 30
0.0
 11
47.61089828220179
 21
-5.194491411008926
 31
0.0
  0
LINE
  5
807
330
1F
100
AcDbEntity
  8
2
  6
CONTINUOUS
370
25
 62
7
100
AcDbLine
 10
46.61677848998414
 20
-3.776107550079338
 30
0.0
 11
47.5048322650238
 21
-4.664161325119004
 31
0.0
  0
LINE
  5
808
330
1F
100
AcDbEntity
  8
2
  6
CONTINUOUS
370
25
 62
7
100
AcDbLine
 10
46.68748916810279
 20
-3.422554159486069
 30
0.0
 11
47.39876624784583
 21
-4.13383123922911
 31
0.0
  0
LINE
  5
809
330
1F
100
AcDbEntity
  8
2
  6
CONTINUOUS
370
25
 62
7
100
AcDbLine
 10
46.75819984622144
 20
-3.069000768892792
 30
0.0
 11
47.29270023066784
 21
-3.603501153339188
 31
0.0
  0
LINE
  5
80A
330
1F
100
AcDbEntity
  8
2
  6
CONTINUOUS
370
25
 62
7
100
AcDbLine
 10
46.8289105243401
 20
-2.715447378299515
 30
0.0
 11
47.18663421348986
 21
-3.07317106744928
 31
0.0
  0
LINE
  5
80B
330
1F
100
AcDbEntity
  8
2
  6
CONTINUOUS
370
25
 62
7
100
AcDbLine
 10
46.89962120245875
 20
-2.361893987706232
 30
0.0
 11
47.08056819631187
 21
-2.542840981559358
 31
0.0
  0
LINE
  5
80C
330
1F
100
AcDbEntity
  8
2
  6
CONTINUOUS
370
25
 62
7
100
AcDbLine
 10
46.9703318805774
 20
-2.008340597112962
 30
0.0
 11
46.97450217913389
 21
-2.01251089566945
 31
0.0
  0
LINE
  5
80D
330
1F
100
AcDbEntity
  8
2
  6
CONTINUOUS
370
25
 62
7
100
AcDbLine
 10
46.972
 20
1.999999999999996
 30
0.0
 11
45.972
 21
6.999999999999996
 31
0.0
  0
LINE
  5
80E
330
1F
100
AcDbEntity
  8
2
  6
CONTINUOUS
370
25
 62
7
100
AcDbLine
 10
45.972
 20
6.999999999999996
 30
0.0
 11
47.972
 21
6.999999999999996
 31
0.0
  0
LINE
  5
80F
330
1F
100
AcDbEntity
  8
2
  6
CONTINUOUS
370
25
 62
7
100
AcDbLine
 10
47.972
 20
6.999999999999996
 30
0.0
 11
46.972
 21
1.999999999999996
 31
0.0
  0
LINE
  5
810
330
1F
100
AcDbEntity
  8
2
  6
CONTINUOUS
370
25
 62
7
100
AcDbLine
 10
46.97087510458813
 20
2.005624477059342
 30
0.0
 11
46.9736873431178
 21
2.008436715589013
 31
0.0
  0
LINE
  5
811
330
1F
100
AcDbEntity
  8
2
  6
CONTINUOUS
370
25
 62
7
100
AcDbLine
 10
46.90016442646947
 20
2.359177867652612
 30
0.0
 11
47.07975336029579
 21
2.538766801478928
 31
0.0
  0
LINE
  5
812
330
1F
100
AcDbEntity
  8
2
  6
CONTINUOUS
370
25
 62
7
100
AcDbLine
 10
46.82945374835082
 20
2.712731258245896
 30
0.0
 11
47.18581937747377
 21
3.069096887368843
 31
0.0
  0
LINE
  5
813
330
1F
100
AcDbEntity
  8
2
  6
CONTINUOUS
370
25
 62
7
100
AcDbLine
 10
46.75874307023217
 20
3.066284648839172
 30
0.0
 11
47.29188539465175
 21
3.599426973258751
 31
0.0
  0
LINE
  5
814
330
1F
100
AcDbEntity
  8
2
  6
CONTINUOUS
370
25
 62
7
100
AcDbLine
 10
46.68803239211351
 20
3.419838039432442
 30
0.0
 11
47.39795141182974
 21
4.129757059148673
 31
0.0
  0
LINE
  5
815
330
1F
100
AcDbEntity
  8
2
  6
CONTINUOUS
370
25
 62
7
100
AcDbLine
 10
46.61732171399485
 20
3.773391430025718
 30
0.0
 11
47.50401742900772
 21
4.660087145038588
 31
0.0
  0
LINE
  5
816
330
1F
100
AcDbEntity
  8
2
  6
CONTINUOUS
370
25
 62
7
100
AcDbLine
 10
46.5466110358762
 20
4.126944820618995
 30
0.0
 11
47.6100834461857
 21
5.190417230928503
 31
0.0
  0
LINE
  5
817
330
1F
100
AcDbEntity
  8
2
  6
CONTINUOUS
370
25
 62
7
100
AcDbLine
 10
46.47590035775755
 20
4.480498211212279
 30
0.0
 11
47.71614946336368
 21
5.720747316818418
 31
0.0
  0
LINE
  5
818
330
1F
100
AcDbEntity
  8
2
  6
CONTINUOUS
370
25
 62
7
100
AcDbLine
 10
46.40518967963889
 20
4.834051601805555
 30
0.0
 11
47.82221548054167
 21
6.251077402708333
 31
0.0
  0
LINE
  5
819
330
1F
100
AcDbEntity
  8
2
  6
CONTINUOUS
370
25
 62
7
100
AcDbLine
 10
46.33447900152024
 20
5.187604992398825
 30
0.0
 11
47.92828149771965
 21
6.781407488598241
 31
0.0
  0
LINE
  5
81A
330
1F
100
AcDbEntity
  8
2
  6
CONTINUOUS
370
25
 62
7
100
AcDbLine
 10
46.26376832340159
 20
5.541158382992101
 30
0.0
 11
47.72260994040948
 21
6.999999999999993
 31
0.0
  0
LINE
  5
81B
330
1F
100
AcDbEntity
  8
2
  6
CONTINUOUS
370
25
 62
7
100
AcDbLine
 10
46.19305764528293
 20
5.894711773585378
 30
0.0
 11
47.29834587169754
 21
6.999999999999993
 31
0.0
  0
LINE
  5
81C
330
1F
100
AcDbEntity
  8
2
  6
CONTINUOUS
370
25
 62
7
100
AcDbLine
 10
46.12234696716428
 20
6.248265164178655
 30
0.0
 11
46.87408180298561
 21
6.999999999999993
 31
0.0
  0
LINE
  5
81D
330
1F
100
AcDbEntity
  8
2
  6
CONTINUOUS
370
25
 62
7
100
AcDbLine
 10
46.05163628904561
 20
6.601818554771924
 30
0.0
 11
46.44981773427368
 21
6.999999999999993
 31
0.0
  0
LINE
  5
81E
330
1F
100
AcDbEntity
  8
2
  6
CONTINUOUS
370
25
 62
7
100
AcDbLine
 10
45.98092561092696
 20
6.955371945365201
 30
0.0
 11
46.02555366556175
 21
6.999999999999993
 31
0.0
  0
LINE
  5
81F
330
1F
100
AcDbEntity
  8
2
  6
CONTINUOUS
370
25
 62
7
100
AcDbLine
 10
46.91384200735408
 20
2.290789963229635
 30
0.0
 11
47.01077199509729
 21
2.193859975486426
 31
0.0
  0
LINE
  5
820
330
1F
100
AcDbEntity
  8
2
  6
CONTINUOUS
370
25
 62
7
100
AcDbLine
 10
46.8077759901761
 20
2.821120049119543
 30
0.0
 11
47.08148267321594
 21
2.547413366079702
 31
0.0
  0
LINE
  5
821
330
1F
100
AcDbEntity
  8
2
  6
CONTINUOUS
370
25
 62
7
100
AcDbLine
 10
46.70170997299812
 20
3.351450135009458
 30
0.0
 11
47.1521933513346
 21
2.900966756672979
 31
0.0
  0
LINE
  5
822
330
1F
100
AcDbEntity
  8
2
  6
CONTINUOUS
370
25
 62
7
100
AcDbLine
 10
46.59564395582014
 20
3.881780220899358
 30
0.0
 11
47.22290402945325
 21
3.254520147266248
 31
0.0
  0
LINE
  5
823
330
1F
100
AcDbEntity
  8
2
  6
CONTINUOUS
370
25
 62
7
100
AcDbLine
 10
46.48957793864215
 20
4.41211030678928
 30
0.0
 11
47.2936147075719
 21
3.608073537859532
 31
0.0
  0
LINE
  5
824
330
1F
100
AcDbEntity
  8
2
  6
CONTINUOUS
370
25
 62
7
100
AcDbLine
 10
46.38351192146417
 20
4.942440392679188
 30
0.0
 11
47.36432538569056
 21
3.961626928452795
 31
0.0
  0
LINE
  5
825
330
1F
100
AcDbEntity
  8
2
  6
CONTINUOUS
370
25
 62
7
100
AcDbLine
 10
46.27744590428617
 20
5.472770478569132
 30
0.0
 11
47.43503606380922
 21
4.315180319046078
 31
0.0
  0
LINE
  5
826
330
1F
100
AcDbEntity
  8
2
  6
CONTINUOUS
370
25
 62
7
100
AcDbLine
 10
46.17137988710819
 20
6.003100564459039
 30
0.0
 11
47.50574674192788
 21
4.668733709639348
 31
0.0
  0
LINE
  5
827
330
1F
100
AcDbEntity
  8
2
  6
CONTINUOUS
370
25
 62
7
100
AcDbLine
 10
46.06531386993021
 20
6.533430650348954
 30
0.0
 11
47.57645742004653
 21
5.022287100232631
 31
0.0
  0
LINE
  5
828
330
1F
100
AcDbEntity
  8
2
  6
CONTINUOUS
370
25
 62
7
100
AcDbLine
 10
46.0230085889911
 20
6.999999999999993
 30
0.0
 11
47.64716809816518
 21
5.375840490825908
 31
0.0
  0
LINE
  5
829
330
1F
100
AcDbEntity
  8
2
  6
CONTINUOUS
370
25
 62
7
100
AcDbLine
 10
46.44727265770303
 20
6.999999999999993
 30
0.0
 11
47.71787877628384
 21
5.729393881419185
 31
0.0
  0
LINE
  5
82A
330
1F
100
AcDbEntity
  8
2
  6
CONTINUOUS
370
25
 62
7
100
AcDbLine
 10
46.87153672641495
 20
6.999999999999993
 30
0.0
 11
47.78858945440249
 21
6.082947272012454
 31
0.0
  0
LINE
  5
82B
330
1F
100
AcDbEntity
  8
2
  6
CONTINUOUS
370
25
 62
7
100
AcDbLine
 10
47.29580079512689
 20
6.999999999999993
 30
0.0
 11
47.85930013252116
 21
6.436500662605724
 31
0.0
  0
LINE
  5
82C
330
1F
100
AcDbEntity
  8
2
  6
CONTINUOUS
370
25
 62
7
100
AcDbLine
 10
47.72006486383881
 20
6.999999999999993
 30
0.0
 11
47.93001081063981
 21
6.790054053199
 31
0.0
  0
TEXT
  5
82D
330
1F
100
AcDbEntity
  8
2
  6
CONTINUOUS
370
25
 62
7
100
AcDbText
 10
45.472
 20
12.34583333333333
 30
0.0
 40
3.5
  1
4
 50
90.00000000000001
 72
     1
 11
45.472
 21
13.5125
 31
0.0
100
AcDbText
  0
CIRCLE
  5
82E
330
1F
100
AcDbEntity
  8
2
  6
CONTINUOUS
370
25
 62
7
100
AcDbCircle
 10
43.722
 20
10.1875
 30
0.0
 40
1.4
  0
LINE
  5
82F
330
1F
100
AcDbEntity
  8
2
  6
CONTINUOUS
370
25
 62
7
100
AcDbLine
 10
45.122
 20
8.787499999999998
 30
0.0
 11
42.322
 21
11.5875
 31
0.0
  0
LINE
  5
830
330
1F
100
AcDbEntity
  8
2
  6
CONTINUOUS
370
25
 62
7
100
AcDbLine
 10
6.122
 20
-2.0
 30
0.0
 11
6.121999999999999
 21
-15.0
 31
0.0
  0
LINE
  5
831
330
1F
100
AcDbEntity
  8
2
  6
CONTINUOUS
370
25
 62
7
100
AcDbLine
 10
12.122
 20
-15.0
 30
0.0
 11
12.122
 21
-2.0
 31
0.0
  0
LINE
  5
832
330
1F
100
AcDbEntity
  8
2
  6
CONTINUOUS
370
25
 62
7
100
AcDbLine
 10
-0.8780000000000012
 20
-14.0
 30
0.0
 11
19.122
 21
-14.0
 31
0.0
  0
LINE
  5
833
330
1F
100
AcDbEntity
  8
2
  6
CONTINUOUS
370
25
 62
7
100
AcDbLine
 10
6.121999999999999
 20
-14.0
 30
0.0
 11
1.121999999999999
 21
-15.0
 31
0.0
  0
LINE
  5
834
330
1F
100
AcDbEntity
  8
2
  6
CONTINUOUS
370
25
 62
7
100
AcDbLine
 10
1.121999999999999
 20
-15.0
 30
0.0
 11
1.121999999999999
 21
-13.0
 31
0.0
  0
LINE
  5
835
330
1F
100
AcDbEntity
  8
2
  6
CONTINUOUS
370
25
 62
7
100
AcDbLine
 10
1.121999999999999
 20
-13.0
 30
0.0
 11
6.121999999999999
 21
-14.0
 31
0.0
  0
LINE
  5
836
330
1F
100
AcDbEntity
  8
2
  6
CONTINUOUS
370
25
 62
7
100
AcDbLine
 10
5.810208266025765
 20
-14.06235834679485
 30
0.0
 11
5.914138844017177
 21
-13.95842776880344
 31
0.0
  0
LINE
  5
837
330
1F
100
AcDbEntity
  8
2
  6
CONTINUOUS
370
25
 62
7
100
AcDbLine
 10
5.279878180135856
 20
-14.16842436397283
 30
0.0
 11
5.560585453423904
 21
-13.88771709068478
 31
0.0
  0
LINE
  5
838
330
1F
100
AcDbEntity
  8
2
  6
CONTINUOUS
370
25
 62
7
100
AcDbLine
 10
4.749548094245946
 20
-14.27449038115081
 30
0.0
 11
5.207032062830631
 21
-13.81700641256613
 31
0.0
  0
LINE
  5
839
330
1F
100
AcDbEntity
  8
2
  6
CONTINUOUS
370
25
 62
7
100
AcDbLine
 10
4.219218008356037
 20
-14.38055639832879
 30
0.0
 11
4.853478672237358
 21
-13.74629573444747
 31
0.0
  0
LINE
  5
83A
330
1F
100
AcDbEntity
  8
2
  6
CONTINUOUS
370
25
 62
7
100
AcDbLine
 10
3.688887922466127
 20
-14.48662241550677
 30
0.0
 11
4.499925281644084
 21
-13.67558505632882
 31
0.0
  0
LINE
  5
83B
330
1F
100
AcDbEntity
  8
2
  6
CONTINUOUS
370
25
 62
7
100
AcDbLine
 10
3.158557836576218
 20
-14.59268843268476
 30
0.0
 11
4.146371891050811
 21
-13.60487437821016
 31
0.0
  0
LINE
  5
83C
330
1F
100
AcDbEntity
  8
2
  6
CONTINUOUS
370
25
 62
7
100
AcDbLine
 10
2.628227750686308
 20
-14.69875444986274
 30
0.0
 11
3.792818500457539
 21
-13.53416370009151
 31
0.0
  0
LINE
  5
83D
330
1F
100
AcDbEntity
  8
2
  6
CONTINUOUS
370
25
 62
7
100
AcDbLine
 10
2.097897664796394
 20
-14.80482046704072
 30
0.0
 11
3.439265109864263
 21
-13.46345302197285
 31
0.0
  0
LINE
  5
83E
330
1F
100
AcDbEntity
  8
2
  6
CONTINUOUS
370
25
 62
7
100
AcDbLine
 10
1.567567578906484
 20
-14.9108864842187
 30
0.0
 11
3.08571171927099
 21
-13.3927423438542
 31
0.0
  0
LINE
  5
83F
330
1F
100
AcDbEntity
  8
2
  6
CONTINUOUS
370
25
 62
7
100
AcDbLine
 10
1.121999999999999
 20
-14.93218999441326
 30
0.0
 11
2.732158328677717
 21
-13.32203166573554
 31
0.0
  0
LINE
  5
840
330
1F
100
AcDbEntity
  8
2
  6
CONTINUOUS
370
25
 62
7
100
AcDbLine
 10
1.121999999999999
 20
-14.50792592570133
 30
0.0
 11
2.378604938084443
 21
-13.25132098761689
 31
0.0
  0
LINE
  5
841
330
1F
100
AcDbEntity
  8
2
  6
CONTINUOUS
370
25
 62
7
100
AcDbLine
 10
1.121999999999999
 20
-14.0836618569894
 30
0.0
 11
2.02505154749117
 21
-13.18061030949823
 31
0.0
  0
LINE
  5
842
330
1F
100
AcDbEntity
  8
2
  6
CONTINUOUS
370
25
 62
7
100
AcDbLine
 10
1.121999999999999
 20
-13.65939778827748
 30
0.0
 11
1.671498156897897
 21
-13.10989963137958
 31
0.0
  0
LINE
  5
843
330
1F
100
AcDbEntity
  8
2
  6
CONTINUOUS
370
25
 62
7
100
AcDbLine
 10
1.121999999999999
 20
-13.23513371956555
 30
0.0
 11
1.317944766304624
 21
-13.03918895326093
 31
0.0
  0
LINE
  5
844
330
1F
100
AcDbEntity
  8
2
  6
CONTINUOUS
370
25
 62
7
100
AcDbLine
 10
1.121999999999999
 20
-14.97184798705922
 30
0.0
 11
1.145460010783987
 21
-14.9953079978432
 31
0.0
  0
LINE
  5
845
330
1F
100
AcDbEntity
  8
2
  6
CONTINUOUS
370
25
 62
7
100
AcDbLine
 10
1.121999999999999
 20
-14.54758391834729
 30
0.0
 11
1.49901340137726
 21
-14.92459731972455
 31
0.0
  0
LINE
  5
846
330
1F
100
AcDbEntity
  8
2
  6
CONTINUOUS
370
25
 62
7
100
AcDbLine
 10
1.121999999999999
 20
-14.12331984963536
 30
0.0
 11
1.852566791970533
 21
-14.85388664160589
 31
0.0
  0
LINE
  5
847
330
1F
100
AcDbEntity
  8
2
  6
CONTINUOUS
370
25
 62
7
100
AcDbLine
 10
1.121999999999999
 20
-13.69905578092343
 30
0.0
 11
2.206120182563808
 21
-14.78317596348724
 31
0.0
  0
LINE
  5
848
330
1F
100
AcDbEntity
  8
2
  6
CONTINUOUS
370
25
 62
7
100
AcDbLine
 10
1.121999999999999
 20
-13.2747917122115
 30
0.0
 11
2.559673573157081
 21
-14.71246528536858
 31
0.0
  0
LINE
  5
849
330
1F
100
AcDbEntity
  8
2
  6
CONTINUOUS
370
25
 62
7
100
AcDbLine
 10
1.30884044562553
 20
-13.03736808912511
 30
0.0
 11
2.913226963750355
 21
-14.64175460724993
 31
0.0
  0
LINE
  5
84A
330
1F
100
AcDbEntity
  8
2
  6
CONTINUOUS
370
25
 62
7
100
AcDbLine
 10
1.83917053151544
 20
-13.14343410630309
 30
0.0
 11
3.266780354343628
 21
-14.57104392913127
 31
0.0
  0
LINE
  5
84B
330
1F
100
AcDbEntity
  8
2
  6
CONTINUOUS
370
25
 62
7
100
AcDbLine
 10
2.369500617405351
 20
-13.24950012348107
 30
0.0
 11
3.620333744936901
 21
-14.50033325101262
 31
0.0
  0
LINE
  5
84C
330
1F
100
AcDbEntity
  8
2
  6
CONTINUOUS
370
25
 62
7
100
AcDbLine
 10
2.899830703295261
 20
-13.35556614065905
 30
0.0
 11
3.973887135530174
 21
-14.42962257289397
 31
0.0
  0
LINE
  5
84D
330
1F
100
AcDbEntity
  8
2
  6
CONTINUOUS
370
25
 62
7
100
AcDbLine
 10
3.430160789185171
 20
-13.46163215783703
 30
0.0
 11
4.327440526123447
 21
-14.35891189477531
 31
0.0
  0
LINE
  5
84E
330
1F
100
AcDbEntity
  8
2
  6
CONTINUOUS
370
25
 62
7
100
AcDbLine
 10
3.960490875075081
 20
-13.56769817501502
 30
0.0
 11
4.68099391671672
 21
-14.28820121665666
 31
0.0
  0
LINE
  5
84F
330
1F
100
AcDbEntity
  8
2
  6
CONTINUOUS
370
25
 62
7
100
AcDbLine
 10
4.49082096096499
 20
-13.673764192193
 30
0.0
 11
5.034547307309993
 21
-14.217490538538
 31
0.0
  0
LINE
  5
850
330
1F
100
AcDbEntity
  8
2
  6
CONTINUOUS
370
25
 62
7
100
AcDbLine
 10
5.0211510468549
 20
-13.77983020937098
 30
0.0
 11
5.388100697903266
 21
-14.14677986041935
 31
0.0
  0
LINE
  5
851
330
1F
100
AcDbEntity
  8
2
  6
CONTINUOUS
370
25
 62
7
100
AcDbLine
 10
5.55148113274481
 20
-13.88589622654896
 30
0.0
 11
5.741654088496539
 21
-14.07606918230069
 31
0.0
  0
LINE
  5
852
330
1F
100
AcDbEntity
  8
2
  6
CONTINUOUS
370
25
 62
7
100
AcDbLine
 10
6.08181121863472
 20
-13.99196224372695
 30
0.0
 11
6.095207479089813
 21
-14.00535850418204
 31
0.0
  0
LINE
  5
853
330
1F
100
AcDbEntity
  8
2
  6
CONTINUOUS
370
25
 62
7
100
AcDbLine
 10
12.122
 20
-14.0
 30
0.0
 11
17.122
 21
-13.0
 31
0.0
  0
LINE
  5
854
330
1F
100
AcDbEntity
  8
2
  6
CONTINUOUS
370
25
 62
7
100
AcDbLine
 10
17.122
 20
-13.0
 30
0.0
 11
17.122
 21
-15.0
 31
0.0
  0
LINE
  5
855
330
1F
100
AcDbEntity
  8
2
  6
CONTINUOUS
370
25
 62
7
100
AcDbLine
 10
17.122
 20
-15.0
 30
0.0
 11
12.122
 21
-14.0
 31
0.0
  0
LINE
  5
856
330
1F
100
AcDbEntity
  8
2
  6
CONTINUOUS
370
25
 62
7
100
AcDbLine
 10
17.11574419370522
 20
-14.99874883874104
 30
0.0
 11
17.122
 21
-14.99249303244627
 31
0.0
  0
LINE
  5
857
330
1F
100
AcDbEntity
  8
2
  6
CONTINUOUS
370
25
 62
7
100
AcDbLine
 10
16.76219080311195
 20
-14.92803816062239
 30
0.0
 11
17.122
 21
-14.56822896373434
 31
0.0
  0
LINE
  5
858
330
1F
100
AcDbEntity
  8
2
  6
CONTINUOUS
370
25
 62
7
100
AcDbLine
 10
16.40863741251867
 20
-14.85732748250373
 30
0.0
 11
17.122
 21
-14.14396489502241
 31
0.0
  0
LINE
  5
859
330
1F
100
AcDbEntity
  8
2
  6
CONTINUOUS
370
25
 62
7
100
AcDbLine
 10
16.0550840219254
 20
-14.78661680438508
 30
0.0
 11
17.122
 21
-13.71970082631048
 31
0.0
  0
LINE
  5
85A
330
1F
100
AcDbEntity
  8
2
  6
CONTINUOUS
370
25
 62
7
100
AcDbLine
 10
15.70153063133213
 20
-14.71590612626642
 30
0.0
 11
17.122
 21
-13.29543675759856
 31
0.0
  0
LINE
  5
85B
330
1F
100
AcDbEntity
  8
2
  6
CONTINUOUS
370
25
 62
7
100
AcDbLine
 10
15.34797724073886
 20
-14.64519544814777
 30
0.0
 11
16.96096586110828
 21
-13.03220682777835
 31
0.0
  0
LINE
  5
85C
330
1F
100
AcDbEntity
  8
2
  6
CONTINUOUS
370
25
 62
7
100
AcDbLine
 10
14.99442385014558
 20
-14.57448477002911
 30
0.0
 11
16.43063577521837
 21
-13.13827284495633
 31
0.0
  0
LINE
  5
85D
330
1F
100
AcDbEntity
  8
2
  6
CONTINUOUS
370
25
 62
7
100
AcDbLine
 10
14.64087045955231
 20
-14.50377409191046
 30
0.0
 11
15.90030568932846
 21
-13.24433886213431
 31
0.0
  0
LINE
  5
85E
330
1F
100
AcDbEntity
  8
2
  6
CONTINUOUS
370
25
 62
7
100
AcDbLine
 10
14.28731706895904
 20
-14.43306341379181
 30
0.0
 11
15.36997560343855
 21
-13.35040487931229
 31
0.0
  0
LINE
  5
85F
330
1F
100
AcDbEntity
  8
2
  6
CONTINUOUS
370
25
 62
7
100
AcDbLine
 10
13.93376367836576
 20
-14.36235273567315
 30
0.0
 11
14.83964551754864
 21
-13.45647089649027
 31
0.0
  0
LINE
  5
860
330
1F
100
AcDbEntity
  8
2
  6
CONTINUOUS
370
25
 62
7
100
AcDbLine
 10
13.58021028777249
 20
-14.2916420575545
 30
0.0
 11
14.30931543165873
 21
-13.56253691366826
 31
0.0
  0
LINE
  5
861
330
1F
100
AcDbEntity
  8
2
  6
CONTINUOUS
370
25
 62
7
100
AcDbLine
 10
13.22665689717921
 20
-14.22093137943584
 30
0.0
 11
13.77898534576882
 21
-13.66860293084624
 31
0.0
  0
LINE
  5
862
330
1F
100
AcDbEntity
  8
2
  6
CONTINUOUS
370
25
 62
7
100
AcDbLine
 10
12.87310350658594
 20
-14.15022070131719
 30
0.0
 11
13.24865525987891
 21
-13.77466894802422
 31
0.0
  0
LINE
  5
863
330
1F
100
AcDbEntity
  8
2
  6
CONTINUOUS
370
25
 62
7
100
AcDbLine
 10
12.51955011599267
 20
-14.07951002319854
 30
0.0
 11
12.718325173989
 21
-13.8807349652022
 31
0.0
  0
LINE
  5
864
330
1F
100
AcDbEntity
  8
2
  6
CONTINUOUS
370
25
 62
7
100
AcDbLine
 10
12.1659967253994
 20
-14.00879934507988
 30
0.0
 11
12.18799508809909
 21
-13.98680098238018
 31
0.0
  0
LINE
  5
865
330
1F
100
AcDbEntity
  8
2
  6
CONTINUOUS
370
25
 62
7
100
AcDbLine
 10
12.34706536047201
 20
-13.9549869279056
 30
0.0
 11
12.45959804070802
 21
-14.06751960814161
 31
0.0
  0
LINE
  5
866
330
1F
100
AcDbEntity
  8
2
  6
CONTINUOUS
370
25
 62
7
100
AcDbLine
 10
12.70061875106528
 20
-13.88427624978694
 30
0.0
 11
12.98992812659793
 21
-14.17358562531959
 31
0.0
  0
LINE
  5
867
330
1F
100
AcDbEntity
  8
2
  6
CONTINUOUS
370
25
 62
7
100
AcDbLine
 10
13.05417214165856
 20
-13.81356557166829
 30
0.0
 11
13.52025821248784
 21
-14.27965164249757
 31
0.0
  0
LINE
  5
868
330
1F
100
AcDbEntity
  8
2
  6
CONTINUOUS
370
25
 62
7
100
AcDbLine
 10
13.40772553225183
 20
-13.74285489354963
 30
0.0
 11
14.05058829837775
 21
-14.38571765967555
 31
0.0
  0
LINE
  5
869
330
1F
100
AcDbEntity
  8
2
  6
CONTINUOUS
370
25
 62
7
100
AcDbLine
 10
13.7612789228451
 20
-13.67214421543098
 30
0.0
 11
14.58091838426766
 21
-14.49178367685353
 31
0.0
  0
LINE
  5
86A
330
1F
100
AcDbEntity
  8
2
  6
CONTINUOUS
370
25
 62
7
100
AcDbLine
 10
14.11483231343838
 20
-13.60143353731233
 30
0.0
 11
15.11124847015756
 21
-14.59784969403151
 31
0.0
  0
LINE
  5
86B
330
1F
100
AcDbEntity
  8
2
  6
CONTINUOUS
370
25
 62
7
100
AcDbLine
 10
14.46838570403165
 20
-13.53072285919367
 30
0.0
 11
15.64157855604748
 21
-14.7039157112095
 31
0.0
  0
LINE
  5
86C
330
1F
100
AcDbEntity
  8
2
  6
CONTINUOUS
370
25
 62
7
100
AcDbLine
 10
14.82193909462492
 20
-13.46001218107502
 30
0.0
 11
16.17190864193739
 21
-14.80998172838748
 31
0.0
  0
LINE
  5
86D
330
1F
100
AcDbEntity
  8
2
  6
CONTINUOUS
370
25
 62
7
100
AcDbLine
 10
15.1754924852182
 20
-13.38930150295636
 30
0.0
 11
16.70223872782729
 21
-14.91604774556546
 31
0.0
  0
LINE
  5
86E
330
1F
100
AcDbEntity
  8
2
  6
CONTINUOUS
370
25
 62
7
100
AcDbLine
 10
15.52904587581147
 20
-13.31859082483771
 30
0.0
 11
17.122
 21
-14.91154494902623
 31
0.0
  0
LINE
  5
86F
330
1F
100
AcDbEntity
  8
2
  6
CONTINUOUS
370
25
 62
7
100
AcDbLine
 10
15.88259926640474
 20
-13.24788014671905
 30
0.0
 11
17.122
 21
-14.48728088031431
 31
0.0
  0
LINE
  5
870
330
1F
100
AcDbEntity
  8
2
  6
CONTINUOUS
370
25
 62
7
100
AcDbLine
 10
16.23615265699802
 20
-13.1771694686004
 30
0.0
 11
17.122
 21
-14.06301681160238
 31
0.0
  0
LINE
  5
871
330
1F
100
AcDbEntity
  8
2
  6
CONTINUOUS
370
25
 62
7
100
AcDbLine
 10
16.58970604759129
 20
-13.10645879048174
 30
0.0
 11
17.122
 21
-13.63875274289045
 31
0.0
  0
LINE
  5
872
330
1F
100
AcDbEntity
  8
2
  6
CONTINUOUS
370
25
 62
7
100
AcDbLine
 10
16.94325943818456
 20
-13.03574811236309
 30
0.0
 11
17.122
 21
-13.21448867417852
 31
0.0
  0
TEXT
  5
873
330
1F
100
AcDbEntity
  8
2
  6
CONTINUOUS
370
25
 62
7
100
AcDbText
 10
7.955333333333331
 20
-12.5
 30
0.0
 40
3.5
  1
6
 72
     1
 11
9.121999999999998
 21
-12.5
 31
0.0
100
AcDbText
  0
LINE
  5
874
330
1F
100
AcDbEntity
  8
2
  6
CONTINUOUS
370
25
 62
7
100
AcDbLine
 10
-0.01
 20
2.99995
 30
0.0
 11
-0.0099999999999986
 21
25.99995
 31
0.0
  0
LINE
  5
875
330
1F
100
AcDbEntity
  8
2
  6
CONTINUOUS
370
25
 62
7
100
AcDbLine
 10
12.122
 20
25.99995
 30
0.0
 11
12.122
 21
2.0
 31
0.0
  0
LINE
  5
876
330
1F
100
AcDbEntity
  8
2
  6
CONTINUOUS
370
25
 62
7
100
AcDbLine
 10
-7.01
 20
24.99995
 30
0.0
 11
36.972
 21
24.99995
 31
0.0
  0
LINE
  5
877
330
1F
100
AcDbEntity
  8
2
  6
CONTINUOUS
370
25
 62
7
100
AcDbLine
 10
-0.01
 20
24.99995
 30
0.0
 11
-5.01
 21
23.99995
 31
0.0
  0
LINE
  5
878
330
1F
100
AcDbEntity
  8
2
  6
CONTINUOUS
370
25
 62
7
100
AcDbLine
 10
-5.01
 20
23.99995
 30
0.0
 11
-5.01
 21
25.99995
 31
0.0
  0
LINE
  5
879
330
1F
100
AcDbEntity
  8
2
  6
CONTINUOUS
370
25
 62
7
100
AcDbLine
 10
-5.01
 20
25.99995
 30
0.0
 11
-0.01
 21
24.99995
 31
0.0
  0
LINE
  5
87A
330
1F
100
AcDbEntity
  8
2
  6
CONTINUOUS
370
25
 62
7
100
AcDbLine
 10
-0.0495375675046905
 20
24.99204248649906
 30
0.0
 11
-0.0363583783364603
 21
25.00522167566729
 31
0.0
  0
LINE
  5
87B
330
1F
100
AcDbEntity
  8
2
  6
CONTINUOUS
370
25
 62
7
100
AcDbLine
 10
-0.5798676533945999
 20
24.88597646932108
 30
0.0
 11
-0.3899117689297333
 21
25.07593235378594
 31
0.0
  0
LINE
  5
87C
330
1F
100
AcDbEntity
  8
2
  6
CONTINUOUS
370
25
 62
7
100
AcDbLine
 10
-1.110197739284509
 20
24.7799104521431
 30
0.0
 11
-0.7434651595230064
 21
25.1466430319046
 31
0.0
  0
LINE
  5
87D
330
1F
100
AcDbEntity
  8
2
  6
CONTINUOUS
370
25
 62
7
100
AcDbLine
 10
-1.640527825174419
 20
24.67384443496512
 30
0.0
 11
-1.097018550116279
 21
25.21735371002325
 31
0.0
  0
LINE
  5
87E
330
1F
100
AcDbEntity
  8
2
  6
CONTINUOUS
370
25
 62
7
100
AcDbLine
 10
-2.170857911064332
 20
24.56777841778713
 30
0.0
 11
-1.450571940709555
 21
25.28806438814191
 31
0.0
  0
LINE
  5
87F
330
1F
100
AcDbEntity
  8
2
  6
CONTINUOUS
370
25
 62
7
100
AcDbLine
 10
-2.701187996954241
 20
24.46171240060915
 30
0.0
 11
-1.804125331302828
 21
25.35877506626056
 31
0.0
  0
LINE
  5
880
330
1F
100
AcDbEntity
  8
2
  6
CONTINUOUS
370
25
 62
7
100
AcDbLine
 10
-3.231518082844151
 20
24.35564638343117
 30
0.0
 11
-2.157678721896101
 21
25.42948574437922
 31
0.0
  0
LINE
  5
881
330
1F
100
AcDbEntity
  8
2
  6
CONTINUOUS
370
25
 62
7
100
AcDbLine
 10
-3.76184816873406
 20
24.24958036625319
 30
0.0
 11
-2.511232112489374
 21
25.50019642249787
 31
0.0
  0
LINE
  5
882
330
1F
100
AcDbEntity
  8
2
  6
CONTINUOUS
370
25
 62
7
100
AcDbLine
 10
-4.292178254623969
 20
24.1435143490752
 30
0.0
 11
-2.864785503082647
 21
25.57090710061653
 31
0.0
  0
LINE
  5
883
330
1F
100
AcDbEntity
  8
2
  6
CONTINUOUS
370
25
 62
7
100
AcDbLine
 10
-4.822508340513877
 20
24.03744833189722
 30
0.0
 11
-3.218338893675919
 21
25.64161777873518
 31
0.0
  0
LINE
  5
884
330
1F
100
AcDbEntity
  8
2
  6
CONTINUOUS
370
25
 62
7
100
AcDbLine
 10
-5.01
 20
24.27422074112303
 30
0.0
 11
-3.571892284269193
 21
25.71232845685384
 31
0.0
  0
LINE
  5
885
330
1F
100
AcDbEntity
  8
2
  6
CONTINUOUS
370
25
 62
7
100
AcDbLine
 10
-5.01
 20
24.69848480983496
 30
0.0
 11
-3.925445674862465
 21
25.78303913497249
 31
0.0
  0
LINE
  5
886
330
1F
100
AcDbEntity
  8
2
  6
CONTINUOUS
370
25
 62
7
100
AcDbLine
 10
-5.01
 20
25.12274887854688
 30
0.0
 11
-4.278999065455737
 21
25.85374981309115
 31
0.0
  0
LINE
  5
887
330
1F
100
AcDbEntity
  8
2
  6
CONTINUOUS
370
25
 62
7
100
AcDbLine
 10
-5.01
 20
25.54701294725881
 30
0.0
 11
-4.632552456049011
 21
25.9244604912098
 31
0.0
  0
LINE
  5
888
330
1F
100
AcDbEntity
  8
2
  6
CONTINUOUS
370
25
 62
7
100
AcDbLine
 10
-5.01
 20
25.97127701597074
 30
0.0
 11
-4.986105846642284
 21
25.99517116932845
 31
0.0
  0
LINE
  5
889
330
1F
100
AcDbEntity
  8
2
  6
CONTINUOUS
370
25
 62
7
100
AcDbLine
 10
-5.01
 20
24.09188309203675
 30
0.0
 11
-4.933389089969375
 21
24.01527218200612
 31
0.0
  0
LINE
  5
88A
330
1F
100
AcDbEntity
  8
2
  6
CONTINUOUS
370
25
 62
7
100
AcDbLine
 10
-5.01
 20
24.51614716074868
 30
0.0
 11
-4.579835699376101
 21
24.08598286012478
 31
0.0
  0
LINE
  5
88B
330
1F
100
AcDbEntity
  8
2
  6
CONTINUOUS
370
25
 62
7
100
AcDbLine
 10
-5.01
 20
24.9404112294606
 30
0.0
 11
-4.226282308782831
 21
24.15669353824343
 31
0.0
  0
LINE
  5
88C
330
1F
100
AcDbEntity
  8
2
  6
CONTINUOUS
370
25
 62
7
100
AcDbLine
 10
-5.01
 20
25.36467529817253
 30
0.0
 11
-3.872728918189557
 21
24.22740421636209
 31
0.0
  0
LINE
  5
88D
330
1F
100
AcDbEntity
  8
2
  6
CONTINUOUS
370
25
 62
7
100
AcDbLine
 10
-5.01
 20
25.78893936688446
 30
0.0
 11
-3.519175527596284
 21
24.29811489448074
 31
0.0
  0
LINE
  5
88E
330
1F
100
AcDbEntity
  8
2
  6
CONTINUOUS
370
25
 62
7
100
AcDbLine
 10
-4.743433205504515
 20
25.9466366411009
 30
0.0
 11
-3.165622137003008
 21
24.3688255725994
 31
0.0
  0
LINE
  5
88F
330
1F
100
AcDbEntity
  8
2
  6
CONTINUOUS
370
25
 62
7
100
AcDbLine
 10
-4.213103119614604
 20
25.84057062392292
 30
0.0
 11
-2.812068746409734
 21
24.43953625071805
 31
0.0
  0
LINE
  5
890
330
1F
100
AcDbEntity
  8
2
  6
CONTINUOUS
370
25
 62
7
100
AcDbLine
 10
-3.682773033724693
 20
25.73450460674494
 30
0.0
 11
-2.458515355816461
 21
24.51024692883671
 31
0.0
  0
LINE
  5
891
330
1F
100
AcDbEntity
  8
2
  6
CONTINUOUS
370
25
 62
7
100
AcDbLine
 10
-3.152442947834787
 20
25.62843858956695
 30
0.0
 11
-2.10496196522319
 21
24.58095760695536
 31
0.0
  0
LINE
  5
892
330
1F
100
AcDbEntity
  8
2
  6
CONTINUOUS
370
25
 62
7
100
AcDbLine
 10
-2.622112861944876
 20
25.52237257238897
 30
0.0
 11
-1.751408574629917
 21
24.65166828507402
 31
0.0
  0
LINE
  5
893
330
1F
100
AcDbEntity
  8
2
  6
CONTINUOUS
370
25
 62
7
100
AcDbLine
 10
-2.091782776054966
 20
25.41630655521099
 30
0.0
 11
-1.397855184036643
 21
24.72237896319267
 31
0.0
  0
LINE
  5
894
330
1F
100
AcDbEntity
  8
2
  6
CONTINUOUS
370
25
 62
7
100
AcDbLine
 10
-1.561452690165055
 20
25.31024053803301
 30
0.0
 11
-1.044301793443369
 21
24.79308964131133
 31
0.0
  0
LINE
  5
895
330
1F
100
AcDbEntity
  8
2
  6
CONTINUOUS
370
25
 62
7
100
AcDbLine
 10
-1.031122604275144
 20
25.20417452085503
 30
0.0
 11
-0.6907484028500958
 21
24.86380031942998
 31
0.0
  0
LINE
  5
896
330
1F
100
AcDbEntity
  8
2
  6
CONTINUOUS
370
25
 62
7
100
AcDbLine
 10
-0.5007925183852335
 20
25.09810850367705
 30
0.0
 11
-0.3371950122568221
 21
24.93451099754864
 31
0.0
  0
LINE
  5
897
330
1F
100
AcDbEntity
  8
2
  6
CONTINUOUS
370
25
 62
7
100
AcDbLine
 10
12.122
 20
24.99995
 30
0.0
 11
17.122
 21
25.99995
 31
0.0
  0
LINE
  5
898
330
1F
100
AcDbEntity
  8
2
  6
CONTINUOUS
370
25
 62
7
100
AcDbLine
 10
17.122
 20
25.99995
 30
0.0
 11
17.122
 21
23.99995
 31
0.0
  0
LINE
  5
899
330
1F
100
AcDbEntity
  8
2
  6
CONTINUOUS
370
25
 62
7
100
AcDbLine
 10
17.122
 20
23.99995
 30
0.0
 11
12.122
 21
24.99995
 31
0.0
  0
LINE
  5
89A
330
1F
100
AcDbEntity
  8
2
  6
CONTINUOUS
370
25
 62
7
100
AcDbLine
 10
16.83488402658102
 20
24.0573731946838
 30
0.0
 11
17.122
 21
24.34448916810278
 31
0.0
  0
LINE
  5
89B
330
1F
100
AcDbEntity
  8
2
  6
CONTINUOUS
370
25
 62
7
100
AcDbLine
 10
16.48133063598774
 20
24.12808387280245
 30
0.0
 11
17.122
 21
24.76875323681471
 31
0.0
  0
LINE
  5
89C
330
1F
100
AcDbEntity
  8
2
  6
CONTINUOUS
370
25
 62
7
100
AcDbLine
 10
16.12777724539447
 20
24.19879455092111
 30
0.0
 11
17.122
 21
25.19301730552664
 31
0.0
  0
LINE
  5
89D
330
1F
100
AcDbEntity
  8
2
  6
CONTINUOUS
370
25
 62
7
100
AcDbLine
 10
15.7742238548012
 20
24.26950522903976
 30
0.0
 11
17.122
 21
25.61728137423857
 31
0.0
  0
LINE
  5
89E
330
1F
100
AcDbEntity
  8
2
  6
CONTINUOUS
370
25
 62
7
100
AcDbLine
 10
15.42067046420792
 20
24.34021590715842
 30
0.0
 11
17.07000569631188
 21
25.98955113926237
 31
0.0
  0
LINE
  5
89F
330
1F
100
AcDbEntity
  8
2
  6
CONTINUOUS
370
25
 62
7
100
AcDbLine
 10
15.06711707361465
 20
24.41092658527707
 30
0.0
 11
16.53967561042197
 21
25.88348512208439
 31
0.0
  0
LINE
  5
8A0
330
1F
100
AcDbEntity
  8
2
  6
CONTINUOUS
370
25
 62
7
100
AcDbLine
 10
14.71356368302138
 20
24.48163726339573
 30
0.0
 11
16.00934552453206
 21
25.77741910490641
 31
0.0
  0
LINE
  5
8A1
330
1F
100
AcDbEntity
  8
2
  6
CONTINUOUS
370
25
 62
7
100
AcDbLine
 10
14.3600102924281
 20
24.55234794151438
 30
0.0
 11
15.47901543864215
 21
25.67135308772843
 31
0.0
  0
LINE
  5
8A2
330
1F
100
AcDbEntity
  8
2
  6
CONTINUOUS
370
25
 62
7
100
AcDbLine
 10
14.00645690183483
 20
24.62305861963303
 30
0.0
 11
14.94868535275224
 21
25.56528707055045
 31
0.0
  0
LINE
  5
8A3
330
1F
100
AcDbEntity
  8
2
  6
CONTINUOUS
370
25
 62
7
100
AcDbLine
 10
13.65290351124156
 20
24.69376929775169
 30
0.0
 11
14.41835526686233
 21
25.45922105337246
 31
0.0
  0
LINE
  5
8A4
330
1F
100
AcDbEntity
  8
2
  6
CONTINUOUS
370
25
 62
7
100
AcDbLine
 10
13.29935012064828
 20
24.76447997587034
 30
0.0
 11
13.88802518097242
 21
25.35315503619448
 31
0.0
  0
LINE
  5
8A5
330
1F
100
AcDbEntity
  8
2
  6
CONTINUOUS
370
25
 62
7
100
AcDbLine
 10
12.94579673005501
 20
24.835190653989
 30
0.0
 11
13.35769509508251
 21
25.2470890190165
 31
0.0
  0
LINE
  5
8A6
330
1F
100
AcDbEntity
  8
2
  6
CONTINUOUS
370
25
 62
7
100
AcDbLine
 10
12.59224333946174
 20
24.90590133210765
 30
0.0
 11
12.8273650091926
 21
25.14102300183852
 31
0.0
  0
LINE
  5
8A7
330
1F
100
AcDbEntity
  8
2
  6
CONTINUOUS
370
25
 62
7
100
AcDbLine
 10
12.23868994886847
 20
24.9766120102263
 30
0.0
 11
12.29703492330269
 21
25.03495698466054
 31
0.0
  0
LINE
  5
8A8
330
1F
100
AcDbEntity
  8
2
  6
CONTINUOUS
370
25
 62
7
100
AcDbLine
 10
12.29140670554141
 20
25.03383134110828
 30
0.0
 11
12.37611005831211
 21
24.94912798833758
 31
0.0
  0
LINE
  5
8A9
330
1F
100
AcDbEntity
  8
2
  6
CONTINUOUS
370
25
 62
7
100
AcDbLine
 10
12.64496009613469
 20
25.10454201922693
 30
0.0
 11
12.90644014420203
 21
24.84306197115959
 31
0.0
  0
LINE
  5
8AA
330
1F
100
AcDbEntity
  8
2
  6
CONTINUOUS
370
25
 62
7
100
AcDbLine
 10
12.99851348672796
 20
25.17525269734559
 30
0.0
 11
13.43677023009194
 21
24.73699595398161
 31
0.0
  0
LINE
  5
8AB
330
1F
100
AcDbEntity
  8
2
  6
CONTINUOUS
370
25
 62
7
100
AcDbLine
 10
13.35206687732123
 20
25.24596337546424
 30
0.0
 11
13.96710031598185
 21
24.63092993680363
 31
0.0
  0
LINE
  5
8AC
330
1F
100
AcDbEntity
  8
2
  6
CONTINUOUS
370
25
 62
7
100
AcDbLine
 10
13.70562026791451
 20
25.3166740535829
 30
0.0
 11
14.49743040187176
 21
24.52486391962565
 31
0.0
  0
LINE
  5
8AD
330
1F
100
AcDbEntity
  8
2
  6
CONTINUOUS
370
25
 62
7
100
AcDbLine
 10
14.05917365850778
 20
25.38738473170155
 30
0.0
 11
15.02776048776167
 21
24.41879790244766
 31
0.0
  0
LINE
  5
8AE
330
1F
100
AcDbEntity
  8
2
  6
CONTINUOUS
370
25
 62
7
100
AcDbLine
 10
14.41272704910105
 20
25.45809540982021
 30
0.0
 11
15.55809057365158
 21
24.31273188526968
 31
0.0
  0
LINE
  5
8AF
330
1F
100
AcDbEntity
  8
2
  6
CONTINUOUS
370
25
 62
7
100
AcDbLine
 10
14.76628043969433
 20
25.52880608793886
 30
0.0
 11
16.08842065954149
 21
24.2066658680917
 31
0.0
  0
LINE
  5
8B0
330
1F
100
AcDbEntity
  8
2
  6
CONTINUOUS
370
25
 62
7
100
AcDbLine
 10
15.1198338302876
 20
25.59951676605752
 30
0.0
 11
16.6187507454314
 21
24.10059985091372
 31
0.0
  0
LINE
  5
8B1
330
1F
100
AcDbEntity
  8
2
  6
CONTINUOUS
370
25
 62
7
100
AcDbLine
 10
15.47338722088087
 20
25.67022744417617
 30
0.0
 11
17.122
 21
24.02161466505704
 31
0.0
  0
LINE
  5
8B2
330
1F
100
AcDbEntity
  8
2
  6
CONTINUOUS
370
25
 62
7
100
AcDbLine
 10
15.82694061147415
 20
25.74093812229483
 30
0.0
 11
17.122
 21
24.44587873376897
 31
0.0
  0
LINE
  5
8B3
330
1F
100
AcDbEntity
  8
2
  6
CONTINUOUS
370
25
 62
7
100
AcDbLine
 10
16.18049400206742
 20
25.81164880041348
 30
0.0
 11
17.122
 21
24.8701428024809
 31
0.0
  0
LINE
  5
8B4
330
1F
100
AcDbEntity
  8
2
  6
CONTINUOUS
370
25
 62
7
100
AcDbLine
 10
16.53404739266069
 20
25.88235947853213
 30
0.0
 11
17.122
 21
25.29440687119283
 31
0.0
  0
LINE
  5
8B5
330
1F
100
AcDbEntity
  8
2
  6
CONTINUOUS
370
25
 62
7
100
AcDbLine
 10
16.88760078325397
 20
25.95307015665079
 30
0.0
 11
17.122
 21
25.71867093990475
 31
0.0
  0
TEXT
  5
8B6
330
1F
100
AcDbEntity
  8
2
  6
CONTINUOUS
370
25
 62
7
100
AcDbText
 10
19.46366666666666
 20
26.49995
 30
0.0
 40
3.5
  1
12.132
 72
     1
 11
27.047
 21
26.49995
 31
0.0
100
AcDbText
  0
LINE
  5
8B7
330
1F
100
AcDbEntity
  8
SK2
  6
CONTINUOUS
370
25
 62
7
100
AcDbLine
 10
-44.878
 20
0.9999500000000001
 30
0.0
 11
-44.878
 21
35.99995
 31
0.0
  0
LINE
  5
8B8
330
1F
100
AcDbEntity
  8
SK2
  6
CONTINUOUS
370
25
 62
7
100
AcDbLine
 10
12.122
 20
35.99995
 30
0.0
 11
12.122
 21
2.0
 31
0.0
  0
LINE
  5
8B9
330
1F
100
AcDbEntity
  8
SK2
  6
CONTINUOUS
370
25
 62
7
100
AcDbLine
 10
-44.878
 20
34.99995
 30
0.0
 11
12.122
 21
34.99995
 31
0.0
  0
LINE
  5
8BA
330
1F
100
AcDbEntity
  8
SK2
  6
CONTINUOUS
370
25
 62
7
100
AcDbLine
 10
-44.878
 20
34.99995
 30
0.0
 11
-39.878
 21
35.99995
 31
0.0
  0
LINE
  5
8BB
330
1F
100
AcDbEntity
  8
SK2
  6
CONTINUOUS
370
25
 62
7
100
AcDbLine
 10
-39.878
 20
35.99995
 30
0.0
 11
-39.878
 21
33.99995
 31
0.0
  0
LINE
  5
8BC
330
1F
100
AcDbEntity
  8
SK2
  6
CONTINUOUS
370
25
 62
7
100
AcDbLine
 10
-39.878
 20
33.99995
 30
0.0
 11
-44.878
 21
34.99995
 31
0.0
  0
LINE
  5
8BD
330
1F
100
AcDbEntity
  8
SK2
  6
CONTINUOUS
370
25
 62
7
100
AcDbLine
 10
-40.19321835382293
 20
34.06299367076458
 30
0.0
 11
-39.878
 21
34.3782120245875
 31
0.0
  0
LINE
  5
8BE
330
1F
100
AcDbEntity
  8
SK2
  6
CONTINUOUS
370
25
 62
7
100
AcDbLine
 10
-40.5467717444162
 20
34.13370434888324
 30
0.0
 11
-39.878
 21
34.80247609329943
 31
0.0
  0
LINE
  5
8BF
330
1F
100
AcDbEntity
  8
SK2
  6
CONTINUOUS
370
25
 62
7
100
AcDbLine
 10
-40.90032513500949
 20
34.20441502700189
 30
0.0
 11
-39.878
 21
35.22674016201138
 31
0.0
  0
LINE
  5
8C0
330
1F
100
AcDbEntity
  8
SK2
  6
CONTINUOUS
370
25
 62
7
100
AcDbLine
 10
-41.25387852560276
 20
34.27512570512054
 30
0.0
 11
-39.878
 21
35.65100423072331
 31
0.0
  0
LINE
  5
8C1
330
1F
100
AcDbEntity
  8
SK2
  6
CONTINUOUS
370
25
 62
7
100
AcDbLine
 10
-41.60743191619603
 20
34.3458363832392
 30
0.0
 11
-39.97214787429404
 21
35.9811204251412
 31
0.0
  0
LINE
  5
8C2
330
1F
100
AcDbEntity
  8
SK2
  6
CONTINUOUS
370
25
 62
7
100
AcDbLine
 10
-41.96098530678931
 20
34.41654706135785
 30
0.0
 11
-40.50247796018395
 21
35.87505440796321
 31
0.0
  0
LINE
  5
8C3
330
1F
100
AcDbEntity
  8
SK2
  6
CONTINUOUS
370
25
 62
7
100
AcDbLine
 10
-42.31453869738259
 20
34.48725773947651
 30
0.0
 11
-41.03280804607388
 21
35.76898839078522
 31
0.0
  0
LINE
  5
8C4
330
1F
100
AcDbEntity
  8
SK2
  6
CONTINUOUS
370
25
 62
7
100
AcDbLine
 10
-42.66809208797586
 20
34.55796841759516
 30
0.0
 11
-41.56313813196379
 21
35.66292237360724
 31
0.0
  0
LINE
  5
8C5
330
1F
100
AcDbEntity
  8
SK2
  6
CONTINUOUS
370
25
 62
7
100
AcDbLine
 10
-43.02164547856915
 20
34.62867909571382
 30
0.0
 11
-42.09346821785371
 21
35.55685635642926
 31
0.0
  0
LINE
  5
8C6
330
1F
100
AcDbEntity
  8
SK2
  6
CONTINUOUS
370
25
 62
7
100
AcDbLine
 10
-43.37519886916242
 20
34.69938977383248
 30
0.0
 11
-42.62379830374363
 21
35.45079033925128
 31
0.0
  0
LINE
  5
8C7
330
1F
100
AcDbEntity
  8
SK2
  6
CONTINUOUS
370
25
 62
7
100
AcDbLine
 10
-43.72875225975569
 20
34.77010045195114
 30
0.0
 11
-43.15412838963353
 21
35.3447243220733
 31
0.0
  0
LINE
  5
8C8
330
1F
100
AcDbEntity
  8
SK2
  6
CONTINUOUS
370
25
 62
7
100
AcDbLine
 10
-44.08230565034898
 20
34.84081113006979
 30
0.0
 11
-43.68445847552346
 21
35.23865830489531
 31
0.0
  0
LINE
  5
8C9
330
1F
100
AcDbEntity
  8
SK2
  6
CONTINUOUS
370
25
 62
7
100
AcDbLine
 10
-44.43585904094225
 20
34.91152180818845
 30
0.0
 11
-44.21478856141336
 21
35.13259228771733
 31
0.0
  0
LINE
  5
8CA
330
1F
100
AcDbEntity
  8
SK2
  6
CONTINUOUS
370
25
 62
7
100
AcDbLine
 10
-44.78941243153554
 20
34.9822324863071
 30
0.0
 11
-44.74511864730329
 21
35.02652627053935
 31
0.0
  0
LINE
  5
8CB
330
1F
100
AcDbEntity
  8
SK2
  6
CONTINUOUS
370
25
 62
7
100
AcDbLine
 10
-44.60212855158907
 20
35.05512428968219
 30
0.0
 11
-44.46419282738359
 21
34.91718856547671
 31
0.0
  0
LINE
  5
8CC
330
1F
100
AcDbEntity
  8
SK2
  6
CONTINUOUS
370
25
 62
7
100
AcDbLine
 10
-44.24857516099578
 20
35.12583496780085
 30
0.0
 11
-43.93386274149367
 21
34.81112254829873
 31
0.0
  0
LINE
  5
8CD
330
1F
100
AcDbEntity
  8
SK2
  6
CONTINUOUS
370
25
 62
7
100
AcDbLine
 10
-43.89502177040251
 20
35.19654564591951
 30
0.0
 11
-43.40353265560375
 21
34.70505653112074
 31
0.0
  0
LINE
  5
8CE
330
1F
100
AcDbEntity
  8
SK2
  6
CONTINUOUS
370
25
 62
7
100
AcDbLine
 10
-43.54146837980923
 20
35.26725632403816
 30
0.0
 11
-42.87320256971384
 21
34.59899051394277
 31
0.0
  0
LINE
  5
8CF
330
1F
100
AcDbEntity
  8
SK2
  6
CONTINUOUS
370
25
 62
7
100
AcDbLine
 10
-43.18791498921595
 20
35.33796700215681
 30
0.0
 11
-42.34287248382393
 21
34.49292449676479
 31
0.0
  0
LINE
  5
8D0
330
1F
100
AcDbEntity
  8
SK2
  6
CONTINUOUS
370
25
 62
7
100
AcDbLine
 10
-42.83436159862268
 20
35.40867768027547
 30
0.0
 11
-41.81254239793401
 21
34.3868584795868
 31
0.0
  0
LINE
  5
8D1
330
1F
100
AcDbEntity
  8
SK2
  6
CONTINUOUS
370
25
 62
7
100
AcDbLine
 10
-42.48080820802939
 20
35.47938835839413
 30
0.0
 11
-41.28221231204409
 21
34.28079246240881
 31
0.0
  0
LINE
  5
8D2
330
1F
100
AcDbEntity
  8
SK2
  6
CONTINUOUS
370
25
 62
7
100
AcDbLine
 10
-42.12725481743612
 20
35.55009903651278
 30
0.0
 11
-40.75188222615418
 21
34.17472644523083
 31
0.0
  0
LINE
  5
8D3
330
1F
100
AcDbEntity
  8
SK2
  6
CONTINUOUS
370
25
 62
7
100
AcDbLine
 10
-41.77370142684285
 20
35.62080971463143
 30
0.0
 11
-40.22155214026427
 21
34.06866042805285
 31
0.0
  0
LINE
  5
8D4
330
1F
100
AcDbEntity
  8
SK2
  6
CONTINUOUS
370
25
 62
7
100
AcDbLine
 10
-41.42014803624956
 20
35.69152039275009
 30
0.0
 11
-39.878
 21
34.14937235650052
 31
0.0
  0
LINE
  5
8D5
330
1F
100
AcDbEntity
  8
SK2
  6
CONTINUOUS
370
25
 62
7
100
AcDbLine
 10
-41.06659464565629
 20
35.76223107086874
 30
0.0
 11
-39.878
 21
34.57363642521245
 31
0.0
  0
LINE
  5
8D6
330
1F
100
AcDbEntity
  8
SK2
  6
CONTINUOUS
370
25
 62
7
100
AcDbLine
 10
-40.71304125506302
 20
35.8329417489874
 30
0.0
 11
-39.878
 21
34.99790049392438
 31
0.0
  0
LINE
  5
8D7
330
1F
100
AcDbEntity
  8
SK2
  6
CONTINUOUS
370
25
 62
7
100
AcDbLine
 10
-40.35948786446973
 20
35.90365242710605
 30
0.0
 11
-39.878
 21
35.42216456263632
 31
0.0
  0
LINE
  5
8D8
330
1F
100
AcDbEntity
  8
SK2
  6
CONTINUOUS
370
25
 62
7
100
AcDbLine
 10
-40.00593447387646
 20
35.97436310522471
 30
0.0
 11
-39.878
 21
35.84642863134825
 31
0.0
  0
LINE
  5
8D9
330
1F
100
AcDbEntity
  8
SK2
  6
CONTINUOUS
370
25
 62
7
100
AcDbLine
 10
12.122
 20
34.99995
 30
0.0
 11
7.121999999999998
 21
33.99995
 31
0.0
  0
LINE
  5
8DA
330
1F
100
AcDbEntity
  8
SK2
  6
CONTINUOUS
370
25
 62
7
100
AcDbLine
 10
7.121999999999998
 20
33.99995
 30
0.0
 11
7.121999999999998
 21
35.99995
 31
0.0
  0
LINE
  5
8DB
330
1F
100
AcDbEntity
  8
SK2
  6
CONTINUOUS
370
25
 62
7
100
AcDbLine
 10
7.121999999999998
 20
35.99995
 30
0.0
 11
12.122
 21
34.99995
 31
0.0
  0
LINE
  5
8DC
330
1F
100
AcDbEntity
  8
SK2
  6
CONTINUOUS
370
25
 62
7
100
AcDbLine
 10
12.06911286194489
 20
34.98937257238897
 30
0.0
 11
12.08674190796326
 21
35.00700161840735
 31
0.0
  0
LINE
  5
8DD
330
1F
100
AcDbEntity
  8
SK2
  6
CONTINUOUS
370
25
 62
7
100
AcDbLine
 10
11.53878277605498
 20
34.88330655521099
 30
0.0
 11
11.73318851736999
 21
35.077712296526
 31
0.0
  0
LINE
  5
8DE
330
1F
100
AcDbEntity
  8
SK2
  6
CONTINUOUS
370
25
 62
7
100
AcDbLine
 10
11.00845269016507
 20
34.77724053803301
 30
0.0
 11
11.37963512677671
 21
35.14842297464466
 31
0.0
  0
LINE
  5
8DF
330
1F
100
AcDbEntity
  8
SK2
  6
CONTINUOUS
370
25
 62
7
100
AcDbLine
 10
10.47812260427515
 20
34.67117452085503
 30
0.0
 11
11.02608173618344
 21
35.21913365276331
 31
0.0
  0
LINE
  5
8E0
330
1F
100
AcDbEntity
  8
SK2
  6
CONTINUOUS
370
25
 62
7
100
AcDbLine
 10
9.947792518385244
 20
34.56510850367705
 30
0.0
 11
10.67252834559016
 21
35.28984433088196
 31
0.0
  0
LINE
  5
8E1
330
1F
100
AcDbEntity
  8
SK2
  6
CONTINUOUS
370
25
 62
7
100
AcDbLine
 10
9.417462432495334
 20
34.45904248649907
 30
0.0
 11
10.31897495499689
 21
35.36055500900062
 31
0.0
  0
LINE
  5
8E2
330
1F
100
AcDbEntity
  8
SK2
  6
CONTINUOUS
370
25
 62
7
100
AcDbLine
 10
8.887132346605423
 20
34.35297646932108
 30
0.0
 11
9.965421564403613
 21
35.43126568711928
 31
0.0
  0
LINE
  5
8E3
330
1F
100
AcDbEntity
  8
SK2
  6
CONTINUOUS
370
25
 62
7
100
AcDbLine
 10
8.356802260715515
 20
34.2469104521431
 30
0.0
 11
9.611868173810342
 21
35.50197636523793
 31
0.0
  0
LINE
  5
8E4
330
1F
100
AcDbEntity
  8
SK2
  6
CONTINUOUS
370
25
 62
7
100
AcDbLine
 10
7.826472174825605
 20
34.14084443496512
 30
0.0
 11
9.258314783217067
 21
35.57268704335659
 31
0.0
  0
LINE
  5
8E5
330
1F
100
AcDbEntity
  8
SK2
  6
CONTINUOUS
370
25
 62
7
100
AcDbLine
 10
7.296142088935697
 20
34.03477841778714
 30
0.0
 11
8.904761392623794
 21
35.64339772147524
 31
0.0
  0
LINE
  5
8E6
330
1F
100
AcDbEntity
  8
SK2
  6
CONTINUOUS
370
25
 62
7
100
AcDbLine
 10
7.121999999999998
 20
34.28490039756337
 30
0.0
 11
8.551208002030519
 21
35.7141083995939
 31
0.0
  0
LINE
  5
8E7
330
1F
100
AcDbEntity
  8
SK2
  6
CONTINUOUS
370
25
 62
7
100
AcDbLine
 10
7.121999999999998
 20
34.7091644662753
 30
0.0
 11
8.197654611437244
 21
35.78481907771256
 31
0.0
  0
LINE
  5
8E8
330
1F
100
AcDbEntity
  8
SK2
  6
CONTINUOUS
370
25
 62
7
100
AcDbLine
 10
7.121999999999998
 20
35.13342853498723
 30
0.0
 11
7.844101220843971
 21
35.85552975583121
 31
0.0
  0
LINE
  5
8E9
330
1F
100
AcDbEntity
  8
SK2
  6
CONTINUOUS
370
25
 62
7
100
AcDbLine
 10
7.121999999999998
 20
35.55769260369916
 30
0.0
 11
7.490547830250697
 21
35.92624043394986
 31
0.0
  0
LINE
  5
8EA
330
1F
100
AcDbEntity
  8
SK2
  6
CONTINUOUS
370
25
 62
7
100
AcDbLine
 10
7.121999999999998
 20
35.98195667241109
 30
0.0
 11
7.136994439657423
 21
35.99695111206852
 31
0.0
  0
LINE
  5
8EB
330
1F
100
AcDbEntity
  8
SK2
  6
CONTINUOUS
370
25
 62
7
100
AcDbLine
 10
7.121999999999998
 20
34.02161466505703
 30
0.0
 11
7.140053887547524
 21
34.0035607775095
 31
0.0
  0
LINE
  5
8EC
330
1F
100
AcDbEntity
  8
SK2
  6
CONTINUOUS
370
25
 62
7
100
AcDbLine
 10
7.121999999999998
 20
34.44587873376896
 30
0.0
 11
7.4936072781408
 21
34.07427145562816
 31
0.0
  0
LINE
  5
8ED
330
1F
100
AcDbEntity
  8
SK2
  6
CONTINUOUS
370
25
 62
7
100
AcDbLine
 10
7.121999999999998
 20
34.87014280248089
 30
0.0
 11
7.847160668734076
 21
34.14498213374682
 31
0.0
  0
LINE
  5
8EE
330
1F
100
AcDbEntity
  8
SK2
  6
CONTINUOUS
370
25
 62
7
100
AcDbLine
 10
7.121999999999998
 20
35.29440687119282
 30
0.0
 11
8.200714059327352
 21
34.21569281186547
 31
0.0
  0
LINE
  5
8EF
330
1F
100
AcDbEntity
  8
SK2
  6
CONTINUOUS
370
25
 62
7
100
AcDbLine
 10
7.121999999999998
 20
35.71867093990475
 30
0.0
 11
8.554267449920621
 21
34.28640348998412
 31
0.0
  0
LINE
  5
8F0
330
1F
100
AcDbEntity
  8
SK2
  6
CONTINUOUS
370
25
 62
7
100
AcDbLine
 10
7.300731260770848
 20
35.96420374784583
 30
0.0
 11
8.907820840513898
 21
34.35711416810278
 31
0.0
  0
LINE
  5
8F1
330
1F
100
AcDbEntity
  8
SK2
  6
CONTINUOUS
370
25
 62
7
100
AcDbLine
 10
7.831061346660761
 20
35.85813773066785
 30
0.0
 11
9.261374231107173
 21
34.42782484622143
 31
0.0
  0
LINE
  5
8F2
330
1F
100
AcDbEntity
  8
SK2
  6
CONTINUOUS
370
25
 62
7
100
AcDbLine
 10
8.361391432550672
 20
35.75207171348987
 30
0.0
 11
9.614927621700447
 21
34.49853552434008
 31
0.0
  0
LINE
  5
8F3
330
1F
100
AcDbEntity
  8
SK2
  6
CONTINUOUS
370
25
 62
7
100
AcDbLine
 10
8.891721518440583
 20
35.64600569631188
 30
0.0
 11
9.968481012293722
 21
34.56924620245874
 31
0.0
  0
LINE
  5
8F4
330
1F
100
AcDbEntity
  8
SK2
  6
CONTINUOUS
370
25
 62
7
100
AcDbLine
 10
9.422051604330498
 20
35.5399396791339
 30
0.0
 11
10.322034402887
 21
34.63995688057739
 31
0.0
  0
LINE
  5
8F5
330
1F
100
AcDbEntity
  8
SK2
  6
CONTINUOUS
370
25
 62
7
100
AcDbLine
 10
9.952381690220408
 20
35.43387366195591
 30
0.0
 11
10.67558779348027
 21
34.71066755869605
 31
0.0
  0
LINE
  5
8F6
330
1F
100
AcDbEntity
  8
SK2
  6
CONTINUOUS
370
25
 62
7
100
AcDbLine
 10
10.48271177611031
 20
35.32780764477793
 30
0.0
 11
11.02914118407354
 21
34.7813782368147
 31
0.0
  0
LINE
  5
8F7
330
1F
100
AcDbEntity
  8
SK2
  6
CONTINUOUS
370
25
 62
7
100
AcDbLine
 10
11.01304186200022
 20
35.22174162759995
 30
0.0
 11
11.38269457466681
 21
34.85208891493336
 31
0.0
  0
LINE
  5
8F8
330
1F
100
AcDbEntity
  8
SK2
  6
CONTINUOUS
370
25
 62
7
100
AcDbLine
 10
11.54337194789013
 20
35.11567561042197
 30
0.0
 11
11.73624796526009
 21
34.92279959305201
 31
0.0
  0
LINE
  5
8F9
330
1F
100
AcDbEntity
  8
SK2
  6
CONTINUOUS
370
25
 62
7
100
AcDbLine
 10
12.07370203378004
 20
35.00960959324399
 30
0.0
 11
12.08980135585336
 21
34.99351027117067
 31
0.0
  0
TEXT
  5
8FA
330
1F
100
AcDbEntity
  8
SK2
  6
CONTINUOUS
370
25
 62
7
100
AcDbText
 10
-19.29466666666667
 20
36.49995
 30
0.0
 40
3.5
  1
57
 72
     1
 11
-16.378
 21
36.49995
 31
0.0
100
AcDbText
  0
LINE
  5
8FB
330
1F
100
AcDbEntity
  8
SK1
  6
CONTINUOUS
370
50
 62
4
100
AcDbLine
 10
-0.01
 20
0.0
 30
0.0
 11
2.49
 21
0.0
 31
0.0
  0
LINE
  5
8FC
330
1F
100
AcDbEntity
  8
SK1
  6
CONTINUOUS
370
50
 62
4
100
AcDbLine
 10
-0.01
 20
0.0
 30
0.0
 11
-0.01
 21
2.5
 31
0.0
  0
ARC
  5
8FD
330
1F
100
AcDbEntity
  8
SK1
  6
CONTINUOUS
370
50
 62
4
100
AcDbCircle
 10
-0.01
 20
0.0
 30
0.0
 40
2.5
100
AcDbArc
 50
0.0
 51
90.0
  0
LINE
  5
8FE
330
1F
100
AcDbEntity
  8
SK1
  6
CONTINUOUS
370
50
 62
4
100
AcDbLine
 10
-0.01
 20
0.0
 30
0.0
 11
-2.51
 21
0.0
 31
0.0
  0
ARC
  5
8FF
330
1F
100
AcDbEntity
  8
SK1
  6
CONTINUOUS
370
50
 62
4
100
AcDbCircle
 10
-0.01
 20
0.0
 30
0.0
 40
2.5
100
AcDbArc
 50
180.0
 51
270.0
  0
LINE
  5
900
330
1F
100
AcDbEntity
  8
SK1
  6
CONTINUOUS
370
50
 62
4
100
AcDbLine
 10
-0.01
 20
-2.5
 30
0.0
 11
-0.01
 21
0.0
 31
0.0
  0
ARC
  5
901
330
1F
100
AcDbEntity
  8
SK1
  6
CONTINUOUS
370
50
 62
4
100
AcDbCircle
 10
-0.01
 20
0.0
 30
0.0
 40
2.5
100
AcDbArc
 50
270.0
 51
0.0
  0
ARC
  5
902
330
1F
100
AcDbEntity
  8
SK1
  6
CONTINUOUS
370
50
 62
4
100
AcDbCircle
 10
-0.01
 20
0.0
 30
0.0
 40
2.5
100
AcDbArc
 50
90.0
 51
180.0
  0
LINE
  5
903
330
1F
100
AcDbEntity
  8
SK1
  6
CONTINUOUS
370
50
 62
4
100
AcDbLine
 10
-0.32832627443191
 20
-2.479495909600069
 30
0.0
 11
-0.01
 21
-2.161169635168159
 31
0.0
  0
LINE
  5
904
330
1F
100
AcDbEntity
  8
SK1
  6
CONTINUOUS
370
50
 62
4
100
AcDbLine
 10
2.15116963516816
 20
0.0
 30
0.0
 11
2.469495909600069
 21
0.3183262744319091
 31
0.0
  0
LINE
  5
905
330
1F
100
AcDbEntity
  8
SK1
  6
CONTINUOUS
370
50
 62
4
100
AcDbLine
 10
-0.625281817185723
 20
-2.422898061760609
 30
0.0
 11
-0.01
 21
-1.807616244574886
 31
0.0
  0
LINE
  5
906
330
1F
100
AcDbEntity
  8
SK1
  6
CONTINUOUS
370
50
 62
4
100
AcDbLine
 10
1.797616244574887
 20
0.0
 30
0.0
 11
2.412898061760609
 21
0.6152818171857222
 31
0.0
  0
LINE
  5
907
330
1F
100
AcDbEntity
  8
SK1
  6
CONTINUOUS
370
50
 62
4
100
AcDbLine
 10
-0.8935965231639721
 20
-2.337659377145585
 30
0.0
 11
-0.01
 21
-1.454062853981614
 31
0.0
  0
LINE
  5
908
330
1F
100
AcDbEntity
  8
SK1
  6
CONTINUOUS
370
50
 62
4
100
AcDbLine
 10
1.444062853981614
 20
0.0
 30
0.0
 11
2.327659377145586
 21
0.8835965231639715
 31
0.0
  0
LINE
  5
909
330
1F
100
AcDbEntity
  8
SK1
  6
CONTINUOUS
370
50
 62
4
100
AcDbLine
 10
-1.138779664263143
 20
-2.229289127651483
 30
0.0
 11
-0.01
 21
-1.100509463388341
 31
0.0
  0
LINE
  5
90A
330
1F
100
AcDbEntity
  8
SK1
  6
CONTINUOUS
370
50
 62
4
100
AcDbLine
 10
1.090509463388341
 20
0.0
 30
0.0
 11
2.219289127651484
 21
1.128779664263142
 31
0.0
  0
LINE
  5
90B
330
1F
100
AcDbEntity
  8
SK1
  6
CONTINUOUS
370
50
 62
4
100
AcDbLine
 10
-1.364032791010379
 20
-2.100988863805446
 30
0.0
 11
-0.01
 21
-0.7469560727950677
 31
0.0
  0
LINE
  5
90C
330
1F
100
AcDbEntity
  8
SK1
  6
CONTINUOUS
370
50
 62
4
100
AcDbLine
 10
0.736956072795068
 20
0.0
 30
0.0
 11
2.090988863805447
 21
1.354032791010378
 31
0.0
  0
LINE
  5
90D
330
1F
100
AcDbEntity
  8
SK1
  6
CONTINUOUS
370
50
 62
4
100
AcDbLine
 10
-1.569387394659872
 20
-1.952790076861666
 30
0.0
 11
-0.01
 21
-0.3934026822017946
 31
0.0
  0
LINE
  5
90E
330
1F
100
AcDbEntity
  8
SK1
  6
CONTINUOUS
370
50
 62
4
100
AcDbLine
 10
0.3834026822017948
 20
0.0
 30
0.0
 11
1.942790076861667
 21
1.559387394659871
 31
0.0
  0
LINE
  5
90F
330
1F
100
AcDbEntity
  8
SK1
  6
CONTINUOUS
370
50
 62
4
100
AcDbLine
 10
-1.756970020883365
 20
-1.786819312491886
 30
0.0
 11
-0.01
 21
-0.0398492916085216
 31
0.0
  0
LINE
  5
910
330
1F
100
AcDbEntity
  8
SK1
  6
CONTINUOUS
370
50
 62
4
100
AcDbLine
 10
0.0298492916085216
 20
0.0
 30
0.0
 11
1.776819312491887
 21
1.746970020883364
 31
0.0
  0
LINE
  5
911
330
1F
100
AcDbEntity
  8
SK1
  6
CONTINUOUS
370
50
 62
4
100
AcDbLine
 10
-1.927371878232655
 20
-1.603667779247902
 30
0.0
 11
-0.3237040989847517
 21
0.0
 31
0.0
  0
LINE
  5
912
330
1F
100
AcDbEntity
  8
SK1
  6
CONTINUOUS
370
50
 62
4
100
AcDbLine
 10
-0.01
 20
0.3137040989847515
 30
0.0
 11
1.593667779247903
 21
1.917371878232654
 31
0.0
  0
LINE
  5
913
330
1F
100
AcDbEntity
  8
SK1
  6
CONTINUOUS
370
50
 62
4
100
AcDbLine
 10
-2.078741231122433
 20
-1.401483741544407
 30
0.0
 11
-0.6772574895780249
 21
0.0
 31
0.0
  0
LINE
  5
914
330
1F
100
AcDbEntity
  8
SK1
  6
CONTINUOUS
370
50
 62
4
100
AcDbLine
 10
-0.01
 20
0.6672574895780246
 30
0.0
 11
1.391483741544409
 21
2.068741231122432
 31
0.0
  0
LINE
  5
915
330
1F
100
AcDbEntity
  8
SK1
  6
CONTINUOUS
370
50
 62
4
100
AcDbLine
 10
-2.2123876557675
 20
-1.181576775596201
 30
0.0
 11
-1.030810880171298
 21
0.0
 31
0.0
  0
LINE
  5
916
330
1F
100
AcDbEntity
  8
SK1
  6
CONTINUOUS
370
50
 62
4
100
AcDbLine
 10
-0.01
 20
1.020810880171298
 30
0.0
 11
1.171576775596202
 21
2.202387655767499
 31
0.0
  0
LINE
  5
917
330
1F
100
AcDbEntity
  8
SK1
  6
CONTINUOUS
370
50
 62
4
100
AcDbLine
 10
-2.325450943493525
 20
-0.9410866727289533
 30
0.0
 11
-1.384364270764571
 21
0.0
 31
0.0
  0
LINE
  5
918
330
1F
100
AcDbEntity
  8
SK1
  6
CONTINUOUS
370
50
 62
4
100
AcDbLine
 10
-0.01
 20
1.374364270764571
 30
0.0
 11
0.9310866727289543
 21
2.315450943493524
 31
0.0
  0
LINE
  5
919
330
1F
100
AcDbEntity
  8
SK1
  6
CONTINUOUS
370
50
 62
4
100
AcDbLine
 10
-2.415290600131854
 20
-0.6773729387740097
 30
0.0
 11
-1.737917661357844
 21
0.0
 31
0.0
  0
LINE
  5
91A
330
1F
100
AcDbEntity
  8
SK1
  6
CONTINUOUS
370
50
 62
4
100
AcDbLine
 10
-0.01
 20
1.727917661357844
 30
0.0
 11
0.6673729387740106
 21
2.405290600131854
 31
0.0
  0
LINE
  5
91B
330
1F
100
AcDbEntity
  8
SK1
  6
CONTINUOUS
370
50
 62
4
100
AcDbLine
 10
-2.478598823056026
 20
-0.3871277711049084
 30
0.0
 11
-2.091471051951117
 21
0.0
 31
0.0
  0
LINE
  5
91C
330
1F
100
AcDbEntity
  8
SK1
  6
CONTINUOUS
370
50
 62
4
100
AcDbLine
 10
-0.01
 20
2.081471051951117
 30
0.0
 11
0.3771277711049085
 21
2.468598823056025
 31
0.0
  0
LINE
  5
91D
330
1F
100
AcDbEntity
  8
SK1
  6
CONTINUOUS
370
50
 62
4
100
AcDbLine
 10
-2.508020276172772
 20
-0.0629958336283822
 30
0.0
 11
-2.44502444254439
 21
0.0
 31
0.0
  0
LINE
  5
91E
330
1F
100
AcDbEntity
  8
SK1
  6
CONTINUOUS
370
50
 62
4
100
AcDbLine
 10
-0.01
 20
2.435024442544389
 30
0.0
 11
0.0529958336283828
 21
2.498020276172772
 31
0.0
  0
LINE
  5
91F
330
1F
100
AcDbEntity
  8
SK1
  6
CONTINUOUS
370
50
 62
4
100
AcDbLine
 10
-2.347336523620827
 20
-0.8844932833271533
 30
0.0
 11
-0.894493283327151
 21
-2.337336523620827
 31
0.0
  0
LINE
  5
920
330
1F
100
AcDbEntity
  8
SK1
  6
CONTINUOUS
370
50
 62
4
100
AcDbLine
 10
-2.476237059966593
 20
-0.4020393563881135
 30
0.0
 11
-0.4120393563881111
 21
-2.466237059966594
 31
0.0
  0
LINE
  5
921
330
1F
100
AcDbEntity
  8
SK1
  6
CONTINUOUS
370
50
 62
4
100
AcDbLine
 10
-2.509522297881595
 20
-0.0152007278798383
 30
0.0
 11
-0.0252007278798351
 21
-2.499522297881596
 31
0.0
  0
LINE
  5
922
330
1F
100
AcDbEntity
  8
SK1
  6
CONTINUOUS
370
50
 62
4
100
AcDbLine
 10
-2.17116963516816
 20
0.0
 30
0.0
 11
-0.01
 21
-2.161169635168158
 31
0.0
  0
LINE
  5
923
330
1F
100
AcDbEntity
  8
SK1
  6
CONTINUOUS
370
50
 62
4
100
AcDbLine
 10
-1.817616244574888
 20
0.0
 30
0.0
 11
-0.01
 21
-1.807616244574886
 31
0.0
  0
LINE
  5
924
330
1F
100
AcDbEntity
  8
SK1
  6
CONTINUOUS
370
50
 62
4
100
AcDbLine
 10
-1.464062853981615
 20
0.0
 30
0.0
 11
-0.01
 21
-1.454062853981613
 31
0.0
  0
LINE
  5
925
330
1F
100
AcDbEntity
  8
SK1
  6
CONTINUOUS
370
50
 62
4
100
AcDbLine
 10
-1.110509463388341
 20
0.0
 30
0.0
 11
-0.01
 21
-1.10050946338834
 31
0.0
  0
LINE
  5
926
330
1F
100
AcDbEntity
  8
SK1
  6
CONTINUOUS
370
50
 62
4
100
AcDbLine
 10
-0.7569560727950676
 20
0.0
 30
0.0
 11
-0.01
 21
-0.7469560727950668
 31
0.0
  0
LINE
  5
927
330
1F
100
AcDbEntity
  8
SK1
  6
CONTINUOUS
370
50
 62
4
100
AcDbLine
 10
-0.4034026822017942
 20
0.0
 30
0.0
 11
-0.01
 21
-0.3934026822017938
 31
0.0
  0
LINE
  5
928
330
1F
100
AcDbEntity
  8
SK1
  6
CONTINUOUS
370
50
 62
4
100
AcDbLine
 10
-0.0498492916085216
 20
0.0
 30
0.0
 11
-0.01
 21
-0.0398492916085216
 31
0.0
  0
LINE
  5
929
330
1F
100
AcDbEntity
  8
SK1
  6
CONTINUOUS
370
50
 62
4
100
AcDbLine
 10
-0.01
 20
0.3137040989847515
 30
0.0
 11
0.3037040989847518
 21
0.0
 31
0.0
  0
LINE
  5
92A
330
1F
100
AcDbEntity
  8
SK1
  6
CONTINUOUS
370
50
 62
4
100
AcDbLine
 10
-0.01
 20
0.6672574895780246
 30
0.0
 11
0.6572574895780253
 21
0.0
 31
0.0
  0
LINE
  5
92B
330
1F
100
AcDbEntity
  8
SK1
  6
CONTINUOUS
370
50
 62
4
100
AcDbLine
 10
-0.01
 20
1.020810880171298
 30
0.0
 11
1.010810880171299
 21
0.0
 31
0.0
  0
LINE
  5
92C
330
1F
100
AcDbEntity
  8
SK1
  6
CONTINUOUS
370
50
 62
4
100
AcDbLine
 10
-0.01
 20
1.37436427076457
 30
0.0
 11
1.364364270764571
 21
0.0
 31
0.0
  0
LINE
  5
92D
330
1F
100
AcDbEntity
  8
SK1
  6
CONTINUOUS
370
50
 62
4
100
AcDbLine
 10
-0.01
 20
1.727917661357843
 30
0.0
 11
1.717917661357845
 21
0.0
 31
0.0
  0
LINE
  5
92E
330
1F
100
AcDbEntity
  8
SK1
  6
CONTINUOUS
370
50
 62
4
100
AcDbLine
 10
-0.01
 20
2.081471051951116
 30
0.0
 11
2.071471051951118
 21
0.0
 31
0.0
  0
LINE
  5
92F
330
1F
100
AcDbEntity
  8
SK1
  6
CONTINUOUS
370
50
 62
4
100
AcDbLine
 10
-0.01
 20
2.435024442544389
 30
0.0
 11
2.425024442544392
 21
0.0
 31
0.0
  0
LINE
  5
930
330
1F
100
AcDbEntity
  8
SK1
  6
CONTINUOUS
370
50
 62
4
100
AcDbLine
 10
0.2977647139123103
 20
2.480813119225352
 30
0.0
 11
2.470813119225352
 21
0.307764713912313
 31
0.0
  0
LINE
  5
931
330
1F
100
AcDbEntity
  8
SK1
  6
CONTINUOUS
370
50
 62
4
100
AcDbLine
 10
0.7511924397506667
 20
2.380938783980268
 30
0.0
 11
2.370938783980268
 21
0.7611924397506691
 31
0.0
  0
LINE
  5
932
330
1F
100
AcDbEntity
  8
SK1
  6
CONTINUOUS
370
50
 62
4
100
AcDbLine
 10
1.47586376213526
 20
2.009820852188948
 30
0.0
 11
1.999820852188946
 21
1.485863762135263
 31
0.0
  0
LINE
  5
933
330
1F
100
AcDbEntity
  8
4
  6
LONGDASH_DASH
370
25
 62
2
100
AcDbLine
 10
-0.01
 20
0.0
 30
0.0
 11
12.122
 21
0.0
 31
0.0
  0
LINE
  5
934
330
1F
100
AcDbEntity
  8
SK4
  6
LONGDASH_DASH
370
25
 62
2
100
AcDbLine
 10
-50.878
 20
0.0
 30
0.0
 11
18.122
 21
0.0
 31
0.0
  0
ENDSEC
  0
SECTION
  2
OBJECTS
  0
DICTIONARY
  5
C
330
0
100
AcDbDictionary
281
     1
  3
ACAD_GROUP
350
D
  3
ACAD_LAYOUT
350
1A
  3
ACAD_MATERIAL
350
3B
  3
ACAD_MLEADERSTYLE
350
937
  3
ACAD_MLINESTYLE
350
17
  3
ACAD_PLOTSETTINGS
350
19
  3
ACAD_PLOTSTYLENAME
350
E
  3
ACAD_SCALELIST
350
31D
  3
ACAD_VISUALSTYLE
350
2A
  3
AcDbVariableDictionary
350
935
  0
DICTIONARY
  5
D
102
{ACAD_REACTORS
330
C
102
}
330
C
100
AcDbDictionary
281
     1
  0
DICTIONARY
  5
1A
102
{ACAD_REACTORS
330
C
102
}
330
C
100
AcDbDictionary
281
     1
  3
Layout1
350
1E
  3
Layout2
350
26
  3
Model
350
22
  0
DICTIONARY
  5
3B
102
{ACAD_REACTORS
330
C
102
}
330
C
100
AcDbDictionary
281
     1
  3
ByBlock
350
3D
  3
ByLayer
350
3C
  3
Global
350
3E
  0
DICTIONARY
  5
937
102
{ACAD_REACTORS
330
C
102
}
330
C
100
AcDbDictionary
281
     1
  0
DICTIONARY
  5
17
102
{ACAD_REACTORS
330
C
102
}
330
C
100
AcDbDictionary
281
     1
  3
Standard
350
18
  0
DICTIONARY
  5
19
102
{ACAD_REACTORS
330
C
102
}
330
C
100
AcDbDictionary
281
     1
  0
ACDBDICTIONARYWDFLT
  5
E
102
{ACAD_REACTORS
330
C
102
}
330
C
100
AcDbDictionary
281
     1
  3
Normal
350
F
100
AcDbDictionaryWithDefault
340
F
  0
DICTIONARY
  5
31D
102
{ACAD_REACTORS
330
C
102
}
330
C
100
AcDbDictionary
281
     1
  3
A0
350
31E
  3
A1
350
31F
  3
A2
350
320
  3
A3
350
321
  3
A4
350
322
  3
A5
350
323
  3
A6
350
324
  3
A7
350
325
  3
A8
350
326
  3
A9
350
327
  3
B0
350
328
  3
B1
350
329
  3
B2
350
32A
  3
B3
350
32B
  3
B4
350
32C
  3
B5
350
32D
  3
B6
350
32E
  3
B7
350
32F
  3
B8
350
330
  3
B9
350
331
  3
C0
350
332
  3
C1
350
333
  3
C2
350
334
  3
C3
350
335
  3
C4
350
336
  3
C5
350
337
  3
C6
350
338
  3
C7
350
339
  3
C8
350
33A
  3
C9
350
33B
  3
D0
350
33C
  3
D1
350
33D
  3
D2
350
33E
  0
DICTIONARY
  5
2A
102
{ACAD_REACTORS
330
C
102
}
330
C
100
AcDbDictionary
281
     1
  3
2dWireframe
350
2F
  3
3D Hidden
350
31
  3
3dWireframe
350
30
  3
Basic
350
32
  3
Brighten
350
36
  3
ColorChange
350
3A
  3
Conceptual
350
34
  3
Dim
350
35
  3
Facepattern
350
39
  3
Flat
350
2B
  3
FlatWithEdges
350
2C
  3
Gouraud
350
2D
  3
GouraudWithEdges
350
2E
  3
Linepattern
350
38
  3
Realistic
350
33
  3
Thicken
350
37
  0
DICTIONARY
  5
935
102
{ACAD_REACTORS
330
C
102
}
330
C
100
AcDbDictionary
281
     1
  3
CANNOSCALE
350
93A
  3
DIMASSOC
350
93B
  3
HIDETEXT
350
93C
  3
PSOLHEIGHT
350
939
  3
PSOLWIDTH
350
938
  0
LAYOUT
  5
1E
102
{ACAD_REACTORS
330
1A
102
}
330
1A
100
AcDbPlotSettings
  1

  2
none_device
  4

  6

 40
0.0
 41
0.0
 42
0.0
 43
0.0
 44
0.0
 45
0.0
 46
0.0
 47
0.0
 48
0.0
 49
0.0
140
0.0
141
0.0
142
1.0
143
1.0
 70
   688
 72
     0
 73
     0
 74
     5
  7

 75
    16
147
1.0
148
0.0
149
0.0
100
AcDbLayout
  1
Layout1
 70
     1
 71
     1
 10
0.0
 20
0.0
 11
420.0
 21
297.0
 12
0.0
 22
0.0
 32
0.0
 14
1.000000000000000E+20
 24
1.000000000000000E+20
 34
1.000000000000000E+20
 15
-1.000000000000000E+20
 25
-1.000000000000000E+20
 35
-1.000000000000000E+20
146
0.0
 13
0.0
 23
0.0
 33
0.0
 16
1.0
 26
0.0
 36
0.0
 17
0.0
 27
1.0
 37
0.0
 76
     0
330
1B
  0
LAYOUT
  5
26
102
{ACAD_REACTORS
330
1A
102
}
330
1A
100
AcDbPlotSettings
  1

  2
none_device
  4

  6

 40
0.0
 41
0.0
 42
0.0
 43
0.0
 44
0.0
 45
0.0
 46
0.0
 47
0.0
 48
0.0
 49
0.0
140
0.0
141
0.0
142
1.0
143
1.0
 70
   688
 72
     0
 73
     0
 74
     5
  7

 75
    16
147
1.0
148
0.0
149
0.0
100
AcDbLayout
  1
Layout2
 70
     1
 71
     2
 10
0.0
 20
0.0
 11
0.0
 21
0.0
 12
0.0
 22
0.0
 32
0.0
 14
0.0
 24
0.0
 34
0.0
 15
0.0
 25
0.0
 35
0.0
146
0.0
 13
0.0
 23
0.0
 33
0.0
 16
1.0
 26
0.0
 36
0.0
 17
0.0
 27
1.0
 37
0.0
 76
     0
330
23
  0
LAYOUT
  5
22
102
{ACAD_REACTORS
330
1A
102
}
330
1A
100
AcDbPlotSettings
  1

  2
none_device
  4

  6

 40
0.0
 41
0.0
 42
0.0
 43
0.0
 44
0.0
 45
0.0
 46
0.0
 47
0.0
 48
0.0
 49
0.0
140
0.0
141
0.0
142
1.0
143
1.0
 70
  1712
 72
     0
 73
     0
 74
     0
  7

 75
     0
147
1.0
148
0.0
149
0.0
100
AcDbLayout
  1
Model
 70
     1
 71
     0
 10
0.0
 20
0.0
 11
420.0
 21
297.0
 12
0.0
 22
0.0
 32
0.0
 14
0.0
 24
0.0
 34
0.0
 15
25.0
 25
35.0
 35
0.0
146
0.0
 13
0.0
 23
0.0
 33
0.0
 16
1.0
 26
0.0
 36
0.0
 17
0.0
 27
1.0
 37
0.0
 76
     0
330
1F
331
29
  0
MATERIAL
  5
3D
102
{ACAD_REACTORS
330
3B
102
}
102
{ACAD_XDICTIONARY
360
95F
102
}
330
3B
100
AcDbMaterial
  1
ByBlock
  0
MATERIAL
  5
3C
102
{ACAD_REACTORS
330
3B
102
}
102
{ACAD_XDICTIONARY
360
95D
102
}
330
3B
100
AcDbMaterial
  1
ByLayer
  0
MATERIAL
  5
3E
102
{ACAD_REACTORS
330
3B
102
}
102
{ACAD_XDICTIONARY
360
961
102
}
330
3B
100
AcDbMaterial
  1
Global
  0
MLINESTYLE
  5
18
102
{ACAD_REACTORS
330
17
102
}
330
17
100
AcDbMlineStyle
  2
Standard
 70
     0
  3

 62
   256
 51
90.0
 52
90.0
 71
     2
 49
0.5
 62
   256
  6
BYLAYER
 49
-0.5
 62
   256
  6
BYLAYER
  0
ACDBPLACEHOLDER
  5
F
102
{ACAD_REACTORS
330
E
102
}
330
E
  0
SCALE
  5
31E
102
{ACAD_REACTORS
330
31D
102
}
330
31D
100
AcDbScale
 70
     0
300
1:1
140
1.0
141
1.0
290
     1
  0
SCALE
  5
31F
102
{ACAD_REACTORS
330
31D
102
}
330
31D
100
AcDbScale
 70
     0
300
1:2
140
1.0
141
2.0
290
     0
  0
SCALE
  5
320
102
{ACAD_REACTORS
330
31D
102
}
330
31D
100
AcDbScale
 70
     0
300
1:4
140
1.0
141
4.0
290
     0
  0
SCALE
  5
321
102
{ACAD_REACTORS
330
31D
102
}
330
31D
100
AcDbScale
 70
     0
300
1:5
140
1.0
141
5.0
290
     0
  0
SCALE
  5
322
102
{ACAD_REACTORS
330
31D
102
}
330
31D
100
AcDbScale
 70
     0
300
1:8
140
1.0
141
8.0
290
     0
  0
SCALE
  5
323
102
{ACAD_REACTORS
330
31D
102
}
330
31D
100
AcDbScale
 70
     0
300
1:10
140
1.0
141
10.0
290
     0
  0
SCALE
  5
324
102
{ACAD_REACTORS
330
31D
102
}
330
31D
100
AcDbScale
 70
     0
300
1:16
140
1.0
141
16.0
290
     0
  0
SCALE
  5
325
102
{ACAD_REACTORS
330
31D
102
}
330
31D
100
AcDbScale
 70
     0
300
1:20
140
1.0
141
20.0
290
     0
  0
SCALE
  5
326
102
{ACAD_REACTORS
330
31D
102
}
330
31D
100
AcDbScale
 70
     0
300
1:30
140
1.0
141
30.0
290
     0
  0
SCALE
  5
327
102
{ACAD_REACTORS
330
31D
102
}
330
31D
100
AcDbScale
 70
     0
300
1:40
140
1.0
141
40.0
290
     0
  0
SCALE
  5
328
102
{ACAD_REACTORS
330
31D
102
}
330
31D
100
AcDbScale
 70
     0
300
1:50
140
1.0
141
50.0
290
     0
  0
SCALE
  5
329
102
{ACAD_REACTORS
330
31D
102
}
330
31D
100
AcDbScale
 70
     0
300
1:100
140
1.0
141
100.0
290
     0
  0
SCALE
  5
32A
102
{ACAD_REACTORS
330
31D
102
}
330
31D
100
AcDbScale
 70
     0
300
2:1
140
2.0
141
1.0
290
     0
  0
SCALE
  5
32B
102
{ACAD_REACTORS
330
31D
102
}
330
31D
100
AcDbScale
 70
     0
300
4:1
140
4.0
141
1.0
290
     0
  0
SCALE
  5
32C
102
{ACAD_REACTORS
330
31D
102
}
330
31D
100
AcDbScale
 70
     0
300
8:1
140
8.0
141
1.0
290
     0
  0
SCALE
  5
32D
102
{ACAD_REACTORS
330
31D
102
}
330
31D
100
AcDbScale
 70
     0
300
10:1
140
10.0
141
1.0
290
     0
  0
SCALE
  5
32E
102
{ACAD_REACTORS
330
31D
102
}
330
31D
100
AcDbScale
 70
     0
300
100:1
140
100.0
141
1.0
290
     0
  0
SCALE
  5
32F
102
{ACAD_REACTORS
330
31D
102
}
330
31D
100
AcDbScale
 70
     0
300
1/128" = 1'-0"
140
0.0078125
141
12.0
290
     0
  0
SCALE
  5
330
102
{ACAD_REACTORS
330
31D
102
}
330
31D
100
AcDbScale
 70
     0
300
1/64" = 1'-0"
140
0.015625
141
12.0
290
     0
  0
SCALE
  5
331
102
{ACAD_REACTORS
330
31D
102
}
330
31D
100
AcDbScale
 70
     0
300
1/32" = 1'-0"
140
0.03125
141
12.0
290
     0
  0
SCALE
  5
332
102
{ACAD_REACTORS
330
31D
102
}
330
31D
100
AcDbScale
 70
     0
300
1/16" = 1'-0"
140
0.0625
141
12.0
290
     0
  0
SCALE
  5
333
102
{ACAD_REACTORS
330
31D
102
}
330
31D
100
AcDbScale
 70
     0
300
3/32" = 1'-0"
140
0.09375
141
12.0
290
     0
  0
SCALE
  5
334
102
{ACAD_REACTORS
330
31D
102
}
330
31D
100
AcDbScale
 70
     0
300
1/8" = 1'-0"
140
0.125
141
12.0
290
     0
  0
SCALE
  5
335
102
{ACAD_REACTORS
330
31D
102
}
330
31D
100
AcDbScale
 70
     0
300
3/16" = 1'-0"
140
0.1875
141
12.0
290
     0
  0
SCALE
  5
336
102
{ACAD_REACTORS
330
31D
102
}
330
31D
100
AcDbScale
 70
     0
300
1/4" = 1'-0"
140
0.25
141
12.0
290
     0
  0
SCALE
  5
337
102
{ACAD_REACTORS
330
31D
102
}
330
31D
100
AcDbScale
 70
     0
300
3/8" = 1'-0"
140
0.375
141
12.0
290
     0
  0
SCALE
  5
338
102
{ACAD_REACTORS
330
31D
102
}
330
31D
100
AcDbScale
 70
     0
300
1/2" = 1'-0"
140
0.5
141
12.0
290
     0
  0
SCALE
  5
339
102
{ACAD_REACTORS
330
31D
102
}
330
31D
100
AcDbScale
 70
     0
300
3/4" = 1'-0"
140
0.75
141
12.0
290
     0
  0
SCALE
  5
33A
102
{ACAD_REACTORS
330
31D
102
}
330
31D
100
AcDbScale
 70
     0
300
1" = 1'-0"
140
1.0
141
12.0
290
     0
  0
SCALE
  5
33B
102
{ACAD_REACTORS
330
31D
102
}
330
31D
100
AcDbScale
 70
     0
300
1-1/2" = 1'-0"
140
1.5
141
12.0
290
     0
  0
SCALE
  5
33C
102
{ACAD_REACTORS
330
31D
102
}
330
31D
100
AcDbScale
 70
     0
300
3" = 1'-0"
140
3.0
141
12.0
290
     0
  0
SCALE
  5
33D
102
{ACAD_REACTORS
330
31D
102
}
330
31D
100
AcDbScale
 70
     0
300
6" = 1'-0"
140
6.0
141
12.0
290
     0
  0
SCALE
  5
33E
102
{ACAD_REACTORS
330
31D
102
}
330
31D
100
AcDbScale
 70
     0
300
1'-0" = 1'-0"
140
12.0
141
12.0
290
     0
  0
VISUALSTYLE
  5
2F
102
{ACAD_REACTORS
330
2A
102
}
102
{ACAD_XDICTIONARY
360
945
102
}
330
2A
100
AcDbVisualStyle
  2
2dWireframe
 70
     4
 71
     0
 72
     2
 73
     0
 90
        0
 40
-0.6
 41
-30.0
 62
     5
 63
     7
 74
     1
 91
        4
 64
     7
 65
   257
 75
     1
175
     1
 42
1.0
 92
        0
 66
   257
 43
1.0
 76
     1
 77
     6
 78
     2
 67
     7
 79
     5
170
     0
171
     0
290
     0
174
     0
 93
        1
 44
0.0
173
     0
291
     0
 45
0.0
1001
ACAD
1000
AcDbSavedByObjectVersion
1070
     0
  0
VISUALSTYLE
  5
31
102
{ACAD_REACTORS
330
2A
102
}
102
{ACAD_XDICTIONARY
360
949
102
}
330
2A
100
AcDbVisualStyle
  2
3D Hidden
 70
     6
 71
     1
 72
     2
 73
     2
 90
        0
 40
-0.6
 41
-30.0
 62
     5
 63
     7
 74
     2
 91
        2
 64
     7
 65
   257
 75
     2
175
     1
 42
40.0
 92
        0
 66
   257
 43
1.0
 76
     1
 77
     6
 78
     2
 67
     7
 79
     3
170
     0
171
     0
290
     0
174
     0
 93
        1
 44
0.0
173
     0
291
     0
 45
0.0
1001
ACAD
1000
AcDbSavedByObjectVersion
1070
     0
  0
VISUALSTYLE
  5
30
102
{ACAD_REACTORS
330
2A
102
}
102
{ACAD_XDICTIONARY
360
947
102
}
330
2A
100
AcDbVisualStyle
  2
3dWireframe
 70
     5
 71
     0
 72
     2
 73
     0
 90
        0
 40
-0.6
 41
-30.0
 62
     5
 63
     7
 74
     1
 91
        4
 64
     7
 65
   257
 75
     1
175
     1
 42
1.0
 92
        0
 66
   257
 43
1.0
 76
     1
 77
     6
 78
     2
 67
     7
 79
     5
170
     0
171
     0
290
     0
174
     0
 93
        1
 44
0.0
173
     0
291
     0
 45
0.0
1001
ACAD
1000
AcDbSavedByObjectVersion
1070
     0
  0
VISUALSTYLE
  5
32
102
{ACAD_REACTORS
330
2A
102
}
102
{ACAD_XDICTIONARY
360
94B
102
}
330
2A
100
AcDbVisualStyle
  2
Basic
 70
     7
 71
     1
 72
     0
 73
     1
 90
        0
 40
-0.6
 41
-30.0
 62
     5
 63
     7
 74
     0
 91
        4
 64
     7
 65
   257
 75
     1
175
     1
 42
1.0
 92
        8
 66
     7
 43
1.0
 76
     1
 77
     6
 78
     2
 67
     7
 79
     5
170
     0
171
     0
290
     0
174
     0
 93
        1
 44
0.0
173
     0
291
     1
 45
0.0
1001
ACAD
1000
AcDbSavedByObjectVersion
1070
     0
  0
VISUALSTYLE
  5
36
102
{ACAD_REACTORS
330
2A
102
}
102
{ACAD_XDICTIONARY
360
953
102
}
330
2A
100
AcDbVisualStyle
  2
Brighten
 70
    12
 71
     2
 72
     2
 73
     0
 90
        0
 40
-0.6
 41
-30.0
 62
     5
 63
     7
 74
     1
 91
        4
 64
     7
 65
   257
 75
     1
175
     1
 42
1.0
 92
        8
 66
     7
 43
1.0
 76
     1
 77
     6
 78
     2
 67
     7
 79
     5
170
     0
171
     0
290
     0
174
     0
 93
        1
 44
50.0
173
     0
291
     1
 45
0.0
1001
ACAD
1000
AcDbSavedByObjectVersion
1070
     0
  0
VISUALSTYLE
  5
3A
102
{ACAD_REACTORS
330
2A
102
}
102
{ACAD_XDICTIONARY
360
95B
102
}
330
2A
100
AcDbVisualStyle
  2
ColorChange
 70
    16
 71
     2
 72
     2
 73
     3
 90
        0
 40
-0.6
 41
-30.0
 62
     5
 63
     8
 74
     1
 91
        4
 64
     7
 65
   257
 75
     1
175
     1
 42
1.0
 92
        8
 66
     8
 43
1.0
 76
     1
 77
     6
 78
     2
 67
     7
 79
     5
170
     0
171
     0
290
     0
174
     0
 93
        1
 44
0.0
173
     0
291
     1
 45
0.0
1001
ACAD
1000
AcDbSavedByObjectVersion
1070
     0
  0
VISUALSTYLE
  5
34
102
{ACAD_REACTORS
330
2A
102
}
102
{ACAD_XDICTIONARY
360
94F
102
}
330
2A
100
AcDbVisualStyle
  2
Conceptual
 70
     9
 71
     3
 72
     2
 73
     0
 90
        0
 40
-0.6
 41
-30.0
 62
     5
 63
     7
 74
     2
 91
        2
 64
     7
 65
   257
 75
     1
175
     1
 42
40.0
 92
        8
 66
     7
 43
1.0
 76
     1
 77
     6
 78
     2
 67
     7
 79
     3
170
     0
171
     0
290
     0
174
     0
 93
        1
 44
0.0
173
     0
291
     0
 45
0.0
1001
ACAD
1000
AcDbSavedByObjectVersion
1070
     0
  0
VISUALSTYLE
  5
35
102
{ACAD_REACTORS
330
2A
102
}
102
{ACAD_XDICTIONARY
360
951
102
}
330
2A
100
AcDbVisualStyle
  2
Dim
 70
    11
 71
     2
 72
     2
 73
     0
 90
        0
 40
-0.6
 41
-30.0
 62
     5
 63
     7
 74
     1
 91
        4
 64
     7
 65
   257
 75
     1
175
     1
 42
1.0
 92
        8
 66
     7
 43
1.0
 76
     1
 77
     6
 78
     2
 67
     7
 79
     5
170
     0
171
     0
290
     0
174
     0
 93
        1
 44
-50.0
173
     0
291
     1
 45
0.0
1001
ACAD
1000
AcDbSavedByObjectVersion
1070
     0
  0
VISUALSTYLE
  5
39
102
{ACAD_REACTORS
330
2A
102
}
102
{ACAD_XDICTIONARY
360
959
102
}
330
2A
100
AcDbVisualStyle
  2
Facepattern
 70
    15
 71
     2
 72
     2
 73
     0
 90
        0
 40
-0.6
 41
-30.0
 62
     5
 63
     7
 74
     1
 91
        4
 64
     7
 65
   257
 75
     1
175
     1
 42
1.0
 92
        8
 66
     7
 43
1.0
 76
     1
 77
     6
 78
     2
 67
     7
 79
     5
170
     0
171
     0
290
     0
174
     0
 93
        1
 44
0.0
173
     0
291
     1
 45
0.0
1001
ACAD
1000
AcDbSavedByObjectVersion
1070
     0
  0
VISUALSTYLE
  5
2B
102
{ACAD_REACTORS
330
2A
102
}
102
{ACAD_XDICTIONARY
360
93D
102
}
330
2A
100
AcDbVisualStyle
  2
Flat
 70
     0
 71
     2
 72
     1
 73
     1
 90
        2
 40
-0.6
 41
30.0
 62
     5
 63
     7
 74
     0
 91
        4
 64
     7
 65
   257
 75
     1
175
     1
 42
1.0
 92
        8
 66
     7
 43
1.0
 76
     1
 77
     6
 78
     2
 67
     7
 79
     5
170
     0
171
     0
290
     0
174
     0
 93
       13
 44
0.0
173
     0
291
     1
 45
0.0
1001
ACAD
1000
AcDbSavedByObjectVersion
1070
     0
  0
VISUALSTYLE
  5
2C
102
{ACAD_REACTORS
330
2A
102
}
102
{ACAD_XDICTIONARY
360
93F
102
}
330
2A
100
AcDbVisualStyle
  2
FlatWithEdges
 70
     1
 71
     2
 72
     1
 73
     1
 90
        2
 40
-0.6
 41
30.0
 62
     5
 63
     7
 74
     1
 91
        4
 64
     7
 65
   257
 75
     1
175
     1
 42
1.0
 92
        0
 66
   257
 43
1.0
 76
     1
 77
     6
 78
     2
 67
     7
 79
     5
170
     0
171
     0
290
     0
174
     0
 93
       13
 44
0.0
173
     0
291
     1
 45
0.0
1001
ACAD
1000
AcDbSavedByObjectVersion
1070
     0
  0
VISUALSTYLE
  5
2D
102
{ACAD_REACTORS
330
2A
102
}
102
{ACAD_XDICTIONARY
360
941
102
}
330
2A
100
AcDbVisualStyle
  2
Gouraud
 70
     2
 71
     2
 72
     2
 73
     1
 90
        2
 40
-0.6
 41
30.0
 62
     5
 63
     7
 74
     0
 91
        4
 64
     7
 65
   257
 75
     1
175
     1
 42
1.0
 92
        0
 66
     7
 43
1.0
 76
     1
 77
     6
 78
     2
 67
     7
 79
     5
170
     0
171
     0
290
     0
174
     0
 93
       13
 44
0.0
173
     0
291
     1
 45
0.0
1001
ACAD
1000
AcDbSavedByObjectVersion
1070
     0
  0
VISUALSTYLE
  5
2E
102
{ACAD_REACTORS
330
2A
102
}
102
{ACAD_XDICTIONARY
360
943
102
}
330
2A
100
AcDbVisualStyle
  2
GouraudWithEdges
 70
     3
 71
     2
 72
     2
 73
     1
 90
        2
 40
-0.6
 41
30.0
 62
     5
 63
     7
 74
     1
 91
        4
 64
     7
 65
   257
 75
     1
175
     1
 42
1.0
 92
        0
 66
   257
 43
1.0
 76
     1
 77
     6
 78
     2
 67
     7
 79
     5
170
     0
171
     0
290
     0
174
     0
 93
       13
 44
0.0
173
     0
291
     1
 45
0.0
1001
ACAD
1000
AcDbSavedByObjectVersion
1070
     0
  0
VISUALSTYLE
  5
38
102
{ACAD_REACTORS
330
2A
102
}
102
{ACAD_XDICTIONARY
360
957
102
}
330
2A
100
AcDbVisualStyle
  2
Linepattern
 70
    14
 71
     2
 72
     2
 73
     0
 90
        0
 40
-0.6
 41
-30.0
 62
     5
 63
     7
 74
     1
 91
        4
 64
     7
 65
   257
 75
     7
175
     7
 42
1.0
 92
        8
 66
     7
 43
1.0
 76
     1
 77
     6
 78
     2
 67
     7
 79
     5
170
     0
171
     0
290
     0
174
     0
 93
        1
 44
0.0
173
     0
291
     1
 45
0.0
1001
ACAD
1000
AcDbSavedByObjectVersion
1070
     0
  0
VISUALSTYLE
  5
33
102
{ACAD_REACTORS
330
2A
102
}
102
{ACAD_XDICTIONARY
360
94D
102
}
330
2A
100
AcDbVisualStyle
  2
Realistic
 70
     8
 71
     2
 72
     2
 73
     0
 90
        0
 40
-0.6
 41
-30.0
 62
     5
 63
     7
 74
     1
 91
        0
 64
     7
 65
   257
 75
     1
175
     1
 42
1.0
 92
        8
 66
     8
 43
1.0
 76
     1
 77
     6
 78
     2
 67
     7
 79
     5
170
     0
171
     0
290
     0
174
     0
 93
       13
 44
0.0
173
     0
291
     0
 45
0.0
1001
ACAD
1000
AcDbSavedByObjectVersion
1070
     0
  0
VISUALSTYLE
  5
37
102
{ACAD_REACTORS
330
2A
102
}
102
{ACAD_XDICTIONARY
360
955
102
}
330
2A
100
AcDbVisualStyle
  2
Thicken
 70
    13
 71
     2
 72
     2
 73
     0
 90
        0
 40
-0.6
 41
-30.0
 62
     5
 63
     7
 74
     1
 91
        4
 64
     7
 65
   257
 75
     1
175
     1
 42
1.0
 92
       12
 66
     7
 43
1.0
 76
     1
 77
     6
 78
     2
 67
     7
 79
     5
170
     0
171
     0
290
     0
174
     0
 93
        1
 44
0.0
173
     0
291
     1
 45
0.0
1001
ACAD
1000
AcDbSavedByObjectVersion
1070
     0
  0
DICTIONARYVAR
  5
93A
102
{ACAD_REACTORS
330
935
102
}
330
935
100
DictionaryVariables
280
     0
  1
1:1
  0
DICTIONARYVAR
  5
93B
102
{ACAD_REACTORS
330
935
102
}
330
935
100
DictionaryVariables
280
     0
  1
2
  0
DICTIONARYVAR
  5
93C
102
{ACAD_REACTORS
330
935
102
}
330
935
100
DictionaryVariables
280
     0
  1
1
  0
DICTIONARYVAR
  5
939
102
{ACAD_REACTORS
330
935
102
}
330
935
100
DictionaryVariables
280
     0
  1
80.000000
  0
DICTIONARYVAR
  5
938
102
{ACAD_REACTORS
330
935
102
}
330
935
100
DictionaryVariables
280
     0
  1
5.000000
  0
DICTIONARY
  5
95F
330
3D
100
AcDbDictionary
280
     1
281
     1
  3
ACAD_XREC_ROUNDTRIP
360
960
  0
DICTIONARY
  5
95D
330
3C
100
AcDbDictionary
280
     1
281
     1
  3
ACAD_XREC_ROUNDTRIP
360
95E
  0
DICTIONARY
  5
961
330
3E
100
AcDbDictionary
280
     1
281
     1
  3
ACAD_XREC_ROUNDTRIP
360
962
  0
DICTIONARY
  5
945
330
2F
100
AcDbDictionary
280
     1
281
     1
  3
ACAD_XREC_ROUNDTRIP
360
946
  0
DICTIONARY
  5
949
330
31
100
AcDbDictionary
280
     1
281
     1
  3
ACAD_XREC_ROUNDTRIP
360
94A
  0
DICTIONARY
  5
947
330
30
100
AcDbDictionary
280
     1
281
     1
  3
ACAD_XREC_ROUNDTRIP
360
948
  0
DICTIONARY
  5
94B
330
32
100
AcDbDictionary
280
     1
281
     1
  3
ACAD_XREC_ROUNDTRIP
360
94C
  0
DICTIONARY
  5
953
330
36
100
AcDbDictionary
280
     1
281
     1
  3
ACAD_XREC_ROUNDTRIP
360
954
  0
DICTIONARY
  5
95B
330
3A
100
AcDbDictionary
280
     1
281
     1
  3
ACAD_XREC_ROUNDTRIP
360
95C
  0
DICTIONARY
  5
94F
330
34
100
AcDbDictionary
280
     1
281
     1
  3
ACAD_XREC_ROUNDTRIP
360
950
  0
DICTIONARY
  5
951
330
35
100
AcDbDictionary
280
     1
281
     1
  3
ACAD_XREC_ROUNDTRIP
360
952
  0
DICTIONARY
  5
959
330
39
100
AcDbDictionary
280
     1
281
     1
  3
ACAD_XREC_ROUNDTRIP
360
95A
  0
DICTIONARY
  5
93D
330
2B
100
AcDbDictionary
280
     1
281
     1
  3
ACAD_XREC_ROUNDTRIP
360
93E
  0
DICTIONARY
  5
93F
330
2C
100
AcDbDictionary
280
     1
281
     1
  3
ACAD_XREC_ROUNDTRIP
360
940
  0
DICTIONARY
  5
941
330
2D
100
AcDbDictionary
280
     1
281
     1
  3
ACAD_XREC_ROUNDTRIP
360
942
  0
DICTIONARY
  5
943
330
2E
100
AcDbDictionary
280
     1
281
     1
  3
ACAD_XREC_ROUNDTRIP
360
944
  0
DICTIONARY
  5
957
330
38
100
AcDbDictionary
280
     1
281
     1
  3
ACAD_XREC_ROUNDTRIP
360
958
  0
DICTIONARY
  5
94D
330
33
100
AcDbDictionary
280
     1
281
     1
  3
ACAD_XREC_ROUNDTRIP
360
94E
  0
DICTIONARY
  5
955
330
37
100
AcDbDictionary
280
     1
281
     1
  3
ACAD_XREC_ROUNDTRIP
360
956
  0
XRECORD
  5
960
102
{ACAD_REACTORS
330
95F
102
}
330
95F
100
AcDbXrecord
280
     1
102
MATERIAL
148
0.0
149
0.0
149
0.0
 93
        0
 94
      127
282
     0
 72
     1
 77
     1
171
     1
175
     1
179
     1
273
     0
  0
XRECORD
  5
95E
102
{ACAD_REACTORS
330
95D
102
}
330
95D
100
AcDbXrecord
280
     1
102
MATERIAL
148
0.0
149
0.0
149
0.0
 93
        0
 94
      127
282
     0
 72
     1
 77
     1
171
     1
175
     1
179
     1
273
     0
  0
XRECORD
  5
962
102
{ACAD_REACTORS
330
961
102
}
330
961
100
AcDbXrecord
280
     1
102
MATERIAL
148
0.0
149
0.0
149
0.0
 93
        0
 94
      127
282
     0
 72
     1
 77
     1
171
     1
175
     1
179
     1
273
     0
  0
XRECORD
  5
946
102
{ACAD_REACTORS
330
945
102
}
330
945
100
AcDbXrecord
280
     1
102
RTVSPropertyOp0
 70
     1
102
RTVSPropertyOp1
 70
     1
102
RTVSPropertyOp2
 70
     1
102
RTVSPropertyOp3
 70
     1
102
RTVSPropertyOp4
 70
     1
102
RTVSPropertyOp5
 70
     1
102
RTVSPropertyOp6
 70
     1
102
RTVSPropertyOp7
 70
     1
102
RTVSPropertyOp8
 70
     1
102
RTVSPropertyOp9
 70
     1
102
RTVSPropertyOp10
 70
     1
102
RTVSPropertyOp11
 70
     1
102
RTVSPropertyOp12
 70
     1
102
RTVSPropertyOp13
 70
     1
102
RTVSPropertyOp14
 70
     1
102
RTVSPropertyOp15
 70
     1
102
RTVSPropertyOp16
 70
     1
102
RTVSPropertyOp17
 70
     1
102
RTVSPropertyOp18
 70
     1
102
RTVSPropertyOp19
 70
     1
102
RTVSPropertyOp20
 70
     1
102
RTVSPropertyOp21
 70
     1
102
RTVSPropertyOp22
 70
     1
102
RTVSPropertyOp23
 70
     1
102
RTVSPropertyOp24
 70
     1
102
RTVSPropertyOp25
 70
     1
102
RTVSPropertyOp26
 70
     1
102
RTVSPropertyOp27
 70
     1
  0
XRECORD
  5
94A
102
{ACAD_REACTORS
330
949
102
}
330
949
100
AcDbXrecord
280
     1
102
RTVSPropertyOp0
 70
     1
102
RTVSPropertyOp1
 70
     1
102
RTVSPropertyOp2
 70
     1
102
RTVSPropertyOp3
 70
     1
102
RTVSPropertyOp4
 70
     1
102
RTVSPropertyOp5
 70
     1
102
RTVSPropertyOp6
 70
     1
102
RTVSPropertyOp7
 70
     1
102
RTVSPropertyOp8
 70
     1
102
RTVSPropertyOp9
 70
     1
102
RTVSPropertyOp10
 70
     1
102
RTVSPropertyOp11
 70
     1
102
RTVSPropertyOp12
 70
     1
102
RTVSPropertyOp13
 70
     1
102
RTVSPropertyOp14
 70
     1
102
RTVSPropertyOp15
 70
     1
102
RTVSPropertyOp16
 70
     1
102
RTVSPropertyOp17
 70
     1
102
RTVSPropertyOp18
 70
     1
102
RTVSPropertyOp19
 70
     1
102
RTVSPropertyOp20
 70
     1
102
RTVSPropertyOp21
 70
     1
102
RTVSPropertyOp22
 70
     1
102
RTVSPropertyOp23
 70
     1
102
RTVSPropertyOp24
 70
     1
102
RTVSPropertyOp25
 70
     1
102
RTVSPropertyOp26
 70
     1
102
RTVSPropertyOp27
 70
     1
  0
XRECORD
  5
948
102
{ACAD_REACTORS
330
947
102
}
330
947
100
AcDbXrecord
280
     1
102
RTVSPropertyOp0
 70
     1
102
RTVSPropertyOp1
 70
     1
102
RTVSPropertyOp2
 70
     1
102
RTVSPropertyOp3
 70
     1
102
RTVSPropertyOp4
 70
     1
102
RTVSPropertyOp5
 70
     1
102
RTVSPropertyOp6
 70
     1
102
RTVSPropertyOp7
 70
     1
102
RTVSPropertyOp8
 70
     1
102
RTVSPropertyOp9
 70
     1
102
RTVSPropertyOp10
 70
     1
102
RTVSPropertyOp11
 70
     1
102
RTVSPropertyOp12
 70
     1
102
RTVSPropertyOp13
 70
     1
102
RTVSPropertyOp14
 70
     1
102
RTVSPropertyOp15
 70
     1
102
RTVSPropertyOp16
 70
     1
102
RTVSPropertyOp17
 70
     1
102
RTVSPropertyOp18
 70
     1
102
RTVSPropertyOp19
 70
     1
102
RTVSPropertyOp20
 70
     1
102
RTVSPropertyOp21
 70
     1
102
RTVSPropertyOp22
 70
     1
102
RTVSPropertyOp23
 70
     1
102
RTVSPropertyOp24
 70
     1
102
RTVSPropertyOp25
 70
     1
102
RTVSPropertyOp26
 70
     1
102
RTVSPropertyOp27
 70
     1
  0
XRECORD
  5
94C
102
{ACAD_REACTORS
330
94B
102
}
330
94B
100
AcDbXrecord
280
     1
102
RTVSPropertyOp0
 70
     1
102
RTVSPropertyOp1
 70
     1
102
RTVSPropertyOp2
 70
     1
102
RTVSPropertyOp3
 70
     1
102
RTVSPropertyOp4
 70
     1
102
RTVSPropertyOp5
 70
     1
102
RTVSPropertyOp6
 70
     1
102
RTVSPropertyOp7
 70
     1
102
RTVSPropertyOp8
 70
     1
102
RTVSPropertyOp9
 70
     1
102
RTVSPropertyOp10
 70
     1
102
RTVSPropertyOp11
 70
     1
102
RTVSPropertyOp12
 70
     1
102
RTVSPropertyOp13
 70
     1
102
RTVSPropertyOp14
 70
     1
102
RTVSPropertyOp15
 70
     1
102
RTVSPropertyOp16
 70
     1
102
RTVSPropertyOp17
 70
     1
102
RTVSPropertyOp18
 70
     1
102
RTVSPropertyOp19
 70
     1
102
RTVSPropertyOp20
 70
     1
102
RTVSPropertyOp21
 70
     1
102
RTVSPropertyOp22
 70
     1
102
RTVSPropertyOp23
 70
     1
102
RTVSPropertyOp24
 70
     1
102
RTVSPropertyOp25
 70
     1
102
RTVSPropertyOp26
 70
     1
102
RTVSPropertyOp27
 70
     1
  0
XRECORD
  5
954
102
{ACAD_REACTORS
330
953
102
}
330
953
100
AcDbXrecord
280
     1
102
RTVSPropertyOp0
 70
     1
102
RTVSPropertyOp1
 70
     1
102
RTVSPropertyOp2
 70
     1
102
RTVSPropertyOp3
 70
     1
102
RTVSPropertyOp4
 70
     1
102
RTVSPropertyOp5
 70
     1
102
RTVSPropertyOp6
 70
     1
102
RTVSPropertyOp7
 70
     1
102
RTVSPropertyOp8
 70
     1
102
RTVSPropertyOp9
 70
     1
102
RTVSPropertyOp10
 70
     1
102
RTVSPropertyOp11
 70
     1
102
RTVSPropertyOp12
 70
     1
102
RTVSPropertyOp13
 70
     1
102
RTVSPropertyOp14
 70
     1
102
RTVSPropertyOp15
 70
     1
102
RTVSPropertyOp16
 70
     1
102
RTVSPropertyOp17
 70
     1
102
RTVSPropertyOp18
 70
     1
102
RTVSPropertyOp19
 70
     1
102
RTVSPropertyOp20
 70
     1
102
RTVSPropertyOp21
 70
     1
102
RTVSPropertyOp22
 70
     1
102
RTVSPropertyOp23
 70
     1
102
RTVSPropertyOp24
 70
     1
102
RTVSPropertyOp25
 70
     1
102
RTVSPropertyOp26
 70
     1
102
RTVSPropertyOp27
 70
     1
  0
XRECORD
  5
95C
102
{ACAD_REACTORS
330
95B
102
}
330
95B
100
AcDbXrecord
280
     1
102
RTVSPropertyOp0
 70
     1
102
RTVSPropertyOp1
 70
     1
102
RTVSPropertyOp2
 70
     1
102
RTVSPropertyOp3
 70
     1
102
RTVSPropertyOp4
 70
     1
102
RTVSPropertyOp5
 70
     1
102
RTVSPropertyOp6
 70
     1
102
RTVSPropertyOp7
 70
     1
102
RTVSPropertyOp8
 70
     1
102
RTVSPropertyOp9
 70
     1
102
RTVSPropertyOp10
 70
     1
102
RTVSPropertyOp11
 70
     1
102
RTVSPropertyOp12
 70
     1
102
RTVSPropertyOp13
 70
     1
102
RTVSPropertyOp14
 70
     1
102
RTVSPropertyOp15
 70
     1
102
RTVSPropertyOp16
 70
     1
102
RTVSPropertyOp17
 70
     1
102
RTVSPropertyOp18
 70
     1
102
RTVSPropertyOp19
 70
     1
102
RTVSPropertyOp20
 70
     1
102
RTVSPropertyOp21
 70
     1
102
RTVSPropertyOp22
 70
     1
102
RTVSPropertyOp23
 70
     1
102
RTVSPropertyOp24
 70
     1
102
RTVSPropertyOp25
 70
     1
102
RTVSPropertyOp26
 70
     1
102
RTVSPropertyOp27
 70
     1
  0
XRECORD
  5
950
102
{ACAD_REACTORS
330
94F
102
}
330
94F
100
AcDbXrecord
280
     1
102
RTVSPropertyOp0
 70
     1
102
RTVSPropertyOp1
 70
     1
102
RTVSPropertyOp2
 70
     1
102
RTVSPropertyOp3
 70
     1
102
RTVSPropertyOp4
 70
     1
102
RTVSPropertyOp5
 70
     1
102
RTVSPropertyOp6
 70
     1
102
RTVSPropertyOp7
 70
     1
102
RTVSPropertyOp8
 70
     1
102
RTVSPropertyOp9
 70
     1
102
RTVSPropertyOp10
 70
     1
102
RTVSPropertyOp11
 70
     1
102
RTVSPropertyOp12
 70
     1
102
RTVSPropertyOp13
 70
     1
102
RTVSPropertyOp14
 70
     1
102
RTVSPropertyOp15
 70
     1
102
RTVSPropertyOp16
 70
     1
102
RTVSPropertyOp17
 70
     1
102
RTVSPropertyOp18
 70
     1
102
RTVSPropertyOp19
 70
     1
102
RTVSPropertyOp20
 70
     1
102
RTVSPropertyOp21
 70
     1
102
RTVSPropertyOp22
 70
     1
102
RTVSPropertyOp23
 70
     1
102
RTVSPropertyOp24
 70
     1
102
RTVSPropertyOp25
 70
     1
102
RTVSPropertyOp26
 70
     1
102
RTVSPropertyOp27
 70
     1
  0
XRECORD
  5
952
102
{ACAD_REACTORS
330
951
102
}
330
951
100
AcDbXrecord
280
     1
102
RTVSPropertyOp0
 70
     1
102
RTVSPropertyOp1
 70
     1
102
RTVSPropertyOp2
 70
     1
102
RTVSPropertyOp3
 70
     1
102
RTVSPropertyOp4
 70
     1
102
RTVSPropertyOp5
 70
     1
102
RTVSPropertyOp6
 70
     1
102
RTVSPropertyOp7
 70
     1
102
RTVSPropertyOp8
 70
     1
102
RTVSPropertyOp9
 70
     1
102
RTVSPropertyOp10
 70
     1
102
RTVSPropertyOp11
 70
     1
102
RTVSPropertyOp12
 70
     1
102
RTVSPropertyOp13
 70
     1
102
RTVSPropertyOp14
 70
     1
102
RTVSPropertyOp15
 70
     1
102
RTVSPropertyOp16
 70
     1
102
RTVSPropertyOp17
 70
     1
102
RTVSPropertyOp18
 70
     1
102
RTVSPropertyOp19
 70
     1
102
RTVSPropertyOp20
 70
     1
102
RTVSPropertyOp21
 70
     1
102
RTVSPropertyOp22
 70
     1
102
RTVSPropertyOp23
 70
     1
102
RTVSPropertyOp24
 70
     1
102
RTVSPropertyOp25
 70
     1
102
RTVSPropertyOp26
 70
     1
102
RTVSPropertyOp27
 70
     1
  0
XRECORD
  5
95A
102
{ACAD_REACTORS
330
959
102
}
330
959
100
AcDbXrecord
280
     1
102
RTVSPropertyOp0
 70
     1
102
RTVSPropertyOp1
 70
     1
102
RTVSPropertyOp2
 70
     1
102
RTVSPropertyOp3
 70
     1
102
RTVSPropertyOp4
 70
     1
102
RTVSPropertyOp5
 70
     1
102
RTVSPropertyOp6
 70
     1
102
RTVSPropertyOp7
 70
     1
102
RTVSPropertyOp8
 70
     1
102
RTVSPropertyOp9
 70
     1
102
RTVSPropertyOp10
 70
     1
102
RTVSPropertyOp11
 70
     1
102
RTVSPropertyOp12
 70
     1
102
RTVSPropertyOp13
 70
     1
102
RTVSPropertyOp14
 70
     1
102
RTVSPropertyOp15
 70
     1
102
RTVSPropertyOp16
 70
     1
102
RTVSPropertyOp17
 70
     1
102
RTVSPropertyOp18
 70
     1
102
RTVSPropertyOp19
 70
     1
102
RTVSPropertyOp20
 70
     1
102
RTVSPropertyOp21
 70
     1
102
RTVSPropertyOp22
 70
     1
102
RTVSPropertyOp23
 70
     1
102
RTVSPropertyOp24
 70
     1
102
RTVSPropertyOp25
 70
     1
102
RTVSPropertyOp26
 70
     1
102
RTVSPropertyOp27
 70
     1
  0
XRECORD
  5
93E
102
{ACAD_REACTORS
330
93D
102
}
330
93D
100
AcDbXrecord
280
     1
102
RTVSPropertyOp0
 70
     1
102
RTVSPropertyOp1
 70
     1
102
RTVSPropertyOp2
 70
     1
102
RTVSPropertyOp3
 70
     1
102
RTVSPropertyOp4
 70
     1
102
RTVSPropertyOp5
 70
     1
102
RTVSPropertyOp6
 70
     1
102
RTVSPropertyOp7
 70
     1
102
RTVSPropertyOp8
 70
     1
102
RTVSPropertyOp9
 70
     1
102
RTVSPropertyOp10
 70
     1
102
RTVSPropertyOp11
 70
     1
102
RTVSPropertyOp12
 70
     1
102
RTVSPropertyOp13
 70
     1
102
RTVSPropertyOp14
 70
     1
102
RTVSPropertyOp15
 70
     1
102
RTVSPropertyOp16
 70
     1
102
RTVSPropertyOp17
 70
     1
102
RTVSPropertyOp18
 70
     1
102
RTVSPropertyOp19
 70
     1
102
RTVSPropertyOp20
 70
     1
102
RTVSPropertyOp21
 70
     1
102
RTVSPropertyOp22
 70
     1
102
RTVSPropertyOp23
 70
     1
102
RTVSPropertyOp24
 70
     1
102
RTVSPropertyOp25
 70
     1
102
RTVSPropertyOp26
 70
     1
102
RTVSPropertyOp27
 70
     1
  0
XRECORD
  5
940
102
{ACAD_REACTORS
330
93F
102
}
330
93F
100
AcDbXrecord
280
     1
102
RTVSPropertyOp0
 70
     1
102
RTVSPropertyOp1
 70
     1
102
RTVSPropertyOp2
 70
     1
102
RTVSPropertyOp3
 70
     1
102
RTVSPropertyOp4
 70
     1
102
RTVSPropertyOp5
 70
     1
102
RTVSPropertyOp6
 70
     1
102
RTVSPropertyOp7
 70
     1
102
RTVSPropertyOp8
 70
     1
102
RTVSPropertyOp9
 70
     1
102
RTVSPropertyOp10
 70
     1
102
RTVSPropertyOp11
 70
     1
102
RTVSPropertyOp12
 70
     1
102
RTVSPropertyOp13
 70
     1
102
RTVSPropertyOp14
 70
     1
102
RTVSPropertyOp15
 70
     1
102
RTVSPropertyOp16
 70
     1
102
RTVSPropertyOp17
 70
     1
102
RTVSPropertyOp18
 70
     1
102
RTVSPropertyOp19
 70
     1
102
RTVSPropertyOp20
 70
     1
102
RTVSPropertyOp21
 70
     1
102
RTVSPropertyOp22
 70
     1
102
RTVSPropertyOp23
 70
     1
102
RTVSPropertyOp24
 70
     1
102
RTVSPropertyOp25
 70
     1
102
RTVSPropertyOp26
 70
     1
102
RTVSPropertyOp27
 70
     1
  0
XRECORD
  5
942
102
{ACAD_REACTORS
330
941
102
}
330
941
100
AcDbXrecord
280
     1
102
RTVSPropertyOp0
 70
     1
102
RTVSPropertyOp1
 70
     1
102
RTVSPropertyOp2
 70
     1
102
RTVSPropertyOp3
 70
     1
102
RTVSPropertyOp4
 70
     1
102
RTVSPropertyOp5
 70
     1
102
RTVSPropertyOp6
 70
     1
102
RTVSPropertyOp7
 70
     1
102
RTVSPropertyOp8
 70
     1
102
RTVSPropertyOp9
 70
     1
102
RTVSPropertyOp10
 70
     1
102
RTVSPropertyOp11
 70
     1
102
RTVSPropertyOp12
 70
     1
102
RTVSPropertyOp13
 70
     1
102
RTVSPropertyOp14
 70
     1
102
RTVSPropertyOp15
 70
     1
102
RTVSPropertyOp16
 70
     1
102
RTVSPropertyOp17
 70
     1
102
RTVSPropertyOp18
 70
     1
102
RTVSPropertyOp19
 70
     1
102
RTVSPropertyOp20
 70
     1
102
RTVSPropertyOp21
 70
     1
102
RTVSPropertyOp22
 70
     1
102
RTVSPropertyOp23
 70
     1
102
RTVSPropertyOp24
 70
     1
102
RTVSPropertyOp25
 70
     1
102
RTVSPropertyOp26
 70
     1
102
RTVSPropertyOp27
 70
     1
  0
XRECORD
  5
944
102
{ACAD_REACTORS
330
943
102
}
330
943
100
AcDbXrecord
280
     1
102
RTVSPropertyOp0
 70
     1
102
RTVSPropertyOp1
 70
     1
102
RTVSPropertyOp2
 70
     1
102
RTVSPropertyOp3
 70
     1
102
RTVSPropertyOp4
 70
     1
102
RTVSPropertyOp5
 70
     1
102
RTVSPropertyOp6
 70
     1
102
RTVSPropertyOp7
 70
     1
102
RTVSPropertyOp8
 70
     1
102
RTVSPropertyOp9
 70
     1
102
RTVSPropertyOp10
 70
     1
102
RTVSPropertyOp11
 70
     1
102
RTVSPropertyOp12
 70
     1
102
RTVSPropertyOp13
 70
     1
102
RTVSPropertyOp14
 70
     1
102
RTVSPropertyOp15
 70
     1
102
RTVSPropertyOp16
 70
     1
102
RTVSPropertyOp17
 70
     1
102
RTVSPropertyOp18
 70
     1
102
RTVSPropertyOp19
 70
     1
102
RTVSPropertyOp20
 70
     1
102
RTVSPropertyOp21
 70
     1
102
RTVSPropertyOp22
 70
     1
102
RTVSPropertyOp23
 70
     1
102
RTVSPropertyOp24
 70
     1
102
RTVSPropertyOp25
 70
     1
102
RTVSPropertyOp26
 70
     1
102
RTVSPropertyOp27
 70
     1
  0
XRECORD
  5
958
102
{ACAD_REACTORS
330
957
102
}
330
957
100
AcDbXrecord
280
     1
102
RTVSPropertyOp0
 70
     1
102
RTVSPropertyOp1
 70
     1
102
RTVSPropertyOp2
 70
     1
102
RTVSPropertyOp3
 70
     1
102
RTVSPropertyOp4
 70
     1
102
RTVSPropertyOp5
 70
     1
102
RTVSPropertyOp6
 70
     1
102
RTVSPropertyOp7
 70
     1
102
RTVSPropertyOp8
 70
     1
102
RTVSPropertyOp9
 70
     1
102
RTVSPropertyOp10
 70
     1
102
RTVSPropertyOp11
 70
     1
102
RTVSPropertyOp12
 70
     1
102
RTVSPropertyOp13
 70
     1
102
RTVSPropertyOp14
 70
     1
102
RTVSPropertyOp15
 70
     1
102
RTVSPropertyOp16
 70
     1
102
RTVSPropertyOp17
 70
     1
102
RTVSPropertyOp18
 70
     1
102
RTVSPropertyOp19
 70
     1
102
RTVSPropertyOp20
 70
     1
102
RTVSPropertyOp21
 70
     1
102
RTVSPropertyOp22
 70
     1
102
RTVSPropertyOp23
 70
     1
102
RTVSPropertyOp24
 70
     1
102
RTVSPropertyOp25
 70
     1
102
RTVSPropertyOp26
 70
     1
102
RTVSPropertyOp27
 70
     1
  0
XRECORD
  5
94E
102
{ACAD_REACTORS
330
94D
102
}
330
94D
100
AcDbXrecord
280
     1
102
RTVSPropertyOp0
 70
     1
102
RTVSPropertyOp1
 70
     1
102
RTVSPropertyOp2
 70
     1
102
RTVSPropertyOp3
 70
     1
102
RTVSPropertyOp4
 70
     1
102
RTVSPropertyOp5
 70
     1
102
RTVSPropertyOp6
 70
     1
102
RTVSPropertyOp7
 70
     1
102
RTVSPropertyOp8
 70
     1
102
RTVSPropertyOp9
 70
     1
102
RTVSPropertyOp10
 70
     1
102
RTVSPropertyOp11
 70
     1
102
RTVSPropertyOp12
 70
     1
102
RTVSPropertyOp13
 70
     1
102
RTVSPropertyOp14
 70
     1
102
RTVSPropertyOp15
 70
     1
102
RTVSPropertyOp16
 70
     1
102
RTVSPropertyOp17
 70
     1
102
RTVSPropertyOp18
 70
     1
102
RTVSPropertyOp19
 70
     1
102
RTVSPropertyOp20
 70
     1
102
RTVSPropertyOp21
 70
     1
102
RTVSPropertyOp22
 70
     1
102
RTVSPropertyOp23
 70
     1
102
RTVSPropertyOp24
 70
     1
102
RTVSPropertyOp25
 70
     1
102
RTVSPropertyOp26
 70
     1
102
RTVSPropertyOp27
 70
     1
  0
XRECORD
  5
956
102
{ACAD_REACTORS
330
955
102
}
330
955
100
AcDbXrecord
280
     1
102
RTVSPropertyOp0
 70
     1
102
RTVSPropertyOp1
 70
     1
102
RTVSPropertyOp2
 70
     1
102
RTVSPropertyOp3
 70
     1
102
RTVSPropertyOp4
 70
     1
102
RTVSPropertyOp5
 70
     1
102
RTVSPropertyOp6
 70
     1
102
RTVSPropertyOp7
 70
     1
102
RTVSPropertyOp8
 70
     1
102
RTVSPropertyOp9
 70
     1
102
RTVSPropertyOp10
 70
     1
102
RTVSPropertyOp11
 70
     1
102
RTVSPropertyOp12
 70
     1
102
RTVSPropertyOp13
 70
     1
102
RTVSPropertyOp14
 70
     1
102
RTVSPropertyOp15
 70
     1
102
RTVSPropertyOp16
 70
     1
102
RTVSPropertyOp17
 70
     1
102
RTVSPropertyOp18
 70
     1
102
RTVSPropertyOp19
 70
     1
102
RTVSPropertyOp20
 70
     1
102
RTVSPropertyOp21
 70
     1
102
RTVSPropertyOp22
 70
     1
102
RTVSPropertyOp23
 70
     1
102
RTVSPropertyOp24
 70
     1
102
RTVSPropertyOp25
 70
     1
102
RTVSPropertyOp26
 70
     1
102
RTVSPropertyOp27
 70
     1
  0
ENDSEC
  0
EOF
