  0
SECTION
  2
HEADER
  9
$ACADVER
  1
AC1015
  9
$ACADMAINTVER
 70
     6
  9
$DWGCODEPAGE
  3
ANSI_1252
  9
$INSBASE
 10
0.0
 20
0.0
 30
0.0
  9
$EXTMIN
 10
0.0
 20
0.0
 30
0.0
  9
$EXTMAX
 10
25.0
 20
35.0
 30
0.0
  9
$LIMMIN
 10
0.0
 20
0.0
  9
$LIMMAX
 10
420.0
 20
297.0
  9
$ORTHOMODE
 70
     0
  9
$REGENMODE
 70
     1
  9
$FILLMODE
 70
     1
  9
$QTEXTMODE
 70
     0
  9
$MIRRTEXT
 70
     1
  9
$LTSCALE
 40
4.05
  9
$ATTMODE
 70
     1
  9
$TEXTSIZE
 40
2.5
  9
$TRACEWID
 40
1.0
  9
$TEXTSTYLE
  7
Standard
  9
$CLAYER
  8
0
  9
$CELTYPE
  6
ByLayer
  9
$CECOLOR
 62
   256
  9
$CELTSCALE
 40
1.0
  9
$DISPSILH
 70
     0
  9
$DIMSCALE
 40
1.0
  9
$DIMASZ
 40
2.5
  9
$DIMEXO
 40
0.625
  9
$DIMDLI
 40
3.75
  9
$DIMRND
 40
0.0
  9
$DIMDLE
 40
0.0
  9
$DIMEXE
 40
1.25
  9
$DIMTP
 40
0.0
  9
$DIMTM
 40
0.0
  9
$DIMTXT
 40
2.5
  9
$DIMCEN
 40
2.5
  9
$DIMTSZ
 40
0.0
  9
$DIMTOL
 70
     0
  9
$DIMLIM
 70
     0
  9
$DIMTIH
 70
     0
  9
$DIMTOH
 70
     0
  9
$DIMSE1
 70
     0
  9
$DIMSE2
 70
     0
  9
$DIMTAD
 70
     1
  9
$DIMZIN
 70
     8
  9
$DIMBLK
  1

  9
$DIMASO
 70
     1
  9
$DIMSHO
 70
     1
  9
$DIMPOST
  1

  9
$DIMAPOST
  1

  9
$DIMALT
 70
     0
  9
$DIMALTD
 70
     3
  9
$DIMALTF
 40
0.03937007874016
  9
$DIMLFAC
 40
1.0
  9
$DIMTOFL
 70
     1
  9
$DIMTVP
 40
0.0
  9
$DIMTIX
 70
     0
  9
$DIMSOXD
 70
     0
  9
$DIMSAH
 70
     0
  9
$DIMBLK1
  1

  9
$DIMBLK2
  1

  9
$DIMSTYLE
  2
ISO-25
  9
$DIMCLRD
 70
     0
  9
$DIMCLRE
 70
     0
  9
$DIMCLRT
 70
     0
  9
$DIMTFAC
 40
1.0
  9
$DIMGAP
 40
0.625
  9
$DIMJUST
 70
     0
  9
$DIMSD1
 70
     0
  9
$DIMSD2
 70
     0
  9
$DIMTOLJ
 70
     0
  9
$DIMTZIN
 70
     8
  9
$DIMALTZ
 70
     0
  9
$DIMALTTZ
 70
     0
  9
$DIMUPT
 70
     0
  9
$DIMDEC
 70
     2
  9
$DIMTDEC
 70
     2
  9
$DIMALTU
 70
     2
  9
$DIMALTTD
 70
     3
  9
$DIMTXSTY
  7
Standard
  9
$DIMAUNIT
 70
     0
  9
$DIMADEC
 70
     0
  9
$DIMALTRND
 40
0.0
  9
$DIMAZIN
 70
     0
  9
$DIMDSEP
 70
    44
  9
$DIMATFIT
 70
     3
  9
$DIMFRAC
 70
     0
  9
$DIMLDRBLK
  1

  9
$DIMLUNIT
 70
     2
  9
$DIMLWD
 70
    -2
  9
$DIMLWE
 70
    -2
  9
$DIMTMOVE
 70
     0
  9
$LUNITS
 70
     2
  9
$LUPREC
 70
     4
  9
$SKETCHINC
 40
1.0
  9
$FILLETRAD
 40
10.0
  9
$AUNITS
 70
     0
  9
$AUPREC
 70
     0
  9
$MENU
  1
.
  9
$ELEVATION
 40
0.0
  9
$PELEVATION
 40
0.0
  9
$THICKNESS
 40
0.0
  9
$LIMCHECK
 70
     0
  9
$CHAMFERA
 40
10.0
  9
$CHAMFERB
 40
10.0
  9
$CHAMFERC
 40
20.0
  9
$CHAMFERD
 40
0.0
  9
$SKPOLY
 70
     0
  9
$TDCREATE
 40
2458995.892361111
  9
$TDUCREATE
 40
2458995.809027778
  9
$TDUPDATE
 40
2458995.895833333
  9
$TDUUPDATE
 40
2458995.8125
  9
$TDINDWG
 40
0.0000000116
  9
$TDUSRTIMER
 40
0.0000000116
  9
$USRTIMER
 70
     1
  9
$ANGBASE
 50
0.0
  9
$ANGDIR
 70
     0
  9
$PDMODE
 70
     0
  9
$PDSIZE
 40
0.0
  9
$PLINEWID
 40
0.0
  9
$SPLFRAME
 70
     0
  9
$SPLINETYPE
 70
     6
  9
$SPLINESEGS
 70
     8
  9
$HANDSEED
  5
831
  9
$SURFTAB1
 70
     6
  9
$SURFTAB2
 70
     6
  9
$SURFTYPE
 70
     6
  9
$SURFU
 70
     6
  9
$SURFV
 70
     6
  9
$UCSBASE
  2

  9
$UCSNAME
  2

  9
$UCSORG
 10
0.0
 20
0.0
 30
0.0
  9
$UCSXDIR
 10
1.0
 20
0.0
 30
0.0
  9
$UCSYDIR
 10
0.0
 20
1.0
 30
0.0
  9
$UCSORTHOREF
  2

  9
$UCSORTHOVIEW
 70
     0
  9
$UCSORGTOP
 10
0.0
 20
0.0
 30
0.0
  9
$UCSORGBOTTOM
 10
0.0
 20
0.0
 30
0.0
  9
$UCSORGLEFT
 10
0.0
 20
0.0
 30
0.0
  9
$UCSORGRIGHT
 10
0.0
 20
0.0
 30
0.0
  9
$UCSORGFRONT
 10
0.0
 20
0.0
 30
0.0
  9
$UCSORGBACK
 10
0.0
 20
0.0
 30
0.0
  9
$PUCSBASE
  2

  9
$PUCSNAME
  2

  9
$PUCSORG
 10
0.0
 20
0.0
 30
0.0
  9
$PUCSXDIR
 10
1.0
 20
0.0
 30
0.0
  9
$PUCSYDIR
 10
0.0
 20
1.0
 30
0.0
  9
$PUCSORTHOREF
  2

  9
$PUCSORTHOVIEW
 70
     0
  9
$PUCSORGTOP
 10
0.0
 20
0.0
 30
0.0
  9
$PUCSORGBOTTOM
 10
0.0
 20
0.0
 30
0.0
  9
$PUCSORGLEFT
 10
0.0
 20
0.0
 30
0.0
  9
$PUCSORGRIGHT
 10
0.0
 20
0.0
 30
0.0
  9
$PUCSORGFRONT
 10
0.0
 20
0.0
 30
0.0
  9
$PUCSORGBACK
 10
0.0
 20
0.0
 30
0.0
  9
$USERI1
 70
     0
  9
$USERI2
 70
     0
  9
$USERI3
 70
     0
  9
$USERI4
 70
     0
  9
$USERI5
 70
     0
  9
$USERR1
 40
0.0
  9
$USERR2
 40
0.0
  9
$USERR3
 40
0.0
  9
$USERR4
 40
0.0
  9
$USERR5
 40
0.0
  9
$WORLDVIEW
 70
     1
  9
$SHADEDGE
 70
     3
  9
$SHADEDIF
 70
    70
  9
$TILEMODE
 70
     1
  9
$MAXACTVP
 70
    64
  9
$PINSBASE
 10
0.0
 20
0.0
 30
0.0
  9
$PLIMCHECK
 70
     0
  9
$PEXTMIN
 10
1.000000000000000E+20
 20
1.000000000000000E+20
 30
1.000000000000000E+20
  9
$PEXTMAX
 10
-1.000000000000000E+20
 20
-1.000000000000000E+20
 30
-1.000000000000000E+20
  9
$PLIMMIN
 10
0.0
 20
0.0
  9
$PLIMMAX
 10
420.0
 20
297.0
  9
$UNITMODE
 70
     0
  9
$VISRETAIN
 70
     1
  9
$PLINEGEN
 70
     0
  9
$PSLTSCALE
 70
     1
  9
$TREEDEPTH
 70
  3020
  9
$CMLSTYLE
  2
Standard
  9
$CMLJUST
 70
     0
  9
$CMLSCALE
 40
20.0
  9
$PROXYGRAPHICS
 70
     1
  9
$MEASUREMENT
 70
     1
  9
$CELWEIGHT
370
    -1
  9
$ENDCAPS
280
     0
  9
$JOINSTYLE
280
     0
  9
$LWDISPLAY
290
     0
  9
$INSUNITS
 70
     4
  9
$HYPERLINKBASE
  1

  9
$STYLESHEET
  1

  9
$XEDIT
290
     1
  9
$CEPSNTYPE
380
     0
  9
$PSTYLEMODE
290
     1
  9
$FINGERPRINTGUID
  2
{319BB171-49C6-43AA-97EC-8E120D5BB478}
  9
$VERSIONGUID
  2
{FAEB1C32-E019-11D5-929B-00C0DF256EC4}
  9
$EXTNAMES
290
     1
  9
$PSVPSCALE
 40
0.0
  9
$OLESTARTUP
290
     0
  0
ENDSEC
  0
SECTION
  2
CLASSES
  0
CLASS
  1
ACDBDICTIONARYWDFLT
  2
AcDbDictionaryWithDefault
  3
ObjectDBX Classes
 90
        0
280
     0
281
     0
  0
CLASS
  1
VISUALSTYLE
  2
AcDbVisualStyle
  3
ObjectDBX Classes
 90
     4095
280
     0
281
     0
  0
CLASS
  1
MATERIAL
  2
AcDbMaterial
  3
ObjectDBX Classes
 90
     1153
280
     0
281
     0
  0
CLASS
  1
SCALE
  2
AcDbScale
  3
ObjectDBX Classes
 90
     1153
280
     0
281
     0
  0
CLASS
  1
DICTIONARYVAR
  2
AcDbDictionaryVar
  3
ObjectDBX Classes
 90
        0
280
     0
281
     0
  0
CLASS
  1
ACDBPLACEHOLDER
  2
AcDbPlaceHolder
  3
ObjectDBX Classes
 90
        0
280
     0
281
     0
  0
CLASS
  1
LAYOUT
  2
AcDbLayout
  3
ObjectDBX Classes
 90
        0
280
     0
281
     0
  0
ENDSEC
  0
SECTION
  2
TABLES
  0
TABLE
  2
VPORT
  5
8
330
0
100
AcDbSymbolTable
 70
     1
  0
VPORT
  5
29
330
8
100
AcDbSymbolTableRecord
100
AcDbViewportTableRecord
  2
*Active
 70
     0
 10
0.0
 20
0.0
 11
1.0
 21
1.0
 12
11.26
 22
4.5
 13
0.0
 23
0.0
 14
10.0
 24
10.0
 15
10.0
 25
10.0
 16
0.0
 26
0.0
 36
1.0
 17
0.0
 27
0.0
 37
0.0
 40
9.0
 41
2.503333333333333
 42
50.0
 43
0.0
 44
0.0
 50
0.0
 51
0.0
 71
     0
 72
   100
 73
     1
 74
     3
 75
     0
 76
     0
 77
     0
 78
     0
281
     0
 65
     1
110
0.0
120
0.0
130
0.0
111
1.0
121
0.0
131
0.0
112
0.0
122
1.0
132
0.0
 79
     0
146
0.0
  0
ENDTAB
  0
TABLE
  2
LTYPE
  5
5
330
0
100
AcDbSymbolTable
 70
     9
  0
LTYPE
  5
14
330
5
100
AcDbSymbolTableRecord
100
AcDbLinetypeTableRecord
  2
ByBlock
 70
     0
  3

 72
    65
 73
     0
 40
0.0
  0
LTYPE
  5
15
330
5
100
AcDbSymbolTableRecord
100
AcDbLinetypeTableRecord
  2
ByLayer
 70
     0
  3

 72
    65
 73
     0
 40
0.0
  0
LTYPE
  5
16
330
5
100
AcDbSymbolTableRecord
100
AcDbLinetypeTableRecord
  2
Continuous
 70
     0
  3
Solid line
 72
    65
 73
     0
 40
0.0
  0
LTYPE
  5
45
330
5
100
AcDbSymbolTableRecord
100
AcDbLinetypeTableRecord
  2
phl_thick
 70
     0
  3
THICK
 72
    65
 73
     0
 40
0.0
  0
LTYPE
  5
1CB
330
5
100
AcDbSymbolTableRecord
100
AcDbLinetypeTableRecord
  2
CUT
 70
     0
  3
THICK
 72
    65
 73
     0
 40
0.0
  0
LTYPE
  5
1D2
330
5
100
AcDbSymbolTableRecord
100
AcDbLinetypeTableRecord
  2
NOCUT
 70
     0
  3
THICK
 72
    65
 73
     0
 40
0.0
  0
LTYPE
  5
1DA
330
5
100
AcDbSymbolTableRecord
100
AcDbLinetypeTableRecord
  2
SK1
 70
     0
  3
THICK
 72
    65
 73
     0
 40
0.0
  0
LTYPE
  5
1E2
330
5
100
AcDbSymbolTableRecord
100
AcDbLinetypeTableRecord
  2
ls_SK2
 70
     0
  3
THIN
 72
    65
 73
     0
 40
0.0
  0
LTYPE
  5
28D
330
5
100
AcDbSymbolTableRecord
100
AcDbLinetypeTableRecord
  2
ls_2
 70
     0
  3
THIN
 72
    65
 73
     0
 40
0.0
  0
LTYPE
  5
3FF
330
5
100
AcDbSymbolTableRecord
100
AcDbLinetypeTableRecord
  2
ls_SK1
 70
     0
  3
THICK
 72
    65
 73
     0
 40
0.0
  0
LTYPE
  5
439
330
5
100
AcDbSymbolTableRecord
100
AcDbLinetypeTableRecord
  2
LONGDASH_DASH
 70
     0
  3
THIN_DASHDOT
 72
    65
 73
     4
 40
0.85
 49
0.4
 74
     0
 49
-0.2
 74
     0
 49
0.05
 74
     0
 49
-0.2
 74
     0
  0
ENDTAB
  0
TABLE
  2
LAYER
  5
2
330
0
100
AcDbSymbolTable
 70
     9
  0
LAYER
  5
10
330
2
100
AcDbSymbolTableRecord
100
AcDbLayerTableRecord
  2
0
 70
     0
 62
     7
  6
Continuous
370
    -3
390
F
  0
LAYER
  5
44
330
2
100
AcDbSymbolTableRecord
100
AcDbLayerTableRecord
  2
1
 70
     0
 62
4
  6
CONTINUOUS
370
50
370
    -3
390
F
  0
LAYER
  5
1CA
330
2
100
AcDbSymbolTableRecord
100
AcDbLayerTableRecord
  2
CUT
 70
     0
 62
1
  6
CONTINUOUS
370
25
370
    -3
390
F
  0
LAYER
  5
1D1
330
2
100
AcDbSymbolTableRecord
100
AcDbLayerTableRecord
  2
NOCUT
 70
     0
 62
7
  6
CONTINUOUS
370
25
370
    -3
390
F
  0
LAYER
  5
1D9
330
2
100
AcDbSymbolTableRecord
100
AcDbLayerTableRecord
  2
SK1
 70
     0
 62
4
  6
CONTINUOUS
370
50
370
    -3
390
F
  0
LAYER
  5
1E1
330
2
100
AcDbSymbolTableRecord
100
AcDbLayerTableRecord
  2
SK2
 70
     0
 62
7
  6
CONTINUOUS
370
25
370
    -3
390
F
  0
LAYER
  5
28C
330
2
100
AcDbSymbolTableRecord
100
AcDbLayerTableRecord
  2
2
 70
     0
 62
7
  6
CONTINUOUS
370
25
370
    -3
390
F
  0
LAYER
  5
438
330
2
100
AcDbSymbolTableRecord
100
AcDbLayerTableRecord
  2
4
 70
     0
 62
2
  6
LONGDASH_DASH
370
25
370
    -3
390
F
  0
LAYER
  5
43B
330
2
100
AcDbSymbolTableRecord
100
AcDbLayerTableRecord
  2
SK4
 70
     0
 62
2
  6
LONGDASH_DASH
370
25
370
    -3
390
F
  0
ENDTAB
  0
TABLE
  2
STYLE
  5
3
330
0
100
AcDbSymbolTable
 70
     1
  0
STYLE
  5
11
330
3
100
AcDbSymbolTableRecord
100
AcDbTextStyleTableRecord
  2
Standard
 70
     0
 40
0.0
 41
1.0
 50
0.0
 71
     0
 42
2.5
  3
Monospac821 BT
  4

  0
ENDTAB
  0
TABLE
  2
VIEW
  5
6
330
0
100
AcDbSymbolTable
 70
     0
  0
ENDTAB
  0
TABLE
  2
UCS
  5
7
330
0
100
AcDbSymbolTable
 70
     0
  0
ENDTAB
  0
TABLE
  2
APPID
  5
9
330
0
100
AcDbSymbolTable
 70
     2
  0
APPID
  5
12
330
9
100
AcDbSymbolTableRecord
100
AcDbRegAppTableRecord
  2
ACAD
 70
     0
  0
APPID
  5
3F
330
9
100
AcDbSymbolTableRecord
100
AcDbRegAppTableRecord
  2
ccLab
 70
     0
  0
ENDTAB
  0
TABLE
  2
DIMSTYLE
  5
A
330
0
100
AcDbSymbolTable
 70
     1
100
AcDbDimStyleTable
  0
DIMSTYLE
105
27
330
A
100
AcDbSymbolTableRecord
100
AcDbDimStyleTableRecord
  2
ISO-25
 70
     0
 41
2.5
 42
0.625
 43
3.75
 44
1.25
 73
     0
 74
     0
 77
     1
 78
     8
140
2.5
141
2.5
143
0.03937007874016
147
0.625
171
     3
172
     1
271
     2
272
     2
274
     3
278
    44
283
     0
284
     8
340
11
  0
ENDTAB
  0
TABLE
  2
BLOCK_RECORD
  5
1
330
0
100
AcDbSymbolTable
 70
     2
  0
BLOCK_RECORD
  5
1F
330
1
100
AcDbSymbolTableRecord
100
AcDbBlockTableRecord
  2
*Model_Space
340
22
  0
BLOCK_RECORD
  5
1B
330
1
100
AcDbSymbolTableRecord
100
AcDbBlockTableRecord
  2
*Paper_Space
340
1E
  0
BLOCK_RECORD
  5
23
330
1
100
AcDbSymbolTableRecord
100
AcDbBlockTableRecord
  2
*Paper_Space0
340
26
  0
ENDTAB
  0
ENDSEC
  0
SECTION
  2
BLOCKS
  0
BLOCK
  5
20
330
1F
100
AcDbEntity
  8
0
100
AcDbBlockBegin
  2
*Model_Space
 70
     0
 10
0.0
 20
0.0
 30
0.0
  3
*Model_Space
  1

  0
ENDBLK
  5
21
330
1F
100
AcDbEntity
  8
0
100
AcDbBlockEnd
  0
BLOCK
  5
1C
330
1B
100
AcDbEntity
 67
     1
  8
0
100
AcDbBlockBegin
  2
*Paper_Space
 70
     0
 10
0.0
 20
0.0
 30
0.0
  3
*Paper_Space
  1

  0
ENDBLK
  5
1D
330
1B
100
AcDbEntity
 67
     1
  8
0
100
AcDbBlockEnd
  0
BLOCK
  5
24
330
23
100
AcDbEntity
  8
0
100
AcDbBlockBegin
  2
*Paper_Space0
 70
     0
 10
0.0
 20
0.0
 30
0.0
  3
*Paper_Space0
  1

  0
ENDBLK
  5
25
330
23
100
AcDbEntity
  8
0
100
AcDbBlockEnd
  0
ENDSEC
  0
SECTION
  2
ENTITIES
  0
LINE
  5
43C
330
1F
100
AcDbEntity
  8
1
  6
CONTINUOUS
370
50
 62
4
100
AcDbLine
 10
10.91771
 20
-0.16875
 30
0.0
 11
10.917708
 21
-0.149113
 31
0.0
  0
LINE
  5
43D
330
1F
100
AcDbEntity
  8
1
  6
CONTINUOUS
370
50
 62
4
100
AcDbLine
 10
10.917709
 20
-0.149117
 30
0.0
 11
10.917689
 21
-0.128597
 31
0.0
  0
LINE
  5
43E
330
1F
100
AcDbEntity
  8
1
  6
CONTINUOUS
370
50
 62
4
100
AcDbLine
 10
10.917708
 20
-0.149113
 30
0.0
 11
10.917688
 21
-0.128597
 31
0.0
  0
LINE
  5
43F
330
1F
100
AcDbEntity
  8
1
  6
CONTINUOUS
370
50
 62
4
100
AcDbLine
 10
10.917906
 20
-0.077653
 30
0.0
 11
10.917889
 21
-0.065446
 31
0.0
  0
LINE
  5
440
330
1F
100
AcDbEntity
  8
1
  6
CONTINUOUS
370
50
 62
4
100
AcDbLine
 10
10.917909
 20
-0.077642
 30
0.0
 11
10.91789
 21
-0.065408
 31
0.0
  0
LINE
  5
441
330
1F
100
AcDbEntity
  8
1
  6
CONTINUOUS
370
50
 62
4
100
AcDbLine
 10
10.917889
 20
-0.065446
 30
0.0
 11
10.917842
 21
-0.053518
 31
0.0
  0
LINE
  5
442
330
1F
100
AcDbEntity
  8
1
  6
CONTINUOUS
370
50
 62
4
100
AcDbLine
 10
10.91789
 20
-0.065408
 30
0.0
 11
10.917842
 21
-0.053493
 31
0.0
  0
LINE
  5
443
330
1F
100
AcDbEntity
  8
1
  6
CONTINUOUS
370
50
 62
4
100
AcDbLine
 10
10.917842
 20
-0.053518
 30
0.0
 11
10.917766
 21
-0.04192
 31
0.0
  0
LINE
  5
444
330
1F
100
AcDbEntity
  8
1
  6
CONTINUOUS
370
50
 62
4
100
AcDbLine
 10
10.917842
 20
-0.053493
 30
0.0
 11
10.917766
 21
-0.041935
 31
0.0
  0
LINE
  5
445
330
1F
100
AcDbEntity
  8
1
  6
CONTINUOUS
370
50
 62
4
100
AcDbLine
 10
10.917766
 20
-0.041935
 30
0.0
 11
10.917664
 21
-0.030766
 31
0.0
  0
LINE
  5
446
330
1F
100
AcDbEntity
  8
1
  6
CONTINUOUS
370
50
 62
4
100
AcDbLine
 10
10.917766
 20
-0.04192
 30
0.0
 11
10.917663
 21
-0.030739
 31
0.0
  0
LINE
  5
447
330
1F
100
AcDbEntity
  8
1
  6
CONTINUOUS
370
50
 62
4
100
AcDbLine
 10
10.917664
 20
-0.030766
 30
0.0
 11
10.917536
 21
-0.020017
 31
0.0
  0
LINE
  5
448
330
1F
100
AcDbEntity
  8
1
  6
CONTINUOUS
370
50
 62
4
100
AcDbLine
 10
10.917663
 20
-0.030739
 30
0.0
 11
10.917535
 21
-0.020006
 31
0.0
  0
LINE
  5
449
330
1F
100
AcDbEntity
  8
1
  6
CONTINUOUS
370
50
 62
4
100
AcDbLine
 10
10.917536
 20
-0.020017
 30
0.0
 11
10.917385
 21
-0.009743
 31
0.0
  0
LINE
  5
44A
330
1F
100
AcDbEntity
  8
1
  6
CONTINUOUS
370
50
 62
4
100
AcDbLine
 10
10.917535
 20
-0.020006
 30
0.0
 11
10.917384
 21
-0.009751
 31
0.0
  0
LINE
  5
44B
330
1F
100
AcDbEntity
  8
1
  6
CONTINUOUS
370
50
 62
4
100
AcDbLine
 10
10.606969
 20
-0.453147
 30
0.0
 11
10.606833
 21
-0.445111
 31
0.0
  0
LINE
  5
44C
330
1F
100
AcDbEntity
  8
1
  6
CONTINUOUS
370
50
 62
4
100
AcDbLine
 10
10.917384
 20
-0.009751
 30
0.0
 11
10.917212
 21
0.0
 31
0.0
  0
LINE
  5
44D
330
1F
100
AcDbEntity
  8
1
  6
CONTINUOUS
370
50
 62
4
100
AcDbLine
 10
10.917385
 20
-0.009743
 30
0.0
 11
10.917213
 21
0.0
 31
0.0
  0
LINE
  5
44E
330
1F
100
AcDbEntity
  8
1
  6
CONTINUOUS
370
50
 62
4
100
AcDbLine
 10
10.917213
 20
0.0
 30
0.0
 11
10.917027
 21
0.009129
 31
0.0
  0
LINE
  5
44F
330
1F
100
AcDbEntity
  8
1
  6
CONTINUOUS
370
50
 62
4
100
AcDbLine
 10
10.917212
 20
0.0
 30
0.0
 11
10.917026
 21
0.009129
 31
0.0
  0
LINE
  5
450
330
1F
100
AcDbEntity
  8
1
  6
CONTINUOUS
370
50
 62
4
100
AcDbLine
 10
10.917026
 20
0.009129
 30
0.0
 11
10.916822
 21
0.017707
 31
0.0
  0
LINE
  5
451
330
1F
100
AcDbEntity
  8
1
  6
CONTINUOUS
370
50
 62
4
100
AcDbLine
 10
10.917027
 20
0.009129
 30
0.0
 11
10.916823
 21
0.017688
 31
0.0
  0
LINE
  5
452
330
1F
100
AcDbEntity
  8
1
  6
CONTINUOUS
370
50
 62
4
100
AcDbLine
 10
10.916822
 20
0.017707
 30
0.0
 11
10.916606
 21
0.025679
 31
0.0
  0
LINE
  5
453
330
1F
100
AcDbEntity
  8
1
  6
CONTINUOUS
370
50
 62
4
100
AcDbLine
 10
10.916823
 20
0.017688
 30
0.0
 11
10.916607
 21
0.025654
 31
0.0
  0
LINE
  5
454
330
1F
100
AcDbEntity
  8
1
  6
CONTINUOUS
370
50
 62
4
100
AcDbLine
 10
10.916607
 20
0.025654
 30
0.0
 11
10.916379
 21
0.033003
 31
0.0
  0
LINE
  5
455
330
1F
100
AcDbEntity
  8
1
  6
CONTINUOUS
370
50
 62
4
100
AcDbLine
 10
10.916606
 20
0.025679
 30
0.0
 11
10.916378
 21
0.033016
 31
0.0
  0
LINE
  5
456
330
1F
100
AcDbEntity
  8
1
  6
CONTINUOUS
370
50
 62
4
100
AcDbLine
 10
10.916378
 20
0.033016
 30
0.0
 11
10.916142
 21
0.039699
 31
0.0
  0
LINE
  5
457
330
1F
100
AcDbEntity
  8
1
  6
CONTINUOUS
370
50
 62
4
100
AcDbLine
 10
10.916379
 20
0.033003
 30
0.0
 11
10.916142
 21
0.039707
 31
0.0
  0
LINE
  5
458
330
1F
100
AcDbEntity
  8
1
  6
CONTINUOUS
370
50
 62
4
100
AcDbLine
 10
10.502386
 20
-0.250148
 30
0.0
 11
10.502087
 21
-0.241894
 31
0.0
  0
LINE
  5
459
330
1F
100
AcDbEntity
  8
1
  6
CONTINUOUS
370
50
 62
4
100
AcDbLine
 10
10.916142
 20
0.039707
 30
0.0
 11
10.915896
 21
0.04572
 31
0.0
  0
LINE
  5
45A
330
1F
100
AcDbEntity
  8
1
  6
CONTINUOUS
370
50
 62
4
100
AcDbLine
 10
10.916142
 20
0.039699
 30
0.0
 11
10.915896
 21
0.04571
 31
0.0
  0
LINE
  5
45B
330
1F
100
AcDbEntity
  8
1
  6
CONTINUOUS
370
50
 62
4
100
AcDbLine
 10
10.915896
 20
0.04572
 30
0.0
 11
10.915647
 21
0.051027
 31
0.0
  0
LINE
  5
45C
330
1F
100
AcDbEntity
  8
1
  6
CONTINUOUS
370
50
 62
4
100
AcDbLine
 10
10.915896
 20
0.04571
 30
0.0
 11
10.915646
 21
0.051027
 31
0.0
  0
LINE
  5
45D
330
1F
100
AcDbEntity
  8
1
  6
CONTINUOUS
370
50
 62
4
100
AcDbLine
 10
10.915647
 20
0.051027
 30
0.0
 11
10.915392
 21
0.055614
 31
0.0
  0
LINE
  5
45E
330
1F
100
AcDbEntity
  8
1
  6
CONTINUOUS
370
50
 62
4
100
AcDbLine
 10
10.915646
 20
0.051027
 30
0.0
 11
10.91539
 21
0.055619
 31
0.0
  0
LINE
  5
45F
330
1F
100
AcDbEntity
  8
1
  6
CONTINUOUS
370
50
 62
4
100
AcDbLine
 10
10.91539
 20
0.055619
 30
0.0
 11
10.915133
 21
0.059477
 31
0.0
  0
LINE
  5
460
330
1F
100
AcDbEntity
  8
1
  6
CONTINUOUS
370
50
 62
4
100
AcDbLine
 10
10.915392
 20
0.055614
 30
0.0
 11
10.915133
 21
0.059471
 31
0.0
  0
LINE
  5
461
330
1F
100
AcDbEntity
  8
1
  6
CONTINUOUS
370
50
 62
4
100
AcDbLine
 10
10.269052
 20
0.360017
 30
0.0
 11
10.268849
 21
0.362891
 31
0.0
  0
LINE
  5
462
330
1F
100
AcDbEntity
  8
1
  6
CONTINUOUS
370
50
 62
4
100
AcDbLine
 10
10.915133
 20
0.059471
 30
0.0
 11
10.914873
 21
0.062588
 31
0.0
  0
LINE
  5
463
330
1F
100
AcDbEntity
  8
1
  6
CONTINUOUS
370
50
 62
4
100
AcDbLine
 10
10.915133
 20
0.059477
 30
0.0
 11
10.914872
 21
0.062591
 31
0.0
  0
LINE
  5
464
330
1F
100
AcDbEntity
  8
1
  6
CONTINUOUS
370
50
 62
4
100
AcDbLine
 10
10.914873
 20
0.062588
 30
0.0
 11
10.914612
 21
0.064951
 31
0.0
  0
LINE
  5
465
330
1F
100
AcDbEntity
  8
1
  6
CONTINUOUS
370
50
 62
4
100
AcDbLine
 10
10.914872
 20
0.062591
 30
0.0
 11
10.914611
 21
0.064951
 31
0.0
  0
LINE
  5
466
330
1F
100
AcDbEntity
  8
1
  6
CONTINUOUS
370
50
 62
4
100
AcDbLine
 10
10.503422
 20
-0.258253
 30
0.0
 11
10.502386
 21
-0.250148
 31
0.0
  0
LINE
  5
467
330
1F
100
AcDbEntity
  8
1
  6
CONTINUOUS
370
50
 62
4
100
AcDbLine
 10
10.91392
 20
0.070161
 30
0.0
 11
10.913691
 21
0.071894
 31
0.0
  0
LINE
  5
468
330
1F
100
AcDbEntity
  8
1
  6
CONTINUOUS
370
50
 62
4
100
AcDbLine
 10
10.914611
 20
0.064951
 30
0.0
 11
10.914381
 21
0.066689
 31
0.0
  0
LINE
  5
469
330
1F
100
AcDbEntity
  8
1
  6
CONTINUOUS
370
50
 62
4
100
AcDbLine
 10
10.914381
 20
0.06669
 30
0.0
 11
10.914151
 21
0.068428
 31
0.0
  0
LINE
  5
46A
330
1F
100
AcDbEntity
  8
1
  6
CONTINUOUS
370
50
 62
4
100
AcDbLine
 10
10.91415
 20
0.068425
 30
0.0
 11
10.91392
 21
0.070161
 31
0.0
  0
LINE
  5
46B
330
1F
100
AcDbEntity
  8
1
  6
CONTINUOUS
370
50
 62
4
100
AcDbLine
 10
10.914151
 20
0.068428
 30
0.0
 11
10.913921
 21
0.070164
 31
0.0
  0
LINE
  5
46C
330
1F
100
AcDbEntity
  8
1
  6
CONTINUOUS
370
50
 62
4
100
AcDbLine
 10
10.913921
 20
0.070164
 30
0.0
 11
10.913691
 21
0.071899
 31
0.0
  0
LINE
  5
46D
330
1F
100
AcDbEntity
  8
1
  6
CONTINUOUS
370
50
 62
4
100
AcDbLine
 10
10.913691
 20
0.071899
 30
0.0
 11
10.913461
 21
0.073632
 31
0.0
  0
LINE
  5
46E
330
1F
100
AcDbEntity
  8
1
  6
CONTINUOUS
370
50
 62
4
100
AcDbLine
 10
10.913691
 20
0.071894
 30
0.0
 11
10.913461
 21
0.073626
 31
0.0
  0
LINE
  5
46F
330
1F
100
AcDbEntity
  8
1
  6
CONTINUOUS
370
50
 62
4
100
AcDbLine
 10
10.914612
 20
0.064951
 30
0.0
 11
10.914381
 21
0.06669
 31
0.0
  0
LINE
  5
470
330
1F
100
AcDbEntity
  8
1
  6
CONTINUOUS
370
50
 62
4
100
AcDbLine
 10
10.91323
 20
0.075363
 30
0.0
 11
10.913
 21
0.077093
 31
0.0
  0
LINE
  5
471
330
1F
100
AcDbEntity
  8
1
  6
CONTINUOUS
370
50
 62
4
100
AcDbLine
 10
10.914381
 20
0.066689
 30
0.0
 11
10.91415
 21
0.068425
 31
0.0
  0
LINE
  5
472
330
1F
100
AcDbEntity
  8
1
  6
CONTINUOUS
370
50
 62
4
100
AcDbLine
 10
10.91323
 20
0.075357
 30
0.0
 11
10.913
 21
0.077085
 31
0.0
  0
LINE
  5
473
330
1F
100
AcDbEntity
  8
1
  6
CONTINUOUS
370
50
 62
4
100
AcDbLine
 10
10.913461
 20
0.073626
 30
0.0
 11
10.91323
 21
0.075357
 31
0.0
  0
LINE
  5
474
330
1F
100
AcDbEntity
  8
1
  6
CONTINUOUS
370
50
 62
4
100
AcDbLine
 10
10.913461
 20
0.073632
 30
0.0
 11
10.91323
 21
0.075363
 31
0.0
  0
LINE
  5
475
330
1F
100
AcDbEntity
  8
1
  6
CONTINUOUS
370
50
 62
4
100
AcDbLine
 10
10.606833
 20
-0.445111
 30
0.0
 11
10.605519
 21
-0.435824
 31
0.0
  0
LINE
  5
476
330
1F
100
AcDbEntity
  8
1
  6
CONTINUOUS
370
50
 62
4
100
AcDbLine
 10
10.26952
 20
0.357032
 30
0.0
 11
10.269052
 21
0.360017
 31
0.0
  0
LINE
  5
477
330
1F
100
AcDbEntity
  8
1
  6
CONTINUOUS
370
50
 62
4
100
AcDbLine
 10
10.505231
 20
-0.266183
 30
0.0
 11
10.503422
 21
-0.258253
 31
0.0
  0
LINE
  5
478
330
1F
100
AcDbEntity
  8
1
  6
CONTINUOUS
370
50
 62
4
100
AcDbLine
 10
10.605519
 20
-0.435824
 30
0.0
 11
10.603118
 21
-0.425371
 31
0.0
  0
LINE
  5
479
330
1F
100
AcDbEntity
  8
1
  6
CONTINUOUS
370
50
 62
4
100
AcDbLine
 10
10.270258
 20
0.353935
 30
0.0
 11
10.26952
 21
0.357032
 31
0.0
  0
LINE
  5
47A
330
1F
100
AcDbEntity
  8
1
  6
CONTINUOUS
370
50
 62
4
100
AcDbLine
 10
10.603118
 20
-0.425371
 30
0.0
 11
10.599708
 21
-0.413819
 31
0.0
  0
LINE
  5
47B
330
1F
100
AcDbEntity
  8
1
  6
CONTINUOUS
370
50
 62
4
100
AcDbLine
 10
10.271274
 20
0.350728
 30
0.0
 11
10.270258
 21
0.353935
 31
0.0
  0
LINE
  5
47C
330
1F
100
AcDbEntity
  8
1
  6
CONTINUOUS
370
50
 62
4
100
AcDbLine
 10
10.507833
 20
-0.273866
 30
0.0
 11
10.505231
 21
-0.266183
 31
0.0
  0
LINE
  5
47D
330
1F
100
AcDbEntity
  8
1
  6
CONTINUOUS
370
50
 62
4
100
AcDbLine
 10
10.599708
 20
-0.413819
 30
0.0
 11
10.595364
 21
-0.401219
 31
0.0
  0
LINE
  5
47E
330
1F
100
AcDbEntity
  8
1
  6
CONTINUOUS
370
50
 62
4
100
AcDbLine
 10
10.595364
 20
-0.401219
 30
0.0
 11
10.590165
 21
-0.387627
 31
0.0
  0
LINE
  5
47F
330
1F
100
AcDbEntity
  8
1
  6
CONTINUOUS
370
50
 62
4
100
AcDbLine
 10
10.272573
 20
0.347406
 30
0.0
 11
10.271274
 21
0.350728
 31
0.0
  0
LINE
  5
480
330
1F
100
AcDbEntity
  8
1
  6
CONTINUOUS
370
50
 62
4
100
AcDbLine
 10
10.590165
 20
-0.387627
 30
0.0
 11
10.58418
 21
-0.373116
 31
0.0
  0
LINE
  5
481
330
1F
100
AcDbEntity
  8
1
  6
CONTINUOUS
370
50
 62
4
100
AcDbLine
 10
10.58418
 20
-0.373116
 30
0.0
 11
10.577452
 21
-0.357757
 31
0.0
  0
LINE
  5
482
330
1F
100
AcDbEntity
  8
1
  6
CONTINUOUS
370
50
 62
4
100
AcDbLine
 10
10.511197
 20
-0.281181
 30
0.0
 11
10.507833
 21
-0.273866
 31
0.0
  0
LINE
  5
483
330
1F
100
AcDbEntity
  8
1
  6
CONTINUOUS
370
50
 62
4
100
AcDbLine
 10
10.577452
 20
-0.357757
 30
0.0
 11
10.570019
 21
-0.341622
 31
0.0
  0
LINE
  5
484
330
1F
100
AcDbEntity
  8
1
  6
CONTINUOUS
370
50
 62
4
100
AcDbLine
 10
10.274164
 20
0.343967
 30
0.0
 11
10.272573
 21
0.347406
 31
0.0
  0
LINE
  5
485
330
1F
100
AcDbEntity
  8
1
  6
CONTINUOUS
370
50
 62
4
100
AcDbLine
 10
10.570019
 20
-0.341622
 30
0.0
 11
10.561921
 21
-0.324781
 31
0.0
  0
LINE
  5
486
330
1F
100
AcDbEntity
  8
1
  6
CONTINUOUS
370
50
 62
4
100
AcDbLine
 10
10.276056
 20
0.340411
 30
0.0
 11
10.274164
 21
0.343967
 31
0.0
  0
LINE
  5
487
330
1F
100
AcDbEntity
  8
1
  6
CONTINUOUS
370
50
 62
4
100
AcDbLine
 10
10.515315
 20
-0.28812
 30
0.0
 11
10.511197
 21
-0.281181
 31
0.0
  0
LINE
  5
488
330
1F
100
AcDbEntity
  8
1
  6
CONTINUOUS
370
50
 62
4
100
AcDbLine
 10
10.278258
 20
0.336739
 30
0.0
 11
10.276056
 21
0.340411
 31
0.0
  0
LINE
  5
489
330
1F
100
AcDbEntity
  8
1
  6
CONTINUOUS
370
50
 62
4
100
AcDbLine
 10
10.28014
 20
0.333877
 30
0.0
 11
10.278258
 21
0.336739
 31
0.0
  0
LINE
  5
48A
330
1F
100
AcDbEntity
  8
1
  6
CONTINUOUS
370
50
 62
4
100
AcDbLine
 10
10.618992
 20
0.442943
 30
0.0
 11
10.603415
 21
0.465469
 31
0.0
  0
LINE
  5
48B
330
1F
100
AcDbEntity
  8
1
  6
CONTINUOUS
370
50
 62
4
100
AcDbLine
 10
10.282207
 20
0.330948
 30
0.0
 11
10.28014
 21
0.333877
 31
0.0
  0
LINE
  5
48C
330
1F
100
AcDbEntity
  8
1
  6
CONTINUOUS
370
50
 62
4
100
AcDbLine
 10
10.520178
 20
-0.294678
 30
0.0
 11
10.515315
 21
-0.28812
 31
0.0
  0
LINE
  5
48D
330
1F
100
AcDbEntity
  8
1
  6
CONTINUOUS
370
50
 62
4
100
AcDbLine
 10
10.284466
 20
0.327953
 30
0.0
 11
10.282207
 21
0.330948
 31
0.0
  0
LINE
  5
48E
330
1F
100
AcDbEntity
  8
1
  6
CONTINUOUS
370
50
 62
4
100
AcDbLine
 10
10.603432
 20
0.465441
 30
0.0
 11
10.601072
 21
0.468395
 31
0.0
  0
LINE
  5
48F
330
1F
100
AcDbEntity
  8
1
  6
CONTINUOUS
370
50
 62
4
100
AcDbLine
 10
10.286918
 20
0.324891
 30
0.0
 11
10.284466
 21
0.327953
 31
0.0
  0
LINE
  5
490
330
1F
100
AcDbEntity
  8
1
  6
CONTINUOUS
370
50
 62
4
100
AcDbLine
 10
10.635434
 20
0.422675
 30
0.0
 11
10.618992
 21
0.442943
 31
0.0
  0
LINE
  5
491
330
1F
100
AcDbEntity
  8
1
  6
CONTINUOUS
370
50
 62
4
100
AcDbLine
 10
10.289568
 20
0.321763
 30
0.0
 11
10.286918
 21
0.324891
 31
0.0
  0
LINE
  5
492
330
1F
100
AcDbEntity
  8
1
  6
CONTINUOUS
370
50
 62
4
100
AcDbLine
 10
10.292418
 20
0.318569
 30
0.0
 11
10.289568
 21
0.321763
 31
0.0
  0
LINE
  5
493
330
1F
100
AcDbEntity
  8
1
  6
CONTINUOUS
370
50
 62
4
100
AcDbLine
 10
10.525772
 20
-0.30085
 30
0.0
 11
10.520178
 21
-0.294678
 31
0.0
  0
LINE
  5
494
330
1F
100
AcDbEntity
  8
1
  6
CONTINUOUS
370
50
 62
4
100
AcDbLine
 10
10.653172
 20
0.403926
 30
0.0
 11
10.635434
 21
0.422675
 31
0.0
  0
LINE
  5
495
330
1F
100
AcDbEntity
  8
1
  6
CONTINUOUS
370
50
 62
4
100
AcDbLine
 10
10.316768
 20
0.295173
 30
0.0
 11
10.292418
 21
0.318569
 31
0.0
  0
LINE
  5
496
330
1F
100
AcDbEntity
  8
1
  6
CONTINUOUS
370
50
 62
4
100
AcDbLine
 10
10.531995
 20
-0.306557
 30
0.0
 11
10.525772
 21
-0.30085
 31
0.0
  0
LINE
  5
497
330
1F
100
AcDbEntity
  8
1
  6
CONTINUOUS
370
50
 62
4
100
AcDbLine
 10
10.342625
 20
0.271585
 30
0.0
 11
10.316768
 21
0.295173
 31
0.0
  0
LINE
  5
498
330
1F
100
AcDbEntity
  8
1
  6
CONTINUOUS
370
50
 62
4
100
AcDbLine
 10
10.67333
 20
0.385765
 30
0.0
 11
10.653172
 21
0.403926
 31
0.0
  0
LINE
  5
499
330
1F
100
AcDbEntity
  8
1
  6
CONTINUOUS
370
50
 62
4
100
AcDbLine
 10
10.370017
 20
0.248207
 30
0.0
 11
10.342625
 21
0.271585
 31
0.0
  0
LINE
  5
49A
330
1F
100
AcDbEntity
  8
1
  6
CONTINUOUS
370
50
 62
4
100
AcDbLine
 10
10.601072
 20
0.468395
 30
0.0
 11
10.598088
 21
0.470799
 31
0.0
  0
LINE
  5
49B
330
1F
100
AcDbEntity
  8
1
  6
CONTINUOUS
370
50
 62
4
100
AcDbLine
 10
10.398979
 20
0.225359
 30
0.0
 11
10.370017
 21
0.248207
 31
0.0
  0
LINE
  5
49C
330
1F
100
AcDbEntity
  8
1
  6
CONTINUOUS
370
50
 62
4
100
AcDbLine
 10
10.538767
 20
-0.311781
 30
0.0
 11
10.531995
 21
-0.306557
 31
0.0
  0
LINE
  5
49D
330
1F
100
AcDbEntity
  8
1
  6
CONTINUOUS
370
50
 62
4
100
AcDbLine
 10
10.692248
 20
0.371253
 30
0.0
 11
10.67333
 21
0.385765
 31
0.0
  0
LINE
  5
49E
330
1F
100
AcDbEntity
  8
1
  6
CONTINUOUS
370
50
 62
4
100
AcDbLine
 10
10.429436
 20
0.203361
 30
0.0
 11
10.398979
 21
0.225359
 31
0.0
  0
LINE
  5
49F
330
1F
100
AcDbEntity
  8
1
  6
CONTINUOUS
370
50
 62
4
100
AcDbLine
 10
10.461236
 20
0.182498
 30
0.0
 11
10.429436
 21
0.203361
 31
0.0
  0
LINE
  5
4A0
330
1F
100
AcDbEntity
  8
1
  6
CONTINUOUS
370
50
 62
4
100
AcDbLine
 10
10.546042
 20
-0.316546
 30
0.0
 11
10.538767
 21
-0.311781
 31
0.0
  0
LINE
  5
4A1
330
1F
100
AcDbEntity
  8
1
  6
CONTINUOUS
370
50
 62
4
100
AcDbLine
 10
10.713323
 20
0.35756
 30
0.0
 11
10.692248
 21
0.371253
 31
0.0
  0
LINE
  5
4A2
330
1F
100
AcDbEntity
  8
1
  6
CONTINUOUS
370
50
 62
4
100
AcDbLine
 10
10.494322
 20
0.162919
 30
0.0
 11
10.461236
 21
0.182498
 31
0.0
  0
LINE
  5
4A3
330
1F
100
AcDbEntity
  8
1
  6
CONTINUOUS
370
50
 62
4
100
AcDbLine
 10
4.363428
 20
0.47495
 30
0.0
 11
-0.01
 21
2.99995
 31
0.0
  0
LINE
  5
4A4
330
1F
100
AcDbEntity
  8
1
  6
CONTINUOUS
370
50
 62
4
100
AcDbLine
 10
10.553776
 20
-0.320872
 30
0.0
 11
10.546042
 21
-0.316546
 31
0.0
  0
LINE
  5
4A5
330
1F
100
AcDbEntity
  8
1
  6
CONTINUOUS
370
50
 62
4
100
AcDbLine
 10
10.735091
 20
0.345828
 30
0.0
 11
10.713323
 21
0.35756
 31
0.0
  0
LINE
  5
4A6
330
1F
100
AcDbEntity
  8
1
  6
CONTINUOUS
370
50
 62
4
100
AcDbLine
 10
10.528522
 20
0.1448
 30
0.0
 11
10.494322
 21
0.162919
 31
0.0
  0
LINE
  5
4A7
330
1F
100
AcDbEntity
  8
1
  6
CONTINUOUS
370
50
 62
4
100
AcDbLine
 10
10.598088
 20
0.470799
 30
0.0
 11
10.594469
 21
0.472649
 31
0.0
  0
LINE
  5
4A8
330
1F
100
AcDbEntity
  8
1
  6
CONTINUOUS
370
50
 62
4
100
AcDbLine
 10
10.561921
 20
-0.324781
 30
0.0
 11
10.553776
 21
-0.320872
 31
0.0
  0
LINE
  5
4A9
330
1F
100
AcDbEntity
  8
1
  6
CONTINUOUS
370
50
 62
4
100
AcDbLine
 10
10.563689
 20
0.128232
 30
0.0
 11
10.528522
 21
0.1448
 31
0.0
  0
LINE
  5
4AA
330
1F
100
AcDbEntity
  8
1
  6
CONTINUOUS
370
50
 62
4
100
AcDbLine
 10
10.757592
 20
0.336021
 30
0.0
 11
10.735091
 21
0.345828
 31
0.0
  0
LINE
  5
4AB
330
1F
100
AcDbEntity
  8
1
  6
CONTINUOUS
370
50
 62
4
100
AcDbLine
 10
10.59974
 20
0.113263
 30
0.0
 11
10.563689
 21
0.128232
 31
0.0
  0
LINE
  5
4AC
330
1F
100
AcDbEntity
  8
1
  6
CONTINUOUS
370
50
 62
4
100
AcDbLine
 10
10.636587
 20
0.09994
 30
0.0
 11
10.59974
 21
0.113263
 31
0.0
  0
LINE
  5
4AD
330
1F
100
AcDbEntity
  8
1
  6
CONTINUOUS
370
50
 62
4
100
AcDbLine
 10
10.780471
 20
0.328278
 30
0.0
 11
10.757592
 21
0.336021
 31
0.0
  0
LINE
  5
4AE
330
1F
100
AcDbEntity
  8
1
  6
CONTINUOUS
370
50
 62
4
100
AcDbLine
 10
10.594469
 20
0.472649
 30
0.0
 11
10.590243
 21
0.473946
 31
0.0
  0
LINE
  5
4AF
330
1F
100
AcDbEntity
  8
1
  6
CONTINUOUS
370
50
 62
4
100
AcDbLine
 10
10.651971
 20
0.095817
 30
0.0
 11
10.636587
 21
0.09994
 31
0.0
  0
LINE
  5
4B0
330
1F
100
AcDbEntity
  8
1
  6
CONTINUOUS
370
50
 62
4
100
AcDbLine
 10
10.923
 20
-0.32595
 30
0.0
 11
10.921712
 21
-0.325615
 31
0.0
  0
LINE
  5
4B1
330
1F
100
AcDbEntity
  8
1
  6
CONTINUOUS
370
50
 62
4
100
AcDbLine
 10
10.798687
 20
0.32363
 30
0.0
 11
10.780471
 21
0.328278
 31
0.0
  0
LINE
  5
4B2
330
1F
100
AcDbEntity
  8
1
  6
CONTINUOUS
370
50
 62
4
100
AcDbLine
 10
10.921712
 20
-0.325615
 30
0.0
 11
10.920422
 21
-0.325286
 31
0.0
  0
LINE
  5
4B3
330
1F
100
AcDbEntity
  8
1
  6
CONTINUOUS
370
50
 62
4
100
AcDbLine
 10
10.920422
 20
-0.325286
 30
0.0
 11
10.919042
 21
-0.324943
 31
0.0
  0
LINE
  5
4B4
330
1F
100
AcDbEntity
  8
1
  6
CONTINUOUS
370
50
 62
4
100
AcDbLine
 10
10.919042
 20
-0.324943
 30
0.0
 11
10.917837
 21
-0.324649
 31
0.0
  0
LINE
  5
4B5
330
1F
100
AcDbEntity
  8
1
  6
CONTINUOUS
370
50
 62
4
100
AcDbLine
 10
10.917837
 20
-0.324649
 30
0.0
 11
10.916899
 21
-0.324424
 31
0.0
  0
LINE
  5
4B6
330
1F
100
AcDbEntity
  8
1
  6
CONTINUOUS
370
50
 62
4
100
AcDbLine
 10
10.916899
 20
-0.324424
 30
0.0
 11
10.915959
 21
-0.324203
 31
0.0
  0
LINE
  5
4B7
330
1F
100
AcDbEntity
  8
1
  6
CONTINUOUS
370
50
 62
4
100
AcDbLine
 10
10.667526
 20
0.092469
 30
0.0
 11
10.651971
 21
0.095817
 31
0.0
  0
LINE
  5
4B8
330
1F
100
AcDbEntity
  8
1
  6
CONTINUOUS
370
50
 62
4
100
AcDbLine
 10
10.91596
 20
-0.324203
 30
0.0
 11
10.895103
 21
-0.320217
 31
0.0
  0
LINE
  5
4B9
330
1F
100
AcDbEntity
  8
1
  6
CONTINUOUS
370
50
 62
4
100
AcDbLine
 10
10.816972
 20
0.320266
 30
0.0
 11
10.798687
 21
0.32363
 31
0.0
  0
LINE
  5
4BA
330
1F
100
AcDbEntity
  8
1
  6
CONTINUOUS
370
50
 62
4
100
AcDbLine
 10
10.683231
 20
0.089915
 30
0.0
 11
10.667526
 21
0.092469
 31
0.0
  0
LINE
  5
4BB
330
1F
100
AcDbEntity
  8
1
  6
CONTINUOUS
370
50
 62
4
100
AcDbLine
 10
10.590243
 20
0.473946
 30
0.0
 11
10.585422
 21
0.474707
 31
0.0
  0
LINE
  5
4BC
330
1F
100
AcDbEntity
  8
1
  6
CONTINUOUS
370
50
 62
4
100
AcDbLine
 10
10.827149
 20
0.318948
 30
0.0
 11
10.816972
 21
0.320266
 31
0.0
  0
LINE
  5
4BD
330
1F
100
AcDbEntity
  8
1
  6
CONTINUOUS
370
50
 62
4
100
AcDbLine
 10
10.699066
 20
0.088174
 30
0.0
 11
10.683231
 21
0.089915
 31
0.0
  0
LINE
  5
4BE
330
1F
100
AcDbEntity
  8
1
  6
CONTINUOUS
370
50
 62
4
100
AcDbLine
 10
10.895103
 20
-0.320217
 30
0.0
 11
10.873947
 21
-0.317932
 31
0.0
  0
LINE
  5
4BF
330
1F
100
AcDbEntity
  8
1
  6
CONTINUOUS
370
50
 62
4
100
AcDbLine
 10
12.412967
 20
0.000716
 30
0.0
 11
12.407922
 21
0.001076
 31
0.0
  0
LINE
  5
4C0
330
1F
100
AcDbEntity
  8
1
  6
CONTINUOUS
370
50
 62
4
100
AcDbLine
 10
10.850634
 20
0.317403
 30
0.0
 11
10.827149
 21
0.318948
 31
0.0
  0
LINE
  5
4C1
330
1F
100
AcDbEntity
  8
1
  6
CONTINUOUS
370
50
 62
4
100
AcDbLine
 10
10.71499
 20
0.087264
 30
0.0
 11
10.699066
 21
0.088174
 31
0.0
  0
LINE
  5
4C2
330
1F
100
AcDbEntity
  8
1
  6
CONTINUOUS
370
50
 62
4
100
AcDbLine
 10
10.585422
 20
0.474707
 30
0.0
 11
10.580012
 21
0.474956
 31
0.0
  0
LINE
  5
4C3
330
1F
100
AcDbEntity
  8
1
  6
CONTINUOUS
370
50
 62
4
100
AcDbLine
 10
10.873947
 20
-0.317932
 30
0.0
 11
10.850634
 21
-0.317403
 31
0.0
  0
LINE
  5
4C4
330
1F
100
AcDbEntity
  8
1
  6
CONTINUOUS
370
50
 62
4
100
AcDbLine
 10
10.730939
 20
0.087206
 30
0.0
 11
10.71499
 21
0.087264
 31
0.0
  0
LINE
  5
4C5
330
1F
100
AcDbEntity
  8
1
  6
CONTINUOUS
370
50
 62
4
100
AcDbLine
 10
4.363428
 20
-0.47495
 30
0.0
 11
10.580016
 21
-0.47495
 31
0.0
  0
LINE
  5
4C6
330
1F
100
AcDbEntity
  8
1
  6
CONTINUOUS
370
50
 62
4
100
AcDbLine
 10
10.923
 20
-0.250168
 30
0.0
 11
12.345916
 21
-0.250168
 31
0.0
  0
LINE
  5
4C7
330
1F
100
AcDbEntity
  8
1
  6
CONTINUOUS
370
50
 62
4
100
AcDbLine
 10
10.923
 20
0.250168
 30
0.0
 11
12.345916
 21
0.250168
 31
0.0
  0
LINE
  5
4C8
330
1F
100
AcDbEntity
  8
1
  6
CONTINUOUS
370
50
 62
4
100
AcDbLine
 10
4.363428
 20
0.47495
 30
0.0
 11
10.580016
 21
0.47495
 31
0.0
  0
LINE
  5
4C9
330
1F
100
AcDbEntity
  8
1
  6
CONTINUOUS
370
50
 62
4
100
AcDbLine
 10
10.850634
 20
0.317403
 30
0.0
 11
10.873947
 21
0.317932
 31
0.0
  0
LINE
  5
4CA
330
1F
100
AcDbEntity
  8
1
  6
CONTINUOUS
370
50
 62
4
100
AcDbLine
 10
10.580012
 20
-0.474956
 30
0.0
 11
10.585422
 21
-0.474707
 31
0.0
  0
LINE
  5
4CB
330
1F
100
AcDbEntity
  8
1
  6
CONTINUOUS
370
50
 62
4
100
AcDbLine
 10
10.730939
 20
0.087206
 30
0.0
 11
10.744284
 21
0.087829
 31
0.0
  0
LINE
  5
4CC
330
1F
100
AcDbEntity
  8
1
  6
CONTINUOUS
370
50
 62
4
100
AcDbLine
 10
10.571268
 20
0.474463
 30
0.0
 11
10.580012
 21
0.474956
 31
0.0
  0
LINE
  5
4CD
330
1F
100
AcDbEntity
  8
1
  6
CONTINUOUS
370
50
 62
4
100
AcDbLine
 10
10.827149
 20
-0.318948
 30
0.0
 11
10.850634
 21
-0.317403
 31
0.0
  0
LINE
  5
4CE
330
1F
100
AcDbEntity
  8
1
  6
CONTINUOUS
370
50
 62
4
100
AcDbLine
 10
10.744284
 20
0.087829
 30
0.0
 11
10.757564
 21
0.089074
 31
0.0
  0
LINE
  5
4CF
330
1F
100
AcDbEntity
  8
1
  6
CONTINUOUS
370
50
 62
4
100
AcDbLine
 10
10.873947
 20
0.317932
 30
0.0
 11
10.895103
 21
0.320217
 31
0.0
  0
LINE
  5
4D0
330
1F
100
AcDbEntity
  8
1
  6
CONTINUOUS
370
50
 62
4
100
AcDbLine
 10
10.816972
 20
-0.320266
 30
0.0
 11
10.827149
 21
-0.318948
 31
0.0
  0
LINE
  5
4D1
330
1F
100
AcDbEntity
  8
1
  6
CONTINUOUS
370
50
 62
4
100
AcDbLine
 10
10.757564
 20
0.089074
 30
0.0
 11
10.770511
 21
0.090915
 31
0.0
  0
LINE
  5
4D2
330
1F
100
AcDbEntity
  8
1
  6
CONTINUOUS
370
50
 62
4
100
AcDbLine
 10
10.561361
 20
0.473027
 30
0.0
 11
10.571268
 21
0.474463
 31
0.0
  0
LINE
  5
4D3
330
1F
100
AcDbEntity
  8
1
  6
CONTINUOUS
370
50
 62
4
100
AcDbLine
 10
10.304296
 20
0.39481
 30
0.0
 11
10.308172
 21
0.39542
 31
0.0
  0
LINE
  5
4D4
330
1F
100
AcDbEntity
  8
1
  6
CONTINUOUS
370
50
 62
4
100
AcDbLine
 10
10.585422
 20
-0.474707
 30
0.0
 11
10.590243
 21
-0.473946
 31
0.0
  0
LINE
  5
4D5
330
1F
100
AcDbEntity
  8
1
  6
CONTINUOUS
370
50
 62
4
100
AcDbLine
 10
10.798687
 20
-0.32363
 30
0.0
 11
10.816972
 21
-0.320266
 31
0.0
  0
LINE
  5
4D6
330
1F
100
AcDbEntity
  8
1
  6
CONTINUOUS
370
50
 62
4
100
AcDbLine
 10
10.895103
 20
0.320217
 30
0.0
 11
10.91596
 21
0.324203
 31
0.0
  0
LINE
  5
4D7
330
1F
100
AcDbEntity
  8
1
  6
CONTINUOUS
370
50
 62
4
100
AcDbLine
 10
10.770511
 20
0.090915
 30
0.0
 11
10.782932
 21
0.093301
 31
0.0
  0
LINE
  5
4D8
330
1F
100
AcDbEntity
  8
1
  6
CONTINUOUS
370
50
 62
4
100
AcDbLine
 10
10.300527
 20
0.394046
 30
0.0
 11
10.304296
 21
0.39481
 31
0.0
  0
LINE
  5
4D9
330
1F
100
AcDbEntity
  8
1
  6
CONTINUOUS
370
50
 62
4
100
AcDbLine
 10
10.550314
 20
0.470713
 30
0.0
 11
10.561361
 21
0.473027
 31
0.0
  0
LINE
  5
4DA
330
1F
100
AcDbEntity
  8
1
  6
CONTINUOUS
370
50
 62
4
100
AcDbLine
 10
10.92157
 20
0.079898
 30
0.0
 11
10.923
 21
0.080228
 31
0.0
  0
LINE
  5
4DB
330
1F
100
AcDbEntity
  8
1
  6
CONTINUOUS
370
50
 62
4
100
AcDbLine
 10
10.308172
 20
0.39542
 30
0.0
 11
10.329883
 21
0.40045
 31
0.0
  0
LINE
  5
4DC
330
1F
100
AcDbEntity
  8
1
  6
CONTINUOUS
370
50
 62
4
100
AcDbLine
 10
10.92014
 20
0.079566
 30
0.0
 11
10.92157
 21
0.079898
 31
0.0
  0
LINE
  5
4DD
330
1F
100
AcDbEntity
  8
1
  6
CONTINUOUS
370
50
 62
4
100
AcDbLine
 10
10.918711
 20
0.079231
 30
0.0
 11
10.92014
 21
0.079566
 31
0.0
  0
LINE
  5
4DE
330
1F
100
AcDbEntity
  8
1
  6
CONTINUOUS
370
50
 62
4
100
AcDbLine
 10
10.915959
 20
0.324203
 30
0.0
 11
10.916899
 21
0.324424
 31
0.0
  0
LINE
  5
4DF
330
1F
100
AcDbEntity
  8
1
  6
CONTINUOUS
370
50
 62
4
100
AcDbLine
 10
10.917282
 20
0.078894
 30
0.0
 11
10.918711
 21
0.079231
 31
0.0
  0
LINE
  5
4E0
330
1F
100
AcDbEntity
  8
1
  6
CONTINUOUS
370
50
 62
4
100
AcDbLine
 10
10.915854
 20
0.078554
 30
0.0
 11
10.917282
 21
0.078894
 31
0.0
  0
LINE
  5
4E1
330
1F
100
AcDbEntity
  8
1
  6
CONTINUOUS
370
50
 62
4
100
AcDbLine
 10
10.914427
 20
0.078212
 30
0.0
 11
10.915854
 21
0.078554
 31
0.0
  0
LINE
  5
4E2
330
1F
100
AcDbEntity
  8
1
  6
CONTINUOUS
370
50
 62
4
100
AcDbLine
 10
10.916899
 20
0.324424
 30
0.0
 11
10.917837
 21
0.324649
 31
0.0
  0
LINE
  5
4E3
330
1F
100
AcDbEntity
  8
1
  6
CONTINUOUS
370
50
 62
4
100
AcDbLine
 10
10.913
 20
0.077868
 30
0.0
 11
10.914427
 21
0.078212
 31
0.0
  0
LINE
  5
4E4
330
1F
100
AcDbEntity
  8
1
  6
CONTINUOUS
370
50
 62
4
100
AcDbLine
 10
10.782932
 20
0.093301
 30
0.0
 11
10.79479
 21
0.096189
 31
0.0
  0
LINE
  5
4E5
330
1F
100
AcDbEntity
  8
1
  6
CONTINUOUS
370
50
 62
4
100
AcDbLine
 10
10.917837
 20
0.324649
 30
0.0
 11
10.919042
 21
0.324943
 31
0.0
  0
LINE
  5
4E6
330
1F
100
AcDbEntity
  8
1
  6
CONTINUOUS
370
50
 62
4
100
AcDbLine
 10
10.919042
 20
0.324943
 30
0.0
 11
10.920422
 21
0.325286
 31
0.0
  0
LINE
  5
4E7
330
1F
100
AcDbEntity
  8
1
  6
CONTINUOUS
370
50
 62
4
100
AcDbLine
 10
10.885081
 20
0.066993
 30
0.0
 11
10.913
 21
0.073964
 31
0.0
  0
LINE
  5
4E8
330
1F
100
AcDbEntity
  8
1
  6
CONTINUOUS
370
50
 62
4
100
AcDbLine
 10
10.29688
 20
0.393123
 30
0.0
 11
10.300527
 21
0.394046
 31
0.0
  0
LINE
  5
4E9
330
1F
100
AcDbEntity
  8
1
  6
CONTINUOUS
370
50
 62
4
100
AcDbLine
 10
10.920422
 20
0.325286
 30
0.0
 11
10.921712
 21
0.325615
 31
0.0
  0
LINE
  5
4EA
330
1F
100
AcDbEntity
  8
1
  6
CONTINUOUS
370
50
 62
4
100
AcDbLine
 10
10.780471
 20
-0.328278
 30
0.0
 11
10.798687
 21
-0.32363
 31
0.0
  0
LINE
  5
4EB
330
1F
100
AcDbEntity
  8
1
  6
CONTINUOUS
370
50
 62
4
100
AcDbLine
 10
10.538177
 20
0.467584
 30
0.0
 11
10.550314
 21
0.470713
 31
0.0
  0
LINE
  5
4EC
330
1F
100
AcDbEntity
  8
1
  6
CONTINUOUS
370
50
 62
4
100
AcDbLine
 10
10.921712
 20
0.325615
 30
0.0
 11
10.923
 21
0.32595
 31
0.0
  0
LINE
  5
4ED
330
1F
100
AcDbEntity
  8
1
  6
CONTINUOUS
370
50
 62
4
100
AcDbLine
 10
10.329883
 20
0.40045
 30
0.0
 11
10.350969
 21
0.405949
 31
0.0
  0
LINE
  5
4EE
330
1F
100
AcDbEntity
  8
1
  6
CONTINUOUS
370
50
 62
4
100
AcDbLine
 10
10.857483
 20
0.059117
 30
0.0
 11
10.885081
 21
0.066993
 31
0.0
  0
LINE
  5
4EF
330
1F
100
AcDbEntity
  8
1
  6
CONTINUOUS
370
50
 62
4
100
AcDbLine
 10
10.350969
 20
0.405949
 30
0.0
 11
10.371423
 21
0.41181
 31
0.0
  0
LINE
  5
4F0
330
1F
100
AcDbEntity
  8
1
  6
CONTINUOUS
370
50
 62
4
100
AcDbLine
 10
10.525059
 20
0.463723
 30
0.0
 11
10.538177
 21
0.467584
 31
0.0
  0
LINE
  5
4F1
330
1F
100
AcDbEntity
  8
1
  6
CONTINUOUS
370
50
 62
4
100
AcDbLine
 10
10.79479
 20
0.096189
 30
0.0
 11
10.806041
 21
0.099535
 31
0.0
  0
LINE
  5
4F2
330
1F
100
AcDbEntity
  8
1
  6
CONTINUOUS
370
50
 62
4
100
AcDbLine
 10
10.590243
 20
-0.473946
 30
0.0
 11
10.594469
 21
-0.472649
 31
0.0
  0
LINE
  5
4F3
330
1F
100
AcDbEntity
  8
1
  6
CONTINUOUS
370
50
 62
4
100
AcDbLine
 10
10.371423
 20
0.41181
 30
0.0
 11
10.391233
 21
0.417929
 31
0.0
  0
LINE
  5
4F4
330
1F
100
AcDbEntity
  8
1
  6
CONTINUOUS
370
50
 62
4
100
AcDbLine
 10
10.293369
 20
0.392038
 30
0.0
 11
10.29688
 21
0.393123
 31
0.0
  0
LINE
  5
4F5
330
1F
100
AcDbEntity
  8
1
  6
CONTINUOUS
370
50
 62
4
100
AcDbLine
 10
10.511015
 20
0.459225
 30
0.0
 11
10.525059
 21
0.463723
 31
0.0
  0
LINE
  5
4F6
330
1F
100
AcDbEntity
  8
1
  6
CONTINUOUS
370
50
 62
4
100
AcDbLine
 10
10.830216
 20
0.050335
 30
0.0
 11
10.857483
 21
0.059117
 31
0.0
  0
LINE
  5
4F7
330
1F
100
AcDbEntity
  8
1
  6
CONTINUOUS
370
50
 62
4
100
AcDbLine
 10
10.391233
 20
0.417929
 30
0.0
 11
10.410392
 21
0.424199
 31
0.0
  0
LINE
  5
4F8
330
1F
100
AcDbEntity
  8
1
  6
CONTINUOUS
370
50
 62
4
100
AcDbLine
 10
10.496103
 20
0.454185
 30
0.0
 11
10.511015
 21
0.459225
 31
0.0
  0
LINE
  5
4F9
330
1F
100
AcDbEntity
  8
1
  6
CONTINUOUS
370
50
 62
4
100
AcDbLine
 10
10.757592
 20
-0.336021
 30
0.0
 11
10.780471
 21
-0.328278
 31
0.0
  0
LINE
  5
4FA
330
1F
100
AcDbEntity
  8
1
  6
CONTINUOUS
370
50
 62
4
100
AcDbLine
 10
10.410392
 20
0.424199
 30
0.0
 11
10.428888
 21
0.430514
 31
0.0
  0
LINE
  5
4FB
330
1F
100
AcDbEntity
  8
1
  6
CONTINUOUS
370
50
 62
4
100
AcDbLine
 10
10.480379
 20
0.448698
 30
0.0
 11
10.496103
 21
0.454185
 31
0.0
  0
LINE
  5
4FC
330
1F
100
AcDbEntity
  8
1
  6
CONTINUOUS
370
50
 62
4
100
AcDbLine
 10
10.428888
 20
0.430514
 30
0.0
 11
10.446719
 21
0.436767
 31
0.0
  0
LINE
  5
4FD
330
1F
100
AcDbEntity
  8
1
  6
CONTINUOUS
370
50
 62
4
100
AcDbLine
 10
10.463899
 20
0.44286
 30
0.0
 11
10.480379
 21
0.448698
 31
0.0
  0
LINE
  5
4FE
330
1F
100
AcDbEntity
  8
1
  6
CONTINUOUS
370
50
 62
4
100
AcDbLine
 10
10.446719
 20
0.436767
 30
0.0
 11
10.463899
 21
0.44286
 31
0.0
  0
LINE
  5
4FF
330
1F
100
AcDbEntity
  8
1
  6
CONTINUOUS
370
50
 62
4
100
AcDbLine
 10
10.806041
 20
0.099535
 30
0.0
 11
10.816646
 21
0.103298
 31
0.0
  0
LINE
  5
500
330
1F
100
AcDbEntity
  8
1
  6
CONTINUOUS
370
50
 62
4
100
AcDbLine
 10
10.803294
 20
0.040645
 30
0.0
 11
10.830216
 21
0.050335
 31
0.0
  0
LINE
  5
501
330
1F
100
AcDbEntity
  8
1
  6
CONTINUOUS
370
50
 62
4
100
AcDbLine
 10
10.290013
 20
0.390786
 30
0.0
 11
10.293369
 21
0.392038
 31
0.0
  0
LINE
  5
502
330
1F
100
AcDbEntity
  8
1
  6
CONTINUOUS
370
50
 62
4
100
AcDbLine
 10
10.776727
 20
0.030046
 30
0.0
 11
10.803294
 21
0.040645
 31
0.0
  0
LINE
  5
503
330
1F
100
AcDbEntity
  8
1
  6
CONTINUOUS
370
50
 62
4
100
AcDbLine
 10
10.816646
 20
0.103298
 30
0.0
 11
10.826562
 21
0.107435
 31
0.0
  0
LINE
  5
504
330
1F
100
AcDbEntity
  8
1
  6
CONTINUOUS
370
50
 62
4
100
AcDbLine
 10
10.735091
 20
-0.345828
 30
0.0
 11
10.757592
 21
-0.336021
 31
0.0
  0
LINE
  5
505
330
1F
100
AcDbEntity
  8
1
  6
CONTINUOUS
370
50
 62
4
100
AcDbLine
 10
10.750527
 20
0.018537
 30
0.0
 11
10.776727
 21
0.030046
 31
0.0
  0
LINE
  5
506
330
1F
100
AcDbEntity
  8
1
  6
CONTINUOUS
370
50
 62
4
100
AcDbLine
 10
10.286846
 20
0.389374
 30
0.0
 11
10.290013
 21
0.390786
 31
0.0
  0
LINE
  5
507
330
1F
100
AcDbEntity
  8
1
  6
CONTINUOUS
370
50
 62
4
100
AcDbLine
 10
10.724706
 20
0.006117
 30
0.0
 11
10.750527
 21
0.018537
 31
0.0
  0
LINE
  5
508
330
1F
100
AcDbEntity
  8
1
  6
CONTINUOUS
370
50
 62
4
100
AcDbLine
 10
10.826562
 20
0.107435
 30
0.0
 11
10.835738
 21
0.111896
 31
0.0
  0
LINE
  5
509
330
1F
100
AcDbEntity
  8
1
  6
CONTINUOUS
370
50
 62
4
100
AcDbLine
 10
10.722714
 20
0.005112
 30
0.0
 11
10.724706
 21
0.006117
 31
0.0
  0
LINE
  5
50A
330
1F
100
AcDbEntity
  8
1
  6
CONTINUOUS
370
50
 62
4
100
AcDbLine
 10
10.720729
 20
0.004101
 30
0.0
 11
10.722714
 21
0.005112
 31
0.0
  0
LINE
  5
50B
330
1F
100
AcDbEntity
  8
1
  6
CONTINUOUS
370
50
 62
4
100
AcDbLine
 10
10.594469
 20
-0.472649
 30
0.0
 11
10.598088
 21
-0.470799
 31
0.0
  0
LINE
  5
50C
330
1F
100
AcDbEntity
  8
1
  6
CONTINUOUS
370
50
 62
4
100
AcDbLine
 10
10.718749
 20
0.003085
 30
0.0
 11
10.720729
 21
0.004101
 31
0.0
  0
LINE
  5
50D
330
1F
100
AcDbEntity
  8
1
  6
CONTINUOUS
370
50
 62
4
100
AcDbLine
 10
10.716776
 20
0.002062
 30
0.0
 11
10.718749
 21
0.003085
 31
0.0
  0
LINE
  5
50E
330
1F
100
AcDbEntity
  8
1
  6
CONTINUOUS
370
50
 62
4
100
AcDbLine
 10
10.714809
 20
0.001034
 30
0.0
 11
10.716776
 21
0.002062
 31
0.0
  0
LINE
  5
50F
330
1F
100
AcDbEntity
  8
1
  6
CONTINUOUS
370
50
 62
4
100
AcDbLine
 10
10.712849
 20
0.0
 30
0.0
 11
10.714809
 21
0.001034
 31
0.0
  0
LINE
  5
510
330
1F
100
AcDbEntity
  8
1
  6
CONTINUOUS
370
50
 62
4
100
AcDbLine
 10
10.283911
 20
0.387814
 30
0.0
 11
10.286846
 21
0.389374
 31
0.0
  0
LINE
  5
511
330
1F
100
AcDbEntity
  8
1
  6
CONTINUOUS
370
50
 62
4
100
AcDbLine
 10
10.713323
 20
-0.35756
 30
0.0
 11
10.735091
 21
-0.345828
 31
0.0
  0
LINE
  5
512
330
1F
100
AcDbEntity
  8
1
  6
CONTINUOUS
370
50
 62
4
100
AcDbLine
 10
10.700768
 20
-0.006568
 30
0.0
 11
10.712849
 21
0.0
 31
0.0
  0
LINE
  5
513
330
1F
100
AcDbEntity
  8
1
  6
CONTINUOUS
370
50
 62
4
100
AcDbLine
 10
10.835738
 20
0.111896
 30
0.0
 11
10.844112
 21
0.116623
 31
0.0
  0
LINE
  5
514
330
1F
100
AcDbEntity
  8
1
  6
CONTINUOUS
370
50
 62
4
100
AcDbLine
 10
10.688943
 20
-0.013345
 30
0.0
 11
10.700768
 21
-0.006568
 31
0.0
  0
LINE
  5
515
330
1F
100
AcDbEntity
  8
1
  6
CONTINUOUS
370
50
 62
4
100
AcDbLine
 10
-0.01
 20
-2.99995
 30
0.0
 11
4.363428
 21
-0.47495
 31
0.0
  0
LINE
  5
516
330
1F
100
AcDbEntity
  8
1
  6
CONTINUOUS
370
50
 62
4
100
AcDbLine
 10
10.677381
 20
-0.020321
 30
0.0
 11
10.688943
 21
-0.013345
 31
0.0
  0
LINE
  5
517
330
1F
100
AcDbEntity
  8
1
  6
CONTINUOUS
370
50
 62
4
100
AcDbLine
 10
10.281214
 20
0.386108
 30
0.0
 11
10.283911
 21
0.387814
 31
0.0
  0
LINE
  5
518
330
1F
100
AcDbEntity
  8
1
  6
CONTINUOUS
370
50
 62
4
100
AcDbLine
 10
10.66609
 20
-0.027485
 30
0.0
 11
10.677381
 21
-0.020321
 31
0.0
  0
LINE
  5
519
330
1F
100
AcDbEntity
  8
1
  6
CONTINUOUS
370
50
 62
4
100
AcDbLine
 10
10.692248
 20
-0.371253
 30
0.0
 11
10.713323
 21
-0.35756
 31
0.0
  0
LINE
  5
51A
330
1F
100
AcDbEntity
  8
1
  6
CONTINUOUS
370
50
 62
4
100
AcDbLine
 10
10.844112
 20
0.116623
 30
0.0
 11
10.851653
 21
0.121575
 31
0.0
  0
LINE
  5
51B
330
1F
100
AcDbEntity
  8
1
  6
CONTINUOUS
370
50
 62
4
100
AcDbLine
 10
10.655078
 20
-0.03483
 30
0.0
 11
10.66609
 21
-0.027485
 31
0.0
  0
LINE
  5
51C
330
1F
100
AcDbEntity
  8
1
  6
CONTINUOUS
370
50
 62
4
100
AcDbLine
 10
10.644353
 20
-0.042345
 30
0.0
 11
10.655078
 21
-0.03483
 31
0.0
  0
LINE
  5
51D
330
1F
100
AcDbEntity
  8
1
  6
CONTINUOUS
370
50
 62
4
100
AcDbLine
 10
10.633924
 20
-0.050021
 30
0.0
 11
10.644353
 21
-0.042345
 31
0.0
  0
LINE
  5
51E
330
1F
100
AcDbEntity
  8
1
  6
CONTINUOUS
370
50
 62
4
100
AcDbLine
 10
10.278764
 20
0.384259
 30
0.0
 11
10.281214
 21
0.386108
 31
0.0
  0
LINE
  5
51F
330
1F
100
AcDbEntity
  8
1
  6
CONTINUOUS
370
50
 62
4
100
AcDbLine
 10
10.67333
 20
-0.385765
 30
0.0
 11
10.692248
 21
-0.371253
 31
0.0
  0
LINE
  5
520
330
1F
100
AcDbEntity
  8
1
  6
CONTINUOUS
370
50
 62
4
100
AcDbLine
 10
10.851653
 20
0.121575
 30
0.0
 11
10.85833
 21
0.12671
 31
0.0
  0
LINE
  5
521
330
1F
100
AcDbEntity
  8
1
  6
CONTINUOUS
370
50
 62
4
100
AcDbLine
 10
10.6238
 20
-0.057849
 30
0.0
 11
10.633924
 21
-0.050021
 31
0.0
  0
LINE
  5
522
330
1F
100
AcDbEntity
  8
1
  6
CONTINUOUS
370
50
 62
4
100
AcDbLine
 10
10.598088
 20
-0.470799
 30
0.0
 11
10.601072
 21
-0.468395
 31
0.0
  0
LINE
  5
523
330
1F
100
AcDbEntity
  8
1
  6
CONTINUOUS
370
50
 62
4
100
AcDbLine
 10
10.613988
 20
-0.06582
 30
0.0
 11
10.6238
 21
-0.057849
 31
0.0
  0
LINE
  5
524
330
1F
100
AcDbEntity
  8
1
  6
CONTINUOUS
370
50
 62
4
100
AcDbLine
 10
10.604496
 20
-0.073923
 30
0.0
 11
10.613988
 21
-0.06582
 31
0.0
  0
LINE
  5
525
330
1F
100
AcDbEntity
  8
1
  6
CONTINUOUS
370
50
 62
4
100
AcDbLine
 10
10.595332
 20
-0.082151
 30
0.0
 11
10.604496
 21
-0.073923
 31
0.0
  0
LINE
  5
526
330
1F
100
AcDbEntity
  8
1
  6
CONTINUOUS
370
50
 62
4
100
AcDbLine
 10
10.653172
 20
-0.403926
 30
0.0
 11
10.67333
 21
-0.385765
 31
0.0
  0
LINE
  5
527
330
1F
100
AcDbEntity
  8
1
  6
CONTINUOUS
370
50
 62
4
100
AcDbLine
 10
10.276567
 20
0.382269
 30
0.0
 11
10.278764
 21
0.384259
 31
0.0
  0
LINE
  5
528
330
1F
100
AcDbEntity
  8
1
  6
CONTINUOUS
370
50
 62
4
100
AcDbLine
 10
10.85833
 20
0.12671
 30
0.0
 11
10.864175
 21
0.13205
 31
0.0
  0
LINE
  5
529
330
1F
100
AcDbEntity
  8
1
  6
CONTINUOUS
370
50
 62
4
100
AcDbLine
 10
10.586506
 20
-0.090494
 30
0.0
 11
10.595332
 21
-0.082151
 31
0.0
  0
LINE
  5
52A
330
1F
100
AcDbEntity
  8
1
  6
CONTINUOUS
370
50
 62
4
100
AcDbLine
 10
10.578025
 20
-0.098941
 30
0.0
 11
10.586506
 21
-0.090494
 31
0.0
  0
LINE
  5
52B
330
1F
100
AcDbEntity
  8
1
  6
CONTINUOUS
370
50
 62
4
100
AcDbLine
 10
10.569944
 20
-0.107435
 30
0.0
 11
10.578025
 21
-0.098941
 31
0.0
  0
LINE
  5
52C
330
1F
100
AcDbEntity
  8
1
  6
CONTINUOUS
370
50
 62
4
100
AcDbLine
 10
10.635434
 20
-0.422675
 30
0.0
 11
10.653172
 21
-0.403926
 31
0.0
  0
LINE
  5
52D
330
1F
100
AcDbEntity
  8
1
  6
CONTINUOUS
370
50
 62
4
100
AcDbLine
 10
10.913
 20
0.144607
 30
0.0
 11
10.914849
 21
0.14659
 31
0.0
  0
LINE
  5
52E
330
1F
100
AcDbEntity
  8
1
  6
CONTINUOUS
370
50
 62
4
100
AcDbLine
 10
10.27465
 20
0.380163
 30
0.0
 11
10.276567
 21
0.382269
 31
0.0
  0
LINE
  5
52F
330
1F
100
AcDbEntity
  8
1
  6
CONTINUOUS
370
50
 62
4
100
AcDbLine
 10
10.562303
 20
-0.11593
 30
0.0
 11
10.569944
 21
-0.107435
 31
0.0
  0
LINE
  5
530
330
1F
100
AcDbEntity
  8
1
  6
CONTINUOUS
370
50
 62
4
100
AcDbLine
 10
10.864175
 20
0.13205
 30
0.0
 11
10.869411
 21
0.13793
 31
0.0
  0
LINE
  5
531
330
1F
100
AcDbEntity
  8
1
  6
CONTINUOUS
370
50
 62
4
100
AcDbLine
 10
10.914849
 20
0.14659
 30
0.0
 11
10.916641
 21
0.148632
 31
0.0
  0
LINE
  5
532
330
1F
100
AcDbEntity
  8
1
  6
CONTINUOUS
370
50
 62
4
100
AcDbLine
 10
10.555102
 20
-0.124416
 30
0.0
 11
10.562303
 21
-0.11593
 31
0.0
  0
LINE
  5
533
330
1F
100
AcDbEntity
  8
1
  6
CONTINUOUS
370
50
 62
4
100
AcDbLine
 10
10.916641
 20
0.148632
 30
0.0
 11
10.918363
 21
0.150729
 31
0.0
  0
LINE
  5
534
330
1F
100
AcDbEntity
  8
1
  6
CONTINUOUS
370
50
 62
4
100
AcDbLine
 10
10.618992
 20
-0.442943
 30
0.0
 11
10.635434
 21
-0.422675
 31
0.0
  0
LINE
  5
535
330
1F
100
AcDbEntity
  8
1
  6
CONTINUOUS
370
50
 62
4
100
AcDbLine
 10
10.601072
 20
-0.468395
 30
0.0
 11
10.603432
 21
-0.465441
 31
0.0
  0
LINE
  5
536
330
1F
100
AcDbEntity
  8
1
  6
CONTINUOUS
370
50
 62
4
100
AcDbLine
 10
10.548347
 20
-0.132883
 30
0.0
 11
10.555102
 21
-0.124416
 31
0.0
  0
LINE
  5
537
330
1F
100
AcDbEntity
  8
1
  6
CONTINUOUS
370
50
 62
4
100
AcDbLine
 10
10.873743
 20
0.144348
 30
0.0
 11
10.879603
 21
0.151967
 31
0.0
  0
LINE
  5
538
330
1F
100
AcDbEntity
  8
1
  6
CONTINUOUS
370
50
 62
4
100
AcDbLine
 10
10.918363
 20
0.150729
 30
0.0
 11
10.920003
 21
0.152878
 31
0.0
  0
LINE
  5
539
330
1F
100
AcDbEntity
  8
1
  6
CONTINUOUS
370
50
 62
4
100
AcDbLine
 10
10.879603
 20
0.151967
 30
0.0
 11
10.885377
 21
0.159588
 31
0.0
  0
LINE
  5
53A
330
1F
100
AcDbEntity
  8
1
  6
CONTINUOUS
370
50
 62
4
100
AcDbLine
 10
10.542035
 20
-0.141322
 30
0.0
 11
10.548347
 21
-0.132883
 31
0.0
  0
LINE
  5
53B
330
1F
100
AcDbEntity
  8
1
  6
CONTINUOUS
370
50
 62
4
100
AcDbLine
 10
10.885377
 20
0.159588
 30
0.0
 11
10.891066
 21
0.167212
 31
0.0
  0
LINE
  5
53C
330
1F
100
AcDbEntity
  8
1
  6
CONTINUOUS
370
50
 62
4
100
AcDbLine
 10
10.27302
 20
0.377961
 30
0.0
 11
10.27465
 21
0.380163
 31
0.0
  0
LINE
  5
53D
330
1F
100
AcDbEntity
  8
1
  6
CONTINUOUS
370
50
 62
4
100
AcDbLine
 10
10.891066
 20
0.167212
 30
0.0
 11
10.89667
 21
0.174837
 31
0.0
  0
LINE
  5
53E
330
1F
100
AcDbEntity
  8
1
  6
CONTINUOUS
370
50
 62
4
100
AcDbLine
 10
10.89667
 20
0.174837
 30
0.0
 11
10.902194
 21
0.182463
 31
0.0
  0
LINE
  5
53F
330
1F
100
AcDbEntity
  8
1
  6
CONTINUOUS
370
50
 62
4
100
AcDbLine
 10
10.902194
 20
0.182463
 30
0.0
 11
10.907637
 21
0.190089
 31
0.0
  0
LINE
  5
540
330
1F
100
AcDbEntity
  8
1
  6
CONTINUOUS
370
50
 62
4
100
AcDbLine
 10
10.920003
 20
0.152878
 30
0.0
 11
10.921553
 21
0.155078
 31
0.0
  0
LINE
  5
541
330
1F
100
AcDbEntity
  8
1
  6
CONTINUOUS
370
50
 62
4
100
AcDbLine
 10
10.907637
 20
0.190089
 30
0.0
 11
10.913
 21
0.197716
 31
0.0
  0
LINE
  5
542
330
1F
100
AcDbEntity
  8
1
  6
CONTINUOUS
370
50
 62
4
100
AcDbLine
 10
10.536172
 20
-0.149723
 30
0.0
 11
10.542035
 21
-0.141322
 31
0.0
  0
LINE
  5
543
330
1F
100
AcDbEntity
  8
1
  6
CONTINUOUS
370
50
 62
4
100
AcDbLine
 10
10.603415
 20
-0.465469
 30
0.0
 11
10.618992
 21
-0.442943
 31
0.0
  0
LINE
  5
544
330
1F
100
AcDbEntity
  8
1
  6
CONTINUOUS
370
50
 62
4
100
AcDbLine
 10
10.869411
 20
0.13793
 30
0.0
 11
10.873743
 21
0.144348
 31
0.0
  0
LINE
  5
545
330
1F
100
AcDbEntity
  8
1
  6
CONTINUOUS
370
50
 62
4
100
AcDbLine
 10
10.530758
 20
-0.158075
 30
0.0
 11
10.536172
 21
-0.149723
 31
0.0
  0
LINE
  5
546
330
1F
100
AcDbEntity
  8
1
  6
CONTINUOUS
370
50
 62
4
100
AcDbLine
 10
10.921553
 20
0.155078
 30
0.0
 11
10.923
 21
0.157324
 31
0.0
  0
LINE
  5
547
330
1F
100
AcDbEntity
  8
1
  6
CONTINUOUS
370
50
 62
4
100
AcDbLine
 10
10.525796
 20
-0.16637
 30
0.0
 11
10.530758
 21
-0.158075
 31
0.0
  0
LINE
  5
548
330
1F
100
AcDbEntity
  8
1
  6
CONTINUOUS
370
50
 62
4
100
AcDbLine
 10
10.271669
 20
0.375668
 30
0.0
 11
10.27302
 21
0.377961
 31
0.0
  0
LINE
  5
549
330
1F
100
AcDbEntity
  8
1
  6
CONTINUOUS
370
50
 62
4
100
AcDbLine
 10
10.521287
 20
-0.174598
 30
0.0
 11
10.525796
 21
-0.16637
 31
0.0
  0
LINE
  5
54A
330
1F
100
AcDbEntity
  8
1
  6
CONTINUOUS
370
50
 62
4
100
AcDbLine
 10
10.517194
 20
-0.182838
 30
0.0
 11
10.521287
 21
-0.174598
 31
0.0
  0
LINE
  5
54B
330
1F
100
AcDbEntity
  8
1
  6
CONTINUOUS
370
50
 62
4
100
AcDbLine
 10
10.270591
 20
0.373292
 30
0.0
 11
10.271669
 21
0.375668
 31
0.0
  0
LINE
  5
54C
330
1F
100
AcDbEntity
  8
1
  6
CONTINUOUS
370
50
 62
4
100
AcDbLine
 10
10.513497
 20
-0.191174
 30
0.0
 11
10.517194
 21
-0.182838
 31
0.0
  0
LINE
  5
54D
330
1F
100
AcDbEntity
  8
1
  6
CONTINUOUS
370
50
 62
4
100
AcDbLine
 10
10.603432
 20
-0.465441
 30
0.0
 11
10.605859
 21
-0.459924
 31
0.0
  0
LINE
  5
54E
330
1F
100
AcDbEntity
  8
1
  6
CONTINUOUS
370
50
 62
4
100
AcDbLine
 10
10.510242
 20
-0.199584
 30
0.0
 11
10.513497
 21
-0.191174
 31
0.0
  0
LINE
  5
54F
330
1F
100
AcDbEntity
  8
1
  6
CONTINUOUS
370
50
 62
4
100
AcDbLine
 10
10.269777
 20
0.370839
 30
0.0
 11
10.270591
 21
0.373292
 31
0.0
  0
LINE
  5
550
330
1F
100
AcDbEntity
  8
1
  6
CONTINUOUS
370
50
 62
4
100
AcDbLine
 10
10.507471
 20
-0.208046
 30
0.0
 11
10.510242
 21
-0.199584
 31
0.0
  0
LINE
  5
551
330
1F
100
AcDbEntity
  8
1
  6
CONTINUOUS
370
50
 62
4
100
AcDbLine
 10
10.915957
 20
-0.324202
 30
0.0
 11
10.916113
 21
-0.32371
 31
0.0
  0
LINE
  5
552
330
1F
100
AcDbEntity
  8
1
  6
CONTINUOUS
370
50
 62
4
100
AcDbLine
 10
10.915958
 20
-0.324202
 30
0.0
 11
10.916113
 21
-0.32371
 31
0.0
  0
LINE
  5
553
330
1F
100
AcDbEntity
  8
1
  6
CONTINUOUS
370
50
 62
4
100
AcDbLine
 10
10.505225
 20
-0.216538
 30
0.0
 11
10.507471
 21
-0.208046
 31
0.0
  0
LINE
  5
554
330
1F
100
AcDbEntity
  8
1
  6
CONTINUOUS
370
50
 62
4
100
AcDbLine
 10
10.915776
 20
0.323462
 30
0.0
 11
10.915958
 21
0.324202
 31
0.0
  0
LINE
  5
555
330
1F
100
AcDbEntity
  8
1
  6
CONTINUOUS
370
50
 62
4
100
AcDbLine
 10
10.915775
 20
0.323461
 30
0.0
 11
10.915957
 21
0.324202
 31
0.0
  0
LINE
  5
556
330
1F
100
AcDbEntity
  8
1
  6
CONTINUOUS
370
50
 62
4
100
AcDbLine
 10
10.269217
 20
0.368302
 30
0.0
 11
10.269777
 21
0.370839
 31
0.0
  0
LINE
  5
557
330
1F
100
AcDbEntity
  8
1
  6
CONTINUOUS
370
50
 62
4
100
AcDbLine
 10
10.50355
 20
-0.225039
 30
0.0
 11
10.505225
 21
-0.216538
 31
0.0
  0
LINE
  5
558
330
1F
100
AcDbEntity
  8
1
  6
CONTINUOUS
370
50
 62
4
100
AcDbLine
 10
10.605859
 20
-0.459924
 30
0.0
 11
10.606969
 21
-0.453147
 31
0.0
  0
LINE
  5
559
330
1F
100
AcDbEntity
  8
1
  6
CONTINUOUS
370
50
 62
4
100
AcDbLine
 10
10.502487
 20
-0.233514
 30
0.0
 11
10.50355
 21
-0.225039
 31
0.0
  0
LINE
  5
55A
330
1F
100
AcDbEntity
  8
1
  6
CONTINUOUS
370
50
 62
4
100
AcDbLine
 10
10.268907
 20
0.365652
 30
0.0
 11
10.269217
 21
0.368302
 31
0.0
  0
LINE
  5
55B
330
1F
100
AcDbEntity
  8
1
  6
CONTINUOUS
370
50
 62
4
100
AcDbLine
 10
10.916113
 20
-0.32371
 30
0.0
 11
10.916265
 21
-0.32216
 31
0.0
  0
LINE
  5
55C
330
1F
100
AcDbEntity
  8
1
  6
CONTINUOUS
370
50
 62
4
100
AcDbLine
 10
10.916113
 20
-0.32371
 30
0.0
 11
10.916265
 21
-0.322159
 31
0.0
  0
LINE
  5
55D
330
1F
100
AcDbEntity
  8
1
  6
CONTINUOUS
370
50
 62
4
100
AcDbLine
 10
10.915591
 20
0.321329
 30
0.0
 11
10.915776
 21
0.323462
 31
0.0
  0
LINE
  5
55E
330
1F
100
AcDbEntity
  8
1
  6
CONTINUOUS
370
50
 62
4
100
AcDbLine
 10
10.91559
 20
0.321322
 30
0.0
 11
10.915775
 21
0.323461
 31
0.0
  0
LINE
  5
55F
330
1F
100
AcDbEntity
  8
1
  6
CONTINUOUS
370
50
 62
4
100
AcDbLine
 10
10.916265
 20
-0.322159
 30
0.0
 11
10.916413
 21
-0.319548
 31
0.0
  0
LINE
  5
560
330
1F
100
AcDbEntity
  8
1
  6
CONTINUOUS
370
50
 62
4
100
AcDbLine
 10
10.916265
 20
-0.32216
 30
0.0
 11
10.916412
 21
-0.319553
 31
0.0
  0
LINE
  5
561
330
1F
100
AcDbEntity
  8
1
  6
CONTINUOUS
370
50
 62
4
100
AcDbLine
 10
10.915404
 20
0.317805
 30
0.0
 11
10.915591
 21
0.321329
 31
0.0
  0
LINE
  5
562
330
1F
100
AcDbEntity
  8
1
  6
CONTINUOUS
370
50
 62
4
100
AcDbLine
 10
10.915403
 20
0.317793
 30
0.0
 11
10.91559
 21
0.321322
 31
0.0
  0
LINE
  5
563
330
1F
100
AcDbEntity
  8
1
  6
CONTINUOUS
370
50
 62
4
100
AcDbLine
 10
10.502087
 20
-0.241894
 30
0.0
 11
10.502487
 21
-0.233514
 31
0.0
  0
LINE
  5
564
330
1F
100
AcDbEntity
  8
1
  6
CONTINUOUS
370
50
 62
4
100
AcDbLine
 10
10.916412
 20
-0.319553
 30
0.0
 11
10.916556
 21
-0.315888
 31
0.0
  0
LINE
  5
565
330
1F
100
AcDbEntity
  8
1
  6
CONTINUOUS
370
50
 62
4
100
AcDbLine
 10
10.916413
 20
-0.319548
 30
0.0
 11
10.916557
 21
-0.315874
 31
0.0
  0
LINE
  5
566
330
1F
100
AcDbEntity
  8
1
  6
CONTINUOUS
370
50
 62
4
100
AcDbLine
 10
10.915215
 20
0.312911
 30
0.0
 11
10.915404
 21
0.317805
 31
0.0
  0
LINE
  5
567
330
1F
100
AcDbEntity
  8
1
  6
CONTINUOUS
370
50
 62
4
100
AcDbLine
 10
10.915215
 20
0.312901
 30
0.0
 11
10.915403
 21
0.317793
 31
0.0
  0
LINE
  5
568
330
1F
100
AcDbEntity
  8
1
  6
CONTINUOUS
370
50
 62
4
100
AcDbLine
 10
10.915026
 20
0.306668
 30
0.0
 11
10.915215
 21
0.312901
 31
0.0
  0
LINE
  5
569
330
1F
100
AcDbEntity
  8
1
  6
CONTINUOUS
370
50
 62
4
100
AcDbLine
 10
10.915027
 20
0.306677
 30
0.0
 11
10.915215
 21
0.312911
 31
0.0
  0
LINE
  5
56A
330
1F
100
AcDbEntity
  8
1
  6
CONTINUOUS
370
50
 62
4
100
AcDbLine
 10
10.916556
 20
-0.315888
 30
0.0
 11
10.916696
 21
-0.311166
 31
0.0
  0
LINE
  5
56B
330
1F
100
AcDbEntity
  8
1
  6
CONTINUOUS
370
50
 62
4
100
AcDbLine
 10
10.916557
 20
-0.315874
 30
0.0
 11
10.916697
 21
-0.311142
 31
0.0
  0
LINE
  5
56C
330
1F
100
AcDbEntity
  8
1
  6
CONTINUOUS
370
50
 62
4
100
AcDbLine
 10
10.914836
 20
0.299119
 30
0.0
 11
10.915026
 21
0.306668
 31
0.0
  0
LINE
  5
56D
330
1F
100
AcDbEntity
  8
1
  6
CONTINUOUS
370
50
 62
4
100
AcDbLine
 10
10.914837
 20
0.299128
 30
0.0
 11
10.915027
 21
0.306677
 31
0.0
  0
LINE
  5
56E
330
1F
100
AcDbEntity
  8
1
  6
CONTINUOUS
370
50
 62
4
100
AcDbLine
 10
10.916697
 20
-0.311142
 30
0.0
 11
10.91683
 21
-0.305379
 31
0.0
  0
LINE
  5
56F
330
1F
100
AcDbEntity
  8
1
  6
CONTINUOUS
370
50
 62
4
100
AcDbLine
 10
10.916696
 20
-0.311166
 30
0.0
 11
10.916829
 21
-0.305395
 31
0.0
  0
LINE
  5
570
330
1F
100
AcDbEntity
  8
1
  6
CONTINUOUS
370
50
 62
4
100
AcDbLine
 10
10.914648
 20
0.290287
 30
0.0
 11
10.914837
 21
0.299128
 31
0.0
  0
LINE
  5
571
330
1F
100
AcDbEntity
  8
1
  6
CONTINUOUS
370
50
 62
4
100
AcDbLine
 10
10.914647
 20
0.290274
 30
0.0
 11
10.914836
 21
0.299119
 31
0.0
  0
LINE
  5
572
330
1F
100
AcDbEntity
  8
1
  6
CONTINUOUS
370
50
 62
4
100
AcDbLine
 10
10.268849
 20
0.362891
 30
0.0
 11
10.268907
 21
0.365652
 31
0.0
  0
LINE
  5
573
330
1F
100
AcDbEntity
  8
1
  6
CONTINUOUS
370
50
 62
4
100
AcDbLine
 10
10.914458
 20
0.280156
 30
0.0
 11
10.914647
 21
0.290274
 31
0.0
  0
LINE
  5
574
330
1F
100
AcDbEntity
  8
1
  6
CONTINUOUS
370
50
 62
4
100
AcDbLine
 10
10.91446
 20
0.280178
 30
0.0
 11
10.914648
 21
0.290287
 31
0.0
  0
LINE
  5
575
330
1F
100
AcDbEntity
  8
1
  6
CONTINUOUS
370
50
 62
4
100
AcDbLine
 10
10.916829
 20
-0.305395
 30
0.0
 11
10.916977
 21
-0.297372
 31
0.0
  0
LINE
  5
576
330
1F
100
AcDbEntity
  8
1
  6
CONTINUOUS
370
50
 62
4
100
AcDbLine
 10
10.91683
 20
-0.305379
 30
0.0
 11
10.916977
 21
-0.297365
 31
0.0
  0
LINE
  5
577
330
1F
100
AcDbEntity
  8
1
  6
CONTINUOUS
370
50
 62
4
100
AcDbLine
 10
10.914272
 20
0.268827
 30
0.0
 11
10.91446
 21
0.280178
 31
0.0
  0
LINE
  5
578
330
1F
100
AcDbEntity
  8
1
  6
CONTINUOUS
370
50
 62
4
100
AcDbLine
 10
10.91427
 20
0.268788
 30
0.0
 11
10.914458
 21
0.280156
 31
0.0
  0
LINE
  5
579
330
1F
100
AcDbEntity
  8
1
  6
CONTINUOUS
370
50
 62
4
100
AcDbLine
 10
10.914086
 20
0.256258
 30
0.0
 11
10.914272
 21
0.268827
 31
0.0
  0
LINE
  5
57A
330
1F
100
AcDbEntity
  8
1
  6
CONTINUOUS
370
50
 62
4
100
AcDbLine
 10
10.914085
 20
0.256216
 30
0.0
 11
10.91427
 21
0.268788
 31
0.0
  0
LINE
  5
57B
330
1F
100
AcDbEntity
  8
1
  6
CONTINUOUS
370
50
 62
4
100
AcDbLine
 10
10.916977
 20
-0.297365
 30
0.0
 11
10.917114
 21
-0.287996
 31
0.0
  0
LINE
  5
57C
330
1F
100
AcDbEntity
  8
1
  6
CONTINUOUS
370
50
 62
4
100
AcDbLine
 10
10.916977
 20
-0.297372
 30
0.0
 11
10.917114
 21
-0.287996
 31
0.0
  0
LINE
  5
57D
330
1F
100
AcDbEntity
  8
1
  6
CONTINUOUS
370
50
 62
4
100
AcDbLine
 10
10.913901
 20
0.24251
 30
0.0
 11
10.914085
 21
0.256216
 31
0.0
  0
LINE
  5
57E
330
1F
100
AcDbEntity
  8
1
  6
CONTINUOUS
370
50
 62
4
100
AcDbLine
 10
10.913903
 20
0.242539
 30
0.0
 11
10.914086
 21
0.256258
 31
0.0
  0
LINE
  5
57F
330
1F
100
AcDbEntity
  8
1
  6
CONTINUOUS
370
50
 62
4
100
AcDbLine
 10
10.913722
 20
0.227724
 30
0.0
 11
10.913903
 21
0.242539
 31
0.0
  0
LINE
  5
580
330
1F
100
AcDbEntity
  8
1
  6
CONTINUOUS
370
50
 62
4
100
AcDbLine
 10
10.913721
 20
0.227707
 30
0.0
 11
10.913901
 21
0.24251
 31
0.0
  0
LINE
  5
581
330
1F
100
AcDbEntity
  8
1
  6
CONTINUOUS
370
50
 62
4
100
AcDbLine
 10
10.917114
 20
-0.287996
 30
0.0
 11
10.91724
 21
-0.277298
 31
0.0
  0
LINE
  5
582
330
1F
100
AcDbEntity
  8
1
  6
CONTINUOUS
370
50
 62
4
100
AcDbLine
 10
10.917114
 20
-0.287996
 30
0.0
 11
10.91724
 21
-0.277295
 31
0.0
  0
LINE
  5
583
330
1F
100
AcDbEntity
  8
1
  6
CONTINUOUS
370
50
 62
4
100
AcDbLine
 10
10.913544
 20
0.211845
 30
0.0
 11
10.913721
 21
0.227707
 31
0.0
  0
LINE
  5
584
330
1F
100
AcDbEntity
  8
1
  6
CONTINUOUS
370
50
 62
4
100
AcDbLine
 10
10.913545
 20
0.211854
 30
0.0
 11
10.913722
 21
0.227724
 31
0.0
  0
LINE
  5
585
330
1F
100
AcDbEntity
  8
1
  6
CONTINUOUS
370
50
 62
4
100
AcDbLine
 10
10.91337
 20
0.194962
 30
0.0
 11
10.913544
 21
0.211845
 31
0.0
  0
LINE
  5
586
330
1F
100
AcDbEntity
  8
1
  6
CONTINUOUS
370
50
 62
4
100
AcDbLine
 10
10.913371
 20
0.194964
 30
0.0
 11
10.913545
 21
0.211854
 31
0.0
  0
LINE
  5
587
330
1F
100
AcDbEntity
  8
1
  6
CONTINUOUS
370
50
 62
4
100
AcDbLine
 10
10.913199
 20
0.177097
 30
0.0
 11
10.91337
 21
0.194962
 31
0.0
  0
LINE
  5
588
330
1F
100
AcDbEntity
  8
1
  6
CONTINUOUS
370
50
 62
4
100
AcDbLine
 10
10.9132
 20
0.177096
 30
0.0
 11
10.913371
 21
0.194964
 31
0.0
  0
LINE
  5
589
330
1F
100
AcDbEntity
  8
1
  6
CONTINUOUS
370
50
 62
4
100
AcDbLine
 10
10.91724
 20
-0.277295
 30
0.0
 11
10.917354
 21
-0.265299
 31
0.0
  0
LINE
  5
58A
330
1F
100
AcDbEntity
  8
1
  6
CONTINUOUS
370
50
 62
4
100
AcDbLine
 10
10.91724
 20
-0.277298
 30
0.0
 11
10.917354
 21
-0.265297
 31
0.0
  0
LINE
  5
58B
330
1F
100
AcDbEntity
  8
1
  6
CONTINUOUS
370
50
 62
4
100
AcDbLine
 10
10.913
 20
0.153417
 30
0.0
 11
10.913007
 21
0.154208
 31
0.0
  0
LINE
  5
58C
330
1F
100
AcDbEntity
  8
1
  6
CONTINUOUS
370
50
 62
4
100
AcDbLine
 10
10.913034
 20
0.158286
 30
0.0
 11
10.9132
 21
0.177096
 31
0.0
  0
LINE
  5
58D
330
1F
100
AcDbEntity
  8
1
  6
CONTINUOUS
370
50
 62
4
100
AcDbLine
 10
10.913033
 20
0.158286
 30
0.0
 11
10.913199
 21
0.177097
 31
0.0
  0
LINE
  5
58E
330
1F
100
AcDbEntity
  8
1
  6
CONTINUOUS
370
50
 62
4
100
AcDbLine
 10
10.913
 20
0.153296
 30
0.0
 11
10.913007
 21
0.154106
 31
0.0
  0
LINE
  5
58F
330
1F
100
AcDbEntity
  8
1
  6
CONTINUOUS
370
50
 62
4
100
AcDbLine
 10
10.917354
 20
-0.265297
 30
0.0
 11
10.917454
 21
-0.252021
 31
0.0
  0
LINE
  5
590
330
1F
100
AcDbEntity
  8
1
  6
CONTINUOUS
370
50
 62
4
100
AcDbLine
 10
10.913007
 20
0.154208
 30
0.0
 11
10.913013
 21
0.155007
 31
0.0
  0
LINE
  5
591
330
1F
100
AcDbEntity
  8
1
  6
CONTINUOUS
370
50
 62
4
100
AcDbLine
 10
10.917689
 20
-0.128597
 30
0.0
 11
10.917786
 21
-0.115628
 31
0.0
  0
LINE
  5
592
330
1F
100
AcDbEntity
  8
1
  6
CONTINUOUS
370
50
 62
4
100
AcDbLine
 10
10.917688
 20
-0.128597
 30
0.0
 11
10.917785
 21
-0.115611
 31
0.0
  0
LINE
  5
593
330
1F
100
AcDbEntity
  8
1
  6
CONTINUOUS
370
50
 62
4
100
AcDbLine
 10
10.917354
 20
-0.265299
 30
0.0
 11
10.917453
 21
-0.252037
 31
0.0
  0
LINE
  5
594
330
1F
100
AcDbEntity
  8
1
  6
CONTINUOUS
370
50
 62
4
100
AcDbLine
 10
10.913007
 20
0.154106
 30
0.0
 11
10.913013
 21
0.154924
 31
0.0
  0
LINE
  5
595
330
1F
100
AcDbEntity
  8
1
  6
CONTINUOUS
370
50
 62
4
100
AcDbLine
 10
10.913023
 20
0.15663
 30
0.0
 11
10.913029
 21
0.157454
 31
0.0
  0
LINE
  5
596
330
1F
100
AcDbEntity
  8
1
  6
CONTINUOUS
370
50
 62
4
100
AcDbLine
 10
10.913018
 20
0.155751
 30
0.0
 11
10.913024
 21
0.156588
 31
0.0
  0
LINE
  5
597
330
1F
100
AcDbEntity
  8
1
  6
CONTINUOUS
370
50
 62
4
100
AcDbLine
 10
10.913024
 20
0.156588
 30
0.0
 11
10.91303
 21
0.157433
 31
0.0
  0
LINE
  5
598
330
1F
100
AcDbEntity
  8
1
  6
CONTINUOUS
370
50
 62
4
100
AcDbLine
 10
10.913013
 20
0.155007
 30
0.0
 11
10.913018
 21
0.155814
 31
0.0
  0
LINE
  5
599
330
1F
100
AcDbEntity
  8
1
  6
CONTINUOUS
370
50
 62
4
100
AcDbLine
 10
10.913018
 20
0.155814
 30
0.0
 11
10.913023
 21
0.15663
 31
0.0
  0
LINE
  5
59A
330
1F
100
AcDbEntity
  8
1
  6
CONTINUOUS
370
50
 62
4
100
AcDbLine
 10
10.913013
 20
0.154924
 30
0.0
 11
10.913018
 21
0.155751
 31
0.0
  0
LINE
  5
59B
330
1F
100
AcDbEntity
  8
1
  6
CONTINUOUS
370
50
 62
4
100
AcDbLine
 10
10.917453
 20
-0.252037
 30
0.0
 11
10.917539
 21
-0.237541
 31
0.0
  0
LINE
  5
59C
330
1F
100
AcDbEntity
  8
1
  6
CONTINUOUS
370
50
 62
4
100
AcDbLine
 10
10.917454
 20
-0.252021
 30
0.0
 11
10.917539
 21
-0.237519
 31
0.0
  0
LINE
  5
59D
330
1F
100
AcDbEntity
  8
1
  6
CONTINUOUS
370
50
 62
4
100
AcDbLine
 10
10.917786
 20
-0.115628
 30
0.0
 11
10.917855
 21
-0.102789
 31
0.0
  0
LINE
  5
59E
330
1F
100
AcDbEntity
  8
1
  6
CONTINUOUS
370
50
 62
4
100
AcDbLine
 10
10.917785
 20
-0.115611
 30
0.0
 11
10.917853
 21
-0.102769
 31
0.0
  0
LINE
  5
59F
330
1F
100
AcDbEntity
  8
1
  6
CONTINUOUS
370
50
 62
4
100
AcDbLine
 10
10.913029
 20
0.157454
 30
0.0
 11
10.913033
 21
0.158286
 31
0.0
  0
LINE
  5
5A0
330
1F
100
AcDbEntity
  8
1
  6
CONTINUOUS
370
50
 62
4
100
AcDbLine
 10
10.91303
 20
0.157433
 30
0.0
 11
10.913034
 21
0.158286
 31
0.0
  0
LINE
  5
5A1
330
1F
100
AcDbEntity
  8
1
  6
CONTINUOUS
370
50
 62
4
100
AcDbLine
 10
10.917539
 20
-0.237519
 30
0.0
 11
10.917607
 21
-0.221892
 31
0.0
  0
LINE
  5
5A2
330
1F
100
AcDbEntity
  8
1
  6
CONTINUOUS
370
50
 62
4
100
AcDbLine
 10
10.917539
 20
-0.237541
 30
0.0
 11
10.917607
 21
-0.221904
 31
0.0
  0
LINE
  5
5A3
330
1F
100
AcDbEntity
  8
1
  6
CONTINUOUS
370
50
 62
4
100
AcDbLine
 10
10.917853
 20
-0.102769
 30
0.0
 11
10.917894
 21
-0.090105
 31
0.0
  0
LINE
  5
5A4
330
1F
100
AcDbEntity
  8
1
  6
CONTINUOUS
370
50
 62
4
100
AcDbLine
 10
10.917855
 20
-0.102789
 30
0.0
 11
10.917896
 21
-0.090116
 31
0.0
  0
LINE
  5
5A5
330
1F
100
AcDbEntity
  8
1
  6
CONTINUOUS
370
50
 62
4
100
AcDbLine
 10
10.917607
 20
-0.221892
 30
0.0
 11
10.91766
 21
-0.20519
 31
0.0
  0
LINE
  5
5A6
330
1F
100
AcDbEntity
  8
1
  6
CONTINUOUS
370
50
 62
4
100
AcDbLine
 10
10.917607
 20
-0.221904
 30
0.0
 11
10.917659
 21
-0.205194
 31
0.0
  0
LINE
  5
5A7
330
1F
100
AcDbEntity
  8
1
  6
CONTINUOUS
370
50
 62
4
100
AcDbLine
 10
10.91766
 20
-0.20519
 30
0.0
 11
10.917694
 21
-0.187461
 31
0.0
  0
LINE
  5
5A8
330
1F
100
AcDbEntity
  8
1
  6
CONTINUOUS
370
50
 62
4
100
AcDbLine
 10
10.917659
 20
-0.205194
 30
0.0
 11
10.917693
 21
-0.18746
 31
0.0
  0
LINE
  5
5A9
330
1F
100
AcDbEntity
  8
1
  6
CONTINUOUS
370
50
 62
4
100
AcDbLine
 10
10.917896
 20
-0.090116
 30
0.0
 11
10.917909
 21
-0.077642
 31
0.0
  0
LINE
  5
5AA
330
1F
100
AcDbEntity
  8
1
  6
CONTINUOUS
370
50
 62
4
100
AcDbLine
 10
10.917894
 20
-0.090105
 30
0.0
 11
10.917906
 21
-0.077653
 31
0.0
  0
LINE
  5
5AB
330
1F
100
AcDbEntity
  8
1
  6
CONTINUOUS
370
50
 62
4
100
AcDbLine
 10
10.917693
 20
-0.18746
 30
0.0
 11
10.91771
 21
-0.16875
 31
0.0
  0
LINE
  5
5AC
330
1F
100
AcDbEntity
  8
1
  6
CONTINUOUS
370
50
 62
4
100
AcDbLine
 10
10.917694
 20
-0.187461
 30
0.0
 11
10.91771
 21
-0.168754
 31
0.0
  0
LINE
  5
5AD
330
1F
100
AcDbEntity
  8
1
  6
CONTINUOUS
370
50
 62
4
100
AcDbLine
 10
-0.01
 20
-2.99995
 30
0.0
 11
-0.01
 21
2.99995
 31
0.0
  0
LINE
  5
5AE
330
1F
100
AcDbEntity
  8
1
  6
CONTINUOUS
370
50
 62
4
100
AcDbLine
 10
4.363428
 20
-0.47495
 30
0.0
 11
4.363428
 21
0.47495
 31
0.0
  0
LINE
  5
5AF
330
1F
100
AcDbEntity
  8
1
  6
CONTINUOUS
370
50
 62
4
100
AcDbLine
 10
10.913
 20
0.073964
 30
0.0
 11
10.913
 21
0.197716
 31
0.0
  0
LINE
  5
5B0
330
1F
100
AcDbEntity
  8
1
  6
CONTINUOUS
370
50
 62
4
100
AcDbLine
 10
10.91771
 20
-0.168754
 30
0.0
 11
10.917709
 21
-0.149117
 31
0.0
  0
LINE
  5
5B1
330
1F
100
AcDbEntity
  8
1
  6
CONTINUOUS
370
50
 62
4
100
AcDbLine
 10
10.923
 20
-0.32595
 30
0.0
 11
10.923
 21
0.32595
 31
0.0
  0
LINE
  5
5B2
330
1F
100
AcDbEntity
  8
1
  6
CONTINUOUS
370
50
 62
4
100
AcDbLine
 10
12.338105
 20
-0.237381
 30
0.0
 11
12.338105
 21
0.119902
 31
0.0
  0
LINE
  5
5B3
330
1F
100
AcDbEntity
  8
1
  6
CONTINUOUS
370
50
 62
4
100
AcDbLine
 10
12.345916
 20
0.121674
 30
0.0
 11
12.345916
 21
0.250168
 31
0.0
  0
LINE
  5
5B4
330
1F
100
AcDbEntity
  8
1
  6
CONTINUOUS
370
50
 62
4
100
AcDbLine
 10
12.345916
 20
-0.250168
 30
0.0
 11
12.345916
 21
-0.238789
 31
0.0
  0
ELLIPSE
  5
5B5
330
1F
100
AcDbEntity
  8
1
  6
CONTINUOUS
370
50
 62
4
100
AcDbEllipse
 10
10.732479
 20
0.640293
 30
0.0
 11
-0.0697048417287524
 21
0.5116140215636876
 31
0.0
210
0.0
220
0.0
230
0.9999999999999999
 40
0.9409729392197884
 41
3.378005038051677
 42
3.400244386656826
  0
ELLIPSE
  5
5B6
330
1F
100
AcDbEntity
  8
1
  6
CONTINUOUS
370
50
 62
4
100
AcDbEllipse
 10
10.732479
 20
0.640293
 30
0.0
 11
-0.0697048417287524
 21
0.5116140215636876
 31
0.0
210
0.0
220
0.0
230
0.9999999999999999
 40
0.9409729392197884
 41
1.937959455129937
 42
3.292451714668065
  0
ELLIPSE
  5
5B7
330
1F
100
AcDbEntity
  8
1
  6
CONTINUOUS
370
50
 62
4
100
AcDbEllipse
 10
10.952331
 20
-0.6702469999999999
 30
0.0
 11
0.07345647178068121
 21
0.5391499357224612
 31
0.0
210
0.0
220
0.0
230
1.0
 40
0.940975782335199
 41
0.2010409240411023
 42
1.009572081538612
  0
ELLIPSE
  5
5B8
330
1F
100
AcDbEntity
  8
1
  6
CONTINUOUS
370
50
 62
4
100
AcDbEllipse
 10
11.006079
 20
-0.67757
 30
0.0
 11
0.1014207668478492
 21
0.7444000317658471
 31
0.0
210
0.0
220
0.0
230
1.0
 40
0.9409738456912322
 41
0.261445656588486
 42
0.5526389238431324
  0
ARC
  5
5B9
330
1F
100
AcDbEntity
  8
1
  6
CONTINUOUS
370
50
 62
4
100
AcDbCircle
 10
11.913
 20
0.0
 30
0.0
 40
0.5
100
AcDbArc
 50
329.9777788111906
 51
30.02222118880939
  0
ELLIPSE
  5
5BA
330
1F
100
AcDbEntity
  8
1
  6
CONTINUOUS
370
50
 62
4
100
AcDbEllipse
 10
11.944873
 20
-0.102744
 30
0.0
 11
0.4617630185741639
 21
0.1432469401253521
 31
0.0
210
0.0
220
0.0
230
0.9999999999999998
 40
0.5367404048053317
 41
6.128909382502039
 42
6.660134924084973
  0
ELLIPSE
  5
5BB
330
1F
100
AcDbEntity
  8
1
  6
CONTINUOUS
370
50
 62
4
100
AcDbEllipse
 10
11.956451
 20
-0.100256
 30
0.0
 11
0.4454009556679415
 21
0.1381711429064848
 31
0.0
210
0.0
220
0.0
230
1.0
 40
0.5367410189032092
 41
6.134890035538485
 42
6.681973574731408
  0
ELLIPSE
  5
5BC
330
1F
100
AcDbEntity
  8
1
  6
CONTINUOUS
370
50
 62
4
100
AcDbEllipse
 10
12.040492
 20
0.027296
 30
0.0
 11
-0.090040560221448
 21
0.4205610941551867
 31
0.0
210
0.0
220
0.0
230
1.0
 40
0.8593922974111123
 41
3.858823785871857
 42
4.468234279536595
  0
ELLIPSE
  5
5BD
330
1F
100
AcDbEntity
  8
1
  6
CONTINUOUS
370
50
 62
4
100
AcDbEllipse
 10
12.049755
 20
0.026635
 30
0.0
 11
-0.08658182298676118
 21
0.404406037897914
 31
0.0
210
0.0
220
0.0
230
1.0
 40
0.8593937613179757
 41
3.833236895708029
 42
4.468233879970679
  0
ELLIPSE
  5
5BE
330
1F
100
AcDbEntity
  8
1
  6
CONTINUOUS
370
50
 62
4
100
AcDbEllipse
 10
12.423
 20
0.0
 30
0.0
 11
-0.4325389677559386
 21
0.04577830466091126
 31
0.0
210
0.0
220
0.0
230
1.0
 40
0.568605467032058
 41
1.433711273874162
 42
1.452059140421061
  0
ELLIPSE
  5
5BF
330
1F
100
AcDbEntity
  8
1
  6
CONTINUOUS
370
50
 62
4
100
AcDbEllipse
 10
12.423
 20
0.0
 30
0.0
 11
0.9684929062928777
 21
0.2122714275411937
 31
0.0
210
0.0
220
0.0
230
0.9999999999999998
 40
0.1366876562365256
 41
1.620486760068937
 42
1.628575829833629
  0
LINE
  5
5C0
330
1F
100
AcDbEntity
  8
CUT
  6
CONTINUOUS
370
25
 62
1
100
AcDbLine
 10
10.923
 20
0.0
 30
0.0
 11
12.413
 21
0.0
 31
0.0
  0
ARC
  5
5C1
330
1F
100
AcDbEntity
  8
CUT
  6
CONTINUOUS
370
25
 62
1
100
AcDbCircle
 10
11.913
 20
0.0
 30
0.0
 40
0.5
100
AcDbArc
 50
0.0
 51
90.0
  0
LINE
  5
5C2
330
1F
100
AcDbEntity
  8
CUT
  6
CONTINUOUS
370
25
 62
1
100
AcDbLine
 10
11.913
 20
0.5
 30
0.0
 11
10.913
 21
0.4999
 31
0.0
  0
LINE
  5
5C3
330
1F
100
AcDbEntity
  8
CUT
  6
CONTINUOUS
370
25
 62
1
100
AcDbLine
 10
10.913
 20
0.4999
 30
0.0
 11
10.913
 21
0.4949
 31
0.0
  0
LINE
  5
5C4
330
1F
100
AcDbEntity
  8
CUT
  6
CONTINUOUS
370
25
 62
1
100
AcDbLine
 10
10.913
 20
0.4949
 30
0.0
 11
10.923
 21
0.0
 31
0.0
  0
LINE
  5
5C5
330
1F
100
AcDbEntity
  8
NOCUT
  6
CONTINUOUS
370
25
 62
7
100
AcDbLine
 10
-0.01
 20
0.0
 30
0.0
 11
10.923
 21
0.0
 31
0.0
  0
LINE
  5
5C6
330
1F
100
AcDbEntity
  8
NOCUT
  6
CONTINUOUS
370
25
 62
7
100
AcDbLine
 10
10.923
 20
0.0
 30
0.0
 11
10.913
 21
0.49495
 31
0.0
  0
LINE
  5
5C7
330
1F
100
AcDbEntity
  8
NOCUT
  6
CONTINUOUS
370
25
 62
7
100
AcDbLine
 10
10.913
 20
0.49495
 30
0.0
 11
10.913
 21
0.47495
 31
0.0
  0
LINE
  5
5C8
330
1F
100
AcDbEntity
  8
NOCUT
  6
CONTINUOUS
370
25
 62
7
100
AcDbLine
 10
10.913
 20
0.47495
 30
0.0
 11
4.363428289111417
 21
0.47495
 31
0.0
  0
LINE
  5
5C9
330
1F
100
AcDbEntity
  8
NOCUT
  6
CONTINUOUS
370
25
 62
7
100
AcDbLine
 10
4.363428289111417
 20
0.47495
 30
0.0
 11
-0.01
 21
2.99995
 31
0.0
  0
LINE
  5
5CA
330
1F
100
AcDbEntity
  8
NOCUT
  6
CONTINUOUS
370
25
 62
7
100
AcDbLine
 10
-0.01
 20
2.99995
 30
0.0
 11
-0.01
 21
0.0
 31
0.0
  0
LINE
  5
5CB
330
1F
100
AcDbEntity
  8
SK1
  6
CONTINUOUS
370
50
 62
4
100
AcDbLine
 10
-0.01
 20
3.0
 30
0.0
 11
-62.187
 21
3.0
 31
0.0
  0
LINE
  5
5CC
330
1F
100
AcDbEntity
  8
SK1
  6
CONTINUOUS
370
50
 62
4
100
AcDbLine
 10
-62.187
 20
3.0
 30
0.0
 11
-62.587
 21
2.6
 31
0.0
  0
LINE
  5
5CD
330
1F
100
AcDbEntity
  8
SK1
  6
CONTINUOUS
370
50
 62
4
100
AcDbLine
 10
-62.587
 20
2.6
 30
0.0
 11
-62.587
 21
-2.6
 31
0.0
  0
LINE
  5
5CE
330
1F
100
AcDbEntity
  8
SK1
  6
CONTINUOUS
370
50
 62
4
100
AcDbLine
 10
-62.587
 20
-2.6
 30
0.0
 11
-62.187
 21
-3.0
 31
0.0
  0
LINE
  5
5CF
330
1F
100
AcDbEntity
  8
SK1
  6
CONTINUOUS
370
50
 62
4
100
AcDbLine
 10
-62.187
 20
-3.0
 30
0.0
 11
-0.01
 21
-3.0
 31
0.0
  0
LINE
  5
5D0
330
1F
100
AcDbEntity
  8
SK1
  6
CONTINUOUS
370
50
 62
4
100
AcDbLine
 10
-62.187
 20
3.0
 30
0.0
 11
-62.187
 21
-3.0
 31
0.0
  0
LINE
  5
5D1
330
1F
100
AcDbEntity
  8
SK2
  6
CONTINUOUS
370
25
 62
7
100
AcDbLine
 10
-74.5870002
 20
-3.000001
 30
0.0
 11
-75.58700000000007
 21
-3.000001
 31
0.0
  0
LINE
  5
5D2
330
1F
100
AcDbEntity
  8
SK2
  6
CONTINUOUS
370
25
 62
7
100
AcDbLine
 10
-62.587
 20
-3.000001
 30
0.0
 11
-74.5869998
 21
-3.000001
 31
0.0
  0
LINE
  5
5D3
330
1F
100
AcDbEntity
  8
SK2
  6
CONTINUOUS
370
25
 62
7
100
AcDbLine
 10
-75.587
 20
3.0
 30
0.0
 11
-62.587
 21
3.0
 31
0.0
  0
LINE
  5
5D4
330
1F
100
AcDbEntity
  8
SK2
  6
CONTINUOUS
370
25
 62
7
100
AcDbLine
 10
-74.587
 20
-10.0
 30
0.0
 11
-74.587
 21
16.475
 31
0.0
  0
LINE
  5
5D5
330
1F
100
AcDbEntity
  8
SK2
  6
CONTINUOUS
370
25
 62
7
100
AcDbLine
 10
-74.587
 20
-3.0
 30
0.0
 11
-73.587
 21
-8.0
 31
0.0
  0
LINE
  5
5D6
330
1F
100
AcDbEntity
  8
SK2
  6
CONTINUOUS
370
25
 62
7
100
AcDbLine
 10
-73.587
 20
-8.0
 30
0.0
 11
-75.587
 21
-8.0
 31
0.0
  0
LINE
  5
5D7
330
1F
100
AcDbEntity
  8
SK2
  6
CONTINUOUS
370
25
 62
7
100
AcDbLine
 10
-75.587
 20
-8.0
 30
0.0
 11
-74.587
 21
-3.0
 31
0.0
  0
LINE
  5
5D8
330
1F
100
AcDbEntity
  8
SK2
  6
CONTINUOUS
370
25
 62
7
100
AcDbLine
 10
-73.77093065034926
 20
-8.0
 30
0.0
 11
-73.61765510839155
 21
-7.846724458042289
 31
0.0
  0
LINE
  5
5D9
330
1F
100
AcDbEntity
  8
SK2
  6
CONTINUOUS
370
25
 62
7
100
AcDbLine
 10
-74.19519471906119
 20
-8.0
 30
0.0
 11
-73.6883657865102
 21
-7.493171067449012
 31
0.0
  0
LINE
  5
5DA
330
1F
100
AcDbEntity
  8
SK2
  6
CONTINUOUS
370
25
 62
7
100
AcDbLine
 10
-74.61945878777311
 20
-8.0
 30
0.0
 11
-73.75907646462886
 21
-7.13961767685575
 31
0.0
  0
LINE
  5
5DB
330
1F
100
AcDbEntity
  8
SK2
  6
CONTINUOUS
370
25
 62
7
100
AcDbLine
 10
-75.04372285648503
 20
-8.0
 30
0.0
 11
-73.8297871427475
 21
-6.786064286262473
 31
0.0
  0
LINE
  5
5DC
330
1F
100
AcDbEntity
  8
SK2
  6
CONTINUOUS
370
25
 62
7
100
AcDbLine
 10
-75.46798692519695
 20
-8.0
 30
0.0
 11
-73.90049782086616
 21
-6.432510895669211
 31
0.0
  0
LINE
  5
5DD
330
1F
100
AcDbEntity
  8
SK2
  6
CONTINUOUS
370
25
 62
7
100
AcDbLine
 10
-75.5106872515228
 20
-7.618436257613908
 30
0.0
 11
-73.97120849898482
 21
-6.078957505075934
 31
0.0
  0
LINE
  5
5DE
330
1F
100
AcDbEntity
  8
SK2
  6
CONTINUOUS
370
25
 62
7
100
AcDbLine
 10
-75.4046212343448
 20
-7.088106171723993
 30
0.0
 11
-74.04191917710348
 21
-5.725404114482672
 31
0.0
  0
LINE
  5
5DF
330
1F
100
AcDbEntity
  8
SK2
  6
CONTINUOUS
370
25
 62
7
100
AcDbLine
 10
-75.29855521716682
 20
-6.557776085834092
 30
0.0
 11
-74.11262985522212
 21
-5.371850723889381
 31
0.0
  0
LINE
  5
5E0
330
1F
100
AcDbEntity
  8
SK2
  6
CONTINUOUS
370
25
 62
7
100
AcDbLine
 10
-75.19248919998884
 20
-6.027445999944192
 30
0.0
 11
-74.18334053334078
 21
-5.018297333296118
 31
0.0
  0
LINE
  5
5E1
330
1F
100
AcDbEntity
  8
SK2
  6
CONTINUOUS
370
25
 62
7
100
AcDbLine
 10
-75.08642318281086
 20
-5.497115914054291
 30
0.0
 11
-74.25405121145943
 21
-4.664743942702842
 31
0.0
  0
LINE
  5
5E2
330
1F
100
AcDbEntity
  8
SK2
  6
CONTINUOUS
370
25
 62
7
100
AcDbLine
 10
-74.98035716563288
 20
-4.966785828164376
 30
0.0
 11
-74.32476188957808
 21
-4.311190552109565
 31
0.0
  0
LINE
  5
5E3
330
1F
100
AcDbEntity
  8
SK2
  6
CONTINUOUS
370
25
 62
7
100
AcDbLine
 10
-74.8742911484549
 20
-4.436455742274475
 30
0.0
 11
-74.39547256769674
 21
-3.957637161516303
 31
0.0
  0
LINE
  5
5E4
330
1F
100
AcDbEntity
  8
SK2
  6
CONTINUOUS
370
25
 62
7
100
AcDbLine
 10
-74.76822513127692
 20
-3.906125656384575
 30
0.0
 11
-74.46618324581539
 21
-3.604083770923026
 31
0.0
  0
LINE
  5
5E5
330
1F
100
AcDbEntity
  8
SK2
  6
CONTINUOUS
370
25
 62
7
100
AcDbLine
 10
-74.66215911409893
 20
-3.375795570494631
 30
0.0
 11
-74.53689392393406
 21
-3.250530380329764
 31
0.0
  0
LINE
  5
5E6
330
1F
100
AcDbEntity
  8
SK2
  6
CONTINUOUS
370
25
 62
7
100
AcDbLine
 10
-75.53321277493178
 20
-7.731063874658943
 30
0.0
 11
-75.26427664959073
 21
-8.0
 31
0.0
  0
LINE
  5
5E7
330
1F
100
AcDbEntity
  8
SK2
  6
CONTINUOUS
370
25
 62
7
100
AcDbLine
 10
-75.46250209681314
 20
-7.377510484065667
 30
0.0
 11
-74.8400125808788
 21
-8.0
 31
0.0
  0
LINE
  5
5E8
330
1F
100
AcDbEntity
  8
SK2
  6
CONTINUOUS
370
25
 62
7
100
AcDbLine
 10
-75.39179141869448
 20
-7.023957093472404
 30
0.0
 11
-74.41574851216689
 21
-8.0
 31
0.0
  0
LINE
  5
5E9
330
1F
100
AcDbEntity
  8
SK2
  6
CONTINUOUS
370
25
 62
7
100
AcDbLine
 10
-75.32108074057582
 20
-6.670403702879128
 30
0.0
 11
-73.99148444345495
 21
-8.0
 31
0.0
  0
LINE
  5
5EA
330
1F
100
AcDbEntity
  8
SK2
  6
CONTINUOUS
370
25
 62
7
100
AcDbLine
 10
-75.25037006245716
 20
-6.316850312285865
 30
0.0
 11
-73.59194490631425
 21
-7.975275468428777
 31
0.0
  0
LINE
  5
5EB
330
1F
100
AcDbEntity
  8
SK2
  6
CONTINUOUS
370
25
 62
7
100
AcDbLine
 10
-75.17965938433852
 20
-5.963296921692589
 30
0.0
 11
-73.69801092349222
 21
-7.44494538253889
 31
0.0
  0
LINE
  5
5EC
330
1F
100
AcDbEntity
  8
SK2
  6
CONTINUOUS
370
25
 62
7
100
AcDbLine
 10
-75.10894870621986
 20
-5.609743531099326
 30
0.0
 11
-73.80407694067021
 21
-6.914615296648975
 31
0.0
  0
LINE
  5
5ED
330
1F
100
AcDbEntity
  8
SK2
  6
CONTINUOUS
370
25
 62
7
100
AcDbLine
 10
-75.0382380281012
 20
-5.25619014050605
 30
0.0
 11
-73.9101429578482
 21
-6.38428521075906
 31
0.0
  0
LINE
  5
5EE
330
1F
100
AcDbEntity
  8
SK2
  6
CONTINUOUS
370
25
 62
7
100
AcDbLine
 10
-74.96752734998256
 20
-4.902636749912773
 30
0.0
 11
-74.01620897502617
 21
-5.853955124869159
 31
0.0
  0
LINE
  5
5EF
330
1F
100
AcDbEntity
  8
SK2
  6
CONTINUOUS
370
25
 62
7
100
AcDbLine
 10
-74.89681667186392
 20
-4.549083359319496
 30
0.0
 11
-74.12227499220414
 21
-5.323625038979273
 31
0.0
  0
LINE
  5
5F0
330
1F
100
AcDbEntity
  8
SK2
  6
CONTINUOUS
370
25
 62
7
100
AcDbLine
 10
-74.82610599374524
 20
-4.195529968726234
 30
0.0
 11
-74.22834100938213
 21
-4.793294953089344
 31
0.0
  0
LINE
  5
5F1
330
1F
100
AcDbEntity
  8
SK2
  6
CONTINUOUS
370
25
 62
7
100
AcDbLine
 10
-74.7553953156266
 20
-3.841976578132957
 30
0.0
 11
-74.33440702656011
 21
-4.262964867199443
 31
0.0
  0
LINE
  5
5F2
330
1F
100
AcDbEntity
  8
SK2
  6
CONTINUOUS
370
25
 62
7
100
AcDbLine
 10
-74.68468463750794
 20
-3.488423187539695
 30
0.0
 11
-74.44047304373811
 21
-3.732634781309528
 31
0.0
  0
LINE
  5
5F3
330
1F
100
AcDbEntity
  8
SK2
  6
CONTINUOUS
370
25
 62
7
100
AcDbLine
 10
-74.6139739593893
 20
-3.134869796946418
 30
0.0
 11
-74.54653906091607
 21
-3.202304695419642
 31
0.0
  0
LINE
  5
5F4
330
1F
100
AcDbEntity
  8
SK2
  6
CONTINUOUS
370
25
 62
7
100
AcDbLine
 10
-74.587
 20
3.0
 30
0.0
 11
-75.587
 21
8.0
 31
0.0
  0
LINE
  5
5F5
330
1F
100
AcDbEntity
  8
SK2
  6
CONTINUOUS
370
25
 62
7
100
AcDbLine
 10
-75.587
 20
8.0
 30
0.0
 11
-73.587
 21
8.0
 31
0.0
  0
LINE
  5
5F6
330
1F
100
AcDbEntity
  8
SK2
  6
CONTINUOUS
370
25
 62
7
100
AcDbLine
 10
-73.587
 20
8.0
 30
0.0
 11
-74.587
 21
3.0
 31
0.0
  0
LINE
  5
5F7
330
1F
100
AcDbEntity
  8
SK2
  6
CONTINUOUS
370
25
 62
7
100
AcDbLine
 10
-74.59755409571386
 20
3.052770478569329
 30
0.0
 11
-74.57116885642921
 21
3.079155717853979
 31
0.0
  0
LINE
  5
5F8
330
1F
100
AcDbEntity
  8
SK2
  6
CONTINUOUS
370
25
 62
7
100
AcDbLine
 10
-74.66826477383252
 20
3.406323869162591
 30
0.0
 11
-74.46510283925123
 21
3.60948580374388
 31
0.0
  0
LINE
  5
5F9
330
1F
100
AcDbEntity
  8
SK2
  6
CONTINUOUS
370
25
 62
7
100
AcDbLine
 10
-74.73897545195118
 20
3.759877259755854
 30
0.0
 11
-74.35903682207325
 21
4.13981588963378
 31
0.0
  0
LINE
  5
5FA
330
1F
100
AcDbEntity
  8
SK2
  6
CONTINUOUS
370
25
 62
7
100
AcDbLine
 10
-74.80968613006982
 20
4.113430650349144
 30
0.0
 11
-74.25297080489527
 21
4.670145975523695
 31
0.0
  0
LINE
  5
5FB
330
1F
100
AcDbEntity
  8
SK2
  6
CONTINUOUS
370
25
 62
7
100
AcDbLine
 10
-74.88039680818848
 20
4.466984040942407
 30
0.0
 11
-74.14690478771729
 21
5.200476061413596
 31
0.0
  0
LINE
  5
5FC
330
1F
100
AcDbEntity
  8
SK2
  6
CONTINUOUS
370
25
 62
7
100
AcDbLine
 10
-74.95110748630714
 20
4.820537431535669
 30
0.0
 11
-74.0408387705393
 21
5.730806147303511
 31
0.0
  0
LINE
  5
5FD
330
1F
100
AcDbEntity
  8
SK2
  6
CONTINUOUS
370
25
 62
7
100
AcDbLine
 10
-75.0218181644258
 20
5.174090822128932
 30
0.0
 11
-73.93477275336132
 21
6.261136233193412
 31
0.0
  0
LINE
  5
5FE
330
1F
100
AcDbEntity
  8
SK2
  6
CONTINUOUS
370
25
 62
7
100
AcDbLine
 10
-75.09252884254445
 20
5.527644212722208
 30
0.0
 11
-73.82870673618334
 21
6.791466319083327
 31
0.0
  0
LINE
  5
5FF
330
1F
100
AcDbEntity
  8
SK2
  6
CONTINUOUS
370
25
 62
7
100
AcDbLine
 10
-75.1632395206631
 20
5.881197603315485
 30
0.0
 11
-73.72264071900535
 21
7.321796404973227
 31
0.0
  0
LINE
  5
600
330
1F
100
AcDbEntity
  8
SK2
  6
CONTINUOUS
370
25
 62
7
100
AcDbLine
 10
-75.23395019878176
 20
6.234750993908747
 30
0.0
 11
-73.61657470182737
 21
7.852126490863128
 31
0.0
  0
LINE
  5
601
330
1F
100
AcDbEntity
  8
SK2
  6
CONTINUOUS
370
25
 62
7
100
AcDbLine
 10
-75.30466087690041
 20
6.588304384502024
 30
0.0
 11
-73.89296526140244
 21
8.0
 31
0.0
  0
LINE
  5
602
330
1F
100
AcDbEntity
  8
SK2
  6
CONTINUOUS
370
25
 62
7
100
AcDbLine
 10
-75.37537155501906
 20
6.941857775095301
 30
0.0
 11
-74.31722933011436
 21
8.0
 31
0.0
  0
LINE
  5
603
330
1F
100
AcDbEntity
  8
SK2
  6
CONTINUOUS
370
25
 62
7
100
AcDbLine
 10
-75.44608223313772
 20
7.295411165688563
 30
0.0
 11
-74.74149339882628
 21
8.0
 31
0.0
  0
LINE
  5
604
330
1F
100
AcDbEntity
  8
SK2
  6
CONTINUOUS
370
25
 62
7
100
AcDbLine
 10
-75.51679291125637
 20
7.648964556281825
 30
0.0
 11
-75.1657574675382
 21
8.0
 31
0.0
  0
LINE
  5
605
330
1F
100
AcDbEntity
  8
SK2
  6
CONTINUOUS
370
25
 62
7
100
AcDbLine
 10
-74.62209642533077
 20
3.175482126653833
 30
0.0
 11
-74.56360238311282
 21
3.116988084435889
 31
0.0
  0
LINE
  5
606
330
1F
100
AcDbEntity
  8
SK2
  6
CONTINUOUS
370
25
 62
7
100
AcDbLine
 10
-74.72816244250875
 20
3.705812212543734
 30
0.0
 11
-74.49289170499418
 21
3.470541475029165
 31
0.0
  0
LINE
  5
607
330
1F
100
AcDbEntity
  8
SK2
  6
CONTINUOUS
370
25
 62
7
100
AcDbLine
 10
-74.83422845968673
 20
4.236142298433634
 30
0.0
 11
-74.42218102687552
 21
3.824094865622428
 31
0.0
  0
LINE
  5
608
330
1F
100
AcDbEntity
  8
SK2
  6
CONTINUOUS
370
25
 62
7
100
AcDbLine
 10
-74.94029447686472
 20
4.766472384323563
 30
0.0
 11
-74.35147034875686
 21
4.177648256215704
 31
0.0
  0
LINE
  5
609
330
1F
100
AcDbEntity
  8
SK2
  6
CONTINUOUS
370
25
 62
7
100
AcDbLine
 10
-75.04636049404269
 20
5.29680247021345
 30
0.0
 11
-74.28075967063822
 21
4.531201646808981
 31
0.0
  0
LINE
  5
60A
330
1F
100
AcDbEntity
  8
SK2
  6
CONTINUOUS
370
25
 62
7
100
AcDbLine
 10
-75.15242651122068
 20
5.827132556103379
 30
0.0
 11
-74.21004899251955
 21
4.884755037402243
 31
0.0
  0
LINE
  5
60B
330
1F
100
AcDbEntity
  8
SK2
  6
CONTINUOUS
370
25
 62
7
100
AcDbLine
 10
-75.25849252839866
 20
6.35746264199328
 30
0.0
 11
-74.1393383144009
 21
5.23830842799552
 31
0.0
  0
LINE
  5
60C
330
1F
100
AcDbEntity
  8
SK2
  6
CONTINUOUS
370
25
 62
7
100
AcDbLine
 10
-75.36455854557664
 20
6.887792727883181
 30
0.0
 11
-74.06862763628224
 21
5.591861818588782
 31
0.0
  0
LINE
  5
60D
330
1F
100
AcDbEntity
  8
SK2
  6
CONTINUOUS
370
25
 62
7
100
AcDbLine
 10
-75.47062456275462
 20
7.418122813773081
 30
0.0
 11
-73.99791695816359
 21
5.945415209182045
 31
0.0
  0
LINE
  5
60E
330
1F
100
AcDbEntity
  8
SK2
  6
CONTINUOUS
370
25
 62
7
100
AcDbLine
 10
-75.5766905799326
 20
7.948452899662982
 30
0.0
 11
-73.92720628004494
 21
6.298968599775321
 31
0.0
  0
LINE
  5
60F
330
1F
100
AcDbEntity
  8
SK2
  6
CONTINUOUS
370
25
 62
7
100
AcDbLine
 10
-75.2039736115577
 20
8.0
 30
0.0
 11
-73.85649560192628
 21
6.652521990368584
 31
0.0
  0
LINE
  5
610
330
1F
100
AcDbEntity
  8
SK2
  6
CONTINUOUS
370
25
 62
7
100
AcDbLine
 10
-74.77970954284577
 20
8.0
 30
0.0
 11
-73.78578492380763
 21
7.00607538096186
 31
0.0
  0
LINE
  5
611
330
1F
100
AcDbEntity
  8
SK2
  6
CONTINUOUS
370
25
 62
7
100
AcDbLine
 10
-74.35544547413384
 20
8.0
 30
0.0
 11
-73.71507424568898
 21
7.359628771555137
 31
0.0
  0
LINE
  5
612
330
1F
100
AcDbEntity
  8
SK2
  6
CONTINUOUS
370
25
 62
7
100
AcDbLine
 10
-73.93118140542192
 20
8.0
 30
0.0
 11
-73.64436356757032
 21
7.713182162148399
 31
0.0
  0
TEXT
  5
613
330
1F
100
AcDbEntity
  8
SK2
  6
CONTINUOUS
370
25
 62
7
100
AcDbText
 10
-76.087
 20
13.34583333333333
 30
0.0
 40
3.5
  1
6
 50
90.00000000000001
 72
     1
 11
-76.087
 21
14.5125
 31
0.0
100
AcDbText
  0
CIRCLE
  5
614
330
1F
100
AcDbEntity
  8
SK2
  6
CONTINUOUS
370
25
 62
7
100
AcDbCircle
 10
-77.837
 20
11.1875
 30
0.0
 40
1.4
  0
LINE
  5
615
330
1F
100
AcDbEntity
  8
SK2
  6
CONTINUOUS
370
25
 62
7
100
AcDbLine
 10
-76.437
 20
9.787500000000001
 30
0.0
 11
-79.23700000000001
 21
12.5875
 31
0.0
  0
LINE
  5
616
330
1F
100
AcDbEntity
  8
SK2
  6
CONTINUOUS
370
25
 62
7
100
AcDbLine
 10
-62.587
 20
3.0
 30
0.0
 11
-62.587
 21
16.0
 31
0.0
  0
LINE
  5
617
330
1F
100
AcDbEntity
  8
SK2
  6
CONTINUOUS
370
25
 62
7
100
AcDbLine
 10
-0.0099999999999999
 20
16.0
 30
0.0
 11
-0.0100000000000007
 21
3.0
 31
0.0
  0
LINE
  5
618
330
1F
100
AcDbEntity
  8
SK2
  6
CONTINUOUS
370
25
 62
7
100
AcDbLine
 10
-62.587
 20
15.0
 30
0.0
 11
-0.01
 21
15.0
 31
0.0
  0
LINE
  5
619
330
1F
100
AcDbEntity
  8
SK2
  6
CONTINUOUS
370
25
 62
7
100
AcDbLine
 10
-62.587
 20
15.0
 30
0.0
 11
-57.587
 21
16.0
 31
0.0
  0
LINE
  5
61A
330
1F
100
AcDbEntity
  8
SK2
  6
CONTINUOUS
370
25
 62
7
100
AcDbLine
 10
-57.587
 20
16.0
 30
0.0
 11
-57.587
 21
14.0
 31
0.0
  0
LINE
  5
61B
330
1F
100
AcDbEntity
  8
SK2
  6
CONTINUOUS
370
25
 62
7
100
AcDbLine
 10
-57.587
 20
14.0
 30
0.0
 11
-62.587
 21
15.0
 31
0.0
  0
LINE
  5
61C
330
1F
100
AcDbEntity
  8
SK2
  6
CONTINUOUS
370
25
 62
7
100
AcDbLine
 10
-57.69002301026322
 20
14.02060460205264
 30
0.0
 11
-57.587
 21
14.12362761231587
 31
0.0
  0
LINE
  5
61D
330
1F
100
AcDbEntity
  8
SK2
  6
CONTINUOUS
370
25
 62
7
100
AcDbLine
 10
-58.0435764008565
 20
14.0913152801713
 30
0.0
 11
-57.587
 21
14.54789168102781
 31
0.0
  0
LINE
  5
61E
330
1F
100
AcDbEntity
  8
SK2
  6
CONTINUOUS
370
25
 62
7
100
AcDbLine
 10
-58.39712979144978
 20
14.16202595828996
 30
0.0
 11
-57.587
 21
14.97215574973974
 31
0.0
  0
LINE
  5
61F
330
1F
100
AcDbEntity
  8
SK2
  6
CONTINUOUS
370
25
 62
7
100
AcDbLine
 10
-58.75068318204306
 20
14.23273663640861
 30
0.0
 11
-57.587
 21
15.39641981845168
 31
0.0
  0
LINE
  5
620
330
1F
100
AcDbEntity
  8
SK2
  6
CONTINUOUS
370
25
 62
7
100
AcDbLine
 10
-59.10423657263633
 20
14.30344731452726
 30
0.0
 11
-57.587
 21
15.8206838871636
 31
0.0
  0
LINE
  5
621
330
1F
100
AcDbEntity
  8
SK2
  6
CONTINUOUS
370
25
 62
7
100
AcDbLine
 10
-59.45778996322961
 20
14.37415799264592
 30
0.0
 11
-57.89318494484441
 21
15.93876301103112
 31
0.0
  0
LINE
  5
622
330
1F
100
AcDbEntity
  8
SK2
  6
CONTINUOUS
370
25
 62
7
100
AcDbLine
 10
-59.81134335382288
 20
14.44486867076458
 30
0.0
 11
-58.42351503073431
 21
15.83269699385314
 31
0.0
  0
LINE
  5
623
330
1F
100
AcDbEntity
  8
SK2
  6
CONTINUOUS
370
25
 62
7
100
AcDbLine
 10
-60.16489674441615
 20
14.51557934888323
 30
0.0
 11
-58.95384511662422
 21
15.72663097667516
 31
0.0
  0
LINE
  5
624
330
1F
100
AcDbEntity
  8
SK2
  6
CONTINUOUS
370
25
 62
7
100
AcDbLine
 10
-60.51845013500942
 20
14.58629002700188
 30
0.0
 11
-59.48417520251412
 21
15.62056495949718
 31
0.0
  0
LINE
  5
625
330
1F
100
AcDbEntity
  8
SK2
  6
CONTINUOUS
370
25
 62
7
100
AcDbLine
 10
-60.8720035256027
 20
14.65700070512054
 30
0.0
 11
-60.01450528840405
 21
15.51449894231919
 31
0.0
  0
LINE
  5
626
330
1F
100
AcDbEntity
  8
SK2
  6
CONTINUOUS
370
25
 62
7
100
AcDbLine
 10
-61.22555691619596
 20
14.7277113832392
 30
0.0
 11
-60.54483537429395
 21
15.40843292514121
 31
0.0
  0
LINE
  5
627
330
1F
100
AcDbEntity
  8
SK2
  6
CONTINUOUS
370
25
 62
7
100
AcDbLine
 10
-61.57911030678923
 20
14.79842206135785
 30
0.0
 11
-61.07516546018385
 21
15.30236690796323
 31
0.0
  0
LINE
  5
628
330
1F
100
AcDbEntity
  8
SK2
  6
CONTINUOUS
370
25
 62
7
100
AcDbLine
 10
-61.93266369738251
 20
14.86913273947651
 30
0.0
 11
-61.60549554607377
 21
15.19630089078525
 31
0.0
  0
LINE
  5
629
330
1F
100
AcDbEntity
  8
SK2
  6
CONTINUOUS
370
25
 62
7
100
AcDbLine
 10
-62.28621708797579
 20
14.93984341759516
 30
0.0
 11
-62.13582563196368
 21
15.09023487360727
 31
0.0
  0
LINE
  5
62A
330
1F
100
AcDbEntity
  8
SK2
  6
CONTINUOUS
370
25
 62
7
100
AcDbLine
 10
-62.26900178878772
 20
15.06359964224244
 30
0.0
 11
-62.11000268318159
 21
14.90460053663632
 31
0.0
  0
LINE
  5
62B
330
1F
100
AcDbEntity
  8
SK2
  6
CONTINUOUS
370
25
 62
7
100
AcDbLine
 10
-61.91544839819445
 20
15.13431032036111
 30
0.0
 11
-61.57967259729167
 21
14.79853451945833
 31
0.0
  0
LINE
  5
62C
330
1F
100
AcDbEntity
  8
SK2
  6
CONTINUOUS
370
25
 62
7
100
AcDbLine
 10
-61.56189500760118
 20
15.20502099847976
 30
0.0
 11
-61.04934251140178
 21
14.69246850228036
 31
0.0
  0
LINE
  5
62D
330
1F
100
AcDbEntity
  8
SK2
  6
CONTINUOUS
370
25
 62
7
100
AcDbLine
 10
-61.2083416170079
 20
15.27573167659841
 30
0.0
 11
-60.51901242551185
 21
14.58640248510237
 31
0.0
  0
LINE
  5
62E
330
1F
100
AcDbEntity
  8
SK2
  6
CONTINUOUS
370
25
 62
7
100
AcDbLine
 10
-60.85478822641463
 20
15.34644235471707
 30
0.0
 11
-59.98868233962194
 21
14.48033646792439
 31
0.0
  0
LINE
  5
62F
330
1F
100
AcDbEntity
  8
SK2
  6
CONTINUOUS
370
25
 62
7
100
AcDbLine
 10
-60.50123483582136
 20
15.41715303283573
 30
0.0
 11
-59.45835225373203
 21
14.3742704507464
 31
0.0
  0
LINE
  5
630
330
1F
100
AcDbEntity
  8
SK2
  6
CONTINUOUS
370
25
 62
7
100
AcDbLine
 10
-60.14768144522808
 20
15.48786371095438
 30
0.0
 11
-58.92802216784212
 21
14.26820443356843
 31
0.0
  0
LINE
  5
631
330
1F
100
AcDbEntity
  8
SK2
  6
CONTINUOUS
370
25
 62
7
100
AcDbLine
 10
-59.79412805463481
 20
15.55857438907304
 30
0.0
 11
-58.39769208195219
 21
14.16213841639043
 31
0.0
  0
LINE
  5
632
330
1F
100
AcDbEntity
  8
SK2
  6
CONTINUOUS
370
25
 62
7
100
AcDbLine
 10
-59.44057466404152
 20
15.62928506719169
 30
0.0
 11
-57.86736199606227
 21
14.05607239921246
 31
0.0
  0
LINE
  5
633
330
1F
100
AcDbEntity
  8
SK2
  6
CONTINUOUS
370
25
 62
7
100
AcDbLine
 10
-59.08702127344825
 20
15.69999574531035
 30
0.0
 11
-57.587
 21
14.19997447186211
 31
0.0
  0
LINE
  5
634
330
1F
100
AcDbEntity
  8
SK2
  6
CONTINUOUS
370
25
 62
7
100
AcDbLine
 10
-58.73346788285498
 20
15.770706423429
 30
0.0
 11
-57.587
 21
14.62423854057403
 31
0.0
  0
LINE
  5
635
330
1F
100
AcDbEntity
  8
SK2
  6
CONTINUOUS
370
25
 62
7
100
AcDbLine
 10
-58.3799144922617
 20
15.84141710154766
 30
0.0
 11
-57.587
 21
15.04850260928596
 31
0.0
  0
LINE
  5
636
330
1F
100
AcDbEntity
  8
SK2
  6
CONTINUOUS
370
25
 62
7
100
AcDbLine
 10
-58.02636110166841
 20
15.91212777966631
 30
0.0
 11
-57.587
 21
15.4727666779979
 31
0.0
  0
LINE
  5
637
330
1F
100
AcDbEntity
  8
SK2
  6
CONTINUOUS
370
25
 62
7
100
AcDbLine
 10
-57.67280771107514
 20
15.98283845778496
 30
0.0
 11
-57.587
 21
15.89703074670982
 31
0.0
  0
LINE
  5
638
330
1F
100
AcDbEntity
  8
SK2
  6
CONTINUOUS
370
25
 62
7
100
AcDbLine
 10
-0.01
 20
15.0
 30
0.0
 11
-5.01
 21
14.0
 31
0.0
  0
LINE
  5
639
330
1F
100
AcDbEntity
  8
SK2
  6
CONTINUOUS
370
25
 62
7
100
AcDbLine
 10
-5.01
 20
14.0
 30
0.0
 11
-5.01
 21
16.0
 31
0.0
  0
LINE
  5
63A
330
1F
100
AcDbEntity
  8
SK2
  6
CONTINUOUS
370
25
 62
7
100
AcDbLine
 10
-5.01
 20
16.0
 30
0.0
 11
-0.01
 21
15.0
 31
0.0
  0
LINE
  5
63B
330
1F
100
AcDbEntity
  8
SK2
  6
CONTINUOUS
370
25
 62
7
100
AcDbLine
 10
-0.351883092036781
 20
14.93162338159264
 30
0.0
 11
-0.237922061357854
 21
15.04558441227157
 31
0.0
  0
LINE
  5
63C
330
1F
100
AcDbEntity
  8
SK2
  6
CONTINUOUS
370
25
 62
7
100
AcDbLine
 10
-0.8822131779266906
 20
14.82555736441466
 30
0.0
 11
-0.5914754519511272
 21
15.11629509039023
 31
0.0
  0
LINE
  5
63D
330
1F
100
AcDbEntity
  8
SK2
  6
CONTINUOUS
370
25
 62
7
100
AcDbLine
 10
-1.4125432638166
 20
14.71949134723668
 30
0.0
 11
-0.9450288425444002
 21
15.18700576850888
 31
0.0
  0
LINE
  5
63E
330
1F
100
AcDbEntity
  8
SK2
  6
CONTINUOUS
370
25
 62
7
100
AcDbLine
 10
-1.94287334970651
 20
14.6134253300587
 30
0.0
 11
-1.298582233137673
 21
15.25771644662754
 31
0.0
  0
LINE
  5
63F
330
1F
100
AcDbEntity
  8
SK2
  6
CONTINUOUS
370
25
 62
7
100
AcDbLine
 10
-2.473203435596419
 20
14.50735931288072
 30
0.0
 11
-1.652135623730946
 21
15.32842712474619
 31
0.0
  0
LINE
  5
640
330
1F
100
AcDbEntity
  8
SK2
  6
CONTINUOUS
370
25
 62
7
100
AcDbLine
 10
-3.003533521486328
 20
14.40129329570273
 30
0.0
 11
-2.005689014324219
 21
15.39913780286484
 31
0.0
  0
LINE
  5
641
330
1F
100
AcDbEntity
  8
SK2
  6
CONTINUOUS
370
25
 62
7
100
AcDbLine
 10
-3.533863607376237
 20
14.29522727852475
 30
0.0
 11
-2.359242404917492
 21
15.4698484809835
 31
0.0
  0
LINE
  5
642
330
1F
100
AcDbEntity
  8
SK2
  6
CONTINUOUS
370
25
 62
7
100
AcDbLine
 10
-4.064193693266146
 20
14.18916126134677
 30
0.0
 11
-2.712795795510765
 21
15.54055915910215
 31
0.0
  0
LINE
  5
643
330
1F
100
AcDbEntity
  8
SK2
  6
CONTINUOUS
370
25
 62
7
100
AcDbLine
 10
-4.594523779156059
 20
14.08309524416879
 30
0.0
 11
-3.06634918610404
 21
15.61126983722081
 31
0.0
  0
LINE
  5
644
330
1F
100
AcDbEntity
  8
SK2
  6
CONTINUOUS
370
25
 62
7
100
AcDbLine
 10
-5.01
 20
14.09188309203678
 30
0.0
 11
-3.419902576697313
 21
15.68198051533946
 31
0.0
  0
LINE
  5
645
330
1F
100
AcDbEntity
  8
SK2
  6
CONTINUOUS
370
25
 62
7
100
AcDbLine
 10
-5.01
 20
14.5161471607487
 30
0.0
 11
-3.773455967290586
 21
15.75269119345812
 31
0.0
  0
LINE
  5
646
330
1F
100
AcDbEntity
  8
SK2
  6
CONTINUOUS
370
25
 62
7
100
AcDbLine
 10
-5.01
 20
14.94041122946063
 30
0.0
 11
-4.127009357883859
 21
15.82340187157677
 31
0.0
  0
LINE
  5
647
330
1F
100
AcDbEntity
  8
SK2
  6
CONTINUOUS
370
25
 62
7
100
AcDbLine
 10
-5.01
 20
15.36467529817256
 30
0.0
 11
-4.480562748477132
 21
15.89411254969543
 31
0.0
  0
LINE
  5
648
330
1F
100
AcDbEntity
  8
SK2
  6
CONTINUOUS
370
25
 62
7
100
AcDbLine
 10
-5.01
 20
15.78893936688449
 30
0.0
 11
-4.834116139070405
 21
15.96482322781408
 31
0.0
  0
LINE
  5
649
330
1F
100
AcDbEntity
  8
SK2
  6
CONTINUOUS
370
25
 62
7
100
AcDbLine
 10
-5.01
 20
14.3338095116624
 30
0.0
 11
-4.731825406947999
 21
14.0556349186104
 31
0.0
  0
LINE
  5
64A
330
1F
100
AcDbEntity
  8
SK2
  6
CONTINUOUS
370
25
 62
7
100
AcDbLine
 10
-5.01
 20
14.75807358037433
 30
0.0
 11
-4.378272016354726
 21
14.12634559672905
 31
0.0
  0
LINE
  5
64B
330
1F
100
AcDbEntity
  8
SK2
  6
CONTINUOUS
370
25
 62
7
100
AcDbLine
 10
-5.01
 20
15.18233764908625
 30
0.0
 11
-4.024718625761453
 21
14.19705627484771
 31
0.0
  0
LINE
  5
64C
330
1F
100
AcDbEntity
  8
SK2
  6
CONTINUOUS
370
25
 62
7
100
AcDbLine
 10
-5.01
 20
15.60660171779818
 30
0.0
 11
-3.671165235168179
 21
14.26776695296637
 31
0.0
  0
LINE
  5
64D
330
1F
100
AcDbEntity
  8
SK2
  6
CONTINUOUS
370
25
 62
7
100
AcDbLine
 10
-4.971417766862361
 20
15.99228355337247
 30
0.0
 11
-3.317611844574905
 21
14.33847763108502
 31
0.0
  0
LINE
  5
64E
330
1F
100
AcDbEntity
  8
SK2
  6
CONTINUOUS
370
25
 62
7
100
AcDbLine
 10
-4.44108768097245
 20
15.88621753619449
 30
0.0
 11
-2.964058453981631
 21
14.40918830920367
 31
0.0
  0
LINE
  5
64F
330
1F
100
AcDbEntity
  8
SK2
  6
CONTINUOUS
370
25
 62
7
100
AcDbLine
 10
-3.91075759508254
 20
15.78015151901651
 30
0.0
 11
-2.610505063388358
 21
14.47989898732233
 31
0.0
  0
LINE
  5
650
330
1F
100
AcDbEntity
  8
SK2
  6
CONTINUOUS
370
25
 62
7
100
AcDbLine
 10
-3.380427509192631
 20
15.67408550183853
 30
0.0
 11
-2.256951672795086
 21
14.55060966544098
 31
0.0
  0
LINE
  5
651
330
1F
100
AcDbEntity
  8
SK2
  6
CONTINUOUS
370
25
 62
7
100
AcDbLine
 10
-2.85009742330272
 20
15.56801948466054
 30
0.0
 11
-1.903398282201813
 21
14.62132034355964
 31
0.0
  0
LINE
  5
652
330
1F
100
AcDbEntity
  8
SK2
  6
CONTINUOUS
370
25
 62
7
100
AcDbLine
 10
-2.319767337412809
 20
15.46195346748256
 30
0.0
 11
-1.549844891608539
 21
14.69203102167829
 31
0.0
  0
LINE
  5
653
330
1F
100
AcDbEntity
  8
SK2
  6
CONTINUOUS
370
25
 62
7
100
AcDbLine
 10
-1.7894372515229
 20
15.35588745030458
 30
0.0
 11
-1.196291501015265
 21
14.76274169979695
 31
0.0
  0
LINE
  5
654
330
1F
100
AcDbEntity
  8
SK2
  6
CONTINUOUS
370
25
 62
7
100
AcDbLine
 10
-1.259107165632989
 20
15.2498214331266
 30
0.0
 11
-0.8427381104219916
 21
14.8334523779156
 31
0.0
  0
LINE
  5
655
330
1F
100
AcDbEntity
  8
SK2
  6
CONTINUOUS
370
25
 62
7
100
AcDbLine
 10
-0.7287770797430799
 20
15.14375541594862
 30
0.0
 11
-0.4891847198287195
 21
14.90416305603426
 31
0.0
  0
LINE
  5
656
330
1F
100
AcDbEntity
  8
SK2
  6
CONTINUOUS
370
25
 62
7
100
AcDbLine
 10
-0.1984469938531668
 20
15.03768939877063
 30
0.0
 11
-0.1356313292354444
 21
14.97487373415291
 31
0.0
  0
TEXT
  5
657
330
1F
100
AcDbEntity
  8
SK2
  6
CONTINUOUS
370
25
 62
7
100
AcDbText
 10
-40.0485
 20
16.5
 30
0.0
 40
3.5
  1
62.577
 72
     1
 11
-31.2985
 21
16.5
 31
0.0
100
AcDbText
  0
LINE
  5
658
330
1F
100
AcDbEntity
  8
2
  6
CONTINUOUS
370
25
 62
7
100
AcDbLine
 10
11.913
 20
-0.4999999999999999
 30
0.0
 11
48.26300000000001
 21
-0.5000000000000044
 31
0.0
  0
LINE
  5
659
330
1F
100
AcDbEntity
  8
2
  6
CONTINUOUS
370
25
 62
7
100
AcDbLine
 10
48.26300000000001
 20
0.4999999999999956
 30
0.0
 11
11.913
 21
0.5
 31
0.0
  0
LINE
  5
65A
330
1F
100
AcDbEntity
  8
2
  6
CONTINUOUS
370
25
 62
7
100
AcDbLine
 10
47.26300000000001
 20
-7.500000000000004
 30
0.0
 11
47.26300000000001
 21
13.975
 31
0.0
  0
LINE
  5
65B
330
1F
100
AcDbEntity
  8
2
  6
CONTINUOUS
370
25
 62
7
100
AcDbLine
 10
47.26300000000001
 20
-0.5000000000000043
 30
0.0
 11
48.26300000000001
 21
-5.500000000000004
 31
0.0
  0
LINE
  5
65C
330
1F
100
AcDbEntity
  8
2
  6
CONTINUOUS
370
25
 62
7
100
AcDbLine
 10
48.26300000000001
 20
-5.500000000000004
 30
0.0
 11
46.26300000000001
 21
-5.500000000000004
 31
0.0
  0
LINE
  5
65D
330
1F
100
AcDbEntity
  8
2
  6
CONTINUOUS
370
25
 62
7
100
AcDbLine
 10
46.26300000000001
 20
-5.500000000000004
 30
0.0
 11
47.26300000000001
 21
-0.5000000000000043
 31
0.0
  0
LINE
  5
65E
330
1F
100
AcDbEntity
  8
2
  6
CONTINUOUS
370
25
 62
7
100
AcDbLine
 10
48.25902552813796
 20
-5.500000000000007
 30
0.0
 11
48.262337588023
 21
-5.496687940114967
 31
0.0
  0
LINE
  5
65F
330
1F
100
AcDbEntity
  8
2
  6
CONTINUOUS
370
25
 62
7
100
AcDbLine
 10
47.83476145942603
 20
-5.500000000000007
 30
0.0
 11
48.19162690990435
 21
-5.143134549521683
 31
0.0
  0
LINE
  5
660
330
1F
100
AcDbEntity
  8
2
  6
CONTINUOUS
370
25
 62
7
100
AcDbLine
 10
47.4104973907141
 20
-5.500000000000007
 30
0.0
 11
48.12091623178569
 21
-4.789581158928421
 31
0.0
  0
LINE
  5
661
330
1F
100
AcDbEntity
  8
2
  6
CONTINUOUS
370
25
 62
7
100
AcDbLine
 10
46.98623332200217
 20
-5.500000000000007
 30
0.0
 11
48.05020555366703
 21
-4.436027768335144
 31
0.0
  0
LINE
  5
662
330
1F
100
AcDbEntity
  8
2
  6
CONTINUOUS
370
25
 62
7
100
AcDbLine
 10
46.56196925329024
 20
-5.500000000000007
 30
0.0
 11
47.97949487554838
 21
-4.082474377741867
 31
0.0
  0
LINE
  5
663
330
1F
100
AcDbEntity
  8
2
  6
CONTINUOUS
370
25
 62
7
100
AcDbLine
 10
46.29432370385543
 20
-5.34338148072289
 30
0.0
 11
47.90878419742972
 21
-3.728920987148598
 31
0.0
  0
LINE
  5
664
330
1F
100
AcDbEntity
  8
2
  6
CONTINUOUS
370
25
 62
7
100
AcDbLine
 10
46.40038972103341
 20
-4.813051394832975
 30
0.0
 11
47.83807351931107
 21
-3.375367596555314
 31
0.0
  0
LINE
  5
665
330
1F
100
AcDbEntity
  8
2
  6
CONTINUOUS
370
25
 62
7
100
AcDbLine
 10
46.50645573821139
 20
-4.282721308943053
 30
0.0
 11
47.7673628411924
 21
-3.021814205962045
 31
0.0
  0
LINE
  5
666
330
1F
100
AcDbEntity
  8
2
  6
CONTINUOUS
370
25
 62
7
100
AcDbLine
 10
46.61252175538937
 20
-3.752391223053145
 30
0.0
 11
47.69665216307375
 21
-2.668260815368768
 31
0.0
  0
LINE
  5
667
330
1F
100
AcDbEntity
  8
2
  6
CONTINUOUS
370
25
 62
7
100
AcDbLine
 10
46.71858777256736
 20
-3.22206113716323
 30
0.0
 11
47.6259414849551
 21
-2.314707424775492
 31
0.0
  0
LINE
  5
668
330
1F
100
AcDbEntity
  8
2
  6
CONTINUOUS
370
25
 62
7
100
AcDbLine
 10
46.82465378974534
 20
-2.691731051273315
 30
0.0
 11
47.55523080683644
 21
-1.961154034182215
 31
0.0
  0
LINE
  5
669
330
1F
100
AcDbEntity
  8
2
  6
CONTINUOUS
370
25
 62
7
100
AcDbLine
 10
46.93071980692332
 20
-2.1614009653834
 30
0.0
 11
47.48452012871779
 21
-1.607600643588931
 31
0.0
  0
LINE
  5
66A
330
1F
100
AcDbEntity
  8
2
  6
CONTINUOUS
370
25
 62
7
100
AcDbLine
 10
47.03678582410131
 20
-1.631070879493485
 30
0.0
 11
47.41380945059914
 21
-1.254047252995655
 31
0.0
  0
LINE
  5
66B
330
1F
100
AcDbEntity
  8
2
  6
CONTINUOUS
370
25
 62
7
100
AcDbLine
 10
47.14285184127929
 20
-1.100740793603563
 30
0.0
 11
47.34309877248048
 21
-0.9004938624023708
 31
0.0
  0
LINE
  5
66C
330
1F
100
AcDbEntity
  8
2
  6
CONTINUOUS
370
25
 62
7
100
AcDbLine
 10
47.24891785845727
 20
-0.5704107077136555
 30
0.0
 11
47.27238809436182
 21
-0.5469404718091013
 31
0.0
  0
LINE
  5
66D
330
1F
100
AcDbEntity
  8
2
  6
CONTINUOUS
370
25
 62
7
100
AcDbLine
 10
46.32643577750952
 20
-5.182821112452459
 30
0.0
 11
46.64361466505706
 21
-5.500000000000007
 31
0.0
  0
LINE
  5
66E
330
1F
100
AcDbEntity
  8
2
  6
CONTINUOUS
370
25
 62
7
100
AcDbLine
 10
46.39714645562817
 20
-4.829267721859182
 30
0.0
 11
47.06787873376899
 21
-5.500000000000007
 31
0.0
  0
LINE
  5
66F
330
1F
100
AcDbEntity
  8
2
  6
CONTINUOUS
370
25
 62
7
100
AcDbLine
 10
46.46785713374682
 20
-4.475714331265898
 30
0.0
 11
47.49214280248093
 21
-5.500000000000007
 31
0.0
  0
LINE
  5
670
330
1F
100
AcDbEntity
  8
2
  6
CONTINUOUS
370
25
 62
7
100
AcDbLine
 10
46.53856781186548
 20
-4.122160940672636
 30
0.0
 11
47.91640687119285
 21
-5.500000000000007
 31
0.0
  0
LINE
  5
671
330
1F
100
AcDbEntity
  8
2
  6
CONTINUOUS
370
25
 62
7
100
AcDbLine
 10
46.60927848998413
 20
-3.768607550079359
 30
0.0
 11
48.2435822650238
 21
-5.402911325119021
 31
0.0
  0
LINE
  5
672
330
1F
100
AcDbEntity
  8
2
  6
CONTINUOUS
370
25
 62
7
100
AcDbLine
 10
46.67998916810279
 20
-3.415054159486083
 30
0.0
 11
48.13751624784582
 21
-4.872581239229106
 31
0.0
  0
LINE
  5
673
330
1F
100
AcDbEntity
  8
2
  6
CONTINUOUS
370
25
 62
7
100
AcDbLine
 10
46.75069984622144
 20
-3.061500768892806
 30
0.0
 11
48.03145023066784
 21
-4.342251153339198
 31
0.0
  0
LINE
  5
674
330
1F
100
AcDbEntity
  8
2
  6
CONTINUOUS
370
25
 62
7
100
AcDbLine
 10
46.8214105243401
 20
-2.707947378299522
 30
0.0
 11
47.92538421348986
 21
-3.811921067449283
 31
0.0
  0
LINE
  5
675
330
1F
100
AcDbEntity
  8
2
  6
CONTINUOUS
370
25
 62
7
100
AcDbLine
 10
46.89212120245875
 20
-2.354393987706253
 30
0.0
 11
47.81931819631188
 21
-3.281590981559376
 31
0.0
  0
LINE
  5
676
330
1F
100
AcDbEntity
  8
2
  6
CONTINUOUS
370
25
 62
7
100
AcDbLine
 10
46.96283188057741
 20
-2.000840597112976
 30
0.0
 11
47.7132521791339
 21
-2.751260895669461
 31
0.0
  0
LINE
  5
677
330
1F
100
AcDbEntity
  8
2
  6
CONTINUOUS
370
25
 62
7
100
AcDbLine
 10
47.03354255869607
 20
-1.647287206519707
 30
0.0
 11
47.60718616195592
 21
-2.220930809779553
 31
0.0
  0
LINE
  5
678
330
1F
100
AcDbEntity
  8
2
  6
CONTINUOUS
370
25
 62
7
100
AcDbLine
 10
47.10425323681472
 20
-1.293733815926423
 30
0.0
 11
47.50112014477793
 21
-1.690600723889631
 31
0.0
  0
LINE
  5
679
330
1F
100
AcDbEntity
  8
2
  6
CONTINUOUS
370
25
 62
7
100
AcDbLine
 10
47.17496391493337
 20
-0.9401804253331392
 30
0.0
 11
47.39505412759995
 21
-1.160270637999716
 31
0.0
  0
LINE
  5
67A
330
1F
100
AcDbEntity
  8
2
  6
CONTINUOUS
370
25
 62
7
100
AcDbLine
 10
47.24567459305203
 20
-0.5866270347398697
 30
0.0
 11
47.28898811042197
 21
-0.629940552109808
 31
0.0
  0
LINE
  5
67B
330
1F
100
AcDbEntity
  8
2
  6
CONTINUOUS
370
25
 62
7
100
AcDbLine
 10
47.26300000000001
 20
0.4999999999999957
 30
0.0
 11
46.26300000000001
 21
5.499999999999996
 31
0.0
  0
LINE
  5
67C
330
1F
100
AcDbEntity
  8
2
  6
CONTINUOUS
370
25
 62
7
100
AcDbLine
 10
46.26300000000001
 20
5.499999999999996
 30
0.0
 11
48.26300000000001
 21
5.499999999999996
 31
0.0
  0
LINE
  5
67D
330
1F
100
AcDbEntity
  8
2
  6
CONTINUOUS
370
25
 62
7
100
AcDbLine
 10
48.26300000000001
 20
5.499999999999996
 30
0.0
 11
47.26300000000001
 21
0.4999999999999957
 31
0.0
  0
LINE
  5
67E
330
1F
100
AcDbEntity
  8
2
  6
CONTINUOUS
370
25
 62
7
100
AcDbLine
 10
47.20682171399486
 20
0.7808914300256973
 30
0.0
 11
47.34726742900772
 21
0.9213371450385566
 31
0.0
  0
LINE
  5
67F
330
1F
100
AcDbEntity
  8
2
  6
CONTINUOUS
370
25
 62
7
100
AcDbLine
 10
47.1361110358762
 20
1.134444820618974
 30
0.0
 11
47.4533334461857
 21
1.451667230928471
 31
0.0
  0
LINE
  5
680
330
1F
100
AcDbEntity
  8
2
  6
CONTINUOUS
370
25
 62
7
100
AcDbLine
 10
47.06540035775755
 20
1.487998211212258
 30
0.0
 11
47.55939946336368
 21
1.981997316818386
 31
0.0
  0
LINE
  5
681
330
1F
100
AcDbEntity
  8
2
  6
CONTINUOUS
370
25
 62
7
100
AcDbLine
 10
46.9946896796389
 20
1.841551601805527
 30
0.0
 11
47.66546548054166
 21
2.512327402708294
 31
0.0
  0
LINE
  5
682
330
1F
100
AcDbEntity
  8
2
  6
CONTINUOUS
370
25
 62
7
100
AcDbLine
 10
46.92397900152024
 20
2.195104992398811
 30
0.0
 11
47.77153149771965
 21
3.042657488598216
 31
0.0
  0
LINE
  5
683
330
1F
100
AcDbEntity
  8
2
  6
CONTINUOUS
370
25
 62
7
100
AcDbLine
 10
46.85326832340158
 20
2.54865838299208
 30
0.0
 11
47.87759751489764
 21
3.572987574488138
 31
0.0
  0
LINE
  5
684
330
1F
100
AcDbEntity
  8
2
  6
CONTINUOUS
370
25
 62
7
100
AcDbLine
 10
46.78255764528293
 20
2.902211773585357
 30
0.0
 11
47.98366353207562
 21
4.103317660378046
 31
0.0
  0
LINE
  5
685
330
1F
100
AcDbEntity
  8
2
  6
CONTINUOUS
370
25
 62
7
100
AcDbLine
 10
46.71184696716428
 20
3.255765164178641
 30
0.0
 11
48.08972954925358
 21
4.63364774626794
 31
0.0
  0
LINE
  5
686
330
1F
100
AcDbEntity
  8
2
  6
CONTINUOUS
370
25
 62
7
100
AcDbLine
 10
46.64113628904563
 20
3.60931855477191
 30
0.0
 11
48.19579556643157
 21
5.163977832157855
 31
0.0
  0
LINE
  5
687
330
1F
100
AcDbEntity
  8
2
  6
CONTINUOUS
370
25
 62
7
100
AcDbLine
 10
46.57042561092697
 20
3.962871945365187
 30
0.0
 11
48.10755366556177
 21
5.499999999999993
 31
0.0
  0
LINE
  5
688
330
1F
100
AcDbEntity
  8
2
  6
CONTINUOUS
370
25
 62
7
100
AcDbLine
 10
46.49971493280831
 20
4.316425335958463
 30
0.0
 11
47.68328959684984
 21
5.499999999999993
 31
0.0
  0
LINE
  5
689
330
1F
100
AcDbEntity
  8
2
  6
CONTINUOUS
370
25
 62
7
100
AcDbLine
 10
46.42900425468966
 20
4.669978726551747
 30
0.0
 11
47.2590255281379
 21
5.499999999999993
 31
0.0
  0
LINE
  5
68A
330
1F
100
AcDbEntity
  8
2
  6
CONTINUOUS
370
25
 62
7
100
AcDbLine
 10
46.35829357657101
 20
5.023532117145024
 30
0.0
 11
46.83476145942598
 21
5.499999999999993
 31
0.0
  0
LINE
  5
68B
330
1F
100
AcDbEntity
  8
2
  6
CONTINUOUS
370
25
 62
7
100
AcDbLine
 10
46.28758289845234
 20
5.377085507738286
 30
0.0
 11
46.41049739071405
 21
5.499999999999993
 31
0.0
  0
LINE
  5
68C
330
1F
100
AcDbEntity
  8
2
  6
CONTINUOUS
370
25
 62
7
100
AcDbLine
 10
47.22079005888802
 20
0.7110497055599012
 30
0.0
 11
47.29113996074133
 21
0.640699803706589
 31
0.0
  0
LINE
  5
68D
330
1F
100
AcDbEntity
  8
2
  6
CONTINUOUS
370
25
 62
7
100
AcDbLine
 10
47.11472404171004
 20
1.241379791449809
 30
0.0
 11
47.36185063885998
 21
0.9942531942998656
 31
0.0
  0
LINE
  5
68E
330
1F
100
AcDbEntity
  8
2
  6
CONTINUOUS
370
25
 62
7
100
AcDbLine
 10
47.00865802453205
 20
1.771709877339731
 30
0.0
 11
47.43256131697864
 21
1.347806584893149
 31
0.0
  0
LINE
  5
68F
330
1F
100
AcDbEntity
  8
2
  6
CONTINUOUS
370
25
 62
7
100
AcDbLine
 10
46.90259200735407
 20
2.302039963229646
 30
0.0
 11
47.50327199509729
 21
1.701359975486426
 31
0.0
  0
LINE
  5
690
330
1F
100
AcDbEntity
  8
2
  6
CONTINUOUS
370
25
 62
7
100
AcDbLine
 10
46.79652599017609
 20
2.832370049119554
 30
0.0
 11
47.57398267321594
 21
2.054913366079703
 31
0.0
  0
LINE
  5
691
330
1F
100
AcDbEntity
  8
2
  6
CONTINUOUS
370
25
 62
7
100
AcDbLine
 10
46.69045997299811
 20
3.362700135009476
 30
0.0
 11
47.64469335133461
 21
2.408466756672972
 31
0.0
  0
LINE
  5
692
330
1F
100
AcDbEntity
  8
2
  6
CONTINUOUS
370
25
 62
7
100
AcDbLine
 10
46.58439395582012
 20
3.893030220899391
 30
0.0
 11
47.71540402945326
 21
2.762020147266249
 31
0.0
  0
LINE
  5
693
330
1F
100
AcDbEntity
  8
2
  6
CONTINUOUS
370
25
 62
7
100
AcDbLine
 10
46.47832793864214
 20
4.423360306789306
 30
0.0
 11
47.78611470757191
 21
3.115573537859532
 31
0.0
  0
LINE
  5
694
330
1F
100
AcDbEntity
  8
2
  6
CONTINUOUS
370
25
 62
7
100
AcDbLine
 10
46.37226192146417
 20
4.953690392679206
 30
0.0
 11
47.85682538569056
 21
3.469126928452809
 31
0.0
  0
LINE
  5
695
330
1F
100
AcDbEntity
  8
2
  6
CONTINUOUS
370
25
 62
7
100
AcDbLine
 10
46.26619590428617
 20
5.484020478569136
 30
0.0
 11
47.92753606380922
 21
3.822680319046086
 31
0.0
  0
LINE
  5
696
330
1F
100
AcDbEntity
  8
2
  6
CONTINUOUS
370
25
 62
7
100
AcDbLine
 10
46.67448045156725
 20
5.499999999999993
 30
0.0
 11
47.99824674192789
 21
4.176233709639355
 31
0.0
  0
LINE
  5
697
330
1F
100
AcDbEntity
  8
2
  6
CONTINUOUS
370
25
 62
7
100
AcDbLine
 10
47.09874452027918
 20
5.499999999999993
 30
0.0
 11
48.06895742004654
 21
4.529787100232632
 31
0.0
  0
LINE
  5
698
330
1F
100
AcDbEntity
  8
2
  6
CONTINUOUS
370
25
 62
7
100
AcDbLine
 10
47.5230085889911
 20
5.499999999999993
 30
0.0
 11
48.13966809816519
 21
4.883340490825915
 31
0.0
  0
LINE
  5
699
330
1F
100
AcDbEntity
  8
2
  6
CONTINUOUS
370
25
 62
7
100
AcDbLine
 10
47.94727265770303
 20
5.499999999999993
 30
0.0
 11
48.21037877628385
 21
5.236893881419185
 31
0.0
  0
TEXT
  5
69A
330
1F
100
AcDbEntity
  8
2
  6
CONTINUOUS
370
25
 62
7
100
AcDbText
 10
45.76300000000001
 20
11.42916666666666
 30
0.0
 40
3.5
  1
1
 50
90.00000000000001
 72
     1
 11
45.76300000000001
 21
12.0125
 31
0.0
100
AcDbText
  0
CIRCLE
  5
69B
330
1F
100
AcDbEntity
  8
2
  6
CONTINUOUS
370
25
 62
7
100
AcDbCircle
 10
44.01300000000001
 20
8.687499999999996
 30
0.0
 40
1.4
  0
LINE
  5
69C
330
1F
100
AcDbEntity
  8
2
  6
CONTINUOUS
370
25
 62
7
100
AcDbLine
 10
45.413
 20
7.287499999999998
 30
0.0
 11
42.61300000000001
 21
10.0875
 31
0.0
  0
LINE
  5
69D
330
1F
100
AcDbEntity
  8
2
  6
CONTINUOUS
370
25
 62
7
100
AcDbLine
 10
10.913
 20
-0.47495
 30
0.0
 11
7.913
 21
-0.4749499999999996
 31
0.0
  0
LINE
  5
69E
330
1F
100
AcDbEntity
  8
2
  6
CONTINUOUS
370
25
 62
7
100
AcDbLine
 10
7.913
 20
0.4749500000000004
 30
0.0
 11
10.913
 21
0.47495
 31
0.0
  0
LINE
  5
69F
330
1F
100
AcDbEntity
  8
2
  6
CONTINUOUS
370
25
 62
7
100
AcDbLine
 10
8.913
 20
-7.47495
 30
0.0
 11
8.913
 21
22.87495
 31
0.0
  0
LINE
  5
6A0
330
1F
100
AcDbEntity
  8
2
  6
CONTINUOUS
370
25
 62
7
100
AcDbLine
 10
8.913
 20
-0.4749499999999997
 30
0.0
 11
9.913
 21
-5.47495
 31
0.0
  0
LINE
  5
6A1
330
1F
100
AcDbEntity
  8
2
  6
CONTINUOUS
370
25
 62
7
100
AcDbLine
 10
9.913
 20
-5.47495
 30
0.0
 11
7.913
 21
-5.47495
 31
0.0
  0
LINE
  5
6A2
330
1F
100
AcDbEntity
  8
2
  6
CONTINUOUS
370
25
 62
7
100
AcDbLine
 10
7.913
 20
-5.47495
 30
0.0
 11
8.913
 21
-0.4749499999999997
 31
0.0
  0
LINE
  5
6A3
330
1F
100
AcDbEntity
  8
2
  6
CONTINUOUS
370
25
 62
7
100
AcDbLine
 10
9.717741712211474
 20
-5.47495
 30
0.0
 11
9.880456952035246
 21
-5.312234760176228
 31
0.0
  0
LINE
  5
6A4
330
1F
100
AcDbEntity
  8
2
  6
CONTINUOUS
370
25
 62
7
100
AcDbLine
 10
9.293477643499546
 20
-5.47495
 30
0.0
 11
9.809746273916591
 21
-4.958681369582955
 31
0.0
  0
LINE
  5
6A5
330
1F
100
AcDbEntity
  8
2
  6
CONTINUOUS
370
25
 62
7
100
AcDbLine
 10
8.869213574787619
 20
-5.47495
 30
0.0
 11
9.739035595797937
 21
-4.605127978989682
 31
0.0
  0
LINE
  5
6A6
330
1F
100
AcDbEntity
  8
2
  6
CONTINUOUS
370
25
 62
7
100
AcDbLine
 10
8.44494950607569
 20
-5.47495
 30
0.0
 11
9.668324917679282
 21
-4.251574588396407
 31
0.0
  0
LINE
  5
6A7
330
1F
100
AcDbEntity
  8
2
  6
CONTINUOUS
370
25
 62
7
100
AcDbLine
 10
8.020685437363761
 20
-5.47495
 30
0.0
 11
9.597614239560627
 21
-3.898021197803134
 31
0.0
  0
LINE
  5
6A8
330
1F
100
AcDbEntity
  8
2
  6
CONTINUOUS
370
25
 62
7
100
AcDbLine
 10
7.992144657837043
 20
-5.07922671081479
 30
0.0
 11
9.526903561441973
 21
-3.544467807209861
 31
0.0
  0
LINE
  5
6A9
330
1F
100
AcDbEntity
  8
2
  6
CONTINUOUS
370
25
 62
7
100
AcDbLine
 10
8.098210675015025
 20
-4.548896624924881
 30
0.0
 11
9.456192883323318
 21
-3.190914416616588
 31
0.0
  0
LINE
  5
6AA
330
1F
100
AcDbEntity
  8
2
  6
CONTINUOUS
370
25
 62
7
100
AcDbLine
 10
8.204276692193007
 20
-4.018566539034969
 30
0.0
 11
9.385482205204664
 21
-2.837361026023311
 31
0.0
  0
LINE
  5
6AB
330
1F
100
AcDbEntity
  8
2
  6
CONTINUOUS
370
25
 62
7
100
AcDbLine
 10
8.310342709370989
 20
-3.48823645314506
 30
0.0
 11
9.314771527086009
 21
-2.48380763543004
 31
0.0
  0
LINE
  5
6AC
330
1F
100
AcDbEntity
  8
2
  6
CONTINUOUS
370
25
 62
7
100
AcDbLine
 10
8.41640872654897
 20
-2.95790636725515
 30
0.0
 11
9.244060848967354
 21
-2.130254244836767
 31
0.0
  0
LINE
  5
6AD
330
1F
100
AcDbEntity
  8
2
  6
CONTINUOUS
370
25
 62
7
100
AcDbLine
 10
8.522474743726953
 20
-2.427576281365241
 30
0.0
 11
9.1733501708487
 21
-1.776700854243494
 31
0.0
  0
LINE
  5
6AE
330
1F
100
AcDbEntity
  8
2
  6
CONTINUOUS
370
25
 62
7
100
AcDbLine
 10
8.628540760904935
 20
-1.897246195475333
 30
0.0
 11
9.102639492730045
 21
-1.423147463650222
 31
0.0
  0
LINE
  5
6AF
330
1F
100
AcDbEntity
  8
2
  6
CONTINUOUS
370
25
 62
7
100
AcDbLine
 10
8.734606778082917
 20
-1.366916109585421
 30
0.0
 11
9.03192881461139
 21
-1.069594073056948
 31
0.0
  0
LINE
  5
6B0
330
1F
100
AcDbEntity
  8
2
  6
CONTINUOUS
370
25
 62
7
100
AcDbLine
 10
8.840672795260899
 20
-0.83658602369551
 30
0.0
 11
8.961218136492736
 21
-0.7160406824636727
 31
0.0
  0
LINE
  5
6B1
330
1F
100
AcDbEntity
  8
2
  6
CONTINUOUS
370
25
 62
7
100
AcDbLine
 10
7.929255735378598
 20
-5.39367132310702
 30
0.0
 11
8.010534412271578
 21
-5.47495
 31
0.0
  0
LINE
  5
6B2
330
1F
100
AcDbEntity
  8
2
  6
CONTINUOUS
370
25
 62
7
100
AcDbLine
 10
7.999966413497251
 20
-5.040117932513745
 30
0.0
 11
8.434798480983506
 21
-5.47495
 31
0.0
  0
LINE
  5
6B3
330
1F
100
AcDbEntity
  8
2
  6
CONTINUOUS
370
25
 62
7
100
AcDbLine
 10
8.070677091615906
 20
-4.686564541920472
 30
0.0
 11
8.859062549695434
 21
-5.47495
 31
0.0
  0
LINE
  5
6B4
330
1F
100
AcDbEntity
  8
2
  6
CONTINUOUS
370
25
 62
7
100
AcDbLine
 10
8.14138776973456
 20
-4.333011151327199
 30
0.0
 11
9.283326618407362
 21
-5.47495
 31
0.0
  0
LINE
  5
6B5
330
1F
100
AcDbEntity
  8
2
  6
CONTINUOUS
370
25
 62
7
100
AcDbLine
 10
8.212098447853215
 20
-3.979457760733926
 30
0.0
 11
9.70759068711929
 21
-5.47495
 31
0.0
  0
LINE
  5
6B6
330
1F
100
AcDbEntity
  8
2
  6
CONTINUOUS
370
25
 62
7
100
AcDbLine
 10
8.28280912597187
 20
-3.625904370140652
 30
0.0
 11
9.858286311042196
 21
-5.201381555210978
 31
0.0
  0
LINE
  5
6B7
330
1F
100
AcDbEntity
  8
2
  6
CONTINUOUS
370
25
 62
7
100
AcDbLine
 10
8.353519804090524
 20
-3.272350979547378
 30
0.0
 11
9.752220293864214
 21
-4.671051469321068
 31
0.0
  0
LINE
  5
6B8
330
1F
100
AcDbEntity
  8
2
  6
CONTINUOUS
370
25
 62
7
100
AcDbLine
 10
8.424230482209179
 20
-2.918797588954104
 30
0.0
 11
9.646154276686232
 21
-4.140721383431157
 31
0.0
  0
LINE
  5
6B9
330
1F
100
AcDbEntity
  8
2
  6
CONTINUOUS
370
25
 62
7
100
AcDbLine
 10
8.494941160327834
 20
-2.56524419836083
 30
0.0
 11
9.54008825950825
 21
-3.610391297541247
 31
0.0
  0
LINE
  5
6BA
330
1F
100
AcDbEntity
  8
2
  6
CONTINUOUS
370
25
 62
7
100
AcDbLine
 10
8.565651838446488
 20
-2.211690807767556
 30
0.0
 11
9.434022242330268
 21
-3.080061211651336
 31
0.0
  0
LINE
  5
6BB
330
1F
100
AcDbEntity
  8
2
  6
CONTINUOUS
370
25
 62
7
100
AcDbLine
 10
8.636362516565143
 20
-1.858137417174282
 30
0.0
 11
9.327956225152287
 21
-2.549731125761426
 31
0.0
  0
LINE
  5
6BC
330
1F
100
AcDbEntity
  8
2
  6
CONTINUOUS
370
25
 62
7
100
AcDbLine
 10
8.707073194683797
 20
-1.504584026581009
 30
0.0
 11
9.221890207974305
 21
-2.019401039871516
 31
0.0
  0
LINE
  5
6BD
330
1F
100
AcDbEntity
  8
2
  6
CONTINUOUS
370
25
 62
7
100
AcDbLine
 10
8.777783872802452
 20
-1.151030635987736
 30
0.0
 11
9.115824190796323
 21
-1.489070953981606
 31
0.0
  0
LINE
  5
6BE
330
1F
100
AcDbEntity
  8
2
  6
CONTINUOUS
370
25
 62
7
100
AcDbLine
 10
8.848494550921107
 20
-0.7974772453944627
 30
0.0
 11
9.00975817361834
 21
-0.9587408680916969
 31
0.0
  0
LINE
  5
6BF
330
1F
100
AcDbEntity
  8
2
  6
CONTINUOUS
370
25
 62
7
100
AcDbLine
 10
8.913
 20
0.4749500000000003
 30
0.0
 11
7.913
 21
5.474950000000001
 31
0.0
  0
LINE
  5
6C0
330
1F
100
AcDbEntity
  8
2
  6
CONTINUOUS
370
25
 62
7
100
AcDbLine
 10
7.913
 20
5.474950000000001
 30
0.0
 11
9.913
 21
5.474950000000001
 31
0.0
  0
LINE
  5
6C1
330
1F
100
AcDbEntity
  8
2
  6
CONTINUOUS
370
25
 62
7
100
AcDbLine
 10
9.913
 20
5.474950000000001
 30
0.0
 11
8.913
 21
0.4749500000000003
 31
0.0
  0
LINE
  5
6C2
330
1F
100
AcDbEntity
  8
2
  6
CONTINUOUS
370
25
 62
7
100
AcDbLine
 10
8.90400175612577
 20
0.5199412193711552
 30
0.0
 11
8.926497365811349
 21
0.5424368290567347
 31
0.0
  0
LINE
  5
6C3
330
1F
100
AcDbEntity
  8
2
  6
CONTINUOUS
370
25
 62
7
100
AcDbLine
 10
8.833291078007115
 20
0.8734946099644283
 30
0.0
 11
9.032563382989329
 21
1.072766914946643
 31
0.0
  0
LINE
  5
6C4
330
1F
100
AcDbEntity
  8
2
  6
CONTINUOUS
370
25
 62
7
100
AcDbLine
 10
8.76258039988846
 20
1.227048000557701
 30
0.0
 11
9.13862940016731
 21
1.603097000836552
 31
0.0
  0
LINE
  5
6C5
330
1F
100
AcDbEntity
  8
2
  6
CONTINUOUS
370
25
 62
7
100
AcDbLine
 10
8.691869721769805
 20
1.580601391150974
 30
0.0
 11
9.244695417345293
 21
2.133427086726462
 31
0.0
  0
LINE
  5
6C6
330
1F
100
AcDbEntity
  8
2
  6
CONTINUOUS
370
25
 62
7
100
AcDbLine
 10
8.62115904365115
 20
1.934154781744247
 30
0.0
 11
9.350761434523275
 21
2.663757172616371
 31
0.0
  0
LINE
  5
6C7
330
1F
100
AcDbEntity
  8
2
  6
CONTINUOUS
370
25
 62
7
100
AcDbLine
 10
8.550448365532496
 20
2.287708172337521
 30
0.0
 11
9.456827451701256
 21
3.194087258506281
 31
0.0
  0
LINE
  5
6C8
330
1F
100
AcDbEntity
  8
2
  6
CONTINUOUS
370
25
 62
7
100
AcDbLine
 10
8.479737687413841
 20
2.641261562930795
 30
0.0
 11
9.562893468879238
 21
3.724417344396191
 31
0.0
  0
LINE
  5
6C9
330
1F
100
AcDbEntity
  8
2
  6
CONTINUOUS
370
25
 62
7
100
AcDbLine
 10
8.409027009295187
 20
2.994814953524068
 30
0.0
 11
9.668959486057222
 21
4.254747430286104
 31
0.0
  0
LINE
  5
6CA
330
1F
100
AcDbEntity
  8
2
  6
CONTINUOUS
370
25
 62
7
100
AcDbLine
 10
8.338316331176532
 20
3.348368344117342
 30
0.0
 11
9.775025503235202
 21
4.785077516176012
 31
0.0
  0
LINE
  5
6CB
330
1F
100
AcDbEntity
  8
2
  6
CONTINUOUS
370
25
 62
7
100
AcDbLine
 10
8.267605653057878
 20
3.701921734710615
 30
0.0
 11
9.881091520413186
 21
5.315407602065923
 31
0.0
  0
LINE
  5
6CC
330
1F
100
AcDbEntity
  8
2
  6
CONTINUOUS
370
25
 62
7
100
AcDbLine
 10
8.196894974939223
 20
4.055475125303888
 30
0.0
 11
9.616369849635337
 21
5.474950000000002
 31
0.0
  0
LINE
  5
6CD
330
1F
100
AcDbEntity
  8
2
  6
CONTINUOUS
370
25
 62
7
100
AcDbLine
 10
8.126184296820568
 20
4.409028515897162
 30
0.0
 11
9.19210578092341
 21
5.474950000000002
 31
0.0
  0
LINE
  5
6CE
330
1F
100
AcDbEntity
  8
2
  6
CONTINUOUS
370
25
 62
7
100
AcDbLine
 10
8.055473618701914
 20
4.762581906490436
 30
0.0
 11
8.767841712211478
 21
5.47495
 31
0.0
  0
LINE
  5
6CF
330
1F
100
AcDbEntity
  8
2
  6
CONTINUOUS
370
25
 62
7
100
AcDbLine
 10
7.98476294058326
 20
5.116135297083709
 30
0.0
 11
8.343577643499552
 21
5.474950000000002
 31
0.0
  0
LINE
  5
6D0
330
1F
100
AcDbEntity
  8
2
  6
CONTINUOUS
370
25
 62
7
100
AcDbLine
 10
7.914052262464605
 20
5.469688687676983
 30
0.0
 11
7.919313574787623
 21
5.47495
 31
0.0
  0
LINE
  5
6D1
330
1F
100
AcDbEntity
  8
2
  6
CONTINUOUS
370
25
 62
7
100
AcDbLine
 10
8.822969104906411
 20
0.9251044754679487
 30
0.0
 11
8.97302059672906
 21
0.7750529836452991
 31
0.0
  0
LINE
  5
6D2
330
1F
100
AcDbEntity
  8
2
  6
CONTINUOUS
370
25
 62
7
100
AcDbLine
 10
8.71690308772843
 20
1.45543456135786
 30
0.0
 11
9.043731274847715
 21
1.128606374238574
 31
0.0
  0
LINE
  5
6D3
330
1F
100
AcDbEntity
  8
2
  6
CONTINUOUS
370
25
 62
7
100
AcDbLine
 10
8.610837070550447
 20
1.98576464724777
 30
0.0
 11
9.11444195296637
 21
1.482159764831847
 31
0.0
  0
LINE
  5
6D4
330
1F
100
AcDbEntity
  8
2
  6
CONTINUOUS
370
25
 62
7
100
AcDbLine
 10
8.504771053372465
 20
2.516094733137681
 30
0.0
 11
9.185152631085025
 21
1.835713155425122
 31
0.0
  0
LINE
  5
6D5
330
1F
100
AcDbEntity
  8
2
  6
CONTINUOUS
370
25
 62
7
100
AcDbLine
 10
8.398705036194483
 20
3.046424819027592
 30
0.0
 11
9.25586330920368
 21
2.189266546018397
 31
0.0
  0
LINE
  5
6D6
330
1F
100
AcDbEntity
  8
2
  6
CONTINUOUS
370
25
 62
7
100
AcDbLine
 10
8.2926390190165
 20
3.576754904917502
 30
0.0
 11
9.326573987322334
 21
2.542819936611668
 31
0.0
  0
LINE
  5
6D7
330
1F
100
AcDbEntity
  8
2
  6
CONTINUOUS
370
25
 62
7
100
AcDbLine
 10
8.186573001838518
 20
4.107084990807413
 30
0.0
 11
9.397284665440989
 21
2.896373327204943
 31
0.0
  0
LINE
  5
6D8
330
1F
100
AcDbEntity
  8
2
  6
CONTINUOUS
370
25
 62
7
100
AcDbLine
 10
8.080506984660536
 20
4.637415076697323
 30
0.0
 11
9.467995343559643
 21
3.249926717798216
 31
0.0
  0
LINE
  5
6D9
330
1F
100
AcDbEntity
  8
2
  6
CONTINUOUS
370
25
 62
7
100
AcDbLine
 10
7.974440967482555
 20
5.167745162587231
 30
0.0
 11
9.538706021678298
 21
3.603480108391489
 31
0.0
  0
LINE
  5
6DA
330
1F
100
AcDbEntity
  8
2
  6
CONTINUOUS
370
25
 62
7
100
AcDbLine
 10
8.091500198781715
 20
5.47495
 30
0.0
 11
9.609416699796952
 21
3.957033498984762
 31
0.0
  0
LINE
  5
6DB
330
1F
100
AcDbEntity
  8
2
  6
CONTINUOUS
370
25
 62
7
100
AcDbLine
 10
8.515764267493642
 20
5.47495
 30
0.0
 11
9.680127377915607
 21
4.310586889578035
 31
0.0
  0
LINE
  5
6DC
330
1F
100
AcDbEntity
  8
2
  6
CONTINUOUS
370
25
 62
7
100
AcDbLine
 10
8.94002833620557
 20
5.47495
 30
0.0
 11
9.750838056034262
 21
4.664140280171308
 31
0.0
  0
LINE
  5
6DD
330
1F
100
AcDbEntity
  8
2
  6
CONTINUOUS
370
25
 62
7
100
AcDbLine
 10
9.3642924049175
 20
5.47495
 30
0.0
 11
9.821548734152916
 21
5.017693670764583
 31
0.0
  0
LINE
  5
6DE
330
1F
100
AcDbEntity
  8
2
  6
CONTINUOUS
370
25
 62
7
100
AcDbLine
 10
9.788556473629427
 20
5.47495
 30
0.0
 11
9.892259412271573
 21
5.371247061357854
 31
0.0
  0
TEXT
  5
6DF
330
1F
100
AcDbEntity
  8
2
  6
CONTINUOUS
370
25
 62
7
100
AcDbText
 10
7.412999999999998
 20
11.49161666666666
 30
0.0
 40
3.5
  1
0.95
 50
89.99999999999997
 72
     1
 11
7.413000000000001
 21
16.44995
 31
0.0
100
AcDbText
  0
CIRCLE
  5
6E0
330
1F
100
AcDbEntity
  8
2
  6
CONTINUOUS
370
25
 62
7
100
AcDbCircle
 10
5.663000000000001
 20
8.399949999999999
 30
0.0
 40
1.4
  0
LINE
  5
6E1
330
1F
100
AcDbEntity
  8
2
  6
CONTINUOUS
370
25
 62
7
100
AcDbLine
 10
7.063000000000001
 20
6.99995
 30
0.0
 11
4.263000000000001
 21
9.79995
 31
0.0
  0
LINE
  5
6E2
330
1F
100
AcDbEntity
  8
2
  6
CONTINUOUS
370
25
 62
7
100
AcDbLine
 10
10.913
 20
-0.5
 30
0.0
 11
10.913
 21
-23.5
 31
0.0
  0
LINE
  5
6E3
330
1F
100
AcDbEntity
  8
2
  6
CONTINUOUS
370
25
 62
7
100
AcDbLine
 10
12.413
 20
-23.5
 30
0.0
 11
12.413
 21
-0.5
 31
0.0
  0
LINE
  5
6E4
330
1F
100
AcDbEntity
  8
2
  6
CONTINUOUS
370
25
 62
7
100
AcDbLine
 10
3.912999999999998
 20
-22.5
 30
0.0
 11
28.33799999999999
 21
-22.5
 31
0.0
  0
LINE
  5
6E5
330
1F
100
AcDbEntity
  8
2
  6
CONTINUOUS
370
25
 62
7
100
AcDbLine
 10
10.913
 20
-22.5
 30
0.0
 11
5.912999999999998
 21
-23.5
 31
0.0
  0
LINE
  5
6E6
330
1F
100
AcDbEntity
  8
2
  6
CONTINUOUS
370
25
 62
7
100
AcDbLine
 10
5.912999999999998
 20
-23.5
 30
0.0
 11
5.912999999999998
 21
-21.5
 31
0.0
  0
LINE
  5
6E7
330
1F
100
AcDbEntity
  8
2
  6
CONTINUOUS
370
25
 62
7
100
AcDbLine
 10
5.912999999999998
 20
-21.5
 30
0.0
 11
10.913
 21
-22.5
 31
0.0
  0
LINE
  5
6E8
330
1F
100
AcDbEntity
  8
2
  6
CONTINUOUS
370
25
 62
7
100
AcDbLine
 10
10.77472560343857
 20
-22.52765487931229
 30
0.0
 11
10.82081706895904
 21
-22.48156341379181
 31
0.0
  0
LINE
  5
6E9
330
1F
100
AcDbEntity
  8
2
  6
CONTINUOUS
370
25
 62
7
100
AcDbLine
 10
10.24439551754865
 20
-22.63372089649027
 30
0.0
 11
10.46726367836577
 21
-22.41085273567315
 31
0.0
  0
LINE
  5
6EA
330
1F
100
AcDbEntity
  8
2
  6
CONTINUOUS
370
25
 62
7
100
AcDbLine
 10
9.714065431658748
 20
-22.73978691366825
 30
0.0
 11
10.1137102877725
 21
-22.3401420575545
 31
0.0
  0
LINE
  5
6EB
330
1F
100
AcDbEntity
  8
2
  6
CONTINUOUS
370
25
 62
7
100
AcDbLine
 10
9.183735345768829
 20
-22.84585293084623
 30
0.0
 11
9.76015689717922
 21
-22.26943137943584
 31
0.0
  0
LINE
  5
6EC
330
1F
100
AcDbEntity
  8
2
  6
CONTINUOUS
370
25
 62
7
100
AcDbLine
 10
8.653405259878925
 20
-22.95191894802421
 30
0.0
 11
9.40660350658595
 21
-22.19872070131719
 31
0.0
  0
LINE
  5
6ED
330
1F
100
AcDbEntity
  8
2
  6
CONTINUOUS
370
25
 62
7
100
AcDbLine
 10
8.123075173989015
 20
-23.05798496520219
 30
0.0
 11
9.053050115992678
 21
-22.12801002319853
 31
0.0
  0
LINE
  5
6EE
330
1F
100
AcDbEntity
  8
2
  6
CONTINUOUS
370
25
 62
7
100
AcDbLine
 10
7.592745088099106
 20
-23.16405098238018
 30
0.0
 11
8.699496725399404
 21
-22.05729934507988
 31
0.0
  0
LINE
  5
6EF
330
1F
100
AcDbEntity
  8
2
  6
CONTINUOUS
370
25
 62
7
100
AcDbLine
 10
7.062415002209193
 20
-23.27011699955816
 30
0.0
 11
8.34594333480613
 21
-21.98658866696123
 31
0.0
  0
LINE
  5
6F0
330
1F
100
AcDbEntity
  8
2
  6
CONTINUOUS
370
25
 62
7
100
AcDbLine
 10
6.532084916319284
 20
-23.37618301673614
 30
0.0
 11
7.992389944212857
 21
-21.91587798884257
 31
0.0
  0
LINE
  5
6F1
330
1F
100
AcDbEntity
  8
2
  6
CONTINUOUS
370
25
 62
7
100
AcDbLine
 10
6.001754830429374
 20
-23.48224903391413
 30
0.0
 11
7.638836553619583
 21
-21.84516731072392
 31
0.0
  0
LINE
  5
6F2
330
1F
100
AcDbEntity
  8
2
  6
CONTINUOUS
370
25
 62
7
100
AcDbLine
 10
5.912999999999998
 20
-23.14673979563158
 30
0.0
 11
7.28528316302631
 21
-21.77445663260526
 31
0.0
  0
LINE
  5
6F3
330
1F
100
AcDbEntity
  8
2
  6
CONTINUOUS
370
25
 62
7
100
AcDbLine
 10
5.912999999999998
 20
-22.72247572691965
 30
0.0
 11
6.931729772433036
 21
-21.70374595448661
 31
0.0
  0
LINE
  5
6F4
330
1F
100
AcDbEntity
  8
2
  6
CONTINUOUS
370
25
 62
7
100
AcDbLine
 10
5.912999999999998
 20
-22.29821165820772
 30
0.0
 11
6.578176381839763
 21
-21.63303527636795
 31
0.0
  0
LINE
  5
6F5
330
1F
100
AcDbEntity
  8
2
  6
CONTINUOUS
370
25
 62
7
100
AcDbLine
 10
5.912999999999998
 20
-21.87394758949579
 30
0.0
 11
6.22462299124649
 21
-21.5623245982493
 31
0.0
  0
LINE
  5
6F6
330
1F
100
AcDbEntity
  8
2
  6
CONTINUOUS
370
25
 62
7
100
AcDbLine
 10
5.912999999999998
 20
-23.36247136865187
 30
0.0
 11
6.027607192790106
 21
-23.47707856144198
 31
0.0
  0
LINE
  5
6F7
330
1F
100
AcDbEntity
  8
2
  6
CONTINUOUS
370
25
 62
7
100
AcDbLine
 10
5.912999999999998
 20
-22.93820729993994
 30
0.0
 11
6.381160583383379
 21
-23.40636788332332
 31
0.0
  0
LINE
  5
6F8
330
1F
100
AcDbEntity
  8
2
  6
CONTINUOUS
370
25
 62
7
100
AcDbLine
 10
5.912999999999998
 20
-22.51394323122802
 30
0.0
 11
6.734713973976652
 21
-23.33565720520467
 31
0.0
  0
LINE
  5
6F9
330
1F
100
AcDbEntity
  8
2
  6
CONTINUOUS
370
25
 62
7
100
AcDbLine
 10
5.912999999999998
 20
-22.08967916251609
 30
0.0
 11
7.088267364569925
 21
-23.26494652708601
 31
0.0
  0
LINE
  5
6FA
330
1F
100
AcDbEntity
  8
2
  6
CONTINUOUS
370
25
 62
7
100
AcDbLine
 10
5.912999999999998
 20
-21.66541509380416
 30
0.0
 11
7.441820755163199
 21
-23.19423584896736
 31
0.0
  0
LINE
  5
6FB
330
1F
100
AcDbEntity
  8
2
  6
CONTINUOUS
370
25
 62
7
100
AcDbLine
 10
6.236561218634707
 20
-21.56471224372694
 30
0.0
 11
7.795374145756472
 21
-23.1235251708487
 31
0.0
  0
LINE
  5
6FC
330
1F
100
AcDbEntity
  8
2
  6
CONTINUOUS
370
25
 62
7
100
AcDbLine
 10
6.766891304524618
 20
-21.67077826090492
 30
0.0
 11
8.148927536349746
 21
-23.05281449273005
 31
0.0
  0
LINE
  5
6FD
330
1F
100
AcDbEntity
  8
2
  6
CONTINUOUS
370
25
 62
7
100
AcDbLine
 10
7.297221390414528
 20
-21.7768442780829
 30
0.0
 11
8.502480926943019
 21
-22.9821038146114
 31
0.0
  0
LINE
  5
6FE
330
1F
100
AcDbEntity
  8
2
  6
CONTINUOUS
370
25
 62
7
100
AcDbLine
 10
7.827551476304438
 20
-21.88291029526089
 30
0.0
 11
8.856034317536292
 21
-22.91139313649274
 31
0.0
  0
LINE
  5
6FF
330
1F
100
AcDbEntity
  8
2
  6
CONTINUOUS
370
25
 62
7
100
AcDbLine
 10
8.357881562194349
 20
-21.98897631243887
 30
0.0
 11
9.209587708129565
 21
-22.84068245837409
 31
0.0
  0
LINE
  5
700
330
1F
100
AcDbEntity
  8
2
  6
CONTINUOUS
370
25
 62
7
100
AcDbLine
 10
8.888211648084258
 20
-22.09504232961685
 30
0.0
 11
9.563141098722838
 21
-22.76997178025543
 31
0.0
  0
LINE
  5
701
330
1F
100
AcDbEntity
  8
2
  6
CONTINUOUS
370
25
 62
7
100
AcDbLine
 10
9.418541733974168
 20
-22.20110834679483
 30
0.0
 11
9.91669448931611
 21
-22.69926110213678
 31
0.0
  0
LINE
  5
702
330
1F
100
AcDbEntity
  8
2
  6
CONTINUOUS
370
25
 62
7
100
AcDbLine
 10
9.94887181986408
 20
-22.30717436397282
 30
0.0
 11
10.27024787990938
 21
-22.62855042401812
 31
0.0
  0
LINE
  5
703
330
1F
100
AcDbEntity
  8
2
  6
CONTINUOUS
370
25
 62
7
100
AcDbLine
 10
10.47920190575399
 20
-22.4132403811508
 30
0.0
 11
10.62380127050266
 21
-22.55783974589946
 31
0.0
  0
LINE
  5
704
330
1F
100
AcDbEntity
  8
2
  6
CONTINUOUS
370
25
 62
7
100
AcDbLine
 10
12.413
 20
-22.5
 30
0.0
 11
17.413
 21
-21.5
 31
0.0
  0
LINE
  5
705
330
1F
100
AcDbEntity
  8
2
  6
CONTINUOUS
370
25
 62
7
100
AcDbLine
 10
17.413
 20
-21.5
 30
0.0
 11
17.413
 21
-23.5
 31
0.0
  0
LINE
  5
706
330
1F
100
AcDbEntity
  8
2
  6
CONTINUOUS
370
25
 62
7
100
AcDbLine
 10
17.413
 20
-23.5
 30
0.0
 11
12.413
 21
-22.5
 31
0.0
  0
LINE
  5
707
330
1F
100
AcDbEntity
  8
2
  6
CONTINUOUS
370
25
 62
7
100
AcDbLine
 10
17.30795632457981
 20
-23.47899126491596
 30
0.0
 11
17.413
 21
-23.37394758949577
 31
0.0
  0
LINE
  5
708
330
1F
100
AcDbEntity
  8
2
  6
CONTINUOUS
370
25
 62
7
100
AcDbLine
 10
16.95440293398653
 20
-23.4082805867973
 30
0.0
 11
17.413
 21
-22.94968352078384
 31
0.0
  0
LINE
  5
709
330
1F
100
AcDbEntity
  8
2
  6
CONTINUOUS
370
25
 62
7
100
AcDbLine
 10
16.60084954339326
 20
-23.33756990867865
 30
0.0
 11
17.413
 21
-22.52541945207191
 31
0.0
  0
LINE
  5
70A
330
1F
100
AcDbEntity
  8
2
  6
CONTINUOUS
370
25
 62
7
100
AcDbLine
 10
16.24729615279999
 20
-23.26685923055999
 30
0.0
 11
17.413
 21
-22.10115538335998
 31
0.0
  0
LINE
  5
70B
330
1F
100
AcDbEntity
  8
2
  6
CONTINUOUS
370
25
 62
7
100
AcDbLine
 10
15.89374276220671
 20
-23.19614855244134
 30
0.0
 11
17.413
 21
-21.67689131464806
 31
0.0
  0
LINE
  5
70C
330
1F
100
AcDbEntity
  8
2
  6
CONTINUOUS
370
25
 62
7
100
AcDbLine
 10
15.54018937161344
 20
-23.12543787432269
 30
0.0
 11
17.10378405742016
 21
-21.56184318851597
 31
0.0
  0
LINE
  5
70D
330
1F
100
AcDbEntity
  8
2
  6
CONTINUOUS
370
25
 62
7
100
AcDbLine
 10
15.18663598102017
 20
-23.05472719620403
 30
0.0
 11
16.57345397153025
 21
-21.66790920569395
 31
0.0
  0
LINE
  5
70E
330
1F
100
AcDbEntity
  8
2
  6
CONTINUOUS
370
25
 62
7
100
AcDbLine
 10
14.83308259042689
 20
-22.98401651808538
 30
0.0
 11
16.04312388564034
 21
-21.77397522287193
 31
0.0
  0
LINE
  5
70F
330
1F
100
AcDbEntity
  8
2
  6
CONTINUOUS
370
25
 62
7
100
AcDbLine
 10
14.47952919983362
 20
-22.91330583996672
 30
0.0
 11
15.51279379975043
 21
-21.88004124004991
 31
0.0
  0
LINE
  5
710
330
1F
100
AcDbEntity
  8
2
  6
CONTINUOUS
370
25
 62
7
100
AcDbLine
 10
14.12597580924035
 20
-22.84259516184807
 30
0.0
 11
14.98246371386052
 21
-21.9861072572279
 31
0.0
  0
LINE
  5
711
330
1F
100
AcDbEntity
  8
2
  6
CONTINUOUS
370
25
 62
7
100
AcDbLine
 10
13.77242241864707
 20
-22.77188448372942
 30
0.0
 11
14.45213362797061
 21
-22.09217327440588
 31
0.0
  0
LINE
  5
712
330
1F
100
AcDbEntity
  8
2
  6
CONTINUOUS
370
25
 62
7
100
AcDbLine
 10
13.4188690280538
 20
-22.70117380561076
 30
0.0
 11
13.9218035420807
 21
-22.19823929158386
 31
0.0
  0
LINE
  5
713
330
1F
100
AcDbEntity
  8
2
  6
CONTINUOUS
370
25
 62
7
100
AcDbLine
 10
13.06531563746053
 20
-22.63046312749211
 30
0.0
 11
13.39147345619079
 21
-22.30430530876184
 31
0.0
  0
LINE
  5
714
330
1F
100
AcDbEntity
  8
2
  6
CONTINUOUS
370
25
 62
7
100
AcDbLine
 10
12.71176224686726
 20
-22.55975244937345
 30
0.0
 11
12.86114337030088
 21
-22.41037132593982
 31
0.0
  0
LINE
  5
715
330
1F
100
AcDbEntity
  8
2
  6
CONTINUOUS
370
25
 62
7
100
AcDbLine
 10
12.51474644841087
 20
-22.47965071031783
 30
0.0
 11
12.5656196726163
 21
-22.53052393452326
 31
0.0
  0
LINE
  5
716
330
1F
100
AcDbEntity
  8
2
  6
CONTINUOUS
370
25
 62
7
100
AcDbLine
 10
12.86829983900414
 20
-22.40894003219917
 30
0.0
 11
13.09594975850621
 21
-22.63658995170124
 31
0.0
  0
LINE
  5
717
330
1F
100
AcDbEntity
  8
2
  6
CONTINUOUS
370
25
 62
7
100
AcDbLine
 10
13.22185322959741
 20
-22.33822935408052
 30
0.0
 11
13.62627984439612
 21
-22.74265596887922
 31
0.0
  0
LINE
  5
718
330
1F
100
AcDbEntity
  8
2
  6
CONTINUOUS
370
25
 62
7
100
AcDbLine
 10
13.57540662019069
 20
-22.26751867596187
 30
0.0
 11
14.15660993028603
 21
-22.84872198605721
 31
0.0
  0
LINE
  5
719
330
1F
100
AcDbEntity
  8
2
  6
CONTINUOUS
370
25
 62
7
100
AcDbLine
 10
13.92896001078396
 20
-22.19680799784321
 30
0.0
 11
14.68694001617594
 21
-22.95478800323519
 31
0.0
  0
LINE
  5
71A
330
1F
100
AcDbEntity
  8
2
  6
CONTINUOUS
370
25
 62
7
100
AcDbLine
 10
14.28251340137723
 20
-22.12609731972455
 30
0.0
 11
15.21727010206585
 21
-23.06085402041317
 31
0.0
  0
LINE
  5
71B
330
1F
100
AcDbEntity
  8
2
  6
CONTINUOUS
370
25
 62
7
100
AcDbLine
 10
14.63606679197051
 20
-22.0553866416059
 30
0.0
 11
15.74760018795576
 21
-23.16692003759115
 31
0.0
  0
LINE
  5
71C
330
1F
100
AcDbEntity
  8
2
  6
CONTINUOUS
370
25
 62
7
100
AcDbLine
 10
14.98962018256378
 20
-21.98467596348725
 30
0.0
 11
16.27793027384567
 21
-23.27298605476913
 31
0.0
  0
LINE
  5
71D
330
1F
100
AcDbEntity
  8
2
  6
CONTINUOUS
370
25
 62
7
100
AcDbLine
 10
15.34317357315705
 20
-21.91396528536859
 30
0.0
 11
16.80826035973558
 21
-23.37905207194711
 31
0.0
  0
LINE
  5
71E
330
1F
100
AcDbEntity
  8
2
  6
CONTINUOUS
370
25
 62
7
100
AcDbLine
 10
15.69672696375033
 20
-21.84325460724994
 30
0.0
 11
17.33859044562548
 21
-23.48511808912509
 31
0.0
  0
LINE
  5
71F
330
1F
100
AcDbEntity
  8
2
  6
CONTINUOUS
370
25
 62
7
100
AcDbLine
 10
16.0502803543436
 20
-21.77254392913128
 30
0.0
 11
17.413
 21
-23.13526357478768
 31
0.0
  0
LINE
  5
720
330
1F
100
AcDbEntity
  8
2
  6
CONTINUOUS
370
25
 62
7
100
AcDbLine
 10
16.40383374493687
 20
-21.70183325101263
 30
0.0
 11
17.413
 21
-22.71099950607575
 31
0.0
  0
LINE
  5
721
330
1F
100
AcDbEntity
  8
2
  6
CONTINUOUS
370
25
 62
7
100
AcDbLine
 10
16.75738713553014
 20
-21.63112257289397
 30
0.0
 11
17.413
 21
-22.28673543736382
 31
0.0
  0
LINE
  5
722
330
1F
100
AcDbEntity
  8
2
  6
CONTINUOUS
370
25
 62
7
100
AcDbLine
 10
17.11094052612342
 20
-21.56041189477532
 30
0.0
 11
17.413
 21
-21.8624713686519
 31
0.0
  0
TEXT
  5
723
330
1F
100
AcDbEntity
  8
2
  6
CONTINUOUS
370
25
 62
7
100
AcDbText
 10
19.95883333333333
 20
-21.0
 30
0.0
 40
3.5
  1
1.5
 72
     1
 11
22.8755
 21
-21.0
 31
0.0
100
AcDbText
  0
LINE
  5
724
330
1F
100
AcDbEntity
  8
2
  6
CONTINUOUS
370
25
 62
7
100
AcDbLine
 10
-0.01
 20
2.99995
 30
0.0
 11
-0.0099999999999984
 21
29.39995
 31
0.0
  0
LINE
  5
725
330
1F
100
AcDbEntity
  8
2
  6
CONTINUOUS
370
25
 62
7
100
AcDbLine
 10
12.413
 20
29.39995
 30
0.0
 11
12.413
 21
0.5
 31
0.0
  0
LINE
  5
726
330
1F
100
AcDbEntity
  8
2
  6
CONTINUOUS
370
25
 62
7
100
AcDbLine
 10
-7.01
 20
28.39995
 30
0.0
 11
37.263
 21
28.39995
 31
0.0
  0
LINE
  5
727
330
1F
100
AcDbEntity
  8
2
  6
CONTINUOUS
370
25
 62
7
100
AcDbLine
 10
-0.01
 20
28.39995
 30
0.0
 11
-5.01
 21
27.39995
 31
0.0
  0
LINE
  5
728
330
1F
100
AcDbEntity
  8
2
  6
CONTINUOUS
370
25
 62
7
100
AcDbLine
 10
-5.01
 20
27.39995
 30
0.0
 11
-5.01
 21
29.39995
 31
0.0
  0
LINE
  5
729
330
1F
100
AcDbEntity
  8
2
  6
CONTINUOUS
370
25
 62
7
100
AcDbLine
 10
-5.01
 20
29.39995
 30
0.0
 11
-0.01
 21
28.39995
 31
0.0
  0
LINE
  5
72A
330
1F
100
AcDbEntity
  8
2
  6
CONTINUOUS
370
25
 62
7
100
AcDbLine
 10
-0.0421782546239779
 20
28.3935143490752
 30
0.0
 11
-0.0314521697493186
 21
28.40424043394986
 31
0.0
  0
LINE
  5
72B
330
1F
100
AcDbEntity
  8
2
  6
CONTINUOUS
370
25
 62
7
100
AcDbLine
 10
-0.5725083405138873
 20
28.28744833189722
 30
0.0
 11
-0.3850055603425916
 21
28.47495111206851
 31
0.0
  0
LINE
  5
72C
330
1F
100
AcDbEntity
  8
2
  6
CONTINUOUS
370
25
 62
7
100
AcDbLine
 10
-1.102838426403797
 20
28.18138231471924
 30
0.0
 11
-0.7385589509358647
 21
28.54566179018717
 31
0.0
  0
LINE
  5
72D
330
1F
100
AcDbEntity
  8
2
  6
CONTINUOUS
370
25
 62
7
100
AcDbLine
 10
-1.63316851229371
 20
28.07531629754126
 30
0.0
 11
-1.09211234152914
 21
28.61637246830583
 31
0.0
  0
LINE
  5
72E
330
1F
100
AcDbEntity
  8
2
  6
CONTINUOUS
370
25
 62
7
100
AcDbLine
 10
-2.163498598183622
 20
27.96925028036327
 30
0.0
 11
-1.445665732122416
 21
28.68708314642448
 31
0.0
  0
LINE
  5
72F
330
1F
100
AcDbEntity
  8
2
  6
CONTINUOUS
370
25
 62
7
100
AcDbLine
 10
-2.693828684073534
 20
27.86318426318529
 30
0.0
 11
-1.799219122715691
 21
28.75779382454314
 31
0.0
  0
LINE
  5
730
330
1F
100
AcDbEntity
  8
2
  6
CONTINUOUS
370
25
 62
7
100
AcDbLine
 10
-3.224158769963445
 20
27.75711824600731
 30
0.0
 11
-2.152772513308965
 21
28.82850450266179
 31
0.0
  0
LINE
  5
731
330
1F
100
AcDbEntity
  8
2
  6
CONTINUOUS
370
25
 62
7
100
AcDbLine
 10
-3.754488855853352
 20
27.65105222882933
 30
0.0
 11
-2.506325903902237
 21
28.89921518078044
 31
0.0
  0
LINE
  5
732
330
1F
100
AcDbEntity
  8
2
  6
CONTINUOUS
370
25
 62
7
100
AcDbLine
 10
-4.284818941743262
 20
27.54498621165135
 30
0.0
 11
-2.859879294495511
 21
28.9699258588991
 31
0.0
  0
LINE
  5
733
330
1F
100
AcDbEntity
  8
2
  6
CONTINUOUS
370
25
 62
7
100
AcDbLine
 10
-4.815149027633175
 20
27.43892019447336
 30
0.0
 11
-3.213432685088788
 21
29.04063653701775
 31
0.0
  0
LINE
  5
734
330
1F
100
AcDbEntity
  8
2
  6
CONTINUOUS
370
25
 62
7
100
AcDbLine
 10
-5.01
 20
27.66833329081846
 30
0.0
 11
-3.566986075682059
 21
29.11134721513641
 31
0.0
  0
LINE
  5
735
330
1F
100
AcDbEntity
  8
2
  6
CONTINUOUS
370
25
 62
7
100
AcDbLine
 10
-5.01
 20
28.09259735953039
 30
0.0
 11
-3.920539466275336
 21
29.18205789325506
 31
0.0
  0
LINE
  5
736
330
1F
100
AcDbEntity
  8
2
  6
CONTINUOUS
370
25
 62
7
100
AcDbLine
 10
-5.01
 20
28.51686142824233
 30
0.0
 11
-4.274092856868612
 21
29.25276857137372
 31
0.0
  0
LINE
  5
737
330
1F
100
AcDbEntity
  8
2
  6
CONTINUOUS
370
25
 62
7
100
AcDbLine
 10
-5.01
 20
28.94112549695426
 30
0.0
 11
-4.627646247461888
 21
29.32347924949238
 31
0.0
  0
LINE
  5
738
330
1F
100
AcDbEntity
  8
2
  6
CONTINUOUS
370
25
 62
7
100
AcDbLine
 10
-5.01
 20
29.36538956566619
 30
0.0
 11
-4.981199638055159
 21
29.39418992761103
 31
0.0
  0
LINE
  5
739
330
1F
100
AcDbEntity
  8
2
  6
CONTINUOUS
370
25
 62
7
100
AcDbLine
 10
-5.01
 20
27.48599564173217
 30
0.0
 11
-4.938295298556523
 21
27.41429094028869
 31
0.0
  0
LINE
  5
73A
330
1F
100
AcDbEntity
  8
2
  6
CONTINUOUS
370
25
 62
7
100
AcDbLine
 10
-5.01
 20
27.9102597104441
 30
0.0
 11
-4.584741907963247
 21
27.48500161840735
 31
0.0
  0
LINE
  5
73B
330
1F
100
AcDbEntity
  8
2
  6
CONTINUOUS
370
25
 62
7
100
AcDbLine
 10
-5.01
 20
28.33452377915602
 30
0.0
 11
-4.231188517369977
 21
27.555712296526
 31
0.0
  0
LINE
  5
73C
330
1F
100
AcDbEntity
  8
2
  6
CONTINUOUS
370
25
 62
7
100
AcDbLine
 10
-5.01
 20
28.75878784786795
 30
0.0
 11
-3.877635126776703
 21
27.62642297464466
 31
0.0
  0
LINE
  5
73D
330
1F
100
AcDbEntity
  8
2
  6
CONTINUOUS
370
25
 62
7
100
AcDbLine
 10
-5.01
 20
29.18305191657988
 30
0.0
 11
-3.524081736183429
 21
27.69713365276331
 31
0.0
  0
LINE
  5
73E
330
1F
100
AcDbEntity
  8
2
  6
CONTINUOUS
370
25
 62
7
100
AcDbLine
 10
-4.750792518385234
 20
29.34810850367704
 30
0.0
 11
-3.170528345590154
 21
27.76784433088197
 31
0.0
  0
LINE
  5
73F
330
1F
100
AcDbEntity
  8
2
  6
CONTINUOUS
370
25
 62
7
100
AcDbLine
 10
-4.220462432495322
 20
29.24204248649906
 30
0.0
 11
-2.81697495499688
 21
27.83855500900062
 31
0.0
  0
LINE
  5
740
330
1F
100
AcDbEntity
  8
2
  6
CONTINUOUS
370
25
 62
7
100
AcDbLine
 10
-3.690132346605409
 20
29.13597646932108
 30
0.0
 11
-2.463421564403605
 21
27.90926568711928
 31
0.0
  0
LINE
  5
741
330
1F
100
AcDbEntity
  8
2
  6
CONTINUOUS
370
25
 62
7
100
AcDbLine
 10
-3.159802260715495
 20
29.0299104521431
 30
0.0
 11
-2.109868173810329
 21
27.97997636523793
 31
0.0
  0
LINE
  5
742
330
1F
100
AcDbEntity
  8
2
  6
CONTINUOUS
370
25
 62
7
100
AcDbLine
 10
-2.629472174825583
 20
28.92384443496511
 30
0.0
 11
-1.756314783217056
 21
28.05068704335659
 31
0.0
  0
LINE
  5
743
330
1F
100
AcDbEntity
  8
2
  6
CONTINUOUS
370
25
 62
7
100
AcDbLine
 10
-2.099142088935672
 20
28.81777841778713
 30
0.0
 11
-1.402761392623782
 21
28.12139772147524
 31
0.0
  0
LINE
  5
744
330
1F
100
AcDbEntity
  8
2
  6
CONTINUOUS
370
25
 62
7
100
AcDbLine
 10
-1.568812003045758
 20
28.71171240060915
 30
0.0
 11
-1.049208002030506
 21
28.1921083995939
 31
0.0
  0
LINE
  5
745
330
1F
100
AcDbEntity
  8
2
  6
CONTINUOUS
370
25
 62
7
100
AcDbLine
 10
-1.038481917155849
 20
28.60564638343117
 30
0.0
 11
-0.6956546114372328
 21
28.26281907771255
 31
0.0
  0
LINE
  5
746
330
1F
100
AcDbEntity
  8
2
  6
CONTINUOUS
370
25
 62
7
100
AcDbLine
 10
-0.5081518312659353
 20
28.49958036625318
 30
0.0
 11
-0.3421012208439571
 21
28.3335297558312
 31
0.0
  0
LINE
  5
747
330
1F
100
AcDbEntity
  8
2
  6
CONTINUOUS
370
25
 62
7
100
AcDbLine
 10
12.413
 20
28.39995
 30
0.0
 11
17.413
 21
29.39995
 31
0.0
  0
LINE
  5
748
330
1F
100
AcDbEntity
  8
2
  6
CONTINUOUS
370
25
 62
7
100
AcDbLine
 10
17.413
 20
29.39995
 30
0.0
 11
17.413
 21
27.39995
 31
0.0
  0
LINE
  5
749
330
1F
100
AcDbEntity
  8
2
  6
CONTINUOUS
370
25
 62
7
100
AcDbLine
 10
17.413
 20
27.39995
 30
0.0
 11
12.413
 21
28.39995
 31
0.0
  0
LINE
  5
74A
330
1F
100
AcDbEntity
  8
2
  6
CONTINUOUS
370
25
 62
7
100
AcDbLine
 10
17.24184362576143
 20
27.43418127484771
 30
0.0
 11
17.413
 21
27.60533764908628
 31
0.0
  0
LINE
  5
74B
330
1F
100
AcDbEntity
  8
2
  6
CONTINUOUS
370
25
 62
7
100
AcDbLine
 10
16.88829023516816
 20
27.50489195296637
 30
0.0
 11
17.413
 21
28.02960171779821
 31
0.0
  0
LINE
  5
74C
330
1F
100
AcDbEntity
  8
2
  6
CONTINUOUS
370
25
 62
7
100
AcDbLine
 10
16.53473684457488
 20
27.57560263108502
 30
0.0
 11
17.413
 21
28.45386578651014
 31
0.0
  0
LINE
  5
74D
330
1F
100
AcDbEntity
  8
2
  6
CONTINUOUS
370
25
 62
7
100
AcDbLine
 10
16.18118345398161
 20
27.64631330920368
 30
0.0
 11
17.413
 21
28.87812985522207
 31
0.0
  0
LINE
  5
74E
330
1F
100
AcDbEntity
  8
2
  6
CONTINUOUS
370
25
 62
7
100
AcDbLine
 10
15.82763006338834
 20
27.71702398732233
 30
0.0
 11
17.413
 21
29.302393923934
 31
0.0
  0
LINE
  5
74F
330
1F
100
AcDbEntity
  8
2
  6
CONTINUOUS
370
25
 62
7
100
AcDbLine
 10
15.47407667279506
 20
27.78773466544099
 30
0.0
 11
17.00461500919258
 21
29.31827300183851
 31
0.0
  0
LINE
  5
750
330
1F
100
AcDbEntity
  8
2
  6
CONTINUOUS
370
25
 62
7
100
AcDbLine
 10
15.12052328220179
 20
27.85844534355964
 30
0.0
 11
16.47428492330267
 21
29.21220698466053
 31
0.0
  0
LINE
  5
751
330
1F
100
AcDbEntity
  8
2
  6
CONTINUOUS
370
25
 62
7
100
AcDbLine
 10
14.76696989160851
 20
27.9291560216783
 30
0.0
 11
15.94395483741276
 21
29.10614096748255
 31
0.0
  0
LINE
  5
752
330
1F
100
AcDbEntity
  8
2
  6
CONTINUOUS
370
25
 62
7
100
AcDbLine
 10
14.41341650101524
 20
27.99986669979695
 30
0.0
 11
15.41362475152285
 21
29.00007495030457
 31
0.0
  0
LINE
  5
753
330
1F
100
AcDbEntity
  8
2
  6
CONTINUOUS
370
25
 62
7
100
AcDbLine
 10
14.05986311042196
 20
28.0705773779156
 30
0.0
 11
14.88329466563294
 21
28.89400893312659
 31
0.0
  0
LINE
  5
754
330
1F
100
AcDbEntity
  8
2
  6
CONTINUOUS
370
25
 62
7
100
AcDbLine
 10
13.70630971982869
 20
28.14128805603426
 30
0.0
 11
14.35296457974303
 21
28.7879429159486
 31
0.0
  0
LINE
  5
755
330
1F
100
AcDbEntity
  8
2
  6
CONTINUOUS
370
25
 62
7
100
AcDbLine
 10
13.35275632923541
 20
28.21199873415291
 30
0.0
 11
13.82263449385312
 21
28.68187689877062
 31
0.0
  0
LINE
  5
756
330
1F
100
AcDbEntity
  8
2
  6
CONTINUOUS
370
25
 62
7
100
AcDbLine
 10
12.99920293864214
 20
28.28270941227157
 30
0.0
 11
13.29230440796321
 21
28.57581088159264
 31
0.0
  0
LINE
  5
757
330
1F
100
AcDbEntity
  8
2
  6
CONTINUOUS
370
25
 62
7
100
AcDbLine
 10
12.64564954804887
 20
28.35342009039022
 30
0.0
 11
12.7619743220733
 21
28.46974486441466
 31
0.0
  0
LINE
  5
758
330
1F
100
AcDbEntity
  8
2
  6
CONTINUOUS
370
25
 62
7
100
AcDbLine
 10
12.68855388754754
 20
28.45506077750951
 30
0.0
 11
12.82633083132131
 21
28.31728383373574
 31
0.0
  0
LINE
  5
759
330
1F
100
AcDbEntity
  8
2
  6
CONTINUOUS
370
25
 62
7
100
AcDbLine
 10
13.04210727814081
 20
28.52577145562816
 30
0.0
 11
13.35666091721122
 21
28.21121781655775
 31
0.0
  0
LINE
  5
75A
330
1F
100
AcDbEntity
  8
2
  6
CONTINUOUS
370
25
 62
7
100
AcDbLine
 10
13.39566066873409
 20
28.59648213374681
 30
0.0
 11
13.88699100310114
 21
28.10515179937977
 31
0.0
  0
LINE
  5
75B
330
1F
100
AcDbEntity
  8
2
  6
CONTINUOUS
370
25
 62
7
100
AcDbLine
 10
13.74921405932737
 20
28.66719281186547
 30
0.0
 11
14.41732108899105
 21
27.99908578220179
 31
0.0
  0
LINE
  5
75C
330
1F
100
AcDbEntity
  8
2
  6
CONTINUOUS
370
25
 62
7
100
AcDbLine
 10
14.10276744992064
 20
28.73790348998412
 30
0.0
 11
14.94765117488096
 21
27.89301976502381
 31
0.0
  0
LINE
  5
75D
330
1F
100
AcDbEntity
  8
2
  6
CONTINUOUS
370
25
 62
7
100
AcDbLine
 10
14.45632084051391
 20
28.80861416810278
 30
0.0
 11
15.47798126077087
 21
27.78695374784582
 31
0.0
  0
LINE
  5
75E
330
1F
100
AcDbEntity
  8
2
  6
CONTINUOUS
370
25
 62
7
100
AcDbLine
 10
14.80987423110719
 20
28.87932484622144
 30
0.0
 11
16.00831134666078
 21
27.68088773066784
 31
0.0
  0
LINE
  5
75F
330
1F
100
AcDbEntity
  8
2
  6
CONTINUOUS
370
25
 62
7
100
AcDbLine
 10
15.16342762170046
 20
28.95003552434009
 30
0.0
 11
16.53864143255069
 21
27.57482171348986
 31
0.0
  0
LINE
  5
760
330
1F
100
AcDbEntity
  8
2
  6
CONTINUOUS
370
25
 62
7
100
AcDbLine
 10
15.51698101229374
 20
29.02074620245875
 30
0.0
 11
17.06897151844061
 21
27.46875569631187
 31
0.0
  0
LINE
  5
761
330
1F
100
AcDbEntity
  8
2
  6
CONTINUOUS
370
25
 62
7
100
AcDbLine
 10
15.87053440288701
 20
29.0914568805774
 30
0.0
 11
17.413
 21
27.54899128346441
 31
0.0
  0
LINE
  5
762
330
1F
100
AcDbEntity
  8
2
  6
CONTINUOUS
370
25
 62
7
100
AcDbLine
 10
16.22408779348029
 20
29.16216755869605
 30
0.0
 11
17.413
 21
27.97325535217634
 31
0.0
  0
LINE
  5
763
330
1F
100
AcDbEntity
  8
2
  6
CONTINUOUS
370
25
 62
7
100
AcDbLine
 10
16.57764118407356
 20
29.23287823681471
 30
0.0
 11
17.413
 21
28.39751942088827
 31
0.0
  0
LINE
  5
764
330
1F
100
AcDbEntity
  8
2
  6
CONTINUOUS
370
25
 62
7
100
AcDbLine
 10
16.93119457466683
 20
29.30358891493336
 30
0.0
 11
17.413
 21
28.82178348960019
 31
0.0
  0
LINE
  5
765
330
1F
100
AcDbEntity
  8
2
  6
CONTINUOUS
370
25
 62
7
100
AcDbLine
 10
17.28474796526011
 20
29.37429959305202
 30
0.0
 11
17.413
 21
29.24604755831212
 31
0.0
  0
TEXT
  5
766
330
1F
100
AcDbEntity
  8
2
  6
CONTINUOUS
370
25
 62
7
100
AcDbText
 10
19.17133333333333
 20
29.89995
 30
0.0
 40
3.5
  1
12.423
 72
     1
 11
27.338
 21
29.89995
 31
0.0
100
AcDbText
  0
LINE
  5
767
330
1F
100
AcDbEntity
  8
SK2
  6
CONTINUOUS
370
25
 62
7
100
AcDbLine
 10
-62.587
 20
0.9999500000000001
 30
0.0
 11
-62.587
 21
39.39995
 31
0.0
  0
LINE
  5
768
330
1F
100
AcDbEntity
  8
SK2
  6
CONTINUOUS
370
25
 62
7
100
AcDbLine
 10
12.413
 20
39.39995
 30
0.0
 11
12.413
 21
0.5
 31
0.0
  0
LINE
  5
769
330
1F
100
AcDbEntity
  8
SK2
  6
CONTINUOUS
370
25
 62
7
100
AcDbLine
 10
-62.587
 20
38.39995
 30
0.0
 11
12.413
 21
38.39995
 31
0.0
  0
LINE
  5
76A
330
1F
100
AcDbEntity
  8
SK2
  6
CONTINUOUS
370
25
 62
7
100
AcDbLine
 10
-62.587
 20
38.39995
 30
0.0
 11
-57.587
 21
39.39995
 31
0.0
  0
LINE
  5
76B
330
1F
100
AcDbEntity
  8
SK2
  6
CONTINUOUS
370
25
 62
7
100
AcDbLine
 10
-57.587
 20
39.39995
 30
0.0
 11
-57.587
 21
37.39995
 31
0.0
  0
LINE
  5
76C
330
1F
100
AcDbEntity
  8
SK2
  6
CONTINUOUS
370
25
 62
7
100
AcDbLine
 10
-57.587
 20
37.39995
 30
0.0
 11
-62.587
 21
38.39995
 31
0.0
  0
LINE
  5
76D
330
1F
100
AcDbEntity
  8
SK2
  6
CONTINUOUS
370
25
 62
7
100
AcDbLine
 10
-57.63550115956
 20
37.40965023191199
 30
0.0
 11
-57.587
 21
37.45815139147199
 31
0.0
  0
LINE
  5
76E
330
1F
100
AcDbEntity
  8
SK2
  6
CONTINUOUS
370
25
 62
7
100
AcDbLine
 10
-57.98905455015326
 20
37.48036091003066
 30
0.0
 11
-57.587
 21
37.88241546018393
 31
0.0
  0
LINE
  5
76F
330
1F
100
AcDbEntity
  8
SK2
  6
CONTINUOUS
370
25
 62
7
100
AcDbLine
 10
-58.34260794074655
 20
37.55107158814931
 30
0.0
 11
-57.587
 21
38.30667952889586
 31
0.0
  0
LINE
  5
770
330
1F
100
AcDbEntity
  8
SK2
  6
CONTINUOUS
370
25
 62
7
100
AcDbLine
 10
-58.69616133133982
 20
37.62178226626796
 30
0.0
 11
-57.587
 21
38.7309435976078
 31
0.0
  0
LINE
  5
771
330
1F
100
AcDbEntity
  8
SK2
  6
CONTINUOUS
370
25
 62
7
100
AcDbLine
 10
-59.04971472193311
 20
37.69249294438661
 30
0.0
 11
-57.587
 21
39.15520766631973
 31
0.0
  0
LINE
  5
772
330
1F
100
AcDbEntity
  8
SK2
  6
CONTINUOUS
370
25
 62
7
100
AcDbLine
 10
-59.40326811252638
 20
37.76320362250527
 30
0.0
 11
-57.81140216878958
 21
39.35506956624209
 31
0.0
  0
LINE
  5
773
330
1F
100
AcDbEntity
  8
SK2
  6
CONTINUOUS
370
25
 62
7
100
AcDbLine
 10
-59.75682150311967
 20
37.83391430062392
 30
0.0
 11
-58.3417322546795
 21
39.2490035490641
 31
0.0
  0
LINE
  5
774
330
1F
100
AcDbEntity
  8
SK2
  6
CONTINUOUS
370
25
 62
7
100
AcDbLine
 10
-60.11037489371293
 20
37.90462497874259
 30
0.0
 11
-58.87206234056941
 21
39.14293753188612
 31
0.0
  0
LINE
  5
775
330
1F
100
AcDbEntity
  8
SK2
  6
CONTINUOUS
370
25
 62
7
100
AcDbLine
 10
-60.46392828430623
 20
37.97533565686123
 30
0.0
 11
-59.40239242645933
 21
39.03687151470813
 31
0.0
  0
LINE
  5
776
330
1F
100
AcDbEntity
  8
SK2
  6
CONTINUOUS
370
25
 62
7
100
AcDbLine
 10
-60.81748167489948
 20
38.0460463349799
 30
0.0
 11
-59.93272251234923
 21
38.93080549753015
 31
0.0
  0
LINE
  5
777
330
1F
100
AcDbEntity
  8
SK2
  6
CONTINUOUS
370
25
 62
7
100
AcDbLine
 10
-61.17103506549277
 20
38.11675701309854
 30
0.0
 11
-60.46305259823915
 21
38.82473948035216
 31
0.0
  0
LINE
  5
778
330
1F
100
AcDbEntity
  8
SK2
  6
CONTINUOUS
370
25
 62
7
100
AcDbLine
 10
-61.52458845608603
 20
38.18746769121721
 30
0.0
 11
-60.99338268412905
 21
38.71867346317418
 31
0.0
  0
LINE
  5
779
330
1F
100
AcDbEntity
  8
SK2
  6
CONTINUOUS
370
25
 62
7
100
AcDbLine
 10
-61.87814184667932
 20
38.25817836933585
 30
0.0
 11
-61.52371277001897
 21
38.6126074459962
 31
0.0
  0
LINE
  5
77A
330
1F
100
AcDbEntity
  8
SK2
  6
CONTINUOUS
370
25
 62
7
100
AcDbLine
 10
-62.2316952372726
 20
38.32888904745451
 30
0.0
 11
-62.05404285590888
 21
38.50654142881822
 31
0.0
  0
LINE
  5
77B
330
1F
100
AcDbEntity
  8
SK2
  6
CONTINUOUS
370
25
 62
7
100
AcDbLine
 10
-62.58524862786587
 20
38.39959972557316
 30
0.0
 11
-62.58437294179878
 21
38.40047541164024
 31
0.0
  0
LINE
  5
77C
330
1F
100
AcDbEntity
  8
SK2
  6
CONTINUOUS
370
25
 62
7
100
AcDbLine
 10
-62.56803332867771
 20
38.40374333426446
 30
0.0
 11
-62.55854999301656
 21
38.39425999860331
 31
0.0
  0
LINE
  5
77D
330
1F
100
AcDbEntity
  8
SK2
  6
CONTINUOUS
370
25
 62
7
100
AcDbLine
 10
-62.21447993808444
 20
38.47445401238311
 30
0.0
 11
-62.02821990712666
 21
38.28819398142534
 31
0.0
  0
LINE
  5
77E
330
1F
100
AcDbEntity
  8
SK2
  6
CONTINUOUS
370
25
 62
7
100
AcDbLine
 10
-61.86092654749115
 20
38.54516469050176
 30
0.0
 11
-61.49788982123675
 21
38.18212796424735
 31
0.0
  0
LINE
  5
77F
330
1F
100
AcDbEntity
  8
SK2
  6
CONTINUOUS
370
25
 62
7
100
AcDbLine
 10
-61.50737315689788
 20
38.61587536862042
 30
0.0
 11
-60.96755973534681
 21
38.07606194706936
 31
0.0
  0
LINE
  5
780
330
1F
100
AcDbEntity
  8
SK2
  6
CONTINUOUS
370
25
 62
7
100
AcDbLine
 10
-61.1538197663046
 20
38.68658604673907
 30
0.0
 11
-60.43722964945691
 21
37.96999592989138
 31
0.0
  0
LINE
  5
781
330
1F
100
AcDbEntity
  8
SK2
  6
CONTINUOUS
370
25
 62
7
100
AcDbLine
 10
-60.80026637571132
 20
38.75729672485773
 30
0.0
 11
-59.90689956356697
 21
37.86392991271339
 31
0.0
  0
LINE
  5
782
330
1F
100
AcDbEntity
  8
SK2
  6
CONTINUOUS
370
25
 62
7
100
AcDbLine
 10
-60.44671298511805
 20
38.82800740297638
 30
0.0
 11
-59.37656947767707
 21
37.75786389553542
 31
0.0
  0
LINE
  5
783
330
1F
100
AcDbEntity
  8
SK2
  6
CONTINUOUS
370
25
 62
7
100
AcDbLine
 10
-60.09315959452478
 20
38.89871808109505
 30
0.0
 11
-58.84623939178715
 21
37.65179787835742
 31
0.0
  0
LINE
  5
784
330
1F
100
AcDbEntity
  8
SK2
  6
CONTINUOUS
370
25
 62
7
100
AcDbLine
 10
-59.73960620393149
 20
38.96942875921368
 30
0.0
 11
-58.31590930589723
 21
37.54573186117945
 31
0.0
  0
LINE
  5
785
330
1F
100
AcDbEntity
  8
SK2
  6
CONTINUOUS
370
25
 62
7
100
AcDbLine
 10
-59.38605281333822
 20
39.04013943733236
 30
0.0
 11
-57.78557922000731
 21
37.43966584400145
 31
0.0
  0
LINE
  5
786
330
1F
100
AcDbEntity
  8
SK2
  6
CONTINUOUS
370
25
 62
7
100
AcDbLine
 10
-59.03249942274494
 20
39.11085011545101
 30
0.0
 11
-57.587
 21
37.66535069270608
 31
0.0
  0
LINE
  5
787
330
1F
100
AcDbEntity
  8
SK2
  6
CONTINUOUS
370
25
 62
7
100
AcDbLine
 10
-58.67894603215167
 20
39.18156079356967
 30
0.0
 11
-57.587
 21
38.08961476141801
 31
0.0
  0
LINE
  5
788
330
1F
100
AcDbEntity
  8
SK2
  6
CONTINUOUS
370
25
 62
7
100
AcDbLine
 10
-58.32539264155838
 20
39.25227147168832
 30
0.0
 11
-57.587
 21
38.51387883012994
 31
0.0
  0
LINE
  5
789
330
1F
100
AcDbEntity
  8
SK2
  6
CONTINUOUS
370
25
 62
7
100
AcDbLine
 10
-57.9718392509651
 20
39.32298214980698
 30
0.0
 11
-57.587
 21
38.93814289884187
 31
0.0
  0
LINE
  5
78A
330
1F
100
AcDbEntity
  8
SK2
  6
CONTINUOUS
370
25
 62
7
100
AcDbLine
 10
-57.61828586037183
 20
39.39369282792563
 30
0.0
 11
-57.587
 21
39.3624069675538
 31
0.0
  0
LINE
  5
78B
330
1F
100
AcDbEntity
  8
SK2
  6
CONTINUOUS
370
25
 62
7
100
AcDbLine
 10
12.413
 20
38.39995
 30
0.0
 11
7.413000000000002
 21
37.39995
 31
0.0
  0
LINE
  5
78C
330
1F
100
AcDbEntity
  8
SK2
  6
CONTINUOUS
370
25
 62
7
100
AcDbLine
 10
7.413000000000002
 20
37.39995
 30
0.0
 11
7.413000000000002
 21
39.39995
 31
0.0
  0
LINE
  5
78D
330
1F
100
AcDbEntity
  8
SK2
  6
CONTINUOUS
370
25
 62
7
100
AcDbLine
 10
7.413000000000002
 20
39.39995
 30
0.0
 11
12.413
 21
38.39995
 31
0.0
  0
LINE
  5
78E
330
1F
100
AcDbEntity
  8
SK2
  6
CONTINUOUS
370
25
 62
7
100
AcDbLine
 10
12.0037221748256
 20
38.31809443496512
 30
0.0
 11
12.1401481165504
 21
38.45452037668991
 31
0.0
  0
LINE
  5
78F
330
1F
100
AcDbEntity
  8
SK2
  6
CONTINUOUS
370
25
 62
7
100
AcDbLine
 10
11.47339208893569
 20
38.21202841778714
 30
0.0
 11
11.78659472595713
 21
38.52523105480857
 31
0.0
  0
LINE
  5
790
330
1F
100
AcDbEntity
  8
SK2
  6
CONTINUOUS
370
25
 62
7
100
AcDbLine
 10
10.94306200304577
 20
38.10596240060915
 30
0.0
 11
11.43304133536385
 21
38.59594173292723
 31
0.0
  0
LINE
  5
791
330
1F
100
AcDbEntity
  8
SK2
  6
CONTINUOUS
370
25
 62
7
100
AcDbLine
 10
10.41273191715586
 20
37.99989638343117
 30
0.0
 11
11.07948794477057
 21
38.66665241104588
 31
0.0
  0
LINE
  5
792
330
1F
100
AcDbEntity
  8
SK2
  6
CONTINUOUS
370
25
 62
7
100
AcDbLine
 10
9.882401831265948
 20
37.89383036625318
 30
0.0
 11
10.7259345541773
 21
38.73736308916454
 31
0.0
  0
LINE
  5
793
330
1F
100
AcDbEntity
  8
SK2
  6
CONTINUOUS
370
25
 62
7
100
AcDbLine
 10
9.352071745376033
 20
37.7877643490752
 30
0.0
 11
10.37238116358402
 21
38.80807376728319
 31
0.0
  0
LINE
  5
794
330
1F
100
AcDbEntity
  8
SK2
  6
CONTINUOUS
370
25
 62
7
100
AcDbLine
 10
8.82174165948612
 20
37.68169833189722
 30
0.0
 11
10.01882777299075
 21
38.87878444540185
 31
0.0
  0
LINE
  5
795
330
1F
100
AcDbEntity
  8
SK2
  6
CONTINUOUS
370
25
 62
7
100
AcDbLine
 10
8.291411573596207
 20
37.57563231471924
 30
0.0
 11
9.665274382397472
 21
38.94949512352051
 31
0.0
  0
LINE
  5
796
330
1F
100
AcDbEntity
  8
SK2
  6
CONTINUOUS
370
25
 62
7
100
AcDbLine
 10
7.761081487706293
 20
37.46956629754126
 30
0.0
 11
9.311720991804195
 21
39.02020580163916
 31
0.0
  0
LINE
  5
797
330
1F
100
AcDbEntity
  8
SK2
  6
CONTINUOUS
370
25
 62
7
100
AcDbLine
 10
7.413000000000002
 20
37.5457488785469
 30
0.0
 11
8.95816760121092
 21
39.09091647975782
 31
0.0
  0
LINE
  5
798
330
1F
100
AcDbEntity
  8
SK2
  6
CONTINUOUS
370
25
 62
7
100
AcDbLine
 10
7.413000000000002
 20
37.97001294725882
 30
0.0
 11
8.604614210617644
 21
39.16162715787647
 31
0.0
  0
LINE
  5
799
330
1F
100
AcDbEntity
  8
SK2
  6
CONTINUOUS
370
25
 62
7
100
AcDbLine
 10
7.413000000000002
 20
38.39427701597076
 30
0.0
 11
8.251060820024367
 21
39.23233783599512
 31
0.0
  0
LINE
  5
79A
330
1F
100
AcDbEntity
  8
SK2
  6
CONTINUOUS
370
25
 62
7
100
AcDbLine
 10
7.413000000000002
 20
38.81854108468269
 30
0.0
 11
7.897507429431093
 21
39.30304851411378
 31
0.0
  0
LINE
  5
79B
330
1F
100
AcDbEntity
  8
SK2
  6
CONTINUOUS
370
25
 62
7
100
AcDbLine
 10
7.413000000000002
 20
39.24280515339463
 30
0.0
 11
7.543954038837813
 21
39.37375919223243
 31
0.0
  0
LINE
  5
79C
330
1F
100
AcDbEntity
  8
SK2
  6
CONTINUOUS
370
25
 62
7
100
AcDbLine
 10
7.413000000000002
 20
37.54899128346437
 30
0.0
 11
7.537201069553649
 21
37.42479021391073
 31
0.0
  0
LINE
  5
79D
330
1F
100
AcDbEntity
  8
SK2
  6
CONTINUOUS
370
25
 62
7
100
AcDbLine
 10
7.413000000000002
 20
37.9732553521763
 30
0.0
 11
7.890754460146922
 21
37.49550089202938
 31
0.0
  0
LINE
  5
79E
330
1F
100
AcDbEntity
  8
SK2
  6
CONTINUOUS
370
25
 62
7
100
AcDbLine
 10
7.413000000000002
 20
38.39751942088824
 30
0.0
 11
8.244307850740201
 21
37.56621157014803
 31
0.0
  0
LINE
  5
79F
330
1F
100
AcDbEntity
  8
SK2
  6
CONTINUOUS
370
25
 62
7
100
AcDbLine
 10
7.413000000000002
 20
38.82178348960016
 30
0.0
 11
8.597861241333474
 21
37.63692224826669
 31
0.0
  0
LINE
  5
7A0
330
1F
100
AcDbEntity
  8
SK2
  6
CONTINUOUS
370
25
 62
7
100
AcDbLine
 10
7.413000000000002
 20
39.2460475583121
 30
0.0
 11
8.951414631926752
 21
37.70763292638534
 31
0.0
  0
LINE
  5
7A1
330
1F
100
AcDbEntity
  8
SK2
  6
CONTINUOUS
370
25
 62
7
100
AcDbLine
 10
7.750952033780037
 20
39.33235959324399
 30
0.0
 11
9.304968022520026
 21
37.778343604504
 31
0.0
  0
LINE
  5
7A2
330
1F
100
AcDbEntity
  8
SK2
  6
CONTINUOUS
370
25
 62
7
100
AcDbLine
 10
8.281282119669955
 20
39.22629357606601
 30
0.0
 11
9.658521413113306
 21
37.84905428262266
 31
0.0
  0
LINE
  5
7A3
330
1F
100
AcDbEntity
  8
SK2
  6
CONTINUOUS
370
25
 62
7
100
AcDbLine
 10
8.811612205559864
 20
39.12022755888803
 30
0.0
 11
10.01207480370658
 21
37.91976496074131
 31
0.0
  0
LINE
  5
7A4
330
1F
100
AcDbEntity
  8
SK2
  6
CONTINUOUS
370
25
 62
7
100
AcDbLine
 10
9.341942291449783
 20
39.01416154171004
 30
0.0
 11
10.36562819429986
 21
37.99047563885997
 31
0.0
  0
LINE
  5
7A5
330
1F
100
AcDbEntity
  8
SK2
  6
CONTINUOUS
370
25
 62
7
100
AcDbLine
 10
9.872272377339693
 20
38.90809552453206
 30
0.0
 11
10.71918158489313
 21
38.06118631697862
 31
0.0
  0
LINE
  5
7A6
330
1F
100
AcDbEntity
  8
SK2
  6
CONTINUOUS
370
25
 62
7
100
AcDbLine
 10
10.40260246322961
 20
38.80202950735408
 30
0.0
 11
11.07273497548641
 21
38.13189699509728
 31
0.0
  0
LINE
  5
7A7
330
1F
100
AcDbEntity
  8
SK2
  6
CONTINUOUS
370
25
 62
7
100
AcDbLine
 10
10.93293254911952
 20
38.6959634901761
 30
0.0
 11
11.42628836607968
 21
38.20260767321594
 31
0.0
  0
LINE
  5
7A8
330
1F
100
AcDbEntity
  8
SK2
  6
CONTINUOUS
370
25
 62
7
100
AcDbLine
 10
11.46326263500944
 20
38.58989747299811
 30
0.0
 11
11.77984175667296
 21
38.27331835133459
 31
0.0
  0
LINE
  5
7A9
330
1F
100
AcDbEntity
  8
SK2
  6
CONTINUOUS
370
25
 62
7
100
AcDbLine
 10
11.99359272089936
 20
38.48383145582012
 30
0.0
 11
12.13339514726624
 21
38.34402902945324
 31
0.0
  0
TEXT
  5
7AA
330
1F
100
AcDbEntity
  8
SK2
  6
CONTINUOUS
370
25
 62
7
100
AcDbText
 10
-28.00366666666667
 20
39.89995
 30
0.0
 40
3.5
  1
75
 72
     1
 11
-25.087
 21
39.89995
 31
0.0
100
AcDbText
  0
LINE
  5
7AB
330
1F
100
AcDbEntity
  8
2
  6
CONTINUOUS
370
25
 62
7
100
AcDbLine
 10
12.26809269
 20
-0.35200736
 30
0.0
 11
36.91603532569931
 21
-24.99994999569928
 31
0.0
  0
LINE
  5
7AC
330
1F
100
AcDbEntity
  8
2
  6
CONTINUOUS
370
25
 62
7
100
AcDbLine
 10
36.91603532569931
 20
-24.99994999569928
 30
0.0
 11
50.34103532569931
 21
-24.99994999569928
 31
0.0
  0
LINE
  5
7AD
330
1F
100
AcDbEntity
  8
2
  6
CONTINUOUS
370
25
 62
7
100
AcDbLine
 10
12.26809269
 20
-0.35200736
 30
0.0
 11
11.91453929940673
 21
0.0015460305932738
 31
0.0
  0
LINE
  5
7AE
330
1F
100
AcDbEntity
  8
2
  6
CONTINUOUS
370
25
 62
7
100
AcDbLine
 10
12.26809269
 20
-0.35200736
 30
0.0
 11
16.51073337711928
 21
-3.180434484746187
 31
0.0
  0
LINE
  5
7AF
330
1F
100
AcDbEntity
  8
2
  6
CONTINUOUS
370
25
 62
7
100
AcDbLine
 10
16.51073337711928
 20
-3.180434484746187
 30
0.0
 11
15.09651981474619
 21
-4.594648047119283
 31
0.0
  0
LINE
  5
7B0
330
1F
100
AcDbEntity
  8
2
  6
CONTINUOUS
370
25
 62
7
100
AcDbLine
 10
15.09651981474619
 20
-4.594648047119283
 30
0.0
 11
12.26809269
 21
-0.35200736
 31
0.0
  0
LINE
  5
7B1
330
1F
100
AcDbEntity
  8
2
  6
CONTINUOUS
370
25
 62
7
100
AcDbLine
 10
14.94425568521321
 20
-4.366251852819804
 30
0.0
 11
16.28233718281981
 21
-3.028170355213202
 31
0.0
  0
LINE
  5
7B2
330
1F
100
AcDbEntity
  8
2
  6
CONTINUOUS
370
25
 62
7
100
AcDbLine
 10
14.77455005772844
 20
-4.111693411592645
 30
0.0
 11
16.02777874159265
 21
-2.858464727728432
 31
0.0
  0
LINE
  5
7B3
330
1F
100
AcDbEntity
  8
2
  6
CONTINUOUS
370
25
 62
7
100
AcDbLine
 10
14.60484443024367
 20
-3.857134970365488
 30
0.0
 11
15.77322030036549
 21
-2.68875910024366
 31
0.0
  0
LINE
  5
7B4
330
1F
100
AcDbEntity
  8
2
  6
CONTINUOUS
370
25
 62
7
100
AcDbLine
 10
14.43513880275889
 20
-3.602576529138332
 30
0.0
 11
15.51866185913834
 21
-2.519053472758889
 31
0.0
  0
LINE
  5
7B5
330
1F
100
AcDbEntity
  8
2
  6
CONTINUOUS
370
25
 62
7
100
AcDbLine
 10
14.26543317527412
 20
-3.348018087911175
 30
0.0
 11
15.26410341791118
 21
-2.349347845274117
 31
0.0
  0
LINE
  5
7B6
330
1F
100
AcDbEntity
  8
2
  6
CONTINUOUS
370
25
 62
7
100
AcDbLine
 10
14.09572754778935
 20
-3.093459646684019
 30
0.0
 11
15.00954497668402
 21
-2.179642217789347
 31
0.0
  0
LINE
  5
7B7
330
1F
100
AcDbEntity
  8
2
  6
CONTINUOUS
370
25
 62
7
100
AcDbLine
 10
13.92602192030458
 20
-2.838901205456862
 30
0.0
 11
14.75498653545687
 21
-2.009936590304576
 31
0.0
  0
LINE
  5
7B8
330
1F
100
AcDbEntity
  8
2
  6
CONTINUOUS
370
25
 62
7
100
AcDbLine
 10
13.75631629281981
 20
-2.584342764229708
 30
0.0
 11
14.50042809422971
 21
-1.840230962819806
 31
0.0
  0
LINE
  5
7B9
330
1F
100
AcDbEntity
  8
2
  6
CONTINUOUS
370
25
 62
7
100
AcDbLine
 10
13.58661066533504
 20
-2.329784323002551
 30
0.0
 11
14.24586965300255
 21
-1.670525335335034
 31
0.0
  0
LINE
  5
7BA
330
1F
100
AcDbEntity
  8
2
  6
CONTINUOUS
370
25
 62
7
100
AcDbLine
 10
13.41690503785027
 20
-2.075225881775394
 30
0.0
 11
13.9913112117754
 21
-1.500819707850264
 31
0.0
  0
LINE
  5
7BB
330
1F
100
AcDbEntity
  8
2
  6
CONTINUOUS
370
25
 62
7
100
AcDbLine
 10
13.24719941036549
 20
-1.820667440548236
 30
0.0
 11
13.73675277054824
 21
-1.331114080365493
 31
0.0
  0
LINE
  5
7BC
330
1F
100
AcDbEntity
  8
2
  6
CONTINUOUS
370
25
 62
7
100
AcDbLine
 10
13.07749378288072
 20
-1.566108999321083
 30
0.0
 11
13.48219432932108
 21
-1.161408452880723
 31
0.0
  0
LINE
  5
7BD
330
1F
100
AcDbEntity
  8
2
  6
CONTINUOUS
370
25
 62
7
100
AcDbLine
 10
12.90778815539595
 20
-1.311550558093924
 30
0.0
 11
13.22763588809392
 21
-0.9917028253959526
 31
0.0
  0
LINE
  5
7BE
330
1F
100
AcDbEntity
  8
2
  6
CONTINUOUS
370
25
 62
7
100
AcDbLine
 10
12.73808252791118
 20
-1.05699211686677
 30
0.0
 11
12.97307744686677
 21
-0.8219971979111804
 31
0.0
  0
LINE
  5
7BF
330
1F
100
AcDbEntity
  8
2
  6
CONTINUOUS
370
25
 62
7
100
AcDbLine
 10
12.56837690042641
 20
-0.8024336756396124
 30
0.0
 11
12.71851900563961
 21
-0.6522915704264101
 31
0.0
  0
LINE
  5
7C0
330
1F
100
AcDbEntity
  8
2
  6
CONTINUOUS
370
25
 62
7
100
AcDbLine
 10
12.39867127294164
 20
-0.5478752344124551
 30
0.0
 11
12.46396056441245
 21
-0.4825859429416379
 31
0.0
  0
LINE
  5
7C1
330
1F
100
AcDbEntity
  8
2
  6
CONTINUOUS
370
25
 62
7
100
AcDbLine
 10
14.90705991440357
 20
-4.310458196605348
 30
0.0
 11
15.14388478983185
 21
-4.547283072033622
 31
0.0
  0
LINE
  5
7C2
330
1F
100
AcDbEntity
  8
2
  6
CONTINUOUS
370
25
 62
7
100
AcDbLine
 10
14.05853177697971
 20
-3.037665990469566
 30
0.0
 11
15.35601682418781
 21
-4.33515103767766
 31
0.0
  0
LINE
  5
7C3
330
1F
100
AcDbEntity
  8
2
  6
CONTINUOUS
370
25
 62
7
100
AcDbLine
 10
13.21000363955586
 20
-1.764873784333782
 30
0.0
 11
15.56814885854377
 21
-4.123019003321696
 31
0.0
  0
LINE
  5
7C4
330
1F
100
AcDbEntity
  8
2
  6
CONTINUOUS
370
25
 62
7
100
AcDbLine
 10
12.361475502132
 20
-0.4920815781979986
 30
0.0
 11
15.78028089289974
 21
-3.910886968965732
 31
0.0
  0
LINE
  5
7C5
330
1F
100
AcDbEntity
  8
2
  6
CONTINUOUS
370
25
 62
7
100
AcDbLine
 10
13.4008106779378
 20
-1.107152685291865
 30
0.0
 11
15.9924129272557
 21
-3.698754934609767
 31
0.0
  0
LINE
  5
7C6
330
1F
100
AcDbEntity
  8
2
  6
CONTINUOUS
370
25
 62
7
100
AcDbLine
 10
14.67360288407358
 20
-1.955680822715721
 30
0.0
 11
16.20454496161166
 21
-3.486622900253803
 31
0.0
  0
LINE
  5
7C7
330
1F
100
AcDbEntity
  8
2
  6
CONTINUOUS
370
25
 62
7
100
AcDbLine
 10
15.94639509020936
 20
-2.804208960139574
 30
0.0
 11
16.41667699596763
 21
-3.274490865897839
 31
0.0
  0
TEXT
  5
7C8
330
1F
100
AcDbEntity
  8
2
  6
CONTINUOUS
370
25
 62
7
100
AcDbText
 10
38.67020199236597
 20
-23.49994999569928
 30
0.0
 40
3.5
  1
R0.5
 72
     1
 11
43.62853532569931
 21
-23.49994999569928
 31
0.0
100
AcDbText
  0
LINE
  5
7C9
330
1F
100
AcDbEntity
  8
SK1
  6
CONTINUOUS
370
50
 62
4
100
AcDbLine
 10
-0.01
 20
0.0
 30
0.0
 11
2.49
 21
0.0
 31
0.0
  0
LINE
  5
7CA
330
1F
100
AcDbEntity
  8
SK1
  6
CONTINUOUS
370
50
 62
4
100
AcDbLine
 10
-0.01
 20
0.0
 30
0.0
 11
-0.01
 21
2.5
 31
0.0
  0
ARC
  5
7CB
330
1F
100
AcDbEntity
  8
SK1
  6
CONTINUOUS
370
50
 62
4
100
AcDbCircle
 10
-0.01
 20
0.0
 30
0.0
 40
2.5
100
AcDbArc
 50
0.0
 51
90.0
  0
LINE
  5
7CC
330
1F
100
AcDbEntity
  8
SK1
  6
CONTINUOUS
370
50
 62
4
100
AcDbLine
 10
-0.01
 20
0.0
 30
0.0
 11
-2.51
 21
0.0
 31
0.0
  0
ARC
  5
7CD
330
1F
100
AcDbEntity
  8
SK1
  6
CONTINUOUS
370
50
 62
4
100
AcDbCircle
 10
-0.01
 20
0.0
 30
0.0
 40
2.5
100
AcDbArc
 50
180.0
 51
270.0
  0
LINE
  5
7CE
330
1F
100
AcDbEntity
  8
SK1
  6
CONTINUOUS
370
50
 62
4
100
AcDbLine
 10
-0.01
 20
-2.5
 30
0.0
 11
-0.01
 21
0.0
 31
0.0
  0
ARC
  5
7CF
330
1F
100
AcDbEntity
  8
SK1
  6
CONTINUOUS
370
50
 62
4
100
AcDbCircle
 10
-0.01
 20
0.0
 30
0.0
 40
2.5
100
AcDbArc
 50
270.0
 51
0.0
  0
ARC
  5
7D0
330
1F
100
AcDbEntity
  8
SK1
  6
CONTINUOUS
370
50
 62
4
100
AcDbCircle
 10
-0.01
 20
0.0
 30
0.0
 40
2.5
100
AcDbArc
 50
90.0
 51
180.0
  0
LINE
  5
7D1
330
1F
100
AcDbEntity
  8
SK1
  6
CONTINUOUS
370
50
 62
4
100
AcDbLine
 10
-0.32832627443191
 20
-2.479495909600069
 30
0.0
 11
-0.01
 21
-2.161169635168159
 31
0.0
  0
LINE
  5
7D2
330
1F
100
AcDbEntity
  8
SK1
  6
CONTINUOUS
370
50
 62
4
100
AcDbLine
 10
2.15116963516816
 20
0.0
 30
0.0
 11
2.469495909600069
 21
0.3183262744319091
 31
0.0
  0
LINE
  5
7D3
330
1F
100
AcDbEntity
  8
SK1
  6
CONTINUOUS
370
50
 62
4
100
AcDbLine
 10
-0.625281817185723
 20
-2.422898061760609
 30
0.0
 11
-0.01
 21
-1.807616244574886
 31
0.0
  0
LINE
  5
7D4
330
1F
100
AcDbEntity
  8
SK1
  6
CONTINUOUS
370
50
 62
4
100
AcDbLine
 10
1.797616244574887
 20
0.0
 30
0.0
 11
2.412898061760609
 21
0.6152818171857222
 31
0.0
  0
LINE
  5
7D5
330
1F
100
AcDbEntity
  8
SK1
  6
CONTINUOUS
370
50
 62
4
100
AcDbLine
 10
-0.8935965231639721
 20
-2.337659377145585
 30
0.0
 11
-0.01
 21
-1.454062853981614
 31
0.0
  0
LINE
  5
7D6
330
1F
100
AcDbEntity
  8
SK1
  6
CONTINUOUS
370
50
 62
4
100
AcDbLine
 10
1.444062853981614
 20
0.0
 30
0.0
 11
2.327659377145586
 21
0.8835965231639715
 31
0.0
  0
LINE
  5
7D7
330
1F
100
AcDbEntity
  8
SK1
  6
CONTINUOUS
370
50
 62
4
100
AcDbLine
 10
-1.138779664263143
 20
-2.229289127651483
 30
0.0
 11
-0.01
 21
-1.100509463388341
 31
0.0
  0
LINE
  5
7D8
330
1F
100
AcDbEntity
  8
SK1
  6
CONTINUOUS
370
50
 62
4
100
AcDbLine
 10
1.090509463388341
 20
0.0
 30
0.0
 11
2.219289127651484
 21
1.128779664263142
 31
0.0
  0
LINE
  5
7D9
330
1F
100
AcDbEntity
  8
SK1
  6
CONTINUOUS
370
50
 62
4
100
AcDbLine
 10
-1.364032791010379
 20
-2.100988863805446
 30
0.0
 11
-0.01
 21
-0.7469560727950677
 31
0.0
  0
LINE
  5
7DA
330
1F
100
AcDbEntity
  8
SK1
  6
CONTINUOUS
370
50
 62
4
100
AcDbLine
 10
0.736956072795068
 20
0.0
 30
0.0
 11
2.090988863805447
 21
1.354032791010378
 31
0.0
  0
LINE
  5
7DB
330
1F
100
AcDbEntity
  8
SK1
  6
CONTINUOUS
370
50
 62
4
100
AcDbLine
 10
-1.569387394659872
 20
-1.952790076861666
 30
0.0
 11
-0.01
 21
-0.3934026822017946
 31
0.0
  0
LINE
  5
7DC
330
1F
100
AcDbEntity
  8
SK1
  6
CONTINUOUS
370
50
 62
4
100
AcDbLine
 10
0.3834026822017948
 20
0.0
 30
0.0
 11
1.942790076861667
 21
1.559387394659871
 31
0.0
  0
LINE
  5
7DD
330
1F
100
AcDbEntity
  8
SK1
  6
CONTINUOUS
370
50
 62
4
100
AcDbLine
 10
-1.756970020883365
 20
-1.786819312491886
 30
0.0
 11
-0.01
 21
-0.0398492916085216
 31
0.0
  0
LINE
  5
7DE
330
1F
100
AcDbEntity
  8
SK1
  6
CONTINUOUS
370
50
 62
4
100
AcDbLine
 10
0.0298492916085216
 20
0.0
 30
0.0
 11
1.776819312491887
 21
1.746970020883364
 31
0.0
  0
LINE
  5
7DF
330
1F
100
AcDbEntity
  8
SK1
  6
CONTINUOUS
370
50
 62
4
100
AcDbLine
 10
-1.927371878232655
 20
-1.603667779247902
 30
0.0
 11
-0.3237040989847517
 21
0.0
 31
0.0
  0
LINE
  5
7E0
330
1F
100
AcDbEntity
  8
SK1
  6
CONTINUOUS
370
50
 62
4
100
AcDbLine
 10
-0.01
 20
0.3137040989847515
 30
0.0
 11
1.593667779247903
 21
1.917371878232654
 31
0.0
  0
LINE
  5
7E1
330
1F
100
AcDbEntity
  8
SK1
  6
CONTINUOUS
370
50
 62
4
100
AcDbLine
 10
-2.078741231122433
 20
-1.401483741544407
 30
0.0
 11
-0.6772574895780249
 21
0.0
 31
0.0
  0
LINE
  5
7E2
330
1F
100
AcDbEntity
  8
SK1
  6
CONTINUOUS
370
50
 62
4
100
AcDbLine
 10
-0.01
 20
0.6672574895780246
 30
0.0
 11
1.391483741544409
 21
2.068741231122432
 31
0.0
  0
LINE
  5
7E3
330
1F
100
AcDbEntity
  8
SK1
  6
CONTINUOUS
370
50
 62
4
100
AcDbLine
 10
-2.2123876557675
 20
-1.181576775596201
 30
0.0
 11
-1.030810880171298
 21
0.0
 31
0.0
  0
LINE
  5
7E4
330
1F
100
AcDbEntity
  8
SK1
  6
CONTINUOUS
370
50
 62
4
100
AcDbLine
 10
-0.01
 20
1.020810880171298
 30
0.0
 11
1.171576775596202
 21
2.202387655767499
 31
0.0
  0
LINE
  5
7E5
330
1F
100
AcDbEntity
  8
SK1
  6
CONTINUOUS
370
50
 62
4
100
AcDbLine
 10
-2.325450943493525
 20
-0.9410866727289533
 30
0.0
 11
-1.384364270764571
 21
0.0
 31
0.0
  0
LINE
  5
7E6
330
1F
100
AcDbEntity
  8
SK1
  6
CONTINUOUS
370
50
 62
4
100
AcDbLine
 10
-0.01
 20
1.374364270764571
 30
0.0
 11
0.9310866727289543
 21
2.315450943493524
 31
0.0
  0
LINE
  5
7E7
330
1F
100
AcDbEntity
  8
SK1
  6
CONTINUOUS
370
50
 62
4
100
AcDbLine
 10
-2.415290600131854
 20
-0.6773729387740097
 30
0.0
 11
-1.737917661357844
 21
0.0
 31
0.0
  0
LINE
  5
7E8
330
1F
100
AcDbEntity
  8
SK1
  6
CONTINUOUS
370
50
 62
4
100
AcDbLine
 10
-0.01
 20
1.727917661357844
 30
0.0
 11
0.6673729387740106
 21
2.405290600131854
 31
0.0
  0
LINE
  5
7E9
330
1F
100
AcDbEntity
  8
SK1
  6
CONTINUOUS
370
50
 62
4
100
AcDbLine
 10
-2.478598823056026
 20
-0.3871277711049084
 30
0.0
 11
-2.091471051951117
 21
0.0
 31
0.0
  0
LINE
  5
7EA
330
1F
100
AcDbEntity
  8
SK1
  6
CONTINUOUS
370
50
 62
4
100
AcDbLine
 10
-0.01
 20
2.081471051951117
 30
0.0
 11
0.3771277711049085
 21
2.468598823056025
 31
0.0
  0
LINE
  5
7EB
330
1F
100
AcDbEntity
  8
SK1
  6
CONTINUOUS
370
50
 62
4
100
AcDbLine
 10
-2.508020276172772
 20
-0.0629958336283822
 30
0.0
 11
-2.44502444254439
 21
0.0
 31
0.0
  0
LINE
  5
7EC
330
1F
100
AcDbEntity
  8
SK1
  6
CONTINUOUS
370
50
 62
4
100
AcDbLine
 10
-0.01
 20
2.435024442544389
 30
0.0
 11
0.0529958336283828
 21
2.498020276172772
 31
0.0
  0
LINE
  5
7ED
330
1F
100
AcDbEntity
  8
SK1
  6
CONTINUOUS
370
50
 62
4
100
AcDbLine
 10
-2.347336523620827
 20
-0.8844932833271533
 30
0.0
 11
-0.894493283327151
 21
-2.337336523620827
 31
0.0
  0
LINE
  5
7EE
330
1F
100
AcDbEntity
  8
SK1
  6
CONTINUOUS
370
50
 62
4
100
AcDbLine
 10
-2.476237059966593
 20
-0.4020393563881135
 30
0.0
 11
-0.4120393563881111
 21
-2.466237059966594
 31
0.0
  0
LINE
  5
7EF
330
1F
100
AcDbEntity
  8
SK1
  6
CONTINUOUS
370
50
 62
4
100
AcDbLine
 10
-2.509522297881595
 20
-0.0152007278798383
 30
0.0
 11
-0.0252007278798351
 21
-2.499522297881596
 31
0.0
  0
LINE
  5
7F0
330
1F
100
AcDbEntity
  8
SK1
  6
CONTINUOUS
370
50
 62
4
100
AcDbLine
 10
-2.17116963516816
 20
0.0
 30
0.0
 11
-0.01
 21
-2.161169635168158
 31
0.0
  0
LINE
  5
7F1
330
1F
100
AcDbEntity
  8
SK1
  6
CONTINUOUS
370
50
 62
4
100
AcDbLine
 10
-1.817616244574888
 20
0.0
 30
0.0
 11
-0.01
 21
-1.807616244574886
 31
0.0
  0
LINE
  5
7F2
330
1F
100
AcDbEntity
  8
SK1
  6
CONTINUOUS
370
50
 62
4
100
AcDbLine
 10
-1.464062853981615
 20
0.0
 30
0.0
 11
-0.01
 21
-1.454062853981613
 31
0.0
  0
LINE
  5
7F3
330
1F
100
AcDbEntity
  8
SK1
  6
CONTINUOUS
370
50
 62
4
100
AcDbLine
 10
-1.110509463388341
 20
0.0
 30
0.0
 11
-0.01
 21
-1.10050946338834
 31
0.0
  0
LINE
  5
7F4
330
1F
100
AcDbEntity
  8
SK1
  6
CONTINUOUS
370
50
 62
4
100
AcDbLine
 10
-0.7569560727950676
 20
0.0
 30
0.0
 11
-0.01
 21
-0.7469560727950668
 31
0.0
  0
LINE
  5
7F5
330
1F
100
AcDbEntity
  8
SK1
  6
CONTINUOUS
370
50
 62
4
100
AcDbLine
 10
-0.4034026822017942
 20
0.0
 30
0.0
 11
-0.01
 21
-0.3934026822017938
 31
0.0
  0
LINE
  5
7F6
330
1F
100
AcDbEntity
  8
SK1
  6
CONTINUOUS
370
50
 62
4
100
AcDbLine
 10
-0.0498492916085216
 20
0.0
 30
0.0
 11
-0.01
 21
-0.0398492916085216
 31
0.0
  0
LINE
  5
7F7
330
1F
100
AcDbEntity
  8
SK1
  6
CONTINUOUS
370
50
 62
4
100
AcDbLine
 10
-0.01
 20
0.3137040989847515
 30
0.0
 11
0.3037040989847518
 21
0.0
 31
0.0
  0
LINE
  5
7F8
330
1F
100
AcDbEntity
  8
SK1
  6
CONTINUOUS
370
50
 62
4
100
AcDbLine
 10
-0.01
 20
0.6672574895780246
 30
0.0
 11
0.6572574895780253
 21
0.0
 31
0.0
  0
LINE
  5
7F9
330
1F
100
AcDbEntity
  8
SK1
  6
CONTINUOUS
370
50
 62
4
100
AcDbLine
 10
-0.01
 20
1.020810880171298
 30
0.0
 11
1.010810880171299
 21
0.0
 31
0.0
  0
LINE
  5
7FA
330
1F
100
AcDbEntity
  8
SK1
  6
CONTINUOUS
370
50
 62
4
100
AcDbLine
 10
-0.01
 20
1.37436427076457
 30
0.0
 11
1.364364270764571
 21
0.0
 31
0.0
  0
LINE
  5
7FB
330
1F
100
AcDbEntity
  8
SK1
  6
CONTINUOUS
370
50
 62
4
100
AcDbLine
 10
-0.01
 20
1.727917661357843
 30
0.0
 11
1.717917661357845
 21
0.0
 31
0.0
  0
LINE
  5
7FC
330
1F
100
AcDbEntity
  8
SK1
  6
CONTINUOUS
370
50
 62
4
100
AcDbLine
 10
-0.01
 20
2.081471051951116
 30
0.0
 11
2.071471051951118
 21
0.0
 31
0.0
  0
LINE
  5
7FD
330
1F
100
AcDbEntity
  8
SK1
  6
CONTINUOUS
370
50
 62
4
100
AcDbLine
 10
-0.01
 20
2.435024442544389
 30
0.0
 11
2.425024442544392
 21
0.0
 31
0.0
  0
LINE
  5
7FE
330
1F
100
AcDbEntity
  8
SK1
  6
CONTINUOUS
370
50
 62
4
100
AcDbLine
 10
0.2977647139123103
 20
2.480813119225352
 30
0.0
 11
2.470813119225352
 21
0.307764713912313
 31
0.0
  0
LINE
  5
7FF
330
1F
100
AcDbEntity
  8
SK1
  6
CONTINUOUS
370
50
 62
4
100
AcDbLine
 10
0.7511924397506667
 20
2.380938783980268
 30
0.0
 11
2.370938783980268
 21
0.7611924397506691
 31
0.0
  0
LINE
  5
800
330
1F
100
AcDbEntity
  8
SK1
  6
CONTINUOUS
370
50
 62
4
100
AcDbLine
 10
1.47586376213526
 20
2.009820852188948
 30
0.0
 11
1.999820852188946
 21
1.485863762135263
 31
0.0
  0
LINE
  5
801
330
1F
100
AcDbEntity
  8
4
  6
LONGDASH_DASH
370
25
 62
2
100
AcDbLine
 10
-0.01
 20
0.0
 30
0.0
 11
12.413
 21
0.0
 31
0.0
  0
LINE
  5
802
330
1F
100
AcDbEntity
  8
SK4
  6
LONGDASH_DASH
370
25
 62
2
100
AcDbLine
 10
-68.587
 20
0.0
 30
0.0
 11
18.413
 21
0.0
 31
0.0
  0
ENDSEC
  0
SECTION
  2
OBJECTS
  0
DICTIONARY
  5
C
330
0
100
AcDbDictionary
281
     1
  3
ACAD_GROUP
350
D
  3
ACAD_LAYOUT
350
1A
  3
ACAD_MATERIAL
350
3B
  3
ACAD_MLEADERSTYLE
350
805
  3
ACAD_MLINESTYLE
350
17
  3
ACAD_PLOTSETTINGS
350
19
  3
ACAD_PLOTSTYLENAME
350
E
  3
ACAD_SCALELIST
350
225
  3
ACAD_VISUALSTYLE
350
2A
  3
AcDbVariableDictionary
350
803
  0
DICTIONARY
  5
D
102
{ACAD_REACTORS
330
C
102
}
330
C
100
AcDbDictionary
281
     1
  0
DICTIONARY
  5
1A
102
{ACAD_REACTORS
330
C
102
}
330
C
100
AcDbDictionary
281
     1
  3
Layout1
350
1E
  3
Layout2
350
26
  3
Model
350
22
  0
DICTIONARY
  5
3B
102
{ACAD_REACTORS
330
C
102
}
330
C
100
AcDbDictionary
281
     1
  3
ByBlock
350
3D
  3
ByLayer
350
3C
  3
Global
350
3E
  0
DICTIONARY
  5
805
102
{ACAD_REACTORS
330
C
102
}
330
C
100
AcDbDictionary
281
     1
  0
DICTIONARY
  5
17
102
{ACAD_REACTORS
330
C
102
}
330
C
100
AcDbDictionary
281
     1
  3
Standard
350
18
  0
DICTIONARY
  5
19
102
{ACAD_REACTORS
330
C
102
}
330
C
100
AcDbDictionary
281
     1
  0
ACDBDICTIONARYWDFLT
  5
E
102
{ACAD_REACTORS
330
C
102
}
330
C
100
AcDbDictionary
281
     1
  3
Normal
350
F
100
AcDbDictionaryWithDefault
340
F
  0
DICTIONARY
  5
225
102
{ACAD_REACTORS
330
C
102
}
330
C
100
AcDbDictionary
281
     1
  3
A0
350
226
  3
A1
350
227
  3
A2
350
228
  3
A3
350
229
  3
A4
350
22A
  3
A5
350
22B
  3
A6
350
22C
  3
A7
350
22D
  3
A8
350
22E
  3
A9
350
22F
  3
B0
350
230
  3
B1
350
231
  3
B2
350
232
  3
B3
350
233
  3
B4
350
234
  3
B5
350
235
  3
B6
350
236
  3
B7
350
237
  3
B8
350
238
  3
B9
350
239
  3
C0
350
23A
  3
C1
350
23B
  3
C2
350
23C
  3
C3
350
23D
  3
C4
350
23E
  3
C5
350
23F
  3
C6
350
240
  3
C7
350
241
  3
C8
350
242
  3
C9
350
243
  3
D0
350
244
  3
D1
350
245
  3
D2
350
246
  0
DICTIONARY
  5
2A
102
{ACAD_REACTORS
330
C
102
}
330
C
100
AcDbDictionary
281
     1
  3
2dWireframe
350
2F
  3
3D Hidden
350
31
  3
3dWireframe
350
30
  3
Basic
350
32
  3
Brighten
350
36
  3
ColorChange
350
3A
  3
Conceptual
350
34
  3
Dim
350
35
  3
Facepattern
350
39
  3
Flat
350
2B
  3
FlatWithEdges
350
2C
  3
Gouraud
350
2D
  3
GouraudWithEdges
350
2E
  3
Linepattern
350
38
  3
Realistic
350
33
  3
Thicken
350
37
  0
DICTIONARY
  5
803
102
{ACAD_REACTORS
330
C
102
}
330
C
100
AcDbDictionary
281
     1
  3
CANNOSCALE
350
808
  3
DIMASSOC
350
809
  3
HIDETEXT
350
80A
  3
PSOLHEIGHT
350
807
  3
PSOLWIDTH
350
806
  0
LAYOUT
  5
1E
102
{ACAD_REACTORS
330
1A
102
}
330
1A
100
AcDbPlotSettings
  1

  2
none_device
  4

  6

 40
0.0
 41
0.0
 42
0.0
 43
0.0
 44
0.0
 45
0.0
 46
0.0
 47
0.0
 48
0.0
 49
0.0
140
0.0
141
0.0
142
1.0
143
1.0
 70
   688
 72
     0
 73
     0
 74
     5
  7

 75
    16
147
1.0
148
0.0
149
0.0
100
AcDbLayout
  1
Layout1
 70
     1
 71
     1
 10
0.0
 20
0.0
 11
420.0
 21
297.0
 12
0.0
 22
0.0
 32
0.0
 14
1.000000000000000E+20
 24
1.000000000000000E+20
 34
1.000000000000000E+20
 15
-1.000000000000000E+20
 25
-1.000000000000000E+20
 35
-1.000000000000000E+20
146
0.0
 13
0.0
 23
0.0
 33
0.0
 16
1.0
 26
0.0
 36
0.0
 17
0.0
 27
1.0
 37
0.0
 76
     0
330
1B
  0
LAYOUT
  5
26
102
{ACAD_REACTORS
330
1A
102
}
330
1A
100
AcDbPlotSettings
  1

  2
none_device
  4

  6

 40
0.0
 41
0.0
 42
0.0
 43
0.0
 44
0.0
 45
0.0
 46
0.0
 47
0.0
 48
0.0
 49
0.0
140
0.0
141
0.0
142
1.0
143
1.0
 70
   688
 72
     0
 73
     0
 74
     5
  7

 75
    16
147
1.0
148
0.0
149
0.0
100
AcDbLayout
  1
Layout2
 70
     1
 71
     2
 10
0.0
 20
0.0
 11
0.0
 21
0.0
 12
0.0
 22
0.0
 32
0.0
 14
0.0
 24
0.0
 34
0.0
 15
0.0
 25
0.0
 35
0.0
146
0.0
 13
0.0
 23
0.0
 33
0.0
 16
1.0
 26
0.0
 36
0.0
 17
0.0
 27
1.0
 37
0.0
 76
     0
330
23
  0
LAYOUT
  5
22
102
{ACAD_REACTORS
330
1A
102
}
330
1A
100
AcDbPlotSettings
  1

  2
none_device
  4

  6

 40
0.0
 41
0.0
 42
0.0
 43
0.0
 44
0.0
 45
0.0
 46
0.0
 47
0.0
 48
0.0
 49
0.0
140
0.0
141
0.0
142
1.0
143
1.0
 70
  1712
 72
     0
 73
     0
 74
     0
  7

 75
     0
147
1.0
148
0.0
149
0.0
100
AcDbLayout
  1
Model
 70
     1
 71
     0
 10
0.0
 20
0.0
 11
420.0
 21
297.0
 12
0.0
 22
0.0
 32
0.0
 14
0.0
 24
0.0
 34
0.0
 15
25.0
 25
35.0
 35
0.0
146
0.0
 13
0.0
 23
0.0
 33
0.0
 16
1.0
 26
0.0
 36
0.0
 17
0.0
 27
1.0
 37
0.0
 76
     0
330
1F
331
29
  0
MATERIAL
  5
3D
102
{ACAD_REACTORS
330
3B
102
}
102
{ACAD_XDICTIONARY
360
82D
102
}
330
3B
100
AcDbMaterial
  1
ByBlock
  0
MATERIAL
  5
3C
102
{ACAD_REACTORS
330
3B
102
}
102
{ACAD_XDICTIONARY
360
82B
102
}
330
3B
100
AcDbMaterial
  1
ByLayer
  0
MATERIAL
  5
3E
102
{ACAD_REACTORS
330
3B
102
}
102
{ACAD_XDICTIONARY
360
82F
102
}
330
3B
100
AcDbMaterial
  1
Global
  0
MLINESTYLE
  5
18
102
{ACAD_REACTORS
330
17
102
}
330
17
100
AcDbMlineStyle
  2
Standard
 70
     0
  3

 62
   256
 51
90.0
 52
90.0
 71
     2
 49
0.5
 62
   256
  6
BYLAYER
 49
-0.5
 62
   256
  6
BYLAYER
  0
ACDBPLACEHOLDER
  5
F
102
{ACAD_REACTORS
330
E
102
}
330
E
  0
SCALE
  5
226
102
{ACAD_REACTORS
330
225
102
}
330
225
100
AcDbScale
 70
     0
300
1:1
140
1.0
141
1.0
290
     1
  0
SCALE
  5
227
102
{ACAD_REACTORS
330
225
102
}
330
225
100
AcDbScale
 70
     0
300
1:2
140
1.0
141
2.0
290
     0
  0
SCALE
  5
228
102
{ACAD_REACTORS
330
225
102
}
330
225
100
AcDbScale
 70
     0
300
1:4
140
1.0
141
4.0
290
     0
  0
SCALE
  5
229
102
{ACAD_REACTORS
330
225
102
}
330
225
100
AcDbScale
 70
     0
300
1:5
140
1.0
141
5.0
290
     0
  0
SCALE
  5
22A
102
{ACAD_REACTORS
330
225
102
}
330
225
100
AcDbScale
 70
     0
300
1:8
140
1.0
141
8.0
290
     0
  0
SCALE
  5
22B
102
{ACAD_REACTORS
330
225
102
}
330
225
100
AcDbScale
 70
     0
300
1:10
140
1.0
141
10.0
290
     0
  0
SCALE
  5
22C
102
{ACAD_REACTORS
330
225
102
}
330
225
100
AcDbScale
 70
     0
300
1:16
140
1.0
141
16.0
290
     0
  0
SCALE
  5
22D
102
{ACAD_REACTORS
330
225
102
}
330
225
100
AcDbScale
 70
     0
300
1:20
140
1.0
141
20.0
290
     0
  0
SCALE
  5
22E
102
{ACAD_REACTORS
330
225
102
}
330
225
100
AcDbScale
 70
     0
300
1:30
140
1.0
141
30.0
290
     0
  0
SCALE
  5
22F
102
{ACAD_REACTORS
330
225
102
}
330
225
100
AcDbScale
 70
     0
300
1:40
140
1.0
141
40.0
290
     0
  0
SCALE
  5
230
102
{ACAD_REACTORS
330
225
102
}
330
225
100
AcDbScale
 70
     0
300
1:50
140
1.0
141
50.0
290
     0
  0
SCALE
  5
231
102
{ACAD_REACTORS
330
225
102
}
330
225
100
AcDbScale
 70
     0
300
1:100
140
1.0
141
100.0
290
     0
  0
SCALE
  5
232
102
{ACAD_REACTORS
330
225
102
}
330
225
100
AcDbScale
 70
     0
300
2:1
140
2.0
141
1.0
290
     0
  0
SCALE
  5
233
102
{ACAD_REACTORS
330
225
102
}
330
225
100
AcDbScale
 70
     0
300
4:1
140
4.0
141
1.0
290
     0
  0
SCALE
  5
234
102
{ACAD_REACTORS
330
225
102
}
330
225
100
AcDbScale
 70
     0
300
8:1
140
8.0
141
1.0
290
     0
  0
SCALE
  5
235
102
{ACAD_REACTORS
330
225
102
}
330
225
100
AcDbScale
 70
     0
300
10:1
140
10.0
141
1.0
290
     0
  0
SCALE
  5
236
102
{ACAD_REACTORS
330
225
102
}
330
225
100
AcDbScale
 70
     0
300
100:1
140
100.0
141
1.0
290
     0
  0
SCALE
  5
237
102
{ACAD_REACTORS
330
225
102
}
330
225
100
AcDbScale
 70
     0
300
1/128" = 1'-0"
140
0.0078125
141
12.0
290
     0
  0
SCALE
  5
238
102
{ACAD_REACTORS
330
225
102
}
330
225
100
AcDbScale
 70
     0
300
1/64" = 1'-0"
140
0.015625
141
12.0
290
     0
  0
SCALE
  5
239
102
{ACAD_REACTORS
330
225
102
}
330
225
100
AcDbScale
 70
     0
300
1/32" = 1'-0"
140
0.03125
141
12.0
290
     0
  0
SCALE
  5
23A
102
{ACAD_REACTORS
330
225
102
}
330
225
100
AcDbScale
 70
     0
300
1/16" = 1'-0"
140
0.0625
141
12.0
290
     0
  0
SCALE
  5
23B
102
{ACAD_REACTORS
330
225
102
}
330
225
100
AcDbScale
 70
     0
300
3/32" = 1'-0"
140
0.09375
141
12.0
290
     0
  0
SCALE
  5
23C
102
{ACAD_REACTORS
330
225
102
}
330
225
100
AcDbScale
 70
     0
300
1/8" = 1'-0"
140
0.125
141
12.0
290
     0
  0
SCALE
  5
23D
102
{ACAD_REACTORS
330
225
102
}
330
225
100
AcDbScale
 70
     0
300
3/16" = 1'-0"
140
0.1875
141
12.0
290
     0
  0
SCALE
  5
23E
102
{ACAD_REACTORS
330
225
102
}
330
225
100
AcDbScale
 70
     0
300
1/4" = 1'-0"
140
0.25
141
12.0
290
     0
  0
SCALE
  5
23F
102
{ACAD_REACTORS
330
225
102
}
330
225
100
AcDbScale
 70
     0
300
3/8" = 1'-0"
140
0.375
141
12.0
290
     0
  0
SCALE
  5
240
102
{ACAD_REACTORS
330
225
102
}
330
225
100
AcDbScale
 70
     0
300
1/2" = 1'-0"
140
0.5
141
12.0
290
     0
  0
SCALE
  5
241
102
{ACAD_REACTORS
330
225
102
}
330
225
100
AcDbScale
 70
     0
300
3/4" = 1'-0"
140
0.75
141
12.0
290
     0
  0
SCALE
  5
242
102
{ACAD_REACTORS
330
225
102
}
330
225
100
AcDbScale
 70
     0
300
1" = 1'-0"
140
1.0
141
12.0
290
     0
  0
SCALE
  5
243
102
{ACAD_REACTORS
330
225
102
}
330
225
100
AcDbScale
 70
     0
300
1-1/2" = 1'-0"
140
1.5
141
12.0
290
     0
  0
SCALE
  5
244
102
{ACAD_REACTORS
330
225
102
}
330
225
100
AcDbScale
 70
     0
300
3" = 1'-0"
140
3.0
141
12.0
290
     0
  0
SCALE
  5
245
102
{ACAD_REACTORS
330
225
102
}
330
225
100
AcDbScale
 70
     0
300
6" = 1'-0"
140
6.0
141
12.0
290
     0
  0
SCALE
  5
246
102
{ACAD_REACTORS
330
225
102
}
330
225
100
AcDbScale
 70
     0
300
1'-0" = 1'-0"
140
12.0
141
12.0
290
     0
  0
VISUALSTYLE
  5
2F
102
{ACAD_REACTORS
330
2A
102
}
102
{ACAD_XDICTIONARY
360
813
102
}
330
2A
100
AcDbVisualStyle
  2
2dWireframe
 70
     4
 71
     0
 72
     2
 73
     0
 90
        0
 40
-0.6
 41
-30.0
 62
     5
 63
     7
 74
     1
 91
        4
 64
     7
 65
   257
 75
     1
175
     1
 42
1.0
 92
        0
 66
   257
 43
1.0
 76
     1
 77
     6
 78
     2
 67
     7
 79
     5
170
     0
171
     0
290
     0
174
     0
 93
        1
 44
0.0
173
     0
291
     0
 45
0.0
1001
ACAD
1000
AcDbSavedByObjectVersion
1070
     0
  0
VISUALSTYLE
  5
31
102
{ACAD_REACTORS
330
2A
102
}
102
{ACAD_XDICTIONARY
360
817
102
}
330
2A
100
AcDbVisualStyle
  2
3D Hidden
 70
     6
 71
     1
 72
     2
 73
     2
 90
        0
 40
-0.6
 41
-30.0
 62
     5
 63
     7
 74
     2
 91
        2
 64
     7
 65
   257
 75
     2
175
     1
 42
40.0
 92
        0
 66
   257
 43
1.0
 76
     1
 77
     6
 78
     2
 67
     7
 79
     3
170
     0
171
     0
290
     0
174
     0
 93
        1
 44
0.0
173
     0
291
     0
 45
0.0
1001
ACAD
1000
AcDbSavedByObjectVersion
1070
     0
  0
VISUALSTYLE
  5
30
102
{ACAD_REACTORS
330
2A
102
}
102
{ACAD_XDICTIONARY
360
815
102
}
330
2A
100
AcDbVisualStyle
  2
3dWireframe
 70
     5
 71
     0
 72
     2
 73
     0
 90
        0
 40
-0.6
 41
-30.0
 62
     5
 63
     7
 74
     1
 91
        4
 64
     7
 65
   257
 75
     1
175
     1
 42
1.0
 92
        0
 66
   257
 43
1.0
 76
     1
 77
     6
 78
     2
 67
     7
 79
     5
170
     0
171
     0
290
     0
174
     0
 93
        1
 44
0.0
173
     0
291
     0
 45
0.0
1001
ACAD
1000
AcDbSavedByObjectVersion
1070
     0
  0
VISUALSTYLE
  5
32
102
{ACAD_REACTORS
330
2A
102
}
102
{ACAD_XDICTIONARY
360
819
102
}
330
2A
100
AcDbVisualStyle
  2
Basic
 70
     7
 71
     1
 72
     0
 73
     1
 90
        0
 40
-0.6
 41
-30.0
 62
     5
 63
     7
 74
     0
 91
        4
 64
     7
 65
   257
 75
     1
175
     1
 42
1.0
 92
        8
 66
     7
 43
1.0
 76
     1
 77
     6
 78
     2
 67
     7
 79
     5
170
     0
171
     0
290
     0
174
     0
 93
        1
 44
0.0
173
     0
291
     1
 45
0.0
1001
ACAD
1000
AcDbSavedByObjectVersion
1070
     0
  0
VISUALSTYLE
  5
36
102
{ACAD_REACTORS
330
2A
102
}
102
{ACAD_XDICTIONARY
360
821
102
}
330
2A
100
AcDbVisualStyle
  2
Brighten
 70
    12
 71
     2
 72
     2
 73
     0
 90
        0
 40
-0.6
 41
-30.0
 62
     5
 63
     7
 74
     1
 91
        4
 64
     7
 65
   257
 75
     1
175
     1
 42
1.0
 92
        8
 66
     7
 43
1.0
 76
     1
 77
     6
 78
     2
 67
     7
 79
     5
170
     0
171
     0
290
     0
174
     0
 93
        1
 44
50.0
173
     0
291
     1
 45
0.0
1001
ACAD
1000
AcDbSavedByObjectVersion
1070
     0
  0
VISUALSTYLE
  5
3A
102
{ACAD_REACTORS
330
2A
102
}
102
{ACAD_XDICTIONARY
360
829
102
}
330
2A
100
AcDbVisualStyle
  2
ColorChange
 70
    16
 71
     2
 72
     2
 73
     3
 90
        0
 40
-0.6
 41
-30.0
 62
     5
 63
     8
 74
     1
 91
        4
 64
     7
 65
   257
 75
     1
175
     1
 42
1.0
 92
        8
 66
     8
 43
1.0
 76
     1
 77
     6
 78
     2
 67
     7
 79
     5
170
     0
171
     0
290
     0
174
     0
 93
        1
 44
0.0
173
     0
291
     1
 45
0.0
1001
ACAD
1000
AcDbSavedByObjectVersion
1070
     0
  0
VISUALSTYLE
  5
34
102
{ACAD_REACTORS
330
2A
102
}
102
{ACAD_XDICTIONARY
360
81D
102
}
330
2A
100
AcDbVisualStyle
  2
Conceptual
 70
     9
 71
     3
 72
     2
 73
     0
 90
        0
 40
-0.6
 41
-30.0
 62
     5
 63
     7
 74
     2
 91
        2
 64
     7
 65
   257
 75
     1
175
     1
 42
40.0
 92
        8
 66
     7
 43
1.0
 76
     1
 77
     6
 78
     2
 67
     7
 79
     3
170
     0
171
     0
290
     0
174
     0
 93
        1
 44
0.0
173
     0
291
     0
 45
0.0
1001
ACAD
1000
AcDbSavedByObjectVersion
1070
     0
  0
VISUALSTYLE
  5
35
102
{ACAD_REACTORS
330
2A
102
}
102
{ACAD_XDICTIONARY
360
81F
102
}
330
2A
100
AcDbVisualStyle
  2
Dim
 70
    11
 71
     2
 72
     2
 73
     0
 90
        0
 40
-0.6
 41
-30.0
 62
     5
 63
     7
 74
     1
 91
        4
 64
     7
 65
   257
 75
     1
175
     1
 42
1.0
 92
        8
 66
     7
 43
1.0
 76
     1
 77
     6
 78
     2
 67
     7
 79
     5
170
     0
171
     0
290
     0
174
     0
 93
        1
 44
-50.0
173
     0
291
     1
 45
0.0
1001
ACAD
1000
AcDbSavedByObjectVersion
1070
     0
  0
VISUALSTYLE
  5
39
102
{ACAD_REACTORS
330
2A
102
}
102
{ACAD_XDICTIONARY
360
827
102
}
330
2A
100
AcDbVisualStyle
  2
Facepattern
 70
    15
 71
     2
 72
     2
 73
     0
 90
        0
 40
-0.6
 41
-30.0
 62
     5
 63
     7
 74
     1
 91
        4
 64
     7
 65
   257
 75
     1
175
     1
 42
1.0
 92
        8
 66
     7
 43
1.0
 76
     1
 77
     6
 78
     2
 67
     7
 79
     5
170
     0
171
     0
290
     0
174
     0
 93
        1
 44
0.0
173
     0
291
     1
 45
0.0
1001
ACAD
1000
AcDbSavedByObjectVersion
1070
     0
  0
VISUALSTYLE
  5
2B
102
{ACAD_REACTORS
330
2A
102
}
102
{ACAD_XDICTIONARY
360
80B
102
}
330
2A
100
AcDbVisualStyle
  2
Flat
 70
     0
 71
     2
 72
     1
 73
     1
 90
        2
 40
-0.6
 41
30.0
 62
     5
 63
     7
 74
     0
 91
        4
 64
     7
 65
   257
 75
     1
175
     1
 42
1.0
 92
        8
 66
     7
 43
1.0
 76
     1
 77
     6
 78
     2
 67
     7
 79
     5
170
     0
171
     0
290
     0
174
     0
 93
       13
 44
0.0
173
     0
291
     1
 45
0.0
1001
ACAD
1000
AcDbSavedByObjectVersion
1070
     0
  0
VISUALSTYLE
  5
2C
102
{ACAD_REACTORS
330
2A
102
}
102
{ACAD_XDICTIONARY
360
80D
102
}
330
2A
100
AcDbVisualStyle
  2
FlatWithEdges
 70
     1
 71
     2
 72
     1
 73
     1
 90
        2
 40
-0.6
 41
30.0
 62
     5
 63
     7
 74
     1
 91
        4
 64
     7
 65
   257
 75
     1
175
     1
 42
1.0
 92
        0
 66
   257
 43
1.0
 76
     1
 77
     6
 78
     2
 67
     7
 79
     5
170
     0
171
     0
290
     0
174
     0
 93
       13
 44
0.0
173
     0
291
     1
 45
0.0
1001
ACAD
1000
AcDbSavedByObjectVersion
1070
     0
  0
VISUALSTYLE
  5
2D
102
{ACAD_REACTORS
330
2A
102
}
102
{ACAD_XDICTIONARY
360
80F
102
}
330
2A
100
AcDbVisualStyle
  2
Gouraud
 70
     2
 71
     2
 72
     2
 73
     1
 90
        2
 40
-0.6
 41
30.0
 62
     5
 63
     7
 74
     0
 91
        4
 64
     7
 65
   257
 75
     1
175
     1
 42
1.0
 92
        0
 66
     7
 43
1.0
 76
     1
 77
     6
 78
     2
 67
     7
 79
     5
170
     0
171
     0
290
     0
174
     0
 93
       13
 44
0.0
173
     0
291
     1
 45
0.0
1001
ACAD
1000
AcDbSavedByObjectVersion
1070
     0
  0
VISUALSTYLE
  5
2E
102
{ACAD_REACTORS
330
2A
102
}
102
{ACAD_XDICTIONARY
360
811
102
}
330
2A
100
AcDbVisualStyle
  2
GouraudWithEdges
 70
     3
 71
     2
 72
     2
 73
     1
 90
        2
 40
-0.6
 41
30.0
 62
     5
 63
     7
 74
     1
 91
        4
 64
     7
 65
   257
 75
     1
175
     1
 42
1.0
 92
        0
 66
   257
 43
1.0
 76
     1
 77
     6
 78
     2
 67
     7
 79
     5
170
     0
171
     0
290
     0
174
     0
 93
       13
 44
0.0
173
     0
291
     1
 45
0.0
1001
ACAD
1000
AcDbSavedByObjectVersion
1070
     0
  0
VISUALSTYLE
  5
38
102
{ACAD_REACTORS
330
2A
102
}
102
{ACAD_XDICTIONARY
360
825
102
}
330
2A
100
AcDbVisualStyle
  2
Linepattern
 70
    14
 71
     2
 72
     2
 73
     0
 90
        0
 40
-0.6
 41
-30.0
 62
     5
 63
     7
 74
     1
 91
        4
 64
     7
 65
   257
 75
     7
175
     7
 42
1.0
 92
        8
 66
     7
 43
1.0
 76
     1
 77
     6
 78
     2
 67
     7
 79
     5
170
     0
171
     0
290
     0
174
     0
 93
        1
 44
0.0
173
     0
291
     1
 45
0.0
1001
ACAD
1000
AcDbSavedByObjectVersion
1070
     0
  0
VISUALSTYLE
  5
33
102
{ACAD_REACTORS
330
2A
102
}
102
{ACAD_XDICTIONARY
360
81B
102
}
330
2A
100
AcDbVisualStyle
  2
Realistic
 70
     8
 71
     2
 72
     2
 73
     0
 90
        0
 40
-0.6
 41
-30.0
 62
     5
 63
     7
 74
     1
 91
        0
 64
     7
 65
   257
 75
     1
175
     1
 42
1.0
 92
        8
 66
     8
 43
1.0
 76
     1
 77
     6
 78
     2
 67
     7
 79
     5
170
     0
171
     0
290
     0
174
     0
 93
       13
 44
0.0
173
     0
291
     0
 45
0.0
1001
ACAD
1000
AcDbSavedByObjectVersion
1070
     0
  0
VISUALSTYLE
  5
37
102
{ACAD_REACTORS
330
2A
102
}
102
{ACAD_XDICTIONARY
360
823
102
}
330
2A
100
AcDbVisualStyle
  2
Thicken
 70
    13
 71
     2
 72
     2
 73
     0
 90
        0
 40
-0.6
 41
-30.0
 62
     5
 63
     7
 74
     1
 91
        4
 64
     7
 65
   257
 75
     1
175
     1
 42
1.0
 92
       12
 66
     7
 43
1.0
 76
     1
 77
     6
 78
     2
 67
     7
 79
     5
170
     0
171
     0
290
     0
174
     0
 93
        1
 44
0.0
173
     0
291
     1
 45
0.0
1001
ACAD
1000
AcDbSavedByObjectVersion
1070
     0
  0
DICTIONARYVAR
  5
808
102
{ACAD_REACTORS
330
803
102
}
330
803
100
DictionaryVariables
280
     0
  1
1:1
  0
DICTIONARYVAR
  5
809
102
{ACAD_REACTORS
330
803
102
}
330
803
100
DictionaryVariables
280
     0
  1
2
  0
DICTIONARYVAR
  5
80A
102
{ACAD_REACTORS
330
803
102
}
330
803
100
DictionaryVariables
280
     0
  1
1
  0
DICTIONARYVAR
  5
807
102
{ACAD_REACTORS
330
803
102
}
330
803
100
DictionaryVariables
280
     0
  1
80.000000
  0
DICTIONARYVAR
  5
806
102
{ACAD_REACTORS
330
803
102
}
330
803
100
DictionaryVariables
280
     0
  1
5.000000
  0
DICTIONARY
  5
82D
330
3D
100
AcDbDictionary
280
     1
281
     1
  3
ACAD_XREC_ROUNDTRIP
360
82E
  0
DICTIONARY
  5
82B
330
3C
100
AcDbDictionary
280
     1
281
     1
  3
ACAD_XREC_ROUNDTRIP
360
82C
  0
DICTIONARY
  5
82F
330
3E
100
AcDbDictionary
280
     1
281
     1
  3
ACAD_XREC_ROUNDTRIP
360
830
  0
DICTIONARY
  5
813
330
2F
100
AcDbDictionary
280
     1
281
     1
  3
ACAD_XREC_ROUNDTRIP
360
814
  0
DICTIONARY
  5
817
330
31
100
AcDbDictionary
280
     1
281
     1
  3
ACAD_XREC_ROUNDTRIP
360
818
  0
DICTIONARY
  5
815
330
30
100
AcDbDictionary
280
     1
281
     1
  3
ACAD_XREC_ROUNDTRIP
360
816
  0
DICTIONARY
  5
819
330
32
100
AcDbDictionary
280
     1
281
     1
  3
ACAD_XREC_ROUNDTRIP
360
81A
  0
DICTIONARY
  5
821
330
36
100
AcDbDictionary
280
     1
281
     1
  3
ACAD_XREC_ROUNDTRIP
360
822
  0
DICTIONARY
  5
829
330
3A
100
AcDbDictionary
280
     1
281
     1
  3
ACAD_XREC_ROUNDTRIP
360
82A
  0
DICTIONARY
  5
81D
330
34
100
AcDbDictionary
280
     1
281
     1
  3
ACAD_XREC_ROUNDTRIP
360
81E
  0
DICTIONARY
  5
81F
330
35
100
AcDbDictionary
280
     1
281
     1
  3
ACAD_XREC_ROUNDTRIP
360
820
  0
DICTIONARY
  5
827
330
39
100
AcDbDictionary
280
     1
281
     1
  3
ACAD_XREC_ROUNDTRIP
360
828
  0
DICTIONARY
  5
80B
330
2B
100
AcDbDictionary
280
     1
281
     1
  3
ACAD_XREC_ROUNDTRIP
360
80C
  0
DICTIONARY
  5
80D
330
2C
100
AcDbDictionary
280
     1
281
     1
  3
ACAD_XREC_ROUNDTRIP
360
80E
  0
DICTIONARY
  5
80F
330
2D
100
AcDbDictionary
280
     1
281
     1
  3
ACAD_XREC_ROUNDTRIP
360
810
  0
DICTIONARY
  5
811
330
2E
100
AcDbDictionary
280
     1
281
     1
  3
ACAD_XREC_ROUNDTRIP
360
812
  0
DICTIONARY
  5
825
330
38
100
AcDbDictionary
280
     1
281
     1
  3
ACAD_XREC_ROUNDTRIP
360
826
  0
DICTIONARY
  5
81B
330
33
100
AcDbDictionary
280
     1
281
     1
  3
ACAD_XREC_ROUNDTRIP
360
81C
  0
DICTIONARY
  5
823
330
37
100
AcDbDictionary
280
     1
281
     1
  3
ACAD_XREC_ROUNDTRIP
360
824
  0
XRECORD
  5
82E
102
{ACAD_REACTORS
330
82D
102
}
330
82D
100
AcDbXrecord
280
     1
102
MATERIAL
148
0.0
149
0.0
149
0.0
 93
        0
 94
      127
282
     0
 72
     1
 77
     1
171
     1
175
     1
179
     1
273
     0
  0
XRECORD
  5
82C
102
{ACAD_REACTORS
330
82B
102
}
330
82B
100
AcDbXrecord
280
     1
102
MATERIAL
148
0.0
149
0.0
149
0.0
 93
        0
 94
      127
282
     0
 72
     1
 77
     1
171
     1
175
     1
179
     1
273
     0
  0
XRECORD
  5
830
102
{ACAD_REACTORS
330
82F
102
}
330
82F
100
AcDbXrecord
280
     1
102
MATERIAL
148
0.0
149
0.0
149
0.0
 93
        0
 94
      127
282
     0
 72
     1
 77
     1
171
     1
175
     1
179
     1
273
     0
  0
XRECORD
  5
814
102
{ACAD_REACTORS
330
813
102
}
330
813
100
AcDbXrecord
280
     1
102
RTVSPropertyOp0
 70
     1
102
RTVSPropertyOp1
 70
     1
102
RTVSPropertyOp2
 70
     1
102
RTVSPropertyOp3
 70
     1
102
RTVSPropertyOp4
 70
     1
102
RTVSPropertyOp5
 70
     1
102
RTVSPropertyOp6
 70
     1
102
RTVSPropertyOp7
 70
     1
102
RTVSPropertyOp8
 70
     1
102
RTVSPropertyOp9
 70
     1
102
RTVSPropertyOp10
 70
     1
102
RTVSPropertyOp11
 70
     1
102
RTVSPropertyOp12
 70
     1
102
RTVSPropertyOp13
 70
     1
102
RTVSPropertyOp14
 70
     1
102
RTVSPropertyOp15
 70
     1
102
RTVSPropertyOp16
 70
     1
102
RTVSPropertyOp17
 70
     1
102
RTVSPropertyOp18
 70
     1
102
RTVSPropertyOp19
 70
     1
102
RTVSPropertyOp20
 70
     1
102
RTVSPropertyOp21
 70
     1
102
RTVSPropertyOp22
 70
     1
102
RTVSPropertyOp23
 70
     1
102
RTVSPropertyOp24
 70
     1
102
RTVSPropertyOp25
 70
     1
102
RTVSPropertyOp26
 70
     1
102
RTVSPropertyOp27
 70
     1
  0
XRECORD
  5
818
102
{ACAD_REACTORS
330
817
102
}
330
817
100
AcDbXrecord
280
     1
102
RTVSPropertyOp0
 70
     1
102
RTVSPropertyOp1
 70
     1
102
RTVSPropertyOp2
 70
     1
102
RTVSPropertyOp3
 70
     1
102
RTVSPropertyOp4
 70
     1
102
RTVSPropertyOp5
 70
     1
102
RTVSPropertyOp6
 70
     1
102
RTVSPropertyOp7
 70
     1
102
RTVSPropertyOp8
 70
     1
102
RTVSPropertyOp9
 70
     1
102
RTVSPropertyOp10
 70
     1
102
RTVSPropertyOp11
 70
     1
102
RTVSPropertyOp12
 70
     1
102
RTVSPropertyOp13
 70
     1
102
RTVSPropertyOp14
 70
     1
102
RTVSPropertyOp15
 70
     1
102
RTVSPropertyOp16
 70
     1
102
RTVSPropertyOp17
 70
     1
102
RTVSPropertyOp18
 70
     1
102
RTVSPropertyOp19
 70
     1
102
RTVSPropertyOp20
 70
     1
102
RTVSPropertyOp21
 70
     1
102
RTVSPropertyOp22
 70
     1
102
RTVSPropertyOp23
 70
     1
102
RTVSPropertyOp24
 70
     1
102
RTVSPropertyOp25
 70
     1
102
RTVSPropertyOp26
 70
     1
102
RTVSPropertyOp27
 70
     1
  0
XRECORD
  5
816
102
{ACAD_REACTORS
330
815
102
}
330
815
100
AcDbXrecord
280
     1
102
RTVSPropertyOp0
 70
     1
102
RTVSPropertyOp1
 70
     1
102
RTVSPropertyOp2
 70
     1
102
RTVSPropertyOp3
 70
     1
102
RTVSPropertyOp4
 70
     1
102
RTVSPropertyOp5
 70
     1
102
RTVSPropertyOp6
 70
     1
102
RTVSPropertyOp7
 70
     1
102
RTVSPropertyOp8
 70
     1
102
RTVSPropertyOp9
 70
     1
102
RTVSPropertyOp10
 70
     1
102
RTVSPropertyOp11
 70
     1
102
RTVSPropertyOp12
 70
     1
102
RTVSPropertyOp13
 70
     1
102
RTVSPropertyOp14
 70
     1
102
RTVSPropertyOp15
 70
     1
102
RTVSPropertyOp16
 70
     1
102
RTVSPropertyOp17
 70
     1
102
RTVSPropertyOp18
 70
     1
102
RTVSPropertyOp19
 70
     1
102
RTVSPropertyOp20
 70
     1
102
RTVSPropertyOp21
 70
     1
102
RTVSPropertyOp22
 70
     1
102
RTVSPropertyOp23
 70
     1
102
RTVSPropertyOp24
 70
     1
102
RTVSPropertyOp25
 70
     1
102
RTVSPropertyOp26
 70
     1
102
RTVSPropertyOp27
 70
     1
  0
XRECORD
  5
81A
102
{ACAD_REACTORS
330
819
102
}
330
819
100
AcDbXrecord
280
     1
102
RTVSPropertyOp0
 70
     1
102
RTVSPropertyOp1
 70
     1
102
RTVSPropertyOp2
 70
     1
102
RTVSPropertyOp3
 70
     1
102
RTVSPropertyOp4
 70
     1
102
RTVSPropertyOp5
 70
     1
102
RTVSPropertyOp6
 70
     1
102
RTVSPropertyOp7
 70
     1
102
RTVSPropertyOp8
 70
     1
102
RTVSPropertyOp9
 70
     1
102
RTVSPropertyOp10
 70
     1
102
RTVSPropertyOp11
 70
     1
102
RTVSPropertyOp12
 70
     1
102
RTVSPropertyOp13
 70
     1
102
RTVSPropertyOp14
 70
     1
102
RTVSPropertyOp15
 70
     1
102
RTVSPropertyOp16
 70
     1
102
RTVSPropertyOp17
 70
     1
102
RTVSPropertyOp18
 70
     1
102
RTVSPropertyOp19
 70
     1
102
RTVSPropertyOp20
 70
     1
102
RTVSPropertyOp21
 70
     1
102
RTVSPropertyOp22
 70
     1
102
RTVSPropertyOp23
 70
     1
102
RTVSPropertyOp24
 70
     1
102
RTVSPropertyOp25
 70
     1
102
RTVSPropertyOp26
 70
     1
102
RTVSPropertyOp27
 70
     1
  0
XRECORD
  5
822
102
{ACAD_REACTORS
330
821
102
}
330
821
100
AcDbXrecord
280
     1
102
RTVSPropertyOp0
 70
     1
102
RTVSPropertyOp1
 70
     1
102
RTVSPropertyOp2
 70
     1
102
RTVSPropertyOp3
 70
     1
102
RTVSPropertyOp4
 70
     1
102
RTVSPropertyOp5
 70
     1
102
RTVSPropertyOp6
 70
     1
102
RTVSPropertyOp7
 70
     1
102
RTVSPropertyOp8
 70
     1
102
RTVSPropertyOp9
 70
     1
102
RTVSPropertyOp10
 70
     1
102
RTVSPropertyOp11
 70
     1
102
RTVSPropertyOp12
 70
     1
102
RTVSPropertyOp13
 70
     1
102
RTVSPropertyOp14
 70
     1
102
RTVSPropertyOp15
 70
     1
102
RTVSPropertyOp16
 70
     1
102
RTVSPropertyOp17
 70
     1
102
RTVSPropertyOp18
 70
     1
102
RTVSPropertyOp19
 70
     1
102
RTVSPropertyOp20
 70
     1
102
RTVSPropertyOp21
 70
     1
102
RTVSPropertyOp22
 70
     1
102
RTVSPropertyOp23
 70
     1
102
RTVSPropertyOp24
 70
     1
102
RTVSPropertyOp25
 70
     1
102
RTVSPropertyOp26
 70
     1
102
RTVSPropertyOp27
 70
     1
  0
XRECORD
  5
82A
102
{ACAD_REACTORS
330
829
102
}
330
829
100
AcDbXrecord
280
     1
102
RTVSPropertyOp0
 70
     1
102
RTVSPropertyOp1
 70
     1
102
RTVSPropertyOp2
 70
     1
102
RTVSPropertyOp3
 70
     1
102
RTVSPropertyOp4
 70
     1
102
RTVSPropertyOp5
 70
     1
102
RTVSPropertyOp6
 70
     1
102
RTVSPropertyOp7
 70
     1
102
RTVSPropertyOp8
 70
     1
102
RTVSPropertyOp9
 70
     1
102
RTVSPropertyOp10
 70
     1
102
RTVSPropertyOp11
 70
     1
102
RTVSPropertyOp12
 70
     1
102
RTVSPropertyOp13
 70
     1
102
RTVSPropertyOp14
 70
     1
102
RTVSPropertyOp15
 70
     1
102
RTVSPropertyOp16
 70
     1
102
RTVSPropertyOp17
 70
     1
102
RTVSPropertyOp18
 70
     1
102
RTVSPropertyOp19
 70
     1
102
RTVSPropertyOp20
 70
     1
102
RTVSPropertyOp21
 70
     1
102
RTVSPropertyOp22
 70
     1
102
RTVSPropertyOp23
 70
     1
102
RTVSPropertyOp24
 70
     1
102
RTVSPropertyOp25
 70
     1
102
RTVSPropertyOp26
 70
     1
102
RTVSPropertyOp27
 70
     1
  0
XRECORD
  5
81E
102
{ACAD_REACTORS
330
81D
102
}
330
81D
100
AcDbXrecord
280
     1
102
RTVSPropertyOp0
 70
     1
102
RTVSPropertyOp1
 70
     1
102
RTVSPropertyOp2
 70
     1
102
RTVSPropertyOp3
 70
     1
102
RTVSPropertyOp4
 70
     1
102
RTVSPropertyOp5
 70
     1
102
RTVSPropertyOp6
 70
     1
102
RTVSPropertyOp7
 70
     1
102
RTVSPropertyOp8
 70
     1
102
RTVSPropertyOp9
 70
     1
102
RTVSPropertyOp10
 70
     1
102
RTVSPropertyOp11
 70
     1
102
RTVSPropertyOp12
 70
     1
102
RTVSPropertyOp13
 70
     1
102
RTVSPropertyOp14
 70
     1
102
RTVSPropertyOp15
 70
     1
102
RTVSPropertyOp16
 70
     1
102
RTVSPropertyOp17
 70
     1
102
RTVSPropertyOp18
 70
     1
102
RTVSPropertyOp19
 70
     1
102
RTVSPropertyOp20
 70
     1
102
RTVSPropertyOp21
 70
     1
102
RTVSPropertyOp22
 70
     1
102
RTVSPropertyOp23
 70
     1
102
RTVSPropertyOp24
 70
     1
102
RTVSPropertyOp25
 70
     1
102
RTVSPropertyOp26
 70
     1
102
RTVSPropertyOp27
 70
     1
  0
XRECORD
  5
820
102
{ACAD_REACTORS
330
81F
102
}
330
81F
100
AcDbXrecord
280
     1
102
RTVSPropertyOp0
 70
     1
102
RTVSPropertyOp1
 70
     1
102
RTVSPropertyOp2
 70
     1
102
RTVSPropertyOp3
 70
     1
102
RTVSPropertyOp4
 70
     1
102
RTVSPropertyOp5
 70
     1
102
RTVSPropertyOp6
 70
     1
102
RTVSPropertyOp7
 70
     1
102
RTVSPropertyOp8
 70
     1
102
RTVSPropertyOp9
 70
     1
102
RTVSPropertyOp10
 70
     1
102
RTVSPropertyOp11
 70
     1
102
RTVSPropertyOp12
 70
     1
102
RTVSPropertyOp13
 70
     1
102
RTVSPropertyOp14
 70
     1
102
RTVSPropertyOp15
 70
     1
102
RTVSPropertyOp16
 70
     1
102
RTVSPropertyOp17
 70
     1
102
RTVSPropertyOp18
 70
     1
102
RTVSPropertyOp19
 70
     1
102
RTVSPropertyOp20
 70
     1
102
RTVSPropertyOp21
 70
     1
102
RTVSPropertyOp22
 70
     1
102
RTVSPropertyOp23
 70
     1
102
RTVSPropertyOp24
 70
     1
102
RTVSPropertyOp25
 70
     1
102
RTVSPropertyOp26
 70
     1
102
RTVSPropertyOp27
 70
     1
  0
XRECORD
  5
828
102
{ACAD_REACTORS
330
827
102
}
330
827
100
AcDbXrecord
280
     1
102
RTVSPropertyOp0
 70
     1
102
RTVSPropertyOp1
 70
     1
102
RTVSPropertyOp2
 70
     1
102
RTVSPropertyOp3
 70
     1
102
RTVSPropertyOp4
 70
     1
102
RTVSPropertyOp5
 70
     1
102
RTVSPropertyOp6
 70
     1
102
RTVSPropertyOp7
 70
     1
102
RTVSPropertyOp8
 70
     1
102
RTVSPropertyOp9
 70
     1
102
RTVSPropertyOp10
 70
     1
102
RTVSPropertyOp11
 70
     1
102
RTVSPropertyOp12
 70
     1
102
RTVSPropertyOp13
 70
     1
102
RTVSPropertyOp14
 70
     1
102
RTVSPropertyOp15
 70
     1
102
RTVSPropertyOp16
 70
     1
102
RTVSPropertyOp17
 70
     1
102
RTVSPropertyOp18
 70
     1
102
RTVSPropertyOp19
 70
     1
102
RTVSPropertyOp20
 70
     1
102
RTVSPropertyOp21
 70
     1
102
RTVSPropertyOp22
 70
     1
102
RTVSPropertyOp23
 70
     1
102
RTVSPropertyOp24
 70
     1
102
RTVSPropertyOp25
 70
     1
102
RTVSPropertyOp26
 70
     1
102
RTVSPropertyOp27
 70
     1
  0
XRECORD
  5
80C
102
{ACAD_REACTORS
330
80B
102
}
330
80B
100
AcDbXrecord
280
     1
102
RTVSPropertyOp0
 70
     1
102
RTVSPropertyOp1
 70
     1
102
RTVSPropertyOp2
 70
     1
102
RTVSPropertyOp3
 70
     1
102
RTVSPropertyOp4
 70
     1
102
RTVSPropertyOp5
 70
     1
102
RTVSPropertyOp6
 70
     1
102
RTVSPropertyOp7
 70
     1
102
RTVSPropertyOp8
 70
     1
102
RTVSPropertyOp9
 70
     1
102
RTVSPropertyOp10
 70
     1
102
RTVSPropertyOp11
 70
     1
102
RTVSPropertyOp12
 70
     1
102
RTVSPropertyOp13
 70
     1
102
RTVSPropertyOp14
 70
     1
102
RTVSPropertyOp15
 70
     1
102
RTVSPropertyOp16
 70
     1
102
RTVSPropertyOp17
 70
     1
102
RTVSPropertyOp18
 70
     1
102
RTVSPropertyOp19
 70
     1
102
RTVSPropertyOp20
 70
     1
102
RTVSPropertyOp21
 70
     1
102
RTVSPropertyOp22
 70
     1
102
RTVSPropertyOp23
 70
     1
102
RTVSPropertyOp24
 70
     1
102
RTVSPropertyOp25
 70
     1
102
RTVSPropertyOp26
 70
     1
102
RTVSPropertyOp27
 70
     1
  0
XRECORD
  5
80E
102
{ACAD_REACTORS
330
80D
102
}
330
80D
100
AcDbXrecord
280
     1
102
RTVSPropertyOp0
 70
     1
102
RTVSPropertyOp1
 70
     1
102
RTVSPropertyOp2
 70
     1
102
RTVSPropertyOp3
 70
     1
102
RTVSPropertyOp4
 70
     1
102
RTVSPropertyOp5
 70
     1
102
RTVSPropertyOp6
 70
     1
102
RTVSPropertyOp7
 70
     1
102
RTVSPropertyOp8
 70
     1
102
RTVSPropertyOp9
 70
     1
102
RTVSPropertyOp10
 70
     1
102
RTVSPropertyOp11
 70
     1
102
RTVSPropertyOp12
 70
     1
102
RTVSPropertyOp13
 70
     1
102
RTVSPropertyOp14
 70
     1
102
RTVSPropertyOp15
 70
     1
102
RTVSPropertyOp16
 70
     1
102
RTVSPropertyOp17
 70
     1
102
RTVSPropertyOp18
 70
     1
102
RTVSPropertyOp19
 70
     1
102
RTVSPropertyOp20
 70
     1
102
RTVSPropertyOp21
 70
     1
102
RTVSPropertyOp22
 70
     1
102
RTVSPropertyOp23
 70
     1
102
RTVSPropertyOp24
 70
     1
102
RTVSPropertyOp25
 70
     1
102
RTVSPropertyOp26
 70
     1
102
RTVSPropertyOp27
 70
     1
  0
XRECORD
  5
810
102
{ACAD_REACTORS
330
80F
102
}
330
80F
100
AcDbXrecord
280
     1
102
RTVSPropertyOp0
 70
     1
102
RTVSPropertyOp1
 70
     1
102
RTVSPropertyOp2
 70
     1
102
RTVSPropertyOp3
 70
     1
102
RTVSPropertyOp4
 70
     1
102
RTVSPropertyOp5
 70
     1
102
RTVSPropertyOp6
 70
     1
102
RTVSPropertyOp7
 70
     1
102
RTVSPropertyOp8
 70
     1
102
RTVSPropertyOp9
 70
     1
102
RTVSPropertyOp10
 70
     1
102
RTVSPropertyOp11
 70
     1
102
RTVSPropertyOp12
 70
     1
102
RTVSPropertyOp13
 70
     1
102
RTVSPropertyOp14
 70
     1
102
RTVSPropertyOp15
 70
     1
102
RTVSPropertyOp16
 70
     1
102
RTVSPropertyOp17
 70
     1
102
RTVSPropertyOp18
 70
     1
102
RTVSPropertyOp19
 70
     1
102
RTVSPropertyOp20
 70
     1
102
RTVSPropertyOp21
 70
     1
102
RTVSPropertyOp22
 70
     1
102
RTVSPropertyOp23
 70
     1
102
RTVSPropertyOp24
 70
     1
102
RTVSPropertyOp25
 70
     1
102
RTVSPropertyOp26
 70
     1
102
RTVSPropertyOp27
 70
     1
  0
XRECORD
  5
812
102
{ACAD_REACTORS
330
811
102
}
330
811
100
AcDbXrecord
280
     1
102
RTVSPropertyOp0
 70
     1
102
RTVSPropertyOp1
 70
     1
102
RTVSPropertyOp2
 70
     1
102
RTVSPropertyOp3
 70
     1
102
RTVSPropertyOp4
 70
     1
102
RTVSPropertyOp5
 70
     1
102
RTVSPropertyOp6
 70
     1
102
RTVSPropertyOp7
 70
     1
102
RTVSPropertyOp8
 70
     1
102
RTVSPropertyOp9
 70
     1
102
RTVSPropertyOp10
 70
     1
102
RTVSPropertyOp11
 70
     1
102
RTVSPropertyOp12
 70
     1
102
RTVSPropertyOp13
 70
     1
102
RTVSPropertyOp14
 70
     1
102
RTVSPropertyOp15
 70
     1
102
RTVSPropertyOp16
 70
     1
102
RTVSPropertyOp17
 70
     1
102
RTVSPropertyOp18
 70
     1
102
RTVSPropertyOp19
 70
     1
102
RTVSPropertyOp20
 70
     1
102
RTVSPropertyOp21
 70
     1
102
RTVSPropertyOp22
 70
     1
102
RTVSPropertyOp23
 70
     1
102
RTVSPropertyOp24
 70
     1
102
RTVSPropertyOp25
 70
     1
102
RTVSPropertyOp26
 70
     1
102
RTVSPropertyOp27
 70
     1
  0
XRECORD
  5
826
102
{ACAD_REACTORS
330
825
102
}
330
825
100
AcDbXrecord
280
     1
102
RTVSPropertyOp0
 70
     1
102
RTVSPropertyOp1
 70
     1
102
RTVSPropertyOp2
 70
     1
102
RTVSPropertyOp3
 70
     1
102
RTVSPropertyOp4
 70
     1
102
RTVSPropertyOp5
 70
     1
102
RTVSPropertyOp6
 70
     1
102
RTVSPropertyOp7
 70
     1
102
RTVSPropertyOp8
 70
     1
102
RTVSPropertyOp9
 70
     1
102
RTVSPropertyOp10
 70
     1
102
RTVSPropertyOp11
 70
     1
102
RTVSPropertyOp12
 70
     1
102
RTVSPropertyOp13
 70
     1
102
RTVSPropertyOp14
 70
     1
102
RTVSPropertyOp15
 70
     1
102
RTVSPropertyOp16
 70
     1
102
RTVSPropertyOp17
 70
     1
102
RTVSPropertyOp18
 70
     1
102
RTVSPropertyOp19
 70
     1
102
RTVSPropertyOp20
 70
     1
102
RTVSPropertyOp21
 70
     1
102
RTVSPropertyOp22
 70
     1
102
RTVSPropertyOp23
 70
     1
102
RTVSPropertyOp24
 70
     1
102
RTVSPropertyOp25
 70
     1
102
RTVSPropertyOp26
 70
     1
102
RTVSPropertyOp27
 70
     1
  0
XRECORD
  5
81C
102
{ACAD_REACTORS
330
81B
102
}
330
81B
100
AcDbXrecord
280
     1
102
RTVSPropertyOp0
 70
     1
102
RTVSPropertyOp1
 70
     1
102
RTVSPropertyOp2
 70
     1
102
RTVSPropertyOp3
 70
     1
102
RTVSPropertyOp4
 70
     1
102
RTVSPropertyOp5
 70
     1
102
RTVSPropertyOp6
 70
     1
102
RTVSPropertyOp7
 70
     1
102
RTVSPropertyOp8
 70
     1
102
RTVSPropertyOp9
 70
     1
102
RTVSPropertyOp10
 70
     1
102
RTVSPropertyOp11
 70
     1
102
RTVSPropertyOp12
 70
     1
102
RTVSPropertyOp13
 70
     1
102
RTVSPropertyOp14
 70
     1
102
RTVSPropertyOp15
 70
     1
102
RTVSPropertyOp16
 70
     1
102
RTVSPropertyOp17
 70
     1
102
RTVSPropertyOp18
 70
     1
102
RTVSPropertyOp19
 70
     1
102
RTVSPropertyOp20
 70
     1
102
RTVSPropertyOp21
 70
     1
102
RTVSPropertyOp22
 70
     1
102
RTVSPropertyOp23
 70
     1
102
RTVSPropertyOp24
 70
     1
102
RTVSPropertyOp25
 70
     1
102
RTVSPropertyOp26
 70
     1
102
RTVSPropertyOp27
 70
     1
  0
XRECORD
  5
824
102
{ACAD_REACTORS
330
823
102
}
330
823
100
AcDbXrecord
280
     1
102
RTVSPropertyOp0
 70
     1
102
RTVSPropertyOp1
 70
     1
102
RTVSPropertyOp2
 70
     1
102
RTVSPropertyOp3
 70
     1
102
RTVSPropertyOp4
 70
     1
102
RTVSPropertyOp5
 70
     1
102
RTVSPropertyOp6
 70
     1
102
RTVSPropertyOp7
 70
     1
102
RTVSPropertyOp8
 70
     1
102
RTVSPropertyOp9
 70
     1
102
RTVSPropertyOp10
 70
     1
102
RTVSPropertyOp11
 70
     1
102
RTVSPropertyOp12
 70
     1
102
RTVSPropertyOp13
 70
     1
102
RTVSPropertyOp14
 70
     1
102
RTVSPropertyOp15
 70
     1
102
RTVSPropertyOp16
 70
     1
102
RTVSPropertyOp17
 70
     1
102
RTVSPropertyOp18
 70
     1
102
RTVSPropertyOp19
 70
     1
102
RTVSPropertyOp20
 70
     1
102
RTVSPropertyOp21
 70
     1
102
RTVSPropertyOp22
 70
     1
102
RTVSPropertyOp23
 70
     1
102
RTVSPropertyOp24
 70
     1
102
RTVSPropertyOp25
 70
     1
102
RTVSPropertyOp26
 70
     1
102
RTVSPropertyOp27
 70
     1
  0
ENDSEC
  0
EOF
