  0
SECTION
  2
HEADER
  9
$ACADVER
  1
AC1015
  9
$ACADMAINTVER
 70
     6
  9
$DWGCODEPAGE
  3
ANSI_1252
  9
$INSBASE
 10
0.0
 20
0.0
 30
0.0
  9
$EXTMIN
 10
0.0
 20
0.0
 30
0.0
  9
$EXTMAX
 10
25.0
 20
35.0
 30
0.0
  9
$LIMMIN
 10
0.0
 20
0.0
  9
$LIMMAX
 10
420.0
 20
297.0
  9
$ORTHOMODE
 70
     0
  9
$REGENMODE
 70
     1
  9
$FILLMODE
 70
     1
  9
$QTEXTMODE
 70
     0
  9
$MIRRTEXT
 70
     1
  9
$LTSCALE
 40
3.8
  9
$ATTMODE
 70
     1
  9
$TEXTSIZE
 40
2.5
  9
$TRACEWID
 40
1.0
  9
$TEXTSTYLE
  7
Standard
  9
$CLAYER
  8
0
  9
$CELTYPE
  6
ByLayer
  9
$CECOLOR
 62
   256
  9
$CELTSCALE
 40
1.0
  9
$DISPSILH
 70
     0
  9
$DIMSCALE
 40
1.0
  9
$DIMASZ
 40
2.5
  9
$DIMEXO
 40
0.625
  9
$DIMDLI
 40
3.75
  9
$DIMRND
 40
0.0
  9
$DIMDLE
 40
0.0
  9
$DIMEXE
 40
1.25
  9
$DIMTP
 40
0.0
  9
$DIMTM
 40
0.0
  9
$DIMTXT
 40
2.5
  9
$DIMCEN
 40
2.5
  9
$DIMTSZ
 40
0.0
  9
$DIMTOL
 70
     0
  9
$DIMLIM
 70
     0
  9
$DIMTIH
 70
     0
  9
$DIMTOH
 70
     0
  9
$DIMSE1
 70
     0
  9
$DIMSE2
 70
     0
  9
$DIMTAD
 70
     1
  9
$DIMZIN
 70
     8
  9
$DIMBLK
  1

  9
$DIMASO
 70
     1
  9
$DIMSHO
 70
     1
  9
$DIMPOST
  1

  9
$DIMAPOST
  1

  9
$DIMALT
 70
     0
  9
$DIMALTD
 70
     3
  9
$DIMALTF
 40
0.03937007874016
  9
$DIMLFAC
 40
1.0
  9
$DIMTOFL
 70
     1
  9
$DIMTVP
 40
0.0
  9
$DIMTIX
 70
     0
  9
$DIMSOXD
 70
     0
  9
$DIMSAH
 70
     0
  9
$DIMBLK1
  1

  9
$DIMBLK2
  1

  9
$DIMSTYLE
  2
ISO-25
  9
$DIMCLRD
 70
     0
  9
$DIMCLRE
 70
     0
  9
$DIMCLRT
 70
     0
  9
$DIMTFAC
 40
1.0
  9
$DIMGAP
 40
0.625
  9
$DIMJUST
 70
     0
  9
$DIMSD1
 70
     0
  9
$DIMSD2
 70
     0
  9
$DIMTOLJ
 70
     0
  9
$DIMTZIN
 70
     8
  9
$DIMALTZ
 70
     0
  9
$DIMALTTZ
 70
     0
  9
$DIMUPT
 70
     0
  9
$DIMDEC
 70
     2
  9
$DIMTDEC
 70
     2
  9
$DIMALTU
 70
     2
  9
$DIMALTTD
 70
     3
  9
$DIMTXSTY
  7
Standard
  9
$DIMAUNIT
 70
     0
  9
$DIMADEC
 70
     0
  9
$DIMALTRND
 40
0.0
  9
$DIMAZIN
 70
     0
  9
$DIMDSEP
 70
    44
  9
$DIMATFIT
 70
     3
  9
$DIMFRAC
 70
     0
  9
$DIMLDRBLK
  1

  9
$DIMLUNIT
 70
     2
  9
$DIMLWD
 70
    -2
  9
$DIMLWE
 70
    -2
  9
$DIMTMOVE
 70
     0
  9
$LUNITS
 70
     2
  9
$LUPREC
 70
     4
  9
$SKETCHINC
 40
1.0
  9
$FILLETRAD
 40
10.0
  9
$AUNITS
 70
     0
  9
$AUPREC
 70
     0
  9
$MENU
  1
.
  9
$ELEVATION
 40
0.0
  9
$PELEVATION
 40
0.0
  9
$THICKNESS
 40
0.0
  9
$LIMCHECK
 70
     0
  9
$CHAMFERA
 40
10.0
  9
$CHAMFERB
 40
10.0
  9
$CHAMFERC
 40
20.0
  9
$CHAMFERD
 40
0.0
  9
$SKPOLY
 70
     0
  9
$TDCREATE
 40
2458995.46875
  9
$TDUCREATE
 40
2458995.385416667
  9
$TDUPDATE
 40
2458995.472222222
  9
$TDUUPDATE
 40
2458995.388888889
  9
$TDINDWG
 40
0.0000000116
  9
$TDUSRTIMER
 40
0.0000000116
  9
$USRTIMER
 70
     1
  9
$ANGBASE
 50
0.0
  9
$ANGDIR
 70
     0
  9
$PDMODE
 70
     0
  9
$PDSIZE
 40
0.0
  9
$PLINEWID
 40
0.0
  9
$SPLFRAME
 70
     0
  9
$SPLINETYPE
 70
     6
  9
$SPLINESEGS
 70
     8
  9
$HANDSEED
  5
DBB
  9
$SURFTAB1
 70
     6
  9
$SURFTAB2
 70
     6
  9
$SURFTYPE
 70
     6
  9
$SURFU
 70
     6
  9
$SURFV
 70
     6
  9
$UCSBASE
  2

  9
$UCSNAME
  2

  9
$UCSORG
 10
0.0
 20
0.0
 30
0.0
  9
$UCSXDIR
 10
1.0
 20
0.0
 30
0.0
  9
$UCSYDIR
 10
0.0
 20
1.0
 30
0.0
  9
$UCSORTHOREF
  2

  9
$UCSORTHOVIEW
 70
     0
  9
$UCSORGTOP
 10
0.0
 20
0.0
 30
0.0
  9
$UCSORGBOTTOM
 10
0.0
 20
0.0
 30
0.0
  9
$UCSORGLEFT
 10
0.0
 20
0.0
 30
0.0
  9
$UCSORGRIGHT
 10
0.0
 20
0.0
 30
0.0
  9
$UCSORGFRONT
 10
0.0
 20
0.0
 30
0.0
  9
$UCSORGBACK
 10
0.0
 20
0.0
 30
0.0
  9
$PUCSBASE
  2

  9
$PUCSNAME
  2

  9
$PUCSORG
 10
0.0
 20
0.0
 30
0.0
  9
$PUCSXDIR
 10
1.0
 20
0.0
 30
0.0
  9
$PUCSYDIR
 10
0.0
 20
1.0
 30
0.0
  9
$PUCSORTHOREF
  2

  9
$PUCSORTHOVIEW
 70
     0
  9
$PUCSORGTOP
 10
0.0
 20
0.0
 30
0.0
  9
$PUCSORGBOTTOM
 10
0.0
 20
0.0
 30
0.0
  9
$PUCSORGLEFT
 10
0.0
 20
0.0
 30
0.0
  9
$PUCSORGRIGHT
 10
0.0
 20
0.0
 30
0.0
  9
$PUCSORGFRONT
 10
0.0
 20
0.0
 30
0.0
  9
$PUCSORGBACK
 10
0.0
 20
0.0
 30
0.0
  9
$USERI1
 70
     0
  9
$USERI2
 70
     0
  9
$USERI3
 70
     0
  9
$USERI4
 70
     0
  9
$USERI5
 70
     0
  9
$USERR1
 40
0.0
  9
$USERR2
 40
0.0
  9
$USERR3
 40
0.0
  9
$USERR4
 40
0.0
  9
$USERR5
 40
0.0
  9
$WORLDVIEW
 70
     1
  9
$SHADEDGE
 70
     3
  9
$SHADEDIF
 70
    70
  9
$TILEMODE
 70
     1
  9
$MAXACTVP
 70
    64
  9
$PINSBASE
 10
0.0
 20
0.0
 30
0.0
  9
$PLIMCHECK
 70
     0
  9
$PEXTMIN
 10
1.000000000000000E+20
 20
1.000000000000000E+20
 30
1.000000000000000E+20
  9
$PEXTMAX
 10
-1.000000000000000E+20
 20
-1.000000000000000E+20
 30
-1.000000000000000E+20
  9
$PLIMMIN
 10
0.0
 20
0.0
  9
$PLIMMAX
 10
420.0
 20
297.0
  9
$UNITMODE
 70
     0
  9
$VISRETAIN
 70
     1
  9
$PLINEGEN
 70
     0
  9
$PSLTSCALE
 70
     1
  9
$TREEDEPTH
 70
  3020
  9
$CMLSTYLE
  2
Standard
  9
$CMLJUST
 70
     0
  9
$CMLSCALE
 40
20.0
  9
$PROXYGRAPHICS
 70
     1
  9
$MEASUREMENT
 70
     1
  9
$CELWEIGHT
370
    -1
  9
$ENDCAPS
280
     0
  9
$JOINSTYLE
280
     0
  9
$LWDISPLAY
290
     0
  9
$INSUNITS
 70
     4
  9
$HYPERLINKBASE
  1

  9
$STYLESHEET
  1

  9
$XEDIT
290
     1
  9
$CEPSNTYPE
380
     0
  9
$PSTYLEMODE
290
     1
  9
$FINGERPRINTGUID
  2
{DB8A9335-4E43-464F-AE02-CE7DB0A8E86E}
  9
$VERSIONGUID
  2
{FAEB1C32-E019-11D5-929B-00C0DF256EC4}
  9
$EXTNAMES
290
     1
  9
$PSVPSCALE
 40
0.0
  9
$OLESTARTUP
290
     0
  0
ENDSEC
  0
SECTION
  2
CLASSES
  0
CLASS
  1
ACDBDICTIONARYWDFLT
  2
AcDbDictionaryWithDefault
  3
ObjectDBX Classes
 90
        0
280
     0
281
     0
  0
CLASS
  1
VISUALSTYLE
  2
AcDbVisualStyle
  3
ObjectDBX Classes
 90
     4095
280
     0
281
     0
  0
CLASS
  1
MATERIAL
  2
AcDbMaterial
  3
ObjectDBX Classes
 90
     1153
280
     0
281
     0
  0
CLASS
  1
SCALE
  2
AcDbScale
  3
ObjectDBX Classes
 90
     1153
280
     0
281
     0
  0
CLASS
  1
DICTIONARYVAR
  2
AcDbDictionaryVar
  3
ObjectDBX Classes
 90
        0
280
     0
281
     0
  0
CLASS
  1
ACDBPLACEHOLDER
  2
AcDbPlaceHolder
  3
ObjectDBX Classes
 90
        0
280
     0
281
     0
  0
CLASS
  1
LAYOUT
  2
AcDbLayout
  3
ObjectDBX Classes
 90
        0
280
     0
281
     0
  0
ENDSEC
  0
SECTION
  2
TABLES
  0
TABLE
  2
VPORT
  5
8
330
0
100
AcDbSymbolTable
 70
     1
  0
VPORT
  5
29
330
8
100
AcDbSymbolTableRecord
100
AcDbViewportTableRecord
  2
*Active
 70
     0
 10
0.0
 20
0.0
 11
1.0
 21
1.0
 12
11.26
 22
4.5
 13
0.0
 23
0.0
 14
10.0
 24
10.0
 15
10.0
 25
10.0
 16
0.0
 26
0.0
 36
1.0
 17
0.0
 27
0.0
 37
0.0
 40
9.0
 41
2.503333333333333
 42
50.0
 43
0.0
 44
0.0
 50
0.0
 51
0.0
 71
     0
 72
   100
 73
     1
 74
     3
 75
     0
 76
     0
 77
     0
 78
     0
281
     0
 65
     1
110
0.0
120
0.0
130
0.0
111
1.0
121
0.0
131
0.0
112
0.0
122
1.0
132
0.0
 79
     0
146
0.0
  0
ENDTAB
  0
TABLE
  2
LTYPE
  5
5
330
0
100
AcDbSymbolTable
 70
     9
  0
LTYPE
  5
14
330
5
100
AcDbSymbolTableRecord
100
AcDbLinetypeTableRecord
  2
ByBlock
 70
     0
  3

 72
    65
 73
     0
 40
0.0
  0
LTYPE
  5
15
330
5
100
AcDbSymbolTableRecord
100
AcDbLinetypeTableRecord
  2
ByLayer
 70
     0
  3

 72
    65
 73
     0
 40
0.0
  0
LTYPE
  5
16
330
5
100
AcDbSymbolTableRecord
100
AcDbLinetypeTableRecord
  2
Continuous
 70
     0
  3
Solid line
 72
    65
 73
     0
 40
0.0
  0
LTYPE
  5
45
330
5
100
AcDbSymbolTableRecord
100
AcDbLinetypeTableRecord
  2
phl_thick
 70
     0
  3
THICK
 72
    65
 73
     0
 40
0.0
  0
LTYPE
  5
4D6
330
5
100
AcDbSymbolTableRecord
100
AcDbLinetypeTableRecord
  2
CUT
 70
     0
  3
THICK
 72
    65
 73
     0
 40
0.0
  0
LTYPE
  5
4DE
330
5
100
AcDbSymbolTableRecord
100
AcDbLinetypeTableRecord
  2
NOCUT
 70
     0
  3
THICK
 72
    65
 73
     0
 40
0.0
  0
LTYPE
  5
4E5
330
5
100
AcDbSymbolTableRecord
100
AcDbLinetypeTableRecord
  2
SK1
 70
     0
  3
THICK
 72
    65
 73
     0
 40
0.0
  0
LTYPE
  5
4ED
330
5
100
AcDbSymbolTableRecord
100
AcDbLinetypeTableRecord
  2
ls_SK2
 70
     0
  3
THIN
 72
    65
 73
     0
 40
0.0
  0
LTYPE
  5
59A
330
5
100
AcDbSymbolTableRecord
100
AcDbLinetypeTableRecord
  2
ls_2
 70
     0
  3
THIN
 72
    65
 73
     0
 40
0.0
  0
LTYPE
  5
6C4
330
5
100
AcDbSymbolTableRecord
100
AcDbLinetypeTableRecord
  2
ls_SK1
 70
     0
  3
THICK
 72
    65
 73
     0
 40
0.0
  0
LTYPE
  5
6FE
330
5
100
AcDbSymbolTableRecord
100
AcDbLinetypeTableRecord
  2
LONGDASH_DASH
 70
     0
  3
THIN_DASHDOT
 72
    65
 73
     4
 40
0.85
 49
0.4
 74
     0
 49
-0.2
 74
     0
 49
0.05
 74
     0
 49
-0.2
 74
     0
  0
ENDTAB
  0
TABLE
  2
LAYER
  5
2
330
0
100
AcDbSymbolTable
 70
     9
  0
LAYER
  5
10
330
2
100
AcDbSymbolTableRecord
100
AcDbLayerTableRecord
  2
0
 70
     0
 62
     7
  6
Continuous
370
    -3
390
F
  0
LAYER
  5
44
330
2
100
AcDbSymbolTableRecord
100
AcDbLayerTableRecord
  2
1
 70
     0
 62
4
  6
CONTINUOUS
370
50
370
    -3
390
F
  0
LAYER
  5
4D5
330
2
100
AcDbSymbolTableRecord
100
AcDbLayerTableRecord
  2
CUT
 70
     0
 62
1
  6
CONTINUOUS
370
25
370
    -3
390
F
  0
LAYER
  5
4DD
330
2
100
AcDbSymbolTableRecord
100
AcDbLayerTableRecord
  2
NOCUT
 70
     0
 62
7
  6
CONTINUOUS
370
25
370
    -3
390
F
  0
LAYER
  5
4E4
330
2
100
AcDbSymbolTableRecord
100
AcDbLayerTableRecord
  2
SK1
 70
     0
 62
4
  6
CONTINUOUS
370
50
370
    -3
390
F
  0
LAYER
  5
4EC
330
2
100
AcDbSymbolTableRecord
100
AcDbLayerTableRecord
  2
SK2
 70
     0
 62
7
  6
CONTINUOUS
370
25
370
    -3
390
F
  0
LAYER
  5
599
330
2
100
AcDbSymbolTableRecord
100
AcDbLayerTableRecord
  2
2
 70
     0
 62
7
  6
CONTINUOUS
370
25
370
    -3
390
F
  0
LAYER
  5
6FD
330
2
100
AcDbSymbolTableRecord
100
AcDbLayerTableRecord
  2
4
 70
     0
 62
2
  6
LONGDASH_DASH
370
25
370
    -3
390
F
  0
LAYER
  5
700
330
2
100
AcDbSymbolTableRecord
100
AcDbLayerTableRecord
  2
SK4
 70
     0
 62
2
  6
LONGDASH_DASH
370
25
370
    -3
390
F
  0
ENDTAB
  0
TABLE
  2
STYLE
  5
3
330
0
100
AcDbSymbolTable
 70
     1
  0
STYLE
  5
11
330
3
100
AcDbSymbolTableRecord
100
AcDbTextStyleTableRecord
  2
Standard
 70
     0
 40
0.0
 41
1.0
 50
0.0
 71
     0
 42
2.5
  3
Monospac821 BT
  4

  0
ENDTAB
  0
TABLE
  2
VIEW
  5
6
330
0
100
AcDbSymbolTable
 70
     0
  0
ENDTAB
  0
TABLE
  2
UCS
  5
7
330
0
100
AcDbSymbolTable
 70
     0
  0
ENDTAB
  0
TABLE
  2
APPID
  5
9
330
0
100
AcDbSymbolTable
 70
     2
  0
APPID
  5
12
330
9
100
AcDbSymbolTableRecord
100
AcDbRegAppTableRecord
  2
ACAD
 70
     0
  0
APPID
  5
3F
330
9
100
AcDbSymbolTableRecord
100
AcDbRegAppTableRecord
  2
ccLab
 70
     0
  0
ENDTAB
  0
TABLE
  2
DIMSTYLE
  5
A
330
0
100
AcDbSymbolTable
 70
     1
100
AcDbDimStyleTable
  0
DIMSTYLE
105
27
330
A
100
AcDbSymbolTableRecord
100
AcDbDimStyleTableRecord
  2
ISO-25
 70
     0
 41
2.5
 42
0.625
 43
3.75
 44
1.25
 73
     0
 74
     0
 77
     1
 78
     8
140
2.5
141
2.5
143
0.03937007874016
147
0.625
171
     3
172
     1
271
     2
272
     2
274
     3
278
    44
283
     0
284
     8
340
11
  0
ENDTAB
  0
TABLE
  2
BLOCK_RECORD
  5
1
330
0
100
AcDbSymbolTable
 70
     2
  0
BLOCK_RECORD
  5
1F
330
1
100
AcDbSymbolTableRecord
100
AcDbBlockTableRecord
  2
*Model_Space
340
22
  0
BLOCK_RECORD
  5
1B
330
1
100
AcDbSymbolTableRecord
100
AcDbBlockTableRecord
  2
*Paper_Space
340
1E
  0
BLOCK_RECORD
  5
23
330
1
100
AcDbSymbolTableRecord
100
AcDbBlockTableRecord
  2
*Paper_Space0
340
26
  0
ENDTAB
  0
ENDSEC
  0
SECTION
  2
BLOCKS
  0
BLOCK
  5
20
330
1F
100
AcDbEntity
  8
0
100
AcDbBlockBegin
  2
*Model_Space
 70
     0
 10
0.0
 20
0.0
 30
0.0
  3
*Model_Space
  1

  0
ENDBLK
  5
21
330
1F
100
AcDbEntity
  8
0
100
AcDbBlockEnd
  0
BLOCK
  5
1C
330
1B
100
AcDbEntity
 67
     1
  8
0
100
AcDbBlockBegin
  2
*Paper_Space
 70
     0
 10
0.0
 20
0.0
 30
0.0
  3
*Paper_Space
  1

  0
ENDBLK
  5
1D
330
1B
100
AcDbEntity
 67
     1
  8
0
100
AcDbBlockEnd
  0
BLOCK
  5
24
330
23
100
AcDbEntity
  8
0
100
AcDbBlockBegin
  2
*Paper_Space0
 70
     0
 10
0.0
 20
0.0
 30
0.0
  3
*Paper_Space0
  1

  0
ENDBLK
  5
25
330
23
100
AcDbEntity
  8
0
100
AcDbBlockEnd
  0
ENDSEC
  0
SECTION
  2
ENTITIES
  0
LINE
  5
701
330
1F
100
AcDbEntity
  8
1
  6
CONTINUOUS
370
50
 62
4
100
AcDbLine
 10
29.386454
 20
-2.081439
 30
0.0
 11
29.385777
 21
-1.859482
 31
0.0
  0
LINE
  5
702
330
1F
100
AcDbEntity
  8
1
  6
CONTINUOUS
370
50
 62
4
100
AcDbLine
 10
29.414125
 20
-1.055275
 30
0.0
 11
29.413115
 21
-0.985688
 31
0.0
  0
LINE
  5
703
330
1F
100
AcDbEntity
  8
1
  6
CONTINUOUS
370
50
 62
4
100
AcDbLine
 10
29.391663
 20
-2.303091
 30
0.0
 11
29.386454
 21
-2.081439
 31
0.0
  0
LINE
  5
704
330
1F
100
AcDbEntity
  8
1
  6
CONTINUOUS
370
50
 62
4
100
AcDbLine
 10
28.317598
 20
0.6095729999999999
 30
0.0
 11
28.316219
 21
0.662172
 31
0.0
  0
LINE
  5
705
330
1F
100
AcDbEntity
  8
1
  6
CONTINUOUS
370
50
 62
4
100
AcDbLine
 10
29.413115
 20
-0.985688
 30
0.0
 11
29.410994
 21
-0.916325
 31
0.0
  0
LINE
  5
706
330
1F
100
AcDbEntity
  8
1
  6
CONTINUOUS
370
50
 62
4
100
AcDbLine
 10
29.99
 20
4.749999
 30
0.0
 11
29.989458
 21
4.766456
 31
0.0
  0
LINE
  5
707
330
1F
100
AcDbEntity
  8
1
  6
CONTINUOUS
370
50
 62
4
100
AcDbLine
 10
28.317547
 20
2.998752
 30
0.0
 11
28.315384
 21
3.057254
 31
0.0
  0
LINE
  5
708
330
1F
100
AcDbEntity
  8
1
  6
CONTINUOUS
370
50
 62
4
100
AcDbLine
 10
29.40147
 20
-2.523922
 30
0.0
 11
29.391663
 21
-2.303091
 31
0.0
  0
LINE
  5
709
330
1F
100
AcDbEntity
  8
1
  6
CONTINUOUS
370
50
 62
4
100
AcDbLine
 10
29.410994
 20
-0.916325
 30
0.0
 11
29.407799
 21
-0.847314
 31
0.0
  0
LINE
  5
70A
330
1F
100
AcDbEntity
  8
1
  6
CONTINUOUS
370
50
 62
4
100
AcDbLine
 10
29.407799
 20
-0.847314
 30
0.0
 11
29.403568
 21
-0.7787839999999999
 31
0.0
  0
LINE
  5
70B
330
1F
100
AcDbEntity
  8
1
  6
CONTINUOUS
370
50
 62
4
100
AcDbLine
 10
29.415857
 20
-2.742216
 30
0.0
 11
29.40147
 21
-2.523922
 31
0.0
  0
LINE
  5
70C
330
1F
100
AcDbEntity
  8
1
  6
CONTINUOUS
370
50
 62
4
100
AcDbLine
 10
4.70453
 20
0.179245
 30
0.0
 11
4.698001
 21
0.270969
 31
0.0
  0
LINE
  5
70D
330
1F
100
AcDbEntity
  8
1
  6
CONTINUOUS
370
50
 62
4
100
AcDbLine
 10
29.403568
 20
-0.7787839999999999
 30
0.0
 11
29.398342
 21
-0.710863
 31
0.0
  0
LINE
  5
70E
330
1F
100
AcDbEntity
  8
1
  6
CONTINUOUS
370
50
 62
4
100
AcDbLine
 10
28.316219
 20
0.662172
 30
0.0
 11
28.312206
 21
0.713038
 31
0.0
  0
LINE
  5
70F
330
1F
100
AcDbEntity
  8
1
  6
CONTINUOUS
370
50
 62
4
100
AcDbLine
 10
28.315384
 20
3.057254
 30
0.0
 11
28.310106
 21
3.118356
 31
0.0
  0
LINE
  5
710
330
1F
100
AcDbEntity
  8
1
  6
CONTINUOUS
370
50
 62
4
100
AcDbLine
 10
29.434675
 20
-2.955956
 30
0.0
 11
29.415857
 21
-2.742216
 31
0.0
  0
LINE
  5
711
330
1F
100
AcDbEntity
  8
1
  6
CONTINUOUS
370
50
 62
4
100
AcDbLine
 10
29.989458
 20
4.766456
 30
0.0
 11
29.987837
 21
4.782806
 31
0.0
  0
LINE
  5
712
330
1F
100
AcDbEntity
  8
1
  6
CONTINUOUS
370
50
 62
4
100
AcDbLine
 10
29.457836
 20
-3.164699
 30
0.0
 11
29.434675
 21
-2.955956
 31
0.0
  0
LINE
  5
713
330
1F
100
AcDbEntity
  8
1
  6
CONTINUOUS
370
50
 62
4
100
AcDbLine
 10
28.310106
 20
3.118356
 30
0.0
 11
28.301767
 21
3.182127
 31
0.0
  0
LINE
  5
714
330
1F
100
AcDbEntity
  8
1
  6
CONTINUOUS
370
50
 62
4
100
AcDbLine
 10
28.312206
 20
0.713038
 30
0.0
 11
28.305607
 21
0.7624489999999999
 31
0.0
  0
LINE
  5
715
330
1F
100
AcDbEntity
  8
1
  6
CONTINUOUS
370
50
 62
4
100
AcDbLine
 10
29.48525
 20
-3.368011
 30
0.0
 11
29.457836
 21
-3.164699
 31
0.0
  0
LINE
  5
716
330
1F
100
AcDbEntity
  8
1
  6
CONTINUOUS
370
50
 62
4
100
AcDbLine
 10
29.516829
 20
-3.565457
 30
0.0
 11
29.48525
 21
-3.368011
 31
0.0
  0
LINE
  5
717
330
1F
100
AcDbEntity
  8
1
  6
CONTINUOUS
370
50
 62
4
100
AcDbLine
 10
29.987837
 20
4.782806
 30
0.0
 11
29.985151
 21
4.798995
 31
0.0
  0
LINE
  5
718
330
1F
100
AcDbEntity
  8
1
  6
CONTINUOUS
370
50
 62
4
100
AcDbLine
 10
28.301767
 20
3.182127
 30
0.0
 11
28.290421
 21
3.248395
 31
0.0
  0
LINE
  5
719
330
1F
100
AcDbEntity
  8
1
  6
CONTINUOUS
370
50
 62
4
100
AcDbLine
 10
4.720399
 20
0.088832
 30
0.0
 11
4.70453
 21
0.179245
 31
0.0
  0
LINE
  5
71A
330
1F
100
AcDbEntity
  8
1
  6
CONTINUOUS
370
50
 62
4
100
AcDbLine
 10
29.552479
 20
-3.756602
 30
0.0
 11
29.516829
 21
-3.565457
 31
0.0
  0
LINE
  5
71B
330
1F
100
AcDbEntity
  8
1
  6
CONTINUOUS
370
50
 62
4
100
AcDbLine
 10
28.305607
 20
0.7624489999999999
 30
0.0
 11
28.296463
 21
0.8103319999999999
 31
0.0
  0
LINE
  5
71C
330
1F
100
AcDbEntity
  8
1
  6
CONTINUOUS
370
50
 62
4
100
AcDbLine
 10
28.290421
 20
3.248395
 30
0.0
 11
28.276123
 21
3.316986
 31
0.0
  0
LINE
  5
71D
330
1F
100
AcDbEntity
  8
1
  6
CONTINUOUS
370
50
 62
4
100
AcDbLine
 10
29.59194
 20
-3.940258
 30
0.0
 11
29.552479
 21
-3.756602
 31
0.0
  0
LINE
  5
71E
330
1F
100
AcDbEntity
  8
1
  6
CONTINUOUS
370
50
 62
4
100
AcDbLine
 10
29.985151
 20
4.798995
 30
0.0
 11
29.981428
 21
4.814894
 31
0.0
  0
LINE
  5
71F
330
1F
100
AcDbEntity
  8
1
  6
CONTINUOUS
370
50
 62
4
100
AcDbLine
 10
28.276123
 20
3.316986
 30
0.0
 11
28.258928
 21
3.387725
 31
0.0
  0
LINE
  5
720
330
1F
100
AcDbEntity
  8
1
  6
CONTINUOUS
370
50
 62
4
100
AcDbLine
 10
29.634876
 20
-4.115289
 30
0.0
 11
29.59194
 21
-3.940258
 31
0.0
  0
LINE
  5
721
330
1F
100
AcDbEntity
  8
1
  6
CONTINUOUS
370
50
 62
4
100
AcDbLine
 10
28.296463
 20
0.8103319999999999
 30
0.0
 11
28.284815
 21
0.856611
 31
0.0
  0
LINE
  5
722
330
1F
100
AcDbEntity
  8
1
  6
CONTINUOUS
370
50
 62
4
100
AcDbLine
 10
29.934273
 20
3.763185
 30
0.0
 11
29.922485
 21
3.807664
 31
0.0
  0
LINE
  5
723
330
1F
100
AcDbEntity
  8
1
  6
CONTINUOUS
370
50
 62
4
100
AcDbLine
 10
28.258928
 20
3.387725
 30
0.0
 11
28.238888
 21
3.460438
 31
0.0
  0
LINE
  5
724
330
1F
100
AcDbEntity
  8
1
  6
CONTINUOUS
370
50
 62
4
100
AcDbLine
 10
4.744899
 20
0.0
 30
0.0
 11
4.720399
 21
0.088832
 31
0.0
  0
LINE
  5
725
330
1F
100
AcDbEntity
  8
1
  6
CONTINUOUS
370
50
 62
4
100
AcDbLine
 10
29.681103
 20
-4.281436
 30
0.0
 11
29.634876
 21
-4.115289
 31
0.0
  0
LINE
  5
726
330
1F
100
AcDbEntity
  8
1
  6
CONTINUOUS
370
50
 62
4
100
AcDbLine
 10
29.937128
 20
3.753013
 30
0.0
 11
29.934273
 21
3.763185
 31
0.0
  0
LINE
  5
727
330
1F
100
AcDbEntity
  8
1
  6
CONTINUOUS
370
50
 62
4
100
AcDbLine
 10
29.981428
 20
4.814894
 30
0.0
 11
29.976746
 21
4.830306
 31
0.0
  0
LINE
  5
728
330
1F
100
AcDbEntity
  8
1
  6
CONTINUOUS
370
50
 62
4
100
AcDbLine
 10
28.238888
 20
3.460438
 30
0.0
 11
28.216061
 21
3.534952
 31
0.0
  0
LINE
  5
729
330
1F
100
AcDbEntity
  8
1
  6
CONTINUOUS
370
50
 62
4
100
AcDbLine
 10
29.730425
 20
-4.438401
 30
0.0
 11
29.681103
 21
-4.281436
 31
0.0
  0
LINE
  5
72A
330
1F
100
AcDbEntity
  8
1
  6
CONTINUOUS
370
50
 62
4
100
AcDbLine
 10
4.699101
 20
-4.994174999999999
 30
0.0
 11
4.698033
 21
-4.990799
 31
0.0
  0
LINE
  5
72B
330
1F
100
AcDbEntity
  8
1
  6
CONTINUOUS
370
50
 62
4
100
AcDbLine
 10
28.284815
 20
0.856611
 30
0.0
 11
28.270706
 21
0.90121
 31
0.0
  0
LINE
  5
72C
330
1F
100
AcDbEntity
  8
1
  6
CONTINUOUS
370
50
 62
4
100
AcDbLine
 10
28.046286
 20
4.037942999999999
 30
0.0
 11
28.023323
 21
4.108773
 31
0.0
  0
LINE
  5
72D
330
1F
100
AcDbEntity
  8
1
  6
CONTINUOUS
370
50
 62
4
100
AcDbLine
 10
29.989454
 20
0.682357
 30
0.0
 11
29.98798
 21
0.686897
 31
0.0
  0
LINE
  5
72E
330
1F
100
AcDbEntity
  8
1
  6
CONTINUOUS
370
50
 62
4
100
AcDbLine
 10
29.966713
 20
0.752346
 30
0.0
 11
29.962254
 21
0.7660739999999999
 31
0.0
  0
LINE
  5
72F
330
1F
100
AcDbEntity
  8
1
  6
CONTINUOUS
370
50
 62
4
100
AcDbLine
 10
29.975067
 20
0.7266349999999999
 30
0.0
 11
29.970875
 21
0.73954
 31
0.0
  0
LINE
  5
730
330
1F
100
AcDbEntity
  8
1
  6
CONTINUOUS
370
50
 62
4
100
AcDbLine
 10
29.904264
 20
0.944545
 30
0.0
 11
29.89917
 21
0.9602259999999999
 31
0.0
  0
LINE
  5
731
330
1F
100
AcDbEntity
  8
1
  6
CONTINUOUS
370
50
 62
4
100
AcDbLine
 10
29.929342
 20
0.867362
 30
0.0
 11
29.924433
 21
0.882473
 31
0.0
  0
LINE
  5
732
330
1F
100
AcDbEntity
  8
1
  6
CONTINUOUS
370
50
 62
4
100
AcDbLine
 10
29.938892
 20
0.83797
 30
0.0
 11
29.934168
 21
0.8525109999999999
 31
0.0
  0
LINE
  5
733
330
1F
100
AcDbEntity
  8
1
  6
CONTINUOUS
370
50
 62
4
100
AcDbLine
 10
29.948053
 20
0.8097759999999999
 30
0.0
 11
29.943501
 21
0.8237869999999999
 31
0.0
  0
LINE
  5
734
330
1F
100
AcDbEntity
  8
1
  6
CONTINUOUS
370
50
 62
4
100
AcDbLine
 10
29.924433
 20
0.882473
 30
0.0
 11
29.919455
 21
0.897795
 31
0.0
  0
LINE
  5
735
330
1F
100
AcDbEntity
  8
1
  6
CONTINUOUS
370
50
 62
4
100
AcDbLine
 10
29.914423
 20
0.913281
 30
0.0
 11
29.909355
 21
0.9288799999999999
 31
0.0
  0
LINE
  5
736
330
1F
100
AcDbEntity
  8
1
  6
CONTINUOUS
370
50
 62
4
100
AcDbLine
 10
29.425161
 20
2.419072
 30
0.0
 11
29.40782
 21
2.472444
 31
0.0
  0
LINE
  5
737
330
1F
100
AcDbEntity
  8
1
  6
CONTINUOUS
370
50
 62
4
100
AcDbLine
 10
29.395378
 20
2.510736
 30
0.0
 11
29.387959
 21
2.53357
 31
0.0
  0
LINE
  5
738
330
1F
100
AcDbEntity
  8
1
  6
CONTINUOUS
370
50
 62
4
100
AcDbLine
 10
29.962254
 20
0.7660739999999999
 30
0.0
 11
29.95756
 21
0.7805209999999999
 31
0.0
  0
LINE
  5
739
330
1F
100
AcDbEntity
  8
1
  6
CONTINUOUS
370
50
 62
4
100
AcDbLine
 10
29.672865
 20
1.656719
 30
0.0
 11
29.625292
 21
1.803137
 31
0.0
  0
LINE
  5
73A
330
1F
100
AcDbEntity
  8
1
  6
CONTINUOUS
370
50
 62
4
100
AcDbLine
 10
29.581343
 20
1.938396
 30
0.0
 11
29.541245
 21
2.061807
 31
0.0
  0
LINE
  5
73B
330
1F
100
AcDbEntity
  8
1
  6
CONTINUOUS
370
50
 62
4
100
AcDbLine
 10
29.982502
 20
0.703753
 30
0.0
 11
29.979053
 21
0.714368
 31
0.0
  0
LINE
  5
73C
330
1F
100
AcDbEntity
  8
1
  6
CONTINUOUS
370
50
 62
4
100
AcDbLine
 10
29.474064
 20
2.268567
 30
0.0
 11
29.447277
 21
2.351009
 31
0.0
  0
LINE
  5
73D
330
1F
100
AcDbEntity
  8
1
  6
CONTINUOUS
370
50
 62
4
100
AcDbLine
 10
29.541245
 20
2.061807
 30
0.0
 11
29.505421
 21
2.172062
 31
0.0
  0
LINE
  5
73E
330
1F
100
AcDbEntity
  8
1
  6
CONTINUOUS
370
50
 62
4
100
AcDbLine
 10
29.777895
 20
1.333471
 30
0.0
 11
29.723852
 21
1.499798
 31
0.0
  0
LINE
  5
73F
330
1F
100
AcDbEntity
  8
1
  6
CONTINUOUS
370
50
 62
4
100
AcDbLine
 10
29.894089
 20
0.975865
 30
0.0
 11
29.834715
 21
1.158599
 31
0.0
  0
LINE
  5
740
330
1F
100
AcDbEntity
  8
1
  6
CONTINUOUS
370
50
 62
4
100
AcDbLine
 10
29.723852
 20
1.499798
 30
0.0
 11
29.672865
 21
1.656719
 31
0.0
  0
LINE
  5
741
330
1F
100
AcDbEntity
  8
1
  6
CONTINUOUS
370
50
 62
4
100
AcDbLine
 10
29.834715
 20
1.158599
 30
0.0
 11
29.777895
 21
1.333471
 31
0.0
  0
LINE
  5
742
330
1F
100
AcDbEntity
  8
1
  6
CONTINUOUS
370
50
 62
4
100
AcDbLine
 10
29.40782
 20
2.472444
 30
0.0
 11
29.395378
 21
2.510736
 31
0.0
  0
LINE
  5
743
330
1F
100
AcDbEntity
  8
1
  6
CONTINUOUS
370
50
 62
4
100
AcDbLine
 10
29.625292
 20
1.803137
 30
0.0
 11
29.581343
 21
1.938396
 31
0.0
  0
LINE
  5
744
330
1F
100
AcDbEntity
  8
1
  6
CONTINUOUS
370
50
 62
4
100
AcDbLine
 10
29.505421
 20
2.172062
 30
0.0
 11
29.474064
 21
2.268567
 31
0.0
  0
LINE
  5
745
330
1F
100
AcDbEntity
  8
1
  6
CONTINUOUS
370
50
 62
4
100
AcDbLine
 10
29.95756
 20
0.7805209999999999
 30
0.0
 11
29.952778
 21
0.795238
 31
0.0
  0
LINE
  5
746
330
1F
100
AcDbEntity
  8
1
  6
CONTINUOUS
370
50
 62
4
100
AcDbLine
 10
29.447277
 20
2.351009
 30
0.0
 11
29.425161
 21
2.419072
 31
0.0
  0
LINE
  5
747
330
1F
100
AcDbEntity
  8
1
  6
CONTINUOUS
370
50
 62
4
100
AcDbLine
 10
29.979053
 20
0.714368
 30
0.0
 11
29.975067
 21
0.7266349999999999
 31
0.0
  0
LINE
  5
748
330
1F
100
AcDbEntity
  8
1
  6
CONTINUOUS
370
50
 62
4
100
AcDbLine
 10
29.919455
 20
0.897795
 30
0.0
 11
29.914423
 21
0.913281
 31
0.0
  0
LINE
  5
749
330
1F
100
AcDbEntity
  8
1
  6
CONTINUOUS
370
50
 62
4
100
AcDbLine
 10
29.387959
 20
2.53357
 30
0.0
 11
29.385502
 21
2.541131
 31
0.0
  0
LINE
  5
74A
330
1F
100
AcDbEntity
  8
1
  6
CONTINUOUS
370
50
 62
4
100
AcDbLine
 10
29.934168
 20
0.8525109999999999
 30
0.0
 11
29.929342
 21
0.867362
 31
0.0
  0
LINE
  5
74B
330
1F
100
AcDbEntity
  8
1
  6
CONTINUOUS
370
50
 62
4
100
AcDbLine
 10
29.89917
 20
0.9602259999999999
 30
0.0
 11
29.894085
 21
0.9758739999999999
 31
0.0
  0
LINE
  5
74C
330
1F
100
AcDbEntity
  8
1
  6
CONTINUOUS
370
50
 62
4
100
AcDbLine
 10
29.943501
 20
0.8237869999999999
 30
0.0
 11
29.938892
 21
0.83797
 31
0.0
  0
LINE
  5
74D
330
1F
100
AcDbEntity
  8
1
  6
CONTINUOUS
370
50
 62
4
100
AcDbLine
 10
29.985575
 20
0.6942969999999999
 30
0.0
 11
29.982502
 21
0.703753
 31
0.0
  0
LINE
  5
74E
330
1F
100
AcDbEntity
  8
1
  6
CONTINUOUS
370
50
 62
4
100
AcDbLine
 10
29.909355
 20
0.9288799999999999
 30
0.0
 11
29.904264
 21
0.944545
 31
0.0
  0
LINE
  5
74F
330
1F
100
AcDbEntity
  8
1
  6
CONTINUOUS
370
50
 62
4
100
AcDbLine
 10
29.98798
 20
0.686897
 30
0.0
 11
29.985575
 21
0.6942969999999999
 31
0.0
  0
LINE
  5
750
330
1F
100
AcDbEntity
  8
1
  6
CONTINUOUS
370
50
 62
4
100
AcDbLine
 10
29.970875
 20
0.73954
 30
0.0
 11
29.966713
 21
0.752346
 31
0.0
  0
LINE
  5
751
330
1F
100
AcDbEntity
  8
1
  6
CONTINUOUS
370
50
 62
4
100
AcDbLine
 10
29.952778
 20
0.795238
 30
0.0
 11
29.948053
 21
0.8097759999999999
 31
0.0
  0
LINE
  5
752
330
1F
100
AcDbEntity
  8
1
  6
CONTINUOUS
370
50
 62
4
100
AcDbLine
 10
29.99
 20
0.680678
 30
0.0
 11
29.989454
 21
0.682357
 31
0.0
  0
LINE
  5
753
330
1F
100
AcDbEntity
  8
1
  6
CONTINUOUS
370
50
 62
4
100
AcDbLine
 10
29.922485
 20
3.807664
 30
0.0
 11
29.909401
 21
3.847646
 31
0.0
  0
LINE
  5
754
330
1F
100
AcDbEntity
  8
1
  6
CONTINUOUS
370
50
 62
4
100
AcDbLine
 10
28.06955
 20
3.967013
 30
0.0
 11
28.046286
 21
4.037942999999999
 31
0.0
  0
LINE
  5
755
330
1F
100
AcDbEntity
  8
1
  6
CONTINUOUS
370
50
 62
4
100
AcDbLine
 10
4.747439
 20
-0.007718
 30
0.0
 11
4.744899
 21
0.0
 31
0.0
  0
LINE
  5
756
330
1F
100
AcDbEntity
  8
1
  6
CONTINUOUS
370
50
 62
4
100
AcDbLine
 10
28.093119
 20
3.895989
 30
0.0
 11
28.06955
 21
3.967013
 31
0.0
  0
LINE
  5
757
330
1F
100
AcDbEntity
  8
1
  6
CONTINUOUS
370
50
 62
4
100
AcDbLine
 10
28.216061
 20
3.534952
 30
0.0
 11
28.190498
 21
3.611092
 31
0.0
  0
LINE
  5
758
330
1F
100
AcDbEntity
  8
1
  6
CONTINUOUS
370
50
 62
4
100
AcDbLine
 10
28.116995
 20
3.824878
 30
0.0
 11
28.093119
 21
3.895989
 31
0.0
  0
LINE
  5
759
330
1F
100
AcDbEntity
  8
1
  6
CONTINUOUS
370
50
 62
4
100
AcDbLine
 10
4.750041
 20
-0.015421
 30
0.0
 11
4.747439
 21
-0.007718
 31
0.0
  0
LINE
  5
75A
330
1F
100
AcDbEntity
  8
1
  6
CONTINUOUS
370
50
 62
4
100
AcDbLine
 10
28.141182
 20
3.753686
 30
0.0
 11
28.116995
 21
3.824878
 31
0.0
  0
LINE
  5
75B
330
1F
100
AcDbEntity
  8
1
  6
CONTINUOUS
370
50
 62
4
100
AcDbLine
 10
28.165682
 20
3.682422
 30
0.0
 11
28.141182
 21
3.753686
 31
0.0
  0
LINE
  5
75C
330
1F
100
AcDbEntity
  8
1
  6
CONTINUOUS
370
50
 62
4
100
AcDbLine
 10
4.752702
 20
-0.02311
 30
0.0
 11
4.750041
 21
-0.015421
 31
0.0
  0
LINE
  5
75D
330
1F
100
AcDbEntity
  8
1
  6
CONTINUOUS
370
50
 62
4
100
AcDbLine
 10
28.190498
 20
3.611092
 30
0.0
 11
28.165682
 21
3.682422
 31
0.0
  0
LINE
  5
75E
330
1F
100
AcDbEntity
  8
1
  6
CONTINUOUS
370
50
 62
4
100
AcDbLine
 10
29.782511
 20
-4.585551
 30
0.0
 11
29.730425
 21
-4.438401
 31
0.0
  0
LINE
  5
75F
330
1F
100
AcDbEntity
  8
1
  6
CONTINUOUS
370
50
 62
4
100
AcDbLine
 10
4.755423
 20
-0.030784
 30
0.0
 11
4.752702
 21
-0.02311
 31
0.0
  0
LINE
  5
760
330
1F
100
AcDbEntity
  8
1
  6
CONTINUOUS
370
50
 62
4
100
AcDbLine
 10
29.940687
 20
3.743129
 30
0.0
 11
29.937128
 21
3.753013
 31
0.0
  0
LINE
  5
761
330
1F
100
AcDbEntity
  8
1
  6
CONTINUOUS
370
50
 62
4
100
AcDbLine
 10
4.758204
 20
-0.038443
 30
0.0
 11
4.755423
 21
-0.030784
 31
0.0
  0
LINE
  5
762
330
1F
100
AcDbEntity
  8
1
  6
CONTINUOUS
370
50
 62
4
100
AcDbLine
 10
4.761043
 20
-0.046086
 30
0.0
 11
4.758204
 21
-0.038443
 31
0.0
  0
LINE
  5
763
330
1F
100
AcDbEntity
  8
1
  6
CONTINUOUS
370
50
 62
4
100
AcDbLine
 10
29.976746
 20
4.830306
 30
0.0
 11
29.971153
 21
4.845194
 31
0.0
  0
LINE
  5
764
330
1F
100
AcDbEntity
  8
1
  6
CONTINUOUS
370
50
 62
4
100
AcDbLine
 10
4.763939
 20
-0.053714
 30
0.0
 11
4.761043
 21
-0.046086
 31
0.0
  0
LINE
  5
765
330
1F
100
AcDbEntity
  8
1
  6
CONTINUOUS
370
50
 62
4
100
AcDbLine
 10
28.270706
 20
0.90121
 30
0.0
 11
28.254179
 21
0.944052
 31
0.0
  0
LINE
  5
766
330
1F
100
AcDbEntity
  8
1
  6
CONTINUOUS
370
50
 62
4
100
AcDbLine
 10
29.83713
 20
-4.72267
 30
0.0
 11
29.782511
 21
-4.585551
 31
0.0
  0
LINE
  5
767
330
1F
100
AcDbEntity
  8
1
  6
CONTINUOUS
370
50
 62
4
100
AcDbLine
 10
29.909401
 20
3.847646
 30
0.0
 11
29.894903
 21
3.883436
 31
0.0
  0
LINE
  5
768
330
1F
100
AcDbEntity
  8
1
  6
CONTINUOUS
370
50
 62
4
100
AcDbLine
 10
29.944813
 20
3.733586
 30
0.0
 11
29.940687
 21
3.743129
 31
0.0
  0
LINE
  5
769
330
1F
100
AcDbEntity
  8
1
  6
CONTINUOUS
370
50
 62
4
100
AcDbLine
 10
29.894089
 20
-4.849658
 30
0.0
 11
29.83713
 21
-4.72267
 31
0.0
  0
LINE
  5
76A
330
1F
100
AcDbEntity
  8
1
  6
CONTINUOUS
370
50
 62
4
100
AcDbLine
 10
29.971153
 20
4.845194
 30
0.0
 11
29.964701
 21
4.859529
 31
0.0
  0
LINE
  5
76B
330
1F
100
AcDbEntity
  8
1
  6
CONTINUOUS
370
50
 62
4
100
AcDbLine
 10
28.254179
 20
0.944052
 30
0.0
 11
28.235273
 21
0.985062
 31
0.0
  0
LINE
  5
76C
330
1F
100
AcDbEntity
  8
1
  6
CONTINUOUS
370
50
 62
4
100
AcDbLine
 10
5.324066999999999
 20
-1.232802
 30
0.0
 11
5.187895
 21
-0.9398599999999999
 31
0.0
  0
LINE
  5
76D
330
1F
100
AcDbEntity
  8
1
  6
CONTINUOUS
370
50
 62
4
100
AcDbLine
 10
5.187895
 20
-0.9398599999999999
 30
0.0
 11
5.050094
 21
-0.645135
 31
0.0
  0
LINE
  5
76E
330
1F
100
AcDbEntity
  8
1
  6
CONTINUOUS
370
50
 62
4
100
AcDbLine
 10
5.459633
 20
-1.522339
 30
0.0
 11
5.324066999999999
 21
-1.232802
 31
0.0
  0
LINE
  5
76F
330
1F
100
AcDbEntity
  8
1
  6
CONTINUOUS
370
50
 62
4
100
AcDbLine
 10
5.050094
 20
-0.645135
 30
0.0
 11
4.909248
 21
-0.349471
 31
0.0
  0
LINE
  5
770
330
1F
100
AcDbEntity
  8
1
  6
CONTINUOUS
370
50
 62
4
100
AcDbLine
 10
5.594706
 20
-1.805059
 30
0.0
 11
5.459633
 21
-1.522339
 31
0.0
  0
LINE
  5
771
330
1F
100
AcDbEntity
  8
1
  6
CONTINUOUS
370
50
 62
4
100
AcDbLine
 10
28.662134
 20
2.774171
 30
0.0
 11
28.023323
 21
4.108773
 31
0.0
  0
LINE
  5
772
330
1F
100
AcDbEntity
  8
1
  6
CONTINUOUS
370
50
 62
4
100
AcDbLine
 10
4.909248
 20
-0.349471
 30
0.0
 11
4.763939
 21
-0.053714
 31
0.0
  0
LINE
  5
773
330
1F
100
AcDbEntity
  8
1
  6
CONTINUOUS
370
50
 62
4
100
AcDbLine
 10
5.730678
 20
-2.080081
 30
0.0
 11
5.594706
 21
-1.805059
 31
0.0
  0
LINE
  5
774
330
1F
100
AcDbEntity
  8
1
  6
CONTINUOUS
370
50
 62
4
100
AcDbLine
 10
29.949394
 20
3.72438
 30
0.0
 11
29.944813
 21
3.733586
 31
0.0
  0
LINE
  5
775
330
1F
100
AcDbEntity
  8
1
  6
CONTINUOUS
370
50
 62
4
100
AcDbLine
 10
29.894903
 20
3.883436
 30
0.0
 11
29.878885
 21
3.915342
 31
0.0
  0
LINE
  5
776
330
1F
100
AcDbEntity
  8
1
  6
CONTINUOUS
370
50
 62
4
100
AcDbLine
 10
5.869056
 20
-2.346751
 30
0.0
 11
5.730678
 21
-2.080081
 31
0.0
  0
LINE
  5
777
330
1F
100
AcDbEntity
  8
1
  6
CONTINUOUS
370
50
 62
4
100
AcDbLine
 10
29.964701
 20
4.859529
 30
0.0
 11
29.957439
 21
4.873276
 31
0.0
  0
LINE
  5
778
330
1F
100
AcDbEntity
  8
1
  6
CONTINUOUS
370
50
 62
4
100
AcDbLine
 10
28.235273
 20
0.985062
 30
0.0
 11
28.214033
 21
1.024165
 31
0.0
  0
LINE
  5
779
330
1F
100
AcDbEntity
  8
1
  6
CONTINUOUS
370
50
 62
4
100
AcDbLine
 10
6.011347
 20
-2.604414
 30
0.0
 11
5.869056
 21
-2.346751
 31
0.0
  0
LINE
  5
77A
330
1F
100
AcDbEntity
  8
1
  6
CONTINUOUS
370
50
 62
4
100
AcDbLine
 10
29.954393
 20
3.715409
 30
0.0
 11
29.949394
 21
3.72438
 31
0.0
  0
LINE
  5
77B
330
1F
100
AcDbEntity
  8
1
  6
CONTINUOUS
370
50
 62
4
100
AcDbLine
 10
28.046286
 20
1.28753
 30
0.0
 11
28.023323
 21
1.326495
 31
0.0
  0
LINE
  5
77C
330
1F
100
AcDbEntity
  8
1
  6
CONTINUOUS
370
50
 62
4
100
AcDbLine
 10
6.158404
 20
-2.851249
 30
0.0
 11
6.011347
 21
-2.604414
 31
0.0
  0
LINE
  5
77D
330
1F
100
AcDbEntity
  8
1
  6
CONTINUOUS
370
50
 62
4
100
AcDbLine
 10
28.06955
 20
1.248905
 30
0.0
 11
28.046286
 21
1.28753
 31
0.0
  0
LINE
  5
77E
330
1F
100
AcDbEntity
  8
1
  6
CONTINUOUS
370
50
 62
4
100
AcDbLine
 10
29.957439
 20
4.873276
 30
0.0
 11
29.949436
 21
4.886381
 31
0.0
  0
LINE
  5
77F
330
1F
100
AcDbEntity
  8
1
  6
CONTINUOUS
370
50
 62
4
100
AcDbLine
 10
29.959719
 20
3.706707
 30
0.0
 11
29.954393
 21
3.715409
 31
0.0
  0
LINE
  5
780
330
1F
100
AcDbEntity
  8
1
  6
CONTINUOUS
370
50
 62
4
100
AcDbLine
 10
28.093119
 20
1.210631
 30
0.0
 11
28.06955
 21
1.248905
 31
0.0
  0
LINE
  5
781
330
1F
100
AcDbEntity
  8
1
  6
CONTINUOUS
370
50
 62
4
100
AcDbLine
 10
29.878885
 20
3.915342
 30
0.0
 11
29.861187
 21
3.943734
 31
0.0
  0
LINE
  5
782
330
1F
100
AcDbEntity
  8
1
  6
CONTINUOUS
370
50
 62
4
100
AcDbLine
 10
28.116995
 20
1.172721
 30
0.0
 11
28.093119
 21
1.210631
 31
0.0
  0
LINE
  5
783
330
1F
100
AcDbEntity
  8
1
  6
CONTINUOUS
370
50
 62
4
100
AcDbLine
 10
28.214033
 20
1.024165
 30
0.0
 11
28.190498
 21
1.061283
 31
0.0
  0
LINE
  5
784
330
1F
100
AcDbEntity
  8
1
  6
CONTINUOUS
370
50
 62
4
100
AcDbLine
 10
28.141182
 20
1.135186
 30
0.0
 11
28.116995
 21
1.172721
 31
0.0
  0
LINE
  5
785
330
1F
100
AcDbEntity
  8
1
  6
CONTINUOUS
370
50
 62
4
100
AcDbLine
 10
6.310439
 20
-3.084377
 30
0.0
 11
6.158404
 21
-2.851249
 31
0.0
  0
LINE
  5
786
330
1F
100
AcDbEntity
  8
1
  6
CONTINUOUS
370
50
 62
4
100
AcDbLine
 10
28.165682
 20
1.098036
 30
0.0
 11
28.141182
 21
1.135186
 31
0.0
  0
LINE
  5
787
330
1F
100
AcDbEntity
  8
1
  6
CONTINUOUS
370
50
 62
4
100
AcDbLine
 10
29.965277
 20
3.698311
 30
0.0
 11
29.959719
 21
3.706707
 31
0.0
  0
LINE
  5
788
330
1F
100
AcDbEntity
  8
1
  6
CONTINUOUS
370
50
 62
4
100
AcDbLine
 10
28.190498
 20
1.061283
 30
0.0
 11
28.165682
 21
1.098036
 31
0.0
  0
LINE
  5
789
330
1F
100
AcDbEntity
  8
1
  6
CONTINUOUS
370
50
 62
4
100
AcDbLine
 10
29.949436
 20
4.886381
 30
0.0
 11
29.940783
 21
4.898760999999999
 31
0.0
  0
LINE
  5
78A
330
1F
100
AcDbEntity
  8
1
  6
CONTINUOUS
370
50
 62
4
100
AcDbLine
 10
29.97109
 20
3.690098
 30
0.0
 11
29.965277
 21
3.698311
 31
0.0
  0
LINE
  5
78B
330
1F
100
AcDbEntity
  8
1
  6
CONTINUOUS
370
50
 62
4
100
AcDbLine
 10
6.469124
 20
-3.303593
 30
0.0
 11
6.310439
 21
-3.084377
 31
0.0
  0
LINE
  5
78C
330
1F
100
AcDbEntity
  8
1
  6
CONTINUOUS
370
50
 62
4
100
AcDbLine
 10
29.977182
 20
3.681987
 30
0.0
 11
29.97109
 21
3.690098
 31
0.0
  0
LINE
  5
78D
330
1F
100
AcDbEntity
  8
1
  6
CONTINUOUS
370
50
 62
4
100
AcDbLine
 10
29.861187
 20
3.943734
 30
0.0
 11
29.84149
 21
3.969093
 31
0.0
  0
LINE
  5
78E
330
1F
100
AcDbEntity
  8
1
  6
CONTINUOUS
370
50
 62
4
100
AcDbLine
 10
29.983501
 20
3.673997
 30
0.0
 11
29.977182
 21
3.681987
 31
0.0
  0
LINE
  5
78F
330
1F
100
AcDbEntity
  8
1
  6
CONTINUOUS
370
50
 62
4
100
AcDbLine
 10
29.940783
 20
4.898760999999999
 30
0.0
 11
29.931536
 21
4.910406
 31
0.0
  0
LINE
  5
790
330
1F
100
AcDbEntity
  8
1
  6
CONTINUOUS
370
50
 62
4
100
AcDbLine
 10
6.636183
 20
-3.508776
 30
0.0
 11
6.469124
 21
-3.303593
 31
0.0
  0
LINE
  5
791
330
1F
100
AcDbEntity
  8
1
  6
CONTINUOUS
370
50
 62
4
100
AcDbLine
 10
29.990002
 20
3.66615
 30
0.0
 11
29.983501
 21
3.673997
 31
0.0
  0
LINE
  5
792
330
1F
100
AcDbEntity
  8
1
  6
CONTINUOUS
370
50
 62
4
100
AcDbLine
 10
7.877045
 20
2.318068
 30
0.0
 11
7.860162
 21
2.337715
 31
0.0
  0
LINE
  5
793
330
1F
100
AcDbEntity
  8
1
  6
CONTINUOUS
370
50
 62
4
100
AcDbLine
 10
6.601294999999999
 20
3.601663
 30
0.0
 11
6.430613999999999
 21
3.797297
 31
0.0
  0
LINE
  5
794
330
1F
100
AcDbEntity
  8
1
  6
CONTINUOUS
370
50
 62
4
100
AcDbLine
 10
6.430613999999999
 20
3.797297
 30
0.0
 11
6.268446
 21
3.983111
 31
0.0
  0
LINE
  5
795
330
1F
100
AcDbEntity
  8
1
  6
CONTINUOUS
370
50
 62
4
100
AcDbLine
 10
6.782395999999999
 20
3.397496
 30
0.0
 11
6.601294999999999
 21
3.601663
 31
0.0
  0
LINE
  5
796
330
1F
100
AcDbEntity
  8
1
  6
CONTINUOUS
370
50
 62
4
100
AcDbLine
 10
6.268446
 20
3.983111
 30
0.0
 11
6.112889
 21
4.157814999999999
 31
0.0
  0
LINE
  5
797
330
1F
100
AcDbEntity
  8
1
  6
CONTINUOUS
370
50
 62
4
100
AcDbLine
 10
29.931536
 20
4.910406
 30
0.0
 11
29.921749
 21
4.921309
 31
0.0
  0
LINE
  5
798
330
1F
100
AcDbEntity
  8
1
  6
CONTINUOUS
370
50
 62
4
100
AcDbLine
 10
7.894788999999999
 20
2.298422
 30
0.0
 11
7.877045
 21
2.318068
 31
0.0
  0
LINE
  5
799
330
1F
100
AcDbEntity
  8
1
  6
CONTINUOUS
370
50
 62
4
100
AcDbLine
 10
6.975487999999999
 20
3.186486
 30
0.0
 11
6.782395999999999
 21
3.397496
 31
0.0
  0
LINE
  5
79A
330
1F
100
AcDbEntity
  8
1
  6
CONTINUOUS
370
50
 62
4
100
AcDbLine
 10
6.813337
 20
-3.69981
 30
0.0
 11
6.636183
 21
-3.508776
 31
0.0
  0
LINE
  5
79B
330
1F
100
AcDbEntity
  8
1
  6
CONTINUOUS
370
50
 62
4
100
AcDbLine
 10
6.112889
 20
4.157814999999999
 30
0.0
 11
5.962375
 21
4.319770999999999
 31
0.0
  0
LINE
  5
79C
330
1F
100
AcDbEntity
  8
1
  6
CONTINUOUS
370
50
 62
4
100
AcDbLine
 10
7.913208999999999
 20
2.278876
 30
0.0
 11
7.894788999999999
 21
2.298422
 31
0.0
  0
LINE
  5
79D
330
1F
100
AcDbEntity
  8
1
  6
CONTINUOUS
370
50
 62
4
100
AcDbLine
 10
7.178884999999999
 20
2.973838
 30
0.0
 11
6.975487999999999
 21
3.186486
 31
0.0
  0
LINE
  5
79E
330
1F
100
AcDbEntity
  8
1
  6
CONTINUOUS
370
50
 62
4
100
AcDbLine
 10
29.84149
 20
3.969093
 30
0.0
 11
29.819599
 21
3.99159
 31
0.0
  0
LINE
  5
79F
330
1F
100
AcDbEntity
  8
1
  6
CONTINUOUS
370
50
 62
4
100
AcDbLine
 10
7.932124
 20
2.259531
 30
0.0
 11
7.913208999999999
 21
2.278876
 31
0.0
  0
LINE
  5
7A0
330
1F
100
AcDbEntity
  8
1
  6
CONTINUOUS
370
50
 62
4
100
AcDbLine
 10
5.962375
 20
4.319770999999999
 30
0.0
 11
5.81686
 21
4.466136
 31
0.0
  0
LINE
  5
7A1
330
1F
100
AcDbEntity
  8
1
  6
CONTINUOUS
370
50
 62
4
100
AcDbLine
 10
7.393158
 20
2.761182
 30
0.0
 11
7.178884999999999
 21
2.973838
 31
0.0
  0
LINE
  5
7A2
330
1F
100
AcDbEntity
  8
1
  6
CONTINUOUS
370
50
 62
4
100
AcDbLine
 10
7.951349
 20
2.240486
 30
0.0
 11
7.932124
 21
2.259531
 31
0.0
  0
LINE
  5
7A3
330
1F
100
AcDbEntity
  8
1
  6
CONTINUOUS
370
50
 62
4
100
AcDbLine
 10
29.921749
 20
4.921309
 30
0.0
 11
29.911474
 21
4.931467
 31
0.0
  0
LINE
  5
7A4
330
1F
100
AcDbEntity
  8
1
  6
CONTINUOUS
370
50
 62
4
100
AcDbLine
 10
29.99
 20
0.003856
 30
0.0
 11
29.989458
 21
0.00438
 31
0.0
  0
LINE
  5
7A5
330
1F
100
AcDbEntity
  8
1
  6
CONTINUOUS
370
50
 62
4
100
AcDbLine
 10
7.970701999999999
 20
2.221843
 30
0.0
 11
7.951349
 21
2.240486
 31
0.0
  0
LINE
  5
7A6
330
1F
100
AcDbEntity
  8
1
  6
CONTINUOUS
370
50
 62
4
100
AcDbLine
 10
7.989999999999999
 20
2.203702
 30
0.0
 11
7.970701999999999
 21
2.221843
 31
0.0
  0
LINE
  5
7A7
330
1F
100
AcDbEntity
  8
1
  6
CONTINUOUS
370
50
 62
4
100
AcDbLine
 10
7.619764999999999
 20
2.548985
 30
0.0
 11
7.393158
 21
2.761182
 31
0.0
  0
LINE
  5
7A8
330
1F
100
AcDbEntity
  8
1
  6
CONTINUOUS
370
50
 62
4
100
AcDbLine
 10
7.001703
 20
-3.876056
 30
0.0
 11
6.813337
 21
-3.69981
 31
0.0
  0
LINE
  5
7A9
330
1F
100
AcDbEntity
  8
1
  6
CONTINUOUS
370
50
 62
4
100
AcDbLine
 10
7.991425
 20
2.202487
 30
0.0
 11
7.989999999999999
 21
2.203811
 31
0.0
  0
LINE
  5
7AA
330
1F
100
AcDbEntity
  8
1
  6
CONTINUOUS
370
50
 62
4
100
AcDbLine
 10
7.992851
 20
2.201164
 30
0.0
 11
7.991425
 21
2.202487
 31
0.0
  0
LINE
  5
7AB
330
1F
100
AcDbEntity
  8
1
  6
CONTINUOUS
370
50
 62
4
100
AcDbLine
 10
7.994278
 20
2.199842
 30
0.0
 11
7.992851
 21
2.201164
 31
0.0
  0
LINE
  5
7AC
330
1F
100
AcDbEntity
  8
1
  6
CONTINUOUS
370
50
 62
4
100
AcDbLine
 10
7.995706999999999
 20
2.19852
 30
0.0
 11
7.994278
 21
2.199842
 31
0.0
  0
LINE
  5
7AD
330
1F
100
AcDbEntity
  8
1
  6
CONTINUOUS
370
50
 62
4
100
AcDbLine
 10
7.997136999999999
 20
2.1972
 30
0.0
 11
7.995706999999999
 21
2.19852
 31
0.0
  0
LINE
  5
7AE
330
1F
100
AcDbEntity
  8
1
  6
CONTINUOUS
370
50
 62
4
100
AcDbLine
 10
7.998568
 20
2.195881
 30
0.0
 11
7.997136999999999
 21
2.1972
 31
0.0
  0
LINE
  5
7AF
330
1F
100
AcDbEntity
  8
1
  6
CONTINUOUS
370
50
 62
4
100
AcDbLine
 10
8.0
 20
2.194562
 30
0.0
 11
7.998568
 21
2.195881
 31
0.0
  0
LINE
  5
7B0
330
1F
100
AcDbEntity
  8
1
  6
CONTINUOUS
370
50
 62
4
100
AcDbLine
 10
5.81686
 20
4.466136
 30
0.0
 11
5.674926
 21
4.596051999999999
 31
0.0
  0
LINE
  5
7B1
330
1F
100
AcDbEntity
  8
1
  6
CONTINUOUS
370
50
 62
4
100
AcDbLine
 10
7.860162
 20
2.337715
 30
0.0
 11
7.619764999999999
 21
2.548985
 31
0.0
  0
LINE
  5
7B2
330
1F
100
AcDbEntity
  8
1
  6
CONTINUOUS
370
50
 62
4
100
AcDbLine
 10
29.911474
 20
4.931467
 30
0.0
 11
29.900764
 21
4.940871
 31
0.0
  0
LINE
  5
7B3
330
1F
100
AcDbEntity
  8
1
  6
CONTINUOUS
370
50
 62
4
100
AcDbLine
 10
19.94331
 20
-0.031229
 30
0.0
 11
19.943253
 21
-0.031181
 31
0.0
  0
LINE
  5
7B4
330
1F
100
AcDbEntity
  8
1
  6
CONTINUOUS
370
50
 62
4
100
AcDbLine
 10
29.989458
 20
0.00438
 30
0.0
 11
29.987837
 21
0.005734
 31
0.0
  0
LINE
  5
7B5
330
1F
100
AcDbEntity
  8
1
  6
CONTINUOUS
370
50
 62
4
100
AcDbLine
 10
19.943369
 20
-0.031278
 30
0.0
 11
19.94331
 21
-0.031229
 31
0.0
  0
LINE
  5
7B6
330
1F
100
AcDbEntity
  8
1
  6
CONTINUOUS
370
50
 62
4
100
AcDbLine
 10
19.248632
 20
0.52567
 30
0.0
 11
18.925154
 21
0.7900459999999999
 31
0.0
  0
LINE
  5
7B7
330
1F
100
AcDbEntity
  8
1
  6
CONTINUOUS
370
50
 62
4
100
AcDbLine
 10
29.842304
 20
0.123581
 30
0.0
 11
29.829905
 21
0.133704
 31
0.0
  0
LINE
  5
7B8
330
1F
100
AcDbEntity
  8
1
  6
CONTINUOUS
370
50
 62
4
100
AcDbLine
 10
29.829905
 20
0.133704
 30
0.0
 11
29.817345
 21
0.143955
 31
0.0
  0
LINE
  5
7B9
330
1F
100
AcDbEntity
  8
1
  6
CONTINUOUS
370
50
 62
4
100
AcDbLine
 10
29.854521
 20
0.113614
 30
0.0
 11
29.842304
 21
0.123581
 31
0.0
  0
LINE
  5
7BA
330
1F
100
AcDbEntity
  8
1
  6
CONTINUOUS
370
50
 62
4
100
AcDbLine
 10
29.817345
 20
0.143955
 30
0.0
 11
29.804646
 21
0.154315
 31
0.0
  0
LINE
  5
7BB
330
1F
100
AcDbEntity
  8
1
  6
CONTINUOUS
370
50
 62
4
100
AcDbLine
 10
29.86651
 20
0.103834
 30
0.0
 11
29.854521
 21
0.113614
 31
0.0
  0
LINE
  5
7BC
330
1F
100
AcDbEntity
  8
1
  6
CONTINUOUS
370
50
 62
4
100
AcDbLine
 10
29.819599
 20
3.99159
 30
0.0
 11
29.795328
 21
4.011381
 31
0.0
  0
LINE
  5
7BD
330
1F
100
AcDbEntity
  8
1
  6
CONTINUOUS
370
50
 62
4
100
AcDbLine
 10
29.804646
 20
0.154315
 30
0.0
 11
29.791838
 21
0.164758
 31
0.0
  0
LINE
  5
7BE
330
1F
100
AcDbEntity
  8
1
  6
CONTINUOUS
370
50
 62
4
100
AcDbLine
 10
29.878241
 20
0.094274
 30
0.0
 11
29.86651
 21
0.103834
 31
0.0
  0
LINE
  5
7BF
330
1F
100
AcDbEntity
  8
1
  6
CONTINUOUS
370
50
 62
4
100
AcDbLine
 10
29.791838
 20
0.164758
 30
0.0
 11
29.778946
 21
0.175258
 31
0.0
  0
LINE
  5
7C0
330
1F
100
AcDbEntity
  8
1
  6
CONTINUOUS
370
50
 62
4
100
AcDbLine
 10
29.889671
 20
0.084967
 30
0.0
 11
29.878241
 21
0.094274
 31
0.0
  0
LINE
  5
7C1
330
1F
100
AcDbEntity
  8
1
  6
CONTINUOUS
370
50
 62
4
100
AcDbLine
 10
29.778946
 20
0.175258
 30
0.0
 11
29.765997
 21
0.18579
 31
0.0
  0
LINE
  5
7C2
330
1F
100
AcDbEntity
  8
1
  6
CONTINUOUS
370
50
 62
4
100
AcDbLine
 10
29.900764
 20
0.075947
 30
0.0
 11
29.889671
 21
0.084967
 31
0.0
  0
LINE
  5
7C3
330
1F
100
AcDbEntity
  8
1
  6
CONTINUOUS
370
50
 62
4
100
AcDbLine
 10
29.987837
 20
0.005734
 30
0.0
 11
29.985151
 21
0.007915
 31
0.0
  0
LINE
  5
7C4
330
1F
100
AcDbEntity
  8
1
  6
CONTINUOUS
370
50
 62
4
100
AcDbLine
 10
29.765997
 20
0.18579
 30
0.0
 11
29.753008
 21
0.196336
 31
0.0
  0
LINE
  5
7C5
330
1F
100
AcDbEntity
  8
1
  6
CONTINUOUS
370
50
 62
4
100
AcDbLine
 10
29.911474
 20
0.067253
 30
0.0
 11
29.900764
 21
0.075947
 31
0.0
  0
LINE
  5
7C6
330
1F
100
AcDbEntity
  8
1
  6
CONTINUOUS
370
50
 62
4
100
AcDbLine
 10
29.921749
 20
0.058926
 30
0.0
 11
29.911474
 21
0.067253
 31
0.0
  0
LINE
  5
7C7
330
1F
100
AcDbEntity
  8
1
  6
CONTINUOUS
370
50
 62
4
100
AcDbLine
 10
19.943253
 20
-0.031181
 30
0.0
 11
19.943195
 21
-0.031134
 31
0.0
  0
LINE
  5
7C8
330
1F
100
AcDbEntity
  8
1
  6
CONTINUOUS
370
50
 62
4
100
AcDbLine
 10
29.753008
 20
0.196336
 30
0.0
 11
29.74
 21
0.206876
 31
0.0
  0
LINE
  5
7C9
330
1F
100
AcDbEntity
  8
1
  6
CONTINUOUS
370
50
 62
4
100
AcDbLine
 10
8.780084
 20
0.8476549999999999
 30
0.0
 11
8.521621
 21
1.056904
 31
0.0
  0
LINE
  5
7CA
330
1F
100
AcDbEntity
  8
1
  6
CONTINUOUS
370
50
 62
4
100
AcDbLine
 10
29.931536
 20
0.05101
 30
0.0
 11
29.921749
 21
0.058926
 31
0.0
  0
LINE
  5
7CB
330
1F
100
AcDbEntity
  8
1
  6
CONTINUOUS
370
50
 62
4
100
AcDbLine
 10
19.574865
 20
0.26199
 30
0.0
 11
19.248632
 21
0.52567
 31
0.0
  0
LINE
  5
7CC
330
1F
100
AcDbEntity
  8
1
  6
CONTINUOUS
370
50
 62
4
100
AcDbLine
 10
18.925154
 20
0.7900459999999999
 30
0.0
 11
18.596882
 21
1.055148
 31
0.0
  0
LINE
  5
7CD
330
1F
100
AcDbEntity
  8
1
  6
CONTINUOUS
370
50
 62
4
100
AcDbLine
 10
29.940783
 20
0.043544
 30
0.0
 11
29.931536
 21
0.05101
 31
0.0
  0
LINE
  5
7CE
330
1F
100
AcDbEntity
  8
1
  6
CONTINUOUS
370
50
 62
4
100
AcDbLine
 10
19.943136
 20
-0.031088
 30
0.0
 11
19.943079
 21
-0.031042
 31
0.0
  0
LINE
  5
7CF
330
1F
100
AcDbEntity
  8
1
  6
CONTINUOUS
370
50
 62
4
100
AcDbLine
 10
5.674926
 20
4.596051999999999
 30
0.0
 11
5.534907
 21
4.708953999999999
 31
0.0
  0
LINE
  5
7D0
330
1F
100
AcDbEntity
  8
1
  6
CONTINUOUS
370
50
 62
4
100
AcDbLine
 10
29.949436
 20
0.036572
 30
0.0
 11
29.940783
 21
0.043544
 31
0.0
  0
LINE
  5
7D1
330
1F
100
AcDbEntity
  8
1
  6
CONTINUOUS
370
50
 62
4
100
AcDbLine
 10
29.957439
 20
0.030135
 30
0.0
 11
29.949436
 21
0.036572
 31
0.0
  0
LINE
  5
7D2
330
1F
100
AcDbEntity
  8
1
  6
CONTINUOUS
370
50
 62
4
100
AcDbLine
 10
29.985151
 20
0.007915
 30
0.0
 11
29.981428
 21
0.010909
 31
0.0
  0
LINE
  5
7D3
330
1F
100
AcDbEntity
  8
1
  6
CONTINUOUS
370
50
 62
4
100
AcDbLine
 10
7.19954
 20
-4.035132
 30
0.0
 11
7.001703
 21
-3.876056
 31
0.0
  0
LINE
  5
7D4
330
1F
100
AcDbEntity
  8
1
  6
CONTINUOUS
370
50
 62
4
100
AcDbLine
 10
9.044824
 20
0.634922
 30
0.0
 11
8.780084
 21
0.8476549999999999
 31
0.0
  0
LINE
  5
7D5
330
1F
100
AcDbEntity
  8
1
  6
CONTINUOUS
370
50
 62
4
100
AcDbLine
 10
8.521621
 20
1.056904
 30
0.0
 11
8.263866
 21
1.264023
 31
0.0
  0
LINE
  5
7D6
330
1F
100
AcDbEntity
  8
1
  6
CONTINUOUS
370
50
 62
4
100
AcDbLine
 10
29.964701
 20
0.024309
 30
0.0
 11
29.957439
 21
0.030135
 31
0.0
  0
LINE
  5
7D7
330
1F
100
AcDbEntity
  8
1
  6
CONTINUOUS
370
50
 62
4
100
AcDbLine
 10
29.981428
 20
0.010909
 30
0.0
 11
29.976746
 21
0.014662
 31
0.0
  0
LINE
  5
7D8
330
1F
100
AcDbEntity
  8
1
  6
CONTINUOUS
370
50
 62
4
100
AcDbLine
 10
29.971153
 20
0.01914
 30
0.0
 11
29.964701
 21
0.024309
 31
0.0
  0
LINE
  5
7D9
330
1F
100
AcDbEntity
  8
1
  6
CONTINUOUS
370
50
 62
4
100
AcDbLine
 10
29.976746
 20
0.014662
 30
0.0
 11
29.971153
 21
0.01914
 31
0.0
  0
LINE
  5
7DA
330
1F
100
AcDbEntity
  8
1
  6
CONTINUOUS
370
50
 62
4
100
AcDbLine
 10
29.74
 20
0.206876
 30
0.0
 11
28.768414
 21
0.9826849999999999
 31
0.0
  0
LINE
  5
7DB
330
1F
100
AcDbEntity
  8
1
  6
CONTINUOUS
370
50
 62
4
100
AcDbLine
 10
29.74
 20
1.012354
 30
0.0
 11
29.544819
 21
1.167869
 31
0.0
  0
LINE
  5
7DC
330
1F
100
AcDbEntity
  8
1
  6
CONTINUOUS
370
50
 62
4
100
AcDbLine
 10
19.903957
 20
0.000327
 30
0.0
 11
19.574865
 21
0.26199
 31
0.0
  0
LINE
  5
7DD
330
1F
100
AcDbEntity
  8
1
  6
CONTINUOUS
370
50
 62
4
100
AcDbLine
 10
9.312393
 20
0.422224
 30
0.0
 11
9.044824
 21
0.634922
 31
0.0
  0
LINE
  5
7DE
330
1F
100
AcDbEntity
  8
1
  6
CONTINUOUS
370
50
 62
4
100
AcDbLine
 10
19.318281
 20
1.2681
 30
0.0
 11
19.005417
 21
1.515861
 31
0.0
  0
LINE
  5
7DF
330
1F
100
AcDbEntity
  8
1
  6
CONTINUOUS
370
50
 62
4
100
AcDbLine
 10
19.910524
 20
-0.004851
 30
0.0
 11
19.903957
 21
0.000327
 31
0.0
  0
LINE
  5
7E0
330
1F
100
AcDbEntity
  8
1
  6
CONTINUOUS
370
50
 62
4
100
AcDbLine
 10
19.917091
 20
-0.010028
 30
0.0
 11
19.910524
 21
-0.004851
 31
0.0
  0
LINE
  5
7E1
330
1F
100
AcDbEntity
  8
1
  6
CONTINUOUS
370
50
 62
4
100
AcDbLine
 10
19.923658
 20
-0.015203
 30
0.0
 11
19.917091
 21
-0.010028
 31
0.0
  0
LINE
  5
7E2
330
1F
100
AcDbEntity
  8
1
  6
CONTINUOUS
370
50
 62
4
100
AcDbLine
 10
19.930227
 20
-0.020378
 30
0.0
 11
19.923658
 21
-0.015203
 31
0.0
  0
LINE
  5
7E3
330
1F
100
AcDbEntity
  8
1
  6
CONTINUOUS
370
50
 62
4
100
AcDbLine
 10
19.936796
 20
-0.025552
 30
0.0
 11
19.930227
 21
-0.020378
 31
0.0
  0
LINE
  5
7E4
330
1F
100
AcDbEntity
  8
1
  6
CONTINUOUS
370
50
 62
4
100
AcDbLine
 10
19.943367
 20
-0.030724
 30
0.0
 11
19.936796
 21
-0.025552
 31
0.0
  0
LINE
  5
7E5
330
1F
100
AcDbEntity
  8
1
  6
CONTINUOUS
370
50
 62
4
100
AcDbLine
 10
19.640469
 20
1.014525
 30
0.0
 11
19.318281
 21
1.2681
 31
0.0
  0
LINE
  5
7E6
330
1F
100
AcDbEntity
  8
1
  6
CONTINUOUS
370
50
 62
4
100
AcDbLine
 10
29.544819
 20
1.167869
 30
0.0
 11
29.283815
 21
1.373273
 31
0.0
  0
LINE
  5
7E7
330
1F
100
AcDbEntity
  8
1
  6
CONTINUOUS
370
50
 62
4
100
AcDbLine
 10
9.581496
 20
0.210519
 30
0.0
 11
9.312393
 21
0.422224
 31
0.0
  0
LINE
  5
7E8
330
1F
100
AcDbEntity
  8
1
  6
CONTINUOUS
370
50
 62
4
100
AcDbLine
 10
8.263866
 20
1.264023
 30
0.0
 11
8.0
 21
1.471149
 31
0.0
  0
LINE
  5
7E9
330
1F
100
AcDbEntity
  8
1
  6
CONTINUOUS
370
50
 62
4
100
AcDbLine
 10
18.596882
 20
1.055148
 30
0.0
 11
18.252565
 21
1.324714
 31
0.0
  0
LINE
  5
7EA
330
1F
100
AcDbEntity
  8
1
  6
CONTINUOUS
370
50
 62
4
100
AcDbLine
 10
20.25013
 20
-0.270412
 30
0.0
 11
19.943367
 21
-0.030724
 31
0.0
  0
LINE
  5
7EB
330
1F
100
AcDbEntity
  8
1
  6
CONTINUOUS
370
50
 62
4
100
AcDbLine
 10
19.005417
 20
1.515861
 30
0.0
 11
18.693129
 21
1.759426
 31
0.0
  0
LINE
  5
7EC
330
1F
100
AcDbEntity
  8
1
  6
CONTINUOUS
370
50
 62
4
100
AcDbLine
 10
19.966692
 20
0.7601399999999999
 30
0.0
 11
19.640469
 21
1.014525
 31
0.0
  0
LINE
  5
7ED
330
1F
100
AcDbEntity
  8
1
  6
CONTINUOUS
370
50
 62
4
100
AcDbLine
 10
19.943195
 20
-0.031134
 30
0.0
 11
19.943136
 21
-0.031088
 31
0.0
  0
LINE
  5
7EE
330
1F
100
AcDbEntity
  8
1
  6
CONTINUOUS
370
50
 62
4
100
AcDbLine
 10
29.900764
 20
4.940871
 30
0.0
 11
29.889671
 21
4.949517999999999
 31
0.0
  0
LINE
  5
7EF
330
1F
100
AcDbEntity
  8
1
  6
CONTINUOUS
370
50
 62
4
100
AcDbLine
 10
9.85182
 20
0.000059
 30
0.0
 11
9.581496
 21
0.210519
 31
0.0
  0
LINE
  5
7F0
330
1F
100
AcDbEntity
  8
1
  6
CONTINUOUS
370
50
 62
4
100
AcDbLine
 10
8.803343
 20
1.615546
 30
0.0
 11
8.545384
 21
1.815416
 31
0.0
  0
LINE
  5
7F1
330
1F
100
AcDbEntity
  8
1
  6
CONTINUOUS
370
50
 62
4
100
AcDbLine
 10
9.865074
 20
-0.010203
 30
0.0
 11
9.85182
 21
0.000059
 31
0.0
  0
LINE
  5
7F2
330
1F
100
AcDbEntity
  8
1
  6
CONTINUOUS
370
50
 62
4
100
AcDbLine
 10
29.746149
 20
1.007595
 30
0.0
 11
29.74
 21
1.012354
 31
0.0
  0
LINE
  5
7F3
330
1F
100
AcDbEntity
  8
1
  6
CONTINUOUS
370
50
 62
4
100
AcDbLine
 10
9.87833
 20
-0.020461
 30
0.0
 11
9.865074
 21
-0.010203
 31
0.0
  0
LINE
  5
7F4
330
1F
100
AcDbEntity
  8
1
  6
CONTINUOUS
370
50
 62
4
100
AcDbLine
 10
9.884958
 20
-0.025589
 30
0.0
 11
9.87833
 21
-0.020461
 31
0.0
  0
LINE
  5
7F5
330
1F
100
AcDbEntity
  8
1
  6
CONTINUOUS
370
50
 62
4
100
AcDbLine
 10
9.891587999999999
 20
-0.030716
 30
0.0
 11
9.884958
 21
-0.025589
 31
0.0
  0
LINE
  5
7F6
330
1F
100
AcDbEntity
  8
1
  6
CONTINUOUS
370
50
 62
4
100
AcDbLine
 10
20.295399
 20
0.5059509999999999
 30
0.0
 11
19.966692
 21
0.7601399999999999
 31
0.0
  0
LINE
  5
7F7
330
1F
100
AcDbEntity
  8
1
  6
CONTINUOUS
370
50
 62
4
100
AcDbLine
 10
9.063025
 20
1.414769
 30
0.0
 11
8.803343
 21
1.615546
 31
0.0
  0
LINE
  5
7F8
330
1F
100
AcDbEntity
  8
1
  6
CONTINUOUS
370
50
 62
4
100
AcDbLine
 10
9.324408
 20
1.213331
 30
0.0
 11
9.063025
 21
1.414769
 31
0.0
  0
LINE
  5
7F9
330
1F
100
AcDbEntity
  8
1
  6
CONTINUOUS
370
50
 62
4
100
AcDbLine
 10
20.558147
 20
-0.507549
 30
0.0
 11
20.25013
 21
-0.270412
 31
0.0
  0
LINE
  5
7FA
330
1F
100
AcDbEntity
  8
1
  6
CONTINUOUS
370
50
 62
4
100
AcDbLine
 10
9.587314
 20
1.011464
 30
0.0
 11
9.324408
 21
1.213331
 31
0.0
  0
LINE
  5
7FB
330
1F
100
AcDbEntity
  8
1
  6
CONTINUOUS
370
50
 62
4
100
AcDbLine
 10
20.625765
 20
0.252464
 30
0.0
 11
20.295399
 21
0.5059509999999999
 31
0.0
  0
LINE
  5
7FC
330
1F
100
AcDbEntity
  8
1
  6
CONTINUOUS
370
50
 62
4
100
AcDbLine
 10
10.306377
 20
-0.348885
 30
0.0
 11
9.891587999999999
 21
-0.030716
 31
0.0
  0
LINE
  5
7FD
330
1F
100
AcDbEntity
  8
1
  6
CONTINUOUS
370
50
 62
4
100
AcDbLine
 10
8.545384
 20
1.815416
 30
0.0
 11
8.281706
 21
2.017222
 31
0.0
  0
LINE
  5
7FE
330
1F
100
AcDbEntity
  8
1
  6
CONTINUOUS
370
50
 62
4
100
AcDbLine
 10
29.283815
 20
1.373273
 30
0.0
 11
28.959309
 21
1.621521
 31
0.0
  0
LINE
  5
7FF
330
1F
100
AcDbEntity
  8
1
  6
CONTINUOUS
370
50
 62
4
100
AcDbLine
 10
9.851431999999999
 20
0.809423
 30
0.0
 11
9.587314
 21
1.011464
 31
0.0
  0
LINE
  5
800
330
1F
100
AcDbEntity
  8
1
  6
CONTINUOUS
370
50
 62
4
100
AcDbLine
 10
10.116451
 20
0.607464
 30
0.0
 11
9.851431999999999
 21
0.809423
 31
0.0
  0
LINE
  5
801
330
1F
100
AcDbEntity
  8
1
  6
CONTINUOUS
370
50
 62
4
100
AcDbLine
 10
20.956968
 20
0.000184
 30
0.0
 11
20.625765
 21
0.252464
 31
0.0
  0
LINE
  5
802
330
1F
100
AcDbEntity
  8
1
  6
CONTINUOUS
370
50
 62
4
100
AcDbLine
 10
10.382562
 20
0.405426
 30
0.0
 11
10.116451
 21
0.607464
 31
0.0
  0
LINE
  5
803
330
1F
100
AcDbEntity
  8
1
  6
CONTINUOUS
370
50
 62
4
100
AcDbLine
 10
20.86688
 20
-0.7417659999999999
 30
0.0
 11
20.558147
 21
-0.507549
 31
0.0
  0
LINE
  5
804
330
1F
100
AcDbEntity
  8
1
  6
CONTINUOUS
370
50
 62
4
100
AcDbLine
 10
10.650187
 20
0.202849
 30
0.0
 11
10.382562
 21
0.405426
 31
0.0
  0
LINE
  5
805
330
1F
100
AcDbEntity
  8
1
  6
CONTINUOUS
370
50
 62
4
100
AcDbLine
 10
13.386485
 20
-1.86186
 30
0.0
 11
12.278203
 21
-1.024018
 31
0.0
  0
LINE
  5
806
330
1F
100
AcDbEntity
  8
1
  6
CONTINUOUS
370
50
 62
4
100
AcDbLine
 10
10.91884
 20
-0.000028
 30
0.0
 11
10.650187
 21
0.202849
 31
0.0
  0
LINE
  5
807
330
1F
100
AcDbEntity
  8
1
  6
CONTINUOUS
370
50
 62
4
100
AcDbLine
 10
21.469227
 20
-0.386652
 30
0.0
 11
20.956968
 21
0.000184
 31
0.0
  0
LINE
  5
808
330
1F
100
AcDbEntity
  8
1
  6
CONTINUOUS
370
50
 62
4
100
AcDbLine
 10
10.722965
 20
-0.663466
 30
0.0
 11
10.306377
 21
-0.348885
 31
0.0
  0
LINE
  5
809
330
1F
100
AcDbEntity
  8
1
  6
CONTINUOUS
370
50
 62
4
100
AcDbLine
 10
18.252565
 20
1.324714
 30
0.0
 11
17.898474
 21
1.591979
 31
0.0
  0
LINE
  5
80A
330
1F
100
AcDbEntity
  8
1
  6
CONTINUOUS
370
50
 62
4
100
AcDbLine
 10
19.94302
 20
-0.030998
 30
0.0
 11
19.942963
 21
-0.030955
 31
0.0
  0
LINE
  5
80B
330
1F
100
AcDbEntity
  8
1
  6
CONTINUOUS
370
50
 62
4
100
AcDbLine
 10
12.278203
 20
-1.024018
 30
0.0
 11
10.91884
 21
-0.000028
 31
0.0
  0
LINE
  5
80C
330
1F
100
AcDbEntity
  8
1
  6
CONTINUOUS
370
50
 62
4
100
AcDbLine
 10
18.693129
 20
1.759426
 30
0.0
 11
18.371029
 21
2.00137
 31
0.0
  0
LINE
  5
80D
330
1F
100
AcDbEntity
  8
1
  6
CONTINUOUS
370
50
 62
4
100
AcDbLine
 10
21.98052
 20
-0.769409
 30
0.0
 11
21.469227
 21
-0.386652
 31
0.0
  0
LINE
  5
80E
330
1F
100
AcDbEntity
  8
1
  6
CONTINUOUS
370
50
 62
4
100
AcDbLine
 10
14.012817
 20
-2.33018
 30
0.0
 11
13.386485
 21
-1.86186
 31
0.0
  0
LINE
  5
80F
330
1F
100
AcDbEntity
  8
1
  6
CONTINUOUS
370
50
 62
4
100
AcDbLine
 10
21.175787
 20
-0.972691
 30
0.0
 11
20.86688
 21
-0.7417659999999999
 31
0.0
  0
LINE
  5
810
330
1F
100
AcDbEntity
  8
1
  6
CONTINUOUS
370
50
 62
4
100
AcDbLine
 10
19.943079
 20
-0.031042
 30
0.0
 11
19.94302
 21
-0.030998
 31
0.0
  0
LINE
  5
811
330
1F
100
AcDbEntity
  8
1
  6
CONTINUOUS
370
50
 62
4
100
AcDbLine
 10
11.140636
 20
-0.974494
 30
0.0
 11
10.722965
 21
-0.663466
 31
0.0
  0
LINE
  5
812
330
1F
100
AcDbEntity
  8
1
  6
CONTINUOUS
370
50
 62
4
100
AcDbLine
 10
22.490906
 20
-1.14943
 30
0.0
 11
21.98052
 21
-0.769409
 31
0.0
  0
LINE
  5
813
330
1F
100
AcDbEntity
  8
1
  6
CONTINUOUS
370
50
 62
4
100
AcDbLine
 10
5.687678
 20
4.595289
 30
0.0
 11
5.534907
 21
4.708993
 31
0.0
  0
LINE
  5
814
330
1F
100
AcDbEntity
  8
1
  6
CONTINUOUS
370
50
 62
4
100
AcDbLine
 10
22.997984
 20
-1.525785
 30
0.0
 11
22.490906
 21
-1.14943
 31
0.0
  0
LINE
  5
815
330
1F
100
AcDbEntity
  8
1
  6
CONTINUOUS
370
50
 62
4
100
AcDbLine
 10
5.840693
 20
4.481942
 30
0.0
 11
5.687678
 21
4.595289
 31
0.0
  0
LINE
  5
816
330
1F
100
AcDbEntity
  8
1
  6
CONTINUOUS
370
50
 62
4
100
AcDbLine
 10
28.768414
 20
0.9826849999999999
 30
0.0
 11
27.746469
 21
1.738736
 31
0.0
  0
LINE
  5
817
330
1F
100
AcDbEntity
  8
1
  6
CONTINUOUS
370
50
 62
4
100
AcDbLine
 10
23.501225
 20
-1.898052
 30
0.0
 11
22.997984
 21
-1.525785
 31
0.0
  0
LINE
  5
818
330
1F
100
AcDbEntity
  8
1
  6
CONTINUOUS
370
50
 62
4
100
AcDbLine
 10
8.281706
 20
2.017222
 30
0.0
 11
8.0
 21
2.225428
 31
0.0
  0
LINE
  5
819
330
1F
100
AcDbEntity
  8
1
  6
CONTINUOUS
370
50
 62
4
100
AcDbLine
 10
21.484791
 20
-1.200395
 30
0.0
 11
21.175787
 21
-0.972691
 31
0.0
  0
LINE
  5
81A
330
1F
100
AcDbEntity
  8
1
  6
CONTINUOUS
370
50
 62
4
100
AcDbLine
 10
28.959309
 20
1.621521
 30
0.0
 11
28.573626
 21
1.905572
 31
0.0
  0
LINE
  5
81B
330
1F
100
AcDbEntity
  8
1
  6
CONTINUOUS
370
50
 62
4
100
AcDbLine
 10
23.997847
 20
-2.263646
 30
0.0
 11
23.501225
 21
-1.898052
 31
0.0
  0
LINE
  5
81C
330
1F
100
AcDbEntity
  8
1
  6
CONTINUOUS
370
50
 62
4
100
AcDbLine
 10
11.557858
 20
-1.281404
 30
0.0
 11
11.140636
 21
-0.974494
 31
0.0
  0
LINE
  5
81D
330
1F
100
AcDbEntity
  8
1
  6
CONTINUOUS
370
50
 62
4
100
AcDbLine
 10
29.752434
 20
1.002983
 30
0.0
 11
29.746149
 21
1.007595
 31
0.0
  0
LINE
  5
81E
330
1F
100
AcDbEntity
  8
1
  6
CONTINUOUS
370
50
 62
4
100
AcDbLine
 10
6.279126
 20
4.161167
 30
0.0
 11
5.840693
 21
4.481942
 31
0.0
  0
LINE
  5
81F
330
1F
100
AcDbEntity
  8
1
  6
CONTINUOUS
370
50
 62
4
100
AcDbLine
 10
17.898474
 20
1.591979
 30
0.0
 11
17.542173
 21
1.851717
 31
0.0
  0
LINE
  5
820
330
1F
100
AcDbEntity
  8
1
  6
CONTINUOUS
370
50
 62
4
100
AcDbLine
 10
11.97538
 20
-1.585393
 30
0.0
 11
11.557858
 21
-1.281404
 31
0.0
  0
LINE
  5
821
330
1F
100
AcDbEntity
  8
1
  6
CONTINUOUS
370
50
 62
4
100
AcDbLine
 10
21.795006
 20
-1.426145
 30
0.0
 11
21.484791
 21
-1.200395
 31
0.0
  0
LINE
  5
822
330
1F
100
AcDbEntity
  8
1
  6
CONTINUOUS
370
50
 62
4
100
AcDbLine
 10
19.942963
 20
-0.030955
 30
0.0
 11
19.942905
 21
-0.030913
 31
0.0
  0
LINE
  5
823
330
1F
100
AcDbEntity
  8
1
  6
CONTINUOUS
370
50
 62
4
100
AcDbLine
 10
6.909665
 20
3.704889
 30
0.0
 11
6.279126
 21
4.161167
 31
0.0
  0
LINE
  5
824
330
1F
100
AcDbEntity
  8
1
  6
CONTINUOUS
370
50
 62
4
100
AcDbLine
 10
24.479969
 20
-2.612124
 30
0.0
 11
23.997847
 21
-2.263646
 31
0.0
  0
LINE
  5
825
330
1F
100
AcDbEntity
  8
1
  6
CONTINUOUS
370
50
 62
4
100
AcDbLine
 10
12.392224
 20
-1.885718
 30
0.0
 11
11.97538
 21
-1.585393
 31
0.0
  0
LINE
  5
826
330
1F
100
AcDbEntity
  8
1
  6
CONTINUOUS
370
50
 62
4
100
AcDbLine
 10
18.371029
 20
2.00137
 30
0.0
 11
18.043337
 21
2.237053
 31
0.0
  0
LINE
  5
827
330
1F
100
AcDbEntity
  8
1
  6
CONTINUOUS
370
50
 62
4
100
AcDbLine
 10
22.105864
 20
-1.649666
 30
0.0
 11
21.795006
 21
-1.426145
 31
0.0
  0
LINE
  5
828
330
1F
100
AcDbEntity
  8
1
  6
CONTINUOUS
370
50
 62
4
100
AcDbLine
 10
12.807004
 20
-2.181242
 30
0.0
 11
12.392224
 21
-1.885718
 31
0.0
  0
LINE
  5
829
330
1F
100
AcDbEntity
  8
1
  6
CONTINUOUS
370
50
 62
4
100
AcDbLine
 10
22.416626
 20
-1.870523
 30
0.0
 11
22.105864
 21
-1.649666
 31
0.0
  0
LINE
  5
82A
330
1F
100
AcDbEntity
  8
1
  6
CONTINUOUS
370
50
 62
4
100
AcDbLine
 10
7.448450999999999
 20
3.32288
 30
0.0
 11
6.909665
 21
3.704889
 31
0.0
  0
LINE
  5
82B
330
1F
100
AcDbEntity
  8
1
  6
CONTINUOUS
370
50
 62
4
100
AcDbLine
 10
13.21833
 20
-2.470828
 30
0.0
 11
12.807004
 21
-2.181242
 31
0.0
  0
LINE
  5
82C
330
1F
100
AcDbEntity
  8
1
  6
CONTINUOUS
370
50
 62
4
100
AcDbLine
 10
17.542173
 20
1.851717
 30
0.0
 11
17.184338
 21
2.103613
 31
0.0
  0
LINE
  5
82D
330
1F
100
AcDbEntity
  8
1
  6
CONTINUOUS
370
50
 62
4
100
AcDbLine
 10
28.573626
 20
1.905572
 30
0.0
 11
28.129086
 21
2.218382
 31
0.0
  0
LINE
  5
82E
330
1F
100
AcDbEntity
  8
1
  6
CONTINUOUS
370
50
 62
4
100
AcDbLine
 10
22.726553
 20
-2.088283
 30
0.0
 11
22.416626
 21
-1.870523
 31
0.0
  0
LINE
  5
82F
330
1F
100
AcDbEntity
  8
1
  6
CONTINUOUS
370
50
 62
4
100
AcDbLine
 10
7.990068
 20
2.94524
 30
0.0
 11
7.448450999999999
 21
3.32288
 31
0.0
  0
LINE
  5
830
330
1F
100
AcDbEntity
  8
1
  6
CONTINUOUS
370
50
 62
4
100
AcDbLine
 10
14.547441
 20
-2.701917
 30
0.0
 11
14.012817
 21
-2.33018
 31
0.0
  0
LINE
  5
831
330
1F
100
AcDbEntity
  8
1
  6
CONTINUOUS
370
50
 62
4
100
AcDbLine
 10
13.623901
 20
-2.75261
 30
0.0
 11
13.21833
 21
-2.470828
 31
0.0
  0
LINE
  5
832
330
1F
100
AcDbEntity
  8
1
  6
CONTINUOUS
370
50
 62
4
100
AcDbLine
 10
23.034904
 20
-2.302509
 30
0.0
 11
22.726553
 21
-2.088283
 31
0.0
  0
LINE
  5
833
330
1F
100
AcDbEntity
  8
1
  6
CONTINUOUS
370
50
 62
4
100
AcDbLine
 10
29.758856
 20
0.998535
 30
0.0
 11
29.752434
 21
1.002983
 31
0.0
  0
LINE
  5
834
330
1F
100
AcDbEntity
  8
1
  6
CONTINUOUS
370
50
 62
4
100
AcDbLine
 10
7.996665999999999
 20
2.940679
 30
0.0
 11
7.994999
 21
2.941832
 31
0.0
  0
LINE
  5
835
330
1F
100
AcDbEntity
  8
1
  6
CONTINUOUS
370
50
 62
4
100
AcDbLine
 10
7.993331
 20
2.942984
 30
0.0
 11
7.991663999999999
 21
2.944137
 31
0.0
  0
LINE
  5
836
330
1F
100
AcDbEntity
  8
1
  6
CONTINUOUS
370
50
 62
4
100
AcDbLine
 10
7.991663999999999
 20
2.944137
 30
0.0
 11
7.989998
 21
2.945289
 31
0.0
  0
LINE
  5
837
330
1F
100
AcDbEntity
  8
1
  6
CONTINUOUS
370
50
 62
4
100
AcDbLine
 10
8.0
 20
2.938375
 30
0.0
 11
7.996665999999999
 21
2.940679
 31
0.0
  0
LINE
  5
838
330
1F
100
AcDbEntity
  8
1
  6
CONTINUOUS
370
50
 62
4
100
AcDbLine
 10
7.994999
 20
2.941832
 30
0.0
 11
7.993331
 21
2.942984
 31
0.0
  0
LINE
  5
839
330
1F
100
AcDbEntity
  8
1
  6
CONTINUOUS
370
50
 62
4
100
AcDbLine
 10
29.889671
 20
4.949517999999999
 30
0.0
 11
29.878241
 21
4.957407
 31
0.0
  0
LINE
  5
83A
330
1F
100
AcDbEntity
  8
1
  6
CONTINUOUS
370
50
 62
4
100
AcDbLine
 10
18.043337
 20
2.237053
 30
0.0
 11
17.712595
 21
2.465018
 31
0.0
  0
LINE
  5
83B
330
1F
100
AcDbEntity
  8
1
  6
CONTINUOUS
370
50
 62
4
100
AcDbLine
 10
5.534907
 20
4.708953999999999
 30
0.0
 11
5.409745
 21
4.795176
 31
0.0
  0
LINE
  5
83C
330
1F
100
AcDbEntity
  8
1
  6
CONTINUOUS
370
50
 62
4
100
AcDbLine
 10
23.34094
 20
-2.512769
 30
0.0
 11
23.034904
 21
-2.302509
 31
0.0
  0
LINE
  5
83D
330
1F
100
AcDbEntity
  8
1
  6
CONTINUOUS
370
50
 62
4
100
AcDbLine
 10
7.407684
 20
-4.177891
 30
0.0
 11
7.19954
 21
-4.035132
 31
0.0
  0
LINE
  5
83E
330
1F
100
AcDbEntity
  8
1
  6
CONTINUOUS
370
50
 62
4
100
AcDbLine
 10
27.746469
 20
1.738736
 30
0.0
 11
26.711939
 21
2.44465
 31
0.0
  0
LINE
  5
83F
330
1F
100
AcDbEntity
  8
1
  6
CONTINUOUS
370
50
 62
4
100
AcDbLine
 10
17.184338
 20
2.103613
 30
0.0
 11
16.82423
 21
2.348434
 31
0.0
  0
LINE
  5
840
330
1F
100
AcDbEntity
  8
1
  6
CONTINUOUS
370
50
 62
4
100
AcDbLine
 10
23.644394
 20
-2.718836
 30
0.0
 11
23.34094
 21
-2.512769
 31
0.0
  0
LINE
  5
841
330
1F
100
AcDbEntity
  8
1
  6
CONTINUOUS
370
50
 62
4
100
AcDbLine
 10
28.269541
 20
1.159471
 30
0.0
 11
28.023323
 21
1.326495
 31
0.0
  0
LINE
  5
842
330
1F
100
AcDbEntity
  8
1
  6
CONTINUOUS
370
50
 62
4
100
AcDbLine
 10
28.515812
 20
0.99242
 30
0.0
 11
28.269541
 21
1.159471
 31
0.0
  0
LINE
  5
843
330
1F
100
AcDbEntity
  8
1
  6
CONTINUOUS
370
50
 62
4
100
AcDbLine
 10
28.753712
 20
0.831056
 30
0.0
 11
28.515812
 21
0.99242
 31
0.0
  0
LINE
  5
844
330
1F
100
AcDbEntity
  8
1
  6
CONTINUOUS
370
50
 62
4
100
AcDbLine
 10
28.971386
 20
0.683419
 30
0.0
 11
28.753712
 21
0.831056
 31
0.0
  0
LINE
  5
845
330
1F
100
AcDbEntity
  8
1
  6
CONTINUOUS
370
50
 62
4
100
AcDbLine
 10
29.16651
 20
0.55108
 30
0.0
 11
28.971386
 21
0.683419
 31
0.0
  0
LINE
  5
846
330
1F
100
AcDbEntity
  8
1
  6
CONTINUOUS
370
50
 62
4
100
AcDbLine
 10
29.45985
 20
0.352133
 30
0.0
 11
29.336332
 21
0.435905
 31
0.0
  0
LINE
  5
847
330
1F
100
AcDbEntity
  8
1
  6
CONTINUOUS
370
50
 62
4
100
AcDbLine
 10
29.336332
 20
0.435905
 30
0.0
 11
29.16651
 21
0.55108
 31
0.0
  0
LINE
  5
848
330
1F
100
AcDbEntity
  8
1
  6
CONTINUOUS
370
50
 62
4
100
AcDbLine
 10
29.538351
 20
0.298893
 30
0.0
 11
29.45985
 21
0.352133
 31
0.0
  0
LINE
  5
849
330
1F
100
AcDbEntity
  8
1
  6
CONTINUOUS
370
50
 62
4
100
AcDbLine
 10
29.588251
 20
0.265054
 30
0.0
 11
29.538351
 21
0.298893
 31
0.0
  0
LINE
  5
84A
330
1F
100
AcDbEntity
  8
1
  6
CONTINUOUS
370
50
 62
4
100
AcDbLine
 10
29.625963
 20
0.239483
 30
0.0
 11
29.588251
 21
0.265054
 31
0.0
  0
LINE
  5
84B
330
1F
100
AcDbEntity
  8
1
  6
CONTINUOUS
370
50
 62
4
100
AcDbLine
 10
29.665867
 20
0.212431
 30
0.0
 11
29.625963
 21
0.239483
 31
0.0
  0
LINE
  5
84C
330
1F
100
AcDbEntity
  8
1
  6
CONTINUOUS
370
50
 62
4
100
AcDbLine
 10
29.70377
 20
0.186742
 30
0.0
 11
29.665867
 21
0.212431
 31
0.0
  0
LINE
  5
84D
330
1F
100
AcDbEntity
  8
1
  6
CONTINUOUS
370
50
 62
4
100
AcDbLine
 10
29.737774
 20
0.163699
 30
0.0
 11
29.70377
 21
0.186742
 31
0.0
  0
LINE
  5
84E
330
1F
100
AcDbEntity
  8
1
  6
CONTINUOUS
370
50
 62
4
100
AcDbLine
 10
29.76819
 20
0.143095
 30
0.0
 11
29.737774
 21
0.163699
 31
0.0
  0
LINE
  5
84F
330
1F
100
AcDbEntity
  8
1
  6
CONTINUOUS
370
50
 62
4
100
AcDbLine
 10
29.795328
 20
0.12472
 30
0.0
 11
29.76819
 21
0.143095
 31
0.0
  0
LINE
  5
850
330
1F
100
AcDbEntity
  8
1
  6
CONTINUOUS
370
50
 62
4
100
AcDbLine
 10
29.819599
 20
0.108293
 30
0.0
 11
29.795328
 21
0.12472
 31
0.0
  0
LINE
  5
851
330
1F
100
AcDbEntity
  8
1
  6
CONTINUOUS
370
50
 62
4
100
AcDbLine
 10
29.84149
 20
0.093486
 30
0.0
 11
29.819599
 21
0.108293
 31
0.0
  0
LINE
  5
852
330
1F
100
AcDbEntity
  8
1
  6
CONTINUOUS
370
50
 62
4
100
AcDbLine
 10
29.983501
 20
-0.002302
 30
0.0
 11
29.977182
 21
0.00197
 31
0.0
  0
LINE
  5
853
330
1F
100
AcDbEntity
  8
1
  6
CONTINUOUS
370
50
 62
4
100
AcDbLine
 10
29.990002
 20
-0.006697
 30
0.0
 11
29.983501
 21
-0.002302
 31
0.0
  0
LINE
  5
854
330
1F
100
AcDbEntity
  8
1
  6
CONTINUOUS
370
50
 62
4
100
AcDbLine
 10
29.861187
 20
0.080171
 30
0.0
 11
29.84149
 21
0.093486
 31
0.0
  0
LINE
  5
855
330
1F
100
AcDbEntity
  8
1
  6
CONTINUOUS
370
50
 62
4
100
AcDbLine
 10
29.97109
 20
0.006087
 30
0.0
 11
29.965277
 21
0.010016
 31
0.0
  0
LINE
  5
856
330
1F
100
AcDbEntity
  8
1
  6
CONTINUOUS
370
50
 62
4
100
AcDbLine
 10
29.977182
 20
0.00197
 30
0.0
 11
29.97109
 21
0.006087
 31
0.0
  0
LINE
  5
857
330
1F
100
AcDbEntity
  8
1
  6
CONTINUOUS
370
50
 62
4
100
AcDbLine
 10
29.965277
 20
0.010016
 30
0.0
 11
29.959719
 21
0.01377
 31
0.0
  0
LINE
  5
858
330
1F
100
AcDbEntity
  8
1
  6
CONTINUOUS
370
50
 62
4
100
AcDbLine
 10
29.878885
 20
0.068218
 30
0.0
 11
29.861187
 21
0.080171
 31
0.0
  0
LINE
  5
859
330
1F
100
AcDbEntity
  8
1
  6
CONTINUOUS
370
50
 62
4
100
AcDbLine
 10
29.959719
 20
0.01377
 30
0.0
 11
29.954393
 21
0.017366
 31
0.0
  0
LINE
  5
85A
330
1F
100
AcDbEntity
  8
1
  6
CONTINUOUS
370
50
 62
4
100
AcDbLine
 10
29.954393
 20
0.017366
 30
0.0
 11
29.949394
 21
0.02074
 31
0.0
  0
LINE
  5
85B
330
1F
100
AcDbEntity
  8
1
  6
CONTINUOUS
370
50
 62
4
100
AcDbLine
 10
29.949394
 20
0.02074
 30
0.0
 11
29.944813
 21
0.023831
 31
0.0
  0
LINE
  5
85C
330
1F
100
AcDbEntity
  8
1
  6
CONTINUOUS
370
50
 62
4
100
AcDbLine
 10
29.894903
 20
0.057411
 30
0.0
 11
29.878885
 21
0.068218
 31
0.0
  0
LINE
  5
85D
330
1F
100
AcDbEntity
  8
1
  6
CONTINUOUS
370
50
 62
4
100
AcDbLine
 10
29.944813
 20
0.023831
 30
0.0
 11
29.940687
 21
0.026612
 31
0.0
  0
LINE
  5
85E
330
1F
100
AcDbEntity
  8
1
  6
CONTINUOUS
370
50
 62
4
100
AcDbLine
 10
29.909401
 20
0.047644
 30
0.0
 11
29.894903
 21
0.057411
 31
0.0
  0
LINE
  5
85F
330
1F
100
AcDbEntity
  8
1
  6
CONTINUOUS
370
50
 62
4
100
AcDbLine
 10
24.979824
 20
-2.948817
 30
0.0
 11
24.479969
 21
-2.612124
 31
0.0
  0
LINE
  5
860
330
1F
100
AcDbEntity
  8
1
  6
CONTINUOUS
370
50
 62
4
100
AcDbLine
 10
29.940687
 20
0.026612
 30
0.0
 11
29.937128
 21
0.029009
 31
0.0
  0
LINE
  5
861
330
1F
100
AcDbEntity
  8
1
  6
CONTINUOUS
370
50
 62
4
100
AcDbLine
 10
14.023606
 20
-3.021742
 30
0.0
 11
13.623901
 21
-2.75261
 31
0.0
  0
LINE
  5
862
330
1F
100
AcDbEntity
  8
1
  6
CONTINUOUS
370
50
 62
4
100
AcDbLine
 10
29.922485
 20
0.03884
 30
0.0
 11
29.909401
 21
0.047644
 31
0.0
  0
LINE
  5
863
330
1F
100
AcDbEntity
  8
1
  6
CONTINUOUS
370
50
 62
4
100
AcDbLine
 10
29.937128
 20
0.029009
 30
0.0
 11
29.934273
 21
0.030927
 31
0.0
  0
LINE
  5
864
330
1F
100
AcDbEntity
  8
1
  6
CONTINUOUS
370
50
 62
4
100
AcDbLine
 10
29.934273
 20
0.030927
 30
0.0
 11
29.922485
 21
0.03884
 31
0.0
  0
LINE
  5
865
330
1F
100
AcDbEntity
  8
1
  6
CONTINUOUS
370
50
 62
4
100
AcDbLine
 10
23.945711
 20
-2.920617
 30
0.0
 11
23.644394
 21
-2.718836
 31
0.0
  0
LINE
  5
866
330
1F
100
AcDbEntity
  8
1
  6
CONTINUOUS
370
50
 62
4
100
AcDbLine
 10
28.129086
 20
2.218382
 30
0.0
 11
27.634071
 21
2.549013
 31
0.0
  0
LINE
  5
867
330
1F
100
AcDbEntity
  8
1
  6
CONTINUOUS
370
50
 62
4
100
AcDbLine
 10
17.712595
 20
2.465018
 30
0.0
 11
17.379669
 21
2.684971
 31
0.0
  0
LINE
  5
868
330
1F
100
AcDbEntity
  8
1
  6
CONTINUOUS
370
50
 62
4
100
AcDbLine
 10
24.246994
 20
-3.119028
 30
0.0
 11
23.945711
 21
-2.920617
 31
0.0
  0
LINE
  5
869
330
1F
100
AcDbEntity
  8
1
  6
CONTINUOUS
370
50
 62
4
100
AcDbLine
 10
16.82423
 20
2.348434
 30
0.0
 11
16.462355
 21
2.586151
 31
0.0
  0
LINE
  5
86A
330
1F
100
AcDbEntity
  8
1
  6
CONTINUOUS
370
50
 62
4
100
AcDbLine
 10
29.765417
 20
0.9942709999999999
 30
0.0
 11
29.758856
 21
0.998535
 31
0.0
  0
LINE
  5
86B
330
1F
100
AcDbEntity
  8
1
  6
CONTINUOUS
370
50
 62
4
100
AcDbLine
 10
29.795328
 20
4.011381
 30
0.0
 11
29.76819
 21
4.02878
 31
0.0
  0
LINE
  5
86C
330
1F
100
AcDbEntity
  8
1
  6
CONTINUOUS
370
50
 62
4
100
AcDbLine
 10
15.087906
 20
-3.047887
 30
0.0
 11
14.547441
 21
-2.701917
 31
0.0
  0
LINE
  5
86D
330
1F
100
AcDbEntity
  8
1
  6
CONTINUOUS
370
50
 62
4
100
AcDbLine
 10
16.462355
 20
2.586151
 30
0.0
 11
16.099916
 21
2.816232
 31
0.0
  0
LINE
  5
86E
330
1F
100
AcDbEntity
  8
1
  6
CONTINUOUS
370
50
 62
4
100
AcDbLine
 10
17.379669
 20
2.684971
 30
0.0
 11
17.045431
 21
2.896615
 31
0.0
  0
LINE
  5
86F
330
1F
100
AcDbEntity
  8
1
  6
CONTINUOUS
370
50
 62
4
100
AcDbLine
 10
27.634071
 20
2.549013
 30
0.0
 11
27.129566
 21
2.867949
 31
0.0
  0
LINE
  5
870
330
1F
100
AcDbEntity
  8
1
  6
CONTINUOUS
370
50
 62
4
100
AcDbLine
 10
26.711939
 20
2.44465
 30
0.0
 11
25.70768
 21
3.079265
 31
0.0
  0
LINE
  5
871
330
1F
100
AcDbEntity
  8
1
  6
CONTINUOUS
370
50
 62
4
100
AcDbLine
 10
14.440189
 20
-3.283296
 30
0.0
 11
14.023606
 21
-3.021742
 31
0.0
  0
LINE
  5
872
330
1F
100
AcDbEntity
  8
1
  6
CONTINUOUS
370
50
 62
4
100
AcDbLine
 10
24.643127
 20
-3.36761
 30
0.0
 11
24.246994
 21
-3.119028
 31
0.0
  0
LINE
  5
873
330
1F
100
AcDbEntity
  8
1
  6
CONTINUOUS
370
50
 62
4
100
AcDbLine
 10
25.490969
 20
-3.263666
 30
0.0
 11
24.979824
 21
-2.948817
 31
0.0
  0
LINE
  5
874
330
1F
100
AcDbEntity
  8
1
  6
CONTINUOUS
370
50
 62
4
100
AcDbLine
 10
16.099916
 20
2.816232
 30
0.0
 11
15.738123
 21
3.038149
 31
0.0
  0
LINE
  5
875
330
1F
100
AcDbEntity
  8
1
  6
CONTINUOUS
370
50
 62
4
100
AcDbLine
 10
7.877045
 20
-4.430128
 30
0.0
 11
7.860162
 21
-4.419795
 31
0.0
  0
LINE
  5
876
330
1F
100
AcDbEntity
  8
1
  6
CONTINUOUS
370
50
 62
4
100
AcDbLine
 10
8.630544
 20
0.722027
 30
0.0
 11
8.315268999999999
 21
0.914391
 31
0.0
  0
LINE
  5
877
330
1F
100
AcDbEntity
  8
1
  6
CONTINUOUS
370
50
 62
4
100
AcDbLine
 10
29.878241
 20
4.957407
 30
0.0
 11
29.86651
 21
4.964542
 31
0.0
  0
LINE
  5
878
330
1F
100
AcDbEntity
  8
1
  6
CONTINUOUS
370
50
 62
4
100
AcDbLine
 10
8.945826
 20
0.530343
 30
0.0
 11
8.630544
 21
0.722027
 31
0.0
  0
LINE
  5
879
330
1F
100
AcDbEntity
  8
1
  6
CONTINUOUS
370
50
 62
4
100
AcDbLine
 10
17.045431
 20
2.896615
 30
0.0
 11
16.710747
 21
3.099653
 31
0.0
  0
LINE
  5
87A
330
1F
100
AcDbEntity
  8
1
  6
CONTINUOUS
370
50
 62
4
100
AcDbLine
 10
29.772108
 20
0.990215
 30
0.0
 11
29.765417
 21
0.9942709999999999
 31
0.0
  0
LINE
  5
87B
330
1F
100
AcDbEntity
  8
1
  6
CONTINUOUS
370
50
 62
4
100
AcDbLine
 10
29.94356
 20
0.025365
 30
0.0
 11
29.934273
 21
0.030983
 31
0.0
  0
LINE
  5
87C
330
1F
100
AcDbEntity
  8
1
  6
CONTINUOUS
370
50
 62
4
100
AcDbLine
 10
29.952848
 20
0.019749
 30
0.0
 11
29.94356
 21
0.025365
 31
0.0
  0
LINE
  5
87D
330
1F
100
AcDbEntity
  8
1
  6
CONTINUOUS
370
50
 62
4
100
AcDbLine
 10
29.962135
 20
0.014136
 30
0.0
 11
29.952848
 21
0.019749
 31
0.0
  0
LINE
  5
87E
330
1F
100
AcDbEntity
  8
1
  6
CONTINUOUS
370
50
 62
4
100
AcDbLine
 10
29.971424
 20
0.008524
 30
0.0
 11
29.962135
 21
0.014136
 31
0.0
  0
LINE
  5
87F
330
1F
100
AcDbEntity
  8
1
  6
CONTINUOUS
370
50
 62
4
100
AcDbLine
 10
29.980711
 20
0.002915
 30
0.0
 11
29.971424
 21
0.008524
 31
0.0
  0
LINE
  5
880
330
1F
100
AcDbEntity
  8
1
  6
CONTINUOUS
370
50
 62
4
100
AcDbLine
 10
29.99
 20
-0.002692
 30
0.0
 11
29.980711
 21
0.002915
 31
0.0
  0
LINE
  5
881
330
1F
100
AcDbEntity
  8
1
  6
CONTINUOUS
370
50
 62
4
100
AcDbLine
 10
9.261111
 20
0.340909
 30
0.0
 11
8.945826
 21
0.530343
 31
0.0
  0
LINE
  5
882
330
1F
100
AcDbEntity
  8
1
  6
CONTINUOUS
370
50
 62
4
100
AcDbLine
 10
27.129566
 20
2.867949
 30
0.0
 11
26.625128
 21
3.16971
 31
0.0
  0
LINE
  5
883
330
1F
100
AcDbEntity
  8
1
  6
CONTINUOUS
370
50
 62
4
100
AcDbLine
 10
9.5764
 20
0.153813
 30
0.0
 11
9.261111
 21
0.340909
 31
0.0
  0
LINE
  5
884
330
1F
100
AcDbEntity
  8
1
  6
CONTINUOUS
370
50
 62
4
100
AcDbLine
 10
15.738123
 20
3.038149
 30
0.0
 11
15.378181
 21
3.251372
 31
0.0
  0
LINE
  5
885
330
1F
100
AcDbEntity
  8
1
  6
CONTINUOUS
370
50
 62
4
100
AcDbLine
 10
8.315268999999999
 20
0.914391
 30
0.0
 11
8.0
 21
1.101007
 31
0.0
  0
LINE
  5
886
330
1F
100
AcDbEntity
  8
1
  6
CONTINUOUS
370
50
 62
4
100
AcDbLine
 10
15.631638
 20
-3.367409
 30
0.0
 11
15.087906
 21
-3.047887
 31
0.0
  0
LINE
  5
887
330
1F
100
AcDbEntity
  8
1
  6
CONTINUOUS
370
50
 62
4
100
AcDbLine
 10
25.70768
 20
3.079265
 30
0.0
 11
24.895607
 21
3.555914
 31
0.0
  0
LINE
  5
888
330
1F
100
AcDbEntity
  8
1
  6
CONTINUOUS
370
50
 62
4
100
AcDbLine
 10
9.891689
 20
-0.030863
 30
0.0
 11
9.5764
 21
0.153813
 31
0.0
  0
LINE
  5
889
330
1F
100
AcDbEntity
  8
1
  6
CONTINUOUS
370
50
 62
4
100
AcDbLine
 10
7.627452
 20
-4.305667
 30
0.0
 11
7.407684
 21
-4.177891
 31
0.0
  0
LINE
  5
88A
330
1F
100
AcDbEntity
  8
1
  6
CONTINUOUS
370
50
 62
4
100
AcDbLine
 10
16.710747
 20
3.099653
 30
0.0
 11
16.376488
 21
3.293789
 31
0.0
  0
LINE
  5
88B
330
1F
100
AcDbEntity
  8
1
  6
CONTINUOUS
370
50
 62
4
100
AcDbLine
 10
14.867093
 20
-3.52982
 30
0.0
 11
14.440189
 21
-3.283296
 31
0.0
  0
LINE
  5
88C
330
1F
100
AcDbEntity
  8
1
  6
CONTINUOUS
370
50
 62
4
100
AcDbLine
 10
7.894788999999999
 20
-4.440347
 30
0.0
 11
7.877045
 21
-4.430128
 31
0.0
  0
LINE
  5
88D
330
1F
100
AcDbEntity
  8
1
  6
CONTINUOUS
370
50
 62
4
100
AcDbLine
 10
15.378181
 20
3.251372
 30
0.0
 11
15.020891
 21
3.455584
 31
0.0
  0
LINE
  5
88E
330
1F
100
AcDbEntity
  8
1
  6
CONTINUOUS
370
50
 62
4
100
AcDbLine
 10
25.17993
 20
-3.67302
 30
0.0
 11
24.643127
 21
-3.36761
 31
0.0
  0
LINE
  5
88F
330
1F
100
AcDbEntity
  8
1
  6
CONTINUOUS
370
50
 62
4
100
AcDbLine
 10
5.409745
 20
4.795176
 30
0.0
 11
5.283977
 21
4.866702
 31
0.0
  0
LINE
  5
890
330
1F
100
AcDbEntity
  8
1
  6
CONTINUOUS
370
50
 62
4
100
AcDbLine
 10
26.625128
 20
3.16971
 30
0.0
 11
26.12006
 21
3.455467
 31
0.0
  0
LINE
  5
891
330
1F
100
AcDbEntity
  8
1
  6
CONTINUOUS
370
50
 62
4
100
AcDbLine
 10
26.006771
 20
-3.553685
 30
0.0
 11
25.490969
 21
-3.263666
 31
0.0
  0
LINE
  5
892
330
1F
100
AcDbEntity
  8
1
  6
CONTINUOUS
370
50
 62
4
100
AcDbLine
 10
29.778915
 20
0.9863959999999999
 30
0.0
 11
29.772108
 21
0.990215
 31
0.0
  0
LINE
  5
893
330
1F
100
AcDbEntity
  8
1
  6
CONTINUOUS
370
50
 62
4
100
AcDbLine
 10
16.376488
 20
3.293789
 30
0.0
 11
16.043522
 21
3.478727
 31
0.0
  0
LINE
  5
894
330
1F
100
AcDbEntity
  8
1
  6
CONTINUOUS
370
50
 62
4
100
AcDbLine
 10
15.020891
 20
3.455584
 30
0.0
 11
14.665543
 21
3.651053
 31
0.0
  0
LINE
  5
895
330
1F
100
AcDbEntity
  8
1
  6
CONTINUOUS
370
50
 62
4
100
AcDbLine
 10
7.913208999999999
 20
-4.450407
 30
0.0
 11
7.894788999999999
 21
-4.440347
 31
0.0
  0
LINE
  5
896
330
1F
100
AcDbEntity
  8
1
  6
CONTINUOUS
370
50
 62
4
100
AcDbLine
 10
24.895607
 20
3.555914
 30
0.0
 11
24.315655
 21
3.872117
 31
0.0
  0
LINE
  5
897
330
1F
100
AcDbEntity
  8
1
  6
CONTINUOUS
370
50
 62
4
100
AcDbLine
 10
28.190498
 20
1.061277
 30
0.0
 11
27.564348
 21
1.399489
 31
0.0
  0
LINE
  5
898
330
1F
100
AcDbEntity
  8
1
  6
CONTINUOUS
370
50
 62
4
100
AcDbLine
 10
16.178564
 20
-3.661561
 30
0.0
 11
15.631638
 21
-3.367409
 31
0.0
  0
LINE
  5
899
330
1F
100
AcDbEntity
  8
1
  6
CONTINUOUS
370
50
 62
4
100
AcDbLine
 10
29.86651
 20
4.964542
 30
0.0
 11
29.854521
 21
4.97093
 31
0.0
  0
LINE
  5
89A
330
1F
100
AcDbEntity
  8
1
  6
CONTINUOUS
370
50
 62
4
100
AcDbLine
 10
26.12006
 20
3.455467
 30
0.0
 11
25.616142
 21
3.723926
 31
0.0
  0
LINE
  5
89B
330
1F
100
AcDbEntity
  8
1
  6
CONTINUOUS
370
50
 62
4
100
AcDbLine
 10
16.043522
 20
3.478727
 30
0.0
 11
15.712713
 21
3.654174
 31
0.0
  0
LINE
  5
89C
330
1F
100
AcDbEntity
  8
1
  6
CONTINUOUS
370
50
 62
4
100
AcDbLine
 10
15.297009
 20
-3.757627
 30
0.0
 11
14.867093
 21
-3.52982
 31
0.0
  0
LINE
  5
89D
330
1F
100
AcDbEntity
  8
1
  6
CONTINUOUS
370
50
 62
4
100
AcDbLine
 10
14.665543
 20
3.651053
 30
0.0
 11
14.312606
 21
3.837163
 31
0.0
  0
LINE
  5
89E
330
1F
100
AcDbEntity
  8
1
  6
CONTINUOUS
370
50
 62
4
100
AcDbLine
 10
7.932124
 20
-4.460259
 30
0.0
 11
7.913208999999999
 21
-4.450407
 31
0.0
  0
LINE
  5
89F
330
1F
100
AcDbEntity
  8
1
  6
CONTINUOUS
370
50
 62
4
100
AcDbLine
 10
29.785826
 20
0.982838
 30
0.0
 11
29.778915
 21
0.9863959999999999
 31
0.0
  0
LINE
  5
8A0
330
1F
100
AcDbEntity
  8
1
  6
CONTINUOUS
370
50
 62
4
100
AcDbLine
 10
27.564348
 20
1.399489
 30
0.0
 11
26.938189
 21
1.721525
 31
0.0
  0
LINE
  5
8A1
330
1F
100
AcDbEntity
  8
1
  6
CONTINUOUS
370
50
 62
4
100
AcDbLine
 10
26.524403
 20
-3.81836
 30
0.0
 11
26.006771
 21
-3.553685
 31
0.0
  0
LINE
  5
8A2
330
1F
100
AcDbEntity
  8
1
  6
CONTINUOUS
370
50
 62
4
100
AcDbLine
 10
15.712713
 20
3.654174
 30
0.0
 11
15.383253
 21
3.820919
 31
0.0
  0
LINE
  5
8A3
330
1F
100
AcDbEntity
  8
1
  6
CONTINUOUS
370
50
 62
4
100
AcDbLine
 10
14.312606
 20
3.837163
 30
0.0
 11
13.971136
 21
4.0096
 31
0.0
  0
LINE
  5
8A4
330
1F
100
AcDbEntity
  8
1
  6
CONTINUOUS
370
50
 62
4
100
AcDbLine
 10
24.315655
 20
3.872117
 30
0.0
 11
23.916666
 21
4.072126
 31
0.0
  0
LINE
  5
8A5
330
1F
100
AcDbEntity
  8
1
  6
CONTINUOUS
370
50
 62
4
100
AcDbLine
 10
7.951349
 20
-4.46986
 30
0.0
 11
7.932124
 21
-4.460259
 31
0.0
  0
LINE
  5
8A6
330
1F
100
AcDbEntity
  8
1
  6
CONTINUOUS
370
50
 62
4
100
AcDbLine
 10
25.616142
 20
3.723926
 30
0.0
 11
25.116005
 21
3.973129
 31
0.0
  0
LINE
  5
8A7
330
1F
100
AcDbEntity
  8
1
  6
CONTINUOUS
370
50
 62
4
100
AcDbLine
 10
29.76819
 20
4.02878
 30
0.0
 11
29.737774
 21
4.043913
 31
0.0
  0
LINE
  5
8A8
330
1F
100
AcDbEntity
  8
1
  6
CONTINUOUS
370
50
 62
4
100
AcDbLine
 10
25.850992
 20
-4.006341
 30
0.0
 11
25.17993
 21
-3.67302
 31
0.0
  0
LINE
  5
8A9
330
1F
100
AcDbEntity
  8
1
  6
CONTINUOUS
370
50
 62
4
100
AcDbLine
 10
26.938189
 20
1.721525
 30
0.0
 11
26.312016
 21
2.028854
 31
0.0
  0
LINE
  5
8AA
330
1F
100
AcDbEntity
  8
1
  6
CONTINUOUS
370
50
 62
4
100
AcDbLine
 10
16.730289
 20
-3.932321
 30
0.0
 11
16.178564
 21
-3.661561
 31
0.0
  0
LINE
  5
8AB
330
1F
100
AcDbEntity
  8
1
  6
CONTINUOUS
370
50
 62
4
100
AcDbLine
 10
7.860162
 20
-4.419795
 30
0.0
 11
7.627452
 21
-4.305667
 31
0.0
  0
LINE
  5
8AC
330
1F
100
AcDbEntity
  8
1
  6
CONTINUOUS
370
50
 62
4
100
AcDbLine
 10
15.730519
 20
-3.967516
 30
0.0
 11
15.297009
 21
-3.757627
 31
0.0
  0
LINE
  5
8AD
330
1F
100
AcDbEntity
  8
1
  6
CONTINUOUS
370
50
 62
4
100
AcDbLine
 10
15.383253
 20
3.820919
 30
0.0
 11
15.054478
 21
3.979323
 31
0.0
  0
LINE
  5
8AE
330
1F
100
AcDbEntity
  8
1
  6
CONTINUOUS
370
50
 62
4
100
AcDbLine
 10
7.970702999999999
 20
-4.479161
 30
0.0
 11
7.951349
 21
-4.46986
 31
0.0
  0
LINE
  5
8AF
330
1F
100
AcDbEntity
  8
1
  6
CONTINUOUS
370
50
 62
4
100
AcDbLine
 10
13.971136
 20
4.0096
 30
0.0
 11
13.640025
 21
4.166761
 31
0.0
  0
LINE
  5
8B0
330
1F
100
AcDbEntity
  8
1
  6
CONTINUOUS
370
50
 62
4
100
AcDbLine
 10
26.312016
 20
2.028854
 30
0.0
 11
25.685831
 21
2.321944
 31
0.0
  0
LINE
  5
8B1
330
1F
100
AcDbEntity
  8
1
  6
CONTINUOUS
370
50
 62
4
100
AcDbLine
 10
29.792835
 20
0.979564
 30
0.0
 11
29.785826
 21
0.982838
 31
0.0
  0
LINE
  5
8B2
330
1F
100
AcDbEntity
  8
1
  6
CONTINUOUS
370
50
 62
4
100
AcDbLine
 10
4.704625
 20
-4.996754999999999
 30
0.0
 11
4.699101
 21
-4.994174999999999
 31
0.0
  0
LINE
  5
8B3
330
1F
100
AcDbEntity
  8
1
  6
CONTINUOUS
370
50
 62
4
100
AcDbLine
 10
7.989999999999999
 20
-4.488117
 30
0.0
 11
7.970702999999999
 21
-4.479161
 31
0.0
  0
LINE
  5
8B4
330
1F
100
AcDbEntity
  8
1
  6
CONTINUOUS
370
50
 62
4
100
AcDbLine
 10
27.041458
 20
-4.05741
 30
0.0
 11
26.524403
 21
-3.81836
 31
0.0
  0
LINE
  5
8B5
330
1F
100
AcDbEntity
  8
1
  6
CONTINUOUS
370
50
 62
4
100
AcDbLine
 10
29.854521
 20
4.97093
 30
0.0
 11
29.842304
 21
4.976575
 31
0.0
  0
LINE
  5
8B6
330
1F
100
AcDbEntity
  8
1
  6
CONTINUOUS
370
50
 62
4
100
AcDbLine
 10
25.116005
 20
3.973129
 30
0.0
 11
24.623009
 21
4.200864999999999
 31
0.0
  0
LINE
  5
8B7
330
1F
100
AcDbEntity
  8
1
  6
CONTINUOUS
370
50
 62
4
100
AcDbLine
 10
15.054478
 20
3.979323
 30
0.0
 11
14.726957
 21
4.12881
 31
0.0
  0
LINE
  5
8B8
330
1F
100
AcDbEntity
  8
1
  6
CONTINUOUS
370
50
 62
4
100
AcDbLine
 10
7.991425
 20
-4.488658
 30
0.0
 11
7.989999999999999
 21
-4.488008
 31
0.0
  0
LINE
  5
8B9
330
1F
100
AcDbEntity
  8
1
  6
CONTINUOUS
370
50
 62
4
100
AcDbLine
 10
7.992851
 20
-4.489307
 30
0.0
 11
7.991425
 21
-4.488658
 31
0.0
  0
LINE
  5
8BA
330
1F
100
AcDbEntity
  8
1
  6
CONTINUOUS
370
50
 62
4
100
AcDbLine
 10
7.994278
 20
-4.489955
 30
0.0
 11
7.992851
 21
-4.489307
 31
0.0
  0
LINE
  5
8BB
330
1F
100
AcDbEntity
  8
1
  6
CONTINUOUS
370
50
 62
4
100
AcDbLine
 10
7.995706999999999
 20
-4.490602
 30
0.0
 11
7.994278
 21
-4.489955
 31
0.0
  0
LINE
  5
8BC
330
1F
100
AcDbEntity
  8
1
  6
CONTINUOUS
370
50
 62
4
100
AcDbLine
 10
7.997136999999999
 20
-4.491248
 30
0.0
 11
7.995706999999999
 21
-4.490602
 31
0.0
  0
LINE
  5
8BD
330
1F
100
AcDbEntity
  8
1
  6
CONTINUOUS
370
50
 62
4
100
AcDbLine
 10
7.998568
 20
-4.491893999999999
 30
0.0
 11
7.997136999999999
 21
-4.491248
 31
0.0
  0
LINE
  5
8BE
330
1F
100
AcDbEntity
  8
1
  6
CONTINUOUS
370
50
 62
4
100
AcDbLine
 10
8.0
 20
-4.492538
 30
0.0
 11
7.998568
 21
-4.491893999999999
 31
0.0
  0
LINE
  5
8BF
330
1F
100
AcDbEntity
  8
1
  6
CONTINUOUS
370
50
 62
4
100
AcDbLine
 10
23.916666
 20
4.072126
 30
0.0
 11
23.524405
 21
4.247637
 31
0.0
  0
LINE
  5
8C0
330
1F
100
AcDbEntity
  8
1
  6
CONTINUOUS
370
50
 62
4
100
AcDbLine
 10
25.685831
 20
2.321944
 30
0.0
 11
25.059645
 21
2.600639
 31
0.0
  0
LINE
  5
8C1
330
1F
100
AcDbEntity
  8
1
  6
CONTINUOUS
370
50
 62
4
100
AcDbLine
 10
5.283977
 20
4.866702
 30
0.0
 11
5.157592
 21
4.922829999999999
 31
0.0
  0
LINE
  5
8C2
330
1F
100
AcDbEntity
  8
1
  6
CONTINUOUS
370
50
 62
4
100
AcDbLine
 10
17.283035
 20
-4.177652
 30
0.0
 11
16.730289
 21
-3.932321
 31
0.0
  0
LINE
  5
8C3
330
1F
100
AcDbEntity
  8
1
  6
CONTINUOUS
370
50
 62
4
100
AcDbLine
 10
16.166758
 20
-4.159591
 30
0.0
 11
15.730519
 21
-3.967516
 31
0.0
  0
LINE
  5
8C4
330
1F
100
AcDbEntity
  8
1
  6
CONTINUOUS
370
50
 62
4
100
AcDbLine
 10
13.640025
 20
4.166761
 30
0.0
 11
13.304477
 21
4.311987999999999
 31
0.0
  0
LINE
  5
8C5
330
1F
100
AcDbEntity
  8
1
  6
CONTINUOUS
370
50
 62
4
100
AcDbLine
 10
14.726957
 20
4.12881
 30
0.0
 11
14.401262
 21
4.268801
 31
0.0
  0
LINE
  5
8C6
330
1F
100
AcDbEntity
  8
1
  6
CONTINUOUS
370
50
 62
4
100
AcDbLine
 10
25.00565
 20
0.613705
 30
0.0
 11
24.253395
 21
0.936334
 31
0.0
  0
LINE
  5
8C7
330
1F
100
AcDbEntity
  8
1
  6
CONTINUOUS
370
50
 62
4
100
AcDbLine
 10
8.718264
 20
-0.9801249999999999
 30
0.0
 11
8.0
 21
-0.672218
 31
0.0
  0
LINE
  5
8C8
330
1F
100
AcDbEntity
  8
1
  6
CONTINUOUS
370
50
 62
4
100
AcDbLine
 10
8.724414
 20
-0.984157
 30
0.0
 11
8.000002
 21
-0.674111
 31
0.0
  0
LINE
  5
8C9
330
1F
100
AcDbEntity
  8
1
  6
CONTINUOUS
370
50
 62
4
100
AcDbLine
 10
16.475159
 20
-0.015915
 30
0.0
 11
16.475107
 21
-0.015893
 31
0.0
  0
LINE
  5
8CA
330
1F
100
AcDbEntity
  8
1
  6
CONTINUOUS
370
50
 62
4
100
AcDbLine
 10
25.757721
 20
0.295791
 30
0.0
 11
25.00565
 21
0.613705
 31
0.0
  0
LINE
  5
8CB
330
1F
100
AcDbEntity
  8
1
  6
CONTINUOUS
370
50
 62
4
100
AcDbLine
 10
24.623009
 20
4.200864999999999
 30
0.0
 11
24.150831
 21
4.399662
 31
0.0
  0
LINE
  5
8CC
330
1F
100
AcDbEntity
  8
1
  6
CONTINUOUS
370
50
 62
4
100
AcDbLine
 10
18.691883
 20
-0.939125
 30
0.0
 11
17.95295
 21
-0.629589
 31
0.0
  0
LINE
  5
8CD
330
1F
100
AcDbEntity
  8
1
  6
CONTINUOUS
370
50
 62
4
100
AcDbLine
 10
18.801783
 20
-0.982957
 30
0.0
 11
18.03121
 21
-0.660369
 31
0.0
  0
LINE
  5
8CE
330
1F
100
AcDbEntity
  8
1
  6
CONTINUOUS
370
50
 62
4
100
AcDbLine
 10
25.059645
 20
2.600639
 30
0.0
 11
24.433472
 21
2.86265
 31
0.0
  0
LINE
  5
8CF
330
1F
100
AcDbEntity
  8
1
  6
CONTINUOUS
370
50
 62
4
100
AcDbLine
 10
29.799934
 20
0.976598
 30
0.0
 11
29.792835
 21
0.979564
 31
0.0
  0
LINE
  5
8D0
330
1F
100
AcDbEntity
  8
1
  6
CONTINUOUS
370
50
 62
4
100
AcDbLine
 10
14.968387
 20
0.6074769999999999
 30
0.0
 11
14.215108
 21
0.921497
 31
0.0
  0
LINE
  5
8D1
330
1F
100
AcDbEntity
  8
1
  6
CONTINUOUS
370
50
 62
4
100
AcDbLine
 10
26.631233
 20
-4.331594
 30
0.0
 11
25.850992
 21
-4.006341
 31
0.0
  0
LINE
  5
8D2
330
1F
100
AcDbEntity
  8
1
  6
CONTINUOUS
370
50
 62
4
100
AcDbLine
 10
17.95295
 20
-0.629589
 30
0.0
 11
17.213987
 21
-0.321795
 31
0.0
  0
LINE
  5
8D3
330
1F
100
AcDbEntity
  8
1
  6
CONTINUOUS
370
50
 62
4
100
AcDbLine
 10
26.509836
 20
-0.017033
 30
0.0
 11
25.757721
 21
0.295791
 31
0.0
  0
LINE
  5
8D4
330
1F
100
AcDbEntity
  8
1
  6
CONTINUOUS
370
50
 62
4
100
AcDbLine
 10
18.03121
 20
-0.660369
 30
0.0
 11
17.254215
 21
-0.337667
 31
0.0
  0
LINE
  5
8D5
330
1F
100
AcDbEntity
  8
1
  6
CONTINUOUS
370
50
 62
4
100
AcDbLine
 10
27.558685
 20
-4.27216
 30
0.0
 11
27.041458
 21
-4.05741
 31
0.0
  0
LINE
  5
8D6
330
1F
100
AcDbEntity
  8
1
  6
CONTINUOUS
370
50
 62
4
100
AcDbLine
 10
14.215108
 20
0.921497
 30
0.0
 11
13.461602
 21
1.234025
 31
0.0
  0
LINE
  5
8D7
330
1F
100
AcDbEntity
  8
1
  6
CONTINUOUS
370
50
 62
4
100
AcDbLine
 10
15.72169
 20
0.29535
 30
0.0
 11
14.968387
 21
0.6074769999999999
 31
0.0
  0
LINE
  5
8D8
330
1F
100
AcDbEntity
  8
1
  6
CONTINUOUS
370
50
 62
4
100
AcDbLine
 10
17.213987
 20
-0.321795
 30
0.0
 11
16.475151
 21
-0.015922
 31
0.0
  0
LINE
  5
8D9
330
1F
100
AcDbEntity
  8
1
  6
CONTINUOUS
370
50
 62
4
100
AcDbLine
 10
17.254215
 20
-0.337667
 30
0.0
 11
16.475172
 21
-0.015793
 31
0.0
  0
LINE
  5
8DA
330
1F
100
AcDbEntity
  8
1
  6
CONTINUOUS
370
50
 62
4
100
AcDbLine
 10
16.475151
 20
-0.015922
 30
0.0
 11
15.72169
 21
0.29535
 31
0.0
  0
LINE
  5
8DB
330
1F
100
AcDbEntity
  8
1
  6
CONTINUOUS
370
50
 62
4
100
AcDbLine
 10
19.43055
 20
-1.24335
 30
0.0
 11
18.691883
 21
-0.939125
 31
0.0
  0
LINE
  5
8DC
330
1F
100
AcDbEntity
  8
1
  6
CONTINUOUS
370
50
 62
4
100
AcDbLine
 10
16.47504
 20
-0.015866
 30
0.0
 11
16.474972
 21
-0.015838
 31
0.0
  0
LINE
  5
8DD
330
1F
100
AcDbEntity
  8
1
  6
CONTINUOUS
370
50
 62
4
100
AcDbLine
 10
16.474867
 20
-0.015795
 30
0.0
 11
16.47485
 21
-0.015788
 31
0.0
  0
LINE
  5
8DE
330
1F
100
AcDbEntity
  8
1
  6
CONTINUOUS
370
50
 62
4
100
AcDbLine
 10
26.993122
 20
-0.21596
 30
0.0
 11
26.509836
 21
-0.017033
 31
0.0
  0
LINE
  5
8DF
330
1F
100
AcDbEntity
  8
1
  6
CONTINUOUS
370
50
 62
4
100
AcDbLine
 10
26.996935
 20
-0.217195
 30
0.0
 11
26.509424
 21
-0.016551
 31
0.0
  0
LINE
  5
8E0
330
1F
100
AcDbEntity
  8
1
  6
CONTINUOUS
370
50
 62
4
100
AcDbLine
 10
24.253395
 20
0.936334
 30
0.0
 11
23.500803
 21
1.245107
 31
0.0
  0
LINE
  5
8E1
330
1F
100
AcDbEntity
  8
1
  6
CONTINUOUS
370
50
 62
4
100
AcDbLine
 10
16.474972
 20
-0.015838
 30
0.0
 11
16.474911
 21
-0.015813
 31
0.0
  0
LINE
  5
8E2
330
1F
100
AcDbEntity
  8
1
  6
CONTINUOUS
370
50
 62
4
100
AcDbLine
 10
19.517946
 20
-1.276212
 30
0.0
 11
18.801783
 21
-0.982957
 31
0.0
  0
LINE
  5
8E3
330
1F
100
AcDbEntity
  8
1
  6
CONTINUOUS
370
50
 62
4
100
AcDbLine
 10
27.476488
 20
-0.413741
 30
0.0
 11
26.993122
 21
-0.21596
 31
0.0
  0
LINE
  5
8E4
330
1F
100
AcDbEntity
  8
1
  6
CONTINUOUS
370
50
 62
4
100
AcDbLine
 10
16.474911
 20
-0.015813
 30
0.0
 11
16.474867
 21
-0.015795
 31
0.0
  0
LINE
  5
8E5
330
1F
100
AcDbEntity
  8
1
  6
CONTINUOUS
370
50
 62
4
100
AcDbLine
 10
27.482763
 20
-0.415456
 30
0.0
 11
26.996935
 21
-0.217195
 31
0.0
  0
LINE
  5
8E6
330
1F
100
AcDbEntity
  8
1
  6
CONTINUOUS
370
50
 62
4
100
AcDbLine
 10
27.959917
 20
-0.610677
 30
0.0
 11
27.476488
 21
-0.413741
 31
0.0
  0
LINE
  5
8E7
330
1F
100
AcDbEntity
  8
1
  6
CONTINUOUS
370
50
 62
4
100
AcDbLine
 10
28.443392
 20
-0.807041
 30
0.0
 11
27.959917
 21
-0.610677
 31
0.0
  0
LINE
  5
8E8
330
1F
100
AcDbEntity
  8
1
  6
CONTINUOUS
370
50
 62
4
100
AcDbLine
 10
27.970444
 20
-0.613425
 30
0.0
 11
27.482763
 21
-0.415456
 31
0.0
  0
LINE
  5
8E9
330
1F
100
AcDbEntity
  8
1
  6
CONTINUOUS
370
50
 62
4
100
AcDbLine
 10
28.926867
 20
-1.002657
 30
0.0
 11
28.443392
 21
-0.807041
 31
0.0
  0
LINE
  5
8EA
330
1F
100
AcDbEntity
  8
1
  6
CONTINUOUS
370
50
 62
4
100
AcDbLine
 10
28.457796
 20
-0.810445
 30
0.0
 11
27.970444
 21
-0.613425
 31
0.0
  0
LINE
  5
8EB
330
1F
100
AcDbEntity
  8
1
  6
CONTINUOUS
370
50
 62
4
100
AcDbLine
 10
16.475107
 20
-0.015893
 30
0.0
 11
16.47504
 21
-0.015866
 31
0.0
  0
LINE
  5
8EC
330
1F
100
AcDbEntity
  8
1
  6
CONTINUOUS
370
50
 62
4
100
AcDbLine
 10
28.942324
 20
-1.005695
 30
0.0
 11
28.457796
 21
-0.810445
 31
0.0
  0
LINE
  5
8ED
330
1F
100
AcDbEntity
  8
1
  6
CONTINUOUS
370
50
 62
4
100
AcDbLine
 10
29.412527
 20
-1.194917
 30
0.0
 11
28.942324
 21
-1.005695
 31
0.0
  0
LINE
  5
8EE
330
1F
100
AcDbEntity
  8
1
  6
CONTINUOUS
370
50
 62
4
100
AcDbLine
 10
9.431538999999999
 20
-1.266802
 30
0.0
 11
8.718264
 21
-0.9801249999999999
 31
0.0
  0
LINE
  5
8EF
330
1F
100
AcDbEntity
  8
1
  6
CONTINUOUS
370
50
 62
4
100
AcDbLine
 10
29.410276
 20
-1.196942
 30
0.0
 11
28.926867
 21
-1.002657
 31
0.0
  0
LINE
  5
8F0
330
1F
100
AcDbEntity
  8
1
  6
CONTINUOUS
370
50
 62
4
100
AcDbLine
 10
14.401262
 20
4.268801
 30
0.0
 11
14.077964
 21
4.39872
 31
0.0
  0
LINE
  5
8F1
330
1F
100
AcDbEntity
  8
1
  6
CONTINUOUS
370
50
 62
4
100
AcDbLine
 10
9.448553
 20
-1.274111
 30
0.0
 11
8.724414
 21
-0.984157
 31
0.0
  0
LINE
  5
8F2
330
1F
100
AcDbEntity
  8
1
  6
CONTINUOUS
370
50
 62
4
100
AcDbLine
 10
28.241913
 20
-0.266164
 30
0.0
 11
28.049925
 21
-0.189506
 31
0.0
  0
LINE
  5
8F3
330
1F
100
AcDbEntity
  8
1
  6
CONTINUOUS
370
50
 62
4
100
AcDbLine
 10
24.285711
 20
4.346069
 30
0.0
 11
24.218271
 21
4.372913
 31
0.0
  0
LINE
  5
8F4
330
1F
100
AcDbEntity
  8
1
  6
CONTINUOUS
370
50
 62
4
100
AcDbLine
 10
16.603609
 20
-4.333333
 30
0.0
 11
16.166758
 21
-4.159591
 31
0.0
  0
LINE
  5
8F5
330
1F
100
AcDbEntity
  8
1
  6
CONTINUOUS
370
50
 62
4
100
AcDbLine
 10
24.353149
 20
4.319269999999999
 30
0.0
 11
24.285711
 21
4.346069
 31
0.0
  0
LINE
  5
8F6
330
1F
100
AcDbEntity
  8
1
  6
CONTINUOUS
370
50
 62
4
100
AcDbLine
 10
24.420586
 20
4.292545
 30
0.0
 11
24.353149
 21
4.319269999999999
 31
0.0
  0
LINE
  5
8F7
330
1F
100
AcDbEntity
  8
1
  6
CONTINUOUS
370
50
 62
4
100
AcDbLine
 10
17.832882
 20
-4.395419
 30
0.0
 11
17.283035
 21
-4.177652
 31
0.0
  0
LINE
  5
8F8
330
1F
100
AcDbEntity
  8
1
  6
CONTINUOUS
370
50
 62
4
100
AcDbLine
 10
24.218271
 20
4.372913
 30
0.0
 11
24.150831
 21
4.399614
 31
0.0
  0
LINE
  5
8F9
330
1F
100
AcDbEntity
  8
1
  6
CONTINUOUS
370
50
 62
4
100
AcDbLine
 10
29.842304
 20
4.976575
 30
0.0
 11
29.829905
 21
4.981481
 31
0.0
  0
LINE
  5
8FA
330
1F
100
AcDbEntity
  8
1
  6
CONTINUOUS
370
50
 62
4
100
AcDbLine
 10
23.524405
 20
4.247637
 30
0.0
 11
23.128288
 21
4.40425
 31
0.0
  0
LINE
  5
8FB
330
1F
100
AcDbEntity
  8
1
  6
CONTINUOUS
370
50
 62
4
100
AcDbLine
 10
24.515911
 20
4.2549
 30
0.0
 11
24.420586
 21
4.292545
 31
0.0
  0
LINE
  5
8FC
330
1F
100
AcDbEntity
  8
1
  6
CONTINUOUS
370
50
 62
4
100
AcDbLine
 10
28.434183
 20
-0.34209
 30
0.0
 11
28.241913
 21
-0.266164
 31
0.0
  0
LINE
  5
8FD
330
1F
100
AcDbEntity
  8
1
  6
CONTINUOUS
370
50
 62
4
100
AcDbLine
 10
24.611235
 20
4.217415
 30
0.0
 11
24.515911
 21
4.2549
 31
0.0
  0
LINE
  5
8FE
330
1F
100
AcDbEntity
  8
1
  6
CONTINUOUS
370
50
 62
4
100
AcDbLine
 10
24.706579
 20
4.180084
 30
0.0
 11
24.611235
 21
4.217415
 31
0.0
  0
LINE
  5
8FF
330
1F
100
AcDbEntity
  8
1
  6
CONTINUOUS
370
50
 62
4
100
AcDbLine
 10
28.626677
 20
-0.417283
 30
0.0
 11
28.434183
 21
-0.34209
 31
0.0
  0
LINE
  5
900
330
1F
100
AcDbEntity
  8
1
  6
CONTINUOUS
370
50
 62
4
100
AcDbLine
 10
24.801924
 20
4.142920999999999
 30
0.0
 11
24.706579
 21
4.180084
 31
0.0
  0
LINE
  5
901
330
1F
100
AcDbEntity
  8
1
  6
CONTINUOUS
370
50
 62
4
100
AcDbLine
 10
24.897287
 20
4.105923
 30
0.0
 11
24.801924
 21
4.142920999999999
 31
0.0
  0
LINE
  5
902
330
1F
100
AcDbEntity
  8
1
  6
CONTINUOUS
370
50
 62
4
100
AcDbLine
 10
14.154815
 20
4.368882999999999
 30
0.0
 11
14.077925
 21
4.39866
 31
0.0
  0
LINE
  5
903
330
1F
100
AcDbEntity
  8
1
  6
CONTINUOUS
370
50
 62
4
100
AcDbLine
 10
13.304477
 20
4.311987999999999
 30
0.0
 11
12.964327
 21
4.443449
 31
0.0
  0
LINE
  5
904
330
1F
100
AcDbEntity
  8
1
  6
CONTINUOUS
370
50
 62
4
100
AcDbLine
 10
28.819342
 20
-0.491739
 30
0.0
 11
28.626677
 21
-0.417283
 31
0.0
  0
LINE
  5
905
330
1F
100
AcDbEntity
  8
1
  6
CONTINUOUS
370
50
 62
4
100
AcDbLine
 10
14.231704
 20
4.339182
 30
0.0
 11
14.154815
 21
4.368882999999999
 31
0.0
  0
LINE
  5
906
330
1F
100
AcDbEntity
  8
1
  6
CONTINUOUS
370
50
 62
4
100
AcDbLine
 10
24.992651
 20
4.0691
 30
0.0
 11
24.897287
 21
4.105923
 31
0.0
  0
LINE
  5
907
330
1F
100
AcDbEntity
  8
1
  6
CONTINUOUS
370
50
 62
4
100
AcDbLine
 10
14.308592
 20
4.309561
 30
0.0
 11
14.231704
 21
4.339182
 31
0.0
  0
LINE
  5
908
330
1F
100
AcDbEntity
  8
1
  6
CONTINUOUS
370
50
 62
4
100
AcDbLine
 10
25.088034
 20
4.032446999999999
 30
0.0
 11
24.992651
 21
4.0691
 31
0.0
  0
LINE
  5
909
330
1F
100
AcDbEntity
  8
1
  6
CONTINUOUS
370
50
 62
4
100
AcDbLine
 10
14.385478
 20
4.280021
 30
0.0
 11
14.308592
 21
4.309561
 31
0.0
  0
LINE
  5
90A
330
1F
100
AcDbEntity
  8
1
  6
CONTINUOUS
370
50
 62
4
100
AcDbLine
 10
14.479242
 20
4.244108
 30
0.0
 11
14.385478
 21
4.280021
 31
0.0
  0
LINE
  5
90B
330
1F
100
AcDbEntity
  8
1
  6
CONTINUOUS
370
50
 62
4
100
AcDbLine
 10
25.183413
 20
3.995974
 30
0.0
 11
25.088034
 21
4.032446999999999
 31
0.0
  0
LINE
  5
90C
330
1F
100
AcDbEntity
  8
1
  6
CONTINUOUS
370
50
 62
4
100
AcDbLine
 10
29.012123
 20
-0.565457
 30
0.0
 11
28.819342
 21
-0.491739
 31
0.0
  0
LINE
  5
90D
330
1F
100
AcDbEntity
  8
1
  6
CONTINUOUS
370
50
 62
4
100
AcDbLine
 10
14.573004
 20
4.20832
 30
0.0
 11
14.479242
 21
4.244108
 31
0.0
  0
LINE
  5
90E
330
1F
100
AcDbEntity
  8
1
  6
CONTINUOUS
370
50
 62
4
100
AcDbLine
 10
25.258171
 20
3.967513
 30
0.0
 11
25.183413
 21
3.995974
 31
0.0
  0
LINE
  5
90F
330
1F
100
AcDbEntity
  8
1
  6
CONTINUOUS
370
50
 62
4
100
AcDbLine
 10
14.666784
 20
4.172651
 30
0.0
 11
14.573004
 21
4.20832
 31
0.0
  0
LINE
  5
910
330
1F
100
AcDbEntity
  8
1
  6
CONTINUOUS
370
50
 62
4
100
AcDbLine
 10
29.737774
 20
4.043913
 30
0.0
 11
29.70377
 21
4.05681
 31
0.0
  0
LINE
  5
911
330
1F
100
AcDbEntity
  8
1
  6
CONTINUOUS
370
50
 62
4
100
AcDbLine
 10
25.332928
 20
3.939163
 30
0.0
 11
25.258171
 21
3.967513
 31
0.0
  0
LINE
  5
912
330
1F
100
AcDbEntity
  8
1
  6
CONTINUOUS
370
50
 62
4
100
AcDbLine
 10
13.461602
 20
1.234025
 30
0.0
 11
12.707824
 21
1.519708
 31
0.0
  0
LINE
  5
913
330
1F
100
AcDbEntity
  8
1
  6
CONTINUOUS
370
50
 62
4
100
AcDbLine
 10
14.760562
 20
4.137111
 30
0.0
 11
14.666784
 21
4.172651
 31
0.0
  0
LINE
  5
914
330
1F
100
AcDbEntity
  8
1
  6
CONTINUOUS
370
50
 62
4
100
AcDbLine
 10
24.433472
 20
2.86265
 30
0.0
 11
23.807323
 21
3.099657
 31
0.0
  0
LINE
  5
915
330
1F
100
AcDbEntity
  8
1
  6
CONTINUOUS
370
50
 62
4
100
AcDbLine
 10
29.204962
 20
-0.638432
 30
0.0
 11
29.012123
 21
-0.565457
 31
0.0
  0
LINE
  5
916
330
1F
100
AcDbEntity
  8
1
  6
CONTINUOUS
370
50
 62
4
100
AcDbLine
 10
14.854357
 20
4.101692
 30
0.0
 11
14.760562
 21
4.137111
 31
0.0
  0
LINE
  5
917
330
1F
100
AcDbEntity
  8
1
  6
CONTINUOUS
370
50
 62
4
100
AcDbLine
 10
25.446924
 20
3.896147
 30
0.0
 11
25.332928
 21
3.939163
 31
0.0
  0
LINE
  5
918
330
1F
100
AcDbEntity
  8
1
  6
CONTINUOUS
370
50
 62
4
100
AcDbLine
 10
14.94815
 20
4.066402
 30
0.0
 11
14.854357
 21
4.101692
 31
0.0
  0
LINE
  5
919
330
1F
100
AcDbEntity
  8
1
  6
CONTINUOUS
370
50
 62
4
100
AcDbLine
 10
14.077964
 20
4.39872
 30
0.0
 11
13.825898
 21
4.493392
 31
0.0
  0
LINE
  5
91A
330
1F
100
AcDbEntity
  8
1
  6
CONTINUOUS
370
50
 62
4
100
AcDbLine
 10
25.560917
 20
3.853391
 30
0.0
 11
25.446924
 21
3.896147
 31
0.0
  0
LINE
  5
91B
330
1F
100
AcDbEntity
  8
1
  6
CONTINUOUS
370
50
 62
4
100
AcDbLine
 10
15.041957
 20
4.031235
 30
0.0
 11
14.94815
 21
4.066402
 31
0.0
  0
LINE
  5
91C
330
1F
100
AcDbEntity
  8
1
  6
CONTINUOUS
370
50
 62
4
100
AcDbLine
 10
20.169001
 20
-1.520134
 30
0.0
 11
19.43055
 21
-1.24335
 31
0.0
  0
LINE
  5
91D
330
1F
100
AcDbEntity
  8
1
  6
CONTINUOUS
370
50
 62
4
100
AcDbLine
 10
29.398342
 20
-0.710863
 30
0.0
 11
29.204962
 21
-0.638432
 31
0.0
  0
LINE
  5
91E
330
1F
100
AcDbEntity
  8
1
  6
CONTINUOUS
370
50
 62
4
100
AcDbLine
 10
15.135764
 20
3.996195
 30
0.0
 11
15.041957
 21
4.031235
 31
0.0
  0
LINE
  5
91F
330
1F
100
AcDbEntity
  8
1
  6
CONTINUOUS
370
50
 62
4
100
AcDbLine
 10
25.674931
 20
3.810885
 30
0.0
 11
25.560917
 21
3.853391
 31
0.0
  0
LINE
  5
920
330
1F
100
AcDbEntity
  8
1
  6
CONTINUOUS
370
50
 62
4
100
AcDbLine
 10
15.216741
 20
3.966049
 30
0.0
 11
15.135764
 21
3.996195
 31
0.0
  0
LINE
  5
921
330
1F
100
AcDbEntity
  8
1
  6
CONTINUOUS
370
50
 62
4
100
AcDbLine
 10
15.297716
 20
3.935996
 30
0.0
 11
15.216741
 21
3.966049
 31
0.0
  0
LINE
  5
922
330
1F
100
AcDbEntity
  8
1
  6
CONTINUOUS
370
50
 62
4
100
AcDbLine
 10
20.236179
 20
-1.542515
 30
0.0
 11
19.517946
 21
-1.276212
 31
0.0
  0
LINE
  5
923
330
1F
100
AcDbEntity
  8
1
  6
CONTINUOUS
370
50
 62
4
100
AcDbLine
 10
25.78894
 20
3.768635
 30
0.0
 11
25.674931
 21
3.810885
 31
0.0
  0
LINE
  5
924
330
1F
100
AcDbEntity
  8
1
  6
CONTINUOUS
370
50
 62
4
100
AcDbLine
 10
15.411729
 20
3.893838
 30
0.0
 11
15.297716
 21
3.935996
 31
0.0
  0
LINE
  5
925
330
1F
100
AcDbEntity
  8
1
  6
CONTINUOUS
370
50
 62
4
100
AcDbLine
 10
23.500803
 20
1.245107
 30
0.0
 11
22.748095
 21
1.523278
 31
0.0
  0
LINE
  5
926
330
1F
100
AcDbEntity
  8
1
  6
CONTINUOUS
370
50
 62
4
100
AcDbLine
 10
28.069647
 20
-4.460599999999999
 30
0.0
 11
27.558685
 21
-4.27216
 31
0.0
  0
LINE
  5
927
330
1F
100
AcDbEntity
  8
1
  6
CONTINUOUS
370
50
 62
4
100
AcDbLine
 10
25.902969
 20
3.726631
 30
0.0
 11
25.78894
 21
3.768635
 31
0.0
  0
LINE
  5
928
330
1F
100
AcDbEntity
  8
1
  6
CONTINUOUS
370
50
 62
4
100
AcDbLine
 10
15.525742
 20
3.85186
 30
0.0
 11
15.411729
 21
3.893838
 31
0.0
  0
LINE
  5
929
330
1F
100
AcDbEntity
  8
1
  6
CONTINUOUS
370
50
 62
4
100
AcDbLine
 10
29.807116
 20
0.973962
 30
0.0
 11
29.799934
 21
0.976598
 31
0.0
  0
LINE
  5
92A
330
1F
100
AcDbEntity
  8
1
  6
CONTINUOUS
370
50
 62
4
100
AcDbLine
 10
15.639753
 20
3.810055
 30
0.0
 11
15.525742
 21
3.85186
 31
0.0
  0
LINE
  5
92B
330
1F
100
AcDbEntity
  8
1
  6
CONTINUOUS
370
50
 62
4
100
AcDbLine
 10
26.016998
 20
3.684876
 30
0.0
 11
25.902969
 21
3.726631
 31
0.0
  0
LINE
  5
92C
330
1F
100
AcDbEntity
  8
1
  6
CONTINUOUS
370
50
 62
4
100
AcDbLine
 10
10.149596
 20
-1.529223
 30
0.0
 11
9.431538999999999
 21
-1.266802
 31
0.0
  0
LINE
  5
92D
330
1F
100
AcDbEntity
  8
1
  6
CONTINUOUS
370
50
 62
4
100
AcDbLine
 10
15.753767
 20
3.76842
 30
0.0
 11
15.639753
 21
3.810055
 31
0.0
  0
LINE
  5
92E
330
1F
100
AcDbEntity
  8
1
  6
CONTINUOUS
370
50
 62
4
100
AcDbLine
 10
10.172634
 20
-1.538287
 30
0.0
 11
9.448553
 21
-1.274111
 31
0.0
  0
LINE
  5
92F
330
1F
100
AcDbEntity
  8
1
  6
CONTINUOUS
370
50
 62
4
100
AcDbLine
 10
26.131042
 20
3.643361
 30
0.0
 11
26.016998
 21
3.684876
 31
0.0
  0
LINE
  5
930
330
1F
100
AcDbEntity
  8
1
  6
CONTINUOUS
370
50
 62
4
100
AcDbLine
 10
15.867802
 20
3.726943
 30
0.0
 11
15.753767
 21
3.76842
 31
0.0
  0
LINE
  5
931
330
1F
100
AcDbEntity
  8
1
  6
CONTINUOUS
370
50
 62
4
100
AcDbLine
 10
15.981837
 20
3.685624
 30
0.0
 11
15.867802
 21
3.726943
 31
0.0
  0
LINE
  5
932
330
1F
100
AcDbEntity
  8
1
  6
CONTINUOUS
370
50
 62
4
100
AcDbLine
 10
26.245089
 20
3.602086
 30
0.0
 11
26.131042
 21
3.643361
 31
0.0
  0
LINE
  5
933
330
1F
100
AcDbEntity
  8
1
  6
CONTINUOUS
370
50
 62
4
100
AcDbLine
 10
16.095875
 20
3.644457
 30
0.0
 11
15.981837
 21
3.685624
 31
0.0
  0
LINE
  5
934
330
1F
100
AcDbEntity
  8
1
  6
CONTINUOUS
370
50
 62
4
100
AcDbLine
 10
26.3591
 20
3.561059
 30
0.0
 11
26.245089
 21
3.602086
 31
0.0
  0
LINE
  5
935
330
1F
100
AcDbEntity
  8
1
  6
CONTINUOUS
370
50
 62
4
100
AcDbLine
 10
16.209915
 20
3.603437
 30
0.0
 11
16.095875
 21
3.644457
 31
0.0
  0
LINE
  5
936
330
1F
100
AcDbEntity
  8
1
  6
CONTINUOUS
370
50
 62
4
100
AcDbLine
 10
16.323954
 20
3.56256
 30
0.0
 11
16.209915
 21
3.603437
 31
0.0
  0
LINE
  5
937
330
1F
100
AcDbEntity
  8
1
  6
CONTINUOUS
370
50
 62
4
100
AcDbLine
 10
24.150831
 20
4.399662
 30
0.0
 11
23.647848
 21
4.579845
 31
0.0
  0
LINE
  5
938
330
1F
100
AcDbEntity
  8
1
  6
CONTINUOUS
370
50
 62
4
100
AcDbLine
 10
26.473114
 20
3.520262
 30
0.0
 11
26.3591
 21
3.561059
 31
0.0
  0
LINE
  5
939
330
1F
100
AcDbEntity
  8
1
  6
CONTINUOUS
370
50
 62
4
100
AcDbLine
 10
16.437994
 20
3.521816
 30
0.0
 11
16.323954
 21
3.56256
 31
0.0
  0
LINE
  5
93A
330
1F
100
AcDbEntity
  8
1
  6
CONTINUOUS
370
50
 62
4
100
AcDbLine
 10
16.552038
 20
3.481199
 30
0.0
 11
16.437994
 21
3.521816
 31
0.0
  0
LINE
  5
93B
330
1F
100
AcDbEntity
  8
1
  6
CONTINUOUS
370
50
 62
4
100
AcDbLine
 10
26.58713
 20
3.47969
 30
0.0
 11
26.473114
 21
3.520262
 31
0.0
  0
LINE
  5
93C
330
1F
100
AcDbEntity
  8
1
  6
CONTINUOUS
370
50
 62
4
100
AcDbLine
 10
17.03896
 20
-4.488224
 30
0.0
 11
16.603609
 21
-4.333333
 31
0.0
  0
LINE
  5
93D
330
1F
100
AcDbEntity
  8
1
  6
CONTINUOUS
370
50
 62
4
100
AcDbLine
 10
16.666086
 20
3.440704
 30
0.0
 11
16.552038
 21
3.481199
 31
0.0
  0
LINE
  5
93E
330
1F
100
AcDbEntity
  8
1
  6
CONTINUOUS
370
50
 62
4
100
AcDbLine
 10
16.780128
 20
3.400328
 30
0.0
 11
16.666086
 21
3.440704
 31
0.0
  0
LINE
  5
93F
330
1F
100
AcDbEntity
  8
1
  6
CONTINUOUS
370
50
 62
4
100
AcDbLine
 10
26.701145
 20
3.439336
 30
0.0
 11
26.58713
 21
3.47969
 31
0.0
  0
LINE
  5
940
330
1F
100
AcDbEntity
  8
1
  6
CONTINUOUS
370
50
 62
4
100
AcDbLine
 10
8.083886999999999
 20
2.923795
 30
0.0
 11
7.999928
 21
2.953499
 31
0.0
  0
LINE
  5
941
330
1F
100
AcDbEntity
  8
1
  6
CONTINUOUS
370
50
 62
4
100
AcDbLine
 10
8.167843999999999
 20
2.894114
 30
0.0
 11
8.083886999999999
 21
2.923795
 31
0.0
  0
LINE
  5
942
330
1F
100
AcDbEntity
  8
1
  6
CONTINUOUS
370
50
 62
4
100
AcDbLine
 10
8.251778
 20
2.86447
 30
0.0
 11
8.167843999999999
 21
2.894114
 31
0.0
  0
LINE
  5
943
330
1F
100
AcDbEntity
  8
1
  6
CONTINUOUS
370
50
 62
4
100
AcDbLine
 10
16.894175
 20
3.360061
 30
0.0
 11
16.780128
 21
3.400328
 31
0.0
  0
LINE
  5
944
330
1F
100
AcDbEntity
  8
1
  6
CONTINUOUS
370
50
 62
4
100
AcDbLine
 10
8.335708
 20
2.834856
 30
0.0
 11
8.251778
 21
2.86447
 31
0.0
  0
LINE
  5
945
330
1F
100
AcDbEntity
  8
1
  6
CONTINUOUS
370
50
 62
4
100
AcDbLine
 10
8.407783
 20
2.809453
 30
0.0
 11
8.335708
 21
2.834856
 31
0.0
  0
LINE
  5
946
330
1F
100
AcDbEntity
  8
1
  6
CONTINUOUS
370
50
 62
4
100
AcDbLine
 10
17.008224
 20
3.319898
 30
0.0
 11
16.894175
 21
3.360061
 31
0.0
  0
LINE
  5
947
330
1F
100
AcDbEntity
  8
1
  6
CONTINUOUS
370
50
 62
4
100
AcDbLine
 10
26.815174
 20
3.39919
 30
0.0
 11
26.701145
 21
3.439336
 31
0.0
  0
LINE
  5
948
330
1F
100
AcDbEntity
  8
1
  6
CONTINUOUS
370
50
 62
4
100
AcDbLine
 10
8.479854
 20
2.78408
 30
0.0
 11
8.407783
 21
2.809453
 31
0.0
  0
LINE
  5
949
330
1F
100
AcDbEntity
  8
1
  6
CONTINUOUS
370
50
 62
4
100
AcDbLine
 10
17.122276
 20
3.279834
 30
0.0
 11
17.008224
 21
3.319898
 31
0.0
  0
LINE
  5
94A
330
1F
100
AcDbEntity
  8
1
  6
CONTINUOUS
370
50
 62
4
100
AcDbLine
 10
8.551921
 20
2.758808
 30
0.0
 11
8.479854
 21
2.78408
 31
0.0
  0
LINE
  5
94B
330
1F
100
AcDbEntity
  8
1
  6
CONTINUOUS
370
50
 62
4
100
AcDbLine
 10
17.227695
 20
3.242888
 30
0.0
 11
17.122276
 21
3.279834
 31
0.0
  0
LINE
  5
94C
330
1F
100
AcDbEntity
  8
1
  6
CONTINUOUS
370
50
 62
4
100
AcDbLine
 10
26.929207
 20
3.359251
 30
0.0
 11
26.815174
 21
3.39919
 31
0.0
  0
LINE
  5
94D
330
1F
100
AcDbEntity
  8
1
  6
CONTINUOUS
370
50
 62
4
100
AcDbLine
 10
17.333117
 20
3.20602
 30
0.0
 11
17.227695
 21
3.242888
 31
0.0
  0
LINE
  5
94E
330
1F
100
AcDbEntity
  8
1
  6
CONTINUOUS
370
50
 62
4
100
AcDbLine
 10
17.420839
 20
3.175398
 30
0.0
 11
17.333117
 21
3.20602
 31
0.0
  0
LINE
  5
94F
330
1F
100
AcDbEntity
  8
1
  6
CONTINUOUS
370
50
 62
4
100
AcDbLine
 10
17.508566
 20
3.144826
 30
0.0
 11
17.420839
 21
3.175398
 31
0.0
  0
LINE
  5
950
330
1F
100
AcDbEntity
  8
1
  6
CONTINUOUS
370
50
 62
4
100
AcDbLine
 10
27.043242
 20
3.319511
 30
0.0
 11
26.929207
 21
3.359251
 31
0.0
  0
LINE
  5
951
330
1F
100
AcDbEntity
  8
1
  6
CONTINUOUS
370
50
 62
4
100
AcDbLine
 10
17.596294
 20
3.114304
 30
0.0
 11
17.508566
 21
3.144826
 31
0.0
  0
LINE
  5
952
330
1F
100
AcDbEntity
  8
1
  6
CONTINUOUS
370
50
 62
4
100
AcDbLine
 10
17.684023
 20
3.08383
 30
0.0
 11
17.596294
 21
3.114304
 31
0.0
  0
LINE
  5
953
330
1F
100
AcDbEntity
  8
1
  6
CONTINUOUS
370
50
 62
4
100
AcDbLine
 10
17.771727
 20
3.053413
 30
0.0
 11
17.684023
 21
3.08383
 31
0.0
  0
LINE
  5
954
330
1F
100
AcDbEntity
  8
1
  6
CONTINUOUS
370
50
 62
4
100
AcDbLine
 10
27.15728
 20
3.279966
 30
0.0
 11
27.043242
 21
3.319511
 31
0.0
  0
LINE
  5
955
330
1F
100
AcDbEntity
  8
1
  6
CONTINUOUS
370
50
 62
4
100
AcDbLine
 10
8.623985
 20
2.733828
 30
0.0
 11
8.551921
 21
2.758808
 31
0.0
  0
LINE
  5
956
330
1F
100
AcDbEntity
  8
1
  6
CONTINUOUS
370
50
 62
4
100
AcDbLine
 10
18.375912
 20
-4.583487
 30
0.0
 11
17.832882
 21
-4.395419
 31
0.0
  0
LINE
  5
957
330
1F
100
AcDbEntity
  8
1
  6
CONTINUOUS
370
50
 62
4
100
AcDbLine
 10
17.85943
 20
3.023044
 30
0.0
 11
17.771727
 21
3.053413
 31
0.0
  0
LINE
  5
958
330
1F
100
AcDbEntity
  8
1
  6
CONTINUOUS
370
50
 62
4
100
AcDbLine
 10
17.947136
 20
2.992723
 30
0.0
 11
17.85943
 21
3.023044
 31
0.0
  0
LINE
  5
959
330
1F
100
AcDbEntity
  8
1
  6
CONTINUOUS
370
50
 62
4
100
AcDbLine
 10
23.128288
 20
4.40425
 30
0.0
 11
22.728006
 21
4.542526
 31
0.0
  0
LINE
  5
95A
330
1F
100
AcDbEntity
  8
1
  6
CONTINUOUS
370
50
 62
4
100
AcDbLine
 10
27.265587
 20
3.242583
 30
0.0
 11
27.15728
 21
3.279966
 31
0.0
  0
LINE
  5
95B
330
1F
100
AcDbEntity
  8
1
  6
CONTINUOUS
370
50
 62
4
100
AcDbLine
 10
18.034842
 20
2.962451
 30
0.0
 11
17.947136
 21
2.992723
 31
0.0
  0
LINE
  5
95C
330
1F
100
AcDbEntity
  8
1
  6
CONTINUOUS
370
50
 62
4
100
AcDbLine
 10
13.825898
 20
4.493392
 30
0.0
 11
13.524693
 21
4.597324
 31
0.0
  0
LINE
  5
95D
330
1F
100
AcDbEntity
  8
1
  6
CONTINUOUS
370
50
 62
4
100
AcDbLine
 10
18.126856
 20
2.930744
 30
0.0
 11
18.034842
 21
2.962451
 31
0.0
  0
LINE
  5
95E
330
1F
100
AcDbEntity
  8
1
  6
CONTINUOUS
370
50
 62
4
100
AcDbLine
 10
18.21887
 20
2.899093
 30
0.0
 11
18.126856
 21
2.930744
 31
0.0
  0
LINE
  5
95F
330
1F
100
AcDbEntity
  8
1
  6
CONTINUOUS
370
50
 62
4
100
AcDbLine
 10
27.373898
 20
3.205364
 30
0.0
 11
27.265587
 21
3.242583
 31
0.0
  0
LINE
  5
960
330
1F
100
AcDbEntity
  8
1
  6
CONTINUOUS
370
50
 62
4
100
AcDbLine
 10
18.310862
 20
2.867507
 30
0.0
 11
18.21887
 21
2.899093
 31
0.0
  0
LINE
  5
961
330
1F
100
AcDbEntity
  8
1
  6
CONTINUOUS
370
50
 62
4
100
AcDbLine
 10
18.402853
 20
2.835981
 30
0.0
 11
18.310862
 21
2.867507
 31
0.0
  0
LINE
  5
962
330
1F
100
AcDbEntity
  8
1
  6
CONTINUOUS
370
50
 62
4
100
AcDbLine
 10
8.696067
 20
2.709144
 30
0.0
 11
8.623985
 21
2.733828
 31
0.0
  0
LINE
  5
963
330
1F
100
AcDbEntity
  8
1
  6
CONTINUOUS
370
50
 62
4
100
AcDbLine
 10
27.460869
 20
3.175596
 30
0.0
 11
27.373898
 21
3.205364
 31
0.0
  0
LINE
  5
964
330
1F
100
AcDbEntity
  8
1
  6
CONTINUOUS
370
50
 62
4
100
AcDbLine
 10
18.539019
 20
2.789435
 30
0.0
 11
18.402853
 21
2.835981
 31
0.0
  0
LINE
  5
965
330
1F
100
AcDbEntity
  8
1
  6
CONTINUOUS
370
50
 62
4
100
AcDbLine
 10
12.964327
 20
4.443449
 30
0.0
 11
12.621437
 21
4.560624
 31
0.0
  0
LINE
  5
966
330
1F
100
AcDbEntity
  8
1
  6
CONTINUOUS
370
50
 62
4
100
AcDbLine
 10
27.547842
 20
3.145929
 30
0.0
 11
27.460869
 21
3.175596
 31
0.0
  0
LINE
  5
967
330
1F
100
AcDbEntity
  8
1
  6
CONTINUOUS
370
50
 62
4
100
AcDbLine
 10
18.675177
 20
2.743041
 30
0.0
 11
18.539019
 21
2.789435
 31
0.0
  0
LINE
  5
968
330
1F
100
AcDbEntity
  8
1
  6
CONTINUOUS
370
50
 62
4
100
AcDbLine
 10
27.634817
 20
3.116361
 30
0.0
 11
27.547842
 21
3.145929
 31
0.0
  0
LINE
  5
969
330
1F
100
AcDbEntity
  8
1
  6
CONTINUOUS
370
50
 62
4
100
AcDbLine
 10
18.811272
 20
2.696834
 30
0.0
 11
18.675177
 21
2.743041
 31
0.0
  0
LINE
  5
96A
330
1F
100
AcDbEntity
  8
1
  6
CONTINUOUS
370
50
 62
4
100
AcDbLine
 10
27.721794
 20
3.08689
 30
0.0
 11
27.634817
 21
3.116361
 31
0.0
  0
LINE
  5
96B
330
1F
100
AcDbEntity
  8
1
  6
CONTINUOUS
370
50
 62
4
100
AcDbLine
 10
8.768144999999999
 20
2.684762
 30
0.0
 11
8.696067
 21
2.709144
 31
0.0
  0
LINE
  5
96C
330
1F
100
AcDbEntity
  8
1
  6
CONTINUOUS
370
50
 62
4
100
AcDbLine
 10
18.947355
 20
2.650815
 30
0.0
 11
18.811272
 21
2.696834
 31
0.0
  0
LINE
  5
96D
330
1F
100
AcDbEntity
  8
1
  6
CONTINUOUS
370
50
 62
4
100
AcDbLine
 10
27.808756
 20
3.05752
 30
0.0
 11
27.721794
 21
3.08689
 31
0.0
  0
LINE
  5
96E
330
1F
100
AcDbEntity
  8
1
  6
CONTINUOUS
370
50
 62
4
100
AcDbLine
 10
12.707824
 20
1.519708
 30
0.0
 11
11.95402
 21
1.773907
 31
0.0
  0
LINE
  5
96F
330
1F
100
AcDbEntity
  8
1
  6
CONTINUOUS
370
50
 62
4
100
AcDbLine
 10
20.907478
 20
-1.768971
 30
0.0
 11
20.169001
 21
-1.520134
 31
0.0
  0
LINE
  5
970
330
1F
100
AcDbEntity
  8
1
  6
CONTINUOUS
370
50
 62
4
100
AcDbLine
 10
27.89572
 20
3.028243
 30
0.0
 11
27.808756
 21
3.05752
 31
0.0
  0
LINE
  5
971
330
1F
100
AcDbEntity
  8
1
  6
CONTINUOUS
370
50
 62
4
100
AcDbLine
 10
19.067633
 20
2.610424
 30
0.0
 11
18.947355
 21
2.650815
 31
0.0
  0
LINE
  5
972
330
1F
100
AcDbEntity
  8
1
  6
CONTINUOUS
370
50
 62
4
100
AcDbLine
 10
27.982685
 20
2.999059
 30
0.0
 11
27.89572
 21
3.028243
 31
0.0
  0
LINE
  5
973
330
1F
100
AcDbEntity
  8
1
  6
CONTINUOUS
370
50
 62
4
100
AcDbLine
 10
27.427996
 20
-4.598955
 30
0.0
 11
26.631233
 21
-4.331594
 31
0.0
  0
LINE
  5
974
330
1F
100
AcDbEntity
  8
1
  6
CONTINUOUS
370
50
 62
4
100
AcDbLine
 10
28.069653
 20
2.969967
 30
0.0
 11
27.982685
 21
2.999059
 31
0.0
  0
LINE
  5
975
330
1F
100
AcDbEntity
  8
1
  6
CONTINUOUS
370
50
 62
4
100
AcDbLine
 10
8.84022
 20
2.660681
 30
0.0
 11
8.768144999999999
 21
2.684762
 31
0.0
  0
LINE
  5
976
330
1F
100
AcDbEntity
  8
1
  6
CONTINUOUS
370
50
 62
4
100
AcDbLine
 10
28.169807
 20
2.936574
 30
0.0
 11
28.069653
 21
2.969967
 31
0.0
  0
LINE
  5
977
330
1F
100
AcDbEntity
  8
1
  6
CONTINUOUS
370
50
 62
4
100
AcDbLine
 10
20.9568
 20
-1.782768
 30
0.0
 11
20.236179
 21
-1.542515
 31
0.0
  0
LINE
  5
978
330
1F
100
AcDbEntity
  8
1
  6
CONTINUOUS
370
50
 62
4
100
AcDbLine
 10
29.829905
 20
4.981481
 30
0.0
 11
29.817345
 21
4.985657
 31
0.0
  0
LINE
  5
979
330
1F
100
AcDbEntity
  8
1
  6
CONTINUOUS
370
50
 62
4
100
AcDbLine
 10
28.269966
 20
2.903301
 30
0.0
 11
28.169807
 21
2.936574
 31
0.0
  0
LINE
  5
97A
330
1F
100
AcDbEntity
  8
1
  6
CONTINUOUS
370
50
 62
4
100
AcDbLine
 10
22.748095
 20
1.523278
 30
0.0
 11
21.995491
 21
1.772982
 31
0.0
  0
LINE
  5
97B
330
1F
100
AcDbEntity
  8
1
  6
CONTINUOUS
370
50
 62
4
100
AcDbLine
 10
8.560774
 20
-4.663311
 30
0.0
 11
8.0
 21
-4.477328
 31
0.0
  0
LINE
  5
97C
330
1F
100
AcDbEntity
  8
1
  6
CONTINUOUS
370
50
 62
4
100
AcDbLine
 10
10.896822
 20
-1.778433
 30
0.0
 11
10.172634
 21
-1.538287
 31
0.0
  0
LINE
  5
97D
330
1F
100
AcDbEntity
  8
1
  6
CONTINUOUS
370
50
 62
4
100
AcDbLine
 10
10.870446
 20
-1.767889
 30
0.0
 11
10.149596
 21
-1.529223
 31
0.0
  0
LINE
  5
97E
330
1F
100
AcDbEntity
  8
1
  6
CONTINUOUS
370
50
 62
4
100
AcDbLine
 10
28.370125
 20
2.870147
 30
0.0
 11
28.269966
 21
2.903301
 31
0.0
  0
LINE
  5
97F
330
1F
100
AcDbEntity
  8
1
  6
CONTINUOUS
370
50
 62
4
100
AcDbLine
 10
8.912293
 20
2.6369
 30
0.0
 11
8.84022
 21
2.660681
 31
0.0
  0
LINE
  5
980
330
1F
100
AcDbEntity
  8
1
  6
CONTINUOUS
370
50
 62
4
100
AcDbLine
 10
28.470284
 20
2.837112
 30
0.0
 11
28.370125
 21
2.870147
 31
0.0
  0
LINE
  5
981
330
1F
100
AcDbEntity
  8
1
  6
CONTINUOUS
370
50
 62
4
100
AcDbLine
 10
19.187901
 20
2.570856
 30
0.0
 11
19.067633
 21
2.610424
 31
0.0
  0
LINE
  5
982
330
1F
100
AcDbEntity
  8
1
  6
CONTINUOUS
370
50
 62
4
100
AcDbLine
 10
28.598267
 20
2.795075
 30
0.0
 11
28.470284
 21
2.837112
 31
0.0
  0
LINE
  5
983
330
1F
100
AcDbEntity
  8
1
  6
CONTINUOUS
370
50
 62
4
100
AcDbLine
 10
28.726248
 20
2.753237
 30
0.0
 11
28.598267
 21
2.795075
 31
0.0
  0
LINE
  5
984
330
1F
100
AcDbEntity
  8
1
  6
CONTINUOUS
370
50
 62
4
100
AcDbLine
 10
28.854195
 20
2.711614
 30
0.0
 11
28.726248
 21
2.753237
 31
0.0
  0
LINE
  5
985
330
1F
100
AcDbEntity
  8
1
  6
CONTINUOUS
370
50
 62
4
100
AcDbLine
 10
9.025938
 20
2.600004
 30
0.0
 11
8.912293
 21
2.6369
 31
0.0
  0
LINE
  5
986
330
1F
100
AcDbEntity
  8
1
  6
CONTINUOUS
370
50
 62
4
100
AcDbLine
 10
28.531889
 20
-4.6105
 30
0.0
 11
28.069647
 21
-4.460599999999999
 31
0.0
  0
LINE
  5
987
330
1F
100
AcDbEntity
  8
1
  6
CONTINUOUS
370
50
 62
4
100
AcDbLine
 10
28.982136
 20
2.670202
 30
0.0
 11
28.854195
 21
2.711614
 31
0.0
  0
LINE
  5
988
330
1F
100
AcDbEntity
  8
1
  6
CONTINUOUS
370
50
 62
4
100
AcDbLine
 10
29.082996
 20
2.637708
 30
0.0
 11
28.982136
 21
2.670202
 31
0.0
  0
LINE
  5
989
330
1F
100
AcDbEntity
  8
1
  6
CONTINUOUS
370
50
 62
4
100
AcDbLine
 10
19.308201
 20
2.532164
 30
0.0
 11
19.187901
 21
2.570856
 31
0.0
  0
LINE
  5
98A
330
1F
100
AcDbEntity
  8
1
  6
CONTINUOUS
370
50
 62
4
100
AcDbLine
 10
29.183855
 20
2.605357
 30
0.0
 11
29.082996
 21
2.637708
 31
0.0
  0
LINE
  5
98B
330
1F
100
AcDbEntity
  8
1
  6
CONTINUOUS
370
50
 62
4
100
AcDbLine
 10
29.284681
 20
2.573161
 30
0.0
 11
29.183855
 21
2.605357
 31
0.0
  0
LINE
  5
98C
330
1F
100
AcDbEntity
  8
1
  6
CONTINUOUS
370
50
 62
4
100
AcDbLine
 10
5.157592
 20
4.922829999999999
 30
0.0
 11
5.029542
 21
4.963626
 31
0.0
  0
LINE
  5
98D
330
1F
100
AcDbEntity
  8
1
  6
CONTINUOUS
370
50
 62
4
100
AcDbLine
 10
9.139578
 20
2.563842
 30
0.0
 11
9.025938
 21
2.600004
 31
0.0
  0
LINE
  5
98E
330
1F
100
AcDbEntity
  8
1
  6
CONTINUOUS
370
50
 62
4
100
AcDbLine
 10
29.385502
 20
2.54112
 30
0.0
 11
29.284681
 21
2.573161
 31
0.0
  0
LINE
  5
98F
330
1F
100
AcDbEntity
  8
1
  6
CONTINUOUS
370
50
 62
4
100
AcDbLine
 10
23.807323
 20
3.099657
 30
0.0
 11
23.181192
 21
3.297201
 31
0.0
  0
LINE
  5
990
330
1F
100
AcDbEntity
  8
1
  6
CONTINUOUS
370
50
 62
4
100
AcDbLine
 10
29.814371
 20
0.97168
 30
0.0
 11
29.807116
 21
0.973962
 31
0.0
  0
LINE
  5
991
330
1F
100
AcDbEntity
  8
1
  6
CONTINUOUS
370
50
 62
4
100
AcDbLine
 10
19.428493
 20
2.494353
 30
0.0
 11
19.308201
 21
2.532164
 31
0.0
  0
LINE
  5
992
330
1F
100
AcDbEntity
  8
1
  6
CONTINUOUS
370
50
 62
4
100
AcDbLine
 10
17.471071
 20
-4.623856
 30
0.0
 11
17.03896
 21
-4.488224
 31
0.0
  0
LINE
  5
993
330
1F
100
AcDbEntity
  8
1
  6
CONTINUOUS
370
50
 62
4
100
AcDbLine
 10
9.253247
 20
2.528397
 30
0.0
 11
9.139578
 21
2.563842
 31
0.0
  0
LINE
  5
994
330
1F
100
AcDbEntity
  8
1
  6
CONTINUOUS
370
50
 62
4
100
AcDbLine
 10
19.536222
 20
2.461231
 30
0.0
 11
19.428493
 21
2.494353
 31
0.0
  0
LINE
  5
995
330
1F
100
AcDbEntity
  8
1
  6
CONTINUOUS
370
50
 62
4
100
AcDbLine
 10
9.366913
 20
2.49367
 30
0.0
 11
9.253247
 21
2.528397
 31
0.0
  0
LINE
  5
996
330
1F
100
AcDbEntity
  8
1
  6
CONTINUOUS
370
50
 62
4
100
AcDbLine
 10
21.64612
 20
-1.991857
 30
0.0
 11
20.907478
 21
-1.768971
 31
0.0
  0
LINE
  5
997
330
1F
100
AcDbEntity
  8
1
  6
CONTINUOUS
370
50
 62
4
100
AcDbLine
 10
19.643946
 20
2.428801
 30
0.0
 11
19.536222
 21
2.461231
 31
0.0
  0
LINE
  5
998
330
1F
100
AcDbEntity
  8
1
  6
CONTINUOUS
370
50
 62
4
100
AcDbLine
 10
11.621196
 20
-1.996189
 30
0.0
 11
10.896822
 21
-1.778433
 31
0.0
  0
LINE
  5
999
330
1F
100
AcDbEntity
  8
1
  6
CONTINUOUS
370
50
 62
4
100
AcDbLine
 10
9.481245999999999
 20
2.459456
 30
0.0
 11
9.366913
 21
2.49367
 31
0.0
  0
LINE
  5
99A
330
1F
100
AcDbEntity
  8
1
  6
CONTINUOUS
370
50
 62
4
100
AcDbLine
 10
11.599014
 20
-1.985715
 30
0.0
 11
10.870446
 21
-1.767889
 31
0.0
  0
LINE
  5
99B
330
1F
100
AcDbEntity
  8
1
  6
CONTINUOUS
370
50
 62
4
100
AcDbLine
 10
11.95402
 20
1.773907
 30
0.0
 11
11.200355
 21
1.999124
 31
0.0
  0
LINE
  5
99C
330
1F
100
AcDbEntity
  8
1
  6
CONTINUOUS
370
50
 62
4
100
AcDbLine
 10
12.621437
 20
4.560624
 30
0.0
 11
12.2766
 21
4.663647999999999
 31
0.0
  0
LINE
  5
99D
330
1F
100
AcDbEntity
  8
1
  6
CONTINUOUS
370
50
 62
4
100
AcDbLine
 10
21.673916
 20
-1.996515
 30
0.0
 11
20.9568
 21
-1.782768
 31
0.0
  0
LINE
  5
99E
330
1F
100
AcDbEntity
  8
1
  6
CONTINUOUS
370
50
 62
4
100
AcDbLine
 10
22.728006
 20
4.542526
 30
0.0
 11
22.325056
 21
4.662516999999999
 31
0.0
  0
LINE
  5
99F
330
1F
100
AcDbEntity
  8
1
  6
CONTINUOUS
370
50
 62
4
100
AcDbLine
 10
21.995491
 20
1.772982
 30
0.0
 11
21.243097
 21
1.996973
 31
0.0
  0
LINE
  5
9A0
330
1F
100
AcDbEntity
  8
1
  6
CONTINUOUS
370
50
 62
4
100
AcDbLine
 10
19.751696
 20
2.397046
 30
0.0
 11
19.643946
 21
2.428801
 31
0.0
  0
LINE
  5
9A1
330
1F
100
AcDbEntity
  8
1
  6
CONTINUOUS
370
50
 62
4
100
AcDbLine
 10
18.902008
 20
-4.738136
 30
0.0
 11
18.375912
 21
-4.583487
 31
0.0
  0
LINE
  5
9A2
330
1F
100
AcDbEntity
  8
1
  6
CONTINUOUS
370
50
 62
4
100
AcDbLine
 10
13.524693
 20
4.597324
 30
0.0
 11
13.102263
 21
4.721277
 31
0.0
  0
LINE
  5
9A3
330
1F
100
AcDbEntity
  8
1
  6
CONTINUOUS
370
50
 62
4
100
AcDbLine
 10
9.595576999999999
 20
2.425951
 30
0.0
 11
9.481245999999999
 21
2.459456
 31
0.0
  0
LINE
  5
9A4
330
1F
100
AcDbEntity
  8
1
  6
CONTINUOUS
370
50
 62
4
100
AcDbLine
 10
19.859444
 20
2.365969
 30
0.0
 11
19.751696
 21
2.397046
 31
0.0
  0
LINE
  5
9A5
330
1F
100
AcDbEntity
  8
1
  6
CONTINUOUS
370
50
 62
4
100
AcDbLine
 10
23.647848
 20
4.579845
 30
0.0
 11
23.134459
 21
4.727901999999999
 31
0.0
  0
LINE
  5
9A6
330
1F
100
AcDbEntity
  8
1
  6
CONTINUOUS
370
50
 62
4
100
AcDbLine
 10
9.709933999999999
 20
2.393138
 30
0.0
 11
9.595576999999999
 21
2.425951
 31
0.0
  0
LINE
  5
9A7
330
1F
100
AcDbEntity
  8
1
  6
CONTINUOUS
370
50
 62
4
100
AcDbLine
 10
19.938364
 20
2.343631
 30
0.0
 11
19.859444
 21
2.365969
 31
0.0
  0
LINE
  5
9A8
330
1F
100
AcDbEntity
  8
1
  6
CONTINUOUS
370
50
 62
4
100
AcDbLine
 10
28.932545
 20
-4.723509
 30
0.0
 11
28.531889
 21
-4.6105
 31
0.0
  0
LINE
  5
9A9
330
1F
100
AcDbEntity
  8
1
  6
CONTINUOUS
370
50
 62
4
100
AcDbLine
 10
29.70377
 20
4.05681
 30
0.0
 11
29.665867
 21
4.067498
 31
0.0
  0
LINE
  5
9AA
330
1F
100
AcDbEntity
  8
1
  6
CONTINUOUS
370
50
 62
4
100
AcDbLine
 10
9.824290999999999
 20
2.361016
 30
0.0
 11
9.709933999999999
 21
2.393138
 31
0.0
  0
LINE
  5
9AB
330
1F
100
AcDbEntity
  8
1
  6
CONTINUOUS
370
50
 62
4
100
AcDbLine
 10
20.017284
 20
2.321647
 30
0.0
 11
19.938364
 21
2.343631
 31
0.0
  0
LINE
  5
9AC
330
1F
100
AcDbEntity
  8
1
  6
CONTINUOUS
370
50
 62
4
100
AcDbLine
 10
9.902101
 20
2.339548
 30
0.0
 11
9.824290999999999
 21
2.361016
 31
0.0
  0
LINE
  5
9AD
330
1F
100
AcDbEntity
  8
1
  6
CONTINUOUS
370
50
 62
4
100
AcDbLine
 10
20.096203
 20
2.300016
 30
0.0
 11
20.017284
 21
2.321647
 31
0.0
  0
LINE
  5
9AE
330
1F
100
AcDbEntity
  8
1
  6
CONTINUOUS
370
50
 62
4
100
AcDbLine
 10
29.817345
 20
4.985657
 30
0.0
 11
29.804646
 21
4.989110999999999
 31
0.0
  0
LINE
  5
9AF
330
1F
100
AcDbEntity
  8
1
  6
CONTINUOUS
370
50
 62
4
100
AcDbLine
 10
9.979911999999999
 20
2.318393
 30
0.0
 11
9.902101
 21
2.339548
 31
0.0
  0
LINE
  5
9B0
330
1F
100
AcDbEntity
  8
1
  6
CONTINUOUS
370
50
 62
4
100
AcDbLine
 10
17.900791
 20
-4.740314
 30
0.0
 11
17.471071
 21
-4.623856
 31
0.0
  0
LINE
  5
9B1
330
1F
100
AcDbEntity
  8
1
  6
CONTINUOUS
370
50
 62
4
100
AcDbLine
 10
12.345735
 20
-2.191707
 30
0.0
 11
11.621196
 21
-1.996189
 31
0.0
  0
LINE
  5
9B2
330
1F
100
AcDbEntity
  8
1
  6
CONTINUOUS
370
50
 62
4
100
AcDbLine
 10
20.175123
 20
2.278732
 30
0.0
 11
20.096203
 21
2.300016
 31
0.0
  0
LINE
  5
9B3
330
1F
100
AcDbEntity
  8
1
  6
CONTINUOUS
370
50
 62
4
100
AcDbLine
 10
22.384981
 20
-2.190172
 30
0.0
 11
21.64612
 21
-1.991857
 31
0.0
  0
LINE
  5
9B4
330
1F
100
AcDbEntity
  8
1
  6
CONTINUOUS
370
50
 62
4
100
AcDbLine
 10
12.328351
 20
-2.181273
 30
0.0
 11
11.599014
 21
-1.985715
 31
0.0
  0
LINE
  5
9B5
330
1F
100
AcDbEntity
  8
1
  6
CONTINUOUS
370
50
 62
4
100
AcDbLine
 10
10.057723
 20
2.297546
 30
0.0
 11
9.979911999999999
 21
2.318393
 31
0.0
  0
LINE
  5
9B6
330
1F
100
AcDbEntity
  8
1
  6
CONTINUOUS
370
50
 62
4
100
AcDbLine
 10
21.243097
 20
1.996973
 30
0.0
 11
20.490908
 21
2.196996
 31
0.0
  0
LINE
  5
9B7
330
1F
100
AcDbEntity
  8
1
  6
CONTINUOUS
370
50
 62
4
100
AcDbLine
 10
20.254068
 20
2.257786
 30
0.0
 11
20.175123
 21
2.278732
 31
0.0
  0
LINE
  5
9B8
330
1F
100
AcDbEntity
  8
1
  6
CONTINUOUS
370
50
 62
4
100
AcDbLine
 10
22.391096
 20
-2.186371
 30
0.0
 11
21.673916
 21
-1.996515
 31
0.0
  0
LINE
  5
9B9
330
1F
100
AcDbEntity
  8
1
  6
CONTINUOUS
370
50
 62
4
100
AcDbLine
 10
10.135535
 20
2.277005
 30
0.0
 11
10.057723
 21
2.297546
 31
0.0
  0
LINE
  5
9BA
330
1F
100
AcDbEntity
  8
1
  6
CONTINUOUS
370
50
 62
4
100
AcDbLine
 10
11.200355
 20
1.999124
 30
0.0
 11
10.446896
 21
2.19787
 31
0.0
  0
LINE
  5
9BB
330
1F
100
AcDbEntity
  8
1
  6
CONTINUOUS
370
50
 62
4
100
AcDbLine
 10
9.094223
 20
-4.802608
 30
0.0
 11
8.560774
 21
-4.663311
 31
0.0
  0
LINE
  5
9BC
330
1F
100
AcDbEntity
  8
1
  6
CONTINUOUS
370
50
 62
4
100
AcDbLine
 10
20.333014
 20
2.237181
 30
0.0
 11
20.254068
 21
2.257786
 31
0.0
  0
LINE
  5
9BD
330
1F
100
AcDbEntity
  8
1
  6
CONTINUOUS
370
50
 62
4
100
AcDbLine
 10
29.821638
 20
0.969787
 30
0.0
 11
29.814371
 21
0.97168
 31
0.0
  0
LINE
  5
9BE
330
1F
100
AcDbEntity
  8
1
  6
CONTINUOUS
370
50
 62
4
100
AcDbLine
 10
10.213366
 20
2.256761
 30
0.0
 11
10.135535
 21
2.277005
 31
0.0
  0
LINE
  5
9BF
330
1F
100
AcDbEntity
  8
1
  6
CONTINUOUS
370
50
 62
4
100
AcDbLine
 10
12.2766
 20
4.663647999999999
 30
0.0
 11
11.930606
 21
4.752651
 31
0.0
  0
LINE
  5
9C0
330
1F
100
AcDbEntity
  8
1
  6
CONTINUOUS
370
50
 62
4
100
AcDbLine
 10
20.411961
 20
2.216914
 30
0.0
 11
20.333014
 21
2.237181
 31
0.0
  0
LINE
  5
9C1
330
1F
100
AcDbEntity
  8
1
  6
CONTINUOUS
370
50
 62
4
100
AcDbLine
 10
10.291196
 20
2.236817
 30
0.0
 11
10.213366
 21
2.256761
 31
0.0
  0
LINE
  5
9C2
330
1F
100
AcDbEntity
  8
1
  6
CONTINUOUS
370
50
 62
4
100
AcDbLine
 10
23.181192
 20
3.297201
 30
0.0
 11
22.555063
 21
3.457579
 31
0.0
  0
LINE
  5
9C3
330
1F
100
AcDbEntity
  8
1
  6
CONTINUOUS
370
50
 62
4
100
AcDbLine
 10
28.219336
 20
-4.800974
 30
0.0
 11
27.427996
 21
-4.598955
 31
0.0
  0
LINE
  5
9C4
330
1F
100
AcDbEntity
  8
1
  6
CONTINUOUS
370
50
 62
4
100
AcDbLine
 10
20.490908
 20
2.19698
 30
0.0
 11
20.411961
 21
2.216914
 31
0.0
  0
LINE
  5
9C5
330
1F
100
AcDbEntity
  8
1
  6
CONTINUOUS
370
50
 62
4
100
AcDbLine
 10
10.369028
 20
2.217169
 30
0.0
 11
10.291196
 21
2.236817
 31
0.0
  0
LINE
  5
9C6
330
1F
100
AcDbEntity
  8
1
  6
CONTINUOUS
370
50
 62
4
100
AcDbLine
 10
22.325056
 20
4.662516999999999
 30
0.0
 11
21.921064
 21
4.764241999999999
 31
0.0
  0
LINE
  5
9C7
330
1F
100
AcDbEntity
  8
1
  6
CONTINUOUS
370
50
 62
4
100
AcDbLine
 10
10.446862
 20
2.197815
 30
0.0
 11
10.369028
 21
2.217169
 31
0.0
  0
LINE
  5
9C8
330
1F
100
AcDbEntity
  8
1
  6
CONTINUOUS
370
50
 62
4
100
AcDbLine
 10
29.269115
 20
-4.805151
 30
0.0
 11
28.932545
 21
-4.723509
 31
0.0
  0
LINE
  5
9C9
330
1F
100
AcDbEntity
  8
1
  6
CONTINUOUS
370
50
 62
4
100
AcDbLine
 10
13.07034
 20
-2.363808
 30
0.0
 11
12.345735
 21
-2.191707
 31
0.0
  0
LINE
  5
9CA
330
1F
100
AcDbEntity
  8
1
  6
CONTINUOUS
370
50
 62
4
100
AcDbLine
 10
13.049703
 20
-2.352512
 30
0.0
 11
12.328351
 21
-2.181273
 31
0.0
  0
LINE
  5
9CB
330
1F
100
AcDbEntity
  8
1
  6
CONTINUOUS
370
50
 62
4
100
AcDbLine
 10
23.124001
 20
-2.363318
 30
0.0
 11
22.384981
 21
-2.190172
 31
0.0
  0
LINE
  5
9CC
330
1F
100
AcDbEntity
  8
1
  6
CONTINUOUS
370
50
 62
4
100
AcDbLine
 10
23.111708
 20
-2.353845
 30
0.0
 11
22.391096
 21
-2.186371
 31
0.0
  0
LINE
  5
9CD
330
1F
100
AcDbEntity
  8
1
  6
CONTINUOUS
370
50
 62
4
100
AcDbLine
 10
19.420279
 20
-4.856885
 30
0.0
 11
18.902008
 21
-4.738136
 31
0.0
  0
LINE
  5
9CE
330
1F
100
AcDbEntity
  8
1
  6
CONTINUOUS
370
50
 62
4
100
AcDbLine
 10
13.102263
 20
4.721277
 30
0.0
 11
12.563972
 21
4.843842
 31
0.0
  0
LINE
  5
9CF
330
1F
100
AcDbEntity
  8
1
  6
CONTINUOUS
370
50
 62
4
100
AcDbLine
 10
18.327263
 20
-4.83672
 30
0.0
 11
17.900791
 21
-4.740314
 31
0.0
  0
LINE
  5
9D0
330
1F
100
AcDbEntity
  8
1
  6
CONTINUOUS
370
50
 62
4
100
AcDbLine
 10
23.134459
 20
4.727901999999999
 30
0.0
 11
22.616592
 21
4.843049
 31
0.0
  0
LINE
  5
9D1
330
1F
100
AcDbEntity
  8
1
  6
CONTINUOUS
370
50
 62
4
100
AcDbLine
 10
8.307837
 20
-4.846661999999999
 30
0.0
 11
8.0
 21
-4.778569
 31
0.0
  0
LINE
  5
9D2
330
1F
100
AcDbEntity
  8
1
  6
CONTINUOUS
370
50
 62
4
100
AcDbLine
 10
11.930606
 20
4.752651
 30
0.0
 11
11.584249
 21
4.827768
 31
0.0
  0
LINE
  5
9D3
330
1F
100
AcDbEntity
  8
1
  6
CONTINUOUS
370
50
 62
4
100
AcDbLine
 10
29.804646
 20
4.989110999999999
 30
0.0
 11
29.791838
 21
4.991848
 31
0.0
  0
LINE
  5
9D4
330
1F
100
AcDbEntity
  8
1
  6
CONTINUOUS
370
50
 62
4
100
AcDbLine
 10
29.665867
 20
4.067498
 30
0.0
 11
29.625963
 21
4.075779
 31
0.0
  0
LINE
  5
9D5
330
1F
100
AcDbEntity
  8
1
  6
CONTINUOUS
370
50
 62
4
100
AcDbLine
 10
21.921064
 20
4.764241999999999
 30
0.0
 11
21.517653
 21
4.847716
 31
0.0
  0
LINE
  5
9D6
330
1F
100
AcDbEntity
  8
1
  6
CONTINUOUS
370
50
 62
4
100
AcDbLine
 10
29.539101
 20
-4.860954
 30
0.0
 11
29.269115
 21
-4.805151
 31
0.0
  0
LINE
  5
9D7
330
1F
100
AcDbEntity
  8
1
  6
CONTINUOUS
370
50
 62
4
100
AcDbLine
 10
29.828854
 20
0.968308
 30
0.0
 11
29.821638
 21
0.969787
 31
0.0
  0
LINE
  5
9D8
330
1F
100
AcDbEntity
  8
1
  6
CONTINUOUS
370
50
 62
4
100
AcDbLine
 10
22.555063
 20
3.457579
 30
0.0
 11
21.928921
 21
3.583256
 31
0.0
  0
LINE
  5
9D9
330
1F
100
AcDbEntity
  8
1
  6
CONTINUOUS
370
50
 62
4
100
AcDbLine
 10
5.029542
 20
4.963626
 30
0.0
 11
4.8987
 21
4.989201
 31
0.0
  0
LINE
  5
9DA
330
1F
100
AcDbEntity
  8
1
  6
CONTINUOUS
370
50
 62
4
100
AcDbLine
 10
9.634656999999999
 20
-4.90389
 30
0.0
 11
9.094223
 21
-4.802608
 31
0.0
  0
LINE
  5
9DB
330
1F
100
AcDbEntity
  8
1
  6
CONTINUOUS
370
50
 62
4
100
AcDbLine
 10
4.714388
 20
-4.998561
 30
0.0
 11
4.704625
 21
-4.996754999999999
 31
0.0
  0
LINE
  5
9DC
330
1F
100
AcDbEntity
  8
1
  6
CONTINUOUS
370
50
 62
4
100
AcDbLine
 10
8.608895
 20
-4.901806
 30
0.0
 11
8.307837
 21
-4.846661999999999
 31
0.0
  0
LINE
  5
9DD
330
1F
100
AcDbEntity
  8
1
  6
CONTINUOUS
370
50
 62
4
100
AcDbLine
 10
18.735273
 20
-4.910137
 30
0.0
 11
18.327263
 21
-4.83672
 31
0.0
  0
LINE
  5
9DE
330
1F
100
AcDbEntity
  8
1
  6
CONTINUOUS
370
50
 62
4
100
AcDbLine
 10
11.584249
 20
4.827768
 30
0.0
 11
11.238196
 21
4.889155
 31
0.0
  0
LINE
  5
9DF
330
1F
100
AcDbEntity
  8
1
  6
CONTINUOUS
370
50
 62
4
100
AcDbLine
 10
29.74
 20
-4.896440999999999
 30
0.0
 11
29.539101
 21
-4.860954
 31
0.0
  0
LINE
  5
9E0
330
1F
100
AcDbEntity
  8
1
  6
CONTINUOUS
370
50
 62
4
100
AcDbLine
 10
28.999844
 20
-4.935232
 30
0.0
 11
28.219336
 21
-4.800974
 31
0.0
  0
LINE
  5
9E1
330
1F
100
AcDbEntity
  8
1
  6
CONTINUOUS
370
50
 62
4
100
AcDbLine
 10
21.517653
 20
4.847716
 30
0.0
 11
21.116049
 21
4.913033
 31
0.0
  0
LINE
  5
9E2
330
1F
100
AcDbEntity
  8
1
  6
CONTINUOUS
370
50
 62
4
100
AcDbLine
 10
22.616592
 20
4.843049
 30
0.0
 11
22.095207
 21
4.926329
 31
0.0
  0
LINE
  5
9E3
330
1F
100
AcDbEntity
  8
1
  6
CONTINUOUS
370
50
 62
4
100
AcDbLine
 10
29.791838
 20
4.991848
 30
0.0
 11
29.778946
 21
4.993874
 31
0.0
  0
LINE
  5
9E4
330
1F
100
AcDbEntity
  8
1
  6
CONTINUOUS
370
50
 62
4
100
AcDbLine
 10
19.957376
 20
-4.940732
 30
0.0
 11
19.420279
 21
-4.856885
 31
0.0
  0
LINE
  5
9E5
330
1F
100
AcDbEntity
  8
1
  6
CONTINUOUS
370
50
 62
4
100
AcDbLine
 10
12.563972
 20
4.843842
 30
0.0
 11
11.932376
 21
4.941295999999999
 31
0.0
  0
LINE
  5
9E6
330
1F
100
AcDbEntity
  8
1
  6
CONTINUOUS
370
50
 62
4
100
AcDbLine
 10
29.836012
 20
0.9672459999999999
 30
0.0
 11
29.828854
 21
0.968308
 31
0.0
  0
LINE
  5
9E7
330
1F
100
AcDbEntity
  8
1
  6
CONTINUOUS
370
50
 62
4
100
AcDbLine
 10
21.928921
 20
3.583256
 30
0.0
 11
21.302765
 21
3.676028
 31
0.0
  0
LINE
  5
9E8
330
1F
100
AcDbEntity
  8
1
  6
CONTINUOUS
370
50
 62
4
100
AcDbLine
 10
29.746149
 20
-4.897346
 30
0.0
 11
29.74
 21
-4.896440999999999
 31
0.0
  0
LINE
  5
9E9
330
1F
100
AcDbEntity
  8
1
  6
CONTINUOUS
370
50
 62
4
100
AcDbLine
 10
29.625963
 20
4.075779
 30
0.0
 11
29.588251
 21
4.081198
 31
0.0
  0
LINE
  5
9EA
330
1F
100
AcDbEntity
  8
1
  6
CONTINUOUS
370
50
 62
4
100
AcDbLine
 10
8.914087
 20
-4.944891
 30
0.0
 11
8.608895
 21
-4.901806
 31
0.0
  0
LINE
  5
9EB
330
1F
100
AcDbEntity
  8
1
  6
CONTINUOUS
370
50
 62
4
100
AcDbLine
 10
11.238196
 20
4.889155
 30
0.0
 11
10.891758
 21
4.937163
 31
0.0
  0
LINE
  5
9EC
330
1F
100
AcDbEntity
  8
1
  6
CONTINUOUS
370
50
 62
4
100
AcDbLine
 10
19.126545
 20
-4.960685
 30
0.0
 11
18.735273
 21
-4.910137
 31
0.0
  0
LINE
  5
9ED
330
1F
100
AcDbEntity
  8
1
  6
CONTINUOUS
370
50
 62
4
100
AcDbLine
 10
5.366839
 20
4.855414
 30
0.0
 11
5.285527999999999
 21
4.865876
 31
0.0
  0
LINE
  5
9EE
330
1F
100
AcDbEntity
  8
1
  6
CONTINUOUS
370
50
 62
4
100
AcDbLine
 10
10.180005
 20
-4.968546
 30
0.0
 11
9.634656999999999
 21
-4.90389
 31
0.0
  0
LINE
  5
9EF
330
1F
100
AcDbEntity
  8
1
  6
CONTINUOUS
370
50
 62
4
100
AcDbLine
 10
21.116049
 20
4.913033
 30
0.0
 11
20.714634
 21
4.960548999999999
 31
0.0
  0
LINE
  5
9F0
330
1F
100
AcDbEntity
  8
1
  6
CONTINUOUS
370
50
 62
4
100
AcDbLine
 10
5.450416
 20
4.845594999999999
 30
0.0
 11
5.366839
 21
4.855414
 31
0.0
  0
LINE
  5
9F1
330
1F
100
AcDbEntity
  8
1
  6
CONTINUOUS
370
50
 62
4
100
AcDbLine
 10
29.752434
 20
-4.898054
 30
0.0
 11
29.746149
 21
-4.897346
 31
0.0
  0
LINE
  5
9F2
330
1F
100
AcDbEntity
  8
1
  6
CONTINUOUS
370
50
 62
4
100
AcDbLine
 10
5.536067999999999
 20
4.836454
 30
0.0
 11
5.450416
 21
4.845594999999999
 31
0.0
  0
LINE
  5
9F3
330
1F
100
AcDbEntity
  8
1
  6
CONTINUOUS
370
50
 62
4
100
AcDbLine
 10
29.778946
 20
4.993874
 30
0.0
 11
29.765997
 21
4.995191
 31
0.0
  0
LINE
  5
9F4
330
1F
100
AcDbEntity
  8
1
  6
CONTINUOUS
370
50
 62
4
100
AcDbLine
 10
10.891758
 20
4.937163
 30
0.0
 11
10.545529
 21
4.971737
 31
0.0
  0
LINE
  5
9F5
330
1F
100
AcDbEntity
  8
1
  6
CONTINUOUS
370
50
 62
4
100
AcDbLine
 10
22.095207
 20
4.926329
 30
0.0
 11
21.572098
 21
4.978397999999999
 31
0.0
  0
LINE
  5
9F6
330
1F
100
AcDbEntity
  8
1
  6
CONTINUOUS
370
50
 62
4
100
AcDbLine
 10
9.226212
 20
-4.975797
 30
0.0
 11
8.914087
 21
-4.944891
 31
0.0
  0
LINE
  5
9F7
330
1F
100
AcDbEntity
  8
1
  6
CONTINUOUS
370
50
 62
4
100
AcDbLine
 10
5.623427
 20
4.828053
 30
0.0
 11
5.536067999999999
 21
4.836454
 31
0.0
  0
LINE
  5
9F8
330
1F
100
AcDbEntity
  8
1
  6
CONTINUOUS
370
50
 62
4
100
AcDbLine
 10
21.302765
 20
3.676028
 30
0.0
 11
20.676592
 21
3.736219
 31
0.0
  0
LINE
  5
9F9
330
1F
100
AcDbEntity
  8
1
  6
CONTINUOUS
370
50
 62
4
100
AcDbLine
 10
29.843109
 20
0.966607
 30
0.0
 11
29.836012
 21
0.9672459999999999
 31
0.0
  0
LINE
  5
9FA
330
1F
100
AcDbEntity
  8
1
  6
CONTINUOUS
370
50
 62
4
100
AcDbLine
 10
20.501324
 20
-4.98787
 30
0.0
 11
19.957376
 21
-4.940732
 31
0.0
  0
LINE
  5
9FB
330
1F
100
AcDbEntity
  8
1
  6
CONTINUOUS
370
50
 62
4
100
AcDbLine
 10
5.712127
 20
4.820450999999999
 30
0.0
 11
5.623427
 21
4.828053
 31
0.0
  0
LINE
  5
9FC
330
1F
100
AcDbEntity
  8
1
  6
CONTINUOUS
370
50
 62
4
100
AcDbLine
 10
29.74
 20
-4.995718
 30
0.0
 11
28.999844
 21
-4.935232
 31
0.0
  0
LINE
  5
9FD
330
1F
100
AcDbEntity
  8
1
  6
CONTINUOUS
370
50
 62
4
100
AcDbLine
 10
29.588251
 20
4.081198
 30
0.0
 11
29.538351
 21
4.085153
 31
0.0
  0
LINE
  5
9FE
330
1F
100
AcDbEntity
  8
1
  6
CONTINUOUS
370
50
 62
4
100
AcDbLine
 10
11.932376
 20
4.941295999999999
 30
0.0
 11
11.28471
 21
4.992309
 31
0.0
  0
LINE
  5
9FF
330
1F
100
AcDbEntity
  8
1
  6
CONTINUOUS
370
50
 62
4
100
AcDbLine
 10
4.8987
 20
4.989201
 30
0.0
 11
4.763939
 21
4.999661
 31
0.0
  0
LINE
  5
A00
330
1F
100
AcDbEntity
  8
1
  6
CONTINUOUS
370
50
 62
4
100
AcDbLine
 10
29.758856
 20
-4.898550999999999
 30
0.0
 11
29.752434
 21
-4.898054
 31
0.0
  0
LINE
  5
A01
330
1F
100
AcDbEntity
  8
1
  6
CONTINUOUS
370
50
 62
4
100
AcDbLine
 10
4.728174
 20
-4.999618
 30
0.0
 11
4.714388
 21
-4.998561
 31
0.0
  0
LINE
  5
A02
330
1F
100
AcDbEntity
  8
1
  6
CONTINUOUS
370
50
 62
4
100
AcDbLine
 10
19.518721
 20
-4.990533
 30
0.0
 11
19.126545
 21
-4.960685
 31
0.0
  0
LINE
  5
A03
330
1F
100
AcDbEntity
  8
1
  6
CONTINUOUS
370
50
 62
4
100
AcDbLine
 10
5.801799
 20
4.813707
 30
0.0
 11
5.712127
 21
4.820450999999999
 31
0.0
  0
LINE
  5
A04
330
1F
100
AcDbEntity
  8
1
  6
CONTINUOUS
370
50
 62
4
100
AcDbLine
 10
20.714634
 20
4.960548999999999
 30
0.0
 11
20.313961
 21
4.989757
 31
0.0
  0
LINE
  5
A05
330
1F
100
AcDbEntity
  8
1
  6
CONTINUOUS
370
50
 62
4
100
AcDbLine
 10
5.892256
 20
4.807866
 30
0.0
 11
5.801799
 21
4.813707
 31
0.0
  0
LINE
  5
A06
330
1F
100
AcDbEntity
  8
1
  6
CONTINUOUS
370
50
 62
4
100
AcDbLine
 10
10.545529
 20
4.971737
 30
0.0
 11
10.200533
 21
4.992713
 31
0.0
  0
LINE
  5
A07
330
1F
100
AcDbEntity
  8
1
  6
CONTINUOUS
370
50
 62
4
100
AcDbLine
 10
9.540569
 20
-4.994034999999999
 30
0.0
 11
9.226212
 21
-4.975797
 31
0.0
  0
LINE
  5
A08
330
1F
100
AcDbEntity
  8
1
  6
CONTINUOUS
370
50
 62
4
100
AcDbLine
 10
5.983633999999999
 20
4.80293
 30
0.0
 11
5.892256
 21
4.807866
 31
0.0
  0
LINE
  5
A09
330
1F
100
AcDbEntity
  8
1
  6
CONTINUOUS
370
50
 62
4
100
AcDbLine
 10
10.730499
 20
-4.997894
 30
0.0
 11
10.180005
 21
-4.968546
 31
0.0
  0
LINE
  5
A0A
330
1F
100
AcDbEntity
  8
1
  6
CONTINUOUS
370
50
 62
4
100
AcDbLine
 10
29.538351
 20
4.085153
 30
0.0
 11
29.45985
 21
4.089249
 31
0.0
  0
LINE
  5
A0B
330
1F
100
AcDbEntity
  8
1
  6
CONTINUOUS
370
50
 62
4
100
AcDbLine
 10
29.336332
 20
4.095089
 30
0.0
 11
29.166512
 21
4.103134
 31
0.0
  0
LINE
  5
A0C
330
1F
100
AcDbEntity
  8
1
  6
CONTINUOUS
370
50
 62
4
100
AcDbLine
 10
29.45985
 20
4.089249
 30
0.0
 11
29.336332
 21
4.095089
 31
0.0
  0
LINE
  5
A0D
330
1F
100
AcDbEntity
  8
1
  6
CONTINUOUS
370
50
 62
4
100
AcDbLine
 10
29.765997
 20
4.995191
 30
0.0
 11
29.753008
 21
4.995805
 31
0.0
  0
LINE
  5
A0E
330
1F
100
AcDbEntity
  8
1
  6
CONTINUOUS
370
50
 62
4
100
AcDbLine
 10
6.075742
 20
4.798918
 30
0.0
 11
5.983633999999999
 21
4.80293
 31
0.0
  0
LINE
  5
A0F
330
1F
100
AcDbEntity
  8
1
  6
CONTINUOUS
370
50
 62
4
100
AcDbLine
 10
20.676592
 20
3.736219
 30
0.0
 11
20.050407
 21
3.762713
 31
0.0
  0
LINE
  5
A10
330
1F
100
AcDbEntity
  8
1
  6
CONTINUOUS
370
50
 62
4
100
AcDbLine
 10
29.765417
 20
-4.898823999999999
 30
0.0
 11
29.758856
 21
-4.898550999999999
 31
0.0
  0
LINE
  5
A11
330
1F
100
AcDbEntity
  8
1
  6
CONTINUOUS
370
50
 62
4
100
AcDbLine
 10
29.166512
 20
4.103134
 30
0.0
 11
28.971386
 21
4.111067
 31
0.0
  0
LINE
  5
A12
330
1F
100
AcDbEntity
  8
1
  6
CONTINUOUS
370
50
 62
4
100
AcDbLine
 10
21.572098
 20
4.978397999999999
 30
0.0
 11
21.048401
 21
4.999486999999999
 31
0.0
  0
LINE
  5
A13
330
1F
100
AcDbEntity
  8
1
  6
CONTINUOUS
370
50
 62
4
100
AcDbLine
 10
6.168374
 20
4.795851
 30
0.0
 11
6.075742
 21
4.798918
 31
0.0
  0
LINE
  5
A14
330
1F
100
AcDbEntity
  8
1
  6
CONTINUOUS
370
50
 62
4
100
AcDbLine
 10
29.850138
 20
0.966395
 30
0.0
 11
29.843109
 21
0.966607
 31
0.0
  0
LINE
  5
A15
330
1F
100
AcDbEntity
  8
1
  6
CONTINUOUS
370
50
 62
4
100
AcDbLine
 10
28.971386
 20
4.111067
 30
0.0
 11
28.753714
 21
4.11713
 31
0.0
  0
LINE
  5
A16
330
1F
100
AcDbEntity
  8
1
  6
CONTINUOUS
370
50
 62
4
100
AcDbLine
 10
4.763939
 20
4.999661
 30
0.0
 11
4.760729
 21
4.999745
 31
0.0
  0
LINE
  5
A17
330
1F
100
AcDbEntity
  8
1
  6
CONTINUOUS
370
50
 62
4
100
AcDbLine
 10
20.313961
 20
4.989757
 30
0.0
 11
19.91522
 21
4.999988999999999
 31
0.0
  0
LINE
  5
A18
330
1F
100
AcDbEntity
  8
1
  6
CONTINUOUS
370
50
 62
4
100
AcDbLine
 10
19.91522
 20
-4.999988999999999
 30
0.0
 11
19.518721
 21
-4.990533
 31
0.0
  0
LINE
  5
A19
330
1F
100
AcDbEntity
  8
1
  6
CONTINUOUS
370
50
 62
4
100
AcDbLine
 10
6.261322
 20
4.79375
 30
0.0
 11
6.168374
 21
4.795851
 31
0.0
  0
LINE
  5
A1A
330
1F
100
AcDbEntity
  8
1
  6
CONTINUOUS
370
50
 62
4
100
AcDbLine
 10
4.760729
 20
4.999745
 30
0.0
 11
4.75759
 21
4.999815
 31
0.0
  0
LINE
  5
A1B
330
1F
100
AcDbEntity
  8
1
  6
CONTINUOUS
370
50
 62
4
100
AcDbLine
 10
21.048401
 20
-4.999486999999999
 30
0.0
 11
20.501324
 21
-4.98787
 31
0.0
  0
LINE
  5
A1C
330
1F
100
AcDbEntity
  8
1
  6
CONTINUOUS
370
50
 62
4
100
AcDbLine
 10
10.200533
 20
4.992713
 30
0.0
 11
9.856665
 21
4.999918
 31
0.0
  0
LINE
  5
A1D
330
1F
100
AcDbEntity
  8
1
  6
CONTINUOUS
370
50
 62
4
100
AcDbLine
 10
4.745765
 20
-4.999947
 30
0.0
 11
4.728174
 21
-4.999618
 31
0.0
  0
LINE
  5
A1E
330
1F
100
AcDbEntity
  8
1
  6
CONTINUOUS
370
50
 62
4
100
AcDbLine
 10
9.856665
 20
-4.999918
 30
0.0
 11
9.540569
 21
-4.994034999999999
 31
0.0
  0
LINE
  5
A1F
330
1F
100
AcDbEntity
  8
1
  6
CONTINUOUS
370
50
 62
4
100
AcDbLine
 10
4.75759
 20
4.999815
 30
0.0
 11
4.754523
 21
4.999868999999999
 31
0.0
  0
LINE
  5
A20
330
1F
100
AcDbEntity
  8
1
  6
CONTINUOUS
370
50
 62
4
100
AcDbLine
 10
4.754523
 20
4.999868999999999
 30
0.0
 11
4.75153
 21
4.99991
 31
0.0
  0
LINE
  5
A21
330
1F
100
AcDbEntity
  8
1
  6
CONTINUOUS
370
50
 62
4
100
AcDbLine
 10
6.354381
 20
4.792637
 30
0.0
 11
6.261322
 21
4.79375
 31
0.0
  0
LINE
  5
A22
330
1F
100
AcDbEntity
  8
1
  6
CONTINUOUS
370
50
 62
4
100
AcDbLine
 10
28.753714
 20
4.11713
 30
0.0
 11
28.515812
 21
4.119588
 31
0.0
  0
LINE
  5
A23
330
1F
100
AcDbEntity
  8
1
  6
CONTINUOUS
370
50
 62
4
100
AcDbLine
 10
4.75153
 20
4.99991
 30
0.0
 11
4.74861
 21
4.999936
 31
0.0
  0
LINE
  5
A24
330
1F
100
AcDbEntity
  8
1
  6
CONTINUOUS
370
50
 62
4
100
AcDbLine
 10
29.753008
 20
-4.995805
 30
0.0
 11
29.74
 21
-4.995718
 31
0.0
  0
LINE
  5
A25
330
1F
100
AcDbEntity
  8
1
  6
CONTINUOUS
370
50
 62
4
100
AcDbLine
 10
6.588025
 20
4.791113999999999
 30
0.0
 11
6.354381
 21
4.792637
 31
0.0
  0
LINE
  5
A26
330
1F
100
AcDbEntity
  8
1
  6
CONTINUOUS
370
50
 62
4
100
AcDbLine
 10
6.821679
 20
4.789622
 30
0.0
 11
6.588025
 21
4.791113999999999
 31
0.0
  0
LINE
  5
A27
330
1F
100
AcDbEntity
  8
1
  6
CONTINUOUS
370
50
 62
4
100
AcDbLine
 10
7.055339999999999
 20
4.788162
 30
0.0
 11
6.821679
 21
4.789622
 31
0.0
  0
LINE
  5
A28
330
1F
100
AcDbEntity
  8
1
  6
CONTINUOUS
370
50
 62
4
100
AcDbLine
 10
7.289006
 20
4.786734
 30
0.0
 11
7.055339999999999
 21
4.788162
 31
0.0
  0
LINE
  5
A29
330
1F
100
AcDbEntity
  8
1
  6
CONTINUOUS
370
50
 62
4
100
AcDbLine
 10
7.522672999999999
 20
4.785339
 30
0.0
 11
7.289006
 21
4.786734
 31
0.0
  0
LINE
  5
A2A
330
1F
100
AcDbEntity
  8
1
  6
CONTINUOUS
370
50
 62
4
100
AcDbLine
 10
7.756338
 20
4.783977
 30
0.0
 11
7.522672999999999
 21
4.785339
 31
0.0
  0
LINE
  5
A2B
330
1F
100
AcDbEntity
  8
1
  6
CONTINUOUS
370
50
 62
4
100
AcDbLine
 10
7.989999999999999
 20
4.782649999999999
 30
0.0
 11
7.756338
 21
4.783977
 31
0.0
  0
LINE
  5
A2C
330
1F
100
AcDbEntity
  8
1
  6
CONTINUOUS
370
50
 62
4
100
AcDbLine
 10
7.998570999999999
 20
4.782554
 30
0.0
 11
7.997142999999999
 21
4.782562
 31
0.0
  0
LINE
  5
A2D
330
1F
100
AcDbEntity
  8
1
  6
CONTINUOUS
370
50
 62
4
100
AcDbLine
 10
7.995714
 20
4.78257
 30
0.0
 11
7.994286
 21
4.782578
 31
0.0
  0
LINE
  5
A2E
330
1F
100
AcDbEntity
  8
1
  6
CONTINUOUS
370
50
 62
4
100
AcDbLine
 10
7.991428
 20
4.782594
 30
0.0
 11
7.989999999999999
 21
4.782602
 31
0.0
  0
LINE
  5
A2F
330
1F
100
AcDbEntity
  8
1
  6
CONTINUOUS
370
50
 62
4
100
AcDbLine
 10
8.0
 20
4.782546
 30
0.0
 11
7.998570999999999
 21
4.782554
 31
0.0
  0
LINE
  5
A30
330
1F
100
AcDbEntity
  8
1
  6
CONTINUOUS
370
50
 62
4
100
AcDbLine
 10
7.997142999999999
 20
4.782562
 30
0.0
 11
7.995714
 21
4.78257
 31
0.0
  0
LINE
  5
A31
330
1F
100
AcDbEntity
  8
1
  6
CONTINUOUS
370
50
 62
4
100
AcDbLine
 10
7.994286
 20
4.782578
 30
0.0
 11
7.991428
 21
4.782594
 31
0.0
  0
LINE
  5
A32
330
1F
100
AcDbEntity
  8
1
  6
CONTINUOUS
370
50
 62
4
100
AcDbLine
 10
29.772108
 20
-4.898854
 30
0.0
 11
29.765417
 21
-4.898823999999999
 31
0.0
  0
LINE
  5
A33
330
1F
100
AcDbEntity
  8
1
  6
CONTINUOUS
370
50
 62
4
100
AcDbLine
 10
4.74861
 20
4.999936
 30
0.0
 11
4.745765
 21
4.999947
 31
0.0
  0
LINE
  5
A34
330
1F
100
AcDbEntity
  8
1
  6
CONTINUOUS
370
50
 62
4
100
AcDbLine
 10
10.920738
 20
-4.999914
 30
0.0
 11
9.851395
 21
-4.999908
 31
0.0
  0
LINE
  5
A35
330
1F
100
AcDbEntity
  8
1
  6
CONTINUOUS
370
50
 62
4
100
AcDbLine
 10
20.957085
 20
-4.999959
 30
0.0
 11
19.903944
 21
-4.999955
 31
0.0
  0
LINE
  5
A36
330
1F
100
AcDbEntity
  8
1
  6
CONTINUOUS
370
50
 62
4
100
AcDbLine
 10
-0.01
 20
-4.99995
 30
0.0
 11
4.744882
 21
-4.99995
 31
0.0
  0
LINE
  5
A37
330
1F
100
AcDbEntity
  8
1
  6
CONTINUOUS
370
50
 62
4
100
AcDbLine
 10
-0.01
 20
4.99995
 30
0.0
 11
4.744882
 21
4.99995
 31
0.0
  0
LINE
  5
A38
330
1F
100
AcDbEntity
  8
1
  6
CONTINUOUS
370
50
 62
4
100
AcDbLine
 10
19.903944
 20
4.999955
 30
0.0
 11
20.957085
 21
4.999959
 31
0.0
  0
LINE
  5
A39
330
1F
100
AcDbEntity
  8
1
  6
CONTINUOUS
370
50
 62
4
100
AcDbLine
 10
9.851395
 20
4.999908
 30
0.0
 11
10.920738
 21
4.999914
 31
0.0
  0
LINE
  5
A3A
330
1F
100
AcDbEntity
  8
1
  6
CONTINUOUS
370
50
 62
4
100
AcDbLine
 10
29.980711
 20
3.763367
 30
0.0
 11
29.99
 21
3.763369
 31
0.0
  0
LINE
  5
A3B
330
1F
100
AcDbEntity
  8
1
  6
CONTINUOUS
370
50
 62
4
100
AcDbLine
 10
29.971424
 20
3.763358
 30
0.0
 11
29.980711
 21
3.763367
 31
0.0
  0
LINE
  5
A3C
330
1F
100
AcDbEntity
  8
1
  6
CONTINUOUS
370
50
 62
4
100
AcDbLine
 10
29.962135
 20
3.763339
 30
0.0
 11
29.971424
 21
3.763358
 31
0.0
  0
LINE
  5
A3D
330
1F
100
AcDbEntity
  8
1
  6
CONTINUOUS
370
50
 62
4
100
AcDbLine
 10
29.952848
 20
3.763313
 30
0.0
 11
29.962135
 21
3.763339
 31
0.0
  0
LINE
  5
A3E
330
1F
100
AcDbEntity
  8
1
  6
CONTINUOUS
370
50
 62
4
100
AcDbLine
 10
29.94356
 20
3.763278
 30
0.0
 11
29.952848
 21
3.763313
 31
0.0
  0
LINE
  5
A3F
330
1F
100
AcDbEntity
  8
1
  6
CONTINUOUS
370
50
 62
4
100
AcDbLine
 10
4.745765
 20
-4.999947
 30
0.0
 11
4.74861
 21
-4.999936
 31
0.0
  0
LINE
  5
A40
330
1F
100
AcDbEntity
  8
1
  6
CONTINUOUS
370
50
 62
4
100
AcDbLine
 10
29.934273
 20
3.763234
 30
0.0
 11
29.94356
 21
3.763278
 31
0.0
  0
LINE
  5
A41
330
1F
100
AcDbEntity
  8
1
  6
CONTINUOUS
370
50
 62
4
100
AcDbLine
 10
7.991428
 20
-4.782594
 30
0.0
 11
7.994286
 21
-4.782578
 31
0.0
  0
LINE
  5
A42
330
1F
100
AcDbEntity
  8
1
  6
CONTINUOUS
370
50
 62
4
100
AcDbLine
 10
7.995714
 20
-4.78257
 30
0.0
 11
7.997142999999999
 21
-4.782562
 31
0.0
  0
LINE
  5
A43
330
1F
100
AcDbEntity
  8
1
  6
CONTINUOUS
370
50
 62
4
100
AcDbLine
 10
7.998570999999999
 20
-4.782554
 30
0.0
 11
8.0
 21
-4.782546
 31
0.0
  0
LINE
  5
A44
330
1F
100
AcDbEntity
  8
1
  6
CONTINUOUS
370
50
 62
4
100
AcDbLine
 10
7.989999999999999
 20
-4.782602
 30
0.0
 11
7.991428
 21
-4.782594
 31
0.0
  0
LINE
  5
A45
330
1F
100
AcDbEntity
  8
1
  6
CONTINUOUS
370
50
 62
4
100
AcDbLine
 10
7.994286
 20
-4.782578
 30
0.0
 11
7.995714
 21
-4.78257
 31
0.0
  0
LINE
  5
A46
330
1F
100
AcDbEntity
  8
1
  6
CONTINUOUS
370
50
 62
4
100
AcDbLine
 10
7.997142999999999
 20
-4.782562
 30
0.0
 11
7.998570999999999
 21
-4.782554
 31
0.0
  0
LINE
  5
A47
330
1F
100
AcDbEntity
  8
1
  6
CONTINUOUS
370
50
 62
4
100
AcDbLine
 10
7.756338
 20
-4.783977
 30
0.0
 11
7.989999999999999
 21
-4.782649999999999
 31
0.0
  0
LINE
  5
A48
330
1F
100
AcDbEntity
  8
1
  6
CONTINUOUS
370
50
 62
4
100
AcDbLine
 10
7.522672999999999
 20
-4.785339
 30
0.0
 11
7.756338
 21
-4.783977
 31
0.0
  0
LINE
  5
A49
330
1F
100
AcDbEntity
  8
1
  6
CONTINUOUS
370
50
 62
4
100
AcDbLine
 10
7.289006
 20
-4.786734
 30
0.0
 11
7.522672999999999
 21
-4.785339
 31
0.0
  0
LINE
  5
A4A
330
1F
100
AcDbEntity
  8
1
  6
CONTINUOUS
370
50
 62
4
100
AcDbLine
 10
7.055339999999999
 20
-4.788162
 30
0.0
 11
7.289006
 21
-4.786734
 31
0.0
  0
LINE
  5
A4B
330
1F
100
AcDbEntity
  8
1
  6
CONTINUOUS
370
50
 62
4
100
AcDbLine
 10
6.821679
 20
-4.789622
 30
0.0
 11
7.055339999999999
 21
-4.788162
 31
0.0
  0
LINE
  5
A4C
330
1F
100
AcDbEntity
  8
1
  6
CONTINUOUS
370
50
 62
4
100
AcDbLine
 10
6.588025
 20
-4.791113999999999
 30
0.0
 11
6.821679
 21
-4.789622
 31
0.0
  0
LINE
  5
A4D
330
1F
100
AcDbEntity
  8
1
  6
CONTINUOUS
370
50
 62
4
100
AcDbLine
 10
6.354381
 20
-4.792637
 30
0.0
 11
6.588025
 21
-4.791113999999999
 31
0.0
  0
LINE
  5
A4E
330
1F
100
AcDbEntity
  8
1
  6
CONTINUOUS
370
50
 62
4
100
AcDbLine
 10
29.74
 20
4.995718
 30
0.0
 11
29.753008
 21
4.995805
 31
0.0
  0
LINE
  5
A4F
330
1F
100
AcDbEntity
  8
1
  6
CONTINUOUS
370
50
 62
4
100
AcDbLine
 10
4.74861
 20
-4.999936
 30
0.0
 11
4.75153
 21
-4.99991
 31
0.0
  0
LINE
  5
A50
330
1F
100
AcDbEntity
  8
1
  6
CONTINUOUS
370
50
 62
4
100
AcDbLine
 10
10.730499
 20
-4.997894
 30
0.0
 11
11.28471
 21
-4.992309
 31
0.0
  0
LINE
  5
A51
330
1F
100
AcDbEntity
  8
1
  6
CONTINUOUS
370
50
 62
4
100
AcDbLine
 10
28.269541
 20
4.116984
 30
0.0
 11
28.515812
 21
4.119588
 31
0.0
  0
LINE
  5
A52
330
1F
100
AcDbEntity
  8
1
  6
CONTINUOUS
370
50
 62
4
100
AcDbLine
 10
6.268257999999999
 20
-4.793633
 30
0.0
 11
6.354381
 21
-4.792637
 31
0.0
  0
LINE
  5
A53
330
1F
100
AcDbEntity
  8
1
  6
CONTINUOUS
370
50
 62
4
100
AcDbLine
 10
4.75153
 20
-4.99991
 30
0.0
 11
4.754523
 21
-4.999868999999999
 31
0.0
  0
LINE
  5
A54
330
1F
100
AcDbEntity
  8
1
  6
CONTINUOUS
370
50
 62
4
100
AcDbLine
 10
19.424225
 20
3.753125
 30
0.0
 11
20.050407
 21
3.762713
 31
0.0
  0
LINE
  5
A55
330
1F
100
AcDbEntity
  8
1
  6
CONTINUOUS
370
50
 62
4
100
AcDbLine
 10
4.754523
 20
-4.999868999999999
 30
0.0
 11
4.75759
 21
-4.999815
 31
0.0
  0
LINE
  5
A56
330
1F
100
AcDbEntity
  8
1
  6
CONTINUOUS
370
50
 62
4
100
AcDbLine
 10
7.991428
 20
1.458011
 30
0.0
 11
7.994286
 21
1.458063
 31
0.0
  0
LINE
  5
A57
330
1F
100
AcDbEntity
  8
1
  6
CONTINUOUS
370
50
 62
4
100
AcDbLine
 10
7.995714
 20
1.45809
 30
0.0
 11
7.997142999999999
 21
1.458116
 31
0.0
  0
LINE
  5
A58
330
1F
100
AcDbEntity
  8
1
  6
CONTINUOUS
370
50
 62
4
100
AcDbLine
 10
7.989999999999999
 20
1.457985
 30
0.0
 11
7.991428
 21
1.458011
 31
0.0
  0
LINE
  5
A59
330
1F
100
AcDbEntity
  8
1
  6
CONTINUOUS
370
50
 62
4
100
AcDbLine
 10
7.997142999999999
 20
1.458116
 30
0.0
 11
7.998570999999999
 21
1.458142
 31
0.0
  0
LINE
  5
A5A
330
1F
100
AcDbEntity
  8
1
  6
CONTINUOUS
370
50
 62
4
100
AcDbLine
 10
9.540569
 20
4.994034999999999
 30
0.0
 11
9.856665
 21
4.999918
 31
0.0
  0
LINE
  5
A5B
330
1F
100
AcDbEntity
  8
1
  6
CONTINUOUS
370
50
 62
4
100
AcDbLine
 10
7.756338
 20
1.453637
 30
0.0
 11
7.989999999999999
 21
1.457999
 31
0.0
  0
LINE
  5
A5C
330
1F
100
AcDbEntity
  8
1
  6
CONTINUOUS
370
50
 62
4
100
AcDbLine
 10
7.998570999999999
 20
1.458142
 30
0.0
 11
8.0
 21
1.458169
 31
0.0
  0
LINE
  5
A5D
330
1F
100
AcDbEntity
  8
1
  6
CONTINUOUS
370
50
 62
4
100
AcDbLine
 10
7.994286
 20
1.458063
 30
0.0
 11
7.995714
 21
1.45809
 31
0.0
  0
LINE
  5
A5E
330
1F
100
AcDbEntity
  8
1
  6
CONTINUOUS
370
50
 62
4
100
AcDbLine
 10
7.522672999999999
 20
1.449149
 30
0.0
 11
7.756338
 21
1.453637
 31
0.0
  0
LINE
  5
A5F
330
1F
100
AcDbEntity
  8
1
  6
CONTINUOUS
370
50
 62
4
100
AcDbLine
 10
7.289006
 20
1.444533
 30
0.0
 11
7.522672999999999
 21
1.449149
 31
0.0
  0
LINE
  5
A60
330
1F
100
AcDbEntity
  8
1
  6
CONTINUOUS
370
50
 62
4
100
AcDbLine
 10
7.055339999999999
 20
1.439793
 30
0.0
 11
7.289006
 21
1.444533
 31
0.0
  0
LINE
  5
A61
330
1F
100
AcDbEntity
  8
1
  6
CONTINUOUS
370
50
 62
4
100
AcDbLine
 10
6.821679
 20
1.434927
 30
0.0
 11
7.055339999999999
 21
1.439793
 31
0.0
  0
LINE
  5
A62
330
1F
100
AcDbEntity
  8
1
  6
CONTINUOUS
370
50
 62
4
100
AcDbLine
 10
6.588025
 20
1.429938
 30
0.0
 11
6.821679
 21
1.434927
 31
0.0
  0
LINE
  5
A63
330
1F
100
AcDbEntity
  8
1
  6
CONTINUOUS
370
50
 62
4
100
AcDbLine
 10
6.182215999999999
 20
-4.795476
 30
0.0
 11
6.268257999999999
 21
-4.793633
 31
0.0
  0
LINE
  5
A64
330
1F
100
AcDbEntity
  8
1
  6
CONTINUOUS
370
50
 62
4
100
AcDbLine
 10
6.354381
 20
1.424826
 30
0.0
 11
6.588025
 21
1.429938
 31
0.0
  0
LINE
  5
A65
330
1F
100
AcDbEntity
  8
1
  6
CONTINUOUS
370
50
 62
4
100
AcDbLine
 10
4.75759
 20
-4.999815
 30
0.0
 11
4.760729
 21
-4.999745
 31
0.0
  0
LINE
  5
A66
330
1F
100
AcDbEntity
  8
1
  6
CONTINUOUS
370
50
 62
4
100
AcDbLine
 10
19.49811
 20
4.989483
 30
0.0
 11
19.91522
 21
4.999988999999999
 31
0.0
  0
LINE
  5
A67
330
1F
100
AcDbEntity
  8
1
  6
CONTINUOUS
370
50
 62
4
100
AcDbLine
 10
4.760729
 20
-4.999745
 30
0.0
 11
4.763939
 21
-4.999661
 31
0.0
  0
LINE
  5
A68
330
1F
100
AcDbEntity
  8
1
  6
CONTINUOUS
370
50
 62
4
100
AcDbLine
 10
6.096419999999999
 20
-4.798149
 30
0.0
 11
6.182215999999999
 21
-4.795476
 31
0.0
  0
LINE
  5
A69
330
1F
100
AcDbEntity
  8
1
  6
CONTINUOUS
370
50
 62
4
100
AcDbLine
 10
29.850138
 20
0.966395
 30
0.0
 11
29.857029
 21
0.96661
 31
0.0
  0
LINE
  5
A6A
330
1F
100
AcDbEntity
  8
1
  6
CONTINUOUS
370
50
 62
4
100
AcDbLine
 10
29.772108
 20
-4.898854
 30
0.0
 11
29.778915
 21
-4.898629
 31
0.0
  0
LINE
  5
A6B
330
1F
100
AcDbEntity
  8
1
  6
CONTINUOUS
370
50
 62
4
100
AcDbLine
 10
28.023323
 20
4.108773
 30
0.0
 11
28.269541
 21
4.116984
 31
0.0
  0
LINE
  5
A6C
330
1F
100
AcDbEntity
  8
1
  6
CONTINUOUS
370
50
 62
4
100
AcDbLine
 10
6.260714999999999
 20
1.421066
 30
0.0
 11
6.354381
 21
1.424826
 31
0.0
  0
LINE
  5
A6D
330
1F
100
AcDbEntity
  8
1
  6
CONTINUOUS
370
50
 62
4
100
AcDbLine
 10
21.048401
 20
-4.999486999999999
 30
0.0
 11
21.572098
 21
-4.978397999999999
 31
0.0
  0
LINE
  5
A6E
330
1F
100
AcDbEntity
  8
1
  6
CONTINUOUS
370
50
 62
4
100
AcDbLine
 10
6.011032999999999
 20
-4.801635999999999
 30
0.0
 11
6.096419999999999
 21
-4.798149
 31
0.0
  0
LINE
  5
A6F
330
1F
100
AcDbEntity
  8
1
  6
CONTINUOUS
370
50
 62
4
100
AcDbLine
 10
29.753008
 20
-4.995805
 30
0.0
 11
29.765997
 21
-4.995191
 31
0.0
  0
LINE
  5
A70
330
1F
100
AcDbEntity
  8
1
  6
CONTINUOUS
370
50
 62
4
100
AcDbLine
 10
5.926216999999999
 20
-4.80592
 30
0.0
 11
6.011032999999999
 21
-4.801635999999999
 31
0.0
  0
LINE
  5
A71
330
1F
100
AcDbEntity
  8
1
  6
CONTINUOUS
370
50
 62
4
100
AcDbLine
 10
9.226212
 20
4.975797
 30
0.0
 11
9.540569
 21
4.994034999999999
 31
0.0
  0
LINE
  5
A72
330
1F
100
AcDbEntity
  8
1
  6
CONTINUOUS
370
50
 62
4
100
AcDbLine
 10
4.763939
 20
-4.999661
 30
0.0
 11
4.854534
 21
-4.994336
 31
0.0
  0
LINE
  5
A73
330
1F
100
AcDbEntity
  8
1
  6
CONTINUOUS
370
50
 62
4
100
AcDbLine
 10
5.842137999999999
 20
-4.810983999999999
 30
0.0
 11
5.926216999999999
 21
-4.80592
 31
0.0
  0
LINE
  5
A74
330
1F
100
AcDbEntity
  8
1
  6
CONTINUOUS
370
50
 62
4
100
AcDbLine
 10
5.758820999999999
 20
-4.816821
 30
0.0
 11
5.842137999999999
 21
-4.810983999999999
 31
0.0
  0
LINE
  5
A75
330
1F
100
AcDbEntity
  8
1
  6
CONTINUOUS
370
50
 62
4
100
AcDbLine
 10
29.778915
 20
-4.898629
 30
0.0
 11
29.785826
 21
-4.898130999999999
 31
0.0
  0
LINE
  5
A76
330
1F
100
AcDbEntity
  8
1
  6
CONTINUOUS
370
50
 62
4
100
AcDbLine
 10
6.167163
 20
1.41392
 30
0.0
 11
6.260714999999999
 21
1.421066
 31
0.0
  0
LINE
  5
A77
330
1F
100
AcDbEntity
  8
1
  6
CONTINUOUS
370
50
 62
4
100
AcDbLine
 10
29.071175
 20
4.9441
 30
0.0
 11
29.74
 21
4.995718
 31
0.0
  0
LINE
  5
A78
330
1F
100
AcDbEntity
  8
1
  6
CONTINUOUS
370
50
 62
4
100
AcDbLine
 10
18.798058
 20
3.703889
 30
0.0
 11
19.424225
 21
3.753125
 31
0.0
  0
LINE
  5
A79
330
1F
100
AcDbEntity
  8
1
  6
CONTINUOUS
370
50
 62
4
100
AcDbLine
 10
11.28471
 20
-4.992309
 30
0.0
 11
11.932376
 21
-4.941295999999999
 31
0.0
  0
LINE
  5
A7A
330
1F
100
AcDbEntity
  8
1
  6
CONTINUOUS
370
50
 62
4
100
AcDbLine
 10
5.676187
 20
-4.82342
 30
0.0
 11
5.758820999999999
 21
-4.816821
 31
0.0
  0
LINE
  5
A7B
330
1F
100
AcDbEntity
  8
1
  6
CONTINUOUS
370
50
 62
4
100
AcDbLine
 10
19.085836
 20
4.956384
 30
0.0
 11
19.49811
 21
4.989483
 31
0.0
  0
LINE
  5
A7C
330
1F
100
AcDbEntity
  8
1
  6
CONTINUOUS
370
50
 62
4
100
AcDbLine
 10
5.594512
 20
-4.830732999999999
 30
0.0
 11
5.676187
 21
-4.82342
 31
0.0
  0
LINE
  5
A7D
330
1F
100
AcDbEntity
  8
1
  6
CONTINUOUS
370
50
 62
4
100
AcDbLine
 10
29.857029
 20
0.96661
 30
0.0
 11
29.863718
 21
0.967236
 31
0.0
  0
LINE
  5
A7E
330
1F
100
AcDbEntity
  8
1
  6
CONTINUOUS
370
50
 62
4
100
AcDbLine
 10
28.049925
 20
-0.189506
 30
0.0
 11
29.981337
 21
-0.000846
 31
0.0
  0
LINE
  5
A7F
330
1F
100
AcDbEntity
  8
1
  6
CONTINUOUS
370
50
 62
4
100
AcDbLine
 10
8.914087
 20
4.944891
 30
0.0
 11
9.226212
 21
4.975797
 31
0.0
  0
LINE
  5
A80
330
1F
100
AcDbEntity
  8
1
  6
CONTINUOUS
370
50
 62
4
100
AcDbLine
 10
5.514088999999999
 20
-4.838712999999999
 30
0.0
 11
5.594512
 21
-4.830732999999999
 31
0.0
  0
LINE
  5
A81
330
1F
100
AcDbEntity
  8
1
  6
CONTINUOUS
370
50
 62
4
100
AcDbLine
 10
21.572098
 20
-4.978397999999999
 30
0.0
 11
22.095207
 21
-4.926329
 31
0.0
  0
LINE
  5
A82
330
1F
100
AcDbEntity
  8
1
  6
CONTINUOUS
370
50
 62
4
100
AcDbLine
 10
29.765997
 20
-4.995191
 30
0.0
 11
29.778946
 21
-4.993874
 31
0.0
  0
LINE
  5
A83
330
1F
100
AcDbEntity
  8
1
  6
CONTINUOUS
370
50
 62
4
100
AcDbLine
 10
5.435209
 20
-4.847314
 30
0.0
 11
5.514088999999999
 21
-4.838712999999999
 31
0.0
  0
LINE
  5
A84
330
1F
100
AcDbEntity
  8
1
  6
CONTINUOUS
370
50
 62
4
100
AcDbLine
 10
29.785826
 20
-4.898130999999999
 30
0.0
 11
29.792835
 21
-4.897348
 31
0.0
  0
LINE
  5
A85
330
1F
100
AcDbEntity
  8
1
  6
CONTINUOUS
370
50
 62
4
100
AcDbLine
 10
6.073936
 20
1.403367
 30
0.0
 11
6.167163
 21
1.41392
 31
0.0
  0
LINE
  5
A86
330
1F
100
AcDbEntity
  8
1
  6
CONTINUOUS
370
50
 62
4
100
AcDbLine
 10
5.358162
 20
-4.856487
 30
0.0
 11
5.435209
 21
-4.847314
 31
0.0
  0
LINE
  5
A87
330
1F
100
AcDbEntity
  8
1
  6
CONTINUOUS
370
50
 62
4
100
AcDbLine
 10
5.283049
 20
-4.86621
 30
0.0
 11
5.358162
 21
-4.856487
 31
0.0
  0
LINE
  5
A88
330
1F
100
AcDbEntity
  8
1
  6
CONTINUOUS
370
50
 62
4
100
AcDbLine
 10
18.672937
 20
4.900215999999999
 30
0.0
 11
19.085836
 21
4.956384
 31
0.0
  0
LINE
  5
A89
330
1F
100
AcDbEntity
  8
1
  6
CONTINUOUS
370
50
 62
4
100
AcDbLine
 10
4.854534
 20
-4.994336
 30
0.0
 11
4.94321
 21
-4.98227
 31
0.0
  0
LINE
  5
A8A
330
1F
100
AcDbEntity
  8
1
  6
CONTINUOUS
370
50
 62
4
100
AcDbLine
 10
18.171915
 20
3.617717
 30
0.0
 11
18.798058
 21
3.703889
 31
0.0
  0
LINE
  5
A8B
330
1F
100
AcDbEntity
  8
1
  6
CONTINUOUS
370
50
 62
4
100
AcDbLine
 10
5.209925999999999
 20
-4.876449
 30
0.0
 11
5.283049
 21
-4.86621
 31
0.0
  0
LINE
  5
A8C
330
1F
100
AcDbEntity
  8
1
  6
CONTINUOUS
370
50
 62
4
100
AcDbLine
 10
8.608895
 20
4.901806
 30
0.0
 11
8.914087
 21
4.944891
 31
0.0
  0
LINE
  5
A8D
330
1F
100
AcDbEntity
  8
1
  6
CONTINUOUS
370
50
 62
4
100
AcDbLine
 10
5.139326
 20
-4.887096
 30
0.0
 11
5.209925999999999
 21
-4.876449
 31
0.0
  0
LINE
  5
A8E
330
1F
100
AcDbEntity
  8
1
  6
CONTINUOUS
370
50
 62
4
100
AcDbLine
 10
5.981242
 20
1.389386
 30
0.0
 11
6.073936
 21
1.403367
 31
0.0
  0
LINE
  5
A8F
330
1F
100
AcDbEntity
  8
1
  6
CONTINUOUS
370
50
 62
4
100
AcDbLine
 10
29.792835
 20
-4.897348
 30
0.0
 11
29.799934
 21
-4.896265
 31
0.0
  0
LINE
  5
A90
330
1F
100
AcDbEntity
  8
1
  6
CONTINUOUS
370
50
 62
4
100
AcDbLine
 10
11.932376
 20
-4.941295999999999
 30
0.0
 11
12.563972
 21
-4.843842
 31
0.0
  0
LINE
  5
A91
330
1F
100
AcDbEntity
  8
1
  6
CONTINUOUS
370
50
 62
4
100
AcDbLine
 10
29.863718
 20
0.967236
 30
0.0
 11
29.870203
 21
0.968255
 31
0.0
  0
LINE
  5
A92
330
1F
100
AcDbEntity
  8
1
  6
CONTINUOUS
370
50
 62
4
100
AcDbLine
 10
29.778946
 20
-4.993874
 30
0.0
 11
29.791838
 21
-4.991848
 31
0.0
  0
LINE
  5
A93
330
1F
100
AcDbEntity
  8
1
  6
CONTINUOUS
370
50
 62
4
100
AcDbLine
 10
22.095207
 20
-4.926329
 30
0.0
 11
22.616592
 21
-4.843049
 31
0.0
  0
LINE
  5
A94
330
1F
100
AcDbEntity
  8
1
  6
CONTINUOUS
370
50
 62
4
100
AcDbLine
 10
28.367575
 20
4.831605
 30
0.0
 11
29.071175
 21
4.9441
 31
0.0
  0
LINE
  5
A95
330
1F
100
AcDbEntity
  8
1
  6
CONTINUOUS
370
50
 62
4
100
AcDbLine
 10
5.071791
 20
-4.898044
 30
0.0
 11
5.139326
 21
-4.887096
 31
0.0
  0
LINE
  5
A96
330
1F
100
AcDbEntity
  8
1
  6
CONTINUOUS
370
50
 62
4
100
AcDbLine
 10
27.984186
 20
3.57599
 30
0.0
 11
28.190498
 21
3.611102
 31
0.0
  0
LINE
  5
A97
330
1F
100
AcDbEntity
  8
1
  6
CONTINUOUS
370
50
 62
4
100
AcDbLine
 10
5.007866
 20
-4.909180999999999
 30
0.0
 11
5.071791
 21
-4.898044
 31
0.0
  0
LINE
  5
A98
330
1F
100
AcDbEntity
  8
1
  6
CONTINUOUS
370
50
 62
4
100
AcDbLine
 10
8.307837
 20
4.846661999999999
 30
0.0
 11
8.608895
 21
4.901806
 31
0.0
  0
LINE
  5
A99
330
1F
100
AcDbEntity
  8
1
  6
CONTINUOUS
370
50
 62
4
100
AcDbLine
 10
27.777872
 20
3.537584
 30
0.0
 11
27.984186
 21
3.57599
 31
0.0
  0
LINE
  5
A9A
330
1F
100
AcDbEntity
  8
1
  6
CONTINUOUS
370
50
 62
4
100
AcDbLine
 10
4.948094999999999
 20
-4.920396999999999
 30
0.0
 11
5.007866
 21
-4.909180999999999
 31
0.0
  0
LINE
  5
A9B
330
1F
100
AcDbEntity
  8
1
  6
CONTINUOUS
370
50
 62
4
100
AcDbLine
 10
18.238474
 20
4.818282
 30
0.0
 11
18.672937
 21
4.900215999999999
 31
0.0
  0
LINE
  5
A9C
330
1F
100
AcDbEntity
  8
1
  6
CONTINUOUS
370
50
 62
4
100
AcDbLine
 10
17.54578
 20
3.499232
 30
0.0
 11
18.171915
 21
3.617717
 31
0.0
  0
LINE
  5
A9D
330
1F
100
AcDbEntity
  8
1
  6
CONTINUOUS
370
50
 62
4
100
AcDbLine
 10
5.889292999999999
 20
1.371958
 30
0.0
 11
5.981242
 21
1.389386
 31
0.0
  0
LINE
  5
A9E
330
1F
100
AcDbEntity
  8
1
  6
CONTINUOUS
370
50
 62
4
100
AcDbLine
 10
29.799934
 20
-4.896265
 30
0.0
 11
29.807116
 21
-4.894865999999999
 31
0.0
  0
LINE
  5
A9F
330
1F
100
AcDbEntity
  8
1
  6
CONTINUOUS
370
50
 62
4
100
AcDbLine
 10
27.571558
 20
3.495899
 30
0.0
 11
27.777872
 21
3.537584
 31
0.0
  0
LINE
  5
AA0
330
1F
100
AcDbEntity
  8
1
  6
CONTINUOUS
370
50
 62
4
100
AcDbLine
 10
4.893104999999999
 20
-4.93155
 30
0.0
 11
4.948094999999999
 21
-4.920396999999999
 31
0.0
  0
LINE
  5
AA1
330
1F
100
AcDbEntity
  8
1
  6
CONTINUOUS
370
50
 62
4
100
AcDbLine
 10
29.894085
 20
-4.849492
 30
0.0
 11
29.89917
 21
-4.848424
 31
0.0
  0
LINE
  5
AA2
330
1F
100
AcDbEntity
  8
1
  6
CONTINUOUS
370
50
 62
4
100
AcDbLine
 10
29.791838
 20
-4.991848
 30
0.0
 11
29.804646
 21
-4.989110999999999
 31
0.0
  0
LINE
  5
AA3
330
1F
100
AcDbEntity
  8
1
  6
CONTINUOUS
370
50
 62
4
100
AcDbLine
 10
4.94321
 20
-4.98227
 30
0.0
 11
5.030304
 21
-4.963431
 31
0.0
  0
LINE
  5
AA4
330
1F
100
AcDbEntity
  8
1
  6
CONTINUOUS
370
50
 62
4
100
AcDbLine
 10
27.365242
 20
3.45095
 30
0.0
 11
27.571558
 21
3.495899
 31
0.0
  0
LINE
  5
AA5
330
1F
100
AcDbEntity
  8
1
  6
CONTINUOUS
370
50
 62
4
100
AcDbLine
 10
4.84357
 20
-4.942461
 30
0.0
 11
4.893104999999999
 21
-4.93155
 31
0.0
  0
LINE
  5
AA6
330
1F
100
AcDbEntity
  8
1
  6
CONTINUOUS
370
50
 62
4
100
AcDbLine
 10
8.0
 20
4.778569
 30
0.0
 11
8.307837
 21
4.846661999999999
 31
0.0
  0
LINE
  5
AA7
330
1F
100
AcDbEntity
  8
1
  6
CONTINUOUS
370
50
 62
4
100
AcDbLine
 10
29.870203
 20
0.968255
 30
0.0
 11
29.876484
 21
0.969646
 31
0.0
  0
LINE
  5
AA8
330
1F
100
AcDbEntity
  8
1
  6
CONTINUOUS
370
50
 62
4
100
AcDbLine
 10
22.616592
 20
-4.843049
 30
0.0
 11
23.134459
 21
-4.727901999999999
 31
0.0
  0
LINE
  5
AA9
330
1F
100
AcDbEntity
  8
1
  6
CONTINUOUS
370
50
 62
4
100
AcDbLine
 10
12.563972
 20
-4.843842
 30
0.0
 11
13.102263
 21
-4.721277
 31
0.0
  0
LINE
  5
AAA
330
1F
100
AcDbEntity
  8
1
  6
CONTINUOUS
370
50
 62
4
100
AcDbLine
 10
5.798277
 20
1.351056
 30
0.0
 11
5.889292999999999
 21
1.371958
 31
0.0
  0
LINE
  5
AAB
330
1F
100
AcDbEntity
  8
1
  6
CONTINUOUS
370
50
 62
4
100
AcDbLine
 10
27.158926
 20
3.402751
 30
0.0
 11
27.365242
 21
3.45095
 31
0.0
  0
LINE
  5
AAC
330
1F
100
AcDbEntity
  8
1
  6
CONTINUOUS
370
50
 62
4
100
AcDbLine
 10
27.652761
 20
4.662815
 30
0.0
 11
28.367575
 21
4.831605
 31
0.0
  0
LINE
  5
AAD
330
1F
100
AcDbEntity
  8
1
  6
CONTINUOUS
370
50
 62
4
100
AcDbLine
 10
16.91964
 20
3.351274
 30
0.0
 11
17.54578
 21
3.499232
 31
0.0
  0
LINE
  5
AAE
330
1F
100
AcDbEntity
  8
1
  6
CONTINUOUS
370
50
 62
4
100
AcDbLine
 10
17.788774
 20
4.711778
 30
0.0
 11
18.238474
 21
4.818282
 31
0.0
  0
LINE
  5
AAF
330
1F
100
AcDbEntity
  8
1
  6
CONTINUOUS
370
50
 62
4
100
AcDbLine
 10
29.807116
 20
-4.894865999999999
 30
0.0
 11
29.814371
 21
-4.893136
 31
0.0
  0
LINE
  5
AB0
330
1F
100
AcDbEntity
  8
1
  6
CONTINUOUS
370
50
 62
4
100
AcDbLine
 10
4.800142
 20
-4.95296
 30
0.0
 11
4.84357
 21
-4.942461
 31
0.0
  0
LINE
  5
AB1
330
1F
100
AcDbEntity
  8
1
  6
CONTINUOUS
370
50
 62
4
100
AcDbLine
 10
26.952608
 20
3.351317
 30
0.0
 11
27.158926
 21
3.402751
 31
0.0
  0
LINE
  5
AB2
330
1F
100
AcDbEntity
  8
1
  6
CONTINUOUS
370
50
 62
4
100
AcDbLine
 10
29.89917
 20
-4.848424
 30
0.0
 11
29.904264
 21
-4.847087
 31
0.0
  0
LINE
  5
AB3
330
1F
100
AcDbEntity
  8
1
  6
CONTINUOUS
370
50
 62
4
100
AcDbLine
 10
4.763474
 20
-4.962874999999999
 30
0.0
 11
4.800142
 21
-4.95296
 31
0.0
  0
LINE
  5
AB4
330
1F
100
AcDbEntity
  8
1
  6
CONTINUOUS
370
50
 62
4
100
AcDbLine
 10
5.708055
 20
1.32654
 30
0.0
 11
5.798277
 21
1.351056
 31
0.0
  0
LINE
  5
AB5
330
1F
100
AcDbEntity
  8
1
  6
CONTINUOUS
370
50
 62
4
100
AcDbLine
 10
29.804646
 20
-4.989110999999999
 30
0.0
 11
29.817345
 21
-4.985657
 31
0.0
  0
LINE
  5
AB6
330
1F
100
AcDbEntity
  8
1
  6
CONTINUOUS
370
50
 62
4
100
AcDbLine
 10
29.814371
 20
-4.893136
 30
0.0
 11
29.821638
 21
-4.891079
 31
0.0
  0
LINE
  5
AB7
330
1F
100
AcDbEntity
  8
1
  6
CONTINUOUS
370
50
 62
4
100
AcDbLine
 10
17.335888
 20
4.583383
 30
0.0
 11
17.788774
 21
4.711778
 31
0.0
  0
LINE
  5
AB8
330
1F
100
AcDbEntity
  8
1
  6
CONTINUOUS
370
50
 62
4
100
AcDbLine
 10
29.876484
 20
0.969646
 30
0.0
 11
29.882563
 21
0.971393
 31
0.0
  0
LINE
  5
AB9
330
1F
100
AcDbEntity
  8
1
  6
CONTINUOUS
370
50
 62
4
100
AcDbLine
 10
23.134459
 20
-4.727901999999999
 30
0.0
 11
23.647848
 21
-4.579845
 31
0.0
  0
LINE
  5
ABA
330
1F
100
AcDbEntity
  8
1
  6
CONTINUOUS
370
50
 62
4
100
AcDbLine
 10
13.102263
 20
-4.721277
 30
0.0
 11
13.524693
 21
-4.597324
 31
0.0
  0
LINE
  5
ABB
330
1F
100
AcDbEntity
  8
1
  6
CONTINUOUS
370
50
 62
4
100
AcDbLine
 10
5.030304
 20
-4.963431
 30
0.0
 11
5.116153
 21
-4.937786
 31
0.0
  0
LINE
  5
ABC
330
1F
100
AcDbEntity
  8
1
  6
CONTINUOUS
370
50
 62
4
100
AcDbLine
 10
26.931543
 20
4.439897
 30
0.0
 11
27.652761
 21
4.662815
 31
0.0
  0
LINE
  5
ABD
330
1F
100
AcDbEntity
  8
1
  6
CONTINUOUS
370
50
 62
4
100
AcDbLine
 10
4.734522
 20
-4.971922999999999
 30
0.0
 11
4.763474
 21
-4.962874999999999
 31
0.0
  0
LINE
  5
ABE
330
1F
100
AcDbEntity
  8
1
  6
CONTINUOUS
370
50
 62
4
100
AcDbLine
 10
5.618835
 20
1.298303
 30
0.0
 11
5.708055
 21
1.32654
 31
0.0
  0
LINE
  5
ABF
330
1F
100
AcDbEntity
  8
1
  6
CONTINUOUS
370
50
 62
4
100
AcDbLine
 10
29.904264
 20
-4.847087
 30
0.0
 11
29.909355
 21
-4.845471
 31
0.0
  0
LINE
  5
AC0
330
1F
100
AcDbEntity
  8
1
  6
CONTINUOUS
370
50
 62
4
100
AcDbLine
 10
16.880022
 20
4.433787
 30
0.0
 11
17.335888
 21
4.583383
 31
0.0
  0
LINE
  5
AC1
330
1F
100
AcDbEntity
  8
1
  6
CONTINUOUS
370
50
 62
4
100
AcDbLine
 10
29.821638
 20
-4.891079
 30
0.0
 11
29.828854
 21
-4.888704
 31
0.0
  0
LINE
  5
AC2
330
1F
100
AcDbEntity
  8
1
  6
CONTINUOUS
370
50
 62
4
100
AcDbLine
 10
29.817345
 20
-4.985657
 30
0.0
 11
29.829905
 21
-4.981481
 31
0.0
  0
LINE
  5
AC3
330
1F
100
AcDbEntity
  8
1
  6
CONTINUOUS
370
50
 62
4
100
AcDbLine
 10
13.524693
 20
-4.597324
 30
0.0
 11
13.825898
 21
-4.493392
 31
0.0
  0
LINE
  5
AC4
330
1F
100
AcDbEntity
  8
1
  6
CONTINUOUS
370
50
 62
4
100
AcDbLine
 10
29.882563
 20
0.971393
 30
0.0
 11
29.888435
 21
0.973474
 31
0.0
  0
LINE
  5
AC5
330
1F
100
AcDbEntity
  8
1
  6
CONTINUOUS
370
50
 62
4
100
AcDbLine
 10
23.647848
 20
-4.579845
 30
0.0
 11
24.150831
 21
-4.399662
 31
0.0
  0
LINE
  5
AC6
330
1F
100
AcDbEntity
  8
1
  6
CONTINUOUS
370
50
 62
4
100
AcDbLine
 10
5.530991999999999
 20
1.266271
 30
0.0
 11
5.618835
 21
1.298303
 31
0.0
  0
LINE
  5
AC7
330
1F
100
AcDbEntity
  8
1
  6
CONTINUOUS
370
50
 62
4
100
AcDbLine
 10
15.381853
 20
-3.90487
 30
0.0
 11
15.503516
 21
-3.860029
 31
0.0
  0
LINE
  5
AC8
330
1F
100
AcDbEntity
  8
1
  6
CONTINUOUS
370
50
 62
4
100
AcDbLine
 10
15.273234
 20
-3.945072
 30
0.0
 11
15.381853
 21
-3.90487
 31
0.0
  0
LINE
  5
AC9
330
1F
100
AcDbEntity
  8
1
  6
CONTINUOUS
370
50
 62
4
100
AcDbLine
 10
15.187917
 20
-3.976768
 30
0.0
 11
15.273234
 21
-3.945072
 31
0.0
  0
LINE
  5
ACA
330
1F
100
AcDbEntity
  8
1
  6
CONTINUOUS
370
50
 62
4
100
AcDbLine
 10
16.421049
 20
4.262966
 30
0.0
 11
16.880022
 21
4.433787
 31
0.0
  0
LINE
  5
ACB
330
1F
100
AcDbEntity
  8
1
  6
CONTINUOUS
370
50
 62
4
100
AcDbLine
 10
15.09917
 20
-4.00985
 30
0.0
 11
15.187917
 21
-3.976768
 31
0.0
  0
LINE
  5
ACC
330
1F
100
AcDbEntity
  8
1
  6
CONTINUOUS
370
50
 62
4
100
AcDbLine
 10
14.998496
 20
-4.047512
 30
0.0
 11
15.09917
 21
-4.00985
 31
0.0
  0
LINE
  5
ACD
330
1F
100
AcDbEntity
  8
1
  6
CONTINUOUS
370
50
 62
4
100
AcDbLine
 10
25.421579
 20
-3.905691
 30
0.0
 11
25.543369
 21
-3.859956
 31
0.0
  0
LINE
  5
ACE
330
1F
100
AcDbEntity
  8
1
  6
CONTINUOUS
370
50
 62
4
100
AcDbLine
 10
14.899659
 20
-4.084631
 30
0.0
 11
14.998496
 21
-4.047512
 31
0.0
  0
LINE
  5
ACF
330
1F
100
AcDbEntity
  8
1
  6
CONTINUOUS
370
50
 62
4
100
AcDbLine
 10
13.825898
 20
-4.493392
 30
0.0
 11
14.077964
 21
-4.39872
 31
0.0
  0
LINE
  5
AD0
330
1F
100
AcDbEntity
  8
1
  6
CONTINUOUS
370
50
 62
4
100
AcDbLine
 10
29.909355
 20
-4.845471
 30
0.0
 11
29.914423
 21
-4.843564
 31
0.0
  0
LINE
  5
AD1
330
1F
100
AcDbEntity
  8
1
  6
CONTINUOUS
370
50
 62
4
100
AcDbLine
 10
29.828854
 20
-4.888704
 30
0.0
 11
29.836012
 21
-4.886009
 31
0.0
  0
LINE
  5
AD2
330
1F
100
AcDbEntity
  8
1
  6
CONTINUOUS
370
50
 62
4
100
AcDbLine
 10
14.800833
 20
-4.121888
 30
0.0
 11
14.899659
 21
-4.084631
 31
0.0
  0
LINE
  5
AD3
330
1F
100
AcDbEntity
  8
1
  6
CONTINUOUS
370
50
 62
4
100
AcDbLine
 10
25.312983
 20
-3.946716
 30
0.0
 11
25.421579
 21
-3.905691
 31
0.0
  0
LINE
  5
AD4
330
1F
100
AcDbEntity
  8
1
  6
CONTINUOUS
370
50
 62
4
100
AcDbLine
 10
14.702012
 20
-4.159286
 30
0.0
 11
14.800833
 21
-4.121888
 31
0.0
  0
LINE
  5
AD5
330
1F
100
AcDbEntity
  8
1
  6
CONTINUOUS
370
50
 62
4
100
AcDbLine
 10
25.234013
 20
-3.976698
 30
0.0
 11
25.312983
 21
-3.946716
 31
0.0
  0
LINE
  5
AD6
330
1F
100
AcDbEntity
  8
1
  6
CONTINUOUS
370
50
 62
4
100
AcDbLine
 10
14.6032
 20
-4.196821
 30
0.0
 11
14.702012
 21
-4.159286
 31
0.0
  0
LINE
  5
AD7
330
1F
100
AcDbEntity
  8
1
  6
CONTINUOUS
370
50
 62
4
100
AcDbLine
 10
14.504398
 20
-4.234494
 30
0.0
 11
14.6032
 21
-4.196821
 31
0.0
  0
LINE
  5
AD8
330
1F
100
AcDbEntity
  8
1
  6
CONTINUOUS
370
50
 62
4
100
AcDbLine
 10
25.150223
 20
-4.008647
 30
0.0
 11
25.234013
 21
-3.976698
 31
0.0
  0
LINE
  5
AD9
330
1F
100
AcDbEntity
  8
1
  6
CONTINUOUS
370
50
 62
4
100
AcDbLine
 10
26.211853
 20
4.164798
 30
0.0
 11
26.931543
 21
4.439897
 31
0.0
  0
LINE
  5
ADA
330
1F
100
AcDbEntity
  8
1
  6
CONTINUOUS
370
50
 62
4
100
AcDbLine
 10
5.116153
 20
-4.937786
 30
0.0
 11
5.201093
 21
-4.905303
 31
0.0
  0
LINE
  5
ADB
330
1F
100
AcDbEntity
  8
1
  6
CONTINUOUS
370
50
 62
4
100
AcDbLine
 10
14.403374
 20
-4.273158
 30
0.0
 11
14.504398
 21
-4.234494
 31
0.0
  0
LINE
  5
ADC
330
1F
100
AcDbEntity
  8
1
  6
CONTINUOUS
370
50
 62
4
100
AcDbLine
 10
25.04645
 20
-4.048404
 30
0.0
 11
25.150223
 21
-4.008647
 31
0.0
  0
LINE
  5
ADD
330
1F
100
AcDbEntity
  8
1
  6
CONTINUOUS
370
50
 62
4
100
AcDbLine
 10
14.320969
 20
-4.304800999999999
 30
0.0
 11
14.403374
 21
-4.273158
 31
0.0
  0
LINE
  5
ADE
330
1F
100
AcDbEntity
  8
1
  6
CONTINUOUS
370
50
 62
4
100
AcDbLine
 10
4.713844
 20
-4.979884999999999
 30
0.0
 11
4.734522
 21
-4.971922999999999
 31
0.0
  0
LINE
  5
ADF
330
1F
100
AcDbEntity
  8
1
  6
CONTINUOUS
370
50
 62
4
100
AcDbLine
 10
14.239955
 20
-4.335999
 30
0.0
 11
14.320969
 21
-4.304800999999999
 31
0.0
  0
LINE
  5
AE0
330
1F
100
AcDbEntity
  8
1
  6
CONTINUOUS
370
50
 62
4
100
AcDbLine
 10
24.945694
 20
-4.08721
 30
0.0
 11
25.04645
 21
-4.048404
 31
0.0
  0
LINE
  5
AE1
330
1F
100
AcDbEntity
  8
1
  6
CONTINUOUS
370
50
 62
4
100
AcDbLine
 10
14.15894
 20
-4.367287
 30
0.0
 11
14.239955
 21
-4.335999
 31
0.0
  0
LINE
  5
AE2
330
1F
100
AcDbEntity
  8
1
  6
CONTINUOUS
370
50
 62
4
100
AcDbLine
 10
24.844954
 20
-4.126206
 30
0.0
 11
24.945694
 21
-4.08721
 31
0.0
  0
LINE
  5
AE3
330
1F
100
AcDbEntity
  8
1
  6
CONTINUOUS
370
50
 62
4
100
AcDbLine
 10
14.077925
 20
-4.39866
 30
0.0
 11
14.15894
 21
-4.367287
 31
0.0
  0
LINE
  5
AE4
330
1F
100
AcDbEntity
  8
1
  6
CONTINUOUS
370
50
 62
4
100
AcDbLine
 10
24.744219
 20
-4.165392
 30
0.0
 11
24.844954
 21
-4.126206
 31
0.0
  0
LINE
  5
AE5
330
1F
100
AcDbEntity
  8
1
  6
CONTINUOUS
370
50
 62
4
100
AcDbLine
 10
24.643497
 20
-4.204764
 30
0.0
 11
24.744219
 21
-4.165392
 31
0.0
  0
LINE
  5
AE6
330
1F
100
AcDbEntity
  8
1
  6
CONTINUOUS
370
50
 62
4
100
AcDbLine
 10
24.542789
 20
-4.244314999999999
 30
0.0
 11
24.643497
 21
-4.204764
 31
0.0
  0
LINE
  5
AE7
330
1F
100
AcDbEntity
  8
1
  6
CONTINUOUS
370
50
 62
4
100
AcDbLine
 10
24.438322
 20
-4.285531
 30
0.0
 11
24.542789
 21
-4.244314999999999
 31
0.0
  0
LINE
  5
AE8
330
1F
100
AcDbEntity
  8
1
  6
CONTINUOUS
370
50
 62
4
100
AcDbLine
 10
29.829905
 20
-4.981481
 30
0.0
 11
29.842304
 21
-4.976575
 31
0.0
  0
LINE
  5
AE9
330
1F
100
AcDbEntity
  8
1
  6
CONTINUOUS
370
50
 62
4
100
AcDbLine
 10
24.150831
 20
-4.399614
 30
0.0
 11
24.222075
 21
-4.371402
 31
0.0
  0
LINE
  5
AEA
330
1F
100
AcDbEntity
  8
1
  6
CONTINUOUS
370
50
 62
4
100
AcDbLine
 10
24.364557
 20
-4.314744
 30
0.0
 11
24.438322
 21
-4.285531
 31
0.0
  0
LINE
  5
AEB
330
1F
100
AcDbEntity
  8
1
  6
CONTINUOUS
370
50
 62
4
100
AcDbLine
 10
24.293316
 20
-4.343043
 30
0.0
 11
24.364557
 21
-4.314744
 31
0.0
  0
LINE
  5
AEC
330
1F
100
AcDbEntity
  8
1
  6
CONTINUOUS
370
50
 62
4
100
AcDbLine
 10
24.222075
 20
-4.371402
 30
0.0
 11
24.293316
 21
-4.343043
 31
0.0
  0
LINE
  5
AED
330
1F
100
AcDbEntity
  8
1
  6
CONTINUOUS
370
50
 62
4
100
AcDbLine
 10
15.961393
 20
4.071512
 30
0.0
 11
16.421049
 21
4.262966
 31
0.0
  0
LINE
  5
AEE
330
1F
100
AcDbEntity
  8
1
  6
CONTINUOUS
370
50
 62
4
100
AcDbLine
 10
5.444901
 20
1.230374
 30
0.0
 11
5.530991999999999
 21
1.266271
 31
0.0
  0
LINE
  5
AEF
330
1F
100
AcDbEntity
  8
1
  6
CONTINUOUS
370
50
 62
4
100
AcDbLine
 10
29.888435
 20
0.973474
 30
0.0
 11
29.894089
 21
0.975864
 31
0.0
  0
LINE
  5
AF0
330
1F
100
AcDbEntity
  8
1
  6
CONTINUOUS
370
50
 62
4
100
AcDbLine
 10
29.836012
 20
-4.886009
 30
0.0
 11
29.843109
 21
-4.882994
 31
0.0
  0
LINE
  5
AF1
330
1F
100
AcDbEntity
  8
1
  6
CONTINUOUS
370
50
 62
4
100
AcDbLine
 10
29.914423
 20
-4.843564
 30
0.0
 11
29.919455
 21
-4.841354
 31
0.0
  0
LINE
  5
AF2
330
1F
100
AcDbEntity
  8
1
  6
CONTINUOUS
370
50
 62
4
100
AcDbLine
 10
25.543365
 20
3.859955
 30
0.0
 11
26.211853
 21
4.164798
 31
0.0
  0
LINE
  5
AF3
330
1F
100
AcDbEntity
  8
1
  6
CONTINUOUS
370
50
 62
4
100
AcDbLine
 10
15.503516
 20
3.860029
 30
0.0
 11
15.961393
 21
4.071512
 31
0.0
  0
LINE
  5
AF4
330
1F
100
AcDbEntity
  8
1
  6
CONTINUOUS
370
50
 62
4
100
AcDbLine
 10
29.842304
 20
-4.976575
 30
0.0
 11
29.854521
 21
-4.97093
 31
0.0
  0
LINE
  5
AF5
330
1F
100
AcDbEntity
  8
1
  6
CONTINUOUS
370
50
 62
4
100
AcDbLine
 10
5.201093
 20
-4.905303
 30
0.0
 11
5.28546
 21
-4.865947999999999
 31
0.0
  0
LINE
  5
AF6
330
1F
100
AcDbEntity
  8
1
  6
CONTINUOUS
370
50
 62
4
100
AcDbLine
 10
5.360936
 20
1.190538
 30
0.0
 11
5.444901
 21
1.230374
 31
0.0
  0
LINE
  5
AF7
330
1F
100
AcDbEntity
  8
1
  6
CONTINUOUS
370
50
 62
4
100
AcDbLine
 10
29.843109
 20
-4.882994
 30
0.0
 11
29.850138
 21
-4.879657
 31
0.0
  0
LINE
  5
AF8
330
1F
100
AcDbEntity
  8
1
  6
CONTINUOUS
370
50
 62
4
100
AcDbLine
 10
29.919455
 20
-4.841354
 30
0.0
 11
29.924433
 21
-4.838833
 31
0.0
  0
LINE
  5
AF9
330
1F
100
AcDbEntity
  8
1
  6
CONTINUOUS
370
50
 62
4
100
AcDbLine
 10
29.850138
 20
-4.879657
 30
0.0
 11
29.857029
 21
-4.876030999999999
 31
0.0
  0
LINE
  5
AFA
330
1F
100
AcDbEntity
  8
1
  6
CONTINUOUS
370
50
 62
4
100
AcDbLine
 10
29.854521
 20
-4.97093
 30
0.0
 11
29.86651
 21
-4.964542
 31
0.0
  0
LINE
  5
AFB
330
1F
100
AcDbEntity
  8
1
  6
CONTINUOUS
370
50
 62
4
100
AcDbLine
 10
5.279256999999999
 20
1.14656
 30
0.0
 11
5.360936
 21
1.190538
 31
0.0
  0
LINE
  5
AFC
330
1F
100
AcDbEntity
  8
1
  6
CONTINUOUS
370
50
 62
4
100
AcDbLine
 10
4.701586
 20
-4.986655
 30
0.0
 11
4.713844
 21
-4.979884999999999
 31
0.0
  0
LINE
  5
AFD
330
1F
100
AcDbEntity
  8
1
  6
CONTINUOUS
370
50
 62
4
100
AcDbLine
 10
29.857029
 20
-4.876030999999999
 30
0.0
 11
29.863718
 21
-4.87216
 31
0.0
  0
LINE
  5
AFE
330
1F
100
AcDbEntity
  8
1
  6
CONTINUOUS
370
50
 62
4
100
AcDbLine
 10
29.924433
 20
-4.838833
 30
0.0
 11
29.929342
 21
-4.835986999999999
 31
0.0
  0
LINE
  5
AFF
330
1F
100
AcDbEntity
  8
1
  6
CONTINUOUS
370
50
 62
4
100
AcDbLine
 10
29.86651
 20
-4.964542
 30
0.0
 11
29.878241
 21
-4.957407
 31
0.0
  0
LINE
  5
B00
330
1F
100
AcDbEntity
  8
1
  6
CONTINUOUS
370
50
 62
4
100
AcDbLine
 10
5.199968999999999
 20
1.098086
 30
0.0
 11
5.279256999999999
 21
1.14656
 31
0.0
  0
LINE
  5
B01
330
1F
100
AcDbEntity
  8
1
  6
CONTINUOUS
370
50
 62
4
100
AcDbLine
 10
29.863718
 20
-4.87216
 30
0.0
 11
29.870203
 21
-4.86806
 31
0.0
  0
LINE
  5
B02
330
1F
100
AcDbEntity
  8
1
  6
CONTINUOUS
370
50
 62
4
100
AcDbLine
 10
29.929342
 20
-4.835986999999999
 30
0.0
 11
29.934168
 21
-4.832807
 31
0.0
  0
LINE
  5
B03
330
1F
100
AcDbEntity
  8
1
  6
CONTINUOUS
370
50
 62
4
100
AcDbLine
 10
29.870203
 20
-4.86806
 30
0.0
 11
29.876484
 21
-4.863742999999999
 31
0.0
  0
LINE
  5
B04
330
1F
100
AcDbEntity
  8
1
  6
CONTINUOUS
370
50
 62
4
100
AcDbLine
 10
29.878241
 20
-4.957407
 30
0.0
 11
29.889671
 21
-4.949517999999999
 31
0.0
  0
LINE
  5
B05
330
1F
100
AcDbEntity
  8
1
  6
CONTINUOUS
370
50
 62
4
100
AcDbLine
 10
5.123754
 20
1.045024
 30
0.0
 11
5.199968999999999
 21
1.098086
 31
0.0
  0
LINE
  5
B06
330
1F
100
AcDbEntity
  8
1
  6
CONTINUOUS
370
50
 62
4
100
AcDbLine
 10
29.876484
 20
-4.863742999999999
 30
0.0
 11
29.882563
 21
-4.859224999999999
 31
0.0
  0
LINE
  5
B07
330
1F
100
AcDbEntity
  8
1
  6
CONTINUOUS
370
50
 62
4
100
AcDbLine
 10
29.934168
 20
-4.832807
 30
0.0
 11
29.938892
 21
-4.829282
 31
0.0
  0
LINE
  5
B08
330
1F
100
AcDbEntity
  8
1
  6
CONTINUOUS
370
50
 62
4
100
AcDbLine
 10
29.398342
 20
-0.710863
 30
0.0
 11
29.99
 21
-0.259915
 31
0.0
  0
LINE
  5
B09
330
1F
100
AcDbEntity
  8
1
  6
CONTINUOUS
370
50
 62
4
100
AcDbLine
 10
29.889671
 20
-4.949517999999999
 30
0.0
 11
29.900764
 21
-4.940871
 31
0.0
  0
LINE
  5
B0A
330
1F
100
AcDbEntity
  8
1
  6
CONTINUOUS
370
50
 62
4
100
AcDbLine
 10
5.05131
 20
0.987292
 30
0.0
 11
5.123754
 21
1.045024
 31
0.0
  0
LINE
  5
B0B
330
1F
100
AcDbEntity
  8
1
  6
CONTINUOUS
370
50
 62
4
100
AcDbLine
 10
29.882563
 20
-4.859224999999999
 30
0.0
 11
29.888435
 21
-4.854521
 31
0.0
  0
LINE
  5
B0C
330
1F
100
AcDbEntity
  8
1
  6
CONTINUOUS
370
50
 62
4
100
AcDbLine
 10
29.938892
 20
-4.829282
 30
0.0
 11
29.943501
 21
-4.8254
 31
0.0
  0
LINE
  5
B0D
330
1F
100
AcDbEntity
  8
1
  6
CONTINUOUS
370
50
 62
4
100
AcDbLine
 10
29.888435
 20
-4.854521
 30
0.0
 11
29.894089
 21
-4.849658
 31
0.0
  0
LINE
  5
B0E
330
1F
100
AcDbEntity
  8
1
  6
CONTINUOUS
370
50
 62
4
100
AcDbLine
 10
29.900764
 20
-4.940871
 30
0.0
 11
29.911474
 21
-4.931467
 31
0.0
  0
LINE
  5
B0F
330
1F
100
AcDbEntity
  8
1
  6
CONTINUOUS
370
50
 62
4
100
AcDbLine
 10
4.983337
 20
0.9248059999999999
 30
0.0
 11
5.05131
 21
0.987292
 31
0.0
  0
LINE
  5
B10
330
1F
100
AcDbEntity
  8
1
  6
CONTINUOUS
370
50
 62
4
100
AcDbLine
 10
29.943501
 20
-4.8254
 30
0.0
 11
29.948053
 21
-4.821062
 31
0.0
  0
LINE
  5
B11
330
1F
100
AcDbEntity
  8
1
  6
CONTINUOUS
370
50
 62
4
100
AcDbLine
 10
29.41107
 20
-1.196159
 30
0.0
 11
29.411467
 21
-1.195771
 31
0.0
  0
LINE
  5
B12
330
1F
100
AcDbEntity
  8
1
  6
CONTINUOUS
370
50
 62
4
100
AcDbLine
 10
29.410276
 20
-1.196937
 30
0.0
 11
29.41107
 21
-1.196159
 31
0.0
  0
LINE
  5
B13
330
1F
100
AcDbEntity
  8
1
  6
CONTINUOUS
370
50
 62
4
100
AcDbLine
 10
29.411863
 20
-1.195381
 30
0.0
 11
29.412657
 21
-1.194603
 31
0.0
  0
LINE
  5
B14
330
1F
100
AcDbEntity
  8
1
  6
CONTINUOUS
370
50
 62
4
100
AcDbLine
 10
29.411467
 20
-1.195771
 30
0.0
 11
29.411863
 21
-1.195381
 31
0.0
  0
LINE
  5
B15
330
1F
100
AcDbEntity
  8
1
  6
CONTINUOUS
370
50
 62
4
100
AcDbLine
 10
29.911474
 20
-4.931467
 30
0.0
 11
29.921749
 21
-4.921309
 31
0.0
  0
LINE
  5
B16
330
1F
100
AcDbEntity
  8
1
  6
CONTINUOUS
370
50
 62
4
100
AcDbLine
 10
4.920559
 20
0.857498
 30
0.0
 11
4.983337
 21
0.9248059999999999
 31
0.0
  0
LINE
  5
B17
330
1F
100
AcDbEntity
  8
1
  6
CONTINUOUS
370
50
 62
4
100
AcDbLine
 10
29.948053
 20
-4.821062
 30
0.0
 11
29.952778
 21
-4.815955
 31
0.0
  0
LINE
  5
B18
330
1F
100
AcDbEntity
  8
1
  6
CONTINUOUS
370
50
 62
4
100
AcDbLine
 10
29.921749
 20
-4.921309
 30
0.0
 11
29.931536
 21
-4.910406
 31
0.0
  0
LINE
  5
B19
330
1F
100
AcDbEntity
  8
1
  6
CONTINUOUS
370
50
 62
4
100
AcDbLine
 10
4.698033
 20
-4.990799
 30
0.0
 11
4.701586
 21
-4.986655
 31
0.0
  0
LINE
  5
B1A
330
1F
100
AcDbEntity
  8
1
  6
CONTINUOUS
370
50
 62
4
100
AcDbLine
 10
29.952778
 20
-4.815955
 30
0.0
 11
29.95756
 21
-4.810131999999999
 31
0.0
  0
LINE
  5
B1B
330
1F
100
AcDbEntity
  8
1
  6
CONTINUOUS
370
50
 62
4
100
AcDbLine
 10
29.931536
 20
-4.910406
 30
0.0
 11
29.940783
 21
-4.898760999999999
 31
0.0
  0
LINE
  5
B1C
330
1F
100
AcDbEntity
  8
1
  6
CONTINUOUS
370
50
 62
4
100
AcDbLine
 10
4.863830999999999
 20
0.785404
 30
0.0
 11
4.920559
 21
0.857498
 31
0.0
  0
LINE
  5
B1D
330
1F
100
AcDbEntity
  8
1
  6
CONTINUOUS
370
50
 62
4
100
AcDbLine
 10
29.95756
 20
-4.810131999999999
 30
0.0
 11
29.962254
 21
-4.803682999999999
 31
0.0
  0
LINE
  5
B1E
330
1F
100
AcDbEntity
  8
1
  6
CONTINUOUS
370
50
 62
4
100
AcDbLine
 10
29.940783
 20
-4.898760999999999
 30
0.0
 11
29.949436
 21
-4.886381
 31
0.0
  0
LINE
  5
B1F
330
1F
100
AcDbEntity
  8
1
  6
CONTINUOUS
370
50
 62
4
100
AcDbLine
 10
4.814
 20
0.7085629999999999
 30
0.0
 11
4.863830999999999
 21
0.785404
 31
0.0
  0
LINE
  5
B20
330
1F
100
AcDbEntity
  8
1
  6
CONTINUOUS
370
50
 62
4
100
AcDbLine
 10
28.049925
 20
-0.189506
 30
0.0
 11
28.089729
 21
-0.127375
 31
0.0
  0
LINE
  5
B21
330
1F
100
AcDbEntity
  8
1
  6
CONTINUOUS
370
50
 62
4
100
AcDbLine
 10
29.962254
 20
-4.803682999999999
 30
0.0
 11
29.966713
 21
-4.7967
 31
0.0
  0
LINE
  5
B22
330
1F
100
AcDbEntity
  8
1
  6
CONTINUOUS
370
50
 62
4
100
AcDbLine
 10
29.949436
 20
-4.886381
 30
0.0
 11
29.957439
 21
-4.873276
 31
0.0
  0
LINE
  5
B23
330
1F
100
AcDbEntity
  8
1
  6
CONTINUOUS
370
50
 62
4
100
AcDbLine
 10
28.089729
 20
-0.127375
 30
0.0
 11
28.126827
 21
-0.063867
 31
0.0
  0
LINE
  5
B24
330
1F
100
AcDbEntity
  8
1
  6
CONTINUOUS
370
50
 62
4
100
AcDbLine
 10
29.966713
 20
-4.7967
 30
0.0
 11
29.970875
 21
-4.789113
 31
0.0
  0
LINE
  5
B25
330
1F
100
AcDbEntity
  8
1
  6
CONTINUOUS
370
50
 62
4
100
AcDbLine
 10
28.126827
 20
-0.063867
 30
0.0
 11
28.160994
 21
0.000681
 31
0.0
  0
LINE
  5
B26
330
1F
100
AcDbEntity
  8
1
  6
CONTINUOUS
370
50
 62
4
100
AcDbLine
 10
29.957439
 20
-4.873276
 30
0.0
 11
29.964701
 21
-4.859529
 31
0.0
  0
LINE
  5
B27
330
1F
100
AcDbEntity
  8
1
  6
CONTINUOUS
370
50
 62
4
100
AcDbLine
 10
4.771904999999999
 20
0.627015
 30
0.0
 11
4.814
 21
0.7085629999999999
 31
0.0
  0
LINE
  5
B28
330
1F
100
AcDbEntity
  8
1
  6
CONTINUOUS
370
50
 62
4
100
AcDbLine
 10
28.160994
 20
0.000681
 30
0.0
 11
28.191736
 21
0.065265
 31
0.0
  0
LINE
  5
B29
330
1F
100
AcDbEntity
  8
1
  6
CONTINUOUS
370
50
 62
4
100
AcDbLine
 10
29.970875
 20
-4.789113
 30
0.0
 11
29.975067
 21
-4.780082999999999
 31
0.0
  0
LINE
  5
B2A
330
1F
100
AcDbEntity
  8
1
  6
CONTINUOUS
370
50
 62
4
100
AcDbLine
 10
29.964701
 20
-4.859529
 30
0.0
 11
29.971153
 21
-4.845194
 31
0.0
  0
LINE
  5
B2B
330
1F
100
AcDbEntity
  8
1
  6
CONTINUOUS
370
50
 62
4
100
AcDbLine
 10
28.191736
 20
0.065265
 30
0.0
 11
28.219028
 21
0.12962
 31
0.0
  0
LINE
  5
B2C
330
1F
100
AcDbEntity
  8
1
  6
CONTINUOUS
370
50
 62
4
100
AcDbLine
 10
29.975067
 20
-4.780082999999999
 30
0.0
 11
29.979053
 21
-4.769901
 31
0.0
  0
LINE
  5
B2D
330
1F
100
AcDbEntity
  8
1
  6
CONTINUOUS
370
50
 62
4
100
AcDbLine
 10
4.738615999999999
 20
0.541474
 30
0.0
 11
4.771904999999999
 21
0.627015
 31
0.0
  0
LINE
  5
B2E
330
1F
100
AcDbEntity
  8
1
  6
CONTINUOUS
370
50
 62
4
100
AcDbLine
 10
29.971153
 20
-4.845194
 30
0.0
 11
29.976746
 21
-4.830306
 31
0.0
  0
LINE
  5
B2F
330
1F
100
AcDbEntity
  8
1
  6
CONTINUOUS
370
50
 62
4
100
AcDbLine
 10
28.219028
 20
0.12962
 30
0.0
 11
28.242907
 21
0.19359
 31
0.0
  0
LINE
  5
B30
330
1F
100
AcDbEntity
  8
1
  6
CONTINUOUS
370
50
 62
4
100
AcDbLine
 10
28.242907
 20
0.19359
 30
0.0
 11
28.263403
 21
0.257015
 31
0.0
  0
LINE
  5
B31
330
1F
100
AcDbEntity
  8
1
  6
CONTINUOUS
370
50
 62
4
100
AcDbLine
 10
29.979053
 20
-4.769901
 30
0.0
 11
29.982502
 21
-4.758992999999999
 31
0.0
  0
LINE
  5
B32
330
1F
100
AcDbEntity
  8
1
  6
CONTINUOUS
370
50
 62
4
100
AcDbLine
 10
29.976746
 20
-4.830306
 30
0.0
 11
29.981428
 21
-4.814894
 31
0.0
  0
LINE
  5
B33
330
1F
100
AcDbEntity
  8
1
  6
CONTINUOUS
370
50
 62
4
100
AcDbLine
 10
28.263403
 20
0.257015
 30
0.0
 11
28.280539
 21
0.319679
 31
0.0
  0
LINE
  5
B34
330
1F
100
AcDbEntity
  8
1
  6
CONTINUOUS
370
50
 62
4
100
AcDbLine
 10
4.715069
 20
0.453426
 30
0.0
 11
4.738615999999999
 21
0.541474
 31
0.0
  0
LINE
  5
B35
330
1F
100
AcDbEntity
  8
1
  6
CONTINUOUS
370
50
 62
4
100
AcDbLine
 10
29.982502
 20
-4.758992999999999
 30
0.0
 11
29.985575
 21
-4.746132999999999
 31
0.0
  0
LINE
  5
B36
330
1F
100
AcDbEntity
  8
1
  6
CONTINUOUS
370
50
 62
4
100
AcDbLine
 10
29.981428
 20
-4.814894
 30
0.0
 11
29.985151
 21
-4.798995
 31
0.0
  0
LINE
  5
B37
330
1F
100
AcDbEntity
  8
1
  6
CONTINUOUS
370
50
 62
4
100
AcDbLine
 10
28.280539
 20
0.319679
 30
0.0
 11
28.294271
 21
0.380967
 31
0.0
  0
LINE
  5
B38
330
1F
100
AcDbEntity
  8
1
  6
CONTINUOUS
370
50
 62
4
100
AcDbLine
 10
28.294271
 20
0.380967
 30
0.0
 11
28.304705
 21
0.440684
 31
0.0
  0
LINE
  5
B39
330
1F
100
AcDbEntity
  8
1
  6
CONTINUOUS
370
50
 62
4
100
AcDbLine
 10
29.985575
 20
-4.746132999999999
 30
0.0
 11
29.98798
 21
-4.732123
 31
0.0
  0
LINE
  5
B3A
330
1F
100
AcDbEntity
  8
1
  6
CONTINUOUS
370
50
 62
4
100
AcDbLine
 10
29.985151
 20
-4.798995
 30
0.0
 11
29.987837
 21
-4.782806
 31
0.0
  0
LINE
  5
B3B
330
1F
100
AcDbEntity
  8
1
  6
CONTINUOUS
370
50
 62
4
100
AcDbLine
 10
4.70147
 20
0.363128
 30
0.0
 11
4.715069
 21
0.453426
 31
0.0
  0
LINE
  5
B3C
330
1F
100
AcDbEntity
  8
1
  6
CONTINUOUS
370
50
 62
4
100
AcDbLine
 10
28.304705
 20
0.440684
 30
0.0
 11
28.311979
 21
0.498746
 31
0.0
  0
LINE
  5
B3D
330
1F
100
AcDbEntity
  8
1
  6
CONTINUOUS
370
50
 62
4
100
AcDbLine
 10
29.987837
 20
-4.782806
 30
0.0
 11
29.989458
 21
-4.766456
 31
0.0
  0
LINE
  5
B3E
330
1F
100
AcDbEntity
  8
1
  6
CONTINUOUS
370
50
 62
4
100
AcDbLine
 10
29.98798
 20
-4.732123
 30
0.0
 11
29.989454
 21
-4.716902
 31
0.0
  0
LINE
  5
B3F
330
1F
100
AcDbEntity
  8
1
  6
CONTINUOUS
370
50
 62
4
100
AcDbLine
 10
28.311975
 20
2.889381
 30
0.0
 11
28.316471
 21
2.942677
 31
0.0
  0
LINE
  5
B40
330
1F
100
AcDbEntity
  8
1
  6
CONTINUOUS
370
50
 62
4
100
AcDbLine
 10
28.311979
 20
0.498746
 30
0.0
 11
28.316231
 21
0.55507
 31
0.0
  0
LINE
  5
B41
330
1F
100
AcDbEntity
  8
1
  6
CONTINUOUS
370
50
 62
4
100
AcDbLine
 10
29.397755
 20
-1.416715
 30
0.0
 11
29.410276
 21
-1.196937
 31
0.0
  0
LINE
  5
B42
330
1F
100
AcDbEntity
  8
1
  6
CONTINUOUS
370
50
 62
4
100
AcDbLine
 10
4.698001
 20
0.270969
 30
0.0
 11
4.70147
 21
0.363128
 31
0.0
  0
LINE
  5
B43
330
1F
100
AcDbEntity
  8
1
  6
CONTINUOUS
370
50
 62
4
100
AcDbLine
 10
29.389566
 20
-1.637735
 30
0.0
 11
29.397755
 21
-1.416715
 31
0.0
  0
LINE
  5
B44
330
1F
100
AcDbEntity
  8
1
  6
CONTINUOUS
370
50
 62
4
100
AcDbLine
 10
29.989454
 20
-4.716902
 30
0.0
 11
29.99
 21
-4.700976
 31
0.0
  0
LINE
  5
B45
330
1F
100
AcDbEntity
  8
1
  6
CONTINUOUS
370
50
 62
4
100
AcDbLine
 10
29.989458
 20
-4.766456
 30
0.0
 11
29.99
 21
-4.749999
 31
0.0
  0
LINE
  5
B46
330
1F
100
AcDbEntity
  8
1
  6
CONTINUOUS
370
50
 62
4
100
AcDbLine
 10
28.316231
 20
0.55507
 30
0.0
 11
28.317598
 21
0.6095729999999999
 31
0.0
  0
LINE
  5
B47
330
1F
100
AcDbEntity
  8
1
  6
CONTINUOUS
370
50
 62
4
100
AcDbLine
 10
28.316471
 20
2.942677
 30
0.0
 11
28.317547
 21
2.998752
 31
0.0
  0
LINE
  5
B48
330
1F
100
AcDbEntity
  8
1
  6
CONTINUOUS
370
50
 62
4
100
AcDbLine
 10
29.412657
 20
-1.194603
 30
0.0
 11
29.413986
 21
-1.124956
 31
0.0
  0
LINE
  5
B49
330
1F
100
AcDbEntity
  8
1
  6
CONTINUOUS
370
50
 62
4
100
AcDbLine
 10
29.385777
 20
-1.859482
 30
0.0
 11
29.389566
 21
-1.637735
 31
0.0
  0
LINE
  5
B4A
330
1F
100
AcDbEntity
  8
1
  6
CONTINUOUS
370
50
 62
4
100
AcDbLine
 10
29.413986
 20
-1.124956
 30
0.0
 11
29.414125
 21
-1.055275
 31
0.0
  0
LINE
  5
B4B
330
1F
100
AcDbEntity
  8
1
  6
CONTINUOUS
370
50
 62
4
100
AcDbLine
 10
-0.01
 20
-4.99995
 30
0.0
 11
-0.01
 21
4.99995
 31
0.0
  0
LINE
  5
B4C
330
1F
100
AcDbEntity
  8
1
  6
CONTINUOUS
370
50
 62
4
100
AcDbLine
 10
7.989999999999999
 20
-4.782649999999999
 30
0.0
 11
7.989999999999999
 21
4.782649999999999
 31
0.0
  0
LINE
  5
B4D
330
1F
100
AcDbEntity
  8
1
  6
CONTINUOUS
370
50
 62
4
100
AcDbLine
 10
8.0
 20
2.194562
 30
0.0
 11
8.0
 21
2.953474
 31
0.0
  0
LINE
  5
B4E
330
1F
100
AcDbEntity
  8
1
  6
CONTINUOUS
370
50
 62
4
100
AcDbLine
 10
8.0
 20
1.458169
 30
0.0
 11
8.0
 21
1.47115
 31
0.0
  0
LINE
  5
B4F
330
1F
100
AcDbEntity
  8
1
  6
CONTINUOUS
370
50
 62
4
100
AcDbLine
 10
8.0
 20
-4.492538
 30
0.0
 11
8.0
 21
-4.477328
 31
0.0
  0
LINE
  5
B50
330
1F
100
AcDbEntity
  8
1
  6
CONTINUOUS
370
50
 62
4
100
AcDbLine
 10
8.0
 20
-4.782546
 30
0.0
 11
8.0
 21
-4.778569
 31
0.0
  0
LINE
  5
B51
330
1F
100
AcDbEntity
  8
1
  6
CONTINUOUS
370
50
 62
4
100
AcDbLine
 10
8.0
 20
3.225068
 30
0.0
 11
8.0
 21
3.598938
 31
0.0
  0
LINE
  5
B52
330
1F
100
AcDbEntity
  8
1
  6
CONTINUOUS
370
50
 62
4
100
AcDbLine
 10
8.0
 20
3.598938
 30
0.0
 11
8.0
 21
4.782546
 31
0.0
  0
LINE
  5
B53
330
1F
100
AcDbEntity
  8
1
  6
CONTINUOUS
370
50
 62
4
100
AcDbLine
 10
8.0
 20
3.175806
 30
0.0
 11
8.0
 21
3.225068
 31
0.0
  0
LINE
  5
B54
330
1F
100
AcDbEntity
  8
1
  6
CONTINUOUS
370
50
 62
4
100
AcDbLine
 10
8.0
 20
3.127977
 30
0.0
 11
8.0
 21
3.175806
 31
0.0
  0
LINE
  5
B55
330
1F
100
AcDbEntity
  8
1
  6
CONTINUOUS
370
50
 62
4
100
AcDbLine
 10
8.0
 20
3.081688
 30
0.0
 11
8.0
 21
3.127977
 31
0.0
  0
LINE
  5
B56
330
1F
100
AcDbEntity
  8
1
  6
CONTINUOUS
370
50
 62
4
100
AcDbLine
 10
8.0
 20
3.037138
 30
0.0
 11
8.0
 21
3.081688
 31
0.0
  0
LINE
  5
B57
330
1F
100
AcDbEntity
  8
1
  6
CONTINUOUS
370
50
 62
4
100
AcDbLine
 10
8.0
 20
2.994392
 30
0.0
 11
8.0
 21
3.037138
 31
0.0
  0
LINE
  5
B58
330
1F
100
AcDbEntity
  8
1
  6
CONTINUOUS
370
50
 62
4
100
AcDbLine
 10
8.0
 20
2.9535
 30
0.0
 11
8.0
 21
2.994392
 31
0.0
  0
LINE
  5
B59
330
1F
100
AcDbEntity
  8
1
  6
CONTINUOUS
370
50
 62
4
100
AcDbLine
 10
8.0
 20
0.921199
 30
0.0
 11
8.0
 21
1.097294
 31
0.0
  0
LINE
  5
B5A
330
1F
100
AcDbEntity
  8
1
  6
CONTINUOUS
370
50
 62
4
100
AcDbLine
 10
8.0
 20
1.097294
 30
0.0
 11
8.0
 21
1.458169
 31
0.0
  0
LINE
  5
B5B
330
1F
100
AcDbEntity
  8
1
  6
CONTINUOUS
370
50
 62
4
100
AcDbLine
 10
8.0
 20
-0.6725209999999999
 30
0.0
 11
8.0
 21
-0.672218
 31
0.0
  0
LINE
  5
B5C
330
1F
100
AcDbEntity
  8
1
  6
CONTINUOUS
370
50
 62
4
100
AcDbLine
 10
8.0
 20
-0.672824
 30
0.0
 11
8.0
 21
-0.6725209999999999
 31
0.0
  0
LINE
  5
B5D
330
1F
100
AcDbEntity
  8
1
  6
CONTINUOUS
370
50
 62
4
100
AcDbLine
 10
8.0
 20
-0.673126
 30
0.0
 11
8.0
 21
-0.672824
 31
0.0
  0
LINE
  5
B5E
330
1F
100
AcDbEntity
  8
1
  6
CONTINUOUS
370
50
 62
4
100
AcDbLine
 10
8.0
 20
-0.6734289999999999
 30
0.0
 11
8.0
 21
-0.673126
 31
0.0
  0
LINE
  5
B5F
330
1F
100
AcDbEntity
  8
1
  6
CONTINUOUS
370
50
 62
4
100
AcDbLine
 10
8.0
 20
-0.673732
 30
0.0
 11
8.0
 21
-0.6734289999999999
 31
0.0
  0
LINE
  5
B60
330
1F
100
AcDbEntity
  8
1
  6
CONTINUOUS
370
50
 62
4
100
AcDbLine
 10
8.0
 20
-0.6740349999999999
 30
0.0
 11
8.0
 21
-0.673732
 31
0.0
  0
LINE
  5
B61
330
1F
100
AcDbEntity
  8
1
  6
CONTINUOUS
370
50
 62
4
100
AcDbLine
 10
8.0
 20
0.865298
 30
0.0
 11
8.0
 21
0.921199
 31
0.0
  0
LINE
  5
B62
330
1F
100
AcDbEntity
  8
1
  6
CONTINUOUS
370
50
 62
4
100
AcDbLine
 10
8.0
 20
0.804283
 30
0.0
 11
8.0
 21
0.865298
 31
0.0
  0
LINE
  5
B63
330
1F
100
AcDbEntity
  8
1
  6
CONTINUOUS
370
50
 62
4
100
AcDbLine
 10
8.0
 20
0.738649
 30
0.0
 11
8.0
 21
0.804283
 31
0.0
  0
LINE
  5
B64
330
1F
100
AcDbEntity
  8
1
  6
CONTINUOUS
370
50
 62
4
100
AcDbLine
 10
8.0
 20
0.66869
 30
0.0
 11
8.0
 21
0.738649
 31
0.0
  0
LINE
  5
B65
330
1F
100
AcDbEntity
  8
1
  6
CONTINUOUS
370
50
 62
4
100
AcDbLine
 10
8.0
 20
0.594649
 30
0.0
 11
8.0
 21
0.66869
 31
0.0
  0
LINE
  5
B66
330
1F
100
AcDbEntity
  8
1
  6
CONTINUOUS
370
50
 62
4
100
AcDbLine
 10
8.0
 20
0.516772
 30
0.0
 11
8.0
 21
0.594649
 31
0.0
  0
LINE
  5
B67
330
1F
100
AcDbEntity
  8
1
  6
CONTINUOUS
370
50
 62
4
100
AcDbLine
 10
8.0
 20
0.435303
 30
0.0
 11
8.0
 21
0.516772
 31
0.0
  0
LINE
  5
B68
330
1F
100
AcDbEntity
  8
1
  6
CONTINUOUS
370
50
 62
4
100
AcDbLine
 10
8.0
 20
0.350593
 30
0.0
 11
8.0
 21
0.435303
 31
0.0
  0
LINE
  5
B69
330
1F
100
AcDbEntity
  8
1
  6
CONTINUOUS
370
50
 62
4
100
AcDbLine
 10
8.0
 20
0.263327
 30
0.0
 11
8.0
 21
0.350593
 31
0.0
  0
LINE
  5
B6A
330
1F
100
AcDbEntity
  8
1
  6
CONTINUOUS
370
50
 62
4
100
AcDbLine
 10
8.0
 20
0.173842
 30
0.0
 11
8.0
 21
0.263327
 31
0.0
  0
LINE
  5
B6B
330
1F
100
AcDbEntity
  8
1
  6
CONTINUOUS
370
50
 62
4
100
AcDbLine
 10
8.0
 20
0.082442
 30
0.0
 11
8.0
 21
0.173842
 31
0.0
  0
LINE
  5
B6C
330
1F
100
AcDbEntity
  8
1
  6
CONTINUOUS
370
50
 62
4
100
AcDbLine
 10
8.0
 20
-0.010574
 30
0.0
 11
8.0
 21
0.082442
 31
0.0
  0
LINE
  5
B6D
330
1F
100
AcDbEntity
  8
1
  6
CONTINUOUS
370
50
 62
4
100
AcDbLine
 10
8.0
 20
-0.104902
 30
0.0
 11
8.0
 21
-0.010574
 31
0.0
  0
LINE
  5
B6E
330
1F
100
AcDbEntity
  8
1
  6
CONTINUOUS
370
50
 62
4
100
AcDbLine
 10
8.0
 20
-0.200111
 30
0.0
 11
8.0
 21
-0.104902
 31
0.0
  0
LINE
  5
B6F
330
1F
100
AcDbEntity
  8
1
  6
CONTINUOUS
370
50
 62
4
100
AcDbLine
 10
8.0
 20
-0.295567
 30
0.0
 11
8.0
 21
-0.200111
 31
0.0
  0
LINE
  5
B70
330
1F
100
AcDbEntity
  8
1
  6
CONTINUOUS
370
50
 62
4
100
AcDbLine
 10
8.0
 20
-0.390937
 30
0.0
 11
8.0
 21
-0.295567
 31
0.0
  0
LINE
  5
B71
330
1F
100
AcDbEntity
  8
1
  6
CONTINUOUS
370
50
 62
4
100
AcDbLine
 10
8.0
 20
-0.485824
 30
0.0
 11
8.0
 21
-0.390937
 31
0.0
  0
LINE
  5
B72
330
1F
100
AcDbEntity
  8
1
  6
CONTINUOUS
370
50
 62
4
100
AcDbLine
 10
8.0
 20
-0.579692
 30
0.0
 11
8.0
 21
-0.485824
 31
0.0
  0
LINE
  5
B73
330
1F
100
AcDbEntity
  8
1
  6
CONTINUOUS
370
50
 62
4
100
AcDbLine
 10
8.0
 20
-0.672218
 30
0.0
 11
8.0
 21
-0.579692
 31
0.0
  0
LINE
  5
B74
330
1F
100
AcDbEntity
  8
1
  6
CONTINUOUS
370
50
 62
4
100
AcDbLine
 10
8.0
 20
-0.8708509999999999
 30
0.0
 11
8.0
 21
-0.6740349999999999
 31
0.0
  0
LINE
  5
B75
330
1F
100
AcDbEntity
  8
1
  6
CONTINUOUS
370
50
 62
4
100
AcDbLine
 10
8.0
 20
-1.070968
 30
0.0
 11
8.0
 21
-0.8708509999999999
 31
0.0
  0
LINE
  5
B76
330
1F
100
AcDbEntity
  8
1
  6
CONTINUOUS
370
50
 62
4
100
AcDbLine
 10
8.0
 20
-1.273953
 30
0.0
 11
8.0
 21
-1.070968
 31
0.0
  0
LINE
  5
B77
330
1F
100
AcDbEntity
  8
1
  6
CONTINUOUS
370
50
 62
4
100
AcDbLine
 10
8.0
 20
-1.479373
 30
0.0
 11
8.0
 21
-1.273953
 31
0.0
  0
LINE
  5
B78
330
1F
100
AcDbEntity
  8
1
  6
CONTINUOUS
370
50
 62
4
100
AcDbLine
 10
8.0
 20
-1.686797
 30
0.0
 11
8.0
 21
-1.479373
 31
0.0
  0
LINE
  5
B79
330
1F
100
AcDbEntity
  8
1
  6
CONTINUOUS
370
50
 62
4
100
AcDbLine
 10
8.0
 20
-1.895791
 30
0.0
 11
8.0
 21
-1.686797
 31
0.0
  0
LINE
  5
B7A
330
1F
100
AcDbEntity
  8
1
  6
CONTINUOUS
370
50
 62
4
100
AcDbLine
 10
8.0
 20
-2.105924
 30
0.0
 11
8.0
 21
-1.895791
 31
0.0
  0
LINE
  5
B7B
330
1F
100
AcDbEntity
  8
1
  6
CONTINUOUS
370
50
 62
4
100
AcDbLine
 10
8.0
 20
-2.316554
 30
0.0
 11
8.0
 21
-2.105924
 31
0.0
  0
LINE
  5
B7C
330
1F
100
AcDbEntity
  8
1
  6
CONTINUOUS
370
50
 62
4
100
AcDbLine
 10
8.0
 20
-2.526475
 30
0.0
 11
8.0
 21
-2.316554
 31
0.0
  0
LINE
  5
B7D
330
1F
100
AcDbEntity
  8
1
  6
CONTINUOUS
370
50
 62
4
100
AcDbLine
 10
8.0
 20
-2.73518
 30
0.0
 11
8.0
 21
-2.526475
 31
0.0
  0
LINE
  5
B7E
330
1F
100
AcDbEntity
  8
1
  6
CONTINUOUS
370
50
 62
4
100
AcDbLine
 10
8.0
 20
-2.942235
 30
0.0
 11
8.0
 21
-2.73518
 31
0.0
  0
LINE
  5
B7F
330
1F
100
AcDbEntity
  8
1
  6
CONTINUOUS
370
50
 62
4
100
AcDbLine
 10
8.0
 20
-3.147205
 30
0.0
 11
8.0
 21
-2.942235
 31
0.0
  0
LINE
  5
B80
330
1F
100
AcDbEntity
  8
1
  6
CONTINUOUS
370
50
 62
4
100
AcDbLine
 10
8.0
 20
-3.349657
 30
0.0
 11
8.0
 21
-3.147205
 31
0.0
  0
LINE
  5
B81
330
1F
100
AcDbEntity
  8
1
  6
CONTINUOUS
370
50
 62
4
100
AcDbLine
 10
8.0
 20
-3.549156
 30
0.0
 11
8.0
 21
-3.349657
 31
0.0
  0
LINE
  5
B82
330
1F
100
AcDbEntity
  8
1
  6
CONTINUOUS
370
50
 62
4
100
AcDbLine
 10
8.0
 20
-3.744979
 30
0.0
 11
8.0
 21
-3.549156
 31
0.0
  0
LINE
  5
B83
330
1F
100
AcDbEntity
  8
1
  6
CONTINUOUS
370
50
 62
4
100
AcDbLine
 10
8.0
 20
-3.936099
 30
0.0
 11
8.0
 21
-3.744979
 31
0.0
  0
LINE
  5
B84
330
1F
100
AcDbEntity
  8
1
  6
CONTINUOUS
370
50
 62
4
100
AcDbLine
 10
8.0
 20
-4.122115
 30
0.0
 11
8.0
 21
-3.936099
 31
0.0
  0
LINE
  5
B85
330
1F
100
AcDbEntity
  8
1
  6
CONTINUOUS
370
50
 62
4
100
AcDbLine
 10
8.0
 20
-4.302651
 30
0.0
 11
8.0
 21
-4.122115
 31
0.0
  0
LINE
  5
B86
330
1F
100
AcDbEntity
  8
1
  6
CONTINUOUS
370
50
 62
4
100
AcDbLine
 10
8.0
 20
-4.477328
 30
0.0
 11
8.0
 21
-4.302651
 31
0.0
  0
LINE
  5
B87
330
1F
100
AcDbEntity
  8
1
  6
CONTINUOUS
370
50
 62
4
100
AcDbLine
 10
29.74
 20
0.206876
 30
0.0
 11
29.74
 21
1.012354
 31
0.0
  0
LINE
  5
B88
330
1F
100
AcDbEntity
  8
1
  6
CONTINUOUS
370
50
 62
4
100
AcDbLine
 10
29.74
 20
-4.995718
 30
0.0
 11
29.74
 21
-4.896440999999999
 31
0.0
  0
LINE
  5
B89
330
1F
100
AcDbEntity
  8
1
  6
CONTINUOUS
370
50
 62
4
100
AcDbLine
 10
29.99
 20
-4.749999
 30
0.0
 11
29.99
 21
4.749999
 31
0.0
  0
ELLIPSE
  5
B8A
330
1F
100
AcDbEntity
  8
1
  6
CONTINUOUS
370
50
 62
4
100
AcDbEllipse
 10
51.577671
 20
-22.549315
 30
0.0
 11
-81.32855605604523
 21
21.67711278972848
 31
0.0
210
0.0
220
0.0
230
0.9999999999999998
 40
0.0895603626935054
 41
5.301556551894783
 42
5.303593492927355
  0
ELLIPSE
  5
B8B
330
1F
100
AcDbEntity
  8
1
  6
CONTINUOUS
370
50
 62
4
100
AcDbEllipse
 10
51.577671
 20
71.93894399999999
 30
0.0
 11
-27.74456863064627
 21
79.4636401289591
 31
0.0
210
0.0
220
0.0
230
0.9999999999999997
 40
0.962382957436343
 41
2.226226904689809
 42
2.228263845680823
  0
ELLIPSE
  5
B8C
330
1F
100
AcDbEntity
  8
1
  6
CONTINUOUS
370
50
 62
4
100
AcDbEllipse
 10
52.512919
 20
-72.265484
 30
0.0
 11
27.90257617620706
 21
79.91619193847767
 31
0.0
210
0.0
220
0.0
230
0.9999999999999998
 40
0.9623829566758736
 41
0.9701331598497259
 42
0.971208875977516
  0
ELLIPSE
  5
B8D
330
1F
100
AcDbEntity
  8
1
  6
CONTINUOUS
370
50
 62
4
100
AcDbEllipse
 10
52.512919
 20
-19.040437
 30
0.0
 11
-81.79172905870317
 21
21.80056577975641
 31
0.0
210
0.0
220
0.0
230
0.9999999999999999
 40
0.0895603504343964
 41
5.31153323040372
 42
5.35943655477611
  0
ELLIPSE
  5
B8E
330
1F
100
AcDbEntity
  8
1
  6
CONTINUOUS
370
50
 62
4
100
AcDbEllipse
 10
52.977806
 20
-17.296265
 30
0.0
 11
-81.41178489368215
 21
21.69929639888503
 31
0.0
210
0.0
220
0.0
230
0.9999999999999998
 40
0.0895603633341741
 41
5.321395048197445
 42
5.345835905429504
  0
ELLIPSE
  5
B8F
330
1F
100
AcDbEntity
  8
1
  6
CONTINUOUS
370
50
 62
4
100
AcDbEllipse
 10
52.977806
 20
72.427798
 30
0.0
 11
-27.77296126609374
 21
79.54495990709391
 31
0.0
210
0.0
220
0.0
230
1.0
 40
0.9623829616395838
 41
2.183984498423956
 42
2.208425355210869
  0
LINE
  5
B90
330
1F
100
AcDbEntity
  8
CUT
  6
CONTINUOUS
370
25
 62
1
100
AcDbLine
 10
7.99
 20
0.0
 30
0.0
 11
29.99
 21
0.0
 31
0.0
  0
LINE
  5
B91
330
1F
100
AcDbEntity
  8
CUT
  6
CONTINUOUS
370
25
 62
1
100
AcDbLine
 10
29.99
 20
0.0
 30
0.0
 11
29.99
 21
4.75
 31
0.0
  0
ARC
  5
B92
330
1F
100
AcDbEntity
  8
CUT
  6
CONTINUOUS
370
25
 62
1
100
AcDbCircle
 10
29.74
 20
4.75
 30
0.0
 40
0.25
100
AcDbArc
 50
0.0
 51
90.0
  0
LINE
  5
B93
330
1F
100
AcDbEntity
  8
CUT
  6
CONTINUOUS
370
25
 62
1
100
AcDbLine
 10
29.74
 20
5.0
 30
0.0
 11
7.99
 21
4.9999
 31
0.0
  0
LINE
  5
B94
330
1F
100
AcDbEntity
  8
CUT
  6
CONTINUOUS
370
25
 62
1
100
AcDbLine
 10
7.99
 20
4.9999
 30
0.0
 11
7.99
 21
4.9949
 31
0.0
  0
LINE
  5
B95
330
1F
100
AcDbEntity
  8
CUT
  6
CONTINUOUS
370
25
 62
1
100
AcDbLine
 10
7.99
 20
4.9949
 30
0.0
 11
7.99
 21
0.0
 31
0.0
  0
LINE
  5
B96
330
1F
100
AcDbEntity
  8
NOCUT
  6
CONTINUOUS
370
25
 62
7
100
AcDbLine
 10
-0.01
 20
0.0
 30
0.0
 11
7.99
 21
0.0
 31
0.0
  0
LINE
  5
B97
330
1F
100
AcDbEntity
  8
NOCUT
  6
CONTINUOUS
370
25
 62
7
100
AcDbLine
 10
7.99
 20
0.0
 30
0.0
 11
7.99
 21
4.99495
 31
0.0
  0
LINE
  5
B98
330
1F
100
AcDbEntity
  8
NOCUT
  6
CONTINUOUS
370
25
 62
7
100
AcDbLine
 10
7.99
 20
4.99495
 30
0.0
 11
7.99
 21
4.99995
 31
0.0
  0
LINE
  5
B99
330
1F
100
AcDbEntity
  8
NOCUT
  6
CONTINUOUS
370
25
 62
7
100
AcDbLine
 10
7.99
 20
4.99995
 30
0.0
 11
-0.01
 21
4.99995
 31
0.0
  0
LINE
  5
B9A
330
1F
100
AcDbEntity
  8
NOCUT
  6
CONTINUOUS
370
25
 62
7
100
AcDbLine
 10
-0.01
 20
4.99995
 30
0.0
 11
-0.01
 21
0.0
 31
0.0
  0
LINE
  5
B9B
330
1F
100
AcDbEntity
  8
SK1
  6
CONTINUOUS
370
50
 62
4
100
AcDbLine
 10
-0.01
 20
5.0
 30
0.0
 11
-41.51
 21
5.0
 31
0.0
  0
LINE
  5
B9C
330
1F
100
AcDbEntity
  8
SK1
  6
CONTINUOUS
370
50
 62
4
100
AcDbLine
 10
-41.51
 20
5.0
 30
0.0
 11
-42.01
 21
4.5
 31
0.0
  0
LINE
  5
B9D
330
1F
100
AcDbEntity
  8
SK1
  6
CONTINUOUS
370
50
 62
4
100
AcDbLine
 10
-42.01
 20
4.5
 30
0.0
 11
-42.01
 21
-4.5
 31
0.0
  0
LINE
  5
B9E
330
1F
100
AcDbEntity
  8
SK1
  6
CONTINUOUS
370
50
 62
4
100
AcDbLine
 10
-42.01
 20
-4.5
 30
0.0
 11
-41.51
 21
-5.0
 31
0.0
  0
LINE
  5
B9F
330
1F
100
AcDbEntity
  8
SK1
  6
CONTINUOUS
370
50
 62
4
100
AcDbLine
 10
-41.51
 20
-5.0
 30
0.0
 11
-0.01
 21
-5.0
 31
0.0
  0
LINE
  5
BA0
330
1F
100
AcDbEntity
  8
SK1
  6
CONTINUOUS
370
50
 62
4
100
AcDbLine
 10
-41.51
 20
5.0
 30
0.0
 11
-41.51
 21
-5.0
 31
0.0
  0
LINE
  5
BA1
330
1F
100
AcDbEntity
  8
SK2
  6
CONTINUOUS
370
25
 62
7
100
AcDbLine
 10
-42.01
 20
-5.0
 30
0.0
 11
-54.01000000000001
 21
-5.0
 31
0.0
  0
LINE
  5
BA2
330
1F
100
AcDbEntity
  8
SK2
  6
CONTINUOUS
370
25
 62
7
100
AcDbLine
 10
-55.01
 20
5.0
 30
0.0
 11
-42.01
 21
5.0
 31
0.0
  0
LINE
  5
BA3
330
1F
100
AcDbEntity
  8
SK2
  6
CONTINUOUS
370
25
 62
7
100
AcDbLine
 10
-54.01
 20
-12.0
 30
0.0
 11
-54.01
 21
21.45
 31
0.0
  0
LINE
  5
BA4
330
1F
100
AcDbEntity
  8
SK2
  6
CONTINUOUS
370
25
 62
7
100
AcDbLine
 10
-54.01
 20
-5.0
 30
0.0
 11
-53.01
 21
-10.0
 31
0.0
  0
LINE
  5
BA5
330
1F
100
AcDbEntity
  8
SK2
  6
CONTINUOUS
370
25
 62
7
100
AcDbLine
 10
-53.01
 20
-10.0
 30
0.0
 11
-55.01
 21
-10.0
 31
0.0
  0
LINE
  5
BA6
330
1F
100
AcDbEntity
  8
SK2
  6
CONTINUOUS
370
25
 62
7
100
AcDbLine
 10
-55.01
 20
-10.0
 30
0.0
 11
-54.01
 21
-5.0
 31
0.0
  0
LINE
  5
BA7
330
1F
100
AcDbEntity
  8
SK2
  6
CONTINUOUS
370
25
 62
7
100
AcDbLine
 10
-53.28493500861664
 20
-10.0
 30
0.0
 11
-53.0558225014361
 21
-9.770887492819469
 31
0.0
  0
LINE
  5
BA8
330
1F
100
AcDbEntity
  8
SK2
  6
CONTINUOUS
370
25
 62
7
100
AcDbLine
 10
-53.70919907732857
 20
-10.0
 30
0.0
 11
-53.12653317955476
 21
-9.417334102226185
 31
0.0
  0
LINE
  5
BA9
330
1F
100
AcDbEntity
  8
SK2
  6
CONTINUOUS
370
25
 62
7
100
AcDbLine
 10
-54.1334631460405
 20
-10.0
 30
0.0
 11
-53.19724385767341
 21
-9.063780711632916
 31
0.0
  0
LINE
  5
BAA
330
1F
100
AcDbEntity
  8
SK2
  6
CONTINUOUS
370
25
 62
7
100
AcDbLine
 10
-54.55772721475243
 20
-10.0
 30
0.0
 11
-53.26795453579207
 21
-8.710227321039639
 31
0.0
  0
LINE
  5
BAB
330
1F
100
AcDbEntity
  8
SK2
  6
CONTINUOUS
370
25
 62
7
100
AcDbLine
 10
-54.98199128346436
 20
-10.0
 30
0.0
 11
-53.33866521391073
 21
-8.35667393044637
 31
0.0
  0
LINE
  5
BAC
330
1F
100
AcDbEntity
  8
SK2
  6
CONTINUOUS
370
25
 62
7
100
AcDbLine
 10
-54.91093616195592
 20
-9.504680809779629
 30
0.0
 11
-53.40937589202938
 21
-8.003120539853086
 31
0.0
  0
LINE
  5
BAD
330
1F
100
AcDbEntity
  8
SK2
  6
CONTINUOUS
370
25
 62
7
100
AcDbLine
 10
-54.80487014477794
 20
-8.974350723889714
 30
0.0
 11
-53.48008657014803
 21
-7.649567149259809
 31
0.0
  0
LINE
  5
BAE
330
1F
100
AcDbEntity
  8
SK2
  6
CONTINUOUS
370
25
 62
7
100
AcDbLine
 10
-54.69880412759996
 20
-8.444020637999799
 30
0.0
 11
-53.5507972482667
 21
-7.29601375866654
 31
0.0
  0
LINE
  5
BAF
330
1F
100
AcDbEntity
  8
SK2
  6
CONTINUOUS
370
25
 62
7
100
AcDbLine
 10
-54.59273811042198
 20
-7.913690552109884
 30
0.0
 11
-53.62150792638535
 21
-6.942460368073256
 31
0.0
  0
LINE
  5
BB0
330
1F
100
AcDbEntity
  8
SK2
  6
CONTINUOUS
370
25
 62
7
100
AcDbLine
 10
-54.486672093244
 20
-7.383360466219969
 30
0.0
 11
-53.69221860450401
 21
-6.588906977479979
 31
0.0
  0
LINE
  5
BB1
330
1F
100
AcDbEntity
  8
SK2
  6
CONTINUOUS
370
25
 62
7
100
AcDbLine
 10
-54.38060607606601
 20
-6.853030380330054
 30
0.0
 11
-53.76292928262266
 21
-6.235353586886703
 31
0.0
  0
LINE
  5
BB2
330
1F
100
AcDbEntity
  8
SK2
  6
CONTINUOUS
370
25
 62
7
100
AcDbLine
 10
-54.27454005888803
 20
-6.322700294440139
 30
0.0
 11
-53.83363996074132
 21
-5.881800196293433
 31
0.0
  0
LINE
  5
BB3
330
1F
100
AcDbEntity
  8
SK2
  6
CONTINUOUS
370
25
 62
7
100
AcDbLine
 10
-54.16847404171004
 20
-5.792370208550224
 30
0.0
 11
-53.90435063885997
 21
-5.528246805700157
 31
0.0
  0
LINE
  5
BB4
330
1F
100
AcDbEntity
  8
SK2
  6
CONTINUOUS
370
25
 62
7
100
AcDbLine
 10
-54.06240802453207
 20
-5.262040122660316
 30
0.0
 11
-53.97506131697862
 21
-5.174693415106866
 31
0.0
  0
LINE
  5
BB5
330
1F
100
AcDbEntity
  8
SK2
  6
CONTINUOUS
370
25
 62
7
100
AcDbLine
 10
-54.97131594548598
 20
-9.806579727429906
 30
0.0
 11
-54.77789567291588
 21
-10.0
 31
0.0
  0
LINE
  5
BB6
330
1F
100
AcDbEntity
  8
SK2
  6
CONTINUOUS
370
25
 62
7
100
AcDbLine
 10
-54.90060526736733
 20
-9.453026336836622
 30
0.0
 11
-54.35363160420395
 21
-10.0
 31
0.0
  0
LINE
  5
BB7
330
1F
100
AcDbEntity
  8
SK2
  6
CONTINUOUS
370
25
 62
7
100
AcDbLine
 10
-54.82989458924867
 20
-9.099472946243345
 30
0.0
 11
-53.92936753549201
 21
-10.0
 31
0.0
  0
LINE
  5
BB8
330
1F
100
AcDbEntity
  8
SK2
  6
CONTINUOUS
370
25
 62
7
100
AcDbLine
 10
-54.75918391113002
 20
-8.745919555650069
 30
0.0
 11
-53.50510346678008
 21
-10.0
 31
0.0
  0
LINE
  5
BB9
330
1F
100
AcDbEntity
  8
SK2
  6
CONTINUOUS
370
25
 62
7
100
AcDbLine
 10
-54.68847323301135
 20
-8.3923661650568
 30
0.0
 11
-53.08083939806815
 21
-10.0
 31
0.0
  0
LINE
  5
BBA
330
1F
100
AcDbEntity
  8
SK2
  6
CONTINUOUS
370
25
 62
7
100
AcDbLine
 10
-54.6177625548927
 20
-8.038812774463523
 30
0.0
 11
-53.09835616766094
 21
-9.558219161695284
 31
0.0
  0
LINE
  5
BBB
330
1F
100
AcDbEntity
  8
SK2
  6
CONTINUOUS
370
25
 62
7
100
AcDbLine
 10
-54.54705187677405
 20
-7.685259383870239
 30
0.0
 11
-53.20442218483893
 21
-9.027889075805362
 31
0.0
  0
LINE
  5
BBC
330
1F
100
AcDbEntity
  8
SK2
  6
CONTINUOUS
370
25
 62
7
100
AcDbLine
 10
-54.47634119865539
 20
-7.331705993276969
 30
0.0
 11
-53.31048820201691
 21
-8.497558989915454
 31
0.0
  0
LINE
  5
BBD
330
1F
100
AcDbEntity
  8
SK2
  6
CONTINUOUS
370
25
 62
7
100
AcDbLine
 10
-54.40563052053674
 20
-6.978152602683693
 30
0.0
 11
-53.41655421919489
 21
-7.967228904025539
 31
0.0
  0
LINE
  5
BBE
330
1F
100
AcDbEntity
  8
SK2
  6
CONTINUOUS
370
25
 62
7
100
AcDbLine
 10
-54.33491984241809
 20
-6.624599212090416
 30
0.0
 11
-53.52262023637287
 21
-7.436898818135631
 31
0.0
  0
LINE
  5
BBF
330
1F
100
AcDbEntity
  8
SK2
  6
CONTINUOUS
370
25
 62
7
100
AcDbLine
 10
-54.26420916429943
 20
-6.27104582149714
 30
0.0
 11
-53.62868625355085
 21
-6.906568732245717
 31
0.0
  0
LINE
  5
BC0
330
1F
100
AcDbEntity
  8
SK2
  6
CONTINUOUS
370
25
 62
7
100
AcDbLine
 10
-54.19349848618078
 20
-5.917492430903856
 30
0.0
 11
-53.73475227072884
 21
-6.376238646355795
 31
0.0
  0
LINE
  5
BC1
330
1F
100
AcDbEntity
  8
SK2
  6
CONTINUOUS
370
25
 62
7
100
AcDbLine
 10
-54.12278780806211
 20
-5.563939040310593
 30
0.0
 11
-53.84081828790682
 21
-5.845908560465887
 31
0.0
  0
LINE
  5
BC2
330
1F
100
AcDbEntity
  8
SK2
  6
CONTINUOUS
370
25
 62
7
100
AcDbLine
 10
-54.05207712994346
 20
-5.21038564971731
 30
0.0
 11
-53.94688430508482
 21
-5.31557847457595
 31
0.0
  0
LINE
  5
BC3
330
1F
100
AcDbEntity
  8
SK2
  6
CONTINUOUS
370
25
 62
7
100
AcDbLine
 10
-54.01
 20
5.0
 30
0.0
 11
-55.01
 21
10.0
 31
0.0
  0
LINE
  5
BC4
330
1F
100
AcDbEntity
  8
SK2
  6
CONTINUOUS
370
25
 62
7
100
AcDbLine
 10
-55.01
 20
10.0
 30
0.0
 11
-53.01
 21
10.0
 31
0.0
  0
LINE
  5
BC5
330
1F
100
AcDbEntity
  8
SK2
  6
CONTINUOUS
370
25
 62
7
100
AcDbLine
 10
-53.01
 20
10.0
 30
0.0
 11
-54.01
 21
5.0
 31
0.0
  0
LINE
  5
BC6
330
1F
100
AcDbEntity
  8
SK2
  6
CONTINUOUS
370
25
 62
7
100
AcDbLine
 10
-54.07616160327832
 20
5.330808016391657
 30
0.0
 11
-53.91075759508251
 21
5.496212024587471
 31
0.0
  0
LINE
  5
BC7
330
1F
100
AcDbEntity
  8
SK2
  6
CONTINUOUS
370
25
 62
7
100
AcDbLine
 10
-54.14687228139698
 20
5.684361406984934
 30
0.0
 11
-53.80469157790453
 21
6.026542110477386
 31
0.0
  0
LINE
  5
BC8
330
1F
100
AcDbEntity
  8
SK2
  6
CONTINUOUS
370
25
 62
7
100
AcDbLine
 10
-54.21758295951563
 20
6.03791479757821
 30
0.0
 11
-53.69862556072654
 21
6.556872196367301
 31
0.0
  0
LINE
  5
BC9
330
1F
100
AcDbEntity
  8
SK2
  6
CONTINUOUS
370
25
 62
7
100
AcDbLine
 10
-54.28829363763429
 20
6.39146818817148
 30
0.0
 11
-53.59255954354855
 21
7.087202282257223
 31
0.0
  0
LINE
  5
BCA
330
1F
100
AcDbEntity
  8
SK2
  6
CONTINUOUS
370
25
 62
7
100
AcDbLine
 10
-54.35900431575295
 20
6.745021578764742
 30
0.0
 11
-53.48649352637057
 21
7.617532368147131
 31
0.0
  0
LINE
  5
BCB
330
1F
100
AcDbEntity
  8
SK2
  6
CONTINUOUS
370
25
 62
7
100
AcDbLine
 10
-54.42971499387161
 20
7.098574969358026
 30
0.0
 11
-53.38042750919258
 21
8.147862454037053
 31
0.0
  0
LINE
  5
BCC
330
1F
100
AcDbEntity
  8
SK2
  6
CONTINUOUS
370
25
 62
7
100
AcDbLine
 10
-54.50042567199026
 20
7.452128359951303
 30
0.0
 11
-53.2743614920146
 21
8.678192539926968
 31
0.0
  0
LINE
  5
BCD
330
1F
100
AcDbEntity
  8
SK2
  6
CONTINUOUS
370
25
 62
7
100
AcDbLine
 10
-54.57113635010892
 20
7.805681750544586
 30
0.0
 11
-53.16829547483662
 21
9.208522625816883
 31
0.0
  0
LINE
  5
BCE
330
1F
100
AcDbEntity
  8
SK2
  6
CONTINUOUS
370
25
 62
7
100
AcDbLine
 10
-54.64184702822757
 20
8.15923514113787
 30
0.0
 11
-53.06222945765864
 21
9.738852711706798
 31
0.0
  0
LINE
  5
BCF
330
1F
100
AcDbEntity
  8
SK2
  6
CONTINUOUS
370
25
 62
7
100
AcDbLine
 10
-54.71255770634622
 20
8.512788531731132
 30
0.0
 11
-53.22534623807736
 21
10.0
 31
0.0
  0
LINE
  5
BD0
330
1F
100
AcDbEntity
  8
SK2
  6
CONTINUOUS
370
25
 62
7
100
AcDbLine
 10
-54.78326838446488
 20
8.866341922324416
 30
0.0
 11
-53.64961030678929
 21
10.0
 31
0.0
  0
LINE
  5
BD1
330
1F
100
AcDbEntity
  8
SK2
  6
CONTINUOUS
370
25
 62
7
100
AcDbLine
 10
-54.85397906258354
 20
9.219895312917686
 30
0.0
 11
-54.07387437550123
 21
10.0
 31
0.0
  0
LINE
  5
BD2
330
1F
100
AcDbEntity
  8
SK2
  6
CONTINUOUS
370
25
 62
7
100
AcDbLine
 10
-54.92468974070219
 20
9.573448703510955
 30
0.0
 11
-54.49813844421315
 21
10.0
 31
0.0
  0
LINE
  5
BD3
330
1F
100
AcDbEntity
  8
SK2
  6
CONTINUOUS
370
25
 62
7
100
AcDbLine
 10
-54.99540041882084
 20
9.927002094104239
 30
0.0
 11
-54.92240251292508
 21
10.0
 31
0.0
  0
LINE
  5
BD4
330
1F
100
AcDbEntity
  8
SK2
  6
CONTINUOUS
370
25
 62
7
100
AcDbLine
 10
-54.06784751489762
 20
5.289237574488119
 30
0.0
 11
-53.97143499006824
 21
5.192825049658737
 31
0.0
  0
LINE
  5
BD5
330
1F
100
AcDbEntity
  8
SK2
  6
CONTINUOUS
370
25
 62
7
100
AcDbLine
 10
-54.17391353207561
 20
5.819567660378041
 30
0.0
 11
-53.90072431194959
 21
5.54637844025202
 31
0.0
  0
LINE
  5
BD6
330
1F
100
AcDbEntity
  8
SK2
  6
CONTINUOUS
370
25
 62
7
100
AcDbLine
 10
-54.27997954925359
 20
6.349897746267956
 30
0.0
 11
-53.83001363383094
 21
5.899931830845304
 31
0.0
  0
LINE
  5
BD7
330
1F
100
AcDbEntity
  8
SK2
  6
CONTINUOUS
370
25
 62
7
100
AcDbLine
 10
-54.38604556643157
 20
6.880227832157871
 30
0.0
 11
-53.75930295571228
 21
6.253485221438581
 31
0.0
  0
LINE
  5
BD8
330
1F
100
AcDbEntity
  8
SK2
  6
CONTINUOUS
370
25
 62
7
100
AcDbLine
 10
-54.49211158360956
 20
7.410557918047786
 30
0.0
 11
-53.68859227759363
 21
6.607038612031864
 31
0.0
  0
LINE
  5
BD9
330
1F
100
AcDbEntity
  8
SK2
  6
CONTINUOUS
370
25
 62
7
100
AcDbLine
 10
-54.59817760078754
 20
7.940888003937694
 30
0.0
 11
-53.61788159947496
 21
6.960592002625127
 31
0.0
  0
LINE
  5
BDA
330
1F
100
AcDbEntity
  8
SK2
  6
CONTINUOUS
370
25
 62
7
100
AcDbLine
 10
-54.70424361796552
 20
8.471218089827609
 30
0.0
 11
-53.54717092135631
 21
7.314145393218404
 31
0.0
  0
LINE
  5
BDB
330
1F
100
AcDbEntity
  8
SK2
  6
CONTINUOUS
370
25
 62
7
100
AcDbLine
 10
-54.8103096351435
 20
9.001548175717524
 30
0.0
 11
-53.47646024323766
 21
7.667698783811687
 31
0.0
  0
LINE
  5
BDC
330
1F
100
AcDbEntity
  8
SK2
  6
CONTINUOUS
370
25
 62
7
100
AcDbLine
 10
-54.91637565232148
 20
9.531878261607446
 30
0.0
 11
-53.405749565119
 21
8.021252174404964
 31
0.0
  0
LINE
  5
BDD
330
1F
100
AcDbEntity
  8
SK2
  6
CONTINUOUS
370
25
 62
7
100
AcDbLine
 10
-54.96023332200211
 20
10.0
 30
0.0
 11
-53.33503888700035
 21
8.37480556499824
 31
0.0
  0
LINE
  5
BDE
330
1F
100
AcDbEntity
  8
SK2
  6
CONTINUOUS
370
25
 62
7
100
AcDbLine
 10
-54.53596925329018
 20
10.0
 30
0.0
 11
-53.2643282088817
 21
8.728358955591517
 31
0.0
  0
LINE
  5
BDF
330
1F
100
AcDbEntity
  8
SK2
  6
CONTINUOUS
370
25
 62
7
100
AcDbLine
 10
-54.11170518457825
 20
10.0
 30
0.0
 11
-53.19361753076304
 21
9.081912346184794
 31
0.0
  0
LINE
  5
BE0
330
1F
100
AcDbEntity
  8
SK2
  6
CONTINUOUS
370
25
 62
7
100
AcDbLine
 10
-53.68744111586631
 20
10.0
 30
0.0
 11
-53.12290685264439
 21
9.435465736778077
 31
0.0
  0
LINE
  5
BE1
330
1F
100
AcDbEntity
  8
SK2
  6
CONTINUOUS
370
25
 62
7
100
AcDbLine
 10
-53.26317704715439
 20
10.0
 30
0.0
 11
-53.05219617452573
 21
9.789019127371333
 31
0.0
  0
TEXT
  5
BE2
330
1F
100
AcDbEntity
  8
SK2
  6
CONTINUOUS
370
25
 62
7
100
AcDbText
 10
-55.51
 20
15.95833333333333
 30
0.0
 40
3.5
  1
10
 50
90.00000000000001
 72
     1
 11
-55.51
 21
18.0
 31
0.0
100
AcDbText
  0
CIRCLE
  5
BE3
330
1F
100
AcDbEntity
  8
SK2
  6
CONTINUOUS
370
25
 62
7
100
AcDbCircle
 10
-57.26
 20
13.1
 30
0.0
 40
1.4
  0
LINE
  5
BE4
330
1F
100
AcDbEntity
  8
SK2
  6
CONTINUOUS
370
25
 62
7
100
AcDbLine
 10
-55.86
 20
11.7
 30
0.0
 11
-58.66
 21
14.5
 31
0.0
  0
LINE
  5
BE5
330
1F
100
AcDbEntity
  8
SK2
  6
CONTINUOUS
370
25
 62
7
100
AcDbLine
 10
-42.01
 20
5.0
 30
0.0
 11
-42.01
 21
18.0
 31
0.0
  0
LINE
  5
BE6
330
1F
100
AcDbEntity
  8
SK2
  6
CONTINUOUS
370
25
 62
7
100
AcDbLine
 10
-0.0099999999999999
 20
18.0
 30
0.0
 11
-0.0100000000000007
 21
5.0
 31
0.0
  0
LINE
  5
BE7
330
1F
100
AcDbEntity
  8
SK2
  6
CONTINUOUS
370
25
 62
7
100
AcDbLine
 10
-42.01
 20
17.0
 30
0.0
 11
-0.01
 21
17.0
 31
0.0
  0
LINE
  5
BE8
330
1F
100
AcDbEntity
  8
SK2
  6
CONTINUOUS
370
25
 62
7
100
AcDbLine
 10
-42.01
 20
17.0
 30
0.0
 11
-37.01
 21
18.0
 31
0.0
  0
LINE
  5
BE9
330
1F
100
AcDbEntity
  8
SK2
  6
CONTINUOUS
370
25
 62
7
100
AcDbLine
 10
-37.01
 20
18.0
 30
0.0
 11
-37.01
 21
16.0
 31
0.0
  0
LINE
  5
BEA
330
1F
100
AcDbEntity
  8
SK2
  6
CONTINUOUS
370
25
 62
7
100
AcDbLine
 10
-37.01
 20
16.0
 30
0.0
 11
-42.01
 21
17.0
 31
0.0
  0
LINE
  5
BEB
330
1F
100
AcDbEntity
  8
SK2
  6
CONTINUOUS
370
25
 62
7
100
AcDbLine
 10
-37.03750715749253
 20
16.00550143149851
 30
0.0
 11
-37.01
 21
16.03300858899104
 31
0.0
  0
LINE
  5
BEC
330
1F
100
AcDbEntity
  8
SK2
  6
CONTINUOUS
370
25
 62
7
100
AcDbLine
 10
-37.39106054808581
 20
16.07621210961716
 30
0.0
 11
-37.01
 21
16.45727265770297
 31
0.0
  0
LINE
  5
BED
330
1F
100
AcDbEntity
  8
SK2
  6
CONTINUOUS
370
25
 62
7
100
AcDbLine
 10
-37.74461393867909
 20
16.14692278773582
 30
0.0
 11
-37.01
 21
16.88153672641491
 31
0.0
  0
LINE
  5
BEE
330
1F
100
AcDbEntity
  8
SK2
  6
CONTINUOUS
370
25
 62
7
100
AcDbLine
 10
-38.09816732927236
 20
16.21763346585447
 30
0.0
 11
-37.01
 21
17.30580079512684
 31
0.0
  0
LINE
  5
BEF
330
1F
100
AcDbEntity
  8
SK2
  6
CONTINUOUS
370
25
 62
7
100
AcDbLine
 10
-38.45172071986564
 20
16.28834414397313
 30
0.0
 11
-37.01
 21
17.73006486383877
 31
0.0
  0
LINE
  5
BF0
330
1F
100
AcDbEntity
  8
SK2
  6
CONTINUOUS
370
25
 62
7
100
AcDbLine
 10
-38.80527411045892
 20
16.35905482209178
 30
0.0
 11
-37.20291116568837
 21
17.96141776686233
 31
0.0
  0
LINE
  5
BF1
330
1F
100
AcDbEntity
  8
SK2
  6
CONTINUOUS
370
25
 62
7
100
AcDbLine
 10
-39.15882750105219
 20
16.42976550021044
 30
0.0
 11
-37.73324125157829
 21
17.85535174968434
 31
0.0
  0
LINE
  5
BF2
330
1F
100
AcDbEntity
  8
SK2
  6
CONTINUOUS
370
25
 62
7
100
AcDbLine
 10
-39.51238089164546
 20
16.50047617832909
 30
0.0
 11
-38.2635713374682
 21
17.74928573250636
 31
0.0
  0
LINE
  5
BF3
330
1F
100
AcDbEntity
  8
SK2
  6
CONTINUOUS
370
25
 62
7
100
AcDbLine
 10
-39.86593428223875
 20
16.57118685644775
 30
0.0
 11
-38.79390142335811
 21
17.64321971532838
 31
0.0
  0
LINE
  5
BF4
330
1F
100
AcDbEntity
  8
SK2
  6
CONTINUOUS
370
25
 62
7
100
AcDbLine
 10
-40.21948767283202
 20
16.6418975345664
 30
0.0
 11
-39.32423150924803
 21
17.53715369815039
 31
0.0
  0
LINE
  5
BF5
330
1F
100
AcDbEntity
  8
SK2
  6
CONTINUOUS
370
25
 62
7
100
AcDbLine
 10
-40.5730410634253
 20
16.71260821268505
 30
0.0
 11
-39.85456159513794
 21
17.43108768097241
 31
0.0
  0
LINE
  5
BF6
330
1F
100
AcDbEntity
  8
SK2
  6
CONTINUOUS
370
25
 62
7
100
AcDbLine
 10
-40.92659445401857
 20
16.78331889080371
 30
0.0
 11
-40.38489168102786
 21
17.32502166379442
 31
0.0
  0
LINE
  5
BF7
330
1F
100
AcDbEntity
  8
SK2
  6
CONTINUOUS
370
25
 62
7
100
AcDbLine
 10
-41.28014784461185
 20
16.85402956892237
 30
0.0
 11
-40.91522176691777
 21
17.21895564661644
 31
0.0
  0
LINE
  5
BF8
330
1F
100
AcDbEntity
  8
SK2
  6
CONTINUOUS
370
25
 62
7
100
AcDbLine
 10
-41.63370123520512
 20
16.92474024704102
 30
0.0
 11
-41.44555185280768
 21
17.11288962943846
 31
0.0
  0
LINE
  5
BF9
330
1F
100
AcDbEntity
  8
SK2
  6
CONTINUOUS
370
25
 62
7
100
AcDbLine
 10
-41.9872546257984
 20
16.99545092515968
 30
0.0
 11
-41.9758819386976
 21
17.00682361226048
 31
0.0
  0
LINE
  5
BFA
330
1F
100
AcDbEntity
  8
SK2
  6
CONTINUOUS
370
25
 62
7
100
AcDbLine
 10
-41.96971821415782
 20
17.00805635716844
 30
0.0
 11
-41.94957732123672
 21
16.98791546424734
 31
0.0
  0
LINE
  5
BFB
330
1F
100
AcDbEntity
  8
SK2
  6
CONTINUOUS
370
25
 62
7
100
AcDbLine
 10
-41.61616482356454
 20
17.07876703528709
 30
0.0
 11
-41.41924723534681
 21
16.88184944706936
 31
0.0
  0
LINE
  5
BFC
330
1F
100
AcDbEntity
  8
SK2
  6
CONTINUOUS
370
25
 62
7
100
AcDbLine
 10
-41.26261143297126
 20
17.14947771340575
 30
0.0
 11
-40.88891714945689
 21
16.77578342989138
 31
0.0
  0
LINE
  5
BFD
330
1F
100
AcDbEntity
  8
SK2
  6
CONTINUOUS
370
25
 62
7
100
AcDbLine
 10
-40.90905804237799
 20
17.2201883915244
 30
0.0
 11
-40.35858706356698
 21
16.6697174127134
 31
0.0
  0
LINE
  5
BFE
330
1F
100
AcDbEntity
  8
SK2
  6
CONTINUOUS
370
25
 62
7
100
AcDbLine
 10
-40.55550465178472
 20
17.29089906964306
 30
0.0
 11
-39.82825697767706
 21
16.56365139553541
 31
0.0
  0
LINE
  5
BFF
330
1F
100
AcDbEntity
  8
SK2
  6
CONTINUOUS
370
25
 62
7
100
AcDbLine
 10
-40.20195126119143
 20
17.36160974776171
 30
0.0
 11
-39.29792689178715
 21
16.45758537835743
 31
0.0
  0
LINE
  5
C00
330
1F
100
AcDbEntity
  8
SK2
  6
CONTINUOUS
370
25
 62
7
100
AcDbLine
 10
-39.84839787059816
 20
17.43232042588037
 30
0.0
 11
-38.76759680589723
 21
16.35151936117945
 31
0.0
  0
LINE
  5
C01
330
1F
100
AcDbEntity
  8
SK2
  6
CONTINUOUS
370
25
 62
7
100
AcDbLine
 10
-39.49484448000489
 20
17.50303110399903
 30
0.0
 11
-38.23726672000732
 21
16.24545334400146
 31
0.0
  0
LINE
  5
C02
330
1F
100
AcDbEntity
  8
SK2
  6
CONTINUOUS
370
25
 62
7
100
AcDbLine
 10
-39.14129108941161
 20
17.57374178211768
 30
0.0
 11
-37.7069366341174
 21
16.13938732682348
 31
0.0
  0
LINE
  5
C03
330
1F
100
AcDbEntity
  8
SK2
  6
CONTINUOUS
370
25
 62
7
100
AcDbLine
 10
-38.78773769881833
 20
17.64445246023634
 30
0.0
 11
-37.17660654822749
 21
16.03332130964549
 31
0.0
  0
LINE
  5
C04
330
1F
100
AcDbEntity
  8
SK2
  6
CONTINUOUS
370
25
 62
7
100
AcDbLine
 10
-38.43418430822505
 20
17.71516313835498
 30
0.0
 11
-37.01
 21
16.29097883012993
 31
0.0
  0
LINE
  5
C05
330
1F
100
AcDbEntity
  8
SK2
  6
CONTINUOUS
370
25
 62
7
100
AcDbLine
 10
-38.08063091763178
 20
17.78587381647365
 30
0.0
 11
-37.01
 21
16.71524289884186
 31
0.0
  0
LINE
  5
C06
330
1F
100
AcDbEntity
  8
SK2
  6
CONTINUOUS
370
25
 62
7
100
AcDbLine
 10
-37.7270775270385
 20
17.8565844945923
 30
0.0
 11
-37.01
 21
17.1395069675538
 31
0.0
  0
LINE
  5
C07
330
1F
100
AcDbEntity
  8
SK2
  6
CONTINUOUS
370
25
 62
7
100
AcDbLine
 10
-37.37352413644523
 20
17.92729517271096
 30
0.0
 11
-37.01
 21
17.56377103626573
 31
0.0
  0
LINE
  5
C08
330
1F
100
AcDbEntity
  8
SK2
  6
CONTINUOUS
370
25
 62
7
100
AcDbLine
 10
-37.01997074585194
 20
17.9980058508296
 30
0.0
 11
-37.01
 21
17.98803510497766
 31
0.0
  0
LINE
  5
C09
330
1F
100
AcDbEntity
  8
SK2
  6
CONTINUOUS
370
25
 62
7
100
AcDbLine
 10
-0.01
 20
17.0
 30
0.0
 11
-5.01
 21
16.0
 31
0.0
  0
LINE
  5
C0A
330
1F
100
AcDbEntity
  8
SK2
  6
CONTINUOUS
370
25
 62
7
100
AcDbLine
 10
-5.01
 20
16.0
 30
0.0
 11
-5.01
 21
18.0
 31
0.0
  0
LINE
  5
C0B
330
1F
100
AcDbEntity
  8
SK2
  6
CONTINUOUS
370
25
 62
7
100
AcDbLine
 10
-5.01
 20
18.0
 30
0.0
 11
-0.01
 21
17.0
 31
0.0
  0
LINE
  5
C0C
330
1F
100
AcDbEntity
  8
SK2
  6
CONTINUOUS
370
25
 62
7
100
AcDbLine
 10
-0.5035335214863332
 20
16.90129329570273
 30
0.0
 11
-0.3390223476575555
 21
17.06580446953151
 31
0.0
  0
LINE
  5
C0D
330
1F
100
AcDbEntity
  8
SK2
  6
CONTINUOUS
370
25
 62
7
100
AcDbLine
 10
-1.033863607376242
 20
16.79522727852475
 30
0.0
 11
-0.6925757382508285
 21
17.13651514765017
 31
0.0
  0
LINE
  5
C0E
330
1F
100
AcDbEntity
  8
SK2
  6
CONTINUOUS
370
25
 62
7
100
AcDbLine
 10
-1.564193693266152
 20
16.68916126134677
 30
0.0
 11
-1.046129128844101
 21
17.20722582576882
 31
0.0
  0
LINE
  5
C0F
330
1F
100
AcDbEntity
  8
SK2
  6
CONTINUOUS
370
25
 62
7
100
AcDbLine
 10
-2.094523779156061
 20
16.58309524416879
 30
0.0
 11
-1.399682519437374
 21
17.27793650388747
 31
0.0
  0
LINE
  5
C10
330
1F
100
AcDbEntity
  8
SK2
  6
CONTINUOUS
370
25
 62
7
100
AcDbLine
 10
-2.62485386504597
 20
16.4770292269908
 30
0.0
 11
-1.753235910030647
 21
17.34864718200613
 31
0.0
  0
LINE
  5
C11
330
1F
100
AcDbEntity
  8
SK2
  6
CONTINUOUS
370
25
 62
7
100
AcDbLine
 10
-3.155183950935883
 20
16.37096320981282
 30
0.0
 11
-2.106789300623923
 21
17.41935786012478
 31
0.0
  0
LINE
  5
C12
330
1F
100
AcDbEntity
  8
SK2
  6
CONTINUOUS
370
25
 62
7
100
AcDbLine
 10
-3.685514036825792
 20
16.26489719263484
 30
0.0
 11
-2.460342691217195
 21
17.49006853824344
 31
0.0
  0
LINE
  5
C13
330
1F
100
AcDbEntity
  8
SK2
  6
CONTINUOUS
370
25
 62
7
100
AcDbLine
 10
-4.215844122715701
 20
16.15883117545686
 30
0.0
 11
-2.813896081810468
 21
17.56077921636209
 31
0.0
  0
LINE
  5
C14
330
1F
100
AcDbEntity
  8
SK2
  6
CONTINUOUS
370
25
 62
7
100
AcDbLine
 10
-4.74617420860561
 20
16.05276515827888
 30
0.0
 11
-3.167449472403741
 21
17.63148989448075
 31
0.0
  0
LINE
  5
C15
330
1F
100
AcDbEntity
  8
SK2
  6
CONTINUOUS
370
25
 62
7
100
AcDbLine
 10
-5.01
 20
16.21320343559642
 30
0.0
 11
-3.521002862997014
 21
17.7022005725994
 31
0.0
  0
LINE
  5
C16
330
1F
100
AcDbEntity
  8
SK2
  6
CONTINUOUS
370
25
 62
7
100
AcDbLine
 10
-5.01
 20
16.63746750430834
 30
0.0
 11
-3.874556253590287
 21
17.77291125071806
 31
0.0
  0
LINE
  5
C17
330
1F
100
AcDbEntity
  8
SK2
  6
CONTINUOUS
370
25
 62
7
100
AcDbLine
 10
-5.01
 20
17.06173157302027
 30
0.0
 11
-4.22810964418356
 21
17.84362192883671
 31
0.0
  0
LINE
  5
C18
330
1F
100
AcDbEntity
  8
SK2
  6
CONTINUOUS
370
25
 62
7
100
AcDbLine
 10
-5.01
 20
17.4859956417322
 30
0.0
 11
-4.581663034776833
 21
17.91433260695537
 31
0.0
  0
LINE
  5
C19
330
1F
100
AcDbEntity
  8
SK2
  6
CONTINUOUS
370
25
 62
7
100
AcDbLine
 10
-5.01
 20
17.91025971044413
 30
0.0
 11
-4.935216425370105
 21
17.98504328507402
 31
0.0
  0
LINE
  5
C1A
330
1F
100
AcDbEntity
  8
SK2
  6
CONTINUOUS
370
25
 62
7
100
AcDbLine
 10
-5.01
 20
16.03086578651011
 30
0.0
 11
-4.984278511241572
 21
16.00514429775168
 31
0.0
  0
LINE
  5
C1B
330
1F
100
AcDbEntity
  8
SK2
  6
CONTINUOUS
370
25
 62
7
100
AcDbLine
 10
-5.01
 20
16.45512985522204
 30
0.0
 11
-4.630725120648299
 21
16.07585497587034
 31
0.0
  0
LINE
  5
C1C
330
1F
100
AcDbEntity
  8
SK2
  6
CONTINUOUS
370
25
 62
7
100
AcDbLine
 10
-5.01
 20
16.87939392393397
 30
0.0
 11
-4.277171730055025
 21
16.14656565398899
 31
0.0
  0
LINE
  5
C1D
330
1F
100
AcDbEntity
  8
SK2
  6
CONTINUOUS
370
25
 62
7
100
AcDbLine
 10
-5.01
 20
17.3036579926459
 30
0.0
 11
-3.923618339461752
 21
16.21727633210765
 31
0.0
  0
LINE
  5
C1E
330
1F
100
AcDbEntity
  8
SK2
  6
CONTINUOUS
370
25
 62
7
100
AcDbLine
 10
-5.01
 20
17.72792206135782
 30
0.0
 11
-3.570064948868479
 21
16.2879870102263
 31
0.0
  0
LINE
  5
C1F
330
1F
100
AcDbEntity
  8
SK2
  6
CONTINUOUS
370
25
 62
7
100
AcDbLine
 10
-4.81976733741281
 20
17.96195346748256
 30
0.0
 11
-3.216511558275205
 21
16.35869768834496
 31
0.0
  0
LINE
  5
C20
330
1F
100
AcDbEntity
  8
SK2
  6
CONTINUOUS
370
25
 62
7
100
AcDbLine
 10
-4.2894372515229
 20
17.85588745030458
 30
0.0
 11
-2.862958167681932
 21
16.42940836646361
 31
0.0
  0
LINE
  5
C21
330
1F
100
AcDbEntity
  8
SK2
  6
CONTINUOUS
370
25
 62
7
100
AcDbLine
 10
-3.759107165632989
 20
17.7498214331266
 30
0.0
 11
-2.509404777088658
 21
16.50011904458227
 31
0.0
  0
LINE
  5
C22
330
1F
100
AcDbEntity
  8
SK2
  6
CONTINUOUS
370
25
 62
7
100
AcDbLine
 10
-3.228777079743079
 20
17.64375541594861
 30
0.0
 11
-2.155851386495385
 21
16.57082972270092
 31
0.0
  0
LINE
  5
C23
330
1F
100
AcDbEntity
  8
SK2
  6
CONTINUOUS
370
25
 62
7
100
AcDbLine
 10
-2.698446993853169
 20
17.53768939877063
 30
0.0
 11
-1.802297995902112
 21
16.64154040081958
 31
0.0
  0
LINE
  5
C24
330
1F
100
AcDbEntity
  8
SK2
  6
CONTINUOUS
370
25
 62
7
100
AcDbLine
 10
-2.168116907963258
 20
17.43162338159265
 30
0.0
 11
-1.448744605308838
 21
16.71225107893823
 31
0.0
  0
LINE
  5
C25
330
1F
100
AcDbEntity
  8
SK2
  6
CONTINUOUS
370
25
 62
7
100
AcDbLine
 10
-1.637786822073348
 20
17.32555736441467
 30
0.0
 11
-1.095191214715565
 21
16.78296175705689
 31
0.0
  0
LINE
  5
C26
330
1F
100
AcDbEntity
  8
SK2
  6
CONTINUOUS
370
25
 62
7
100
AcDbLine
 10
-1.107456736183438
 20
17.21949134723669
 30
0.0
 11
-0.7416378241222913
 21
16.85367243517554
 31
0.0
  0
LINE
  5
C27
330
1F
100
AcDbEntity
  8
SK2
  6
CONTINUOUS
370
25
 62
7
100
AcDbLine
 10
-0.5771266502935269
 20
17.11342533005871
 30
0.0
 11
-0.3880844335290177
 21
16.9243831132942
 31
0.0
  0
LINE
  5
C28
330
1F
100
AcDbEntity
  8
SK2
  6
CONTINUOUS
370
25
 62
7
100
AcDbLine
 10
-0.0467965644036162
 20
17.00735931288072
 30
0.0
 11
-0.0345310429357441
 21
16.99509379141285
 31
0.0
  0
TEXT
  5
C29
330
1F
100
AcDbEntity
  8
SK2
  6
CONTINUOUS
370
25
 62
7
100
AcDbText
 10
-23.92666666666667
 20
18.5
 30
0.0
 40
3.5
  1
42
 72
     1
 11
-21.01
 21
18.5
 31
0.0
100
AcDbText
  0
LINE
  5
C2A
330
1F
100
AcDbEntity
  8
2
  6
CONTINUOUS
370
25
 62
7
100
AcDbLine
 10
29.74
 20
-5.0
 30
0.0
 11
42.99
 21
-5.000000000000002
 31
0.0
  0
LINE
  5
C2B
330
1F
100
AcDbEntity
  8
2
  6
CONTINUOUS
370
25
 62
7
100
AcDbLine
 10
42.99
 20
4.999999999999998
 30
0.0
 11
29.74
 21
5.0
 31
0.0
  0
LINE
  5
C2C
330
1F
100
AcDbEntity
  8
2
  6
CONTINUOUS
370
25
 62
7
100
AcDbLine
 10
41.99
 20
-12.0
 30
0.0
 11
41.99
 21
21.45
 31
0.0
  0
LINE
  5
C2D
330
1F
100
AcDbEntity
  8
2
  6
CONTINUOUS
370
25
 62
7
100
AcDbLine
 10
41.99
 20
-5.000000000000002
 30
0.0
 11
42.99
 21
-10.0
 31
0.0
  0
LINE
  5
C2E
330
1F
100
AcDbEntity
  8
2
  6
CONTINUOUS
370
25
 62
7
100
AcDbLine
 10
42.99
 20
-10.0
 30
0.0
 11
40.99
 21
-10.0
 31
0.0
  0
LINE
  5
C2F
330
1F
100
AcDbEntity
  8
2
  6
CONTINUOUS
370
25
 62
7
100
AcDbLine
 10
40.99
 20
-10.0
 30
0.0
 11
41.99
 21
-5.000000000000002
 31
0.0
  0
LINE
  5
C30
330
1F
100
AcDbEntity
  8
2
  6
CONTINUOUS
370
25
 62
7
100
AcDbLine
 10
42.63728959684987
 20
-10.0
 30
0.0
 11
42.93121493280832
 21
-9.706074664041552
 31
0.0
  0
LINE
  5
C31
330
1F
100
AcDbEntity
  8
2
  6
CONTINUOUS
370
25
 62
7
100
AcDbLine
 10
42.21302552813793
 20
-10.0
 30
0.0
 11
42.86050425468966
 21
-9.352521273448275
 31
0.0
  0
LINE
  5
C32
330
1F
100
AcDbEntity
  8
2
  6
CONTINUOUS
370
25
 62
7
100
AcDbLine
 10
41.78876145942601
 20
-10.0
 30
0.0
 11
42.78979357657101
 21
-8.998967882854998
 31
0.0
  0
LINE
  5
C33
330
1F
100
AcDbEntity
  8
2
  6
CONTINUOUS
370
25
 62
7
100
AcDbLine
 10
41.36449739071407
 20
-10.0
 30
0.0
 11
42.71908289845234
 21
-8.645414492261729
 31
0.0
  0
LINE
  5
C34
330
1F
100
AcDbEntity
  8
2
  6
CONTINUOUS
370
25
 62
7
100
AcDbLine
 10
41.00244166949947
 20
-9.937791652502675
 30
0.0
 11
42.64837222033369
 21
-8.291861101668452
 31
0.0
  0
LINE
  5
C35
330
1F
100
AcDbEntity
  8
2
  6
CONTINUOUS
370
25
 62
7
100
AcDbLine
 10
41.10850768667745
 20
-9.40746156661276
 30
0.0
 11
42.57766154221504
 21
-7.938307711075169
 31
0.0
  0
LINE
  5
C36
330
1F
100
AcDbEntity
  8
2
  6
CONTINUOUS
370
25
 62
7
100
AcDbLine
 10
41.21457370385543
 20
-8.877131480722852
 30
0.0
 11
42.50695086409638
 21
-7.584754320481899
 31
0.0
  0
LINE
  5
C37
330
1F
100
AcDbEntity
  8
2
  6
CONTINUOUS
370
25
 62
7
100
AcDbLine
 10
41.32063972103342
 20
-8.34680139483293
 30
0.0
 11
42.43624018597772
 21
-7.231200929888622
 31
0.0
  0
LINE
  5
C38
330
1F
100
AcDbEntity
  8
2
  6
CONTINUOUS
370
25
 62
7
100
AcDbLine
 10
41.4267057382114
 20
-7.816471308943008
 30
0.0
 11
42.36552950785907
 21
-6.877647539295339
 31
0.0
  0
LINE
  5
C39
330
1F
100
AcDbEntity
  8
2
  6
CONTINUOUS
370
25
 62
7
100
AcDbLine
 10
41.53277175538938
 20
-7.286141223053093
 30
0.0
 11
42.29481882974042
 21
-6.524094148702055
 31
0.0
  0
LINE
  5
C3A
330
1F
100
AcDbEntity
  8
2
  6
CONTINUOUS
370
25
 62
7
100
AcDbLine
 10
41.63883777256737
 20
-6.755811137163178
 30
0.0
 11
42.22410815162176
 21
-6.170540758108785
 31
0.0
  0
LINE
  5
C3B
330
1F
100
AcDbEntity
  8
2
  6
CONTINUOUS
370
25
 62
7
100
AcDbLine
 10
41.74490378974535
 20
-6.225481051273263
 30
0.0
 11
42.15339747350311
 21
-5.816987367515509
 31
0.0
  0
LINE
  5
C3C
330
1F
100
AcDbEntity
  8
2
  6
CONTINUOUS
370
25
 62
7
100
AcDbLine
 10
41.85096980692333
 20
-5.695150965383355
 30
0.0
 11
42.08268679538445
 21
-5.463433976922232
 31
0.0
  0
LINE
  5
C3D
330
1F
100
AcDbEntity
  8
2
  6
CONTINUOUS
370
25
 62
7
100
AcDbLine
 10
41.95703582410131
 20
-5.16482087949344
 30
0.0
 11
42.0119761172658
 21
-5.109880586328956
 31
0.0
  0
LINE
  5
C3E
330
1F
100
AcDbEntity
  8
2
  6
CONTINUOUS
370
25
 62
7
100
AcDbLine
 10
41.05592351411379
 20
-9.670382429431072
 30
0.0
 11
41.38554108468273
 21
-10.0
 31
0.0
  0
LINE
  5
C3F
330
1F
100
AcDbEntity
  8
2
  6
CONTINUOUS
370
25
 62
7
100
AcDbLine
 10
41.12663419223244
 20
-9.316829038837792
 30
0.0
 11
41.80980515339466
 21
-10.0
 31
0.0
  0
LINE
  5
C40
330
1F
100
AcDbEntity
  8
2
  6
CONTINUOUS
370
25
 62
7
100
AcDbLine
 10
41.1973448703511
 20
-8.963275648244519
 30
0.0
 11
42.23406922210658
 21
-10.0
 31
0.0
  0
LINE
  5
C41
330
1F
100
AcDbEntity
  8
2
  6
CONTINUOUS
370
25
 62
7
100
AcDbLine
 10
41.26805554846976
 20
-8.609722257651242
 30
0.0
 11
42.65833329081852
 21
-10.0
 31
0.0
  0
LINE
  5
C42
330
1F
100
AcDbEntity
  8
2
  6
CONTINUOUS
370
25
 62
7
100
AcDbLine
 10
41.3387662265884
 20
-8.256168867057958
 30
0.0
 11
42.96685066011739
 21
-9.884253300586948
 31
0.0
  0
LINE
  5
C43
330
1F
100
AcDbEntity
  8
2
  6
CONTINUOUS
370
25
 62
7
100
AcDbLine
 10
41.40947690470706
 20
-7.902615476464682
 30
0.0
 11
42.86078464293941
 21
-9.353923214697033
 31
0.0
  0
LINE
  5
C44
330
1F
100
AcDbEntity
  8
2
  6
CONTINUOUS
370
25
 62
7
100
AcDbLine
 10
41.48018758282572
 20
-7.549062085871405
 30
0.0
 11
42.75471862576143
 21
-8.823593128807111
 31
0.0
  0
LINE
  5
C45
330
1F
100
AcDbEntity
  8
2
  6
CONTINUOUS
370
25
 62
7
100
AcDbLine
 10
41.55089826094437
 20
-7.195508695278129
 30
0.0
 11
42.64865260858345
 21
-8.293263042917204
 31
0.0
  0
LINE
  5
C46
330
1F
100
AcDbEntity
  8
2
  6
CONTINUOUS
370
25
 62
7
100
AcDbLine
 10
41.62160893906303
 20
-6.841955304684852
 30
0.0
 11
42.54258659140546
 21
-7.762932957027282
 31
0.0
  0
LINE
  5
C47
330
1F
100
AcDbEntity
  8
2
  6
CONTINUOUS
370
25
 62
7
100
AcDbLine
 10
41.69231961718168
 20
-6.488401914091575
 30
0.0
 11
42.43652057422748
 21
-7.232602871137374
 31
0.0
  0
LINE
  5
C48
330
1F
100
AcDbEntity
  8
2
  6
CONTINUOUS
370
25
 62
7
100
AcDbLine
 10
41.76303029530034
 20
-6.134848523498299
 30
0.0
 11
42.33045455704949
 21
-6.702272785247452
 31
0.0
  0
LINE
  5
C49
330
1F
100
AcDbEntity
  8
2
  6
CONTINUOUS
370
25
 62
7
100
AcDbLine
 10
41.833740973419
 20
-5.781295132905029
 30
0.0
 11
42.22438853987151
 21
-6.171942699357544
 31
0.0
  0
LINE
  5
C4A
330
1F
100
AcDbEntity
  8
2
  6
CONTINUOUS
370
25
 62
7
100
AcDbLine
 10
41.90445165153766
 20
-5.427741742311753
 30
0.0
 11
42.11832252269352
 21
-5.641612613467622
 31
0.0
  0
LINE
  5
C4B
330
1F
100
AcDbEntity
  8
2
  6
CONTINUOUS
370
25
 62
7
100
AcDbLine
 10
41.97516232965631
 20
-5.074188351718476
 30
0.0
 11
42.01225650551554
 21
-5.111282527577714
 31
0.0
  0
LINE
  5
C4C
330
1F
100
AcDbEntity
  8
2
  6
CONTINUOUS
370
25
 62
7
100
AcDbLine
 10
41.99
 20
4.999999999999998
 30
0.0
 11
40.99
 21
9.999999999999998
 31
0.0
  0
LINE
  5
C4D
330
1F
100
AcDbEntity
  8
2
  6
CONTINUOUS
370
25
 62
7
100
AcDbLine
 10
40.99
 20
9.999999999999998
 30
0.0
 11
42.99
 21
9.999999999999998
 31
0.0
  0
LINE
  5
C4E
330
1F
100
AcDbEntity
  8
2
  6
CONTINUOUS
370
25
 62
7
100
AcDbLine
 10
42.99
 20
9.999999999999998
 30
0.0
 11
41.99
 21
4.999999999999998
 31
0.0
  0
LINE
  5
C4F
330
1F
100
AcDbEntity
  8
2
  6
CONTINUOUS
370
25
 62
7
100
AcDbLine
 10
41.93133397739058
 20
5.293330113047091
 30
0.0
 11
42.07799903391413
 21
5.439995169570643
 31
0.0
  0
LINE
  5
C50
330
1F
100
AcDbEntity
  8
2
  6
CONTINUOUS
370
25
 62
7
100
AcDbLine
 10
41.86062329927193
 20
5.646883503640375
 30
0.0
 11
42.18406505109211
 21
5.970325255460558
 31
0.0
  0
LINE
  5
C51
330
1F
100
AcDbEntity
  8
2
  6
CONTINUOUS
370
25
 62
7
100
AcDbLine
 10
41.78991262115327
 20
6.000436894233644
 30
0.0
 11
42.2901310682701
 21
6.500655341350473
 31
0.0
  0
LINE
  5
C52
330
1F
100
AcDbEntity
  8
2
  6
CONTINUOUS
370
25
 62
7
100
AcDbLine
 10
41.71920194303461
 20
6.353990284826921
 30
0.0
 11
42.39619708544809
 21
7.030985427240395
 31
0.0
  0
LINE
  5
C53
330
1F
100
AcDbEntity
  8
2
  6
CONTINUOUS
370
25
 62
7
100
AcDbLine
 10
41.64849126491596
 20
6.707543675420204
 30
0.0
 11
42.50226310262607
 21
7.56131551313031
 31
0.0
  0
LINE
  5
C54
330
1F
100
AcDbEntity
  8
2
  6
CONTINUOUS
370
25
 62
7
100
AcDbLine
 10
41.5777805867973
 20
7.061097066013474
 30
0.0
 11
42.60832911980405
 21
8.091645599020218
 31
0.0
  0
LINE
  5
C55
330
1F
100
AcDbEntity
  8
2
  6
CONTINUOUS
370
25
 62
7
100
AcDbLine
 10
41.50706990867864
 20
7.414650456606751
 30
0.0
 11
42.71439513698203
 21
8.62197568491014
 31
0.0
  0
LINE
  5
C56
330
1F
100
AcDbEntity
  8
2
  6
CONTINUOUS
370
25
 62
7
100
AcDbLine
 10
41.43635923056
 20
7.768203847200034
 30
0.0
 11
42.82046115416001
 21
9.15230577080004
 31
0.0
  0
LINE
  5
C57
330
1F
100
AcDbEntity
  8
2
  6
CONTINUOUS
370
25
 62
7
100
AcDbLine
 10
41.36564855244134
 20
8.121757237793311
 30
0.0
 11
42.92652717133799
 21
9.682635856689963
 31
0.0
  0
LINE
  5
C58
330
1F
100
AcDbEntity
  8
2
  6
CONTINUOUS
370
25
 62
7
100
AcDbLine
 10
41.29493787432269
 20
8.475310628386588
 30
0.0
 11
42.8196272459361
 21
10.0
 31
0.0
  0
LINE
  5
C59
330
1F
100
AcDbEntity
  8
2
  6
CONTINUOUS
370
25
 62
7
100
AcDbLine
 10
41.22422719620403
 20
8.828864018979857
 30
0.0
 11
42.39536317722418
 21
10.0
 31
0.0
  0
LINE
  5
C5A
330
1F
100
AcDbEntity
  8
2
  6
CONTINUOUS
370
25
 62
7
100
AcDbLine
 10
41.15351651808538
 20
9.18241740957313
 30
0.0
 11
41.97109910851224
 21
9.999999999999996
 31
0.0
  0
LINE
  5
C5B
330
1F
100
AcDbEntity
  8
2
  6
CONTINUOUS
370
25
 62
7
100
AcDbLine
 10
41.08280583996672
 20
9.53597080016641
 30
0.0
 11
41.54683503980031
 21
10.0
 31
0.0
  0
LINE
  5
C5C
330
1F
100
AcDbEntity
  8
2
  6
CONTINUOUS
370
25
 62
7
100
AcDbLine
 10
41.01209516184807
 20
9.88952419075969
 30
0.0
 11
41.12257097108837
 21
9.999999999999996
 31
0.0
  0
LINE
  5
C5D
330
1F
100
AcDbEntity
  8
2
  6
CONTINUOUS
370
25
 62
7
100
AcDbLine
 10
41.96667209324399
 20
5.116639533780081
 30
0.0
 11
42.00555193783735
 21
5.077759689186728
 31
0.0
  0
LINE
  5
C5E
330
1F
100
AcDbEntity
  8
2
  6
CONTINUOUS
370
25
 62
7
100
AcDbLine
 10
41.860606076066
 20
5.646969619669996
 30
0.0
 11
42.076262615956
 21
5.431313079779997
 31
0.0
  0
LINE
  5
C5F
330
1F
100
AcDbEntity
  8
2
  6
CONTINUOUS
370
25
 62
7
100
AcDbLine
 10
41.75454005888802
 20
6.177299705559903
 30
0.0
 11
42.14697329407466
 21
5.784866470373274
 31
0.0
  0
LINE
  5
C60
330
1F
100
AcDbEntity
  8
2
  6
CONTINUOUS
370
25
 62
7
100
AcDbLine
 10
41.64847404171004
 20
6.707629791449818
 30
0.0
 11
42.21768397219331
 21
6.13841986096655
 31
0.0
  0
LINE
  5
C61
330
1F
100
AcDbEntity
  8
2
  6
CONTINUOUS
370
25
 62
7
100
AcDbLine
 10
41.54240802453205
 20
7.237959877339733
 30
0.0
 11
42.28839465031196
 21
6.49197325155982
 31
0.0
  0
LINE
  5
C62
330
1F
100
AcDbEntity
  8
2
  6
CONTINUOUS
370
25
 62
7
100
AcDbLine
 10
41.43634200735407
 20
7.768289963229648
 30
0.0
 11
42.35910532843062
 21
6.845526642153096
 31
0.0
  0
LINE
  5
C63
330
1F
100
AcDbEntity
  8
2
  6
CONTINUOUS
370
25
 62
7
100
AcDbLine
 10
41.33027599017609
 20
8.298620049119563
 30
0.0
 11
42.42981600654927
 21
7.19908003274638
 31
0.0
  0
LINE
  5
C64
330
1F
100
AcDbEntity
  8
2
  6
CONTINUOUS
370
25
 62
7
100
AcDbLine
 10
41.2242099729981
 20
8.828950135009478
 30
0.0
 11
42.50052668466793
 21
7.55263342333965
 31
0.0
  0
LINE
  5
C65
330
1F
100
AcDbEntity
  8
2
  6
CONTINUOUS
370
25
 62
7
100
AcDbLine
 10
41.11814395582012
 20
9.359280220899393
 30
0.0
 11
42.57123736278658
 21
7.906186813932941
 31
0.0
  0
LINE
  5
C66
330
1F
100
AcDbEntity
  8
2
  6
CONTINUOUS
370
25
 62
7
100
AcDbLine
 10
41.01207793864214
 20
9.8896103067893
 30
0.0
 11
42.64194804090524
 21
8.25974020452621
 31
0.0
  0
LINE
  5
C67
330
1F
100
AcDbEntity
  8
2
  6
CONTINUOUS
370
25
 62
7
100
AcDbLine
 10
41.32595231414337
 20
10.0
 30
0.0
 11
42.7126587190239
 21
8.61329359511948
 31
0.0
  0
LINE
  5
C68
330
1F
100
AcDbEntity
  8
2
  6
CONTINUOUS
370
25
 62
7
100
AcDbLine
 10
41.75021638285531
 20
10.0
 30
0.0
 11
42.78336939714256
 21
8.966846985712749
 31
0.0
  0
LINE
  5
C69
330
1F
100
AcDbEntity
  8
2
  6
CONTINUOUS
370
25
 62
7
100
AcDbLine
 10
42.17448045156724
 20
10.0
 30
0.0
 11
42.85408007526121
 21
9.320400376306033
 31
0.0
  0
LINE
  5
C6A
330
1F
100
AcDbEntity
  8
2
  6
CONTINUOUS
370
25
 62
7
100
AcDbLine
 10
42.59874452027917
 20
10.0
 30
0.0
 11
42.92479075337987
 21
9.673953766899302
 31
0.0
  0
TEXT
  5
C6B
330
1F
100
AcDbEntity
  8
2
  6
CONTINUOUS
370
25
 62
7
100
AcDbText
 10
40.49
 20
15.95833333333333
 30
0.0
 40
3.5
  1
10
 50
90.00000000000001
 72
     1
 11
40.49
 21
18.0
 31
0.0
100
AcDbText
  0
CIRCLE
  5
C6C
330
1F
100
AcDbEntity
  8
2
  6
CONTINUOUS
370
25
 62
7
100
AcDbCircle
 10
38.74
 20
13.1
 30
0.0
 40
1.4
  0
LINE
  5
C6D
330
1F
100
AcDbEntity
  8
2
  6
CONTINUOUS
370
25
 62
7
100
AcDbLine
 10
40.14
 20
11.7
 30
0.0
 11
37.34
 21
14.5
 31
0.0
  0
LINE
  5
C6E
330
1F
100
AcDbEntity
  8
2
  6
CONTINUOUS
370
25
 62
7
100
AcDbLine
 10
7.99
 20
-5.0
 30
0.0
 11
7.989999999999999
 21
-18.0
 31
0.0
  0
LINE
  5
C6F
330
1F
100
AcDbEntity
  8
2
  6
CONTINUOUS
370
25
 62
7
100
AcDbLine
 10
29.99
 20
-18.0
 30
0.0
 11
29.99
 21
-4.75
 31
0.0
  0
LINE
  5
C70
330
1F
100
AcDbEntity
  8
2
  6
CONTINUOUS
370
25
 62
7
100
AcDbLine
 10
7.989999999999999
 20
-17.0
 30
0.0
 11
29.99
 21
-17.0
 31
0.0
  0
LINE
  5
C71
330
1F
100
AcDbEntity
  8
2
  6
CONTINUOUS
370
25
 62
7
100
AcDbLine
 10
7.989999999999999
 20
-17.0
 30
0.0
 11
12.99
 21
-16.0
 31
0.0
  0
LINE
  5
C72
330
1F
100
AcDbEntity
  8
2
  6
CONTINUOUS
370
25
 62
7
100
AcDbLine
 10
12.99
 20
-16.0
 30
0.0
 11
12.99
 21
-18.0
 31
0.0
  0
LINE
  5
C73
330
1F
100
AcDbEntity
  8
2
  6
CONTINUOUS
370
25
 62
7
100
AcDbLine
 10
12.99
 20
-18.0
 30
0.0
 11
7.989999999999999
 21
-17.0
 31
0.0
  0
LINE
  5
C74
330
1F
100
AcDbEntity
  8
2
  6
CONTINUOUS
370
25
 62
7
100
AcDbLine
 10
12.74751764155844
 20
-17.95150352831169
 30
0.0
 11
12.99
 21
-17.70902116987013
 31
0.0
  0
LINE
  5
C75
330
1F
100
AcDbEntity
  8
2
  6
CONTINUOUS
370
25
 62
7
100
AcDbLine
 10
12.39396425096517
 20
-17.88079285019303
 30
0.0
 11
12.99
 21
-17.2847571011582
 31
0.0
  0
LINE
  5
C76
330
1F
100
AcDbEntity
  8
2
  6
CONTINUOUS
370
25
 62
7
100
AcDbLine
 10
12.04041086037189
 20
-17.81008217207438
 30
0.0
 11
12.99
 21
-16.86049303244627
 31
0.0
  0
LINE
  5
C77
330
1F
100
AcDbEntity
  8
2
  6
CONTINUOUS
370
25
 62
7
100
AcDbLine
 10
11.68685746977862
 20
-17.73937149395572
 30
0.0
 11
12.99
 21
-16.43622896373434
 31
0.0
  0
LINE
  5
C78
330
1F
100
AcDbEntity
  8
2
  6
CONTINUOUS
370
25
 62
7
100
AcDbLine
 10
11.33330407918535
 20
-17.66866081583707
 30
0.0
 11
12.99
 21
-16.01196489502242
 31
0.0
  0
LINE
  5
C79
330
1F
100
AcDbEntity
  8
2
  6
CONTINUOUS
370
25
 62
7
100
AcDbLine
 10
10.97975068859207
 20
-17.59795013771841
 30
0.0
 11
12.47462603288811
 21
-16.10307479342238
 31
0.0
  0
LINE
  5
C7A
330
1F
100
AcDbEntity
  8
2
  6
CONTINUOUS
370
25
 62
7
100
AcDbLine
 10
10.6261972979988
 20
-17.52723945959976
 30
0.0
 11
11.9442959469982
 21
-16.20914081060036
 31
0.0
  0
LINE
  5
C7B
330
1F
100
AcDbEntity
  8
2
  6
CONTINUOUS
370
25
 62
7
100
AcDbLine
 10
10.27264390740553
 20
-17.4565287814811
 30
0.0
 11
11.41396586110829
 21
-16.31520682777834
 31
0.0
  0
LINE
  5
C7C
330
1F
100
AcDbEntity
  8
2
  6
CONTINUOUS
370
25
 62
7
100
AcDbLine
 10
9.919090516812254
 20
-17.38581810336245
 30
0.0
 11
10.88363577521838
 21
-16.42127284495632
 31
0.0
  0
LINE
  5
C7D
330
1F
100
AcDbEntity
  8
2
  6
CONTINUOUS
370
25
 62
7
100
AcDbLine
 10
9.565537126218981
 20
-17.3151074252438
 30
0.0
 11
10.35330568932847
 21
-16.5273388621343
 31
0.0
  0
LINE
  5
C7E
330
1F
100
AcDbEntity
  8
2
  6
CONTINUOUS
370
25
 62
7
100
AcDbLine
 10
9.211983735625708
 20
-17.24439674712514
 30
0.0
 11
9.822975603438564
 21
-16.63340487931229
 31
0.0
  0
LINE
  5
C7F
330
1F
100
AcDbEntity
  8
2
  6
CONTINUOUS
370
25
 62
7
100
AcDbLine
 10
8.858430345032435
 20
-17.17368606900649
 30
0.0
 11
9.292645517548655
 21
-16.73947089649027
 31
0.0
  0
LINE
  5
C80
330
1F
100
AcDbEntity
  8
2
  6
CONTINUOUS
370
25
 62
7
100
AcDbLine
 10
8.504876954439162
 20
-17.10297539088783
 30
0.0
 11
8.762315431658745
 21
-16.84553691366825
 31
0.0
  0
LINE
  5
C81
330
1F
100
AcDbEntity
  8
2
  6
CONTINUOUS
370
25
 62
7
100
AcDbLine
 10
8.151323563845889
 20
-17.03226471276918
 30
0.0
 11
8.231985345768836
 21
-16.95160293084623
 31
0.0
  0
LINE
  5
C82
330
1F
100
AcDbEntity
  8
2
  6
CONTINUOUS
370
25
 62
7
100
AcDbLine
 10
8.282139667224332
 20
-16.94157206655513
 30
0.0
 11
8.4282095008365
 21
-17.0876419001673
 31
0.0
  0
LINE
  5
C83
330
1F
100
AcDbEntity
  8
2
  6
CONTINUOUS
370
25
 62
7
100
AcDbLine
 10
8.635693057817605
 20
-16.87086138843648
 30
0.0
 11
8.95853958672641
 21
-17.19370791734528
 31
0.0
  0
LINE
  5
C84
330
1F
100
AcDbEntity
  8
2
  6
CONTINUOUS
370
25
 62
7
100
AcDbLine
 10
8.989246448410878
 20
-16.80015071031782
 30
0.0
 11
9.48886967261632
 21
-17.29977393452327
 31
0.0
  0
LINE
  5
C85
330
1F
100
AcDbEntity
  8
2
  6
CONTINUOUS
370
25
 62
7
100
AcDbLine
 10
9.342799839004151
 20
-16.72944003219917
 30
0.0
 11
10.01919975850623
 21
-17.40583995170125
 31
0.0
  0
LINE
  5
C86
330
1F
100
AcDbEntity
  8
2
  6
CONTINUOUS
370
25
 62
7
100
AcDbLine
 10
9.696353229597424
 20
-16.65872935408051
 30
0.0
 11
10.54952984439614
 21
-17.51190596887923
 31
0.0
  0
LINE
  5
C87
330
1F
100
AcDbEntity
  8
2
  6
CONTINUOUS
370
25
 62
7
100
AcDbLine
 10
10.0499066201907
 20
-16.58801867596186
 30
0.0
 11
11.07985993028605
 21
-17.61797198605721
 31
0.0
  0
LINE
  5
C88
330
1F
100
AcDbEntity
  8
2
  6
CONTINUOUS
370
25
 62
7
100
AcDbLine
 10
10.40346001078397
 20
-16.5173079978432
 30
0.0
 11
11.61019001617596
 21
-17.72403800323519
 31
0.0
  0
LINE
  5
C89
330
1F
100
AcDbEntity
  8
2
  6
CONTINUOUS
370
25
 62
7
100
AcDbLine
 10
10.75701340137724
 20
-16.44659731972455
 30
0.0
 11
12.14052010206587
 21
-17.83010402041317
 31
0.0
  0
LINE
  5
C8A
330
1F
100
AcDbEntity
  8
2
  6
CONTINUOUS
370
25
 62
7
100
AcDbLine
 10
11.11056679197052
 20
-16.3758866416059
 30
0.0
 11
12.67085018795578
 21
-17.93617003759116
 31
0.0
  0
LINE
  5
C8B
330
1F
100
AcDbEntity
  8
2
  6
CONTINUOUS
370
25
 62
7
100
AcDbLine
 10
11.46412018256379
 20
-16.30517596348724
 30
0.0
 11
12.99
 21
-17.83105578092345
 31
0.0
  0
LINE
  5
C8C
330
1F
100
AcDbEntity
  8
2
  6
CONTINUOUS
370
25
 62
7
100
AcDbLine
 10
11.81767357315706
 20
-16.23446528536859
 30
0.0
 11
12.99
 21
-17.40679171221152
 31
0.0
  0
LINE
  5
C8D
330
1F
100
AcDbEntity
  8
2
  6
CONTINUOUS
370
25
 62
7
100
AcDbLine
 10
12.17122696375034
 20
-16.16375460724993
 30
0.0
 11
12.99
 21
-16.98252764349959
 31
0.0
  0
LINE
  5
C8E
330
1F
100
AcDbEntity
  8
2
  6
CONTINUOUS
370
25
 62
7
100
AcDbLine
 10
12.52478035434361
 20
-16.09304392913128
 30
0.0
 11
12.99
 21
-16.55826357478767
 31
0.0
  0
LINE
  5
C8F
330
1F
100
AcDbEntity
  8
2
  6
CONTINUOUS
370
25
 62
7
100
AcDbLine
 10
12.87833374493688
 20
-16.02233325101262
 30
0.0
 11
12.99
 21
-16.13399950607574
 31
0.0
  0
LINE
  5
C90
330
1F
100
AcDbEntity
  8
2
  6
CONTINUOUS
370
25
 62
7
100
AcDbLine
 10
29.99
 20
-17.0
 30
0.0
 11
24.99
 21
-18.0
 31
0.0
  0
LINE
  5
C91
330
1F
100
AcDbEntity
  8
2
  6
CONTINUOUS
370
25
 62
7
100
AcDbLine
 10
24.99
 20
-18.0
 30
0.0
 11
24.99
 21
-16.0
 31
0.0
  0
LINE
  5
C92
330
1F
100
AcDbEntity
  8
2
  6
CONTINUOUS
370
25
 62
7
100
AcDbLine
 10
24.99
 20
-16.0
 30
0.0
 11
29.99
 21
-17.0
 31
0.0
  0
LINE
  5
C93
330
1F
100
AcDbEntity
  8
2
  6
CONTINUOUS
370
25
 62
7
100
AcDbLine
 10
29.85241285496139
 20
-17.02751742900772
 30
0.0
 11
29.89827523664093
 21
-16.98165504732819
 31
0.0
  0
LINE
  5
C94
330
1F
100
AcDbEntity
  8
2
  6
CONTINUOUS
370
25
 62
7
100
AcDbLine
 10
29.32208276907148
 20
-17.13358344618571
 30
0.0
 11
29.54472184604765
 21
-16.91094436920953
 31
0.0
  0
LINE
  5
C95
330
1F
100
AcDbEntity
  8
2
  6
CONTINUOUS
370
25
 62
7
100
AcDbLine
 10
28.79175268318157
 20
-17.23964946336369
 30
0.0
 11
29.19116845545438
 21
-16.84023369109088
 31
0.0
  0
LINE
  5
C96
330
1F
100
AcDbEntity
  8
2
  6
CONTINUOUS
370
25
 62
7
100
AcDbLine
 10
28.26142259729166
 20
-17.34571548054167
 30
0.0
 11
28.8376150648611
 21
-16.76952301297222
 31
0.0
  0
LINE
  5
C97
330
1F
100
AcDbEntity
  8
2
  6
CONTINUOUS
370
25
 62
7
100
AcDbLine
 10
27.73109251140174
 20
-17.45178149771965
 30
0.0
 11
28.48406167426783
 21
-16.69881233485356
 31
0.0
  0
LINE
  5
C98
330
1F
100
AcDbEntity
  8
2
  6
CONTINUOUS
370
25
 62
7
100
AcDbLine
 10
27.20076242551183
 20
-17.55784751489763
 30
0.0
 11
28.13050828367455
 21
-16.62810165673491
 31
0.0
  0
LINE
  5
C99
330
1F
100
AcDbEntity
  8
2
  6
CONTINUOUS
370
25
 62
7
100
AcDbLine
 10
26.67043233962192
 20
-17.66391353207562
 30
0.0
 11
27.77695489308128
 21
-16.55739097861625
 31
0.0
  0
LINE
  5
C9A
330
1F
100
AcDbEntity
  8
2
  6
CONTINUOUS
370
25
 62
7
100
AcDbLine
 10
26.14010225373201
 20
-17.7699795492536
 30
0.0
 11
27.42340150248801
 21
-16.4866803004976
 31
0.0
  0
LINE
  5
C9B
330
1F
100
AcDbEntity
  8
2
  6
CONTINUOUS
370
25
 62
7
100
AcDbLine
 10
25.60977216784211
 20
-17.87604556643158
 30
0.0
 11
27.06984811189474
 21
-16.41596962237895
 31
0.0
  0
LINE
  5
C9C
330
1F
100
AcDbEntity
  8
2
  6
CONTINUOUS
370
25
 62
7
100
AcDbLine
 10
25.0794420819522
 20
-17.98211158360956
 30
0.0
 11
26.71629472130146
 21
-16.34525894426029
 31
0.0
  0
LINE
  5
C9D
330
1F
100
AcDbEntity
  8
2
  6
CONTINUOUS
370
25
 62
7
100
AcDbLine
 10
24.99
 20
-17.64728959684983
 30
0.0
 11
26.36274133070819
 21
-16.27454826614164
 31
0.0
  0
LINE
  5
C9E
330
1F
100
AcDbEntity
  8
2
  6
CONTINUOUS
370
25
 62
7
100
AcDbLine
 10
24.99
 20
-17.2230255281379
 30
0.0
 11
26.00918794011491
 21
-16.20383758802298
 31
0.0
  0
LINE
  5
C9F
330
1F
100
AcDbEntity
  8
2
  6
CONTINUOUS
370
25
 62
7
100
AcDbLine
 10
24.99
 20
-16.79876145942598
 30
0.0
 11
25.65563454952165
 21
-16.13312690990433
 31
0.0
  0
LINE
  5
CA0
330
1F
100
AcDbEntity
  8
2
  6
CONTINUOUS
370
25
 62
7
100
AcDbLine
 10
24.99
 20
-16.37449739071404
 30
0.0
 11
25.30208115892837
 21
-16.06241623178567
 31
0.0
  0
LINE
  5
CA1
330
1F
100
AcDbEntity
  8
2
  6
CONTINUOUS
370
25
 62
7
100
AcDbLine
 10
24.99
 20
-17.78751083189712
 30
0.0
 11
25.16707430675241
 21
-17.96458513864953
 31
0.0
  0
LINE
  5
CA2
330
1F
100
AcDbEntity
  8
2
  6
CONTINUOUS
370
25
 62
7
100
AcDbLine
 10
24.99
 20
-17.36324676318519
 30
0.0
 11
25.52062769734568
 21
-17.89387446053087
 31
0.0
  0
LINE
  5
CA3
330
1F
100
AcDbEntity
  8
2
  6
CONTINUOUS
370
25
 62
7
100
AcDbLine
 10
24.99
 20
-16.93898269447326
 30
0.0
 11
25.87418108793895
 21
-17.82316378241221
 31
0.0
  0
LINE
  5
CA4
330
1F
100
AcDbEntity
  8
2
  6
CONTINUOUS
370
25
 62
7
100
AcDbLine
 10
24.99
 20
-16.51471862576133
 30
0.0
 11
26.22773447853223
 21
-17.75245310429356
 31
0.0
  0
LINE
  5
CA5
330
1F
100
AcDbEntity
  8
2
  6
CONTINUOUS
370
25
 62
7
100
AcDbLine
 10
24.99
 20
-16.09045455704941
 30
0.0
 11
26.5812878691255
 21
-17.6817424261749
 31
0.0
  0
LINE
  5
CA6
330
1F
100
AcDbEntity
  8
2
  6
CONTINUOUS
370
25
 62
7
100
AcDbLine
 10
25.40726188957816
 20
-16.08345237791563
 30
0.0
 11
26.93484125971877
 21
-17.61103174805625
 31
0.0
  0
LINE
  5
CA7
330
1F
100
AcDbEntity
  8
2
  6
CONTINUOUS
370
25
 62
7
100
AcDbLine
 10
25.93759197546807
 20
-16.18951839509361
 30
0.0
 11
27.28839465031205
 21
-17.54032106993759
 31
0.0
  0
LINE
  5
CA8
330
1F
100
AcDbEntity
  8
2
  6
CONTINUOUS
370
25
 62
7
100
AcDbLine
 10
26.46792206135797
 20
-16.29558441227159
 30
0.0
 11
27.64194804090532
 21
-17.46961039181894
 31
0.0
  0
LINE
  5
CA9
330
1F
100
AcDbEntity
  8
2
  6
CONTINUOUS
370
25
 62
7
100
AcDbLine
 10
26.99825214724788
 20
-16.40165042944957
 30
0.0
 11
27.99550143149859
 21
-17.39889971370028
 31
0.0
  0
LINE
  5
CAA
330
1F
100
AcDbEntity
  8
2
  6
CONTINUOUS
370
25
 62
7
100
AcDbLine
 10
27.5285822331378
 20
-16.50771644662756
 30
0.0
 11
28.34905482209187
 21
-17.32818903558163
 31
0.0
  0
LINE
  5
CAB
330
1F
100
AcDbEntity
  8
2
  6
CONTINUOUS
370
25
 62
7
100
AcDbLine
 10
28.05891231902771
 20
-16.61378246380554
 30
0.0
 11
28.70260821268514
 21
-17.25747835746297
 31
0.0
  0
LINE
  5
CAC
330
1F
100
AcDbEntity
  8
2
  6
CONTINUOUS
370
25
 62
7
100
AcDbLine
 10
28.58924240491762
 20
-16.71984848098352
 30
0.0
 11
29.05616160327841
 21
-17.18676767934431
 31
0.0
  0
LINE
  5
CAD
330
1F
100
AcDbEntity
  8
2
  6
CONTINUOUS
370
25
 62
7
100
AcDbLine
 10
29.11957249080753
 20
-16.8259144981615
 30
0.0
 11
29.40971499387169
 21
-17.11605700122566
 31
0.0
  0
LINE
  5
CAE
330
1F
100
AcDbEntity
  8
2
  6
CONTINUOUS
370
25
 62
7
100
AcDbLine
 10
29.64990257669745
 20
-16.9319805153395
 30
0.0
 11
29.76326838446496
 21
-17.045346323107
 31
0.0
  0
TEXT
  5
CAF
330
1F
100
AcDbEntity
  8
2
  6
CONTINUOUS
370
25
 62
7
100
AcDbText
 10
16.07333333333333
 20
-15.5
 30
0.0
 40
3.5
  1
22
 72
     1
 11
18.99
 21
-15.5
 31
0.0
100
AcDbText
  0
LINE
  5
CB0
330
1F
100
AcDbEntity
  8
2
  6
CONTINUOUS
370
25
 62
7
100
AcDbLine
 10
-0.01
 20
5.0
 30
0.0
 11
-0.0099999999999986
 21
28.0
 31
0.0
  0
LINE
  5
CB1
330
1F
100
AcDbEntity
  8
2
  6
CONTINUOUS
370
25
 62
7
100
AcDbLine
 10
29.99
 20
28.0
 30
0.0
 11
29.99
 21
4.75
 31
0.0
  0
LINE
  5
CB2
330
1F
100
AcDbEntity
  8
2
  6
CONTINUOUS
370
25
 62
7
100
AcDbLine
 10
-0.01
 20
27.0
 30
0.0
 11
29.99
 21
27.0
 31
0.0
  0
LINE
  5
CB3
330
1F
100
AcDbEntity
  8
2
  6
CONTINUOUS
370
25
 62
7
100
AcDbLine
 10
-0.01
 20
27.0
 30
0.0
 11
4.99
 21
28.0
 31
0.0
  0
LINE
  5
CB4
330
1F
100
AcDbEntity
  8
2
  6
CONTINUOUS
370
25
 62
7
100
AcDbLine
 10
4.99
 20
28.0
 30
0.0
 11
4.99
 21
26.0
 31
0.0
  0
LINE
  5
CB5
330
1F
100
AcDbEntity
  8
2
  6
CONTINUOUS
370
25
 62
7
100
AcDbLine
 10
4.99
 20
26.0
 30
0.0
 11
-0.01
 21
27.0
 31
0.0
  0
LINE
  5
CB6
330
1F
100
AcDbEntity
  8
2
  6
CONTINUOUS
370
25
 62
7
100
AcDbLine
 10
4.812330470336345
 20
26.03553390593273
 30
0.0
 11
4.99
 21
26.21320343559638
 31
0.0
  0
LINE
  5
CB7
330
1F
100
AcDbEntity
  8
2
  6
CONTINUOUS
370
25
 62
7
100
AcDbLine
 10
4.458777079743072
 20
26.10624458405139
 30
0.0
 11
4.99
 21
26.63746750430831
 31
0.0
  0
LINE
  5
CB8
330
1F
100
AcDbEntity
  8
2
  6
CONTINUOUS
370
25
 62
7
100
AcDbLine
 10
4.105223689149799
 20
26.17695526217004
 30
0.0
 11
4.99
 21
27.06173157302024
 31
0.0
  0
LINE
  5
CB9
330
1F
100
AcDbEntity
  8
2
  6
CONTINUOUS
370
25
 62
7
100
AcDbLine
 10
3.751670298556526
 20
26.24766594028869
 30
0.0
 11
4.99
 21
27.48599564173217
 31
0.0
  0
LINE
  5
CBA
330
1F
100
AcDbEntity
  8
2
  6
CONTINUOUS
370
25
 62
7
100
AcDbLine
 10
3.398116907963253
 20
26.31837661840735
 30
0.0
 11
4.99
 21
27.91025971044409
 31
0.0
  0
LINE
  5
CBB
330
1F
100
AcDbEntity
  8
2
  6
CONTINUOUS
370
25
 62
7
100
AcDbLine
 10
3.04456351736998
 20
26.389087296526
 30
0.0
 11
4.571845276054971
 21
27.91636905521099
 31
0.0
  0
LINE
  5
CBC
330
1F
100
AcDbEntity
  8
2
  6
CONTINUOUS
370
25
 62
7
100
AcDbLine
 10
2.691010126776707
 20
26.45979797464466
 30
0.0
 11
4.041515190165062
 21
27.81030303803301
 31
0.0
  0
LINE
  5
CBD
330
1F
100
AcDbEntity
  8
2
  6
CONTINUOUS
370
25
 62
7
100
AcDbLine
 10
2.337456736183434
 20
26.53050865276331
 30
0.0
 11
3.511185104275152
 21
27.70423702085503
 31
0.0
  0
LINE
  5
CBE
330
1F
100
AcDbEntity
  8
2
  6
CONTINUOUS
370
25
 62
7
100
AcDbLine
 10
1.98390334559016
 20
26.60121933088197
 30
0.0
 11
2.980855018385242
 21
27.59817100367705
 31
0.0
  0
LINE
  5
CBF
330
1F
100
AcDbEntity
  8
2
  6
CONTINUOUS
370
25
 62
7
100
AcDbLine
 10
1.630349954996884
 20
26.67193000900062
 30
0.0
 11
2.450524932495328
 21
27.49210498649906
 31
0.0
  0
LINE
  5
CC0
330
1F
100
AcDbEntity
  8
2
  6
CONTINUOUS
370
25
 62
7
100
AcDbLine
 10
1.276796564403611
 20
26.74264068711928
 30
0.0
 11
1.920194846605416
 21
27.38603896932108
 31
0.0
  0
LINE
  5
CC1
330
1F
100
AcDbEntity
  8
2
  6
CONTINUOUS
370
25
 62
7
100
AcDbLine
 10
0.9232431738103372
 20
26.81335136523793
 30
0.0
 11
1.389864760715506
 21
27.2799729521431
 31
0.0
  0
LINE
  5
CC2
330
1F
100
AcDbEntity
  8
2
  6
CONTINUOUS
370
25
 62
7
100
AcDbLine
 10
0.569689783217061
 20
26.88406204335659
 30
0.0
 11
0.8595346748255913
 21
27.17390693496512
 31
0.0
  0
LINE
  5
CC3
330
1F
100
AcDbEntity
  8
2
  6
CONTINUOUS
370
25
 62
7
100
AcDbLine
 10
0.2161363926237879
 20
26.95477272147524
 30
0.0
 11
0.3292045889356818
 21
27.06784091778714
 31
0.0
  0
LINE
  5
CC4
330
1F
100
AcDbEntity
  8
2
  6
CONTINUOUS
370
25
 62
7
100
AcDbLine
 10
0.1174169979694851
 20
27.0254833995939
 30
0.0
 11
0.1811254969542278
 21
26.96177490060915
 31
0.0
  0
LINE
  5
CC5
330
1F
100
AcDbEntity
  8
2
  6
CONTINUOUS
370
25
 62
7
100
AcDbLine
 10
0.4709703885627585
 20
27.09619407771255
 30
0.0
 11
0.7114555828441381
 21
26.85570888343117
 31
0.0
  0
LINE
  5
CC6
330
1F
100
AcDbEntity
  8
2
  6
CONTINUOUS
370
25
 62
7
100
AcDbLine
 10
0.8245237791560319
 20
27.16690475583121
 30
0.0
 11
1.241785668734048
 21
26.74964286625319
 31
0.0
  0
LINE
  5
CC7
330
1F
100
AcDbEntity
  8
2
  6
CONTINUOUS
370
25
 62
7
100
AcDbLine
 10
1.178077169749305
 20
27.23761543394986
 30
0.0
 11
1.772115754623959
 21
26.64357684907521
 31
0.0
  0
LINE
  5
CC8
330
1F
100
AcDbEntity
  8
2
  6
CONTINUOUS
370
25
 62
7
100
AcDbLine
 10
1.531630560342579
 20
27.30832611206852
 30
0.0
 11
2.302445840513869
 21
26.53751083189723
 31
0.0
  0
LINE
  5
CC9
330
1F
100
AcDbEntity
  8
2
  6
CONTINUOUS
370
25
 62
7
100
AcDbLine
 10
1.885183950935852
 20
27.37903679018717
 30
0.0
 11
2.83277592640378
 21
26.43144481471924
 31
0.0
  0
LINE
  5
CCA
330
1F
100
AcDbEntity
  8
2
  6
CONTINUOUS
370
25
 62
7
100
AcDbLine
 10
2.238737341529125
 20
27.44974746830583
 30
0.0
 11
3.36310601229369
 21
26.32537879754126
 31
0.0
  0
LINE
  5
CCB
330
1F
100
AcDbEntity
  8
2
  6
CONTINUOUS
370
25
 62
7
100
AcDbLine
 10
2.592290732122399
 20
27.52045814642448
 30
0.0
 11
3.8934360981836
 21
26.21931278036328
 31
0.0
  0
LINE
  5
CCC
330
1F
100
AcDbEntity
  8
2
  6
CONTINUOUS
370
25
 62
7
100
AcDbLine
 10
2.945844122715674
 20
27.59116882454314
 30
0.0
 11
4.423766184073513
 21
26.1132467631853
 31
0.0
  0
LINE
  5
CCD
330
1F
100
AcDbEntity
  8
2
  6
CONTINUOUS
370
25
 62
7
100
AcDbLine
 10
3.299397513308949
 20
27.66187950266179
 30
0.0
 11
4.954096269963424
 21
26.00718074600731
 31
0.0
  0
LINE
  5
CCE
330
1F
100
AcDbEntity
  8
2
  6
CONTINUOUS
370
25
 62
7
100
AcDbLine
 10
3.652950903902224
 20
27.73259018078044
 30
0.0
 11
4.99
 21
26.39554108468267
 31
0.0
  0
LINE
  5
CCF
330
1F
100
AcDbEntity
  8
2
  6
CONTINUOUS
370
25
 62
7
100
AcDbLine
 10
4.006504294495499
 20
27.8033008588991
 30
0.0
 11
4.99
 21
26.8198051533946
 31
0.0
  0
LINE
  5
CD0
330
1F
100
AcDbEntity
  8
2
  6
CONTINUOUS
370
25
 62
7
100
AcDbLine
 10
4.360057685088774
 20
27.87401153701775
 30
0.0
 11
4.99
 21
27.24406922210653
 31
0.0
  0
LINE
  5
CD1
330
1F
100
AcDbEntity
  8
2
  6
CONTINUOUS
370
25
 62
7
100
AcDbLine
 10
4.713611075682051
 20
27.94472221513641
 30
0.0
 11
4.99
 21
27.66833329081846
 31
0.0
  0
LINE
  5
CD2
330
1F
100
AcDbEntity
  8
2
  6
CONTINUOUS
370
25
 62
7
100
AcDbLine
 10
29.99
 20
27.0
 30
0.0
 11
24.99
 21
26.0
 31
0.0
  0
LINE
  5
CD3
330
1F
100
AcDbEntity
  8
2
  6
CONTINUOUS
370
25
 62
7
100
AcDbLine
 10
24.99
 20
26.0
 30
0.0
 11
24.99
 21
28.0
 31
0.0
  0
LINE
  5
CD4
330
1F
100
AcDbEntity
  8
2
  6
CONTINUOUS
370
25
 62
7
100
AcDbLine
 10
24.99
 20
28.0
 30
0.0
 11
29.99
 21
27.0
 31
0.0
  0
LINE
  5
CD5
330
1F
100
AcDbEntity
  8
2
  6
CONTINUOUS
370
25
 62
7
100
AcDbLine
 10
29.47641170162218
 20
26.89728234032443
 30
0.0
 11
29.64760780108146
 21
27.06847843978371
 31
0.0
  0
LINE
  5
CD6
330
1F
100
AcDbEntity
  8
2
  6
CONTINUOUS
370
25
 62
7
100
AcDbLine
 10
28.94608161573227
 20
26.79121632314645
 30
0.0
 11
29.29405441048819
 21
27.13918911790237
 31
0.0
  0
LINE
  5
CD7
330
1F
100
AcDbEntity
  8
2
  6
CONTINUOUS
370
25
 62
7
100
AcDbLine
 10
28.41575152984236
 20
26.68515030596847
 30
0.0
 11
28.94050101989491
 21
27.20989979602102
 31
0.0
  0
LINE
  5
CD8
330
1F
100
AcDbEntity
  8
2
  6
CONTINUOUS
370
25
 62
7
100
AcDbLine
 10
27.88542144395245
 20
26.57908428879049
 30
0.0
 11
28.58694762930163
 21
27.28061047413967
 31
0.0
  0
LINE
  5
CD9
330
1F
100
AcDbEntity
  8
2
  6
CONTINUOUS
370
25
 62
7
100
AcDbLine
 10
27.35509135806254
 20
26.47301827161251
 30
0.0
 11
28.23339423870836
 21
27.35132115225833
 31
0.0
  0
LINE
  5
CDA
330
1F
100
AcDbEntity
  8
2
  6
CONTINUOUS
370
25
 62
7
100
AcDbLine
 10
26.82476127217263
 20
26.36695225443453
 30
0.0
 11
27.87984084811508
 21
27.42203183037698
 31
0.0
  0
LINE
  5
CDB
330
1F
100
AcDbEntity
  8
2
  6
CONTINUOUS
370
25
 62
7
100
AcDbLine
 10
26.29443118628272
 20
26.26088623725654
 30
0.0
 11
27.52628745752181
 21
27.49274250849564
 31
0.0
  0
LINE
  5
CDC
330
1F
100
AcDbEntity
  8
2
  6
CONTINUOUS
370
25
 62
7
100
AcDbLine
 10
25.76410110039281
 20
26.15482022007856
 30
0.0
 11
27.17273406692854
 21
27.56345318661429
 31
0.0
  0
LINE
  5
CDD
330
1F
100
AcDbEntity
  8
2
  6
CONTINUOUS
370
25
 62
7
100
AcDbLine
 10
25.2337710145029
 20
26.04875420290058
 30
0.0
 11
26.81918067633526
 21
27.63416386473295
 31
0.0
  0
LINE
  5
CDE
330
1F
100
AcDbEntity
  8
2
  6
CONTINUOUS
370
25
 62
7
100
AcDbLine
 10
24.99
 20
26.2292472571096
 30
0.0
 11
26.46562728574199
 21
27.7048745428516
 31
0.0
  0
LINE
  5
CDF
330
1F
100
AcDbEntity
  8
2
  6
CONTINUOUS
370
25
 62
7
100
AcDbLine
 10
24.99
 20
26.65351132582153
 30
0.0
 11
26.11207389514872
 21
27.77558522097026
 31
0.0
  0
LINE
  5
CE0
330
1F
100
AcDbEntity
  8
2
  6
CONTINUOUS
370
25
 62
7
100
AcDbLine
 10
24.99
 20
27.07777539453346
 30
0.0
 11
25.75852050455544
 21
27.84629589908891
 31
0.0
  0
LINE
  5
CE1
330
1F
100
AcDbEntity
  8
2
  6
CONTINUOUS
370
25
 62
7
100
AcDbLine
 10
24.99
 20
27.5020394632454
 30
0.0
 11
25.40496711396217
 21
27.91700657720757
 31
0.0
  0
LINE
  5
CE2
330
1F
100
AcDbEntity
  8
2
  6
CONTINUOUS
370
25
 62
7
100
AcDbLine
 10
24.99
 20
27.92630353195732
 30
0.0
 11
25.0514137233689
 21
27.98771725532622
 31
0.0
  0
LINE
  5
CE3
330
1F
100
AcDbEntity
  8
2
  6
CONTINUOUS
370
25
 62
7
100
AcDbLine
 10
24.99
 20
26.33595231414334
 30
0.0
 11
25.26996026178612
 21
26.05599205235723
 31
0.0
  0
LINE
  5
CE4
330
1F
100
AcDbEntity
  8
2
  6
CONTINUOUS
370
25
 62
7
100
AcDbLine
 10
24.99
 20
26.76021638285528
 30
0.0
 11
25.6235136523794
 21
26.12670273047588
 31
0.0
  0
LINE
  5
CE5
330
1F
100
AcDbEntity
  8
2
  6
CONTINUOUS
370
25
 62
7
100
AcDbLine
 10
24.99
 20
27.1844804515672
 30
0.0
 11
25.97706704297267
 21
26.19741340859454
 31
0.0
  0
LINE
  5
CE6
330
1F
100
AcDbEntity
  8
2
  6
CONTINUOUS
370
25
 62
7
100
AcDbLine
 10
24.99
 20
27.60874452027914
 30
0.0
 11
26.33062043356594
 21
26.26812408671319
 31
0.0
  0
LINE
  5
CE7
330
1F
100
AcDbEntity
  8
2
  6
CONTINUOUS
370
25
 62
7
100
AcDbLine
 10
25.03126073623882
 20
27.99174785275223
 30
0.0
 11
26.68417382415921
 21
26.33883476483184
 31
0.0
  0
LINE
  5
CE8
330
1F
100
AcDbEntity
  8
2
  6
CONTINUOUS
370
25
 62
7
100
AcDbLine
 10
25.56159082212874
 20
27.88568183557425
 30
0.0
 11
27.03772721475249
 21
26.4095454429505
 31
0.0
  0
LINE
  5
CE9
330
1F
100
AcDbEntity
  8
2
  6
CONTINUOUS
370
25
 62
7
100
AcDbLine
 10
26.09192090801864
 20
27.77961581839627
 30
0.0
 11
27.39128060534576
 21
26.48025612106915
 31
0.0
  0
LINE
  5
CEA
330
1F
100
AcDbEntity
  8
2
  6
CONTINUOUS
370
25
 62
7
100
AcDbLine
 10
26.62225099390855
 20
27.67354980121829
 30
0.0
 11
27.74483399593904
 21
26.55096679918781
 31
0.0
  0
LINE
  5
CEB
330
1F
100
AcDbEntity
  8
2
  6
CONTINUOUS
370
25
 62
7
100
AcDbLine
 10
27.15258107979847
 20
27.56748378404031
 30
0.0
 11
28.09838738653232
 21
26.62167747730646
 31
0.0
  0
LINE
  5
CEC
330
1F
100
AcDbEntity
  8
2
  6
CONTINUOUS
370
25
 62
7
100
AcDbLine
 10
27.68291116568838
 20
27.46141776686232
 30
0.0
 11
28.45194077712559
 21
26.69238815542512
 31
0.0
  0
LINE
  5
CED
330
1F
100
AcDbEntity
  8
2
  6
CONTINUOUS
370
25
 62
7
100
AcDbLine
 10
28.2132412515783
 20
27.35535174968434
 30
0.0
 11
28.80549416771887
 21
26.76309883354378
 31
0.0
  0
LINE
  5
CEE
330
1F
100
AcDbEntity
  8
2
  6
CONTINUOUS
370
25
 62
7
100
AcDbLine
 10
28.7435713374682
 20
27.24928573250636
 30
0.0
 11
29.15904755831213
 21
26.83380951166243
 31
0.0
  0
LINE
  5
CEF
330
1F
100
AcDbEntity
  8
2
  6
CONTINUOUS
370
25
 62
7
100
AcDbLine
 10
29.27390142335813
 20
27.14321971532837
 30
0.0
 11
29.51260094890541
 21
26.90452018978108
 31
0.0
  0
LINE
  5
CF0
330
1F
100
AcDbEntity
  8
2
  6
CONTINUOUS
370
25
 62
7
100
AcDbLine
 10
29.80423150924804
 20
27.03715369815039
 30
0.0
 11
29.86615433949869
 21
26.97523086789974
 31
0.0
  0
TEXT
  5
CF1
330
1F
100
AcDbEntity
  8
2
  6
CONTINUOUS
370
25
 62
7
100
AcDbText
 10
12.365
 20
28.5
 30
0.0
 40
3.5
  1
30
 72
     1
 11
14.99
 21
28.5
 31
0.0
100
AcDbText
  0
LINE
  5
CF2
330
1F
100
AcDbEntity
  8
SK2
  6
CONTINUOUS
370
25
 62
7
100
AcDbLine
 10
-42.01
 20
3.0
 30
0.0
 11
-42.01
 21
38.0
 31
0.0
  0
LINE
  5
CF3
330
1F
100
AcDbEntity
  8
SK2
  6
CONTINUOUS
370
25
 62
7
100
AcDbLine
 10
29.99
 20
38.0
 30
0.0
 11
29.98999999999999
 21
4.75
 31
0.0
  0
LINE
  5
CF4
330
1F
100
AcDbEntity
  8
SK2
  6
CONTINUOUS
370
25
 62
7
100
AcDbLine
 10
-42.01
 20
37.0
 30
0.0
 11
29.99
 21
37.0
 31
0.0
  0
LINE
  5
CF5
330
1F
100
AcDbEntity
  8
SK2
  6
CONTINUOUS
370
25
 62
7
100
AcDbLine
 10
-42.01
 20
37.0
 30
0.0
 11
-37.01
 21
38.0
 31
0.0
  0
LINE
  5
CF6
330
1F
100
AcDbEntity
  8
SK2
  6
CONTINUOUS
370
25
 62
7
100
AcDbLine
 10
-37.01
 20
38.0
 30
0.0
 11
-37.01
 21
36.0
 31
0.0
  0
LINE
  5
CF7
330
1F
100
AcDbEntity
  8
SK2
  6
CONTINUOUS
370
25
 62
7
100
AcDbLine
 10
-37.01
 20
36.0
 30
0.0
 11
-42.01
 21
37.0
 31
0.0
  0
LINE
  5
CF8
330
1F
100
AcDbEntity
  8
SK2
  6
CONTINUOUS
370
25
 62
7
100
AcDbLine
 10
-37.34140323930304
 20
36.06628064786061
 30
0.0
 11
-37.01
 21
36.39768388716365
 31
0.0
  0
LINE
  5
CF9
330
1F
100
AcDbEntity
  8
SK2
  6
CONTINUOUS
370
25
 62
7
100
AcDbLine
 10
-37.6949566298963
 20
36.13699132597927
 30
0.0
 11
-37.01
 21
36.82194795587557
 31
0.0
  0
LINE
  5
CFA
330
1F
100
AcDbEntity
  8
SK2
  6
CONTINUOUS
370
25
 62
7
100
AcDbLine
 10
-38.04851002048959
 20
36.20770200409792
 30
0.0
 11
-37.01
 21
37.24621202458752
 31
0.0
  0
LINE
  5
CFB
330
1F
100
AcDbEntity
  8
SK2
  6
CONTINUOUS
370
25
 62
7
100
AcDbLine
 10
-38.40206341108286
 20
36.27841268221658
 30
0.0
 11
-37.01
 21
37.67047609329944
 31
0.0
  0
LINE
  5
CFC
330
1F
100
AcDbEntity
  8
SK2
  6
CONTINUOUS
370
25
 62
7
100
AcDbLine
 10
-38.75561680167614
 20
36.34912336033523
 30
0.0
 11
-37.12842520251422
 21
37.97631495949715
 31
0.0
  0
LINE
  5
CFD
330
1F
100
AcDbEntity
  8
SK2
  6
CONTINUOUS
370
25
 62
7
100
AcDbLine
 10
-39.10917019226942
 20
36.41983403845389
 30
0.0
 11
-37.65875528840413
 21
37.87024894231918
 31
0.0
  0
LINE
  5
CFE
330
1F
100
AcDbEntity
  8
SK2
  6
CONTINUOUS
370
25
 62
7
100
AcDbLine
 10
-39.46272358286271
 20
36.49054471657254
 30
0.0
 11
-38.18908537429407
 21
37.76418292514118
 31
0.0
  0
LINE
  5
CFF
330
1F
100
AcDbEntity
  8
SK2
  6
CONTINUOUS
370
25
 62
7
100
AcDbLine
 10
-39.81627697345598
 20
36.56125539469119
 30
0.0
 11
-38.71941546018397
 21
37.6581169079632
 31
0.0
  0
LINE
  5
D00
330
1F
100
AcDbEntity
  8
SK2
  6
CONTINUOUS
370
25
 62
7
100
AcDbLine
 10
-40.16983036404926
 20
36.63196607280985
 30
0.0
 11
-39.2497455460739
 21
37.55205089078522
 31
0.0
  0
LINE
  5
D01
330
1F
100
AcDbEntity
  8
SK2
  6
CONTINUOUS
370
25
 62
7
100
AcDbLine
 10
-40.52338375464253
 20
36.7026767509285
 30
0.0
 11
-39.7800756319638
 21
37.44598487360724
 31
0.0
  0
LINE
  5
D02
330
1F
100
AcDbEntity
  8
SK2
  6
CONTINUOUS
370
25
 62
7
100
AcDbLine
 10
-40.87693714523582
 20
36.77338742904716
 30
0.0
 11
-40.31040571785373
 21
37.33991885642925
 31
0.0
  0
LINE
  5
D03
330
1F
100
AcDbEntity
  8
SK2
  6
CONTINUOUS
370
25
 62
7
100
AcDbLine
 10
-41.2304905358291
 20
36.84409810716582
 30
0.0
 11
-40.84073580374365
 21
37.23385283925127
 31
0.0
  0
LINE
  5
D04
330
1F
100
AcDbEntity
  8
SK2
  6
CONTINUOUS
370
25
 62
7
100
AcDbLine
 10
-41.58404392642237
 20
36.91480878528448
 30
0.0
 11
-41.37106588963356
 21
37.12778682207329
 31
0.0
  0
LINE
  5
D05
330
1F
100
AcDbEntity
  8
SK2
  6
CONTINUOUS
370
25
 62
7
100
AcDbLine
 10
-41.93759731701565
 20
36.98551946340314
 30
0.0
 11
-41.90139597552349
 21
37.0217208048953
 31
0.0
  0
LINE
  5
D06
330
1F
100
AcDbEntity
  8
SK2
  6
CONTINUOUS
370
25
 62
7
100
AcDbLine
 10
-41.920060905375
 20
37.017987818925
 30
0.0
 11
-41.87509135806251
 21
36.9730182716125
 31
0.0
  0
LINE
  5
D07
330
1F
100
AcDbEntity
  8
SK2
  6
CONTINUOUS
370
25
 62
7
100
AcDbLine
 10
-41.56650751478173
 20
37.08869849704365
 30
0.0
 11
-41.34476127217259
 21
36.86695225443452
 31
0.0
  0
LINE
  5
D08
330
1F
100
AcDbEntity
  8
SK2
  6
CONTINUOUS
370
25
 62
7
100
AcDbLine
 10
-41.21295412418845
 20
37.15940917516231
 30
0.0
 11
-40.81443118628268
 21
36.76088623725654
 31
0.0
  0
LINE
  5
D09
330
1F
100
AcDbEntity
  8
SK2
  6
CONTINUOUS
370
25
 62
7
100
AcDbLine
 10
-40.85940073359517
 20
37.23011985328096
 30
0.0
 11
-40.28410110039276
 21
36.65482022007855
 31
0.0
  0
LINE
  5
D0A
330
1F
100
AcDbEntity
  8
SK2
  6
CONTINUOUS
370
25
 62
7
100
AcDbLine
 10
-40.5058473430019
 20
37.30083053139963
 30
0.0
 11
-39.75377101450285
 21
36.54875420290057
 31
0.0
  0
LINE
  5
D0B
330
1F
100
AcDbEntity
  8
SK2
  6
CONTINUOUS
370
25
 62
7
100
AcDbLine
 10
-40.15229395240861
 20
37.37154120951828
 30
0.0
 11
-39.22344092861292
 21
36.44268818572258
 31
0.0
  0
LINE
  5
D0C
330
1F
100
AcDbEntity
  8
SK2
  6
CONTINUOUS
370
25
 62
7
100
AcDbLine
 10
-39.79874056181534
 20
37.44225188763693
 30
0.0
 11
-38.69311084272301
 21
36.3366221685446
 31
0.0
  0
LINE
  5
D0D
330
1F
100
AcDbEntity
  8
SK2
  6
CONTINUOUS
370
25
 62
7
100
AcDbLine
 10
-39.44518717122206
 20
37.51296256575559
 30
0.0
 11
-38.16278075683309
 21
36.23055615136662
 31
0.0
  0
LINE
  5
D0E
330
1F
100
AcDbEntity
  8
SK2
  6
CONTINUOUS
370
25
 62
7
100
AcDbLine
 10
-39.09163378062878
 20
37.58367324387424
 30
0.0
 11
-37.63245067094318
 21
36.12449013418864
 31
0.0
  0
LINE
  5
D0F
330
1F
100
AcDbEntity
  8
SK2
  6
CONTINUOUS
370
25
 62
7
100
AcDbLine
 10
-38.7380803900355
 20
37.6543839219929
 30
0.0
 11
-37.10212058505326
 21
36.01842411701065
 31
0.0
  0
LINE
  5
D10
330
1F
100
AcDbEntity
  8
SK2
  6
CONTINUOUS
370
25
 62
7
100
AcDbLine
 10
-38.38452699944222
 20
37.72509460011155
 30
0.0
 11
-37.01
 21
36.35056760066934
 31
0.0
  0
LINE
  5
D11
330
1F
100
AcDbEntity
  8
SK2
  6
CONTINUOUS
370
25
 62
7
100
AcDbLine
 10
-38.03097360884894
 20
37.79580527823021
 30
0.0
 11
-37.01
 21
36.77483166938127
 31
0.0
  0
LINE
  5
D12
330
1F
100
AcDbEntity
  8
SK2
  6
CONTINUOUS
370
25
 62
7
100
AcDbLine
 10
-37.67742021825566
 20
37.86651595634887
 30
0.0
 11
-37.01
 21
37.19909573809321
 31
0.0
  0
LINE
  5
D13
330
1F
100
AcDbEntity
  8
SK2
  6
CONTINUOUS
370
25
 62
7
100
AcDbLine
 10
-37.32386682766239
 20
37.93722663446753
 30
0.0
 11
-37.01
 21
37.62335980680514
 31
0.0
  0
LINE
  5
D14
330
1F
100
AcDbEntity
  8
SK2
  6
CONTINUOUS
370
25
 62
7
100
AcDbLine
 10
29.99
 20
37.0
 30
0.0
 11
24.99
 21
36.0
 31
0.0
  0
LINE
  5
D15
330
1F
100
AcDbEntity
  8
SK2
  6
CONTINUOUS
370
25
 62
7
100
AcDbLine
 10
24.99
 20
36.0
 30
0.0
 11
24.99
 21
38.0
 31
0.0
  0
LINE
  5
D16
330
1F
100
AcDbEntity
  8
SK2
  6
CONTINUOUS
370
25
 62
7
100
AcDbLine
 10
24.99
 20
38.0
 30
0.0
 11
29.99
 21
37.0
 31
0.0
  0
LINE
  5
D17
330
1F
100
AcDbEntity
  8
SK2
  6
CONTINUOUS
370
25
 62
7
100
AcDbLine
 10
29.72438853987149
 20
36.94687770797429
 30
0.0
 11
29.81292569324766
 21
37.03541486135047
 31
0.0
  0
LINE
  5
D18
330
1F
100
AcDbEntity
  8
SK2
  6
CONTINUOUS
370
25
 62
7
100
AcDbLine
 10
29.19405845398158
 20
36.84081169079631
 30
0.0
 11
29.45937230265439
 21
37.10612553946912
 31
0.0
  0
LINE
  5
D19
330
1F
100
AcDbEntity
  8
SK2
  6
CONTINUOUS
370
25
 62
7
100
AcDbLine
 10
28.66372836809166
 20
36.73474567361833
 30
0.0
 11
29.10581891206111
 21
37.17683621758778
 31
0.0
  0
LINE
  5
D1A
330
1F
100
AcDbEntity
  8
SK2
  6
CONTINUOUS
370
25
 62
7
100
AcDbLine
 10
28.13339828220175
 20
36.62867965644035
 30
0.0
 11
28.75226552146784
 21
37.24754689570644
 31
0.0
  0
LINE
  5
D1B
330
1F
100
AcDbEntity
  8
SK2
  6
CONTINUOUS
370
25
 62
7
100
AcDbLine
 10
27.60306819631184
 20
36.52261363926237
 30
0.0
 11
28.39871213087456
 21
37.31825757382509
 31
0.0
  0
LINE
  5
D1C
330
1F
100
AcDbEntity
  8
SK2
  6
CONTINUOUS
370
25
 62
7
100
AcDbLine
 10
27.07273811042193
 20
36.41654762208438
 30
0.0
 11
28.04515874028128
 21
37.38896825194374
 31
0.0
  0
LINE
  5
D1D
330
1F
100
AcDbEntity
  8
SK2
  6
CONTINUOUS
370
25
 62
7
100
AcDbLine
 10
26.54240802453202
 20
36.3104816049064
 30
0.0
 11
27.69160534968801
 21
37.4596789300624
 31
0.0
  0
LINE
  5
D1E
330
1F
100
AcDbEntity
  8
SK2
  6
CONTINUOUS
370
25
 62
7
100
AcDbLine
 10
26.0120779386421
 20
36.20441558772842
 30
0.0
 11
27.33805195909473
 21
37.53038960818105
 31
0.0
  0
LINE
  5
D1F
330
1F
100
AcDbEntity
  8
SK2
  6
CONTINUOUS
370
25
 62
7
100
AcDbLine
 10
25.4817478527522
 20
36.09834957055044
 30
0.0
 11
26.98449856850145
 21
37.60110028629971
 31
0.0
  0
LINE
  5
D20
330
1F
100
AcDbEntity
  8
SK2
  6
CONTINUOUS
370
25
 62
7
100
AcDbLine
 10
24.99
 20
36.03086578651018
 30
0.0
 11
26.63094517790818
 21
37.67181096441836
 31
0.0
  0
LINE
  5
D21
330
1F
100
AcDbEntity
  8
SK2
  6
CONTINUOUS
370
25
 62
7
100
AcDbLine
 10
24.99
 20
36.4551298552221
 30
0.0
 11
26.2773917873149
 21
37.74252164253702
 31
0.0
  0
LINE
  5
D22
330
1F
100
AcDbEntity
  8
SK2
  6
CONTINUOUS
370
25
 62
7
100
AcDbLine
 10
24.99
 20
36.87939392393404
 30
0.0
 11
25.92383839672163
 21
37.81323232065567
 31
0.0
  0
LINE
  5
D23
330
1F
100
AcDbEntity
  8
SK2
  6
CONTINUOUS
370
25
 62
7
100
AcDbLine
 10
24.99
 20
37.30365799264597
 30
0.0
 11
25.57028500612835
 21
37.88394299877433
 31
0.0
  0
LINE
  5
D24
330
1F
100
AcDbEntity
  8
SK2
  6
CONTINUOUS
370
25
 62
7
100
AcDbLine
 10
24.99
 20
37.7279220613579
 30
0.0
 11
25.21673161553508
 21
37.95465367689299
 31
0.0
  0
LINE
  5
D25
330
1F
100
AcDbEntity
  8
SK2
  6
CONTINUOUS
370
25
 62
7
100
AcDbLine
 10
24.99
 20
36.09402589451768
 30
0.0
 11
25.06835491209806
 21
36.01567098241961
 31
0.0
  0
LINE
  5
D26
330
1F
100
AcDbEntity
  8
SK2
  6
CONTINUOUS
370
25
 62
7
100
AcDbLine
 10
24.99
 20
36.51828996322961
 30
0.0
 11
25.42190830269134
 21
36.08638166053827
 31
0.0
  0
LINE
  5
D27
330
1F
100
AcDbEntity
  8
SK2
  6
CONTINUOUS
370
25
 62
7
100
AcDbLine
 10
24.99
 20
36.94255403194154
 30
0.0
 11
25.77546169328462
 21
36.15709233865692
 31
0.0
  0
LINE
  5
D28
330
1F
100
AcDbEntity
  8
SK2
  6
CONTINUOUS
370
25
 62
7
100
AcDbLine
 10
24.99
 20
37.36681810065348
 30
0.0
 11
26.12901508387789
 21
36.22780301677558
 31
0.0
  0
LINE
  5
D29
330
1F
100
AcDbEntity
  8
SK2
  6
CONTINUOUS
370
25
 62
7
100
AcDbLine
 10
24.99
 20
37.7910821693654
 30
0.0
 11
26.48256847447117
 21
36.29851369489423
 31
0.0
  0
LINE
  5
D2A
330
1F
100
AcDbEntity
  8
SK2
  6
CONTINUOUS
370
25
 62
7
100
AcDbLine
 10
25.25918279759667
 20
37.94616344048067
 30
0.0
 11
26.83612186506444
 21
36.36922437301288
 31
0.0
  0
LINE
  5
D2B
330
1F
100
AcDbEntity
  8
SK2
  6
CONTINUOUS
370
25
 62
7
100
AcDbLine
 10
25.78951288348658
 20
37.84009742330268
 30
0.0
 11
27.18967525565772
 21
36.43993505113154
 31
0.0
  0
LINE
  5
D2C
330
1F
100
AcDbEntity
  8
SK2
  6
CONTINUOUS
370
25
 62
7
100
AcDbLine
 10
26.3198429693765
 20
37.7340314061247
 30
0.0
 11
27.54322864625099
 21
36.5106457292502
 31
0.0
  0
LINE
  5
D2D
330
1F
100
AcDbEntity
  8
SK2
  6
CONTINUOUS
370
25
 62
7
100
AcDbLine
 10
26.8501730552664
 20
37.62796538894672
 30
0.0
 11
27.89678203684427
 21
36.58135640736885
 31
0.0
  0
LINE
  5
D2E
330
1F
100
AcDbEntity
  8
SK2
  6
CONTINUOUS
370
25
 62
7
100
AcDbLine
 10
27.38050314115632
 20
37.52189937176874
 30
0.0
 11
28.25033542743754
 21
36.65206708548751
 31
0.0
  0
LINE
  5
D2F
330
1F
100
AcDbEntity
  8
SK2
  6
CONTINUOUS
370
25
 62
7
100
AcDbLine
 10
27.91083322704623
 20
37.41583335459075
 30
0.0
 11
28.60388881803082
 21
36.72277776360616
 31
0.0
  0
LINE
  5
D30
330
1F
100
AcDbEntity
  8
SK2
  6
CONTINUOUS
370
25
 62
7
100
AcDbLine
 10
28.44116331293615
 20
37.30976733741277
 30
0.0
 11
28.9574422086241
 21
36.79348844172482
 31
0.0
  0
LINE
  5
D31
330
1F
100
AcDbEntity
  8
SK2
  6
CONTINUOUS
370
25
 62
7
100
AcDbLine
 10
28.97149339882606
 20
37.20370132023479
 30
0.0
 11
29.31099559921737
 21
36.86419911984348
 31
0.0
  0
LINE
  5
D32
330
1F
100
AcDbEntity
  8
SK2
  6
CONTINUOUS
370
25
 62
7
100
AcDbLine
 10
29.50182348471597
 20
37.0976353030568
 30
0.0
 11
29.66454898981065
 21
36.93490979796213
 31
0.0
  0
TEXT
  5
D33
330
1F
100
AcDbEntity
  8
SK2
  6
CONTINUOUS
370
25
 62
7
100
AcDbText
 10
-8.926666666666666
 20
38.5
 30
0.0
 40
3.5
  1
72
 72
     1
 11
-6.01
 21
38.5
 31
0.0
100
AcDbText
  0
LINE
  5
D34
330
1F
100
AcDbEntity
  8
2
  6
CONTINUOUS
370
25
 62
7
100
AcDbLine
 10
29.9167767
 20
-4.9267767
 30
0.0
 11
46.9900000040416
 21
-22.00000000404157
 31
0.0
  0
LINE
  5
D35
330
1F
100
AcDbEntity
  8
2
  6
CONTINUOUS
370
25
 62
7
100
AcDbLine
 10
46.9900000040416
 20
-22.00000000404157
 30
0.0
 11
59.8900000040416
 21
-22.00000000404157
 31
0.0
  0
LINE
  5
D36
330
1F
100
AcDbEntity
  8
2
  6
CONTINUOUS
370
25
 62
7
100
AcDbLine
 10
29.9167767
 20
-4.9267767
 30
0.0
 11
29.74000000470336
 21
-4.750000004703363
 31
0.0
  0
LINE
  5
D37
330
1F
100
AcDbEntity
  8
2
  6
CONTINUOUS
370
25
 62
7
100
AcDbLine
 10
29.9167767
 20
-4.9267767
 30
0.0
 11
34.15941738711929
 21
-7.755203824746188
 31
0.0
  0
LINE
  5
D38
330
1F
100
AcDbEntity
  8
2
  6
CONTINUOUS
370
25
 62
7
100
AcDbLine
 10
34.15941738711929
 20
-7.755203824746188
 30
0.0
 11
32.7452038247462
 21
-9.169417387119283
 31
0.0
  0
LINE
  5
D39
330
1F
100
AcDbEntity
  8
2
  6
CONTINUOUS
370
25
 62
7
100
AcDbLine
 10
32.7452038247462
 20
-9.169417387119283
 30
0.0
 11
29.9167767
 21
-4.9267767
 31
0.0
  0
LINE
  5
D3A
330
1F
100
AcDbEntity
  8
2
  6
CONTINUOUS
370
25
 62
7
100
AcDbLine
 10
32.65762840600511
 20
-9.038054259007637
 30
0.0
 11
34.02805425900765
 21
-7.667628406005093
 31
0.0
  0
LINE
  5
D3B
330
1F
100
AcDbEntity
  8
2
  6
CONTINUOUS
370
25
 62
7
100
AcDbLine
 10
32.48792277852034
 20
-8.783495817780484
 30
0.0
 11
33.77349581778049
 21
-7.497922778520319
 31
0.0
  0
LINE
  5
D3C
330
1F
100
AcDbEntity
  8
2
  6
CONTINUOUS
370
25
 62
7
100
AcDbLine
 10
32.31821715103556
 20
-8.52893737655333
 30
0.0
 11
33.51893737655333
 21
-7.328217151035552
 31
0.0
  0
LINE
  5
D3D
330
1F
100
AcDbEntity
  8
2
  6
CONTINUOUS
370
25
 62
7
100
AcDbLine
 10
32.14851152355079
 20
-8.274378935326176
 30
0.0
 11
33.26437893532618
 21
-7.158511523550779
 31
0.0
  0
LINE
  5
D3E
330
1F
100
AcDbEntity
  8
2
  6
CONTINUOUS
370
25
 62
7
100
AcDbLine
 10
31.97880589606601
 20
-8.019820494099012
 30
0.0
 11
33.00982049409902
 21
-6.988805896066012
 31
0.0
  0
LINE
  5
D3F
330
1F
100
AcDbEntity
  8
2
  6
CONTINUOUS
370
25
 62
7
100
AcDbLine
 10
31.80910026858124
 20
-7.765262052871858
 30
0.0
 11
32.75526205287186
 21
-6.819100268581238
 31
0.0
  0
LINE
  5
D40
330
1F
100
AcDbEntity
  8
2
  6
CONTINUOUS
370
25
 62
7
100
AcDbLine
 10
31.63939464109648
 20
-7.510703611644693
 30
0.0
 11
32.5007036116447
 21
-6.649394641096471
 31
0.0
  0
LINE
  5
D41
330
1F
100
AcDbEntity
  8
2
  6
CONTINUOUS
370
25
 62
7
100
AcDbLine
 10
31.4696890136117
 20
-7.256145170417543
 30
0.0
 11
32.24614517041754
 21
-6.479689013611697
 31
0.0
  0
LINE
  5
D42
330
1F
100
AcDbEntity
  8
2
  6
CONTINUOUS
370
25
 62
7
100
AcDbLine
 10
31.29998338612693
 20
-7.001586729190382
 30
0.0
 11
31.99158672919038
 21
-6.309983386126923
 31
0.0
  0
LINE
  5
D43
330
1F
100
AcDbEntity
  8
2
  6
CONTINUOUS
370
25
 62
7
100
AcDbLine
 10
31.13027775864215
 20
-6.747028287963222
 30
0.0
 11
31.73702828796322
 21
-6.140277758642149
 31
0.0
  0
LINE
  5
D44
330
1F
100
AcDbEntity
  8
2
  6
CONTINUOUS
370
25
 62
7
100
AcDbLine
 10
30.96057213115738
 20
-6.492469846736071
 30
0.0
 11
31.48246984673607
 21
-5.970572131157379
 31
0.0
  0
LINE
  5
D45
330
1F
100
AcDbEntity
  8
2
  6
CONTINUOUS
370
25
 62
7
100
AcDbLine
 10
30.79086650367261
 20
-6.237911405508903
 30
0.0
 11
31.22791140550891
 21
-5.800866503672605
 31
0.0
  0
LINE
  5
D46
330
1F
100
AcDbEntity
  8
2
  6
CONTINUOUS
370
25
 62
7
100
AcDbLine
 10
30.62116087618784
 20
-5.983352964281753
 30
0.0
 11
30.97335296428175
 21
-5.631160876187838
 31
0.0
  0
LINE
  5
D47
330
1F
100
AcDbEntity
  8
2
  6
CONTINUOUS
370
25
 62
7
100
AcDbLine
 10
30.45145524870307
 20
-5.728794523054592
 30
0.0
 11
30.71879452305459
 21
-5.461455248703061
 31
0.0
  0
LINE
  5
D48
330
1F
100
AcDbEntity
  8
2
  6
CONTINUOUS
370
25
 62
7
100
AcDbLine
 10
30.28174962121829
 20
-5.474236081827446
 30
0.0
 11
30.46423608182744
 21
-5.291749621218294
 31
0.0
  0
LINE
  5
D49
330
1F
100
AcDbEntity
  8
2
  6
CONTINUOUS
370
25
 62
7
100
AcDbLine
 10
30.11204399373352
 20
-5.219677640600278
 30
0.0
 11
30.20967764060028
 21
-5.12204399373352
 31
0.0
  0
LINE
  5
D4A
330
1F
100
AcDbEntity
  8
2
  6
CONTINUOUS
370
25
 62
7
100
AcDbLine
 10
29.94233836624875
 20
-4.965119199373127
 30
0.0
 11
29.95511919937312
 21
-4.952338366248753
 31
0.0
  0
LINE
  5
D4B
330
1F
100
AcDbEntity
  8
2
  6
CONTINUOUS
370
25
 62
7
100
AcDbLine
 10
32.39920100426389
 20
-8.650413156395818
 30
0.0
 11
32.83170452986678
 21
-9.082916681998707
 31
0.0
  0
LINE
  5
D4C
330
1F
100
AcDbEntity
  8
2
  6
CONTINUOUS
370
25
 62
7
100
AcDbLine
 10
31.55067286684003
 20
-7.377620950260038
 30
0.0
 11
33.04383656422274
 21
-8.870784647642743
 31
0.0
  0
LINE
  5
D4D
330
1F
100
AcDbEntity
  8
2
  6
CONTINUOUS
370
25
 62
7
100
AcDbLine
 10
30.70214472941618
 20
-6.104828744124262
 30
0.0
 11
33.25596859857871
 21
-8.65865261328678
 31
0.0
  0
LINE
  5
D4E
330
1F
100
AcDbEntity
  8
2
  6
CONTINUOUS
370
25
 62
7
100
AcDbLine
 10
30.01151686201151
 20
-4.989936808007677
 30
0.0
 11
33.46810063293467
 21
-8.446520578930809
 31
0.0
  0
LINE
  5
D4F
330
1F
100
AcDbEntity
  8
2
  6
CONTINUOUS
370
25
 62
7
100
AcDbLine
 10
31.28430906814732
 20
-5.838464945431543
 30
0.0
 11
33.68023266729064
 21
-8.234388544574848
 31
0.0
  0
LINE
  5
D50
330
1F
100
AcDbEntity
  8
2
  6
CONTINUOUS
370
25
 62
7
100
AcDbLine
 10
32.55710127428313
 20
-6.686993082855416
 30
0.0
 11
33.89236470164661
 21
-8.022256510218881
 31
0.0
  0
LINE
  5
D51
330
1F
100
AcDbEntity
  8
2
  6
CONTINUOUS
370
25
 62
7
100
AcDbLine
 10
33.82989348041895
 20
-7.535521220279293
 30
0.0
 11
34.10449673600257
 21
-7.810124475862921
 31
0.0
  0
TEXT
  5
D52
330
1F
100
AcDbEntity
  8
2
  6
CONTINUOUS
370
25
 62
7
100
AcDbText
 10
48.48166667070827
 20
-20.50000000404157
 30
0.0
 40
3.5
  1
0.25
 72
     1
 11
53.44000000404161
 21
-20.50000000404157
 31
0.0
100
AcDbText
  0
LINE
  5
D53
330
1F
100
AcDbEntity
  8
SK1
  6
CONTINUOUS
370
50
 62
4
100
AcDbLine
 10
-0.01
 20
0.0
 30
0.0
 11
2.49
 21
0.0
 31
0.0
  0
LINE
  5
D54
330
1F
100
AcDbEntity
  8
SK1
  6
CONTINUOUS
370
50
 62
4
100
AcDbLine
 10
-0.01
 20
0.0
 30
0.0
 11
-0.01
 21
2.5
 31
0.0
  0
ARC
  5
D55
330
1F
100
AcDbEntity
  8
SK1
  6
CONTINUOUS
370
50
 62
4
100
AcDbCircle
 10
-0.01
 20
0.0
 30
0.0
 40
2.5
100
AcDbArc
 50
0.0
 51
90.0
  0
LINE
  5
D56
330
1F
100
AcDbEntity
  8
SK1
  6
CONTINUOUS
370
50
 62
4
100
AcDbLine
 10
-0.01
 20
0.0
 30
0.0
 11
-2.51
 21
0.0
 31
0.0
  0
ARC
  5
D57
330
1F
100
AcDbEntity
  8
SK1
  6
CONTINUOUS
370
50
 62
4
100
AcDbCircle
 10
-0.01
 20
0.0
 30
0.0
 40
2.5
100
AcDbArc
 50
180.0
 51
270.0
  0
LINE
  5
D58
330
1F
100
AcDbEntity
  8
SK1
  6
CONTINUOUS
370
50
 62
4
100
AcDbLine
 10
-0.01
 20
-2.5
 30
0.0
 11
-0.01
 21
0.0
 31
0.0
  0
ARC
  5
D59
330
1F
100
AcDbEntity
  8
SK1
  6
CONTINUOUS
370
50
 62
4
100
AcDbCircle
 10
-0.01
 20
0.0
 30
0.0
 40
2.5
100
AcDbArc
 50
270.0
 51
0.0
  0
ARC
  5
D5A
330
1F
100
AcDbEntity
  8
SK1
  6
CONTINUOUS
370
50
 62
4
100
AcDbCircle
 10
-0.01
 20
0.0
 30
0.0
 40
2.5
100
AcDbArc
 50
90.0
 51
180.0
  0
LINE
  5
D5B
330
1F
100
AcDbEntity
  8
SK1
  6
CONTINUOUS
370
50
 62
4
100
AcDbLine
 10
-0.32832627443191
 20
-2.479495909600069
 30
0.0
 11
-0.01
 21
-2.161169635168159
 31
0.0
  0
LINE
  5
D5C
330
1F
100
AcDbEntity
  8
SK1
  6
CONTINUOUS
370
50
 62
4
100
AcDbLine
 10
2.15116963516816
 20
0.0
 30
0.0
 11
2.469495909600069
 21
0.3183262744319091
 31
0.0
  0
LINE
  5
D5D
330
1F
100
AcDbEntity
  8
SK1
  6
CONTINUOUS
370
50
 62
4
100
AcDbLine
 10
-0.625281817185723
 20
-2.422898061760609
 30
0.0
 11
-0.01
 21
-1.807616244574886
 31
0.0
  0
LINE
  5
D5E
330
1F
100
AcDbEntity
  8
SK1
  6
CONTINUOUS
370
50
 62
4
100
AcDbLine
 10
1.797616244574887
 20
0.0
 30
0.0
 11
2.412898061760609
 21
0.6152818171857222
 31
0.0
  0
LINE
  5
D5F
330
1F
100
AcDbEntity
  8
SK1
  6
CONTINUOUS
370
50
 62
4
100
AcDbLine
 10
-0.8935965231639721
 20
-2.337659377145585
 30
0.0
 11
-0.01
 21
-1.454062853981614
 31
0.0
  0
LINE
  5
D60
330
1F
100
AcDbEntity
  8
SK1
  6
CONTINUOUS
370
50
 62
4
100
AcDbLine
 10
1.444062853981614
 20
0.0
 30
0.0
 11
2.327659377145586
 21
0.8835965231639715
 31
0.0
  0
LINE
  5
D61
330
1F
100
AcDbEntity
  8
SK1
  6
CONTINUOUS
370
50
 62
4
100
AcDbLine
 10
-1.138779664263143
 20
-2.229289127651483
 30
0.0
 11
-0.01
 21
-1.100509463388341
 31
0.0
  0
LINE
  5
D62
330
1F
100
AcDbEntity
  8
SK1
  6
CONTINUOUS
370
50
 62
4
100
AcDbLine
 10
1.090509463388341
 20
0.0
 30
0.0
 11
2.219289127651484
 21
1.128779664263142
 31
0.0
  0
LINE
  5
D63
330
1F
100
AcDbEntity
  8
SK1
  6
CONTINUOUS
370
50
 62
4
100
AcDbLine
 10
-1.364032791010379
 20
-2.100988863805446
 30
0.0
 11
-0.01
 21
-0.7469560727950677
 31
0.0
  0
LINE
  5
D64
330
1F
100
AcDbEntity
  8
SK1
  6
CONTINUOUS
370
50
 62
4
100
AcDbLine
 10
0.736956072795068
 20
0.0
 30
0.0
 11
2.090988863805447
 21
1.354032791010378
 31
0.0
  0
LINE
  5
D65
330
1F
100
AcDbEntity
  8
SK1
  6
CONTINUOUS
370
50
 62
4
100
AcDbLine
 10
-1.569387394659872
 20
-1.952790076861666
 30
0.0
 11
-0.01
 21
-0.3934026822017946
 31
0.0
  0
LINE
  5
D66
330
1F
100
AcDbEntity
  8
SK1
  6
CONTINUOUS
370
50
 62
4
100
AcDbLine
 10
0.3834026822017948
 20
0.0
 30
0.0
 11
1.942790076861667
 21
1.559387394659871
 31
0.0
  0
LINE
  5
D67
330
1F
100
AcDbEntity
  8
SK1
  6
CONTINUOUS
370
50
 62
4
100
AcDbLine
 10
-1.756970020883365
 20
-1.786819312491886
 30
0.0
 11
-0.01
 21
-0.0398492916085216
 31
0.0
  0
LINE
  5
D68
330
1F
100
AcDbEntity
  8
SK1
  6
CONTINUOUS
370
50
 62
4
100
AcDbLine
 10
0.0298492916085216
 20
0.0
 30
0.0
 11
1.776819312491887
 21
1.746970020883364
 31
0.0
  0
LINE
  5
D69
330
1F
100
AcDbEntity
  8
SK1
  6
CONTINUOUS
370
50
 62
4
100
AcDbLine
 10
-1.927371878232655
 20
-1.603667779247902
 30
0.0
 11
-0.3237040989847517
 21
0.0
 31
0.0
  0
LINE
  5
D6A
330
1F
100
AcDbEntity
  8
SK1
  6
CONTINUOUS
370
50
 62
4
100
AcDbLine
 10
-0.01
 20
0.3137040989847515
 30
0.0
 11
1.593667779247903
 21
1.917371878232654
 31
0.0
  0
LINE
  5
D6B
330
1F
100
AcDbEntity
  8
SK1
  6
CONTINUOUS
370
50
 62
4
100
AcDbLine
 10
-2.078741231122433
 20
-1.401483741544407
 30
0.0
 11
-0.6772574895780249
 21
0.0
 31
0.0
  0
LINE
  5
D6C
330
1F
100
AcDbEntity
  8
SK1
  6
CONTINUOUS
370
50
 62
4
100
AcDbLine
 10
-0.01
 20
0.6672574895780246
 30
0.0
 11
1.391483741544409
 21
2.068741231122432
 31
0.0
  0
LINE
  5
D6D
330
1F
100
AcDbEntity
  8
SK1
  6
CONTINUOUS
370
50
 62
4
100
AcDbLine
 10
-2.2123876557675
 20
-1.181576775596201
 30
0.0
 11
-1.030810880171298
 21
0.0
 31
0.0
  0
LINE
  5
D6E
330
1F
100
AcDbEntity
  8
SK1
  6
CONTINUOUS
370
50
 62
4
100
AcDbLine
 10
-0.01
 20
1.020810880171298
 30
0.0
 11
1.171576775596202
 21
2.202387655767499
 31
0.0
  0
LINE
  5
D6F
330
1F
100
AcDbEntity
  8
SK1
  6
CONTINUOUS
370
50
 62
4
100
AcDbLine
 10
-2.325450943493525
 20
-0.9410866727289533
 30
0.0
 11
-1.384364270764571
 21
0.0
 31
0.0
  0
LINE
  5
D70
330
1F
100
AcDbEntity
  8
SK1
  6
CONTINUOUS
370
50
 62
4
100
AcDbLine
 10
-0.01
 20
1.374364270764571
 30
0.0
 11
0.9310866727289543
 21
2.315450943493524
 31
0.0
  0
LINE
  5
D71
330
1F
100
AcDbEntity
  8
SK1
  6
CONTINUOUS
370
50
 62
4
100
AcDbLine
 10
-2.415290600131854
 20
-0.6773729387740097
 30
0.0
 11
-1.737917661357844
 21
0.0
 31
0.0
  0
LINE
  5
D72
330
1F
100
AcDbEntity
  8
SK1
  6
CONTINUOUS
370
50
 62
4
100
AcDbLine
 10
-0.01
 20
1.727917661357844
 30
0.0
 11
0.6673729387740106
 21
2.405290600131854
 31
0.0
  0
LINE
  5
D73
330
1F
100
AcDbEntity
  8
SK1
  6
CONTINUOUS
370
50
 62
4
100
AcDbLine
 10
-2.478598823056026
 20
-0.3871277711049084
 30
0.0
 11
-2.091471051951117
 21
0.0
 31
0.0
  0
LINE
  5
D74
330
1F
100
AcDbEntity
  8
SK1
  6
CONTINUOUS
370
50
 62
4
100
AcDbLine
 10
-0.01
 20
2.081471051951117
 30
0.0
 11
0.3771277711049085
 21
2.468598823056025
 31
0.0
  0
LINE
  5
D75
330
1F
100
AcDbEntity
  8
SK1
  6
CONTINUOUS
370
50
 62
4
100
AcDbLine
 10
-2.508020276172772
 20
-0.0629958336283822
 30
0.0
 11
-2.44502444254439
 21
0.0
 31
0.0
  0
LINE
  5
D76
330
1F
100
AcDbEntity
  8
SK1
  6
CONTINUOUS
370
50
 62
4
100
AcDbLine
 10
-0.01
 20
2.435024442544389
 30
0.0
 11
0.0529958336283828
 21
2.498020276172772
 31
0.0
  0
LINE
  5
D77
330
1F
100
AcDbEntity
  8
SK1
  6
CONTINUOUS
370
50
 62
4
100
AcDbLine
 10
-2.347336523620827
 20
-0.8844932833271533
 30
0.0
 11
-0.894493283327151
 21
-2.337336523620827
 31
0.0
  0
LINE
  5
D78
330
1F
100
AcDbEntity
  8
SK1
  6
CONTINUOUS
370
50
 62
4
100
AcDbLine
 10
-2.476237059966593
 20
-0.4020393563881135
 30
0.0
 11
-0.4120393563881111
 21
-2.466237059966594
 31
0.0
  0
LINE
  5
D79
330
1F
100
AcDbEntity
  8
SK1
  6
CONTINUOUS
370
50
 62
4
100
AcDbLine
 10
-2.509522297881595
 20
-0.0152007278798383
 30
0.0
 11
-0.0252007278798351
 21
-2.499522297881596
 31
0.0
  0
LINE
  5
D7A
330
1F
100
AcDbEntity
  8
SK1
  6
CONTINUOUS
370
50
 62
4
100
AcDbLine
 10
-2.17116963516816
 20
0.0
 30
0.0
 11
-0.01
 21
-2.161169635168158
 31
0.0
  0
LINE
  5
D7B
330
1F
100
AcDbEntity
  8
SK1
  6
CONTINUOUS
370
50
 62
4
100
AcDbLine
 10
-1.817616244574888
 20
0.0
 30
0.0
 11
-0.01
 21
-1.807616244574886
 31
0.0
  0
LINE
  5
D7C
330
1F
100
AcDbEntity
  8
SK1
  6
CONTINUOUS
370
50
 62
4
100
AcDbLine
 10
-1.464062853981615
 20
0.0
 30
0.0
 11
-0.01
 21
-1.454062853981613
 31
0.0
  0
LINE
  5
D7D
330
1F
100
AcDbEntity
  8
SK1
  6
CONTINUOUS
370
50
 62
4
100
AcDbLine
 10
-1.110509463388341
 20
0.0
 30
0.0
 11
-0.01
 21
-1.10050946338834
 31
0.0
  0
LINE
  5
D7E
330
1F
100
AcDbEntity
  8
SK1
  6
CONTINUOUS
370
50
 62
4
100
AcDbLine
 10
-0.7569560727950676
 20
0.0
 30
0.0
 11
-0.01
 21
-0.7469560727950668
 31
0.0
  0
LINE
  5
D7F
330
1F
100
AcDbEntity
  8
SK1
  6
CONTINUOUS
370
50
 62
4
100
AcDbLine
 10
-0.4034026822017942
 20
0.0
 30
0.0
 11
-0.01
 21
-0.3934026822017938
 31
0.0
  0
LINE
  5
D80
330
1F
100
AcDbEntity
  8
SK1
  6
CONTINUOUS
370
50
 62
4
100
AcDbLine
 10
-0.0498492916085216
 20
0.0
 30
0.0
 11
-0.01
 21
-0.0398492916085216
 31
0.0
  0
LINE
  5
D81
330
1F
100
AcDbEntity
  8
SK1
  6
CONTINUOUS
370
50
 62
4
100
AcDbLine
 10
-0.01
 20
0.3137040989847515
 30
0.0
 11
0.3037040989847518
 21
0.0
 31
0.0
  0
LINE
  5
D82
330
1F
100
AcDbEntity
  8
SK1
  6
CONTINUOUS
370
50
 62
4
100
AcDbLine
 10
-0.01
 20
0.6672574895780246
 30
0.0
 11
0.6572574895780253
 21
0.0
 31
0.0
  0
LINE
  5
D83
330
1F
100
AcDbEntity
  8
SK1
  6
CONTINUOUS
370
50
 62
4
100
AcDbLine
 10
-0.01
 20
1.020810880171298
 30
0.0
 11
1.010810880171299
 21
0.0
 31
0.0
  0
LINE
  5
D84
330
1F
100
AcDbEntity
  8
SK1
  6
CONTINUOUS
370
50
 62
4
100
AcDbLine
 10
-0.01
 20
1.37436427076457
 30
0.0
 11
1.364364270764571
 21
0.0
 31
0.0
  0
LINE
  5
D85
330
1F
100
AcDbEntity
  8
SK1
  6
CONTINUOUS
370
50
 62
4
100
AcDbLine
 10
-0.01
 20
1.727917661357843
 30
0.0
 11
1.717917661357845
 21
0.0
 31
0.0
  0
LINE
  5
D86
330
1F
100
AcDbEntity
  8
SK1
  6
CONTINUOUS
370
50
 62
4
100
AcDbLine
 10
-0.01
 20
2.081471051951116
 30
0.0
 11
2.071471051951118
 21
0.0
 31
0.0
  0
LINE
  5
D87
330
1F
100
AcDbEntity
  8
SK1
  6
CONTINUOUS
370
50
 62
4
100
AcDbLine
 10
-0.01
 20
2.435024442544389
 30
0.0
 11
2.425024442544392
 21
0.0
 31
0.0
  0
LINE
  5
D88
330
1F
100
AcDbEntity
  8
SK1
  6
CONTINUOUS
370
50
 62
4
100
AcDbLine
 10
0.2977647139123103
 20
2.480813119225352
 30
0.0
 11
2.470813119225352
 21
0.307764713912313
 31
0.0
  0
LINE
  5
D89
330
1F
100
AcDbEntity
  8
SK1
  6
CONTINUOUS
370
50
 62
4
100
AcDbLine
 10
0.7511924397506667
 20
2.380938783980268
 30
0.0
 11
2.370938783980268
 21
0.7611924397506691
 31
0.0
  0
LINE
  5
D8A
330
1F
100
AcDbEntity
  8
SK1
  6
CONTINUOUS
370
50
 62
4
100
AcDbLine
 10
1.47586376213526
 20
2.009820852188948
 30
0.0
 11
1.999820852188946
 21
1.485863762135263
 31
0.0
  0
LINE
  5
D8B
330
1F
100
AcDbEntity
  8
4
  6
LONGDASH_DASH
370
25
 62
2
100
AcDbLine
 10
-0.01
 20
0.0
 30
0.0
 11
29.99
 21
0.0
 31
0.0
  0
LINE
  5
D8C
330
1F
100
AcDbEntity
  8
SK4
  6
LONGDASH_DASH
370
25
 62
2
100
AcDbLine
 10
-48.01
 20
0.0
 30
0.0
 11
35.99
 21
0.0
 31
0.0
  0
ENDSEC
  0
SECTION
  2
OBJECTS
  0
DICTIONARY
  5
C
330
0
100
AcDbDictionary
281
     1
  3
ACAD_GROUP
350
D
  3
ACAD_LAYOUT
350
1A
  3
ACAD_MATERIAL
350
3B
  3
ACAD_MLEADERSTYLE
350
D8F
  3
ACAD_MLINESTYLE
350
17
  3
ACAD_PLOTSETTINGS
350
19
  3
ACAD_PLOTSTYLENAME
350
E
  3
ACAD_SCALELIST
350
52F
  3
ACAD_VISUALSTYLE
350
2A
  3
AcDbVariableDictionary
350
D8D
  0
DICTIONARY
  5
D
102
{ACAD_REACTORS
330
C
102
}
330
C
100
AcDbDictionary
281
     1
  0
DICTIONARY
  5
1A
102
{ACAD_REACTORS
330
C
102
}
330
C
100
AcDbDictionary
281
     1
  3
Layout1
350
1E
  3
Layout2
350
26
  3
Model
350
22
  0
DICTIONARY
  5
3B
102
{ACAD_REACTORS
330
C
102
}
330
C
100
AcDbDictionary
281
     1
  3
ByBlock
350
3D
  3
ByLayer
350
3C
  3
Global
350
3E
  0
DICTIONARY
  5
D8F
102
{ACAD_REACTORS
330
C
102
}
330
C
100
AcDbDictionary
281
     1
  0
DICTIONARY
  5
17
102
{ACAD_REACTORS
330
C
102
}
330
C
100
AcDbDictionary
281
     1
  3
Standard
350
18
  0
DICTIONARY
  5
19
102
{ACAD_REACTORS
330
C
102
}
330
C
100
AcDbDictionary
281
     1
  0
ACDBDICTIONARYWDFLT
  5
E
102
{ACAD_REACTORS
330
C
102
}
330
C
100
AcDbDictionary
281
     1
  3
Normal
350
F
100
AcDbDictionaryWithDefault
340
F
  0
DICTIONARY
  5
52F
102
{ACAD_REACTORS
330
C
102
}
330
C
100
AcDbDictionary
281
     1
  3
A0
350
530
  3
A1
350
531
  3
A2
350
532
  3
A3
350
533
  3
A4
350
534
  3
A5
350
535
  3
A6
350
536
  3
A7
350
537
  3
A8
350
538
  3
A9
350
539
  3
B0
350
53A
  3
B1
350
53B
  3
B2
350
53C
  3
B3
350
53D
  3
B4
350
53E
  3
B5
350
53F
  3
B6
350
540
  3
B7
350
541
  3
B8
350
542
  3
B9
350
543
  3
C0
350
544
  3
C1
350
545
  3
C2
350
546
  3
C3
350
547
  3
C4
350
548
  3
C5
350
549
  3
C6
350
54A
  3
C7
350
54B
  3
C8
350
54C
  3
C9
350
54D
  3
D0
350
54E
  3
D1
350
54F
  3
D2
350
550
  0
DICTIONARY
  5
2A
102
{ACAD_REACTORS
330
C
102
}
330
C
100
AcDbDictionary
281
     1
  3
2dWireframe
350
2F
  3
3D Hidden
350
31
  3
3dWireframe
350
30
  3
Basic
350
32
  3
Brighten
350
36
  3
ColorChange
350
3A
  3
Conceptual
350
34
  3
Dim
350
35
  3
Facepattern
350
39
  3
Flat
350
2B
  3
FlatWithEdges
350
2C
  3
Gouraud
350
2D
  3
GouraudWithEdges
350
2E
  3
Linepattern
350
38
  3
Realistic
350
33
  3
Thicken
350
37
  0
DICTIONARY
  5
D8D
102
{ACAD_REACTORS
330
C
102
}
330
C
100
AcDbDictionary
281
     1
  3
CANNOSCALE
350
D92
  3
DIMASSOC
350
D93
  3
HIDETEXT
350
D94
  3
PSOLHEIGHT
350
D91
  3
PSOLWIDTH
350
D90
  0
LAYOUT
  5
1E
102
{ACAD_REACTORS
330
1A
102
}
330
1A
100
AcDbPlotSettings
  1

  2
none_device
  4

  6

 40
0.0
 41
0.0
 42
0.0
 43
0.0
 44
0.0
 45
0.0
 46
0.0
 47
0.0
 48
0.0
 49
0.0
140
0.0
141
0.0
142
1.0
143
1.0
 70
   688
 72
     0
 73
     0
 74
     5
  7

 75
    16
147
1.0
148
0.0
149
0.0
100
AcDbLayout
  1
Layout1
 70
     1
 71
     1
 10
0.0
 20
0.0
 11
420.0
 21
297.0
 12
0.0
 22
0.0
 32
0.0
 14
1.000000000000000E+20
 24
1.000000000000000E+20
 34
1.000000000000000E+20
 15
-1.000000000000000E+20
 25
-1.000000000000000E+20
 35
-1.000000000000000E+20
146
0.0
 13
0.0
 23
0.0
 33
0.0
 16
1.0
 26
0.0
 36
0.0
 17
0.0
 27
1.0
 37
0.0
 76
     0
330
1B
  0
LAYOUT
  5
26
102
{ACAD_REACTORS
330
1A
102
}
330
1A
100
AcDbPlotSettings
  1

  2
none_device
  4

  6

 40
0.0
 41
0.0
 42
0.0
 43
0.0
 44
0.0
 45
0.0
 46
0.0
 47
0.0
 48
0.0
 49
0.0
140
0.0
141
0.0
142
1.0
143
1.0
 70
   688
 72
     0
 73
     0
 74
     5
  7

 75
    16
147
1.0
148
0.0
149
0.0
100
AcDbLayout
  1
Layout2
 70
     1
 71
     2
 10
0.0
 20
0.0
 11
0.0
 21
0.0
 12
0.0
 22
0.0
 32
0.0
 14
0.0
 24
0.0
 34
0.0
 15
0.0
 25
0.0
 35
0.0
146
0.0
 13
0.0
 23
0.0
 33
0.0
 16
1.0
 26
0.0
 36
0.0
 17
0.0
 27
1.0
 37
0.0
 76
     0
330
23
  0
LAYOUT
  5
22
102
{ACAD_REACTORS
330
1A
102
}
330
1A
100
AcDbPlotSettings
  1

  2
none_device
  4

  6

 40
0.0
 41
0.0
 42
0.0
 43
0.0
 44
0.0
 45
0.0
 46
0.0
 47
0.0
 48
0.0
 49
0.0
140
0.0
141
0.0
142
1.0
143
1.0
 70
  1712
 72
     0
 73
     0
 74
     0
  7

 75
     0
147
1.0
148
0.0
149
0.0
100
AcDbLayout
  1
Model
 70
     1
 71
     0
 10
0.0
 20
0.0
 11
420.0
 21
297.0
 12
0.0
 22
0.0
 32
0.0
 14
0.0
 24
0.0
 34
0.0
 15
25.0
 25
35.0
 35
0.0
146
0.0
 13
0.0
 23
0.0
 33
0.0
 16
1.0
 26
0.0
 36
0.0
 17
0.0
 27
1.0
 37
0.0
 76
     0
330
1F
331
29
  0
MATERIAL
  5
3D
102
{ACAD_REACTORS
330
3B
102
}
102
{ACAD_XDICTIONARY
360
DB7
102
}
330
3B
100
AcDbMaterial
  1
ByBlock
  0
MATERIAL
  5
3C
102
{ACAD_REACTORS
330
3B
102
}
102
{ACAD_XDICTIONARY
360
DB5
102
}
330
3B
100
AcDbMaterial
  1
ByLayer
  0
MATERIAL
  5
3E
102
{ACAD_REACTORS
330
3B
102
}
102
{ACAD_XDICTIONARY
360
DB9
102
}
330
3B
100
AcDbMaterial
  1
Global
  0
MLINESTYLE
  5
18
102
{ACAD_REACTORS
330
17
102
}
330
17
100
AcDbMlineStyle
  2
Standard
 70
     0
  3

 62
   256
 51
90.0
 52
90.0
 71
     2
 49
0.5
 62
   256
  6
BYLAYER
 49
-0.5
 62
   256
  6
BYLAYER
  0
ACDBPLACEHOLDER
  5
F
102
{ACAD_REACTORS
330
E
102
}
330
E
  0
SCALE
  5
530
102
{ACAD_REACTORS
330
52F
102
}
330
52F
100
AcDbScale
 70
     0
300
1:1
140
1.0
141
1.0
290
     1
  0
SCALE
  5
531
102
{ACAD_REACTORS
330
52F
102
}
330
52F
100
AcDbScale
 70
     0
300
1:2
140
1.0
141
2.0
290
     0
  0
SCALE
  5
532
102
{ACAD_REACTORS
330
52F
102
}
330
52F
100
AcDbScale
 70
     0
300
1:4
140
1.0
141
4.0
290
     0
  0
SCALE
  5
533
102
{ACAD_REACTORS
330
52F
102
}
330
52F
100
AcDbScale
 70
     0
300
1:5
140
1.0
141
5.0
290
     0
  0
SCALE
  5
534
102
{ACAD_REACTORS
330
52F
102
}
330
52F
100
AcDbScale
 70
     0
300
1:8
140
1.0
141
8.0
290
     0
  0
SCALE
  5
535
102
{ACAD_REACTORS
330
52F
102
}
330
52F
100
AcDbScale
 70
     0
300
1:10
140
1.0
141
10.0
290
     0
  0
SCALE
  5
536
102
{ACAD_REACTORS
330
52F
102
}
330
52F
100
AcDbScale
 70
     0
300
1:16
140
1.0
141
16.0
290
     0
  0
SCALE
  5
537
102
{ACAD_REACTORS
330
52F
102
}
330
52F
100
AcDbScale
 70
     0
300
1:20
140
1.0
141
20.0
290
     0
  0
SCALE
  5
538
102
{ACAD_REACTORS
330
52F
102
}
330
52F
100
AcDbScale
 70
     0
300
1:30
140
1.0
141
30.0
290
     0
  0
SCALE
  5
539
102
{ACAD_REACTORS
330
52F
102
}
330
52F
100
AcDbScale
 70
     0
300
1:40
140
1.0
141
40.0
290
     0
  0
SCALE
  5
53A
102
{ACAD_REACTORS
330
52F
102
}
330
52F
100
AcDbScale
 70
     0
300
1:50
140
1.0
141
50.0
290
     0
  0
SCALE
  5
53B
102
{ACAD_REACTORS
330
52F
102
}
330
52F
100
AcDbScale
 70
     0
300
1:100
140
1.0
141
100.0
290
     0
  0
SCALE
  5
53C
102
{ACAD_REACTORS
330
52F
102
}
330
52F
100
AcDbScale
 70
     0
300
2:1
140
2.0
141
1.0
290
     0
  0
SCALE
  5
53D
102
{ACAD_REACTORS
330
52F
102
}
330
52F
100
AcDbScale
 70
     0
300
4:1
140
4.0
141
1.0
290
     0
  0
SCALE
  5
53E
102
{ACAD_REACTORS
330
52F
102
}
330
52F
100
AcDbScale
 70
     0
300
8:1
140
8.0
141
1.0
290
     0
  0
SCALE
  5
53F
102
{ACAD_REACTORS
330
52F
102
}
330
52F
100
AcDbScale
 70
     0
300
10:1
140
10.0
141
1.0
290
     0
  0
SCALE
  5
540
102
{ACAD_REACTORS
330
52F
102
}
330
52F
100
AcDbScale
 70
     0
300
100:1
140
100.0
141
1.0
290
     0
  0
SCALE
  5
541
102
{ACAD_REACTORS
330
52F
102
}
330
52F
100
AcDbScale
 70
     0
300
1/128" = 1'-0"
140
0.0078125
141
12.0
290
     0
  0
SCALE
  5
542
102
{ACAD_REACTORS
330
52F
102
}
330
52F
100
AcDbScale
 70
     0
300
1/64" = 1'-0"
140
0.015625
141
12.0
290
     0
  0
SCALE
  5
543
102
{ACAD_REACTORS
330
52F
102
}
330
52F
100
AcDbScale
 70
     0
300
1/32" = 1'-0"
140
0.03125
141
12.0
290
     0
  0
SCALE
  5
544
102
{ACAD_REACTORS
330
52F
102
}
330
52F
100
AcDbScale
 70
     0
300
1/16" = 1'-0"
140
0.0625
141
12.0
290
     0
  0
SCALE
  5
545
102
{ACAD_REACTORS
330
52F
102
}
330
52F
100
AcDbScale
 70
     0
300
3/32" = 1'-0"
140
0.09375
141
12.0
290
     0
  0
SCALE
  5
546
102
{ACAD_REACTORS
330
52F
102
}
330
52F
100
AcDbScale
 70
     0
300
1/8" = 1'-0"
140
0.125
141
12.0
290
     0
  0
SCALE
  5
547
102
{ACAD_REACTORS
330
52F
102
}
330
52F
100
AcDbScale
 70
     0
300
3/16" = 1'-0"
140
0.1875
141
12.0
290
     0
  0
SCALE
  5
548
102
{ACAD_REACTORS
330
52F
102
}
330
52F
100
AcDbScale
 70
     0
300
1/4" = 1'-0"
140
0.25
141
12.0
290
     0
  0
SCALE
  5
549
102
{ACAD_REACTORS
330
52F
102
}
330
52F
100
AcDbScale
 70
     0
300
3/8" = 1'-0"
140
0.375
141
12.0
290
     0
  0
SCALE
  5
54A
102
{ACAD_REACTORS
330
52F
102
}
330
52F
100
AcDbScale
 70
     0
300
1/2" = 1'-0"
140
0.5
141
12.0
290
     0
  0
SCALE
  5
54B
102
{ACAD_REACTORS
330
52F
102
}
330
52F
100
AcDbScale
 70
     0
300
3/4" = 1'-0"
140
0.75
141
12.0
290
     0
  0
SCALE
  5
54C
102
{ACAD_REACTORS
330
52F
102
}
330
52F
100
AcDbScale
 70
     0
300
1" = 1'-0"
140
1.0
141
12.0
290
     0
  0
SCALE
  5
54D
102
{ACAD_REACTORS
330
52F
102
}
330
52F
100
AcDbScale
 70
     0
300
1-1/2" = 1'-0"
140
1.5
141
12.0
290
     0
  0
SCALE
  5
54E
102
{ACAD_REACTORS
330
52F
102
}
330
52F
100
AcDbScale
 70
     0
300
3" = 1'-0"
140
3.0
141
12.0
290
     0
  0
SCALE
  5
54F
102
{ACAD_REACTORS
330
52F
102
}
330
52F
100
AcDbScale
 70
     0
300
6" = 1'-0"
140
6.0
141
12.0
290
     0
  0
SCALE
  5
550
102
{ACAD_REACTORS
330
52F
102
}
330
52F
100
AcDbScale
 70
     0
300
1'-0" = 1'-0"
140
12.0
141
12.0
290
     0
  0
VISUALSTYLE
  5
2F
102
{ACAD_REACTORS
330
2A
102
}
102
{ACAD_XDICTIONARY
360
D9D
102
}
330
2A
100
AcDbVisualStyle
  2
2dWireframe
 70
     4
 71
     0
 72
     2
 73
     0
 90
        0
 40
-0.6
 41
-30.0
 62
     5
 63
     7
 74
     1
 91
        4
 64
     7
 65
   257
 75
     1
175
     1
 42
1.0
 92
        0
 66
   257
 43
1.0
 76
     1
 77
     6
 78
     2
 67
     7
 79
     5
170
     0
171
     0
290
     0
174
     0
 93
        1
 44
0.0
173
     0
291
     0
 45
0.0
1001
ACAD
1000
AcDbSavedByObjectVersion
1070
     0
  0
VISUALSTYLE
  5
31
102
{ACAD_REACTORS
330
2A
102
}
102
{ACAD_XDICTIONARY
360
DA1
102
}
330
2A
100
AcDbVisualStyle
  2
3D Hidden
 70
     6
 71
     1
 72
     2
 73
     2
 90
        0
 40
-0.6
 41
-30.0
 62
     5
 63
     7
 74
     2
 91
        2
 64
     7
 65
   257
 75
     2
175
     1
 42
40.0
 92
        0
 66
   257
 43
1.0
 76
     1
 77
     6
 78
     2
 67
     7
 79
     3
170
     0
171
     0
290
     0
174
     0
 93
        1
 44
0.0
173
     0
291
     0
 45
0.0
1001
ACAD
1000
AcDbSavedByObjectVersion
1070
     0
  0
VISUALSTYLE
  5
30
102
{ACAD_REACTORS
330
2A
102
}
102
{ACAD_XDICTIONARY
360
D9F
102
}
330
2A
100
AcDbVisualStyle
  2
3dWireframe
 70
     5
 71
     0
 72
     2
 73
     0
 90
        0
 40
-0.6
 41
-30.0
 62
     5
 63
     7
 74
     1
 91
        4
 64
     7
 65
   257
 75
     1
175
     1
 42
1.0
 92
        0
 66
   257
 43
1.0
 76
     1
 77
     6
 78
     2
 67
     7
 79
     5
170
     0
171
     0
290
     0
174
     0
 93
        1
 44
0.0
173
     0
291
     0
 45
0.0
1001
ACAD
1000
AcDbSavedByObjectVersion
1070
     0
  0
VISUALSTYLE
  5
32
102
{ACAD_REACTORS
330
2A
102
}
102
{ACAD_XDICTIONARY
360
DA3
102
}
330
2A
100
AcDbVisualStyle
  2
Basic
 70
     7
 71
     1
 72
     0
 73
     1
 90
        0
 40
-0.6
 41
-30.0
 62
     5
 63
     7
 74
     0
 91
        4
 64
     7
 65
   257
 75
     1
175
     1
 42
1.0
 92
        8
 66
     7
 43
1.0
 76
     1
 77
     6
 78
     2
 67
     7
 79
     5
170
     0
171
     0
290
     0
174
     0
 93
        1
 44
0.0
173
     0
291
     1
 45
0.0
1001
ACAD
1000
AcDbSavedByObjectVersion
1070
     0
  0
VISUALSTYLE
  5
36
102
{ACAD_REACTORS
330
2A
102
}
102
{ACAD_XDICTIONARY
360
DAB
102
}
330
2A
100
AcDbVisualStyle
  2
Brighten
 70
    12
 71
     2
 72
     2
 73
     0
 90
        0
 40
-0.6
 41
-30.0
 62
     5
 63
     7
 74
     1
 91
        4
 64
     7
 65
   257
 75
     1
175
     1
 42
1.0
 92
        8
 66
     7
 43
1.0
 76
     1
 77
     6
 78
     2
 67
     7
 79
     5
170
     0
171
     0
290
     0
174
     0
 93
        1
 44
50.0
173
     0
291
     1
 45
0.0
1001
ACAD
1000
AcDbSavedByObjectVersion
1070
     0
  0
VISUALSTYLE
  5
3A
102
{ACAD_REACTORS
330
2A
102
}
102
{ACAD_XDICTIONARY
360
DB3
102
}
330
2A
100
AcDbVisualStyle
  2
ColorChange
 70
    16
 71
     2
 72
     2
 73
     3
 90
        0
 40
-0.6
 41
-30.0
 62
     5
 63
     8
 74
     1
 91
        4
 64
     7
 65
   257
 75
     1
175
     1
 42
1.0
 92
        8
 66
     8
 43
1.0
 76
     1
 77
     6
 78
     2
 67
     7
 79
     5
170
     0
171
     0
290
     0
174
     0
 93
        1
 44
0.0
173
     0
291
     1
 45
0.0
1001
ACAD
1000
AcDbSavedByObjectVersion
1070
     0
  0
VISUALSTYLE
  5
34
102
{ACAD_REACTORS
330
2A
102
}
102
{ACAD_XDICTIONARY
360
DA7
102
}
330
2A
100
AcDbVisualStyle
  2
Conceptual
 70
     9
 71
     3
 72
     2
 73
     0
 90
        0
 40
-0.6
 41
-30.0
 62
     5
 63
     7
 74
     2
 91
        2
 64
     7
 65
   257
 75
     1
175
     1
 42
40.0
 92
        8
 66
     7
 43
1.0
 76
     1
 77
     6
 78
     2
 67
     7
 79
     3
170
     0
171
     0
290
     0
174
     0
 93
        1
 44
0.0
173
     0
291
     0
 45
0.0
1001
ACAD
1000
AcDbSavedByObjectVersion
1070
     0
  0
VISUALSTYLE
  5
35
102
{ACAD_REACTORS
330
2A
102
}
102
{ACAD_XDICTIONARY
360
DA9
102
}
330
2A
100
AcDbVisualStyle
  2
Dim
 70
    11
 71
     2
 72
     2
 73
     0
 90
        0
 40
-0.6
 41
-30.0
 62
     5
 63
     7
 74
     1
 91
        4
 64
     7
 65
   257
 75
     1
175
     1
 42
1.0
 92
        8
 66
     7
 43
1.0
 76
     1
 77
     6
 78
     2
 67
     7
 79
     5
170
     0
171
     0
290
     0
174
     0
 93
        1
 44
-50.0
173
     0
291
     1
 45
0.0
1001
ACAD
1000
AcDbSavedByObjectVersion
1070
     0
  0
VISUALSTYLE
  5
39
102
{ACAD_REACTORS
330
2A
102
}
102
{ACAD_XDICTIONARY
360
DB1
102
}
330
2A
100
AcDbVisualStyle
  2
Facepattern
 70
    15
 71
     2
 72
     2
 73
     0
 90
        0
 40
-0.6
 41
-30.0
 62
     5
 63
     7
 74
     1
 91
        4
 64
     7
 65
   257
 75
     1
175
     1
 42
1.0
 92
        8
 66
     7
 43
1.0
 76
     1
 77
     6
 78
     2
 67
     7
 79
     5
170
     0
171
     0
290
     0
174
     0
 93
        1
 44
0.0
173
     0
291
     1
 45
0.0
1001
ACAD
1000
AcDbSavedByObjectVersion
1070
     0
  0
VISUALSTYLE
  5
2B
102
{ACAD_REACTORS
330
2A
102
}
102
{ACAD_XDICTIONARY
360
D95
102
}
330
2A
100
AcDbVisualStyle
  2
Flat
 70
     0
 71
     2
 72
     1
 73
     1
 90
        2
 40
-0.6
 41
30.0
 62
     5
 63
     7
 74
     0
 91
        4
 64
     7
 65
   257
 75
     1
175
     1
 42
1.0
 92
        8
 66
     7
 43
1.0
 76
     1
 77
     6
 78
     2
 67
     7
 79
     5
170
     0
171
     0
290
     0
174
     0
 93
       13
 44
0.0
173
     0
291
     1
 45
0.0
1001
ACAD
1000
AcDbSavedByObjectVersion
1070
     0
  0
VISUALSTYLE
  5
2C
102
{ACAD_REACTORS
330
2A
102
}
102
{ACAD_XDICTIONARY
360
D97
102
}
330
2A
100
AcDbVisualStyle
  2
FlatWithEdges
 70
     1
 71
     2
 72
     1
 73
     1
 90
        2
 40
-0.6
 41
30.0
 62
     5
 63
     7
 74
     1
 91
        4
 64
     7
 65
   257
 75
     1
175
     1
 42
1.0
 92
        0
 66
   257
 43
1.0
 76
     1
 77
     6
 78
     2
 67
     7
 79
     5
170
     0
171
     0
290
     0
174
     0
 93
       13
 44
0.0
173
     0
291
     1
 45
0.0
1001
ACAD
1000
AcDbSavedByObjectVersion
1070
     0
  0
VISUALSTYLE
  5
2D
102
{ACAD_REACTORS
330
2A
102
}
102
{ACAD_XDICTIONARY
360
D99
102
}
330
2A
100
AcDbVisualStyle
  2
Gouraud
 70
     2
 71
     2
 72
     2
 73
     1
 90
        2
 40
-0.6
 41
30.0
 62
     5
 63
     7
 74
     0
 91
        4
 64
     7
 65
   257
 75
     1
175
     1
 42
1.0
 92
        0
 66
     7
 43
1.0
 76
     1
 77
     6
 78
     2
 67
     7
 79
     5
170
     0
171
     0
290
     0
174
     0
 93
       13
 44
0.0
173
     0
291
     1
 45
0.0
1001
ACAD
1000
AcDbSavedByObjectVersion
1070
     0
  0
VISUALSTYLE
  5
2E
102
{ACAD_REACTORS
330
2A
102
}
102
{ACAD_XDICTIONARY
360
D9B
102
}
330
2A
100
AcDbVisualStyle
  2
GouraudWithEdges
 70
     3
 71
     2
 72
     2
 73
     1
 90
        2
 40
-0.6
 41
30.0
 62
     5
 63
     7
 74
     1
 91
        4
 64
     7
 65
   257
 75
     1
175
     1
 42
1.0
 92
        0
 66
   257
 43
1.0
 76
     1
 77
     6
 78
     2
 67
     7
 79
     5
170
     0
171
     0
290
     0
174
     0
 93
       13
 44
0.0
173
     0
291
     1
 45
0.0
1001
ACAD
1000
AcDbSavedByObjectVersion
1070
     0
  0
VISUALSTYLE
  5
38
102
{ACAD_REACTORS
330
2A
102
}
102
{ACAD_XDICTIONARY
360
DAF
102
}
330
2A
100
AcDbVisualStyle
  2
Linepattern
 70
    14
 71
     2
 72
     2
 73
     0
 90
        0
 40
-0.6
 41
-30.0
 62
     5
 63
     7
 74
     1
 91
        4
 64
     7
 65
   257
 75
     7
175
     7
 42
1.0
 92
        8
 66
     7
 43
1.0
 76
     1
 77
     6
 78
     2
 67
     7
 79
     5
170
     0
171
     0
290
     0
174
     0
 93
        1
 44
0.0
173
     0
291
     1
 45
0.0
1001
ACAD
1000
AcDbSavedByObjectVersion
1070
     0
  0
VISUALSTYLE
  5
33
102
{ACAD_REACTORS
330
2A
102
}
102
{ACAD_XDICTIONARY
360
DA5
102
}
330
2A
100
AcDbVisualStyle
  2
Realistic
 70
     8
 71
     2
 72
     2
 73
     0
 90
        0
 40
-0.6
 41
-30.0
 62
     5
 63
     7
 74
     1
 91
        0
 64
     7
 65
   257
 75
     1
175
     1
 42
1.0
 92
        8
 66
     8
 43
1.0
 76
     1
 77
     6
 78
     2
 67
     7
 79
     5
170
     0
171
     0
290
     0
174
     0
 93
       13
 44
0.0
173
     0
291
     0
 45
0.0
1001
ACAD
1000
AcDbSavedByObjectVersion
1070
     0
  0
VISUALSTYLE
  5
37
102
{ACAD_REACTORS
330
2A
102
}
102
{ACAD_XDICTIONARY
360
DAD
102
}
330
2A
100
AcDbVisualStyle
  2
Thicken
 70
    13
 71
     2
 72
     2
 73
     0
 90
        0
 40
-0.6
 41
-30.0
 62
     5
 63
     7
 74
     1
 91
        4
 64
     7
 65
   257
 75
     1
175
     1
 42
1.0
 92
       12
 66
     7
 43
1.0
 76
     1
 77
     6
 78
     2
 67
     7
 79
     5
170
     0
171
     0
290
     0
174
     0
 93
        1
 44
0.0
173
     0
291
     1
 45
0.0
1001
ACAD
1000
AcDbSavedByObjectVersion
1070
     0
  0
DICTIONARYVAR
  5
D92
102
{ACAD_REACTORS
330
D8D
102
}
330
D8D
100
DictionaryVariables
280
     0
  1
1:1
  0
DICTIONARYVAR
  5
D93
102
{ACAD_REACTORS
330
D8D
102
}
330
D8D
100
DictionaryVariables
280
     0
  1
2
  0
DICTIONARYVAR
  5
D94
102
{ACAD_REACTORS
330
D8D
102
}
330
D8D
100
DictionaryVariables
280
     0
  1
1
  0
DICTIONARYVAR
  5
D91
102
{ACAD_REACTORS
330
D8D
102
}
330
D8D
100
DictionaryVariables
280
     0
  1
80.000000
  0
DICTIONARYVAR
  5
D90
102
{ACAD_REACTORS
330
D8D
102
}
330
D8D
100
DictionaryVariables
280
     0
  1
5.000000
  0
DICTIONARY
  5
DB7
330
3D
100
AcDbDictionary
280
     1
281
     1
  3
ACAD_XREC_ROUNDTRIP
360
DB8
  0
DICTIONARY
  5
DB5
330
3C
100
AcDbDictionary
280
     1
281
     1
  3
ACAD_XREC_ROUNDTRIP
360
DB6
  0
DICTIONARY
  5
DB9
330
3E
100
AcDbDictionary
280
     1
281
     1
  3
ACAD_XREC_ROUNDTRIP
360
DBA
  0
DICTIONARY
  5
D9D
330
2F
100
AcDbDictionary
280
     1
281
     1
  3
ACAD_XREC_ROUNDTRIP
360
D9E
  0
DICTIONARY
  5
DA1
330
31
100
AcDbDictionary
280
     1
281
     1
  3
ACAD_XREC_ROUNDTRIP
360
DA2
  0
DICTIONARY
  5
D9F
330
30
100
AcDbDictionary
280
     1
281
     1
  3
ACAD_XREC_ROUNDTRIP
360
DA0
  0
DICTIONARY
  5
DA3
330
32
100
AcDbDictionary
280
     1
281
     1
  3
ACAD_XREC_ROUNDTRIP
360
DA4
  0
DICTIONARY
  5
DAB
330
36
100
AcDbDictionary
280
     1
281
     1
  3
ACAD_XREC_ROUNDTRIP
360
DAC
  0
DICTIONARY
  5
DB3
330
3A
100
AcDbDictionary
280
     1
281
     1
  3
ACAD_XREC_ROUNDTRIP
360
DB4
  0
DICTIONARY
  5
DA7
330
34
100
AcDbDictionary
280
     1
281
     1
  3
ACAD_XREC_ROUNDTRIP
360
DA8
  0
DICTIONARY
  5
DA9
330
35
100
AcDbDictionary
280
     1
281
     1
  3
ACAD_XREC_ROUNDTRIP
360
DAA
  0
DICTIONARY
  5
DB1
330
39
100
AcDbDictionary
280
     1
281
     1
  3
ACAD_XREC_ROUNDTRIP
360
DB2
  0
DICTIONARY
  5
D95
330
2B
100
AcDbDictionary
280
     1
281
     1
  3
ACAD_XREC_ROUNDTRIP
360
D96
  0
DICTIONARY
  5
D97
330
2C
100
AcDbDictionary
280
     1
281
     1
  3
ACAD_XREC_ROUNDTRIP
360
D98
  0
DICTIONARY
  5
D99
330
2D
100
AcDbDictionary
280
     1
281
     1
  3
ACAD_XREC_ROUNDTRIP
360
D9A
  0
DICTIONARY
  5
D9B
330
2E
100
AcDbDictionary
280
     1
281
     1
  3
ACAD_XREC_ROUNDTRIP
360
D9C
  0
DICTIONARY
  5
DAF
330
38
100
AcDbDictionary
280
     1
281
     1
  3
ACAD_XREC_ROUNDTRIP
360
DB0
  0
DICTIONARY
  5
DA5
330
33
100
AcDbDictionary
280
     1
281
     1
  3
ACAD_XREC_ROUNDTRIP
360
DA6
  0
DICTIONARY
  5
DAD
330
37
100
AcDbDictionary
280
     1
281
     1
  3
ACAD_XREC_ROUNDTRIP
360
DAE
  0
XRECORD
  5
DB8
102
{ACAD_REACTORS
330
DB7
102
}
330
DB7
100
AcDbXrecord
280
     1
102
MATERIAL
148
0.0
149
0.0
149
0.0
 93
        0
 94
      127
282
     0
 72
     1
 77
     1
171
     1
175
     1
179
     1
273
     0
  0
XRECORD
  5
DB6
102
{ACAD_REACTORS
330
DB5
102
}
330
DB5
100
AcDbXrecord
280
     1
102
MATERIAL
148
0.0
149
0.0
149
0.0
 93
        0
 94
      127
282
     0
 72
     1
 77
     1
171
     1
175
     1
179
     1
273
     0
  0
XRECORD
  5
DBA
102
{ACAD_REACTORS
330
DB9
102
}
330
DB9
100
AcDbXrecord
280
     1
102
MATERIAL
148
0.0
149
0.0
149
0.0
 93
        0
 94
      127
282
     0
 72
     1
 77
     1
171
     1
175
     1
179
     1
273
     0
  0
XRECORD
  5
D9E
102
{ACAD_REACTORS
330
D9D
102
}
330
D9D
100
AcDbXrecord
280
     1
102
RTVSPropertyOp0
 70
     1
102
RTVSPropertyOp1
 70
     1
102
RTVSPropertyOp2
 70
     1
102
RTVSPropertyOp3
 70
     1
102
RTVSPropertyOp4
 70
     1
102
RTVSPropertyOp5
 70
     1
102
RTVSPropertyOp6
 70
     1
102
RTVSPropertyOp7
 70
     1
102
RTVSPropertyOp8
 70
     1
102
RTVSPropertyOp9
 70
     1
102
RTVSPropertyOp10
 70
     1
102
RTVSPropertyOp11
 70
     1
102
RTVSPropertyOp12
 70
     1
102
RTVSPropertyOp13
 70
     1
102
RTVSPropertyOp14
 70
     1
102
RTVSPropertyOp15
 70
     1
102
RTVSPropertyOp16
 70
     1
102
RTVSPropertyOp17
 70
     1
102
RTVSPropertyOp18
 70
     1
102
RTVSPropertyOp19
 70
     1
102
RTVSPropertyOp20
 70
     1
102
RTVSPropertyOp21
 70
     1
102
RTVSPropertyOp22
 70
     1
102
RTVSPropertyOp23
 70
     1
102
RTVSPropertyOp24
 70
     1
102
RTVSPropertyOp25
 70
     1
102
RTVSPropertyOp26
 70
     1
102
RTVSPropertyOp27
 70
     1
  0
XRECORD
  5
DA2
102
{ACAD_REACTORS
330
DA1
102
}
330
DA1
100
AcDbXrecord
280
     1
102
RTVSPropertyOp0
 70
     1
102
RTVSPropertyOp1
 70
     1
102
RTVSPropertyOp2
 70
     1
102
RTVSPropertyOp3
 70
     1
102
RTVSPropertyOp4
 70
     1
102
RTVSPropertyOp5
 70
     1
102
RTVSPropertyOp6
 70
     1
102
RTVSPropertyOp7
 70
     1
102
RTVSPropertyOp8
 70
     1
102
RTVSPropertyOp9
 70
     1
102
RTVSPropertyOp10
 70
     1
102
RTVSPropertyOp11
 70
     1
102
RTVSPropertyOp12
 70
     1
102
RTVSPropertyOp13
 70
     1
102
RTVSPropertyOp14
 70
     1
102
RTVSPropertyOp15
 70
     1
102
RTVSPropertyOp16
 70
     1
102
RTVSPropertyOp17
 70
     1
102
RTVSPropertyOp18
 70
     1
102
RTVSPropertyOp19
 70
     1
102
RTVSPropertyOp20
 70
     1
102
RTVSPropertyOp21
 70
     1
102
RTVSPropertyOp22
 70
     1
102
RTVSPropertyOp23
 70
     1
102
RTVSPropertyOp24
 70
     1
102
RTVSPropertyOp25
 70
     1
102
RTVSPropertyOp26
 70
     1
102
RTVSPropertyOp27
 70
     1
  0
XRECORD
  5
DA0
102
{ACAD_REACTORS
330
D9F
102
}
330
D9F
100
AcDbXrecord
280
     1
102
RTVSPropertyOp0
 70
     1
102
RTVSPropertyOp1
 70
     1
102
RTVSPropertyOp2
 70
     1
102
RTVSPropertyOp3
 70
     1
102
RTVSPropertyOp4
 70
     1
102
RTVSPropertyOp5
 70
     1
102
RTVSPropertyOp6
 70
     1
102
RTVSPropertyOp7
 70
     1
102
RTVSPropertyOp8
 70
     1
102
RTVSPropertyOp9
 70
     1
102
RTVSPropertyOp10
 70
     1
102
RTVSPropertyOp11
 70
     1
102
RTVSPropertyOp12
 70
     1
102
RTVSPropertyOp13
 70
     1
102
RTVSPropertyOp14
 70
     1
102
RTVSPropertyOp15
 70
     1
102
RTVSPropertyOp16
 70
     1
102
RTVSPropertyOp17
 70
     1
102
RTVSPropertyOp18
 70
     1
102
RTVSPropertyOp19
 70
     1
102
RTVSPropertyOp20
 70
     1
102
RTVSPropertyOp21
 70
     1
102
RTVSPropertyOp22
 70
     1
102
RTVSPropertyOp23
 70
     1
102
RTVSPropertyOp24
 70
     1
102
RTVSPropertyOp25
 70
     1
102
RTVSPropertyOp26
 70
     1
102
RTVSPropertyOp27
 70
     1
  0
XRECORD
  5
DA4
102
{ACAD_REACTORS
330
DA3
102
}
330
DA3
100
AcDbXrecord
280
     1
102
RTVSPropertyOp0
 70
     1
102
RTVSPropertyOp1
 70
     1
102
RTVSPropertyOp2
 70
     1
102
RTVSPropertyOp3
 70
     1
102
RTVSPropertyOp4
 70
     1
102
RTVSPropertyOp5
 70
     1
102
RTVSPropertyOp6
 70
     1
102
RTVSPropertyOp7
 70
     1
102
RTVSPropertyOp8
 70
     1
102
RTVSPropertyOp9
 70
     1
102
RTVSPropertyOp10
 70
     1
102
RTVSPropertyOp11
 70
     1
102
RTVSPropertyOp12
 70
     1
102
RTVSPropertyOp13
 70
     1
102
RTVSPropertyOp14
 70
     1
102
RTVSPropertyOp15
 70
     1
102
RTVSPropertyOp16
 70
     1
102
RTVSPropertyOp17
 70
     1
102
RTVSPropertyOp18
 70
     1
102
RTVSPropertyOp19
 70
     1
102
RTVSPropertyOp20
 70
     1
102
RTVSPropertyOp21
 70
     1
102
RTVSPropertyOp22
 70
     1
102
RTVSPropertyOp23
 70
     1
102
RTVSPropertyOp24
 70
     1
102
RTVSPropertyOp25
 70
     1
102
RTVSPropertyOp26
 70
     1
102
RTVSPropertyOp27
 70
     1
  0
XRECORD
  5
DAC
102
{ACAD_REACTORS
330
DAB
102
}
330
DAB
100
AcDbXrecord
280
     1
102
RTVSPropertyOp0
 70
     1
102
RTVSPropertyOp1
 70
     1
102
RTVSPropertyOp2
 70
     1
102
RTVSPropertyOp3
 70
     1
102
RTVSPropertyOp4
 70
     1
102
RTVSPropertyOp5
 70
     1
102
RTVSPropertyOp6
 70
     1
102
RTVSPropertyOp7
 70
     1
102
RTVSPropertyOp8
 70
     1
102
RTVSPropertyOp9
 70
     1
102
RTVSPropertyOp10
 70
     1
102
RTVSPropertyOp11
 70
     1
102
RTVSPropertyOp12
 70
     1
102
RTVSPropertyOp13
 70
     1
102
RTVSPropertyOp14
 70
     1
102
RTVSPropertyOp15
 70
     1
102
RTVSPropertyOp16
 70
     1
102
RTVSPropertyOp17
 70
     1
102
RTVSPropertyOp18
 70
     1
102
RTVSPropertyOp19
 70
     1
102
RTVSPropertyOp20
 70
     1
102
RTVSPropertyOp21
 70
     1
102
RTVSPropertyOp22
 70
     1
102
RTVSPropertyOp23
 70
     1
102
RTVSPropertyOp24
 70
     1
102
RTVSPropertyOp25
 70
     1
102
RTVSPropertyOp26
 70
     1
102
RTVSPropertyOp27
 70
     1
  0
XRECORD
  5
DB4
102
{ACAD_REACTORS
330
DB3
102
}
330
DB3
100
AcDbXrecord
280
     1
102
RTVSPropertyOp0
 70
     1
102
RTVSPropertyOp1
 70
     1
102
RTVSPropertyOp2
 70
     1
102
RTVSPropertyOp3
 70
     1
102
RTVSPropertyOp4
 70
     1
102
RTVSPropertyOp5
 70
     1
102
RTVSPropertyOp6
 70
     1
102
RTVSPropertyOp7
 70
     1
102
RTVSPropertyOp8
 70
     1
102
RTVSPropertyOp9
 70
     1
102
RTVSPropertyOp10
 70
     1
102
RTVSPropertyOp11
 70
     1
102
RTVSPropertyOp12
 70
     1
102
RTVSPropertyOp13
 70
     1
102
RTVSPropertyOp14
 70
     1
102
RTVSPropertyOp15
 70
     1
102
RTVSPropertyOp16
 70
     1
102
RTVSPropertyOp17
 70
     1
102
RTVSPropertyOp18
 70
     1
102
RTVSPropertyOp19
 70
     1
102
RTVSPropertyOp20
 70
     1
102
RTVSPropertyOp21
 70
     1
102
RTVSPropertyOp22
 70
     1
102
RTVSPropertyOp23
 70
     1
102
RTVSPropertyOp24
 70
     1
102
RTVSPropertyOp25
 70
     1
102
RTVSPropertyOp26
 70
     1
102
RTVSPropertyOp27
 70
     1
  0
XRECORD
  5
DA8
102
{ACAD_REACTORS
330
DA7
102
}
330
DA7
100
AcDbXrecord
280
     1
102
RTVSPropertyOp0
 70
     1
102
RTVSPropertyOp1
 70
     1
102
RTVSPropertyOp2
 70
     1
102
RTVSPropertyOp3
 70
     1
102
RTVSPropertyOp4
 70
     1
102
RTVSPropertyOp5
 70
     1
102
RTVSPropertyOp6
 70
     1
102
RTVSPropertyOp7
 70
     1
102
RTVSPropertyOp8
 70
     1
102
RTVSPropertyOp9
 70
     1
102
RTVSPropertyOp10
 70
     1
102
RTVSPropertyOp11
 70
     1
102
RTVSPropertyOp12
 70
     1
102
RTVSPropertyOp13
 70
     1
102
RTVSPropertyOp14
 70
     1
102
RTVSPropertyOp15
 70
     1
102
RTVSPropertyOp16
 70
     1
102
RTVSPropertyOp17
 70
     1
102
RTVSPropertyOp18
 70
     1
102
RTVSPropertyOp19
 70
     1
102
RTVSPropertyOp20
 70
     1
102
RTVSPropertyOp21
 70
     1
102
RTVSPropertyOp22
 70
     1
102
RTVSPropertyOp23
 70
     1
102
RTVSPropertyOp24
 70
     1
102
RTVSPropertyOp25
 70
     1
102
RTVSPropertyOp26
 70
     1
102
RTVSPropertyOp27
 70
     1
  0
XRECORD
  5
DAA
102
{ACAD_REACTORS
330
DA9
102
}
330
DA9
100
AcDbXrecord
280
     1
102
RTVSPropertyOp0
 70
     1
102
RTVSPropertyOp1
 70
     1
102
RTVSPropertyOp2
 70
     1
102
RTVSPropertyOp3
 70
     1
102
RTVSPropertyOp4
 70
     1
102
RTVSPropertyOp5
 70
     1
102
RTVSPropertyOp6
 70
     1
102
RTVSPropertyOp7
 70
     1
102
RTVSPropertyOp8
 70
     1
102
RTVSPropertyOp9
 70
     1
102
RTVSPropertyOp10
 70
     1
102
RTVSPropertyOp11
 70
     1
102
RTVSPropertyOp12
 70
     1
102
RTVSPropertyOp13
 70
     1
102
RTVSPropertyOp14
 70
     1
102
RTVSPropertyOp15
 70
     1
102
RTVSPropertyOp16
 70
     1
102
RTVSPropertyOp17
 70
     1
102
RTVSPropertyOp18
 70
     1
102
RTVSPropertyOp19
 70
     1
102
RTVSPropertyOp20
 70
     1
102
RTVSPropertyOp21
 70
     1
102
RTVSPropertyOp22
 70
     1
102
RTVSPropertyOp23
 70
     1
102
RTVSPropertyOp24
 70
     1
102
RTVSPropertyOp25
 70
     1
102
RTVSPropertyOp26
 70
     1
102
RTVSPropertyOp27
 70
     1
  0
XRECORD
  5
DB2
102
{ACAD_REACTORS
330
DB1
102
}
330
DB1
100
AcDbXrecord
280
     1
102
RTVSPropertyOp0
 70
     1
102
RTVSPropertyOp1
 70
     1
102
RTVSPropertyOp2
 70
     1
102
RTVSPropertyOp3
 70
     1
102
RTVSPropertyOp4
 70
     1
102
RTVSPropertyOp5
 70
     1
102
RTVSPropertyOp6
 70
     1
102
RTVSPropertyOp7
 70
     1
102
RTVSPropertyOp8
 70
     1
102
RTVSPropertyOp9
 70
     1
102
RTVSPropertyOp10
 70
     1
102
RTVSPropertyOp11
 70
     1
102
RTVSPropertyOp12
 70
     1
102
RTVSPropertyOp13
 70
     1
102
RTVSPropertyOp14
 70
     1
102
RTVSPropertyOp15
 70
     1
102
RTVSPropertyOp16
 70
     1
102
RTVSPropertyOp17
 70
     1
102
RTVSPropertyOp18
 70
     1
102
RTVSPropertyOp19
 70
     1
102
RTVSPropertyOp20
 70
     1
102
RTVSPropertyOp21
 70
     1
102
RTVSPropertyOp22
 70
     1
102
RTVSPropertyOp23
 70
     1
102
RTVSPropertyOp24
 70
     1
102
RTVSPropertyOp25
 70
     1
102
RTVSPropertyOp26
 70
     1
102
RTVSPropertyOp27
 70
     1
  0
XRECORD
  5
D96
102
{ACAD_REACTORS
330
D95
102
}
330
D95
100
AcDbXrecord
280
     1
102
RTVSPropertyOp0
 70
     1
102
RTVSPropertyOp1
 70
     1
102
RTVSPropertyOp2
 70
     1
102
RTVSPropertyOp3
 70
     1
102
RTVSPropertyOp4
 70
     1
102
RTVSPropertyOp5
 70
     1
102
RTVSPropertyOp6
 70
     1
102
RTVSPropertyOp7
 70
     1
102
RTVSPropertyOp8
 70
     1
102
RTVSPropertyOp9
 70
     1
102
RTVSPropertyOp10
 70
     1
102
RTVSPropertyOp11
 70
     1
102
RTVSPropertyOp12
 70
     1
102
RTVSPropertyOp13
 70
     1
102
RTVSPropertyOp14
 70
     1
102
RTVSPropertyOp15
 70
     1
102
RTVSPropertyOp16
 70
     1
102
RTVSPropertyOp17
 70
     1
102
RTVSPropertyOp18
 70
     1
102
RTVSPropertyOp19
 70
     1
102
RTVSPropertyOp20
 70
     1
102
RTVSPropertyOp21
 70
     1
102
RTVSPropertyOp22
 70
     1
102
RTVSPropertyOp23
 70
     1
102
RTVSPropertyOp24
 70
     1
102
RTVSPropertyOp25
 70
     1
102
RTVSPropertyOp26
 70
     1
102
RTVSPropertyOp27
 70
     1
  0
XRECORD
  5
D98
102
{ACAD_REACTORS
330
D97
102
}
330
D97
100
AcDbXrecord
280
     1
102
RTVSPropertyOp0
 70
     1
102
RTVSPropertyOp1
 70
     1
102
RTVSPropertyOp2
 70
     1
102
RTVSPropertyOp3
 70
     1
102
RTVSPropertyOp4
 70
     1
102
RTVSPropertyOp5
 70
     1
102
RTVSPropertyOp6
 70
     1
102
RTVSPropertyOp7
 70
     1
102
RTVSPropertyOp8
 70
     1
102
RTVSPropertyOp9
 70
     1
102
RTVSPropertyOp10
 70
     1
102
RTVSPropertyOp11
 70
     1
102
RTVSPropertyOp12
 70
     1
102
RTVSPropertyOp13
 70
     1
102
RTVSPropertyOp14
 70
     1
102
RTVSPropertyOp15
 70
     1
102
RTVSPropertyOp16
 70
     1
102
RTVSPropertyOp17
 70
     1
102
RTVSPropertyOp18
 70
     1
102
RTVSPropertyOp19
 70
     1
102
RTVSPropertyOp20
 70
     1
102
RTVSPropertyOp21
 70
     1
102
RTVSPropertyOp22
 70
     1
102
RTVSPropertyOp23
 70
     1
102
RTVSPropertyOp24
 70
     1
102
RTVSPropertyOp25
 70
     1
102
RTVSPropertyOp26
 70
     1
102
RTVSPropertyOp27
 70
     1
  0
XRECORD
  5
D9A
102
{ACAD_REACTORS
330
D99
102
}
330
D99
100
AcDbXrecord
280
     1
102
RTVSPropertyOp0
 70
     1
102
RTVSPropertyOp1
 70
     1
102
RTVSPropertyOp2
 70
     1
102
RTVSPropertyOp3
 70
     1
102
RTVSPropertyOp4
 70
     1
102
RTVSPropertyOp5
 70
     1
102
RTVSPropertyOp6
 70
     1
102
RTVSPropertyOp7
 70
     1
102
RTVSPropertyOp8
 70
     1
102
RTVSPropertyOp9
 70
     1
102
RTVSPropertyOp10
 70
     1
102
RTVSPropertyOp11
 70
     1
102
RTVSPropertyOp12
 70
     1
102
RTVSPropertyOp13
 70
     1
102
RTVSPropertyOp14
 70
     1
102
RTVSPropertyOp15
 70
     1
102
RTVSPropertyOp16
 70
     1
102
RTVSPropertyOp17
 70
     1
102
RTVSPropertyOp18
 70
     1
102
RTVSPropertyOp19
 70
     1
102
RTVSPropertyOp20
 70
     1
102
RTVSPropertyOp21
 70
     1
102
RTVSPropertyOp22
 70
     1
102
RTVSPropertyOp23
 70
     1
102
RTVSPropertyOp24
 70
     1
102
RTVSPropertyOp25
 70
     1
102
RTVSPropertyOp26
 70
     1
102
RTVSPropertyOp27
 70
     1
  0
XRECORD
  5
D9C
102
{ACAD_REACTORS
330
D9B
102
}
330
D9B
100
AcDbXrecord
280
     1
102
RTVSPropertyOp0
 70
     1
102
RTVSPropertyOp1
 70
     1
102
RTVSPropertyOp2
 70
     1
102
RTVSPropertyOp3
 70
     1
102
RTVSPropertyOp4
 70
     1
102
RTVSPropertyOp5
 70
     1
102
RTVSPropertyOp6
 70
     1
102
RTVSPropertyOp7
 70
     1
102
RTVSPropertyOp8
 70
     1
102
RTVSPropertyOp9
 70
     1
102
RTVSPropertyOp10
 70
     1
102
RTVSPropertyOp11
 70
     1
102
RTVSPropertyOp12
 70
     1
102
RTVSPropertyOp13
 70
     1
102
RTVSPropertyOp14
 70
     1
102
RTVSPropertyOp15
 70
     1
102
RTVSPropertyOp16
 70
     1
102
RTVSPropertyOp17
 70
     1
102
RTVSPropertyOp18
 70
     1
102
RTVSPropertyOp19
 70
     1
102
RTVSPropertyOp20
 70
     1
102
RTVSPropertyOp21
 70
     1
102
RTVSPropertyOp22
 70
     1
102
RTVSPropertyOp23
 70
     1
102
RTVSPropertyOp24
 70
     1
102
RTVSPropertyOp25
 70
     1
102
RTVSPropertyOp26
 70
     1
102
RTVSPropertyOp27
 70
     1
  0
XRECORD
  5
DB0
102
{ACAD_REACTORS
330
DAF
102
}
330
DAF
100
AcDbXrecord
280
     1
102
RTVSPropertyOp0
 70
     1
102
RTVSPropertyOp1
 70
     1
102
RTVSPropertyOp2
 70
     1
102
RTVSPropertyOp3
 70
     1
102
RTVSPropertyOp4
 70
     1
102
RTVSPropertyOp5
 70
     1
102
RTVSPropertyOp6
 70
     1
102
RTVSPropertyOp7
 70
     1
102
RTVSPropertyOp8
 70
     1
102
RTVSPropertyOp9
 70
     1
102
RTVSPropertyOp10
 70
     1
102
RTVSPropertyOp11
 70
     1
102
RTVSPropertyOp12
 70
     1
102
RTVSPropertyOp13
 70
     1
102
RTVSPropertyOp14
 70
     1
102
RTVSPropertyOp15
 70
     1
102
RTVSPropertyOp16
 70
     1
102
RTVSPropertyOp17
 70
     1
102
RTVSPropertyOp18
 70
     1
102
RTVSPropertyOp19
 70
     1
102
RTVSPropertyOp20
 70
     1
102
RTVSPropertyOp21
 70
     1
102
RTVSPropertyOp22
 70
     1
102
RTVSPropertyOp23
 70
     1
102
RTVSPropertyOp24
 70
     1
102
RTVSPropertyOp25
 70
     1
102
RTVSPropertyOp26
 70
     1
102
RTVSPropertyOp27
 70
     1
  0
XRECORD
  5
DA6
102
{ACAD_REACTORS
330
DA5
102
}
330
DA5
100
AcDbXrecord
280
     1
102
RTVSPropertyOp0
 70
     1
102
RTVSPropertyOp1
 70
     1
102
RTVSPropertyOp2
 70
     1
102
RTVSPropertyOp3
 70
     1
102
RTVSPropertyOp4
 70
     1
102
RTVSPropertyOp5
 70
     1
102
RTVSPropertyOp6
 70
     1
102
RTVSPropertyOp7
 70
     1
102
RTVSPropertyOp8
 70
     1
102
RTVSPropertyOp9
 70
     1
102
RTVSPropertyOp10
 70
     1
102
RTVSPropertyOp11
 70
     1
102
RTVSPropertyOp12
 70
     1
102
RTVSPropertyOp13
 70
     1
102
RTVSPropertyOp14
 70
     1
102
RTVSPropertyOp15
 70
     1
102
RTVSPropertyOp16
 70
     1
102
RTVSPropertyOp17
 70
     1
102
RTVSPropertyOp18
 70
     1
102
RTVSPropertyOp19
 70
     1
102
RTVSPropertyOp20
 70
     1
102
RTVSPropertyOp21
 70
     1
102
RTVSPropertyOp22
 70
     1
102
RTVSPropertyOp23
 70
     1
102
RTVSPropertyOp24
 70
     1
102
RTVSPropertyOp25
 70
     1
102
RTVSPropertyOp26
 70
     1
102
RTVSPropertyOp27
 70
     1
  0
XRECORD
  5
DAE
102
{ACAD_REACTORS
330
DAD
102
}
330
DAD
100
AcDbXrecord
280
     1
102
RTVSPropertyOp0
 70
     1
102
RTVSPropertyOp1
 70
     1
102
RTVSPropertyOp2
 70
     1
102
RTVSPropertyOp3
 70
     1
102
RTVSPropertyOp4
 70
     1
102
RTVSPropertyOp5
 70
     1
102
RTVSPropertyOp6
 70
     1
102
RTVSPropertyOp7
 70
     1
102
RTVSPropertyOp8
 70
     1
102
RTVSPropertyOp9
 70
     1
102
RTVSPropertyOp10
 70
     1
102
RTVSPropertyOp11
 70
     1
102
RTVSPropertyOp12
 70
     1
102
RTVSPropertyOp13
 70
     1
102
RTVSPropertyOp14
 70
     1
102
RTVSPropertyOp15
 70
     1
102
RTVSPropertyOp16
 70
     1
102
RTVSPropertyOp17
 70
     1
102
RTVSPropertyOp18
 70
     1
102
RTVSPropertyOp19
 70
     1
102
RTVSPropertyOp20
 70
     1
102
RTVSPropertyOp21
 70
     1
102
RTVSPropertyOp22
 70
     1
102
RTVSPropertyOp23
 70
     1
102
RTVSPropertyOp24
 70
     1
102
RTVSPropertyOp25
 70
     1
102
RTVSPropertyOp26
 70
     1
102
RTVSPropertyOp27
 70
     1
  0
ENDSEC
  0
EOF
