  0
SECTION
  2
HEADER
  9
$ACADVER
  1
AC1015
  9
$ACADMAINTVER
 70
     6
  9
$DWGCODEPAGE
  3
ANSI_1252
  9
$INSBASE
 10
0.0
 20
0.0
 30
0.0
  9
$EXTMIN
 10
0.0
 20
0.0
 30
0.0
  9
$EXTMAX
 10
25.0
 20
35.0
 30
0.0
  9
$LIMMIN
 10
0.0
 20
0.0
  9
$LIMMAX
 10
420.0
 20
297.0
  9
$ORTHOMODE
 70
     0
  9
$REGENMODE
 70
     1
  9
$FILLMODE
 70
     1
  9
$QTEXTMODE
 70
     0
  9
$MIRRTEXT
 70
     1
  9
$LTSCALE
 40
3.55
  9
$ATTMODE
 70
     1
  9
$TEXTSIZE
 40
2.5
  9
$TRACEWID
 40
1.0
  9
$TEXTSTYLE
  7
Standard
  9
$CLAYER
  8
0
  9
$CELTYPE
  6
ByLayer
  9
$CECOLOR
 62
   256
  9
$CELTSCALE
 40
1.0
  9
$DISPSILH
 70
     0
  9
$DIMSCALE
 40
1.0
  9
$DIMASZ
 40
2.5
  9
$DIMEXO
 40
0.625
  9
$DIMDLI
 40
3.75
  9
$DIMRND
 40
0.0
  9
$DIMDLE
 40
0.0
  9
$DIMEXE
 40
1.25
  9
$DIMTP
 40
0.0
  9
$DIMTM
 40
0.0
  9
$DIMTXT
 40
2.5
  9
$DIMCEN
 40
2.5
  9
$DIMTSZ
 40
0.0
  9
$DIMTOL
 70
     0
  9
$DIMLIM
 70
     0
  9
$DIMTIH
 70
     0
  9
$DIMTOH
 70
     0
  9
$DIMSE1
 70
     0
  9
$DIMSE2
 70
     0
  9
$DIMTAD
 70
     1
  9
$DIMZIN
 70
     8
  9
$DIMBLK
  1

  9
$DIMASO
 70
     1
  9
$DIMSHO
 70
     1
  9
$DIMPOST
  1

  9
$DIMAPOST
  1

  9
$DIMALT
 70
     0
  9
$DIMALTD
 70
     3
  9
$DIMALTF
 40
0.03937007874016
  9
$DIMLFAC
 40
1.0
  9
$DIMTOFL
 70
     1
  9
$DIMTVP
 40
0.0
  9
$DIMTIX
 70
     0
  9
$DIMSOXD
 70
     0
  9
$DIMSAH
 70
     0
  9
$DIMBLK1
  1

  9
$DIMBLK2
  1

  9
$DIMSTYLE
  2
ISO-25
  9
$DIMCLRD
 70
     0
  9
$DIMCLRE
 70
     0
  9
$DIMCLRT
 70
     0
  9
$DIMTFAC
 40
1.0
  9
$DIMGAP
 40
0.625
  9
$DIMJUST
 70
     0
  9
$DIMSD1
 70
     0
  9
$DIMSD2
 70
     0
  9
$DIMTOLJ
 70
     0
  9
$DIMTZIN
 70
     8
  9
$DIMALTZ
 70
     0
  9
$DIMALTTZ
 70
     0
  9
$DIMUPT
 70
     0
  9
$DIMDEC
 70
     2
  9
$DIMTDEC
 70
     2
  9
$DIMALTU
 70
     2
  9
$DIMALTTD
 70
     3
  9
$DIMTXSTY
  7
Standard
  9
$DIMAUNIT
 70
     0
  9
$DIMADEC
 70
     0
  9
$DIMALTRND
 40
0.0
  9
$DIMAZIN
 70
     0
  9
$DIMDSEP
 70
    44
  9
$DIMATFIT
 70
     3
  9
$DIMFRAC
 70
     0
  9
$DIMLDRBLK
  1

  9
$DIMLUNIT
 70
     2
  9
$DIMLWD
 70
    -2
  9
$DIMLWE
 70
    -2
  9
$DIMTMOVE
 70
     0
  9
$LUNITS
 70
     2
  9
$LUPREC
 70
     4
  9
$SKETCHINC
 40
1.0
  9
$FILLETRAD
 40
10.0
  9
$AUNITS
 70
     0
  9
$AUPREC
 70
     0
  9
$MENU
  1
.
  9
$ELEVATION
 40
0.0
  9
$PELEVATION
 40
0.0
  9
$THICKNESS
 40
0.0
  9
$LIMCHECK
 70
     0
  9
$CHAMFERA
 40
10.0
  9
$CHAMFERB
 40
10.0
  9
$CHAMFERC
 40
20.0
  9
$CHAMFERD
 40
0.0
  9
$SKPOLY
 70
     0
  9
$TDCREATE
 40
2458993.458333333
  9
$TDUCREATE
 40
2458993.375
  9
$TDUPDATE
 40
2458993.461805556
  9
$TDUUPDATE
 40
2458993.378472222
  9
$TDINDWG
 40
0.0000000116
  9
$TDUSRTIMER
 40
0.0000000116
  9
$USRTIMER
 70
     1
  9
$ANGBASE
 50
0.0
  9
$ANGDIR
 70
     0
  9
$PDMODE
 70
     0
  9
$PDSIZE
 40
0.0
  9
$PLINEWID
 40
0.0
  9
$SPLFRAME
 70
     0
  9
$SPLINETYPE
 70
     6
  9
$SPLINESEGS
 70
     8
  9
$HANDSEED
  5
DAD
  9
$SURFTAB1
 70
     6
  9
$SURFTAB2
 70
     6
  9
$SURFTYPE
 70
     6
  9
$SURFU
 70
     6
  9
$SURFV
 70
     6
  9
$UCSBASE
  2

  9
$UCSNAME
  2

  9
$UCSORG
 10
0.0
 20
0.0
 30
0.0
  9
$UCSXDIR
 10
1.0
 20
0.0
 30
0.0
  9
$UCSYDIR
 10
0.0
 20
1.0
 30
0.0
  9
$UCSORTHOREF
  2

  9
$UCSORTHOVIEW
 70
     0
  9
$UCSORGTOP
 10
0.0
 20
0.0
 30
0.0
  9
$UCSORGBOTTOM
 10
0.0
 20
0.0
 30
0.0
  9
$UCSORGLEFT
 10
0.0
 20
0.0
 30
0.0
  9
$UCSORGRIGHT
 10
0.0
 20
0.0
 30
0.0
  9
$UCSORGFRONT
 10
0.0
 20
0.0
 30
0.0
  9
$UCSORGBACK
 10
0.0
 20
0.0
 30
0.0
  9
$PUCSBASE
  2

  9
$PUCSNAME
  2

  9
$PUCSORG
 10
0.0
 20
0.0
 30
0.0
  9
$PUCSXDIR
 10
1.0
 20
0.0
 30
0.0
  9
$PUCSYDIR
 10
0.0
 20
1.0
 30
0.0
  9
$PUCSORTHOREF
  2

  9
$PUCSORTHOVIEW
 70
     0
  9
$PUCSORGTOP
 10
0.0
 20
0.0
 30
0.0
  9
$PUCSORGBOTTOM
 10
0.0
 20
0.0
 30
0.0
  9
$PUCSORGLEFT
 10
0.0
 20
0.0
 30
0.0
  9
$PUCSORGRIGHT
 10
0.0
 20
0.0
 30
0.0
  9
$PUCSORGFRONT
 10
0.0
 20
0.0
 30
0.0
  9
$PUCSORGBACK
 10
0.0
 20
0.0
 30
0.0
  9
$USERI1
 70
     0
  9
$USERI2
 70
     0
  9
$USERI3
 70
     0
  9
$USERI4
 70
     0
  9
$USERI5
 70
     0
  9
$USERR1
 40
0.0
  9
$USERR2
 40
0.0
  9
$USERR3
 40
0.0
  9
$USERR4
 40
0.0
  9
$USERR5
 40
0.0
  9
$WORLDVIEW
 70
     1
  9
$SHADEDGE
 70
     3
  9
$SHADEDIF
 70
    70
  9
$TILEMODE
 70
     1
  9
$MAXACTVP
 70
    64
  9
$PINSBASE
 10
0.0
 20
0.0
 30
0.0
  9
$PLIMCHECK
 70
     0
  9
$PEXTMIN
 10
1.000000000000000E+20
 20
1.000000000000000E+20
 30
1.000000000000000E+20
  9
$PEXTMAX
 10
-1.000000000000000E+20
 20
-1.000000000000000E+20
 30
-1.000000000000000E+20
  9
$PLIMMIN
 10
0.0
 20
0.0
  9
$PLIMMAX
 10
420.0
 20
297.0
  9
$UNITMODE
 70
     0
  9
$VISRETAIN
 70
     1
  9
$PLINEGEN
 70
     0
  9
$PSLTSCALE
 70
     1
  9
$TREEDEPTH
 70
  3020
  9
$CMLSTYLE
  2
Standard
  9
$CMLJUST
 70
     0
  9
$CMLSCALE
 40
20.0
  9
$PROXYGRAPHICS
 70
     1
  9
$MEASUREMENT
 70
     1
  9
$CELWEIGHT
370
    -1
  9
$ENDCAPS
280
     0
  9
$JOINSTYLE
280
     0
  9
$LWDISPLAY
290
     0
  9
$INSUNITS
 70
     4
  9
$HYPERLINKBASE
  1

  9
$STYLESHEET
  1

  9
$XEDIT
290
     1
  9
$CEPSNTYPE
380
     0
  9
$PSTYLEMODE
290
     1
  9
$FINGERPRINTGUID
  2
{05D15C77-666B-45F2-87B4-008078A3AD78}
  9
$VERSIONGUID
  2
{FAEB1C32-E019-11D5-929B-00C0DF256EC4}
  9
$EXTNAMES
290
     1
  9
$PSVPSCALE
 40
0.0
  9
$OLESTARTUP
290
     0
  0
ENDSEC
  0
SECTION
  2
CLASSES
  0
CLASS
  1
ACDBDICTIONARYWDFLT
  2
AcDbDictionaryWithDefault
  3
ObjectDBX Classes
 90
        0
280
     0
281
     0
  0
CLASS
  1
VISUALSTYLE
  2
AcDbVisualStyle
  3
ObjectDBX Classes
 90
     4095
280
     0
281
     0
  0
CLASS
  1
MATERIAL
  2
AcDbMaterial
  3
ObjectDBX Classes
 90
     1153
280
     0
281
     0
  0
CLASS
  1
SCALE
  2
AcDbScale
  3
ObjectDBX Classes
 90
     1153
280
     0
281
     0
  0
CLASS
  1
DICTIONARYVAR
  2
AcDbDictionaryVar
  3
ObjectDBX Classes
 90
        0
280
     0
281
     0
  0
CLASS
  1
ACDBPLACEHOLDER
  2
AcDbPlaceHolder
  3
ObjectDBX Classes
 90
        0
280
     0
281
     0
  0
CLASS
  1
LAYOUT
  2
AcDbLayout
  3
ObjectDBX Classes
 90
        0
280
     0
281
     0
  0
ENDSEC
  0
SECTION
  2
TABLES
  0
TABLE
  2
VPORT
  5
8
330
0
100
AcDbSymbolTable
 70
     1
  0
VPORT
  5
29
330
8
100
AcDbSymbolTableRecord
100
AcDbViewportTableRecord
  2
*Active
 70
     0
 10
0.0
 20
0.0
 11
1.0
 21
1.0
 12
11.26
 22
4.5
 13
0.0
 23
0.0
 14
10.0
 24
10.0
 15
10.0
 25
10.0
 16
0.0
 26
0.0
 36
1.0
 17
0.0
 27
0.0
 37
0.0
 40
9.0
 41
2.503333333333333
 42
50.0
 43
0.0
 44
0.0
 50
0.0
 51
0.0
 71
     0
 72
   100
 73
     1
 74
     3
 75
     0
 76
     0
 77
     0
 78
     0
281
     0
 65
     1
110
0.0
120
0.0
130
0.0
111
1.0
121
0.0
131
0.0
112
0.0
122
1.0
132
0.0
 79
     0
146
0.0
  0
ENDTAB
  0
TABLE
  2
LTYPE
  5
5
330
0
100
AcDbSymbolTable
 70
     9
  0
LTYPE
  5
14
330
5
100
AcDbSymbolTableRecord
100
AcDbLinetypeTableRecord
  2
ByBlock
 70
     0
  3

 72
    65
 73
     0
 40
0.0
  0
LTYPE
  5
15
330
5
100
AcDbSymbolTableRecord
100
AcDbLinetypeTableRecord
  2
ByLayer
 70
     0
  3

 72
    65
 73
     0
 40
0.0
  0
LTYPE
  5
16
330
5
100
AcDbSymbolTableRecord
100
AcDbLinetypeTableRecord
  2
Continuous
 70
     0
  3
Solid line
 72
    65
 73
     0
 40
0.0
  0
LTYPE
  5
45
330
5
100
AcDbSymbolTableRecord
100
AcDbLinetypeTableRecord
  2
phl_thick
 70
     0
  3
THICK
 72
    65
 73
     0
 40
0.0
  0
LTYPE
  5
4CD
330
5
100
AcDbSymbolTableRecord
100
AcDbLinetypeTableRecord
  2
CUT
 70
     0
  3
THICK
 72
    65
 73
     0
 40
0.0
  0
LTYPE
  5
4D5
330
5
100
AcDbSymbolTableRecord
100
AcDbLinetypeTableRecord
  2
NOCUT
 70
     0
  3
THICK
 72
    65
 73
     0
 40
0.0
  0
LTYPE
  5
4DC
330
5
100
AcDbSymbolTableRecord
100
AcDbLinetypeTableRecord
  2
SK1
 70
     0
  3
THICK
 72
    65
 73
     0
 40
0.0
  0
LTYPE
  5
4E4
330
5
100
AcDbSymbolTableRecord
100
AcDbLinetypeTableRecord
  2
ls_SK2
 70
     0
  3
THIN
 72
    65
 73
     0
 40
0.0
  0
LTYPE
  5
590
330
5
100
AcDbSymbolTableRecord
100
AcDbLinetypeTableRecord
  2
ls_2
 70
     0
  3
THIN
 72
    65
 73
     0
 40
0.0
  0
LTYPE
  5
6BD
330
5
100
AcDbSymbolTableRecord
100
AcDbLinetypeTableRecord
  2
ls_SK1
 70
     0
  3
THICK
 72
    65
 73
     0
 40
0.0
  0
LTYPE
  5
6F7
330
5
100
AcDbSymbolTableRecord
100
AcDbLinetypeTableRecord
  2
LONGDASH_DASH
 70
     0
  3
THIN_DASHDOT
 72
    65
 73
     4
 40
0.85
 49
0.4
 74
     0
 49
-0.2
 74
     0
 49
0.05
 74
     0
 49
-0.2
 74
     0
  0
ENDTAB
  0
TABLE
  2
LAYER
  5
2
330
0
100
AcDbSymbolTable
 70
     9
  0
LAYER
  5
10
330
2
100
AcDbSymbolTableRecord
100
AcDbLayerTableRecord
  2
0
 70
     0
 62
     7
  6
Continuous
370
    -3
390
F
  0
LAYER
  5
44
330
2
100
AcDbSymbolTableRecord
100
AcDbLayerTableRecord
  2
1
 70
     0
 62
4
  6
CONTINUOUS
370
50
370
    -3
390
F
  0
LAYER
  5
4CC
330
2
100
AcDbSymbolTableRecord
100
AcDbLayerTableRecord
  2
CUT
 70
     0
 62
1
  6
CONTINUOUS
370
25
370
    -3
390
F
  0
LAYER
  5
4D4
330
2
100
AcDbSymbolTableRecord
100
AcDbLayerTableRecord
  2
NOCUT
 70
     0
 62
7
  6
CONTINUOUS
370
25
370
    -3
390
F
  0
LAYER
  5
4DB
330
2
100
AcDbSymbolTableRecord
100
AcDbLayerTableRecord
  2
SK1
 70
     0
 62
4
  6
CONTINUOUS
370
50
370
    -3
390
F
  0
LAYER
  5
4E3
330
2
100
AcDbSymbolTableRecord
100
AcDbLayerTableRecord
  2
SK2
 70
     0
 62
7
  6
CONTINUOUS
370
25
370
    -3
390
F
  0
LAYER
  5
58F
330
2
100
AcDbSymbolTableRecord
100
AcDbLayerTableRecord
  2
2
 70
     0
 62
7
  6
CONTINUOUS
370
25
370
    -3
390
F
  0
LAYER
  5
6F6
330
2
100
AcDbSymbolTableRecord
100
AcDbLayerTableRecord
  2
4
 70
     0
 62
2
  6
LONGDASH_DASH
370
25
370
    -3
390
F
  0
LAYER
  5
6F9
330
2
100
AcDbSymbolTableRecord
100
AcDbLayerTableRecord
  2
SK4
 70
     0
 62
2
  6
LONGDASH_DASH
370
25
370
    -3
390
F
  0
ENDTAB
  0
TABLE
  2
STYLE
  5
3
330
0
100
AcDbSymbolTable
 70
     1
  0
STYLE
  5
11
330
3
100
AcDbSymbolTableRecord
100
AcDbTextStyleTableRecord
  2
Standard
 70
     0
 40
0.0
 41
1.0
 50
0.0
 71
     0
 42
2.5
  3
Monospac821 BT
  4

  0
ENDTAB
  0
TABLE
  2
VIEW
  5
6
330
0
100
AcDbSymbolTable
 70
     0
  0
ENDTAB
  0
TABLE
  2
UCS
  5
7
330
0
100
AcDbSymbolTable
 70
     0
  0
ENDTAB
  0
TABLE
  2
APPID
  5
9
330
0
100
AcDbSymbolTable
 70
     2
  0
APPID
  5
12
330
9
100
AcDbSymbolTableRecord
100
AcDbRegAppTableRecord
  2
ACAD
 70
     0
  0
APPID
  5
3F
330
9
100
AcDbSymbolTableRecord
100
AcDbRegAppTableRecord
  2
ccLab
 70
     0
  0
ENDTAB
  0
TABLE
  2
DIMSTYLE
  5
A
330
0
100
AcDbSymbolTable
 70
     1
100
AcDbDimStyleTable
  0
DIMSTYLE
105
27
330
A
100
AcDbSymbolTableRecord
100
AcDbDimStyleTableRecord
  2
ISO-25
 70
     0
 41
2.5
 42
0.625
 43
3.75
 44
1.25
 73
     0
 74
     0
 77
     1
 78
     8
140
2.5
141
2.5
143
0.03937007874016
147
0.625
171
     3
172
     1
271
     2
272
     2
274
     3
278
    44
283
     0
284
     8
340
11
  0
ENDTAB
  0
TABLE
  2
BLOCK_RECORD
  5
1
330
0
100
AcDbSymbolTable
 70
     2
  0
BLOCK_RECORD
  5
1F
330
1
100
AcDbSymbolTableRecord
100
AcDbBlockTableRecord
  2
*Model_Space
340
22
  0
BLOCK_RECORD
  5
1B
330
1
100
AcDbSymbolTableRecord
100
AcDbBlockTableRecord
  2
*Paper_Space
340
1E
  0
BLOCK_RECORD
  5
23
330
1
100
AcDbSymbolTableRecord
100
AcDbBlockTableRecord
  2
*Paper_Space0
340
26
  0
ENDTAB
  0
ENDSEC
  0
SECTION
  2
BLOCKS
  0
BLOCK
  5
20
330
1F
100
AcDbEntity
  8
0
100
AcDbBlockBegin
  2
*Model_Space
 70
     0
 10
0.0
 20
0.0
 30
0.0
  3
*Model_Space
  1

  0
ENDBLK
  5
21
330
1F
100
AcDbEntity
  8
0
100
AcDbBlockEnd
  0
BLOCK
  5
1C
330
1B
100
AcDbEntity
 67
     1
  8
0
100
AcDbBlockBegin
  2
*Paper_Space
 70
     0
 10
0.0
 20
0.0
 30
0.0
  3
*Paper_Space
  1

  0
ENDBLK
  5
1D
330
1B
100
AcDbEntity
 67
     1
  8
0
100
AcDbBlockEnd
  0
BLOCK
  5
24
330
23
100
AcDbEntity
  8
0
100
AcDbBlockBegin
  2
*Paper_Space0
 70
     0
 10
0.0
 20
0.0
 30
0.0
  3
*Paper_Space0
  1

  0
ENDBLK
  5
25
330
23
100
AcDbEntity
  8
0
100
AcDbBlockEnd
  0
ENDSEC
  0
SECTION
  2
ENTITIES
  0
LINE
  5
6FA
330
1F
100
AcDbEntity
  8
1
  6
CONTINUOUS
370
50
 62
4
100
AcDbLine
 10
19.629261
 20
-1.274647
 30
0.0
 11
19.628305
 21
-1.182074
 31
0.0
  0
LINE
  5
6FB
330
1F
100
AcDbEntity
  8
1
  6
CONTINUOUS
370
50
 62
4
100
AcDbLine
 10
19.64481
 20
-0.6353679999999999
 30
0.0
 11
19.644144
 21
-0.593164
 31
0.0
  0
LINE
  5
6FC
330
1F
100
AcDbEntity
  8
1
  6
CONTINUOUS
370
50
 62
4
100
AcDbLine
 10
19.631536
 20
-1.367096
 30
0.0
 11
19.629261
 21
-1.274647
 31
0.0
  0
LINE
  5
6FD
330
1F
100
AcDbEntity
  8
1
  6
CONTINUOUS
370
50
 62
4
100
AcDbLine
 10
18.98616
 20
0.365352
 30
0.0
 11
18.985325
 21
0.396885
 31
0.0
  0
LINE
  5
6FE
330
1F
100
AcDbEntity
  8
1
  6
CONTINUOUS
370
50
 62
4
100
AcDbLine
 10
19.99
 20
1.999997
 30
0.0
 11
19.988487
 21
2.054083
 31
0.0
  0
LINE
  5
6FF
330
1F
100
AcDbEntity
  8
1
  6
CONTINUOUS
370
50
 62
4
100
AcDbLine
 10
19.644144
 20
-0.593164
 30
0.0
 11
19.642799
 21
-0.5511039999999999
 31
0.0
  0
LINE
  5
700
330
1F
100
AcDbEntity
  8
1
  6
CONTINUOUS
370
50
 62
4
100
AcDbLine
 10
18.986134
 20
1.79887
 30
0.0
 11
18.984856
 21
1.833998
 31
0.0
  0
LINE
  5
701
330
1F
100
AcDbEntity
  8
1
  6
CONTINUOUS
370
50
 62
4
100
AcDbLine
 10
19.635147
 20
-1.459318
 30
0.0
 11
19.631536
 21
-1.367096
 31
0.0
  0
LINE
  5
702
330
1F
100
AcDbEntity
  8
1
  6
CONTINUOUS
370
50
 62
4
100
AcDbLine
 10
19.642799
 20
-0.5511039999999999
 30
0.0
 11
19.640799
 21
-0.509267
 31
0.0
  0
LINE
  5
703
330
1F
100
AcDbEntity
  8
1
  6
CONTINUOUS
370
50
 62
4
100
AcDbLine
 10
19.640104
 20
-1.551182
 30
0.0
 11
19.635147
 21
-1.459318
 31
0.0
  0
LINE
  5
704
330
1F
100
AcDbEntity
  8
1
  6
CONTINUOUS
370
50
 62
4
100
AcDbLine
 10
5.020551
 20
-0.027591
 30
0.0
 11
5.018979
 21
0.0
 31
0.0
  0
LINE
  5
705
330
1F
100
AcDbEntity
  8
1
  6
CONTINUOUS
370
50
 62
4
100
AcDbLine
 10
19.640799
 20
-0.509267
 30
0.0
 11
19.638166
 21
-0.467732
 31
0.0
  0
LINE
  5
706
330
1F
100
AcDbEntity
  8
1
  6
CONTINUOUS
370
50
 62
4
100
AcDbLine
 10
19.646385
 20
-1.64213
 30
0.0
 11
19.640104
 21
-1.551182
 31
0.0
  0
LINE
  5
707
330
1F
100
AcDbEntity
  8
1
  6
CONTINUOUS
370
50
 62
4
100
AcDbLine
 10
19.638166
 20
-0.467732
 30
0.0
 11
19.634924
 21
-0.426579
 31
0.0
  0
LINE
  5
708
330
1F
100
AcDbEntity
  8
1
  6
CONTINUOUS
370
50
 62
4
100
AcDbLine
 10
18.985325
 20
0.396885
 30
0.0
 11
18.982914
 21
0.42739
 31
0.0
  0
LINE
  5
709
330
1F
100
AcDbEntity
  8
1
  6
CONTINUOUS
370
50
 62
4
100
AcDbLine
 10
19.988487
 20
2.054083
 30
0.0
 11
19.983881
 21
2.109867
 31
0.0
  0
LINE
  5
70A
330
1F
100
AcDbEntity
  8
1
  6
CONTINUOUS
370
50
 62
4
100
AcDbLine
 10
19.653973
 20
-1.731897
 30
0.0
 11
19.646385
 21
-1.64213
 31
0.0
  0
LINE
  5
70B
330
1F
100
AcDbEntity
  8
1
  6
CONTINUOUS
370
50
 62
4
100
AcDbLine
 10
18.984856
 20
1.833998
 30
0.0
 11
18.981709
 21
1.870692
 31
0.0
  0
LINE
  5
70C
330
1F
100
AcDbEntity
  8
1
  6
CONTINUOUS
370
50
 62
4
100
AcDbLine
 10
19.662851
 20
-1.820379
 30
0.0
 11
19.653973
 21
-1.731897
 31
0.0
  0
LINE
  5
70D
330
1F
100
AcDbEntity
  8
1
  6
CONTINUOUS
370
50
 62
4
100
AcDbLine
 10
5.023565
 20
-0.054988
 30
0.0
 11
5.020551
 21
-0.027591
 31
0.0
  0
LINE
  5
70E
330
1F
100
AcDbEntity
  8
1
  6
CONTINUOUS
370
50
 62
4
100
AcDbLine
 10
19.67301
 20
-1.90747
 30
0.0
 11
19.662851
 21
-1.820379
 31
0.0
  0
LINE
  5
70F
330
1F
100
AcDbEntity
  8
1
  6
CONTINUOUS
370
50
 62
4
100
AcDbLine
 10
18.981709
 20
1.870692
 30
0.0
 11
18.976723
 21
1.908992
 31
0.0
  0
LINE
  5
710
330
1F
100
AcDbEntity
  8
1
  6
CONTINUOUS
370
50
 62
4
100
AcDbLine
 10
19.684433
 20
-1.993068
 30
0.0
 11
19.67301
 21
-1.90747
 31
0.0
  0
LINE
  5
711
330
1F
100
AcDbEntity
  8
1
  6
CONTINUOUS
370
50
 62
4
100
AcDbLine
 10
18.982914
 20
0.42739
 30
0.0
 11
18.978958
 21
0.457029
 31
0.0
  0
LINE
  5
712
330
1F
100
AcDbEntity
  8
1
  6
CONTINUOUS
370
50
 62
4
100
AcDbLine
 10
19.983881
 20
2.109867
 30
0.0
 11
19.976072
 21
2.166248
 31
0.0
  0
LINE
  5
713
330
1F
100
AcDbEntity
  8
1
  6
CONTINUOUS
370
50
 62
4
100
AcDbLine
 10
19.697077
 20
-2.076852
 30
0.0
 11
19.684433
 21
-1.993068
 31
0.0
  0
LINE
  5
714
330
1F
100
AcDbEntity
  8
1
  6
CONTINUOUS
370
50
 62
4
100
AcDbLine
 10
5.027966
 20
-0.08217
 30
0.0
 11
5.023565
 21
-0.054988
 31
0.0
  0
LINE
  5
715
330
1F
100
AcDbEntity
  8
1
  6
CONTINUOUS
370
50
 62
4
100
AcDbLine
 10
19.710873
 20
-2.158497
 30
0.0
 11
19.697077
 21
-2.076852
 31
0.0
  0
LINE
  5
716
330
1F
100
AcDbEntity
  8
1
  6
CONTINUOUS
370
50
 62
4
100
AcDbLine
 10
18.976723
 20
1.908992
 30
0.0
 11
18.969933
 21
1.948795
 31
0.0
  0
LINE
  5
717
330
1F
100
AcDbEntity
  8
1
  6
CONTINUOUS
370
50
 62
4
100
AcDbLine
 10
19.725796
 20
-2.237953
 30
0.0
 11
19.710873
 21
-2.158497
 31
0.0
  0
LINE
  5
718
330
1F
100
AcDbEntity
  8
1
  6
CONTINUOUS
370
50
 62
4
100
AcDbLine
 10
18.978958
 20
0.457029
 30
0.0
 11
18.97348
 21
0.485756
 31
0.0
  0
LINE
  5
719
330
1F
100
AcDbEntity
  8
1
  6
CONTINUOUS
370
50
 62
4
100
AcDbLine
 10
19.976072
 20
2.166248
 30
0.0
 11
19.964983
 21
2.222135
 31
0.0
  0
LINE
  5
71A
330
1F
100
AcDbEntity
  8
1
  6
CONTINUOUS
370
50
 62
4
100
AcDbLine
 10
19.741817
 20
-2.315174
 30
0.0
 11
19.725796
 21
-2.237953
 31
0.0
  0
LINE
  5
71B
330
1F
100
AcDbEntity
  8
1
  6
CONTINUOUS
370
50
 62
4
100
AcDbLine
 10
18.969933
 20
1.948795
 30
0.0
 11
18.96137
 21
1.989994
 31
0.0
  0
LINE
  5
71C
330
1F
100
AcDbEntity
  8
1
  6
CONTINUOUS
370
50
 62
4
100
AcDbLine
 10
5.033702
 20
-0.109118
 30
0.0
 11
5.027966
 21
-0.08217
 31
0.0
  0
LINE
  5
71D
330
1F
100
AcDbEntity
  8
1
  6
CONTINUOUS
370
50
 62
4
100
AcDbLine
 10
19.758911
 20
-2.390112
 30
0.0
 11
19.741817
 21
-2.315174
 31
0.0
  0
LINE
  5
71E
330
1F
100
AcDbEntity
  8
1
  6
CONTINUOUS
370
50
 62
4
100
AcDbLine
 10
18.96137
 20
1.989994
 30
0.0
 11
18.951071
 21
2.032485
 31
0.0
  0
LINE
  5
71F
330
1F
100
AcDbEntity
  8
1
  6
CONTINUOUS
370
50
 62
4
100
AcDbLine
 10
18.97348
 20
0.485756
 30
0.0
 11
18.966505
 21
0.513527
 31
0.0
  0
LINE
  5
720
330
1F
100
AcDbEntity
  8
1
  6
CONTINUOUS
370
50
 62
4
100
AcDbLine
 10
19.964983
 20
2.222135
 30
0.0
 11
19.950905
 21
2.276538
 31
0.0
  0
LINE
  5
721
330
1F
100
AcDbEntity
  8
1
  6
CONTINUOUS
370
50
 62
4
100
AcDbLine
 10
5.040721
 20
-0.135813
 30
0.0
 11
5.033702
 21
-0.109118
 31
0.0
  0
LINE
  5
722
330
1F
100
AcDbEntity
  8
1
  6
CONTINUOUS
370
50
 62
4
100
AcDbLine
 10
18.951071
 20
2.032485
 30
0.0
 11
18.939064
 21
2.076163
 31
0.0
  0
LINE
  5
723
330
1F
100
AcDbEntity
  8
1
  6
CONTINUOUS
370
50
 62
4
100
AcDbLine
 10
18.939064
 20
2.076163
 30
0.0
 11
18.925385
 21
2.120923
 31
0.0
  0
LINE
  5
724
330
1F
100
AcDbEntity
  8
1
  6
CONTINUOUS
370
50
 62
4
100
AcDbLine
 10
5.048967999999999
 20
-0.162233
 30
0.0
 11
5.040721
 21
-0.135813
 31
0.0
  0
LINE
  5
725
330
1F
100
AcDbEntity
  8
1
  6
CONTINUOUS
370
50
 62
4
100
AcDbLine
 10
18.966505
 20
0.513527
 30
0.0
 11
18.958059
 21
0.5402939999999999
 31
0.0
  0
LINE
  5
726
330
1F
100
AcDbEntity
  8
1
  6
CONTINUOUS
370
50
 62
4
100
AcDbLine
 10
19.950905
 20
2.276538
 30
0.0
 11
19.934376
 21
2.328537
 31
0.0
  0
LINE
  5
727
330
1F
100
AcDbEntity
  8
1
  6
CONTINUOUS
370
50
 62
4
100
AcDbLine
 10
18.823736
 20
2.422771
 30
0.0
 11
18.809992
 21
2.465268
 31
0.0
  0
LINE
  5
728
330
1F
100
AcDbEntity
  8
1
  6
CONTINUOUS
370
50
 62
4
100
AcDbLine
 10
19.629055
 20
1.519281
 30
0.0
 11
19.628271
 21
1.521696
 31
0.0
  0
LINE
  5
729
330
1F
100
AcDbEntity
  8
1
  6
CONTINUOUS
370
50
 62
4
100
AcDbLine
 10
19.989994
 20
0.408423
 30
0.0
 11
19.989521
 21
0.40988
 31
0.0
  0
LINE
  5
72A
330
1F
100
AcDbEntity
  8
1
  6
CONTINUOUS
370
50
 62
4
100
AcDbLine
 10
19.989521
 20
0.40988
 30
0.0
 11
19.988174
 21
0.414027
 31
0.0
  0
LINE
  5
72B
330
1F
100
AcDbEntity
  8
1
  6
CONTINUOUS
370
50
 62
4
100
AcDbLine
 10
19.954803
 20
0.516729
 30
0.0
 11
19.947613
 21
0.538864
 31
0.0
  0
LINE
  5
72C
330
1F
100
AcDbEntity
  8
1
  6
CONTINUOUS
370
50
 62
4
100
AcDbLine
 10
19.84412
 20
0.857377
 30
0.0
 11
19.83519
 21
0.8848659999999999
 31
0.0
  0
LINE
  5
72D
330
1F
100
AcDbEntity
  8
1
  6
CONTINUOUS
370
50
 62
4
100
AcDbLine
 10
19.880697
 20
0.744804
 30
0.0
 11
19.871439
 21
0.7733019999999999
 31
0.0
  0
LINE
  5
72E
330
1F
100
AcDbEntity
  8
1
  6
CONTINUOUS
370
50
 62
4
100
AcDbLine
 10
19.940351
 20
0.561211
 30
0.0
 11
19.932837
 21
0.58434
 31
0.0
  0
LINE
  5
72F
330
1F
100
AcDbEntity
  8
1
  6
CONTINUOUS
370
50
 62
4
100
AcDbLine
 10
19.91655
 20
0.634463
 30
0.0
 11
19.907904
 21
0.661076
 31
0.0
  0
LINE
  5
730
330
1F
100
AcDbEntity
  8
1
  6
CONTINUOUS
370
50
 62
4
100
AcDbLine
 10
19.968016
 20
0.476066
 30
0.0
 11
19.961687
 21
0.495547
 31
0.0
  0
LINE
  5
731
330
1F
100
AcDbEntity
  8
1
  6
CONTINUOUS
370
50
 62
4
100
AcDbLine
 10
19.982496
 20
0.4315
 30
0.0
 11
19.978292
 21
0.44444
 31
0.0
  0
LINE
  5
732
330
1F
100
AcDbEntity
  8
1
  6
CONTINUOUS
370
50
 62
4
100
AcDbLine
 10
19.988174
 20
0.414027
 30
0.0
 11
19.98584
 21
0.421211
 31
0.0
  0
LINE
  5
733
330
1F
100
AcDbEntity
  8
1
  6
CONTINUOUS
370
50
 62
4
100
AcDbLine
 10
19.816784
 20
0.9415089999999999
 30
0.0
 11
19.807358
 21
0.970522
 31
0.0
  0
LINE
  5
734
330
1F
100
AcDbEntity
  8
1
  6
CONTINUOUS
370
50
 62
4
100
AcDbLine
 10
19.648111
 20
1.460632
 30
0.0
 11
19.640955
 21
1.482658
 31
0.0
  0
LINE
  5
735
330
1F
100
AcDbEntity
  8
1
  6
CONTINUOUS
370
50
 62
4
100
AcDbLine
 10
19.924881
 20
0.608821
 30
0.0
 11
19.91655
 21
0.634463
 31
0.0
  0
LINE
  5
736
330
1F
100
AcDbEntity
  8
1
  6
CONTINUOUS
370
50
 62
4
100
AcDbLine
 10
19.640955
 20
1.482658
 30
0.0
 11
19.635382
 21
1.499811
 31
0.0
  0
LINE
  5
737
330
1F
100
AcDbEntity
  8
1
  6
CONTINUOUS
370
50
 62
4
100
AcDbLine
 10
19.788172
 20
1.02957
 30
0.0
 11
19.77846
 21
1.059462
 31
0.0
  0
LINE
  5
738
330
1F
100
AcDbEntity
  8
1
  6
CONTINUOUS
370
50
 62
4
100
AcDbLine
 10
19.797812
 20
0.9998999999999999
 30
0.0
 11
19.788172
 21
1.02957
 31
0.0
  0
LINE
  5
739
330
1F
100
AcDbEntity
  8
1
  6
CONTINUOUS
370
50
 62
4
100
AcDbLine
 10
19.978292
 20
0.44444
 30
0.0
 11
19.973549
 21
0.459038
 31
0.0
  0
LINE
  5
73A
330
1F
100
AcDbEntity
  8
1
  6
CONTINUOUS
370
50
 62
4
100
AcDbLine
 10
19.740255
 20
1.17704
 30
0.0
 11
19.722887
 21
1.230495
 31
0.0
  0
LINE
  5
73B
330
1F
100
AcDbEntity
  8
1
  6
CONTINUOUS
370
50
 62
4
100
AcDbLine
 10
19.722887
 20
1.230495
 30
0.0
 11
19.706842
 21
1.279878
 31
0.0
  0
LINE
  5
73C
330
1F
100
AcDbEntity
  8
1
  6
CONTINUOUS
370
50
 62
4
100
AcDbLine
 10
19.692156
 20
1.325078
 30
0.0
 11
19.678875
 21
1.365954
 31
0.0
  0
LINE
  5
73D
330
1F
100
AcDbEntity
  8
1
  6
CONTINUOUS
370
50
 62
4
100
AcDbLine
 10
19.656828
 20
1.433803
 30
0.0
 11
19.648111
 21
1.460632
 31
0.0
  0
LINE
  5
73E
330
1F
100
AcDbEntity
  8
1
  6
CONTINUOUS
370
50
 62
4
100
AcDbLine
 10
19.706842
 20
1.279878
 30
0.0
 11
19.692156
 21
1.325078
 31
0.0
  0
LINE
  5
73F
330
1F
100
AcDbEntity
  8
1
  6
CONTINUOUS
370
50
 62
4
100
AcDbLine
 10
19.758911
 20
1.119623
 30
0.0
 11
19.740255
 21
1.17704
 31
0.0
  0
LINE
  5
740
330
1F
100
AcDbEntity
  8
1
  6
CONTINUOUS
370
50
 62
4
100
AcDbLine
 10
19.826069
 20
0.912933
 30
0.0
 11
19.816784
 21
0.9415089999999999
 31
0.0
  0
LINE
  5
741
330
1F
100
AcDbEntity
  8
1
  6
CONTINUOUS
370
50
 62
4
100
AcDbLine
 10
19.862206
 20
0.801715
 30
0.0
 11
19.853075
 21
0.8298169999999999
 31
0.0
  0
LINE
  5
742
330
1F
100
AcDbEntity
  8
1
  6
CONTINUOUS
370
50
 62
4
100
AcDbLine
 10
19.853075
 20
0.8298169999999999
 30
0.0
 11
19.84412
 21
0.857377
 31
0.0
  0
LINE
  5
743
330
1F
100
AcDbEntity
  8
1
  6
CONTINUOUS
370
50
 62
4
100
AcDbLine
 10
19.88991
 20
0.7164499999999999
 30
0.0
 11
19.880697
 21
0.744804
 31
0.0
  0
LINE
  5
744
330
1F
100
AcDbEntity
  8
1
  6
CONTINUOUS
370
50
 62
4
100
AcDbLine
 10
19.678875
 20
1.365954
 30
0.0
 11
19.667089
 21
1.402226
 31
0.0
  0
LINE
  5
745
330
1F
100
AcDbEntity
  8
1
  6
CONTINUOUS
370
50
 62
4
100
AcDbLine
 10
19.899002
 20
0.688469
 30
0.0
 11
19.88991
 21
0.7164499999999999
 31
0.0
  0
LINE
  5
746
330
1F
100
AcDbEntity
  8
1
  6
CONTINUOUS
370
50
 62
4
100
AcDbLine
 10
19.973549
 20
0.459038
 30
0.0
 11
19.968016
 21
0.476066
 31
0.0
  0
LINE
  5
747
330
1F
100
AcDbEntity
  8
1
  6
CONTINUOUS
370
50
 62
4
100
AcDbLine
 10
19.807358
 20
0.970522
 30
0.0
 11
19.797812
 21
0.9998999999999999
 31
0.0
  0
LINE
  5
748
330
1F
100
AcDbEntity
  8
1
  6
CONTINUOUS
370
50
 62
4
100
AcDbLine
 10
19.635382
 20
1.499811
 30
0.0
 11
19.63142
 21
1.512004
 31
0.0
  0
LINE
  5
749
330
1F
100
AcDbEntity
  8
1
  6
CONTINUOUS
370
50
 62
4
100
AcDbLine
 10
19.768698
 20
1.089504
 30
0.0
 11
19.758911
 21
1.119623
 31
0.0
  0
LINE
  5
74A
330
1F
100
AcDbEntity
  8
1
  6
CONTINUOUS
370
50
 62
4
100
AcDbLine
 10
19.77846
 20
1.059462
 30
0.0
 11
19.768698
 21
1.089504
 31
0.0
  0
LINE
  5
74B
330
1F
100
AcDbEntity
  8
1
  6
CONTINUOUS
370
50
 62
4
100
AcDbLine
 10
19.667089
 20
1.402226
 30
0.0
 11
19.656828
 21
1.433803
 31
0.0
  0
LINE
  5
74C
330
1F
100
AcDbEntity
  8
1
  6
CONTINUOUS
370
50
 62
4
100
AcDbLine
 10
19.871439
 20
0.7733019999999999
 30
0.0
 11
19.862206
 21
0.801715
 31
0.0
  0
LINE
  5
74D
330
1F
100
AcDbEntity
  8
1
  6
CONTINUOUS
370
50
 62
4
100
AcDbLine
 10
19.947613
 20
0.538864
 30
0.0
 11
19.940351
 21
0.561211
 31
0.0
  0
LINE
  5
74E
330
1F
100
AcDbEntity
  8
1
  6
CONTINUOUS
370
50
 62
4
100
AcDbLine
 10
19.83519
 20
0.8848659999999999
 30
0.0
 11
19.826069
 21
0.912933
 31
0.0
  0
LINE
  5
74F
330
1F
100
AcDbEntity
  8
1
  6
CONTINUOUS
370
50
 62
4
100
AcDbLine
 10
19.907904
 20
0.661076
 30
0.0
 11
19.899002
 21
0.688469
 31
0.0
  0
LINE
  5
750
330
1F
100
AcDbEntity
  8
1
  6
CONTINUOUS
370
50
 62
4
100
AcDbLine
 10
19.932837
 20
0.58434
 30
0.0
 11
19.924881
 21
0.608821
 31
0.0
  0
LINE
  5
751
330
1F
100
AcDbEntity
  8
1
  6
CONTINUOUS
370
50
 62
4
100
AcDbLine
 10
19.961687
 20
0.495547
 30
0.0
 11
19.954803
 21
0.516729
 31
0.0
  0
LINE
  5
752
330
1F
100
AcDbEntity
  8
1
  6
CONTINUOUS
370
50
 62
4
100
AcDbLine
 10
19.63142
 20
1.512004
 30
0.0
 11
19.629055
 21
1.519281
 31
0.0
  0
LINE
  5
753
330
1F
100
AcDbEntity
  8
1
  6
CONTINUOUS
370
50
 62
4
100
AcDbLine
 10
19.98584
 20
0.421211
 30
0.0
 11
19.982496
 21
0.4315
 31
0.0
  0
LINE
  5
754
330
1F
100
AcDbEntity
  8
1
  6
CONTINUOUS
370
50
 62
4
100
AcDbLine
 10
18.83766
 20
2.380213
 30
0.0
 11
18.823736
 21
2.422771
 31
0.0
  0
LINE
  5
755
330
1F
100
AcDbEntity
  8
1
  6
CONTINUOUS
370
50
 62
4
100
AcDbLine
 10
18.851768
 20
2.337599
 30
0.0
 11
18.83766
 21
2.380213
 31
0.0
  0
LINE
  5
756
330
1F
100
AcDbEntity
  8
1
  6
CONTINUOUS
370
50
 62
4
100
AcDbLine
 10
18.86606
 20
2.294932
 30
0.0
 11
18.851768
 21
2.337599
 31
0.0
  0
LINE
  5
757
330
1F
100
AcDbEntity
  8
1
  6
CONTINUOUS
370
50
 62
4
100
AcDbLine
 10
18.925385
 20
2.120923
 30
0.0
 11
18.910063
 21
2.166659
 31
0.0
  0
LINE
  5
758
330
1F
100
AcDbEntity
  8
1
  6
CONTINUOUS
370
50
 62
4
100
AcDbLine
 10
18.880541
 20
2.252217
 30
0.0
 11
18.86606
 21
2.294932
 31
0.0
  0
LINE
  5
759
330
1F
100
AcDbEntity
  8
1
  6
CONTINUOUS
370
50
 62
4
100
AcDbLine
 10
18.895206
 20
2.209458
 30
0.0
 11
18.880541
 21
2.252217
 31
0.0
  0
LINE
  5
75A
330
1F
100
AcDbEntity
  8
1
  6
CONTINUOUS
370
50
 62
4
100
AcDbLine
 10
18.910063
 20
2.166659
 30
0.0
 11
18.895206
 21
2.209458
 31
0.0
  0
LINE
  5
75B
330
1F
100
AcDbEntity
  8
1
  6
CONTINUOUS
370
50
 62
4
100
AcDbLine
 10
5.05839
 20
-0.188359
 30
0.0
 11
5.048967999999999
 21
-0.162233
 31
0.0
  0
LINE
  5
75C
330
1F
100
AcDbEntity
  8
1
  6
CONTINUOUS
370
50
 62
4
100
AcDbLine
 10
19.934376
 20
2.328537
 30
0.0
 11
19.915878
 21
2.377365
 31
0.0
  0
LINE
  5
75D
330
1F
100
AcDbEntity
  8
1
  6
CONTINUOUS
370
50
 62
4
100
AcDbLine
 10
18.958059
 20
0.5402939999999999
 30
0.0
 11
18.948168
 21
0.566014
 31
0.0
  0
LINE
  5
75E
330
1F
100
AcDbEntity
  8
1
  6
CONTINUOUS
370
50
 62
4
100
AcDbLine
 10
19.915878
 20
2.377365
 30
0.0
 11
19.894547
 21
2.425485
 31
0.0
  0
LINE
  5
75F
330
1F
100
AcDbEntity
  8
1
  6
CONTINUOUS
370
50
 62
4
100
AcDbLine
 10
18.948168
 20
0.566014
 30
0.0
 11
18.936853
 21
0.5906399999999999
 31
0.0
  0
LINE
  5
760
330
1F
100
AcDbEntity
  8
1
  6
CONTINUOUS
370
50
 62
4
100
AcDbLine
 10
5.394479
 20
-0.890061
 30
0.0
 11
5.312773
 21
-0.716567
 31
0.0
  0
LINE
  5
761
330
1F
100
AcDbEntity
  8
1
  6
CONTINUOUS
370
50
 62
4
100
AcDbLine
 10
5.312773
 20
-0.716567
 30
0.0
 11
5.230089
 21
-0.541445
 31
0.0
  0
LINE
  5
762
330
1F
100
AcDbEntity
  8
1
  6
CONTINUOUS
370
50
 62
4
100
AcDbLine
 10
5.475822
 20
-1.060959
 30
0.0
 11
5.394479
 21
-0.890061
 31
0.0
  0
LINE
  5
763
330
1F
100
AcDbEntity
  8
1
  6
CONTINUOUS
370
50
 62
4
100
AcDbLine
 10
19.193962
 20
1.663079
 30
0.0
 11
18.809992
 21
2.465268
 31
0.0
  0
LINE
  5
764
330
1F
100
AcDbEntity
  8
1
  6
CONTINUOUS
370
50
 62
4
100
AcDbLine
 10
5.230089
 20
-0.541445
 30
0.0
 11
5.145578
 21
-0.365205
 31
0.0
  0
LINE
  5
765
330
1F
100
AcDbEntity
  8
1
  6
CONTINUOUS
370
50
 62
4
100
AcDbLine
 10
5.55687
 20
-1.227248
 30
0.0
 11
5.475822
 21
-1.060959
 31
0.0
  0
LINE
  5
766
330
1F
100
AcDbEntity
  8
1
  6
CONTINUOUS
370
50
 62
4
100
AcDbLine
 10
5.145578
 20
-0.365205
 30
0.0
 11
5.05839
 21
-0.188359
 31
0.0
  0
LINE
  5
767
330
1F
100
AcDbEntity
  8
1
  6
CONTINUOUS
370
50
 62
4
100
AcDbLine
 10
5.638457
 20
-1.388417
 30
0.0
 11
5.55687
 21
-1.227248
 31
0.0
  0
LINE
  5
768
330
1F
100
AcDbEntity
  8
1
  6
CONTINUOUS
370
50
 62
4
100
AcDbLine
 10
19.894547
 20
2.425485
 30
0.0
 11
19.870127
 21
2.473406
 31
0.0
  0
LINE
  5
769
330
1F
100
AcDbEntity
  8
1
  6
CONTINUOUS
370
50
 62
4
100
AcDbLine
 10
5.018757
 20
-2.999924
 30
0.0
 11
5.018748
 21
-2.999907
 31
0.0
  0
LINE
  5
76A
330
1F
100
AcDbEntity
  8
1
  6
CONTINUOUS
370
50
 62
4
100
AcDbLine
 10
5.721489
 20
-1.54409
 30
0.0
 11
5.638457
 21
-1.388417
 31
0.0
  0
LINE
  5
76B
330
1F
100
AcDbEntity
  8
1
  6
CONTINUOUS
370
50
 62
4
100
AcDbLine
 10
18.936853
 20
0.5906399999999999
 30
0.0
 11
18.924145
 21
0.614126
 31
0.0
  0
LINE
  5
76C
330
1F
100
AcDbEntity
  8
1
  6
CONTINUOUS
370
50
 62
4
100
AcDbLine
 10
5.806868
 20
-1.69389
 30
0.0
 11
5.721489
 21
-1.54409
 31
0.0
  0
LINE
  5
76D
330
1F
100
AcDbEntity
  8
1
  6
CONTINUOUS
370
50
 62
4
100
AcDbLine
 10
19.870127
 20
2.473406
 30
0.0
 11
19.842899
 21
2.520257
 31
0.0
  0
LINE
  5
76E
330
1F
100
AcDbEntity
  8
1
  6
CONTINUOUS
370
50
 62
4
100
AcDbLine
 10
18.823736
 20
0.77247
 30
0.0
 11
18.809992
 21
0.7958989999999999
 31
0.0
  0
LINE
  5
76F
330
1F
100
AcDbEntity
  8
1
  6
CONTINUOUS
370
50
 62
4
100
AcDbLine
 10
18.83766
 20
0.749246
 30
0.0
 11
18.823736
 21
0.77247
 31
0.0
  0
LINE
  5
770
330
1F
100
AcDbEntity
  8
1
  6
CONTINUOUS
370
50
 62
4
100
AcDbLine
 10
18.851768
 20
0.726233
 30
0.0
 11
18.83766
 21
0.749246
 31
0.0
  0
LINE
  5
771
330
1F
100
AcDbEntity
  8
1
  6
CONTINUOUS
370
50
 62
4
100
AcDbLine
 10
5.895108
 20
-1.836769
 30
0.0
 11
5.806868
 21
-1.69389
 31
0.0
  0
LINE
  5
772
330
1F
100
AcDbEntity
  8
1
  6
CONTINUOUS
370
50
 62
4
100
AcDbLine
 10
18.86606
 20
0.703438
 30
0.0
 11
18.851768
 21
0.726233
 31
0.0
  0
LINE
  5
773
330
1F
100
AcDbEntity
  8
1
  6
CONTINUOUS
370
50
 62
4
100
AcDbLine
 10
18.924145
 20
0.614126
 30
0.0
 11
18.910063
 21
0.636428
 31
0.0
  0
LINE
  5
774
330
1F
100
AcDbEntity
  8
1
  6
CONTINUOUS
370
50
 62
4
100
AcDbLine
 10
18.880541
 20
0.680867
 30
0.0
 11
18.86606
 21
0.703438
 31
0.0
  0
LINE
  5
775
330
1F
100
AcDbEntity
  8
1
  6
CONTINUOUS
370
50
 62
4
100
AcDbLine
 10
18.895206
 20
0.658528
 30
0.0
 11
18.880541
 21
0.680867
 31
0.0
  0
LINE
  5
776
330
1F
100
AcDbEntity
  8
1
  6
CONTINUOUS
370
50
 62
4
100
AcDbLine
 10
19.842899
 20
2.520257
 30
0.0
 11
19.81316
 21
2.565185
 31
0.0
  0
LINE
  5
777
330
1F
100
AcDbEntity
  8
1
  6
CONTINUOUS
370
50
 62
4
100
AcDbLine
 10
18.910063
 20
0.636428
 30
0.0
 11
18.895206
 21
0.658528
 31
0.0
  0
LINE
  5
778
330
1F
100
AcDbEntity
  8
1
  6
CONTINUOUS
370
50
 62
4
100
AcDbLine
 10
5.986335
 20
-1.971082
 30
0.0
 11
5.895108
 21
-1.836769
 31
0.0
  0
LINE
  5
779
330
1F
100
AcDbEntity
  8
1
  6
CONTINUOUS
370
50
 62
4
100
AcDbLine
 10
19.813217
 20
2.565208
 30
0.0
 11
19.780453
 21
2.608757
 31
0.0
  0
LINE
  5
77A
330
1F
100
AcDbEntity
  8
1
  6
CONTINUOUS
370
50
 62
4
100
AcDbLine
 10
6.081553
 20
-2.096743
 30
0.0
 11
5.986335
 21
-1.971082
 31
0.0
  0
LINE
  5
77B
330
1F
100
AcDbEntity
  8
1
  6
CONTINUOUS
370
50
 62
4
100
AcDbLine
 10
6.124468999999999
 20
2.093488
 30
0.0
 11
6.018275999999999
 21
2.222579
 31
0.0
  0
LINE
  5
77C
330
1F
100
AcDbEntity
  8
1
  6
CONTINUOUS
370
50
 62
4
100
AcDbLine
 10
6.018275999999999
 20
2.222579
 30
0.0
 11
5.917282
 21
2.345251
 31
0.0
  0
LINE
  5
77D
330
1F
100
AcDbEntity
  8
1
  6
CONTINUOUS
370
50
 62
4
100
AcDbLine
 10
6.925869
 20
1.251062
 30
0.0
 11
6.916240999999999
 21
1.26257
 31
0.0
  0
LINE
  5
77E
330
1F
100
AcDbEntity
  8
1
  6
CONTINUOUS
370
50
 62
4
100
AcDbLine
 10
6.237216
 20
1.958898
 30
0.0
 11
6.124468999999999
 21
2.093488
 31
0.0
  0
LINE
  5
77F
330
1F
100
AcDbEntity
  8
1
  6
CONTINUOUS
370
50
 62
4
100
AcDbLine
 10
5.917282
 20
2.345251
 30
0.0
 11
5.820137
 21
2.460582
 31
0.0
  0
LINE
  5
780
330
1F
100
AcDbEntity
  8
1
  6
CONTINUOUS
370
50
 62
4
100
AcDbLine
 10
19.780453
 20
2.608757
 30
0.0
 11
19.745625
 21
2.649608
 31
0.0
  0
LINE
  5
781
330
1F
100
AcDbEntity
  8
1
  6
CONTINUOUS
370
50
 62
4
100
AcDbLine
 10
6.181795999999999
 20
-2.213717
 30
0.0
 11
6.081553
 21
-2.096743
 31
0.0
  0
LINE
  5
782
330
1F
100
AcDbEntity
  8
1
  6
CONTINUOUS
370
50
 62
4
100
AcDbLine
 10
6.357842
 20
1.819766
 30
0.0
 11
6.237216
 21
1.958898
 31
0.0
  0
LINE
  5
783
330
1F
100
AcDbEntity
  8
1
  6
CONTINUOUS
370
50
 62
4
100
AcDbLine
 10
6.935962
 20
1.239562
 30
0.0
 11
6.925869
 21
1.251062
 31
0.0
  0
LINE
  5
784
330
1F
100
AcDbEntity
  8
1
  6
CONTINUOUS
370
50
 62
4
100
AcDbLine
 10
5.820137
 20
2.460582
 30
0.0
 11
5.72638
 21
2.566709
 31
0.0
  0
LINE
  5
785
330
1F
100
AcDbEntity
  8
1
  6
CONTINUOUS
370
50
 62
4
100
AcDbLine
 10
6.485702
 20
1.679342
 30
0.0
 11
6.357842
 21
1.819766
 31
0.0
  0
LINE
  5
786
330
1F
100
AcDbEntity
  8
1
  6
CONTINUOUS
370
50
 62
4
100
AcDbLine
 10
6.946422
 20
1.228126
 30
0.0
 11
6.935962
 21
1.239562
 31
0.0
  0
LINE
  5
787
330
1F
100
AcDbEntity
  8
1
  6
CONTINUOUS
370
50
 62
4
100
AcDbLine
 10
6.957153
 20
1.216808
 30
0.0
 11
6.946422
 21
1.228126
 31
0.0
  0
LINE
  5
788
330
1F
100
AcDbEntity
  8
1
  6
CONTINUOUS
370
50
 62
4
100
AcDbLine
 10
5.72638
 20
2.566709
 30
0.0
 11
5.635498
 21
2.662298
 31
0.0
  0
LINE
  5
789
330
1F
100
AcDbEntity
  8
1
  6
CONTINUOUS
370
50
 62
4
100
AcDbLine
 10
19.745625
 20
2.649608
 30
0.0
 11
19.708849
 21
2.687764
 31
0.0
  0
LINE
  5
78A
330
1F
100
AcDbEntity
  8
1
  6
CONTINUOUS
370
50
 62
4
100
AcDbLine
 10
6.620698
 20
1.539483
 30
0.0
 11
6.485702
 21
1.679342
 31
0.0
  0
LINE
  5
78B
330
1F
100
AcDbEntity
  8
1
  6
CONTINUOUS
370
50
 62
4
100
AcDbLine
 10
6.968058
 20
1.205663
 30
0.0
 11
6.957153
 21
1.216808
 31
0.0
  0
LINE
  5
78C
330
1F
100
AcDbEntity
  8
1
  6
CONTINUOUS
370
50
 62
4
100
AcDbLine
 10
6.288095999999999
 20
-2.321969
 30
0.0
 11
6.181795999999999
 21
-2.213717
 31
0.0
  0
LINE
  5
78D
330
1F
100
AcDbEntity
  8
1
  6
CONTINUOUS
370
50
 62
4
100
AcDbLine
 10
6.979038999999999
 20
1.194744
 30
0.0
 11
6.968058
 21
1.205663
 31
0.0
  0
LINE
  5
78E
330
1F
100
AcDbEntity
  8
1
  6
CONTINUOUS
370
50
 62
4
100
AcDbLine
 10
6.763865
 20
1.400467
 30
0.0
 11
6.620698
 21
1.539483
 31
0.0
  0
LINE
  5
78F
330
1F
100
AcDbEntity
  8
1
  6
CONTINUOUS
370
50
 62
4
100
AcDbLine
 10
6.989999999999999
 20
1.184106
 30
0.0
 11
6.979038999999999
 21
1.194744
 31
0.0
  0
LINE
  5
790
330
1F
100
AcDbEntity
  8
1
  6
CONTINUOUS
370
50
 62
4
100
AcDbLine
 10
6.991658999999999
 20
1.182632
 30
0.0
 11
6.989999999999999
 21
1.184223
 31
0.0
  0
LINE
  5
791
330
1F
100
AcDbEntity
  8
1
  6
CONTINUOUS
370
50
 62
4
100
AcDbLine
 10
6.993321
 20
1.181043
 30
0.0
 11
6.991658999999999
 21
1.182632
 31
0.0
  0
LINE
  5
792
330
1F
100
AcDbEntity
  8
1
  6
CONTINUOUS
370
50
 62
4
100
AcDbLine
 10
6.994987
 20
1.179457
 30
0.0
 11
6.993321
 21
1.181043
 31
0.0
  0
LINE
  5
793
330
1F
100
AcDbEntity
  8
1
  6
CONTINUOUS
370
50
 62
4
100
AcDbLine
 10
6.996655
 20
1.177873
 30
0.0
 11
6.994987
 21
1.179457
 31
0.0
  0
LINE
  5
794
330
1F
100
AcDbEntity
  8
1
  6
CONTINUOUS
370
50
 62
4
100
AcDbLine
 10
5.635498
 20
2.662298
 30
0.0
 11
5.546304
 21
2.746919
 31
0.0
  0
LINE
  5
795
330
1F
100
AcDbEntity
  8
1
  6
CONTINUOUS
370
50
 62
4
100
AcDbLine
 10
6.998326
 20
1.176291
 30
0.0
 11
6.996655
 21
1.177873
 31
0.0
  0
LINE
  5
796
330
1F
100
AcDbEntity
  8
1
  6
CONTINUOUS
370
50
 62
4
100
AcDbLine
 10
7.0
 20
1.174711
 30
0.0
 11
6.998326
 21
1.176291
 31
0.0
  0
LINE
  5
797
330
1F
100
AcDbEntity
  8
1
  6
CONTINUOUS
370
50
 62
4
100
AcDbLine
 10
19.708849
 20
2.687764
 30
0.0
 11
19.670485
 21
2.722946
 31
0.0
  0
LINE
  5
798
330
1F
100
AcDbEntity
  8
1
  6
CONTINUOUS
370
50
 62
4
100
AcDbLine
 10
6.916240999999999
 20
1.26257
 30
0.0
 11
6.763865
 21
1.400467
 31
0.0
  0
LINE
  5
799
330
1F
100
AcDbEntity
  8
1
  6
CONTINUOUS
370
50
 62
4
100
AcDbLine
 10
6.401125
 20
-2.421179
 30
0.0
 11
6.288095999999999
 21
-2.321969
 31
0.0
  0
LINE
  5
79A
330
1F
100
AcDbEntity
  8
1
  6
CONTINUOUS
370
50
 62
4
100
AcDbLine
 10
19.504311
 20
0.371798
 30
0.0
 11
19.460213
 21
0.409206
 31
0.0
  0
LINE
  5
79B
330
1F
100
AcDbEntity
  8
1
  6
CONTINUOUS
370
50
 62
4
100
AcDbLine
 10
19.547514
 20
0.335158
 30
0.0
 11
19.504311
 21
0.371798
 31
0.0
  0
LINE
  5
79C
330
1F
100
AcDbEntity
  8
1
  6
CONTINUOUS
370
50
 62
4
100
AcDbLine
 10
19.460213
 20
0.409206
 30
0.0
 11
19.415346
 21
0.447193
 31
0.0
  0
LINE
  5
79D
330
1F
100
AcDbEntity
  8
1
  6
CONTINUOUS
370
50
 62
4
100
AcDbLine
 10
19.589693
 20
0.299458
 30
0.0
 11
19.547514
 21
0.335158
 31
0.0
  0
LINE
  5
79E
330
1F
100
AcDbEntity
  8
1
  6
CONTINUOUS
370
50
 62
4
100
AcDbLine
 10
19.415346
 20
0.447193
 30
0.0
 11
19.369799
 21
0.485606
 31
0.0
  0
LINE
  5
79F
330
1F
100
AcDbEntity
  8
1
  6
CONTINUOUS
370
50
 62
4
100
AcDbLine
 10
19.630724
 20
0.264862
 30
0.0
 11
19.589693
 21
0.299458
 31
0.0
  0
LINE
  5
7A0
330
1F
100
AcDbEntity
  8
1
  6
CONTINUOUS
370
50
 62
4
100
AcDbLine
 10
19.369799
 20
0.485606
 30
0.0
 11
19.323647
 21
0.5242979999999999
 31
0.0
  0
LINE
  5
7A1
330
1F
100
AcDbEntity
  8
1
  6
CONTINUOUS
370
50
 62
4
100
AcDbLine
 10
19.670485
 20
0.231535
 30
0.0
 11
19.630724
 21
0.264862
 31
0.0
  0
LINE
  5
7A2
330
1F
100
AcDbEntity
  8
1
  6
CONTINUOUS
370
50
 62
4
100
AcDbLine
 10
19.323647
 20
0.5242979999999999
 30
0.0
 11
19.276976
 21
0.563118
 31
0.0
  0
LINE
  5
7A3
330
1F
100
AcDbEntity
  8
1
  6
CONTINUOUS
370
50
 62
4
100
AcDbLine
 10
19.708849
 20
0.199641
 30
0.0
 11
19.670485
 21
0.231535
 31
0.0
  0
LINE
  5
7A4
330
1F
100
AcDbEntity
  8
1
  6
CONTINUOUS
370
50
 62
4
100
AcDbLine
 10
5.546304
 20
2.746919
 30
0.0
 11
5.457617
 21
2.820145
 31
0.0
  0
LINE
  5
7A5
330
1F
100
AcDbEntity
  8
1
  6
CONTINUOUS
370
50
 62
4
100
AcDbLine
 10
19.276976
 20
0.563118
 30
0.0
 11
19.229862
 21
0.601918
 31
0.0
  0
LINE
  5
7A6
330
1F
100
AcDbEntity
  8
1
  6
CONTINUOUS
370
50
 62
4
100
AcDbLine
 10
19.745625
 20
0.16942
 30
0.0
 11
19.708849
 21
0.199641
 31
0.0
  0
LINE
  5
7A7
330
1F
100
AcDbEntity
  8
1
  6
CONTINUOUS
370
50
 62
4
100
AcDbLine
 10
19.229862
 20
0.601918
 30
0.0
 11
19.182381
 21
0.640558
 31
0.0
  0
LINE
  5
7A8
330
1F
100
AcDbEntity
  8
1
  6
CONTINUOUS
370
50
 62
4
100
AcDbLine
 10
7.382056
 20
0.423248
 30
0.0
 11
7.255386
 21
0.526208
 31
0.0
  0
LINE
  5
7A9
330
1F
100
AcDbEntity
  8
1
  6
CONTINUOUS
370
50
 62
4
100
AcDbLine
 10
7.509964999999999
 20
0.319289
 30
0.0
 11
7.382056
 21
0.423248
 31
0.0
  0
LINE
  5
7AA
330
1F
100
AcDbEntity
  8
1
  6
CONTINUOUS
370
50
 62
4
100
AcDbLine
 10
13.571457
 20
0.302285
 30
0.0
 11
13.204518
 21
0.5996699999999999
 31
0.0
  0
LINE
  5
7AB
330
1F
100
AcDbEntity
  8
1
  6
CONTINUOUS
370
50
 62
4
100
AcDbLine
 10
13.944686
 20
0.000004
 30
0.0
 11
13.571457
 21
0.302285
 31
0.0
  0
LINE
  5
7AC
330
1F
100
AcDbEntity
  8
1
  6
CONTINUOUS
370
50
 62
4
100
AcDbLine
 10
19.670485
 20
2.722946
 30
0.0
 11
19.630724
 21
2.755084
 31
0.0
  0
LINE
  5
7AD
330
1F
100
AcDbEntity
  8
1
  6
CONTINUOUS
370
50
 62
4
100
AcDbLine
 10
19.780453
 20
0.141273
 30
0.0
 11
19.745625
 21
0.16942
 31
0.0
  0
LINE
  5
7AE
330
1F
100
AcDbEntity
  8
1
  6
CONTINUOUS
370
50
 62
4
100
AcDbLine
 10
7.255386
 20
0.526208
 30
0.0
 11
7.128514999999999
 21
0.628549
 31
0.0
  0
LINE
  5
7AF
330
1F
100
AcDbEntity
  8
1
  6
CONTINUOUS
370
50
 62
4
100
AcDbLine
 10
7.640556999999999
 20
0.213951
 30
0.0
 11
7.509964999999999
 21
0.319289
 31
0.0
  0
LINE
  5
7B0
330
1F
100
AcDbEntity
  8
1
  6
CONTINUOUS
370
50
 62
4
100
AcDbLine
 10
19.182381
 20
0.640558
 30
0.0
 11
19.134592
 21
0.678901
 31
0.0
  0
LINE
  5
7B1
330
1F
100
AcDbEntity
  8
1
  6
CONTINUOUS
370
50
 62
4
100
AcDbLine
 10
13.948588
 20
-0.003101
 30
0.0
 11
13.944686
 21
0.000004
 31
0.0
  0
LINE
  5
7B2
330
1F
100
AcDbEntity
  8
1
  6
CONTINUOUS
370
50
 62
4
100
AcDbLine
 10
7.774998999999999
 20
0.107011
 30
0.0
 11
7.640556999999999
 21
0.213951
 31
0.0
  0
LINE
  5
7B3
330
1F
100
AcDbEntity
  8
1
  6
CONTINUOUS
370
50
 62
4
100
AcDbLine
 10
13.956393
 20
-0.009307
 30
0.0
 11
13.952491
 21
-0.006204
 31
0.0
  0
LINE
  5
7B4
330
1F
100
AcDbEntity
  8
1
  6
CONTINUOUS
370
50
 62
4
100
AcDbLine
 10
13.952491
 20
-0.006204
 30
0.0
 11
13.948588
 21
-0.003101
 31
0.0
  0
LINE
  5
7B5
330
1F
100
AcDbEntity
  8
1
  6
CONTINUOUS
370
50
 62
4
100
AcDbLine
 10
13.960298
 20
-0.01241
 30
0.0
 11
13.956393
 21
-0.009307
 31
0.0
  0
LINE
  5
7B6
330
1F
100
AcDbEntity
  8
1
  6
CONTINUOUS
370
50
 62
4
100
AcDbLine
 10
13.964201
 20
-0.015511
 30
0.0
 11
13.960298
 21
-0.01241
 31
0.0
  0
LINE
  5
7B7
330
1F
100
AcDbEntity
  8
1
  6
CONTINUOUS
370
50
 62
4
100
AcDbLine
 10
7.128514999999999
 20
0.628549
 30
0.0
 11
7.0
 21
0.73065
 31
0.0
  0
LINE
  5
7B8
330
1F
100
AcDbEntity
  8
1
  6
CONTINUOUS
370
50
 62
4
100
AcDbLine
 10
13.968106
 20
-0.018612
 30
0.0
 11
13.964201
 21
-0.015511
 31
0.0
  0
LINE
  5
7B9
330
1F
100
AcDbEntity
  8
1
  6
CONTINUOUS
370
50
 62
4
100
AcDbLine
 10
19.813217
 20
0.115297
 30
0.0
 11
19.780453
 21
0.141273
 31
0.0
  0
LINE
  5
7BA
330
1F
100
AcDbEntity
  8
1
  6
CONTINUOUS
370
50
 62
4
100
AcDbLine
 10
19.134592
 20
0.678901
 30
0.0
 11
19.086561
 21
0.716812
 31
0.0
  0
LINE
  5
7BB
330
1F
100
AcDbEntity
  8
1
  6
CONTINUOUS
370
50
 62
4
100
AcDbLine
 10
7.911097
 20
0.0
 30
0.0
 11
7.774998999999999
 21
0.107011
 31
0.0
  0
LINE
  5
7BC
330
1F
100
AcDbEntity
  8
1
  6
CONTINUOUS
370
50
 62
4
100
AcDbLine
 10
14.241302
 20
-0.232922
 30
0.0
 11
13.968106
 21
-0.018612
 31
0.0
  0
LINE
  5
7BD
330
1F
100
AcDbEntity
  8
1
  6
CONTINUOUS
370
50
 62
4
100
AcDbLine
 10
7.440112
 20
0.8515959999999999
 30
0.0
 11
7.223671
 21
1.02118
 31
0.0
  0
LINE
  5
7BE
330
1F
100
AcDbEntity
  8
1
  6
CONTINUOUS
370
50
 62
4
100
AcDbLine
 10
7.922936999999999
 20
-0.009198
 30
0.0
 11
7.915061
 21
-0.003044
 31
0.0
  0
LINE
  5
7BF
330
1F
100
AcDbEntity
  8
1
  6
CONTINUOUS
370
50
 62
4
100
AcDbLine
 10
7.930815999999999
 20
-0.01535
 30
0.0
 11
7.926876999999999
 21
-0.012274
 31
0.0
  0
LINE
  5
7C0
330
1F
100
AcDbEntity
  8
1
  6
CONTINUOUS
370
50
 62
4
100
AcDbLine
 10
7.926876999999999
 20
-0.012274
 30
0.0
 11
7.922936999999999
 21
-0.009198
 31
0.0
  0
LINE
  5
7C1
330
1F
100
AcDbEntity
  8
1
  6
CONTINUOUS
370
50
 62
4
100
AcDbLine
 10
7.658347
 20
0.681259
 30
0.0
 11
7.440112
 21
0.8515959999999999
 31
0.0
  0
LINE
  5
7C2
330
1F
100
AcDbEntity
  8
1
  6
CONTINUOUS
370
50
 62
4
100
AcDbLine
 10
7.934756999999999
 20
-0.018426
 30
0.0
 11
7.930815999999999
 21
-0.01535
 31
0.0
  0
LINE
  5
7C3
330
1F
100
AcDbEntity
  8
1
  6
CONTINUOUS
370
50
 62
4
100
AcDbLine
 10
14.572304
 20
0.000075
 30
0.0
 11
13.651522
 21
0.718067
 31
0.0
  0
LINE
  5
7C4
330
1F
100
AcDbEntity
  8
1
  6
CONTINUOUS
370
50
 62
4
100
AcDbLine
 10
7.878476
 20
0.510651
 30
0.0
 11
7.658347
 21
0.681259
 31
0.0
  0
LINE
  5
7C5
330
1F
100
AcDbEntity
  8
1
  6
CONTINUOUS
370
50
 62
4
100
AcDbLine
 10
19.086561
 20
0.716812
 30
0.0
 11
19.038343
 21
0.754161
 31
0.0
  0
LINE
  5
7C6
330
1F
100
AcDbEntity
  8
1
  6
CONTINUOUS
370
50
 62
4
100
AcDbLine
 10
8.266620999999999
 20
-0.274272
 30
0.0
 11
7.934756999999999
 21
-0.018426
 31
0.0
  0
LINE
  5
7C7
330
1F
100
AcDbEntity
  8
1
  6
CONTINUOUS
370
50
 62
4
100
AcDbLine
 10
8.100093
 20
0.340142
 30
0.0
 11
7.878476
 21
0.510651
 31
0.0
  0
LINE
  5
7C8
330
1F
100
AcDbEntity
  8
1
  6
CONTINUOUS
370
50
 62
4
100
AcDbLine
 10
7.915061
 20
-0.003044
 30
0.0
 11
7.911097
 21
0.0
 31
0.0
  0
LINE
  5
7C9
330
1F
100
AcDbEntity
  8
1
  6
CONTINUOUS
370
50
 62
4
100
AcDbLine
 10
13.204518
 20
0.5996699999999999
 30
0.0
 11
12.82317
 21
0.89235
 31
0.0
  0
LINE
  5
7CA
330
1F
100
AcDbEntity
  8
1
  6
CONTINUOUS
370
50
 62
4
100
AcDbLine
 10
13.651522
 20
0.718067
 30
0.0
 11
12.960471
 21
1.247325
 31
0.0
  0
LINE
  5
7CB
330
1F
100
AcDbEntity
  8
1
  6
CONTINUOUS
370
50
 62
4
100
AcDbLine
 10
14.516478
 20
-0.443557
 30
0.0
 11
14.241302
 21
-0.232922
 31
0.0
  0
LINE
  5
7CC
330
1F
100
AcDbEntity
  8
1
  6
CONTINUOUS
370
50
 62
4
100
AcDbLine
 10
7.223671
 20
1.02118
 30
0.0
 11
7.0
 21
1.192112
 31
0.0
  0
LINE
  5
7CD
330
1F
100
AcDbEntity
  8
1
  6
CONTINUOUS
370
50
 62
4
100
AcDbLine
 10
8.322716
 20
0.170097
 30
0.0
 11
8.100093
 21
0.340142
 31
0.0
  0
LINE
  5
7CE
330
1F
100
AcDbEntity
  8
1
  6
CONTINUOUS
370
50
 62
4
100
AcDbLine
 10
8.546871
 20
0.0
 30
0.0
 11
8.322716
 21
0.170097
 31
0.0
  0
LINE
  5
7CF
330
1F
100
AcDbEntity
  8
1
  6
CONTINUOUS
370
50
 62
4
100
AcDbLine
 10
19.038343
 20
0.754161
 30
0.0
 11
18.99
 21
0.7908149999999999
 31
0.0
  0
LINE
  5
7D0
330
1F
100
AcDbEntity
  8
1
  6
CONTINUOUS
370
50
 62
4
100
AcDbLine
 10
14.991307
 20
-0.316656
 30
0.0
 11
14.572304
 21
0.000075
 31
0.0
  0
LINE
  5
7D1
330
1F
100
AcDbEntity
  8
1
  6
CONTINUOUS
370
50
 62
4
100
AcDbLine
 10
5.580019999999999
 20
2.727626
 30
0.0
 11
5.457617
 21
2.820149
 31
0.0
  0
LINE
  5
7D2
330
1F
100
AcDbEntity
  8
1
  6
CONTINUOUS
370
50
 62
4
100
AcDbLine
 10
8.705371999999999
 20
-0.119755
 30
0.0
 11
8.546871
 21
0.0
 31
0.0
  0
LINE
  5
7D3
330
1F
100
AcDbEntity
  8
1
  6
CONTINUOUS
370
50
 62
4
100
AcDbLine
 10
8.600249999999999
 20
-0.525618
 30
0.0
 11
8.266620999999999
 21
-0.274272
 31
0.0
  0
LINE
  5
7D4
330
1F
100
AcDbEntity
  8
1
  6
CONTINUOUS
370
50
 62
4
100
AcDbLine
 10
8.864173
 20
-0.239367
 30
0.0
 11
8.705371999999999
 21
-0.119755
 31
0.0
  0
LINE
  5
7D5
330
1F
100
AcDbEntity
  8
1
  6
CONTINUOUS
370
50
 62
4
100
AcDbLine
 10
9.022983
 20
-0.358699
 30
0.0
 11
8.864173
 21
-0.239367
 31
0.0
  0
LINE
  5
7D6
330
1F
100
AcDbEntity
  8
1
  6
CONTINUOUS
370
50
 62
4
100
AcDbLine
 10
5.702686
 20
2.635478
 30
0.0
 11
5.580019999999999
 21
2.727626
 31
0.0
  0
LINE
  5
7D7
330
1F
100
AcDbEntity
  8
1
  6
CONTINUOUS
370
50
 62
4
100
AcDbLine
 10
9.181512
 20
-0.477607
 30
0.0
 11
9.022983
 21
-0.358699
 31
0.0
  0
LINE
  5
7D8
330
1F
100
AcDbEntity
  8
1
  6
CONTINUOUS
370
50
 62
4
100
AcDbLine
 10
9.339474
 20
-0.595947
 30
0.0
 11
9.181512
 21
-0.477607
 31
0.0
  0
LINE
  5
7D9
330
1F
100
AcDbEntity
  8
1
  6
CONTINUOUS
370
50
 62
4
100
AcDbLine
 10
6.519837
 20
-2.510067
 30
0.0
 11
6.401125
 21
-2.421179
 31
0.0
  0
LINE
  5
7DA
330
1F
100
AcDbEntity
  8
1
  6
CONTINUOUS
370
50
 62
4
100
AcDbLine
 10
9.496580999999999
 20
-0.713575
 30
0.0
 11
9.339474
 21
-0.595947
 31
0.0
  0
LINE
  5
7DB
330
1F
100
AcDbEntity
  8
1
  6
CONTINUOUS
370
50
 62
4
100
AcDbLine
 10
9.652758
 20
-0.8305039999999999
 30
0.0
 11
9.496580999999999
 21
-0.713575
 31
0.0
  0
LINE
  5
7DC
330
1F
100
AcDbEntity
  8
1
  6
CONTINUOUS
370
50
 62
4
100
AcDbLine
 10
9.808276
 20
-0.9469139999999999
 30
0.0
 11
9.652758
 21
-0.8305039999999999
 31
0.0
  0
LINE
  5
7DD
330
1F
100
AcDbEntity
  8
1
  6
CONTINUOUS
370
50
 62
4
100
AcDbLine
 10
9.963061999999999
 20
-1.062657
 30
0.0
 11
9.808276
 21
-0.9469139999999999
 31
0.0
  0
LINE
  5
7DE
330
1F
100
AcDbEntity
  8
1
  6
CONTINUOUS
370
50
 62
4
100
AcDbLine
 10
14.794
 20
-0.650982
 30
0.0
 11
14.516478
 21
-0.443557
 31
0.0
  0
LINE
  5
7DF
330
1F
100
AcDbEntity
  8
1
  6
CONTINUOUS
370
50
 62
4
100
AcDbLine
 10
10.117032
 20
-1.177573
 30
0.0
 11
9.963061999999999
 21
-1.062657
 31
0.0
  0
LINE
  5
7E0
330
1F
100
AcDbEntity
  8
1
  6
CONTINUOUS
370
50
 62
4
100
AcDbLine
 10
15.410652
 20
-0.629451
 30
0.0
 11
14.991307
 21
-0.316656
 31
0.0
  0
LINE
  5
7E1
330
1F
100
AcDbEntity
  8
1
  6
CONTINUOUS
370
50
 62
4
100
AcDbLine
 10
10.270097
 20
-1.291502
 30
0.0
 11
10.117032
 21
-1.177573
 31
0.0
  0
LINE
  5
7E2
330
1F
100
AcDbEntity
  8
1
  6
CONTINUOUS
370
50
 62
4
100
AcDbLine
 10
5.973065999999999
 20
2.434914
 30
0.0
 11
5.702686
 21
2.635478
 31
0.0
  0
LINE
  5
7E3
330
1F
100
AcDbEntity
  8
1
  6
CONTINUOUS
370
50
 62
4
100
AcDbLine
 10
10.426487
 20
-1.407283
 30
0.0
 11
10.270097
 21
-1.291502
 31
0.0
  0
LINE
  5
7E4
330
1F
100
AcDbEntity
  8
1
  6
CONTINUOUS
370
50
 62
4
100
AcDbLine
 10
15.825404
 20
-0.935804
 30
0.0
 11
15.410652
 21
-0.629451
 31
0.0
  0
LINE
  5
7E5
330
1F
100
AcDbEntity
  8
1
  6
CONTINUOUS
370
50
 62
4
100
AcDbLine
 10
8.933330999999999
 20
-0.771226
 30
0.0
 11
8.600249999999999
 21
-0.525618
 31
0.0
  0
LINE
  5
7E6
330
1F
100
AcDbEntity
  8
1
  6
CONTINUOUS
370
50
 62
4
100
AcDbLine
 10
16.211586
 20
-1.219543
 30
0.0
 11
15.825404
 21
-0.935804
 31
0.0
  0
LINE
  5
7E7
330
1F
100
AcDbEntity
  8
1
  6
CONTINUOUS
370
50
 62
4
100
AcDbLine
 10
6.342957999999999
 20
2.163667
 30
0.0
 11
5.973065999999999
 21
2.434914
 31
0.0
  0
LINE
  5
7E8
330
1F
100
AcDbEntity
  8
1
  6
CONTINUOUS
370
50
 62
4
100
AcDbLine
 10
18.99
 20
0.7908149999999999
 30
0.0
 11
18.644026
 21
1.043934
 31
0.0
  0
LINE
  5
7E9
330
1F
100
AcDbEntity
  8
1
  6
CONTINUOUS
370
50
 62
4
100
AcDbLine
 10
15.072678
 20
-0.854719
 30
0.0
 11
14.794
 21
-0.650982
 31
0.0
  0
LINE
  5
7EA
330
1F
100
AcDbEntity
  8
1
  6
CONTINUOUS
370
50
 62
4
100
AcDbLine
 10
16.535589
 20
-1.455159
 30
0.0
 11
16.211586
 21
-1.219543
 31
0.0
  0
LINE
  5
7EB
330
1F
100
AcDbEntity
  8
1
  6
CONTINUOUS
370
50
 62
4
100
AcDbLine
 10
9.266524
 20
-1.012445
 30
0.0
 11
8.933330999999999
 21
-0.771226
 31
0.0
  0
LINE
  5
7EC
330
1F
100
AcDbEntity
  8
1
  6
CONTINUOUS
370
50
 62
4
100
AcDbLine
 10
12.82317
 20
0.89235
 30
0.0
 11
12.436907
 21
1.17182
 31
0.0
  0
LINE
  5
7ED
330
1F
100
AcDbEntity
  8
1
  6
CONTINUOUS
370
50
 62
4
100
AcDbLine
 10
6.665634
 20
1.931618
 30
0.0
 11
6.342957999999999
 21
2.163667
 31
0.0
  0
LINE
  5
7EE
330
1F
100
AcDbEntity
  8
1
  6
CONTINUOUS
370
50
 62
4
100
AcDbLine
 10
15.350975
 20
-1.05404
 30
0.0
 11
15.072678
 21
-0.854719
 31
0.0
  0
LINE
  5
7EF
330
1F
100
AcDbEntity
  8
1
  6
CONTINUOUS
370
50
 62
4
100
AcDbLine
 10
10.643961
 20
-1.562055
 30
0.0
 11
10.426487
 21
-1.407283
 31
0.0
  0
LINE
  5
7F0
330
1F
100
AcDbEntity
  8
1
  6
CONTINUOUS
370
50
 62
4
100
AcDbLine
 10
9.599216
 20
-1.249098
 30
0.0
 11
9.266524
 21
-1.012445
 31
0.0
  0
LINE
  5
7F1
330
1F
100
AcDbEntity
  8
1
  6
CONTINUOUS
370
50
 62
4
100
AcDbLine
 10
19.630724
 20
2.755084
 30
0.0
 11
19.589693
 21
2.784184
 31
0.0
  0
LINE
  5
7F2
330
1F
100
AcDbEntity
  8
1
  6
CONTINUOUS
370
50
 62
4
100
AcDbLine
 10
6.989999999999999
 20
1.702141
 30
0.0
 11
6.665634
 21
1.931618
 31
0.0
  0
LINE
  5
7F3
330
1F
100
AcDbEntity
  8
1
  6
CONTINUOUS
370
50
 62
4
100
AcDbLine
 10
5.457617
 20
2.820145
 30
0.0
 11
5.392821
 21
2.86596
 31
0.0
  0
LINE
  5
7F4
330
1F
100
AcDbEntity
  8
1
  6
CONTINUOUS
370
50
 62
4
100
AcDbLine
 10
16.801914
 20
-1.642633
 30
0.0
 11
16.535589
 21
-1.455159
 31
0.0
  0
LINE
  5
7F5
330
1F
100
AcDbEntity
  8
1
  6
CONTINUOUS
370
50
 62
4
100
AcDbLine
 10
15.627464
 20
-1.248301
 30
0.0
 11
15.350975
 21
-1.05404
 31
0.0
  0
LINE
  5
7F6
330
1F
100
AcDbEntity
  8
1
  6
CONTINUOUS
370
50
 62
4
100
AcDbLine
 10
6.991664
 20
1.700973
 30
0.0
 11
6.989999999999999
 21
1.702141
 31
0.0
  0
LINE
  5
7F7
330
1F
100
AcDbEntity
  8
1
  6
CONTINUOUS
370
50
 62
4
100
AcDbLine
 10
7.0
 20
1.695126
 30
0.0
 11
6.998329999999999
 21
1.696298
 31
0.0
  0
LINE
  5
7F8
330
1F
100
AcDbEntity
  8
1
  6
CONTINUOUS
370
50
 62
4
100
AcDbLine
 10
6.994998
 20
1.698634
 30
0.0
 11
6.993328999999999
 21
1.699805
 31
0.0
  0
LINE
  5
7F9
330
1F
100
AcDbEntity
  8
1
  6
CONTINUOUS
370
50
 62
4
100
AcDbLine
 10
6.993328999999999
 20
1.699805
 30
0.0
 11
6.991664
 21
1.700973
 31
0.0
  0
LINE
  5
7FA
330
1F
100
AcDbEntity
  8
1
  6
CONTINUOUS
370
50
 62
4
100
AcDbLine
 10
6.996664999999999
 20
1.697465
 30
0.0
 11
6.994998
 21
1.698634
 31
0.0
  0
LINE
  5
7FB
330
1F
100
AcDbEntity
  8
1
  6
CONTINUOUS
370
50
 62
4
100
AcDbLine
 10
6.998329999999999
 20
1.696298
 30
0.0
 11
6.996664999999999
 21
1.697465
 31
0.0
  0
LINE
  5
7FC
330
1F
100
AcDbEntity
  8
1
  6
CONTINUOUS
370
50
 62
4
100
AcDbLine
 10
9.929300999999999
 20
-1.479592
 30
0.0
 11
9.599216
 21
-1.249098
 31
0.0
  0
LINE
  5
7FD
330
1F
100
AcDbEntity
  8
1
  6
CONTINUOUS
370
50
 62
4
100
AcDbLine
 10
18.644026
 20
1.043934
 30
0.0
 11
18.295811
 21
1.28703
 31
0.0
  0
LINE
  5
7FE
330
1F
100
AcDbEntity
  8
1
  6
CONTINUOUS
370
50
 62
4
100
AcDbLine
 10
19.017769
 20
1.229894
 30
0.0
 11
18.99
 21
1.249079
 31
0.0
  0
LINE
  5
7FF
330
1F
100
AcDbEntity
  8
1
  6
CONTINUOUS
370
50
 62
4
100
AcDbLine
 10
15.902512
 20
-1.438039
 30
0.0
 11
15.627464
 21
-1.248301
 31
0.0
  0
LINE
  5
800
330
1F
100
AcDbEntity
  8
1
  6
CONTINUOUS
370
50
 62
4
100
AcDbLine
 10
10.253876
 20
-1.701754
 30
0.0
 11
9.929300999999999
 21
-1.479592
 31
0.0
  0
LINE
  5
801
330
1F
100
AcDbEntity
  8
1
  6
CONTINUOUS
370
50
 62
4
100
AcDbLine
 10
18.99
 20
1.249079
 30
0.0
 11
18.637184
 21
1.490255
 31
0.0
  0
LINE
  5
802
330
1F
100
AcDbEntity
  8
1
  6
CONTINUOUS
370
50
 62
4
100
AcDbLine
 10
12.436907
 20
1.17182
 30
0.0
 11
12.049283
 21
1.436463
 31
0.0
  0
LINE
  5
803
330
1F
100
AcDbEntity
  8
1
  6
CONTINUOUS
370
50
 62
4
100
AcDbLine
 10
19.813223
 20
0.115223
 30
0.0
 11
19.789413
 21
0.131398
 31
0.0
  0
LINE
  5
804
330
1F
100
AcDbEntity
  8
1
  6
CONTINUOUS
370
50
 62
4
100
AcDbLine
 10
19.789413
 20
0.131398
 30
0.0
 11
19.761194
 21
0.150564
 31
0.0
  0
LINE
  5
805
330
1F
100
AcDbEntity
  8
1
  6
CONTINUOUS
370
50
 62
4
100
AcDbLine
 10
19.761194
 20
0.150564
 30
0.0
 11
19.726933
 21
0.173827
 31
0.0
  0
LINE
  5
806
330
1F
100
AcDbEntity
  8
1
  6
CONTINUOUS
370
50
 62
4
100
AcDbLine
 10
19.726933
 20
0.173827
 30
0.0
 11
19.684998
 21
0.202293
 31
0.0
  0
LINE
  5
807
330
1F
100
AcDbEntity
  8
1
  6
CONTINUOUS
370
50
 62
4
100
AcDbLine
 10
19.684998
 20
0.202293
 30
0.0
 11
19.634531
 21
0.236542
 31
0.0
  0
LINE
  5
808
330
1F
100
AcDbEntity
  8
1
  6
CONTINUOUS
370
50
 62
4
100
AcDbLine
 10
19.634531
 20
0.236542
 30
0.0
 11
19.582037
 21
0.272161
 31
0.0
  0
LINE
  5
809
330
1F
100
AcDbEntity
  8
1
  6
CONTINUOUS
370
50
 62
4
100
AcDbLine
 10
19.582037
 20
0.272161
 30
0.0
 11
19.529547
 21
0.307774
 31
0.0
  0
LINE
  5
80A
330
1F
100
AcDbEntity
  8
1
  6
CONTINUOUS
370
50
 62
4
100
AcDbLine
 10
18.874638
 20
0.752042
 30
0.0
 11
18.809992
 21
0.7958989999999999
 31
0.0
  0
LINE
  5
80B
330
1F
100
AcDbEntity
  8
1
  6
CONTINUOUS
370
50
 62
4
100
AcDbLine
 10
19.529547
 20
0.307774
 30
0.0
 11
19.476913
 21
0.343481
 31
0.0
  0
LINE
  5
80C
330
1F
100
AcDbEntity
  8
1
  6
CONTINUOUS
370
50
 62
4
100
AcDbLine
 10
19.004877
 20
0.66369
 30
0.0
 11
18.939442
 21
0.708081
 31
0.0
  0
LINE
  5
80D
330
1F
100
AcDbEntity
  8
1
  6
CONTINUOUS
370
50
 62
4
100
AcDbLine
 10
19.476913
 20
0.343481
 30
0.0
 11
19.423519
 21
0.379703
 31
0.0
  0
LINE
  5
80E
330
1F
100
AcDbEntity
  8
1
  6
CONTINUOUS
370
50
 62
4
100
AcDbLine
 10
19.423519
 20
0.379703
 30
0.0
 11
19.370909
 21
0.415392
 31
0.0
  0
LINE
  5
80F
330
1F
100
AcDbEntity
  8
1
  6
CONTINUOUS
370
50
 62
4
100
AcDbLine
 10
19.137075
 20
0.574012
 30
0.0
 11
19.071419
 21
0.618551
 31
0.0
  0
LINE
  5
810
330
1F
100
AcDbEntity
  8
1
  6
CONTINUOUS
370
50
 62
4
100
AcDbLine
 10
18.939442
 20
0.708081
 30
0.0
 11
18.874638
 21
0.752042
 31
0.0
  0
LINE
  5
811
330
1F
100
AcDbEntity
  8
1
  6
CONTINUOUS
370
50
 62
4
100
AcDbLine
 10
19.316851
 20
0.452062
 30
0.0
 11
19.259832
 21
0.490741
 31
0.0
  0
LINE
  5
812
330
1F
100
AcDbEntity
  8
1
  6
CONTINUOUS
370
50
 62
4
100
AcDbLine
 10
19.071419
 20
0.618551
 30
0.0
 11
19.004877
 21
0.66369
 31
0.0
  0
LINE
  5
813
330
1F
100
AcDbEntity
  8
1
  6
CONTINUOUS
370
50
 62
4
100
AcDbLine
 10
19.259832
 20
0.490741
 30
0.0
 11
19.199894
 21
0.5314
 31
0.0
  0
LINE
  5
814
330
1F
100
AcDbEntity
  8
1
  6
CONTINUOUS
370
50
 62
4
100
AcDbLine
 10
19.370909
 20
0.415392
 30
0.0
 11
19.316851
 21
0.452062
 31
0.0
  0
LINE
  5
815
330
1F
100
AcDbEntity
  8
1
  6
CONTINUOUS
370
50
 62
4
100
AcDbLine
 10
19.199894
 20
0.5314
 30
0.0
 11
19.137075
 21
0.574012
 31
0.0
  0
LINE
  5
816
330
1F
100
AcDbEntity
  8
1
  6
CONTINUOUS
370
50
 62
4
100
AcDbLine
 10
16.175774
 20
-1.622808
 30
0.0
 11
15.902512
 21
-1.438039
 31
0.0
  0
LINE
  5
817
330
1F
100
AcDbEntity
  8
1
  6
CONTINUOUS
370
50
 62
4
100
AcDbLine
 10
19.842899
 20
0.095175
 30
0.0
 11
19.81316
 21
0.115266
 31
0.0
  0
LINE
  5
818
330
1F
100
AcDbEntity
  8
1
  6
CONTINUOUS
370
50
 62
4
100
AcDbLine
 10
19.870127
 20
0.076792
 30
0.0
 11
19.842899
 21
0.095175
 31
0.0
  0
LINE
  5
819
330
1F
100
AcDbEntity
  8
1
  6
CONTINUOUS
370
50
 62
4
100
AcDbLine
 10
19.894547
 20
0.060317
 30
0.0
 11
19.870127
 21
0.076792
 31
0.0
  0
LINE
  5
81A
330
1F
100
AcDbEntity
  8
1
  6
CONTINUOUS
370
50
 62
4
100
AcDbLine
 10
19.915878
 20
0.045935
 30
0.0
 11
19.894547
 21
0.060317
 31
0.0
  0
LINE
  5
81B
330
1F
100
AcDbEntity
  8
1
  6
CONTINUOUS
370
50
 62
4
100
AcDbLine
 10
19.934376
 20
0.033478
 30
0.0
 11
19.915878
 21
0.045935
 31
0.0
  0
LINE
  5
81C
330
1F
100
AcDbEntity
  8
1
  6
CONTINUOUS
370
50
 62
4
100
AcDbLine
 10
19.950905
 20
0.022361
 30
0.0
 11
19.934376
 21
0.033478
 31
0.0
  0
LINE
  5
81D
330
1F
100
AcDbEntity
  8
1
  6
CONTINUOUS
370
50
 62
4
100
AcDbLine
 10
19.964983
 20
0.01291
 30
0.0
 11
19.950905
 21
0.022361
 31
0.0
  0
LINE
  5
81E
330
1F
100
AcDbEntity
  8
1
  6
CONTINUOUS
370
50
 62
4
100
AcDbLine
 10
12.960471
 20
1.247325
 30
0.0
 11
12.278251
 21
1.704659
 31
0.0
  0
LINE
  5
81F
330
1F
100
AcDbEntity
  8
1
  6
CONTINUOUS
370
50
 62
4
100
AcDbLine
 10
19.976072
 20
0.005491
 30
0.0
 11
19.964983
 21
0.01291
 31
0.0
  0
LINE
  5
820
330
1F
100
AcDbEntity
  8
1
  6
CONTINUOUS
370
50
 62
4
100
AcDbLine
 10
18.295811
 20
1.28703
 30
0.0
 11
17.948166
 21
1.51897
 31
0.0
  0
LINE
  5
821
330
1F
100
AcDbEntity
  8
1
  6
CONTINUOUS
370
50
 62
4
100
AcDbLine
 10
19.983881
 20
0.000297
 30
0.0
 11
19.976072
 21
0.005491
 31
0.0
  0
LINE
  5
822
330
1F
100
AcDbEntity
  8
1
  6
CONTINUOUS
370
50
 62
4
100
AcDbLine
 10
10.936949
 20
-1.756539
 30
0.0
 11
10.643961
 21
-1.562055
 31
0.0
  0
LINE
  5
823
330
1F
100
AcDbEntity
  8
1
  6
CONTINUOUS
370
50
 62
4
100
AcDbLine
 10
16.446268
 20
-1.80163
 30
0.0
 11
16.175774
 21
-1.622808
 31
0.0
  0
LINE
  5
824
330
1F
100
AcDbEntity
  8
1
  6
CONTINUOUS
370
50
 62
4
100
AcDbLine
 10
17.040085
 20
-1.799982
 30
0.0
 11
16.801914
 21
-1.642633
 31
0.0
  0
LINE
  5
825
330
1F
100
AcDbEntity
  8
1
  6
CONTINUOUS
370
50
 62
4
100
AcDbLine
 10
19.046198
 20
1.211185
 30
0.0
 11
19.017769
 21
1.229894
 31
0.0
  0
LINE
  5
826
330
1F
100
AcDbEntity
  8
1
  6
CONTINUOUS
370
50
 62
4
100
AcDbLine
 10
10.571156
 20
-1.910013
 30
0.0
 11
10.253876
 21
-1.701754
 31
0.0
  0
LINE
  5
827
330
1F
100
AcDbEntity
  8
1
  6
CONTINUOUS
370
50
 62
4
100
AcDbLine
 10
19.988487
 20
-0.002726
 30
0.0
 11
19.983881
 21
0.000297
 31
0.0
  0
LINE
  5
828
330
1F
100
AcDbEntity
  8
1
  6
CONTINUOUS
370
50
 62
4
100
AcDbLine
 10
12.049283
 20
1.436463
 30
0.0
 11
11.662435
 21
1.685772
 31
0.0
  0
LINE
  5
829
330
1F
100
AcDbEntity
  8
1
  6
CONTINUOUS
370
50
 62
4
100
AcDbLine
 10
18.637184
 20
1.490255
 30
0.0
 11
18.28141
 21
1.717853
 31
0.0
  0
LINE
  5
82A
330
1F
100
AcDbEntity
  8
1
  6
CONTINUOUS
370
50
 62
4
100
AcDbLine
 10
16.711191
 20
-1.970827
 30
0.0
 11
16.446268
 21
-1.80163
 31
0.0
  0
LINE
  5
82B
330
1F
100
AcDbEntity
  8
1
  6
CONTINUOUS
370
50
 62
4
100
AcDbLine
 10
17.948166
 20
1.51897
 30
0.0
 11
17.600937
 21
1.740609
 31
0.0
  0
LINE
  5
82C
330
1F
100
AcDbEntity
  8
1
  6
CONTINUOUS
370
50
 62
4
100
AcDbLine
 10
6.644734
 20
-2.58918
 30
0.0
 11
6.519837
 21
-2.510067
 31
0.0
  0
LINE
  5
82D
330
1F
100
AcDbEntity
  8
1
  6
CONTINUOUS
370
50
 62
4
100
AcDbLine
 10
19.075289
 20
1.193048
 30
0.0
 11
19.046198
 21
1.211185
 31
0.0
  0
LINE
  5
82E
330
1F
100
AcDbEntity
  8
1
  6
CONTINUOUS
370
50
 62
4
100
AcDbLine
 10
19.589693
 20
2.784184
 30
0.0
 11
19.547514
 21
2.810258
 31
0.0
  0
LINE
  5
82F
330
1F
100
AcDbEntity
  8
1
  6
CONTINUOUS
370
50
 62
4
100
AcDbLine
 10
17.280329
 20
-1.947964
 30
0.0
 11
17.040085
 21
-1.799982
 31
0.0
  0
LINE
  5
830
330
1F
100
AcDbEntity
  8
1
  6
CONTINUOUS
370
50
 62
4
100
AcDbLine
 10
7.311574999999999
 20
0.356715
 30
0.0
 11
7.155786
 21
0.452506
 31
0.0
  0
LINE
  5
831
330
1F
100
AcDbEntity
  8
1
  6
CONTINUOUS
370
50
 62
4
100
AcDbLine
 10
13.60113
 20
0.20463
 30
0.0
 11
13.234405
 21
0.429606
 31
0.0
  0
LINE
  5
832
330
1F
100
AcDbEntity
  8
1
  6
CONTINUOUS
370
50
 62
4
100
AcDbLine
 10
19.99
 20
-0.003653
 30
0.0
 11
19.988487
 21
-0.002726
 31
0.0
  0
LINE
  5
833
330
1F
100
AcDbEntity
  8
1
  6
CONTINUOUS
370
50
 62
4
100
AcDbLine
 10
7.467366999999999
 20
0.261317
 30
0.0
 11
7.311574999999999
 21
0.356715
 31
0.0
  0
LINE
  5
834
330
1F
100
AcDbEntity
  8
1
  6
CONTINUOUS
370
50
 62
4
100
AcDbLine
 10
17.600937
 20
1.740609
 30
0.0
 11
17.255573
 21
1.951115
 31
0.0
  0
LINE
  5
835
330
1F
100
AcDbEntity
  8
1
  6
CONTINUOUS
370
50
 62
4
100
AcDbLine
 10
11.662435
 20
1.685772
 30
0.0
 11
11.275407
 21
1.921329
 31
0.0
  0
LINE
  5
836
330
1F
100
AcDbEntity
  8
1
  6
CONTINUOUS
370
50
 62
4
100
AcDbLine
 10
13.96787
 20
-0.018358
 30
0.0
 11
13.60113
 21
0.20463
 31
0.0
  0
LINE
  5
837
330
1F
100
AcDbEntity
  8
1
  6
CONTINUOUS
370
50
 62
4
100
AcDbLine
 10
11.297591
 20
-1.975543
 30
0.0
 11
10.936949
 21
-1.756539
 31
0.0
  0
LINE
  5
838
330
1F
100
AcDbEntity
  8
1
  6
CONTINUOUS
370
50
 62
4
100
AcDbLine
 10
7.623161
 20
0.166978
 30
0.0
 11
7.467366999999999
 21
0.261317
 31
0.0
  0
LINE
  5
839
330
1F
100
AcDbEntity
  8
1
  6
CONTINUOUS
370
50
 62
4
100
AcDbLine
 10
5.392821
 20
2.86596
 30
0.0
 11
5.327833
 21
2.905051
 31
0.0
  0
LINE
  5
83A
330
1F
100
AcDbEntity
  8
1
  6
CONTINUOUS
370
50
 62
4
100
AcDbLine
 10
7.155786
 20
0.452506
 30
0.0
 11
7.0
 21
0.546086
 31
0.0
  0
LINE
  5
83B
330
1F
100
AcDbEntity
  8
1
  6
CONTINUOUS
370
50
 62
4
100
AcDbLine
 10
18.28141
 20
1.717853
 30
0.0
 11
17.925941
 21
1.930695
 31
0.0
  0
LINE
  5
83C
330
1F
100
AcDbEntity
  8
1
  6
CONTINUOUS
370
50
 62
4
100
AcDbLine
 10
7.778956
 20
0.07372
 30
0.0
 11
7.623161
 21
0.166978
 31
0.0
  0
LINE
  5
83D
330
1F
100
AcDbEntity
  8
1
  6
CONTINUOUS
370
50
 62
4
100
AcDbLine
 10
10.902112
 20
-2.107316
 30
0.0
 11
10.571156
 21
-1.910013
 31
0.0
  0
LINE
  5
83E
330
1F
100
AcDbEntity
  8
1
  6
CONTINUOUS
370
50
 62
4
100
AcDbLine
 10
16.979692
 20
-2.130589
 30
0.0
 11
16.711191
 21
-1.970827
 31
0.0
  0
LINE
  5
83F
330
1F
100
AcDbEntity
  8
1
  6
CONTINUOUS
370
50
 62
4
100
AcDbLine
 10
7.934752
 20
-0.018435
 30
0.0
 11
7.778956
 21
0.07372
 31
0.0
  0
LINE
  5
840
330
1F
100
AcDbEntity
  8
1
  6
CONTINUOUS
370
50
 62
4
100
AcDbLine
 10
19.105028
 20
1.175588
 30
0.0
 11
19.075289
 21
1.193048
 31
0.0
  0
LINE
  5
841
330
1F
100
AcDbEntity
  8
1
  6
CONTINUOUS
370
50
 62
4
100
AcDbLine
 10
13.234405
 20
0.429606
 30
0.0
 11
12.867687
 21
0.6430389999999999
 31
0.0
  0
LINE
  5
842
330
1F
100
AcDbEntity
  8
1
  6
CONTINUOUS
370
50
 62
4
100
AcDbLine
 10
12.278251
 20
1.704659
 30
0.0
 11
11.586684
 21
2.106591
 31
0.0
  0
LINE
  5
843
330
1F
100
AcDbEntity
  8
1
  6
CONTINUOUS
370
50
 62
4
100
AcDbLine
 10
17.255573
 20
1.951115
 30
0.0
 11
16.917906
 21
2.147296
 31
0.0
  0
LINE
  5
844
330
1F
100
AcDbEntity
  8
1
  6
CONTINUOUS
370
50
 62
4
100
AcDbLine
 10
17.522478
 20
-2.086723
 30
0.0
 11
17.280329
 21
-1.947964
 31
0.0
  0
LINE
  5
845
330
1F
100
AcDbEntity
  8
1
  6
CONTINUOUS
370
50
 62
4
100
AcDbLine
 10
11.275407
 20
1.921329
 30
0.0
 11
10.891457
 21
2.141043
 31
0.0
  0
LINE
  5
846
330
1F
100
AcDbEntity
  8
1
  6
CONTINUOUS
370
50
 62
4
100
AcDbLine
 10
17.925941
 20
1.930695
 30
0.0
 11
17.573147
 21
2.128114
 31
0.0
  0
LINE
  5
847
330
1F
100
AcDbEntity
  8
1
  6
CONTINUOUS
370
50
 62
4
100
AcDbLine
 10
6.925869
 20
-2.726635
 30
0.0
 11
6.916240999999999
 21
-2.721326
 31
0.0
  0
LINE
  5
848
330
1F
100
AcDbEntity
  8
1
  6
CONTINUOUS
370
50
 62
4
100
AcDbLine
 10
12.867687
 20
0.6430389999999999
 30
0.0
 11
12.500971
 21
0.8446429999999999
 31
0.0
  0
LINE
  5
849
330
1F
100
AcDbEntity
  8
1
  6
CONTINUOUS
370
50
 62
4
100
AcDbLine
 10
19.135368
 20
1.158929
 30
0.0
 11
19.105028
 21
1.175588
 31
0.0
  0
LINE
  5
84A
330
1F
100
AcDbEntity
  8
1
  6
CONTINUOUS
370
50
 62
4
100
AcDbLine
 10
11.678033
 20
-2.183847
 30
0.0
 11
11.297591
 21
-1.975543
 31
0.0
  0
LINE
  5
84B
330
1F
100
AcDbEntity
  8
1
  6
CONTINUOUS
370
50
 62
4
100
AcDbLine
 10
16.917906
 20
2.147296
 30
0.0
 11
16.597479
 21
2.32234
 31
0.0
  0
LINE
  5
84C
330
1F
100
AcDbEntity
  8
1
  6
CONTINUOUS
370
50
 62
4
100
AcDbLine
 10
18.910063
 20
0.636227
 30
0.0
 11
18.534338
 21
0.840834
 31
0.0
  0
LINE
  5
84D
330
1F
100
AcDbEntity
  8
1
  6
CONTINUOUS
370
50
 62
4
100
AcDbLine
 10
17.261818
 20
-2.282009
 30
0.0
 11
16.979692
 21
-2.130589
 31
0.0
  0
LINE
  5
84E
330
1F
100
AcDbEntity
  8
1
  6
CONTINUOUS
370
50
 62
4
100
AcDbLine
 10
10.891457
 20
2.141043
 30
0.0
 11
10.520574
 21
2.339666
 31
0.0
  0
LINE
  5
84F
330
1F
100
AcDbEntity
  8
1
  6
CONTINUOUS
370
50
 62
4
100
AcDbLine
 10
19.547514
 20
2.810258
 30
0.0
 11
19.504311
 21
2.833315
 31
0.0
  0
LINE
  5
850
330
1F
100
AcDbEntity
  8
1
  6
CONTINUOUS
370
50
 62
4
100
AcDbLine
 10
17.765751
 20
-2.216163
 30
0.0
 11
17.522478
 21
-2.086723
 31
0.0
  0
LINE
  5
851
330
1F
100
AcDbEntity
  8
1
  6
CONTINUOUS
370
50
 62
4
100
AcDbLine
 10
6.776605
 20
-2.659328
 30
0.0
 11
6.644734
 21
-2.58918
 31
0.0
  0
LINE
  5
852
330
1F
100
AcDbEntity
  8
1
  6
CONTINUOUS
370
50
 62
4
100
AcDbLine
 10
11.242735
 20
-2.287753
 30
0.0
 11
10.902112
 21
-2.107316
 31
0.0
  0
LINE
  5
853
330
1F
100
AcDbEntity
  8
1
  6
CONTINUOUS
370
50
 62
4
100
AcDbLine
 10
17.573147
 20
2.128114
 30
0.0
 11
17.222637
 21
2.310597
 31
0.0
  0
LINE
  5
854
330
1F
100
AcDbEntity
  8
1
  6
CONTINUOUS
370
50
 62
4
100
AcDbLine
 10
6.935962
 20
-2.731879
 30
0.0
 11
6.925869
 21
-2.726635
 31
0.0
  0
LINE
  5
855
330
1F
100
AcDbEntity
  8
1
  6
CONTINUOUS
370
50
 62
4
100
AcDbLine
 10
12.500971
 20
0.8446429999999999
 30
0.0
 11
12.13425
 21
1.035146
 31
0.0
  0
LINE
  5
856
330
1F
100
AcDbEntity
  8
1
  6
CONTINUOUS
370
50
 62
4
100
AcDbLine
 10
18.534338
 20
0.840834
 30
0.0
 11
18.158602
 21
1.03535
 31
0.0
  0
LINE
  5
857
330
1F
100
AcDbEntity
  8
1
  6
CONTINUOUS
370
50
 62
4
100
AcDbLine
 10
19.166143
 20
1.143254
 30
0.0
 11
19.135368
 21
1.158929
 31
0.0
  0
LINE
  5
858
330
1F
100
AcDbEntity
  8
1
  6
CONTINUOUS
370
50
 62
4
100
AcDbLine
 10
11.586684
 20
2.106591
 30
0.0
 11
10.920284
 21
2.43966
 31
0.0
  0
LINE
  5
859
330
1F
100
AcDbEntity
  8
1
  6
CONTINUOUS
370
50
 62
4
100
AcDbLine
 10
5.327833
 20
2.905051
 30
0.0
 11
5.262324
 21
2.937376
 31
0.0
  0
LINE
  5
85A
330
1F
100
AcDbEntity
  8
1
  6
CONTINUOUS
370
50
 62
4
100
AcDbLine
 10
6.946422
 20
-2.737037
 30
0.0
 11
6.935962
 21
-2.731879
 31
0.0
  0
LINE
  5
85B
330
1F
100
AcDbEntity
  8
1
  6
CONTINUOUS
370
50
 62
4
100
AcDbLine
 10
18.010098
 20
-2.336576
 30
0.0
 11
17.765751
 21
-2.216163
 31
0.0
  0
LINE
  5
85C
330
1F
100
AcDbEntity
  8
1
  6
CONTINUOUS
370
50
 62
4
100
AcDbLine
 10
18.158602
 20
1.03535
 30
0.0
 11
17.78286
 21
1.220407
 31
0.0
  0
LINE
  5
85D
330
1F
100
AcDbEntity
  8
1
  6
CONTINUOUS
370
50
 62
4
100
AcDbLine
 10
12.13425
 20
1.035146
 30
0.0
 11
11.767521
 21
1.21549
 31
0.0
  0
LINE
  5
85E
330
1F
100
AcDbEntity
  8
1
  6
CONTINUOUS
370
50
 62
4
100
AcDbLine
 10
12.060251
 20
-2.3712
 30
0.0
 11
11.678033
 21
-2.183847
 31
0.0
  0
LINE
  5
85F
330
1F
100
AcDbEntity
  8
1
  6
CONTINUOUS
370
50
 62
4
100
AcDbLine
 10
16.597479
 20
2.32234
 30
0.0
 11
16.274887
 21
2.479465
 31
0.0
  0
LINE
  5
860
330
1F
100
AcDbEntity
  8
1
  6
CONTINUOUS
370
50
 62
4
100
AcDbLine
 10
10.520574
 20
2.339666
 30
0.0
 11
10.162417
 21
2.512197
 31
0.0
  0
LINE
  5
861
330
1F
100
AcDbEntity
  8
1
  6
CONTINUOUS
370
50
 62
4
100
AcDbLine
 10
17.548424
 20
-2.419812
 30
0.0
 11
17.261818
 21
-2.282009
 31
0.0
  0
LINE
  5
862
330
1F
100
AcDbEntity
  8
1
  6
CONTINUOUS
370
50
 62
4
100
AcDbLine
 10
17.222637
 20
2.310597
 30
0.0
 11
16.876205
 21
2.476702
 31
0.0
  0
LINE
  5
863
330
1F
100
AcDbEntity
  8
1
  6
CONTINUOUS
370
50
 62
4
100
AcDbLine
 10
6.957153
 20
-2.742088
 30
0.0
 11
6.946422
 21
-2.737037
 31
0.0
  0
LINE
  5
864
330
1F
100
AcDbEntity
  8
1
  6
CONTINUOUS
370
50
 62
4
100
AcDbLine
 10
17.78286
 20
1.220407
 30
0.0
 11
17.40711
 21
1.396622
 31
0.0
  0
LINE
  5
865
330
1F
100
AcDbEntity
  8
1
  6
CONTINUOUS
370
50
 62
4
100
AcDbLine
 10
19.197302
 20
1.128661
 30
0.0
 11
19.166143
 21
1.143254
 31
0.0
  0
LINE
  5
866
330
1F
100
AcDbEntity
  8
1
  6
CONTINUOUS
370
50
 62
4
100
AcDbLine
 10
11.586021
 20
-2.448479
 30
0.0
 11
11.242735
 21
-2.287753
 31
0.0
  0
LINE
  5
867
330
1F
100
AcDbEntity
  8
1
  6
CONTINUOUS
370
50
 62
4
100
AcDbLine
 10
11.767521
 20
1.21549
 30
0.0
 11
11.400784
 21
1.386598
 31
0.0
  0
LINE
  5
868
330
1F
100
AcDbEntity
  8
1
  6
CONTINUOUS
370
50
 62
4
100
AcDbLine
 10
18.255762
 20
-2.448321
 30
0.0
 11
18.010098
 21
-2.336576
 31
0.0
  0
LINE
  5
869
330
1F
100
AcDbEntity
  8
1
  6
CONTINUOUS
370
50
 62
4
100
AcDbLine
 10
19.504311
 20
2.833315
 30
0.0
 11
19.460213
 21
2.853361
 31
0.0
  0
LINE
  5
86A
330
1F
100
AcDbEntity
  8
1
  6
CONTINUOUS
370
50
 62
4
100
AcDbLine
 10
6.968058
 20
-2.747008
 30
0.0
 11
6.957153
 21
-2.742088
 31
0.0
  0
LINE
  5
86B
330
1F
100
AcDbEntity
  8
1
  6
CONTINUOUS
370
50
 62
4
100
AcDbLine
 10
11.881371
 20
-0.009744
 30
0.0
 11
11.881342
 21
-0.009731
 31
0.0
  0
LINE
  5
86C
330
1F
100
AcDbEntity
  8
1
  6
CONTINUOUS
370
50
 62
4
100
AcDbLine
 10
17.40711
 20
1.396622
 30
0.0
 11
17.031357
 21
1.564209
 31
0.0
  0
LINE
  5
86D
330
1F
100
AcDbEntity
  8
1
  6
CONTINUOUS
370
50
 62
4
100
AcDbLine
 10
6.916240999999999
 20
-2.721326
 30
0.0
 11
6.776605
 21
-2.659328
 31
0.0
  0
LINE
  5
86E
330
1F
100
AcDbEntity
  8
1
  6
CONTINUOUS
370
50
 62
4
100
AcDbLine
 10
11.400784
 20
1.386598
 30
0.0
 11
11.034039
 21
1.548552
 31
0.0
  0
LINE
  5
86F
330
1F
100
AcDbEntity
  8
1
  6
CONTINUOUS
370
50
 62
4
100
AcDbLine
 10
12.440219
 20
-2.536469
 30
0.0
 11
12.060251
 21
-2.3712
 31
0.0
  0
LINE
  5
870
330
1F
100
AcDbEntity
  8
1
  6
CONTINUOUS
370
50
 62
4
100
AcDbLine
 10
6.979038999999999
 20
-2.751777
 30
0.0
 11
6.968058
 21
-2.747008
 31
0.0
  0
LINE
  5
871
330
1F
100
AcDbEntity
  8
1
  6
CONTINUOUS
370
50
 62
4
100
AcDbLine
 10
17.003851
 20
0.369993
 30
0.0
 11
16.552389
 21
0.564118
 31
0.0
  0
LINE
  5
872
330
1F
100
AcDbEntity
  8
1
  6
CONTINUOUS
370
50
 62
4
100
AcDbLine
 10
17.836582
 20
-2.543188
 30
0.0
 11
17.548424
 21
-2.419812
 31
0.0
  0
LINE
  5
873
330
1F
100
AcDbEntity
  8
1
  6
CONTINUOUS
370
50
 62
4
100
AcDbLine
 10
16.876205
 20
2.476702
 30
0.0
 11
16.495317
 21
2.639426
 31
0.0
  0
LINE
  5
874
330
1F
100
AcDbEntity
  8
1
  6
CONTINUOUS
370
50
 62
4
100
AcDbLine
 10
10.920284
 20
2.43966
 30
0.0
 11
10.451731
 21
2.639558
 31
0.0
  0
LINE
  5
875
330
1F
100
AcDbEntity
  8
1
  6
CONTINUOUS
370
50
 62
4
100
AcDbLine
 10
19.228815
 20
1.115232
 30
0.0
 11
19.197302
 21
1.128661
 31
0.0
  0
LINE
  5
876
330
1F
100
AcDbEntity
  8
1
  6
CONTINUOUS
370
50
 62
4
100
AcDbLine
 10
17.455217
 20
0.178494
 30
0.0
 11
17.003851
 21
0.369993
 31
0.0
  0
LINE
  5
877
330
1F
100
AcDbEntity
  8
1
  6
CONTINUOUS
370
50
 62
4
100
AcDbLine
 10
10.977584
 20
0.366077
 30
0.0
 11
10.525739
 21
0.556442
 31
0.0
  0
LINE
  5
878
330
1F
100
AcDbEntity
  8
1
  6
CONTINUOUS
370
50
 62
4
100
AcDbLine
 10
7.463679
 20
-0.681253
 30
0.0
 11
7.0
 21
-0.486357
 31
0.0
  0
LINE
  5
879
330
1F
100
AcDbEntity
  8
1
  6
CONTINUOUS
370
50
 62
4
100
AcDbLine
 10
6.989999999999999
 20
-2.756373
 30
0.0
 11
6.979038999999999
 21
-2.751777
 31
0.0
  0
LINE
  5
87A
330
1F
100
AcDbEntity
  8
1
  6
CONTINUOUS
370
50
 62
4
100
AcDbLine
 10
17.031357
 20
1.564209
 30
0.0
 11
16.655609
 21
1.721747
 31
0.0
  0
LINE
  5
87B
330
1F
100
AcDbEntity
  8
1
  6
CONTINUOUS
370
50
 62
4
100
AcDbLine
 10
7.473422999999999
 20
-0.686049
 30
0.0
 11
7.000000999999999
 21
-0.487663
 31
0.0
  0
LINE
  5
87C
330
1F
100
AcDbEntity
  8
1
  6
CONTINUOUS
370
50
 62
4
100
AcDbLine
 10
17.906628
 20
-0.009998
 30
0.0
 11
17.455217
 21
0.178494
 31
0.0
  0
LINE
  5
87D
330
1F
100
AcDbEntity
  8
1
  6
CONTINUOUS
370
50
 62
4
100
AcDbLine
 10
18.501682
 20
-2.551006
 30
0.0
 11
18.255762
 21
-2.448321
 31
0.0
  0
LINE
  5
87E
330
1F
100
AcDbEntity
  8
1
  6
CONTINUOUS
370
50
 62
4
100
AcDbLine
 10
11.429415
 20
0.177522
 30
0.0
 11
10.977584
 21
0.366077
 31
0.0
  0
LINE
  5
87F
330
1F
100
AcDbEntity
  8
1
  6
CONTINUOUS
370
50
 62
4
100
AcDbLine
 10
11.881463
 20
-0.009781
 30
0.0
 11
11.881451
 21
-0.009776
 31
0.0
  0
LINE
  5
880
330
1F
100
AcDbEntity
  8
1
  6
CONTINUOUS
370
50
 62
4
100
AcDbLine
 10
16.274887
 20
2.479465
 30
0.0
 11
15.94654
 21
2.616233
 31
0.0
  0
LINE
  5
881
330
1F
100
AcDbEntity
  8
1
  6
CONTINUOUS
370
50
 62
4
100
AcDbLine
 10
13.212465
 20
-0.560864
 30
0.0
 11
12.768712
 21
-0.376847
 31
0.0
  0
LINE
  5
882
330
1F
100
AcDbEntity
  8
1
  6
CONTINUOUS
370
50
 62
4
100
AcDbLine
 10
13.561321
 20
-0.703867
 30
0.0
 11
13.14247
 21
-0.5302709999999999
 31
0.0
  0
LINE
  5
883
330
1F
100
AcDbEntity
  8
1
  6
CONTINUOUS
370
50
 62
4
100
AcDbLine
 10
12.768712
 20
-0.376847
 30
0.0
 11
12.324964
 21
-0.192974
 31
0.0
  0
LINE
  5
884
330
1F
100
AcDbEntity
  8
1
  6
CONTINUOUS
370
50
 62
4
100
AcDbLine
 10
11.881324
 20
-0.009609
 30
0.0
 11
11.429415
 21
0.177522
 31
0.0
  0
LINE
  5
885
330
1F
100
AcDbEntity
  8
1
  6
CONTINUOUS
370
50
 62
4
100
AcDbLine
 10
11.034039
 20
1.548552
 30
0.0
 11
10.667296
 21
1.70034
 31
0.0
  0
LINE
  5
886
330
1F
100
AcDbEntity
  8
1
  6
CONTINUOUS
370
50
 62
4
100
AcDbLine
 10
13.14247
 20
-0.5302709999999999
 30
0.0
 11
12.724002
 21
-0.357096
 31
0.0
  0
LINE
  5
887
330
1F
100
AcDbEntity
  8
1
  6
CONTINUOUS
370
50
 62
4
100
AcDbLine
 10
10.525739
 20
0.556442
 30
0.0
 11
10.073727
 21
0.743483
 31
0.0
  0
LINE
  5
888
330
1F
100
AcDbEntity
  8
1
  6
CONTINUOUS
370
50
 62
4
100
AcDbLine
 10
18.200893
 20
-0.131209
 30
0.0
 11
17.90667
 21
-0.009559
 31
0.0
  0
LINE
  5
889
330
1F
100
AcDbEntity
  8
1
  6
CONTINUOUS
370
50
 62
4
100
AcDbLine
 10
18.195915
 20
-0.129605
 30
0.0
 11
17.906628
 21
-0.009998
 31
0.0
  0
LINE
  5
88A
330
1F
100
AcDbEntity
  8
1
  6
CONTINUOUS
370
50
 62
4
100
AcDbLine
 10
12.324964
 20
-0.192974
 30
0.0
 11
11.881324
 21
-0.009609
 31
0.0
  0
LINE
  5
88B
330
1F
100
AcDbEntity
  8
1
  6
CONTINUOUS
370
50
 62
4
100
AcDbLine
 10
12.724002
 20
-0.357096
 30
0.0
 11
12.303663
 21
-0.183792
 31
0.0
  0
LINE
  5
88C
330
1F
100
AcDbEntity
  8
1
  6
CONTINUOUS
370
50
 62
4
100
AcDbLine
 10
12.303663
 20
-0.183792
 30
0.0
 11
11.881312
 21
-0.009719
 31
0.0
  0
LINE
  5
88D
330
1F
100
AcDbEntity
  8
1
  6
CONTINUOUS
370
50
 62
4
100
AcDbLine
 10
6.991422
 20
-2.756854
 30
0.0
 11
6.989999999999999
 21
-2.756269
 31
0.0
  0
LINE
  5
88E
330
1F
100
AcDbEntity
  8
1
  6
CONTINUOUS
370
50
 62
4
100
AcDbLine
 10
18.485256
 20
-0.248624
 30
0.0
 11
18.195915
 21
-0.129605
 31
0.0
  0
LINE
  5
88F
330
1F
100
AcDbEntity
  8
1
  6
CONTINUOUS
370
50
 62
4
100
AcDbLine
 10
13.656096
 20
-0.7432519999999999
 30
0.0
 11
13.212465
 21
-0.560864
 31
0.0
  0
LINE
  5
890
330
1F
100
AcDbEntity
  8
1
  6
CONTINUOUS
370
50
 62
4
100
AcDbLine
 10
18.49288
 20
-0.251162
 30
0.0
 11
18.200893
 21
-0.131209
 31
0.0
  0
LINE
  5
891
330
1F
100
AcDbEntity
  8
1
  6
CONTINUOUS
370
50
 62
4
100
AcDbLine
 10
6.992846
 20
-2.757438
 30
0.0
 11
6.991422
 21
-2.756854
 31
0.0
  0
LINE
  5
892
330
1F
100
AcDbEntity
  8
1
  6
CONTINUOUS
370
50
 62
4
100
AcDbLine
 10
18.774643
 20
-0.367236
 30
0.0
 11
18.485256
 21
-0.248624
 31
0.0
  0
LINE
  5
893
330
1F
100
AcDbEntity
  8
1
  6
CONTINUOUS
370
50
 62
4
100
AcDbLine
 10
11.929454
 20
-2.58917
 30
0.0
 11
11.586021
 21
-2.448479
 31
0.0
  0
LINE
  5
894
330
1F
100
AcDbEntity
  8
1
  6
CONTINUOUS
370
50
 62
4
100
AcDbLine
 10
19.064058
 20
-0.485604
 30
0.0
 11
18.774643
 21
-0.367236
 31
0.0
  0
LINE
  5
895
330
1F
100
AcDbEntity
  8
1
  6
CONTINUOUS
370
50
 62
4
100
AcDbLine
 10
18.781687
 20
-0.369164
 30
0.0
 11
18.49288
 21
-0.251162
 31
0.0
  0
LINE
  5
896
330
1F
100
AcDbEntity
  8
1
  6
CONTINUOUS
370
50
 62
4
100
AcDbLine
 10
6.994273
 20
-2.758021
 30
0.0
 11
6.992846
 21
-2.757438
 31
0.0
  0
LINE
  5
897
330
1F
100
AcDbEntity
  8
1
  6
CONTINUOUS
370
50
 62
4
100
AcDbLine
 10
19.353477
 20
-0.603667
 30
0.0
 11
19.064058
 21
-0.485604
 31
0.0
  0
LINE
  5
898
330
1F
100
AcDbEntity
  8
1
  6
CONTINUOUS
370
50
 62
4
100
AcDbLine
 10
19.070143
 20
-0.486727
 30
0.0
 11
18.781687
 21
-0.369164
 31
0.0
  0
LINE
  5
899
330
1F
100
AcDbEntity
  8
1
  6
CONTINUOUS
370
50
 62
4
100
AcDbLine
 10
11.881428
 20
-0.009767
 30
0.0
 11
11.881401
 21
-0.009756
 31
0.0
  0
LINE
  5
89A
330
1F
100
AcDbEntity
  8
1
  6
CONTINUOUS
370
50
 62
4
100
AcDbLine
 10
6.995701
 20
-2.758602
 30
0.0
 11
6.994273
 21
-2.758021
 31
0.0
  0
LINE
  5
89B
330
1F
100
AcDbEntity
  8
1
  6
CONTINUOUS
370
50
 62
4
100
AcDbLine
 10
19.357979
 20
-0.6038049999999999
 30
0.0
 11
19.070143
 21
-0.486727
 31
0.0
  0
LINE
  5
89C
330
1F
100
AcDbEntity
  8
1
  6
CONTINUOUS
370
50
 62
4
100
AcDbLine
 10
19.644003
 20
-0.719893
 30
0.0
 11
19.357979
 21
-0.6038049999999999
 31
0.0
  0
LINE
  5
89D
330
1F
100
AcDbEntity
  8
1
  6
CONTINUOUS
370
50
 62
4
100
AcDbLine
 10
16.552389
 20
0.564118
 30
0.0
 11
16.10075
 21
0.747348
 31
0.0
  0
LINE
  5
89E
330
1F
100
AcDbEntity
  8
1
  6
CONTINUOUS
370
50
 62
4
100
AcDbLine
 10
19.64286
 20
-0.7210249999999999
 30
0.0
 11
19.353477
 21
-0.603667
 31
0.0
  0
LINE
  5
89F
330
1F
100
AcDbEntity
  8
1
  6
CONTINUOUS
370
50
 62
4
100
AcDbLine
 10
6.997132
 20
-2.759181
 30
0.0
 11
6.995701
 21
-2.758602
 31
0.0
  0
LINE
  5
8A0
330
1F
100
AcDbEntity
  8
1
  6
CONTINUOUS
370
50
 62
4
100
AcDbLine
 10
6.998564999999999
 20
-2.759759
 30
0.0
 11
6.997132
 21
-2.759181
 31
0.0
  0
LINE
  5
8A1
330
1F
100
AcDbEntity
  8
1
  6
CONTINUOUS
370
50
 62
4
100
AcDbLine
 10
10.162417
 20
2.512197
 30
0.0
 11
9.793711
 21
2.660855
 31
0.0
  0
LINE
  5
8A2
330
1F
100
AcDbEntity
  8
1
  6
CONTINUOUS
370
50
 62
4
100
AcDbLine
 10
7.0
 20
-2.760336
 30
0.0
 11
6.998564999999999
 21
-2.759759
 31
0.0
  0
LINE
  5
8A3
330
1F
100
AcDbEntity
  8
1
  6
CONTINUOUS
370
50
 62
4
100
AcDbLine
 10
11.881401
 20
-0.009756
 30
0.0
 11
11.881371
 21
-0.009744
 31
0.0
  0
LINE
  5
8A4
330
1F
100
AcDbEntity
  8
1
  6
CONTINUOUS
370
50
 62
4
100
AcDbLine
 10
18.941071
 20
-0.159665
 30
0.0
 11
18.825974
 21
-0.113702
 31
0.0
  0
LINE
  5
8A5
330
1F
100
AcDbEntity
  8
1
  6
CONTINUOUS
370
50
 62
4
100
AcDbLine
 10
16.678881
 20
2.567308
 30
0.0
 11
16.617695
 21
2.59163
 31
0.0
  0
LINE
  5
8A6
330
1F
100
AcDbEntity
  8
1
  6
CONTINUOUS
370
50
 62
4
100
AcDbLine
 10
16.617695
 20
2.59163
 30
0.0
 11
16.556507
 21
2.615853
 31
0.0
  0
LINE
  5
8A7
330
1F
100
AcDbEntity
  8
1
  6
CONTINUOUS
370
50
 62
4
100
AcDbLine
 10
16.740065
 20
2.543093
 30
0.0
 11
16.678881
 21
2.567308
 31
0.0
  0
LINE
  5
8A8
330
1F
100
AcDbEntity
  8
1
  6
CONTINUOUS
370
50
 62
4
100
AcDbLine
 10
19.056324
 20
-0.205187
 30
0.0
 11
18.941071
 21
-0.159665
 31
0.0
  0
LINE
  5
8A9
330
1F
100
AcDbEntity
  8
1
  6
CONTINUOUS
370
50
 62
4
100
AcDbLine
 10
16.801294
 20
2.518972
 30
0.0
 11
16.740065
 21
2.543093
 31
0.0
  0
LINE
  5
8AA
330
1F
100
AcDbEntity
  8
1
  6
CONTINUOUS
370
50
 62
4
100
AcDbLine
 10
11.881342
 20
-0.009731
 30
0.0
 11
11.881314
 21
-0.00972
 31
0.0
  0
LINE
  5
8AB
330
1F
100
AcDbEntity
  8
1
  6
CONTINUOUS
370
50
 62
4
100
AcDbLine
 10
16.556507
 20
2.615853
 30
0.0
 11
16.495319
 21
2.639848
 31
0.0
  0
LINE
  5
8AC
330
1F
100
AcDbEntity
  8
1
  6
CONTINUOUS
370
50
 62
4
100
AcDbLine
 10
16.862524
 20
2.494969
 30
0.0
 11
16.801294
 21
2.518972
 31
0.0
  0
LINE
  5
8AD
330
1F
100
AcDbEntity
  8
1
  6
CONTINUOUS
370
50
 62
4
100
AcDbLine
 10
10.505588
 20
2.618419
 30
0.0
 11
10.451732
 21
2.639522
 31
0.0
  0
LINE
  5
8AE
330
1F
100
AcDbEntity
  8
1
  6
CONTINUOUS
370
50
 62
4
100
AcDbLine
 10
11.881451
 20
-0.009776
 30
0.0
 11
11.881428
 21
-0.009767
 31
0.0
  0
LINE
  5
8AF
330
1F
100
AcDbEntity
  8
1
  6
CONTINUOUS
370
50
 62
4
100
AcDbLine
 10
19.171703
 20
-0.250268
 30
0.0
 11
19.056324
 21
-0.205187
 31
0.0
  0
LINE
  5
8B0
330
1F
100
AcDbEntity
  8
1
  6
CONTINUOUS
370
50
 62
4
100
AcDbLine
 10
10.559443
 20
2.597385
 30
0.0
 11
10.505588
 21
2.618419
 31
0.0
  0
LINE
  5
8B1
330
1F
100
AcDbEntity
  8
1
  6
CONTINUOUS
370
50
 62
4
100
AcDbLine
 10
16.9238
 20
2.471066
 30
0.0
 11
16.862524
 21
2.494969
 31
0.0
  0
LINE
  5
8B2
330
1F
100
AcDbEntity
  8
1
  6
CONTINUOUS
370
50
 62
4
100
AcDbLine
 10
10.613324
 20
2.576411
 30
0.0
 11
10.559443
 21
2.597385
 31
0.0
  0
LINE
  5
8B3
330
1F
100
AcDbEntity
  8
1
  6
CONTINUOUS
370
50
 62
4
100
AcDbLine
 10
16.985075
 20
2.447285
 30
0.0
 11
16.9238
 21
2.471066
 31
0.0
  0
LINE
  5
8B4
330
1F
100
AcDbEntity
  8
1
  6
CONTINUOUS
370
50
 62
4
100
AcDbLine
 10
10.667205
 20
2.555511
 30
0.0
 11
10.613324
 21
2.576411
 31
0.0
  0
LINE
  5
8B5
330
1F
100
AcDbEntity
  8
1
  6
CONTINUOUS
370
50
 62
4
100
AcDbLine
 10
19.287182
 20
-0.294909
 30
0.0
 11
19.171703
 21
-0.250268
 31
0.0
  0
LINE
  5
8B6
330
1F
100
AcDbEntity
  8
1
  6
CONTINUOUS
370
50
 62
4
100
AcDbLine
 10
10.721118
 20
2.534673
 30
0.0
 11
10.667205
 21
2.555511
 31
0.0
  0
LINE
  5
8B7
330
1F
100
AcDbEntity
  8
1
  6
CONTINUOUS
370
50
 62
4
100
AcDbLine
 10
14.021096
 20
-0.8815419999999999
 30
0.0
 11
13.561321
 21
-0.703867
 31
0.0
  0
LINE
  5
8B8
330
1F
100
AcDbEntity
  8
1
  6
CONTINUOUS
370
50
 62
4
100
AcDbLine
 10
17.049429
 20
2.422442
 30
0.0
 11
16.985075
 21
2.447285
 31
0.0
  0
LINE
  5
8B9
330
1F
100
AcDbEntity
  8
1
  6
CONTINUOUS
370
50
 62
4
100
AcDbLine
 10
7.931208
 20
-0.861301
 30
0.0
 11
7.463679
 21
-0.681253
 31
0.0
  0
LINE
  5
8BA
330
1F
100
AcDbEntity
  8
1
  6
CONTINUOUS
370
50
 62
4
100
AcDbLine
 10
10.775031
 20
2.513912
 30
0.0
 11
10.721118
 21
2.534673
 31
0.0
  0
LINE
  5
8BB
330
1F
100
AcDbEntity
  8
1
  6
CONTINUOUS
370
50
 62
4
100
AcDbLine
 10
5.262324
 20
2.937376
 30
0.0
 11
5.195866
 21
2.962962
 31
0.0
  0
LINE
  5
8BC
330
1F
100
AcDbEntity
  8
1
  6
CONTINUOUS
370
50
 62
4
100
AcDbLine
 10
17.113781
 20
2.397737
 30
0.0
 11
17.049429
 21
2.422442
 31
0.0
  0
LINE
  5
8BD
330
1F
100
AcDbEntity
  8
1
  6
CONTINUOUS
370
50
 62
4
100
AcDbLine
 10
10.828973
 20
2.493217
 30
0.0
 11
10.775031
 21
2.513912
 31
0.0
  0
LINE
  5
8BE
330
1F
100
AcDbEntity
  8
1
  6
CONTINUOUS
370
50
 62
4
100
AcDbLine
 10
7.946681
 20
-0.867456
 30
0.0
 11
7.473422999999999
 21
-0.686049
 31
0.0
  0
LINE
  5
8BF
330
1F
100
AcDbEntity
  8
1
  6
CONTINUOUS
370
50
 62
4
100
AcDbLine
 10
19.260651
 20
1.10305
 30
0.0
 11
19.228815
 21
1.115232
 31
0.0
  0
LINE
  5
8C0
330
1F
100
AcDbEntity
  8
1
  6
CONTINUOUS
370
50
 62
4
100
AcDbLine
 10
19.402725
 20
-0.33911
 30
0.0
 11
19.287182
 21
-0.294909
 31
0.0
  0
LINE
  5
8C1
330
1F
100
AcDbEntity
  8
1
  6
CONTINUOUS
370
50
 62
4
100
AcDbLine
 10
10.667296
 20
1.70034
 30
0.0
 11
10.300563
 21
1.840627
 31
0.0
  0
LINE
  5
8C2
330
1F
100
AcDbEntity
  8
1
  6
CONTINUOUS
370
50
 62
4
100
AcDbLine
 10
10.882915
 20
2.472602
 30
0.0
 11
10.828973
 21
2.493217
 31
0.0
  0
LINE
  5
8C3
330
1F
100
AcDbEntity
  8
1
  6
CONTINUOUS
370
50
 62
4
100
AcDbLine
 10
17.166994
 20
2.377411
 30
0.0
 11
17.113781
 21
2.397737
 31
0.0
  0
LINE
  5
8C4
330
1F
100
AcDbEntity
  8
1
  6
CONTINUOUS
370
50
 62
4
100
AcDbLine
 10
10.932363
 20
2.453773
 30
0.0
 11
10.882915
 21
2.472602
 31
0.0
  0
LINE
  5
8C5
330
1F
100
AcDbEntity
  8
1
  6
CONTINUOUS
370
50
 62
4
100
AcDbLine
 10
18.746788
 20
-2.644232
 30
0.0
 11
18.501682
 21
-2.551006
 31
0.0
  0
LINE
  5
8C6
330
1F
100
AcDbEntity
  8
1
  6
CONTINUOUS
370
50
 62
4
100
AcDbLine
 10
17.220207
 20
2.357181
 30
0.0
 11
17.166994
 21
2.377411
 31
0.0
  0
LINE
  5
8C7
330
1F
100
AcDbEntity
  8
1
  6
CONTINUOUS
370
50
 62
4
100
AcDbLine
 10
19.460213
 20
2.853361
 30
0.0
 11
19.415346
 21
2.870407
 31
0.0
  0
LINE
  5
8C8
330
1F
100
AcDbEntity
  8
1
  6
CONTINUOUS
370
50
 62
4
100
AcDbLine
 10
12.816749
 20
-2.679504
 30
0.0
 11
12.440219
 21
-2.536469
 31
0.0
  0
LINE
  5
8C9
330
1F
100
AcDbEntity
  8
1
  6
CONTINUOUS
370
50
 62
4
100
AcDbLine
 10
10.98181
 20
2.435012
 30
0.0
 11
10.932363
 21
2.453773
 31
0.0
  0
LINE
  5
8CA
330
1F
100
AcDbEntity
  8
1
  6
CONTINUOUS
370
50
 62
4
100
AcDbLine
 10
19.518373
 20
-0.382897
 30
0.0
 11
19.402725
 21
-0.33911
 31
0.0
  0
LINE
  5
8CB
330
1F
100
AcDbEntity
  8
1
  6
CONTINUOUS
370
50
 62
4
100
AcDbLine
 10
17.273447
 20
2.337035
 30
0.0
 11
17.220207
 21
2.357181
 31
0.0
  0
LINE
  5
8CC
330
1F
100
AcDbEntity
  8
1
  6
CONTINUOUS
370
50
 62
4
100
AcDbLine
 10
11.031256
 20
2.416319
 30
0.0
 11
10.98181
 21
2.435012
 31
0.0
  0
LINE
  5
8CD
330
1F
100
AcDbEntity
  8
1
  6
CONTINUOUS
370
50
 62
4
100
AcDbLine
 10
14.099572
 20
-0.910878
 30
0.0
 11
13.656096
 21
-0.7432519999999999
 31
0.0
  0
LINE
  5
8CE
330
1F
100
AcDbEntity
  8
1
  6
CONTINUOUS
370
50
 62
4
100
AcDbLine
 10
18.124949
 20
-2.652066
 30
0.0
 11
17.836582
 21
-2.543188
 31
0.0
  0
LINE
  5
8CF
330
1F
100
AcDbEntity
  8
1
  6
CONTINUOUS
370
50
 62
4
100
AcDbLine
 10
11.080702
 20
2.397692
 30
0.0
 11
11.031256
 21
2.416319
 31
0.0
  0
LINE
  5
8D0
330
1F
100
AcDbEntity
  8
1
  6
CONTINUOUS
370
50
 62
4
100
AcDbLine
 10
17.326685
 20
2.316984
 30
0.0
 11
17.273447
 21
2.337035
 31
0.0
  0
LINE
  5
8D1
330
1F
100
AcDbEntity
  8
1
  6
CONTINUOUS
370
50
 62
4
100
AcDbLine
 10
17.379955
 20
2.297014
 30
0.0
 11
17.326685
 21
2.316984
 31
0.0
  0
LINE
  5
8D2
330
1F
100
AcDbEntity
  8
1
  6
CONTINUOUS
370
50
 62
4
100
AcDbLine
 10
11.169898
 20
2.364261
 30
0.0
 11
11.080702
 21
2.397692
 31
0.0
  0
LINE
  5
8D3
330
1F
100
AcDbEntity
  8
1
  6
CONTINUOUS
370
50
 62
4
100
AcDbLine
 10
19.634924
 20
-0.426577
 30
0.0
 11
19.518373
 21
-0.382897
 31
0.0
  0
LINE
  5
8D4
330
1F
100
AcDbEntity
  8
1
  6
CONTINUOUS
370
50
 62
4
100
AcDbLine
 10
16.655609
 20
1.721747
 30
0.0
 11
16.279877
 21
1.862343
 31
0.0
  0
LINE
  5
8D5
330
1F
100
AcDbEntity
  8
1
  6
CONTINUOUS
370
50
 62
4
100
AcDbLine
 10
10.073727
 20
0.743483
 30
0.0
 11
9.62159
 21
0.912607
 31
0.0
  0
LINE
  5
8D6
330
1F
100
AcDbEntity
  8
1
  6
CONTINUOUS
370
50
 62
4
100
AcDbLine
 10
17.433226
 20
2.277138
 30
0.0
 11
17.379955
 21
2.297014
 31
0.0
  0
LINE
  5
8D7
330
1F
100
AcDbEntity
  8
1
  6
CONTINUOUS
370
50
 62
4
100
AcDbLine
 10
11.259093
 20
2.331045
 30
0.0
 11
11.169898
 21
2.364261
 31
0.0
  0
LINE
  5
8D8
330
1F
100
AcDbEntity
  8
1
  6
CONTINUOUS
370
50
 62
4
100
AcDbLine
 10
5.018791999999999
 20
-2.999937
 30
0.0
 11
5.018757
 21
-2.999924
 31
0.0
  0
LINE
  5
8D9
330
1F
100
AcDbEntity
  8
1
  6
CONTINUOUS
370
50
 62
4
100
AcDbLine
 10
17.486496
 20
2.257354
 30
0.0
 11
17.433226
 21
2.277138
 31
0.0
  0
LINE
  5
8DA
330
1F
100
AcDbEntity
  8
1
  6
CONTINUOUS
370
50
 62
4
100
AcDbLine
 10
11.34835
 20
2.298018
 30
0.0
 11
11.259093
 21
2.331045
 31
0.0
  0
LINE
  5
8DB
330
1F
100
AcDbEntity
  8
1
  6
CONTINUOUS
370
50
 62
4
100
AcDbLine
 10
17.539764
 20
2.237662
 30
0.0
 11
17.486496
 21
2.257354
 31
0.0
  0
LINE
  5
8DC
330
1F
100
AcDbEntity
  8
1
  6
CONTINUOUS
370
50
 62
4
100
AcDbLine
 10
17.595198
 20
2.217266
 30
0.0
 11
17.539764
 21
2.237662
 31
0.0
  0
LINE
  5
8DD
330
1F
100
AcDbEntity
  8
1
  6
CONTINUOUS
370
50
 62
4
100
AcDbLine
 10
11.437605
 20
2.265198
 30
0.0
 11
11.34835
 21
2.298018
 31
0.0
  0
LINE
  5
8DE
330
1F
100
AcDbEntity
  8
1
  6
CONTINUOUS
370
50
 62
4
100
AcDbLine
 10
16.10075
 20
0.747348
 30
0.0
 11
15.649068
 21
0.913115
 31
0.0
  0
LINE
  5
8DF
330
1F
100
AcDbEntity
  8
1
  6
CONTINUOUS
370
50
 62
4
100
AcDbLine
 10
17.650629
 20
2.196966
 30
0.0
 11
17.595198
 21
2.217266
 31
0.0
  0
LINE
  5
8E0
330
1F
100
AcDbEntity
  8
1
  6
CONTINUOUS
370
50
 62
4
100
AcDbLine
 10
11.512077
 20
2.237968
 30
0.0
 11
11.437605
 21
2.265198
 31
0.0
  0
LINE
  5
8E1
330
1F
100
AcDbEntity
  8
1
  6
CONTINUOUS
370
50
 62
4
100
AcDbLine
 10
10.451731
 20
2.639558
 30
0.0
 11
10.182974
 21
2.737667
 31
0.0
  0
LINE
  5
8E2
330
1F
100
AcDbEntity
  8
1
  6
CONTINUOUS
370
50
 62
4
100
AcDbLine
 10
17.706062
 20
2.176761
 30
0.0
 11
17.650629
 21
2.196966
 31
0.0
  0
LINE
  5
8E3
330
1F
100
AcDbEntity
  8
1
  6
CONTINUOUS
370
50
 62
4
100
AcDbLine
 10
11.58655
 20
2.210874
 30
0.0
 11
11.512077
 21
2.237968
 31
0.0
  0
LINE
  5
8E4
330
1F
100
AcDbEntity
  8
1
  6
CONTINUOUS
370
50
 62
4
100
AcDbLine
 10
17.761496
 20
2.156649
 30
0.0
 11
17.706062
 21
2.176761
 31
0.0
  0
LINE
  5
8E5
330
1F
100
AcDbEntity
  8
1
  6
CONTINUOUS
370
50
 62
4
100
AcDbLine
 10
11.661053
 20
2.183901
 30
0.0
 11
11.58655
 21
2.210874
 31
0.0
  0
LINE
  5
8E6
330
1F
100
AcDbEntity
  8
1
  6
CONTINUOUS
370
50
 62
4
100
AcDbLine
 10
17.84473
 20
2.12662
 30
0.0
 11
17.761496
 21
2.156649
 31
0.0
  0
LINE
  5
8E7
330
1F
100
AcDbEntity
  8
1
  6
CONTINUOUS
370
50
 62
4
100
AcDbLine
 10
11.735557
 20
2.157055
 30
0.0
 11
11.661053
 21
2.183901
 31
0.0
  0
LINE
  5
8E8
330
1F
100
AcDbEntity
  8
1
  6
CONTINUOUS
370
50
 62
4
100
AcDbLine
 10
16.495317
 20
2.639426
 30
0.0
 11
16.230133
 21
2.734915
 31
0.0
  0
LINE
  5
8E9
330
1F
100
AcDbEntity
  8
1
  6
CONTINUOUS
370
50
 62
4
100
AcDbLine
 10
11.799744
 20
2.134025
 30
0.0
 11
11.735557
 21
2.157055
 31
0.0
  0
LINE
  5
8EA
330
1F
100
AcDbEntity
  8
1
  6
CONTINUOUS
370
50
 62
4
100
AcDbLine
 10
17.927967
 20
2.09679
 30
0.0
 11
17.84473
 21
2.12662
 31
0.0
  0
LINE
  5
8EB
330
1F
100
AcDbEntity
  8
1
  6
CONTINUOUS
370
50
 62
4
100
AcDbLine
 10
11.863933
 20
2.111082
 30
0.0
 11
11.799744
 21
2.134025
 31
0.0
  0
LINE
  5
8EC
330
1F
100
AcDbEntity
  8
1
  6
CONTINUOUS
370
50
 62
4
100
AcDbLine
 10
11.928123
 20
2.088223
 30
0.0
 11
11.863933
 21
2.111082
 31
0.0
  0
LINE
  5
8ED
330
1F
100
AcDbEntity
  8
1
  6
CONTINUOUS
370
50
 62
4
100
AcDbLine
 10
18.011206
 20
2.067151
 30
0.0
 11
17.927967
 21
2.09679
 31
0.0
  0
LINE
  5
8EE
330
1F
100
AcDbEntity
  8
1
  6
CONTINUOUS
370
50
 62
4
100
AcDbLine
 10
11.992314
 20
2.065446
 30
0.0
 11
11.928123
 21
2.088223
 31
0.0
  0
LINE
  5
8EF
330
1F
100
AcDbEntity
  8
1
  6
CONTINUOUS
370
50
 62
4
100
AcDbLine
 10
18.094448
 20
2.037696
 30
0.0
 11
18.011206
 21
2.067151
 31
0.0
  0
LINE
  5
8F0
330
1F
100
AcDbEntity
  8
1
  6
CONTINUOUS
370
50
 62
4
100
AcDbLine
 10
12.042933
 20
2.04754
 30
0.0
 11
11.992314
 21
2.065446
 31
0.0
  0
LINE
  5
8F1
330
1F
100
AcDbEntity
  8
1
  6
CONTINUOUS
370
50
 62
4
100
AcDbLine
 10
12.273121
 20
-2.710558
 30
0.0
 11
11.929454
 21
-2.58917
 31
0.0
  0
LINE
  5
8F2
330
1F
100
AcDbEntity
  8
1
  6
CONTINUOUS
370
50
 62
4
100
AcDbLine
 10
12.093553
 20
2.029681
 30
0.0
 11
12.042933
 21
2.04754
 31
0.0
  0
LINE
  5
8F3
330
1F
100
AcDbEntity
  8
1
  6
CONTINUOUS
370
50
 62
4
100
AcDbLine
 10
12.144173
 20
2.011868
 30
0.0
 11
12.093553
 21
2.029681
 31
0.0
  0
LINE
  5
8F4
330
1F
100
AcDbEntity
  8
1
  6
CONTINUOUS
370
50
 62
4
100
AcDbLine
 10
18.17663
 20
2.008791
 30
0.0
 11
18.094448
 21
2.037696
 31
0.0
  0
LINE
  5
8F5
330
1F
100
AcDbEntity
  8
1
  6
CONTINUOUS
370
50
 62
4
100
AcDbLine
 10
12.194795
 20
1.994099
 30
0.0
 11
12.144173
 21
2.011868
 31
0.0
  0
LINE
  5
8F6
330
1F
100
AcDbEntity
  8
1
  6
CONTINUOUS
370
50
 62
4
100
AcDbLine
 10
12.245404
 20
1.976377
 30
0.0
 11
12.194795
 21
1.994099
 31
0.0
  0
LINE
  5
8F7
330
1F
100
AcDbEntity
  8
1
  6
CONTINUOUS
370
50
 62
4
100
AcDbLine
 10
18.258816
 20
1.980052
 30
0.0
 11
18.17663
 21
2.008791
 31
0.0
  0
LINE
  5
8F8
330
1F
100
AcDbEntity
  8
1
  6
CONTINUOUS
370
50
 62
4
100
AcDbLine
 10
12.296016
 20
1.958696
 30
0.0
 11
12.245404
 21
1.976377
 31
0.0
  0
LINE
  5
8F9
330
1F
100
AcDbEntity
  8
1
  6
CONTINUOUS
370
50
 62
4
100
AcDbLine
 10
15.94654
 20
2.616233
 30
0.0
 11
15.615395
 21
2.731757
 31
0.0
  0
LINE
  5
8FA
330
1F
100
AcDbEntity
  8
1
  6
CONTINUOUS
370
50
 62
4
100
AcDbLine
 10
12.346628
 20
1.941056
 30
0.0
 11
12.296016
 21
1.958696
 31
0.0
  0
LINE
  5
8FB
330
1F
100
AcDbEntity
  8
1
  6
CONTINUOUS
370
50
 62
4
100
AcDbLine
 10
12.397243
 20
1.923454
 30
0.0
 11
12.346628
 21
1.941056
 31
0.0
  0
LINE
  5
8FC
330
1F
100
AcDbEntity
  8
1
  6
CONTINUOUS
370
50
 62
4
100
AcDbLine
 10
18.341005
 20
1.951472
 30
0.0
 11
18.258816
 21
1.980052
 31
0.0
  0
LINE
  5
8FD
330
1F
100
AcDbEntity
  8
1
  6
CONTINUOUS
370
50
 62
4
100
AcDbLine
 10
12.472196
 20
1.897458
 30
0.0
 11
12.397243
 21
1.923454
 31
0.0
  0
LINE
  5
8FE
330
1F
100
AcDbEntity
  8
1
  6
CONTINUOUS
370
50
 62
4
100
AcDbLine
 10
7.069345999999999
 20
1.679946
 30
0.0
 11
6.999968
 21
1.703954
 31
0.0
  0
LINE
  5
8FF
330
1F
100
AcDbEntity
  8
1
  6
CONTINUOUS
370
50
 62
4
100
AcDbLine
 10
18.423197
 20
1.923044
 30
0.0
 11
18.341005
 21
1.951472
 31
0.0
  0
LINE
  5
900
330
1F
100
AcDbEntity
  8
1
  6
CONTINUOUS
370
50
 62
4
100
AcDbLine
 10
12.547152
 20
1.871541
 30
0.0
 11
12.472196
 21
1.897458
 31
0.0
  0
LINE
  5
901
330
1F
100
AcDbEntity
  8
1
  6
CONTINUOUS
370
50
 62
4
100
AcDbLine
 10
7.138720999999999
 20
1.655994
 30
0.0
 11
7.069345999999999
 21
1.679946
 31
0.0
  0
LINE
  5
902
330
1F
100
AcDbEntity
  8
1
  6
CONTINUOUS
370
50
 62
4
100
AcDbLine
 10
12.609268
 20
1.850124
 30
0.0
 11
12.547152
 21
1.871541
 31
0.0
  0
LINE
  5
903
330
1F
100
AcDbEntity
  8
1
  6
CONTINUOUS
370
50
 62
4
100
AcDbLine
 10
8.401893
 20
-1.023511
 30
0.0
 11
7.931208
 21
-0.861301
 31
0.0
  0
LINE
  5
904
330
1F
100
AcDbEntity
  8
1
  6
CONTINUOUS
370
50
 62
4
100
AcDbLine
 10
7.208032999999999
 20
1.632124
 30
0.0
 11
7.138720999999999
 21
1.655994
 31
0.0
  0
LINE
  5
905
330
1F
100
AcDbEntity
  8
1
  6
CONTINUOUS
370
50
 62
4
100
AcDbLine
 10
18.47971
 20
1.903585
 30
0.0
 11
18.423197
 21
1.923044
 31
0.0
  0
LINE
  5
906
330
1F
100
AcDbEntity
  8
1
  6
CONTINUOUS
370
50
 62
4
100
AcDbLine
 10
14.486058
 20
-1.041551
 30
0.0
 11
14.021096
 21
-0.8815419999999999
 31
0.0
  0
LINE
  5
907
330
1F
100
AcDbEntity
  8
1
  6
CONTINUOUS
370
50
 62
4
100
AcDbLine
 10
8.419943
 20
-1.030312
 30
0.0
 11
7.946681
 21
-0.867456
 31
0.0
  0
LINE
  5
908
330
1F
100
AcDbEntity
  8
1
  6
CONTINUOUS
370
50
 62
4
100
AcDbLine
 10
12.671387
 20
1.828758
 30
0.0
 11
12.609268
 21
1.850124
 31
0.0
  0
LINE
  5
909
330
1F
100
AcDbEntity
  8
1
  6
CONTINUOUS
370
50
 62
4
100
AcDbLine
 10
18.536222
 20
1.884192
 30
0.0
 11
18.47971
 21
1.903585
 31
0.0
  0
LINE
  5
90A
330
1F
100
AcDbEntity
  8
1
  6
CONTINUOUS
370
50
 62
4
100
AcDbLine
 10
12.733479
 20
1.807453
 30
0.0
 11
12.671387
 21
1.828758
 31
0.0
  0
LINE
  5
90B
330
1F
100
AcDbEntity
  8
1
  6
CONTINUOUS
370
50
 62
4
100
AcDbLine
 10
7.277339
 20
1.608355
 30
0.0
 11
7.208032999999999
 21
1.632124
 31
0.0
  0
LINE
  5
90C
330
1F
100
AcDbEntity
  8
1
  6
CONTINUOUS
370
50
 62
4
100
AcDbLine
 10
18.99
 20
-2.7276
 30
0.0
 11
18.746788
 21
-2.644232
 31
0.0
  0
LINE
  5
90D
330
1F
100
AcDbEntity
  8
1
  6
CONTINUOUS
370
50
 62
4
100
AcDbLine
 10
12.795571
 20
1.7862
 30
0.0
 11
12.733479
 21
1.807453
 31
0.0
  0
LINE
  5
90E
330
1F
100
AcDbEntity
  8
1
  6
CONTINUOUS
370
50
 62
4
100
AcDbLine
 10
18.592739
 20
1.864866
 30
0.0
 11
18.536222
 21
1.884192
 31
0.0
  0
LINE
  5
90F
330
1F
100
AcDbEntity
  8
1
  6
CONTINUOUS
370
50
 62
4
100
AcDbLine
 10
12.857633
 20
1.765008
 30
0.0
 11
12.795571
 21
1.7862
 31
0.0
  0
LINE
  5
910
330
1F
100
AcDbEntity
  8
1
  6
CONTINUOUS
370
50
 62
4
100
AcDbLine
 10
18.649256
 20
1.845604
 30
0.0
 11
18.592739
 21
1.864866
 31
0.0
  0
LINE
  5
911
330
1F
100
AcDbEntity
  8
1
  6
CONTINUOUS
370
50
 62
4
100
AcDbLine
 10
12.919695
 20
1.743868
 30
0.0
 11
12.857633
 21
1.765008
 31
0.0
  0
LINE
  5
912
330
1F
100
AcDbEntity
  8
1
  6
CONTINUOUS
370
50
 62
4
100
AcDbLine
 10
12.981721
 20
1.722792
 30
0.0
 11
12.919695
 21
1.743868
 31
0.0
  0
LINE
  5
913
330
1F
100
AcDbEntity
  8
1
  6
CONTINUOUS
370
50
 62
4
100
AcDbLine
 10
18.702702
 20
1.827446
 30
0.0
 11
18.649256
 21
1.845604
 31
0.0
  0
LINE
  5
914
330
1F
100
AcDbEntity
  8
1
  6
CONTINUOUS
370
50
 62
4
100
AcDbLine
 10
14.543015
 20
-1.061245
 30
0.0
 11
14.099572
 21
-0.910878
 31
0.0
  0
LINE
  5
915
330
1F
100
AcDbEntity
  8
1
  6
CONTINUOUS
370
50
 62
4
100
AcDbLine
 10
13.043746
 20
1.70177
 30
0.0
 11
12.981721
 21
1.722792
 31
0.0
  0
LINE
  5
916
330
1F
100
AcDbEntity
  8
1
  6
CONTINUOUS
370
50
 62
4
100
AcDbLine
 10
18.756149
 20
1.809344
 30
0.0
 11
18.702702
 21
1.827446
 31
0.0
  0
LINE
  5
917
330
1F
100
AcDbEntity
  8
1
  6
CONTINUOUS
370
50
 62
4
100
AcDbLine
 10
13.102091
 20
1.682046
 30
0.0
 11
13.043746
 21
1.70177
 31
0.0
  0
LINE
  5
918
330
1F
100
AcDbEntity
  8
1
  6
CONTINUOUS
370
50
 62
4
100
AcDbLine
 10
19.292782
 20
1.092198
 30
0.0
 11
19.260651
 21
1.10305
 31
0.0
  0
LINE
  5
919
330
1F
100
AcDbEntity
  8
1
  6
CONTINUOUS
370
50
 62
4
100
AcDbLine
 10
18.809597
 20
1.791296
 30
0.0
 11
18.756149
 21
1.809344
 31
0.0
  0
LINE
  5
91A
330
1F
100
AcDbEntity
  8
1
  6
CONTINUOUS
370
50
 62
4
100
AcDbLine
 10
7.346662999999999
 20
1.584983
 30
0.0
 11
7.277339
 21
1.608355
 31
0.0
  0
LINE
  5
91B
330
1F
100
AcDbEntity
  8
1
  6
CONTINUOUS
370
50
 62
4
100
AcDbLine
 10
13.171519
 20
1.658642
 30
0.0
 11
13.102091
 21
1.682046
 31
0.0
  0
LINE
  5
91C
330
1F
100
AcDbEntity
  8
1
  6
CONTINUOUS
370
50
 62
4
100
AcDbLine
 10
18.863047
 20
1.773302
 30
0.0
 11
18.809597
 21
1.791296
 31
0.0
  0
LINE
  5
91D
330
1F
100
AcDbEntity
  8
1
  6
CONTINUOUS
370
50
 62
4
100
AcDbLine
 10
13.240944
 20
1.635314
 30
0.0
 11
13.171519
 21
1.658642
 31
0.0
  0
LINE
  5
91E
330
1F
100
AcDbEntity
  8
1
  6
CONTINUOUS
370
50
 62
4
100
AcDbLine
 10
18.91646
 20
1.755373
 30
0.0
 11
18.863047
 21
1.773302
 31
0.0
  0
LINE
  5
91F
330
1F
100
AcDbEntity
  8
1
  6
CONTINUOUS
370
50
 62
4
100
AcDbLine
 10
13.31032
 20
1.612084
 30
0.0
 11
13.240944
 21
1.635314
 31
0.0
  0
LINE
  5
920
330
1F
100
AcDbEntity
  8
1
  6
CONTINUOUS
370
50
 62
4
100
AcDbLine
 10
18.969873
 20
1.737497
 30
0.0
 11
18.91646
 21
1.755373
 31
0.0
  0
LINE
  5
921
330
1F
100
AcDbEntity
  8
1
  6
CONTINUOUS
370
50
 62
4
100
AcDbLine
 10
9.62159
 20
0.912607
 30
0.0
 11
9.169475
 21
1.063834
 31
0.0
  0
LINE
  5
922
330
1F
100
AcDbEntity
  8
1
  6
CONTINUOUS
370
50
 62
4
100
AcDbLine
 10
19.023287
 20
1.719673
 30
0.0
 11
18.969873
 21
1.737497
 31
0.0
  0
LINE
  5
923
330
1F
100
AcDbEntity
  8
1
  6
CONTINUOUS
370
50
 62
4
100
AcDbLine
 10
13.379691
 20
1.588941
 30
0.0
 11
13.31032
 21
1.612084
 31
0.0
  0
LINE
  5
924
330
1F
100
AcDbEntity
  8
1
  6
CONTINUOUS
370
50
 62
4
100
AcDbLine
 10
19.076702
 20
1.701902
 30
0.0
 11
19.023287
 21
1.719673
 31
0.0
  0
LINE
  5
925
330
1F
100
AcDbEntity
  8
1
  6
CONTINUOUS
370
50
 62
4
100
AcDbLine
 10
13.449005
 20
1.565911
 30
0.0
 11
13.379691
 21
1.588941
 31
0.0
  0
LINE
  5
926
330
1F
100
AcDbEntity
  8
1
  6
CONTINUOUS
370
50
 62
4
100
AcDbLine
 10
19.14045
 20
1.680763
 30
0.0
 11
19.076702
 21
1.701902
 31
0.0
  0
LINE
  5
927
330
1F
100
AcDbEntity
  8
1
  6
CONTINUOUS
370
50
 62
4
100
AcDbLine
 10
15.649068
 20
0.913115
 30
0.0
 11
15.197453
 21
1.062625
 31
0.0
  0
LINE
  5
928
330
1F
100
AcDbEntity
  8
1
  6
CONTINUOUS
370
50
 62
4
100
AcDbLine
 10
13.518313
 20
1.542995
 30
0.0
 11
13.449005
 21
1.565911
 31
0.0
  0
LINE
  5
929
330
1F
100
AcDbEntity
  8
1
  6
CONTINUOUS
370
50
 62
4
100
AcDbLine
 10
19.204197
 20
1.6597
 30
0.0
 11
19.14045
 21
1.680763
 31
0.0
  0
LINE
  5
92A
330
1F
100
AcDbEntity
  8
1
  6
CONTINUOUS
370
50
 62
4
100
AcDbLine
 10
7.415980999999999
 20
1.562088
 30
0.0
 11
7.346662999999999
 21
1.584983
 31
0.0
  0
LINE
  5
92B
330
1F
100
AcDbEntity
  8
1
  6
CONTINUOUS
370
50
 62
4
100
AcDbLine
 10
19.257257
 20
1.642227
 30
0.0
 11
19.204197
 21
1.6597
 31
0.0
  0
LINE
  5
92C
330
1F
100
AcDbEntity
  8
1
  6
CONTINUOUS
370
50
 62
4
100
AcDbLine
 10
10.300563
 20
1.840627
 30
0.0
 11
9.933842
 21
1.961105
 31
0.0
  0
LINE
  5
92D
330
1F
100
AcDbEntity
  8
1
  6
CONTINUOUS
370
50
 62
4
100
AcDbLine
 10
18.414059
 20
-2.747034
 30
0.0
 11
18.124949
 21
-2.652066
 31
0.0
  0
LINE
  5
92E
330
1F
100
AcDbEntity
  8
1
  6
CONTINUOUS
370
50
 62
4
100
AcDbLine
 10
19.310318
 20
1.624809
 30
0.0
 11
19.257257
 21
1.642227
 31
0.0
  0
LINE
  5
92F
330
1F
100
AcDbEntity
  8
1
  6
CONTINUOUS
370
50
 62
4
100
AcDbLine
 10
19.363346
 20
1.607458
 30
0.0
 11
19.310318
 21
1.624809
 31
0.0
  0
LINE
  5
930
330
1F
100
AcDbEntity
  8
1
  6
CONTINUOUS
370
50
 62
4
100
AcDbLine
 10
19.416374
 20
1.590166
 30
0.0
 11
19.363346
 21
1.607458
 31
0.0
  0
LINE
  5
931
330
1F
100
AcDbEntity
  8
1
  6
CONTINUOUS
370
50
 62
4
100
AcDbLine
 10
13.587588
 20
1.52048
 30
0.0
 11
13.518313
 21
1.542995
 31
0.0
  0
LINE
  5
932
330
1F
100
AcDbEntity
  8
1
  6
CONTINUOUS
370
50
 62
4
100
AcDbLine
 10
19.469368
 20
1.572944
 30
0.0
 11
19.416374
 21
1.590166
 31
0.0
  0
LINE
  5
933
330
1F
100
AcDbEntity
  8
1
  6
CONTINUOUS
370
50
 62
4
100
AcDbLine
 10
9.793711
 20
2.660855
 30
0.0
 11
9.420076
 21
2.782131
 31
0.0
  0
LINE
  5
934
330
1F
100
AcDbEntity
  8
1
  6
CONTINUOUS
370
50
 62
4
100
AcDbLine
 10
19.52236
 20
1.555786
 30
0.0
 11
19.469368
 21
1.572944
 31
0.0
  0
LINE
  5
935
330
1F
100
AcDbEntity
  8
1
  6
CONTINUOUS
370
50
 62
4
100
AcDbLine
 10
7.485355999999999
 20
1.539648
 30
0.0
 11
7.415980999999999
 21
1.562088
 31
0.0
  0
LINE
  5
936
330
1F
100
AcDbEntity
  8
1
  6
CONTINUOUS
370
50
 62
4
100
AcDbLine
 10
19.575317
 20
1.538703
 30
0.0
 11
19.52236
 21
1.555786
 31
0.0
  0
LINE
  5
937
330
1F
100
AcDbEntity
  8
1
  6
CONTINUOUS
370
50
 62
4
100
AcDbLine
 10
19.628271
 20
1.521689
 30
0.0
 11
19.575317
 21
1.538703
 31
0.0
  0
LINE
  5
938
330
1F
100
AcDbEntity
  8
1
  6
CONTINUOUS
370
50
 62
4
100
AcDbLine
 10
13.189685
 20
-2.799281
 30
0.0
 11
12.816749
 21
-2.679504
 31
0.0
  0
LINE
  5
939
330
1F
100
AcDbEntity
  8
1
  6
CONTINUOUS
370
50
 62
4
100
AcDbLine
 10
13.656914
 20
1.498444
 30
0.0
 11
13.587588
 21
1.52048
 31
0.0
  0
LINE
  5
93A
330
1F
100
AcDbEntity
  8
1
  6
CONTINUOUS
370
50
 62
4
100
AcDbLine
 10
7.554728
 20
1.51768
 30
0.0
 11
7.485355999999999
 21
1.539648
 31
0.0
  0
LINE
  5
93B
330
1F
100
AcDbEntity
  8
1
  6
CONTINUOUS
370
50
 62
4
100
AcDbLine
 10
16.279877
 20
1.862343
 30
0.0
 11
15.904152
 21
1.979534
 31
0.0
  0
LINE
  5
93C
330
1F
100
AcDbEntity
  8
1
  6
CONTINUOUS
370
50
 62
4
100
AcDbLine
 10
13.726163
 20
1.476922
 30
0.0
 11
13.656914
 21
1.498444
 31
0.0
  0
LINE
  5
93D
330
1F
100
AcDbEntity
  8
1
  6
CONTINUOUS
370
50
 62
4
100
AcDbLine
 10
7.623203999999999
 20
1.496452
 30
0.0
 11
7.554728
 21
1.51768
 31
0.0
  0
LINE
  5
93E
330
1F
100
AcDbEntity
  8
1
  6
CONTINUOUS
370
50
 62
4
100
AcDbLine
 10
19.415346
 20
2.870407
 30
0.0
 11
19.369799
 21
2.884481
 31
0.0
  0
LINE
  5
93F
330
1F
100
AcDbEntity
  8
1
  6
CONTINUOUS
370
50
 62
4
100
AcDbLine
 10
8.893305
 20
-1.175987
 30
0.0
 11
8.419943
 21
-1.030312
 31
0.0
  0
LINE
  5
940
330
1F
100
AcDbEntity
  8
1
  6
CONTINUOUS
370
50
 62
4
100
AcDbLine
 10
8.874474
 20
-1.168583
 30
0.0
 11
8.401893
 21
-1.023511
 31
0.0
  0
LINE
  5
941
330
1F
100
AcDbEntity
  8
1
  6
CONTINUOUS
370
50
 62
4
100
AcDbLine
 10
14.951115
 20
-1.183428
 30
0.0
 11
14.486058
 21
-1.041551
 31
0.0
  0
LINE
  5
942
330
1F
100
AcDbEntity
  8
1
  6
CONTINUOUS
370
50
 62
4
100
AcDbLine
 10
7.683916
 20
1.478007
 30
0.0
 11
7.623203999999999
 21
1.496452
 31
0.0
  0
LINE
  5
943
330
1F
100
AcDbEntity
  8
1
  6
CONTINUOUS
370
50
 62
4
100
AcDbLine
 10
13.795409
 20
1.455887
 30
0.0
 11
13.726163
 21
1.476922
 31
0.0
  0
LINE
  5
944
330
1F
100
AcDbEntity
  8
1
  6
CONTINUOUS
370
50
 62
4
100
AcDbLine
 10
10.182974
 20
2.737667
 30
0.0
 11
9.920207999999999
 21
2.817347
 31
0.0
  0
LINE
  5
945
330
1F
100
AcDbEntity
  8
1
  6
CONTINUOUS
370
50
 62
4
100
AcDbLine
 10
14.986545
 20
-1.195706
 30
0.0
 11
14.543015
 21
-1.061245
 31
0.0
  0
LINE
  5
946
330
1F
100
AcDbEntity
  8
1
  6
CONTINUOUS
370
50
 62
4
100
AcDbLine
 10
7.264431
 20
-2.832081
 30
0.0
 11
7.0
 21
-2.752866
 31
0.0
  0
LINE
  5
947
330
1F
100
AcDbEntity
  8
1
  6
CONTINUOUS
370
50
 62
4
100
AcDbLine
 10
9.169475
 20
1.063834
 30
0.0
 11
8.717459
 21
1.198704
 31
0.0
  0
LINE
  5
948
330
1F
100
AcDbEntity
  8
1
  6
CONTINUOUS
370
50
 62
4
100
AcDbLine
 10
15.197453
 20
1.062625
 30
0.0
 11
14.745942
 21
1.197312
 31
0.0
  0
LINE
  5
949
330
1F
100
AcDbEntity
  8
1
  6
CONTINUOUS
370
50
 62
4
100
AcDbLine
 10
19.017769
 20
-2.735882
 30
0.0
 11
18.99
 21
-2.7276
 31
0.0
  0
LINE
  5
94A
330
1F
100
AcDbEntity
  8
1
  6
CONTINUOUS
370
50
 62
4
100
AcDbLine
 10
7.744625999999999
 20
1.459912
 30
0.0
 11
7.683916
 21
1.478007
 31
0.0
  0
LINE
  5
94B
330
1F
100
AcDbEntity
  8
1
  6
CONTINUOUS
370
50
 62
4
100
AcDbLine
 10
13.864711
 20
1.435317
 30
0.0
 11
13.795409
 21
1.455887
 31
0.0
  0
LINE
  5
94C
330
1F
100
AcDbEntity
  8
1
  6
CONTINUOUS
370
50
 62
4
100
AcDbLine
 10
12.616887
 20
-2.812575
 30
0.0
 11
12.273121
 21
-2.710558
 31
0.0
  0
LINE
  5
94D
330
1F
100
AcDbEntity
  8
1
  6
CONTINUOUS
370
50
 62
4
100
AcDbLine
 10
16.230133
 20
2.734915
 30
0.0
 11
15.923602
 21
2.825554
 31
0.0
  0
LINE
  5
94E
330
1F
100
AcDbEntity
  8
1
  6
CONTINUOUS
370
50
 62
4
100
AcDbLine
 10
7.805371999999999
 20
1.442152
 30
0.0
 11
7.744625999999999
 21
1.459912
 31
0.0
  0
LINE
  5
94F
330
1F
100
AcDbEntity
  8
1
  6
CONTINUOUS
370
50
 62
4
100
AcDbLine
 10
19.325146
 20
1.082765
 30
0.0
 11
19.292782
 21
1.092198
 31
0.0
  0
LINE
  5
950
330
1F
100
AcDbEntity
  8
1
  6
CONTINUOUS
370
50
 62
4
100
AcDbLine
 10
13.934011
 20
1.415224
 30
0.0
 11
13.864711
 21
1.435317
 31
0.0
  0
LINE
  5
951
330
1F
100
AcDbEntity
  8
1
  6
CONTINUOUS
370
50
 62
4
100
AcDbLine
 10
7.866117
 20
1.424735
 30
0.0
 11
7.805371999999999
 21
1.442152
 31
0.0
  0
LINE
  5
952
330
1F
100
AcDbEntity
  8
1
  6
CONTINUOUS
370
50
 62
4
100
AcDbLine
 10
15.615395
 20
2.731757
 30
0.0
 11
15.282032
 21
2.826612
 31
0.0
  0
LINE
  5
953
330
1F
100
AcDbEntity
  8
1
  6
CONTINUOUS
370
50
 62
4
100
AcDbLine
 10
14.003359
 20
1.395589
 30
0.0
 11
13.934011
 21
1.415224
 31
0.0
  0
LINE
  5
954
330
1F
100
AcDbEntity
  8
1
  6
CONTINUOUS
370
50
 62
4
100
AcDbLine
 10
7.926895
 20
1.407647
 30
0.0
 11
7.866117
 21
1.424735
 31
0.0
  0
LINE
  5
955
330
1F
100
AcDbEntity
  8
1
  6
CONTINUOUS
370
50
 62
4
100
AcDbLine
 10
18.702976
 20
-2.82784
 30
0.0
 11
18.414059
 21
-2.747034
 31
0.0
  0
LINE
  5
956
330
1F
100
AcDbEntity
  8
1
  6
CONTINUOUS
370
50
 62
4
100
AcDbLine
 10
5.195866
 20
2.962962
 30
0.0
 11
5.128031
 21
2.981837
 31
0.0
  0
LINE
  5
957
330
1F
100
AcDbEntity
  8
1
  6
CONTINUOUS
370
50
 62
4
100
AcDbLine
 10
14.072705
 20
1.376419
 30
0.0
 11
14.003359
 21
1.395589
 31
0.0
  0
LINE
  5
958
330
1F
100
AcDbEntity
  8
1
  6
CONTINUOUS
370
50
 62
4
100
AcDbLine
 10
7.987673
 20
1.390895
 30
0.0
 11
7.926895
 21
1.407647
 31
0.0
  0
LINE
  5
959
330
1F
100
AcDbEntity
  8
1
  6
CONTINUOUS
370
50
 62
4
100
AcDbLine
 10
9.3668
 20
-1.305293
 30
0.0
 11
8.893305
 21
-1.175987
 31
0.0
  0
LINE
  5
95A
330
1F
100
AcDbEntity
  8
1
  6
CONTINUOUS
370
50
 62
4
100
AcDbLine
 10
9.352273
 20
-1.298372
 30
0.0
 11
8.874474
 21
-1.168583
 31
0.0
  0
LINE
  5
95B
330
1F
100
AcDbEntity
  8
1
  6
CONTINUOUS
370
50
 62
4
100
AcDbLine
 10
8.048480999999999
 20
1.374464
 30
0.0
 11
7.987673
 21
1.390895
 31
0.0
  0
LINE
  5
95C
330
1F
100
AcDbEntity
  8
1
  6
CONTINUOUS
370
50
 62
4
100
AcDbLine
 10
14.142097
 20
1.357696
 30
0.0
 11
14.072705
 21
1.376419
 31
0.0
  0
LINE
  5
95D
330
1F
100
AcDbEntity
  8
1
  6
CONTINUOUS
370
50
 62
4
100
AcDbLine
 10
15.430186
 20
-1.314675
 30
0.0
 11
14.986545
 21
-1.195706
 31
0.0
  0
LINE
  5
95E
330
1F
100
AcDbEntity
  8
1
  6
CONTINUOUS
370
50
 62
4
100
AcDbLine
 10
14.745942
 20
1.197312
 30
0.0
 11
14.294549
 21
1.318352
 31
0.0
  0
LINE
  5
95F
330
1F
100
AcDbEntity
  8
1
  6
CONTINUOUS
370
50
 62
4
100
AcDbLine
 10
9.933842
 20
1.961105
 30
0.0
 11
9.567126
 21
2.059381
 31
0.0
  0
LINE
  5
960
330
1F
100
AcDbEntity
  8
1
  6
CONTINUOUS
370
50
 62
4
100
AcDbLine
 10
15.411176
 20
-1.306704
 30
0.0
 11
14.951115
 21
-1.183428
 31
0.0
  0
LINE
  5
961
330
1F
100
AcDbEntity
  8
1
  6
CONTINUOUS
370
50
 62
4
100
AcDbLine
 10
8.717459
 20
1.198704
 30
0.0
 11
8.265562
 21
1.318469
 31
0.0
  0
LINE
  5
962
330
1F
100
AcDbEntity
  8
1
  6
CONTINUOUS
370
50
 62
4
100
AcDbLine
 10
8.109289
 20
1.358361
 30
0.0
 11
8.048480999999999
 21
1.374464
 31
0.0
  0
LINE
  5
963
330
1F
100
AcDbEntity
  8
1
  6
CONTINUOUS
370
50
 62
4
100
AcDbLine
 10
14.211487
 20
1.339427
 30
0.0
 11
14.142097
 21
1.357696
 31
0.0
  0
LINE
  5
964
330
1F
100
AcDbEntity
  8
1
  6
CONTINUOUS
370
50
 62
4
100
AcDbLine
 10
8.187379
 20
1.338153
 30
0.0
 11
8.109289
 21
1.358361
 31
0.0
  0
LINE
  5
965
330
1F
100
AcDbEntity
  8
1
  6
CONTINUOUS
370
50
 62
4
100
AcDbLine
 10
14.294542
 20
1.318147
 30
0.0
 11
14.211487
 21
1.339427
 31
0.0
  0
LINE
  5
966
330
1F
100
AcDbEntity
  8
1
  6
CONTINUOUS
370
50
 62
4
100
AcDbLine
 10
13.569516
 20
-2.896026
 30
0.0
 11
13.189685
 21
-2.799281
 31
0.0
  0
LINE
  5
967
330
1F
100
AcDbEntity
  8
1
  6
CONTINUOUS
370
50
 62
4
100
AcDbLine
 10
15.904152
 20
1.979534
 30
0.0
 11
15.528426
 21
2.07506
 31
0.0
  0
LINE
  5
968
330
1F
100
AcDbEntity
  8
1
  6
CONTINUOUS
370
50
 62
4
100
AcDbLine
 10
8.265469999999999
 20
1.318467
 30
0.0
 11
8.187379
 21
1.338153
 31
0.0
  0
LINE
  5
969
330
1F
100
AcDbEntity
  8
1
  6
CONTINUOUS
370
50
 62
4
100
AcDbLine
 10
9.420076
 20
2.782131
 30
0.0
 11
9.044575
 21
2.876321
 31
0.0
  0
LINE
  5
96A
330
1F
100
AcDbEntity
  8
1
  6
CONTINUOUS
370
50
 62
4
100
AcDbLine
 10
19.046198
 20
-2.742909
 30
0.0
 11
19.017769
 21
-2.735882
 31
0.0
  0
LINE
  5
96B
330
1F
100
AcDbEntity
  8
1
  6
CONTINUOUS
370
50
 62
4
100
AcDbLine
 10
9.920207999999999
 20
2.817347
 30
0.0
 11
9.655128999999999
 21
2.882164
 31
0.0
  0
LINE
  5
96C
330
1F
100
AcDbEntity
  8
1
  6
CONTINUOUS
370
50
 62
4
100
AcDbLine
 10
19.357267
 20
1.074919
 30
0.0
 11
19.325146
 21
1.082765
 31
0.0
  0
LINE
  5
96D
330
1F
100
AcDbEntity
  8
1
  6
CONTINUOUS
370
50
 62
4
100
AcDbLine
 10
7.52213
 20
-2.89471
 30
0.0
 11
7.264431
 21
-2.832081
 31
0.0
  0
LINE
  5
96E
330
1F
100
AcDbEntity
  8
1
  6
CONTINUOUS
370
50
 62
4
100
AcDbLine
 10
19.369799
 20
2.884481
 30
0.0
 11
19.323647
 21
2.895616
 31
0.0
  0
LINE
  5
96F
330
1F
100
AcDbEntity
  8
1
  6
CONTINUOUS
370
50
 62
4
100
AcDbLine
 10
12.958295
 20
-2.893893
 30
0.0
 11
12.616887
 21
-2.812575
 31
0.0
  0
LINE
  5
970
330
1F
100
AcDbEntity
  8
1
  6
CONTINUOUS
370
50
 62
4
100
AcDbLine
 10
9.840373999999999
 20
-1.41768
 30
0.0
 11
9.3668
 21
-1.305293
 31
0.0
  0
LINE
  5
971
330
1F
100
AcDbEntity
  8
1
  6
CONTINUOUS
370
50
 62
4
100
AcDbLine
 10
9.829308
 20
-1.41121
 30
0.0
 11
9.352273
 21
-1.298372
 31
0.0
  0
LINE
  5
972
330
1F
100
AcDbEntity
  8
1
  6
CONTINUOUS
370
50
 62
4
100
AcDbLine
 10
15.873912
 20
-1.418025
 30
0.0
 11
15.430186
 21
-1.314675
 31
0.0
  0
LINE
  5
973
330
1F
100
AcDbEntity
  8
1
  6
CONTINUOUS
370
50
 62
4
100
AcDbLine
 10
15.866589
 20
-1.41241
 30
0.0
 11
15.411176
 21
-1.306704
 31
0.0
  0
LINE
  5
974
330
1F
100
AcDbEntity
  8
1
  6
CONTINUOUS
370
50
 62
4
100
AcDbLine
 10
18.99
 20
-2.893892
 30
0.0
 11
18.702976
 21
-2.82784
 31
0.0
  0
LINE
  5
975
330
1F
100
AcDbEntity
  8
1
  6
CONTINUOUS
370
50
 62
4
100
AcDbLine
 10
15.923602
 20
2.825554
 30
0.0
 11
15.588919
 21
2.901749
 31
0.0
  0
LINE
  5
976
330
1F
100
AcDbEntity
  8
1
  6
CONTINUOUS
370
50
 62
4
100
AcDbLine
 10
15.282032
 20
2.826612
 30
0.0
 11
14.946521
 21
2.901311
 31
0.0
  0
LINE
  5
977
330
1F
100
AcDbEntity
  8
1
  6
CONTINUOUS
370
50
 62
4
100
AcDbLine
 10
9.567126
 20
2.059381
 30
0.0
 11
9.200408999999999
 21
2.137151
 31
0.0
  0
LINE
  5
978
330
1F
100
AcDbEntity
  8
1
  6
CONTINUOUS
370
50
 62
4
100
AcDbLine
 10
15.528426
 20
2.07506
 30
0.0
 11
15.152694
 21
2.15019
 31
0.0
  0
LINE
  5
979
330
1F
100
AcDbEntity
  8
1
  6
CONTINUOUS
370
50
 62
4
100
AcDbLine
 10
19.388971
 20
1.068677
 30
0.0
 11
19.357267
 21
1.074919
 31
0.0
  0
LINE
  5
97A
330
1F
100
AcDbEntity
  8
1
  6
CONTINUOUS
370
50
 62
4
100
AcDbLine
 10
19.075289
 20
-2.748597
 30
0.0
 11
19.046198
 21
-2.742909
 31
0.0
  0
LINE
  5
97B
330
1F
100
AcDbEntity
  8
1
  6
CONTINUOUS
370
50
 62
4
100
AcDbLine
 10
9.655128999999999
 20
2.882164
 30
0.0
 11
9.387936
 21
2.932542
 31
0.0
  0
LINE
  5
97C
330
1F
100
AcDbEntity
  8
1
  6
CONTINUOUS
370
50
 62
4
100
AcDbLine
 10
7.151019
 20
-2.937216
 30
0.0
 11
7.0
 21
-2.909563
 31
0.0
  0
LINE
  5
97D
330
1F
100
AcDbEntity
  8
1
  6
CONTINUOUS
370
50
 62
4
100
AcDbLine
 10
7.782569
 20
-2.94235
 30
0.0
 11
7.52213
 21
-2.89471
 31
0.0
  0
LINE
  5
97E
330
1F
100
AcDbEntity
  8
1
  6
CONTINUOUS
370
50
 62
4
100
AcDbLine
 10
9.044575
 20
2.876321
 30
0.0
 11
8.669381999999999
 21
2.943898
 31
0.0
  0
LINE
  5
97F
330
1F
100
AcDbEntity
  8
1
  6
CONTINUOUS
370
50
 62
4
100
AcDbLine
 10
19.038343
 20
-2.902452
 30
0.0
 11
18.99
 21
-2.893892
 31
0.0
  0
LINE
  5
980
330
1F
100
AcDbEntity
  8
1
  6
CONTINUOUS
370
50
 62
4
100
AcDbLine
 10
13.293931
 20
-2.9531
 30
0.0
 11
12.958295
 21
-2.893893
 31
0.0
  0
LINE
  5
981
330
1F
100
AcDbEntity
  8
1
  6
CONTINUOUS
370
50
 62
4
100
AcDbLine
 10
19.323647
 20
2.895616
 30
0.0
 11
19.276976
 21
2.903842
 31
0.0
  0
LINE
  5
982
330
1F
100
AcDbEntity
  8
1
  6
CONTINUOUS
370
50
 62
4
100
AcDbLine
 10
5.128031
 20
2.981837
 30
0.0
 11
5.05839
 21
2.994031
 31
0.0
  0
LINE
  5
983
330
1F
100
AcDbEntity
  8
1
  6
CONTINUOUS
370
50
 62
4
100
AcDbLine
 10
14.029609
 20
-2.970598
 30
0.0
 11
13.569516
 21
-2.896026
 31
0.0
  0
LINE
  5
984
330
1F
100
AcDbEntity
  8
1
  6
CONTINUOUS
370
50
 62
4
100
AcDbLine
 10
5.05839
 20
2.994031
 30
0.0
 11
5.047626
 21
2.995774
 31
0.0
  0
LINE
  5
985
330
1F
100
AcDbEntity
  8
1
  6
CONTINUOUS
370
50
 62
4
100
AcDbLine
 10
14.946521
 20
2.901311
 30
0.0
 11
14.611465
 21
2.955413
 31
0.0
  0
LINE
  5
986
330
1F
100
AcDbEntity
  8
1
  6
CONTINUOUS
370
50
 62
4
100
AcDbLine
 10
15.588919
 20
2.901749
 30
0.0
 11
15.249635
 21
2.956386
 31
0.0
  0
LINE
  5
987
330
1F
100
AcDbEntity
  8
1
  6
CONTINUOUS
370
50
 62
4
100
AcDbLine
 10
9.200408999999999
 20
2.137151
 30
0.0
 11
8.833682999999999
 21
2.195776
 31
0.0
  0
LINE
  5
988
330
1F
100
AcDbEntity
  8
1
  6
CONTINUOUS
370
50
 62
4
100
AcDbLine
 10
5.047626
 20
2.995774
 30
0.0
 11
5.038436
 21
2.997228
 31
0.0
  0
LINE
  5
989
330
1F
100
AcDbEntity
  8
1
  6
CONTINUOUS
370
50
 62
4
100
AcDbLine
 10
5.038436
 20
2.997228
 30
0.0
 11
5.030902
 21
2.998383
 31
0.0
  0
LINE
  5
98A
330
1F
100
AcDbEntity
  8
1
  6
CONTINUOUS
370
50
 62
4
100
AcDbLine
 10
7.300114
 20
-2.959811
 30
0.0
 11
7.151019
 21
-2.937216
 31
0.0
  0
LINE
  5
98B
330
1F
100
AcDbEntity
  8
1
  6
CONTINUOUS
370
50
 62
4
100
AcDbLine
 10
19.420237
 20
1.064007
 30
0.0
 11
19.388971
 21
1.068677
 31
0.0
  0
LINE
  5
98C
330
1F
100
AcDbEntity
  8
1
  6
CONTINUOUS
370
50
 62
4
100
AcDbLine
 10
15.152694
 20
2.15019
 30
0.0
 11
14.776953
 21
2.205858
 31
0.0
  0
LINE
  5
98D
330
1F
100
AcDbEntity
  8
1
  6
CONTINUOUS
370
50
 62
4
100
AcDbLine
 10
5.030902
 20
2.998383
 30
0.0
 11
5.025105
 21
2.999228
 31
0.0
  0
LINE
  5
98E
330
1F
100
AcDbEntity
  8
1
  6
CONTINUOUS
370
50
 62
4
100
AcDbLine
 10
19.105028
 20
-2.752855
 30
0.0
 11
19.075289
 21
-2.748597
 31
0.0
  0
LINE
  5
98F
330
1F
100
AcDbEntity
  8
1
  6
CONTINUOUS
370
50
 62
4
100
AcDbLine
 10
5.165143
 20
2.976484
 30
0.0
 11
5.132298
 21
2.981166
 31
0.0
  0
LINE
  5
990
330
1F
100
AcDbEntity
  8
1
  6
CONTINUOUS
370
50
 62
4
100
AcDbLine
 10
5.200936
 20
2.971623
 30
0.0
 11
5.165143
 21
2.976484
 31
0.0
  0
LINE
  5
991
330
1F
100
AcDbEntity
  8
1
  6
CONTINUOUS
370
50
 62
4
100
AcDbLine
 10
9.387936
 20
2.932542
 30
0.0
 11
9.118212
 21
2.96892
 31
0.0
  0
LINE
  5
992
330
1F
100
AcDbEntity
  8
1
  6
CONTINUOUS
370
50
 62
4
100
AcDbLine
 10
5.018852
 20
-2.999945
 30
0.0
 11
5.018791999999999
 21
-2.999937
 31
0.0
  0
LINE
  5
993
330
1F
100
AcDbEntity
  8
1
  6
CONTINUOUS
370
50
 62
4
100
AcDbLine
 10
5.025105
 20
2.999228
 30
0.0
 11
5.021128
 21
2.999753
 31
0.0
  0
LINE
  5
994
330
1F
100
AcDbEntity
  8
1
  6
CONTINUOUS
370
50
 62
4
100
AcDbLine
 10
5.239288
 20
2.966674
 30
0.0
 11
5.200936
 21
2.971623
 31
0.0
  0
LINE
  5
995
330
1F
100
AcDbEntity
  8
1
  6
CONTINUOUS
370
50
 62
4
100
AcDbLine
 10
8.045403
 20
-2.975477
 30
0.0
 11
7.782569
 21
-2.94235
 31
0.0
  0
LINE
  5
996
330
1F
100
AcDbEntity
  8
1
  6
CONTINUOUS
370
50
 62
4
100
AcDbLine
 10
5.279863
 20
2.961708
 30
0.0
 11
5.239288
 21
2.966674
 31
0.0
  0
LINE
  5
997
330
1F
100
AcDbEntity
  8
1
  6
CONTINUOUS
370
50
 62
4
100
AcDbLine
 10
19.086561
 20
-2.908293
 30
0.0
 11
19.038343
 21
-2.902452
 31
0.0
  0
LINE
  5
998
330
1F
100
AcDbEntity
  8
1
  6
CONTINUOUS
370
50
 62
4
100
AcDbLine
 10
7.449636
 20
-2.977377
 30
0.0
 11
7.300114
 21
-2.959811
 31
0.0
  0
LINE
  5
999
330
1F
100
AcDbEntity
  8
1
  6
CONTINUOUS
370
50
 62
4
100
AcDbLine
 10
5.32233
 20
2.956792
 30
0.0
 11
5.279863
 21
2.961708
 31
0.0
  0
LINE
  5
99A
330
1F
100
AcDbEntity
  8
1
  6
CONTINUOUS
370
50
 62
4
100
AcDbLine
 10
19.276976
 20
2.903842
 30
0.0
 11
19.229862
 21
2.90919
 31
0.0
  0
LINE
  5
99B
330
1F
100
AcDbEntity
  8
1
  6
CONTINUOUS
370
50
 62
4
100
AcDbLine
 10
8.669381999999999
 20
2.943898
 30
0.0
 11
8.293387
 21
2.985409
 31
0.0
  0
LINE
  5
99C
330
1F
100
AcDbEntity
  8
1
  6
CONTINUOUS
370
50
 62
4
100
AcDbLine
 10
13.617839
 20
-2.988395
 30
0.0
 11
13.293931
 21
-2.9531
 31
0.0
  0
LINE
  5
99D
330
1F
100
AcDbEntity
  8
1
  6
CONTINUOUS
370
50
 62
4
100
AcDbLine
 10
5.366357
 20
2.951997
 30
0.0
 11
5.32233
 21
2.956792
 31
0.0
  0
LINE
  5
99E
330
1F
100
AcDbEntity
  8
1
  6
CONTINUOUS
370
50
 62
4
100
AcDbLine
 10
8.833682999999999
 20
2.195776
 30
0.0
 11
8.466949
 21
2.235322
 31
0.0
  0
LINE
  5
99F
330
1F
100
AcDbEntity
  8
1
  6
CONTINUOUS
370
50
 62
4
100
AcDbLine
 10
5.411614
 20
2.947389
 30
0.0
 11
5.366357
 21
2.951997
 31
0.0
  0
LINE
  5
9A0
330
1F
100
AcDbEntity
  8
1
  6
CONTINUOUS
370
50
 62
4
100
AcDbLine
 10
19.451036
 20
1.060882
 30
0.0
 11
19.420237
 21
1.064007
 31
0.0
  0
LINE
  5
9A1
330
1F
100
AcDbEntity
  8
1
  6
CONTINUOUS
370
50
 62
4
100
AcDbLine
 10
14.611465
 20
2.955413
 30
0.0
 11
14.279357
 21
2.988467
 31
0.0
  0
LINE
  5
9A2
330
1F
100
AcDbEntity
  8
1
  6
CONTINUOUS
370
50
 62
4
100
AcDbLine
 10
15.249635
 20
2.956386
 30
0.0
 11
14.908572
 21
2.989205
 31
0.0
  0
LINE
  5
9A3
330
1F
100
AcDbEntity
  8
1
  6
CONTINUOUS
370
50
 62
4
100
AcDbLine
 10
14.776953
 20
2.205858
 30
0.0
 11
14.401203
 21
2.241935
 31
0.0
  0
LINE
  5
9A4
330
1F
100
AcDbEntity
  8
1
  6
CONTINUOUS
370
50
 62
4
100
AcDbLine
 10
5.458038
 20
2.943003
 30
0.0
 11
5.411614
 21
2.947389
 31
0.0
  0
LINE
  5
9A5
330
1F
100
AcDbEntity
  8
1
  6
CONTINUOUS
370
50
 62
4
100
AcDbLine
 10
5.021128
 20
2.999753
 30
0.0
 11
5.019051
 21
2.999948
 31
0.0
  0
LINE
  5
9A6
330
1F
100
AcDbEntity
  8
1
  6
CONTINUOUS
370
50
 62
4
100
AcDbLine
 10
19.135368
 20
-2.755589
 30
0.0
 11
19.105028
 21
-2.752855
 31
0.0
  0
LINE
  5
9A7
330
1F
100
AcDbEntity
  8
1
  6
CONTINUOUS
370
50
 62
4
100
AcDbLine
 10
5.505587999999999
 20
2.938857
 30
0.0
 11
5.458038
 21
2.943003
 31
0.0
  0
LINE
  5
9A8
330
1F
100
AcDbEntity
  8
1
  6
CONTINUOUS
370
50
 62
4
100
AcDbLine
 10
9.118212
 20
2.96892
 30
0.0
 11
8.847169
 21
2.991349
 31
0.0
  0
LINE
  5
9A9
330
1F
100
AcDbEntity
  8
1
  6
CONTINUOUS
370
50
 62
4
100
AcDbLine
 10
7.601934
 20
-2.989942
 30
0.0
 11
7.449636
 21
-2.977377
 31
0.0
  0
LINE
  5
9AA
330
1F
100
AcDbEntity
  8
1
  6
CONTINUOUS
370
50
 62
4
100
AcDbLine
 10
5.554085
 20
2.934982
 30
0.0
 11
5.505587999999999
 21
2.938857
 31
0.0
  0
LINE
  5
9AB
330
1F
100
AcDbEntity
  8
1
  6
CONTINUOUS
370
50
 62
4
100
AcDbLine
 10
19.768698
 20
-2.390836
 30
0.0
 11
19.758911
 21
-2.390111
 31
0.0
  0
LINE
  5
9AC
330
1F
100
AcDbEntity
  8
1
  6
CONTINUOUS
370
50
 62
4
100
AcDbLine
 10
5.603352
 20
2.931407
 30
0.0
 11
5.554085
 21
2.934982
 31
0.0
  0
LINE
  5
9AD
330
1F
100
AcDbEntity
  8
1
  6
CONTINUOUS
370
50
 62
4
100
AcDbLine
 10
8.309802
 20
-2.99451
 30
0.0
 11
8.045403
 21
-2.975477
 31
0.0
  0
LINE
  5
9AE
330
1F
100
AcDbEntity
  8
1
  6
CONTINUOUS
370
50
 62
4
100
AcDbLine
 10
5.65321
 20
2.928164
 30
0.0
 11
5.603352
 21
2.931407
 31
0.0
  0
LINE
  5
9AF
330
1F
100
AcDbEntity
  8
1
  6
CONTINUOUS
370
50
 62
4
100
AcDbLine
 10
19.134592
 20
-2.911383
 30
0.0
 11
19.086561
 21
-2.908293
 31
0.0
  0
LINE
  5
9B0
330
1F
100
AcDbEntity
  8
1
  6
CONTINUOUS
370
50
 62
4
100
AcDbLine
 10
5.703487
 20
2.925284
 30
0.0
 11
5.65321
 21
2.928164
 31
0.0
  0
LINE
  5
9B1
330
1F
100
AcDbEntity
  8
1
  6
CONTINUOUS
370
50
 62
4
100
AcDbLine
 10
8.466949
 20
2.235322
 30
0.0
 11
8.100209
 21
2.255538
 31
0.0
  0
LINE
  5
9B2
330
1F
100
AcDbEntity
  8
1
  6
CONTINUOUS
370
50
 62
4
100
AcDbLine
 10
14.568377
 20
-2.999995
 30
0.0
 11
14.029609
 21
-2.970598
 31
0.0
  0
LINE
  5
9B3
330
1F
100
AcDbEntity
  8
1
  6
CONTINUOUS
370
50
 62
4
100
AcDbLine
 10
19.481239
 20
1.05927
 30
0.0
 11
19.451036
 21
1.060882
 31
0.0
  0
LINE
  5
9B4
330
1F
100
AcDbEntity
  8
1
  6
CONTINUOUS
370
50
 62
4
100
AcDbLine
 10
19.229862
 20
2.90919
 30
0.0
 11
19.182381
 21
2.911693
 31
0.0
  0
LINE
  5
9B5
330
1F
100
AcDbEntity
  8
1
  6
CONTINUOUS
370
50
 62
4
100
AcDbLine
 10
5.754223
 20
2.922778
 30
0.0
 11
5.703487
 21
2.925284
 31
0.0
  0
LINE
  5
9B6
330
1F
100
AcDbEntity
  8
1
  6
CONTINUOUS
370
50
 62
4
100
AcDbLine
 10
7.759234999999999
 20
-2.997526
 30
0.0
 11
7.601934
 21
-2.989942
 31
0.0
  0
LINE
  5
9B7
330
1F
100
AcDbEntity
  8
1
  6
CONTINUOUS
370
50
 62
4
100
AcDbLine
 10
5.018939
 20
-2.999949
 30
0.0
 11
5.018852
 21
-2.999945
 31
0.0
  0
LINE
  5
9B8
330
1F
100
AcDbEntity
  8
1
  6
CONTINUOUS
370
50
 62
4
100
AcDbLine
 10
14.401203
 20
2.241935
 30
0.0
 11
14.02545
 21
2.257674
 31
0.0
  0
LINE
  5
9B9
330
1F
100
AcDbEntity
  8
1
  6
CONTINUOUS
370
50
 62
4
100
AcDbLine
 10
5.805409
 20
2.920653
 30
0.0
 11
5.754223
 21
2.922778
 31
0.0
  0
LINE
  5
9BA
330
1F
100
AcDbEntity
  8
1
  6
CONTINUOUS
370
50
 62
4
100
AcDbLine
 10
8.293387
 20
2.985409
 30
0.0
 11
7.91939
 21
2.999903
 31
0.0
  0
LINE
  5
9BB
330
1F
100
AcDbEntity
  8
1
  6
CONTINUOUS
370
50
 62
4
100
AcDbLine
 10
19.166143
 20
-2.756709
 30
0.0
 11
19.135368
 21
-2.755589
 31
0.0
  0
LINE
  5
9BC
330
1F
100
AcDbEntity
  8
1
  6
CONTINUOUS
370
50
 62
4
100
AcDbLine
 10
14.279357
 20
2.988467
 30
0.0
 11
13.950247
 21
2.999956
 31
0.0
  0
LINE
  5
9BD
330
1F
100
AcDbEntity
  8
1
  6
CONTINUOUS
370
50
 62
4
100
AcDbLine
 10
13.950247
 20
-2.999956
 30
0.0
 11
13.617839
 21
-2.988395
 31
0.0
  0
LINE
  5
9BE
330
1F
100
AcDbEntity
  8
1
  6
CONTINUOUS
370
50
 62
4
100
AcDbLine
 10
5.856946
 20
2.918919
 30
0.0
 11
5.805409
 21
2.920653
 31
0.0
  0
LINE
  5
9BF
330
1F
100
AcDbEntity
  8
1
  6
CONTINUOUS
370
50
 62
4
100
AcDbLine
 10
14.908572
 20
2.989205
 30
0.0
 11
14.568377
 21
2.999995
 31
0.0
  0
LINE
  5
9C0
330
1F
100
AcDbEntity
  8
1
  6
CONTINUOUS
370
50
 62
4
100
AcDbLine
 10
8.847169
 20
2.991349
 30
0.0
 11
8.57624
 21
2.999831
 31
0.0
  0
LINE
  5
9C1
330
1F
100
AcDbEntity
  8
1
  6
CONTINUOUS
370
50
 62
4
100
AcDbLine
 10
5.908731
 20
2.917586
 30
0.0
 11
5.856946
 21
2.918919
 31
0.0
  0
LINE
  5
9C2
330
1F
100
AcDbEntity
  8
1
  6
CONTINUOUS
370
50
 62
4
100
AcDbLine
 10
8.57624
 20
-2.999831
 30
0.0
 11
8.309802
 21
-2.99451
 31
0.0
  0
LINE
  5
9C3
330
1F
100
AcDbEntity
  8
1
  6
CONTINUOUS
370
50
 62
4
100
AcDbLine
 10
5.960668
 20
2.916666
 30
0.0
 11
5.908731
 21
2.917586
 31
0.0
  0
LINE
  5
9C4
330
1F
100
AcDbEntity
  8
1
  6
CONTINUOUS
370
50
 62
4
100
AcDbLine
 10
7.91939
 20
-2.999903
 30
0.0
 11
7.759234999999999
 21
-2.997526
 31
0.0
  0
LINE
  5
9C5
330
1F
100
AcDbEntity
  8
1
  6
CONTINUOUS
370
50
 62
4
100
AcDbLine
 10
6.012653999999999
 20
2.916169
 30
0.0
 11
5.960668
 21
2.916666
 31
0.0
  0
LINE
  5
9C6
330
1F
100
AcDbEntity
  8
1
  6
CONTINUOUS
370
50
 62
4
100
AcDbLine
 10
19.182381
 20
-2.911693
 30
0.0
 11
19.134592
 21
-2.911383
 31
0.0
  0
LINE
  5
9C7
330
1F
100
AcDbEntity
  8
1
  6
CONTINUOUS
370
50
 62
4
100
AcDbLine
 10
19.5105
 20
1.059109
 30
0.0
 11
19.481239
 21
1.05927
 31
0.0
  0
LINE
  5
9C8
330
1F
100
AcDbEntity
  8
1
  6
CONTINUOUS
370
50
 62
4
100
AcDbLine
 10
6.152266
 20
2.91542
 30
0.0
 11
6.012653999999999
 21
2.916169
 31
0.0
  0
LINE
  5
9C9
330
1F
100
AcDbEntity
  8
1
  6
CONTINUOUS
370
50
 62
4
100
AcDbLine
 10
6.291882999999999
 20
2.914685
 30
0.0
 11
6.152266
 21
2.91542
 31
0.0
  0
LINE
  5
9CA
330
1F
100
AcDbEntity
  8
1
  6
CONTINUOUS
370
50
 62
4
100
AcDbLine
 10
6.431505
 20
2.913964
 30
0.0
 11
6.291882999999999
 21
2.914685
 31
0.0
  0
LINE
  5
9CB
330
1F
100
AcDbEntity
  8
1
  6
CONTINUOUS
370
50
 62
4
100
AcDbLine
 10
6.571129
 20
2.91326
 30
0.0
 11
6.431505
 21
2.913964
 31
0.0
  0
LINE
  5
9CC
330
1F
100
AcDbEntity
  8
1
  6
CONTINUOUS
370
50
 62
4
100
AcDbLine
 10
6.710754
 20
2.91257
 30
0.0
 11
6.571129
 21
2.91326
 31
0.0
  0
LINE
  5
9CD
330
1F
100
AcDbEntity
  8
1
  6
CONTINUOUS
370
50
 62
4
100
AcDbLine
 10
6.995714
 20
2.911165
 30
0.0
 11
6.994286
 21
2.911172
 31
0.0
  0
LINE
  5
9CE
330
1F
100
AcDbEntity
  8
1
  6
CONTINUOUS
370
50
 62
4
100
AcDbLine
 10
7.0
 20
2.911145
 30
0.0
 11
6.998571
 21
2.911152
 31
0.0
  0
LINE
  5
9CF
330
1F
100
AcDbEntity
  8
1
  6
CONTINUOUS
370
50
 62
4
100
AcDbLine
 10
6.997142999999999
 20
2.911158
 30
0.0
 11
6.995714
 21
2.911165
 31
0.0
  0
LINE
  5
9D0
330
1F
100
AcDbEntity
  8
1
  6
CONTINUOUS
370
50
 62
4
100
AcDbLine
 10
6.992857
 20
2.911178
 30
0.0
 11
6.991428
 21
2.911185
 31
0.0
  0
LINE
  5
9D1
330
1F
100
AcDbEntity
  8
1
  6
CONTINUOUS
370
50
 62
4
100
AcDbLine
 10
6.850378
 20
2.911897
 30
0.0
 11
6.710754
 21
2.91257
 31
0.0
  0
LINE
  5
9D2
330
1F
100
AcDbEntity
  8
1
  6
CONTINUOUS
370
50
 62
4
100
AcDbLine
 10
6.989999999999999
 20
2.91124
 30
0.0
 11
6.850378
 21
2.911897
 31
0.0
  0
LINE
  5
9D3
330
1F
100
AcDbEntity
  8
1
  6
CONTINUOUS
370
50
 62
4
100
AcDbLine
 10
6.998571
 20
2.911152
 30
0.0
 11
6.997142999999999
 21
2.911158
 31
0.0
  0
LINE
  5
9D4
330
1F
100
AcDbEntity
  8
1
  6
CONTINUOUS
370
50
 62
4
100
AcDbLine
 10
6.991428
 20
2.911185
 30
0.0
 11
6.989999999999999
 21
2.911191
 31
0.0
  0
LINE
  5
9D5
330
1F
100
AcDbEntity
  8
1
  6
CONTINUOUS
370
50
 62
4
100
AcDbLine
 10
6.994286
 20
2.911172
 30
0.0
 11
6.992857
 21
2.911178
 31
0.0
  0
LINE
  5
9D6
330
1F
100
AcDbEntity
  8
1
  6
CONTINUOUS
370
50
 62
4
100
AcDbLine
 10
8.100209
 20
2.255538
 30
0.0
 11
7.733466
 21
2.255987
 31
0.0
  0
LINE
  5
9D7
330
1F
100
AcDbEntity
  8
1
  6
CONTINUOUS
370
50
 62
4
100
AcDbLine
 10
8.546994
 20
-2.999913
 30
0.0
 11
7.911384
 21
-2.999908
 31
0.0
  0
LINE
  5
9D8
330
1F
100
AcDbEntity
  8
1
  6
CONTINUOUS
370
50
 62
4
100
AcDbLine
 10
14.572305
 20
-2.999963
 30
0.0
 11
13.944602
 21
-2.999958
 31
0.0
  0
LINE
  5
9D9
330
1F
100
AcDbEntity
  8
1
  6
CONTINUOUS
370
50
 62
4
100
AcDbLine
 10
-0.01
 20
-2.99995
 30
0.0
 11
5.018949999999999
 21
-2.99995
 31
0.0
  0
LINE
  5
9DA
330
1F
100
AcDbEntity
  8
1
  6
CONTINUOUS
370
50
 62
4
100
AcDbLine
 10
-0.01
 20
2.99995
 30
0.0
 11
5.018949999999999
 21
2.99995
 31
0.0
  0
LINE
  5
9DB
330
1F
100
AcDbEntity
  8
1
  6
CONTINUOUS
370
50
 62
4
100
AcDbLine
 10
7.911384
 20
2.999908
 30
0.0
 11
8.546994
 21
2.999913
 31
0.0
  0
LINE
  5
9DC
330
1F
100
AcDbEntity
  8
1
  6
CONTINUOUS
370
50
 62
4
100
AcDbLine
 10
13.944602
 20
2.999958
 30
0.0
 11
14.572305
 21
2.999963
 31
0.0
  0
LINE
  5
9DD
330
1F
100
AcDbEntity
  8
1
  6
CONTINUOUS
370
50
 62
4
100
AcDbLine
 10
19.768698
 20
-2.390836
 30
0.0
 11
19.77846
 21
-2.390807
 31
0.0
  0
LINE
  5
9DE
330
1F
100
AcDbEntity
  8
1
  6
CONTINUOUS
370
50
 62
4
100
AcDbLine
 10
6.992857
 20
-2.911178
 30
0.0
 11
6.994286
 21
-2.911172
 31
0.0
  0
LINE
  5
9DF
330
1F
100
AcDbEntity
  8
1
  6
CONTINUOUS
370
50
 62
4
100
AcDbLine
 10
6.989999999999999
 20
-2.911191
 30
0.0
 11
6.991428
 21
-2.911185
 31
0.0
  0
LINE
  5
9E0
330
1F
100
AcDbEntity
  8
1
  6
CONTINUOUS
370
50
 62
4
100
AcDbLine
 10
6.997142999999999
 20
-2.911158
 30
0.0
 11
6.998571
 21
-2.911152
 31
0.0
  0
LINE
  5
9E1
330
1F
100
AcDbEntity
  8
1
  6
CONTINUOUS
370
50
 62
4
100
AcDbLine
 10
6.850378
 20
-2.911897
 30
0.0
 11
6.989999999999999
 21
-2.91124
 31
0.0
  0
LINE
  5
9E2
330
1F
100
AcDbEntity
  8
1
  6
CONTINUOUS
370
50
 62
4
100
AcDbLine
 10
6.710754
 20
-2.91257
 30
0.0
 11
6.850378
 21
-2.911897
 31
0.0
  0
LINE
  5
9E3
330
1F
100
AcDbEntity
  8
1
  6
CONTINUOUS
370
50
 62
4
100
AcDbLine
 10
6.991428
 20
-2.911185
 30
0.0
 11
6.992857
 21
-2.911178
 31
0.0
  0
LINE
  5
9E4
330
1F
100
AcDbEntity
  8
1
  6
CONTINUOUS
370
50
 62
4
100
AcDbLine
 10
6.995714
 20
-2.911165
 30
0.0
 11
6.997142999999999
 21
-2.911158
 31
0.0
  0
LINE
  5
9E5
330
1F
100
AcDbEntity
  8
1
  6
CONTINUOUS
370
50
 62
4
100
AcDbLine
 10
6.998571
 20
-2.911152
 30
0.0
 11
7.0
 21
-2.911145
 31
0.0
  0
LINE
  5
9E6
330
1F
100
AcDbEntity
  8
1
  6
CONTINUOUS
370
50
 62
4
100
AcDbLine
 10
6.994286
 20
-2.911172
 30
0.0
 11
6.995714
 21
-2.911165
 31
0.0
  0
LINE
  5
9E7
330
1F
100
AcDbEntity
  8
1
  6
CONTINUOUS
370
50
 62
4
100
AcDbLine
 10
6.571129
 20
-2.91326
 30
0.0
 11
6.710754
 21
-2.91257
 31
0.0
  0
LINE
  5
9E8
330
1F
100
AcDbEntity
  8
1
  6
CONTINUOUS
370
50
 62
4
100
AcDbLine
 10
6.431505
 20
-2.913964
 30
0.0
 11
6.571129
 21
-2.91326
 31
0.0
  0
LINE
  5
9E9
330
1F
100
AcDbEntity
  8
1
  6
CONTINUOUS
370
50
 62
4
100
AcDbLine
 10
6.291882999999999
 20
-2.914685
 30
0.0
 11
6.431505
 21
-2.913964
 31
0.0
  0
LINE
  5
9EA
330
1F
100
AcDbEntity
  8
1
  6
CONTINUOUS
370
50
 62
4
100
AcDbLine
 10
6.152266
 20
-2.91542
 30
0.0
 11
6.291882999999999
 21
-2.914685
 31
0.0
  0
LINE
  5
9EB
330
1F
100
AcDbEntity
  8
1
  6
CONTINUOUS
370
50
 62
4
100
AcDbLine
 10
6.012653999999999
 20
-2.916169
 30
0.0
 11
6.152266
 21
-2.91542
 31
0.0
  0
LINE
  5
9EC
330
1F
100
AcDbEntity
  8
1
  6
CONTINUOUS
370
50
 62
4
100
AcDbLine
 10
19.134592
 20
2.911383
 30
0.0
 11
19.182381
 21
2.911693
 31
0.0
  0
LINE
  5
9ED
330
1F
100
AcDbEntity
  8
1
  6
CONTINUOUS
370
50
 62
4
100
AcDbLine
 10
5.018939
 20
-2.999949
 30
0.0
 11
5.019051
 21
-2.999948
 31
0.0
  0
LINE
  5
9EE
330
1F
100
AcDbEntity
  8
1
  6
CONTINUOUS
370
50
 62
4
100
AcDbLine
 10
5.96129
 20
-2.916658
 30
0.0
 11
6.012653999999999
 21
-2.916169
 31
0.0
  0
LINE
  5
9EF
330
1F
100
AcDbEntity
  8
1
  6
CONTINUOUS
370
50
 62
4
100
AcDbLine
 10
7.759234999999999
 20
2.997526
 30
0.0
 11
7.91939
 21
2.999903
 31
0.0
  0
LINE
  5
9F0
330
1F
100
AcDbEntity
  8
1
  6
CONTINUOUS
370
50
 62
4
100
AcDbLine
 10
13.6497
 20
2.251348
 30
0.0
 11
14.02545
 21
2.257674
 31
0.0
  0
LINE
  5
9F1
330
1F
100
AcDbEntity
  8
1
  6
CONTINUOUS
370
50
 62
4
100
AcDbLine
 10
5.909974
 20
-2.917559
 30
0.0
 11
5.96129
 21
-2.916658
 31
0.0
  0
LINE
  5
9F2
330
1F
100
AcDbEntity
  8
1
  6
CONTINUOUS
370
50
 62
4
100
AcDbLine
 10
19.166143
 20
-2.756709
 30
0.0
 11
19.197302
 21
-2.756145
 31
0.0
  0
LINE
  5
9F3
330
1F
100
AcDbEntity
  8
1
  6
CONTINUOUS
370
50
 62
4
100
AcDbLine
 10
6.991428
 20
0.7241569999999999
 30
0.0
 11
6.992857
 21
0.724183
 31
0.0
  0
LINE
  5
9F4
330
1F
100
AcDbEntity
  8
1
  6
CONTINUOUS
370
50
 62
4
100
AcDbLine
 10
6.995714
 20
0.724237
 30
0.0
 11
6.997142999999999
 21
0.724263
 31
0.0
  0
LINE
  5
9F5
330
1F
100
AcDbEntity
  8
1
  6
CONTINUOUS
370
50
 62
4
100
AcDbLine
 10
6.992857
 20
0.724183
 30
0.0
 11
6.994286
 21
0.72421
 31
0.0
  0
LINE
  5
9F6
330
1F
100
AcDbEntity
  8
1
  6
CONTINUOUS
370
50
 62
4
100
AcDbLine
 10
6.998571
 20
0.72429
 30
0.0
 11
7.0
 21
0.724317
 31
0.0
  0
LINE
  5
9F7
330
1F
100
AcDbEntity
  8
1
  6
CONTINUOUS
370
50
 62
4
100
AcDbLine
 10
6.989999999999999
 20
0.7241299999999999
 30
0.0
 11
6.991428
 21
0.7241569999999999
 31
0.0
  0
LINE
  5
9F8
330
1F
100
AcDbEntity
  8
1
  6
CONTINUOUS
370
50
 62
4
100
AcDbLine
 10
6.994286
 20
0.72421
 30
0.0
 11
6.995714
 21
0.724237
 31
0.0
  0
LINE
  5
9F9
330
1F
100
AcDbEntity
  8
1
  6
CONTINUOUS
370
50
 62
4
100
AcDbLine
 10
6.997142999999999
 20
0.724263
 30
0.0
 11
6.998571
 21
0.72429
 31
0.0
  0
LINE
  5
9FA
330
1F
100
AcDbEntity
  8
1
  6
CONTINUOUS
370
50
 62
4
100
AcDbLine
 10
6.850378
 20
0.7214959999999999
 30
0.0
 11
6.989999999999999
 21
0.724142
 31
0.0
  0
LINE
  5
9FB
330
1F
100
AcDbEntity
  8
1
  6
CONTINUOUS
370
50
 62
4
100
AcDbLine
 10
6.710754
 20
0.718773
 30
0.0
 11
6.850378
 21
0.7214959999999999
 31
0.0
  0
LINE
  5
9FC
330
1F
100
AcDbEntity
  8
1
  6
CONTINUOUS
370
50
 62
4
100
AcDbLine
 10
6.571129
 20
0.7159749999999999
 30
0.0
 11
6.710754
 21
0.718773
 31
0.0
  0
LINE
  5
9FD
330
1F
100
AcDbEntity
  8
1
  6
CONTINUOUS
370
50
 62
4
100
AcDbLine
 10
6.431505
 20
0.7131
 30
0.0
 11
6.571129
 21
0.7159749999999999
 31
0.0
  0
LINE
  5
9FE
330
1F
100
AcDbEntity
  8
1
  6
CONTINUOUS
370
50
 62
4
100
AcDbLine
 10
6.291882999999999
 20
0.710151
 30
0.0
 11
6.431505
 21
0.7131
 31
0.0
  0
LINE
  5
9FF
330
1F
100
AcDbEntity
  8
1
  6
CONTINUOUS
370
50
 62
4
100
AcDbLine
 10
6.152266
 20
0.707127
 30
0.0
 11
6.291882999999999
 21
0.710151
 31
0.0
  0
LINE
  5
A00
330
1F
100
AcDbEntity
  8
1
  6
CONTINUOUS
370
50
 62
4
100
AcDbLine
 10
6.012653999999999
 20
0.704029
 30
0.0
 11
6.152266
 21
0.707127
 31
0.0
  0
LINE
  5
A01
330
1F
100
AcDbEntity
  8
1
  6
CONTINUOUS
370
50
 62
4
100
AcDbLine
 10
19.199835
 20
2.480672
 30
0.0
 11
19.259773
 21
2.482145
 31
0.0
  0
LINE
  5
A02
330
1F
100
AcDbEntity
  8
1
  6
CONTINUOUS
370
50
 62
4
100
AcDbLine
 10
19.259773
 20
2.482145
 30
0.0
 11
19.316795
 21
2.483577
 31
0.0
  0
LINE
  5
A03
330
1F
100
AcDbEntity
  8
1
  6
CONTINUOUS
370
50
 62
4
100
AcDbLine
 10
5.858802
 20
-2.918864
 30
0.0
 11
5.909974
 21
-2.917559
 31
0.0
  0
LINE
  5
A04
330
1F
100
AcDbEntity
  8
1
  6
CONTINUOUS
370
50
 62
4
100
AcDbLine
 10
19.137018
 20
2.479024
 30
0.0
 11
19.199835
 21
2.480672
 31
0.0
  0
LINE
  5
A05
330
1F
100
AcDbEntity
  8
1
  6
CONTINUOUS
370
50
 62
4
100
AcDbLine
 10
19.316795
 20
2.483577
 30
0.0
 11
19.370859
 21
2.485101
 31
0.0
  0
LINE
  5
A06
330
1F
100
AcDbEntity
  8
1
  6
CONTINUOUS
370
50
 62
4
100
AcDbLine
 10
19.07136
 20
2.477067
 30
0.0
 11
19.137018
 21
2.479024
 31
0.0
  0
LINE
  5
A07
330
1F
100
AcDbEntity
  8
1
  6
CONTINUOUS
370
50
 62
4
100
AcDbLine
 10
8.57624
 20
-2.999831
 30
0.0
 11
8.847169
 21
-2.991349
 31
0.0
  0
LINE
  5
A08
330
1F
100
AcDbEntity
  8
1
  6
CONTINUOUS
370
50
 62
4
100
AcDbLine
 10
14.568377
 20
-2.999995
 30
0.0
 11
14.908572
 21
-2.989205
 31
0.0
  0
LINE
  5
A09
330
1F
100
AcDbEntity
  8
1
  6
CONTINUOUS
370
50
 62
4
100
AcDbLine
 10
5.807869999999999
 20
-2.920561
 30
0.0
 11
5.858802
 21
-2.918864
 31
0.0
  0
LINE
  5
A0A
330
1F
100
AcDbEntity
  8
1
  6
CONTINUOUS
370
50
 62
4
100
AcDbLine
 10
19.370859
 20
2.485101
 30
0.0
 11
19.423471
 21
2.486911
 31
0.0
  0
LINE
  5
A0B
330
1F
100
AcDbEntity
  8
1
  6
CONTINUOUS
370
50
 62
4
100
AcDbLine
 10
19.004835
 20
2.474743
 30
0.0
 11
19.07136
 21
2.477067
 31
0.0
  0
LINE
  5
A0C
330
1F
100
AcDbEntity
  8
1
  6
CONTINUOUS
370
50
 62
4
100
AcDbLine
 10
5.962458
 20
0.702083
 30
0.0
 11
6.012653999999999
 21
0.704029
 31
0.0
  0
LINE
  5
A0D
330
1F
100
AcDbEntity
  8
1
  6
CONTINUOUS
370
50
 62
4
100
AcDbLine
 10
13.579302
 20
2.985448
 30
0.0
 11
13.950247
 21
2.999956
 31
0.0
  0
LINE
  5
A0E
330
1F
100
AcDbEntity
  8
1
  6
CONTINUOUS
370
50
 62
4
100
AcDbLine
 10
5.757276
 20
-2.92264
 30
0.0
 11
5.807869999999999
 21
-2.920561
 31
0.0
  0
LINE
  5
A0F
330
1F
100
AcDbEntity
  8
1
  6
CONTINUOUS
370
50
 62
4
100
AcDbLine
 10
18.939415
 20
2.472048
 30
0.0
 11
19.004835
 21
2.474743
 31
0.0
  0
LINE
  5
A10
330
1F
100
AcDbEntity
  8
1
  6
CONTINUOUS
370
50
 62
4
100
AcDbLine
 10
19.5105
 20
1.059109
 30
0.0
 11
19.538786
 21
1.060295
 31
0.0
  0
LINE
  5
A11
330
1F
100
AcDbEntity
  8
1
  6
CONTINUOUS
370
50
 62
4
100
AcDbLine
 10
19.423471
 20
2.486911
 30
0.0
 11
19.47687
 21
2.489313
 31
0.0
  0
LINE
  5
A12
330
1F
100
AcDbEntity
  8
1
  6
CONTINUOUS
370
50
 62
4
100
AcDbLine
 10
7.601934
 20
2.989942
 30
0.0
 11
7.759234999999999
 21
2.997526
 31
0.0
  0
LINE
  5
A13
330
1F
100
AcDbEntity
  8
1
  6
CONTINUOUS
370
50
 62
4
100
AcDbLine
 10
18.874626
 20
2.468915
 30
0.0
 11
18.939415
 21
2.472048
 31
0.0
  0
LINE
  5
A14
330
1F
100
AcDbEntity
  8
1
  6
CONTINUOUS
370
50
 62
4
100
AcDbLine
 10
5.707115
 20
-2.925092
 30
0.0
 11
5.757276
 21
-2.92264
 31
0.0
  0
LINE
  5
A15
330
1F
100
AcDbEntity
  8
1
  6
CONTINUOUS
370
50
 62
4
100
AcDbLine
 10
19.182381
 20
-2.911693
 30
0.0
 11
19.229862
 21
-2.90919
 31
0.0
  0
LINE
  5
A16
330
1F
100
AcDbEntity
  8
1
  6
CONTINUOUS
370
50
 62
4
100
AcDbLine
 10
18.809992
 20
2.465276
 30
0.0
 11
18.874626
 21
2.468915
 31
0.0
  0
LINE
  5
A17
330
1F
100
AcDbEntity
  8
1
  6
CONTINUOUS
370
50
 62
4
100
AcDbLine
 10
5.65741
 20
-2.927909
 30
0.0
 11
5.707115
 21
-2.925092
 31
0.0
  0
LINE
  5
A18
330
1F
100
AcDbEntity
  8
1
  6
CONTINUOUS
370
50
 62
4
100
AcDbLine
 10
7.366726
 20
2.234893
 30
0.0
 11
7.733466
 21
2.255987
 31
0.0
  0
LINE
  5
A19
330
1F
100
AcDbEntity
  8
1
  6
CONTINUOUS
370
50
 62
4
100
AcDbLine
 10
19.47687
 20
2.489313
 30
0.0
 11
19.529507
 21
2.49257
 31
0.0
  0
LINE
  5
A1A
330
1F
100
AcDbEntity
  8
1
  6
CONTINUOUS
370
50
 62
4
100
AcDbLine
 10
19.086561
 20
2.908293
 30
0.0
 11
19.134592
 21
2.911383
 31
0.0
  0
LINE
  5
A1B
330
1F
100
AcDbEntity
  8
1
  6
CONTINUOUS
370
50
 62
4
100
AcDbLine
 10
5.608105
 20
-2.931082
 30
0.0
 11
5.65741
 21
-2.927909
 31
0.0
  0
LINE
  5
A1C
330
1F
100
AcDbEntity
  8
1
  6
CONTINUOUS
370
50
 62
4
100
AcDbLine
 10
5.912305
 20
0.698495
 30
0.0
 11
5.962458
 21
0.702083
 31
0.0
  0
LINE
  5
A1D
330
1F
100
AcDbEntity
  8
1
  6
CONTINUOUS
370
50
 62
4
100
AcDbLine
 10
5.55936
 20
-2.934581
 30
0.0
 11
5.608105
 21
-2.931082
 31
0.0
  0
LINE
  5
A1E
330
1F
100
AcDbEntity
  8
1
  6
CONTINUOUS
370
50
 62
4
100
AcDbLine
 10
19.197302
 20
-2.756145
 30
0.0
 11
19.228815
 21
-2.753829
 31
0.0
  0
LINE
  5
A1F
330
1F
100
AcDbEntity
  8
1
  6
CONTINUOUS
370
50
 62
4
100
AcDbLine
 10
5.511348
 20
-2.938378
 30
0.0
 11
5.55936
 21
-2.934581
 31
0.0
  0
LINE
  5
A20
330
1F
100
AcDbEntity
  8
1
  6
CONTINUOUS
370
50
 62
4
100
AcDbLine
 10
13.273963
 20
2.221255
 30
0.0
 11
13.6497
 21
2.251348
 31
0.0
  0
LINE
  5
A21
330
1F
100
AcDbEntity
  8
1
  6
CONTINUOUS
370
50
 62
4
100
AcDbLine
 10
19.77846
 20
-2.390807
 30
0.0
 11
19.788172
 21
-2.390028
 31
0.0
  0
LINE
  5
A22
330
1F
100
AcDbEntity
  8
1
  6
CONTINUOUS
370
50
 62
4
100
AcDbLine
 10
7.449636
 20
2.977377
 30
0.0
 11
7.601934
 21
2.989942
 31
0.0
  0
LINE
  5
A23
330
1F
100
AcDbEntity
  8
1
  6
CONTINUOUS
370
50
 62
4
100
AcDbLine
 10
8.847169
 20
-2.991349
 30
0.0
 11
9.118212
 21
-2.96892
 31
0.0
  0
LINE
  5
A24
330
1F
100
AcDbEntity
  8
1
  6
CONTINUOUS
370
50
 62
4
100
AcDbLine
 10
5.464240999999999
 20
-2.942443
 30
0.0
 11
5.511348
 21
-2.938378
 31
0.0
  0
LINE
  5
A25
330
1F
100
AcDbEntity
  8
1
  6
CONTINUOUS
370
50
 62
4
100
AcDbLine
 10
19.529507
 20
2.49257
 30
0.0
 11
19.582001
 21
2.497187
 31
0.0
  0
LINE
  5
A26
330
1F
100
AcDbEntity
  8
1
  6
CONTINUOUS
370
50
 62
4
100
AcDbLine
 10
19.538786
 20
1.060295
 30
0.0
 11
19.566086
 21
1.062722
 31
0.0
  0
LINE
  5
A27
330
1F
100
AcDbEntity
  8
1
  6
CONTINUOUS
370
50
 62
4
100
AcDbLine
 10
5.418209
 20
-2.946745
 30
0.0
 11
5.464240999999999
 21
-2.942443
 31
0.0
  0
LINE
  5
A28
330
1F
100
AcDbEntity
  8
1
  6
CONTINUOUS
370
50
 62
4
100
AcDbLine
 10
5.019051
 20
-2.999948
 30
0.0
 11
5.021128
 21
-2.999753
 31
0.0
  0
LINE
  5
A29
330
1F
100
AcDbEntity
  8
1
  6
CONTINUOUS
370
50
 62
4
100
AcDbLine
 10
14.908572
 20
-2.989205
 30
0.0
 11
15.249635
 21
-2.956386
 31
0.0
  0
LINE
  5
A2A
330
1F
100
AcDbEntity
  8
1
  6
CONTINUOUS
370
50
 62
4
100
AcDbLine
 10
18.825974
 20
-0.113702
 30
0.0
 11
19.985092
 21
-0.000479
 31
0.0
  0
LINE
  5
A2B
330
1F
100
AcDbEntity
  8
1
  6
CONTINUOUS
370
50
 62
4
100
AcDbLine
 10
5.373329
 20
-2.951265
 30
0.0
 11
5.418209
 21
-2.946745
 31
0.0
  0
LINE
  5
A2C
330
1F
100
AcDbEntity
  8
1
  6
CONTINUOUS
370
50
 62
4
100
AcDbLine
 10
5.862285
 20
0.693256
 30
0.0
 11
5.912305
 21
0.698495
 31
0.0
  0
LINE
  5
A2D
330
1F
100
AcDbEntity
  8
1
  6
CONTINUOUS
370
50
 62
4
100
AcDbLine
 10
5.329611
 20
-2.955978
 30
0.0
 11
5.373329
 21
-2.951265
 31
0.0
  0
LINE
  5
A2E
330
1F
100
AcDbEntity
  8
1
  6
CONTINUOUS
370
50
 62
4
100
AcDbLine
 10
19.229862
 20
-2.90919
 30
0.0
 11
19.276976
 21
-2.903842
 31
0.0
  0
LINE
  5
A2F
330
1F
100
AcDbEntity
  8
1
  6
CONTINUOUS
370
50
 62
4
100
AcDbLine
 10
5.287361
 20
-2.960819
 30
0.0
 11
5.329611
 21
-2.955978
 31
0.0
  0
LINE
  5
A30
330
1F
100
AcDbEntity
  8
1
  6
CONTINUOUS
370
50
 62
4
100
AcDbLine
 10
7.300114
 20
2.959811
 30
0.0
 11
7.449636
 21
2.977377
 31
0.0
  0
LINE
  5
A31
330
1F
100
AcDbEntity
  8
1
  6
CONTINUOUS
370
50
 62
4
100
AcDbLine
 10
7.0
 20
2.191018
 30
0.0
 11
7.366726
 21
2.234893
 31
0.0
  0
LINE
  5
A32
330
1F
100
AcDbEntity
  8
1
  6
CONTINUOUS
370
50
 62
4
100
AcDbLine
 10
19.038343
 20
2.902452
 30
0.0
 11
19.086561
 21
2.908293
 31
0.0
  0
LINE
  5
A33
330
1F
100
AcDbEntity
  8
1
  6
CONTINUOUS
370
50
 62
4
100
AcDbLine
 10
5.246899
 20
-2.965722
 30
0.0
 11
5.287361
 21
-2.960819
 31
0.0
  0
LINE
  5
A34
330
1F
100
AcDbEntity
  8
1
  6
CONTINUOUS
370
50
 62
4
100
AcDbLine
 10
13.215235
 20
2.941129
 30
0.0
 11
13.579302
 21
2.985448
 31
0.0
  0
LINE
  5
A35
330
1F
100
AcDbEntity
  8
1
  6
CONTINUOUS
370
50
 62
4
100
AcDbLine
 10
5.208546999999999
 20
-2.97062
 30
0.0
 11
5.246899
 21
-2.965722
 31
0.0
  0
LINE
  5
A36
330
1F
100
AcDbEntity
  8
1
  6
CONTINUOUS
370
50
 62
4
100
AcDbLine
 10
19.582001
 20
2.497187
 30
0.0
 11
19.634499
 21
2.503934
 31
0.0
  0
LINE
  5
A37
330
1F
100
AcDbEntity
  8
1
  6
CONTINUOUS
370
50
 62
4
100
AcDbLine
 10
19.228815
 20
-2.753829
 30
0.0
 11
19.260651
 21
-2.749691
 31
0.0
  0
LINE
  5
A38
330
1F
100
AcDbEntity
  8
1
  6
CONTINUOUS
370
50
 62
4
100
AcDbLine
 10
5.021128
 20
-2.999753
 30
0.0
 11
5.025105
 21
-2.999228
 31
0.0
  0
LINE
  5
A39
330
1F
100
AcDbEntity
  8
1
  6
CONTINUOUS
370
50
 62
4
100
AcDbLine
 10
5.05839
 20
-2.994031
 30
0.0
 11
5.070784
 21
-2.99237
 31
0.0
  0
LINE
  5
A3A
330
1F
100
AcDbEntity
  8
1
  6
CONTINUOUS
370
50
 62
4
100
AcDbLine
 10
5.172623
 20
-2.975448
 30
0.0
 11
5.208546999999999
 21
-2.97062
 31
0.0
  0
LINE
  5
A3B
330
1F
100
AcDbEntity
  8
1
  6
CONTINUOUS
370
50
 62
4
100
AcDbLine
 10
9.118212
 20
-2.96892
 30
0.0
 11
9.387936
 21
-2.932542
 31
0.0
  0
LINE
  5
A3C
330
1F
100
AcDbEntity
  8
1
  6
CONTINUOUS
370
50
 62
4
100
AcDbLine
 10
19.566086
 20
1.062722
 30
0.0
 11
19.592394
 21
1.066285
 31
0.0
  0
LINE
  5
A3D
330
1F
100
AcDbEntity
  8
1
  6
CONTINUOUS
370
50
 62
4
100
AcDbLine
 10
12.898237
 20
2.169681
 30
0.0
 11
13.273963
 21
2.221255
 31
0.0
  0
LINE
  5
A3E
330
1F
100
AcDbEntity
  8
1
  6
CONTINUOUS
370
50
 62
4
100
AcDbLine
 10
5.812488999999999
 20
0.686358
 30
0.0
 11
5.862285
 21
0.693256
 31
0.0
  0
LINE
  5
A3F
330
1F
100
AcDbEntity
  8
1
  6
CONTINUOUS
370
50
 62
4
100
AcDbLine
 10
5.139489999999999
 20
-2.980122
 30
0.0
 11
5.172623
 21
-2.975448
 31
0.0
  0
LINE
  5
A40
330
1F
100
AcDbEntity
  8
1
  6
CONTINUOUS
370
50
 62
4
100
AcDbLine
 10
5.025105
 20
-2.999228
 30
0.0
 11
5.030902
 21
-2.998383
 31
0.0
  0
LINE
  5
A41
330
1F
100
AcDbEntity
  8
1
  6
CONTINUOUS
370
50
 62
4
100
AcDbLine
 10
5.109546
 20
-2.984541
 30
0.0
 11
5.139489999999999
 21
-2.980122
 31
0.0
  0
LINE
  5
A42
330
1F
100
AcDbEntity
  8
1
  6
CONTINUOUS
370
50
 62
4
100
AcDbLine
 10
5.070784
 20
-2.99237
 30
0.0
 11
5.08311
 21
-2.990503
 31
0.0
  0
LINE
  5
A43
330
1F
100
AcDbEntity
  8
1
  6
CONTINUOUS
370
50
 62
4
100
AcDbLine
 10
7.151019
 20
2.937216
 30
0.0
 11
7.300114
 21
2.959811
 31
0.0
  0
LINE
  5
A44
330
1F
100
AcDbEntity
  8
1
  6
CONTINUOUS
370
50
 62
4
100
AcDbLine
 10
5.030902
 20
-2.998383
 30
0.0
 11
5.038436
 21
-2.997228
 31
0.0
  0
LINE
  5
A45
330
1F
100
AcDbEntity
  8
1
  6
CONTINUOUS
370
50
 62
4
100
AcDbLine
 10
5.083177
 20
-2.988605
 30
0.0
 11
5.109546
 21
-2.984541
 31
0.0
  0
LINE
  5
A46
330
1F
100
AcDbEntity
  8
1
  6
CONTINUOUS
370
50
 62
4
100
AcDbLine
 10
5.038436
 20
-2.997228
 30
0.0
 11
5.047626
 21
-2.995774
 31
0.0
  0
LINE
  5
A47
330
1F
100
AcDbEntity
  8
1
  6
CONTINUOUS
370
50
 62
4
100
AcDbLine
 10
19.788172
 20
-2.390028
 30
0.0
 11
19.797812
 21
-2.3885
 31
0.0
  0
LINE
  5
A48
330
1F
100
AcDbEntity
  8
1
  6
CONTINUOUS
370
50
 62
4
100
AcDbLine
 10
5.060766
 20
-2.992212
 30
0.0
 11
5.083177
 21
-2.988605
 31
0.0
  0
LINE
  5
A49
330
1F
100
AcDbEntity
  8
1
  6
CONTINUOUS
370
50
 62
4
100
AcDbLine
 10
15.249635
 20
-2.956386
 30
0.0
 11
15.588919
 21
-2.901749
 31
0.0
  0
LINE
  5
A4A
330
1F
100
AcDbEntity
  8
1
  6
CONTINUOUS
370
50
 62
4
100
AcDbLine
 10
5.047626
 20
-2.995774
 30
0.0
 11
5.05839
 21
-2.994031
 31
0.0
  0
LINE
  5
A4B
330
1F
100
AcDbEntity
  8
1
  6
CONTINUOUS
370
50
 62
4
100
AcDbLine
 10
5.042841
 20
-2.995236
 30
0.0
 11
5.060766
 21
-2.992212
 31
0.0
  0
LINE
  5
A4C
330
1F
100
AcDbEntity
  8
1
  6
CONTINUOUS
370
50
 62
4
100
AcDbLine
 10
5.08311
 20
-2.990503
 30
0.0
 11
5.095371999999999
 21
-2.988431
 31
0.0
  0
LINE
  5
A4D
330
1F
100
AcDbEntity
  8
1
  6
CONTINUOUS
370
50
 62
4
100
AcDbLine
 10
18.78689
 20
2.14564
 30
0.0
 11
18.910063
 21
2.166845
 31
0.0
  0
LINE
  5
A4E
330
1F
100
AcDbEntity
  8
1
  6
CONTINUOUS
370
50
 62
4
100
AcDbLine
 10
5.763007
 20
0.677792
 30
0.0
 11
5.812488999999999
 21
0.686358
 31
0.0
  0
LINE
  5
A4F
330
1F
100
AcDbEntity
  8
1
  6
CONTINUOUS
370
50
 62
4
100
AcDbLine
 10
19.276976
 20
-2.903842
 30
0.0
 11
19.323647
 21
-2.895616
 31
0.0
  0
LINE
  5
A50
330
1F
100
AcDbEntity
  8
1
  6
CONTINUOUS
370
50
 62
4
100
AcDbLine
 10
18.99
 20
2.893892
 30
0.0
 11
19.038343
 21
2.902452
 31
0.0
  0
LINE
  5
A51
330
1F
100
AcDbEntity
  8
1
  6
CONTINUOUS
370
50
 62
4
100
AcDbLine
 10
5.029809
 20
-2.99756
 30
0.0
 11
5.042841
 21
-2.995236
 31
0.0
  0
LINE
  5
A52
330
1F
100
AcDbEntity
  8
1
  6
CONTINUOUS
370
50
 62
4
100
AcDbLine
 10
19.592394
 20
1.066285
 30
0.0
 11
19.617701
 21
1.070878
 31
0.0
  0
LINE
  5
A53
330
1F
100
AcDbEntity
  8
1
  6
CONTINUOUS
370
50
 62
4
100
AcDbLine
 10
7.0
 20
2.909563
 30
0.0
 11
7.151019
 21
2.937216
 31
0.0
  0
LINE
  5
A54
330
1F
100
AcDbEntity
  8
1
  6
CONTINUOUS
370
50
 62
4
100
AcDbLine
 10
5.095371999999999
 20
-2.988431
 30
0.0
 11
5.107572999999999
 21
-2.986152
 31
0.0
  0
LINE
  5
A55
330
1F
100
AcDbEntity
  8
1
  6
CONTINUOUS
370
50
 62
4
100
AcDbLine
 10
12.522513
 20
2.099182
 30
0.0
 11
12.898237
 21
2.169681
 31
0.0
  0
LINE
  5
A56
330
1F
100
AcDbEntity
  8
1
  6
CONTINUOUS
370
50
 62
4
100
AcDbLine
 10
19.260651
 20
-2.749691
 30
0.0
 11
19.292782
 21
-2.743662
 31
0.0
  0
LINE
  5
A57
330
1F
100
AcDbEntity
  8
1
  6
CONTINUOUS
370
50
 62
4
100
AcDbLine
 10
18.663715
 20
2.122462
 30
0.0
 11
18.78689
 21
2.14564
 31
0.0
  0
LINE
  5
A58
330
1F
100
AcDbEntity
  8
1
  6
CONTINUOUS
370
50
 62
4
100
AcDbLine
 10
9.387936
 20
-2.932542
 30
0.0
 11
9.655128999999999
 21
-2.882164
 31
0.0
  0
LINE
  5
A59
330
1F
100
AcDbEntity
  8
1
  6
CONTINUOUS
370
50
 62
4
100
AcDbLine
 10
19.634499
 20
2.503934
 30
0.0
 11
19.684975
 21
2.513576
 31
0.0
  0
LINE
  5
A5A
330
1F
100
AcDbEntity
  8
1
  6
CONTINUOUS
370
50
 62
4
100
AcDbLine
 10
5.021755
 20
-2.999129
 30
0.0
 11
5.029809
 21
-2.99756
 31
0.0
  0
LINE
  5
A5B
330
1F
100
AcDbEntity
  8
1
  6
CONTINUOUS
370
50
 62
4
100
AcDbLine
 10
12.836802
 20
2.867313
 30
0.0
 11
13.215235
 21
2.941129
 31
0.0
  0
LINE
  5
A5C
330
1F
100
AcDbEntity
  8
1
  6
CONTINUOUS
370
50
 62
4
100
AcDbLine
 10
18.540541
 20
2.097375
 30
0.0
 11
18.663715
 21
2.122462
 31
0.0
  0
LINE
  5
A5D
330
1F
100
AcDbEntity
  8
1
  6
CONTINUOUS
370
50
 62
4
100
AcDbLine
 10
5.107572999999999
 20
-2.986152
 30
0.0
 11
5.119713
 21
-2.983667
 31
0.0
  0
LINE
  5
A5E
330
1F
100
AcDbEntity
  8
1
  6
CONTINUOUS
370
50
 62
4
100
AcDbLine
 10
5.713927
 20
0.667551
 30
0.0
 11
5.763007
 21
0.677792
 31
0.0
  0
LINE
  5
A5F
330
1F
100
AcDbEntity
  8
1
  6
CONTINUOUS
370
50
 62
4
100
AcDbLine
 10
18.417364
 20
2.07041
 30
0.0
 11
18.540541
 21
2.097375
 31
0.0
  0
LINE
  5
A60
330
1F
100
AcDbEntity
  8
1
  6
CONTINUOUS
370
50
 62
4
100
AcDbLine
 10
5.119713
 20
-2.983667
 30
0.0
 11
5.131796
 21
-2.980975
 31
0.0
  0
LINE
  5
A61
330
1F
100
AcDbEntity
  8
1
  6
CONTINUOUS
370
50
 62
4
100
AcDbLine
 10
19.617701
 20
1.070878
 30
0.0
 11
19.642179
 21
1.076448
 31
0.0
  0
LINE
  5
A62
330
1F
100
AcDbEntity
  8
1
  6
CONTINUOUS
370
50
 62
4
100
AcDbLine
 10
15.588919
 20
-2.901749
 30
0.0
 11
15.923602
 21
-2.825554
 31
0.0
  0
LINE
  5
A63
330
1F
100
AcDbEntity
  8
1
  6
CONTINUOUS
370
50
 62
4
100
AcDbLine
 10
18.714352
 20
2.830731
 30
0.0
 11
18.99
 21
2.893892
 31
0.0
  0
LINE
  5
A64
330
1F
100
AcDbEntity
  8
1
  6
CONTINUOUS
370
50
 62
4
100
AcDbLine
 10
18.294186
 20
2.041542
 30
0.0
 11
18.417364
 21
2.07041
 31
0.0
  0
LINE
  5
A65
330
1F
100
AcDbEntity
  8
1
  6
CONTINUOUS
370
50
 62
4
100
AcDbLine
 10
12.146783
 20
2.010904
 30
0.0
 11
12.522513
 21
2.099182
 31
0.0
  0
LINE
  5
A66
330
1F
100
AcDbEntity
  8
1
  6
CONTINUOUS
370
50
 62
4
100
AcDbLine
 10
19.797812
 20
-2.3885
 30
0.0
 11
19.807358
 21
-2.386227
 31
0.0
  0
LINE
  5
A67
330
1F
100
AcDbEntity
  8
1
  6
CONTINUOUS
370
50
 62
4
100
AcDbLine
 10
19.323647
 20
-2.895616
 30
0.0
 11
19.369799
 21
-2.884481
 31
0.0
  0
LINE
  5
A68
330
1F
100
AcDbEntity
  8
1
  6
CONTINUOUS
370
50
 62
4
100
AcDbLine
 10
9.655128999999999
 20
-2.882164
 30
0.0
 11
9.920207999999999
 21
-2.817347
 31
0.0
  0
LINE
  5
A69
330
1F
100
AcDbEntity
  8
1
  6
CONTINUOUS
370
50
 62
4
100
AcDbLine
 10
5.665296
 20
0.655613
 30
0.0
 11
5.713927
 21
0.667551
 31
0.0
  0
LINE
  5
A6A
330
1F
100
AcDbEntity
  8
1
  6
CONTINUOUS
370
50
 62
4
100
AcDbLine
 10
19.292782
 20
-2.743662
 30
0.0
 11
19.325146
 21
-2.735683
 31
0.0
  0
LINE
  5
A6B
330
1F
100
AcDbEntity
  8
1
  6
CONTINUOUS
370
50
 62
4
100
AcDbLine
 10
18.171007
 20
2.010743
 30
0.0
 11
18.294186
 21
2.041542
 31
0.0
  0
LINE
  5
A6C
330
1F
100
AcDbEntity
  8
1
  6
CONTINUOUS
370
50
 62
4
100
AcDbLine
 10
5.018765999999999
 20
-2.999886
 30
0.0
 11
5.021755
 21
-2.999129
 31
0.0
  0
LINE
  5
A6D
330
1F
100
AcDbEntity
  8
1
  6
CONTINUOUS
370
50
 62
4
100
AcDbLine
 10
12.453349
 20
2.766501
 30
0.0
 11
12.836802
 21
2.867313
 31
0.0
  0
LINE
  5
A6E
330
1F
100
AcDbEntity
  8
1
  6
CONTINUOUS
370
50
 62
4
100
AcDbLine
 10
19.684975
 20
2.513576
 30
0.0
 11
19.726919
 21
2.525086
 31
0.0
  0
LINE
  5
A6F
330
1F
100
AcDbEntity
  8
1
  6
CONTINUOUS
370
50
 62
4
100
AcDbLine
 10
19.642179
 20
1.076448
 30
0.0
 11
19.666338
 21
1.083079
 31
0.0
  0
LINE
  5
A70
330
1F
100
AcDbEntity
  8
1
  6
CONTINUOUS
370
50
 62
4
100
AcDbLine
 10
18.436893
 20
2.753935
 30
0.0
 11
18.714352
 21
2.830731
 31
0.0
  0
LINE
  5
A71
330
1F
100
AcDbEntity
  8
1
  6
CONTINUOUS
370
50
 62
4
100
AcDbLine
 10
5.617033999999999
 20
0.641905
 30
0.0
 11
5.665296
 21
0.655613
 31
0.0
  0
LINE
  5
A72
330
1F
100
AcDbEntity
  8
1
  6
CONTINUOUS
370
50
 62
4
100
AcDbLine
 10
15.923602
 20
-2.825554
 30
0.0
 11
16.230133
 21
-2.734915
 31
0.0
  0
LINE
  5
A73
330
1F
100
AcDbEntity
  8
1
  6
CONTINUOUS
370
50
 62
4
100
AcDbLine
 10
9.920207999999999
 20
-2.817347
 30
0.0
 11
10.182974
 21
-2.737667
 31
0.0
  0
LINE
  5
A74
330
1F
100
AcDbEntity
  8
1
  6
CONTINUOUS
370
50
 62
4
100
AcDbLine
 10
19.325146
 20
-2.735683
 30
0.0
 11
19.357267
 21
-2.72583
 31
0.0
  0
LINE
  5
A75
330
1F
100
AcDbEntity
  8
1
  6
CONTINUOUS
370
50
 62
4
100
AcDbLine
 10
19.369799
 20
-2.884481
 30
0.0
 11
19.415346
 21
-2.870407
 31
0.0
  0
LINE
  5
A76
330
1F
100
AcDbEntity
  8
1
  6
CONTINUOUS
370
50
 62
4
100
AcDbLine
 10
19.807358
 20
-2.386227
 30
0.0
 11
19.816784
 21
-2.383212
 31
0.0
  0
LINE
  5
A77
330
1F
100
AcDbEntity
  8
1
  6
CONTINUOUS
370
50
 62
4
100
AcDbLine
 10
19.666338
 20
1.083079
 30
0.0
 11
19.690153
 21
1.090752
 31
0.0
  0
LINE
  5
A78
330
1F
100
AcDbEntity
  8
1
  6
CONTINUOUS
370
50
 62
4
100
AcDbLine
 10
18.159134
 20
2.66403
 30
0.0
 11
18.436893
 21
2.753935
 31
0.0
  0
LINE
  5
A79
330
1F
100
AcDbEntity
  8
1
  6
CONTINUOUS
370
50
 62
4
100
AcDbLine
 10
5.569279
 20
0.6263909999999999
 30
0.0
 11
5.617033999999999
 21
0.641905
 31
0.0
  0
LINE
  5
A7A
330
1F
100
AcDbEntity
  8
1
  6
CONTINUOUS
370
50
 62
4
100
AcDbLine
 10
12.06841
 20
2.64056
 30
0.0
 11
12.453349
 21
2.766501
 31
0.0
  0
LINE
  5
A7B
330
1F
100
AcDbEntity
  8
1
  6
CONTINUOUS
370
50
 62
4
100
AcDbLine
 10
16.230133
 20
-2.734915
 30
0.0
 11
16.495317
 21
-2.639426
 31
0.0
  0
LINE
  5
A7C
330
1F
100
AcDbEntity
  8
1
  6
CONTINUOUS
370
50
 62
4
100
AcDbLine
 10
10.182974
 20
-2.737667
 30
0.0
 11
10.451731
 21
-2.639558
 31
0.0
  0
LINE
  5
A7D
330
1F
100
AcDbEntity
  8
1
  6
CONTINUOUS
370
50
 62
4
100
AcDbLine
 10
19.357267
 20
-2.72583
 30
0.0
 11
19.388971
 21
-2.714156
 31
0.0
  0
LINE
  5
A7E
330
1F
100
AcDbEntity
  8
1
  6
CONTINUOUS
370
50
 62
4
100
AcDbLine
 10
5.522189
 20
0.609043
 30
0.0
 11
5.569279
 21
0.6263909999999999
 31
0.0
  0
LINE
  5
A7F
330
1F
100
AcDbEntity
  8
1
  6
CONTINUOUS
370
50
 62
4
100
AcDbLine
 10
17.88212
 20
2.561338
 30
0.0
 11
18.159134
 21
2.66403
 31
0.0
  0
LINE
  5
A80
330
1F
100
AcDbEntity
  8
1
  6
CONTINUOUS
370
50
 62
4
100
AcDbLine
 10
19.690153
 20
1.090752
 30
0.0
 11
19.713562
 21
1.099437
 31
0.0
  0
LINE
  5
A81
330
1F
100
AcDbEntity
  8
1
  6
CONTINUOUS
370
50
 62
4
100
AcDbLine
 10
11.207723
 20
-2.350149
 30
0.0
 11
11.299862
 21
-2.315933
 31
0.0
  0
LINE
  5
A82
330
1F
100
AcDbEntity
  8
1
  6
CONTINUOUS
370
50
 62
4
100
AcDbLine
 10
19.726919
 20
2.525086
 30
0.0
 11
19.761187
 21
2.537842
 31
0.0
  0
LINE
  5
A83
330
1F
100
AcDbEntity
  8
1
  6
CONTINUOUS
370
50
 62
4
100
AcDbLine
 10
11.109866
 20
-2.386742
 30
0.0
 11
11.207723
 21
-2.350149
 31
0.0
  0
LINE
  5
A84
330
1F
100
AcDbEntity
  8
1
  6
CONTINUOUS
370
50
 62
4
100
AcDbLine
 10
11.048999
 20
-2.409627
 30
0.0
 11
11.109866
 21
-2.386742
 31
0.0
  0
LINE
  5
A85
330
1F
100
AcDbEntity
  8
1
  6
CONTINUOUS
370
50
 62
4
100
AcDbLine
 10
17.276028
 20
-2.336061
 30
0.0
 11
17.329466
 21
-2.315939
 31
0.0
  0
LINE
  5
A86
330
1F
100
AcDbEntity
  8
1
  6
CONTINUOUS
370
50
 62
4
100
AcDbLine
 10
10.997941
 20
-2.428906
 30
0.0
 11
11.048999
 21
-2.409627
 31
0.0
  0
LINE
  5
A87
330
1F
100
AcDbEntity
  8
1
  6
CONTINUOUS
370
50
 62
4
100
AcDbLine
 10
17.222589
 20
-2.356277
 30
0.0
 11
17.276028
 21
-2.336061
 31
0.0
  0
LINE
  5
A88
330
1F
100
AcDbEntity
  8
1
  6
CONTINUOUS
370
50
 62
4
100
AcDbLine
 10
10.946881
 20
-2.448258
 30
0.0
 11
10.997941
 21
-2.428906
 31
0.0
  0
LINE
  5
A89
330
1F
100
AcDbEntity
  8
1
  6
CONTINUOUS
370
50
 62
4
100
AcDbLine
 10
19.415346
 20
-2.870407
 30
0.0
 11
19.460213
 21
-2.853361
 31
0.0
  0
LINE
  5
A8A
330
1F
100
AcDbEntity
  8
1
  6
CONTINUOUS
370
50
 62
4
100
AcDbLine
 10
17.169178
 20
-2.37658
 30
0.0
 11
17.222589
 21
-2.356277
 31
0.0
  0
LINE
  5
A8B
330
1F
100
AcDbEntity
  8
1
  6
CONTINUOUS
370
50
 62
4
100
AcDbLine
 10
10.89582
 20
-2.467682
 30
0.0
 11
10.946881
 21
-2.448258
 31
0.0
  0
LINE
  5
A8C
330
1F
100
AcDbEntity
  8
1
  6
CONTINUOUS
370
50
 62
4
100
AcDbLine
 10
10.841472
 20
-2.488434
 30
0.0
 11
10.89582
 21
-2.467682
 31
0.0
  0
LINE
  5
A8D
330
1F
100
AcDbEntity
  8
1
  6
CONTINUOUS
370
50
 62
4
100
AcDbLine
 10
17.115765
 20
-2.396977
 30
0.0
 11
17.169178
 21
-2.37658
 31
0.0
  0
LINE
  5
A8E
330
1F
100
AcDbEntity
  8
1
  6
CONTINUOUS
370
50
 62
4
100
AcDbLine
 10
10.785589
 20
-2.509856
 30
0.0
 11
10.841472
 21
-2.488434
 31
0.0
  0
LINE
  5
A8F
330
1F
100
AcDbEntity
  8
1
  6
CONTINUOUS
370
50
 62
4
100
AcDbLine
 10
17.0516
 20
-2.421606
 30
0.0
 11
17.115765
 21
-2.396977
 31
0.0
  0
LINE
  5
A90
330
1F
100
AcDbEntity
  8
1
  6
CONTINUOUS
370
50
 62
4
100
AcDbLine
 10
10.729911
 20
-2.531282
 30
0.0
 11
10.785589
 21
-2.509856
 31
0.0
  0
LINE
  5
A91
330
1F
100
AcDbEntity
  8
1
  6
CONTINUOUS
370
50
 62
4
100
AcDbLine
 10
16.98691
 20
-2.446575
 30
0.0
 11
17.0516
 21
-2.421606
 31
0.0
  0
LINE
  5
A92
330
1F
100
AcDbEntity
  8
1
  6
CONTINUOUS
370
50
 62
4
100
AcDbLine
 10
10.674239
 20
-2.552788
 30
0.0
 11
10.729911
 21
-2.531282
 31
0.0
  0
LINE
  5
A93
330
1F
100
AcDbEntity
  8
1
  6
CONTINUOUS
370
50
 62
4
100
AcDbLine
 10
10.618596
 20
-2.574363
 30
0.0
 11
10.674239
 21
-2.552788
 31
0.0
  0
LINE
  5
A94
330
1F
100
AcDbEntity
  8
1
  6
CONTINUOUS
370
50
 62
4
100
AcDbLine
 10
16.9254
 20
-2.470444
 30
0.0
 11
16.98691
 21
-2.446575
 31
0.0
  0
LINE
  5
A95
330
1F
100
AcDbEntity
  8
1
  6
CONTINUOUS
370
50
 62
4
100
AcDbLine
 10
10.562957
 20
-2.596014
 30
0.0
 11
10.618596
 21
-2.574363
 31
0.0
  0
LINE
  5
A96
330
1F
100
AcDbEntity
  8
1
  6
CONTINUOUS
370
50
 62
4
100
AcDbLine
 10
11.684266
 20
2.490746
 30
0.0
 11
12.06841
 21
2.64056
 31
0.0
  0
LINE
  5
A97
330
1F
100
AcDbEntity
  8
1
  6
CONTINUOUS
370
50
 62
4
100
AcDbLine
 10
16.863895
 20
-2.494433
 30
0.0
 11
16.9254
 21
-2.470444
 31
0.0
  0
LINE
  5
A98
330
1F
100
AcDbEntity
  8
1
  6
CONTINUOUS
370
50
 62
4
100
AcDbLine
 10
10.507344
 20
-2.617732
 30
0.0
 11
10.562957
 21
-2.596014
 31
0.0
  0
LINE
  5
A99
330
1F
100
AcDbEntity
  8
1
  6
CONTINUOUS
370
50
 62
4
100
AcDbLine
 10
10.451732
 20
-2.639522
 30
0.0
 11
10.507344
 21
-2.617732
 31
0.0
  0
LINE
  5
A9A
330
1F
100
AcDbEntity
  8
1
  6
CONTINUOUS
370
50
 62
4
100
AcDbLine
 10
16.802437
 20
-2.518524
 30
0.0
 11
16.863895
 21
-2.494433
 31
0.0
  0
LINE
  5
A9B
330
1F
100
AcDbEntity
  8
1
  6
CONTINUOUS
370
50
 62
4
100
AcDbLine
 10
16.495319
 20
-2.639848
 30
0.0
 11
16.556736
 21
-2.615763
 31
0.0
  0
LINE
  5
A9C
330
1F
100
AcDbEntity
  8
1
  6
CONTINUOUS
370
50
 62
4
100
AcDbLine
 10
16.740976
 20
-2.542732
 30
0.0
 11
16.802437
 21
-2.518524
 31
0.0
  0
LINE
  5
A9D
330
1F
100
AcDbEntity
  8
1
  6
CONTINUOUS
370
50
 62
4
100
AcDbLine
 10
16.679564
 20
-2.567036
 30
0.0
 11
16.740976
 21
-2.542732
 31
0.0
  0
LINE
  5
A9E
330
1F
100
AcDbEntity
  8
1
  6
CONTINUOUS
370
50
 62
4
100
AcDbLine
 10
16.556736
 20
-2.615763
 30
0.0
 11
16.618151
 21
-2.591448
 31
0.0
  0
LINE
  5
A9F
330
1F
100
AcDbEntity
  8
1
  6
CONTINUOUS
370
50
 62
4
100
AcDbLine
 10
16.618151
 20
-2.591448
 30
0.0
 11
16.679564
 21
-2.567036
 31
0.0
  0
LINE
  5
AA0
330
1F
100
AcDbEntity
  8
1
  6
CONTINUOUS
370
50
 62
4
100
AcDbLine
 10
19.816784
 20
-2.383212
 30
0.0
 11
19.826069
 21
-2.379458
 31
0.0
  0
LINE
  5
AA1
330
1F
100
AcDbEntity
  8
1
  6
CONTINUOUS
370
50
 62
4
100
AcDbLine
 10
5.475925999999999
 20
0.58983
 30
0.0
 11
5.522189
 21
0.609043
 31
0.0
  0
LINE
  5
AA2
330
1F
100
AcDbEntity
  8
1
  6
CONTINUOUS
370
50
 62
4
100
AcDbLine
 10
17.605211
 20
2.445305
 30
0.0
 11
17.88212
 21
2.561338
 31
0.0
  0
LINE
  5
AA3
330
1F
100
AcDbEntity
  8
1
  6
CONTINUOUS
370
50
 62
4
100
AcDbLine
 10
19.713562
 20
1.099437
 30
0.0
 11
19.736506
 21
1.109104
 31
0.0
  0
LINE
  5
AA4
330
1F
100
AcDbEntity
  8
1
  6
CONTINUOUS
370
50
 62
4
100
AcDbLine
 10
19.388971
 20
-2.714156
 30
0.0
 11
19.420237
 21
-2.70068
 31
0.0
  0
LINE
  5
AA5
330
1F
100
AcDbEntity
  8
1
  6
CONTINUOUS
370
50
 62
4
100
AcDbLine
 10
19.460213
 20
-2.853361
 30
0.0
 11
19.504311
 21
-2.833315
 31
0.0
  0
LINE
  5
AA6
330
1F
100
AcDbEntity
  8
1
  6
CONTINUOUS
370
50
 62
4
100
AcDbLine
 10
11.299863
 20
2.315933
 30
0.0
 11
11.684266
 21
2.490746
 31
0.0
  0
LINE
  5
AA7
330
1F
100
AcDbEntity
  8
1
  6
CONTINUOUS
370
50
 62
4
100
AcDbLine
 10
5.430649
 20
0.568724
 30
0.0
 11
5.475925999999999
 21
0.58983
 31
0.0
  0
LINE
  5
AA8
330
1F
100
AcDbEntity
  8
1
  6
CONTINUOUS
370
50
 62
4
100
AcDbLine
 10
17.329468
 20
2.315938
 30
0.0
 11
17.605211
 21
2.445305
 31
0.0
  0
LINE
  5
AA9
330
1F
100
AcDbEntity
  8
1
  6
CONTINUOUS
370
50
 62
4
100
AcDbLine
 10
19.736506
 20
1.109104
 30
0.0
 11
19.758921
 21
1.119726
 31
0.0
  0
LINE
  5
AAA
330
1F
100
AcDbEntity
  8
1
  6
CONTINUOUS
370
50
 62
4
100
AcDbLine
 10
19.761187
 20
2.537842
 30
0.0
 11
19.789412
 21
2.551343
 31
0.0
  0
LINE
  5
AAB
330
1F
100
AcDbEntity
  8
1
  6
CONTINUOUS
370
50
 62
4
100
AcDbLine
 10
19.826069
 20
-2.379458
 30
0.0
 11
19.83519
 21
-2.374967
 31
0.0
  0
LINE
  5
AAC
330
1F
100
AcDbEntity
  8
1
  6
CONTINUOUS
370
50
 62
4
100
AcDbLine
 10
19.420237
 20
-2.70068
 30
0.0
 11
19.451036
 21
-2.685424
 31
0.0
  0
LINE
  5
AAD
330
1F
100
AcDbEntity
  8
1
  6
CONTINUOUS
370
50
 62
4
100
AcDbLine
 10
5.386483
 20
0.545673
 30
0.0
 11
5.430649
 21
0.568724
 31
0.0
  0
LINE
  5
AAE
330
1F
100
AcDbEntity
  8
1
  6
CONTINUOUS
370
50
 62
4
100
AcDbLine
 10
19.504311
 20
-2.833315
 30
0.0
 11
19.547514
 21
-2.810258
 31
0.0
  0
LINE
  5
AAF
330
1F
100
AcDbEntity
  8
1
  6
CONTINUOUS
370
50
 62
4
100
AcDbLine
 10
19.451036
 20
-2.685424
 30
0.0
 11
19.481239
 21
-2.66847
 31
0.0
  0
LINE
  5
AB0
330
1F
100
AcDbEntity
  8
1
  6
CONTINUOUS
370
50
 62
4
100
AcDbLine
 10
19.789412
 20
2.551343
 30
0.0
 11
19.813223
 21
2.565086
 31
0.0
  0
LINE
  5
AB1
330
1F
100
AcDbEntity
  8
1
  6
CONTINUOUS
370
50
 62
4
100
AcDbLine
 10
5.34338
 20
0.520498
 30
0.0
 11
5.386483
 21
0.545673
 31
0.0
  0
LINE
  5
AB2
330
1F
100
AcDbEntity
  8
1
  6
CONTINUOUS
370
50
 62
4
100
AcDbLine
 10
19.83519
 20
-2.374967
 30
0.0
 11
19.84412
 21
-2.369743
 31
0.0
  0
LINE
  5
AB3
330
1F
100
AcDbEntity
  8
1
  6
CONTINUOUS
370
50
 62
4
100
AcDbLine
 10
19.547514
 20
-2.810258
 30
0.0
 11
19.589693
 21
-2.784184
 31
0.0
  0
LINE
  5
AB4
330
1F
100
AcDbEntity
  8
1
  6
CONTINUOUS
370
50
 62
4
100
AcDbLine
 10
19.481239
 20
-2.66847
 30
0.0
 11
19.5105
 21
-2.65006
 31
0.0
  0
LINE
  5
AB5
330
1F
100
AcDbEntity
  8
1
  6
CONTINUOUS
370
50
 62
4
100
AcDbLine
 10
5.301582
 20
0.493136
 30
0.0
 11
5.34338
 21
0.520498
 31
0.0
  0
LINE
  5
AB6
330
1F
100
AcDbEntity
  8
1
  6
CONTINUOUS
370
50
 62
4
100
AcDbLine
 10
19.84412
 20
-2.369743
 30
0.0
 11
19.853075
 21
-2.363628
 31
0.0
  0
LINE
  5
AB7
330
1F
100
AcDbEntity
  8
1
  6
CONTINUOUS
370
50
 62
4
100
AcDbLine
 10
19.5105
 20
-2.65006
 30
0.0
 11
19.538786
 21
-2.630297
 31
0.0
  0
LINE
  5
AB8
330
1F
100
AcDbEntity
  8
1
  6
CONTINUOUS
370
50
 62
4
100
AcDbLine
 10
19.589693
 20
-2.784184
 30
0.0
 11
19.630724
 21
-2.755084
 31
0.0
  0
LINE
  5
AB9
330
1F
100
AcDbEntity
  8
1
  6
CONTINUOUS
370
50
 62
4
100
AcDbLine
 10
5.261388
 20
0.463555
 30
0.0
 11
5.301582
 21
0.493136
 31
0.0
  0
LINE
  5
ABA
330
1F
100
AcDbEntity
  8
1
  6
CONTINUOUS
370
50
 62
4
100
AcDbLine
 10
19.634924
 20
-0.426579
 30
0.0
 11
19.99
 21
-0.155949
 31
0.0
  0
LINE
  5
ABB
330
1F
100
AcDbEntity
  8
1
  6
CONTINUOUS
370
50
 62
4
100
AcDbLine
 10
19.538786
 20
-2.630297
 30
0.0
 11
19.566086
 21
-2.609271
 31
0.0
  0
LINE
  5
ABC
330
1F
100
AcDbEntity
  8
1
  6
CONTINUOUS
370
50
 62
4
100
AcDbLine
 10
19.853075
 20
-2.363628
 30
0.0
 11
19.862206
 21
-2.35646
 31
0.0
  0
LINE
  5
ABD
330
1F
100
AcDbEntity
  8
1
  6
CONTINUOUS
370
50
 62
4
100
AcDbLine
 10
19.630724
 20
-2.755084
 30
0.0
 11
19.670485
 21
-2.722946
 31
0.0
  0
LINE
  5
ABE
330
1F
100
AcDbEntity
  8
1
  6
CONTINUOUS
370
50
 62
4
100
AcDbLine
 10
5.223097
 20
0.431723
 30
0.0
 11
5.261388
 21
0.463555
 31
0.0
  0
LINE
  5
ABF
330
1F
100
AcDbEntity
  8
1
  6
CONTINUOUS
370
50
 62
4
100
AcDbLine
 10
19.566086
 20
-2.609271
 30
0.0
 11
19.592394
 21
-2.587073
 31
0.0
  0
LINE
  5
AC0
330
1F
100
AcDbEntity
  8
1
  6
CONTINUOUS
370
50
 62
4
100
AcDbLine
 10
19.862206
 20
-2.35646
 30
0.0
 11
19.871439
 21
-2.348208
 31
0.0
  0
LINE
  5
AC1
330
1F
100
AcDbEntity
  8
1
  6
CONTINUOUS
370
50
 62
4
100
AcDbLine
 10
19.670485
 20
-2.722946
 30
0.0
 11
19.708849
 21
-2.687764
 31
0.0
  0
LINE
  5
AC2
330
1F
100
AcDbEntity
  8
1
  6
CONTINUOUS
370
50
 62
4
100
AcDbLine
 10
19.592394
 20
-2.587073
 30
0.0
 11
19.617701
 21
-2.563792
 31
0.0
  0
LINE
  5
AC3
330
1F
100
AcDbEntity
  8
1
  6
CONTINUOUS
370
50
 62
4
100
AcDbLine
 10
5.187008
 20
0.397608
 30
0.0
 11
5.223097
 21
0.431723
 31
0.0
  0
LINE
  5
AC4
330
1F
100
AcDbEntity
  8
1
  6
CONTINUOUS
370
50
 62
4
100
AcDbLine
 10
19.64324
 20
-0.72064
 30
0.0
 11
19.643431
 21
-0.7204539999999999
 31
0.0
  0
LINE
  5
AC5
330
1F
100
AcDbEntity
  8
1
  6
CONTINUOUS
370
50
 62
4
100
AcDbLine
 10
19.64286
 20
-0.7210139999999999
 30
0.0
 11
19.643051
 21
-0.720827
 31
0.0
  0
LINE
  5
AC6
330
1F
100
AcDbEntity
  8
1
  6
CONTINUOUS
370
50
 62
4
100
AcDbLine
 10
19.643621
 20
-0.720267
 30
0.0
 11
19.644003
 21
-0.719893
 31
0.0
  0
LINE
  5
AC7
330
1F
100
AcDbEntity
  8
1
  6
CONTINUOUS
370
50
 62
4
100
AcDbLine
 10
19.643431
 20
-0.7204539999999999
 30
0.0
 11
19.643621
 21
-0.720267
 31
0.0
  0
LINE
  5
AC8
330
1F
100
AcDbEntity
  8
1
  6
CONTINUOUS
370
50
 62
4
100
AcDbLine
 10
19.643051
 20
-0.720827
 30
0.0
 11
19.64324
 21
-0.72064
 31
0.0
  0
LINE
  5
AC9
330
1F
100
AcDbEntity
  8
1
  6
CONTINUOUS
370
50
 62
4
100
AcDbLine
 10
19.617701
 20
-2.563792
 30
0.0
 11
19.642179
 21
-2.539335
 31
0.0
  0
LINE
  5
ACA
330
1F
100
AcDbEntity
  8
1
  6
CONTINUOUS
370
50
 62
4
100
AcDbLine
 10
19.871439
 20
-2.348208
 30
0.0
 11
19.880697
 21
-2.338842
 31
0.0
  0
LINE
  5
ACB
330
1F
100
AcDbEntity
  8
1
  6
CONTINUOUS
370
50
 62
4
100
AcDbLine
 10
19.708849
 20
-2.687764
 30
0.0
 11
19.745625
 21
-2.649608
 31
0.0
  0
LINE
  5
ACC
330
1F
100
AcDbEntity
  8
1
  6
CONTINUOUS
370
50
 62
4
100
AcDbLine
 10
19.642179
 20
-2.539335
 30
0.0
 11
19.666338
 21
-2.513177
 31
0.0
  0
LINE
  5
ACD
330
1F
100
AcDbEntity
  8
1
  6
CONTINUOUS
370
50
 62
4
100
AcDbLine
 10
5.153430999999999
 20
0.361185
 30
0.0
 11
5.187008
 21
0.397608
 31
0.0
  0
LINE
  5
ACE
330
1F
100
AcDbEntity
  8
1
  6
CONTINUOUS
370
50
 62
4
100
AcDbLine
 10
19.880697
 20
-2.338842
 30
0.0
 11
19.88991
 21
-2.328333
 31
0.0
  0
LINE
  5
ACF
330
1F
100
AcDbEntity
  8
1
  6
CONTINUOUS
370
50
 62
4
100
AcDbLine
 10
5.018748
 20
-2.999907
 30
0.0
 11
5.018765999999999
 21
-2.999886
 31
0.0
  0
LINE
  5
AD0
330
1F
100
AcDbEntity
  8
1
  6
CONTINUOUS
370
50
 62
4
100
AcDbLine
 10
19.745625
 20
-2.649608
 30
0.0
 11
19.780453
 21
-2.608757
 31
0.0
  0
LINE
  5
AD1
330
1F
100
AcDbEntity
  8
1
  6
CONTINUOUS
370
50
 62
4
100
AcDbLine
 10
19.666338
 20
-2.513177
 30
0.0
 11
19.690153
 21
-2.485231
 31
0.0
  0
LINE
  5
AD2
330
1F
100
AcDbEntity
  8
1
  6
CONTINUOUS
370
50
 62
4
100
AcDbLine
 10
5.122739999999999
 20
0.322478
 30
0.0
 11
5.153430999999999
 21
0.361185
 31
0.0
  0
LINE
  5
AD3
330
1F
100
AcDbEntity
  8
1
  6
CONTINUOUS
370
50
 62
4
100
AcDbLine
 10
19.690153
 20
-2.485231
 30
0.0
 11
19.713562
 21
-2.455447
 31
0.0
  0
LINE
  5
AD4
330
1F
100
AcDbEntity
  8
1
  6
CONTINUOUS
370
50
 62
4
100
AcDbLine
 10
19.88991
 20
-2.328333
 30
0.0
 11
19.899002
 21
-2.316649
 31
0.0
  0
LINE
  5
AD5
330
1F
100
AcDbEntity
  8
1
  6
CONTINUOUS
370
50
 62
4
100
AcDbLine
 10
19.780453
 20
-2.608757
 30
0.0
 11
19.813217
 21
-2.565208
 31
0.0
  0
LINE
  5
AD6
330
1F
100
AcDbEntity
  8
1
  6
CONTINUOUS
370
50
 62
4
100
AcDbLine
 10
19.713562
 20
-2.455447
 30
0.0
 11
19.736506
 21
-2.423771
 31
0.0
  0
LINE
  5
AD7
330
1F
100
AcDbEntity
  8
1
  6
CONTINUOUS
370
50
 62
4
100
AcDbLine
 10
19.899002
 20
-2.316649
 30
0.0
 11
19.907904
 21
-2.303795
 31
0.0
  0
LINE
  5
AD8
330
1F
100
AcDbEntity
  8
1
  6
CONTINUOUS
370
50
 62
4
100
AcDbLine
 10
5.095295
 20
0.281509
 30
0.0
 11
5.122739999999999
 21
0.322478
 31
0.0
  0
LINE
  5
AD9
330
1F
100
AcDbEntity
  8
1
  6
CONTINUOUS
370
50
 62
4
100
AcDbLine
 10
19.736506
 20
-2.423771
 30
0.0
 11
19.758921
 21
-2.390151
 31
0.0
  0
LINE
  5
ADA
330
1F
100
AcDbEntity
  8
1
  6
CONTINUOUS
370
50
 62
4
100
AcDbLine
 10
19.81316
 20
-2.565185
 30
0.0
 11
19.846832
 21
-2.513856
 31
0.0
  0
LINE
  5
ADB
330
1F
100
AcDbEntity
  8
1
  6
CONTINUOUS
370
50
 62
4
100
AcDbLine
 10
18.825974
 20
-0.113702
 30
0.0
 11
18.849827
 21
-0.076449
 31
0.0
  0
LINE
  5
ADC
330
1F
100
AcDbEntity
  8
1
  6
CONTINUOUS
370
50
 62
4
100
AcDbLine
 10
19.907904
 20
-2.303795
 30
0.0
 11
19.91655
 21
-2.289834
 31
0.0
  0
LINE
  5
ADD
330
1F
100
AcDbEntity
  8
1
  6
CONTINUOUS
370
50
 62
4
100
AcDbLine
 10
18.849827
 20
-0.076449
 30
0.0
 11
18.872059
 21
-0.038366
 31
0.0
  0
LINE
  5
ADE
330
1F
100
AcDbEntity
  8
1
  6
CONTINUOUS
370
50
 62
4
100
AcDbLine
 10
19.846832
 20
-2.513856
 30
0.0
 11
19.877193
 21
-2.460185
 31
0.0
  0
LINE
  5
ADF
330
1F
100
AcDbEntity
  8
1
  6
CONTINUOUS
370
50
 62
4
100
AcDbLine
 10
19.91655
 20
-2.289834
 30
0.0
 11
19.924881
 21
-2.274837
 31
0.0
  0
LINE
  5
AE0
330
1F
100
AcDbEntity
  8
1
  6
CONTINUOUS
370
50
 62
4
100
AcDbLine
 10
5.071454999999999
 20
0.238299
 30
0.0
 11
5.095295
 21
0.281509
 31
0.0
  0
LINE
  5
AE1
330
1F
100
AcDbEntity
  8
1
  6
CONTINUOUS
370
50
 62
4
100
AcDbLine
 10
18.872059
 20
-0.038366
 30
0.0
 11
18.892523
 21
0.000337
 31
0.0
  0
LINE
  5
AE2
330
1F
100
AcDbEntity
  8
1
  6
CONTINUOUS
370
50
 62
4
100
AcDbLine
 10
19.924881
 20
-2.274837
 30
0.0
 11
19.932837
 21
-2.258871
 31
0.0
  0
LINE
  5
AE3
330
1F
100
AcDbEntity
  8
1
  6
CONTINUOUS
370
50
 62
4
100
AcDbLine
 10
19.877193
 20
-2.460185
 30
0.0
 11
19.903811
 21
-2.405441
 31
0.0
  0
LINE
  5
AE4
330
1F
100
AcDbEntity
  8
1
  6
CONTINUOUS
370
50
 62
4
100
AcDbLine
 10
18.892523
 20
0.000337
 30
0.0
 11
18.910929
 21
0.039057
 31
0.0
  0
LINE
  5
AE5
330
1F
100
AcDbEntity
  8
1
  6
CONTINUOUS
370
50
 62
4
100
AcDbLine
 10
19.932837
 20
-2.258871
 30
0.0
 11
19.940351
 21
-2.242007
 31
0.0
  0
LINE
  5
AE6
330
1F
100
AcDbEntity
  8
1
  6
CONTINUOUS
370
50
 62
4
100
AcDbLine
 10
5.051609
 20
0.192946
 30
0.0
 11
5.071454999999999
 21
0.238299
 31
0.0
  0
LINE
  5
AE7
330
1F
100
AcDbEntity
  8
1
  6
CONTINUOUS
370
50
 62
4
100
AcDbLine
 10
18.910929
 20
0.039057
 30
0.0
 11
18.927265
 21
0.077641
 31
0.0
  0
LINE
  5
AE8
330
1F
100
AcDbEntity
  8
1
  6
CONTINUOUS
370
50
 62
4
100
AcDbLine
 10
19.903811
 20
-2.405441
 30
0.0
 11
19.926369
 21
-2.350678
 31
0.0
  0
LINE
  5
AE9
330
1F
100
AcDbEntity
  8
1
  6
CONTINUOUS
370
50
 62
4
100
AcDbLine
 10
19.940351
 20
-2.242007
 30
0.0
 11
19.947613
 21
-2.223533
 31
0.0
  0
LINE
  5
AEA
330
1F
100
AcDbEntity
  8
1
  6
CONTINUOUS
370
50
 62
4
100
AcDbLine
 10
18.927265
 20
0.077641
 30
0.0
 11
18.941551
 21
0.115992
 31
0.0
  0
LINE
  5
AEB
330
1F
100
AcDbEntity
  8
1
  6
CONTINUOUS
370
50
 62
4
100
AcDbLine
 10
19.947613
 20
-2.223533
 30
0.0
 11
19.954803
 21
-2.202701
 31
0.0
  0
LINE
  5
AEC
330
1F
100
AcDbEntity
  8
1
  6
CONTINUOUS
370
50
 62
4
100
AcDbLine
 10
19.926369
 20
-2.350678
 30
0.0
 11
19.946072
 21
-2.292781
 31
0.0
  0
LINE
  5
AED
330
1F
100
AcDbEntity
  8
1
  6
CONTINUOUS
370
50
 62
4
100
AcDbLine
 10
5.036307
 20
0.146221
 30
0.0
 11
5.051609
 21
0.192946
 31
0.0
  0
LINE
  5
AEE
330
1F
100
AcDbEntity
  8
1
  6
CONTINUOUS
370
50
 62
4
100
AcDbLine
 10
18.941551
 20
0.115992
 30
0.0
 11
18.95381
 21
0.154017
 31
0.0
  0
LINE
  5
AEF
330
1F
100
AcDbEntity
  8
1
  6
CONTINUOUS
370
50
 62
4
100
AcDbLine
 10
19.954803
 20
-2.202701
 30
0.0
 11
19.961687
 21
-2.180077
 31
0.0
  0
LINE
  5
AF0
330
1F
100
AcDbEntity
  8
1
  6
CONTINUOUS
370
50
 62
4
100
AcDbLine
 10
19.946072
 20
-2.292781
 30
0.0
 11
19.962812
 21
-2.231402
 31
0.0
  0
LINE
  5
AF1
330
1F
100
AcDbEntity
  8
1
  6
CONTINUOUS
370
50
 62
4
100
AcDbLine
 10
18.95381
 20
0.154017
 30
0.0
 11
18.964052
 21
0.191581
 31
0.0
  0
LINE
  5
AF2
330
1F
100
AcDbEntity
  8
1
  6
CONTINUOUS
370
50
 62
4
100
AcDbLine
 10
19.961687
 20
-2.180077
 30
0.0
 11
19.968016
 21
-2.156237
 31
0.0
  0
LINE
  5
AF3
330
1F
100
AcDbEntity
  8
1
  6
CONTINUOUS
370
50
 62
4
100
AcDbLine
 10
19.968016
 20
-2.156237
 30
0.0
 11
19.973549
 21
-2.131757
 31
0.0
  0
LINE
  5
AF4
330
1F
100
AcDbEntity
  8
1
  6
CONTINUOUS
370
50
 62
4
100
AcDbLine
 10
18.964052
 20
0.191581
 30
0.0
 11
18.972256
 21
0.228315
 31
0.0
  0
LINE
  5
AF5
330
1F
100
AcDbEntity
  8
1
  6
CONTINUOUS
370
50
 62
4
100
AcDbLine
 10
5.025716
 20
0.098393
 30
0.0
 11
5.036307
 21
0.146221
 31
0.0
  0
LINE
  5
AF6
330
1F
100
AcDbEntity
  8
1
  6
CONTINUOUS
370
50
 62
4
100
AcDbLine
 10
19.962812
 20
-2.231402
 30
0.0
 11
19.975794
 21
-2.167897
 31
0.0
  0
LINE
  5
AF7
330
1F
100
AcDbEntity
  8
1
  6
CONTINUOUS
370
50
 62
4
100
AcDbLine
 10
19.973549
 20
-2.131757
 30
0.0
 11
19.978292
 21
-2.106149
 31
0.0
  0
LINE
  5
AF8
330
1F
100
AcDbEntity
  8
1
  6
CONTINUOUS
370
50
 62
4
100
AcDbLine
 10
18.972256
 20
0.228315
 30
0.0
 11
18.978485
 21
0.26411
 31
0.0
  0
LINE
  5
AF9
330
1F
100
AcDbEntity
  8
1
  6
CONTINUOUS
370
50
 62
4
100
AcDbLine
 10
19.978292
 20
-2.106149
 30
0.0
 11
19.982496
 21
-2.077928
 31
0.0
  0
LINE
  5
AFA
330
1F
100
AcDbEntity
  8
1
  6
CONTINUOUS
370
50
 62
4
100
AcDbLine
 10
19.975794
 20
-2.167897
 30
0.0
 11
19.984539
 21
-2.103716
 31
0.0
  0
LINE
  5
AFB
330
1F
100
AcDbEntity
  8
1
  6
CONTINUOUS
370
50
 62
4
100
AcDbLine
 10
18.978485
 20
0.26411
 30
0.0
 11
18.982824
 21
0.298914
 31
0.0
  0
LINE
  5
AFC
330
1F
100
AcDbEntity
  8
1
  6
CONTINUOUS
370
50
 62
4
100
AcDbLine
 10
5.019915999999999
 20
0.04956
 30
0.0
 11
5.025716
 21
0.098393
 31
0.0
  0
LINE
  5
AFD
330
1F
100
AcDbEntity
  8
1
  6
CONTINUOUS
370
50
 62
4
100
AcDbLine
 10
19.982496
 20
-2.077928
 30
0.0
 11
19.98584
 21
-2.048181
 31
0.0
  0
LINE
  5
AFE
330
1F
100
AcDbEntity
  8
1
  6
CONTINUOUS
370
50
 62
4
100
AcDbLine
 10
18.982744
 20
1.733197
 30
0.0
 11
18.985466
 21
1.765198
 31
0.0
  0
LINE
  5
AFF
330
1F
100
AcDbEntity
  8
1
  6
CONTINUOUS
370
50
 62
4
100
AcDbLine
 10
19.98584
 20
-2.048181
 30
0.0
 11
19.988174
 21
-2.018327
 31
0.0
  0
LINE
  5
B00
330
1F
100
AcDbEntity
  8
1
  6
CONTINUOUS
370
50
 62
4
100
AcDbLine
 10
18.982824
 20
0.298914
 30
0.0
 11
18.985353
 21
0.332678
 31
0.0
  0
LINE
  5
B01
330
1F
100
AcDbEntity
  8
1
  6
CONTINUOUS
370
50
 62
4
100
AcDbLine
 10
19.637415
 20
-0.812638
 30
0.0
 11
19.64286
 21
-0.7210139999999999
 31
0.0
  0
LINE
  5
B02
330
1F
100
AcDbEntity
  8
1
  6
CONTINUOUS
370
50
 62
4
100
AcDbLine
 10
19.988174
 20
-2.018327
 30
0.0
 11
19.989521
 21
-1.988928
 31
0.0
  0
LINE
  5
B03
330
1F
100
AcDbEntity
  8
1
  6
CONTINUOUS
370
50
 62
4
100
AcDbLine
 10
19.633224
 20
-0.9046609999999999
 30
0.0
 11
19.637415
 21
-0.812638
 31
0.0
  0
LINE
  5
B04
330
1F
100
AcDbEntity
  8
1
  6
CONTINUOUS
370
50
 62
4
100
AcDbLine
 10
19.630301
 20
-0.996977
 30
0.0
 11
19.633224
 21
-0.9046609999999999
 31
0.0
  0
LINE
  5
B05
330
1F
100
AcDbEntity
  8
1
  6
CONTINUOUS
370
50
 62
4
100
AcDbLine
 10
18.985353
 20
0.332678
 30
0.0
 11
18.98616
 21
0.365352
 31
0.0
  0
LINE
  5
B06
330
1F
100
AcDbEntity
  8
1
  6
CONTINUOUS
370
50
 62
4
100
AcDbLine
 10
18.985466
 20
1.765198
 30
0.0
 11
18.986134
 21
1.79887
 31
0.0
  0
LINE
  5
B07
330
1F
100
AcDbEntity
  8
1
  6
CONTINUOUS
370
50
 62
4
100
AcDbLine
 10
5.018979
 20
0.0
 30
0.0
 11
5.019915999999999
 21
0.04956
 31
0.0
  0
LINE
  5
B08
330
1F
100
AcDbEntity
  8
1
  6
CONTINUOUS
370
50
 62
4
100
AcDbLine
 10
19.644003
 20
-0.719893
 30
0.0
 11
19.64477
 21
-0.6776369999999999
 31
0.0
  0
LINE
  5
B09
330
1F
100
AcDbEntity
  8
1
  6
CONTINUOUS
370
50
 62
4
100
AcDbLine
 10
19.628656
 20
-1.089483
 30
0.0
 11
19.630301
 21
-0.996977
 31
0.0
  0
LINE
  5
B0A
330
1F
100
AcDbEntity
  8
1
  6
CONTINUOUS
370
50
 62
4
100
AcDbLine
 10
19.989521
 20
-1.988928
 30
0.0
 11
19.989994
 21
-1.957857
 31
0.0
  0
LINE
  5
B0B
330
1F
100
AcDbEntity
  8
1
  6
CONTINUOUS
370
50
 62
4
100
AcDbLine
 10
19.628305
 20
-1.182074
 30
0.0
 11
19.628656
 21
-1.089483
 31
0.0
  0
LINE
  5
B0C
330
1F
100
AcDbEntity
  8
1
  6
CONTINUOUS
370
50
 62
4
100
AcDbLine
 10
19.64477
 20
-0.6776369999999999
 30
0.0
 11
19.64481
 21
-0.6353679999999999
 31
0.0
  0
LINE
  5
B0D
330
1F
100
AcDbEntity
  8
1
  6
CONTINUOUS
370
50
 62
4
100
AcDbLine
 10
-0.01
 20
-2.99995
 30
0.0
 11
-0.01
 21
2.99995
 31
0.0
  0
LINE
  5
B0E
330
1F
100
AcDbEntity
  8
1
  6
CONTINUOUS
370
50
 62
4
100
AcDbLine
 10
6.989999999999999
 20
-2.91124
 30
0.0
 11
6.989999999999999
 21
1.702141
 31
0.0
  0
LINE
  5
B0F
330
1F
100
AcDbEntity
  8
1
  6
CONTINUOUS
370
50
 62
4
100
AcDbLine
 10
6.989999999999999
 20
2.809331
 30
0.0
 11
6.989999999999999
 21
2.91124
 31
0.0
  0
LINE
  5
B10
330
1F
100
AcDbEntity
  8
1
  6
CONTINUOUS
370
50
 62
4
100
AcDbLine
 10
6.989999999999999
 20
2.707422
 30
0.0
 11
6.989999999999999
 21
2.809331
 31
0.0
  0
LINE
  5
B11
330
1F
100
AcDbEntity
  8
1
  6
CONTINUOUS
370
50
 62
4
100
AcDbLine
 10
6.989999999999999
 20
2.605513
 30
0.0
 11
6.989999999999999
 21
2.707422
 31
0.0
  0
LINE
  5
B12
330
1F
100
AcDbEntity
  8
1
  6
CONTINUOUS
370
50
 62
4
100
AcDbLine
 10
6.989999999999999
 20
2.503604
 30
0.0
 11
6.989999999999999
 21
2.605513
 31
0.0
  0
LINE
  5
B13
330
1F
100
AcDbEntity
  8
1
  6
CONTINUOUS
370
50
 62
4
100
AcDbLine
 10
6.989999999999999
 20
2.401695
 30
0.0
 11
6.989999999999999
 21
2.503604
 31
0.0
  0
LINE
  5
B14
330
1F
100
AcDbEntity
  8
1
  6
CONTINUOUS
370
50
 62
4
100
AcDbLine
 10
6.989999999999999
 20
2.299787
 30
0.0
 11
6.989999999999999
 21
2.401695
 31
0.0
  0
LINE
  5
B15
330
1F
100
AcDbEntity
  8
1
  6
CONTINUOUS
370
50
 62
4
100
AcDbLine
 10
6.989999999999999
 20
2.197878
 30
0.0
 11
6.989999999999999
 21
2.299787
 31
0.0
  0
LINE
  5
B16
330
1F
100
AcDbEntity
  8
1
  6
CONTINUOUS
370
50
 62
4
100
AcDbLine
 10
6.989999999999999
 20
2.158374
 30
0.0
 11
6.989999999999999
 21
2.197878
 31
0.0
  0
LINE
  5
B17
330
1F
100
AcDbEntity
  8
1
  6
CONTINUOUS
370
50
 62
4
100
AcDbLine
 10
6.989999999999999
 20
2.119497
 30
0.0
 11
6.989999999999999
 21
2.158374
 31
0.0
  0
LINE
  5
B18
330
1F
100
AcDbEntity
  8
1
  6
CONTINUOUS
370
50
 62
4
100
AcDbLine
 10
6.989999999999999
 20
2.081307
 30
0.0
 11
6.989999999999999
 21
2.119497
 31
0.0
  0
LINE
  5
B19
330
1F
100
AcDbEntity
  8
1
  6
CONTINUOUS
370
50
 62
4
100
AcDbLine
 10
6.989999999999999
 20
2.043868
 30
0.0
 11
6.989999999999999
 21
2.081307
 31
0.0
  0
LINE
  5
B1A
330
1F
100
AcDbEntity
  8
1
  6
CONTINUOUS
370
50
 62
4
100
AcDbLine
 10
6.989999999999999
 20
2.007242
 30
0.0
 11
6.989999999999999
 21
2.043868
 31
0.0
  0
LINE
  5
B1B
330
1F
100
AcDbEntity
  8
1
  6
CONTINUOUS
370
50
 62
4
100
AcDbLine
 10
6.989999999999999
 20
1.971491
 30
0.0
 11
6.989999999999999
 21
2.007242
 31
0.0
  0
LINE
  5
B1C
330
1F
100
AcDbEntity
  8
1
  6
CONTINUOUS
370
50
 62
4
100
AcDbLine
 10
6.989999999999999
 20
1.936678
 30
0.0
 11
6.989999999999999
 21
1.971491
 31
0.0
  0
LINE
  5
B1D
330
1F
100
AcDbEntity
  8
1
  6
CONTINUOUS
370
50
 62
4
100
AcDbLine
 10
6.989999999999999
 20
1.902866
 30
0.0
 11
6.989999999999999
 21
1.936678
 31
0.0
  0
LINE
  5
B1E
330
1F
100
AcDbEntity
  8
1
  6
CONTINUOUS
370
50
 62
4
100
AcDbLine
 10
6.989999999999999
 20
1.870162
 30
0.0
 11
6.989999999999999
 21
1.902866
 31
0.0
  0
LINE
  5
B1F
330
1F
100
AcDbEntity
  8
1
  6
CONTINUOUS
370
50
 62
4
100
AcDbLine
 10
6.989999999999999
 20
1.838722
 30
0.0
 11
6.989999999999999
 21
1.870162
 31
0.0
  0
LINE
  5
B20
330
1F
100
AcDbEntity
  8
1
  6
CONTINUOUS
370
50
 62
4
100
AcDbLine
 10
6.989999999999999
 20
1.808596
 30
0.0
 11
6.989999999999999
 21
1.838722
 31
0.0
  0
LINE
  5
B21
330
1F
100
AcDbEntity
  8
1
  6
CONTINUOUS
370
50
 62
4
100
AcDbLine
 10
6.989999999999999
 20
1.779829
 30
0.0
 11
6.989999999999999
 21
1.808596
 31
0.0
  0
LINE
  5
B22
330
1F
100
AcDbEntity
  8
1
  6
CONTINUOUS
370
50
 62
4
100
AcDbLine
 10
6.989999999999999
 20
1.75247
 30
0.0
 11
6.989999999999999
 21
1.779829
 31
0.0
  0
LINE
  5
B23
330
1F
100
AcDbEntity
  8
1
  6
CONTINUOUS
370
50
 62
4
100
AcDbLine
 10
6.989999999999999
 20
1.726565
 30
0.0
 11
6.989999999999999
 21
1.75247
 31
0.0
  0
LINE
  5
B24
330
1F
100
AcDbEntity
  8
1
  6
CONTINUOUS
370
50
 62
4
100
AcDbLine
 10
6.989999999999999
 20
1.70216
 30
0.0
 11
6.989999999999999
 21
1.726565
 31
0.0
  0
LINE
  5
B25
330
1F
100
AcDbEntity
  8
1
  6
CONTINUOUS
370
50
 62
4
100
AcDbLine
 10
6.989999999999999
 20
1.702143
 30
0.0
 11
6.989999999999999
 21
1.726507
 31
0.0
  0
LINE
  5
B26
330
1F
100
AcDbEntity
  8
1
  6
CONTINUOUS
370
50
 62
4
100
AcDbLine
 10
6.989999999999999
 20
1.726507
 30
0.0
 11
6.989999999999999
 21
1.752372
 31
0.0
  0
LINE
  5
B27
330
1F
100
AcDbEntity
  8
1
  6
CONTINUOUS
370
50
 62
4
100
AcDbLine
 10
6.989999999999999
 20
1.752372
 30
0.0
 11
6.989999999999999
 21
1.77969
 31
0.0
  0
LINE
  5
B28
330
1F
100
AcDbEntity
  8
1
  6
CONTINUOUS
370
50
 62
4
100
AcDbLine
 10
6.989999999999999
 20
1.77969
 30
0.0
 11
6.989999999999999
 21
1.808417
 31
0.0
  0
LINE
  5
B29
330
1F
100
AcDbEntity
  8
1
  6
CONTINUOUS
370
50
 62
4
100
AcDbLine
 10
6.989999999999999
 20
1.808417
 30
0.0
 11
6.989999999999999
 21
1.838507
 31
0.0
  0
LINE
  5
B2A
330
1F
100
AcDbEntity
  8
1
  6
CONTINUOUS
370
50
 62
4
100
AcDbLine
 10
6.989999999999999
 20
1.838507
 30
0.0
 11
6.989999999999999
 21
1.869913
 31
0.0
  0
LINE
  5
B2B
330
1F
100
AcDbEntity
  8
1
  6
CONTINUOUS
370
50
 62
4
100
AcDbLine
 10
6.989999999999999
 20
1.869913
 30
0.0
 11
6.989999999999999
 21
1.902575
 31
0.0
  0
LINE
  5
B2C
330
1F
100
AcDbEntity
  8
1
  6
CONTINUOUS
370
50
 62
4
100
AcDbLine
 10
6.989999999999999
 20
1.902575
 30
0.0
 11
6.989999999999999
 21
1.936356
 31
0.0
  0
LINE
  5
B2D
330
1F
100
AcDbEntity
  8
1
  6
CONTINUOUS
370
50
 62
4
100
AcDbLine
 10
6.989999999999999
 20
1.936356
 30
0.0
 11
6.989999999999999
 21
1.971181
 31
0.0
  0
LINE
  5
B2E
330
1F
100
AcDbEntity
  8
1
  6
CONTINUOUS
370
50
 62
4
100
AcDbLine
 10
6.989999999999999
 20
1.971181
 30
0.0
 11
6.989999999999999
 21
2.006991
 31
0.0
  0
LINE
  5
B2F
330
1F
100
AcDbEntity
  8
1
  6
CONTINUOUS
370
50
 62
4
100
AcDbLine
 10
6.989999999999999
 20
2.006991
 30
0.0
 11
6.989999999999999
 21
2.043725
 31
0.0
  0
LINE
  5
B30
330
1F
100
AcDbEntity
  8
1
  6
CONTINUOUS
370
50
 62
4
100
AcDbLine
 10
6.989999999999999
 20
2.043725
 30
0.0
 11
6.989999999999999
 21
2.08126
 31
0.0
  0
LINE
  5
B31
330
1F
100
AcDbEntity
  8
1
  6
CONTINUOUS
370
50
 62
4
100
AcDbLine
 10
6.989999999999999
 20
2.08126
 30
0.0
 11
6.989999999999999
 21
2.119507
 31
0.0
  0
LINE
  5
B32
330
1F
100
AcDbEntity
  8
1
  6
CONTINUOUS
370
50
 62
4
100
AcDbLine
 10
6.989999999999999
 20
2.119507
 30
0.0
 11
6.989999999999999
 21
2.158401
 31
0.0
  0
LINE
  5
B33
330
1F
100
AcDbEntity
  8
1
  6
CONTINUOUS
370
50
 62
4
100
AcDbLine
 10
6.989999999999999
 20
2.158401
 30
0.0
 11
6.989999999999999
 21
2.197878
 31
0.0
  0
LINE
  5
B34
330
1F
100
AcDbEntity
  8
1
  6
CONTINUOUS
370
50
 62
4
100
AcDbLine
 10
6.989999999999999
 20
2.197878
 30
0.0
 11
6.989999999999999
 21
2.299779
 31
0.0
  0
LINE
  5
B35
330
1F
100
AcDbEntity
  8
1
  6
CONTINUOUS
370
50
 62
4
100
AcDbLine
 10
6.989999999999999
 20
2.299779
 30
0.0
 11
6.989999999999999
 21
2.401681
 31
0.0
  0
LINE
  5
B36
330
1F
100
AcDbEntity
  8
1
  6
CONTINUOUS
370
50
 62
4
100
AcDbLine
 10
6.989999999999999
 20
2.401681
 30
0.0
 11
6.989999999999999
 21
2.503583
 31
0.0
  0
LINE
  5
B37
330
1F
100
AcDbEntity
  8
1
  6
CONTINUOUS
370
50
 62
4
100
AcDbLine
 10
6.989999999999999
 20
2.503583
 30
0.0
 11
6.989999999999999
 21
2.605485
 31
0.0
  0
LINE
  5
B38
330
1F
100
AcDbEntity
  8
1
  6
CONTINUOUS
370
50
 62
4
100
AcDbLine
 10
6.989999999999999
 20
2.605485
 30
0.0
 11
6.989999999999999
 21
2.707387
 31
0.0
  0
LINE
  5
B39
330
1F
100
AcDbEntity
  8
1
  6
CONTINUOUS
370
50
 62
4
100
AcDbLine
 10
6.989999999999999
 20
2.707387
 30
0.0
 11
6.989999999999999
 21
2.809289
 31
0.0
  0
LINE
  5
B3A
330
1F
100
AcDbEntity
  8
1
  6
CONTINUOUS
370
50
 62
4
100
AcDbLine
 10
6.989999999999999
 20
2.809289
 30
0.0
 11
6.989999999999999
 21
2.911191
 31
0.0
  0
LINE
  5
B3B
330
1F
100
AcDbEntity
  8
1
  6
CONTINUOUS
370
50
 62
4
100
AcDbLine
 10
7.0
 20
1.174711
 30
0.0
 11
7.0
 21
1.703942
 31
0.0
  0
LINE
  5
B3C
330
1F
100
AcDbEntity
  8
1
  6
CONTINUOUS
370
50
 62
4
100
AcDbLine
 10
7.0
 20
0.724317
 30
0.0
 11
7.0
 21
0.73065
 31
0.0
  0
LINE
  5
B3D
330
1F
100
AcDbEntity
  8
1
  6
CONTINUOUS
370
50
 62
4
100
AcDbLine
 10
7.0
 20
-2.760336
 30
0.0
 11
7.0
 21
-2.752866
 31
0.0
  0
LINE
  5
B3E
330
1F
100
AcDbEntity
  8
1
  6
CONTINUOUS
370
50
 62
4
100
AcDbLine
 10
7.0
 20
-2.911145
 30
0.0
 11
7.0
 21
-2.909562
 31
0.0
  0
LINE
  5
B3F
330
1F
100
AcDbEntity
  8
1
  6
CONTINUOUS
370
50
 62
4
100
AcDbLine
 10
7.0
 20
2.079409
 30
0.0
 11
7.0
 21
2.19071
 31
0.0
  0
LINE
  5
B40
330
1F
100
AcDbEntity
  8
1
  6
CONTINUOUS
370
50
 62
4
100
AcDbLine
 10
7.0
 20
2.19071
 30
0.0
 11
7.0
 21
2.911145
 31
0.0
  0
LINE
  5
B41
330
1F
100
AcDbEntity
  8
1
  6
CONTINUOUS
370
50
 62
4
100
AcDbLine
 10
7.0
 20
2.006201
 30
0.0
 11
7.0
 21
2.079409
 31
0.0
  0
LINE
  5
B42
330
1F
100
AcDbEntity
  8
1
  6
CONTINUOUS
370
50
 62
4
100
AcDbLine
 10
7.0
 20
1.936434
 30
0.0
 11
7.0
 21
2.006201
 31
0.0
  0
LINE
  5
B43
330
1F
100
AcDbEntity
  8
1
  6
CONTINUOUS
370
50
 62
4
100
AcDbLine
 10
7.0
 20
1.870617
 30
0.0
 11
7.0
 21
1.936434
 31
0.0
  0
LINE
  5
B44
330
1F
100
AcDbEntity
  8
1
  6
CONTINUOUS
370
50
 62
4
100
AcDbLine
 10
7.0
 20
1.809614
 30
0.0
 11
7.0
 21
1.870617
 31
0.0
  0
LINE
  5
B45
330
1F
100
AcDbEntity
  8
1
  6
CONTINUOUS
370
50
 62
4
100
AcDbLine
 10
7.0
 20
1.753937
 30
0.0
 11
7.0
 21
1.809614
 31
0.0
  0
LINE
  5
B46
330
1F
100
AcDbEntity
  8
1
  6
CONTINUOUS
370
50
 62
4
100
AcDbLine
 10
7.0
 20
1.703943
 30
0.0
 11
7.0
 21
1.753937
 31
0.0
  0
LINE
  5
B47
330
1F
100
AcDbEntity
  8
1
  6
CONTINUOUS
370
50
 62
4
100
AcDbLine
 10
7.0
 20
0.509205
 30
0.0
 11
7.0
 21
0.5450659999999999
 31
0.0
  0
LINE
  5
B48
330
1F
100
AcDbEntity
  8
1
  6
CONTINUOUS
370
50
 62
4
100
AcDbLine
 10
7.0
 20
0.5450659999999999
 30
0.0
 11
7.0
 21
0.724317
 31
0.0
  0
LINE
  5
B49
330
1F
100
AcDbEntity
  8
1
  6
CONTINUOUS
370
50
 62
4
100
AcDbLine
 10
7.0
 20
-0.486568
 30
0.0
 11
7.0
 21
-0.486357
 31
0.0
  0
LINE
  5
B4A
330
1F
100
AcDbEntity
  8
1
  6
CONTINUOUS
370
50
 62
4
100
AcDbLine
 10
7.0
 20
-0.48678
 30
0.0
 11
7.0
 21
-0.486568
 31
0.0
  0
LINE
  5
B4B
330
1F
100
AcDbEntity
  8
1
  6
CONTINUOUS
370
50
 62
4
100
AcDbLine
 10
7.0
 20
-0.486991
 30
0.0
 11
7.0
 21
-0.48678
 31
0.0
  0
LINE
  5
B4C
330
1F
100
AcDbEntity
  8
1
  6
CONTINUOUS
370
50
 62
4
100
AcDbLine
 10
7.0
 20
-0.487203
 30
0.0
 11
7.0
 21
-0.486991
 31
0.0
  0
LINE
  5
B4D
330
1F
100
AcDbEntity
  8
1
  6
CONTINUOUS
370
50
 62
4
100
AcDbLine
 10
7.0
 20
-0.487414
 30
0.0
 11
7.0
 21
-0.487203
 31
0.0
  0
LINE
  5
B4E
330
1F
100
AcDbEntity
  8
1
  6
CONTINUOUS
370
50
 62
4
100
AcDbLine
 10
7.0
 20
-0.487626
 30
0.0
 11
7.0
 21
-0.487414
 31
0.0
  0
LINE
  5
B4F
330
1F
100
AcDbEntity
  8
1
  6
CONTINUOUS
370
50
 62
4
100
AcDbLine
 10
7.0
 20
0.482813
 30
0.0
 11
7.0
 21
0.509205
 31
0.0
  0
LINE
  5
B50
330
1F
100
AcDbEntity
  8
1
  6
CONTINUOUS
370
50
 62
4
100
AcDbLine
 10
7.0
 20
0.452156
 30
0.0
 11
7.0
 21
0.482813
 31
0.0
  0
LINE
  5
B51
330
1F
100
AcDbEntity
  8
1
  6
CONTINUOUS
370
50
 62
4
100
AcDbLine
 10
7.0
 20
0.41735
 30
0.0
 11
7.0
 21
0.452156
 31
0.0
  0
LINE
  5
B52
330
1F
100
AcDbEntity
  8
1
  6
CONTINUOUS
370
50
 62
4
100
AcDbLine
 10
7.0
 20
0.378562
 30
0.0
 11
7.0
 21
0.41735
 31
0.0
  0
LINE
  5
B53
330
1F
100
AcDbEntity
  8
1
  6
CONTINUOUS
370
50
 62
4
100
AcDbLine
 10
7.0
 20
0.336164
 30
0.0
 11
7.0
 21
0.378562
 31
0.0
  0
LINE
  5
B54
330
1F
100
AcDbEntity
  8
1
  6
CONTINUOUS
370
50
 62
4
100
AcDbLine
 10
7.0
 20
0.290376
 30
0.0
 11
7.0
 21
0.336164
 31
0.0
  0
LINE
  5
B55
330
1F
100
AcDbEntity
  8
1
  6
CONTINUOUS
370
50
 62
4
100
AcDbLine
 10
7.0
 20
0.241394
 30
0.0
 11
7.0
 21
0.290376
 31
0.0
  0
LINE
  5
B56
330
1F
100
AcDbEntity
  8
1
  6
CONTINUOUS
370
50
 62
4
100
AcDbLine
 10
7.0
 20
0.189416
 30
0.0
 11
7.0
 21
0.241394
 31
0.0
  0
LINE
  5
B57
330
1F
100
AcDbEntity
  8
1
  6
CONTINUOUS
370
50
 62
4
100
AcDbLine
 10
7.0
 20
0.134668
 30
0.0
 11
7.0
 21
0.189416
 31
0.0
  0
LINE
  5
B58
330
1F
100
AcDbEntity
  8
1
  6
CONTINUOUS
370
50
 62
4
100
AcDbLine
 10
7.0
 20
0.077661
 30
0.0
 11
7.0
 21
0.134668
 31
0.0
  0
LINE
  5
B59
330
1F
100
AcDbEntity
  8
1
  6
CONTINUOUS
370
50
 62
4
100
AcDbLine
 10
7.0
 20
0.018727
 30
0.0
 11
7.0
 21
0.077661
 31
0.0
  0
LINE
  5
B5A
330
1F
100
AcDbEntity
  8
1
  6
CONTINUOUS
370
50
 62
4
100
AcDbLine
 10
7.0
 20
-0.041884
 30
0.0
 11
7.0
 21
0.018727
 31
0.0
  0
LINE
  5
B5B
330
1F
100
AcDbEntity
  8
1
  6
CONTINUOUS
370
50
 62
4
100
AcDbLine
 10
7.0
 20
-0.10392
 30
0.0
 11
7.0
 21
-0.041884
 31
0.0
  0
LINE
  5
B5C
330
1F
100
AcDbEntity
  8
1
  6
CONTINUOUS
370
50
 62
4
100
AcDbLine
 10
7.0
 20
-0.167129
 30
0.0
 11
7.0
 21
-0.10392
 31
0.0
  0
LINE
  5
B5D
330
1F
100
AcDbEntity
  8
1
  6
CONTINUOUS
370
50
 62
4
100
AcDbLine
 10
7.0
 20
-0.231043
 30
0.0
 11
7.0
 21
-0.167129
 31
0.0
  0
LINE
  5
B5E
330
1F
100
AcDbEntity
  8
1
  6
CONTINUOUS
370
50
 62
4
100
AcDbLine
 10
7.0
 20
-0.29526
 30
0.0
 11
7.0
 21
-0.231043
 31
0.0
  0
LINE
  5
B5F
330
1F
100
AcDbEntity
  8
1
  6
CONTINUOUS
370
50
 62
4
100
AcDbLine
 10
7.0
 20
-0.359492
 30
0.0
 11
7.0
 21
-0.29526
 31
0.0
  0
LINE
  5
B60
330
1F
100
AcDbEntity
  8
1
  6
CONTINUOUS
370
50
 62
4
100
AcDbLine
 10
7.0
 20
-0.423293
 30
0.0
 11
7.0
 21
-0.359492
 31
0.0
  0
LINE
  5
B61
330
1F
100
AcDbEntity
  8
1
  6
CONTINUOUS
370
50
 62
4
100
AcDbLine
 10
7.0
 20
-0.486357
 30
0.0
 11
7.0
 21
-0.423293
 31
0.0
  0
LINE
  5
B62
330
1F
100
AcDbEntity
  8
1
  6
CONTINUOUS
370
50
 62
4
100
AcDbLine
 10
7.0
 20
-0.607907
 30
0.0
 11
7.0
 21
-0.487626
 31
0.0
  0
LINE
  5
B63
330
1F
100
AcDbEntity
  8
1
  6
CONTINUOUS
370
50
 62
4
100
AcDbLine
 10
7.0
 20
-0.729831
 30
0.0
 11
7.0
 21
-0.607907
 31
0.0
  0
LINE
  5
B64
330
1F
100
AcDbEntity
  8
1
  6
CONTINUOUS
370
50
 62
4
100
AcDbLine
 10
7.0
 20
-0.853135
 30
0.0
 11
7.0
 21
-0.729831
 31
0.0
  0
LINE
  5
B65
330
1F
100
AcDbEntity
  8
1
  6
CONTINUOUS
370
50
 62
4
100
AcDbLine
 10
7.0
 20
-0.977559
 30
0.0
 11
7.0
 21
-0.853135
 31
0.0
  0
LINE
  5
B66
330
1F
100
AcDbEntity
  8
1
  6
CONTINUOUS
370
50
 62
4
100
AcDbLine
 10
7.0
 20
-1.102839
 30
0.0
 11
7.0
 21
-0.977559
 31
0.0
  0
LINE
  5
B67
330
1F
100
AcDbEntity
  8
1
  6
CONTINUOUS
370
50
 62
4
100
AcDbLine
 10
7.0
 20
-1.228715
 30
0.0
 11
7.0
 21
-1.102839
 31
0.0
  0
LINE
  5
B68
330
1F
100
AcDbEntity
  8
1
  6
CONTINUOUS
370
50
 62
4
100
AcDbLine
 10
7.0
 20
-1.354924
 30
0.0
 11
7.0
 21
-1.228715
 31
0.0
  0
LINE
  5
B69
330
1F
100
AcDbEntity
  8
1
  6
CONTINUOUS
370
50
 62
4
100
AcDbLine
 10
7.0
 20
-1.481081
 30
0.0
 11
7.0
 21
-1.354924
 31
0.0
  0
LINE
  5
B6A
330
1F
100
AcDbEntity
  8
1
  6
CONTINUOUS
370
50
 62
4
100
AcDbLine
 10
7.0
 20
-1.606462
 30
0.0
 11
7.0
 21
-1.481081
 31
0.0
  0
LINE
  5
B6B
330
1F
100
AcDbEntity
  8
1
  6
CONTINUOUS
370
50
 62
4
100
AcDbLine
 10
7.0
 20
-1.730766
 30
0.0
 11
7.0
 21
-1.606462
 31
0.0
  0
LINE
  5
B6C
330
1F
100
AcDbEntity
  8
1
  6
CONTINUOUS
370
50
 62
4
100
AcDbLine
 10
7.0
 20
-1.853736
 30
0.0
 11
7.0
 21
-1.730766
 31
0.0
  0
LINE
  5
B6D
330
1F
100
AcDbEntity
  8
1
  6
CONTINUOUS
370
50
 62
4
100
AcDbLine
 10
7.0
 20
-1.975114
 30
0.0
 11
7.0
 21
-1.853736
 31
0.0
  0
LINE
  5
B6E
330
1F
100
AcDbEntity
  8
1
  6
CONTINUOUS
370
50
 62
4
100
AcDbLine
 10
7.0
 20
-2.094642
 30
0.0
 11
7.0
 21
-1.975114
 31
0.0
  0
LINE
  5
B6F
330
1F
100
AcDbEntity
  8
1
  6
CONTINUOUS
370
50
 62
4
100
AcDbLine
 10
7.0
 20
-2.212064
 30
0.0
 11
7.0
 21
-2.094642
 31
0.0
  0
LINE
  5
B70
330
1F
100
AcDbEntity
  8
1
  6
CONTINUOUS
370
50
 62
4
100
AcDbLine
 10
7.0
 20
-2.326951
 30
0.0
 11
7.0
 21
-2.212064
 31
0.0
  0
LINE
  5
B71
330
1F
100
AcDbEntity
  8
1
  6
CONTINUOUS
370
50
 62
4
100
AcDbLine
 10
7.0
 20
-2.438701
 30
0.0
 11
7.0
 21
-2.326951
 31
0.0
  0
LINE
  5
B72
330
1F
100
AcDbEntity
  8
1
  6
CONTINUOUS
370
50
 62
4
100
AcDbLine
 10
7.0
 20
-2.547083
 30
0.0
 11
7.0
 21
-2.438701
 31
0.0
  0
LINE
  5
B73
330
1F
100
AcDbEntity
  8
1
  6
CONTINUOUS
370
50
 62
4
100
AcDbLine
 10
7.0
 20
-2.651877
 30
0.0
 11
7.0
 21
-2.547083
 31
0.0
  0
LINE
  5
B74
330
1F
100
AcDbEntity
  8
1
  6
CONTINUOUS
370
50
 62
4
100
AcDbLine
 10
7.0
 20
-2.752865
 30
0.0
 11
7.0
 21
-2.651877
 31
0.0
  0
LINE
  5
B75
330
1F
100
AcDbEntity
  8
1
  6
CONTINUOUS
370
50
 62
4
100
AcDbLine
 10
18.99
 20
0.7908149999999999
 30
0.0
 11
18.99
 21
1.249079
 31
0.0
  0
LINE
  5
B76
330
1F
100
AcDbEntity
  8
1
  6
CONTINUOUS
370
50
 62
4
100
AcDbLine
 10
18.99
 20
-2.893892
 30
0.0
 11
18.99
 21
-2.7276
 31
0.0
  0
LINE
  5
B77
330
1F
100
AcDbEntity
  8
1
  6
CONTINUOUS
370
50
 62
4
100
AcDbLine
 10
19.99
 20
-2.0
 30
0.0
 11
19.99
 21
0.408407
 31
0.0
  0
LINE
  5
B78
330
1F
100
AcDbEntity
  8
1
  6
CONTINUOUS
370
50
 62
4
100
AcDbLine
 10
19.99
 20
0.408423
 30
0.0
 11
19.99
 21
1.999997
 31
0.0
  0
ARC
  5
B79
330
1F
100
AcDbEntity
  8
1
  6
CONTINUOUS
370
50
 62
4
100
AcDbCircle
 10
18.99
 20
-2.0
 30
0.0
 40
0.9999999999999994
100
AcDbArc
 50
354.0493924059006
 51
0.0
  0
ELLIPSE
  5
B7A
330
1F
100
AcDbEntity
  8
1
  6
CONTINUOUS
370
50
 62
4
100
AcDbEllipse
 10
33.146603
 20
-15.758339
 30
0.0
 11
-48.77688711788006
 21
13.08199056047805
 31
0.0
210
0.0
220
0.0
230
1.0
 40
0.1395408440536102
 41
5.315097341823369
 42
5.317130782755314
  0
ELLIPSE
  5
B7B
330
1F
100
AcDbEntity
  8
1
  6
CONTINUOUS
370
50
 62
4
100
AcDbEllipse
 10
33.146603
 20
42.40047999999999
 30
0.0
 11
-24.13246912785921
 21
44.36154993044521
 31
0.0
210
0.0
220
0.0
230
1.0
 40
0.9564153898535775
 41
2.057106977500897
 42
2.059140418454579
  0
ELLIPSE
  5
B7C
330
1F
100
AcDbEntity
  8
1
  6
CONTINUOUS
370
50
 62
4
100
AcDbEllipse
 10
33.707751
 20
-42.705742
 30
0.0
 11
24.2699057984088
 21
44.61419310966465
 31
0.0
210
0.0
220
0.0
230
0.9999999999999999
 40
0.9564153704435546
 41
1.140277428262934
 42
1.140331653411697
  0
ELLIPSE
  5
B7D
330
1F
100
AcDbEntity
  8
1
  6
CONTINUOUS
370
50
 62
4
100
AcDbEllipse
 10
33.707751
 20
-13.666067
 30
0.0
 11
-49.05467607348456
 21
13.15649372600895
 31
0.0
210
0.0
220
0.0
230
1.0
 40
0.1395408446573301
 41
5.325074085902212
 42
5.372976753847473
  0
ELLIPSE
  5
B7E
330
1F
100
AcDbEntity
  8
1
  6
CONTINUOUS
370
50
 62
4
100
AcDbEllipse
 10
33.986684
 20
-12.626054
 30
0.0
 11
-48.82680392534287
 21
13.09537827836299
 31
0.0
210
0.0
220
0.0
230
1.0
 40
0.1395408350882453
 41
5.334935803923431
 42
5.359376011251056
  0
ELLIPSE
  5
B7F
330
1F
100
AcDbEntity
  8
1
  6
CONTINUOUS
370
50
 62
4
100
AcDbEllipse
 10
33.986684
 20
42.85748
 30
0.0
 11
-24.15716558227845
 21
44.40694822723851
 31
0.0
210
0.0
220
0.0
230
1.0
 40
0.9564153782579988
 41
2.014861712928904
 42
2.039301920818335
  0
LINE
  5
B80
330
1F
100
AcDbEntity
  8
CUT
  6
CONTINUOUS
370
25
 62
1
100
AcDbLine
 10
6.99
 20
0.0
 30
0.0
 11
19.99
 21
0.0
 31
0.0
  0
LINE
  5
B81
330
1F
100
AcDbEntity
  8
CUT
  6
CONTINUOUS
370
25
 62
1
100
AcDbLine
 10
19.99
 20
0.0
 30
0.0
 11
19.99
 21
2.0
 31
0.0
  0
ARC
  5
B82
330
1F
100
AcDbEntity
  8
CUT
  6
CONTINUOUS
370
25
 62
1
100
AcDbCircle
 10
18.99
 20
2.0
 30
0.0
 40
1.0
100
AcDbArc
 50
0.0
 51
90.0
  0
LINE
  5
B83
330
1F
100
AcDbEntity
  8
CUT
  6
CONTINUOUS
370
25
 62
1
100
AcDbLine
 10
18.99
 20
3.0
 30
0.0
 11
6.99
 21
2.9999
 31
0.0
  0
LINE
  5
B84
330
1F
100
AcDbEntity
  8
CUT
  6
CONTINUOUS
370
25
 62
1
100
AcDbLine
 10
6.99
 20
2.9999
 30
0.0
 11
6.99
 21
2.9949
 31
0.0
  0
LINE
  5
B85
330
1F
100
AcDbEntity
  8
CUT
  6
CONTINUOUS
370
25
 62
1
100
AcDbLine
 10
6.99
 20
2.9949
 30
0.0
 11
6.99
 21
0.0
 31
0.0
  0
LINE
  5
B86
330
1F
100
AcDbEntity
  8
NOCUT
  6
CONTINUOUS
370
25
 62
7
100
AcDbLine
 10
-0.01
 20
0.0
 30
0.0
 11
6.99
 21
0.0
 31
0.0
  0
LINE
  5
B87
330
1F
100
AcDbEntity
  8
NOCUT
  6
CONTINUOUS
370
25
 62
7
100
AcDbLine
 10
6.99
 20
0.0
 30
0.0
 11
6.99
 21
2.99495
 31
0.0
  0
LINE
  5
B88
330
1F
100
AcDbEntity
  8
NOCUT
  6
CONTINUOUS
370
25
 62
7
100
AcDbLine
 10
6.99
 20
2.99495
 30
0.0
 11
6.99
 21
2.99995
 31
0.0
  0
LINE
  5
B89
330
1F
100
AcDbEntity
  8
NOCUT
  6
CONTINUOUS
370
25
 62
7
100
AcDbLine
 10
6.99
 20
2.99995
 30
0.0
 11
-0.01
 21
2.99995
 31
0.0
  0
LINE
  5
B8A
330
1F
100
AcDbEntity
  8
NOCUT
  6
CONTINUOUS
370
25
 62
7
100
AcDbLine
 10
-0.01
 20
2.99995
 30
0.0
 11
-0.01
 21
0.0
 31
0.0
  0
LINE
  5
B8B
330
1F
100
AcDbEntity
  8
SK1
  6
CONTINUOUS
370
50
 62
4
100
AcDbLine
 10
-0.01
 20
3.0
 30
0.0
 11
-36.61
 21
3.0
 31
0.0
  0
LINE
  5
B8C
330
1F
100
AcDbEntity
  8
SK1
  6
CONTINUOUS
370
50
 62
4
100
AcDbLine
 10
-36.61
 20
3.0
 30
0.0
 11
-37.01
 21
2.6
 31
0.0
  0
LINE
  5
B8D
330
1F
100
AcDbEntity
  8
SK1
  6
CONTINUOUS
370
50
 62
4
100
AcDbLine
 10
-37.01
 20
2.6
 30
0.0
 11
-37.01
 21
-2.6
 31
0.0
  0
LINE
  5
B8E
330
1F
100
AcDbEntity
  8
SK1
  6
CONTINUOUS
370
50
 62
4
100
AcDbLine
 10
-37.01
 20
-2.6
 30
0.0
 11
-36.61
 21
-3.0
 31
0.0
  0
LINE
  5
B8F
330
1F
100
AcDbEntity
  8
SK1
  6
CONTINUOUS
370
50
 62
4
100
AcDbLine
 10
-36.61
 20
-3.0
 30
0.0
 11
-0.01
 21
-3.0
 31
0.0
  0
LINE
  5
B90
330
1F
100
AcDbEntity
  8
SK1
  6
CONTINUOUS
370
50
 62
4
100
AcDbLine
 10
-36.61
 20
3.0
 30
0.0
 11
-36.61
 21
-3.0
 31
0.0
  0
LINE
  5
B91
330
1F
100
AcDbEntity
  8
SK2
  6
CONTINUOUS
370
25
 62
7
100
AcDbLine
 10
-49.01000019999999
 20
-3.000001
 30
0.0
 11
-50.01000000000008
 21
-3.000001
 31
0.0
  0
LINE
  5
B92
330
1F
100
AcDbEntity
  8
SK2
  6
CONTINUOUS
370
25
 62
7
100
AcDbLine
 10
-37.01
 20
-3.000001
 30
0.0
 11
-49.0099998
 21
-3.000001
 31
0.0
  0
LINE
  5
B93
330
1F
100
AcDbEntity
  8
SK2
  6
CONTINUOUS
370
25
 62
7
100
AcDbLine
 10
-50.01
 20
3.0
 30
0.0
 11
-37.01
 21
3.0
 31
0.0
  0
LINE
  5
B94
330
1F
100
AcDbEntity
  8
SK2
  6
CONTINUOUS
370
25
 62
7
100
AcDbLine
 10
-49.01
 20
-10.0
 30
0.0
 11
-49.01
 21
16.475
 31
0.0
  0
LINE
  5
B95
330
1F
100
AcDbEntity
  8
SK2
  6
CONTINUOUS
370
25
 62
7
100
AcDbLine
 10
-49.01
 20
-3.0
 30
0.0
 11
-48.01
 21
-8.0
 31
0.0
  0
LINE
  5
B96
330
1F
100
AcDbEntity
  8
SK2
  6
CONTINUOUS
370
25
 62
7
100
AcDbLine
 10
-48.01
 20
-8.0
 30
0.0
 11
-50.01
 21
-8.0
 31
0.0
  0
LINE
  5
B97
330
1F
100
AcDbEntity
  8
SK2
  6
CONTINUOUS
370
25
 62
7
100
AcDbLine
 10
-50.01
 20
-8.0
 30
0.0
 11
-49.01
 21
-3.0
 31
0.0
  0
LINE
  5
B98
330
1F
100
AcDbEntity
  8
SK2
  6
CONTINUOUS
370
25
 62
7
100
AcDbLine
 10
-48.31508652763318
 20
-8.0
 30
0.0
 11
-48.06084775460553
 21
-7.745761226972355
 31
0.0
  0
LINE
  5
B99
330
1F
100
AcDbEntity
  8
SK2
  6
CONTINUOUS
370
25
 62
7
100
AcDbLine
 10
-48.73935059634511
 20
-8.0
 30
0.0
 11
-48.13155843272418
 21
-7.392207836379072
 31
0.0
  0
LINE
  5
B9A
330
1F
100
AcDbEntity
  8
SK2
  6
CONTINUOUS
370
25
 62
7
100
AcDbLine
 10
-49.16361466505704
 20
-8.0
 30
0.0
 11
-48.20226911084283
 21
-7.038654445785795
 31
0.0
  0
LINE
  5
B9B
330
1F
100
AcDbEntity
  8
SK2
  6
CONTINUOUS
370
25
 62
7
100
AcDbLine
 10
-49.58787873376897
 20
-8.0
 30
0.0
 11
-48.2729797889615
 21
-6.685101055192526
 31
0.0
  0
LINE
  5
B9C
330
1F
100
AcDbEntity
  8
SK2
  6
CONTINUOUS
370
25
 62
7
100
AcDbLine
 10
-50.00946429937977
 20
-7.99732149689887
 30
0.0
 11
-48.34369046708015
 21
-6.331547664599249
 31
0.0
  0
LINE
  5
B9D
330
1F
100
AcDbEntity
  8
SK2
  6
CONTINUOUS
370
25
 62
7
100
AcDbLine
 10
-49.90339828220179
 20
-7.466991411008962
 30
0.0
 11
-48.41440114519881
 21
-5.977994274005979
 31
0.0
  0
LINE
  5
B9E
330
1F
100
AcDbEntity
  8
SK2
  6
CONTINUOUS
370
25
 62
7
100
AcDbLine
 10
-49.79733226502381
 20
-6.936661325119047
 30
0.0
 11
-48.48511182331746
 21
-5.624440883412696
 31
0.0
  0
LINE
  5
B9F
330
1F
100
AcDbEntity
  8
SK2
  6
CONTINUOUS
370
25
 62
7
100
AcDbLine
 10
-49.69126624784582
 20
-6.406331239229125
 30
0.0
 11
-48.55582250143612
 21
-5.270887492819419
 31
0.0
  0
LINE
  5
BA0
330
1F
100
AcDbEntity
  8
SK2
  6
CONTINUOUS
370
25
 62
7
100
AcDbLine
 10
-49.58520023066784
 20
-5.876001153339217
 30
0.0
 11
-48.62653317955477
 21
-4.917334102226143
 31
0.0
  0
LINE
  5
BA1
330
1F
100
AcDbEntity
  8
SK2
  6
CONTINUOUS
370
25
 62
7
100
AcDbLine
 10
-49.47913421348986
 20
-5.34567106744931
 30
0.0
 11
-48.69724385767342
 21
-4.563780711632866
 31
0.0
  0
LINE
  5
BA2
330
1F
100
AcDbEntity
  8
SK2
  6
CONTINUOUS
370
25
 62
7
100
AcDbLine
 10
-49.37306819631188
 20
-4.815340981559395
 30
0.0
 11
-48.76795453579208
 21
-4.210227321039589
 31
0.0
  0
LINE
  5
BA3
330
1F
100
AcDbEntity
  8
SK2
  6
CONTINUOUS
370
25
 62
7
100
AcDbLine
 10
-49.2670021791339
 20
-4.285010895669473
 30
0.0
 11
-48.83866521391074
 21
-3.856673930446313
 31
0.0
  0
LINE
  5
BA4
330
1F
100
AcDbEntity
  8
SK2
  6
CONTINUOUS
370
25
 62
7
100
AcDbLine
 10
-49.16093616195592
 20
-3.754680809779565
 30
0.0
 11
-48.9093758920294
 21
-3.503120539853043
 31
0.0
  0
LINE
  5
BA5
330
1F
100
AcDbEntity
  8
SK2
  6
CONTINUOUS
370
25
 62
7
100
AcDbLine
 10
-49.05487014477793
 20
-3.22435072388965
 30
0.0
 11
-48.98008657014805
 21
-3.149567149259767
 31
0.0
  0
LINE
  5
BA6
330
1F
100
AcDbEntity
  8
SK2
  6
CONTINUOUS
370
25
 62
7
100
AcDbLine
 10
-50.00673080683644
 20
-7.983654034182216
 30
0.0
 11
-49.99038484101865
 21
-8.0
 31
0.0
  0
LINE
  5
BA7
330
1F
100
AcDbEntity
  8
SK2
  6
CONTINUOUS
370
25
 62
7
100
AcDbLine
 10
-49.93602012871779
 20
-7.630100643588939
 30
0.0
 11
-49.56612077230672
 21
-8.0
 31
0.0
  0
LINE
  5
BA8
330
1F
100
AcDbEntity
  8
SK2
  6
CONTINUOUS
370
25
 62
7
100
AcDbLine
 10
-49.86530945059913
 20
-7.27654725299567
 30
0.0
 11
-49.1418567035948
 21
-8.0
 31
0.0
  0
LINE
  5
BA9
330
1F
100
AcDbEntity
  8
SK2
  6
CONTINUOUS
370
25
 62
7
100
AcDbLine
 10
-49.79459877248048
 20
-6.922993862402393
 30
0.0
 11
-48.71759263488287
 21
-8.0
 31
0.0
  0
LINE
  5
BAA
330
1F
100
AcDbEntity
  8
SK2
  6
CONTINUOUS
370
25
 62
7
100
AcDbLine
 10
-49.72388809436181
 20
-6.569440471809123
 30
0.0
 11
-48.29332856617093
 21
-8.0
 31
0.0
  0
LINE
  5
BAB
330
1F
100
AcDbEntity
  8
SK2
  6
CONTINUOUS
370
25
 62
7
100
AcDbLine
 10
-49.65317741624317
 20
-6.215887081215833
 30
0.0
 11
-48.04523387563525
 21
-7.823830621823753
 31
0.0
  0
LINE
  5
BAC
330
1F
100
AcDbEntity
  8
SK2
  6
CONTINUOUS
370
25
 62
7
100
AcDbLine
 10
-49.58246673812451
 20
-5.862333690622563
 30
0.0
 11
-48.15129989281323
 21
-7.293500535933845
 31
0.0
  0
LINE
  5
BAD
330
1F
100
AcDbEntity
  8
SK2
  6
CONTINUOUS
370
25
 62
7
100
AcDbLine
 10
-49.51175606000585
 20
-5.508780300029287
 30
0.0
 11
-48.25736590999121
 21
-6.763170450043923
 31
0.0
  0
LINE
  5
BAE
330
1F
100
AcDbEntity
  8
SK2
  6
CONTINUOUS
370
25
 62
7
100
AcDbLine
 10
-49.4410453818872
 20
-5.15522690943601
 30
0.0
 11
-48.3634319271692
 21
-6.232840364154015
 31
0.0
  0
LINE
  5
BAF
330
1F
100
AcDbEntity
  8
SK2
  6
CONTINUOUS
370
25
 62
7
100
AcDbLine
 10
-49.37033470376855
 20
-4.801673518842726
 30
0.0
 11
-48.46949794434718
 21
-5.7025102782641
 31
0.0
  0
LINE
  5
BB0
330
1F
100
AcDbEntity
  8
SK2
  6
CONTINUOUS
370
25
 62
7
100
AcDbLine
 10
-49.29962402564989
 20
-4.448120128249457
 30
0.0
 11
-48.57556396152516
 21
-5.172180192374192
 31
0.0
  0
LINE
  5
BB1
330
1F
100
AcDbEntity
  8
SK2
  6
CONTINUOUS
370
25
 62
7
100
AcDbLine
 10
-49.22891334753124
 20
-4.094566737656173
 30
0.0
 11
-48.68162997870314
 21
-4.64185010648427
 31
0.0
  0
LINE
  5
BB2
330
1F
100
AcDbEntity
  8
SK2
  6
CONTINUOUS
370
25
 62
7
100
AcDbLine
 10
-49.15820266941259
 20
-3.741013347062889
 30
0.0
 11
-48.78769599588113
 21
-4.111520020594348
 31
0.0
  0
LINE
  5
BB3
330
1F
100
AcDbEntity
  8
SK2
  6
CONTINUOUS
370
25
 62
7
100
AcDbLine
 10
-49.08749199129392
 20
-3.387459956469627
 30
0.0
 11
-48.89376201305911
 21
-3.58118993470444
 31
0.0
  0
LINE
  5
BB4
330
1F
100
AcDbEntity
  8
SK2
  6
CONTINUOUS
370
25
 62
7
100
AcDbLine
 10
-49.01678131317527
 20
-3.033906565876343
 30
0.0
 11
-48.9998280302371
 21
-3.050859848814518
 31
0.0
  0
LINE
  5
BB5
330
1F
100
AcDbEntity
  8
SK2
  6
CONTINUOUS
370
25
 62
7
100
AcDbLine
 10
-49.01
 20
3.0
 30
0.0
 11
-50.01
 21
8.0
 31
0.0
  0
LINE
  5
BB6
330
1F
100
AcDbEntity
  8
SK2
  6
CONTINUOUS
370
25
 62
7
100
AcDbLine
 10
-50.01
 20
8.0
 30
0.0
 11
-48.01
 21
8.0
 31
0.0
  0
LINE
  5
BB7
330
1F
100
AcDbEntity
  8
SK2
  6
CONTINUOUS
370
25
 62
7
100
AcDbLine
 10
-48.01
 20
8.0
 30
0.0
 11
-49.01
 21
3.0
 31
0.0
  0
LINE
  5
BB8
330
1F
100
AcDbEntity
  8
SK2
  6
CONTINUOUS
370
25
 62
7
100
AcDbLine
 10
-49.04074674192786
 20
3.153733709639319
 30
0.0
 11
-48.96387988710821
 21
3.230600564458975
 31
0.0
  0
LINE
  5
BB9
330
1F
100
AcDbEntity
  8
SK2
  6
CONTINUOUS
370
25
 62
7
100
AcDbLine
 10
-49.11145742004652
 20
3.507287100232588
 30
0.0
 11
-48.85781386993023
 21
3.760930650348882
 31
0.0
  0
LINE
  5
BBA
330
1F
100
AcDbEntity
  8
SK2
  6
CONTINUOUS
370
25
 62
7
100
AcDbLine
 10
-49.18216809816517
 20
3.860840490825872
 30
0.0
 11
-48.75174785275224
 21
4.291260736238804
 31
0.0
  0
LINE
  5
BBB
330
1F
100
AcDbEntity
  8
SK2
  6
CONTINUOUS
370
25
 62
7
100
AcDbLine
 10
-49.25287877628382
 20
4.214393881419149
 30
0.0
 11
-48.64568183557426
 21
4.821590822128712
 31
0.0
  0
LINE
  5
BBC
330
1F
100
AcDbEntity
  8
SK2
  6
CONTINUOUS
370
25
 62
7
100
AcDbLine
 10
-49.32358945440248
 20
4.567947272012425
 30
0.0
 11
-48.53961581839628
 21
5.351920908018627
 31
0.0
  0
LINE
  5
BBD
330
1F
100
AcDbEntity
  8
SK2
  6
CONTINUOUS
370
25
 62
7
100
AcDbLine
 10
-49.39430013252113
 20
4.921500662605695
 30
0.0
 11
-48.4335498012183
 21
5.882250993908528
 31
0.0
  0
LINE
  5
BBE
330
1F
100
AcDbEntity
  8
SK2
  6
CONTINUOUS
370
25
 62
7
100
AcDbLine
 10
-49.46501081063979
 20
5.275054053198978
 30
0.0
 11
-48.3274837840403
 21
6.412581079798471
 31
0.0
  0
LINE
  5
BBF
330
1F
100
AcDbEntity
  8
SK2
  6
CONTINUOUS
370
25
 62
7
100
AcDbLine
 10
-49.53572148875845
 20
5.628607443792241
 30
0.0
 11
-48.22141776686232
 21
6.942911165688379
 31
0.0
  0
LINE
  5
BC0
330
1F
100
AcDbEntity
  8
SK2
  6
CONTINUOUS
370
25
 62
7
100
AcDbLine
 10
-49.60643216687711
 20
5.982160834385525
 30
0.0
 11
-48.11535174968433
 21
7.473241251578301
 31
0.0
  0
LINE
  5
BC1
330
1F
100
AcDbEntity
  8
SK2
  6
CONTINUOUS
370
25
 62
7
100
AcDbLine
 10
-49.67714284499576
 20
6.335714224978801
 30
0.0
 11
-48.01285706997457
 21
8.0
 31
0.0
  0
LINE
  5
BC2
330
1F
100
AcDbEntity
  8
SK2
  6
CONTINUOUS
370
25
 62
7
100
AcDbLine
 10
-49.74785352311441
 20
6.689267615572071
 30
0.0
 11
-48.43712113868649
 21
8.0
 31
0.0
  0
LINE
  5
BC3
330
1F
100
AcDbEntity
  8
SK2
  6
CONTINUOUS
370
25
 62
7
100
AcDbLine
 10
-49.81856420123307
 20
7.042821006165354
 30
0.0
 11
-48.86138520739842
 21
8.0
 31
0.0
  0
LINE
  5
BC4
330
1F
100
AcDbEntity
  8
SK2
  6
CONTINUOUS
370
25
 62
7
100
AcDbLine
 10
-49.88927487935172
 20
7.396374396758624
 30
0.0
 11
-49.28564927611035
 21
8.0
 31
0.0
  0
LINE
  5
BC5
330
1F
100
AcDbEntity
  8
SK2
  6
CONTINUOUS
370
25
 62
7
100
AcDbLine
 10
-49.95998555747038
 20
7.749927787351908
 30
0.0
 11
-49.70991334482228
 21
8.0
 31
0.0
  0
LINE
  5
BC6
330
1F
100
AcDbEntity
  8
SK2
  6
CONTINUOUS
370
25
 62
7
100
AcDbLine
 10
-49.07538539465174
 20
3.326926973258736
 30
0.0
 11
-48.96640973689883
 21
3.217951315505829
 31
0.0
  0
LINE
  5
BC7
330
1F
100
AcDbEntity
  8
SK2
  6
CONTINUOUS
370
25
 62
7
100
AcDbLine
 10
-49.18145141182973
 20
3.857257059148665
 30
0.0
 11
-48.89569905878018
 21
3.57150470609912
 31
0.0
  0
LINE
  5
BC8
330
1F
100
AcDbEntity
  8
SK2
  6
CONTINUOUS
370
25
 62
7
100
AcDbLine
 10
-49.28751742900771
 20
4.387587145038587
 30
0.0
 11
-48.82498838066152
 21
3.925058096692389
 31
0.0
  0
LINE
  5
BC9
330
1F
100
AcDbEntity
  8
SK2
  6
CONTINUOUS
370
25
 62
7
100
AcDbLine
 10
-49.39358344618569
 20
4.917917230928495
 30
0.0
 11
-48.75427770254286
 21
4.278611487285666
 31
0.0
  0
LINE
  5
BCA
330
1F
100
AcDbEntity
  8
SK2
  6
CONTINUOUS
370
25
 62
7
100
AcDbLine
 10
-49.49964946336367
 20
5.448247316818403
 30
0.0
 11
-48.68356702442421
 21
4.632164877878942
 31
0.0
  0
LINE
  5
BCB
330
1F
100
AcDbEntity
  8
SK2
  6
CONTINUOUS
370
25
 62
7
100
AcDbLine
 10
-49.60571548054166
 20
5.978577402708325
 30
0.0
 11
-48.61285634630555
 21
4.985718268472212
 31
0.0
  0
LINE
  5
BCC
330
1F
100
AcDbEntity
  8
SK2
  6
CONTINUOUS
370
25
 62
7
100
AcDbLine
 10
-49.71178149771965
 20
6.508907488598247
 30
0.0
 11
-48.5421456681869
 21
5.339271659065496
 31
0.0
  0
LINE
  5
BCD
330
1F
100
AcDbEntity
  8
SK2
  6
CONTINUOUS
370
25
 62
7
100
AcDbLine
 10
-49.81784751489763
 20
7.039237574488148
 30
0.0
 11
-48.47143499006824
 21
5.692825049658758
 31
0.0
  0
LINE
  5
BCE
330
1F
100
AcDbEntity
  8
SK2
  6
CONTINUOUS
370
25
 62
7
100
AcDbLine
 10
-49.92391353207561
 20
7.569567660378056
 30
0.0
 11
-48.40072431194959
 21
6.046378440252035
 31
0.0
  0
LINE
  5
BCF
330
1F
100
AcDbEntity
  8
SK2
  6
CONTINUOUS
370
25
 62
7
100
AcDbLine
 10
-49.93008180298562
 20
8.0
 30
0.0
 11
-48.33001363383094
 21
6.399931830845318
 31
0.0
  0
LINE
  5
BD0
330
1F
100
AcDbEntity
  8
SK2
  6
CONTINUOUS
370
25
 62
7
100
AcDbLine
 10
-49.50581773427368
 20
8.0
 30
0.0
 11
-48.25930295571227
 21
6.753485221438588
 31
0.0
  0
LINE
  5
BD1
330
1F
100
AcDbEntity
  8
SK2
  6
CONTINUOUS
370
25
 62
7
100
AcDbLine
 10
-49.08155366556176
 20
8.0
 30
0.0
 11
-48.18859227759362
 21
7.107038612031864
 31
0.0
  0
LINE
  5
BD2
330
1F
100
AcDbEntity
  8
SK2
  6
CONTINUOUS
370
25
 62
7
100
AcDbLine
 10
-48.65728959684982
 20
8.0
 30
0.0
 11
-48.11788159947497
 21
7.460592002625148
 31
0.0
  0
LINE
  5
BD3
330
1F
100
AcDbEntity
  8
SK2
  6
CONTINUOUS
370
25
 62
7
100
AcDbLine
 10
-48.23302552813789
 20
8.0
 30
0.0
 11
-48.04717092135632
 21
7.814145393218432
 31
0.0
  0
TEXT
  5
BD4
330
1F
100
AcDbEntity
  8
SK2
  6
CONTINUOUS
370
25
 62
7
100
AcDbText
 10
-50.51
 20
13.34583333333333
 30
0.0
 40
3.5
  1
6
 50
90.00000000000001
 72
     1
 11
-50.51
 21
14.5125
 31
0.0
100
AcDbText
  0
CIRCLE
  5
BD5
330
1F
100
AcDbEntity
  8
SK2
  6
CONTINUOUS
370
25
 62
7
100
AcDbCircle
 10
-52.26
 20
11.1875
 30
0.0
 40
1.4
  0
LINE
  5
BD6
330
1F
100
AcDbEntity
  8
SK2
  6
CONTINUOUS
370
25
 62
7
100
AcDbLine
 10
-50.86
 20
9.787500000000001
 30
0.0
 11
-53.66
 21
12.5875
 31
0.0
  0
LINE
  5
BD7
330
1F
100
AcDbEntity
  8
SK2
  6
CONTINUOUS
370
25
 62
7
100
AcDbLine
 10
-37.01
 20
3.0
 30
0.0
 11
-37.01
 21
16.0
 31
0.0
  0
LINE
  5
BD8
330
1F
100
AcDbEntity
  8
SK2
  6
CONTINUOUS
370
25
 62
7
100
AcDbLine
 10
-0.0099999999999999
 20
16.0
 30
0.0
 11
-0.0100000000000007
 21
3.0
 31
0.0
  0
LINE
  5
BD9
330
1F
100
AcDbEntity
  8
SK2
  6
CONTINUOUS
370
25
 62
7
100
AcDbLine
 10
-37.01
 20
15.0
 30
0.0
 11
-0.01
 21
15.0
 31
0.0
  0
LINE
  5
BDA
330
1F
100
AcDbEntity
  8
SK2
  6
CONTINUOUS
370
25
 62
7
100
AcDbLine
 10
-37.01
 20
15.0
 30
0.0
 11
-32.01
 21
16.0
 31
0.0
  0
LINE
  5
BDB
330
1F
100
AcDbEntity
  8
SK2
  6
CONTINUOUS
370
25
 62
7
100
AcDbLine
 10
-32.01
 20
16.0
 30
0.0
 11
-32.01
 21
14.0
 31
0.0
  0
LINE
  5
BDC
330
1F
100
AcDbEntity
  8
SK2
  6
CONTINUOUS
370
25
 62
7
100
AcDbLine
 10
-32.01
 20
14.0
 30
0.0
 11
-37.01
 21
15.0
 31
0.0
  0
LINE
  5
BDD
330
1F
100
AcDbEntity
  8
SK2
  6
CONTINUOUS
370
25
 62
7
100
AcDbLine
 10
-32.21398624133349
 20
14.0407972482667
 30
0.0
 11
-32.01
 21
14.24478348960019
 31
0.0
  0
LINE
  5
BDE
330
1F
100
AcDbEntity
  8
SK2
  6
CONTINUOUS
370
25
 62
7
100
AcDbLine
 10
-32.56753963192676
 20
14.11150792638535
 30
0.0
 11
-32.01
 21
14.66904755831212
 31
0.0
  0
LINE
  5
BDF
330
1F
100
AcDbEntity
  8
SK2
  6
CONTINUOUS
370
25
 62
7
100
AcDbLine
 10
-32.92109302252003
 20
14.18221860450402
 30
0.0
 11
-32.01
 21
15.09331162702405
 31
0.0
  0
LINE
  5
BE0
330
1F
100
AcDbEntity
  8
SK2
  6
CONTINUOUS
370
25
 62
7
100
AcDbLine
 10
-33.2746464131133
 20
14.25292928262267
 30
0.0
 11
-32.01
 21
15.51757569573597
 31
0.0
  0
LINE
  5
BE1
330
1F
100
AcDbEntity
  8
SK2
  6
CONTINUOUS
370
25
 62
7
100
AcDbLine
 10
-33.62819980370659
 20
14.32363996074132
 30
0.0
 11
-32.01
 21
15.9418397644479
 31
0.0
  0
LINE
  5
BE2
330
1F
100
AcDbEntity
  8
SK2
  6
CONTINUOUS
370
25
 62
7
100
AcDbLine
 10
-33.98175319429986
 20
14.39435063885998
 30
0.0
 11
-32.4676297914498
 21
15.90847404171004
 31
0.0
  0
LINE
  5
BE3
330
1F
100
AcDbEntity
  8
SK2
  6
CONTINUOUS
370
25
 62
7
100
AcDbLine
 10
-34.33530658489313
 20
14.46506131697863
 30
0.0
 11
-32.9979598773397
 21
15.80240802453206
 31
0.0
  0
LINE
  5
BE4
330
1F
100
AcDbEntity
  8
SK2
  6
CONTINUOUS
370
25
 62
7
100
AcDbLine
 10
-34.68885997548641
 20
14.53577199509729
 30
0.0
 11
-33.52828996322961
 21
15.69634200735408
 31
0.0
  0
LINE
  5
BE5
330
1F
100
AcDbEntity
  8
SK2
  6
CONTINUOUS
370
25
 62
7
100
AcDbLine
 10
-35.04241336607969
 20
14.60648267321594
 30
0.0
 11
-34.05862004911953
 21
15.59027599017609
 31
0.0
  0
LINE
  5
BE6
330
1F
100
AcDbEntity
  8
SK2
  6
CONTINUOUS
370
25
 62
7
100
AcDbLine
 10
-35.39596675667296
 20
14.67719335133459
 30
0.0
 11
-34.58895013500944
 21
15.48420997299811
 31
0.0
  0
LINE
  5
BE7
330
1F
100
AcDbEntity
  8
SK2
  6
CONTINUOUS
370
25
 62
7
100
AcDbLine
 10
-35.74952014726623
 20
14.74790402945325
 30
0.0
 11
-35.11928022089936
 21
15.37814395582013
 31
0.0
  0
LINE
  5
BE8
330
1F
100
AcDbEntity
  8
SK2
  6
CONTINUOUS
370
25
 62
7
100
AcDbLine
 10
-36.10307353785951
 20
14.8186147075719
 30
0.0
 11
-35.64961030678926
 21
15.27207793864215
 31
0.0
  0
LINE
  5
BE9
330
1F
100
AcDbEntity
  8
SK2
  6
CONTINUOUS
370
25
 62
7
100
AcDbLine
 10
-36.45662692845278
 20
14.88932538569056
 30
0.0
 11
-36.17994039267918
 21
15.16601192146417
 31
0.0
  0
LINE
  5
BEA
330
1F
100
AcDbEntity
  8
SK2
  6
CONTINUOUS
370
25
 62
7
100
AcDbLine
 10
-36.81018031904605
 20
14.96003606380922
 30
0.0
 11
-36.71027047856909
 21
15.05994590428618
 31
0.0
  0
LINE
  5
BEB
330
1F
100
AcDbEntity
  8
SK2
  6
CONTINUOUS
370
25
 62
7
100
AcDbLine
 10
-36.94459194831079
 20
15.01308161033784
 30
0.0
 11
-36.91188792246619
 21
14.98037758449324
 31
0.0
  0
LINE
  5
BEC
330
1F
100
AcDbEntity
  8
SK2
  6
CONTINUOUS
370
25
 62
7
100
AcDbLine
 10
-36.59103855771752
 20
15.0837922884565
 30
0.0
 11
-36.38155783657627
 21
14.87431156731525
 31
0.0
  0
LINE
  5
BED
330
1F
100
AcDbEntity
  8
SK2
  6
CONTINUOUS
370
25
 62
7
100
AcDbLine
 10
-36.23748516712425
 20
15.15450296657515
 30
0.0
 11
-35.85122775068637
 21
14.76824555013727
 31
0.0
  0
LINE
  5
BEE
330
1F
100
AcDbEntity
  8
SK2
  6
CONTINUOUS
370
25
 62
7
100
AcDbLine
 10
-35.88393177653096
 20
15.2252136446938
 30
0.0
 11
-35.32089766479645
 21
14.66217953295928
 31
0.0
  0
LINE
  5
BEF
330
1F
100
AcDbEntity
  8
SK2
  6
CONTINUOUS
370
25
 62
7
100
AcDbLine
 10
-35.53037838593769
 20
15.29592432281246
 30
0.0
 11
-34.79056757890654
 21
14.55611351578131
 31
0.0
  0
LINE
  5
BF0
330
1F
100
AcDbEntity
  8
SK2
  6
CONTINUOUS
370
25
 62
7
100
AcDbLine
 10
-35.17682499534442
 20
15.36663500093112
 30
0.0
 11
-34.26023749301663
 21
14.45004749860333
 31
0.0
  0
LINE
  5
BF1
330
1F
100
AcDbEntity
  8
SK2
  6
CONTINUOUS
370
25
 62
7
100
AcDbLine
 10
-34.82327160475114
 20
15.43734567904977
 30
0.0
 11
-33.72990740712672
 21
14.34398148142535
 31
0.0
  0
LINE
  5
BF2
330
1F
100
AcDbEntity
  8
SK2
  6
CONTINUOUS
370
25
 62
7
100
AcDbLine
 10
-34.46971821415787
 20
15.50805635716842
 30
0.0
 11
-33.1995773212368
 21
14.23791546424735
 31
0.0
  0
LINE
  5
BF3
330
1F
100
AcDbEntity
  8
SK2
  6
CONTINUOUS
370
25
 62
7
100
AcDbLine
 10
-34.1161648235646
 20
15.57876703528708
 30
0.0
 11
-32.6692472353469
 21
14.13184944706938
 31
0.0
  0
LINE
  5
BF4
330
1F
100
AcDbEntity
  8
SK2
  6
CONTINUOUS
370
25
 62
7
100
AcDbLine
 10
-33.76261143297132
 20
15.64947771340573
 30
0.0
 11
-32.13891714945699
 21
14.02578342989139
 31
0.0
  0
LINE
  5
BF5
330
1F
100
AcDbEntity
  8
SK2
  6
CONTINUOUS
370
25
 62
7
100
AcDbLine
 10
-33.40905804237805
 20
15.7201883915244
 30
0.0
 11
-32.01
 21
14.32113034914634
 31
0.0
  0
LINE
  5
BF6
330
1F
100
AcDbEntity
  8
SK2
  6
CONTINUOUS
370
25
 62
7
100
AcDbLine
 10
-33.05550465178477
 20
15.79089906964304
 30
0.0
 11
-32.01
 21
14.74539441785827
 31
0.0
  0
LINE
  5
BF7
330
1F
100
AcDbEntity
  8
SK2
  6
CONTINUOUS
370
25
 62
7
100
AcDbLine
 10
-32.7019512611915
 20
15.8616097477617
 30
0.0
 11
-32.01
 21
15.16965848657019
 31
0.0
  0
LINE
  5
BF8
330
1F
100
AcDbEntity
  8
SK2
  6
CONTINUOUS
370
25
 62
7
100
AcDbLine
 10
-32.34839787059823
 20
15.93232042588035
 30
0.0
 11
-32.01
 21
15.59392255528212
 31
0.0
  0
LINE
  5
BF9
330
1F
100
AcDbEntity
  8
SK2
  6
CONTINUOUS
370
25
 62
7
100
AcDbLine
 10
-0.01
 20
15.0
 30
0.0
 11
-5.01
 21
14.0
 31
0.0
  0
LINE
  5
BFA
330
1F
100
AcDbEntity
  8
SK2
  6
CONTINUOUS
370
25
 62
7
100
AcDbLine
 10
-5.01
 20
14.0
 30
0.0
 11
-5.01
 21
16.0
 31
0.0
  0
LINE
  5
BFB
330
1F
100
AcDbEntity
  8
SK2
  6
CONTINUOUS
370
25
 62
7
100
AcDbLine
 10
-5.01
 20
16.0
 30
0.0
 11
-0.01
 21
15.0
 31
0.0
  0
LINE
  5
BFC
330
1F
100
AcDbEntity
  8
SK2
  6
CONTINUOUS
370
25
 62
7
100
AcDbLine
 10
-0.351883092036781
 20
14.93162338159264
 30
0.0
 11
-0.237922061357854
 21
15.04558441227157
 31
0.0
  0
LINE
  5
BFD
330
1F
100
AcDbEntity
  8
SK2
  6
CONTINUOUS
370
25
 62
7
100
AcDbLine
 10
-0.8822131779266906
 20
14.82555736441466
 30
0.0
 11
-0.5914754519511272
 21
15.11629509039023
 31
0.0
  0
LINE
  5
BFE
330
1F
100
AcDbEntity
  8
SK2
  6
CONTINUOUS
370
25
 62
7
100
AcDbLine
 10
-1.4125432638166
 20
14.71949134723668
 30
0.0
 11
-0.9450288425444002
 21
15.18700576850888
 31
0.0
  0
LINE
  5
BFF
330
1F
100
AcDbEntity
  8
SK2
  6
CONTINUOUS
370
25
 62
7
100
AcDbLine
 10
-1.94287334970651
 20
14.6134253300587
 30
0.0
 11
-1.298582233137673
 21
15.25771644662754
 31
0.0
  0
LINE
  5
C00
330
1F
100
AcDbEntity
  8
SK2
  6
CONTINUOUS
370
25
 62
7
100
AcDbLine
 10
-2.473203435596419
 20
14.50735931288072
 30
0.0
 11
-1.652135623730946
 21
15.32842712474619
 31
0.0
  0
LINE
  5
C01
330
1F
100
AcDbEntity
  8
SK2
  6
CONTINUOUS
370
25
 62
7
100
AcDbLine
 10
-3.003533521486328
 20
14.40129329570273
 30
0.0
 11
-2.005689014324219
 21
15.39913780286484
 31
0.0
  0
LINE
  5
C02
330
1F
100
AcDbEntity
  8
SK2
  6
CONTINUOUS
370
25
 62
7
100
AcDbLine
 10
-3.533863607376237
 20
14.29522727852475
 30
0.0
 11
-2.359242404917492
 21
15.4698484809835
 31
0.0
  0
LINE
  5
C03
330
1F
100
AcDbEntity
  8
SK2
  6
CONTINUOUS
370
25
 62
7
100
AcDbLine
 10
-4.064193693266146
 20
14.18916126134677
 30
0.0
 11
-2.712795795510765
 21
15.54055915910215
 31
0.0
  0
LINE
  5
C04
330
1F
100
AcDbEntity
  8
SK2
  6
CONTINUOUS
370
25
 62
7
100
AcDbLine
 10
-4.594523779156059
 20
14.08309524416879
 30
0.0
 11
-3.06634918610404
 21
15.61126983722081
 31
0.0
  0
LINE
  5
C05
330
1F
100
AcDbEntity
  8
SK2
  6
CONTINUOUS
370
25
 62
7
100
AcDbLine
 10
-5.01
 20
14.09188309203678
 30
0.0
 11
-3.419902576697313
 21
15.68198051533946
 31
0.0
  0
LINE
  5
C06
330
1F
100
AcDbEntity
  8
SK2
  6
CONTINUOUS
370
25
 62
7
100
AcDbLine
 10
-5.01
 20
14.5161471607487
 30
0.0
 11
-3.773455967290586
 21
15.75269119345812
 31
0.0
  0
LINE
  5
C07
330
1F
100
AcDbEntity
  8
SK2
  6
CONTINUOUS
370
25
 62
7
100
AcDbLine
 10
-5.01
 20
14.94041122946063
 30
0.0
 11
-4.127009357883859
 21
15.82340187157677
 31
0.0
  0
LINE
  5
C08
330
1F
100
AcDbEntity
  8
SK2
  6
CONTINUOUS
370
25
 62
7
100
AcDbLine
 10
-5.01
 20
15.36467529817256
 30
0.0
 11
-4.480562748477132
 21
15.89411254969543
 31
0.0
  0
LINE
  5
C09
330
1F
100
AcDbEntity
  8
SK2
  6
CONTINUOUS
370
25
 62
7
100
AcDbLine
 10
-5.01
 20
15.78893936688449
 30
0.0
 11
-4.834116139070405
 21
15.96482322781408
 31
0.0
  0
LINE
  5
C0A
330
1F
100
AcDbEntity
  8
SK2
  6
CONTINUOUS
370
25
 62
7
100
AcDbLine
 10
-5.01
 20
14.3338095116624
 30
0.0
 11
-4.731825406947999
 21
14.0556349186104
 31
0.0
  0
LINE
  5
C0B
330
1F
100
AcDbEntity
  8
SK2
  6
CONTINUOUS
370
25
 62
7
100
AcDbLine
 10
-5.01
 20
14.75807358037433
 30
0.0
 11
-4.378272016354726
 21
14.12634559672905
 31
0.0
  0
LINE
  5
C0C
330
1F
100
AcDbEntity
  8
SK2
  6
CONTINUOUS
370
25
 62
7
100
AcDbLine
 10
-5.01
 20
15.18233764908625
 30
0.0
 11
-4.024718625761453
 21
14.19705627484771
 31
0.0
  0
LINE
  5
C0D
330
1F
100
AcDbEntity
  8
SK2
  6
CONTINUOUS
370
25
 62
7
100
AcDbLine
 10
-5.01
 20
15.60660171779818
 30
0.0
 11
-3.671165235168179
 21
14.26776695296637
 31
0.0
  0
LINE
  5
C0E
330
1F
100
AcDbEntity
  8
SK2
  6
CONTINUOUS
370
25
 62
7
100
AcDbLine
 10
-4.971417766862361
 20
15.99228355337247
 30
0.0
 11
-3.317611844574905
 21
14.33847763108502
 31
0.0
  0
LINE
  5
C0F
330
1F
100
AcDbEntity
  8
SK2
  6
CONTINUOUS
370
25
 62
7
100
AcDbLine
 10
-4.44108768097245
 20
15.88621753619449
 30
0.0
 11
-2.964058453981631
 21
14.40918830920367
 31
0.0
  0
LINE
  5
C10
330
1F
100
AcDbEntity
  8
SK2
  6
CONTINUOUS
370
25
 62
7
100
AcDbLine
 10
-3.91075759508254
 20
15.78015151901651
 30
0.0
 11
-2.610505063388358
 21
14.47989898732233
 31
0.0
  0
LINE
  5
C11
330
1F
100
AcDbEntity
  8
SK2
  6
CONTINUOUS
370
25
 62
7
100
AcDbLine
 10
-3.380427509192631
 20
15.67408550183853
 30
0.0
 11
-2.256951672795086
 21
14.55060966544098
 31
0.0
  0
LINE
  5
C12
330
1F
100
AcDbEntity
  8
SK2
  6
CONTINUOUS
370
25
 62
7
100
AcDbLine
 10
-2.85009742330272
 20
15.56801948466054
 30
0.0
 11
-1.903398282201813
 21
14.62132034355964
 31
0.0
  0
LINE
  5
C13
330
1F
100
AcDbEntity
  8
SK2
  6
CONTINUOUS
370
25
 62
7
100
AcDbLine
 10
-2.319767337412809
 20
15.46195346748256
 30
0.0
 11
-1.549844891608539
 21
14.69203102167829
 31
0.0
  0
LINE
  5
C14
330
1F
100
AcDbEntity
  8
SK2
  6
CONTINUOUS
370
25
 62
7
100
AcDbLine
 10
-1.7894372515229
 20
15.35588745030458
 30
0.0
 11
-1.196291501015265
 21
14.76274169979695
 31
0.0
  0
LINE
  5
C15
330
1F
100
AcDbEntity
  8
SK2
  6
CONTINUOUS
370
25
 62
7
100
AcDbLine
 10
-1.259107165632989
 20
15.2498214331266
 30
0.0
 11
-0.8427381104219916
 21
14.8334523779156
 31
0.0
  0
LINE
  5
C16
330
1F
100
AcDbEntity
  8
SK2
  6
CONTINUOUS
370
25
 62
7
100
AcDbLine
 10
-0.7287770797430799
 20
15.14375541594862
 30
0.0
 11
-0.4891847198287195
 21
14.90416305603426
 31
0.0
  0
LINE
  5
C17
330
1F
100
AcDbEntity
  8
SK2
  6
CONTINUOUS
370
25
 62
7
100
AcDbLine
 10
-0.1984469938531668
 20
15.03768939877063
 30
0.0
 11
-0.1356313292354444
 21
14.97487373415291
 31
0.0
  0
TEXT
  5
C18
330
1F
100
AcDbEntity
  8
SK2
  6
CONTINUOUS
370
25
 62
7
100
AcDbText
 10
-21.42666666666667
 20
16.5
 30
0.0
 40
3.5
  1
37
 72
     1
 11
-18.51
 21
16.5
 31
0.0
100
AcDbText
  0
LINE
  5
C19
330
1F
100
AcDbEntity
  8
2
  6
CONTINUOUS
370
25
 62
7
100
AcDbLine
 10
18.99
 20
-3.0
 30
0.0
 11
32.99
 21
-3.000000000000002
 31
0.0
  0
LINE
  5
C1A
330
1F
100
AcDbEntity
  8
2
  6
CONTINUOUS
370
25
 62
7
100
AcDbLine
 10
32.99
 20
2.999999999999998
 30
0.0
 11
18.99
 21
3.0
 31
0.0
  0
LINE
  5
C1B
330
1F
100
AcDbEntity
  8
2
  6
CONTINUOUS
370
25
 62
7
100
AcDbLine
 10
31.99
 20
-10.0
 30
0.0
 11
31.99
 21
16.475
 31
0.0
  0
LINE
  5
C1C
330
1F
100
AcDbEntity
  8
2
  6
CONTINUOUS
370
25
 62
7
100
AcDbLine
 10
31.99
 20
-3.000000000000002
 30
0.0
 11
32.99
 21
-8.000000000000002
 31
0.0
  0
LINE
  5
C1D
330
1F
100
AcDbEntity
  8
2
  6
CONTINUOUS
370
25
 62
7
100
AcDbLine
 10
32.99
 20
-8.000000000000002
 30
0.0
 11
30.99
 21
-8.000000000000002
 31
0.0
  0
LINE
  5
C1E
330
1F
100
AcDbEntity
  8
2
  6
CONTINUOUS
370
25
 62
7
100
AcDbLine
 10
30.99
 20
-8.000000000000002
 30
0.0
 11
31.99
 21
-3.000000000000002
 31
0.0
  0
LINE
  5
C1F
330
1F
100
AcDbEntity
  8
2
  6
CONTINUOUS
370
25
 62
7
100
AcDbLine
 10
32.94094758949577
 20
-8.0
 30
0.0
 11
32.98182459824929
 21
-7.959122991246481
 31
0.0
  0
LINE
  5
C20
330
1F
100
AcDbEntity
  8
2
  6
CONTINUOUS
370
25
 62
7
100
AcDbLine
 10
32.51668352078384
 20
-8.0
 30
0.0
 11
32.91111392013065
 21
-7.605569600653197
 31
0.0
  0
LINE
  5
C21
330
1F
100
AcDbEntity
  8
2
  6
CONTINUOUS
370
25
 62
7
100
AcDbLine
 10
32.09241945207192
 20
-8.0
 30
0.0
 11
32.84040324201199
 21
-7.252016210059928
 31
0.0
  0
LINE
  5
C22
330
1F
100
AcDbEntity
  8
2
  6
CONTINUOUS
370
25
 62
7
100
AcDbLine
 10
31.66815538335998
 20
-8.0
 30
0.0
 11
32.76969256389333
 21
-6.898462819466651
 31
0.0
  0
LINE
  5
C23
330
1F
100
AcDbEntity
  8
2
  6
CONTINUOUS
370
25
 62
7
100
AcDbLine
 10
31.24389131464806
 20
-8.0
 30
0.0
 11
32.69898188577468
 21
-6.544909428873382
 31
0.0
  0
LINE
  5
C24
330
1F
100
AcDbEntity
  8
2
  6
CONTINUOUS
370
25
 62
7
100
AcDbLine
 10
31.03259318851597
 20
-7.787034057420158
 30
0.0
 11
32.62827120765603
 21
-6.191356038280098
 31
0.0
  0
LINE
  5
C25
330
1F
100
AcDbEntity
  8
2
  6
CONTINUOUS
370
25
 62
7
100
AcDbLine
 10
31.13865920569395
 20
-7.25670397153025
 30
0.0
 11
32.55756052953737
 21
-5.837802647686829
 31
0.0
  0
LINE
  5
C26
330
1F
100
AcDbEntity
  8
2
  6
CONTINUOUS
370
25
 62
7
100
AcDbLine
 10
31.24472522287193
 20
-6.726373885640328
 30
0.0
 11
32.48684985141871
 21
-5.484249257093552
 31
0.0
  0
LINE
  5
C27
330
1F
100
AcDbEntity
  8
2
  6
CONTINUOUS
370
25
 62
7
100
AcDbLine
 10
31.35079124004992
 20
-6.19604379975042
 30
0.0
 11
32.41613917330005
 21
-5.130695866500282
 31
0.0
  0
LINE
  5
C28
330
1F
100
AcDbEntity
  8
2
  6
CONTINUOUS
370
25
 62
7
100
AcDbLine
 10
31.4568572572279
 20
-5.665713713860509
 30
0.0
 11
32.3454284951814
 21
-4.777142475907006
 31
0.0
  0
LINE
  5
C29
330
1F
100
AcDbEntity
  8
2
  6
CONTINUOUS
370
25
 62
7
100
AcDbLine
 10
31.56292327440588
 20
-5.135383627970594
 30
0.0
 11
32.27471781706275
 21
-4.423589085313722
 31
0.0
  0
LINE
  5
C2A
330
1F
100
AcDbEntity
  8
2
  6
CONTINUOUS
370
25
 62
7
100
AcDbLine
 10
31.66898929158386
 20
-4.605053542080682
 30
0.0
 11
32.20400713894409
 21
-4.070035694720453
 31
0.0
  0
LINE
  5
C2B
330
1F
100
AcDbEntity
  8
2
  6
CONTINUOUS
370
25
 62
7
100
AcDbLine
 10
31.77505530876185
 20
-4.07472345619076
 30
0.0
 11
32.13329646082543
 21
-3.716482304127176
 31
0.0
  0
LINE
  5
C2C
330
1F
100
AcDbEntity
  8
2
  6
CONTINUOUS
370
25
 62
7
100
AcDbLine
 10
31.88112132593983
 20
-3.544393370300849
 30
0.0
 11
32.06258578270678
 21
-3.362928913533906
 31
0.0
  0
LINE
  5
C2D
330
1F
100
AcDbEntity
  8
2
  6
CONTINUOUS
370
25
 62
7
100
AcDbLine
 10
31.98718734311781
 20
-3.014063284410934
 30
0.0
 11
31.99187510458812
 21
-3.009375522940623
 31
0.0
  0
LINE
  5
C2E
330
1F
100
AcDbEntity
  8
2
  6
CONTINUOUS
370
25
 62
7
100
AcDbLine
 10
31.04575396319269
 20
-7.721230184036532
 30
0.0
 11
31.32452377915617
 21
-8.0
 31
0.0
  0
LINE
  5
C2F
330
1F
100
AcDbEntity
  8
2
  6
CONTINUOUS
370
25
 62
7
100
AcDbLine
 10
31.11646464131135
 20
-7.367676793443248
 30
0.0
 11
31.7487878478681
 21
-8.000000000000004
 31
0.0
  0
LINE
  5
C30
330
1F
100
AcDbEntity
  8
2
  6
CONTINUOUS
370
25
 62
7
100
AcDbLine
 10
31.18717531943
 20
-7.014123402849979
 30
0.0
 11
32.17305191658004
 21
-8.000000000000004
 31
0.0
  0
LINE
  5
C31
330
1F
100
AcDbEntity
  8
2
  6
CONTINUOUS
370
25
 62
7
100
AcDbLine
 10
31.25788599754866
 20
-6.660570012256706
 30
0.0
 11
32.59731598529196
 21
-8.0
 31
0.0
  0
LINE
  5
C32
330
1F
100
AcDbEntity
  8
2
  6
CONTINUOUS
370
25
 62
7
100
AcDbLine
 10
31.32859667566731
 20
-6.307016621663429
 30
0.0
 11
32.98210498649903
 21
-7.960524932495137
 31
0.0
  0
LINE
  5
C33
330
1F
100
AcDbEntity
  8
2
  6
CONTINUOUS
370
25
 62
7
100
AcDbLine
 10
31.39930735378597
 20
-5.95346323107016
 30
0.0
 11
32.87603896932104
 21
-7.430194846605218
 31
0.0
  0
LINE
  5
C34
330
1F
100
AcDbEntity
  8
2
  6
CONTINUOUS
370
25
 62
7
100
AcDbLine
 10
31.47001803190462
 20
-5.599909840476883
 30
0.0
 11
32.76997295214306
 21
-6.89986476071531
 31
0.0
  0
LINE
  5
C35
330
1F
100
AcDbEntity
  8
2
  6
CONTINUOUS
370
25
 62
7
100
AcDbLine
 10
31.54072871002328
 20
-5.24635644988361
 30
0.0
 11
32.66390693496508
 21
-6.369534674825406
 31
0.0
  0
LINE
  5
C36
330
1F
100
AcDbEntity
  8
2
  6
CONTINUOUS
370
25
 62
7
100
AcDbLine
 10
31.61143938814194
 20
-4.892803059290333
 30
0.0
 11
32.5578409177871
 21
-5.839204588935484
 31
0.0
  0
LINE
  5
C37
330
1F
100
AcDbEntity
  8
2
  6
CONTINUOUS
370
25
 62
7
100
AcDbLine
 10
31.68215006626059
 20
-4.539249668697057
 30
0.0
 11
32.45177490060912
 21
-5.30887450304558
 31
0.0
  0
LINE
  5
C38
330
1F
100
AcDbEntity
  8
2
  6
CONTINUOUS
370
25
 62
7
100
AcDbLine
 10
31.75286074437924
 20
-4.18569627810378
 30
0.0
 11
32.34570888343114
 21
-4.778544417155672
 31
0.0
  0
LINE
  5
C39
330
1F
100
AcDbEntity
  8
2
  6
CONTINUOUS
370
25
 62
7
100
AcDbLine
 10
31.8235714224979
 20
-3.832142887510507
 30
0.0
 11
32.23964286625316
 21
-4.248214331265761
 31
0.0
  0
LINE
  5
C3A
330
1F
100
AcDbEntity
  8
2
  6
CONTINUOUS
370
25
 62
7
100
AcDbLine
 10
31.89428210061655
 20
-3.478589496917234
 30
0.0
 11
32.13357684907518
 21
-3.717884245375853
 31
0.0
  0
LINE
  5
C3B
330
1F
100
AcDbEntity
  8
2
  6
CONTINUOUS
370
25
 62
7
100
AcDbLine
 10
31.96499277873521
 20
-3.125036106323964
 30
0.0
 11
32.02751083189719
 21
-3.187554159485938
 31
0.0
  0
LINE
  5
C3C
330
1F
100
AcDbEntity
  8
2
  6
CONTINUOUS
370
25
 62
7
100
AcDbLine
 10
31.99
 20
2.999999999999998
 30
0.0
 11
30.99
 21
7.999999999999998
 31
0.0
  0
LINE
  5
C3D
330
1F
100
AcDbEntity
  8
2
  6
CONTINUOUS
370
25
 62
7
100
AcDbLine
 10
30.99
 20
7.999999999999998
 30
0.0
 11
32.99
 21
7.999999999999998
 31
0.0
  0
LINE
  5
C3E
330
1F
100
AcDbEntity
  8
2
  6
CONTINUOUS
370
25
 62
7
100
AcDbLine
 10
32.99
 20
7.999999999999998
 30
0.0
 11
31.99
 21
2.999999999999998
 31
0.0
  0
LINE
  5
C3F
330
1F
100
AcDbEntity
  8
2
  6
CONTINUOUS
370
25
 62
7
100
AcDbLine
 10
31.94150352831169
 20
3.242482358441546
 30
0.0
 11
32.06274470753247
 21
3.363723537662317
 31
0.0
  0
LINE
  5
C40
330
1F
100
AcDbEntity
  8
2
  6
CONTINUOUS
370
25
 62
7
100
AcDbLine
 10
31.87079285019303
 20
3.596035749034819
 30
0.0
 11
32.16881072471045
 21
3.894053623552228
 31
0.0
  0
LINE
  5
C41
330
1F
100
AcDbEntity
  8
2
  6
CONTINUOUS
370
25
 62
7
100
AcDbLine
 10
31.80008217207438
 20
3.949589139628095
 30
0.0
 11
32.27487674188843
 21
4.424383709442136
 31
0.0
  0
LINE
  5
C42
330
1F
100
AcDbEntity
  8
2
  6
CONTINUOUS
370
25
 62
7
100
AcDbLine
 10
31.72937149395572
 20
4.303142530221368
 30
0.0
 11
32.38094275906641
 21
4.954713795332054
 31
0.0
  0
LINE
  5
C43
330
1F
100
AcDbEntity
  8
2
  6
CONTINUOUS
370
25
 62
7
100
AcDbLine
 10
31.65866081583707
 20
4.656695920814641
 30
0.0
 11
32.48700877624439
 21
5.485043881221962
 31
0.0
  0
LINE
  5
C44
330
1F
100
AcDbEntity
  8
2
  6
CONTINUOUS
370
25
 62
7
100
AcDbLine
 10
31.58795013771842
 20
5.010249311407918
 30
0.0
 11
32.59307479342237
 21
6.015373967111874
 31
0.0
  0
LINE
  5
C45
330
1F
100
AcDbEntity
  8
2
  6
CONTINUOUS
370
25
 62
7
100
AcDbLine
 10
31.51723945959976
 20
5.363802702001191
 30
0.0
 11
32.69914081060036
 21
6.545704053001796
 31
0.0
  0
LINE
  5
C46
330
1F
100
AcDbEntity
  8
2
  6
CONTINUOUS
370
25
 62
7
100
AcDbLine
 10
31.44652878148111
 20
5.717356092594471
 30
0.0
 11
32.80520682777834
 21
7.076034138891714
 31
0.0
  0
LINE
  5
C47
330
1F
100
AcDbEntity
  8
2
  6
CONTINUOUS
370
25
 62
7
100
AcDbLine
 10
31.37581810336245
 20
6.070909483187741
 30
0.0
 11
32.91127284495633
 21
7.606364224781629
 31
0.0
  0
LINE
  5
C48
330
1F
100
AcDbEntity
  8
2
  6
CONTINUOUS
370
25
 62
7
100
AcDbLine
 10
31.30510742524379
 20
6.424462873781017
 30
0.0
 11
32.88064455146277
 21
7.999999999999996
 31
0.0
  0
LINE
  5
C49
330
1F
100
AcDbEntity
  8
2
  6
CONTINUOUS
370
25
 62
7
100
AcDbLine
 10
31.23439674712514
 20
6.778016264374298
 30
0.0
 11
32.45638048275084
 21
8.0
 31
0.0
  0
LINE
  5
C4A
330
1F
100
AcDbEntity
  8
2
  6
CONTINUOUS
370
25
 62
7
100
AcDbLine
 10
31.16368606900648
 20
7.131569654967571
 30
0.0
 11
32.03211641403891
 21
7.999999999999996
 31
0.0
  0
LINE
  5
C4B
330
1F
100
AcDbEntity
  8
2
  6
CONTINUOUS
370
25
 62
7
100
AcDbLine
 10
31.09297539088783
 20
7.485123045560844
 30
0.0
 11
31.60785234532698
 21
8.0
 31
0.0
  0
LINE
  5
C4C
330
1F
100
AcDbEntity
  8
2
  6
CONTINUOUS
370
25
 62
7
100
AcDbLine
 10
31.02226471276918
 20
7.838676436154117
 30
0.0
 11
31.18358827661505
 21
8.0
 31
0.0
  0
LINE
  5
C4D
330
1F
100
AcDbEntity
  8
2
  6
CONTINUOUS
370
25
 62
7
100
AcDbLine
 10
31.93652057422747
 20
3.267397128862662
 30
0.0
 11
32.02565295051502
 21
3.17826475257511
 31
0.0
  0
LINE
  5
C4E
330
1F
100
AcDbEntity
  8
2
  6
CONTINUOUS
370
25
 62
7
100
AcDbLine
 10
31.83045455704949
 20
3.797727214752573
 30
0.0
 11
32.09636362863368
 21
3.531818143168387
 31
0.0
  0
LINE
  5
C4F
330
1F
100
AcDbEntity
  8
2
  6
CONTINUOUS
370
25
 62
7
100
AcDbLine
 10
31.7243885398715
 20
4.328057300642492
 30
0.0
 11
32.16707430675233
 21
3.885371533761663
 31
0.0
  0
LINE
  5
C50
330
1F
100
AcDbEntity
  8
2
  6
CONTINUOUS
370
25
 62
7
100
AcDbLine
 10
31.61832252269352
 20
4.858387386532392
 30
0.0
 11
32.23778498487098
 21
4.23892492435494
 31
0.0
  0
LINE
  5
C51
330
1F
100
AcDbEntity
  8
2
  6
CONTINUOUS
370
25
 62
7
100
AcDbLine
 10
31.51225650551554
 20
5.388717472422304
 30
0.0
 11
32.30849566298964
 21
4.59247831494821
 31
0.0
  0
LINE
  5
C52
330
1F
100
AcDbEntity
  8
2
  6
CONTINUOUS
370
25
 62
7
100
AcDbLine
 10
31.40619048833755
 20
5.919047558312215
 30
0.0
 11
32.3792063411083
 21
4.946031705541479
 31
0.0
  0
LINE
  5
C53
330
1F
100
AcDbEntity
  8
2
  6
CONTINUOUS
370
25
 62
7
100
AcDbLine
 10
31.30012447115957
 20
6.449377644202137
 30
0.0
 11
32.44991701922696
 21
5.299585096134756
 31
0.0
  0
LINE
  5
C54
330
1F
100
AcDbEntity
  8
2
  6
CONTINUOUS
370
25
 62
7
100
AcDbLine
 10
31.19405845398159
 20
6.979707730092034
 30
0.0
 11
32.52062769734561
 21
5.653138486728032
 31
0.0
  0
LINE
  5
C55
330
1F
100
AcDbEntity
  8
2
  6
CONTINUOUS
370
25
 62
7
100
AcDbLine
 10
31.08799243680361
 20
7.510037815981946
 30
0.0
 11
32.59133837546426
 21
6.006691877321309
 31
0.0
  0
LINE
  5
C56
330
1F
100
AcDbEntity
  8
2
  6
CONTINUOUS
370
25
 62
7
100
AcDbLine
 10
31.02229432149748
 20
8.0
 30
0.0
 11
32.66204905358292
 21
6.360245267914578
 31
0.0
  0
LINE
  5
C57
330
1F
100
AcDbEntity
  8
2
  6
CONTINUOUS
370
25
 62
7
100
AcDbLine
 10
31.44655839020941
 20
8.0
 30
0.0
 11
32.73275973170158
 21
6.713798658507848
 31
0.0
  0
LINE
  5
C58
330
1F
100
AcDbEntity
  8
2
  6
CONTINUOUS
370
25
 62
7
100
AcDbLine
 10
31.87082245892134
 20
8.0
 30
0.0
 11
32.80347040982023
 21
7.067352049101125
 31
0.0
  0
LINE
  5
C59
330
1F
100
AcDbEntity
  8
2
  6
CONTINUOUS
370
25
 62
7
100
AcDbLine
 10
32.29508652763327
 20
8.0
 30
0.0
 11
32.87418108793888
 21
7.420905439694401
 31
0.0
  0
LINE
  5
C5A
330
1F
100
AcDbEntity
  8
2
  6
CONTINUOUS
370
25
 62
7
100
AcDbLine
 10
32.71935059634521
 20
8.0
 30
0.0
 11
32.94489176605754
 21
7.774458830287671
 31
0.0
  0
TEXT
  5
C5B
330
1F
100
AcDbEntity
  8
2
  6
CONTINUOUS
370
25
 62
7
100
AcDbText
 10
30.49
 20
13.34583333333333
 30
0.0
 40
3.5
  1
6
 50
90.00000000000001
 72
     1
 11
30.49
 21
14.5125
 31
0.0
100
AcDbText
  0
CIRCLE
  5
C5C
330
1F
100
AcDbEntity
  8
2
  6
CONTINUOUS
370
25
 62
7
100
AcDbCircle
 10
28.74
 20
11.1875
 30
0.0
 40
1.4
  0
LINE
  5
C5D
330
1F
100
AcDbEntity
  8
2
  6
CONTINUOUS
370
25
 62
7
100
AcDbLine
 10
30.14
 20
9.7875
 30
0.0
 11
27.34
 21
12.5875
 31
0.0
  0
LINE
  5
C5E
330
1F
100
AcDbEntity
  8
2
  6
CONTINUOUS
370
25
 62
7
100
AcDbLine
 10
6.99
 20
-3.0
 30
0.0
 11
6.989999999999999
 21
-16.0
 31
0.0
  0
LINE
  5
C5F
330
1F
100
AcDbEntity
  8
2
  6
CONTINUOUS
370
25
 62
7
100
AcDbLine
 10
19.99
 20
-16.0
 30
0.0
 11
19.99
 21
-2.0
 31
0.0
  0
LINE
  5
C60
330
1F
100
AcDbEntity
  8
2
  6
CONTINUOUS
370
25
 62
7
100
AcDbLine
 10
-0.0100000000000009
 20
-15.0
 30
0.0
 11
26.99
 21
-15.0
 31
0.0
  0
LINE
  5
C61
330
1F
100
AcDbEntity
  8
2
  6
CONTINUOUS
370
25
 62
7
100
AcDbLine
 10
6.989999999999999
 20
-15.0
 30
0.0
 11
1.989999999999999
 21
-16.0
 31
0.0
  0
LINE
  5
C62
330
1F
100
AcDbEntity
  8
2
  6
CONTINUOUS
370
25
 62
7
100
AcDbLine
 10
1.989999999999999
 20
-16.0
 30
0.0
 11
1.989999999999999
 21
-14.0
 31
0.0
  0
LINE
  5
C63
330
1F
100
AcDbEntity
  8
2
  6
CONTINUOUS
370
25
 62
7
100
AcDbLine
 10
1.989999999999999
 20
-14.0
 30
0.0
 11
6.989999999999999
 21
-15.0
 31
0.0
  0
LINE
  5
C64
330
1F
100
AcDbEntity
  8
2
  6
CONTINUOUS
370
25
 62
7
100
AcDbLine
 10
6.891887922466141
 20
-15.01962241550677
 30
0.0
 11
6.92459194831076
 21
-14.98691838966215
 31
0.0
  0
LINE
  5
C65
330
1F
100
AcDbEntity
  8
2
  6
CONTINUOUS
370
25
 62
7
100
AcDbLine
 10
6.361557836576234
 20
-15.12568843268475
 30
0.0
 11
6.571038557717489
 21
-14.9162077115435
 31
0.0
  0
LINE
  5
C66
330
1F
100
AcDbEntity
  8
2
  6
CONTINUOUS
370
25
 62
7
100
AcDbLine
 10
5.831227750686319
 20
-15.23175444986273
 30
0.0
 11
6.217485167124212
 21
-14.84549703342484
 31
0.0
  0
LINE
  5
C67
330
1F
100
AcDbEntity
  8
2
  6
CONTINUOUS
370
25
 62
7
100
AcDbLine
 10
5.300897664796409
 20
-15.33782046704072
 30
0.0
 11
5.863931776530939
 21
-14.77478635530619
 31
0.0
  0
LINE
  5
C68
330
1F
100
AcDbEntity
  8
2
  6
CONTINUOUS
370
25
 62
7
100
AcDbLine
 10
4.770567578906499
 20
-15.4438864842187
 30
0.0
 11
5.510378385937666
 21
-14.70407567718753
 31
0.0
  0
LINE
  5
C69
330
1F
100
AcDbEntity
  8
2
  6
CONTINUOUS
370
25
 62
7
100
AcDbLine
 10
4.240237493016591
 20
-15.54995250139668
 30
0.0
 11
5.156824995344393
 21
-14.63336499906888
 31
0.0
  0
LINE
  5
C6A
330
1F
100
AcDbEntity
  8
2
  6
CONTINUOUS
370
25
 62
7
100
AcDbLine
 10
3.709907407126681
 20
-15.65601851857466
 30
0.0
 11
4.80327160475112
 21
-14.56265432095022
 31
0.0
  0
LINE
  5
C6B
330
1F
100
AcDbEntity
  8
2
  6
CONTINUOUS
370
25
 62
7
100
AcDbLine
 10
3.179577321236772
 20
-15.76208453575264
 30
0.0
 11
4.449718214157847
 21
-14.49194364283157
 31
0.0
  0
LINE
  5
C6C
330
1F
100
AcDbEntity
  8
2
  6
CONTINUOUS
370
25
 62
7
100
AcDbLine
 10
2.649247235346861
 20
-15.86815055293063
 30
0.0
 11
4.096164823564574
 21
-14.42123296471291
 31
0.0
  0
LINE
  5
C6D
330
1F
100
AcDbEntity
  8
2
  6
CONTINUOUS
370
25
 62
7
100
AcDbLine
 10
2.118917149456951
 20
-15.97421657010861
 30
0.0
 11
3.7426114329713
 21
-14.35052228659426
 31
0.0
  0
LINE
  5
C6E
330
1F
100
AcDbEntity
  8
2
  6
CONTINUOUS
370
25
 62
7
100
AcDbLine
 10
1.989999999999999
 20
-15.67886965085363
 30
0.0
 11
3.389058042378028
 21
-14.2798116084756
 31
0.0
  0
LINE
  5
C6F
330
1F
100
AcDbEntity
  8
2
  6
CONTINUOUS
370
25
 62
7
100
AcDbLine
 10
1.989999999999999
 20
-15.25460558214171
 30
0.0
 11
3.035504651784755
 21
-14.20910093035695
 31
0.0
  0
LINE
  5
C70
330
1F
100
AcDbEntity
  8
2
  6
CONTINUOUS
370
25
 62
7
100
AcDbLine
 10
1.989999999999999
 20
-14.83034151342978
 30
0.0
 11
2.681951261191482
 21
-14.1383902522383
 31
0.0
  0
LINE
  5
C71
330
1F
100
AcDbEntity
  8
2
  6
CONTINUOUS
370
25
 62
7
100
AcDbLine
 10
1.989999999999999
 20
-14.40607744471785
 30
0.0
 11
2.328397870598208
 21
-14.06767957411964
 31
0.0
  0
LINE
  5
C72
330
1F
100
AcDbEntity
  8
2
  6
CONTINUOUS
370
25
 62
7
100
AcDbLine
 10
1.989999999999999
 20
-15.67958391834729
 30
0.0
 11
2.257013401377257
 21
-15.94659731972455
 31
0.0
  0
LINE
  5
C73
330
1F
100
AcDbEntity
  8
2
  6
CONTINUOUS
370
25
 62
7
100
AcDbLine
 10
1.989999999999999
 20
-15.25531984963536
 30
0.0
 11
2.610566791970531
 21
-15.87588664160589
 31
0.0
  0
LINE
  5
C74
330
1F
100
AcDbEntity
  8
2
  6
CONTINUOUS
370
25
 62
7
100
AcDbLine
 10
1.989999999999999
 20
-14.83105578092343
 30
0.0
 11
2.964120182563804
 21
-15.80517596348724
 31
0.0
  0
LINE
  5
C75
330
1F
100
AcDbEntity
  8
2
  6
CONTINUOUS
370
25
 62
7
100
AcDbLine
 10
1.989999999999999
 20
-14.40679171221151
 30
0.0
 11
3.317673573157077
 21
-15.73446528536858
 31
0.0
  0
LINE
  5
C76
330
1F
100
AcDbEntity
  8
2
  6
CONTINUOUS
370
25
 62
7
100
AcDbLine
 10
2.011840445625525
 20
-14.00436808912511
 30
0.0
 11
3.671226963750351
 21
-15.66375460724993
 31
0.0
  0
LINE
  5
C77
330
1F
100
AcDbEntity
  8
2
  6
CONTINUOUS
370
25
 62
7
100
AcDbLine
 10
2.542170531515436
 20
-14.11043410630309
 30
0.0
 11
4.024780354343624
 21
-15.59304392913127
 31
0.0
  0
LINE
  5
C78
330
1F
100
AcDbEntity
  8
2
  6
CONTINUOUS
370
25
 62
7
100
AcDbLine
 10
3.072500617405346
 20
-14.21650012348107
 30
0.0
 11
4.378333744936898
 21
-15.52233325101262
 31
0.0
  0
LINE
  5
C79
330
1F
100
AcDbEntity
  8
2
  6
CONTINUOUS
370
25
 62
7
100
AcDbLine
 10
3.602830703295256
 20
-14.32256614065905
 30
0.0
 11
4.731887135530171
 21
-15.45162257289396
 31
0.0
  0
LINE
  5
C7A
330
1F
100
AcDbEntity
  8
2
  6
CONTINUOUS
370
25
 62
7
100
AcDbLine
 10
4.133160789185166
 20
-14.42863215783703
 30
0.0
 11
5.085440526123444
 21
-15.38091189477531
 31
0.0
  0
LINE
  5
C7B
330
1F
100
AcDbEntity
  8
2
  6
CONTINUOUS
370
25
 62
7
100
AcDbLine
 10
4.663490875075076
 20
-14.53469817501502
 30
0.0
 11
5.438993916716716
 21
-15.31020121665665
 31
0.0
  0
LINE
  5
C7C
330
1F
100
AcDbEntity
  8
2
  6
CONTINUOUS
370
25
 62
7
100
AcDbLine
 10
5.193820960964985
 20
-14.640764192193
 30
0.0
 11
5.79254730730999
 21
-15.239490538538
 31
0.0
  0
LINE
  5
C7D
330
1F
100
AcDbEntity
  8
2
  6
CONTINUOUS
370
25
 62
7
100
AcDbLine
 10
5.724151046854898
 20
-14.74683020937098
 30
0.0
 11
6.146100697903264
 21
-15.16877986041935
 31
0.0
  0
LINE
  5
C7E
330
1F
100
AcDbEntity
  8
2
  6
CONTINUOUS
370
25
 62
7
100
AcDbLine
 10
6.254481132744808
 20
-14.85289622654896
 30
0.0
 11
6.499654088496538
 21
-15.09806918230069
 31
0.0
  0
LINE
  5
C7F
330
1F
100
AcDbEntity
  8
2
  6
CONTINUOUS
370
25
 62
7
100
AcDbLine
 10
6.784811218634719
 20
-14.95896224372694
 30
0.0
 11
6.853207479089811
 21
-15.02735850418204
 31
0.0
  0
LINE
  5
C80
330
1F
100
AcDbEntity
  8
2
  6
CONTINUOUS
370
25
 62
7
100
AcDbLine
 10
19.99
 20
-15.0
 30
0.0
 11
24.99
 21
-14.0
 31
0.0
  0
LINE
  5
C81
330
1F
100
AcDbEntity
  8
2
  6
CONTINUOUS
370
25
 62
7
100
AcDbLine
 10
24.99
 20
-14.0
 30
0.0
 11
24.99
 21
-16.0
 31
0.0
  0
LINE
  5
C82
330
1F
100
AcDbEntity
  8
2
  6
CONTINUOUS
370
25
 62
7
100
AcDbLine
 10
24.99
 20
-16.0
 30
0.0
 11
19.99
 21
-15.0
 31
0.0
  0
LINE
  5
C83
330
1F
100
AcDbEntity
  8
2
  6
CONTINUOUS
370
25
 62
7
100
AcDbLine
 10
24.94912299124647
 20
-15.99182459824929
 30
0.0
 11
24.99
 21
-15.95094758949576
 31
0.0
  0
LINE
  5
C84
330
1F
100
AcDbEntity
  8
2
  6
CONTINUOUS
370
25
 62
7
100
AcDbLine
 10
24.59556960065319
 20
-15.92111392013064
 30
0.0
 11
24.99
 21
-15.52668352078383
 31
0.0
  0
LINE
  5
C85
330
1F
100
AcDbEntity
  8
2
  6
CONTINUOUS
370
25
 62
7
100
AcDbLine
 10
24.24201621005992
 20
-15.85040324201199
 30
0.0
 11
24.99
 21
-15.10241945207191
 31
0.0
  0
LINE
  5
C86
330
1F
100
AcDbEntity
  8
2
  6
CONTINUOUS
370
25
 62
7
100
AcDbLine
 10
23.88846281946665
 20
-15.77969256389333
 30
0.0
 11
24.99
 21
-14.67815538335998
 31
0.0
  0
LINE
  5
C87
330
1F
100
AcDbEntity
  8
2
  6
CONTINUOUS
370
25
 62
7
100
AcDbLine
 10
23.53490942887337
 20
-15.70898188577468
 30
0.0
 11
24.99
 21
-14.25389131464805
 31
0.0
  0
LINE
  5
C88
330
1F
100
AcDbEntity
  8
2
  6
CONTINUOUS
370
25
 62
7
100
AcDbLine
 10
23.1813560382801
 20
-15.63827120765602
 30
0.0
 11
24.77703405742016
 21
-14.04259318851597
 31
0.0
  0
LINE
  5
C89
330
1F
100
AcDbEntity
  8
2
  6
CONTINUOUS
370
25
 62
7
100
AcDbLine
 10
22.82780264768683
 20
-15.56756052953737
 30
0.0
 11
24.24670397153024
 21
-14.14865920569395
 31
0.0
  0
LINE
  5
C8A
330
1F
100
AcDbEntity
  8
2
  6
CONTINUOUS
370
25
 62
7
100
AcDbLine
 10
22.47424925709355
 20
-15.49684985141871
 30
0.0
 11
23.71637388564034
 21
-14.25472522287193
 31
0.0
  0
LINE
  5
C8B
330
1F
100
AcDbEntity
  8
2
  6
CONTINUOUS
370
25
 62
7
100
AcDbLine
 10
22.12069586650028
 20
-15.42613917330006
 30
0.0
 11
23.18604379975043
 21
-14.36079124004991
 31
0.0
  0
LINE
  5
C8C
330
1F
100
AcDbEntity
  8
2
  6
CONTINUOUS
370
25
 62
7
100
AcDbLine
 10
21.76714247590701
 20
-15.3554284951814
 30
0.0
 11
22.65571371386052
 21
-14.46685725722789
 31
0.0
  0
LINE
  5
C8D
330
1F
100
AcDbEntity
  8
2
  6
CONTINUOUS
370
25
 62
7
100
AcDbLine
 10
21.41358908531373
 20
-15.28471781706275
 30
0.0
 11
22.12538362797061
 21
-14.57292327440588
 31
0.0
  0
LINE
  5
C8E
330
1F
100
AcDbEntity
  8
2
  6
CONTINUOUS
370
25
 62
7
100
AcDbLine
 10
21.06003569472046
 20
-15.21400713894409
 30
0.0
 11
21.5950535420807
 21
-14.67898929158386
 31
0.0
  0
LINE
  5
C8F
330
1F
100
AcDbEntity
  8
2
  6
CONTINUOUS
370
25
 62
7
100
AcDbLine
 10
20.70648230412719
 20
-15.14329646082544
 30
0.0
 11
21.06472345619079
 21
-14.78505530876184
 31
0.0
  0
LINE
  5
C90
330
1F
100
AcDbEntity
  8
2
  6
CONTINUOUS
370
25
 62
7
100
AcDbLine
 10
20.35292891353392
 20
-15.07258578270678
 30
0.0
 11
20.53439337030088
 21
-14.89112132593982
 31
0.0
  0
LINE
  5
C91
330
1F
100
AcDbEntity
  8
2
  6
CONTINUOUS
370
25
 62
7
100
AcDbLine
 10
19.99937552294064
 20
-15.00187510458813
 30
0.0
 11
20.00406328441097
 21
-14.9971873431178
 31
0.0
  0
LINE
  5
C92
330
1F
100
AcDbEntity
  8
2
  6
CONTINUOUS
370
25
 62
7
100
AcDbLine
 10
20.06597402045269
 20
-14.98480519590946
 30
0.0
 11
20.10396103067903
 21
-15.02279220613581
 31
0.0
  0
LINE
  5
C93
330
1F
100
AcDbEntity
  8
2
  6
CONTINUOUS
370
25
 62
7
100
AcDbLine
 10
20.41952741104597
 20
-14.91409451779081
 30
0.0
 11
20.63429111656895
 21
-15.12885822331379
 31
0.0
  0
LINE
  5
C94
330
1F
100
AcDbEntity
  8
2
  6
CONTINUOUS
370
25
 62
7
100
AcDbLine
 10
20.77308080163924
 20
-14.84338383967216
 30
0.0
 11
21.16462120245886
 21
-15.23492424049177
 31
0.0
  0
LINE
  5
C95
330
1F
100
AcDbEntity
  8
2
  6
CONTINUOUS
370
25
 62
7
100
AcDbLine
 10
21.12663419223251
 20
-14.7726731615535
 30
0.0
 11
21.69495128834876
 21
-15.34099025766975
 31
0.0
  0
LINE
  5
C96
330
1F
100
AcDbEntity
  8
2
  6
CONTINUOUS
370
25
 62
7
100
AcDbLine
 10
21.48018758282578
 20
-14.70196248343484
 30
0.0
 11
22.22528137423867
 21
-15.44705627484773
 31
0.0
  0
LINE
  5
C97
330
1F
100
AcDbEntity
  8
2
  6
CONTINUOUS
370
25
 62
7
100
AcDbLine
 10
21.83374097341905
 20
-14.63125180531619
 30
0.0
 11
22.75561146012858
 21
-15.55312229202571
 31
0.0
  0
LINE
  5
C98
330
1F
100
AcDbEntity
  8
2
  6
CONTINUOUS
370
25
 62
7
100
AcDbLine
 10
22.18729436401233
 20
-14.56054112719754
 30
0.0
 11
23.28594154601849
 21
-15.65918830920369
 31
0.0
  0
LINE
  5
C99
330
1F
100
AcDbEntity
  8
2
  6
CONTINUOUS
370
25
 62
7
100
AcDbLine
 10
22.5408477546056
 20
-14.48983044907888
 30
0.0
 11
23.8162716319084
 21
-15.76525432638168
 31
0.0
  0
LINE
  5
C9A
330
1F
100
AcDbEntity
  8
2
  6
CONTINUOUS
370
25
 62
7
100
AcDbLine
 10
22.89440114519887
 20
-14.41911977096022
 30
0.0
 11
24.34660171779831
 21
-15.87132034355966
 31
0.0
  0
LINE
  5
C9B
330
1F
100
AcDbEntity
  8
2
  6
CONTINUOUS
370
25
 62
7
100
AcDbLine
 10
23.24795453579215
 20
-14.34840909284157
 30
0.0
 11
24.87693180368822
 21
-15.97738636073764
 31
0.0
  0
LINE
  5
C9C
330
1F
100
AcDbEntity
  8
2
  6
CONTINUOUS
370
25
 62
7
100
AcDbLine
 10
23.60150792638542
 20
-14.27769841472291
 30
0.0
 11
24.99
 21
-15.66619048833749
 31
0.0
  0
LINE
  5
C9D
330
1F
100
AcDbEntity
  8
2
  6
CONTINUOUS
370
25
 62
7
100
AcDbLine
 10
23.95506131697869
 20
-14.20698773660426
 30
0.0
 11
24.99
 21
-15.24192641962557
 31
0.0
  0
LINE
  5
C9E
330
1F
100
AcDbEntity
  8
2
  6
CONTINUOUS
370
25
 62
7
100
AcDbLine
 10
24.30861470757197
 20
-14.13627705848561
 30
0.0
 11
24.99
 21
-14.81766235091364
 31
0.0
  0
LINE
  5
C9F
330
1F
100
AcDbEntity
  8
2
  6
CONTINUOUS
370
25
 62
7
100
AcDbLine
 10
24.66216809816524
 20
-14.06556638036695
 30
0.0
 11
24.99
 21
-14.39339828220171
 31
0.0
  0
TEXT
  5
CA0
330
1F
100
AcDbEntity
  8
2
  6
CONTINUOUS
370
25
 62
7
100
AcDbText
 10
11.15666666666667
 20
-13.5
 30
0.0
 40
3.5
  1
13
 72
     1
 11
13.49
 21
-13.5
 31
0.0
100
AcDbText
  0
LINE
  5
CA1
330
1F
100
AcDbEntity
  8
2
  6
CONTINUOUS
370
25
 62
7
100
AcDbLine
 10
-0.01
 20
3.0
 30
0.0
 11
-0.0099999999999986
 21
26.0
 31
0.0
  0
LINE
  5
CA2
330
1F
100
AcDbEntity
  8
2
  6
CONTINUOUS
370
25
 62
7
100
AcDbLine
 10
19.99
 20
26.0
 30
0.0
 11
19.99
 21
2.0
 31
0.0
  0
LINE
  5
CA3
330
1F
100
AcDbEntity
  8
2
  6
CONTINUOUS
370
25
 62
7
100
AcDbLine
 10
-0.01
 20
25.0
 30
0.0
 11
19.99
 21
25.0
 31
0.0
  0
LINE
  5
CA4
330
1F
100
AcDbEntity
  8
2
  6
CONTINUOUS
370
25
 62
7
100
AcDbLine
 10
-0.01
 20
25.0
 30
0.0
 11
4.99
 21
26.0
 31
0.0
  0
LINE
  5
CA5
330
1F
100
AcDbEntity
  8
2
  6
CONTINUOUS
370
25
 62
7
100
AcDbLine
 10
4.99
 20
26.0
 30
0.0
 11
4.99
 21
24.0
 31
0.0
  0
LINE
  5
CA6
330
1F
100
AcDbEntity
  8
2
  6
CONTINUOUS
370
25
 62
7
100
AcDbLine
 10
4.99
 20
24.0
 30
0.0
 11
-0.01
 21
25.0
 31
0.0
  0
LINE
  5
CA7
330
1F
100
AcDbEntity
  8
2
  6
CONTINUOUS
370
25
 62
7
100
AcDbLine
 10
4.913430756636047
 20
24.01531384867279
 30
0.0
 11
4.99
 21
24.09188309203675
 31
0.0
  0
LINE
  5
CA8
330
1F
100
AcDbEntity
  8
2
  6
CONTINUOUS
370
25
 62
7
100
AcDbLine
 10
4.559877366042773
 20
24.08602452679144
 30
0.0
 11
4.99
 21
24.51614716074867
 31
0.0
  0
LINE
  5
CA9
330
1F
100
AcDbEntity
  8
2
  6
CONTINUOUS
370
25
 62
7
100
AcDbLine
 10
4.2063239754495
 20
24.1567352049101
 30
0.0
 11
4.99
 21
24.9404112294606
 31
0.0
  0
LINE
  5
CAA
330
1F
100
AcDbEntity
  8
2
  6
CONTINUOUS
370
25
 62
7
100
AcDbLine
 10
3.852770584856227
 20
24.22744588302875
 30
0.0
 11
4.99
 21
25.36467529817253
 31
0.0
  0
LINE
  5
CAB
330
1F
100
AcDbEntity
  8
2
  6
CONTINUOUS
370
25
 62
7
100
AcDbLine
 10
3.499217194262954
 20
24.29815656114741
 30
0.0
 11
4.99
 21
25.78893936688446
 31
0.0
  0
LINE
  5
CAC
330
1F
100
AcDbEntity
  8
2
  6
CONTINUOUS
370
25
 62
7
100
AcDbLine
 10
3.145663803669681
 20
24.36886723926606
 30
0.0
 11
4.723495705504523
 21
25.9466991411009
 31
0.0
  0
LINE
  5
CAD
330
1F
100
AcDbEntity
  8
2
  6
CONTINUOUS
370
25
 62
7
100
AcDbLine
 10
2.792110413076408
 20
24.43957791738472
 30
0.0
 11
4.193165619614614
 21
25.84063312392292
 31
0.0
  0
LINE
  5
CAE
330
1F
100
AcDbEntity
  8
2
  6
CONTINUOUS
370
25
 62
7
100
AcDbLine
 10
2.438557022483135
 20
24.51028859550337
 30
0.0
 11
3.662835533724704
 21
25.73456710674494
 31
0.0
  0
LINE
  5
CAF
330
1F
100
AcDbEntity
  8
2
  6
CONTINUOUS
370
25
 62
7
100
AcDbLine
 10
2.085003631889862
 20
24.58099927362203
 30
0.0
 11
3.132505447834794
 21
25.62850108956696
 31
0.0
  0
LINE
  5
CB0
330
1F
100
AcDbEntity
  8
2
  6
CONTINUOUS
370
25
 62
7
100
AcDbLine
 10
1.731450241296589
 20
24.65170995174068
 30
0.0
 11
2.602175361944884
 21
25.52243507238898
 31
0.0
  0
LINE
  5
CB1
330
1F
100
AcDbEntity
  8
2
  6
CONTINUOUS
370
25
 62
7
100
AcDbLine
 10
1.377896850703316
 20
24.72242062985934
 30
0.0
 11
2.071845276054975
 21
25.416369055211
 31
0.0
  0
LINE
  5
CB2
330
1F
100
AcDbEntity
  8
2
  6
CONTINUOUS
370
25
 62
7
100
AcDbLine
 10
1.024343460110042
 20
24.79313130797799
 30
0.0
 11
1.541515190165064
 21
25.31030303803301
 31
0.0
  0
LINE
  5
CB3
330
1F
100
AcDbEntity
  8
2
  6
CONTINUOUS
370
25
 62
7
100
AcDbLine
 10
0.670790069516769
 20
24.86384198609665
 30
0.0
 11
1.011185104275154
 21
25.20423702085503
 31
0.0
  0
LINE
  5
CB4
330
1F
100
AcDbEntity
  8
2
  6
CONTINUOUS
370
25
 62
7
100
AcDbLine
 10
0.3172366789234958
 20
24.9345526642153
 30
0.0
 11
0.4808550183852439
 21
25.09817100367705
 31
0.0
  0
LINE
  5
CB5
330
1F
100
AcDbEntity
  8
2
  6
CONTINUOUS
370
25
 62
7
100
AcDbLine
 10
0.0163167116697864
 20
25.00526334233396
 30
0.0
 11
0.0294750675046796
 21
24.99210498649906
 31
0.0
  0
LINE
  5
CB6
330
1F
100
AcDbEntity
  8
2
  6
CONTINUOUS
370
25
 62
7
100
AcDbLine
 10
0.3698701022630599
 20
25.07597402045261
 30
0.0
 11
0.55980515339459
 21
24.88603896932108
 31
0.0
  0
LINE
  5
CB7
330
1F
100
AcDbEntity
  8
2
  6
CONTINUOUS
370
25
 62
7
100
AcDbLine
 10
0.7234234928563332
 20
25.14668469857127
 30
0.0
 11
1.0901352392845
 21
24.7799729521431
 31
0.0
  0
LINE
  5
CB8
330
1F
100
AcDbEntity
  8
2
  6
CONTINUOUS
370
25
 62
7
100
AcDbLine
 10
1.076976883449607
 20
25.21739537668992
 30
0.0
 11
1.620465325174411
 21
24.67390693496512
 31
0.0
  0
LINE
  5
CB9
330
1F
100
AcDbEntity
  8
2
  6
CONTINUOUS
370
25
 62
7
100
AcDbLine
 10
1.43053027404288
 20
25.28810605480858
 30
0.0
 11
2.150795411064321
 21
24.56784091778714
 31
0.0
  0
LINE
  5
CBA
330
1F
100
AcDbEntity
  8
2
  6
CONTINUOUS
370
25
 62
7
100
AcDbLine
 10
1.784083664636153
 20
25.35881673292723
 30
0.0
 11
2.681125496954231
 21
24.46177490060915
 31
0.0
  0
LINE
  5
CBB
330
1F
100
AcDbEntity
  8
2
  6
CONTINUOUS
370
25
 62
7
100
AcDbLine
 10
2.137637055229427
 20
25.42952741104589
 30
0.0
 11
3.211455582844142
 21
24.35570888343117
 31
0.0
  0
LINE
  5
CBC
330
1F
100
AcDbEntity
  8
2
  6
CONTINUOUS
370
25
 62
7
100
AcDbLine
 10
2.4911904458227
 20
25.50023808916454
 30
0.0
 11
3.741785668734052
 21
24.24964286625319
 31
0.0
  0
LINE
  5
CBD
330
1F
100
AcDbEntity
  8
2
  6
CONTINUOUS
370
25
 62
7
100
AcDbLine
 10
2.844743836415973
 20
25.57094876728319
 30
0.0
 11
4.272115754623962
 21
24.14357684907521
 31
0.0
  0
LINE
  5
CBE
330
1F
100
AcDbEntity
  8
2
  6
CONTINUOUS
370
25
 62
7
100
AcDbLine
 10
3.198297227009247
 20
25.64165944540185
 30
0.0
 11
4.802445840513872
 21
24.03751083189723
 31
0.0
  0
LINE
  5
CBF
330
1F
100
AcDbEntity
  8
2
  6
CONTINUOUS
370
25
 62
7
100
AcDbLine
 10
3.55185061760252
 20
25.7123701235205
 30
0.0
 11
4.99
 21
24.27422074112302
 31
0.0
  0
LINE
  5
CC0
330
1F
100
AcDbEntity
  8
2
  6
CONTINUOUS
370
25
 62
7
100
AcDbLine
 10
3.905404008195793
 20
25.78308080163916
 30
0.0
 11
4.99
 21
24.69848480983495
 31
0.0
  0
LINE
  5
CC1
330
1F
100
AcDbEntity
  8
2
  6
CONTINUOUS
370
25
 62
7
100
AcDbLine
 10
4.258957398789066
 20
25.85379147975781
 30
0.0
 11
4.99
 21
25.12274887854688
 31
0.0
  0
LINE
  5
CC2
330
1F
100
AcDbEntity
  8
2
  6
CONTINUOUS
370
25
 62
7
100
AcDbLine
 10
4.61251078938234
 20
25.92450215787647
 30
0.0
 11
4.99
 21
25.54701294725881
 31
0.0
  0
LINE
  5
CC3
330
1F
100
AcDbEntity
  8
2
  6
CONTINUOUS
370
25
 62
7
100
AcDbLine
 10
4.966064179975612
 20
25.99521283599512
 30
0.0
 11
4.99
 21
25.97127701597073
 31
0.0
  0
LINE
  5
CC4
330
1F
100
AcDbEntity
  8
2
  6
CONTINUOUS
370
25
 62
7
100
AcDbLine
 10
19.99
 20
25.0
 30
0.0
 11
14.99
 21
24.0
 31
0.0
  0
LINE
  5
CC5
330
1F
100
AcDbEntity
  8
2
  6
CONTINUOUS
370
25
 62
7
100
AcDbLine
 10
14.99
 20
24.0
 30
0.0
 11
14.99
 21
26.0
 31
0.0
  0
LINE
  5
CC6
330
1F
100
AcDbEntity
  8
2
  6
CONTINUOUS
370
25
 62
7
100
AcDbLine
 10
14.99
 20
26.0
 30
0.0
 11
19.99
 21
25.0
 31
0.0
  0
LINE
  5
CC7
330
1F
100
AcDbEntity
  8
2
  6
CONTINUOUS
370
25
 62
7
100
AcDbLine
 10
19.87603896932108
 20
24.97720779386421
 30
0.0
 11
19.91402597954739
 21
25.01519480409052
 31
0.0
  0
LINE
  5
CC8
330
1F
100
AcDbEntity
  8
2
  6
CONTINUOUS
370
25
 62
7
100
AcDbLine
 10
19.34570888343117
 20
24.87114177668623
 30
0.0
 11
19.56047258895411
 21
25.08590548220918
 31
0.0
  0
LINE
  5
CC9
330
1F
100
AcDbEntity
  8
2
  6
CONTINUOUS
370
25
 62
7
100
AcDbLine
 10
18.81537879754126
 20
24.76507575950825
 30
0.0
 11
19.20691919836084
 21
25.15661616032783
 31
0.0
  0
LINE
  5
CCA
330
1F
100
AcDbEntity
  8
2
  6
CONTINUOUS
370
25
 62
7
100
AcDbLine
 10
18.28504871165135
 20
24.65900974233027
 30
0.0
 11
18.85336580776757
 21
25.22732683844649
 31
0.0
  0
LINE
  5
CCB
330
1F
100
AcDbEntity
  8
2
  6
CONTINUOUS
370
25
 62
7
100
AcDbLine
 10
17.75471862576144
 20
24.55294372515229
 30
0.0
 11
18.49981241717429
 21
25.29803751656514
 31
0.0
  0
LINE
  5
CCC
330
1F
100
AcDbEntity
  8
2
  6
CONTINUOUS
370
25
 62
7
100
AcDbLine
 10
17.22438853987153
 20
24.44687770797431
 30
0.0
 11
18.14625902658102
 21
25.3687481946838
 31
0.0
  0
LINE
  5
CCD
330
1F
100
AcDbEntity
  8
2
  6
CONTINUOUS
370
25
 62
7
100
AcDbLine
 10
16.69405845398162
 20
24.34081169079632
 30
0.0
 11
17.79270563598775
 21
25.43945887280245
 31
0.0
  0
LINE
  5
CCE
330
1F
100
AcDbEntity
  8
2
  6
CONTINUOUS
370
25
 62
7
100
AcDbLine
 10
16.16372836809171
 20
24.23474567361834
 30
0.0
 11
17.43915224539447
 21
25.51016955092111
 31
0.0
  0
LINE
  5
CCF
330
1F
100
AcDbEntity
  8
2
  6
CONTINUOUS
370
25
 62
7
100
AcDbLine
 10
15.6333982822018
 20
24.12867965644036
 30
0.0
 11
17.0855988548012
 21
25.58088022903976
 31
0.0
  0
LINE
  5
CD0
330
1F
100
AcDbEntity
  8
2
  6
CONTINUOUS
370
25
 62
7
100
AcDbLine
 10
15.10306819631189
 20
24.02261363926238
 30
0.0
 11
16.73204546420793
 21
25.65159090715841
 31
0.0
  0
LINE
  5
CD1
330
1F
100
AcDbEntity
  8
2
  6
CONTINUOUS
370
25
 62
7
100
AcDbLine
 10
14.99
 20
24.33380951166241
 30
0.0
 11
16.37849207361466
 21
25.72230158527707
 31
0.0
  0
LINE
  5
CD2
330
1F
100
AcDbEntity
  8
2
  6
CONTINUOUS
370
25
 62
7
100
AcDbLine
 10
14.99
 20
24.75807358037434
 30
0.0
 11
16.02493868302138
 21
25.79301226339572
 31
0.0
  0
LINE
  5
CD3
330
1F
100
AcDbEntity
  8
2
  6
CONTINUOUS
370
25
 62
7
100
AcDbLine
 10
14.99
 20
25.18233764908627
 30
0.0
 11
15.67138529242811
 21
25.86372294151438
 31
0.0
  0
LINE
  5
CD4
330
1F
100
AcDbEntity
  8
2
  6
CONTINUOUS
370
25
 62
7
100
AcDbLine
 10
14.99
 20
25.6066017177982
 30
0.0
 11
15.31783190183484
 21
25.93443361963303
 31
0.0
  0
LINE
  5
CD5
330
1F
100
AcDbEntity
  8
2
  6
CONTINUOUS
370
25
 62
7
100
AcDbLine
 10
14.99
 20
24.03229432149741
 30
0.0
 11
15.01691193458118
 21
24.00538238691624
 31
0.0
  0
LINE
  5
CD6
330
1F
100
AcDbEntity
  8
2
  6
CONTINUOUS
370
25
 62
7
100
AcDbLine
 10
14.99
 20
24.45655839020934
 30
0.0
 11
15.37046532517445
 21
24.07609306503489
 31
0.0
  0
LINE
  5
CD7
330
1F
100
AcDbEntity
  8
2
  6
CONTINUOUS
370
25
 62
7
100
AcDbLine
 10
14.99
 20
24.88082245892127
 30
0.0
 11
15.72401871576773
 21
24.14680374315354
 31
0.0
  0
LINE
  5
CD8
330
1F
100
AcDbEntity
  8
2
  6
CONTINUOUS
370
25
 62
7
100
AcDbLine
 10
14.99
 20
25.30508652763319
 30
0.0
 11
16.077572106361
 21
24.2175144212722
 31
0.0
  0
LINE
  5
CD9
330
1F
100
AcDbEntity
  8
2
  6
CONTINUOUS
370
25
 62
7
100
AcDbLine
 10
14.99
 20
25.72935059634511
 30
0.0
 11
16.43112549695426
 21
24.28822509939085
 31
0.0
  0
LINE
  5
CDA
330
1F
100
AcDbEntity
  8
2
  6
CONTINUOUS
370
25
 62
7
100
AcDbLine
 10
15.18201833132131
 20
25.96159633373574
 30
0.0
 11
16.78467888754754
 21
24.35893577750951
 31
0.0
  0
LINE
  5
CDB
330
1F
100
AcDbEntity
  8
2
  6
CONTINUOUS
370
25
 62
7
100
AcDbLine
 10
15.71234841721122
 20
25.85553031655776
 30
0.0
 11
17.13823227814081
 21
24.42964645562816
 31
0.0
  0
LINE
  5
CDC
330
1F
100
AcDbEntity
  8
2
  6
CONTINUOUS
370
25
 62
7
100
AcDbLine
 10
16.24267850310113
 20
25.74946429937977
 30
0.0
 11
17.49178566873409
 21
24.50035713374682
 31
0.0
  0
LINE
  5
CDD
330
1F
100
AcDbEntity
  8
2
  6
CONTINUOUS
370
25
 62
7
100
AcDbLine
 10
16.77300858899103
 20
25.64339828220179
 30
0.0
 11
17.84533905932736
 21
24.57106781186547
 31
0.0
  0
LINE
  5
CDE
330
1F
100
AcDbEntity
  8
2
  6
CONTINUOUS
370
25
 62
7
100
AcDbLine
 10
17.30333867488095
 20
25.53733226502381
 30
0.0
 11
18.19889244992064
 21
24.64177848998413
 31
0.0
  0
LINE
  5
CDF
330
1F
100
AcDbEntity
  8
2
  6
CONTINUOUS
370
25
 62
7
100
AcDbLine
 10
17.83366876077086
 20
25.43126624784583
 30
0.0
 11
18.5524458405139
 21
24.71248916810278
 31
0.0
  0
LINE
  5
CE0
330
1F
100
AcDbEntity
  8
2
  6
CONTINUOUS
370
25
 62
7
100
AcDbLine
 10
18.36399884666077
 20
25.32520023066785
 30
0.0
 11
18.90599923110718
 21
24.78319984622144
 31
0.0
  0
LINE
  5
CE1
330
1F
100
AcDbEntity
  8
2
  6
CONTINUOUS
370
25
 62
7
100
AcDbLine
 10
18.89432893255067
 20
25.21913421348987
 30
0.0
 11
19.25955262170045
 21
24.85391052434009
 31
0.0
  0
LINE
  5
CE2
330
1F
100
AcDbEntity
  8
2
  6
CONTINUOUS
370
25
 62
7
100
AcDbLine
 10
19.42465901844059
 20
25.11306819631188
 30
0.0
 11
19.61310601229372
 21
24.92462120245875
 31
0.0
  0
LINE
  5
CE3
330
1F
100
AcDbEntity
  8
2
  6
CONTINUOUS
370
25
 62
7
100
AcDbLine
 10
19.95498910433049
 20
25.0070021791339
 30
0.0
 11
19.966659402887
 21
24.9953318805774
 31
0.0
  0
TEXT
  5
CE4
330
1F
100
AcDbEntity
  8
2
  6
CONTINUOUS
370
25
 62
7
100
AcDbText
 10
7.365000000000002
 20
26.5
 30
0.0
 40
3.5
  1
20
 72
     1
 11
9.990000000000002
 21
26.5
 31
0.0
100
AcDbText
  0
LINE
  5
CE5
330
1F
100
AcDbEntity
  8
SK2
  6
CONTINUOUS
370
25
 62
7
100
AcDbLine
 10
-37.01
 20
1.0
 30
0.0
 11
-37.01
 21
36.0
 31
0.0
  0
LINE
  5
CE6
330
1F
100
AcDbEntity
  8
SK2
  6
CONTINUOUS
370
25
 62
7
100
AcDbLine
 10
19.99
 20
36.0
 30
0.0
 11
19.98999999999999
 21
2.0
 31
0.0
  0
LINE
  5
CE7
330
1F
100
AcDbEntity
  8
SK2
  6
CONTINUOUS
370
25
 62
7
100
AcDbLine
 10
-37.01
 20
35.0
 30
0.0
 11
19.99
 21
35.0
 31
0.0
  0
LINE
  5
CE8
330
1F
100
AcDbEntity
  8
SK2
  6
CONTINUOUS
370
25
 62
7
100
AcDbLine
 10
-37.01
 20
35.0
 30
0.0
 11
-32.01
 21
36.0
 31
0.0
  0
LINE
  5
CE9
330
1F
100
AcDbEntity
  8
SK2
  6
CONTINUOUS
370
25
 62
7
100
AcDbLine
 10
-32.01
 20
36.0
 30
0.0
 11
-32.01
 21
34.0
 31
0.0
  0
LINE
  5
CEA
330
1F
100
AcDbEntity
  8
SK2
  6
CONTINUOUS
370
25
 62
7
100
AcDbLine
 10
-32.01
 20
34.0
 30
0.0
 11
-37.01
 21
35.0
 31
0.0
  0
LINE
  5
CEB
330
1F
100
AcDbEntity
  8
SK2
  6
CONTINUOUS
370
25
 62
7
100
AcDbLine
 10
-32.16432893255071
 20
34.03086578651015
 30
0.0
 11
-32.01
 21
34.18519471906086
 31
0.0
  0
LINE
  5
CEC
330
1F
100
AcDbEntity
  8
SK2
  6
CONTINUOUS
370
25
 62
7
100
AcDbLine
 10
-32.51788232314399
 20
34.10157646462881
 30
0.0
 11
-32.01
 21
34.60945878777279
 31
0.0
  0
LINE
  5
CED
330
1F
100
AcDbEntity
  8
SK2
  6
CONTINUOUS
370
25
 62
7
100
AcDbLine
 10
-32.87143571373726
 20
34.17228714274746
 30
0.0
 11
-32.01
 21
35.03372285648472
 31
0.0
  0
LINE
  5
CEE
330
1F
100
AcDbEntity
  8
SK2
  6
CONTINUOUS
370
25
 62
7
100
AcDbLine
 10
-33.22498910433053
 20
34.24299782086612
 30
0.0
 11
-32.01
 21
35.45798692519665
 31
0.0
  0
LINE
  5
CEF
330
1F
100
AcDbEntity
  8
SK2
  6
CONTINUOUS
370
25
 62
7
100
AcDbLine
 10
-33.57854249492382
 20
34.31370849898477
 30
0.0
 11
-32.01
 21
35.88225099390858
 31
0.0
  0
LINE
  5
CF0
330
1F
100
AcDbEntity
  8
SK2
  6
CONTINUOUS
370
25
 62
7
100
AcDbLine
 10
-33.93209588551709
 20
34.38441917710342
 30
0.0
 11
-32.39314382827565
 21
35.92337123434487
 31
0.0
  0
LINE
  5
CF1
330
1F
100
AcDbEntity
  8
SK2
  6
CONTINUOUS
370
25
 62
7
100
AcDbLine
 10
-34.28564927611037
 20
34.45512985522208
 30
0.0
 11
-32.92347391416557
 21
35.81730521716688
 31
0.0
  0
LINE
  5
CF2
330
1F
100
AcDbEntity
  8
SK2
  6
CONTINUOUS
370
25
 62
7
100
AcDbLine
 10
-34.63920266670364
 20
34.52584053334073
 30
0.0
 11
-33.45380400005547
 21
35.7112391999889
 31
0.0
  0
LINE
  5
CF3
330
1F
100
AcDbEntity
  8
SK2
  6
CONTINUOUS
370
25
 62
7
100
AcDbLine
 10
-34.99275605729692
 20
34.59655121145939
 30
0.0
 11
-33.98413408594539
 21
35.60517318281092
 31
0.0
  0
LINE
  5
CF4
330
1F
100
AcDbEntity
  8
SK2
  6
CONTINUOUS
370
25
 62
7
100
AcDbLine
 10
-35.3463094478902
 20
34.66726188957804
 30
0.0
 11
-34.51446417183531
 21
35.49910716563294
 31
0.0
  0
LINE
  5
CF5
330
1F
100
AcDbEntity
  8
SK2
  6
CONTINUOUS
370
25
 62
7
100
AcDbLine
 10
-35.69986283848346
 20
34.7379725676967
 30
0.0
 11
-35.04479425772521
 21
35.39304114845496
 31
0.0
  0
LINE
  5
CF6
330
1F
100
AcDbEntity
  8
SK2
  6
CONTINUOUS
370
25
 62
7
100
AcDbLine
 10
-36.05341622907675
 20
34.80868324581535
 30
0.0
 11
-35.57512434361512
 21
35.28697513127698
 31
0.0
  0
LINE
  5
CF7
330
1F
100
AcDbEntity
  8
SK2
  6
CONTINUOUS
370
25
 62
7
100
AcDbLine
 10
-36.40696961967002
 20
34.87939392393401
 30
0.0
 11
-36.10545442950504
 21
35.18090911409899
 31
0.0
  0
LINE
  5
CF8
330
1F
100
AcDbEntity
  8
SK2
  6
CONTINUOUS
370
25
 62
7
100
AcDbLine
 10
-36.7605230102633
 20
34.95010460205267
 30
0.0
 11
-36.63578451539496
 21
35.07484309692101
 31
0.0
  0
LINE
  5
CF9
330
1F
100
AcDbEntity
  8
SK2
  6
CONTINUOUS
370
25
 62
7
100
AcDbLine
 10
-36.89493463952792
 20
35.02301307209442
 30
0.0
 11
-36.83740195929188
 21
34.96548039185838
 31
0.0
  0
LINE
  5
CFA
330
1F
100
AcDbEntity
  8
SK2
  6
CONTINUOUS
370
25
 62
7
100
AcDbLine
 10
-36.54138124893465
 20
35.09372375021307
 30
0.0
 11
-36.30707187340197
 21
34.8594143746804
 31
0.0
  0
LINE
  5
CFB
330
1F
100
AcDbEntity
  8
SK2
  6
CONTINUOUS
370
25
 62
7
100
AcDbLine
 10
-36.18782785834137
 20
35.16443442833172
 30
0.0
 11
-35.77674178751206
 21
34.75334835750241
 31
0.0
  0
LINE
  5
CFC
330
1F
100
AcDbEntity
  8
SK2
  6
CONTINUOUS
370
25
 62
7
100
AcDbLine
 10
-35.8342744677481
 20
35.23514510645037
 30
0.0
 11
-35.24641170162215
 21
34.64728234032443
 31
0.0
  0
LINE
  5
CFD
330
1F
100
AcDbEntity
  8
SK2
  6
CONTINUOUS
370
25
 62
7
100
AcDbLine
 10
-35.48072107715482
 20
35.30585578456903
 30
0.0
 11
-34.71608161573224
 21
34.54121632314645
 31
0.0
  0
LINE
  5
CFE
330
1F
100
AcDbEntity
  8
SK2
  6
CONTINUOUS
370
25
 62
7
100
AcDbLine
 10
-35.12716768656155
 20
35.37656646268769
 30
0.0
 11
-34.18575152984233
 21
34.43515030596846
 31
0.0
  0
LINE
  5
CFF
330
1F
100
AcDbEntity
  8
SK2
  6
CONTINUOUS
370
25
 62
7
100
AcDbLine
 10
-34.77361429596827
 20
35.44727714080634
 30
0.0
 11
-33.65542144395241
 21
34.32908428879048
 31
0.0
  0
LINE
  5
D00
330
1F
100
AcDbEntity
  8
SK2
  6
CONTINUOUS
370
25
 62
7
100
AcDbLine
 10
-34.420060905375
 20
35.517987818925
 30
0.0
 11
-33.12509135806251
 21
34.2230182716125
 31
0.0
  0
LINE
  5
D01
330
1F
100
AcDbEntity
  8
SK2
  6
CONTINUOUS
370
25
 62
7
100
AcDbLine
 10
-34.06650751478172
 20
35.58869849704366
 30
0.0
 11
-32.5947612721726
 21
34.11695225443452
 31
0.0
  0
LINE
  5
D02
330
1F
100
AcDbEntity
  8
SK2
  6
CONTINUOUS
370
25
 62
7
100
AcDbLine
 10
-33.71295412418845
 20
35.65940917516232
 30
0.0
 11
-32.06443118628269
 21
34.01088623725654
 31
0.0
  0
LINE
  5
D03
330
1F
100
AcDbEntity
  8
SK2
  6
CONTINUOUS
370
25
 62
7
100
AcDbLine
 10
-33.35940073359517
 20
35.73011985328097
 30
0.0
 11
-32.01
 21
34.38071911968578
 31
0.0
  0
LINE
  5
D04
330
1F
100
AcDbEntity
  8
SK2
  6
CONTINUOUS
370
25
 62
7
100
AcDbLine
 10
-33.0058473430019
 20
35.80083053139963
 30
0.0
 11
-32.01
 21
34.80498318839771
 31
0.0
  0
LINE
  5
D05
330
1F
100
AcDbEntity
  8
SK2
  6
CONTINUOUS
370
25
 62
7
100
AcDbLine
 10
-32.65229395240863
 20
35.87154120951828
 30
0.0
 11
-32.01
 21
35.22924725710964
 31
0.0
  0
LINE
  5
D06
330
1F
100
AcDbEntity
  8
SK2
  6
CONTINUOUS
370
25
 62
7
100
AcDbLine
 10
-32.29874056181535
 20
35.94225188763694
 30
0.0
 11
-32.01
 21
35.65351132582158
 31
0.0
  0
LINE
  5
D07
330
1F
100
AcDbEntity
  8
SK2
  6
CONTINUOUS
370
25
 62
7
100
AcDbLine
 10
19.99
 20
35.0
 30
0.0
 11
14.99
 21
34.0
 31
0.0
  0
LINE
  5
D08
330
1F
100
AcDbEntity
  8
SK2
  6
CONTINUOUS
370
25
 62
7
100
AcDbLine
 10
14.99
 20
34.0
 30
0.0
 11
14.99
 21
36.0
 31
0.0
  0
LINE
  5
D09
330
1F
100
AcDbEntity
  8
SK2
  6
CONTINUOUS
370
25
 62
7
100
AcDbLine
 10
14.99
 20
36.0
 30
0.0
 11
19.99
 21
35.0
 31
0.0
  0
LINE
  5
D0A
330
1F
100
AcDbEntity
  8
SK2
  6
CONTINUOUS
370
25
 62
7
100
AcDbLine
 10
19.6481169079632
 20
34.93162338159264
 30
0.0
 11
19.76207793864213
 21
35.04558441227157
 31
0.0
  0
LINE
  5
D0B
330
1F
100
AcDbEntity
  8
SK2
  6
CONTINUOUS
370
25
 62
7
100
AcDbLine
 10
19.11778682207329
 20
34.82555736441466
 30
0.0
 11
19.40852454804886
 21
35.11629509039022
 31
0.0
  0
LINE
  5
D0C
330
1F
100
AcDbEntity
  8
SK2
  6
CONTINUOUS
370
25
 62
7
100
AcDbLine
 10
18.58745673618337
 20
34.71949134723667
 30
0.0
 11
19.05497115745558
 21
35.18700576850888
 31
0.0
  0
LINE
  5
D0D
330
1F
100
AcDbEntity
  8
SK2
  6
CONTINUOUS
370
25
 62
7
100
AcDbLine
 10
18.05712665029347
 20
34.61342533005869
 30
0.0
 11
18.70141776686231
 21
35.25771644662754
 31
0.0
  0
LINE
  5
D0E
330
1F
100
AcDbEntity
  8
SK2
  6
CONTINUOUS
370
25
 62
7
100
AcDbLine
 10
17.52679656440355
 20
34.50735931288071
 30
0.0
 11
18.34786437626903
 21
35.32842712474619
 31
0.0
  0
LINE
  5
D0F
330
1F
100
AcDbEntity
  8
SK2
  6
CONTINUOUS
370
25
 62
7
100
AcDbLine
 10
16.99646647851365
 20
34.40129329570273
 30
0.0
 11
17.99431098567576
 21
35.39913780286484
 31
0.0
  0
LINE
  5
D10
330
1F
100
AcDbEntity
  8
SK2
  6
CONTINUOUS
370
25
 62
7
100
AcDbLine
 10
16.46613639262374
 20
34.29522727852475
 30
0.0
 11
17.64075759508249
 21
35.4698484809835
 31
0.0
  0
LINE
  5
D11
330
1F
100
AcDbEntity
  8
SK2
  6
CONTINUOUS
370
25
 62
7
100
AcDbLine
 10
15.93580630673383
 20
34.18916126134677
 30
0.0
 11
17.28720420448921
 21
35.54055915910216
 31
0.0
  0
LINE
  5
D12
330
1F
100
AcDbEntity
  8
SK2
  6
CONTINUOUS
370
25
 62
7
100
AcDbLine
 10
15.40547622084392
 20
34.08309524416878
 30
0.0
 11
16.93365081389594
 21
35.61126983722081
 31
0.0
  0
LINE
  5
D13
330
1F
100
AcDbEntity
  8
SK2
  6
CONTINUOUS
370
25
 62
7
100
AcDbLine
 10
14.99
 20
34.0918830920368
 30
0.0
 11
16.58009742330266
 21
35.68198051533947
 31
0.0
  0
LINE
  5
D14
330
1F
100
AcDbEntity
  8
SK2
  6
CONTINUOUS
370
25
 62
7
100
AcDbLine
 10
14.99
 20
34.51614716074872
 30
0.0
 11
16.22654403270939
 21
35.75269119345812
 31
0.0
  0
LINE
  5
D15
330
1F
100
AcDbEntity
  8
SK2
  6
CONTINUOUS
370
25
 62
7
100
AcDbLine
 10
14.99
 20
34.94041122946065
 30
0.0
 11
15.87299064211612
 21
35.82340187157678
 31
0.0
  0
LINE
  5
D16
330
1F
100
AcDbEntity
  8
SK2
  6
CONTINUOUS
370
25
 62
7
100
AcDbLine
 10
14.99
 20
35.36467529817259
 30
0.0
 11
15.51943725152285
 21
35.89411254969543
 31
0.0
  0
LINE
  5
D17
330
1F
100
AcDbEntity
  8
SK2
  6
CONTINUOUS
370
25
 62
7
100
AcDbLine
 10
14.99
 20
35.78893936688451
 30
0.0
 11
15.16588386092957
 21
35.96482322781409
 31
0.0
  0
LINE
  5
D18
330
1F
100
AcDbEntity
  8
SK2
  6
CONTINUOUS
370
25
 62
7
100
AcDbLine
 10
14.99
 20
34.2146319705837
 30
0.0
 11
15.16885997548641
 21
34.03577199509728
 31
0.0
  0
LINE
  5
D19
330
1F
100
AcDbEntity
  8
SK2
  6
CONTINUOUS
370
25
 62
7
100
AcDbLine
 10
14.99
 20
34.63889603929562
 30
0.0
 11
15.52241336607968
 21
34.10648267321594
 31
0.0
  0
LINE
  5
D1A
330
1F
100
AcDbEntity
  8
SK2
  6
CONTINUOUS
370
25
 62
7
100
AcDbLine
 10
14.99
 20
35.06316010800756
 30
0.0
 11
15.87596675667296
 21
34.17719335133459
 31
0.0
  0
LINE
  5
D1B
330
1F
100
AcDbEntity
  8
SK2
  6
CONTINUOUS
370
25
 62
7
100
AcDbLine
 10
14.99
 20
35.48742417671949
 30
0.0
 11
16.22952014726624
 21
34.24790402945325
 31
0.0
  0
LINE
  5
D1C
330
1F
100
AcDbEntity
  8
SK2
  6
CONTINUOUS
370
25
 62
7
100
AcDbLine
 10
14.99
 20
35.91168824543141
 30
0.0
 11
16.58307353785951
 21
34.3186147075719
 31
0.0
  0
LINE
  5
D1D
330
1F
100
AcDbEntity
  8
SK2
  6
CONTINUOUS
370
25
 62
7
100
AcDbLine
 10
15.40994039267918
 20
35.91601192146416
 30
0.0
 11
16.93662692845278
 21
34.38932538569055
 31
0.0
  0
LINE
  5
D1E
330
1F
100
AcDbEntity
  8
SK2
  6
CONTINUOUS
370
25
 62
7
100
AcDbLine
 10
15.94027047856909
 20
35.80994590428618
 30
0.0
 11
17.29018031904605
 21
34.46003606380921
 31
0.0
  0
LINE
  5
D1F
330
1F
100
AcDbEntity
  8
SK2
  6
CONTINUOUS
370
25
 62
7
100
AcDbLine
 10
16.470600564459
 20
35.7038798871082
 30
0.0
 11
17.64373370963933
 21
34.53074674192786
 31
0.0
  0
LINE
  5
D20
330
1F
100
AcDbEntity
  8
SK2
  6
CONTINUOUS
370
25
 62
7
100
AcDbLine
 10
17.00093065034891
 20
35.59781386993022
 30
0.0
 11
17.9972871002326
 21
34.60145742004652
 31
0.0
  0
LINE
  5
D21
330
1F
100
AcDbEntity
  8
SK2
  6
CONTINUOUS
370
25
 62
7
100
AcDbLine
 10
17.53126073623882
 20
35.49174785275224
 30
0.0
 11
18.35084049082588
 21
34.67216809816517
 31
0.0
  0
LINE
  5
D22
330
1F
100
AcDbEntity
  8
SK2
  6
CONTINUOUS
370
25
 62
7
100
AcDbLine
 10
18.06159082212873
 20
35.38568183557425
 30
0.0
 11
18.70439388141915
 21
34.74287877628383
 31
0.0
  0
LINE
  5
D23
330
1F
100
AcDbEntity
  8
SK2
  6
CONTINUOUS
370
25
 62
7
100
AcDbLine
 10
18.59192090801864
 20
35.27961581839627
 30
0.0
 11
19.05794727201242
 21
34.81358945440249
 31
0.0
  0
LINE
  5
D24
330
1F
100
AcDbEntity
  8
SK2
  6
CONTINUOUS
370
25
 62
7
100
AcDbLine
 10
19.12225099390855
 20
35.17354980121829
 30
0.0
 11
19.4115006626057
 21
34.88430013252114
 31
0.0
  0
LINE
  5
D25
330
1F
100
AcDbEntity
  8
SK2
  6
CONTINUOUS
370
25
 62
7
100
AcDbLine
 10
19.65258107979846
 20
35.06748378404031
 30
0.0
 11
19.76505405319897
 21
34.95501081063979
 31
0.0
  0
TEXT
  5
D26
330
1F
100
AcDbEntity
  8
SK2
  6
CONTINUOUS
370
25
 62
7
100
AcDbText
 10
-11.42666666666667
 20
36.5
 30
0.0
 40
3.5
  1
57
 72
     1
 11
-8.51
 21
36.5
 31
0.0
100
AcDbText
  0
LINE
  5
D27
330
1F
100
AcDbEntity
  8
2
  6
CONTINUOUS
370
25
 62
7
100
AcDbLine
 10
19.69710678
 20
-2.70710678
 30
0.0
 11
36.98999999689317
 21
-19.99999999689314
 31
0.0
  0
LINE
  5
D28
330
1F
100
AcDbEntity
  8
2
  6
CONTINUOUS
370
25
 62
7
100
AcDbLine
 10
36.98999999689317
 20
-19.99999999689314
 30
0.0
 11
40.96499999689317
 21
-19.99999999689314
 31
0.0
  0
LINE
  5
D29
330
1F
100
AcDbEntity
  8
2
  6
CONTINUOUS
370
25
 62
7
100
AcDbLine
 10
19.69710678
 20
-2.70710678
 30
0.0
 11
18.98999999881345
 21
-1.999999998813453
 31
0.0
  0
LINE
  5
D2A
330
1F
100
AcDbEntity
  8
2
  6
CONTINUOUS
370
25
 62
7
100
AcDbLine
 10
19.69710678
 20
-2.70710678
 30
0.0
 11
23.93974746711929
 21
-5.535533904746187
 31
0.0
  0
LINE
  5
D2B
330
1F
100
AcDbEntity
  8
2
  6
CONTINUOUS
370
25
 62
7
100
AcDbLine
 10
23.93974746711929
 20
-5.535533904746187
 30
0.0
 11
22.52553390474619
 21
-6.949747467119283
 31
0.0
  0
LINE
  5
D2C
330
1F
100
AcDbEntity
  8
2
  6
CONTINUOUS
370
25
 62
7
100
AcDbLine
 10
22.52553390474619
 20
-6.949747467119283
 30
0.0
 11
19.69710678
 21
-2.70710678
 31
0.0
  0
LINE
  5
D2D
330
1F
100
AcDbEntity
  8
2
  6
CONTINUOUS
370
25
 62
7
100
AcDbLine
 10
22.38368574706347
 20
-6.736975230595196
 30
0.0
 11
23.7269752305952
 21
-5.393685747063461
 31
0.0
  0
LINE
  5
D2E
330
1F
100
AcDbEntity
  8
2
  6
CONTINUOUS
370
25
 62
7
100
AcDbLine
 10
22.21398011957869
 20
-6.482416789368042
 30
0.0
 11
23.47241678936804
 21
-5.223980119578691
 31
0.0
  0
LINE
  5
D2F
330
1F
100
AcDbEntity
  8
2
  6
CONTINUOUS
370
25
 62
7
100
AcDbLine
 10
22.04427449209393
 20
-6.227858348140877
 30
0.0
 11
23.21785834814088
 21
-5.054274492093921
 31
0.0
  0
LINE
  5
D30
330
1F
100
AcDbEntity
  8
2
  6
CONTINUOUS
370
25
 62
7
100
AcDbLine
 10
21.87456886460915
 20
-5.973299906913724
 30
0.0
 11
22.96329990691373
 21
-4.88456886460915
 31
0.0
  0
LINE
  5
D31
330
1F
100
AcDbEntity
  8
2
  6
CONTINUOUS
370
25
 62
7
100
AcDbLine
 10
21.70486323712438
 20
-5.718741465686566
 30
0.0
 11
22.70874146568657
 21
-4.71486323712438
 31
0.0
  0
LINE
  5
D32
330
1F
100
AcDbEntity
  8
2
  6
CONTINUOUS
370
25
 62
7
100
AcDbLine
 10
21.53515760963961
 20
-5.464183024459413
 30
0.0
 11
22.45418302445941
 21
-4.54515760963961
 31
0.0
  0
LINE
  5
D33
330
1F
100
AcDbEntity
  8
2
  6
CONTINUOUS
370
25
 62
7
100
AcDbLine
 10
21.36545198215484
 20
-5.209624583232255
 30
0.0
 11
22.19962458323226
 21
-4.375451982154836
 31
0.0
  0
LINE
  5
D34
330
1F
100
AcDbEntity
  8
2
  6
CONTINUOUS
370
25
 62
7
100
AcDbLine
 10
21.19574635467007
 20
-4.955066142005098
 30
0.0
 11
21.9450661420051
 21
-4.205746354670065
 31
0.0
  0
LINE
  5
D35
330
1F
100
AcDbEntity
  8
2
  6
CONTINUOUS
370
25
 62
7
100
AcDbLine
 10
21.02604072718529
 20
-4.700507700777944
 30
0.0
 11
21.69050770077794
 21
-4.036040727185295
 31
0.0
  0
LINE
  5
D36
330
1F
100
AcDbEntity
  8
2
  6
CONTINUOUS
370
25
 62
7
100
AcDbLine
 10
20.85633509970053
 20
-4.445949259550783
 30
0.0
 11
21.43594925955079
 21
-3.866335099700521
 31
0.0
  0
LINE
  5
D37
330
1F
100
AcDbEntity
  8
2
  6
CONTINUOUS
370
25
 62
7
100
AcDbLine
 10
20.68662947221575
 20
-4.191390818323629
 30
0.0
 11
21.18139081832363
 21
-3.696629472215751
 31
0.0
  0
LINE
  5
D38
330
1F
100
AcDbEntity
  8
2
  6
CONTINUOUS
370
25
 62
7
100
AcDbLine
 10
20.51692384473098
 20
-3.936832377096472
 30
0.0
 11
20.92683237709647
 21
-3.52692384473098
 31
0.0
  0
LINE
  5
D39
330
1F
100
AcDbEntity
  8
2
  6
CONTINUOUS
370
25
 62
7
100
AcDbLine
 10
20.34721821724621
 20
-3.682273935869318
 30
0.0
 11
20.67227393586932
 21
-3.35721821724621
 31
0.0
  0
LINE
  5
D3A
330
1F
100
AcDbEntity
  8
2
  6
CONTINUOUS
370
25
 62
7
100
AcDbLine
 10
20.17751258976144
 20
-3.427715494642158
 30
0.0
 11
20.41771549464216
 21
-3.18751258976144
 31
0.0
  0
LINE
  5
D3B
330
1F
100
AcDbEntity
  8
2
  6
CONTINUOUS
370
25
 62
7
100
AcDbLine
 10
20.00780696227666
 20
-3.173157053415004
 30
0.0
 11
20.163157053415
 21
-3.017806962276666
 31
0.0
  0
LINE
  5
D3C
330
1F
100
AcDbEntity
  8
2
  6
CONTINUOUS
370
25
 62
7
100
AcDbLine
 10
19.83810133479189
 20
-2.918598612187846
 30
0.0
 11
19.90859861218784
 21
-2.848101334791895
 31
0.0
  0
LINE
  5
D3D
330
1F
100
AcDbEntity
  8
2
  6
CONTINUOUS
370
25
 62
7
100
AcDbLine
 10
22.30156569531724
 20
-6.613795152975856
 30
0.0
 11
22.58152595710343
 21
-6.893755414762042
 31
0.0
  0
LINE
  5
D3E
330
1F
100
AcDbEntity
  8
2
  6
CONTINUOUS
370
25
 62
7
100
AcDbLine
 10
21.45303755789338
 20
-5.341002946840071
 30
0.0
 11
22.79365799145939
 21
-6.681623380406084
 31
0.0
  0
LINE
  5
D3F
330
1F
100
AcDbEntity
  8
2
  6
CONTINUOUS
370
25
 62
7
100
AcDbLine
 10
20.60450942046952
 20
-4.068210740704281
 30
0.0
 11
23.00579002581535
 21
-6.469491346050116
 31
0.0
  0
LINE
  5
D40
330
1F
100
AcDbEntity
  8
2
  6
CONTINUOUS
370
25
 62
7
100
AcDbLine
 10
19.75598128304566
 20
-2.795418534568494
 30
0.0
 11
23.21792206017132
 21
-6.257359311694156
 31
0.0
  0
LINE
  5
D41
330
1F
100
AcDbEntity
  8
2
  6
CONTINUOUS
370
25
 62
7
100
AcDbLine
 10
20.88158723156727
 20
-3.496760414378183
 30
0.0
 11
23.43005409452728
 21
-6.045227277338189
 31
0.0
  0
LINE
  5
D42
330
1F
100
AcDbEntity
  8
2
  6
CONTINUOUS
370
25
 62
7
100
AcDbLine
 10
22.15437943770305
 20
-4.345288551802035
 30
0.0
 11
23.64218612888325
 21
-5.833095242982228
 31
0.0
  0
LINE
  5
D43
330
1F
100
AcDbEntity
  8
2
  6
CONTINUOUS
370
25
 62
7
100
AcDbLine
 10
23.42717164383884
 20
-5.193816689225891
 30
0.0
 11
23.85431816323921
 21
-5.620963208626261
 31
0.0
  0
TEXT
  5
D44
330
1F
100
AcDbEntity
  8
2
  6
CONTINUOUS
370
25
 62
7
100
AcDbText
 10
38.39416666355983
 20
-18.49999999689314
 30
0.0
 40
3.5
  1
1
 72
     1
 11
38.97749999689317
 21
-18.49999999689314
 31
0.0
100
AcDbText
  0
LINE
  5
D45
330
1F
100
AcDbEntity
  8
SK1
  6
CONTINUOUS
370
50
 62
4
100
AcDbLine
 10
-0.01
 20
0.0
 30
0.0
 11
2.49
 21
0.0
 31
0.0
  0
LINE
  5
D46
330
1F
100
AcDbEntity
  8
SK1
  6
CONTINUOUS
370
50
 62
4
100
AcDbLine
 10
-0.01
 20
0.0
 30
0.0
 11
-0.01
 21
2.5
 31
0.0
  0
ARC
  5
D47
330
1F
100
AcDbEntity
  8
SK1
  6
CONTINUOUS
370
50
 62
4
100
AcDbCircle
 10
-0.01
 20
0.0
 30
0.0
 40
2.5
100
AcDbArc
 50
0.0
 51
90.0
  0
LINE
  5
D48
330
1F
100
AcDbEntity
  8
SK1
  6
CONTINUOUS
370
50
 62
4
100
AcDbLine
 10
-0.01
 20
0.0
 30
0.0
 11
-2.51
 21
0.0
 31
0.0
  0
ARC
  5
D49
330
1F
100
AcDbEntity
  8
SK1
  6
CONTINUOUS
370
50
 62
4
100
AcDbCircle
 10
-0.01
 20
0.0
 30
0.0
 40
2.5
100
AcDbArc
 50
180.0
 51
270.0
  0
LINE
  5
D4A
330
1F
100
AcDbEntity
  8
SK1
  6
CONTINUOUS
370
50
 62
4
100
AcDbLine
 10
-0.01
 20
-2.5
 30
0.0
 11
-0.01
 21
0.0
 31
0.0
  0
ARC
  5
D4B
330
1F
100
AcDbEntity
  8
SK1
  6
CONTINUOUS
370
50
 62
4
100
AcDbCircle
 10
-0.01
 20
0.0
 30
0.0
 40
2.5
100
AcDbArc
 50
270.0
 51
0.0
  0
ARC
  5
D4C
330
1F
100
AcDbEntity
  8
SK1
  6
CONTINUOUS
370
50
 62
4
100
AcDbCircle
 10
-0.01
 20
0.0
 30
0.0
 40
2.5
100
AcDbArc
 50
90.0
 51
180.0
  0
LINE
  5
D4D
330
1F
100
AcDbEntity
  8
SK1
  6
CONTINUOUS
370
50
 62
4
100
AcDbLine
 10
-0.32832627443191
 20
-2.479495909600069
 30
0.0
 11
-0.01
 21
-2.161169635168159
 31
0.0
  0
LINE
  5
D4E
330
1F
100
AcDbEntity
  8
SK1
  6
CONTINUOUS
370
50
 62
4
100
AcDbLine
 10
2.15116963516816
 20
0.0
 30
0.0
 11
2.469495909600069
 21
0.3183262744319091
 31
0.0
  0
LINE
  5
D4F
330
1F
100
AcDbEntity
  8
SK1
  6
CONTINUOUS
370
50
 62
4
100
AcDbLine
 10
-0.625281817185723
 20
-2.422898061760609
 30
0.0
 11
-0.01
 21
-1.807616244574886
 31
0.0
  0
LINE
  5
D50
330
1F
100
AcDbEntity
  8
SK1
  6
CONTINUOUS
370
50
 62
4
100
AcDbLine
 10
1.797616244574887
 20
0.0
 30
0.0
 11
2.412898061760609
 21
0.6152818171857222
 31
0.0
  0
LINE
  5
D51
330
1F
100
AcDbEntity
  8
SK1
  6
CONTINUOUS
370
50
 62
4
100
AcDbLine
 10
-0.8935965231639721
 20
-2.337659377145585
 30
0.0
 11
-0.01
 21
-1.454062853981614
 31
0.0
  0
LINE
  5
D52
330
1F
100
AcDbEntity
  8
SK1
  6
CONTINUOUS
370
50
 62
4
100
AcDbLine
 10
1.444062853981614
 20
0.0
 30
0.0
 11
2.327659377145586
 21
0.8835965231639715
 31
0.0
  0
LINE
  5
D53
330
1F
100
AcDbEntity
  8
SK1
  6
CONTINUOUS
370
50
 62
4
100
AcDbLine
 10
-1.138779664263143
 20
-2.229289127651483
 30
0.0
 11
-0.01
 21
-1.100509463388341
 31
0.0
  0
LINE
  5
D54
330
1F
100
AcDbEntity
  8
SK1
  6
CONTINUOUS
370
50
 62
4
100
AcDbLine
 10
1.090509463388341
 20
0.0
 30
0.0
 11
2.219289127651484
 21
1.128779664263142
 31
0.0
  0
LINE
  5
D55
330
1F
100
AcDbEntity
  8
SK1
  6
CONTINUOUS
370
50
 62
4
100
AcDbLine
 10
-1.364032791010379
 20
-2.100988863805446
 30
0.0
 11
-0.01
 21
-0.7469560727950677
 31
0.0
  0
LINE
  5
D56
330
1F
100
AcDbEntity
  8
SK1
  6
CONTINUOUS
370
50
 62
4
100
AcDbLine
 10
0.736956072795068
 20
0.0
 30
0.0
 11
2.090988863805447
 21
1.354032791010378
 31
0.0
  0
LINE
  5
D57
330
1F
100
AcDbEntity
  8
SK1
  6
CONTINUOUS
370
50
 62
4
100
AcDbLine
 10
-1.569387394659872
 20
-1.952790076861666
 30
0.0
 11
-0.01
 21
-0.3934026822017946
 31
0.0
  0
LINE
  5
D58
330
1F
100
AcDbEntity
  8
SK1
  6
CONTINUOUS
370
50
 62
4
100
AcDbLine
 10
0.3834026822017948
 20
0.0
 30
0.0
 11
1.942790076861667
 21
1.559387394659871
 31
0.0
  0
LINE
  5
D59
330
1F
100
AcDbEntity
  8
SK1
  6
CONTINUOUS
370
50
 62
4
100
AcDbLine
 10
-1.756970020883365
 20
-1.786819312491886
 30
0.0
 11
-0.01
 21
-0.0398492916085216
 31
0.0
  0
LINE
  5
D5A
330
1F
100
AcDbEntity
  8
SK1
  6
CONTINUOUS
370
50
 62
4
100
AcDbLine
 10
0.0298492916085216
 20
0.0
 30
0.0
 11
1.776819312491887
 21
1.746970020883364
 31
0.0
  0
LINE
  5
D5B
330
1F
100
AcDbEntity
  8
SK1
  6
CONTINUOUS
370
50
 62
4
100
AcDbLine
 10
-1.927371878232655
 20
-1.603667779247902
 30
0.0
 11
-0.3237040989847517
 21
0.0
 31
0.0
  0
LINE
  5
D5C
330
1F
100
AcDbEntity
  8
SK1
  6
CONTINUOUS
370
50
 62
4
100
AcDbLine
 10
-0.01
 20
0.3137040989847515
 30
0.0
 11
1.593667779247903
 21
1.917371878232654
 31
0.0
  0
LINE
  5
D5D
330
1F
100
AcDbEntity
  8
SK1
  6
CONTINUOUS
370
50
 62
4
100
AcDbLine
 10
-2.078741231122433
 20
-1.401483741544407
 30
0.0
 11
-0.6772574895780249
 21
0.0
 31
0.0
  0
LINE
  5
D5E
330
1F
100
AcDbEntity
  8
SK1
  6
CONTINUOUS
370
50
 62
4
100
AcDbLine
 10
-0.01
 20
0.6672574895780246
 30
0.0
 11
1.391483741544409
 21
2.068741231122432
 31
0.0
  0
LINE
  5
D5F
330
1F
100
AcDbEntity
  8
SK1
  6
CONTINUOUS
370
50
 62
4
100
AcDbLine
 10
-2.2123876557675
 20
-1.181576775596201
 30
0.0
 11
-1.030810880171298
 21
0.0
 31
0.0
  0
LINE
  5
D60
330
1F
100
AcDbEntity
  8
SK1
  6
CONTINUOUS
370
50
 62
4
100
AcDbLine
 10
-0.01
 20
1.020810880171298
 30
0.0
 11
1.171576775596202
 21
2.202387655767499
 31
0.0
  0
LINE
  5
D61
330
1F
100
AcDbEntity
  8
SK1
  6
CONTINUOUS
370
50
 62
4
100
AcDbLine
 10
-2.325450943493525
 20
-0.9410866727289533
 30
0.0
 11
-1.384364270764571
 21
0.0
 31
0.0
  0
LINE
  5
D62
330
1F
100
AcDbEntity
  8
SK1
  6
CONTINUOUS
370
50
 62
4
100
AcDbLine
 10
-0.01
 20
1.374364270764571
 30
0.0
 11
0.9310866727289543
 21
2.315450943493524
 31
0.0
  0
LINE
  5
D63
330
1F
100
AcDbEntity
  8
SK1
  6
CONTINUOUS
370
50
 62
4
100
AcDbLine
 10
-2.415290600131854
 20
-0.6773729387740097
 30
0.0
 11
-1.737917661357844
 21
0.0
 31
0.0
  0
LINE
  5
D64
330
1F
100
AcDbEntity
  8
SK1
  6
CONTINUOUS
370
50
 62
4
100
AcDbLine
 10
-0.01
 20
1.727917661357844
 30
0.0
 11
0.6673729387740106
 21
2.405290600131854
 31
0.0
  0
LINE
  5
D65
330
1F
100
AcDbEntity
  8
SK1
  6
CONTINUOUS
370
50
 62
4
100
AcDbLine
 10
-2.478598823056026
 20
-0.3871277711049084
 30
0.0
 11
-2.091471051951117
 21
0.0
 31
0.0
  0
LINE
  5
D66
330
1F
100
AcDbEntity
  8
SK1
  6
CONTINUOUS
370
50
 62
4
100
AcDbLine
 10
-0.01
 20
2.081471051951117
 30
0.0
 11
0.3771277711049085
 21
2.468598823056025
 31
0.0
  0
LINE
  5
D67
330
1F
100
AcDbEntity
  8
SK1
  6
CONTINUOUS
370
50
 62
4
100
AcDbLine
 10
-2.508020276172772
 20
-0.0629958336283822
 30
0.0
 11
-2.44502444254439
 21
0.0
 31
0.0
  0
LINE
  5
D68
330
1F
100
AcDbEntity
  8
SK1
  6
CONTINUOUS
370
50
 62
4
100
AcDbLine
 10
-0.01
 20
2.435024442544389
 30
0.0
 11
0.0529958336283828
 21
2.498020276172772
 31
0.0
  0
LINE
  5
D69
330
1F
100
AcDbEntity
  8
SK1
  6
CONTINUOUS
370
50
 62
4
100
AcDbLine
 10
-2.347336523620827
 20
-0.8844932833271533
 30
0.0
 11
-0.894493283327151
 21
-2.337336523620827
 31
0.0
  0
LINE
  5
D6A
330
1F
100
AcDbEntity
  8
SK1
  6
CONTINUOUS
370
50
 62
4
100
AcDbLine
 10
-2.476237059966593
 20
-0.4020393563881135
 30
0.0
 11
-0.4120393563881111
 21
-2.466237059966594
 31
0.0
  0
LINE
  5
D6B
330
1F
100
AcDbEntity
  8
SK1
  6
CONTINUOUS
370
50
 62
4
100
AcDbLine
 10
-2.509522297881595
 20
-0.0152007278798383
 30
0.0
 11
-0.0252007278798351
 21
-2.499522297881596
 31
0.0
  0
LINE
  5
D6C
330
1F
100
AcDbEntity
  8
SK1
  6
CONTINUOUS
370
50
 62
4
100
AcDbLine
 10
-2.17116963516816
 20
0.0
 30
0.0
 11
-0.01
 21
-2.161169635168158
 31
0.0
  0
LINE
  5
D6D
330
1F
100
AcDbEntity
  8
SK1
  6
CONTINUOUS
370
50
 62
4
100
AcDbLine
 10
-1.817616244574888
 20
0.0
 30
0.0
 11
-0.01
 21
-1.807616244574886
 31
0.0
  0
LINE
  5
D6E
330
1F
100
AcDbEntity
  8
SK1
  6
CONTINUOUS
370
50
 62
4
100
AcDbLine
 10
-1.464062853981615
 20
0.0
 30
0.0
 11
-0.01
 21
-1.454062853981613
 31
0.0
  0
LINE
  5
D6F
330
1F
100
AcDbEntity
  8
SK1
  6
CONTINUOUS
370
50
 62
4
100
AcDbLine
 10
-1.110509463388341
 20
0.0
 30
0.0
 11
-0.01
 21
-1.10050946338834
 31
0.0
  0
LINE
  5
D70
330
1F
100
AcDbEntity
  8
SK1
  6
CONTINUOUS
370
50
 62
4
100
AcDbLine
 10
-0.7569560727950676
 20
0.0
 30
0.0
 11
-0.01
 21
-0.7469560727950668
 31
0.0
  0
LINE
  5
D71
330
1F
100
AcDbEntity
  8
SK1
  6
CONTINUOUS
370
50
 62
4
100
AcDbLine
 10
-0.4034026822017942
 20
0.0
 30
0.0
 11
-0.01
 21
-0.3934026822017938
 31
0.0
  0
LINE
  5
D72
330
1F
100
AcDbEntity
  8
SK1
  6
CONTINUOUS
370
50
 62
4
100
AcDbLine
 10
-0.0498492916085216
 20
0.0
 30
0.0
 11
-0.01
 21
-0.0398492916085216
 31
0.0
  0
LINE
  5
D73
330
1F
100
AcDbEntity
  8
SK1
  6
CONTINUOUS
370
50
 62
4
100
AcDbLine
 10
-0.01
 20
0.3137040989847515
 30
0.0
 11
0.3037040989847518
 21
0.0
 31
0.0
  0
LINE
  5
D74
330
1F
100
AcDbEntity
  8
SK1
  6
CONTINUOUS
370
50
 62
4
100
AcDbLine
 10
-0.01
 20
0.6672574895780246
 30
0.0
 11
0.6572574895780253
 21
0.0
 31
0.0
  0
LINE
  5
D75
330
1F
100
AcDbEntity
  8
SK1
  6
CONTINUOUS
370
50
 62
4
100
AcDbLine
 10
-0.01
 20
1.020810880171298
 30
0.0
 11
1.010810880171299
 21
0.0
 31
0.0
  0
LINE
  5
D76
330
1F
100
AcDbEntity
  8
SK1
  6
CONTINUOUS
370
50
 62
4
100
AcDbLine
 10
-0.01
 20
1.37436427076457
 30
0.0
 11
1.364364270764571
 21
0.0
 31
0.0
  0
LINE
  5
D77
330
1F
100
AcDbEntity
  8
SK1
  6
CONTINUOUS
370
50
 62
4
100
AcDbLine
 10
-0.01
 20
1.727917661357843
 30
0.0
 11
1.717917661357845
 21
0.0
 31
0.0
  0
LINE
  5
D78
330
1F
100
AcDbEntity
  8
SK1
  6
CONTINUOUS
370
50
 62
4
100
AcDbLine
 10
-0.01
 20
2.081471051951116
 30
0.0
 11
2.071471051951118
 21
0.0
 31
0.0
  0
LINE
  5
D79
330
1F
100
AcDbEntity
  8
SK1
  6
CONTINUOUS
370
50
 62
4
100
AcDbLine
 10
-0.01
 20
2.435024442544389
 30
0.0
 11
2.425024442544392
 21
0.0
 31
0.0
  0
LINE
  5
D7A
330
1F
100
AcDbEntity
  8
SK1
  6
CONTINUOUS
370
50
 62
4
100
AcDbLine
 10
0.2977647139123103
 20
2.480813119225352
 30
0.0
 11
2.470813119225352
 21
0.307764713912313
 31
0.0
  0
LINE
  5
D7B
330
1F
100
AcDbEntity
  8
SK1
  6
CONTINUOUS
370
50
 62
4
100
AcDbLine
 10
0.7511924397506667
 20
2.380938783980268
 30
0.0
 11
2.370938783980268
 21
0.7611924397506691
 31
0.0
  0
LINE
  5
D7C
330
1F
100
AcDbEntity
  8
SK1
  6
CONTINUOUS
370
50
 62
4
100
AcDbLine
 10
1.47586376213526
 20
2.009820852188948
 30
0.0
 11
1.999820852188946
 21
1.485863762135263
 31
0.0
  0
LINE
  5
D7D
330
1F
100
AcDbEntity
  8
4
  6
LONGDASH_DASH
370
25
 62
2
100
AcDbLine
 10
-0.01
 20
0.0
 30
0.0
 11
19.99
 21
0.0
 31
0.0
  0
LINE
  5
D7E
330
1F
100
AcDbEntity
  8
SK4
  6
LONGDASH_DASH
370
25
 62
2
100
AcDbLine
 10
-43.01
 20
0.0
 30
0.0
 11
25.99
 21
0.0
 31
0.0
  0
ENDSEC
  0
SECTION
  2
OBJECTS
  0
DICTIONARY
  5
C
330
0
100
AcDbDictionary
281
     1
  3
ACAD_GROUP
350
D
  3
ACAD_LAYOUT
350
1A
  3
ACAD_MATERIAL
350
3B
  3
ACAD_MLEADERSTYLE
350
D81
  3
ACAD_MLINESTYLE
350
17
  3
ACAD_PLOTSETTINGS
350
19
  3
ACAD_PLOTSTYLENAME
350
E
  3
ACAD_SCALELIST
350
528
  3
ACAD_VISUALSTYLE
350
2A
  3
AcDbVariableDictionary
350
D7F
  0
DICTIONARY
  5
D
102
{ACAD_REACTORS
330
C
102
}
330
C
100
AcDbDictionary
281
     1
  0
DICTIONARY
  5
1A
102
{ACAD_REACTORS
330
C
102
}
330
C
100
AcDbDictionary
281
     1
  3
Layout1
350
1E
  3
Layout2
350
26
  3
Model
350
22
  0
DICTIONARY
  5
3B
102
{ACAD_REACTORS
330
C
102
}
330
C
100
AcDbDictionary
281
     1
  3
ByBlock
350
3D
  3
ByLayer
350
3C
  3
Global
350
3E
  0
DICTIONARY
  5
D81
102
{ACAD_REACTORS
330
C
102
}
330
C
100
AcDbDictionary
281
     1
  0
DICTIONARY
  5
17
102
{ACAD_REACTORS
330
C
102
}
330
C
100
AcDbDictionary
281
     1
  3
Standard
350
18
  0
DICTIONARY
  5
19
102
{ACAD_REACTORS
330
C
102
}
330
C
100
AcDbDictionary
281
     1
  0
ACDBDICTIONARYWDFLT
  5
E
102
{ACAD_REACTORS
330
C
102
}
330
C
100
AcDbDictionary
281
     1
  3
Normal
350
F
100
AcDbDictionaryWithDefault
340
F
  0
DICTIONARY
  5
528
102
{ACAD_REACTORS
330
C
102
}
330
C
100
AcDbDictionary
281
     1
  3
A0
350
529
  3
A1
350
52A
  3
A2
350
52B
  3
A3
350
52C
  3
A4
350
52D
  3
A5
350
52E
  3
A6
350
52F
  3
A7
350
530
  3
A8
350
531
  3
A9
350
532
  3
B0
350
533
  3
B1
350
534
  3
B2
350
535
  3
B3
350
536
  3
B4
350
537
  3
B5
350
538
  3
B6
350
539
  3
B7
350
53A
  3
B8
350
53B
  3
B9
350
53C
  3
C0
350
53D
  3
C1
350
53E
  3
C2
350
53F
  3
C3
350
540
  3
C4
350
541
  3
C5
350
542
  3
C6
350
543
  3
C7
350
544
  3
C8
350
545
  3
C9
350
546
  3
D0
350
547
  3
D1
350
548
  3
D2
350
549
  0
DICTIONARY
  5
2A
102
{ACAD_REACTORS
330
C
102
}
330
C
100
AcDbDictionary
281
     1
  3
2dWireframe
350
2F
  3
3D Hidden
350
31
  3
3dWireframe
350
30
  3
Basic
350
32
  3
Brighten
350
36
  3
ColorChange
350
3A
  3
Conceptual
350
34
  3
Dim
350
35
  3
Facepattern
350
39
  3
Flat
350
2B
  3
FlatWithEdges
350
2C
  3
Gouraud
350
2D
  3
GouraudWithEdges
350
2E
  3
Linepattern
350
38
  3
Realistic
350
33
  3
Thicken
350
37
  0
DICTIONARY
  5
D7F
102
{ACAD_REACTORS
330
C
102
}
330
C
100
AcDbDictionary
281
     1
  3
CANNOSCALE
350
D84
  3
DIMASSOC
350
D85
  3
HIDETEXT
350
D86
  3
PSOLHEIGHT
350
D83
  3
PSOLWIDTH
350
D82
  0
LAYOUT
  5
1E
102
{ACAD_REACTORS
330
1A
102
}
330
1A
100
AcDbPlotSettings
  1

  2
none_device
  4

  6

 40
0.0
 41
0.0
 42
0.0
 43
0.0
 44
0.0
 45
0.0
 46
0.0
 47
0.0
 48
0.0
 49
0.0
140
0.0
141
0.0
142
1.0
143
1.0
 70
   688
 72
     0
 73
     0
 74
     5
  7

 75
    16
147
1.0
148
0.0
149
0.0
100
AcDbLayout
  1
Layout1
 70
     1
 71
     1
 10
0.0
 20
0.0
 11
420.0
 21
297.0
 12
0.0
 22
0.0
 32
0.0
 14
1.000000000000000E+20
 24
1.000000000000000E+20
 34
1.000000000000000E+20
 15
-1.000000000000000E+20
 25
-1.000000000000000E+20
 35
-1.000000000000000E+20
146
0.0
 13
0.0
 23
0.0
 33
0.0
 16
1.0
 26
0.0
 36
0.0
 17
0.0
 27
1.0
 37
0.0
 76
     0
330
1B
  0
LAYOUT
  5
26
102
{ACAD_REACTORS
330
1A
102
}
330
1A
100
AcDbPlotSettings
  1

  2
none_device
  4

  6

 40
0.0
 41
0.0
 42
0.0
 43
0.0
 44
0.0
 45
0.0
 46
0.0
 47
0.0
 48
0.0
 49
0.0
140
0.0
141
0.0
142
1.0
143
1.0
 70
   688
 72
     0
 73
     0
 74
     5
  7

 75
    16
147
1.0
148
0.0
149
0.0
100
AcDbLayout
  1
Layout2
 70
     1
 71
     2
 10
0.0
 20
0.0
 11
0.0
 21
0.0
 12
0.0
 22
0.0
 32
0.0
 14
0.0
 24
0.0
 34
0.0
 15
0.0
 25
0.0
 35
0.0
146
0.0
 13
0.0
 23
0.0
 33
0.0
 16
1.0
 26
0.0
 36
0.0
 17
0.0
 27
1.0
 37
0.0
 76
     0
330
23
  0
LAYOUT
  5
22
102
{ACAD_REACTORS
330
1A
102
}
330
1A
100
AcDbPlotSettings
  1

  2
none_device
  4

  6

 40
0.0
 41
0.0
 42
0.0
 43
0.0
 44
0.0
 45
0.0
 46
0.0
 47
0.0
 48
0.0
 49
0.0
140
0.0
141
0.0
142
1.0
143
1.0
 70
  1712
 72
     0
 73
     0
 74
     0
  7

 75
     0
147
1.0
148
0.0
149
0.0
100
AcDbLayout
  1
Model
 70
     1
 71
     0
 10
0.0
 20
0.0
 11
420.0
 21
297.0
 12
0.0
 22
0.0
 32
0.0
 14
0.0
 24
0.0
 34
0.0
 15
25.0
 25
35.0
 35
0.0
146
0.0
 13
0.0
 23
0.0
 33
0.0
 16
1.0
 26
0.0
 36
0.0
 17
0.0
 27
1.0
 37
0.0
 76
     0
330
1F
331
29
  0
MATERIAL
  5
3D
102
{ACAD_REACTORS
330
3B
102
}
102
{ACAD_XDICTIONARY
360
DA9
102
}
330
3B
100
AcDbMaterial
  1
ByBlock
  0
MATERIAL
  5
3C
102
{ACAD_REACTORS
330
3B
102
}
102
{ACAD_XDICTIONARY
360
DA7
102
}
330
3B
100
AcDbMaterial
  1
ByLayer
  0
MATERIAL
  5
3E
102
{ACAD_REACTORS
330
3B
102
}
102
{ACAD_XDICTIONARY
360
DAB
102
}
330
3B
100
AcDbMaterial
  1
Global
  0
MLINESTYLE
  5
18
102
{ACAD_REACTORS
330
17
102
}
330
17
100
AcDbMlineStyle
  2
Standard
 70
     0
  3

 62
   256
 51
90.0
 52
90.0
 71
     2
 49
0.5
 62
   256
  6
BYLAYER
 49
-0.5
 62
   256
  6
BYLAYER
  0
ACDBPLACEHOLDER
  5
F
102
{ACAD_REACTORS
330
E
102
}
330
E
  0
SCALE
  5
529
102
{ACAD_REACTORS
330
528
102
}
330
528
100
AcDbScale
 70
     0
300
1:1
140
1.0
141
1.0
290
     1
  0
SCALE
  5
52A
102
{ACAD_REACTORS
330
528
102
}
330
528
100
AcDbScale
 70
     0
300
1:2
140
1.0
141
2.0
290
     0
  0
SCALE
  5
52B
102
{ACAD_REACTORS
330
528
102
}
330
528
100
AcDbScale
 70
     0
300
1:4
140
1.0
141
4.0
290
     0
  0
SCALE
  5
52C
102
{ACAD_REACTORS
330
528
102
}
330
528
100
AcDbScale
 70
     0
300
1:5
140
1.0
141
5.0
290
     0
  0
SCALE
  5
52D
102
{ACAD_REACTORS
330
528
102
}
330
528
100
AcDbScale
 70
     0
300
1:8
140
1.0
141
8.0
290
     0
  0
SCALE
  5
52E
102
{ACAD_REACTORS
330
528
102
}
330
528
100
AcDbScale
 70
     0
300
1:10
140
1.0
141
10.0
290
     0
  0
SCALE
  5
52F
102
{ACAD_REACTORS
330
528
102
}
330
528
100
AcDbScale
 70
     0
300
1:16
140
1.0
141
16.0
290
     0
  0
SCALE
  5
530
102
{ACAD_REACTORS
330
528
102
}
330
528
100
AcDbScale
 70
     0
300
1:20
140
1.0
141
20.0
290
     0
  0
SCALE
  5
531
102
{ACAD_REACTORS
330
528
102
}
330
528
100
AcDbScale
 70
     0
300
1:30
140
1.0
141
30.0
290
     0
  0
SCALE
  5
532
102
{ACAD_REACTORS
330
528
102
}
330
528
100
AcDbScale
 70
     0
300
1:40
140
1.0
141
40.0
290
     0
  0
SCALE
  5
533
102
{ACAD_REACTORS
330
528
102
}
330
528
100
AcDbScale
 70
     0
300
1:50
140
1.0
141
50.0
290
     0
  0
SCALE
  5
534
102
{ACAD_REACTORS
330
528
102
}
330
528
100
AcDbScale
 70
     0
300
1:100
140
1.0
141
100.0
290
     0
  0
SCALE
  5
535
102
{ACAD_REACTORS
330
528
102
}
330
528
100
AcDbScale
 70
     0
300
2:1
140
2.0
141
1.0
290
     0
  0
SCALE
  5
536
102
{ACAD_REACTORS
330
528
102
}
330
528
100
AcDbScale
 70
     0
300
4:1
140
4.0
141
1.0
290
     0
  0
SCALE
  5
537
102
{ACAD_REACTORS
330
528
102
}
330
528
100
AcDbScale
 70
     0
300
8:1
140
8.0
141
1.0
290
     0
  0
SCALE
  5
538
102
{ACAD_REACTORS
330
528
102
}
330
528
100
AcDbScale
 70
     0
300
10:1
140
10.0
141
1.0
290
     0
  0
SCALE
  5
539
102
{ACAD_REACTORS
330
528
102
}
330
528
100
AcDbScale
 70
     0
300
100:1
140
100.0
141
1.0
290
     0
  0
SCALE
  5
53A
102
{ACAD_REACTORS
330
528
102
}
330
528
100
AcDbScale
 70
     0
300
1/128" = 1'-0"
140
0.0078125
141
12.0
290
     0
  0
SCALE
  5
53B
102
{ACAD_REACTORS
330
528
102
}
330
528
100
AcDbScale
 70
     0
300
1/64" = 1'-0"
140
0.015625
141
12.0
290
     0
  0
SCALE
  5
53C
102
{ACAD_REACTORS
330
528
102
}
330
528
100
AcDbScale
 70
     0
300
1/32" = 1'-0"
140
0.03125
141
12.0
290
     0
  0
SCALE
  5
53D
102
{ACAD_REACTORS
330
528
102
}
330
528
100
AcDbScale
 70
     0
300
1/16" = 1'-0"
140
0.0625
141
12.0
290
     0
  0
SCALE
  5
53E
102
{ACAD_REACTORS
330
528
102
}
330
528
100
AcDbScale
 70
     0
300
3/32" = 1'-0"
140
0.09375
141
12.0
290
     0
  0
SCALE
  5
53F
102
{ACAD_REACTORS
330
528
102
}
330
528
100
AcDbScale
 70
     0
300
1/8" = 1'-0"
140
0.125
141
12.0
290
     0
  0
SCALE
  5
540
102
{ACAD_REACTORS
330
528
102
}
330
528
100
AcDbScale
 70
     0
300
3/16" = 1'-0"
140
0.1875
141
12.0
290
     0
  0
SCALE
  5
541
102
{ACAD_REACTORS
330
528
102
}
330
528
100
AcDbScale
 70
     0
300
1/4" = 1'-0"
140
0.25
141
12.0
290
     0
  0
SCALE
  5
542
102
{ACAD_REACTORS
330
528
102
}
330
528
100
AcDbScale
 70
     0
300
3/8" = 1'-0"
140
0.375
141
12.0
290
     0
  0
SCALE
  5
543
102
{ACAD_REACTORS
330
528
102
}
330
528
100
AcDbScale
 70
     0
300
1/2" = 1'-0"
140
0.5
141
12.0
290
     0
  0
SCALE
  5
544
102
{ACAD_REACTORS
330
528
102
}
330
528
100
AcDbScale
 70
     0
300
3/4" = 1'-0"
140
0.75
141
12.0
290
     0
  0
SCALE
  5
545
102
{ACAD_REACTORS
330
528
102
}
330
528
100
AcDbScale
 70
     0
300
1" = 1'-0"
140
1.0
141
12.0
290
     0
  0
SCALE
  5
546
102
{ACAD_REACTORS
330
528
102
}
330
528
100
AcDbScale
 70
     0
300
1-1/2" = 1'-0"
140
1.5
141
12.0
290
     0
  0
SCALE
  5
547
102
{ACAD_REACTORS
330
528
102
}
330
528
100
AcDbScale
 70
     0
300
3" = 1'-0"
140
3.0
141
12.0
290
     0
  0
SCALE
  5
548
102
{ACAD_REACTORS
330
528
102
}
330
528
100
AcDbScale
 70
     0
300
6" = 1'-0"
140
6.0
141
12.0
290
     0
  0
SCALE
  5
549
102
{ACAD_REACTORS
330
528
102
}
330
528
100
AcDbScale
 70
     0
300
1'-0" = 1'-0"
140
12.0
141
12.0
290
     0
  0
VISUALSTYLE
  5
2F
102
{ACAD_REACTORS
330
2A
102
}
102
{ACAD_XDICTIONARY
360
D8F
102
}
330
2A
100
AcDbVisualStyle
  2
2dWireframe
 70
     4
 71
     0
 72
     2
 73
     0
 90
        0
 40
-0.6
 41
-30.0
 62
     5
 63
     7
 74
     1
 91
        4
 64
     7
 65
   257
 75
     1
175
     1
 42
1.0
 92
        0
 66
   257
 43
1.0
 76
     1
 77
     6
 78
     2
 67
     7
 79
     5
170
     0
171
     0
290
     0
174
     0
 93
        1
 44
0.0
173
     0
291
     0
 45
0.0
1001
ACAD
1000
AcDbSavedByObjectVersion
1070
     0
  0
VISUALSTYLE
  5
31
102
{ACAD_REACTORS
330
2A
102
}
102
{ACAD_XDICTIONARY
360
D93
102
}
330
2A
100
AcDbVisualStyle
  2
3D Hidden
 70
     6
 71
     1
 72
     2
 73
     2
 90
        0
 40
-0.6
 41
-30.0
 62
     5
 63
     7
 74
     2
 91
        2
 64
     7
 65
   257
 75
     2
175
     1
 42
40.0
 92
        0
 66
   257
 43
1.0
 76
     1
 77
     6
 78
     2
 67
     7
 79
     3
170
     0
171
     0
290
     0
174
     0
 93
        1
 44
0.0
173
     0
291
     0
 45
0.0
1001
ACAD
1000
AcDbSavedByObjectVersion
1070
     0
  0
VISUALSTYLE
  5
30
102
{ACAD_REACTORS
330
2A
102
}
102
{ACAD_XDICTIONARY
360
D91
102
}
330
2A
100
AcDbVisualStyle
  2
3dWireframe
 70
     5
 71
     0
 72
     2
 73
     0
 90
        0
 40
-0.6
 41
-30.0
 62
     5
 63
     7
 74
     1
 91
        4
 64
     7
 65
   257
 75
     1
175
     1
 42
1.0
 92
        0
 66
   257
 43
1.0
 76
     1
 77
     6
 78
     2
 67
     7
 79
     5
170
     0
171
     0
290
     0
174
     0
 93
        1
 44
0.0
173
     0
291
     0
 45
0.0
1001
ACAD
1000
AcDbSavedByObjectVersion
1070
     0
  0
VISUALSTYLE
  5
32
102
{ACAD_REACTORS
330
2A
102
}
102
{ACAD_XDICTIONARY
360
D95
102
}
330
2A
100
AcDbVisualStyle
  2
Basic
 70
     7
 71
     1
 72
     0
 73
     1
 90
        0
 40
-0.6
 41
-30.0
 62
     5
 63
     7
 74
     0
 91
        4
 64
     7
 65
   257
 75
     1
175
     1
 42
1.0
 92
        8
 66
     7
 43
1.0
 76
     1
 77
     6
 78
     2
 67
     7
 79
     5
170
     0
171
     0
290
     0
174
     0
 93
        1
 44
0.0
173
     0
291
     1
 45
0.0
1001
ACAD
1000
AcDbSavedByObjectVersion
1070
     0
  0
VISUALSTYLE
  5
36
102
{ACAD_REACTORS
330
2A
102
}
102
{ACAD_XDICTIONARY
360
D9D
102
}
330
2A
100
AcDbVisualStyle
  2
Brighten
 70
    12
 71
     2
 72
     2
 73
     0
 90
        0
 40
-0.6
 41
-30.0
 62
     5
 63
     7
 74
     1
 91
        4
 64
     7
 65
   257
 75
     1
175
     1
 42
1.0
 92
        8
 66
     7
 43
1.0
 76
     1
 77
     6
 78
     2
 67
     7
 79
     5
170
     0
171
     0
290
     0
174
     0
 93
        1
 44
50.0
173
     0
291
     1
 45
0.0
1001
ACAD
1000
AcDbSavedByObjectVersion
1070
     0
  0
VISUALSTYLE
  5
3A
102
{ACAD_REACTORS
330
2A
102
}
102
{ACAD_XDICTIONARY
360
DA5
102
}
330
2A
100
AcDbVisualStyle
  2
ColorChange
 70
    16
 71
     2
 72
     2
 73
     3
 90
        0
 40
-0.6
 41
-30.0
 62
     5
 63
     8
 74
     1
 91
        4
 64
     7
 65
   257
 75
     1
175
     1
 42
1.0
 92
        8
 66
     8
 43
1.0
 76
     1
 77
     6
 78
     2
 67
     7
 79
     5
170
     0
171
     0
290
     0
174
     0
 93
        1
 44
0.0
173
     0
291
     1
 45
0.0
1001
ACAD
1000
AcDbSavedByObjectVersion
1070
     0
  0
VISUALSTYLE
  5
34
102
{ACAD_REACTORS
330
2A
102
}
102
{ACAD_XDICTIONARY
360
D99
102
}
330
2A
100
AcDbVisualStyle
  2
Conceptual
 70
     9
 71
     3
 72
     2
 73
     0
 90
        0
 40
-0.6
 41
-30.0
 62
     5
 63
     7
 74
     2
 91
        2
 64
     7
 65
   257
 75
     1
175
     1
 42
40.0
 92
        8
 66
     7
 43
1.0
 76
     1
 77
     6
 78
     2
 67
     7
 79
     3
170
     0
171
     0
290
     0
174
     0
 93
        1
 44
0.0
173
     0
291
     0
 45
0.0
1001
ACAD
1000
AcDbSavedByObjectVersion
1070
     0
  0
VISUALSTYLE
  5
35
102
{ACAD_REACTORS
330
2A
102
}
102
{ACAD_XDICTIONARY
360
D9B
102
}
330
2A
100
AcDbVisualStyle
  2
Dim
 70
    11
 71
     2
 72
     2
 73
     0
 90
        0
 40
-0.6
 41
-30.0
 62
     5
 63
     7
 74
     1
 91
        4
 64
     7
 65
   257
 75
     1
175
     1
 42
1.0
 92
        8
 66
     7
 43
1.0
 76
     1
 77
     6
 78
     2
 67
     7
 79
     5
170
     0
171
     0
290
     0
174
     0
 93
        1
 44
-50.0
173
     0
291
     1
 45
0.0
1001
ACAD
1000
AcDbSavedByObjectVersion
1070
     0
  0
VISUALSTYLE
  5
39
102
{ACAD_REACTORS
330
2A
102
}
102
{ACAD_XDICTIONARY
360
DA3
102
}
330
2A
100
AcDbVisualStyle
  2
Facepattern
 70
    15
 71
     2
 72
     2
 73
     0
 90
        0
 40
-0.6
 41
-30.0
 62
     5
 63
     7
 74
     1
 91
        4
 64
     7
 65
   257
 75
     1
175
     1
 42
1.0
 92
        8
 66
     7
 43
1.0
 76
     1
 77
     6
 78
     2
 67
     7
 79
     5
170
     0
171
     0
290
     0
174
     0
 93
        1
 44
0.0
173
     0
291
     1
 45
0.0
1001
ACAD
1000
AcDbSavedByObjectVersion
1070
     0
  0
VISUALSTYLE
  5
2B
102
{ACAD_REACTORS
330
2A
102
}
102
{ACAD_XDICTIONARY
360
D87
102
}
330
2A
100
AcDbVisualStyle
  2
Flat
 70
     0
 71
     2
 72
     1
 73
     1
 90
        2
 40
-0.6
 41
30.0
 62
     5
 63
     7
 74
     0
 91
        4
 64
     7
 65
   257
 75
     1
175
     1
 42
1.0
 92
        8
 66
     7
 43
1.0
 76
     1
 77
     6
 78
     2
 67
     7
 79
     5
170
     0
171
     0
290
     0
174
     0
 93
       13
 44
0.0
173
     0
291
     1
 45
0.0
1001
ACAD
1000
AcDbSavedByObjectVersion
1070
     0
  0
VISUALSTYLE
  5
2C
102
{ACAD_REACTORS
330
2A
102
}
102
{ACAD_XDICTIONARY
360
D89
102
}
330
2A
100
AcDbVisualStyle
  2
FlatWithEdges
 70
     1
 71
     2
 72
     1
 73
     1
 90
        2
 40
-0.6
 41
30.0
 62
     5
 63
     7
 74
     1
 91
        4
 64
     7
 65
   257
 75
     1
175
     1
 42
1.0
 92
        0
 66
   257
 43
1.0
 76
     1
 77
     6
 78
     2
 67
     7
 79
     5
170
     0
171
     0
290
     0
174
     0
 93
       13
 44
0.0
173
     0
291
     1
 45
0.0
1001
ACAD
1000
AcDbSavedByObjectVersion
1070
     0
  0
VISUALSTYLE
  5
2D
102
{ACAD_REACTORS
330
2A
102
}
102
{ACAD_XDICTIONARY
360
D8B
102
}
330
2A
100
AcDbVisualStyle
  2
Gouraud
 70
     2
 71
     2
 72
     2
 73
     1
 90
        2
 40
-0.6
 41
30.0
 62
     5
 63
     7
 74
     0
 91
        4
 64
     7
 65
   257
 75
     1
175
     1
 42
1.0
 92
        0
 66
     7
 43
1.0
 76
     1
 77
     6
 78
     2
 67
     7
 79
     5
170
     0
171
     0
290
     0
174
     0
 93
       13
 44
0.0
173
     0
291
     1
 45
0.0
1001
ACAD
1000
AcDbSavedByObjectVersion
1070
     0
  0
VISUALSTYLE
  5
2E
102
{ACAD_REACTORS
330
2A
102
}
102
{ACAD_XDICTIONARY
360
D8D
102
}
330
2A
100
AcDbVisualStyle
  2
GouraudWithEdges
 70
     3
 71
     2
 72
     2
 73
     1
 90
        2
 40
-0.6
 41
30.0
 62
     5
 63
     7
 74
     1
 91
        4
 64
     7
 65
   257
 75
     1
175
     1
 42
1.0
 92
        0
 66
   257
 43
1.0
 76
     1
 77
     6
 78
     2
 67
     7
 79
     5
170
     0
171
     0
290
     0
174
     0
 93
       13
 44
0.0
173
     0
291
     1
 45
0.0
1001
ACAD
1000
AcDbSavedByObjectVersion
1070
     0
  0
VISUALSTYLE
  5
38
102
{ACAD_REACTORS
330
2A
102
}
102
{ACAD_XDICTIONARY
360
DA1
102
}
330
2A
100
AcDbVisualStyle
  2
Linepattern
 70
    14
 71
     2
 72
     2
 73
     0
 90
        0
 40
-0.6
 41
-30.0
 62
     5
 63
     7
 74
     1
 91
        4
 64
     7
 65
   257
 75
     7
175
     7
 42
1.0
 92
        8
 66
     7
 43
1.0
 76
     1
 77
     6
 78
     2
 67
     7
 79
     5
170
     0
171
     0
290
     0
174
     0
 93
        1
 44
0.0
173
     0
291
     1
 45
0.0
1001
ACAD
1000
AcDbSavedByObjectVersion
1070
     0
  0
VISUALSTYLE
  5
33
102
{ACAD_REACTORS
330
2A
102
}
102
{ACAD_XDICTIONARY
360
D97
102
}
330
2A
100
AcDbVisualStyle
  2
Realistic
 70
     8
 71
     2
 72
     2
 73
     0
 90
        0
 40
-0.6
 41
-30.0
 62
     5
 63
     7
 74
     1
 91
        0
 64
     7
 65
   257
 75
     1
175
     1
 42
1.0
 92
        8
 66
     8
 43
1.0
 76
     1
 77
     6
 78
     2
 67
     7
 79
     5
170
     0
171
     0
290
     0
174
     0
 93
       13
 44
0.0
173
     0
291
     0
 45
0.0
1001
ACAD
1000
AcDbSavedByObjectVersion
1070
     0
  0
VISUALSTYLE
  5
37
102
{ACAD_REACTORS
330
2A
102
}
102
{ACAD_XDICTIONARY
360
D9F
102
}
330
2A
100
AcDbVisualStyle
  2
Thicken
 70
    13
 71
     2
 72
     2
 73
     0
 90
        0
 40
-0.6
 41
-30.0
 62
     5
 63
     7
 74
     1
 91
        4
 64
     7
 65
   257
 75
     1
175
     1
 42
1.0
 92
       12
 66
     7
 43
1.0
 76
     1
 77
     6
 78
     2
 67
     7
 79
     5
170
     0
171
     0
290
     0
174
     0
 93
        1
 44
0.0
173
     0
291
     1
 45
0.0
1001
ACAD
1000
AcDbSavedByObjectVersion
1070
     0
  0
DICTIONARYVAR
  5
D84
102
{ACAD_REACTORS
330
D7F
102
}
330
D7F
100
DictionaryVariables
280
     0
  1
1:1
  0
DICTIONARYVAR
  5
D85
102
{ACAD_REACTORS
330
D7F
102
}
330
D7F
100
DictionaryVariables
280
     0
  1
2
  0
DICTIONARYVAR
  5
D86
102
{ACAD_REACTORS
330
D7F
102
}
330
D7F
100
DictionaryVariables
280
     0
  1
1
  0
DICTIONARYVAR
  5
D83
102
{ACAD_REACTORS
330
D7F
102
}
330
D7F
100
DictionaryVariables
280
     0
  1
80.000000
  0
DICTIONARYVAR
  5
D82
102
{ACAD_REACTORS
330
D7F
102
}
330
D7F
100
DictionaryVariables
280
     0
  1
5.000000
  0
DICTIONARY
  5
DA9
330
3D
100
AcDbDictionary
280
     1
281
     1
  3
ACAD_XREC_ROUNDTRIP
360
DAA
  0
DICTIONARY
  5
DA7
330
3C
100
AcDbDictionary
280
     1
281
     1
  3
ACAD_XREC_ROUNDTRIP
360
DA8
  0
DICTIONARY
  5
DAB
330
3E
100
AcDbDictionary
280
     1
281
     1
  3
ACAD_XREC_ROUNDTRIP
360
DAC
  0
DICTIONARY
  5
D8F
330
2F
100
AcDbDictionary
280
     1
281
     1
  3
ACAD_XREC_ROUNDTRIP
360
D90
  0
DICTIONARY
  5
D93
330
31
100
AcDbDictionary
280
     1
281
     1
  3
ACAD_XREC_ROUNDTRIP
360
D94
  0
DICTIONARY
  5
D91
330
30
100
AcDbDictionary
280
     1
281
     1
  3
ACAD_XREC_ROUNDTRIP
360
D92
  0
DICTIONARY
  5
D95
330
32
100
AcDbDictionary
280
     1
281
     1
  3
ACAD_XREC_ROUNDTRIP
360
D96
  0
DICTIONARY
  5
D9D
330
36
100
AcDbDictionary
280
     1
281
     1
  3
ACAD_XREC_ROUNDTRIP
360
D9E
  0
DICTIONARY
  5
DA5
330
3A
100
AcDbDictionary
280
     1
281
     1
  3
ACAD_XREC_ROUNDTRIP
360
DA6
  0
DICTIONARY
  5
D99
330
34
100
AcDbDictionary
280
     1
281
     1
  3
ACAD_XREC_ROUNDTRIP
360
D9A
  0
DICTIONARY
  5
D9B
330
35
100
AcDbDictionary
280
     1
281
     1
  3
ACAD_XREC_ROUNDTRIP
360
D9C
  0
DICTIONARY
  5
DA3
330
39
100
AcDbDictionary
280
     1
281
     1
  3
ACAD_XREC_ROUNDTRIP
360
DA4
  0
DICTIONARY
  5
D87
330
2B
100
AcDbDictionary
280
     1
281
     1
  3
ACAD_XREC_ROUNDTRIP
360
D88
  0
DICTIONARY
  5
D89
330
2C
100
AcDbDictionary
280
     1
281
     1
  3
ACAD_XREC_ROUNDTRIP
360
D8A
  0
DICTIONARY
  5
D8B
330
2D
100
AcDbDictionary
280
     1
281
     1
  3
ACAD_XREC_ROUNDTRIP
360
D8C
  0
DICTIONARY
  5
D8D
330
2E
100
AcDbDictionary
280
     1
281
     1
  3
ACAD_XREC_ROUNDTRIP
360
D8E
  0
DICTIONARY
  5
DA1
330
38
100
AcDbDictionary
280
     1
281
     1
  3
ACAD_XREC_ROUNDTRIP
360
DA2
  0
DICTIONARY
  5
D97
330
33
100
AcDbDictionary
280
     1
281
     1
  3
ACAD_XREC_ROUNDTRIP
360
D98
  0
DICTIONARY
  5
D9F
330
37
100
AcDbDictionary
280
     1
281
     1
  3
ACAD_XREC_ROUNDTRIP
360
DA0
  0
XRECORD
  5
DAA
102
{ACAD_REACTORS
330
DA9
102
}
330
DA9
100
AcDbXrecord
280
     1
102
MATERIAL
148
0.0
149
0.0
149
0.0
 93
        0
 94
      127
282
     0
 72
     1
 77
     1
171
     1
175
     1
179
     1
273
     0
  0
XRECORD
  5
DA8
102
{ACAD_REACTORS
330
DA7
102
}
330
DA7
100
AcDbXrecord
280
     1
102
MATERIAL
148
0.0
149
0.0
149
0.0
 93
        0
 94
      127
282
     0
 72
     1
 77
     1
171
     1
175
     1
179
     1
273
     0
  0
XRECORD
  5
DAC
102
{ACAD_REACTORS
330
DAB
102
}
330
DAB
100
AcDbXrecord
280
     1
102
MATERIAL
148
0.0
149
0.0
149
0.0
 93
        0
 94
      127
282
     0
 72
     1
 77
     1
171
     1
175
     1
179
     1
273
     0
  0
XRECORD
  5
D90
102
{ACAD_REACTORS
330
D8F
102
}
330
D8F
100
AcDbXrecord
280
     1
102
RTVSPropertyOp0
 70
     1
102
RTVSPropertyOp1
 70
     1
102
RTVSPropertyOp2
 70
     1
102
RTVSPropertyOp3
 70
     1
102
RTVSPropertyOp4
 70
     1
102
RTVSPropertyOp5
 70
     1
102
RTVSPropertyOp6
 70
     1
102
RTVSPropertyOp7
 70
     1
102
RTVSPropertyOp8
 70
     1
102
RTVSPropertyOp9
 70
     1
102
RTVSPropertyOp10
 70
     1
102
RTVSPropertyOp11
 70
     1
102
RTVSPropertyOp12
 70
     1
102
RTVSPropertyOp13
 70
     1
102
RTVSPropertyOp14
 70
     1
102
RTVSPropertyOp15
 70
     1
102
RTVSPropertyOp16
 70
     1
102
RTVSPropertyOp17
 70
     1
102
RTVSPropertyOp18
 70
     1
102
RTVSPropertyOp19
 70
     1
102
RTVSPropertyOp20
 70
     1
102
RTVSPropertyOp21
 70
     1
102
RTVSPropertyOp22
 70
     1
102
RTVSPropertyOp23
 70
     1
102
RTVSPropertyOp24
 70
     1
102
RTVSPropertyOp25
 70
     1
102
RTVSPropertyOp26
 70
     1
102
RTVSPropertyOp27
 70
     1
  0
XRECORD
  5
D94
102
{ACAD_REACTORS
330
D93
102
}
330
D93
100
AcDbXrecord
280
     1
102
RTVSPropertyOp0
 70
     1
102
RTVSPropertyOp1
 70
     1
102
RTVSPropertyOp2
 70
     1
102
RTVSPropertyOp3
 70
     1
102
RTVSPropertyOp4
 70
     1
102
RTVSPropertyOp5
 70
     1
102
RTVSPropertyOp6
 70
     1
102
RTVSPropertyOp7
 70
     1
102
RTVSPropertyOp8
 70
     1
102
RTVSPropertyOp9
 70
     1
102
RTVSPropertyOp10
 70
     1
102
RTVSPropertyOp11
 70
     1
102
RTVSPropertyOp12
 70
     1
102
RTVSPropertyOp13
 70
     1
102
RTVSPropertyOp14
 70
     1
102
RTVSPropertyOp15
 70
     1
102
RTVSPropertyOp16
 70
     1
102
RTVSPropertyOp17
 70
     1
102
RTVSPropertyOp18
 70
     1
102
RTVSPropertyOp19
 70
     1
102
RTVSPropertyOp20
 70
     1
102
RTVSPropertyOp21
 70
     1
102
RTVSPropertyOp22
 70
     1
102
RTVSPropertyOp23
 70
     1
102
RTVSPropertyOp24
 70
     1
102
RTVSPropertyOp25
 70
     1
102
RTVSPropertyOp26
 70
     1
102
RTVSPropertyOp27
 70
     1
  0
XRECORD
  5
D92
102
{ACAD_REACTORS
330
D91
102
}
330
D91
100
AcDbXrecord
280
     1
102
RTVSPropertyOp0
 70
     1
102
RTVSPropertyOp1
 70
     1
102
RTVSPropertyOp2
 70
     1
102
RTVSPropertyOp3
 70
     1
102
RTVSPropertyOp4
 70
     1
102
RTVSPropertyOp5
 70
     1
102
RTVSPropertyOp6
 70
     1
102
RTVSPropertyOp7
 70
     1
102
RTVSPropertyOp8
 70
     1
102
RTVSPropertyOp9
 70
     1
102
RTVSPropertyOp10
 70
     1
102
RTVSPropertyOp11
 70
     1
102
RTVSPropertyOp12
 70
     1
102
RTVSPropertyOp13
 70
     1
102
RTVSPropertyOp14
 70
     1
102
RTVSPropertyOp15
 70
     1
102
RTVSPropertyOp16
 70
     1
102
RTVSPropertyOp17
 70
     1
102
RTVSPropertyOp18
 70
     1
102
RTVSPropertyOp19
 70
     1
102
RTVSPropertyOp20
 70
     1
102
RTVSPropertyOp21
 70
     1
102
RTVSPropertyOp22
 70
     1
102
RTVSPropertyOp23
 70
     1
102
RTVSPropertyOp24
 70
     1
102
RTVSPropertyOp25
 70
     1
102
RTVSPropertyOp26
 70
     1
102
RTVSPropertyOp27
 70
     1
  0
XRECORD
  5
D96
102
{ACAD_REACTORS
330
D95
102
}
330
D95
100
AcDbXrecord
280
     1
102
RTVSPropertyOp0
 70
     1
102
RTVSPropertyOp1
 70
     1
102
RTVSPropertyOp2
 70
     1
102
RTVSPropertyOp3
 70
     1
102
RTVSPropertyOp4
 70
     1
102
RTVSPropertyOp5
 70
     1
102
RTVSPropertyOp6
 70
     1
102
RTVSPropertyOp7
 70
     1
102
RTVSPropertyOp8
 70
     1
102
RTVSPropertyOp9
 70
     1
102
RTVSPropertyOp10
 70
     1
102
RTVSPropertyOp11
 70
     1
102
RTVSPropertyOp12
 70
     1
102
RTVSPropertyOp13
 70
     1
102
RTVSPropertyOp14
 70
     1
102
RTVSPropertyOp15
 70
     1
102
RTVSPropertyOp16
 70
     1
102
RTVSPropertyOp17
 70
     1
102
RTVSPropertyOp18
 70
     1
102
RTVSPropertyOp19
 70
     1
102
RTVSPropertyOp20
 70
     1
102
RTVSPropertyOp21
 70
     1
102
RTVSPropertyOp22
 70
     1
102
RTVSPropertyOp23
 70
     1
102
RTVSPropertyOp24
 70
     1
102
RTVSPropertyOp25
 70
     1
102
RTVSPropertyOp26
 70
     1
102
RTVSPropertyOp27
 70
     1
  0
XRECORD
  5
D9E
102
{ACAD_REACTORS
330
D9D
102
}
330
D9D
100
AcDbXrecord
280
     1
102
RTVSPropertyOp0
 70
     1
102
RTVSPropertyOp1
 70
     1
102
RTVSPropertyOp2
 70
     1
102
RTVSPropertyOp3
 70
     1
102
RTVSPropertyOp4
 70
     1
102
RTVSPropertyOp5
 70
     1
102
RTVSPropertyOp6
 70
     1
102
RTVSPropertyOp7
 70
     1
102
RTVSPropertyOp8
 70
     1
102
RTVSPropertyOp9
 70
     1
102
RTVSPropertyOp10
 70
     1
102
RTVSPropertyOp11
 70
     1
102
RTVSPropertyOp12
 70
     1
102
RTVSPropertyOp13
 70
     1
102
RTVSPropertyOp14
 70
     1
102
RTVSPropertyOp15
 70
     1
102
RTVSPropertyOp16
 70
     1
102
RTVSPropertyOp17
 70
     1
102
RTVSPropertyOp18
 70
     1
102
RTVSPropertyOp19
 70
     1
102
RTVSPropertyOp20
 70
     1
102
RTVSPropertyOp21
 70
     1
102
RTVSPropertyOp22
 70
     1
102
RTVSPropertyOp23
 70
     1
102
RTVSPropertyOp24
 70
     1
102
RTVSPropertyOp25
 70
     1
102
RTVSPropertyOp26
 70
     1
102
RTVSPropertyOp27
 70
     1
  0
XRECORD
  5
DA6
102
{ACAD_REACTORS
330
DA5
102
}
330
DA5
100
AcDbXrecord
280
     1
102
RTVSPropertyOp0
 70
     1
102
RTVSPropertyOp1
 70
     1
102
RTVSPropertyOp2
 70
     1
102
RTVSPropertyOp3
 70
     1
102
RTVSPropertyOp4
 70
     1
102
RTVSPropertyOp5
 70
     1
102
RTVSPropertyOp6
 70
     1
102
RTVSPropertyOp7
 70
     1
102
RTVSPropertyOp8
 70
     1
102
RTVSPropertyOp9
 70
     1
102
RTVSPropertyOp10
 70
     1
102
RTVSPropertyOp11
 70
     1
102
RTVSPropertyOp12
 70
     1
102
RTVSPropertyOp13
 70
     1
102
RTVSPropertyOp14
 70
     1
102
RTVSPropertyOp15
 70
     1
102
RTVSPropertyOp16
 70
     1
102
RTVSPropertyOp17
 70
     1
102
RTVSPropertyOp18
 70
     1
102
RTVSPropertyOp19
 70
     1
102
RTVSPropertyOp20
 70
     1
102
RTVSPropertyOp21
 70
     1
102
RTVSPropertyOp22
 70
     1
102
RTVSPropertyOp23
 70
     1
102
RTVSPropertyOp24
 70
     1
102
RTVSPropertyOp25
 70
     1
102
RTVSPropertyOp26
 70
     1
102
RTVSPropertyOp27
 70
     1
  0
XRECORD
  5
D9A
102
{ACAD_REACTORS
330
D99
102
}
330
D99
100
AcDbXrecord
280
     1
102
RTVSPropertyOp0
 70
     1
102
RTVSPropertyOp1
 70
     1
102
RTVSPropertyOp2
 70
     1
102
RTVSPropertyOp3
 70
     1
102
RTVSPropertyOp4
 70
     1
102
RTVSPropertyOp5
 70
     1
102
RTVSPropertyOp6
 70
     1
102
RTVSPropertyOp7
 70
     1
102
RTVSPropertyOp8
 70
     1
102
RTVSPropertyOp9
 70
     1
102
RTVSPropertyOp10
 70
     1
102
RTVSPropertyOp11
 70
     1
102
RTVSPropertyOp12
 70
     1
102
RTVSPropertyOp13
 70
     1
102
RTVSPropertyOp14
 70
     1
102
RTVSPropertyOp15
 70
     1
102
RTVSPropertyOp16
 70
     1
102
RTVSPropertyOp17
 70
     1
102
RTVSPropertyOp18
 70
     1
102
RTVSPropertyOp19
 70
     1
102
RTVSPropertyOp20
 70
     1
102
RTVSPropertyOp21
 70
     1
102
RTVSPropertyOp22
 70
     1
102
RTVSPropertyOp23
 70
     1
102
RTVSPropertyOp24
 70
     1
102
RTVSPropertyOp25
 70
     1
102
RTVSPropertyOp26
 70
     1
102
RTVSPropertyOp27
 70
     1
  0
XRECORD
  5
D9C
102
{ACAD_REACTORS
330
D9B
102
}
330
D9B
100
AcDbXrecord
280
     1
102
RTVSPropertyOp0
 70
     1
102
RTVSPropertyOp1
 70
     1
102
RTVSPropertyOp2
 70
     1
102
RTVSPropertyOp3
 70
     1
102
RTVSPropertyOp4
 70
     1
102
RTVSPropertyOp5
 70
     1
102
RTVSPropertyOp6
 70
     1
102
RTVSPropertyOp7
 70
     1
102
RTVSPropertyOp8
 70
     1
102
RTVSPropertyOp9
 70
     1
102
RTVSPropertyOp10
 70
     1
102
RTVSPropertyOp11
 70
     1
102
RTVSPropertyOp12
 70
     1
102
RTVSPropertyOp13
 70
     1
102
RTVSPropertyOp14
 70
     1
102
RTVSPropertyOp15
 70
     1
102
RTVSPropertyOp16
 70
     1
102
RTVSPropertyOp17
 70
     1
102
RTVSPropertyOp18
 70
     1
102
RTVSPropertyOp19
 70
     1
102
RTVSPropertyOp20
 70
     1
102
RTVSPropertyOp21
 70
     1
102
RTVSPropertyOp22
 70
     1
102
RTVSPropertyOp23
 70
     1
102
RTVSPropertyOp24
 70
     1
102
RTVSPropertyOp25
 70
     1
102
RTVSPropertyOp26
 70
     1
102
RTVSPropertyOp27
 70
     1
  0
XRECORD
  5
DA4
102
{ACAD_REACTORS
330
DA3
102
}
330
DA3
100
AcDbXrecord
280
     1
102
RTVSPropertyOp0
 70
     1
102
RTVSPropertyOp1
 70
     1
102
RTVSPropertyOp2
 70
     1
102
RTVSPropertyOp3
 70
     1
102
RTVSPropertyOp4
 70
     1
102
RTVSPropertyOp5
 70
     1
102
RTVSPropertyOp6
 70
     1
102
RTVSPropertyOp7
 70
     1
102
RTVSPropertyOp8
 70
     1
102
RTVSPropertyOp9
 70
     1
102
RTVSPropertyOp10
 70
     1
102
RTVSPropertyOp11
 70
     1
102
RTVSPropertyOp12
 70
     1
102
RTVSPropertyOp13
 70
     1
102
RTVSPropertyOp14
 70
     1
102
RTVSPropertyOp15
 70
     1
102
RTVSPropertyOp16
 70
     1
102
RTVSPropertyOp17
 70
     1
102
RTVSPropertyOp18
 70
     1
102
RTVSPropertyOp19
 70
     1
102
RTVSPropertyOp20
 70
     1
102
RTVSPropertyOp21
 70
     1
102
RTVSPropertyOp22
 70
     1
102
RTVSPropertyOp23
 70
     1
102
RTVSPropertyOp24
 70
     1
102
RTVSPropertyOp25
 70
     1
102
RTVSPropertyOp26
 70
     1
102
RTVSPropertyOp27
 70
     1
  0
XRECORD
  5
D88
102
{ACAD_REACTORS
330
D87
102
}
330
D87
100
AcDbXrecord
280
     1
102
RTVSPropertyOp0
 70
     1
102
RTVSPropertyOp1
 70
     1
102
RTVSPropertyOp2
 70
     1
102
RTVSPropertyOp3
 70
     1
102
RTVSPropertyOp4
 70
     1
102
RTVSPropertyOp5
 70
     1
102
RTVSPropertyOp6
 70
     1
102
RTVSPropertyOp7
 70
     1
102
RTVSPropertyOp8
 70
     1
102
RTVSPropertyOp9
 70
     1
102
RTVSPropertyOp10
 70
     1
102
RTVSPropertyOp11
 70
     1
102
RTVSPropertyOp12
 70
     1
102
RTVSPropertyOp13
 70
     1
102
RTVSPropertyOp14
 70
     1
102
RTVSPropertyOp15
 70
     1
102
RTVSPropertyOp16
 70
     1
102
RTVSPropertyOp17
 70
     1
102
RTVSPropertyOp18
 70
     1
102
RTVSPropertyOp19
 70
     1
102
RTVSPropertyOp20
 70
     1
102
RTVSPropertyOp21
 70
     1
102
RTVSPropertyOp22
 70
     1
102
RTVSPropertyOp23
 70
     1
102
RTVSPropertyOp24
 70
     1
102
RTVSPropertyOp25
 70
     1
102
RTVSPropertyOp26
 70
     1
102
RTVSPropertyOp27
 70
     1
  0
XRECORD
  5
D8A
102
{ACAD_REACTORS
330
D89
102
}
330
D89
100
AcDbXrecord
280
     1
102
RTVSPropertyOp0
 70
     1
102
RTVSPropertyOp1
 70
     1
102
RTVSPropertyOp2
 70
     1
102
RTVSPropertyOp3
 70
     1
102
RTVSPropertyOp4
 70
     1
102
RTVSPropertyOp5
 70
     1
102
RTVSPropertyOp6
 70
     1
102
RTVSPropertyOp7
 70
     1
102
RTVSPropertyOp8
 70
     1
102
RTVSPropertyOp9
 70
     1
102
RTVSPropertyOp10
 70
     1
102
RTVSPropertyOp11
 70
     1
102
RTVSPropertyOp12
 70
     1
102
RTVSPropertyOp13
 70
     1
102
RTVSPropertyOp14
 70
     1
102
RTVSPropertyOp15
 70
     1
102
RTVSPropertyOp16
 70
     1
102
RTVSPropertyOp17
 70
     1
102
RTVSPropertyOp18
 70
     1
102
RTVSPropertyOp19
 70
     1
102
RTVSPropertyOp20
 70
     1
102
RTVSPropertyOp21
 70
     1
102
RTVSPropertyOp22
 70
     1
102
RTVSPropertyOp23
 70
     1
102
RTVSPropertyOp24
 70
     1
102
RTVSPropertyOp25
 70
     1
102
RTVSPropertyOp26
 70
     1
102
RTVSPropertyOp27
 70
     1
  0
XRECORD
  5
D8C
102
{ACAD_REACTORS
330
D8B
102
}
330
D8B
100
AcDbXrecord
280
     1
102
RTVSPropertyOp0
 70
     1
102
RTVSPropertyOp1
 70
     1
102
RTVSPropertyOp2
 70
     1
102
RTVSPropertyOp3
 70
     1
102
RTVSPropertyOp4
 70
     1
102
RTVSPropertyOp5
 70
     1
102
RTVSPropertyOp6
 70
     1
102
RTVSPropertyOp7
 70
     1
102
RTVSPropertyOp8
 70
     1
102
RTVSPropertyOp9
 70
     1
102
RTVSPropertyOp10
 70
     1
102
RTVSPropertyOp11
 70
     1
102
RTVSPropertyOp12
 70
     1
102
RTVSPropertyOp13
 70
     1
102
RTVSPropertyOp14
 70
     1
102
RTVSPropertyOp15
 70
     1
102
RTVSPropertyOp16
 70
     1
102
RTVSPropertyOp17
 70
     1
102
RTVSPropertyOp18
 70
     1
102
RTVSPropertyOp19
 70
     1
102
RTVSPropertyOp20
 70
     1
102
RTVSPropertyOp21
 70
     1
102
RTVSPropertyOp22
 70
     1
102
RTVSPropertyOp23
 70
     1
102
RTVSPropertyOp24
 70
     1
102
RTVSPropertyOp25
 70
     1
102
RTVSPropertyOp26
 70
     1
102
RTVSPropertyOp27
 70
     1
  0
XRECORD
  5
D8E
102
{ACAD_REACTORS
330
D8D
102
}
330
D8D
100
AcDbXrecord
280
     1
102
RTVSPropertyOp0
 70
     1
102
RTVSPropertyOp1
 70
     1
102
RTVSPropertyOp2
 70
     1
102
RTVSPropertyOp3
 70
     1
102
RTVSPropertyOp4
 70
     1
102
RTVSPropertyOp5
 70
     1
102
RTVSPropertyOp6
 70
     1
102
RTVSPropertyOp7
 70
     1
102
RTVSPropertyOp8
 70
     1
102
RTVSPropertyOp9
 70
     1
102
RTVSPropertyOp10
 70
     1
102
RTVSPropertyOp11
 70
     1
102
RTVSPropertyOp12
 70
     1
102
RTVSPropertyOp13
 70
     1
102
RTVSPropertyOp14
 70
     1
102
RTVSPropertyOp15
 70
     1
102
RTVSPropertyOp16
 70
     1
102
RTVSPropertyOp17
 70
     1
102
RTVSPropertyOp18
 70
     1
102
RTVSPropertyOp19
 70
     1
102
RTVSPropertyOp20
 70
     1
102
RTVSPropertyOp21
 70
     1
102
RTVSPropertyOp22
 70
     1
102
RTVSPropertyOp23
 70
     1
102
RTVSPropertyOp24
 70
     1
102
RTVSPropertyOp25
 70
     1
102
RTVSPropertyOp26
 70
     1
102
RTVSPropertyOp27
 70
     1
  0
XRECORD
  5
DA2
102
{ACAD_REACTORS
330
DA1
102
}
330
DA1
100
AcDbXrecord
280
     1
102
RTVSPropertyOp0
 70
     1
102
RTVSPropertyOp1
 70
     1
102
RTVSPropertyOp2
 70
     1
102
RTVSPropertyOp3
 70
     1
102
RTVSPropertyOp4
 70
     1
102
RTVSPropertyOp5
 70
     1
102
RTVSPropertyOp6
 70
     1
102
RTVSPropertyOp7
 70
     1
102
RTVSPropertyOp8
 70
     1
102
RTVSPropertyOp9
 70
     1
102
RTVSPropertyOp10
 70
     1
102
RTVSPropertyOp11
 70
     1
102
RTVSPropertyOp12
 70
     1
102
RTVSPropertyOp13
 70
     1
102
RTVSPropertyOp14
 70
     1
102
RTVSPropertyOp15
 70
     1
102
RTVSPropertyOp16
 70
     1
102
RTVSPropertyOp17
 70
     1
102
RTVSPropertyOp18
 70
     1
102
RTVSPropertyOp19
 70
     1
102
RTVSPropertyOp20
 70
     1
102
RTVSPropertyOp21
 70
     1
102
RTVSPropertyOp22
 70
     1
102
RTVSPropertyOp23
 70
     1
102
RTVSPropertyOp24
 70
     1
102
RTVSPropertyOp25
 70
     1
102
RTVSPropertyOp26
 70
     1
102
RTVSPropertyOp27
 70
     1
  0
XRECORD
  5
D98
102
{ACAD_REACTORS
330
D97
102
}
330
D97
100
AcDbXrecord
280
     1
102
RTVSPropertyOp0
 70
     1
102
RTVSPropertyOp1
 70
     1
102
RTVSPropertyOp2
 70
     1
102
RTVSPropertyOp3
 70
     1
102
RTVSPropertyOp4
 70
     1
102
RTVSPropertyOp5
 70
     1
102
RTVSPropertyOp6
 70
     1
102
RTVSPropertyOp7
 70
     1
102
RTVSPropertyOp8
 70
     1
102
RTVSPropertyOp9
 70
     1
102
RTVSPropertyOp10
 70
     1
102
RTVSPropertyOp11
 70
     1
102
RTVSPropertyOp12
 70
     1
102
RTVSPropertyOp13
 70
     1
102
RTVSPropertyOp14
 70
     1
102
RTVSPropertyOp15
 70
     1
102
RTVSPropertyOp16
 70
     1
102
RTVSPropertyOp17
 70
     1
102
RTVSPropertyOp18
 70
     1
102
RTVSPropertyOp19
 70
     1
102
RTVSPropertyOp20
 70
     1
102
RTVSPropertyOp21
 70
     1
102
RTVSPropertyOp22
 70
     1
102
RTVSPropertyOp23
 70
     1
102
RTVSPropertyOp24
 70
     1
102
RTVSPropertyOp25
 70
     1
102
RTVSPropertyOp26
 70
     1
102
RTVSPropertyOp27
 70
     1
  0
XRECORD
  5
DA0
102
{ACAD_REACTORS
330
D9F
102
}
330
D9F
100
AcDbXrecord
280
     1
102
RTVSPropertyOp0
 70
     1
102
RTVSPropertyOp1
 70
     1
102
RTVSPropertyOp2
 70
     1
102
RTVSPropertyOp3
 70
     1
102
RTVSPropertyOp4
 70
     1
102
RTVSPropertyOp5
 70
     1
102
RTVSPropertyOp6
 70
     1
102
RTVSPropertyOp7
 70
     1
102
RTVSPropertyOp8
 70
     1
102
RTVSPropertyOp9
 70
     1
102
RTVSPropertyOp10
 70
     1
102
RTVSPropertyOp11
 70
     1
102
RTVSPropertyOp12
 70
     1
102
RTVSPropertyOp13
 70
     1
102
RTVSPropertyOp14
 70
     1
102
RTVSPropertyOp15
 70
     1
102
RTVSPropertyOp16
 70
     1
102
RTVSPropertyOp17
 70
     1
102
RTVSPropertyOp18
 70
     1
102
RTVSPropertyOp19
 70
     1
102
RTVSPropertyOp20
 70
     1
102
RTVSPropertyOp21
 70
     1
102
RTVSPropertyOp22
 70
     1
102
RTVSPropertyOp23
 70
     1
102
RTVSPropertyOp24
 70
     1
102
RTVSPropertyOp25
 70
     1
102
RTVSPropertyOp26
 70
     1
102
RTVSPropertyOp27
 70
     1
  0
ENDSEC
  0
EOF
