  0
SECTION
  2
HEADER
  9
$ACADVER
  1
AC1015
  9
$ACADMAINTVER
 70
     6
  9
$DWGCODEPAGE
  3
ANSI_1252
  9
$INSBASE
 10
0.0
 20
0.0
 30
0.0
  9
$EXTMIN
 10
0.0
 20
0.0
 30
0.0
  9
$EXTMAX
 10
25.0
 20
35.0
 30
0.0
  9
$LIMMIN
 10
0.0
 20
0.0
  9
$LIMMAX
 10
420.0
 20
297.0
  9
$ORTHOMODE
 70
     0
  9
$REGENMODE
 70
     1
  9
$FILLMODE
 70
     1
  9
$QTEXTMODE
 70
     0
  9
$MIRRTEXT
 70
     1
  9
$LTSCALE
 40
4.5
  9
$ATTMODE
 70
     1
  9
$TEXTSIZE
 40
2.5
  9
$TRACEWID
 40
1.0
  9
$TEXTSTYLE
  7
Standard
  9
$CLAYER
  8
0
  9
$CELTYPE
  6
ByLayer
  9
$CECOLOR
 62
   256
  9
$CELTSCALE
 40
1.0
  9
$DISPSILH
 70
     0
  9
$DIMSCALE
 40
1.0
  9
$DIMASZ
 40
2.5
  9
$DIMEXO
 40
0.625
  9
$DIMDLI
 40
3.75
  9
$DIMRND
 40
0.0
  9
$DIMDLE
 40
0.0
  9
$DIMEXE
 40
1.25
  9
$DIMTP
 40
0.0
  9
$DIMTM
 40
0.0
  9
$DIMTXT
 40
2.5
  9
$DIMCEN
 40
2.5
  9
$DIMTSZ
 40
0.0
  9
$DIMTOL
 70
     0
  9
$DIMLIM
 70
     0
  9
$DIMTIH
 70
     0
  9
$DIMTOH
 70
     0
  9
$DIMSE1
 70
     0
  9
$DIMSE2
 70
     0
  9
$DIMTAD
 70
     1
  9
$DIMZIN
 70
     8
  9
$DIMBLK
  1

  9
$DIMASO
 70
     1
  9
$DIMSHO
 70
     1
  9
$DIMPOST
  1

  9
$DIMAPOST
  1

  9
$DIMALT
 70
     0
  9
$DIMALTD
 70
     3
  9
$DIMALTF
 40
0.03937007874016
  9
$DIMLFAC
 40
1.0
  9
$DIMTOFL
 70
     1
  9
$DIMTVP
 40
0.0
  9
$DIMTIX
 70
     0
  9
$DIMSOXD
 70
     0
  9
$DIMSAH
 70
     0
  9
$DIMBLK1
  1

  9
$DIMBLK2
  1

  9
$DIMSTYLE
  2
ISO-25
  9
$DIMCLRD
 70
     0
  9
$DIMCLRE
 70
     0
  9
$DIMCLRT
 70
     0
  9
$DIMTFAC
 40
1.0
  9
$DIMGAP
 40
0.625
  9
$DIMJUST
 70
     0
  9
$DIMSD1
 70
     0
  9
$DIMSD2
 70
     0
  9
$DIMTOLJ
 70
     0
  9
$DIMTZIN
 70
     8
  9
$DIMALTZ
 70
     0
  9
$DIMALTTZ
 70
     0
  9
$DIMUPT
 70
     0
  9
$DIMDEC
 70
     2
  9
$DIMTDEC
 70
     2
  9
$DIMALTU
 70
     2
  9
$DIMALTTD
 70
     3
  9
$DIMTXSTY
  7
Standard
  9
$DIMAUNIT
 70
     0
  9
$DIMADEC
 70
     0
  9
$DIMALTRND
 40
0.0
  9
$DIMAZIN
 70
     0
  9
$DIMDSEP
 70
    44
  9
$DIMATFIT
 70
     3
  9
$DIMFRAC
 70
     0
  9
$DIMLDRBLK
  1

  9
$DIMLUNIT
 70
     2
  9
$DIMLWD
 70
    -2
  9
$DIMLWE
 70
    -2
  9
$DIMTMOVE
 70
     0
  9
$LUNITS
 70
     2
  9
$LUPREC
 70
     4
  9
$SKETCHINC
 40
1.0
  9
$FILLETRAD
 40
10.0
  9
$AUNITS
 70
     0
  9
$AUPREC
 70
     0
  9
$MENU
  1
.
  9
$ELEVATION
 40
0.0
  9
$PELEVATION
 40
0.0
  9
$THICKNESS
 40
0.0
  9
$LIMCHECK
 70
     0
  9
$CHAMFERA
 40
10.0
  9
$CHAMFERB
 40
10.0
  9
$CHAMFERC
 40
20.0
  9
$CHAMFERD
 40
0.0
  9
$SKPOLY
 70
     0
  9
$TDCREATE
 40
2458578.197222222
  9
$TDUCREATE
 40
2458578.113888889
  9
$TDUPDATE
 40
2458578.200694445
  9
$TDUUPDATE
 40
2458578.117361111
  9
$TDINDWG
 40
0.0000000116
  9
$TDUSRTIMER
 40
0.0000000116
  9
$USRTIMER
 70
     1
  9
$ANGBASE
 50
0.0
  9
$ANGDIR
 70
     0
  9
$PDMODE
 70
     0
  9
$PDSIZE
 40
0.0
  9
$PLINEWID
 40
0.0
  9
$SPLFRAME
 70
     0
  9
$SPLINETYPE
 70
     6
  9
$SPLINESEGS
 70
     8
  9
$HANDSEED
  5
AED
  9
$SURFTAB1
 70
     6
  9
$SURFTAB2
 70
     6
  9
$SURFTYPE
 70
     6
  9
$SURFU
 70
     6
  9
$SURFV
 70
     6
  9
$UCSBASE
  2

  9
$UCSNAME
  2

  9
$UCSORG
 10
0.0
 20
0.0
 30
0.0
  9
$UCSXDIR
 10
1.0
 20
0.0
 30
0.0
  9
$UCSYDIR
 10
0.0
 20
1.0
 30
0.0
  9
$UCSORTHOREF
  2

  9
$UCSORTHOVIEW
 70
     0
  9
$UCSORGTOP
 10
0.0
 20
0.0
 30
0.0
  9
$UCSORGBOTTOM
 10
0.0
 20
0.0
 30
0.0
  9
$UCSORGLEFT
 10
0.0
 20
0.0
 30
0.0
  9
$UCSORGRIGHT
 10
0.0
 20
0.0
 30
0.0
  9
$UCSORGFRONT
 10
0.0
 20
0.0
 30
0.0
  9
$UCSORGBACK
 10
0.0
 20
0.0
 30
0.0
  9
$PUCSBASE
  2

  9
$PUCSNAME
  2

  9
$PUCSORG
 10
0.0
 20
0.0
 30
0.0
  9
$PUCSXDIR
 10
1.0
 20
0.0
 30
0.0
  9
$PUCSYDIR
 10
0.0
 20
1.0
 30
0.0
  9
$PUCSORTHOREF
  2

  9
$PUCSORTHOVIEW
 70
     0
  9
$PUCSORGTOP
 10
0.0
 20
0.0
 30
0.0
  9
$PUCSORGBOTTOM
 10
0.0
 20
0.0
 30
0.0
  9
$PUCSORGLEFT
 10
0.0
 20
0.0
 30
0.0
  9
$PUCSORGRIGHT
 10
0.0
 20
0.0
 30
0.0
  9
$PUCSORGFRONT
 10
0.0
 20
0.0
 30
0.0
  9
$PUCSORGBACK
 10
0.0
 20
0.0
 30
0.0
  9
$USERI1
 70
     0
  9
$USERI2
 70
     0
  9
$USERI3
 70
     0
  9
$USERI4
 70
     0
  9
$USERI5
 70
     0
  9
$USERR1
 40
0.0
  9
$USERR2
 40
0.0
  9
$USERR3
 40
0.0
  9
$USERR4
 40
0.0
  9
$USERR5
 40
0.0
  9
$WORLDVIEW
 70
     1
  9
$SHADEDGE
 70
     3
  9
$SHADEDIF
 70
    70
  9
$TILEMODE
 70
     1
  9
$MAXACTVP
 70
    64
  9
$PINSBASE
 10
0.0
 20
0.0
 30
0.0
  9
$PLIMCHECK
 70
     0
  9
$PEXTMIN
 10
1.000000000000000E+20
 20
1.000000000000000E+20
 30
1.000000000000000E+20
  9
$PEXTMAX
 10
-1.000000000000000E+20
 20
-1.000000000000000E+20
 30
-1.000000000000000E+20
  9
$PLIMMIN
 10
0.0
 20
0.0
  9
$PLIMMAX
 10
420.0
 20
297.0
  9
$UNITMODE
 70
     0
  9
$VISRETAIN
 70
     1
  9
$PLINEGEN
 70
     0
  9
$PSLTSCALE
 70
     1
  9
$TREEDEPTH
 70
  3020
  9
$CMLSTYLE
  2
Standard
  9
$CMLJUST
 70
     0
  9
$CMLSCALE
 40
20.0
  9
$PROXYGRAPHICS
 70
     1
  9
$MEASUREMENT
 70
     1
  9
$CELWEIGHT
370
    -1
  9
$ENDCAPS
280
     0
  9
$JOINSTYLE
280
     0
  9
$LWDISPLAY
290
     0
  9
$INSUNITS
 70
     4
  9
$HYPERLINKBASE
  1

  9
$STYLESHEET
  1

  9
$XEDIT
290
     1
  9
$CEPSNTYPE
380
     0
  9
$PSTYLEMODE
290
     1
  9
$FINGERPRINTGUID
  2
{78A4CFBD-E333-48F7-91E5-B6C51E876476}
  9
$VERSIONGUID
  2
{FAEB1C32-E019-11D5-929B-00C0DF256EC4}
  9
$EXTNAMES
290
     1
  9
$PSVPSCALE
 40
0.0
  9
$OLESTARTUP
290
     0
  0
ENDSEC
  0
SECTION
  2
CLASSES
  0
CLASS
  1
ACDBDICTIONARYWDFLT
  2
AcDbDictionaryWithDefault
  3
ObjectDBX Classes
 90
        0
280
     0
281
     0
  0
CLASS
  1
VISUALSTYLE
  2
AcDbVisualStyle
  3
ObjectDBX Classes
 90
     4095
280
     0
281
     0
  0
CLASS
  1
MATERIAL
  2
AcDbMaterial
  3
ObjectDBX Classes
 90
     1153
280
     0
281
     0
  0
CLASS
  1
SCALE
  2
AcDbScale
  3
ObjectDBX Classes
 90
     1153
280
     0
281
     0
  0
CLASS
  1
DICTIONARYVAR
  2
AcDbDictionaryVar
  3
ObjectDBX Classes
 90
        0
280
     0
281
     0
  0
CLASS
  1
ACDBPLACEHOLDER
  2
AcDbPlaceHolder
  3
ObjectDBX Classes
 90
        0
280
     0
281
     0
  0
CLASS
  1
LAYOUT
  2
AcDbLayout
  3
ObjectDBX Classes
 90
        0
280
     0
281
     0
  0
ENDSEC
  0
SECTION
  2
TABLES
  0
TABLE
  2
VPORT
  5
8
330
0
100
AcDbSymbolTable
 70
     1
  0
VPORT
  5
29
330
8
100
AcDbSymbolTableRecord
100
AcDbViewportTableRecord
  2
*Active
 70
     0
 10
0.0
 20
0.0
 11
1.0
 21
1.0
 12
11.26
 22
4.5
 13
0.0
 23
0.0
 14
10.0
 24
10.0
 15
10.0
 25
10.0
 16
0.0
 26
0.0
 36
1.0
 17
0.0
 27
0.0
 37
0.0
 40
9.0
 41
2.503333333333333
 42
50.0
 43
0.0
 44
0.0
 50
0.0
 51
0.0
 71
     0
 72
   100
 73
     1
 74
     3
 75
     0
 76
     0
 77
     0
 78
     0
281
     0
 65
     1
110
0.0
120
0.0
130
0.0
111
1.0
121
0.0
131
0.0
112
0.0
122
1.0
132
0.0
 79
     0
146
0.0
  0
ENDTAB
  0
TABLE
  2
LTYPE
  5
5
330
0
100
AcDbSymbolTable
 70
    10
  0
LTYPE
  5
14
330
5
100
AcDbSymbolTableRecord
100
AcDbLinetypeTableRecord
  2
ByBlock
 70
     0
  3

 72
    65
 73
     0
 40
0.0
  0
LTYPE
  5
15
330
5
100
AcDbSymbolTableRecord
100
AcDbLinetypeTableRecord
  2
ByLayer
 70
     0
  3

 72
    65
 73
     0
 40
0.0
  0
LTYPE
  5
16
330
5
100
AcDbSymbolTableRecord
100
AcDbLinetypeTableRecord
  2
Continuous
 70
     0
  3
Solid line
 72
    65
 73
     0
 40
0.0
  0
LTYPE
  5
45
330
5
100
AcDbSymbolTableRecord
100
AcDbLinetypeTableRecord
  2
phl_thick
 70
     0
  3
THICK
 72
    65
 73
     0
 40
0.0
  0
LTYPE
  5
339
330
5
100
AcDbSymbolTableRecord
100
AcDbLinetypeTableRecord
  2
CUT
 70
     0
  3
THICK
 72
    65
 73
     0
 40
0.0
  0
LTYPE
  5
341
330
5
100
AcDbSymbolTableRecord
100
AcDbLinetypeTableRecord
  2
NOCUT
 70
     0
  3
THICK
 72
    65
 73
     0
 40
0.0
  0
LTYPE
  5
347
330
5
100
AcDbSymbolTableRecord
100
AcDbLinetypeTableRecord
  2
SK1
 70
     0
  3
THICK
 72
    65
 73
     0
 40
0.0
  0
LTYPE
  5
355
330
5
100
AcDbSymbolTableRecord
100
AcDbLinetypeTableRecord
  2
ls_SK2
 70
     0
  3
THIN
 72
    65
 73
     0
 40
0.0
  0
LTYPE
  5
402
330
5
100
AcDbSymbolTableRecord
100
AcDbLinetypeTableRecord
  2
ls_2
 70
     0
  3
THIN
 72
    65
 73
     0
 40
0.0
  0
LTYPE
  5
552
330
5
100
AcDbSymbolTableRecord
100
AcDbLinetypeTableRecord
  2
ls_SK1
 70
     0
  3
THICK
 72
    65
 73
     0
 40
0.0
  0
LTYPE
  5
58C
330
5
100
AcDbSymbolTableRecord
100
AcDbLinetypeTableRecord
  2
LONGDASH_DASH
 70
     0
  3
THIN_DASHDOT
 72
    65
 73
     4
 40
0.85
 49
0.4
 74
     0
 49
-0.2
 74
     0
 49
0.05
 74
     0
 49
-0.2
 74
     0
  0
LTYPE
  5
591
330
5
100
AcDbSymbolTableRecord
100
AcDbLinetypeTableRecord
  2
ls1
 70
     0
  3
THICK
 72
    65
 73
     0
 40
0.0
  0
ENDTAB
  0
TABLE
  2
LAYER
  5
2
330
0
100
AcDbSymbolTable
 70
    10
  0
LAYER
  5
10
330
2
100
AcDbSymbolTableRecord
100
AcDbLayerTableRecord
  2
0
 70
     0
 62
     7
  6
Continuous
370
    -3
390
F
  0
LAYER
  5
44
330
2
100
AcDbSymbolTableRecord
100
AcDbLayerTableRecord
  2
1
 70
     0
 62
4
  6
CONTINUOUS
370
50
370
    -3
390
F
  0
LAYER
  5
338
330
2
100
AcDbSymbolTableRecord
100
AcDbLayerTableRecord
  2
CUT
 70
     0
 62
1
  6
CONTINUOUS
370
25
370
    -3
390
F
  0
LAYER
  5
340
330
2
100
AcDbSymbolTableRecord
100
AcDbLayerTableRecord
  2
NOCUT
 70
     0
 62
7
  6
CONTINUOUS
370
25
370
    -3
390
F
  0
LAYER
  5
346
330
2
100
AcDbSymbolTableRecord
100
AcDbLayerTableRecord
  2
SK1
 70
     0
 62
4
  6
CONTINUOUS
370
50
370
    -3
390
F
  0
LAYER
  5
354
330
2
100
AcDbSymbolTableRecord
100
AcDbLayerTableRecord
  2
SK2
 70
     0
 62
7
  6
CONTINUOUS
370
25
370
    -3
390
F
  0
LAYER
  5
401
330
2
100
AcDbSymbolTableRecord
100
AcDbLayerTableRecord
  2
2
 70
     0
 62
7
  6
CONTINUOUS
370
25
370
    -3
390
F
  0
LAYER
  5
58B
330
2
100
AcDbSymbolTableRecord
100
AcDbLayerTableRecord
  2
4
 70
     0
 62
2
  6
LONGDASH_DASH
370
25
370
    -3
390
F
  0
LAYER
  5
58E
330
2
100
AcDbSymbolTableRecord
100
AcDbLayerTableRecord
  2
SK4
 70
     0
 62
2
  6
LONGDASH_DASH
370
25
370
    -3
390
F
  0
LAYER
  5
590
330
2
100
AcDbSymbolTableRecord
100
AcDbLayerTableRecord
  2
SK6
 70
     0
 62
5
  6
CONTINUOUS
370
25
370
    -3
390
F
  0
ENDTAB
  0
TABLE
  2
STYLE
  5
3
330
0
100
AcDbSymbolTable
 70
     1
  0
STYLE
  5
11
330
3
100
AcDbSymbolTableRecord
100
AcDbTextStyleTableRecord
  2
Standard
 70
     0
 40
0.0
 41
1.0
 50
0.0
 71
     0
 42
2.5
  3
Monospac821 BT
  4

  0
ENDTAB
  0
TABLE
  2
VIEW
  5
6
330
0
100
AcDbSymbolTable
 70
     0
  0
ENDTAB
  0
TABLE
  2
UCS
  5
7
330
0
100
AcDbSymbolTable
 70
     0
  0
ENDTAB
  0
TABLE
  2
APPID
  5
9
330
0
100
AcDbSymbolTable
 70
     2
  0
APPID
  5
12
330
9
100
AcDbSymbolTableRecord
100
AcDbRegAppTableRecord
  2
ACAD
 70
     0
  0
APPID
  5
3F
330
9
100
AcDbSymbolTableRecord
100
AcDbRegAppTableRecord
  2
ccLab
 70
     0
  0
ENDTAB
  0
TABLE
  2
DIMSTYLE
  5
A
330
0
100
AcDbSymbolTable
 70
     1
100
AcDbDimStyleTable
  0
DIMSTYLE
105
27
330
A
100
AcDbSymbolTableRecord
100
AcDbDimStyleTableRecord
  2
ISO-25
 70
     0
 41
2.5
 42
0.625
 43
3.75
 44
1.25
 73
     0
 74
     0
 77
     1
 78
     8
140
2.5
141
2.5
143
0.03937007874016
147
0.625
171
     3
172
     1
271
     2
272
     2
274
     3
278
    44
283
     0
284
     8
340
11
  0
ENDTAB
  0
TABLE
  2
BLOCK_RECORD
  5
1
330
0
100
AcDbSymbolTable
 70
     2
  0
BLOCK_RECORD
  5
1F
330
1
100
AcDbSymbolTableRecord
100
AcDbBlockTableRecord
  2
*Model_Space
340
22
  0
BLOCK_RECORD
  5
1B
330
1
100
AcDbSymbolTableRecord
100
AcDbBlockTableRecord
  2
*Paper_Space
340
1E
  0
BLOCK_RECORD
  5
23
330
1
100
AcDbSymbolTableRecord
100
AcDbBlockTableRecord
  2
*Paper_Space0
340
26
  0
ENDTAB
  0
ENDSEC
  0
SECTION
  2
BLOCKS
  0
BLOCK
  5
20
330
1F
100
AcDbEntity
  8
0
100
AcDbBlockBegin
  2
*Model_Space
 70
     0
 10
0.0
 20
0.0
 30
0.0
  3
*Model_Space
  1

  0
ENDBLK
  5
21
330
1F
100
AcDbEntity
  8
0
100
AcDbBlockEnd
  0
BLOCK
  5
1C
330
1B
100
AcDbEntity
 67
     1
  8
0
100
AcDbBlockBegin
  2
*Paper_Space
 70
     0
 10
0.0
 20
0.0
 30
0.0
  3
*Paper_Space
  1

  0
ENDBLK
  5
1D
330
1B
100
AcDbEntity
 67
     1
  8
0
100
AcDbBlockEnd
  0
BLOCK
  5
24
330
23
100
AcDbEntity
  8
0
100
AcDbBlockBegin
  2
*Paper_Space0
 70
     0
 10
0.0
 20
0.0
 30
0.0
  3
*Paper_Space0
  1

  0
ENDBLK
  5
25
330
23
100
AcDbEntity
  8
0
100
AcDbBlockEnd
  0
ENDSEC
  0
SECTION
  2
ENTITIES
  0
LINE
  5
59B
330
1F
100
AcDbEntity
  8
1
  6
CONTINUOUS
370
50
 62
4
100
AcDbLine
 10
41.651531
 20
-2.332455
 30
0.0
 11
41.651417
 21
-2.302464
 31
0.0
  0
LINE
  5
59C
330
1F
100
AcDbEntity
  8
1
  6
CONTINUOUS
370
50
 62
4
100
AcDbLine
 10
56.651184
 20
-1.257372
 30
0.0
 11
56.650047
 21
-1.133885
 31
0.0
  0
LINE
  5
59D
330
1F
100
AcDbEntity
  8
1
  6
CONTINUOUS
370
50
 62
4
100
AcDbLine
 10
55.959301
 20
1.702334
 30
0.0
 11
55.958988
 21
1.732534
 31
0.0
  0
LINE
  5
59E
330
1F
100
AcDbEntity
  8
1
  6
CONTINUOUS
370
50
 62
4
100
AcDbLine
 10
56.661285
 20
-0.7174229999999999
 30
0.0
 11
56.660809
 21
-0.672172
 31
0.0
  0
LINE
  5
59F
330
1F
100
AcDbEntity
  8
1
  6
CONTINUOUS
370
50
 62
4
100
AcDbLine
 10
56.654579
 20
-1.380509
 30
0.0
 11
56.651184
 21
-1.257372
 31
0.0
  0
LINE
  5
5A0
330
1F
100
AcDbEntity
  8
1
  6
CONTINUOUS
370
50
 62
4
100
AcDbLine
 10
56.660809
 20
-0.672172
 30
0.0
 11
56.65955
 21
-0.62706
 31
0.0
  0
LINE
  5
5A1
330
1F
100
AcDbEntity
  8
1
  6
CONTINUOUS
370
50
 62
4
100
AcDbLine
 10
41.65211499999999
 20
1.879784
 30
0.0
 11
41.650982
 21
1.914722
 31
0.0
  0
LINE
  5
5A2
330
1F
100
AcDbEntity
  8
1
  6
CONTINUOUS
370
50
 62
4
100
AcDbLine
 10
55.959324
 20
0.146285
 30
0.0
 11
55.95796199999999
 21
0.181441
 31
0.0
  0
LINE
  5
5A3
330
1F
100
AcDbEntity
  8
1
  6
CONTINUOUS
370
50
 62
4
100
AcDbLine
 10
56.65955
 20
-0.62706
 30
0.0
 11
56.657524
 21
-0.5821879999999999
 31
0.0
  0
LINE
  5
5A4
330
1F
100
AcDbEntity
  8
1
  6
CONTINUOUS
370
50
 62
4
100
AcDbLine
 10
56.660259
 20
-1.503044
 30
0.0
 11
56.654579
 21
-1.380509
 31
0.0
  0
LINE
  5
5A5
330
1F
100
AcDbEntity
  8
1
  6
CONTINUOUS
370
50
 62
4
100
AcDbLine
 10
56.657524
 20
-0.5821879999999999
 30
0.0
 11
56.65475799999999
 21
-0.5377339999999999
 31
0.0
  0
LINE
  5
5A6
330
1F
100
AcDbEntity
  8
1
  6
CONTINUOUS
370
50
 62
4
100
AcDbLine
 10
56.668228
 20
-1.624687
 30
0.0
 11
56.660259
 21
-1.503044
 31
0.0
  0
LINE
  5
5A7
330
1F
100
AcDbEntity
  8
1
  6
CONTINUOUS
370
50
 62
4
100
AcDbLine
 10
55.958988
 20
1.732534
 30
0.0
 11
55.956841
 21
1.764448
 31
0.0
  0
LINE
  5
5A8
330
1F
100
AcDbEntity
  8
1
  6
CONTINUOUS
370
50
 62
4
100
AcDbLine
 10
56.65475799999999
 20
-0.5377339999999999
 30
0.0
 11
56.651287
 21
-0.493812
 31
0.0
  0
LINE
  5
5A9
330
1F
100
AcDbEntity
  8
1
  6
CONTINUOUS
370
50
 62
4
100
AcDbLine
 10
56.67843999999999
 20
-1.744471
 30
0.0
 11
56.668228
 21
-1.624687
 31
0.0
  0
LINE
  5
5AA
330
1F
100
AcDbEntity
  8
1
  6
CONTINUOUS
370
50
 62
4
100
AcDbLine
 10
55.95796199999999
 20
0.181441
 30
0.0
 11
55.954983
 21
0.215289
 31
0.0
  0
LINE
  5
5AB
330
1F
100
AcDbEntity
  8
1
  6
CONTINUOUS
370
50
 62
4
100
AcDbLine
 10
56.651287
 20
-0.493812
 30
0.0
 11
56.647133
 21
-0.4505
 31
0.0
  0
LINE
  5
5AC
330
1F
100
AcDbEntity
  8
1
  6
CONTINUOUS
370
50
 62
4
100
AcDbLine
 10
56.690842
 20
-1.861903
 30
0.0
 11
56.67843999999999
 21
-1.744471
 31
0.0
  0
LINE
  5
5AD
330
1F
100
AcDbEntity
  8
1
  6
CONTINUOUS
370
50
 62
4
100
AcDbLine
 10
55.956841
 20
1.764448
 30
0.0
 11
55.952946
 21
1.797908
 31
0.0
  0
LINE
  5
5AE
330
1F
100
AcDbEntity
  8
1
  6
CONTINUOUS
370
50
 62
4
100
AcDbLine
 10
56.705399
 20
-1.976751
 30
0.0
 11
56.690842
 21
-1.861903
 31
0.0
  0
LINE
  5
5AF
330
1F
100
AcDbEntity
  8
1
  6
CONTINUOUS
370
50
 62
4
100
AcDbLine
 10
55.954983
 20
0.215289
 30
0.0
 11
55.950466
 21
0.247792
 31
0.0
  0
LINE
  5
5B0
330
1F
100
AcDbEntity
  8
1
  6
CONTINUOUS
370
50
 62
4
100
AcDbLine
 10
56.722065
 20
-2.088784
 30
0.0
 11
56.705399
 21
-1.976751
 31
0.0
  0
LINE
  5
5B1
330
1F
100
AcDbEntity
  8
1
  6
CONTINUOUS
370
50
 62
4
100
AcDbLine
 10
55.952946
 20
1.797908
 30
0.0
 11
55.947392
 21
1.832746
 31
0.0
  0
LINE
  5
5B2
330
1F
100
AcDbEntity
  8
1
  6
CONTINUOUS
370
50
 62
4
100
AcDbLine
 10
41.657772
 20
1.844802
 30
0.0
 11
41.65211499999999
 21
1.879784
 31
0.0
  0
LINE
  5
5B3
330
1F
100
AcDbEntity
  8
1
  6
CONTINUOUS
370
50
 62
4
100
AcDbLine
 10
56.740757
 20
-2.197468
 30
0.0
 11
56.722065
 21
-2.088784
 31
0.0
  0
LINE
  5
5B4
330
1F
100
AcDbEntity
  8
1
  6
CONTINUOUS
370
50
 62
4
100
AcDbLine
 10
41.65667699999999
 20
-2.361685
 30
0.0
 11
41.651531
 21
-2.332455
 31
0.0
  0
LINE
  5
5B5
330
1F
100
AcDbEntity
  8
1
  6
CONTINUOUS
370
50
 62
4
100
AcDbLine
 10
55.950466
 20
0.247792
 30
0.0
 11
55.944481
 21
0.27891
 31
0.0
  0
LINE
  5
5B6
330
1F
100
AcDbEntity
  8
1
  6
CONTINUOUS
370
50
 62
4
100
AcDbLine
 10
56.761345
 20
-2.302279
 30
0.0
 11
56.740757
 21
-2.197468
 31
0.0
  0
LINE
  5
5B7
330
1F
100
AcDbEntity
  8
1
  6
CONTINUOUS
370
50
 62
4
100
AcDbLine
 10
55.947392
 20
1.832746
 30
0.0
 11
55.940247
 21
1.868857
 31
0.0
  0
LINE
  5
5B8
330
1F
100
AcDbEntity
  8
1
  6
CONTINUOUS
370
50
 62
4
100
AcDbLine
 10
56.783756
 20
-2.403053
 30
0.0
 11
56.761345
 21
-2.302279
 31
0.0
  0
LINE
  5
5B9
330
1F
100
AcDbEntity
  8
1
  6
CONTINUOUS
370
50
 62
4
100
AcDbLine
 10
55.940247
 20
1.868857
 30
0.0
 11
55.931526
 21
1.906378
 31
0.0
  0
LINE
  5
5BA
330
1F
100
AcDbEntity
  8
1
  6
CONTINUOUS
370
50
 62
4
100
AcDbLine
 10
55.944481
 20
0.27891
 30
0.0
 11
55.937065
 21
0.308756
 31
0.0
  0
LINE
  5
5BB
330
1F
100
AcDbEntity
  8
1
  6
CONTINUOUS
370
50
 62
4
100
AcDbLine
 10
56.807911
 20
-2.49963
 30
0.0
 11
56.783756
 21
-2.403053
 31
0.0
  0
LINE
  5
5BC
330
1F
100
AcDbEntity
  8
1
  6
CONTINUOUS
370
50
 62
4
100
AcDbLine
 10
55.931526
 20
1.906378
 30
0.0
 11
55.921249
 21
1.945247
 31
0.0
  0
LINE
  5
5BD
330
1F
100
AcDbEntity
  8
1
  6
CONTINUOUS
370
50
 62
4
100
AcDbLine
 10
41.667622
 20
1.810092
 30
0.0
 11
41.657772
 21
1.844802
 31
0.0
  0
LINE
  5
5BE
330
1F
100
AcDbEntity
  8
1
  6
CONTINUOUS
370
50
 62
4
100
AcDbLine
 10
55.921249
 20
1.945247
 30
0.0
 11
55.909454
 21
1.985373
 31
0.0
  0
LINE
  5
5BF
330
1F
100
AcDbEntity
  8
1
  6
CONTINUOUS
370
50
 62
4
100
AcDbLine
 10
55.937065
 20
0.308756
 30
0.0
 11
55.928226
 21
0.337423
 31
0.0
  0
LINE
  5
5C0
330
1F
100
AcDbEntity
  8
1
  6
CONTINUOUS
370
50
 62
4
100
AcDbLine
 10
55.909454
 20
1.985373
 30
0.0
 11
55.896175
 21
2.026666
 31
0.0
  0
LINE
  5
5C1
330
1F
100
AcDbEntity
  8
1
  6
CONTINUOUS
370
50
 62
4
100
AcDbLine
 10
56.648628
 20
1.489813
 30
0.0
 11
56.64814
 21
1.491323
 31
0.0
  0
LINE
  5
5C2
330
1F
100
AcDbEntity
  8
1
  6
CONTINUOUS
370
50
 62
4
100
AcDbLine
 10
56.64764
 20
1.49286
 30
0.0
 11
56.647133
 21
1.494423
 31
0.0
  0
LINE
  5
5C3
330
1F
100
AcDbEntity
  8
1
  6
CONTINUOUS
370
50
 62
4
100
AcDbLine
 10
56.649586
 20
1.486872
 30
0.0
 11
56.649113
 21
1.488329
 31
0.0
  0
LINE
  5
5C4
330
1F
100
AcDbEntity
  8
1
  6
CONTINUOUS
370
50
 62
4
100
AcDbLine
 10
56.661644
 20
1.449756
 30
0.0
 11
56.65655899999999
 21
1.465411
 31
0.0
  0
LINE
  5
5C5
330
1F
100
AcDbEntity
  8
1
  6
CONTINUOUS
370
50
 62
4
100
AcDbLine
 10
56.708534
 20
1.305442
 30
0.0
 11
56.696381
 21
1.342856
 31
0.0
  0
LINE
  5
5C6
330
1F
100
AcDbEntity
  8
1
  6
CONTINUOUS
370
50
 62
4
100
AcDbLine
 10
56.652935
 20
1.476559
 30
0.0
 11
56.650768
 21
1.483229
 31
0.0
  0
LINE
  5
5C7
330
1F
100
AcDbEntity
  8
1
  6
CONTINUOUS
370
50
 62
4
100
AcDbLine
 10
56.736843
 20
1.218318
 30
0.0
 11
56.72204199999999
 21
1.263875
 31
0.0
  0
LINE
  5
5C8
330
1F
100
AcDbEntity
  8
1
  6
CONTINUOUS
370
50
 62
4
100
AcDbLine
 10
56.807911
 20
0.999597
 30
0.0
 11
56.788445
 21
1.059512
 31
0.0
  0
LINE
  5
5C9
330
1F
100
AcDbEntity
  8
1
  6
CONTINUOUS
370
50
 62
4
100
AcDbLine
 10
56.770084
 20
1.116017
 30
0.0
 11
56.752872
 21
1.168992
 31
0.0
  0
LINE
  5
5CA
330
1F
100
AcDbEntity
  8
1
  6
CONTINUOUS
370
50
 62
4
100
AcDbLine
 10
57.0
 20
0.408407
 30
0.0
 11
56.807911
 21
0.999597
 31
0.0
  0
LINE
  5
5CB
330
1F
100
AcDbEntity
  8
1
  6
CONTINUOUS
370
50
 62
4
100
AcDbLine
 10
56.696381
 20
1.342856
 30
0.0
 11
56.685593
 21
1.376056
 31
0.0
  0
LINE
  5
5CC
330
1F
100
AcDbEntity
  8
1
  6
CONTINUOUS
370
50
 62
4
100
AcDbLine
 10
56.676193
 20
1.404984
 30
0.0
 11
56.668201
 21
1.429579
 31
0.0
  0
LINE
  5
5CD
330
1F
100
AcDbEntity
  8
1
  6
CONTINUOUS
370
50
 62
4
100
AcDbLine
 10
56.788445
 20
1.059512
 30
0.0
 11
56.770084
 21
1.116017
 31
0.0
  0
LINE
  5
5CE
330
1F
100
AcDbEntity
  8
1
  6
CONTINUOUS
370
50
 62
4
100
AcDbLine
 10
56.685593
 20
1.376056
 30
0.0
 11
56.676193
 21
1.404984
 31
0.0
  0
LINE
  5
5CF
330
1F
100
AcDbEntity
  8
1
  6
CONTINUOUS
370
50
 62
4
100
AcDbLine
 10
56.752872
 20
1.168992
 30
0.0
 11
56.736843
 21
1.218318
 31
0.0
  0
LINE
  5
5D0
330
1F
100
AcDbEntity
  8
1
  6
CONTINUOUS
370
50
 62
4
100
AcDbLine
 10
56.72204199999999
 20
1.263875
 30
0.0
 11
56.708534
 21
1.305442
 31
0.0
  0
LINE
  5
5D1
330
1F
100
AcDbEntity
  8
1
  6
CONTINUOUS
370
50
 62
4
100
AcDbLine
 10
56.668201
 20
1.429579
 30
0.0
 11
56.661644
 21
1.449756
 31
0.0
  0
LINE
  5
5D2
330
1F
100
AcDbEntity
  8
1
  6
CONTINUOUS
370
50
 62
4
100
AcDbLine
 10
56.650768
 20
1.483229
 30
0.0
 11
56.650047
 21
1.485447
 31
0.0
  0
LINE
  5
5D3
330
1F
100
AcDbEntity
  8
1
  6
CONTINUOUS
370
50
 62
4
100
AcDbLine
 10
56.65655899999999
 20
1.465411
 30
0.0
 11
56.652935
 21
1.476559
 31
0.0
  0
LINE
  5
5D4
330
1F
100
AcDbEntity
  8
1
  6
CONTINUOUS
370
50
 62
4
100
AcDbLine
 10
56.64814
 20
1.491323
 30
0.0
 11
56.64764
 21
1.49286
 31
0.0
  0
LINE
  5
5D5
330
1F
100
AcDbEntity
  8
1
  6
CONTINUOUS
370
50
 62
4
100
AcDbLine
 10
56.650051
 20
1.485443
 30
0.0
 11
56.649586
 21
1.486872
 31
0.0
  0
LINE
  5
5D6
330
1F
100
AcDbEntity
  8
1
  6
CONTINUOUS
370
50
 62
4
100
AcDbLine
 10
56.649113
 20
1.488329
 30
0.0
 11
56.648628
 21
1.489813
 31
0.0
  0
LINE
  5
5D7
330
1F
100
AcDbEntity
  8
1
  6
CONTINUOUS
370
50
 62
4
100
AcDbLine
 10
55.896175
 20
2.026666
 30
0.0
 11
55.881439
 21
2.069036
 31
0.0
  0
LINE
  5
5D8
330
1F
100
AcDbEntity
  8
1
  6
CONTINUOUS
370
50
 62
4
100
AcDbLine
 10
41.666489
 20
-2.389778
 30
0.0
 11
41.65667699999999
 21
-2.361685
 31
0.0
  0
LINE
  5
5D9
330
1F
100
AcDbEntity
  8
1
  6
CONTINUOUS
370
50
 62
4
100
AcDbLine
 10
55.881439
 20
2.069036
 30
0.0
 11
55.865284
 21
2.112392
 31
0.0
  0
LINE
  5
5DA
330
1F
100
AcDbEntity
  8
1
  6
CONTINUOUS
370
50
 62
4
100
AcDbLine
 10
55.928226
 20
0.337423
 30
0.0
 11
55.91798799999999
 21
0.364867
 31
0.0
  0
LINE
  5
5DB
330
1F
100
AcDbEntity
  8
1
  6
CONTINUOUS
370
50
 62
4
100
AcDbLine
 10
55.865284
 20
2.112392
 30
0.0
 11
55.84773999999999
 21
2.156643
 31
0.0
  0
LINE
  5
5DC
330
1F
100
AcDbEntity
  8
1
  6
CONTINUOUS
370
50
 62
4
100
AcDbLine
 10
41.681316
 20
1.775755
 30
0.0
 11
41.667622
 21
1.810092
 31
0.0
  0
LINE
  5
5DD
330
1F
100
AcDbEntity
  8
1
  6
CONTINUOUS
370
50
 62
4
100
AcDbLine
 10
55.69501899999999
 20
2.521029
 30
0.0
 11
55.673519
 21
2.574001
 31
0.0
  0
LINE
  5
5DE
330
1F
100
AcDbEntity
  8
1
  6
CONTINUOUS
370
50
 62
4
100
AcDbLine
 10
55.716747
 20
2.467979
 30
0.0
 11
55.69501899999999
 21
2.521029
 31
0.0
  0
LINE
  5
5DF
330
1F
100
AcDbEntity
  8
1
  6
CONTINUOUS
370
50
 62
4
100
AcDbLine
 10
55.738705
 20
2.414857
 30
0.0
 11
55.716747
 21
2.467979
 31
0.0
  0
LINE
  5
5E0
330
1F
100
AcDbEntity
  8
1
  6
CONTINUOUS
370
50
 62
4
100
AcDbLine
 10
55.760891
 20
2.361664
 30
0.0
 11
55.738705
 21
2.414857
 31
0.0
  0
LINE
  5
5E1
330
1F
100
AcDbEntity
  8
1
  6
CONTINUOUS
370
50
 62
4
100
AcDbLine
 10
55.84773999999999
 20
2.156643
 30
0.0
 11
55.82884199999999
 21
2.201698
 31
0.0
  0
LINE
  5
5E2
330
1F
100
AcDbEntity
  8
1
  6
CONTINUOUS
370
50
 62
4
100
AcDbLine
 10
55.783306
 20
2.308404
 30
0.0
 11
55.760891
 21
2.361664
 31
0.0
  0
LINE
  5
5E3
330
1F
100
AcDbEntity
  8
1
  6
CONTINUOUS
370
50
 62
4
100
AcDbLine
 10
55.805958
 20
2.255081
 30
0.0
 11
55.783306
 21
2.308404
 31
0.0
  0
LINE
  5
5E4
330
1F
100
AcDbEntity
  8
1
  6
CONTINUOUS
370
50
 62
4
100
AcDbLine
 10
55.82884199999999
 20
2.201698
 30
0.0
 11
55.805958
 21
2.255081
 31
0.0
  0
LINE
  5
5E5
330
1F
100
AcDbEntity
  8
1
  6
CONTINUOUS
370
50
 62
4
100
AcDbLine
 10
55.91798799999999
 20
0.364867
 30
0.0
 11
55.906384
 21
0.391046
 31
0.0
  0
LINE
  5
5E6
330
1F
100
AcDbEntity
  8
1
  6
CONTINUOUS
370
50
 62
4
100
AcDbLine
 10
41.698524
 20
1.741889
 30
0.0
 11
41.681316
 21
1.775755
 31
0.0
  0
LINE
  5
5E7
330
1F
100
AcDbEntity
  8
1
  6
CONTINUOUS
370
50
 62
4
100
AcDbLine
 10
56.178261
 20
1.594563
 30
0.0
 11
55.673519
 21
2.574001
 31
0.0
  0
LINE
  5
5E8
330
1F
100
AcDbEntity
  8
1
  6
CONTINUOUS
370
50
 62
4
100
AcDbLine
 10
55.906384
 20
0.391046
 30
0.0
 11
55.89344
 21
0.415915
 31
0.0
  0
LINE
  5
5E9
330
1F
100
AcDbEntity
  8
1
  6
CONTINUOUS
370
50
 62
4
100
AcDbLine
 10
41.680565
 20
-2.416707
 30
0.0
 11
41.666489
 21
-2.389778
 31
0.0
  0
LINE
  5
5EA
330
1F
100
AcDbEntity
  8
1
  6
CONTINUOUS
370
50
 62
4
100
AcDbLine
 10
42.349674
 20
0.6647529999999999
 30
0.0
 11
42.25847599999999
 21
0.829275
 31
0.0
  0
LINE
  5
5EB
330
1F
100
AcDbEntity
  8
1
  6
CONTINUOUS
370
50
 62
4
100
AcDbLine
 10
42.441998
 20
0.498853
 30
0.0
 11
42.349674
 21
0.6647529999999999
 31
0.0
  0
LINE
  5
5EC
330
1F
100
AcDbEntity
  8
1
  6
CONTINUOUS
370
50
 62
4
100
AcDbLine
 10
42.25847599999999
 20
0.829275
 30
0.0
 11
42.16748
 21
0.991987
 31
0.0
  0
LINE
  5
5ED
330
1F
100
AcDbEntity
  8
1
  6
CONTINUOUS
370
50
 62
4
100
AcDbLine
 10
42.536366
 20
0.332004
 30
0.0
 11
42.441998
 21
0.498853
 31
0.0
  0
LINE
  5
5EE
330
1F
100
AcDbEntity
  8
1
  6
CONTINUOUS
370
50
 62
4
100
AcDbLine
 10
42.16748
 20
0.991987
 30
0.0
 11
42.07597
 21
1.152134
 31
0.0
  0
LINE
  5
5EF
330
1F
100
AcDbEntity
  8
1
  6
CONTINUOUS
370
50
 62
4
100
AcDbLine
 10
42.633568
 20
0.164868
 30
0.0
 11
42.536366
 21
0.332004
 31
0.0
  0
LINE
  5
5F0
330
1F
100
AcDbEntity
  8
1
  6
CONTINUOUS
370
50
 62
4
100
AcDbLine
 10
42.07597
 20
1.152134
 30
0.0
 11
41.984085
 21
1.307636
 31
0.0
  0
LINE
  5
5F1
330
1F
100
AcDbEntity
  8
1
  6
CONTINUOUS
370
50
 62
4
100
AcDbLine
 10
42.733376
 20
0.0
 30
0.0
 11
42.633568
 21
0.164868
 31
0.0
  0
LINE
  5
5F2
330
1F
100
AcDbEntity
  8
1
  6
CONTINUOUS
370
50
 62
4
100
AcDbLine
 10
55.89344
 20
0.415915
 30
0.0
 11
55.879189
 21
0.439431
 31
0.0
  0
LINE
  5
5F3
330
1F
100
AcDbEntity
  8
1
  6
CONTINUOUS
370
50
 62
4
100
AcDbLine
 10
41.984085
 20
1.307636
 30
0.0
 11
41.891121
 21
1.457954
 31
0.0
  0
LINE
  5
5F4
330
1F
100
AcDbEntity
  8
1
  6
CONTINUOUS
370
50
 62
4
100
AcDbLine
 10
42.871212
 20
-0.214106
 30
0.0
 11
42.733376
 21
0.0
 31
0.0
  0
LINE
  5
5F5
330
1F
100
AcDbEntity
  8
1
  6
CONTINUOUS
370
50
 62
4
100
AcDbLine
 10
41.891121
 20
1.457954
 30
0.0
 11
41.796219
 21
1.602801
 31
0.0
  0
LINE
  5
5F6
330
1F
100
AcDbEntity
  8
1
  6
CONTINUOUS
370
50
 62
4
100
AcDbLine
 10
41.698524
 20
-2.442442
 30
0.0
 11
41.680565
 21
-2.416707
 31
0.0
  0
LINE
  5
5F7
330
1F
100
AcDbEntity
  8
1
  6
CONTINUOUS
370
50
 62
4
100
AcDbLine
 10
41.796219
 20
1.602801
 30
0.0
 11
41.698524
 21
1.741889
 31
0.0
  0
LINE
  5
5F8
330
1F
100
AcDbEntity
  8
1
  6
CONTINUOUS
370
50
 62
4
100
AcDbLine
 10
55.879189
 20
0.439431
 30
0.0
 11
55.863651
 21
0.46155
 31
0.0
  0
LINE
  5
5F9
330
1F
100
AcDbEntity
  8
1
  6
CONTINUOUS
370
50
 62
4
100
AcDbLine
 10
43.01709
 20
-0.42174
 30
0.0
 11
42.871212
 21
-0.214106
 31
0.0
  0
LINE
  5
5FA
330
1F
100
AcDbEntity
  8
1
  6
CONTINUOUS
370
50
 62
4
100
AcDbLine
 10
43.17326
 20
-0.6220209999999999
 30
0.0
 11
43.01709
 21
-0.42174
 31
0.0
  0
LINE
  5
5FB
330
1F
100
AcDbEntity
  8
1
  6
CONTINUOUS
370
50
 62
4
100
AcDbLine
 10
55.863651
 20
0.46155
 30
0.0
 11
55.84685899999999
 21
0.48223
 31
0.0
  0
LINE
  5
5FC
330
1F
100
AcDbEntity
  8
1
  6
CONTINUOUS
370
50
 62
4
100
AcDbLine
 10
55.69501899999999
 20
0.644884
 30
0.0
 11
55.673519
 21
0.670053
 31
0.0
  0
LINE
  5
5FD
330
1F
100
AcDbEntity
  8
1
  6
CONTINUOUS
370
50
 62
4
100
AcDbLine
 10
55.716747
 20
0.6200629999999999
 30
0.0
 11
55.69501899999999
 21
0.644884
 31
0.0
  0
LINE
  5
5FE
330
1F
100
AcDbEntity
  8
1
  6
CONTINUOUS
370
50
 62
4
100
AcDbLine
 10
43.340137
 20
-0.8120879999999999
 30
0.0
 11
43.17326
 21
-0.6220209999999999
 31
0.0
  0
LINE
  5
5FF
330
1F
100
AcDbEntity
  8
1
  6
CONTINUOUS
370
50
 62
4
100
AcDbLine
 10
55.738705
 20
0.5955969999999999
 30
0.0
 11
55.716747
 21
0.6200629999999999
 31
0.0
  0
LINE
  5
600
330
1F
100
AcDbEntity
  8
1
  6
CONTINUOUS
370
50
 62
4
100
AcDbLine
 10
55.760891
 20
0.571493
 30
0.0
 11
55.738705
 21
0.5955969999999999
 31
0.0
  0
LINE
  5
601
330
1F
100
AcDbEntity
  8
1
  6
CONTINUOUS
370
50
 62
4
100
AcDbLine
 10
55.84685899999999
 20
0.48223
 30
0.0
 11
55.82884199999999
 21
0.5014259999999999
 31
0.0
  0
LINE
  5
602
330
1F
100
AcDbEntity
  8
1
  6
CONTINUOUS
370
50
 62
4
100
AcDbLine
 10
55.783306
 20
0.547758
 30
0.0
 11
55.760891
 21
0.571493
 31
0.0
  0
LINE
  5
603
330
1F
100
AcDbEntity
  8
1
  6
CONTINUOUS
370
50
 62
4
100
AcDbLine
 10
55.805958
 20
0.5244
 30
0.0
 11
55.783306
 21
0.547758
 31
0.0
  0
LINE
  5
604
330
1F
100
AcDbEntity
  8
1
  6
CONTINUOUS
370
50
 62
4
100
AcDbLine
 10
55.82884199999999
 20
0.5014259999999999
 30
0.0
 11
55.805958
 21
0.5244
 31
0.0
  0
LINE
  5
605
330
1F
100
AcDbEntity
  8
1
  6
CONTINUOUS
370
50
 62
4
100
AcDbLine
 10
43.51582699999999
 20
-0.9881949999999999
 30
0.0
 11
43.340137
 21
-0.8120879999999999
 31
0.0
  0
LINE
  5
606
330
1F
100
AcDbEntity
  8
1
  6
CONTINUOUS
370
50
 62
4
100
AcDbLine
 10
57.0
 20
2.499996
 30
0.0
 11
56.968273
 21
2.531697
 31
0.0
  0
LINE
  5
607
330
1F
100
AcDbEntity
  8
1
  6
CONTINUOUS
370
50
 62
4
100
AcDbLine
 10
56.968273
 20
2.531697
 30
0.0
 11
56.936161
 21
2.563685
 31
0.0
  0
LINE
  5
608
330
1F
100
AcDbEntity
  8
1
  6
CONTINUOUS
370
50
 62
4
100
AcDbLine
 10
56.936161
 20
2.563685
 30
0.0
 11
56.90365199999999
 21
2.595966
 31
0.0
  0
LINE
  5
609
330
1F
100
AcDbEntity
  8
1
  6
CONTINUOUS
370
50
 62
4
100
AcDbLine
 10
56.90365199999999
 20
2.595966
 30
0.0
 11
56.870743
 21
2.628544
 31
0.0
  0
LINE
  5
60A
330
1F
100
AcDbEntity
  8
1
  6
CONTINUOUS
370
50
 62
4
100
AcDbLine
 10
56.870743
 20
2.628544
 30
0.0
 11
56.837429
 21
2.661426
 31
0.0
  0
LINE
  5
60B
330
1F
100
AcDbEntity
  8
1
  6
CONTINUOUS
370
50
 62
4
100
AcDbLine
 10
56.837429
 20
2.661426
 30
0.0
 11
56.80369899999999
 21
2.694616
 31
0.0
  0
LINE
  5
60C
330
1F
100
AcDbEntity
  8
1
  6
CONTINUOUS
370
50
 62
4
100
AcDbLine
 10
56.80369899999999
 20
2.694616
 30
0.0
 11
56.769558
 21
2.728122
 31
0.0
  0
LINE
  5
60D
330
1F
100
AcDbEntity
  8
1
  6
CONTINUOUS
370
50
 62
4
100
AcDbLine
 10
43.912304
 20
-1.315885
 30
0.0
 11
43.899143
 21
-1.303008
 31
0.0
  0
LINE
  5
60E
330
1F
100
AcDbEntity
  8
1
  6
CONTINUOUS
370
50
 62
4
100
AcDbLine
 10
56.76952
 20
2.72816
 30
0.0
 11
56.731167
 21
2.765515
 31
0.0
  0
LINE
  5
60F
330
1F
100
AcDbEntity
  8
1
  6
CONTINUOUS
370
50
 62
4
100
AcDbLine
 10
56.731167
 20
2.765515
 30
0.0
 11
56.69278
 21
2.802706
 31
0.0
  0
LINE
  5
610
330
1F
100
AcDbEntity
  8
1
  6
CONTINUOUS
370
50
 62
4
100
AcDbLine
 10
56.69278
 20
2.802706
 30
0.0
 11
56.654354
 21
2.839736
 31
0.0
  0
LINE
  5
611
330
1F
100
AcDbEntity
  8
1
  6
CONTINUOUS
370
50
 62
4
100
AcDbLine
 10
56.654354
 20
2.839736
 30
0.0
 11
56.615871
 21
2.876614
 31
0.0
  0
LINE
  5
612
330
1F
100
AcDbEntity
  8
1
  6
CONTINUOUS
370
50
 62
4
100
AcDbLine
 10
56.615871
 20
2.876614
 30
0.0
 11
56.57732
 21
2.913344
 31
0.0
  0
LINE
  5
613
330
1F
100
AcDbEntity
  8
1
  6
CONTINUOUS
370
50
 62
4
100
AcDbLine
 10
41.816982
 20
-2.555151
 30
0.0
 11
41.698524
 21
-2.442442
 31
0.0
  0
LINE
  5
614
330
1F
100
AcDbEntity
  8
1
  6
CONTINUOUS
370
50
 62
4
100
AcDbLine
 10
56.57732
 20
2.913344
 30
0.0
 11
56.538689
 21
2.949931
 31
0.0
  0
LINE
  5
615
330
1F
100
AcDbEntity
  8
1
  6
CONTINUOUS
370
50
 62
4
100
AcDbLine
 10
56.538689
 20
2.949931
 30
0.0
 11
56.499962
 21
2.986382
 31
0.0
  0
LINE
  5
616
330
1F
100
AcDbEntity
  8
1
  6
CONTINUOUS
370
50
 62
4
100
AcDbLine
 10
43.926163
 20
-1.328674
 30
0.0
 11
43.912304
 21
-1.315885
 31
0.0
  0
LINE
  5
617
330
1F
100
AcDbEntity
  8
1
  6
CONTINUOUS
370
50
 62
4
100
AcDbLine
 10
41.93158
 20
-2.656665
 30
0.0
 11
41.816982
 21
-2.555151
 31
0.0
  0
LINE
  5
618
330
1F
100
AcDbEntity
  8
1
  6
CONTINUOUS
370
50
 62
4
100
AcDbLine
 10
43.701679
 20
-1.151429
 30
0.0
 11
43.51582699999999
 21
-0.9881949999999999
 31
0.0
  0
LINE
  5
619
330
1F
100
AcDbEntity
  8
1
  6
CONTINUOUS
370
50
 62
4
100
AcDbLine
 10
43.940552
 20
-1.341304
 30
0.0
 11
43.926163
 21
-1.328674
 31
0.0
  0
LINE
  5
61A
330
1F
100
AcDbEntity
  8
1
  6
CONTINUOUS
370
50
 62
4
100
AcDbLine
 10
43.955296
 20
-1.353701
 30
0.0
 11
43.940552
 21
-1.341304
 31
0.0
  0
LINE
  5
61B
330
1F
100
AcDbEntity
  8
1
  6
CONTINUOUS
370
50
 62
4
100
AcDbLine
 10
43.970234
 20
-1.36579
 30
0.0
 11
43.955296
 21
-1.353701
 31
0.0
  0
LINE
  5
61C
330
1F
100
AcDbEntity
  8
1
  6
CONTINUOUS
370
50
 62
4
100
AcDbLine
 10
42.043858
 20
-2.746353
 30
0.0
 11
41.93158
 21
-2.656665
 31
0.0
  0
LINE
  5
61D
330
1F
100
AcDbEntity
  8
1
  6
CONTINUOUS
370
50
 62
4
100
AcDbLine
 10
43.985191
 20
-1.3775
 30
0.0
 11
43.970234
 21
-1.36579
 31
0.0
  0
LINE
  5
61E
330
1F
100
AcDbEntity
  8
1
  6
CONTINUOUS
370
50
 62
4
100
AcDbLine
 10
43.899143
 20
-1.303008
 30
0.0
 11
43.701679
 21
-1.151429
 31
0.0
  0
LINE
  5
61F
330
1F
100
AcDbEntity
  8
1
  6
CONTINUOUS
370
50
 62
4
100
AcDbLine
 10
44.0
 20
-1.388756
 30
0.0
 11
43.985191
 21
-1.3775
 31
0.0
  0
LINE
  5
620
330
1F
100
AcDbEntity
  8
1
  6
CONTINUOUS
370
50
 62
4
100
AcDbLine
 10
42.155289
 20
-2.823541
 30
0.0
 11
42.043858
 21
-2.746353
 31
0.0
  0
LINE
  5
621
330
1F
100
AcDbEntity
  8
1
  6
CONTINUOUS
370
50
 62
4
100
AcDbLine
 10
56.538689
 20
0.259328
 30
0.0
 11
56.499962
 21
0.285887
 31
0.0
  0
LINE
  5
622
330
1F
100
AcDbEntity
  8
1
  6
CONTINUOUS
370
50
 62
4
100
AcDbLine
 10
56.57732
 20
0.233358
 30
0.0
 11
56.538689
 21
0.259328
 31
0.0
  0
LINE
  5
623
330
1F
100
AcDbEntity
  8
1
  6
CONTINUOUS
370
50
 62
4
100
AcDbLine
 10
56.615871
 20
0.20798
 30
0.0
 11
56.57732
 21
0.233358
 31
0.0
  0
LINE
  5
624
330
1F
100
AcDbEntity
  8
1
  6
CONTINUOUS
370
50
 62
4
100
AcDbLine
 10
56.654354
 20
0.183195
 30
0.0
 11
56.615871
 21
0.20798
 31
0.0
  0
LINE
  5
625
330
1F
100
AcDbEntity
  8
1
  6
CONTINUOUS
370
50
 62
4
100
AcDbLine
 10
56.69278
 20
0.159004
 30
0.0
 11
56.654354
 21
0.183195
 31
0.0
  0
LINE
  5
626
330
1F
100
AcDbEntity
  8
1
  6
CONTINUOUS
370
50
 62
4
100
AcDbLine
 10
56.731167
 20
0.135409
 30
0.0
 11
56.69278
 21
0.159004
 31
0.0
  0
LINE
  5
627
330
1F
100
AcDbEntity
  8
1
  6
CONTINUOUS
370
50
 62
4
100
AcDbLine
 10
56.76952
 20
0.11241
 30
0.0
 11
56.731167
 21
0.135409
 31
0.0
  0
LINE
  5
628
330
1F
100
AcDbEntity
  8
1
  6
CONTINUOUS
370
50
 62
4
100
AcDbLine
 10
50.365326
 20
-0.395436
 30
0.0
 11
49.685799
 21
0.0
 31
0.0
  0
LINE
  5
629
330
1F
100
AcDbEntity
  8
1
  6
CONTINUOUS
370
50
 62
4
100
AcDbLine
 10
56.5
 20
0.286005
 30
0.0
 11
56.151283
 21
0.488718
 31
0.0
  0
LINE
  5
62A
330
1F
100
AcDbEntity
  8
1
  6
CONTINUOUS
370
50
 62
4
100
AcDbLine
 10
51.032215
 20
-0.779964
 30
0.0
 11
50.365326
 21
-0.395436
 31
0.0
  0
LINE
  5
62B
330
1F
100
AcDbEntity
  8
1
  6
CONTINUOUS
370
50
 62
4
100
AcDbLine
 10
47.931828
 20
0.510243
 30
0.0
 11
47.496387
 21
0.760234
 31
0.0
  0
LINE
  5
62C
330
1F
100
AcDbEntity
  8
1
  6
CONTINUOUS
370
50
 62
4
100
AcDbLine
 10
42.266022
 20
-2.886929
 30
0.0
 11
42.155289
 21
-2.823541
 31
0.0
  0
LINE
  5
62D
330
1F
100
AcDbEntity
  8
1
  6
CONTINUOUS
370
50
 62
4
100
AcDbLine
 10
49.685799
 20
0.0
 30
0.0
 11
49.37907
 21
0.175147
 31
0.0
  0
LINE
  5
62E
330
1F
100
AcDbEntity
  8
1
  6
CONTINUOUS
370
50
 62
4
100
AcDbLine
 10
48.379494
 20
0.255041
 30
0.0
 11
47.931828
 21
0.510243
 31
0.0
  0
LINE
  5
62F
330
1F
100
AcDbEntity
  8
1
  6
CONTINUOUS
370
50
 62
4
100
AcDbLine
 10
50.211334
 20
-0.7839149999999999
 30
0.0
 11
49.766811
 21
-0.5314329999999999
 31
0.0
  0
LINE
  5
630
330
1F
100
AcDbEntity
  8
1
  6
CONTINUOUS
370
50
 62
4
100
AcDbLine
 10
48.82859
 20
0.0
 30
0.0
 11
48.379494
 21
0.255041
 31
0.0
  0
LINE
  5
631
330
1F
100
AcDbEntity
  8
1
  6
CONTINUOUS
370
50
 62
4
100
AcDbLine
 10
48.853722
 20
-0.014249
 30
0.0
 11
48.848698
 21
-0.011399
 31
0.0
  0
LINE
  5
632
330
1F
100
AcDbEntity
  8
1
  6
CONTINUOUS
370
50
 62
4
100
AcDbLine
 10
48.838642
 20
-0.005699
 30
0.0
 11
48.833618
 21
-0.002849
 31
0.0
  0
LINE
  5
633
330
1F
100
AcDbEntity
  8
1
  6
CONTINUOUS
370
50
 62
4
100
AcDbLine
 10
48.858749
 20
-0.017099
 30
0.0
 11
48.853722
 21
-0.014249
 31
0.0
  0
LINE
  5
634
330
1F
100
AcDbEntity
  8
1
  6
CONTINUOUS
370
50
 62
4
100
AcDbLine
 10
48.848698
 20
-0.011399
 30
0.0
 11
48.838642
 21
-0.005699
 31
0.0
  0
LINE
  5
635
330
1F
100
AcDbEntity
  8
1
  6
CONTINUOUS
370
50
 62
4
100
AcDbLine
 10
48.833618
 20
-0.002849
 30
0.0
 11
48.82859
 21
0.0
 31
0.0
  0
LINE
  5
636
330
1F
100
AcDbEntity
  8
1
  6
CONTINUOUS
370
50
 62
4
100
AcDbLine
 10
49.312943
 20
-0.274414
 30
0.0
 11
48.858749
 21
-0.017099
 31
0.0
  0
LINE
  5
637
330
1F
100
AcDbEntity
  8
1
  6
CONTINUOUS
370
50
 62
4
100
AcDbLine
 10
49.766811
 20
-0.5314329999999999
 30
0.0
 11
49.312943
 21
-0.274414
 31
0.0
  0
LINE
  5
638
330
1F
100
AcDbEntity
  8
1
  6
CONTINUOUS
370
50
 62
4
100
AcDbLine
 10
49.37907
 20
0.175147
 30
0.0
 11
49.071442
 21
0.349167
 31
0.0
  0
LINE
  5
639
330
1F
100
AcDbEntity
  8
1
  6
CONTINUOUS
370
50
 62
4
100
AcDbLine
 10
56.151283
 20
0.488718
 30
0.0
 11
55.79916799999999
 21
0.687804
 31
0.0
  0
LINE
  5
63A
330
1F
100
AcDbEntity
  8
1
  6
CONTINUOUS
370
50
 62
4
100
AcDbLine
 10
56.5
 20
0.76533
 30
0.0
 11
56.251656
 21
0.905616
 31
0.0
  0
LINE
  5
63B
330
1F
100
AcDbEntity
  8
1
  6
CONTINUOUS
370
50
 62
4
100
AcDbLine
 10
47.496387
 20
0.760234
 30
0.0
 11
47.06562
 21
1.003563
 31
0.0
  0
LINE
  5
63C
330
1F
100
AcDbEntity
  8
1
  6
CONTINUOUS
370
50
 62
4
100
AcDbLine
 10
50.641968
 20
-1.026621
 30
0.0
 11
50.211334
 21
-0.7839149999999999
 31
0.0
  0
LINE
  5
63D
330
1F
100
AcDbEntity
  8
1
  6
CONTINUOUS
370
50
 62
4
100
AcDbLine
 10
49.071442
 20
0.349167
 30
0.0
 11
48.763943
 21
0.5216109999999999
 31
0.0
  0
LINE
  5
63E
330
1F
100
AcDbEntity
  8
1
  6
CONTINUOUS
370
50
 62
4
100
AcDbLine
 10
48.763943
 20
0.5216109999999999
 30
0.0
 11
48.457619
 21
0.69204
 31
0.0
  0
LINE
  5
63F
330
1F
100
AcDbEntity
  8
1
  6
CONTINUOUS
370
50
 62
4
100
AcDbLine
 10
48.457619
 20
0.69204
 30
0.0
 11
48.1525
 21
0.860587
 31
0.0
  0
LINE
  5
640
330
1F
100
AcDbEntity
  8
1
  6
CONTINUOUS
370
50
 62
4
100
AcDbLine
 10
55.79916799999999
 20
0.687804
 30
0.0
 11
55.445263
 21
0.88266
 31
0.0
  0
LINE
  5
641
330
1F
100
AcDbEntity
  8
1
  6
CONTINUOUS
370
50
 62
4
100
AcDbLine
 10
56.251656
 20
0.905616
 30
0.0
 11
56.001507
 21
1.042946
 31
0.0
  0
LINE
  5
642
330
1F
100
AcDbEntity
  8
1
  6
CONTINUOUS
370
50
 62
4
100
AcDbLine
 10
48.1525
 20
0.860587
 30
0.0
 11
47.847927
 21
1.027689
 31
0.0
  0
LINE
  5
643
330
1F
100
AcDbEntity
  8
1
  6
CONTINUOUS
370
50
 62
4
100
AcDbLine
 10
47.847927
 20
1.027689
 30
0.0
 11
47.544785
 21
1.192791
 31
0.0
  0
LINE
  5
644
330
1F
100
AcDbEntity
  8
1
  6
CONTINUOUS
370
50
 62
4
100
AcDbLine
 10
51.70903
 20
-1.147376
 30
0.0
 11
51.032215
 21
-0.779964
 31
0.0
  0
LINE
  5
645
330
1F
100
AcDbEntity
  8
1
  6
CONTINUOUS
370
50
 62
4
100
AcDbLine
 10
51.075294
 20
-1.261008
 30
0.0
 11
50.641968
 21
-1.026621
 31
0.0
  0
LINE
  5
646
330
1F
100
AcDbEntity
  8
1
  6
CONTINUOUS
370
50
 62
4
100
AcDbLine
 10
47.06562
 20
1.003563
 30
0.0
 11
46.624573
 21
1.241036
 31
0.0
  0
LINE
  5
647
330
1F
100
AcDbEntity
  8
1
  6
CONTINUOUS
370
50
 62
4
100
AcDbLine
 10
55.445263
 20
0.88266
 30
0.0
 11
55.091187
 21
1.072684
 31
0.0
  0
LINE
  5
648
330
1F
100
AcDbEntity
  8
1
  6
CONTINUOUS
370
50
 62
4
100
AcDbLine
 10
47.544785
 20
1.192791
 30
0.0
 11
47.243977
 21
1.353884
 31
0.0
  0
LINE
  5
649
330
1F
100
AcDbEntity
  8
1
  6
CONTINUOUS
370
50
 62
4
100
AcDbLine
 10
56.001507
 20
1.042946
 30
0.0
 11
55.750153
 21
1.177129
 31
0.0
  0
LINE
  5
64A
330
1F
100
AcDbEntity
  8
1
  6
CONTINUOUS
370
50
 62
4
100
AcDbLine
 10
55.091187
 20
1.072684
 30
0.0
 11
54.73856
 21
1.257271
 31
0.0
  0
LINE
  5
64B
330
1F
100
AcDbEntity
  8
1
  6
CONTINUOUS
370
50
 62
4
100
AcDbLine
 10
55.750153
 20
1.177129
 30
0.0
 11
55.49818399999999
 21
1.307974
 31
0.0
  0
LINE
  5
64C
330
1F
100
AcDbEntity
  8
1
  6
CONTINUOUS
370
50
 62
4
100
AcDbLine
 10
47.243977
 20
1.353884
 30
0.0
 11
46.941029
 21
1.510774
 31
0.0
  0
LINE
  5
64D
330
1F
100
AcDbEntity
  8
1
  6
CONTINUOUS
370
50
 62
4
100
AcDbLine
 10
51.510628
 20
-1.483524
 30
0.0
 11
51.075294
 21
-1.261008
 31
0.0
  0
LINE
  5
64E
330
1F
100
AcDbEntity
  8
1
  6
CONTINUOUS
370
50
 62
4
100
AcDbLine
 10
54.73856
 20
1.257271
 30
0.0
 11
54.388966
 21
1.435832
 31
0.0
  0
LINE
  5
64F
330
1F
100
AcDbEntity
  8
1
  6
CONTINUOUS
370
50
 62
4
100
AcDbLine
 10
52.37038399999999
 20
-1.48477
 30
0.0
 11
51.70903
 21
-1.147376
 31
0.0
  0
LINE
  5
650
330
1F
100
AcDbEntity
  8
1
  6
CONTINUOUS
370
50
 62
4
100
AcDbLine
 10
46.624573
 20
1.241036
 30
0.0
 11
46.178791
 21
1.468352
 31
0.0
  0
LINE
  5
651
330
1F
100
AcDbEntity
  8
1
  6
CONTINUOUS
370
50
 62
4
100
AcDbLine
 10
56.769543
 20
0.112544
 30
0.0
 11
56.70343399999999
 21
0.146228
 31
0.0
  0
LINE
  5
652
330
1F
100
AcDbEntity
  8
1
  6
CONTINUOUS
370
50
 62
4
100
AcDbLine
 10
56.70343399999999
 20
0.146228
 30
0.0
 11
56.658638
 21
0.169036
 31
0.0
  0
LINE
  5
653
330
1F
100
AcDbEntity
  8
1
  6
CONTINUOUS
370
50
 62
4
100
AcDbLine
 10
56.658638
 20
0.169036
 30
0.0
 11
56.616924
 21
0.190267
 31
0.0
  0
LINE
  5
654
330
1F
100
AcDbEntity
  8
1
  6
CONTINUOUS
370
50
 62
4
100
AcDbLine
 10
56.616924
 20
0.190267
 30
0.0
 11
56.570709
 21
0.213782
 31
0.0
  0
LINE
  5
655
330
1F
100
AcDbEntity
  8
1
  6
CONTINUOUS
370
50
 62
4
100
AcDbLine
 10
56.570709
 20
0.213782
 30
0.0
 11
56.519653
 21
0.239759
 31
0.0
  0
LINE
  5
656
330
1F
100
AcDbEntity
  8
1
  6
CONTINUOUS
370
50
 62
4
100
AcDbLine
 10
56.519653
 20
0.239759
 30
0.0
 11
56.464081
 21
0.268026
 31
0.0
  0
LINE
  5
657
330
1F
100
AcDbEntity
  8
1
  6
CONTINUOUS
370
50
 62
4
100
AcDbLine
 10
56.464081
 20
0.268026
 30
0.0
 11
56.407661
 21
0.296724
 31
0.0
  0
LINE
  5
658
330
1F
100
AcDbEntity
  8
1
  6
CONTINUOUS
370
50
 62
4
100
AcDbLine
 10
56.407661
 20
0.296724
 30
0.0
 11
56.35146
 21
0.325307
 31
0.0
  0
LINE
  5
659
330
1F
100
AcDbEntity
  8
1
  6
CONTINUOUS
370
50
 62
4
100
AcDbLine
 10
56.29528
 20
0.353877
 30
0.0
 11
56.239002
 21
0.382497
 31
0.0
  0
LINE
  5
65A
330
1F
100
AcDbEntity
  8
1
  6
CONTINUOUS
370
50
 62
4
100
AcDbLine
 10
56.35146
 20
0.325307
 30
0.0
 11
56.29528
 21
0.353877
 31
0.0
  0
LINE
  5
65B
330
1F
100
AcDbEntity
  8
1
  6
CONTINUOUS
370
50
 62
4
100
AcDbLine
 10
56.068226
 20
0.469339
 30
0.0
 11
56.01235999999999
 21
0.497749
 31
0.0
  0
LINE
  5
65C
330
1F
100
AcDbEntity
  8
1
  6
CONTINUOUS
370
50
 62
4
100
AcDbLine
 10
55.745811
 20
0.6332909999999999
 30
0.0
 11
55.673523
 21
0.670052
 31
0.0
  0
LINE
  5
65D
330
1F
100
AcDbEntity
  8
1
  6
CONTINUOUS
370
50
 62
4
100
AcDbLine
 10
56.239002
 20
0.382497
 30
0.0
 11
56.181904
 21
0.411533
 31
0.0
  0
LINE
  5
65E
330
1F
100
AcDbEntity
  8
1
  6
CONTINUOUS
370
50
 62
4
100
AcDbLine
 10
55.88567
 20
0.562171
 30
0.0
 11
55.816872
 21
0.597156
 31
0.0
  0
LINE
  5
65F
330
1F
100
AcDbEntity
  8
1
  6
CONTINUOUS
370
50
 62
4
100
AcDbLine
 10
56.181904
 20
0.411533
 30
0.0
 11
56.124008
 21
0.440974
 31
0.0
  0
LINE
  5
660
330
1F
100
AcDbEntity
  8
1
  6
CONTINUOUS
370
50
 62
4
100
AcDbLine
 10
55.816872
 20
0.597156
 30
0.0
 11
55.745811
 21
0.6332909999999999
 31
0.0
  0
LINE
  5
661
330
1F
100
AcDbEntity
  8
1
  6
CONTINUOUS
370
50
 62
4
100
AcDbLine
 10
55.951176
 20
0.528861
 30
0.0
 11
55.88567
 21
0.562171
 31
0.0
  0
LINE
  5
662
330
1F
100
AcDbEntity
  8
1
  6
CONTINUOUS
370
50
 62
4
100
AcDbLine
 10
56.01235999999999
 20
0.497749
 30
0.0
 11
55.951176
 21
0.528861
 31
0.0
  0
LINE
  5
663
330
1F
100
AcDbEntity
  8
1
  6
CONTINUOUS
370
50
 62
4
100
AcDbLine
 10
56.124008
 20
0.440974
 30
0.0
 11
56.068226
 21
0.469339
 31
0.0
  0
LINE
  5
664
330
1F
100
AcDbEntity
  8
1
  6
CONTINUOUS
370
50
 62
4
100
AcDbLine
 10
56.994026
 20
-0.001213
 30
0.0
 11
56.992832
 21
-0.000606
 31
0.0
  0
LINE
  5
665
330
1F
100
AcDbEntity
  8
1
  6
CONTINUOUS
370
50
 62
4
100
AcDbLine
 10
56.996418
 20
-0.002424
 30
0.0
 11
56.995224
 21
-0.001818
 31
0.0
  0
LINE
  5
666
330
1F
100
AcDbEntity
  8
1
  6
CONTINUOUS
370
50
 62
4
100
AcDbLine
 10
56.930038
 20
0.031212
 30
0.0
 11
56.898697
 21
0.047095
 31
0.0
  0
LINE
  5
667
330
1F
100
AcDbEntity
  8
1
  6
CONTINUOUS
370
50
 62
4
100
AcDbLine
 10
56.834888
 20
0.07943
 30
0.0
 11
56.802418
 21
0.095885
 31
0.0
  0
LINE
  5
668
330
1F
100
AcDbEntity
  8
1
  6
CONTINUOUS
370
50
 62
4
100
AcDbLine
 10
56.898697
 20
0.047095
 30
0.0
 11
56.866982
 21
0.063167
 31
0.0
  0
LINE
  5
669
330
1F
100
AcDbEntity
  8
1
  6
CONTINUOUS
370
50
 62
4
100
AcDbLine
 10
56.802418
 20
0.095885
 30
0.0
 11
56.769558
 21
0.112537
 31
0.0
  0
LINE
  5
66A
330
1F
100
AcDbEntity
  8
1
  6
CONTINUOUS
370
50
 62
4
100
AcDbLine
 10
56.866982
 20
0.063167
 30
0.0
 11
56.834888
 21
0.07943
 31
0.0
  0
LINE
  5
66B
330
1F
100
AcDbEntity
  8
1
  6
CONTINUOUS
370
50
 62
4
100
AcDbLine
 10
56.991634
 20
0.0
 30
0.0
 11
56.961018
 21
0.015514
 31
0.0
  0
LINE
  5
66C
330
1F
100
AcDbEntity
  8
1
  6
CONTINUOUS
370
50
 62
4
100
AcDbLine
 10
56.961018
 20
0.015514
 30
0.0
 11
56.930038
 21
0.031212
 31
0.0
  0
LINE
  5
66D
330
1F
100
AcDbEntity
  8
1
  6
CONTINUOUS
370
50
 62
4
100
AcDbLine
 10
57.0
 20
-0.004239
 30
0.0
 11
56.996418
 21
-0.002424
 31
0.0
  0
LINE
  5
66E
330
1F
100
AcDbEntity
  8
1
  6
CONTINUOUS
370
50
 62
4
100
AcDbLine
 10
56.992832
 20
-0.000606
 30
0.0
 11
56.991634
 21
0.0
 31
0.0
  0
LINE
  5
66F
330
1F
100
AcDbEntity
  8
1
  6
CONTINUOUS
370
50
 62
4
100
AcDbLine
 10
55.49818399999999
 20
1.307974
 30
0.0
 11
55.24618899999999
 21
1.435292
 31
0.0
  0
LINE
  5
670
330
1F
100
AcDbEntity
  8
1
  6
CONTINUOUS
370
50
 62
4
100
AcDbLine
 10
56.995224
 20
-0.001818
 30
0.0
 11
56.994026
 21
-0.001213
 31
0.0
  0
LINE
  5
671
330
1F
100
AcDbEntity
  8
1
  6
CONTINUOUS
370
50
 62
4
100
AcDbLine
 10
44.804699
 20
-1.780591
 30
0.0
 11
44.0
 21
-1.378176
 31
0.0
  0
LINE
  5
672
330
1F
100
AcDbEntity
  8
1
  6
CONTINUOUS
370
50
 62
4
100
AcDbLine
 10
54.388966
 20
1.435832
 30
0.0
 11
54.041397
 21
1.609074
 31
0.0
  0
LINE
  5
673
330
1F
100
AcDbEntity
  8
1
  6
CONTINUOUS
370
50
 62
4
100
AcDbLine
 10
46.941029
 20
1.510774
 30
0.0
 11
46.630077
 21
1.66415
 31
0.0
  0
LINE
  5
674
330
1F
100
AcDbEntity
  8
1
  6
CONTINUOUS
370
50
 62
4
100
AcDbLine
 10
55.24618899999999
 20
1.435292
 30
0.0
 11
54.994766
 21
1.558892
 31
0.0
  0
LINE
  5
675
330
1F
100
AcDbEntity
  8
1
  6
CONTINUOUS
370
50
 62
4
100
AcDbLine
 10
54.041397
 20
1.609074
 30
0.0
 11
53.695305
 21
1.777141
 31
0.0
  0
LINE
  5
676
330
1F
100
AcDbEntity
  8
1
  6
CONTINUOUS
370
50
 62
4
100
AcDbLine
 10
46.178791
 20
1.468352
 30
0.0
 11
45.731483
 21
1.684327
 31
0.0
  0
LINE
  5
677
330
1F
100
AcDbEntity
  8
1
  6
CONTINUOUS
370
50
 62
4
100
AcDbLine
 10
51.94817
 20
-1.694613
 30
0.0
 11
51.510628
 21
-1.483524
 31
0.0
  0
LINE
  5
678
330
1F
100
AcDbEntity
  8
1
  6
CONTINUOUS
370
50
 62
4
100
AcDbLine
 10
52.939789
 20
-1.759375
 30
0.0
 11
52.37038399999999
 21
-1.48477
 31
0.0
  0
LINE
  5
679
330
1F
100
AcDbEntity
  8
1
  6
CONTINUOUS
370
50
 62
4
100
AcDbLine
 10
54.994766
 20
1.558892
 30
0.0
 11
54.744499
 21
1.678583
 31
0.0
  0
LINE
  5
67A
330
1F
100
AcDbEntity
  8
1
  6
CONTINUOUS
370
50
 62
4
100
AcDbLine
 10
43.912304
 20
2.695948
 30
0.0
 11
43.899143
 21
2.702197
 31
0.0
  0
LINE
  5
67B
330
1F
100
AcDbEntity
  8
1
  6
CONTINUOUS
370
50
 62
4
100
AcDbLine
 10
46.630077
 20
1.66415
 30
0.0
 11
46.31222899999999
 21
1.812518
 31
0.0
  0
LINE
  5
67C
330
1F
100
AcDbEntity
  8
1
  6
CONTINUOUS
370
50
 62
4
100
AcDbLine
 10
54.744499
 20
1.678583
 30
0.0
 11
54.495655
 21
1.794342
 31
0.0
  0
LINE
  5
67D
330
1F
100
AcDbEntity
  8
1
  6
CONTINUOUS
370
50
 62
4
100
AcDbLine
 10
53.695305
 20
1.777141
 30
0.0
 11
53.346306
 21
1.938931
 31
0.0
  0
LINE
  5
67E
330
1F
100
AcDbEntity
  8
1
  6
CONTINUOUS
370
50
 62
4
100
AcDbLine
 10
44.384315
 20
-1.968059
 30
0.0
 11
44.0
 21
-1.791227
 31
0.0
  0
LINE
  5
67F
330
1F
100
AcDbEntity
  8
1
  6
CONTINUOUS
370
50
 62
4
100
AcDbLine
 10
53.39706
 20
-1.968228
 30
0.0
 11
52.939789
 21
-1.759375
 31
0.0
  0
LINE
  5
680
330
1F
100
AcDbEntity
  8
1
  6
CONTINUOUS
370
50
 62
4
100
AcDbLine
 10
45.731483
 20
1.684327
 30
0.0
 11
45.285618
 21
1.887898
 31
0.0
  0
LINE
  5
681
330
1F
100
AcDbEntity
  8
1
  6
CONTINUOUS
370
50
 62
4
100
AcDbLine
 10
52.386478
 20
-1.893967
 30
0.0
 11
51.94817
 21
-1.694613
 31
0.0
  0
LINE
  5
682
330
1F
100
AcDbEntity
  8
1
  6
CONTINUOUS
370
50
 62
4
100
AcDbLine
 10
43.926163
 20
2.689663
 30
0.0
 11
43.912304
 21
2.695948
 31
0.0
  0
LINE
  5
683
330
1F
100
AcDbEntity
  8
1
  6
CONTINUOUS
370
50
 62
4
100
AcDbLine
 10
54.495655
 20
1.794342
 30
0.0
 11
54.247101
 21
1.906784
 31
0.0
  0
LINE
  5
684
330
1F
100
AcDbEntity
  8
1
  6
CONTINUOUS
370
50
 62
4
100
AcDbLine
 10
42.377174
 20
-2.936196
 30
0.0
 11
42.266022
 21
-2.886929
 31
0.0
  0
LINE
  5
685
330
1F
100
AcDbEntity
  8
1
  6
CONTINUOUS
370
50
 62
4
100
AcDbLine
 10
46.31222899999999
 20
1.812518
 30
0.0
 11
45.993015
 21
1.953794
 31
0.0
  0
LINE
  5
686
330
1F
100
AcDbEntity
  8
1
  6
CONTINUOUS
370
50
 62
4
100
AcDbLine
 10
54.247101
 20
1.906784
 30
0.0
 11
53.999111
 21
2.015749
 31
0.0
  0
LINE
  5
687
330
1F
100
AcDbEntity
  8
1
  6
CONTINUOUS
370
50
 62
4
100
AcDbLine
 10
43.940552
 20
2.683384
 30
0.0
 11
43.926163
 21
2.689663
 31
0.0
  0
LINE
  5
688
330
1F
100
AcDbEntity
  8
1
  6
CONTINUOUS
370
50
 62
4
100
AcDbLine
 10
53.730759
 20
-2.112685
 30
0.0
 11
53.39706
 21
-1.968228
 31
0.0
  0
LINE
  5
689
330
1F
100
AcDbEntity
  8
1
  6
CONTINUOUS
370
50
 62
4
100
AcDbLine
 10
45.612095
 20
-2.129919
 30
0.0
 11
44.804699
 21
-1.780591
 31
0.0
  0
LINE
  5
68A
330
1F
100
AcDbEntity
  8
1
  6
CONTINUOUS
370
50
 62
4
100
AcDbLine
 10
53.346306
 20
1.938931
 30
0.0
 11
52.988316
 21
2.093727
 31
0.0
  0
LINE
  5
68B
330
1F
100
AcDbEntity
  8
1
  6
CONTINUOUS
370
50
 62
4
100
AcDbLine
 10
45.285618
 20
1.887898
 30
0.0
 11
44.844963
 21
2.077784
 31
0.0
  0
LINE
  5
68C
330
1F
100
AcDbEntity
  8
1
  6
CONTINUOUS
370
50
 62
4
100
AcDbLine
 10
48.048962
 20
0.329622
 30
0.0
 11
47.239166
 21
0.6784009999999999
 31
0.0
  0
LINE
  5
68D
330
1F
100
AcDbEntity
  8
1
  6
CONTINUOUS
370
50
 62
4
100
AcDbLine
 10
44.77204099999999
 20
-2.134267
 30
0.0
 11
44.384315
 21
-1.968059
 31
0.0
  0
LINE
  5
68E
330
1F
100
AcDbEntity
  8
1
  6
CONTINUOUS
370
50
 62
4
100
AcDbLine
 10
48.858761
 20
-0.017065
 30
0.0
 11
48.048962
 21
0.329622
 31
0.0
  0
LINE
  5
68F
330
1F
100
AcDbEntity
  8
1
  6
CONTINUOUS
370
50
 62
4
100
AcDbLine
 10
52.822025
 20
-2.080342
 30
0.0
 11
52.386478
 21
-1.893967
 31
0.0
  0
LINE
  5
690
330
1F
100
AcDbEntity
  8
1
  6
CONTINUOUS
370
50
 62
4
100
AcDbLine
 10
53.999111
 20
2.015749
 30
0.0
 11
53.748455
 21
2.122547
 31
0.0
  0
LINE
  5
691
330
1F
100
AcDbEntity
  8
1
  6
CONTINUOUS
370
50
 62
4
100
AcDbLine
 10
43.955296
 20
2.677152
 30
0.0
 11
43.940552
 21
2.683384
 31
0.0
  0
LINE
  5
692
330
1F
100
AcDbEntity
  8
1
  6
CONTINUOUS
370
50
 62
4
100
AcDbLine
 10
45.993015
 20
1.953794
 30
0.0
 11
45.673595
 21
2.087643
 31
0.0
  0
LINE
  5
693
330
1F
100
AcDbEntity
  8
1
  6
CONTINUOUS
370
50
 62
4
100
AcDbLine
 10
43.970234
 20
2.671007
 30
0.0
 11
43.955296
 21
2.677152
 31
0.0
  0
LINE
  5
694
330
1F
100
AcDbEntity
  8
1
  6
CONTINUOUS
370
50
 62
4
100
AcDbLine
 10
55.82884199999999
 20
0.501252
 30
0.0
 11
55.152828
 21
0.7789769999999999
 31
0.0
  0
LINE
  5
695
330
1F
100
AcDbEntity
  8
1
  6
CONTINUOUS
370
50
 62
4
100
AcDbLine
 10
53.964447
 20
-2.208181
 30
0.0
 11
53.730759
 21
-2.112685
 31
0.0
  0
LINE
  5
696
330
1F
100
AcDbEntity
  8
1
  6
CONTINUOUS
370
50
 62
4
100
AcDbLine
 10
44.844963
 20
2.077784
 30
0.0
 11
44.419777
 21
2.250416
 31
0.0
  0
LINE
  5
697
330
1F
100
AcDbEntity
  8
1
  6
CONTINUOUS
370
50
 62
4
100
AcDbLine
 10
47.239166
 20
0.6784009999999999
 30
0.0
 11
46.429379
 21
1.006517
 31
0.0
  0
LINE
  5
698
330
1F
100
AcDbEntity
  8
1
  6
CONTINUOUS
370
50
 62
4
100
AcDbLine
 10
53.748455
 20
2.122547
 30
0.0
 11
53.390026
 21
2.267297
 31
0.0
  0
LINE
  5
699
330
1F
100
AcDbEntity
  8
1
  6
CONTINUOUS
370
50
 62
4
100
AcDbLine
 10
43.985191
 20
2.664992
 30
0.0
 11
43.970234
 21
2.671007
 31
0.0
  0
LINE
  5
69A
330
1F
100
AcDbEntity
  8
1
  6
CONTINUOUS
370
50
 62
4
100
AcDbLine
 10
53.242916
 20
-2.24955
 30
0.0
 11
52.822025
 21
-2.080342
 31
0.0
  0
LINE
  5
69B
330
1F
100
AcDbEntity
  8
1
  6
CONTINUOUS
370
50
 62
4
100
AcDbLine
 10
52.988316
 20
2.093727
 30
0.0
 11
52.617832
 21
2.241027
 31
0.0
  0
LINE
  5
69C
330
1F
100
AcDbEntity
  8
1
  6
CONTINUOUS
370
50
 62
4
100
AcDbLine
 10
45.673595
 20
2.087643
 30
0.0
 11
45.355129
 21
2.21373
 31
0.0
  0
LINE
  5
69D
330
1F
100
AcDbEntity
  8
1
  6
CONTINUOUS
370
50
 62
4
100
AcDbLine
 10
44.0
 20
2.659146
 30
0.0
 11
43.985191
 21
2.664992
 31
0.0
  0
LINE
  5
69E
330
1F
100
AcDbEntity
  8
1
  6
CONTINUOUS
370
50
 62
4
100
AcDbLine
 10
55.152828
 20
0.7789769999999999
 30
0.0
 11
54.476803
 21
1.043758
 31
0.0
  0
LINE
  5
69F
330
1F
100
AcDbEntity
  8
1
  6
CONTINUOUS
370
50
 62
4
100
AcDbLine
 10
45.173168
 20
-2.290395
 30
0.0
 11
44.77204099999999
 21
-2.134267
 31
0.0
  0
LINE
  5
6A0
330
1F
100
AcDbEntity
  8
1
  6
CONTINUOUS
370
50
 62
4
100
AcDbLine
 10
54.192913
 20
-2.296004
 30
0.0
 11
53.964447
 21
-2.208181
 31
0.0
  0
LINE
  5
6A1
330
1F
100
AcDbEntity
  8
1
  6
CONTINUOUS
370
50
 62
4
100
AcDbLine
 10
54.476803
 20
1.043758
 30
0.0
 11
53.80077
 21
1.296009
 31
0.0
  0
LINE
  5
6A2
330
1F
100
AcDbEntity
  8
1
  6
CONTINUOUS
370
50
 62
4
100
AcDbLine
 10
45.355129
 20
2.21373
 30
0.0
 11
45.037823
 21
2.332073
 31
0.0
  0
LINE
  5
6A3
330
1F
100
AcDbEntity
  8
1
  6
CONTINUOUS
370
50
 62
4
100
AcDbLine
 10
53.650173
 20
-2.401011
 30
0.0
 11
53.242916
 21
-2.24955
 31
0.0
  0
LINE
  5
6A4
330
1F
100
AcDbEntity
  8
1
  6
CONTINUOUS
370
50
 62
4
100
AcDbLine
 10
44.419777
 20
2.250416
 30
0.0
 11
44.0
 21
2.40643
 31
0.0
  0
LINE
  5
6A5
330
1F
100
AcDbEntity
  8
1
  6
CONTINUOUS
370
50
 62
4
100
AcDbLine
 10
46.019604
 20
-0.009296
 30
0.0
 11
46.019585
 21
-0.009289
 31
0.0
  0
LINE
  5
6A6
330
1F
100
AcDbEntity
  8
1
  6
CONTINUOUS
370
50
 62
4
100
AcDbLine
 10
46.019562
 20
-0.009283
 30
0.0
 11
46.019543
 21
-0.009276
 31
0.0
  0
LINE
  5
6A7
330
1F
100
AcDbEntity
  8
1
  6
CONTINUOUS
370
50
 62
4
100
AcDbLine
 10
46.423832
 20
-2.428433
 30
0.0
 11
45.612095
 21
-2.129919
 31
0.0
  0
LINE
  5
6A8
330
1F
100
AcDbEntity
  8
1
  6
CONTINUOUS
370
50
 62
4
100
AcDbLine
 10
46.429379
 20
1.006517
 30
0.0
 11
45.619591
 21
1.303796
 31
0.0
  0
LINE
  5
6A9
330
1F
100
AcDbEntity
  8
1
  6
CONTINUOUS
370
50
 62
4
100
AcDbLine
 10
52.617832
 20
2.241027
 30
0.0
 11
52.24122999999999
 21
2.377759
 31
0.0
  0
LINE
  5
6AA
330
1F
100
AcDbEntity
  8
1
  6
CONTINUOUS
370
50
 62
4
100
AcDbLine
 10
54.421947
 20
-2.378709
 30
0.0
 11
54.192913
 21
-2.296004
 31
0.0
  0
LINE
  5
6AB
330
1F
100
AcDbEntity
  8
1
  6
CONTINUOUS
370
50
 62
4
100
AcDbLine
 10
53.390026
 20
2.267297
 30
0.0
 11
52.88641
 21
2.448278
 31
0.0
  0
LINE
  5
6AC
330
1F
100
AcDbEntity
  8
1
  6
CONTINUOUS
370
50
 62
4
100
AcDbLine
 10
45.58046299999999
 20
-2.4333
 30
0.0
 11
45.173168
 21
-2.290395
 31
0.0
  0
LINE
  5
6AD
330
1F
100
AcDbEntity
  8
1
  6
CONTINUOUS
370
50
 62
4
100
AcDbLine
 10
45.037823
 20
2.332073
 30
0.0
 11
44.721241
 21
2.442776
 31
0.0
  0
LINE
  5
6AE
330
1F
100
AcDbEntity
  8
1
  6
CONTINUOUS
370
50
 62
4
100
AcDbLine
 10
53.80077
 20
1.296009
 30
0.0
 11
53.124744
 21
1.529901
 31
0.0
  0
LINE
  5
6AF
330
1F
100
AcDbEntity
  8
1
  6
CONTINUOUS
370
50
 62
4
100
AcDbLine
 10
43.899143
 20
2.702197
 30
0.0
 11
43.724777
 21
2.762392
 31
0.0
  0
LINE
  5
6B0
330
1F
100
AcDbEntity
  8
1
  6
CONTINUOUS
370
50
 62
4
100
AcDbLine
 10
43.724777
 20
2.762392
 30
0.0
 11
43.559536
 21
2.81832
 31
0.0
  0
LINE
  5
6B1
330
1F
100
AcDbEntity
  8
1
  6
CONTINUOUS
370
50
 62
4
100
AcDbLine
 10
54.651169
 20
-2.456286
 30
0.0
 11
54.421947
 21
-2.378709
 31
0.0
  0
LINE
  5
6B2
330
1F
100
AcDbEntity
  8
1
  6
CONTINUOUS
370
50
 62
4
100
AcDbLine
 10
54.05218499999999
 20
-2.535319
 30
0.0
 11
53.650173
 21
-2.401011
 31
0.0
  0
LINE
  5
6B3
330
1F
100
AcDbEntity
  8
1
  6
CONTINUOUS
370
50
 62
4
100
AcDbLine
 10
45.619591
 20
1.303796
 30
0.0
 11
44.80979199999999
 21
1.572049
 31
0.0
  0
LINE
  5
6B4
330
1F
100
AcDbEntity
  8
1
  6
CONTINUOUS
370
50
 62
4
100
AcDbLine
 10
52.24122999999999
 20
2.377759
 30
0.0
 11
51.863766
 21
2.502254
 31
0.0
  0
LINE
  5
6B5
330
1F
100
AcDbEntity
  8
1
  6
CONTINUOUS
370
50
 62
4
100
AcDbLine
 10
44.721241
 20
2.442776
 30
0.0
 11
44.40605499999999
 21
2.545399
 31
0.0
  0
LINE
  5
6B6
330
1F
100
AcDbEntity
  8
1
  6
CONTINUOUS
370
50
 62
4
100
AcDbLine
 10
43.559536
 20
2.81832
 30
0.0
 11
43.402431
 21
2.869003
 31
0.0
  0
LINE
  5
6B7
330
1F
100
AcDbEntity
  8
1
  6
CONTINUOUS
370
50
 62
4
100
AcDbLine
 10
54.169071
 20
-0.009664
 30
0.0
 11
53.35902
 21
0.250855
 31
0.0
  0
LINE
  5
6B8
330
1F
100
AcDbEntity
  8
1
  6
CONTINUOUS
370
50
 62
4
100
AcDbLine
 10
54.881271
 20
-2.529084
 30
0.0
 11
54.651169
 21
-2.456286
 31
0.0
  0
LINE
  5
6B9
330
1F
100
AcDbEntity
  8
1
  6
CONTINUOUS
370
50
 62
4
100
AcDbLine
 10
54.584167
 20
-0.140223
 30
0.0
 11
54.169071
 21
-0.009664
 31
0.0
  0
LINE
  5
6BA
330
1F
100
AcDbEntity
  8
1
  6
CONTINUOUS
370
50
 62
4
100
AcDbLine
 10
54.586742
 20
-0.140834
 30
0.0
 11
54.168724
 21
-0.009585
 31
0.0
  0
LINE
  5
6BB
330
1F
100
AcDbEntity
  8
1
  6
CONTINUOUS
370
50
 62
4
100
AcDbLine
 10
45.989811
 20
-2.561768
 30
0.0
 11
45.58046299999999
 21
-2.4333
 31
0.0
  0
LINE
  5
6BC
330
1F
100
AcDbEntity
  8
1
  6
CONTINUOUS
370
50
 62
4
100
AcDbLine
 10
46.912785
 20
-0.288473
 30
0.0
 11
46.019554
 21
-0.009354
 31
0.0
  0
LINE
  5
6BD
330
1F
100
AcDbEntity
  8
1
  6
CONTINUOUS
370
50
 62
4
100
AcDbLine
 10
46.91048
 20
-0.287045
 30
0.0
 11
46.01965
 21
-0.009292
 31
0.0
  0
LINE
  5
6BE
330
1F
100
AcDbEntity
  8
1
  6
CONTINUOUS
370
50
 62
4
100
AcDbLine
 10
47.78560299999999
 20
-0.5593359999999999
 30
0.0
 11
46.91048
 21
-0.287045
 31
0.0
  0
LINE
  5
6BF
330
1F
100
AcDbEntity
  8
1
  6
CONTINUOUS
370
50
 62
4
100
AcDbLine
 10
47.80595
 20
-0.566279
 30
0.0
 11
46.912785
 21
-0.288473
 31
0.0
  0
LINE
  5
6C0
330
1F
100
AcDbEntity
  8
1
  6
CONTINUOUS
370
50
 62
4
100
AcDbLine
 10
42.490395
 20
-2.971409
 30
0.0
 11
42.377174
 21
-2.936196
 31
0.0
  0
LINE
  5
6C1
330
1F
100
AcDbEntity
  8
1
  6
CONTINUOUS
370
50
 62
4
100
AcDbLine
 10
46.019554
 20
-0.009354
 30
0.0
 11
45.682949
 21
0.095305
 31
0.0
  0
LINE
  5
6C2
330
1F
100
AcDbEntity
  8
1
  6
CONTINUOUS
370
50
 62
4
100
AcDbLine
 10
45.682949
 20
0.095305
 30
0.0
 11
45.346363
 21
0.199729
 31
0.0
  0
LINE
  5
6C3
330
1F
100
AcDbEntity
  8
1
  6
CONTINUOUS
370
50
 62
4
100
AcDbLine
 10
45.346363
 20
0.199729
 30
0.0
 11
45.009781
 21
0.303985
 31
0.0
  0
LINE
  5
6C4
330
1F
100
AcDbEntity
  8
1
  6
CONTINUOUS
370
50
 62
4
100
AcDbLine
 10
45.009781
 20
0.303985
 30
0.0
 11
44.673203
 21
0.408142
 31
0.0
  0
LINE
  5
6C5
330
1F
100
AcDbEntity
  8
1
  6
CONTINUOUS
370
50
 62
4
100
AcDbLine
 10
44.673203
 20
0.408142
 30
0.0
 11
44.336613
 21
0.512269
 31
0.0
  0
LINE
  5
6C6
330
1F
100
AcDbEntity
  8
1
  6
CONTINUOUS
370
50
 62
4
100
AcDbLine
 10
54.999283
 20
-0.268624
 30
0.0
 11
54.584167
 21
-0.140223
 31
0.0
  0
LINE
  5
6C7
330
1F
100
AcDbEntity
  8
1
  6
CONTINUOUS
370
50
 62
4
100
AcDbLine
 10
55.00544
 20
-0.270039
 30
0.0
 11
54.586742
 21
-0.140834
 31
0.0
  0
LINE
  5
6C8
330
1F
100
AcDbEntity
  8
1
  6
CONTINUOUS
370
50
 62
4
100
AcDbLine
 10
53.35902
 20
0.250855
 30
0.0
 11
52.548897
 21
0.5002489999999999
 31
0.0
  0
LINE
  5
6C9
330
1F
100
AcDbEntity
  8
1
  6
CONTINUOUS
370
50
 62
4
100
AcDbLine
 10
44.336613
 20
0.512269
 30
0.0
 11
44.0
 21
0.615134
 31
0.0
  0
LINE
  5
6CA
330
1F
100
AcDbEntity
  8
1
  6
CONTINUOUS
370
50
 62
4
100
AcDbLine
 10
55.41444
 20
-0.395142
 30
0.0
 11
54.999283
 21
-0.268624
 31
0.0
  0
LINE
  5
6CB
330
1F
100
AcDbEntity
  8
1
  6
CONTINUOUS
370
50
 62
4
100
AcDbLine
 10
47.21196399999999
 20
-2.668541
 30
0.0
 11
46.423832
 21
-2.428433
 31
0.0
  0
LINE
  5
6CC
330
1F
100
AcDbEntity
  8
1
  6
CONTINUOUS
370
50
 62
4
100
AcDbLine
 10
46.01965
 20
-0.009309
 30
0.0
 11
46.019627
 21
-0.009302
 31
0.0
  0
LINE
  5
6CD
330
1F
100
AcDbEntity
  8
1
  6
CONTINUOUS
370
50
 62
4
100
AcDbLine
 10
46.019543
 20
-0.009276
 30
0.0
 11
46.01952
 21
-0.009269
 31
0.0
  0
LINE
  5
6CE
330
1F
100
AcDbEntity
  8
1
  6
CONTINUOUS
370
50
 62
4
100
AcDbLine
 10
55.42243999999999
 20
-0.396683
 30
0.0
 11
55.00544
 21
-0.270039
 31
0.0
  0
LINE
  5
6CF
330
1F
100
AcDbEntity
  8
1
  6
CONTINUOUS
370
50
 62
4
100
AcDbLine
 10
52.88641
 20
2.448278
 30
0.0
 11
52.252216
 21
2.639461
 31
0.0
  0
LINE
  5
6D0
330
1F
100
AcDbEntity
  8
1
  6
CONTINUOUS
370
50
 62
4
100
AcDbLine
 10
55.829632
 20
-0.5198809999999999
 30
0.0
 11
55.41444
 21
-0.395142
 31
0.0
  0
LINE
  5
6D1
330
1F
100
AcDbEntity
  8
1
  6
CONTINUOUS
370
50
 62
4
100
AcDbLine
 10
55.83608599999999
 20
-0.520478
 30
0.0
 11
55.42243999999999
 21
-0.396683
 31
0.0
  0
LINE
  5
6D2
330
1F
100
AcDbEntity
  8
1
  6
CONTINUOUS
370
50
 62
4
100
AcDbLine
 10
44.40605499999999
 20
2.545399
 30
0.0
 11
44.090862
 21
2.63951
 31
0.0
  0
LINE
  5
6D3
330
1F
100
AcDbEntity
  8
1
  6
CONTINUOUS
370
50
 62
4
100
AcDbLine
 10
53.124744
 20
1.529901
 30
0.0
 11
52.448723
 21
1.731569
 31
0.0
  0
LINE
  5
6D4
330
1F
100
AcDbEntity
  8
1
  6
CONTINUOUS
370
50
 62
4
100
AcDbLine
 10
51.863766
 20
2.502254
 30
0.0
 11
51.487282
 21
2.614045
 31
0.0
  0
LINE
  5
6D5
330
1F
100
AcDbEntity
  8
1
  6
CONTINUOUS
370
50
 62
4
100
AcDbLine
 10
43.402431
 20
2.869003
 30
0.0
 11
43.252472
 21
2.913466
 31
0.0
  0
LINE
  5
6D6
330
1F
100
AcDbEntity
  8
1
  6
CONTINUOUS
370
50
 62
4
100
AcDbLine
 10
56.244839
 20
-0.642795
 30
0.0
 11
55.829632
 21
-0.5198809999999999
 31
0.0
  0
LINE
  5
6D7
330
1F
100
AcDbEntity
  8
1
  6
CONTINUOUS
370
50
 62
4
100
AcDbLine
 10
56.249546
 20
-0.642645
 30
0.0
 11
55.83608599999999
 21
-0.520478
 31
0.0
  0
LINE
  5
6D8
330
1F
100
AcDbEntity
  8
1
  6
CONTINUOUS
370
50
 62
4
100
AcDbLine
 10
55.112587
 20
-2.597253
 30
0.0
 11
54.881271
 21
-2.529084
 31
0.0
  0
LINE
  5
6D9
330
1F
100
AcDbEntity
  8
1
  6
CONTINUOUS
370
50
 62
4
100
AcDbLine
 10
44.80979199999999
 20
1.572049
 30
0.0
 11
44.0
 21
1.808864
 31
0.0
  0
LINE
  5
6DA
330
1F
100
AcDbEntity
  8
1
  6
CONTINUOUS
370
50
 62
4
100
AcDbLine
 10
56.66095
 20
-0.762713
 30
0.0
 11
56.249546
 21
-0.642645
 31
0.0
  0
LINE
  5
6DB
330
1F
100
AcDbEntity
  8
1
  6
CONTINUOUS
370
50
 62
4
100
AcDbLine
 10
56.66004599999999
 20
-0.763821
 30
0.0
 11
56.244839
 21
-0.642795
 31
0.0
  0
LINE
  5
6DC
330
1F
100
AcDbEntity
  8
1
  6
CONTINUOUS
370
50
 62
4
100
AcDbLine
 10
54.455994
 20
-2.65226
 30
0.0
 11
54.05218499999999
 21
-2.535319
 31
0.0
  0
LINE
  5
6DD
330
1F
100
AcDbEntity
  8
1
  6
CONTINUOUS
370
50
 62
4
100
AcDbLine
 10
52.548897
 20
0.5002489999999999
 30
0.0
 11
51.738808
 21
0.733652
 31
0.0
  0
LINE
  5
6DE
330
1F
100
AcDbEntity
  8
1
  6
CONTINUOUS
370
50
 62
4
100
AcDbLine
 10
53.627266
 20
2.256508
 30
0.0
 11
53.543797
 21
2.280471
 31
0.0
  0
LINE
  5
6DF
330
1F
100
AcDbEntity
  8
1
  6
CONTINUOUS
370
50
 62
4
100
AcDbLine
 10
53.710712
 20
2.232595
 30
0.0
 11
53.627266
 21
2.256508
 31
0.0
  0
LINE
  5
6E0
330
1F
100
AcDbEntity
  8
1
  6
CONTINUOUS
370
50
 62
4
100
AcDbLine
 10
53.543797
 20
2.280471
 30
0.0
 11
53.460327
 21
2.30434
 31
0.0
  0
LINE
  5
6E1
330
1F
100
AcDbEntity
  8
1
  6
CONTINUOUS
370
50
 62
4
100
AcDbLine
 10
44.339222
 20
2.569027
 30
0.0
 11
44.256435
 21
2.592614
 31
0.0
  0
LINE
  5
6E2
330
1F
100
AcDbEntity
  8
1
  6
CONTINUOUS
370
50
 62
4
100
AcDbLine
 10
53.460327
 20
2.30434
 30
0.0
 11
53.376835
 21
2.328121
 31
0.0
  0
LINE
  5
6E3
330
1F
100
AcDbEntity
  8
1
  6
CONTINUOUS
370
50
 62
4
100
AcDbLine
 10
53.794205
 20
2.20884
 30
0.0
 11
53.710712
 21
2.232595
 31
0.0
  0
LINE
  5
6E4
330
1F
100
AcDbEntity
  8
1
  6
CONTINUOUS
370
50
 62
4
100
AcDbLine
 10
48.691299
 20
-0.8170029999999999
 30
0.0
 11
47.78560299999999
 21
-0.5593359999999999
 31
0.0
  0
LINE
  5
6E5
330
1F
100
AcDbEntity
  8
1
  6
CONTINUOUS
370
50
 62
4
100
AcDbLine
 10
48.699059
 20
-0.820359
 30
0.0
 11
47.80595
 21
-0.566279
 31
0.0
  0
LINE
  5
6E6
330
1F
100
AcDbEntity
  8
1
  6
CONTINUOUS
370
50
 62
4
100
AcDbLine
 10
44.256435
 20
2.592614
 30
0.0
 11
44.173649
 21
2.616162
 31
0.0
  0
LINE
  5
6E7
330
1F
100
AcDbEntity
  8
1
  6
CONTINUOUS
370
50
 62
4
100
AcDbLine
 10
44.422009
 20
2.545506
 30
0.0
 11
44.339222
 21
2.569027
 31
0.0
  0
LINE
  5
6E8
330
1F
100
AcDbEntity
  8
1
  6
CONTINUOUS
370
50
 62
4
100
AcDbLine
 10
53.376835
 20
2.328121
 30
0.0
 11
53.293339
 21
2.351807
 31
0.0
  0
LINE
  5
6E9
330
1F
100
AcDbEntity
  8
1
  6
CONTINUOUS
370
50
 62
4
100
AcDbLine
 10
44.504822
 20
2.522045
 30
0.0
 11
44.422009
 21
2.545506
 31
0.0
  0
LINE
  5
6EA
330
1F
100
AcDbEntity
  8
1
  6
CONTINUOUS
370
50
 62
4
100
AcDbLine
 10
53.293339
 20
2.351807
 30
0.0
 11
53.209824
 21
2.375405
 31
0.0
  0
LINE
  5
6EB
330
1F
100
AcDbEntity
  8
1
  6
CONTINUOUS
370
50
 62
4
100
AcDbLine
 10
44.587635
 20
2.498653
 30
0.0
 11
44.504822
 21
2.522045
 31
0.0
  0
LINE
  5
6EC
330
1F
100
AcDbEntity
  8
1
  6
CONTINUOUS
370
50
 62
4
100
AcDbLine
 10
53.886623
 20
2.182741
 30
0.0
 11
53.794205
 21
2.20884
 31
0.0
  0
LINE
  5
6ED
330
1F
100
AcDbEntity
  8
1
  6
CONTINUOUS
370
50
 62
4
100
AcDbLine
 10
44.173649
 20
2.616162
 30
0.0
 11
44.090862
 21
2.639529
 31
0.0
  0
LINE
  5
6EE
330
1F
100
AcDbEntity
  8
1
  6
CONTINUOUS
370
50
 62
4
100
AcDbLine
 10
44.670471
 20
2.475324
 30
0.0
 11
44.587635
 21
2.498653
 31
0.0
  0
LINE
  5
6EF
330
1F
100
AcDbEntity
  8
1
  6
CONTINUOUS
370
50
 62
4
100
AcDbLine
 10
53.209824
 20
2.375405
 30
0.0
 11
53.126305
 21
2.398908
 31
0.0
  0
LINE
  5
6F0
330
1F
100
AcDbEntity
  8
1
  6
CONTINUOUS
370
50
 62
4
100
AcDbLine
 10
44.753311
 20
2.452067
 30
0.0
 11
44.670471
 21
2.475324
 31
0.0
  0
LINE
  5
6F1
330
1F
100
AcDbEntity
  8
1
  6
CONTINUOUS
370
50
 62
4
100
AcDbLine
 10
44.090862
 20
2.63951
 30
0.0
 11
44.07589
 21
2.643712
 31
0.0
  0
LINE
  5
6F2
330
1F
100
AcDbEntity
  8
1
  6
CONTINUOUS
370
50
 62
4
100
AcDbLine
 10
53.126305
 20
2.398908
 30
0.0
 11
53.040779
 21
2.422879
 31
0.0
  0
LINE
  5
6F3
330
1F
100
AcDbEntity
  8
1
  6
CONTINUOUS
370
50
 62
4
100
AcDbLine
 10
53.979042
 20
2.156848
 30
0.0
 11
53.886623
 21
2.182741
 31
0.0
  0
LINE
  5
6F4
330
1F
100
AcDbEntity
  8
1
  6
CONTINUOUS
370
50
 62
4
100
AcDbLine
 10
44.849743
 20
2.425083
 30
0.0
 11
44.753311
 21
2.452067
 31
0.0
  0
LINE
  5
6F5
330
1F
100
AcDbEntity
  8
1
  6
CONTINUOUS
370
50
 62
4
100
AcDbLine
 10
53.040779
 20
2.422879
 30
0.0
 11
52.946613
 21
2.449158
 31
0.0
  0
LINE
  5
6F6
330
1F
100
AcDbEntity
  8
1
  6
CONTINUOUS
370
50
 62
4
100
AcDbLine
 10
44.946171
 20
2.398196
 30
0.0
 11
44.849743
 21
2.425083
 31
0.0
  0
LINE
  5
6F7
330
1F
100
AcDbEntity
  8
1
  6
CONTINUOUS
370
50
 62
4
100
AcDbLine
 10
44.07589
 20
2.643712
 30
0.0
 11
44.060852
 21
2.647904
 31
0.0
  0
LINE
  5
6F8
330
1F
100
AcDbEntity
  8
1
  6
CONTINUOUS
370
50
 62
4
100
AcDbLine
 10
54.050098
 20
2.13708
 30
0.0
 11
53.979042
 21
2.156848
 31
0.0
  0
LINE
  5
6F9
330
1F
100
AcDbEntity
  8
1
  6
CONTINUOUS
370
50
 62
4
100
AcDbLine
 10
45.016232
 20
2.378722
 30
0.0
 11
44.946171
 21
2.398196
 31
0.0
  0
LINE
  5
6FA
330
1F
100
AcDbEntity
  8
1
  6
CONTINUOUS
370
50
 62
4
100
AcDbLine
 10
52.946613
 20
2.449158
 30
0.0
 11
52.852448
 21
2.475321
 31
0.0
  0
LINE
  5
6FB
330
1F
100
AcDbEntity
  8
1
  6
CONTINUOUS
370
50
 62
4
100
AcDbLine
 10
45.086288
 20
2.359299
 30
0.0
 11
45.016232
 21
2.378722
 31
0.0
  0
LINE
  5
6FC
330
1F
100
AcDbEntity
  8
1
  6
CONTINUOUS
370
50
 62
4
100
AcDbLine
 10
46.398926
 20
-2.675137
 30
0.0
 11
45.989811
 21
-2.561768
 31
0.0
  0
LINE
  5
6FD
330
1F
100
AcDbEntity
  8
1
  6
CONTINUOUS
370
50
 62
4
100
AcDbLine
 10
44.060852
 20
2.647904
 30
0.0
 11
44.04575
 21
2.652087
 31
0.0
  0
LINE
  5
6FE
330
1F
100
AcDbEntity
  8
1
  6
CONTINUOUS
370
50
 62
4
100
AcDbLine
 10
52.852448
 20
2.475321
 30
0.0
 11
52.75828199999999
 21
2.501369
 31
0.0
  0
LINE
  5
6FF
330
1F
100
AcDbEntity
  8
1
  6
CONTINUOUS
370
50
 62
4
100
AcDbLine
 10
45.15634499999999
 20
2.339926
 30
0.0
 11
45.086288
 21
2.359299
 31
0.0
  0
LINE
  5
700
330
1F
100
AcDbEntity
  8
1
  6
CONTINUOUS
370
50
 62
4
100
AcDbLine
 10
54.121151
 20
2.117433
 30
0.0
 11
54.050098
 21
2.13708
 31
0.0
  0
LINE
  5
701
330
1F
100
AcDbEntity
  8
1
  6
CONTINUOUS
370
50
 62
4
100
AcDbLine
 10
45.226406
 20
2.320602
 30
0.0
 11
45.15634499999999
 21
2.339926
 31
0.0
  0
LINE
  5
702
330
1F
100
AcDbEntity
  8
1
  6
CONTINUOUS
370
50
 62
4
100
AcDbLine
 10
52.75828199999999
 20
2.501369
 30
0.0
 11
52.664116
 21
2.527303
 31
0.0
  0
LINE
  5
703
330
1F
100
AcDbEntity
  8
1
  6
CONTINUOUS
370
50
 62
4
100
AcDbLine
 10
45.296482
 20
2.301322
 30
0.0
 11
45.226406
 21
2.320602
 31
0.0
  0
LINE
  5
704
330
1F
100
AcDbEntity
  8
1
  6
CONTINUOUS
370
50
 62
4
100
AcDbLine
 10
44.04575
 20
2.652087
 30
0.0
 11
44.030579
 21
2.656261
 31
0.0
  0
LINE
  5
705
330
1F
100
AcDbEntity
  8
1
  6
CONTINUOUS
370
50
 62
4
100
AcDbLine
 10
54.192204
 20
2.097905
 30
0.0
 11
54.121151
 21
2.117433
 31
0.0
  0
LINE
  5
706
330
1F
100
AcDbEntity
  8
1
  6
CONTINUOUS
370
50
 62
4
100
AcDbLine
 10
45.36656199999999
 20
2.282089
 30
0.0
 11
45.296482
 21
2.301322
 31
0.0
  0
LINE
  5
707
330
1F
100
AcDbEntity
  8
1
  6
CONTINUOUS
370
50
 62
4
100
AcDbLine
 10
52.664116
 20
2.527303
 30
0.0
 11
52.56992
 21
2.553135
 31
0.0
  0
LINE
  5
708
330
1F
100
AcDbEntity
  8
1
  6
CONTINUOUS
370
50
 62
4
100
AcDbLine
 10
45.436642
 20
2.262902
 30
0.0
 11
45.36656199999999
 21
2.282089
 31
0.0
  0
LINE
  5
709
330
1F
100
AcDbEntity
  8
1
  6
CONTINUOUS
370
50
 62
4
100
AcDbLine
 10
44.030579
 20
2.656261
 30
0.0
 11
44.015327
 21
2.660428
 31
0.0
  0
LINE
  5
70A
330
1F
100
AcDbEntity
  8
1
  6
CONTINUOUS
370
50
 62
4
100
AcDbLine
 10
55.344654
 20
-2.660644
 30
0.0
 11
55.112587
 21
-2.597253
 31
0.0
  0
LINE
  5
70B
330
1F
100
AcDbEntity
  8
1
  6
CONTINUOUS
370
50
 62
4
100
AcDbLine
 10
54.26326
 20
2.078496
 30
0.0
 11
54.192204
 21
2.097905
 31
0.0
  0
LINE
  5
70C
330
1F
100
AcDbEntity
  8
1
  6
CONTINUOUS
370
50
 62
4
100
AcDbLine
 10
45.506718
 20
2.243762
 30
0.0
 11
45.436642
 21
2.262902
 31
0.0
  0
LINE
  5
70D
330
1F
100
AcDbEntity
  8
1
  6
CONTINUOUS
370
50
 62
4
100
AcDbLine
 10
52.56992
 20
2.553135
 30
0.0
 11
52.475727
 21
2.578859
 31
0.0
  0
LINE
  5
70E
330
1F
100
AcDbEntity
  8
1
  6
CONTINUOUS
370
50
 62
4
100
AcDbLine
 10
45.586357
 20
2.222065
 30
0.0
 11
45.506718
 21
2.243762
 31
0.0
  0
LINE
  5
70F
330
1F
100
AcDbEntity
  8
1
  6
CONTINUOUS
370
50
 62
4
100
AcDbLine
 10
52.475727
 20
2.578859
 30
0.0
 11
52.381535
 21
2.604476
 31
0.0
  0
LINE
  5
710
330
1F
100
AcDbEntity
  8
1
  6
CONTINUOUS
370
50
 62
4
100
AcDbLine
 10
45.665997
 20
2.200425
 30
0.0
 11
45.586357
 21
2.222065
 31
0.0
  0
LINE
  5
711
330
1F
100
AcDbEntity
  8
1
  6
CONTINUOUS
370
50
 62
4
100
AcDbLine
 10
54.334339
 20
2.059197
 30
0.0
 11
54.26326
 21
2.078496
 31
0.0
  0
LINE
  5
712
330
1F
100
AcDbEntity
  8
1
  6
CONTINUOUS
370
50
 62
4
100
AcDbLine
 10
44.015327
 20
2.660428
 30
0.0
 11
44.0
 21
2.664588
 31
0.0
  0
LINE
  5
713
330
1F
100
AcDbEntity
  8
1
  6
CONTINUOUS
370
50
 62
4
100
AcDbLine
 10
45.745632
 20
2.17884
 30
0.0
 11
45.665997
 21
2.200425
 31
0.0
  0
LINE
  5
714
330
1F
100
AcDbEntity
  8
1
  6
CONTINUOUS
370
50
 62
4
100
AcDbLine
 10
52.381535
 20
2.604476
 30
0.0
 11
52.287338
 21
2.62999
 31
0.0
  0
LINE
  5
715
330
1F
100
AcDbEntity
  8
1
  6
CONTINUOUS
370
50
 62
4
100
AcDbLine
 10
45.825272
 20
2.157308
 30
0.0
 11
45.745632
 21
2.17884
 31
0.0
  0
LINE
  5
716
330
1F
100
AcDbEntity
  8
1
  6
CONTINUOUS
370
50
 62
4
100
AcDbLine
 10
52.287338
 20
2.62999
 30
0.0
 11
52.252216
 21
2.639478
 31
0.0
  0
LINE
  5
717
330
1F
100
AcDbEntity
  8
1
  6
CONTINUOUS
370
50
 62
4
100
AcDbLine
 10
54.40542199999999
 20
2.040014
 30
0.0
 11
54.334339
 21
2.059197
 31
0.0
  0
LINE
  5
718
330
1F
100
AcDbEntity
  8
1
  6
CONTINUOUS
370
50
 62
4
100
AcDbLine
 10
45.93399
 20
2.127996
 30
0.0
 11
45.825272
 21
2.157308
 31
0.0
  0
LINE
  5
719
330
1F
100
AcDbEntity
  8
1
  6
CONTINUOUS
370
50
 62
4
100
AcDbLine
 10
51.738808
 20
0.733652
 30
0.0
 11
50.928768
 21
0.952019
 31
0.0
  0
LINE
  5
71A
330
1F
100
AcDbEntity
  8
1
  6
CONTINUOUS
370
50
 62
4
100
AcDbLine
 10
46.042709
 20
2.098777
 30
0.0
 11
45.93399
 21
2.127996
 31
0.0
  0
LINE
  5
71B
330
1F
100
AcDbEntity
  8
1
  6
CONTINUOUS
370
50
 62
4
100
AcDbLine
 10
54.476501
 20
2.020945
 30
0.0
 11
54.40542199999999
 21
2.040014
 31
0.0
  0
LINE
  5
71C
330
1F
100
AcDbEntity
  8
1
  6
CONTINUOUS
370
50
 62
4
100
AcDbLine
 10
46.151428
 20
2.069646
 30
0.0
 11
46.042709
 21
2.098777
 31
0.0
  0
LINE
  5
71D
330
1F
100
AcDbEntity
  8
1
  6
CONTINUOUS
370
50
 62
4
100
AcDbLine
 10
46.260151
 20
2.040598
 30
0.0
 11
46.151428
 21
2.069646
 31
0.0
  0
LINE
  5
71E
330
1F
100
AcDbEntity
  8
1
  6
CONTINUOUS
370
50
 62
4
100
AcDbLine
 10
54.547585
 20
2.001989
 30
0.0
 11
54.476501
 21
2.020945
 31
0.0
  0
LINE
  5
71F
330
1F
100
AcDbEntity
  8
1
  6
CONTINUOUS
370
50
 62
4
100
AcDbLine
 10
46.371101
 20
2.011037
 30
0.0
 11
46.260151
 21
2.040598
 31
0.0
  0
LINE
  5
720
330
1F
100
AcDbEntity
  8
1
  6
CONTINUOUS
370
50
 62
4
100
AcDbLine
 10
46.482056
 20
1.981558
 30
0.0
 11
46.371101
 21
2.011037
 31
0.0
  0
LINE
  5
721
330
1F
100
AcDbEntity
  8
1
  6
CONTINUOUS
370
50
 62
4
100
AcDbLine
 10
54.623608
 20
1.981838
 30
0.0
 11
54.547585
 21
2.001989
 31
0.0
  0
LINE
  5
722
330
1F
100
AcDbEntity
  8
1
  6
CONTINUOUS
370
50
 62
4
100
AcDbLine
 10
46.592987
 20
1.952162
 30
0.0
 11
46.482056
 21
1.981558
 31
0.0
  0
LINE
  5
723
330
1F
100
AcDbEntity
  8
1
  6
CONTINUOUS
370
50
 62
4
100
AcDbLine
 10
46.70391799999999
 20
1.922843
 30
0.0
 11
46.592987
 21
1.952162
 31
0.0
  0
LINE
  5
724
330
1F
100
AcDbEntity
  8
1
  6
CONTINUOUS
370
50
 62
4
100
AcDbLine
 10
51.487282
 20
2.614045
 30
0.0
 11
51.112469
 21
2.71294
 31
0.0
  0
LINE
  5
725
330
1F
100
AcDbEntity
  8
1
  6
CONTINUOUS
370
50
 62
4
100
AcDbLine
 10
46.781342
 20
1.902425
 30
0.0
 11
46.70391799999999
 21
1.922843
 31
0.0
  0
LINE
  5
726
330
1F
100
AcDbEntity
  8
1
  6
CONTINUOUS
370
50
 62
4
100
AcDbLine
 10
54.699631
 20
1.961813
 30
0.0
 11
54.623608
 21
1.981838
 31
0.0
  0
LINE
  5
727
330
1F
100
AcDbEntity
  8
1
  6
CONTINUOUS
370
50
 62
4
100
AcDbLine
 10
46.858768
 20
1.882043
 30
0.0
 11
46.781342
 21
1.902425
 31
0.0
  0
LINE
  5
728
330
1F
100
AcDbEntity
  8
1
  6
CONTINUOUS
370
50
 62
4
100
AcDbLine
 10
46.936192
 20
1.861698
 30
0.0
 11
46.858768
 21
1.882043
 31
0.0
  0
LINE
  5
729
330
1F
100
AcDbEntity
  8
1
  6
CONTINUOUS
370
50
 62
4
100
AcDbLine
 10
47.013618
 20
1.84139
 30
0.0
 11
46.936192
 21
1.861698
 31
0.0
  0
LINE
  5
72A
330
1F
100
AcDbEntity
  8
1
  6
CONTINUOUS
370
50
 62
4
100
AcDbLine
 10
47.081791
 20
1.823539
 30
0.0
 11
47.013618
 21
1.84139
 31
0.0
  0
LINE
  5
72B
330
1F
100
AcDbEntity
  8
1
  6
CONTINUOUS
370
50
 62
4
100
AcDbLine
 10
54.775658
 20
1.941911
 30
0.0
 11
54.699631
 21
1.961813
 31
0.0
  0
LINE
  5
72C
330
1F
100
AcDbEntity
  8
1
  6
CONTINUOUS
370
50
 62
4
100
AcDbLine
 10
47.149963
 20
1.805719
 30
0.0
 11
47.081791
 21
1.823539
 31
0.0
  0
LINE
  5
72D
330
1F
100
AcDbEntity
  8
1
  6
CONTINUOUS
370
50
 62
4
100
AcDbLine
 10
47.218132
 20
1.78793
 30
0.0
 11
47.149963
 21
1.805719
 31
0.0
  0
LINE
  5
72E
330
1F
100
AcDbEntity
  8
1
  6
CONTINUOUS
370
50
 62
4
100
AcDbLine
 10
46.019627
 20
-0.009302
 30
0.0
 11
46.019604
 21
-0.009296
 31
0.0
  0
LINE
  5
72F
330
1F
100
AcDbEntity
  8
1
  6
CONTINUOUS
370
50
 62
4
100
AcDbLine
 10
46.019585
 20
-0.009289
 30
0.0
 11
46.019562
 21
-0.009283
 31
0.0
  0
LINE
  5
730
330
1F
100
AcDbEntity
  8
1
  6
CONTINUOUS
370
50
 62
4
100
AcDbLine
 10
47.286304
 20
1.770172
 30
0.0
 11
47.218132
 21
1.78793
 31
0.0
  0
LINE
  5
731
330
1F
100
AcDbEntity
  8
1
  6
CONTINUOUS
370
50
 62
4
100
AcDbLine
 10
54.851685
 20
1.92213
 30
0.0
 11
54.775658
 21
1.941911
 31
0.0
  0
LINE
  5
732
330
1F
100
AcDbEntity
  8
1
  6
CONTINUOUS
370
50
 62
4
100
AcDbLine
 10
47.354454
 20
1.752452
 30
0.0
 11
47.286304
 21
1.770172
 31
0.0
  0
LINE
  5
733
330
1F
100
AcDbEntity
  8
1
  6
CONTINUOUS
370
50
 62
4
100
AcDbLine
 10
47.422604
 20
1.734807
 30
0.0
 11
47.354454
 21
1.752452
 31
0.0
  0
LINE
  5
734
330
1F
100
AcDbEntity
  8
1
  6
CONTINUOUS
370
50
 62
4
100
AcDbLine
 10
54.90784799999999
 20
1.907594
 30
0.0
 11
54.851685
 21
1.92213
 31
0.0
  0
LINE
  5
735
330
1F
100
AcDbEntity
  8
1
  6
CONTINUOUS
370
50
 62
4
100
AcDbLine
 10
43.252472
 20
2.913466
 30
0.0
 11
43.1096
 21
2.950376
 31
0.0
  0
LINE
  5
736
330
1F
100
AcDbEntity
  8
1
  6
CONTINUOUS
370
50
 62
4
100
AcDbLine
 10
54.964012
 20
1.893123
 30
0.0
 11
54.90784799999999
 21
1.907594
 31
0.0
  0
LINE
  5
737
330
1F
100
AcDbEntity
  8
1
  6
CONTINUOUS
370
50
 62
4
100
AcDbLine
 10
55.020176
 20
1.878714
 30
0.0
 11
54.964012
 21
1.893123
 31
0.0
  0
LINE
  5
738
330
1F
100
AcDbEntity
  8
1
  6
CONTINUOUS
370
50
 62
4
100
AcDbLine
 10
47.490753
 20
1.717353
 30
0.0
 11
47.422604
 21
1.734807
 31
0.0
  0
LINE
  5
739
330
1F
100
AcDbEntity
  8
1
  6
CONTINUOUS
370
50
 62
4
100
AcDbLine
 10
49.59225499999999
 20
-1.048913
 30
0.0
 11
48.699059
 21
-0.820359
 31
0.0
  0
LINE
  5
73A
330
1F
100
AcDbEntity
  8
1
  6
CONTINUOUS
370
50
 62
4
100
AcDbLine
 10
55.980965
 20
-0.283797
 30
0.0
 11
55.871716
 21
-0.255887
 31
0.0
  0
LINE
  5
73B
330
1F
100
AcDbEntity
  8
1
  6
CONTINUOUS
370
50
 62
4
100
AcDbLine
 10
55.07633999999999
 20
1.864368
 30
0.0
 11
55.020176
 21
1.878714
 31
0.0
  0
LINE
  5
73C
330
1F
100
AcDbEntity
  8
1
  6
CONTINUOUS
370
50
 62
4
100
AcDbLine
 10
49.598602
 20
-1.047986
 30
0.0
 11
48.691299
 21
-0.8170029999999999
 31
0.0
  0
LINE
  5
73D
330
1F
100
AcDbEntity
  8
1
  6
CONTINUOUS
370
50
 62
4
100
AcDbLine
 10
55.132507
 20
1.850084
 30
0.0
 11
55.07633999999999
 21
1.864368
 31
0.0
  0
LINE
  5
73E
330
1F
100
AcDbEntity
  8
1
  6
CONTINUOUS
370
50
 62
4
100
AcDbLine
 10
56.090874
 20
-0.311713
 30
0.0
 11
55.980965
 21
-0.283797
 31
0.0
  0
LINE
  5
73F
330
1F
100
AcDbEntity
  8
1
  6
CONTINUOUS
370
50
 62
4
100
AcDbLine
 10
47.558899
 20
1.700095
 30
0.0
 11
47.490753
 21
1.717353
 31
0.0
  0
LINE
  5
740
330
1F
100
AcDbEntity
  8
1
  6
CONTINUOUS
370
50
 62
4
100
AcDbLine
 10
55.188675
 20
1.83586
 30
0.0
 11
55.132507
 21
1.850084
 31
0.0
  0
LINE
  5
741
330
1F
100
AcDbEntity
  8
1
  6
CONTINUOUS
370
50
 62
4
100
AcDbLine
 10
52.448723
 20
1.731569
 30
0.0
 11
51.772697
 21
1.902556
 31
0.0
  0
LINE
  5
742
330
1F
100
AcDbEntity
  8
1
  6
CONTINUOUS
370
50
 62
4
100
AcDbLine
 10
56.201355
 20
-0.339612
 30
0.0
 11
56.090874
 21
-0.311713
 31
0.0
  0
LINE
  5
743
330
1F
100
AcDbEntity
  8
1
  6
CONTINUOUS
370
50
 62
4
100
AcDbLine
 10
55.244843
 20
1.821696
 30
0.0
 11
55.188675
 21
1.83586
 31
0.0
  0
LINE
  5
744
330
1F
100
AcDbEntity
  8
1
  6
CONTINUOUS
370
50
 62
4
100
AcDbLine
 10
55.57700699999999
 20
-2.719109
 30
0.0
 11
55.344654
 21
-2.660644
 31
0.0
  0
LINE
  5
745
330
1F
100
AcDbEntity
  8
1
  6
CONTINUOUS
370
50
 62
4
100
AcDbLine
 10
55.30101
 20
1.807592
 30
0.0
 11
55.244843
 21
1.821696
 31
0.0
  0
LINE
  5
746
330
1F
100
AcDbEntity
  8
1
  6
CONTINUOUS
370
50
 62
4
100
AcDbLine
 10
56.312317
 20
-0.36747
 30
0.0
 11
56.201355
 21
-0.339612
 31
0.0
  0
LINE
  5
747
330
1F
100
AcDbEntity
  8
1
  6
CONTINUOUS
370
50
 62
4
100
AcDbLine
 10
55.355076
 20
1.794071
 30
0.0
 11
55.30101
 21
1.807592
 31
0.0
  0
LINE
  5
748
330
1F
100
AcDbEntity
  8
1
  6
CONTINUOUS
370
50
 62
4
100
AcDbLine
 10
56.42366
 20
-0.395264
 30
0.0
 11
56.312317
 21
-0.36747
 31
0.0
  0
LINE
  5
749
330
1F
100
AcDbEntity
  8
1
  6
CONTINUOUS
370
50
 62
4
100
AcDbLine
 10
47.662968
 20
1.67412
 30
0.0
 11
47.558899
 21
1.700095
 31
0.0
  0
LINE
  5
74A
330
1F
100
AcDbEntity
  8
1
  6
CONTINUOUS
370
50
 62
4
100
AcDbLine
 10
55.409142
 20
1.780603
 30
0.0
 11
55.355076
 21
1.794071
 31
0.0
  0
LINE
  5
74B
330
1F
100
AcDbEntity
  8
1
  6
CONTINUOUS
370
50
 62
4
100
AcDbLine
 10
52.252216
 20
2.639461
 30
0.0
 11
51.805439
 21
2.750448
 31
0.0
  0
LINE
  5
74C
330
1F
100
AcDbEntity
  8
1
  6
CONTINUOUS
370
50
 62
4
100
AcDbLine
 10
56.535294
 20
-0.422971
 30
0.0
 11
56.42366
 21
-0.395264
 31
0.0
  0
LINE
  5
74D
330
1F
100
AcDbEntity
  8
1
  6
CONTINUOUS
370
50
 62
4
100
AcDbLine
 10
55.46321099999999
 20
1.767189
 30
0.0
 11
55.409142
 21
1.780603
 31
0.0
  0
LINE
  5
74E
330
1F
100
AcDbEntity
  8
1
  6
CONTINUOUS
370
50
 62
4
100
AcDbLine
 10
50.928768
 20
0.952019
 30
0.0
 11
50.118668
 21
1.152852
 31
0.0
  0
LINE
  5
74F
330
1F
100
AcDbEntity
  8
1
  6
CONTINUOUS
370
50
 62
4
100
AcDbLine
 10
55.517281
 20
1.753826
 30
0.0
 11
55.46321099999999
 21
1.767189
 31
0.0
  0
LINE
  5
750
330
1F
100
AcDbEntity
  8
1
  6
CONTINUOUS
370
50
 62
4
100
AcDbLine
 10
54.863144
 20
-2.752757
 30
0.0
 11
54.455994
 21
-2.65226
 31
0.0
  0
LINE
  5
751
330
1F
100
AcDbEntity
  8
1
  6
CONTINUOUS
370
50
 62
4
100
AcDbLine
 10
56.647129
 20
-0.450566
 30
0.0
 11
56.535294
 21
-0.422971
 31
0.0
  0
LINE
  5
752
330
1F
100
AcDbEntity
  8
1
  6
CONTINUOUS
370
50
 62
4
100
AcDbLine
 10
55.571346
 20
1.740516
 30
0.0
 11
55.517281
 21
1.753826
 31
0.0
  0
LINE
  5
753
330
1F
100
AcDbEntity
  8
1
  6
CONTINUOUS
370
50
 62
4
100
AcDbLine
 10
47.767033
 20
1.648598
 30
0.0
 11
47.662968
 21
1.67412
 31
0.0
  0
LINE
  5
754
330
1F
100
AcDbEntity
  8
1
  6
CONTINUOUS
370
50
 62
4
100
AcDbLine
 10
55.62542
 20
1.727257
 30
0.0
 11
55.571346
 21
1.740516
 31
0.0
  0
LINE
  5
755
330
1F
100
AcDbEntity
  8
1
  6
CONTINUOUS
370
50
 62
4
100
AcDbLine
 10
55.679489
 20
1.714049
 30
0.0
 11
55.62542
 21
1.727257
 31
0.0
  0
LINE
  5
756
330
1F
100
AcDbEntity
  8
1
  6
CONTINUOUS
370
50
 62
4
100
AcDbLine
 10
55.733559
 20
1.700891
 30
0.0
 11
55.679489
 21
1.714049
 31
0.0
  0
LINE
  5
757
330
1F
100
AcDbEntity
  8
1
  6
CONTINUOUS
370
50
 62
4
100
AcDbLine
 10
55.813801
 20
1.681458
 30
0.0
 11
55.733559
 21
1.700891
 31
0.0
  0
LINE
  5
758
330
1F
100
AcDbEntity
  8
1
  6
CONTINUOUS
370
50
 62
4
100
AcDbLine
 10
47.84936099999999
 20
1.628725
 30
0.0
 11
47.767033
 21
1.648598
 31
0.0
  0
LINE
  5
759
330
1F
100
AcDbEntity
  8
1
  6
CONTINUOUS
370
50
 62
4
100
AcDbLine
 10
55.894047
 20
1.662133
 30
0.0
 11
55.813801
 21
1.681458
 31
0.0
  0
LINE
  5
75A
330
1F
100
AcDbEntity
  8
1
  6
CONTINUOUS
370
50
 62
4
100
AcDbLine
 10
46.805538
 20
-2.772748
 30
0.0
 11
46.398926
 21
-2.675137
 31
0.0
  0
LINE
  5
75B
330
1F
100
AcDbEntity
  8
1
  6
CONTINUOUS
370
50
 62
4
100
AcDbLine
 10
55.974293
 20
1.642918
 30
0.0
 11
55.894047
 21
1.662133
 31
0.0
  0
LINE
  5
75C
330
1F
100
AcDbEntity
  8
1
  6
CONTINUOUS
370
50
 62
4
100
AcDbLine
 10
56.054539
 20
1.62381
 30
0.0
 11
55.974293
 21
1.642918
 31
0.0
  0
LINE
  5
75D
330
1F
100
AcDbEntity
  8
1
  6
CONTINUOUS
370
50
 62
4
100
AcDbLine
 10
47.93169
 20
1.60913
 30
0.0
 11
47.84936099999999
 21
1.628725
 31
0.0
  0
LINE
  5
75E
330
1F
100
AcDbEntity
  8
1
  6
CONTINUOUS
370
50
 62
4
100
AcDbLine
 10
56.122272
 20
1.607767
 30
0.0
 11
56.054539
 21
1.62381
 31
0.0
  0
LINE
  5
75F
330
1F
100
AcDbEntity
  8
1
  6
CONTINUOUS
370
50
 62
4
100
AcDbLine
 10
56.190002
 20
1.5918
 30
0.0
 11
56.122272
 21
1.607767
 31
0.0
  0
LINE
  5
760
330
1F
100
AcDbEntity
  8
1
  6
CONTINUOUS
370
50
 62
4
100
AcDbLine
 10
48.014046
 20
1.589804
 30
0.0
 11
47.93169
 21
1.60913
 31
0.0
  0
LINE
  5
761
330
1F
100
AcDbEntity
  8
1
  6
CONTINUOUS
370
50
 62
4
100
AcDbLine
 10
56.25773599999999
 20
1.575911
 30
0.0
 11
56.190002
 21
1.5918
 31
0.0
  0
LINE
  5
762
330
1F
100
AcDbEntity
  8
1
  6
CONTINUOUS
370
50
 62
4
100
AcDbLine
 10
56.325474
 20
1.5601
 30
0.0
 11
56.25773599999999
 21
1.575911
 31
0.0
  0
LINE
  5
763
330
1F
100
AcDbEntity
  8
1
  6
CONTINUOUS
370
50
 62
4
100
AcDbLine
 10
56.393173
 20
1.544376
 30
0.0
 11
56.325474
 21
1.5601
 31
0.0
  0
LINE
  5
764
330
1F
100
AcDbEntity
  8
1
  6
CONTINUOUS
370
50
 62
4
100
AcDbLine
 10
48.096401
 20
1.57075
 30
0.0
 11
48.014046
 21
1.589804
 31
0.0
  0
LINE
  5
765
330
1F
100
AcDbEntity
  8
1
  6
CONTINUOUS
370
50
 62
4
100
AcDbLine
 10
56.460873
 20
1.52873
 30
0.0
 11
56.393173
 21
1.544376
 31
0.0
  0
LINE
  5
766
330
1F
100
AcDbEntity
  8
1
  6
CONTINUOUS
370
50
 62
4
100
AcDbLine
 10
55.809181
 20
-2.772499
 30
0.0
 11
55.57700699999999
 21
-2.719109
 31
0.0
  0
LINE
  5
767
330
1F
100
AcDbEntity
  8
1
  6
CONTINUOUS
370
50
 62
4
100
AcDbLine
 10
56.528572
 20
1.513165
 30
0.0
 11
56.460873
 21
1.52873
 31
0.0
  0
LINE
  5
768
330
1F
100
AcDbEntity
  8
1
  6
CONTINUOUS
370
50
 62
4
100
AcDbLine
 10
51.112469
 20
2.71294
 30
0.0
 11
50.73893
 21
2.798733
 31
0.0
  0
LINE
  5
769
330
1F
100
AcDbEntity
  8
1
  6
CONTINUOUS
370
50
 62
4
100
AcDbLine
 10
56.596275
 20
1.497682
 30
0.0
 11
56.528572
 21
1.513165
 31
0.0
  0
LINE
  5
76A
330
1F
100
AcDbEntity
  8
1
  6
CONTINUOUS
370
50
 62
4
100
AcDbLine
 10
48.178776
 20
1.551961
 30
0.0
 11
48.096401
 21
1.57075
 31
0.0
  0
LINE
  5
76B
330
1F
100
AcDbEntity
  8
1
  6
CONTINUOUS
370
50
 62
4
100
AcDbLine
 10
47.98086499999999
 20
-2.843901
 30
0.0
 11
47.21196399999999
 21
-2.668541
 31
0.0
  0
LINE
  5
76C
330
1F
100
AcDbEntity
  8
1
  6
CONTINUOUS
370
50
 62
4
100
AcDbLine
 10
56.650047
 20
1.485443
 30
0.0
 11
56.596275
 21
1.497682
 31
0.0
  0
LINE
  5
76D
330
1F
100
AcDbEntity
  8
1
  6
CONTINUOUS
370
50
 62
4
100
AcDbLine
 10
50.490952
 20
-1.250009
 30
0.0
 11
49.598602
 21
-1.047986
 31
0.0
  0
LINE
  5
76E
330
1F
100
AcDbEntity
  8
1
  6
CONTINUOUS
370
50
 62
4
100
AcDbLine
 10
50.485485
 20
-1.251109
 30
0.0
 11
49.59225499999999
 21
-1.048913
 31
0.0
  0
LINE
  5
76F
330
1F
100
AcDbEntity
  8
1
  6
CONTINUOUS
370
50
 62
4
100
AcDbLine
 10
48.261154
 20
1.533439
 30
0.0
 11
48.178776
 21
1.551961
 31
0.0
  0
LINE
  5
770
330
1F
100
AcDbEntity
  8
1
  6
CONTINUOUS
370
50
 62
4
100
AcDbLine
 10
48.343536
 20
1.515181
 30
0.0
 11
48.261154
 21
1.533439
 31
0.0
  0
LINE
  5
771
330
1F
100
AcDbEntity
  8
1
  6
CONTINUOUS
370
50
 62
4
100
AcDbLine
 10
48.425915
 20
1.497184
 30
0.0
 11
48.343536
 21
1.515181
 31
0.0
  0
LINE
  5
772
330
1F
100
AcDbEntity
  8
1
  6
CONTINUOUS
370
50
 62
4
100
AcDbLine
 10
48.520393
 20
1.476862
 30
0.0
 11
48.425915
 21
1.497184
 31
0.0
  0
LINE
  5
773
330
1F
100
AcDbEntity
  8
1
  6
CONTINUOUS
370
50
 62
4
100
AcDbLine
 10
48.618893
 20
1.456031
 30
0.0
 11
48.520393
 21
1.476862
 31
0.0
  0
LINE
  5
774
330
1F
100
AcDbEntity
  8
1
  6
CONTINUOUS
370
50
 62
4
100
AcDbLine
 10
51.772697
 20
1.902556
 30
0.0
 11
51.096664
 21
2.043374
 31
0.0
  0
LINE
  5
775
330
1F
100
AcDbEntity
  8
1
  6
CONTINUOUS
370
50
 62
4
100
AcDbLine
 10
56.04071399999999
 20
-2.820666
 30
0.0
 11
55.809181
 21
-2.772499
 31
0.0
  0
LINE
  5
776
330
1F
100
AcDbEntity
  8
1
  6
CONTINUOUS
370
50
 62
4
100
AcDbLine
 10
48.717396
 20
1.43556
 30
0.0
 11
48.618893
 21
1.456031
 31
0.0
  0
LINE
  5
777
330
1F
100
AcDbEntity
  8
1
  6
CONTINUOUS
370
50
 62
4
100
AcDbLine
 10
50.118668
 20
1.152852
 30
0.0
 11
49.308506
 21
1.320025
 31
0.0
  0
LINE
  5
778
330
1F
100
AcDbEntity
  8
1
  6
CONTINUOUS
370
50
 62
4
100
AcDbLine
 10
55.273651
 20
-2.837007
 30
0.0
 11
54.863144
 21
-2.752757
 31
0.0
  0
LINE
  5
779
330
1F
100
AcDbEntity
  8
1
  6
CONTINUOUS
370
50
 62
4
100
AcDbLine
 10
51.805439
 20
2.750448
 30
0.0
 11
51.351223
 21
2.843538
 31
0.0
  0
LINE
  5
77A
330
1F
100
AcDbEntity
  8
1
  6
CONTINUOUS
370
50
 62
4
100
AcDbLine
 10
48.815903
 20
1.415444
 30
0.0
 11
48.717396
 21
1.43556
 31
0.0
  0
LINE
  5
77B
330
1F
100
AcDbEntity
  8
1
  6
CONTINUOUS
370
50
 62
4
100
AcDbLine
 10
43.1096
 20
2.950376
 30
0.0
 11
42.975517
 21
2.977692
 31
0.0
  0
LINE
  5
77C
330
1F
100
AcDbEntity
  8
1
  6
CONTINUOUS
370
50
 62
4
100
AcDbLine
 10
47.206001
 20
-2.853733
 30
0.0
 11
46.805538
 21
-2.772748
 31
0.0
  0
LINE
  5
77D
330
1F
100
AcDbEntity
  8
1
  6
CONTINUOUS
370
50
 62
4
100
AcDbLine
 10
48.914406
 20
1.39568
 30
0.0
 11
48.815903
 21
1.415444
 31
0.0
  0
LINE
  5
77E
330
1F
100
AcDbEntity
  8
1
  6
CONTINUOUS
370
50
 62
4
100
AcDbLine
 10
49.012913
 20
1.376264
 30
0.0
 11
48.914406
 21
1.39568
 31
0.0
  0
LINE
  5
77F
330
1F
100
AcDbEntity
  8
1
  6
CONTINUOUS
370
50
 62
4
100
AcDbLine
 10
49.11142299999999
 20
1.357192
 30
0.0
 11
49.012913
 21
1.376264
 31
0.0
  0
LINE
  5
780
330
1F
100
AcDbEntity
  8
1
  6
CONTINUOUS
370
50
 62
4
100
AcDbLine
 10
50.73893
 20
2.798733
 30
0.0
 11
50.368412
 21
2.870166
 31
0.0
  0
LINE
  5
781
330
1F
100
AcDbEntity
  8
1
  6
CONTINUOUS
370
50
 62
4
100
AcDbLine
 10
49.20993
 20
1.338461
 30
0.0
 11
49.11142299999999
 21
1.357192
 31
0.0
  0
LINE
  5
782
330
1F
100
AcDbEntity
  8
1
  6
CONTINUOUS
370
50
 62
4
100
AcDbLine
 10
49.30844099999999
 20
1.32007
 30
0.0
 11
49.20993
 21
1.338461
 31
0.0
  0
LINE
  5
783
330
1F
100
AcDbEntity
  8
1
  6
CONTINUOUS
370
50
 62
4
100
AcDbLine
 10
56.271141
 20
-2.863461
 30
0.0
 11
56.04071399999999
 21
-2.820666
 31
0.0
  0
LINE
  5
784
330
1F
100
AcDbEntity
  8
1
  6
CONTINUOUS
370
50
 62
4
100
AcDbLine
 10
51.371925
 20
-1.413088
 30
0.0
 11
50.490952
 21
-1.250009
 31
0.0
  0
LINE
  5
785
330
1F
100
AcDbEntity
  8
1
  6
CONTINUOUS
370
50
 62
4
100
AcDbLine
 10
51.37861299999999
 20
-1.416239
 30
0.0
 11
50.485485
 21
-1.251109
 31
0.0
  0
LINE
  5
786
330
1F
100
AcDbEntity
  8
1
  6
CONTINUOUS
370
50
 62
4
100
AcDbLine
 10
42.60733
 20
-2.992632
 30
0.0
 11
42.490395
 21
-2.971409
 31
0.0
  0
LINE
  5
787
330
1F
100
AcDbEntity
  8
1
  6
CONTINUOUS
370
50
 62
4
100
AcDbLine
 10
55.684982
 20
-2.904417
 30
0.0
 11
55.273651
 21
-2.837007
 31
0.0
  0
LINE
  5
788
330
1F
100
AcDbEntity
  8
1
  6
CONTINUOUS
370
50
 62
4
100
AcDbLine
 10
56.5
 20
-2.900736
 30
0.0
 11
56.271141
 21
-2.863461
 31
0.0
  0
LINE
  5
789
330
1F
100
AcDbEntity
  8
1
  6
CONTINUOUS
370
50
 62
4
100
AcDbLine
 10
51.096664
 20
2.043374
 30
0.0
 11
50.42063899999999
 21
2.152319
 31
0.0
  0
LINE
  5
78A
330
1F
100
AcDbEntity
  8
1
  6
CONTINUOUS
370
50
 62
4
100
AcDbLine
 10
47.599411
 20
-2.916945
 30
0.0
 11
47.206001
 21
-2.853733
 31
0.0
  0
LINE
  5
78B
330
1F
100
AcDbEntity
  8
1
  6
CONTINUOUS
370
50
 62
4
100
AcDbLine
 10
51.351223
 20
2.843538
 30
0.0
 11
50.898544
 21
2.916046
 31
0.0
  0
LINE
  5
78C
330
1F
100
AcDbEntity
  8
1
  6
CONTINUOUS
370
50
 62
4
100
AcDbLine
 10
50.368412
 20
2.870166
 30
0.0
 11
49.99303099999999
 21
2.926528
 31
0.0
  0
LINE
  5
78D
330
1F
100
AcDbEntity
  8
1
  6
CONTINUOUS
370
50
 62
4
100
AcDbLine
 10
48.757824
 20
-2.953637
 30
0.0
 11
47.98086499999999
 21
-2.843901
 31
0.0
  0
LINE
  5
78E
330
1F
100
AcDbEntity
  8
1
  6
CONTINUOUS
370
50
 62
4
100
AcDbLine
 10
42.975517
 20
2.977692
 30
0.0
 11
42.848911
 21
2.994491
 31
0.0
  0
LINE
  5
78F
330
1F
100
AcDbEntity
  8
1
  6
CONTINUOUS
370
50
 62
4
100
AcDbLine
 10
56.094608
 20
-2.954391
 30
0.0
 11
55.684982
 21
-2.904417
 31
0.0
  0
LINE
  5
790
330
1F
100
AcDbEntity
  8
1
  6
CONTINUOUS
370
50
 62
4
100
AcDbLine
 10
48.000965
 20
-2.962767
 30
0.0
 11
47.599411
 21
-2.916945
 31
0.0
  0
LINE
  5
791
330
1F
100
AcDbEntity
  8
1
  6
CONTINUOUS
370
50
 62
4
100
AcDbLine
 10
50.898544
 20
2.916046
 30
0.0
 11
50.452042
 21
2.96665
 31
0.0
  0
LINE
  5
792
330
1F
100
AcDbEntity
  8
1
  6
CONTINUOUS
370
50
 62
4
100
AcDbLine
 10
49.99303099999999
 20
2.926528
 30
0.0
 11
49.60439299999999
 21
2.967584
 31
0.0
  0
LINE
  5
793
330
1F
100
AcDbEntity
  8
1
  6
CONTINUOUS
370
50
 62
4
100
AcDbLine
 10
50.42063899999999
 20
2.152319
 30
0.0
 11
49.744617
 21
2.223487
 31
0.0
  0
LINE
  5
794
330
1F
100
AcDbEntity
  8
1
  6
CONTINUOUS
370
50
 62
4
100
AcDbLine
 10
56.5
 20
-2.986336
 30
0.0
 11
56.094608
 21
-2.954391
 31
0.0
  0
LINE
  5
795
330
1F
100
AcDbEntity
  8
1
  6
CONTINUOUS
370
50
 62
4
100
AcDbLine
 10
56.647129
 20
1.494605
 30
0.0
 11
56.639584
 21
1.495149
 31
0.0
  0
LINE
  5
796
330
1F
100
AcDbEntity
  8
1
  6
CONTINUOUS
370
50
 62
4
100
AcDbLine
 10
56.639584
 20
1.495149
 30
0.0
 11
56.632042
 21
1.495692
 31
0.0
  0
LINE
  5
797
330
1F
100
AcDbEntity
  8
1
  6
CONTINUOUS
370
50
 62
4
100
AcDbLine
 10
56.632042
 20
1.495692
 30
0.0
 11
56.624496
 21
1.496233
 31
0.0
  0
LINE
  5
798
330
1F
100
AcDbEntity
  8
1
  6
CONTINUOUS
370
50
 62
4
100
AcDbLine
 10
56.624496
 20
1.496233
 30
0.0
 11
56.616955
 21
1.496772
 31
0.0
  0
LINE
  5
799
330
1F
100
AcDbEntity
  8
1
  6
CONTINUOUS
370
50
 62
4
100
AcDbLine
 10
56.616955
 20
1.496772
 30
0.0
 11
56.609413
 21
1.497308
 31
0.0
  0
LINE
  5
79A
330
1F
100
AcDbEntity
  8
1
  6
CONTINUOUS
370
50
 62
4
100
AcDbLine
 10
56.609413
 20
1.497308
 30
0.0
 11
56.601871
 21
1.497843
 31
0.0
  0
LINE
  5
79B
330
1F
100
AcDbEntity
  8
1
  6
CONTINUOUS
370
50
 62
4
100
AcDbLine
 10
48.411125
 20
-2.990555
 30
0.0
 11
48.000965
 21
-2.962767
 31
0.0
  0
LINE
  5
79C
330
1F
100
AcDbEntity
  8
1
  6
CONTINUOUS
370
50
 62
4
100
AcDbLine
 10
49.60439299999999
 20
2.967584
 30
0.0
 11
49.213249
 21
2.992014
 31
0.0
  0
LINE
  5
79D
330
1F
100
AcDbEntity
  8
1
  6
CONTINUOUS
370
50
 62
4
100
AcDbLine
 10
50.452042
 20
2.96665
 30
0.0
 11
50.004276
 21
2.994321
 31
0.0
  0
LINE
  5
79E
330
1F
100
AcDbEntity
  8
1
  6
CONTINUOUS
370
50
 62
4
100
AcDbLine
 10
42.728249
 20
-2.999933
 30
0.0
 11
42.60733
 21
-2.992632
 31
0.0
  0
LINE
  5
79F
330
1F
100
AcDbEntity
  8
1
  6
CONTINUOUS
370
50
 62
4
100
AcDbLine
 10
49.539749
 20
-2.998779
 30
0.0
 11
48.757824
 21
-2.953637
 31
0.0
  0
LINE
  5
7A0
330
1F
100
AcDbEntity
  8
1
  6
CONTINUOUS
370
50
 62
4
100
AcDbLine
 10
49.744617
 20
2.223487
 30
0.0
 11
49.0686
 21
2.255655
 31
0.0
  0
LINE
  5
7A1
330
1F
100
AcDbEntity
  8
1
  6
CONTINUOUS
370
50
 62
4
100
AcDbLine
 10
42.848911
 20
2.994491
 30
0.0
 11
42.728249
 21
2.999933
 31
0.0
  0
LINE
  5
7A2
330
1F
100
AcDbEntity
  8
1
  6
CONTINUOUS
370
50
 62
4
100
AcDbLine
 10
48.822285
 20
-2.999936
 30
0.0
 11
48.411125
 21
-2.990555
 31
0.0
  0
LINE
  5
7A3
330
1F
100
AcDbEntity
  8
1
  6
CONTINUOUS
370
50
 62
4
100
AcDbLine
 10
49.213249
 20
2.992014
 30
0.0
 11
48.822285
 21
2.999936
 31
0.0
  0
LINE
  5
7A4
330
1F
100
AcDbEntity
  8
1
  6
CONTINUOUS
370
50
 62
4
100
AcDbLine
 10
50.004276
 20
2.994321
 30
0.0
 11
49.539749
 21
2.998779
 31
0.0
  0
LINE
  5
7A5
330
1F
100
AcDbEntity
  8
1
  6
CONTINUOUS
370
50
 62
4
100
AcDbLine
 10
49.684448
 20
-2.999945
 30
0.0
 11
48.829445
 21
-2.999939
 31
0.0
  0
LINE
  5
7A6
330
1F
100
AcDbEntity
  8
1
  6
CONTINUOUS
370
50
 62
4
100
AcDbLine
 10
38.0
 20
-2.99995
 30
0.0
 11
42.733429
 21
-2.99995
 31
0.0
  0
LINE
  5
7A7
330
1F
100
AcDbEntity
  8
1
  6
CONTINUOUS
370
50
 62
4
100
AcDbLine
 10
38.0
 20
2.99995
 30
0.0
 11
42.733429
 21
2.99995
 31
0.0
  0
LINE
  5
7A8
330
1F
100
AcDbEntity
  8
1
  6
CONTINUOUS
370
50
 62
4
100
AcDbLine
 10
48.829445
 20
2.999939
 30
0.0
 11
49.684448
 21
2.999945
 31
0.0
  0
LINE
  5
7A9
330
1F
100
AcDbEntity
  8
1
  6
CONTINUOUS
370
50
 62
4
100
AcDbLine
 10
48.39257
 20
2.250952
 30
0.0
 11
49.0686
 21
2.255655
 31
0.0
  0
LINE
  5
7AA
330
1F
100
AcDbEntity
  8
1
  6
CONTINUOUS
370
50
 62
4
100
AcDbLine
 10
49.539749
 20
-2.998779
 30
0.0
 11
50.004276
 21
-2.994321
 31
0.0
  0
LINE
  5
7AB
330
1F
100
AcDbEntity
  8
1
  6
CONTINUOUS
370
50
 62
4
100
AcDbLine
 10
43.8312
 20
2.404812
 30
0.0
 11
44.0
 21
2.40671
 31
0.0
  0
LINE
  5
7AC
330
1F
100
AcDbEntity
  8
1
  6
CONTINUOUS
370
50
 62
4
100
AcDbLine
 10
43.662399
 20
2.402801
 30
0.0
 11
43.8312
 21
2.404812
 31
0.0
  0
LINE
  5
7AD
330
1F
100
AcDbEntity
  8
1
  6
CONTINUOUS
370
50
 62
4
100
AcDbLine
 10
43.493599
 20
2.400678
 30
0.0
 11
43.662399
 21
2.402801
 31
0.0
  0
LINE
  5
7AE
330
1F
100
AcDbEntity
  8
1
  6
CONTINUOUS
370
50
 62
4
100
AcDbLine
 10
43.324802
 20
2.398442
 30
0.0
 11
43.493599
 21
2.400678
 31
0.0
  0
LINE
  5
7AF
330
1F
100
AcDbEntity
  8
1
  6
CONTINUOUS
370
50
 62
4
100
AcDbLine
 10
43.15600999999999
 20
2.396095
 30
0.0
 11
43.324802
 21
2.398442
 31
0.0
  0
LINE
  5
7B0
330
1F
100
AcDbEntity
  8
1
  6
CONTINUOUS
370
50
 62
4
100
AcDbLine
 10
42.98722799999999
 20
2.393636
 30
0.0
 11
43.15600999999999
 21
2.396095
 31
0.0
  0
LINE
  5
7B1
330
1F
100
AcDbEntity
  8
1
  6
CONTINUOUS
370
50
 62
4
100
AcDbLine
 10
43.8312
 20
-1.793482
 30
0.0
 11
44.0
 21
-1.790934
 31
0.0
  0
LINE
  5
7B2
330
1F
100
AcDbEntity
  8
1
  6
CONTINUOUS
370
50
 62
4
100
AcDbLine
 10
42.818451
 20
2.391065
 30
0.0
 11
42.98722799999999
 21
2.393636
 31
0.0
  0
LINE
  5
7B3
330
1F
100
AcDbEntity
  8
1
  6
CONTINUOUS
370
50
 62
4
100
AcDbLine
 10
43.662399
 20
-1.796176
 30
0.0
 11
43.8312
 21
-1.793482
 31
0.0
  0
LINE
  5
7B4
330
1F
100
AcDbEntity
  8
1
  6
CONTINUOUS
370
50
 62
4
100
AcDbLine
 10
43.493599
 20
-1.799013
 30
0.0
 11
43.662399
 21
-1.796176
 31
0.0
  0
LINE
  5
7B5
330
1F
100
AcDbEntity
  8
1
  6
CONTINUOUS
370
50
 62
4
100
AcDbLine
 10
43.324802
 20
-1.801993
 30
0.0
 11
43.493599
 21
-1.799013
 31
0.0
  0
LINE
  5
7B6
330
1F
100
AcDbEntity
  8
1
  6
CONTINUOUS
370
50
 62
4
100
AcDbLine
 10
43.15600999999999
 20
-1.805113
 30
0.0
 11
43.324802
 21
-1.801993
 31
0.0
  0
LINE
  5
7B7
330
1F
100
AcDbEntity
  8
1
  6
CONTINUOUS
370
50
 62
4
100
AcDbLine
 10
42.98722799999999
 20
-1.808372
 30
0.0
 11
43.15600999999999
 21
-1.805113
 31
0.0
  0
LINE
  5
7B8
330
1F
100
AcDbEntity
  8
1
  6
CONTINUOUS
370
50
 62
4
100
AcDbLine
 10
42.818451
 20
-1.811769
 30
0.0
 11
42.98722799999999
 21
-1.808372
 31
0.0
  0
LINE
  5
7B9
330
1F
100
AcDbEntity
  8
1
  6
CONTINUOUS
370
50
 62
4
100
AcDbLine
 10
42.764256
 20
2.389802
 30
0.0
 11
42.818451
 21
2.391065
 31
0.0
  0
LINE
  5
7BA
330
1F
100
AcDbEntity
  8
1
  6
CONTINUOUS
370
50
 62
4
100
AcDbLine
 10
48.368595
 20
2.988539
 30
0.0
 11
48.822285
 21
2.999936
 31
0.0
  0
LINE
  5
7BB
330
1F
100
AcDbEntity
  8
1
  6
CONTINUOUS
370
50
 62
4
100
AcDbLine
 10
42.760197
 20
-1.813614
 30
0.0
 11
42.818451
 21
-1.811769
 31
0.0
  0
LINE
  5
7BC
330
1F
100
AcDbEntity
  8
1
  6
CONTINUOUS
370
50
 62
4
100
AcDbLine
 10
42.710007
 20
2.387686
 30
0.0
 11
42.764256
 21
2.389802
 31
0.0
  0
LINE
  5
7BD
330
1F
100
AcDbEntity
  8
1
  6
CONTINUOUS
370
50
 62
4
100
AcDbLine
 10
42.728249
 20
-2.999933
 30
0.0
 11
42.848911
 21
-2.994491
 31
0.0
  0
LINE
  5
7BE
330
1F
100
AcDbEntity
  8
1
  6
CONTINUOUS
370
50
 62
4
100
AcDbLine
 10
55.951176
 20
2.588508
 30
0.0
 11
56.01235999999999
 21
2.591491
 31
0.0
  0
LINE
  5
7BF
330
1F
100
AcDbEntity
  8
1
  6
CONTINUOUS
370
50
 62
4
100
AcDbLine
 10
56.01235999999999
 20
2.591491
 30
0.0
 11
56.068226
 21
2.594239
 31
0.0
  0
LINE
  5
7C0
330
1F
100
AcDbEntity
  8
1
  6
CONTINUOUS
370
50
 62
4
100
AcDbLine
 10
55.88567
 20
2.585274
 30
0.0
 11
55.951176
 21
2.588508
 31
0.0
  0
LINE
  5
7C1
330
1F
100
AcDbEntity
  8
1
  6
CONTINUOUS
370
50
 62
4
100
AcDbLine
 10
55.816872
 20
2.58178
 30
0.0
 11
55.88567
 21
2.585274
 31
0.0
  0
LINE
  5
7C2
330
1F
100
AcDbEntity
  8
1
  6
CONTINUOUS
370
50
 62
4
100
AcDbLine
 10
56.068226
 20
2.594239
 30
0.0
 11
56.124008
 21
2.597082
 31
0.0
  0
LINE
  5
7C3
330
1F
100
AcDbEntity
  8
1
  6
CONTINUOUS
370
50
 62
4
100
AcDbLine
 10
55.745811
 20
2.578012
 30
0.0
 11
55.816872
 21
2.58178
 31
0.0
  0
LINE
  5
7C4
330
1F
100
AcDbEntity
  8
1
  6
CONTINUOUS
370
50
 62
4
100
AcDbLine
 10
42.701885
 20
-1.816763
 30
0.0
 11
42.760197
 21
-1.813614
 31
0.0
  0
LINE
  5
7C5
330
1F
100
AcDbEntity
  8
1
  6
CONTINUOUS
370
50
 62
4
100
AcDbLine
 10
56.124008
 20
2.597082
 30
0.0
 11
56.181904
 21
2.600227
 31
0.0
  0
LINE
  5
7C6
330
1F
100
AcDbEntity
  8
1
  6
CONTINUOUS
370
50
 62
4
100
AcDbLine
 10
42.655792
 20
2.384701
 30
0.0
 11
42.710007
 21
2.387686
 31
0.0
  0
LINE
  5
7C7
330
1F
100
AcDbEntity
  8
1
  6
CONTINUOUS
370
50
 62
4
100
AcDbLine
 10
55.673523
 20
2.573961
 30
0.0
 11
55.745811
 21
2.578012
 31
0.0
  0
LINE
  5
7C8
330
1F
100
AcDbEntity
  8
1
  6
CONTINUOUS
370
50
 62
4
100
AcDbLine
 10
56.181904
 20
2.600227
 30
0.0
 11
56.239002
 21
2.603633
 31
0.0
  0
LINE
  5
7C9
330
1F
100
AcDbEntity
  8
1
  6
CONTINUOUS
370
50
 62
4
100
AcDbLine
 10
50.004276
 20
-2.994321
 30
0.0
 11
50.452042
 21
-2.96665
 31
0.0
  0
LINE
  5
7CA
330
1F
100
AcDbEntity
  8
1
  6
CONTINUOUS
370
50
 62
4
100
AcDbLine
 10
47.716541
 20
2.208173
 30
0.0
 11
48.39257
 21
2.250952
 31
0.0
  0
LINE
  5
7CB
330
1F
100
AcDbEntity
  8
1
  6
CONTINUOUS
370
50
 62
4
100
AcDbLine
 10
56.239002
 20
2.603633
 30
0.0
 11
56.29528
 21
2.60744
 31
0.0
  0
LINE
  5
7CC
330
1F
100
AcDbEntity
  8
1
  6
CONTINUOUS
370
50
 62
4
100
AcDbLine
 10
42.601696
 20
2.380829
 30
0.0
 11
42.655792
 21
2.384701
 31
0.0
  0
LINE
  5
7CD
330
1F
100
AcDbEntity
  8
1
  6
CONTINUOUS
370
50
 62
4
100
AcDbLine
 10
47.91648499999999
 20
2.954695
 30
0.0
 11
48.368595
 21
2.988539
 31
0.0
  0
LINE
  5
7CE
330
1F
100
AcDbEntity
  8
1
  6
CONTINUOUS
370
50
 62
4
100
AcDbLine
 10
42.643627
 20
-1.821221
 30
0.0
 11
42.701885
 21
-1.816763
 31
0.0
  0
LINE
  5
7CF
330
1F
100
AcDbEntity
  8
1
  6
CONTINUOUS
370
50
 62
4
100
AcDbLine
 10
56.29528
 20
2.60744
 30
0.0
 11
56.35146
 21
2.611873
 31
0.0
  0
LINE
  5
7D0
330
1F
100
AcDbEntity
  8
1
  6
CONTINUOUS
370
50
 62
4
100
AcDbLine
 10
56.061207
 20
2.95097
 30
0.0
 11
56.5
 21
2.986336
 31
0.0
  0
LINE
  5
7D1
330
1F
100
AcDbEntity
  8
1
  6
CONTINUOUS
370
50
 62
4
100
AcDbLine
 10
42.547813
 20
2.376054
 30
0.0
 11
42.601696
 21
2.380829
 31
0.0
  0
LINE
  5
7D2
330
1F
100
AcDbEntity
  8
1
  6
CONTINUOUS
370
50
 62
4
100
AcDbLine
 10
56.35146
 20
2.611873
 30
0.0
 11
56.407661
 21
2.617203
 31
0.0
  0
LINE
  5
7D3
330
1F
100
AcDbEntity
  8
1
  6
CONTINUOUS
370
50
 62
4
100
AcDbLine
 10
42.585533
 20
-1.826991
 30
0.0
 11
42.643627
 21
-1.821221
 31
0.0
  0
LINE
  5
7D4
330
1F
100
AcDbEntity
  8
1
  6
CONTINUOUS
370
50
 62
4
100
AcDbLine
 10
55.60998499999999
 20
2.179068
 30
0.0
 11
55.82884199999999
 21
2.201698
 31
0.0
  0
LINE
  5
7D5
330
1F
100
AcDbEntity
  8
1
  6
CONTINUOUS
370
50
 62
4
100
AcDbLine
 10
42.494228
 20
2.370358
 30
0.0
 11
42.547813
 21
2.376054
 31
0.0
  0
LINE
  5
7D6
330
1F
100
AcDbEntity
  8
1
  6
CONTINUOUS
370
50
 62
4
100
AcDbLine
 10
50.452042
 20
-2.96665
 30
0.0
 11
50.898544
 21
-2.916046
 31
0.0
  0
LINE
  5
7D7
330
1F
100
AcDbEntity
  8
1
  6
CONTINUOUS
370
50
 62
4
100
AcDbLine
 10
56.407661
 20
2.617203
 30
0.0
 11
56.464081
 21
2.623822
 31
0.0
  0
LINE
  5
7D8
330
1F
100
AcDbEntity
  8
1
  6
CONTINUOUS
370
50
 62
4
100
AcDbLine
 10
55.391132
 20
2.152525
 30
0.0
 11
55.60998499999999
 21
2.179068
 31
0.0
  0
LINE
  5
7D9
330
1F
100
AcDbEntity
  8
1
  6
CONTINUOUS
370
50
 62
4
100
AcDbLine
 10
47.040516
 20
2.125695
 30
0.0
 11
47.716541
 21
2.208173
 31
0.0
  0
LINE
  5
7DA
330
1F
100
AcDbEntity
  8
1
  6
CONTINUOUS
370
50
 62
4
100
AcDbLine
 10
42.527714
 20
-1.83408
 30
0.0
 11
42.585533
 21
-1.826991
 31
0.0
  0
LINE
  5
7DB
330
1F
100
AcDbEntity
  8
1
  6
CONTINUOUS
370
50
 62
4
100
AcDbLine
 10
42.441029
 20
2.363726
 30
0.0
 11
42.494228
 21
2.370358
 31
0.0
  0
LINE
  5
7DC
330
1F
100
AcDbEntity
  8
1
  6
CONTINUOUS
370
50
 62
4
100
AcDbLine
 10
47.47718
 20
2.899209
 30
0.0
 11
47.91648499999999
 21
2.954695
 31
0.0
  0
LINE
  5
7DD
330
1F
100
AcDbEntity
  8
1
  6
CONTINUOUS
370
50
 62
4
100
AcDbLine
 10
55.61769899999999
 20
2.89456
 30
0.0
 11
56.061207
 21
2.95097
 31
0.0
  0
LINE
  5
7DE
330
1F
100
AcDbEntity
  8
1
  6
CONTINUOUS
370
50
 62
4
100
AcDbLine
 10
42.848911
 20
-2.994491
 30
0.0
 11
42.975517
 21
-2.977692
 31
0.0
  0
LINE
  5
7DF
330
1F
100
AcDbEntity
  8
1
  6
CONTINUOUS
370
50
 62
4
100
AcDbLine
 10
55.172276
 20
2.122388
 30
0.0
 11
55.391132
 21
2.152525
 31
0.0
  0
LINE
  5
7E0
330
1F
100
AcDbEntity
  8
1
  6
CONTINUOUS
370
50
 62
4
100
AcDbLine
 10
42.388306
 20
2.35614
 30
0.0
 11
42.441029
 21
2.363726
 31
0.0
  0
LINE
  5
7E1
330
1F
100
AcDbEntity
  8
1
  6
CONTINUOUS
370
50
 62
4
100
AcDbLine
 10
42.470276
 20
-1.84249
 30
0.0
 11
42.527714
 21
-1.83408
 31
0.0
  0
LINE
  5
7E2
330
1F
100
AcDbEntity
  8
1
  6
CONTINUOUS
370
50
 62
4
100
AcDbLine
 10
56.464081
 20
2.623822
 30
0.0
 11
56.519653
 21
2.632107
 31
0.0
  0
LINE
  5
7E3
330
1F
100
AcDbEntity
  8
1
  6
CONTINUOUS
370
50
 62
4
100
AcDbLine
 10
54.953415
 20
2.088704
 30
0.0
 11
55.172276
 21
2.122388
 31
0.0
  0
LINE
  5
7E4
330
1F
100
AcDbEntity
  8
1
  6
CONTINUOUS
370
50
 62
4
100
AcDbLine
 10
50.898544
 20
-2.916046
 30
0.0
 11
51.351223
 21
-2.843538
 31
0.0
  0
LINE
  5
7E5
330
1F
100
AcDbEntity
  8
1
  6
CONTINUOUS
370
50
 62
4
100
AcDbLine
 10
42.336208
 20
2.347594
 30
0.0
 11
42.388306
 21
2.35614
 31
0.0
  0
LINE
  5
7E6
330
1F
100
AcDbEntity
  8
1
  6
CONTINUOUS
370
50
 62
4
100
AcDbLine
 10
54.734554
 20
2.051397
 30
0.0
 11
54.953415
 21
2.088704
 31
0.0
  0
LINE
  5
7E7
330
1F
100
AcDbEntity
  8
1
  6
CONTINUOUS
370
50
 62
4
100
AcDbLine
 10
42.413334
 20
-1.852228
 30
0.0
 11
42.470276
 21
-1.84249
 31
0.0
  0
LINE
  5
7E8
330
1F
100
AcDbEntity
  8
1
  6
CONTINUOUS
370
50
 62
4
100
AcDbLine
 10
55.17268
 20
2.817857
 30
0.0
 11
55.61769899999999
 21
2.89456
 31
0.0
  0
LINE
  5
7E9
330
1F
100
AcDbEntity
  8
1
  6
CONTINUOUS
370
50
 62
4
100
AcDbLine
 10
46.364494
 20
2.008945
 30
0.0
 11
47.040516
 21
2.125695
 31
0.0
  0
LINE
  5
7EA
330
1F
100
AcDbEntity
  8
1
  6
CONTINUOUS
370
50
 62
4
100
AcDbLine
 10
47.041649
 20
2.822353
 30
0.0
 11
47.47718
 21
2.899209
 31
0.0
  0
LINE
  5
7EB
330
1F
100
AcDbEntity
  8
1
  6
CONTINUOUS
370
50
 62
4
100
AcDbLine
 10
42.285324
 20
2.338159
 30
0.0
 11
42.336208
 21
2.347594
 31
0.0
  0
LINE
  5
7EC
330
1F
100
AcDbEntity
  8
1
  6
CONTINUOUS
370
50
 62
4
100
AcDbLine
 10
54.515694
 20
2.010366
 30
0.0
 11
54.734554
 21
2.051397
 31
0.0
  0
LINE
  5
7ED
330
1F
100
AcDbEntity
  8
1
  6
CONTINUOUS
370
50
 62
4
100
AcDbLine
 10
56.519653
 20
2.632107
 30
0.0
 11
56.570709
 21
2.641926
 31
0.0
  0
LINE
  5
7EE
330
1F
100
AcDbEntity
  8
1
  6
CONTINUOUS
370
50
 62
4
100
AcDbLine
 10
42.356991
 20
-1.863296
 30
0.0
 11
42.413334
 21
-1.852228
 31
0.0
  0
LINE
  5
7EF
330
1F
100
AcDbEntity
  8
1
  6
CONTINUOUS
370
50
 62
4
100
AcDbLine
 10
42.975517
 20
-2.977692
 30
0.0
 11
43.1096
 21
-2.950376
 31
0.0
  0
LINE
  5
7F0
330
1F
100
AcDbEntity
  8
1
  6
CONTINUOUS
370
50
 62
4
100
AcDbLine
 10
51.351223
 20
-2.843538
 30
0.0
 11
51.805439
 21
-2.750448
 31
0.0
  0
LINE
  5
7F1
330
1F
100
AcDbEntity
  8
1
  6
CONTINUOUS
370
50
 62
4
100
AcDbLine
 10
42.235844
 20
2.327856
 30
0.0
 11
42.285324
 21
2.338159
 31
0.0
  0
LINE
  5
7F2
330
1F
100
AcDbEntity
  8
1
  6
CONTINUOUS
370
50
 62
4
100
AcDbLine
 10
54.729355
 20
2.721615
 30
0.0
 11
55.17268
 21
2.817857
 31
0.0
  0
LINE
  5
7F3
330
1F
100
AcDbEntity
  8
1
  6
CONTINUOUS
370
50
 62
4
100
AcDbLine
 10
46.595619
 20
2.724255
 30
0.0
 11
47.041649
 21
2.822353
 31
0.0
  0
LINE
  5
7F4
330
1F
100
AcDbEntity
  8
1
  6
CONTINUOUS
370
50
 62
4
100
AcDbLine
 10
42.301769
 20
-1.875601
 30
0.0
 11
42.356991
 21
-1.863296
 31
0.0
  0
LINE
  5
7F5
330
1F
100
AcDbEntity
  8
1
  6
CONTINUOUS
370
50
 62
4
100
AcDbLine
 10
55.871716
 20
-0.255885
 30
0.0
 11
56.994225
 21
-0.00131
 31
0.0
  0
LINE
  5
7F6
330
1F
100
AcDbEntity
  8
1
  6
CONTINUOUS
370
50
 62
4
100
AcDbLine
 10
42.187832
 20
2.316687
 30
0.0
 11
42.235844
 21
2.327856
 31
0.0
  0
LINE
  5
7F7
330
1F
100
AcDbEntity
  8
1
  6
CONTINUOUS
370
50
 62
4
100
AcDbLine
 10
51.805439
 20
-2.750448
 30
0.0
 11
52.252216
 21
-2.639461
 31
0.0
  0
LINE
  5
7F8
330
1F
100
AcDbEntity
  8
1
  6
CONTINUOUS
370
50
 62
4
100
AcDbLine
 10
56.570709
 20
2.641926
 30
0.0
 11
56.616924
 21
2.653419
 31
0.0
  0
LINE
  5
7F9
330
1F
100
AcDbEntity
  8
1
  6
CONTINUOUS
370
50
 62
4
100
AcDbLine
 10
42.248142
 20
-1.889016
 30
0.0
 11
42.301769
 21
-1.875601
 31
0.0
  0
LINE
  5
7FA
330
1F
100
AcDbEntity
  8
1
  6
CONTINUOUS
370
50
 62
4
100
AcDbLine
 10
43.1096
 20
-2.950376
 30
0.0
 11
43.252472
 21
-2.913466
 31
0.0
  0
LINE
  5
7FB
330
1F
100
AcDbEntity
  8
1
  6
CONTINUOUS
370
50
 62
4
100
AcDbLine
 10
42.141357
 20
2.304654
 30
0.0
 11
42.187832
 21
2.316687
 31
0.0
  0
LINE
  5
7FC
330
1F
100
AcDbEntity
  8
1
  6
CONTINUOUS
370
50
 62
4
100
AcDbLine
 10
46.145077
 20
2.606564
 30
0.0
 11
46.595619
 21
2.724255
 31
0.0
  0
LINE
  5
7FD
330
1F
100
AcDbEntity
  8
1
  6
CONTINUOUS
370
50
 62
4
100
AcDbLine
 10
54.2906
 20
2.606491
 30
0.0
 11
54.729355
 21
2.721615
 31
0.0
  0
LINE
  5
7FE
330
1F
100
AcDbEntity
  8
1
  6
CONTINUOUS
370
50
 62
4
100
AcDbLine
 10
52.252216
 20
-2.639478
 30
0.0
 11
52.28884499999999
 21
-2.629583
 31
0.0
  0
LINE
  5
7FF
330
1F
100
AcDbEntity
  8
1
  6
CONTINUOUS
370
50
 62
4
100
AcDbLine
 10
52.28884499999999
 20
-2.629583
 30
0.0
 11
52.38870199999999
 21
-2.60253
 31
0.0
  0
LINE
  5
800
330
1F
100
AcDbEntity
  8
1
  6
CONTINUOUS
370
50
 62
4
100
AcDbLine
 10
44.0
 20
-2.664588
 30
0.0
 11
44.015327
 21
-2.660428
 31
0.0
  0
LINE
  5
801
330
1F
100
AcDbEntity
  8
1
  6
CONTINUOUS
370
50
 62
4
100
AcDbLine
 10
52.38870199999999
 20
-2.60253
 30
0.0
 11
52.486481
 21
-2.575927
 31
0.0
  0
LINE
  5
802
330
1F
100
AcDbEntity
  8
1
  6
CONTINUOUS
370
50
 62
4
100
AcDbLine
 10
44.015327
 20
-2.660428
 30
0.0
 11
44.030579
 21
-2.656261
 31
0.0
  0
LINE
  5
803
330
1F
100
AcDbEntity
  8
1
  6
CONTINUOUS
370
50
 62
4
100
AcDbLine
 10
52.486481
 20
-2.575927
 30
0.0
 11
52.584259
 21
-2.54921
 31
0.0
  0
LINE
  5
804
330
1F
100
AcDbEntity
  8
1
  6
CONTINUOUS
370
50
 62
4
100
AcDbLine
 10
52.584259
 20
-2.54921
 30
0.0
 11
52.68203399999999
 21
-2.522377
 31
0.0
  0
LINE
  5
805
330
1F
100
AcDbEntity
  8
1
  6
CONTINUOUS
370
50
 62
4
100
AcDbLine
 10
44.030579
 20
-2.656261
 30
0.0
 11
44.04575
 21
-2.652087
 31
0.0
  0
LINE
  5
806
330
1F
100
AcDbEntity
  8
1
  6
CONTINUOUS
370
50
 62
4
100
AcDbLine
 10
52.68203399999999
 20
-2.522377
 30
0.0
 11
52.779785
 21
-2.495431
 31
0.0
  0
LINE
  5
807
330
1F
100
AcDbEntity
  8
1
  6
CONTINUOUS
370
50
 62
4
100
AcDbLine
 10
45.17178
 20
-2.335665
 30
0.0
 11
45.24303099999999
 21
-2.316024
 31
0.0
  0
LINE
  5
808
330
1F
100
AcDbEntity
  8
1
  6
CONTINUOUS
370
50
 62
4
100
AcDbLine
 10
45.100536
 20
-2.355356
 30
0.0
 11
45.17178
 21
-2.335665
 31
0.0
  0
LINE
  5
809
330
1F
100
AcDbEntity
  8
1
  6
CONTINUOUS
370
50
 62
4
100
AcDbLine
 10
52.779785
 20
-2.495431
 30
0.0
 11
52.877533
 21
-2.468363
 31
0.0
  0
LINE
  5
80A
330
1F
100
AcDbEntity
  8
1
  6
CONTINUOUS
370
50
 62
4
100
AcDbLine
 10
44.04575
 20
-2.652087
 30
0.0
 11
44.060852
 21
-2.647904
 31
0.0
  0
LINE
  5
80B
330
1F
100
AcDbEntity
  8
1
  6
CONTINUOUS
370
50
 62
4
100
AcDbLine
 10
45.029289
 20
-2.375098
 30
0.0
 11
45.100536
 21
-2.355356
 31
0.0
  0
LINE
  5
80C
330
1F
100
AcDbEntity
  8
1
  6
CONTINUOUS
370
50
 62
4
100
AcDbLine
 10
44.958046
 20
-2.394892
 30
0.0
 11
45.029289
 21
-2.375098
 31
0.0
  0
LINE
  5
80D
330
1F
100
AcDbEntity
  8
1
  6
CONTINUOUS
370
50
 62
4
100
AcDbLine
 10
52.877533
 20
-2.468363
 30
0.0
 11
52.975838
 21
-2.441014
 31
0.0
  0
LINE
  5
80E
330
1F
100
AcDbEntity
  8
1
  6
CONTINUOUS
370
50
 62
4
100
AcDbLine
 10
44.864967
 20
-2.420831
 30
0.0
 11
44.958046
 21
-2.394892
 31
0.0
  0
LINE
  5
80F
330
1F
100
AcDbEntity
  8
1
  6
CONTINUOUS
370
50
 62
4
100
AcDbLine
 10
42.196194
 20
-1.903493
 30
0.0
 11
42.248142
 21
-1.889016
 31
0.0
  0
LINE
  5
810
330
1F
100
AcDbEntity
  8
1
  6
CONTINUOUS
370
50
 62
4
100
AcDbLine
 10
44.060852
 20
-2.647904
 30
0.0
 11
44.07589
 21
-2.643712
 31
0.0
  0
LINE
  5
811
330
1F
100
AcDbEntity
  8
1
  6
CONTINUOUS
370
50
 62
4
100
AcDbLine
 10
52.975838
 20
-2.441014
 30
0.0
 11
53.070229
 21
-2.414635
 31
0.0
  0
LINE
  5
812
330
1F
100
AcDbEntity
  8
1
  6
CONTINUOUS
370
50
 62
4
100
AcDbLine
 10
44.765007
 20
-2.448788
 30
0.0
 11
44.864967
 21
-2.420831
 31
0.0
  0
LINE
  5
813
330
1F
100
AcDbEntity
  8
1
  6
CONTINUOUS
370
50
 62
4
100
AcDbLine
 10
44.680298
 20
-2.472562
 30
0.0
 11
44.765007
 21
-2.448788
 31
0.0
  0
LINE
  5
814
330
1F
100
AcDbEntity
  8
1
  6
CONTINUOUS
370
50
 62
4
100
AcDbLine
 10
44.07589
 20
-2.643712
 30
0.0
 11
44.090862
 21
-2.63951
 31
0.0
  0
LINE
  5
815
330
1F
100
AcDbEntity
  8
1
  6
CONTINUOUS
370
50
 62
4
100
AcDbLine
 10
53.070229
 20
-2.414635
 30
0.0
 11
53.158092
 21
-2.389973
 31
0.0
  0
LINE
  5
816
330
1F
100
AcDbEntity
  8
1
  6
CONTINUOUS
370
50
 62
4
100
AcDbLine
 10
44.596054
 20
-2.496278
 30
0.0
 11
44.680298
 21
-2.472562
 31
0.0
  0
LINE
  5
817
330
1F
100
AcDbEntity
  8
1
  6
CONTINUOUS
370
50
 62
4
100
AcDbLine
 10
53.158092
 20
-2.389973
 30
0.0
 11
53.244789
 21
-2.365537
 31
0.0
  0
LINE
  5
818
330
1F
100
AcDbEntity
  8
1
  6
CONTINUOUS
370
50
 62
4
100
AcDbLine
 10
44.090862
 20
-2.639529
 30
0.0
 11
44.175053
 21
-2.615764
 31
0.0
  0
LINE
  5
819
330
1F
100
AcDbEntity
  8
1
  6
CONTINUOUS
370
50
 62
4
100
AcDbLine
 10
44.511837
 20
-2.52006
 30
0.0
 11
44.596054
 21
-2.496278
 31
0.0
  0
LINE
  5
81A
330
1F
100
AcDbEntity
  8
1
  6
CONTINUOUS
370
50
 62
4
100
AcDbLine
 10
53.244789
 20
-2.365537
 30
0.0
 11
53.331474
 21
-2.341001
 31
0.0
  0
LINE
  5
81B
330
1F
100
AcDbEntity
  8
1
  6
CONTINUOUS
370
50
 62
4
100
AcDbLine
 10
44.42762
 20
-2.543913
 30
0.0
 11
44.511837
 21
-2.52006
 31
0.0
  0
LINE
  5
81C
330
1F
100
AcDbEntity
  8
1
  6
CONTINUOUS
370
50
 62
4
100
AcDbLine
 10
44.34343
 20
-2.56783
 30
0.0
 11
44.42762
 21
-2.543913
 31
0.0
  0
LINE
  5
81D
330
1F
100
AcDbEntity
  8
1
  6
CONTINUOUS
370
50
 62
4
100
AcDbLine
 10
53.331474
 20
-2.341001
 30
0.0
 11
53.418144
 21
-2.316367
 31
0.0
  0
LINE
  5
81E
330
1F
100
AcDbEntity
  8
1
  6
CONTINUOUS
370
50
 62
4
100
AcDbLine
 10
44.175053
 20
-2.615764
 30
0.0
 11
44.259243
 21
-2.591814
 31
0.0
  0
LINE
  5
81F
330
1F
100
AcDbEntity
  8
1
  6
CONTINUOUS
370
50
 62
4
100
AcDbLine
 10
44.259243
 20
-2.591814
 30
0.0
 11
44.34343
 21
-2.56783
 31
0.0
  0
LINE
  5
820
330
1F
100
AcDbEntity
  8
1
  6
CONTINUOUS
370
50
 62
4
100
AcDbLine
 10
42.096489
 20
2.291759
 30
0.0
 11
42.141357
 21
2.304654
 31
0.0
  0
LINE
  5
821
330
1F
100
AcDbEntity
  8
1
  6
CONTINUOUS
370
50
 62
4
100
AcDbLine
 10
43.252472
 20
-2.913466
 30
0.0
 11
43.402431
 21
-2.869003
 31
0.0
  0
LINE
  5
822
330
1F
100
AcDbEntity
  8
1
  6
CONTINUOUS
370
50
 62
4
100
AcDbLine
 10
45.693203
 20
2.470185
 30
0.0
 11
46.145077
 21
2.606564
 31
0.0
  0
LINE
  5
823
330
1F
100
AcDbEntity
  8
1
  6
CONTINUOUS
370
50
 62
4
100
AcDbLine
 10
42.146004
 20
-1.918987
 30
0.0
 11
42.196194
 21
-1.903493
 31
0.0
  0
LINE
  5
824
330
1F
100
AcDbEntity
  8
1
  6
CONTINUOUS
370
50
 62
4
100
AcDbLine
 10
53.854515
 20
2.471537
 30
0.0
 11
54.2906
 21
2.606491
 31
0.0
  0
LINE
  5
825
330
1F
100
AcDbEntity
  8
1
  6
CONTINUOUS
370
50
 62
4
100
AcDbLine
 10
42.053291
 20
2.278005
 30
0.0
 11
42.096489
 21
2.291759
 31
0.0
  0
LINE
  5
826
330
1F
100
AcDbEntity
  8
1
  6
CONTINUOUS
370
50
 62
4
100
AcDbLine
 10
56.616924
 20
2.653419
 30
0.0
 11
56.658638
 21
2.666821
 31
0.0
  0
LINE
  5
827
330
1F
100
AcDbEntity
  8
1
  6
CONTINUOUS
370
50
 62
4
100
AcDbLine
 10
43.402431
 20
-2.869003
 30
0.0
 11
43.559536
 21
-2.81832
 31
0.0
  0
LINE
  5
828
330
1F
100
AcDbEntity
  8
1
  6
CONTINUOUS
370
50
 62
4
100
AcDbLine
 10
43.559536
 20
-2.81832
 30
0.0
 11
43.724777
 21
-2.762392
 31
0.0
  0
LINE
  5
829
330
1F
100
AcDbEntity
  8
1
  6
CONTINUOUS
370
50
 62
4
100
AcDbLine
 10
42.09766399999999
 20
-1.935447
 30
0.0
 11
42.146004
 21
-1.918987
 31
0.0
  0
LINE
  5
82A
330
1F
100
AcDbEntity
  8
1
  6
CONTINUOUS
370
50
 62
4
100
AcDbLine
 10
45.243057
 20
2.316004
 30
0.0
 11
45.693203
 21
2.470185
 31
0.0
  0
LINE
  5
82B
330
1F
100
AcDbEntity
  8
1
  6
CONTINUOUS
370
50
 62
4
100
AcDbLine
 10
43.724777
 20
-2.762392
 30
0.0
 11
43.899143
 21
-2.702197
 31
0.0
  0
LINE
  5
82C
330
1F
100
AcDbEntity
  8
1
  6
CONTINUOUS
370
50
 62
4
100
AcDbLine
 10
42.011837
 20
2.263393
 30
0.0
 11
42.053291
 21
2.278005
 31
0.0
  0
LINE
  5
82D
330
1F
100
AcDbEntity
  8
1
  6
CONTINUOUS
370
50
 62
4
100
AcDbLine
 10
53.418163
 20
2.316351
 30
0.0
 11
53.854515
 21
2.471537
 31
0.0
  0
LINE
  5
82E
330
1F
100
AcDbEntity
  8
1
  6
CONTINUOUS
370
50
 62
4
100
AcDbLine
 10
42.051254
 20
-1.952828
 30
0.0
 11
42.09766399999999
 21
-1.935447
 31
0.0
  0
LINE
  5
82F
330
1F
100
AcDbEntity
  8
1
  6
CONTINUOUS
370
50
 62
4
100
AcDbLine
 10
41.972187
 20
2.247926
 30
0.0
 11
42.011837
 21
2.263393
 31
0.0
  0
LINE
  5
830
330
1F
100
AcDbEntity
  8
1
  6
CONTINUOUS
370
50
 62
4
100
AcDbLine
 10
42.006859
 20
-1.971082
 30
0.0
 11
42.051254
 21
-1.952828
 31
0.0
  0
LINE
  5
831
330
1F
100
AcDbEntity
  8
1
  6
CONTINUOUS
370
50
 62
4
100
AcDbLine
 10
56.658638
 20
2.666821
 30
0.0
 11
56.70343399999999
 21
2.685947
 31
0.0
  0
LINE
  5
832
330
1F
100
AcDbEntity
  8
1
  6
CONTINUOUS
370
50
 62
4
100
AcDbLine
 10
41.933952
 20
2.231392
 30
0.0
 11
41.972187
 21
2.247926
 31
0.0
  0
LINE
  5
833
330
1F
100
AcDbEntity
  8
1
  6
CONTINUOUS
370
50
 62
4
100
AcDbLine
 10
41.965557
 20
-1.989689
 30
0.0
 11
42.006859
 21
-1.971082
 31
0.0
  0
LINE
  5
834
330
1F
100
AcDbEntity
  8
1
  6
CONTINUOUS
370
50
 62
4
100
AcDbLine
 10
41.89675099999999
 20
2.213479
 30
0.0
 11
41.933952
 21
2.231392
 31
0.0
  0
LINE
  5
835
330
1F
100
AcDbEntity
  8
1
  6
CONTINUOUS
370
50
 62
4
100
AcDbLine
 10
41.925652
 20
-2.009401
 30
0.0
 11
41.965557
 21
-1.989689
 31
0.0
  0
LINE
  5
836
330
1F
100
AcDbEntity
  8
1
  6
CONTINUOUS
370
50
 62
4
100
AcDbLine
 10
41.860901
 20
2.19413
 30
0.0
 11
41.89675099999999
 21
2.213479
 31
0.0
  0
LINE
  5
837
330
1F
100
AcDbEntity
  8
1
  6
CONTINUOUS
370
50
 62
4
100
AcDbLine
 10
41.886955
 20
-2.030438
 30
0.0
 11
41.925652
 21
-2.009401
 31
0.0
  0
LINE
  5
838
330
1F
100
AcDbEntity
  8
1
  6
CONTINUOUS
370
50
 62
4
100
AcDbLine
 10
41.849838
 20
-2.052774
 30
0.0
 11
41.886955
 21
-2.030438
 31
0.0
  0
LINE
  5
839
330
1F
100
AcDbEntity
  8
1
  6
CONTINUOUS
370
50
 62
4
100
AcDbLine
 10
41.826717
 20
2.173292
 30
0.0
 11
41.860901
 21
2.19413
 31
0.0
  0
LINE
  5
83A
330
1F
100
AcDbEntity
  8
1
  6
CONTINUOUS
370
50
 62
4
100
AcDbLine
 10
56.762581
 20
0.9717819999999999
 30
0.0
 11
56.807949
 21
0.999578
 31
0.0
  0
LINE
  5
83B
330
1F
100
AcDbEntity
  8
1
  6
CONTINUOUS
370
50
 62
4
100
AcDbLine
 10
56.70343399999999
 20
2.685947
 30
0.0
 11
56.769543
 21
2.728143
 31
0.0
  0
LINE
  5
83C
330
1F
100
AcDbEntity
  8
1
  6
CONTINUOUS
370
50
 62
4
100
AcDbLine
 10
56.717625
 20
0.9421879999999999
 30
0.0
 11
56.762581
 21
0.9717819999999999
 31
0.0
  0
LINE
  5
83D
330
1F
100
AcDbEntity
  8
1
  6
CONTINUOUS
370
50
 62
4
100
AcDbLine
 10
41.814671
 20
-2.076382
 30
0.0
 11
41.849838
 21
-2.052774
 31
0.0
  0
LINE
  5
83E
330
1F
100
AcDbEntity
  8
1
  6
CONTINUOUS
370
50
 62
4
100
AcDbLine
 10
41.794529
 20
2.15091
 30
0.0
 11
41.826717
 21
2.173292
 31
0.0
  0
LINE
  5
83F
330
1F
100
AcDbEntity
  8
1
  6
CONTINUOUS
370
50
 62
4
100
AcDbLine
 10
56.673111
 20
0.9107409999999999
 30
0.0
 11
56.717625
 21
0.9421879999999999
 31
0.0
  0
LINE
  5
840
330
1F
100
AcDbEntity
  8
1
  6
CONTINUOUS
370
50
 62
4
100
AcDbLine
 10
41.781818
 20
-2.101237
 30
0.0
 11
41.814671
 21
-2.076382
 31
0.0
  0
LINE
  5
841
330
1F
100
AcDbEntity
  8
1
  6
CONTINUOUS
370
50
 62
4
100
AcDbLine
 10
56.62907
 20
0.8773839999999999
 30
0.0
 11
56.673111
 21
0.9107409999999999
 31
0.0
  0
LINE
  5
842
330
1F
100
AcDbEntity
  8
1
  6
CONTINUOUS
370
50
 62
4
100
AcDbLine
 10
41.764652
 20
2.126931
 30
0.0
 11
41.794529
 21
2.15091
 31
0.0
  0
LINE
  5
843
330
1F
100
AcDbEntity
  8
1
  6
CONTINUOUS
370
50
 62
4
100
AcDbLine
 10
56.585537
 20
0.8420599999999999
 30
0.0
 11
56.62907
 21
0.8773839999999999
 31
0.0
  0
LINE
  5
844
330
1F
100
AcDbEntity
  8
1
  6
CONTINUOUS
370
50
 62
4
100
AcDbLine
 10
56.647133
 20
-0.4505
 30
0.0
 11
57.0
 21
-0.149394
 31
0.0
  0
LINE
  5
845
330
1F
100
AcDbEntity
  8
1
  6
CONTINUOUS
370
50
 62
4
100
AcDbLine
 10
41.751663
 20
-2.12731
 30
0.0
 11
41.781818
 21
-2.101237
 31
0.0
  0
LINE
  5
846
330
1F
100
AcDbEntity
  8
1
  6
CONTINUOUS
370
50
 62
4
100
AcDbLine
 10
56.542534
 20
0.8047139999999999
 30
0.0
 11
56.585537
 21
0.8420599999999999
 31
0.0
  0
LINE
  5
847
330
1F
100
AcDbEntity
  8
1
  6
CONTINUOUS
370
50
 62
4
100
AcDbLine
 10
56.500092
 20
0.7652869999999999
 30
0.0
 11
56.542534
 21
0.8047139999999999
 31
0.0
  0
LINE
  5
848
330
1F
100
AcDbEntity
  8
1
  6
CONTINUOUS
370
50
 62
4
100
AcDbLine
 10
56.499962
 20
-2.986382
 30
0.0
 11
56.538689
 21
-2.949931
 31
0.0
  0
LINE
  5
849
330
1F
100
AcDbEntity
  8
1
  6
CONTINUOUS
370
50
 62
4
100
AcDbLine
 10
41.737423
 20
2.101299
 30
0.0
 11
41.764652
 21
2.126931
 31
0.0
  0
LINE
  5
84A
330
1F
100
AcDbEntity
  8
1
  6
CONTINUOUS
370
50
 62
4
100
AcDbLine
 10
56.538689
 20
-2.949931
 30
0.0
 11
56.57732
 21
-2.913344
 31
0.0
  0
LINE
  5
84B
330
1F
100
AcDbEntity
  8
1
  6
CONTINUOUS
370
50
 62
4
100
AcDbLine
 10
56.57732
 20
-2.913344
 30
0.0
 11
56.615871
 21
-2.876614
 31
0.0
  0
LINE
  5
84C
330
1F
100
AcDbEntity
  8
1
  6
CONTINUOUS
370
50
 62
4
100
AcDbLine
 10
56.615871
 20
-2.876614
 30
0.0
 11
56.654354
 21
-2.839736
 31
0.0
  0
LINE
  5
84D
330
1F
100
AcDbEntity
  8
1
  6
CONTINUOUS
370
50
 62
4
100
AcDbLine
 10
56.654354
 20
-2.839736
 30
0.0
 11
56.69278
 21
-2.802706
 31
0.0
  0
LINE
  5
84E
330
1F
100
AcDbEntity
  8
1
  6
CONTINUOUS
370
50
 62
4
100
AcDbLine
 10
56.69278
 20
-2.802706
 30
0.0
 11
56.731167
 21
-2.765515
 31
0.0
  0
LINE
  5
84F
330
1F
100
AcDbEntity
  8
1
  6
CONTINUOUS
370
50
 62
4
100
AcDbLine
 10
56.731167
 20
-2.765515
 30
0.0
 11
56.76952
 21
-2.72816
 31
0.0
  0
LINE
  5
850
330
1F
100
AcDbEntity
  8
1
  6
CONTINUOUS
370
50
 62
4
100
AcDbLine
 10
56.769558
 20
-2.728122
 30
0.0
 11
56.807789
 21
-2.690598
 31
0.0
  0
LINE
  5
851
330
1F
100
AcDbEntity
  8
1
  6
CONTINUOUS
370
50
 62
4
100
AcDbLine
 10
56.807789
 20
-2.690598
 30
0.0
 11
56.84549699999999
 21
-2.653469
 31
0.0
  0
LINE
  5
852
330
1F
100
AcDbEntity
  8
1
  6
CONTINUOUS
370
50
 62
4
100
AcDbLine
 10
56.84549699999999
 20
-2.653469
 30
0.0
 11
56.88269
 21
-2.616726
 31
0.0
  0
LINE
  5
853
330
1F
100
AcDbEntity
  8
1
  6
CONTINUOUS
370
50
 62
4
100
AcDbLine
 10
56.88269
 20
-2.616726
 30
0.0
 11
56.91938
 21
-2.580361
 31
0.0
  0
LINE
  5
854
330
1F
100
AcDbEntity
  8
1
  6
CONTINUOUS
370
50
 62
4
100
AcDbLine
 10
56.91938
 20
-2.580361
 30
0.0
 11
56.955566
 21
-2.544367
 31
0.0
  0
LINE
  5
855
330
1F
100
AcDbEntity
  8
1
  6
CONTINUOUS
370
50
 62
4
100
AcDbLine
 10
56.955566
 20
-2.544367
 30
0.0
 11
56.99126399999999
 21
-2.508737
 31
0.0
  0
LINE
  5
856
330
1F
100
AcDbEntity
  8
1
  6
CONTINUOUS
370
50
 62
4
100
AcDbLine
 10
56.991268
 20
-2.508733
 30
0.0
 11
57.0
 21
-2.5
 31
0.0
  0
LINE
  5
857
330
1F
100
AcDbEntity
  8
1
  6
CONTINUOUS
370
50
 62
4
100
AcDbLine
 10
41.724613
 20
-2.154543
 30
0.0
 11
41.751663
 21
-2.12731
 31
0.0
  0
LINE
  5
858
330
1F
100
AcDbEntity
  8
1
  6
CONTINUOUS
370
50
 62
4
100
AcDbLine
 10
41.713223
 20
2.073974
 30
0.0
 11
41.737423
 21
2.101299
 31
0.0
  0
LINE
  5
859
330
1F
100
AcDbEntity
  8
1
  6
CONTINUOUS
370
50
 62
4
100
AcDbLine
 10
56.66064799999999
 20
-0.7630819999999999
 30
0.0
 11
56.660801
 21
-0.762898
 31
0.0
  0
LINE
  5
85A
330
1F
100
AcDbEntity
  8
1
  6
CONTINUOUS
370
50
 62
4
100
AcDbLine
 10
41.701099
 20
-2.182856
 30
0.0
 11
41.724613
 21
-2.154543
 31
0.0
  0
LINE
  5
85B
330
1F
100
AcDbEntity
  8
1
  6
CONTINUOUS
370
50
 62
4
100
AcDbLine
 10
56.66034699999999
 20
-0.763452
 30
0.0
 11
56.6605
 21
-0.7632669999999999
 31
0.0
  0
LINE
  5
85C
330
1F
100
AcDbEntity
  8
1
  6
CONTINUOUS
370
50
 62
4
100
AcDbLine
 10
56.66004599999999
 20
-0.763821
 30
0.0
 11
56.66019799999999
 21
-0.763636
 31
0.0
  0
LINE
  5
85D
330
1F
100
AcDbEntity
  8
1
  6
CONTINUOUS
370
50
 62
4
100
AcDbLine
 10
56.66019799999999
 20
-0.763636
 30
0.0
 11
56.66034699999999
 21
-0.763452
 31
0.0
  0
LINE
  5
85E
330
1F
100
AcDbEntity
  8
1
  6
CONTINUOUS
370
50
 62
4
100
AcDbLine
 10
56.660801
 20
-0.762898
 30
0.0
 11
56.66095
 21
-0.762713
 31
0.0
  0
LINE
  5
85F
330
1F
100
AcDbEntity
  8
1
  6
CONTINUOUS
370
50
 62
4
100
AcDbLine
 10
56.6605
 20
-0.7632669999999999
 30
0.0
 11
56.66064799999999
 21
-0.7630819999999999
 31
0.0
  0
LINE
  5
860
330
1F
100
AcDbEntity
  8
1
  6
CONTINUOUS
370
50
 62
4
100
AcDbLine
 10
56.500092
 20
-2.900775
 30
0.0
 11
56.542534
 21
-2.846056
 31
0.0
  0
LINE
  5
861
330
1F
100
AcDbEntity
  8
1
  6
CONTINUOUS
370
50
 62
4
100
AcDbLine
 10
56.542534
 20
-2.846056
 30
0.0
 11
56.585537
 21
-2.790374
 31
0.0
  0
LINE
  5
862
330
1F
100
AcDbEntity
  8
1
  6
CONTINUOUS
370
50
 62
4
100
AcDbLine
 10
56.585537
 20
-2.790374
 30
0.0
 11
56.62907
 21
-2.73379
 31
0.0
  0
LINE
  5
863
330
1F
100
AcDbEntity
  8
1
  6
CONTINUOUS
370
50
 62
4
100
AcDbLine
 10
56.62907
 20
-2.73379
 30
0.0
 11
56.673111
 21
-2.676366
 31
0.0
  0
LINE
  5
864
330
1F
100
AcDbEntity
  8
1
  6
CONTINUOUS
370
50
 62
4
100
AcDbLine
 10
56.673111
 20
-2.676366
 30
0.0
 11
56.717625
 21
-2.618161
 31
0.0
  0
LINE
  5
865
330
1F
100
AcDbEntity
  8
1
  6
CONTINUOUS
370
50
 62
4
100
AcDbLine
 10
56.717625
 20
-2.618161
 30
0.0
 11
56.762581
 21
-2.559236
 31
0.0
  0
LINE
  5
866
330
1F
100
AcDbEntity
  8
1
  6
CONTINUOUS
370
50
 62
4
100
AcDbLine
 10
56.762581
 20
-2.559236
 30
0.0
 11
56.807949
 21
-2.499652
 31
0.0
  0
LINE
  5
867
330
1F
100
AcDbEntity
  8
1
  6
CONTINUOUS
370
50
 62
4
100
AcDbLine
 10
41.692421
 20
2.04492
 30
0.0
 11
41.713223
 21
2.073974
 31
0.0
  0
LINE
  5
868
330
1F
100
AcDbEntity
  8
1
  6
CONTINUOUS
370
50
 62
4
100
AcDbLine
 10
41.681557
 20
-2.212171
 30
0.0
 11
41.701099
 21
-2.182856
 31
0.0
  0
LINE
  5
869
330
1F
100
AcDbEntity
  8
1
  6
CONTINUOUS
370
50
 62
4
100
AcDbLine
 10
41.675396
 20
2.014107
 30
0.0
 11
41.692421
 21
2.04492
 31
0.0
  0
LINE
  5
86A
330
1F
100
AcDbEntity
  8
1
  6
CONTINUOUS
370
50
 62
4
100
AcDbLine
 10
41.666504
 20
-2.242215
 30
0.0
 11
41.681557
 21
-2.212171
 31
0.0
  0
LINE
  5
86B
330
1F
100
AcDbEntity
  8
1
  6
CONTINUOUS
370
50
 62
4
100
AcDbLine
 10
55.871716
 20
-0.255885
 30
0.0
 11
55.889069
 21
-0.213909
 31
0.0
  0
LINE
  5
86C
330
1F
100
AcDbEntity
  8
1
  6
CONTINUOUS
370
50
 62
4
100
AcDbLine
 10
41.662674
 20
1.981951
 30
0.0
 11
41.675396
 21
2.014107
 31
0.0
  0
LINE
  5
86D
330
1F
100
AcDbEntity
  8
1
  6
CONTINUOUS
370
50
 62
4
100
AcDbLine
 10
55.889069
 20
-0.213909
 30
0.0
 11
55.904625
 21
-0.171628
 31
0.0
  0
LINE
  5
86E
330
1F
100
AcDbEntity
  8
1
  6
CONTINUOUS
370
50
 62
4
100
AcDbLine
 10
41.656429
 20
-2.272353
 30
0.0
 11
41.666504
 21
-2.242215
 31
0.0
  0
LINE
  5
86F
330
1F
100
AcDbEntity
  8
1
  6
CONTINUOUS
370
50
 62
4
100
AcDbLine
 10
55.904625
 20
-0.171628
 30
0.0
 11
55.918209
 21
-0.129591
 31
0.0
  0
LINE
  5
870
330
1F
100
AcDbEntity
  8
1
  6
CONTINUOUS
370
50
 62
4
100
AcDbLine
 10
55.918209
 20
-0.129591
 30
0.0
 11
55.929806
 21
-0.087983
 31
0.0
  0
LINE
  5
871
330
1F
100
AcDbEntity
  8
1
  6
CONTINUOUS
370
50
 62
4
100
AcDbLine
 10
41.654518
 20
1.94881
 30
0.0
 11
41.662674
 21
1.981951
 31
0.0
  0
LINE
  5
872
330
1F
100
AcDbEntity
  8
1
  6
CONTINUOUS
370
50
 62
4
100
AcDbLine
 10
55.929806
 20
-0.087983
 30
0.0
 11
55.939449
 21
-0.046895
 31
0.0
  0
LINE
  5
873
330
1F
100
AcDbEntity
  8
1
  6
CONTINUOUS
370
50
 62
4
100
AcDbLine
 10
55.939449
 20
-0.046895
 30
0.0
 11
55.947163
 21
-0.006416
 31
0.0
  0
LINE
  5
874
330
1F
100
AcDbEntity
  8
1
  6
CONTINUOUS
370
50
 62
4
100
AcDbLine
 10
41.651417
 20
-2.302464
 30
0.0
 11
41.656429
 21
-2.272353
 31
0.0
  0
LINE
  5
875
330
1F
100
AcDbEntity
  8
1
  6
CONTINUOUS
370
50
 62
4
100
AcDbLine
 10
55.947163
 20
-0.006416
 30
0.0
 11
55.952976
 21
0.033362
 31
0.0
  0
LINE
  5
876
330
1F
100
AcDbEntity
  8
1
  6
CONTINUOUS
370
50
 62
4
100
AcDbLine
 10
55.954086
 20
1.647753
 30
0.0
 11
55.957699
 21
1.674017
 31
0.0
  0
LINE
  5
877
330
1F
100
AcDbEntity
  8
1
  6
CONTINUOUS
370
50
 62
4
100
AcDbLine
 10
41.650982
 20
1.914722
 30
0.0
 11
41.654518
 21
1.94881
 31
0.0
  0
LINE
  5
878
330
1F
100
AcDbEntity
  8
1
  6
CONTINUOUS
370
50
 62
4
100
AcDbLine
 10
55.952976
 20
0.033362
 30
0.0
 11
55.956905
 21
0.072206
 31
0.0
  0
LINE
  5
879
330
1F
100
AcDbEntity
  8
1
  6
CONTINUOUS
370
50
 62
4
100
AcDbLine
 10
55.957699
 20
1.674017
 30
0.0
 11
55.959301
 21
1.702334
 31
0.0
  0
LINE
  5
87A
330
1F
100
AcDbEntity
  8
1
  6
CONTINUOUS
370
50
 62
4
100
AcDbLine
 10
55.956905
 20
0.072206
 30
0.0
 11
55.958996
 21
0.10986
 31
0.0
  0
LINE
  5
87B
330
1F
100
AcDbEntity
  8
1
  6
CONTINUOUS
370
50
 62
4
100
AcDbLine
 10
56.654495
 20
-0.886859
 30
0.0
 11
56.66004599999999
 21
-0.763821
 31
0.0
  0
LINE
  5
87C
330
1F
100
AcDbEntity
  8
1
  6
CONTINUOUS
370
50
 62
4
100
AcDbLine
 10
56.651157
 20
-1.010297
 30
0.0
 11
56.654495
 21
-0.886859
 31
0.0
  0
LINE
  5
87D
330
1F
100
AcDbEntity
  8
1
  6
CONTINUOUS
370
50
 62
4
100
AcDbLine
 10
55.958996
 20
0.10986
 30
0.0
 11
55.959324
 21
0.146285
 31
0.0
  0
LINE
  5
87E
330
1F
100
AcDbEntity
  8
1
  6
CONTINUOUS
370
50
 62
4
100
AcDbLine
 10
56.650047
 20
-1.133885
 30
0.0
 11
56.651157
 21
-1.010297
 31
0.0
  0
LINE
  5
87F
330
1F
100
AcDbEntity
  8
1
  6
CONTINUOUS
370
50
 62
4
100
AcDbLine
 10
56.66095
 20
-0.762713
 30
0.0
 11
56.661285
 21
-0.7174229999999999
 31
0.0
  0
LINE
  5
880
330
1F
100
AcDbEntity
  8
1
  6
CONTINUOUS
370
50
 62
4
100
AcDbLine
 10
38.0
 20
-2.99995
 30
0.0
 11
38.0
 21
2.99995
 31
0.0
  0
LINE
  5
881
330
1F
100
AcDbEntity
  8
1
  6
CONTINUOUS
370
50
 62
4
100
AcDbLine
 10
44.0
 20
-2.66662
 30
0.0
 11
44.0
 21
2.66662
 31
0.0
  0
LINE
  5
882
330
1F
100
AcDbEntity
  8
1
  6
CONTINUOUS
370
50
 62
4
100
AcDbLine
 10
56.5
 20
0.286005
 30
0.0
 11
56.5
 21
0.76533
 31
0.0
  0
LINE
  5
883
330
1F
100
AcDbEntity
  8
1
  6
CONTINUOUS
370
50
 62
4
100
AcDbLine
 10
56.5
 20
-2.986336
 30
0.0
 11
56.5
 21
-2.900736
 31
0.0
  0
LINE
  5
884
330
1F
100
AcDbEntity
  8
1
  6
CONTINUOUS
370
50
 62
4
100
AcDbLine
 10
57.0
 20
-2.5
 30
0.0
 11
57.0
 21
0.408407
 31
0.0
  0
LINE
  5
885
330
1F
100
AcDbEntity
  8
1
  6
CONTINUOUS
370
50
 62
4
100
AcDbLine
 10
57.0
 20
0.408414
 30
0.0
 11
57.0
 21
2.499996
 31
0.0
  0
ELLIPSE
  5
886
330
1F
100
AcDbEntity
  8
1
  6
CONTINUOUS
370
50
 62
4
100
AcDbEllipse
 10
56.853278
 20
0.0
 30
0.0
 11
1.532665878977227E-16
 21
2.503116
 31
0.0
210
0.0
220
0.0
230
1.0
 40
0.3435605860855027
 41
3.088814439715256
 42
3.313044473180229
  0
ELLIPSE
  5
887
330
1F
100
AcDbEntity
  8
1
  6
CONTINUOUS
370
50
 62
4
100
AcDbEllipse
 10
63.79499
 20
-38.534995
 30
0.0
 11
-39.76904399843268
 21
18.28472900340892
 31
0.0
210
0.0
220
0.0
230
0.9999999999999998
 40
0.8446724853449132
 41
5.565309746140445
 42
5.567980268220633
  0
ELLIPSE
  5
888
330
1F
100
AcDbEntity
  8
1
  6
CONTINUOUS
370
50
 62
4
100
AcDbEllipse
 10
63.79499
 20
14.061695
 30
0.0
 11
-42.31352909312107
 21
11.20149264823608
 31
0.0
210
0.0
220
0.0
230
1.0
 40
0.4863418236481207
 41
1.213677656110196
 42
1.216348178156758
  0
ELLIPSE
  5
889
330
1F
100
AcDbEntity
  8
1
  6
CONTINUOUS
370
50
 62
4
100
AcDbEllipse
 10
63.79499
 20
38.534995
 30
0.0
 11
39.76904399843265
 21
18.28472900340894
 31
0.0
210
0.0
220
0.0
230
1.0
 40
0.8446724853449139
 41
3.856797692548744
 42
3.859468214628935
  0
ELLIPSE
  5
88A
330
1F
100
AcDbEntity
  8
1
  6
CONTINUOUS
370
50
 62
4
100
AcDbEllipse
 10
64.288311
 20
-37.462029
 30
0.0
 11
-39.99598284511885
 21
18.38906933686444
 31
0.0
210
0.0
220
0.0
230
1.0
 40
0.8446725021124784
 41
5.595141970718002
 42
5.637287717133651
  0
ELLIPSE
  5
88B
330
1F
100
AcDbEntity
  8
1
  6
CONTINUOUS
370
50
 62
4
100
AcDbEllipse
 10
64.288311
 20
15.925208
 30
0.0
 11
-42.55498797365389
 21
11.26541309952217
 31
0.0
210
0.0
220
0.0
230
0.9999999999999999
 40
0.4863418381953141
 41
1.144370206353415
 42
1.206314256292462
  0
ELLIPSE
  5
88C
330
1F
100
AcDbEntity
  8
1
  6
CONTINUOUS
370
50
 62
4
100
AcDbEllipse
 10
64.535505
 20
16.858984
 30
0.0
 11
-42.29075998105829
 21
11.19546507155211
 31
0.0
210
0.0
220
0.0
230
1.0
 40
0.4863418389826302
 41
1.1644519714813
 42
1.196355360398013
  0
LINE
  5
88D
330
1F
100
AcDbEntity
  8
CUT
  6
CONTINUOUS
370
25
 62
1
100
AcDbLine
 10
44.0
 20
0.0
 30
0.0
 11
57.0
 21
0.0
 31
0.0
  0
LINE
  5
88E
330
1F
100
AcDbEntity
  8
CUT
  6
CONTINUOUS
370
25
 62
1
100
AcDbLine
 10
57.0
 20
0.0
 30
0.0
 11
57.0
 21
2.495
 31
0.0
  0
LINE
  5
88F
330
1F
100
AcDbEntity
  8
CUT
  6
CONTINUOUS
370
25
 62
1
100
AcDbLine
 10
57.0
 20
2.495
 30
0.0
 11
57.0
 21
2.5
 31
0.0
  0
LINE
  5
890
330
1F
100
AcDbEntity
  8
CUT
  6
CONTINUOUS
370
25
 62
1
100
AcDbLine
 10
57.0
 20
2.5
 30
0.0
 11
56.5
 21
3.0
 31
0.0
  0
LINE
  5
891
330
1F
100
AcDbEntity
  8
CUT
  6
CONTINUOUS
370
25
 62
1
100
AcDbLine
 10
56.5
 20
3.0
 30
0.0
 11
44.0
 21
2.9999
 31
0.0
  0
LINE
  5
892
330
1F
100
AcDbEntity
  8
CUT
  6
CONTINUOUS
370
25
 62
1
100
AcDbLine
 10
44.0
 20
2.9999
 30
0.0
 11
44.0
 21
0.0
 31
0.0
  0
LINE
  5
893
330
1F
100
AcDbEntity
  8
NOCUT
  6
CONTINUOUS
370
25
 62
7
100
AcDbLine
 10
38.0
 20
0.0
 30
0.0
 11
44.0
 21
0.0
 31
0.0
  0
LINE
  5
894
330
1F
100
AcDbEntity
  8
NOCUT
  6
CONTINUOUS
370
25
 62
7
100
AcDbLine
 10
44.0
 20
0.0
 30
0.0
 11
44.0
 21
2.99995
 31
0.0
  0
LINE
  5
895
330
1F
100
AcDbEntity
  8
NOCUT
  6
CONTINUOUS
370
25
 62
7
100
AcDbLine
 10
44.0
 20
2.99995
 30
0.0
 11
38.0
 21
2.99995
 31
0.0
  0
LINE
  5
896
330
1F
100
AcDbEntity
  8
NOCUT
  6
CONTINUOUS
370
25
 62
7
100
AcDbLine
 10
38.0
 20
2.99995
 30
0.0
 11
38.0
 21
0.0
 31
0.0
  0
LINE
  5
897
330
1F
100
AcDbEntity
  8
SK1
  6
CONTINUOUS
370
50
 62
4
100
AcDbLine
 10
38.0
 20
3.0
 30
0.0
 11
0.7999999999999972
 21
3.0
 31
0.0
  0
LINE
  5
898
330
1F
100
AcDbEntity
  8
SK1
  6
CONTINUOUS
370
50
 62
4
100
AcDbLine
 10
0.7999999999999972
 20
3.0
 30
0.0
 11
0.0
 21
2.538119784648299
 31
0.0
  0
LINE
  5
899
330
1F
100
AcDbEntity
  8
SK1
  6
CONTINUOUS
370
50
 62
4
100
AcDbLine
 10
0.0
 20
2.538119784648299
 30
0.0
 11
0.0
 21
-2.538119784648299
 31
0.0
  0
LINE
  5
89A
330
1F
100
AcDbEntity
  8
SK1
  6
CONTINUOUS
370
50
 62
4
100
AcDbLine
 10
0.0
 20
-2.538119784648299
 30
0.0
 11
0.7999999999999972
 21
-3.0
 31
0.0
  0
LINE
  5
89B
330
1F
100
AcDbEntity
  8
SK1
  6
CONTINUOUS
370
50
 62
4
100
AcDbLine
 10
0.7999999999999972
 20
-3.0
 30
0.0
 11
38.0
 21
-3.0
 31
0.0
  0
LINE
  5
89C
330
1F
100
AcDbEntity
  8
SK1
  6
CONTINUOUS
370
50
 62
4
100
AcDbLine
 10
15.9
 20
-2.4
 30
0.0
 11
15.9
 21
2.4
 31
0.0
  0
LINE
  5
89D
330
1F
100
AcDbEntity
  8
SK1
  6
CONTINUOUS
370
50
 62
4
100
AcDbLine
 10
15.9
 20
2.4
 30
0.0
 11
20.1
 21
2.4
 31
0.0
  0
LINE
  5
89E
330
1F
100
AcDbEntity
  8
SK1
  6
CONTINUOUS
370
50
 62
4
100
AcDbLine
 10
20.1
 20
2.4
 30
0.0
 11
20.1
 21
-2.4
 31
0.0
  0
LINE
  5
89F
330
1F
100
AcDbEntity
  8
SK1
  6
CONTINUOUS
370
50
 62
4
100
AcDbLine
 10
20.1
 20
-2.4
 30
0.0
 11
15.9
 21
-2.4
 31
0.0
  0
ARC
  5
8A0
330
1F
100
AcDbEntity
  8
SK1
  6
CONTINUOUS
370
50
 62
4
100
AcDbCircle
 10
17.7
 20
-0.0000000000000018
 30
0.0
 40
3.000000000000002
100
AcDbArc
 50
126.8698976458441
 51
233.1301023541559
  0
ARC
  5
8A1
330
1F
100
AcDbEntity
  8
SK1
  6
CONTINUOUS
370
50
 62
4
100
AcDbCircle
 10
18.29999999999999
 20
0.0
 30
0.0
 40
3.000000000000004
100
AcDbArc
 50
306.8698976458442
 51
53.13010235415585
  0
LINE
  5
8A2
330
1F
100
AcDbEntity
  8
SK1
  6
CONTINUOUS
370
50
 62
4
100
AcDbLine
 10
0.7999999999999972
 20
3.0
 30
0.0
 11
0.7999999999999972
 21
-3.0
 31
0.0
  0
LINE
  5
8A3
330
1F
100
AcDbEntity
  8
SK2
  6
CONTINUOUS
370
25
 62
7
100
AcDbLine
 10
0.0
 20
2.07623957
 30
0.0
 11
0.0
 21
14.00001
 31
0.0
  0
LINE
  5
8A4
330
1F
100
AcDbEntity
  8
SK2
  6
CONTINUOUS
370
25
 62
7
100
AcDbLine
 10
38.0
 20
14.00001
 30
0.0
 11
38.0
 21
3.0
 31
0.0
  0
LINE
  5
8A5
330
1F
100
AcDbEntity
  8
SK2
  6
CONTINUOUS
370
25
 62
7
100
AcDbLine
 10
0.0
 20
13.00001
 30
0.0
 11
38.0
 21
13.00001
 31
0.0
  0
LINE
  5
8A6
330
1F
100
AcDbEntity
  8
SK2
  6
CONTINUOUS
370
25
 62
7
100
AcDbLine
 10
0.0
 20
13.00001
 30
0.0
 11
5.0
 21
14.00001
 31
0.0
  0
LINE
  5
8A7
330
1F
100
AcDbEntity
  8
SK2
  6
CONTINUOUS
370
25
 62
7
100
AcDbLine
 10
5.0
 20
14.00001
 30
0.0
 11
5.0
 21
12.00001
 31
0.0
  0
LINE
  5
8A8
330
1F
100
AcDbEntity
  8
SK2
  6
CONTINUOUS
370
25
 62
7
100
AcDbLine
 10
5.0
 20
12.00001
 30
0.0
 11
0.0
 21
13.00001
 31
0.0
  0
LINE
  5
8A9
330
1F
100
AcDbEntity
  8
SK2
  6
CONTINUOUS
370
25
 62
7
100
AcDbLine
 10
4.669795539853062
 20
12.06605089202939
 30
0.0
 11
5.0
 21
12.39625535217633
 31
0.0
  0
LINE
  5
8AA
330
1F
100
AcDbEntity
  8
SK2
  6
CONTINUOUS
370
25
 62
7
100
AcDbLine
 10
4.316242149259793
 20
12.13676157014805
 30
0.0
 11
5.0
 21
12.82051942088825
 31
0.0
  0
LINE
  5
8AB
330
1F
100
AcDbEntity
  8
SK2
  6
CONTINUOUS
370
25
 62
7
100
AcDbLine
 10
3.962688758666509
 20
12.2074722482667
 30
0.0
 11
5.0
 21
13.24478348960018
 31
0.0
  0
LINE
  5
8AC
330
1F
100
AcDbEntity
  8
SK2
  6
CONTINUOUS
370
25
 62
7
100
AcDbLine
 10
3.609135368073233
 20
12.27818292638536
 30
0.0
 11
5.0
 21
13.66904755831212
 31
0.0
  0
LINE
  5
8AD
330
1F
100
AcDbEntity
  8
SK2
  6
CONTINUOUS
370
25
 62
7
100
AcDbLine
 10
3.255581977479963
 20
12.34889360450401
 30
0.0
 11
4.883372966219945
 21
13.97668459324399
 31
0.0
  0
LINE
  5
8AE
330
1F
100
AcDbEntity
  8
SK2
  6
CONTINUOUS
370
25
 62
7
100
AcDbLine
 10
2.902028586886686
 20
12.41960428262266
 30
0.0
 11
4.35304288033003
 21
13.870618576066
 31
0.0
  0
LINE
  5
8AF
330
1F
100
AcDbEntity
  8
SK2
  6
CONTINUOUS
370
25
 62
7
100
AcDbLine
 10
2.54847519629341
 20
12.49031496074132
 30
0.0
 11
3.822712794440129
 21
13.76455255888803
 31
0.0
  0
LINE
  5
8B0
330
1F
100
AcDbEntity
  8
SK2
  6
CONTINUOUS
370
25
 62
7
100
AcDbLine
 10
2.194921805700133
 20
12.56102563885997
 30
0.0
 11
3.292382708550214
 21
13.65848654171005
 31
0.0
  0
LINE
  5
8B1
330
1F
100
AcDbEntity
  8
SK2
  6
CONTINUOUS
370
25
 62
7
100
AcDbLine
 10
1.841368415106864
 20
12.63173631697863
 30
0.0
 11
2.762052622660292
 21
13.55242052453206
 31
0.0
  0
LINE
  5
8B2
330
1F
100
AcDbEntity
  8
SK2
  6
CONTINUOUS
370
25
 62
7
100
AcDbLine
 10
1.487815024513587
 20
12.70244699509728
 30
0.0
 11
2.231722536770384
 21
13.44635450735407
 31
0.0
  0
LINE
  5
8B3
330
1F
100
AcDbEntity
  8
SK2
  6
CONTINUOUS
370
25
 62
7
100
AcDbLine
 10
1.13426163392031
 20
12.77315767321594
 30
0.0
 11
1.701392450880469
 21
13.34028849017609
 31
0.0
  0
LINE
  5
8B4
330
1F
100
AcDbEntity
  8
SK2
  6
CONTINUOUS
370
25
 62
7
100
AcDbLine
 10
0.7807082433270338
 20
12.8438683513346
 30
0.0
 11
1.171062364990547
 21
13.23422247299811
 31
0.0
  0
LINE
  5
8B5
330
1F
100
AcDbEntity
  8
SK2
  6
CONTINUOUS
370
25
 62
7
100
AcDbLine
 10
0.4271548527337643
 20
12.91457902945326
 30
0.0
 11
0.6407322791006393
 21
13.12815645582013
 31
0.0
  0
LINE
  5
8B6
330
1F
100
AcDbEntity
  8
SK2
  6
CONTINUOUS
370
25
 62
7
100
AcDbLine
 10
0.0736014621404806
 20
12.98528970757191
 30
0.0
 11
0.1104021932107173
 21
13.02209043864215
 31
0.0
  0
LINE
  5
8B7
330
1F
100
AcDbEntity
  8
SK2
  6
CONTINUOUS
370
25
 62
7
100
AcDbLine
 10
0.0402901191755163
 20
13.0080680238351
 30
0.0
 11
0.060435178763278
 21
12.98792296424734
 31
0.0
  0
LINE
  5
8B8
330
1F
100
AcDbEntity
  8
SK2
  6
CONTINUOUS
370
25
 62
7
100
AcDbLine
 10
0.3938435097687858
 20
13.07877870195377
 30
0.0
 11
0.5907652646531929
 21
12.88185694706936
 31
0.0
  0
LINE
  5
8B9
330
1F
100
AcDbEntity
  8
SK2
  6
CONTINUOUS
370
25
 62
7
100
AcDbLine
 10
0.7473969003620624
 20
13.14948938007241
 30
0.0
 11
1.121095350543101
 21
12.77579092989138
 31
0.0
  0
LINE
  5
8BA
330
1F
100
AcDbEntity
  8
SK2
  6
CONTINUOUS
370
25
 62
7
100
AcDbLine
 10
1.100950290955346
 20
13.22020005819106
 30
0.0
 11
1.651425436433009
 21
12.6697249127134
 31
0.0
  0
LINE
  5
8BB
330
1F
100
AcDbEntity
  8
SK2
  6
CONTINUOUS
370
25
 62
7
100
AcDbLine
 10
1.454503681548616
 20
13.29091073630972
 30
0.0
 11
2.181755522322923
 21
12.56365889553541
 31
0.0
  0
LINE
  5
8BC
330
1F
100
AcDbEntity
  8
SK2
  6
CONTINUOUS
370
25
 62
7
100
AcDbLine
 10
1.808057072141885
 20
13.36162141442838
 30
0.0
 11
2.712085608212838
 21
12.45759287835743
 31
0.0
  0
LINE
  5
8BD
330
1F
100
AcDbEntity
  8
SK2
  6
CONTINUOUS
370
25
 62
7
100
AcDbLine
 10
2.161610462735162
 20
13.43233209254703
 30
0.0
 11
3.242415694102746
 21
12.35152686117945
 31
0.0
  0
LINE
  5
8BE
330
1F
100
AcDbEntity
  8
SK2
  6
CONTINUOUS
370
25
 62
7
100
AcDbLine
 10
2.515163853328438
 20
13.50304277066569
 30
0.0
 11
3.772745779992661
 21
12.24546084400146
 31
0.0
  0
LINE
  5
8BF
330
1F
100
AcDbEntity
  8
SK2
  6
CONTINUOUS
370
25
 62
7
100
AcDbLine
 10
2.868717243921715
 20
13.57375344878434
 30
0.0
 11
4.303075865882576
 21
12.13939482682348
 31
0.0
  0
LINE
  5
8C0
330
1F
100
AcDbEntity
  8
SK2
  6
CONTINUOUS
370
25
 62
7
100
AcDbLine
 10
3.222270634514985
 20
13.644464126903
 30
0.0
 11
4.833405951772484
 21
12.0333288096455
 31
0.0
  0
LINE
  5
8C1
330
1F
100
AcDbEntity
  8
SK2
  6
CONTINUOUS
370
25
 62
7
100
AcDbLine
 10
3.575824025108261
 20
13.71517480502166
 30
0.0
 11
5.0
 21
12.29099883012991
 31
0.0
  0
LINE
  5
8C2
330
1F
100
AcDbEntity
  8
SK2
  6
CONTINUOUS
370
25
 62
7
100
AcDbLine
 10
3.929377415701538
 20
13.78588548314031
 30
0.0
 11
5.0
 21
12.71526289884184
 31
0.0
  0
LINE
  5
8C3
330
1F
100
AcDbEntity
  8
SK2
  6
CONTINUOUS
370
25
 62
7
100
AcDbLine
 10
4.282930806294807
 20
13.85659616125897
 30
0.0
 11
5.0
 21
13.13952696755377
 31
0.0
  0
LINE
  5
8C4
330
1F
100
AcDbEntity
  8
SK2
  6
CONTINUOUS
370
25
 62
7
100
AcDbLine
 10
4.636484196888084
 20
13.92730683937762
 30
0.0
 11
5.0
 21
13.5637910362657
 31
0.0
  0
LINE
  5
8C5
330
1F
100
AcDbEntity
  8
SK2
  6
CONTINUOUS
370
25
 62
7
100
AcDbLine
 10
4.990037587481361
 20
13.99801751749628
 30
0.0
 11
5.0
 21
13.98805510497763
 31
0.0
  0
LINE
  5
8C6
330
1F
100
AcDbEntity
  8
SK2
  6
CONTINUOUS
370
25
 62
7
100
AcDbLine
 10
38.0
 20
13.00001
 30
0.0
 11
33.0
 21
12.00001
 31
0.0
  0
LINE
  5
8C7
330
1F
100
AcDbEntity
  8
SK2
  6
CONTINUOUS
370
25
 62
7
100
AcDbLine
 10
33.0
 20
12.00001
 30
0.0
 11
33.0
 21
14.00001
 31
0.0
  0
LINE
  5
8C8
330
1F
100
AcDbEntity
  8
SK2
  6
CONTINUOUS
370
25
 62
7
100
AcDbLine
 10
33.0
 20
14.00001
 30
0.0
 11
38.0
 21
13.00001
 31
0.0
  0
LINE
  5
8C9
330
1F
100
AcDbEntity
  8
SK2
  6
CONTINUOUS
370
25
 62
7
100
AcDbLine
 10
37.80977983741277
 20
12.96196596748255
 30
0.0
 11
37.87318655827518
 21
13.02537268834496
 31
0.0
  0
LINE
  5
8CA
330
1F
100
AcDbEntity
  8
SK2
  6
CONTINUOUS
370
25
 62
7
100
AcDbLine
 10
37.27944975152286
 20
12.85589995030457
 30
0.0
 11
37.51963316768191
 21
13.09608336646362
 31
0.0
  0
LINE
  5
8CB
330
1F
100
AcDbEntity
  8
SK2
  6
CONTINUOUS
370
25
 62
7
100
AcDbLine
 10
36.74911966563295
 20
12.74983393312659
 30
0.0
 11
37.16607977708863
 21
13.16679404458227
 31
0.0
  0
LINE
  5
8CC
330
1F
100
AcDbEntity
  8
SK2
  6
CONTINUOUS
370
25
 62
7
100
AcDbLine
 10
36.21878957974305
 20
12.64376791594861
 30
0.0
 11
36.81252638649536
 21
13.23750472270093
 31
0.0
  0
LINE
  5
8CD
330
1F
100
AcDbEntity
  8
SK2
  6
CONTINUOUS
370
25
 62
7
100
AcDbLine
 10
35.68845949385313
 20
12.53770189877063
 30
0.0
 11
36.45897299590209
 21
13.30821540081958
 31
0.0
  0
LINE
  5
8CE
330
1F
100
AcDbEntity
  8
SK2
  6
CONTINUOUS
370
25
 62
7
100
AcDbLine
 10
35.15812940796322
 20
12.43163588159264
 30
0.0
 11
36.10541960530882
 21
13.37892607893824
 31
0.0
  0
LINE
  5
8CF
330
1F
100
AcDbEntity
  8
SK2
  6
CONTINUOUS
370
25
 62
7
100
AcDbLine
 10
34.62779932207331
 20
12.32556986441466
 30
0.0
 11
35.75186621471554
 21
13.44963675705689
 31
0.0
  0
LINE
  5
8D0
330
1F
100
AcDbEntity
  8
SK2
  6
CONTINUOUS
370
25
 62
7
100
AcDbLine
 10
34.0974692361834
 20
12.21950384723668
 30
0.0
 11
35.39831282412226
 21
13.52034743517555
 31
0.0
  0
LINE
  5
8D1
330
1F
100
AcDbEntity
  8
SK2
  6
CONTINUOUS
370
25
 62
7
100
AcDbLine
 10
33.56713915029349
 20
12.1134378300587
 30
0.0
 11
35.04475943352899
 21
13.5910581132942
 31
0.0
  0
LINE
  5
8D2
330
1F
100
AcDbEntity
  8
SK2
  6
CONTINUOUS
370
25
 62
7
100
AcDbLine
 10
33.03680906440358
 20
12.00737181288072
 30
0.0
 11
34.69120604293572
 21
13.66176879141286
 31
0.0
  0
LINE
  5
8D3
330
1F
100
AcDbEntity
  8
SK2
  6
CONTINUOUS
370
25
 62
7
100
AcDbLine
 10
33.0
 20
12.39482681718906
 30
0.0
 11
34.33765265234245
 21
13.73247946953151
 31
0.0
  0
LINE
  5
8D4
330
1F
100
AcDbEntity
  8
SK2
  6
CONTINUOUS
370
25
 62
7
100
AcDbLine
 10
33.0
 20
12.81909088590099
 30
0.0
 11
33.98409926174918
 21
13.80319014765016
 31
0.0
  0
LINE
  5
8D5
330
1F
100
AcDbEntity
  8
SK2
  6
CONTINUOUS
370
25
 62
7
100
AcDbLine
 10
33.0
 20
13.24335495461292
 30
0.0
 11
33.6305458711559
 21
13.87390082576882
 31
0.0
  0
LINE
  5
8D6
330
1F
100
AcDbEntity
  8
SK2
  6
CONTINUOUS
370
25
 62
7
100
AcDbLine
 10
33.0
 20
13.66761902332484
 30
0.0
 11
33.27699248056263
 21
13.94461150388747
 31
0.0
  0
LINE
  5
8D7
330
1F
100
AcDbEntity
  8
SK2
  6
CONTINUOUS
370
25
 62
7
100
AcDbLine
 10
33.0
 20
12.21248916810278
 30
0.0
 11
33.17706597341898
 21
12.0354231946838
 31
0.0
  0
LINE
  5
8D8
330
1F
100
AcDbEntity
  8
SK2
  6
CONTINUOUS
370
25
 62
7
100
AcDbLine
 10
33.0
 20
12.63675323681471
 30
0.0
 11
33.53061936401226
 21
12.10613387280245
 31
0.0
  0
LINE
  5
8D9
330
1F
100
AcDbEntity
  8
SK2
  6
CONTINUOUS
370
25
 62
7
100
AcDbLine
 10
33.0
 20
13.06101730552664
 30
0.0
 11
33.88417275460553
 21
12.17684455092111
 31
0.0
  0
LINE
  5
8DA
330
1F
100
AcDbEntity
  8
SK2
  6
CONTINUOUS
370
25
 62
7
100
AcDbLine
 10
33.0
 20
13.48528137423857
 30
0.0
 11
34.23772614519881
 21
12.24755522903976
 31
0.0
  0
LINE
  5
8DB
330
1F
100
AcDbEntity
  8
SK2
  6
CONTINUOUS
370
25
 62
7
100
AcDbLine
 10
33.0
 20
13.9095454429505
 30
0.0
 11
34.59127953579208
 21
12.31826590715842
 31
0.0
  0
LINE
  5
8DC
330
1F
100
AcDbEntity
  8
SK2
  6
CONTINUOUS
370
25
 62
7
100
AcDbLine
 10
33.41724938957802
 20
13.91656012208439
 30
0.0
 11
34.94483292638535
 21
12.38897658527707
 31
0.0
  0
LINE
  5
8DD
330
1F
100
AcDbEntity
  8
SK2
  6
CONTINUOUS
370
25
 62
7
100
AcDbLine
 10
33.94757947546794
 20
13.81049410490641
 30
0.0
 11
35.29838631697863
 21
12.45968726339573
 31
0.0
  0
LINE
  5
8DE
330
1F
100
AcDbEntity
  8
SK2
  6
CONTINUOUS
370
25
 62
7
100
AcDbLine
 10
34.47790956135785
 20
13.70442808772843
 30
0.0
 11
35.6519397075719
 21
12.53039794151438
 31
0.0
  0
LINE
  5
8DF
330
1F
100
AcDbEntity
  8
SK2
  6
CONTINUOUS
370
25
 62
7
100
AcDbLine
 10
35.00823964724776
 20
13.59836207055045
 30
0.0
 11
36.00549309816518
 21
12.60110861963303
 31
0.0
  0
LINE
  5
8E0
330
1F
100
AcDbEntity
  8
SK2
  6
CONTINUOUS
370
25
 62
7
100
AcDbLine
 10
35.53856973313767
 20
13.49229605337247
 30
0.0
 11
36.35904648875845
 21
12.67181929775169
 31
0.0
  0
LINE
  5
8E1
330
1F
100
AcDbEntity
  8
SK2
  6
CONTINUOUS
370
25
 62
7
100
AcDbLine
 10
36.06889981902758
 20
13.38623003619448
 30
0.0
 11
36.71259987935172
 21
12.74252997587034
 31
0.0
  0
LINE
  5
8E2
330
1F
100
AcDbEntity
  8
SK2
  6
CONTINUOUS
370
25
 62
7
100
AcDbLine
 10
36.59922990491749
 20
13.2801640190165
 30
0.0
 11
37.066153269945
 21
12.813240653989
 31
0.0
  0
LINE
  5
8E3
330
1F
100
AcDbEntity
  8
SK2
  6
CONTINUOUS
370
25
 62
7
100
AcDbLine
 10
37.1295599908074
 20
13.17409800183852
 30
0.0
 11
37.41970666053827
 21
12.88395133210765
 31
0.0
  0
LINE
  5
8E4
330
1F
100
AcDbEntity
  8
SK2
  6
CONTINUOUS
370
25
 62
7
100
AcDbLine
 10
37.65989007669732
 20
13.06803198466054
 30
0.0
 11
37.77326005113154
 21
12.95466201022631
 31
0.0
  0
TEXT
  5
8E5
330
1F
100
AcDbEntity
  8
SK2
  6
CONTINUOUS
370
25
 62
7
100
AcDbText
 10
16.08333333333333
 20
14.50001
 30
0.0
 40
3.5
  1
38
 72
     1
 11
19.0
 21
14.50001
 31
0.0
100
AcDbText
  0
LINE
  5
8E6
330
1F
100
AcDbEntity
  8
SK2
  6
CONTINUOUS
370
25
 62
7
100
AcDbLine
 10
-10.0000002
 20
-3.000001
 30
0.0
 11
-11.00000000000009
 21
-3.000001
 31
0.0
  0
LINE
  5
8E7
330
1F
100
AcDbEntity
  8
SK2
  6
CONTINUOUS
370
25
 62
7
100
AcDbLine
 10
0.0
 20
-3.000001
 30
0.0
 11
-9.999999800000001
 21
-3.000001
 31
0.0
  0
LINE
  5
8E8
330
1F
100
AcDbEntity
  8
SK2
  6
CONTINUOUS
370
25
 62
7
100
AcDbLine
 10
-11.0
 20
3.0
 30
0.0
 11
0.0
 21
3.0
 31
0.0
  0
LINE
  5
8E9
330
1F
100
AcDbEntity
  8
SK2
  6
CONTINUOUS
370
25
 62
7
100
AcDbLine
 10
-10.0
 20
-10.0
 30
0.0
 11
-10.0
 21
16.475
 31
0.0
  0
LINE
  5
8EA
330
1F
100
AcDbEntity
  8
SK2
  6
CONTINUOUS
370
25
 62
7
100
AcDbLine
 10
-10.0
 20
-3.0
 30
0.0
 11
-9.0
 21
-8.0
 31
0.0
  0
LINE
  5
8EB
330
1F
100
AcDbEntity
  8
SK2
  6
CONTINUOUS
370
25
 62
7
100
AcDbLine
 10
-9.0
 20
-8.0
 30
0.0
 11
-11.0
 21
-8.0
 31
0.0
  0
LINE
  5
8EC
330
1F
100
AcDbEntity
  8
SK2
  6
CONTINUOUS
370
25
 62
7
100
AcDbLine
 10
-11.0
 20
-8.0
 30
0.0
 11
-10.0
 21
-3.0
 31
0.0
  0
LINE
  5
8ED
330
1F
100
AcDbEntity
  8
SK2
  6
CONTINUOUS
370
25
 62
7
100
AcDbLine
 10
-9.032294321497396
 20
-8.0
 30
0.0
 11
-9.005382386916231
 21
-7.973088065418835
 31
0.0
  0
LINE
  5
8EE
330
1F
100
AcDbEntity
  8
SK2
  6
CONTINUOUS
370
25
 62
7
100
AcDbLine
 10
-9.45655839020933
 20
-8.0
 30
0.0
 11
-9.07609306503489
 21
-7.619534674825559
 31
0.0
  0
LINE
  5
8EF
330
1F
100
AcDbEntity
  8
SK2
  6
CONTINUOUS
370
25
 62
7
100
AcDbLine
 10
-9.880822458921259
 20
-8.0
 30
0.0
 11
-9.146803743153548
 21
-7.265981284232289
 31
0.0
  0
LINE
  5
8F0
330
1F
100
AcDbEntity
  8
SK2
  6
CONTINUOUS
370
25
 62
7
100
AcDbLine
 10
-10.30508652763319
 20
-8.0
 30
0.0
 11
-9.217514421272199
 21
-6.912427893639013
 31
0.0
  0
LINE
  5
8F1
330
1F
100
AcDbEntity
  8
SK2
  6
CONTINUOUS
370
25
 62
7
100
AcDbLine
 10
-10.72935059634511
 20
-8.0
 30
0.0
 11
-9.28822509939085
 21
-6.558874503045736
 31
0.0
  0
LINE
  5
8F2
330
1F
100
AcDbEntity
  8
SK2
  6
CONTINUOUS
370
25
 62
7
100
AcDbLine
 10
-10.96159633373574
 20
-7.807981668678693
 30
0.0
 11
-9.358935777509515
 21
-6.205321112452467
 31
0.0
  0
LINE
  5
8F3
330
1F
100
AcDbEntity
  8
SK2
  6
CONTINUOUS
370
25
 62
7
100
AcDbLine
 10
-10.85553031655775
 20
-7.277651582788778
 30
0.0
 11
-9.429646455628166
 21
-5.85176772185919
 31
0.0
  0
LINE
  5
8F4
330
1F
100
AcDbEntity
  8
SK2
  6
CONTINUOUS
370
25
 62
7
100
AcDbLine
 10
-10.74946429937977
 20
-6.747321496898863
 30
0.0
 11
-9.500357133746824
 21
-5.498214331265913
 31
0.0
  0
LINE
  5
8F5
330
1F
100
AcDbEntity
  8
SK2
  6
CONTINUOUS
370
25
 62
7
100
AcDbLine
 10
-10.64339828220179
 20
-6.216991411008955
 30
0.0
 11
-9.571067811865468
 21
-5.144660940672622
 31
0.0
  0
LINE
  5
8F6
330
1F
100
AcDbEntity
  8
SK2
  6
CONTINUOUS
370
25
 62
7
100
AcDbLine
 10
-10.53733226502381
 20
-5.68666132511904
 30
0.0
 11
-9.641778489984134
 21
-4.791107550079353
 31
0.0
  0
LINE
  5
8F7
330
1F
100
AcDbEntity
  8
SK2
  6
CONTINUOUS
370
25
 62
7
100
AcDbLine
 10
-10.43126624784583
 20
-5.156331239229125
 30
0.0
 11
-9.712489168102785
 21
-4.437554159486076
 31
0.0
  0
LINE
  5
8F8
330
1F
100
AcDbEntity
  8
SK2
  6
CONTINUOUS
370
25
 62
7
100
AcDbLine
 10
-10.32520023066785
 20
-4.62600115333921
 30
0.0
 11
-9.783199846221436
 21
-4.084000768892793
 31
0.0
  0
LINE
  5
8F9
330
1F
100
AcDbEntity
  8
SK2
  6
CONTINUOUS
370
25
 62
7
100
AcDbLine
 10
-10.21913421348987
 20
-4.095671067449302
 30
0.0
 11
-9.853910524340094
 21
-3.730447378299523
 31
0.0
  0
LINE
  5
8FA
330
1F
100
AcDbEntity
  8
SK2
  6
CONTINUOUS
370
25
 62
7
100
AcDbLine
 10
-10.11306819631188
 20
-3.56534098155938
 30
0.0
 11
-9.924621202458745
 21
-3.376893987706239
 31
0.0
  0
LINE
  5
8FB
330
1F
100
AcDbEntity
  8
SK2
  6
CONTINUOUS
370
25
 62
7
100
AcDbLine
 10
-10.0070021791339
 20
-3.035010895669473
 30
0.0
 11
-9.99533188057741
 21
-3.023340597112977
 31
0.0
  0
LINE
  5
8FC
330
1F
100
AcDbEntity
  8
SK2
  6
CONTINUOUS
370
25
 62
7
100
AcDbLine
 10
-10.97148549640708
 20
-7.857427482035419
 30
0.0
 11
-10.8289129784425
 21
-8.0
 31
0.0
  0
LINE
  5
8FD
330
1F
100
AcDbEntity
  8
SK2
  6
CONTINUOUS
370
25
 62
7
100
AcDbLine
 10
-10.90077481828843
 20
-7.503874091442142
 30
0.0
 11
-10.40464890973057
 21
-8.0
 31
0.0
  0
LINE
  5
8FE
330
1F
100
AcDbEntity
  8
SK2
  6
CONTINUOUS
370
25
 62
7
100
AcDbLine
 10
-10.83006414016977
 20
-7.150320700848873
 30
0.0
 11
-9.98038484101864
 21
-8.0
 31
0.0
  0
LINE
  5
8FF
330
1F
100
AcDbEntity
  8
SK2
  6
CONTINUOUS
370
25
 62
7
100
AcDbLine
 10
-10.75935346205112
 20
-6.796767310255589
 30
0.0
 11
-9.556120772306706
 21
-8.0
 31
0.0
  0
LINE
  5
900
330
1F
100
AcDbEntity
  8
SK2
  6
CONTINUOUS
370
25
 62
7
100
AcDbLine
 10
-10.68864278393247
 20
-6.443213919662305
 30
0.0
 11
-9.13185670359477
 21
-8.0
 31
0.0
  0
LINE
  5
901
330
1F
100
AcDbEntity
  8
SK2
  6
CONTINUOUS
370
25
 62
7
100
AcDbLine
 10
-10.61793210581381
 20
-6.089660529069036
 30
0.0
 11
-9.07310184127929
 21
-7.634490793603554
 31
0.0
  0
LINE
  5
902
330
1F
100
AcDbEntity
  8
SK2
  6
CONTINUOUS
370
25
 62
7
100
AcDbLine
 10
-10.54722142769516
 20
-5.736107138475752
 30
0.0
 11
-9.179167858457276
 21
-7.104160707713632
 31
0.0
  0
LINE
  5
903
330
1F
100
AcDbEntity
  8
SK2
  6
CONTINUOUS
370
25
 62
7
100
AcDbLine
 10
-10.47651074957651
 20
-5.382553747882483
 30
0.0
 11
-9.28523387563525
 21
-6.573830621823738
 31
0.0
  0
LINE
  5
904
330
1F
100
AcDbEntity
  8
SK2
  6
CONTINUOUS
370
25
 62
7
100
AcDbLine
 10
-10.40580007145785
 20
-5.029000357289206
 30
0.0
 11
-9.391299892813237
 21
-6.043500535933816
 31
0.0
  0
LINE
  5
905
330
1F
100
AcDbEntity
  8
SK2
  6
CONTINUOUS
370
25
 62
7
100
AcDbLine
 10
-10.33508939333919
 20
-4.675446966695937
 30
0.0
 11
-9.497365909991217
 21
-5.513170450043908
 31
0.0
  0
LINE
  5
906
330
1F
100
AcDbEntity
  8
SK2
  6
CONTINUOUS
370
25
 62
7
100
AcDbLine
 10
-10.26437871522052
 20
-4.321893576102667
 30
0.0
 11
-9.603431927169204
 21
-4.982840364153986
 31
0.0
  0
LINE
  5
907
330
1F
100
AcDbEntity
  8
SK2
  6
CONTINUOUS
370
25
 62
7
100
AcDbLine
 10
-10.19366803710187
 20
-3.96834018550939
 30
0.0
 11
-9.709497944347191
 21
-4.452510278264072
 31
0.0
  0
LINE
  5
908
330
1F
100
AcDbEntity
  8
SK2
  6
CONTINUOUS
370
25
 62
7
100
AcDbLine
 10
-10.12295735898322
 20
-3.614786794916107
 30
0.0
 11
-9.815563961525172
 21
-3.922180192374157
 31
0.0
  0
LINE
  5
909
330
1F
100
AcDbEntity
  8
SK2
  6
CONTINUOUS
370
25
 62
7
100
AcDbLine
 10
-10.05224668086456
 20
-3.26123340432283
 30
0.0
 11
-9.921629978703152
 21
-3.391850106484235
 31
0.0
  0
LINE
  5
90A
330
1F
100
AcDbEntity
  8
SK2
  6
CONTINUOUS
370
25
 62
7
100
AcDbLine
 10
-10.0
 20
3.0
 30
0.0
 11
-11.0
 21
8.0
 31
0.0
  0
LINE
  5
90B
330
1F
100
AcDbEntity
  8
SK2
  6
CONTINUOUS
370
25
 62
7
100
AcDbLine
 10
-11.0
 20
8.0
 30
0.0
 11
-9.0
 21
8.0
 31
0.0
  0
LINE
  5
90C
330
1F
100
AcDbEntity
  8
SK2
  6
CONTINUOUS
370
25
 62
7
100
AcDbLine
 10
-9.0
 20
8.0
 30
0.0
 11
-10.0
 21
3.0
 31
0.0
  0
LINE
  5
90D
330
1F
100
AcDbEntity
  8
SK2
  6
CONTINUOUS
370
25
 62
7
100
AcDbLine
 10
-10.05599205235722
 20
3.279960261786115
 30
0.0
 11
-9.916011921464168
 21
3.419940392679159
 31
0.0
  0
LINE
  5
90E
330
1F
100
AcDbEntity
  8
SK2
  6
CONTINUOUS
370
25
 62
7
100
AcDbLine
 10
-10.12670273047588
 20
3.633513652379392
 30
0.0
 11
-9.809945904286188
 21
3.950270478569074
 31
0.0
  0
LINE
  5
90F
330
1F
100
AcDbEntity
  8
SK2
  6
CONTINUOUS
370
25
 62
7
100
AcDbLine
 10
-10.19741340859454
 20
3.987067042972662
 30
0.0
 11
-9.7038798871082
 21
4.480600564458996
 31
0.0
  0
LINE
  5
910
330
1F
100
AcDbEntity
  8
SK2
  6
CONTINUOUS
370
25
 62
7
100
AcDbLine
 10
-10.26812408671319
 20
4.340620433565945
 30
0.0
 11
-9.59781386993022
 21
5.010930650348911
 31
0.0
  0
LINE
  5
911
330
1F
100
AcDbEntity
  8
SK2
  6
CONTINUOUS
370
25
 62
7
100
AcDbLine
 10
-10.33883476483184
 20
4.694173824159222
 30
0.0
 11
-9.49174785275224
 21
5.541260736238819
 31
0.0
  0
LINE
  5
912
330
1F
100
AcDbEntity
  8
SK2
  6
CONTINUOUS
370
25
 62
7
100
AcDbLine
 10
-10.4095454429505
 20
5.047727214752499
 30
0.0
 11
-9.385681835574253
 21
6.071590822128741
 31
0.0
  0
LINE
  5
913
330
1F
100
AcDbEntity
  8
SK2
  6
CONTINUOUS
370
25
 62
7
100
AcDbLine
 10
-10.48025612106915
 20
5.401280605345768
 30
0.0
 11
-9.279615818396273
 21
6.601920908018649
 31
0.0
  0
LINE
  5
914
330
1F
100
AcDbEntity
  8
SK2
  6
CONTINUOUS
370
25
 62
7
100
AcDbLine
 10
-10.55096679918782
 20
5.754833995939038
 30
0.0
 11
-9.173549801218286
 21
7.132250993908571
 31
0.0
  0
LINE
  5
915
330
1F
100
AcDbEntity
  8
SK2
  6
CONTINUOUS
370
25
 62
7
100
AcDbLine
 10
-10.62167747730647
 20
6.108387386532321
 30
0.0
 11
-9.067483784040299
 21
7.662581079798493
 31
0.0
  0
LINE
  5
916
330
1F
100
AcDbEntity
  8
SK2
  6
CONTINUOUS
370
25
 62
7
100
AcDbLine
 10
-10.69238815542512
 20
6.461940777125598
 30
0.0
 11
-9.154328932550719
 21
8.0
 31
0.0
  0
LINE
  5
917
330
1F
100
AcDbEntity
  8
SK2
  6
CONTINUOUS
370
25
 62
7
100
AcDbLine
 10
-10.76309883354378
 20
6.815494167718867
 30
0.0
 11
-9.578593001262647
 21
8.0
 31
0.0
  0
LINE
  5
918
330
1F
100
AcDbEntity
  8
SK2
  6
CONTINUOUS
370
25
 62
7
100
AcDbLine
 10
-10.83380951166243
 20
7.169047558312144
 30
0.0
 11
-10.00285706997457
 21
8.0
 31
0.0
  0
LINE
  5
919
330
1F
100
AcDbEntity
  8
SK2
  6
CONTINUOUS
370
25
 62
7
100
AcDbLine
 10
-10.90452018978108
 20
7.522600948905428
 30
0.0
 11
-10.42712113868651
 21
8.0
 31
0.0
  0
LINE
  5
91A
330
1F
100
AcDbEntity
  8
SK2
  6
CONTINUOUS
370
25
 62
7
100
AcDbLine
 10
-10.97523086789974
 20
7.876154339498697
 30
0.0
 11
-10.85138520739844
 21
8.0
 31
0.0
  0
LINE
  5
91B
330
1F
100
AcDbEntity
  8
SK2
  6
CONTINUOUS
370
25
 62
7
100
AcDbLine
 10
-10.10325336029578
 20
3.516266801478942
 30
0.0
 11
-9.93116442646948
 21
3.34417786765264
 31
0.0
  0
LINE
  5
91C
330
1F
100
AcDbEntity
  8
SK2
  6
CONTINUOUS
370
25
 62
7
100
AcDbLine
 10
-10.20931937747378
 20
4.046596887368871
 30
0.0
 11
-9.860453748350814
 21
3.697731258245909
 31
0.0
  0
LINE
  5
91D
330
1F
100
AcDbEntity
  8
SK2
  6
CONTINUOUS
370
25
 62
7
100
AcDbLine
 10
-10.31538539465176
 20
4.576926973258772
 30
0.0
 11
-9.789743070232163
 21
4.051284648839179
 31
0.0
  0
LINE
  5
91E
330
1F
100
AcDbEntity
  8
SK2
  6
CONTINUOUS
370
25
 62
7
100
AcDbLine
 10
-10.42145141182974
 20
5.107257059148687
 30
0.0
 11
-9.719032392113505
 21
4.404838039432455
 31
0.0
  0
LINE
  5
91F
330
1F
100
AcDbEntity
  8
SK2
  6
CONTINUOUS
370
25
 62
7
100
AcDbLine
 10
-10.52751742900772
 20
5.637587145038601
 30
0.0
 11
-9.648321713994854
 21
4.758391430025739
 31
0.0
  0
LINE
  5
920
330
1F
100
AcDbEntity
  8
SK2
  6
CONTINUOUS
370
25
 62
7
100
AcDbLine
 10
-10.6335834461857
 20
6.167917230928516
 30
0.0
 11
-9.577611035876188
 21
5.111944820619009
 31
0.0
  0
LINE
  5
921
330
1F
100
AcDbEntity
  8
SK2
  6
CONTINUOUS
370
25
 62
7
100
AcDbLine
 10
-10.73964946336369
 20
6.698247316818438
 30
0.0
 11
-9.506900357757537
 21
5.465498211212292
 31
0.0
  0
LINE
  5
922
330
1F
100
AcDbEntity
  8
SK2
  6
CONTINUOUS
370
25
 62
7
100
AcDbLine
 10
-10.84571548054167
 20
7.228577402708346
 30
0.0
 11
-9.436189679638886
 21
5.819051601805569
 31
0.0
  0
LINE
  5
923
330
1F
100
AcDbEntity
  8
SK2
  6
CONTINUOUS
370
25
 62
7
100
AcDbLine
 10
-10.95178149771965
 20
7.758907488598254
 30
0.0
 11
-9.365479001520228
 21
6.172604992398838
 31
0.0
  0
LINE
  5
924
330
1F
100
AcDbEntity
  8
SK2
  6
CONTINUOUS
370
25
 62
7
100
AcDbLine
 10
-10.76860994040945
 20
8.0
 30
0.0
 11
-9.294768323401584
 21
6.526158382992129
 31
0.0
  0
LINE
  5
925
330
1F
100
AcDbEntity
  8
SK2
  6
CONTINUOUS
370
25
 62
7
100
AcDbLine
 10
-10.34434587169752
 20
8.0
 30
0.0
 11
-9.224057645282919
 21
6.879711773585399
 31
0.0
  0
LINE
  5
926
330
1F
100
AcDbEntity
  8
SK2
  6
CONTINUOUS
370
25
 62
7
100
AcDbLine
 10
-9.920081802985592
 20
8.0
 30
0.0
 11
-9.153346967164268
 21
7.233265164178675
 31
0.0
  0
LINE
  5
927
330
1F
100
AcDbEntity
  8
SK2
  6
CONTINUOUS
370
25
 62
7
100
AcDbLine
 10
-9.495817734273658
 20
8.0
 30
0.0
 11
-9.082636289045617
 21
7.586818554771959
 31
0.0
  0
LINE
  5
928
330
1F
100
AcDbEntity
  8
SK2
  6
CONTINUOUS
370
25
 62
7
100
AcDbLine
 10
-9.07155366556173
 20
8.0
 30
0.0
 11
-9.011925610926959
 21
7.940371945365229
 31
0.0
  0
TEXT
  5
929
330
1F
100
AcDbEntity
  8
SK2
  6
CONTINUOUS
370
25
 62
7
100
AcDbText
 10
-11.5
 20
13.34583333333333
 30
0.0
 40
3.5
  1
6
 50
90.00000000000001
 72
     1
 11
-11.5
 21
14.5125
 31
0.0
100
AcDbText
  0
CIRCLE
  5
92A
330
1F
100
AcDbEntity
  8
SK2
  6
CONTINUOUS
370
25
 62
7
100
AcDbCircle
 10
-13.25
 20
11.1875
 30
0.0
 40
1.4
  0
LINE
  5
92B
330
1F
100
AcDbEntity
  8
SK2
  6
CONTINUOUS
370
25
 62
7
100
AcDbLine
 10
-11.85
 20
9.787500000000001
 30
0.0
 11
-14.65
 21
12.5875
 31
0.0
  0
LINE
  5
92C
330
1F
100
AcDbEntity
  8
2
  6
CONTINUOUS
370
25
 62
7
100
AcDbLine
 10
57.0
 20
-3.0
 30
0.0
 11
70.0
 21
-3.000000000000002
 31
0.0
  0
LINE
  5
92D
330
1F
100
AcDbEntity
  8
2
  6
CONTINUOUS
370
25
 62
7
100
AcDbLine
 10
70.0
 20
2.999999999999998
 30
0.0
 11
57.0
 21
3.0
 31
0.0
  0
LINE
  5
92E
330
1F
100
AcDbEntity
  8
2
  6
CONTINUOUS
370
25
 62
7
100
AcDbLine
 10
69.0
 20
-10.0
 30
0.0
 11
69.0
 21
16.475
 31
0.0
  0
LINE
  5
92F
330
1F
100
AcDbEntity
  8
2
  6
CONTINUOUS
370
25
 62
7
100
AcDbLine
 10
69.0
 20
-3.000000000000002
 30
0.0
 11
70.0
 21
-8.000000000000002
 31
0.0
  0
LINE
  5
930
330
1F
100
AcDbEntity
  8
2
  6
CONTINUOUS
370
25
 62
7
100
AcDbLine
 10
70.0
 20
-8.000000000000002
 30
0.0
 11
68.0
 21
-8.000000000000002
 31
0.0
  0
LINE
  5
931
330
1F
100
AcDbEntity
  8
2
  6
CONTINUOUS
370
25
 62
7
100
AcDbLine
 10
68.0
 20
-8.000000000000002
 30
0.0
 11
69.0
 21
-3.000000000000002
 31
0.0
  0
LINE
  5
932
330
1F
100
AcDbEntity
  8
2
  6
CONTINUOUS
370
25
 62
7
100
AcDbLine
 10
69.79947572691964
 20
-8.0
 30
0.0
 11
69.96657928781994
 21
-7.832896439099692
 31
0.0
  0
LINE
  5
933
330
1F
100
AcDbEntity
  8
2
  6
CONTINUOUS
370
25
 62
7
100
AcDbLine
 10
69.3752116582077
 20
-8.0
 30
0.0
 11
69.89586860970128
 21
-7.479343048506419
 31
0.0
  0
LINE
  5
934
330
1F
100
AcDbEntity
  8
2
  6
CONTINUOUS
370
25
 62
7
100
AcDbLine
 10
68.95094758949577
 20
-8.0
 30
0.0
 11
69.82515793158262
 21
-7.125789657913142
 31
0.0
  0
LINE
  5
935
330
1F
100
AcDbEntity
  8
2
  6
CONTINUOUS
370
25
 62
7
100
AcDbLine
 10
68.52668352078385
 20
-8.0
 30
0.0
 11
69.75444725346397
 21
-6.772236267319872
 31
0.0
  0
LINE
  5
936
330
1F
100
AcDbEntity
  8
2
  6
CONTINUOUS
370
25
 62
7
100
AcDbLine
 10
68.10241945207193
 20
-8.0
 30
0.0
 11
69.68373657534532
 21
-6.418682876726596
 31
0.0
  0
LINE
  5
937
330
1F
100
AcDbEntity
  8
2
  6
CONTINUOUS
370
25
 62
7
100
AcDbLine
 10
68.08046115416
 20
-7.597694229199984
 30
0.0
 11
69.61302589722666
 21
-6.065129486133316
 31
0.0
  0
LINE
  5
938
330
1F
100
AcDbEntity
  8
2
  6
CONTINUOUS
370
25
 62
7
100
AcDbLine
 10
68.18652717133799
 20
-7.067364143310076
 30
0.0
 11
69.542315219108
 21
-5.711576095540046
 31
0.0
  0
LINE
  5
939
330
1F
100
AcDbEntity
  8
2
  6
CONTINUOUS
370
25
 62
7
100
AcDbLine
 10
68.29259318851597
 20
-6.537034057420154
 30
0.0
 11
69.47160454098935
 21
-5.358022704946769
 31
0.0
  0
LINE
  5
93A
330
1F
100
AcDbEntity
  8
2
  6
CONTINUOUS
370
25
 62
7
100
AcDbLine
 10
68.39865920569395
 20
-6.006703971530246
 30
0.0
 11
69.4008938628707
 21
-5.004469314353493
 31
0.0
  0
LINE
  5
93B
330
1F
100
AcDbEntity
  8
2
  6
CONTINUOUS
370
25
 62
7
100
AcDbLine
 10
68.50472522287194
 20
-5.476373885640328
 30
0.0
 11
69.33018318475204
 21
-4.650915923760213
 31
0.0
  0
LINE
  5
93C
330
1F
100
AcDbEntity
  8
2
  6
CONTINUOUS
370
25
 62
7
100
AcDbLine
 10
68.61079124004992
 20
-4.946043799750409
 30
0.0
 11
69.25947250663339
 21
-4.297362533166936
 31
0.0
  0
LINE
  5
93D
330
1F
100
AcDbEntity
  8
2
  6
CONTINUOUS
370
25
 62
7
100
AcDbLine
 10
68.7168572572279
 20
-4.415713713860498
 30
0.0
 11
69.18876182851473
 21
-3.94380914257367
 31
0.0
  0
LINE
  5
93E
330
1F
100
AcDbEntity
  8
2
  6
CONTINUOUS
370
25
 62
7
100
AcDbLine
 10
68.82292327440588
 20
-3.88538362797059
 30
0.0
 11
69.11805115039608
 21
-3.59025575198039
 31
0.0
  0
LINE
  5
93F
330
1F
100
AcDbEntity
  8
2
  6
CONTINUOUS
370
25
 62
7
100
AcDbLine
 10
68.92898929158386
 20
-3.355053542080672
 30
0.0
 11
69.04734047227743
 21
-3.23670236138711
 31
0.0
  0
LINE
  5
940
330
1F
100
AcDbEntity
  8
2
  6
CONTINUOUS
370
25
 62
7
100
AcDbLine
 10
68.0102885955034
 20
-7.948557022483016
 30
0.0
 11
68.06173157302038
 21
-8.0
 31
0.0
  0
LINE
  5
941
330
1F
100
AcDbEntity
  8
2
  6
CONTINUOUS
370
25
 62
7
100
AcDbLine
 10
68.08099927362204
 20
-7.595003631889739
 30
0.0
 11
68.48599564173232
 21
-8.0
 31
0.0
  0
LINE
  5
942
330
1F
100
AcDbEntity
  8
2
  6
CONTINUOUS
370
25
 62
7
100
AcDbLine
 10
68.15170995174071
 20
-7.241450241296469
 30
0.0
 11
68.91025971044425
 21
-8.000000000000004
 31
0.0
  0
LINE
  5
943
330
1F
100
AcDbEntity
  8
2
  6
CONTINUOUS
370
25
 62
7
100
AcDbLine
 10
68.22242062985936
 20
-6.887896850703196
 30
0.0
 11
69.33452377915617
 21
-8.000000000000004
 31
0.0
  0
LINE
  5
944
330
1F
100
AcDbEntity
  8
2
  6
CONTINUOUS
370
25
 62
7
100
AcDbLine
 10
68.29313130797802
 20
-6.53434346010992
 30
0.0
 11
69.7587878478681
 21
-8.0
 31
0.0
  0
LINE
  5
945
330
1F
100
AcDbEntity
  8
2
  6
CONTINUOUS
370
25
 62
7
100
AcDbLine
 10
68.36384198609667
 20
-6.180790069516647
 30
0.0
 11
69.95423702085499
 21
-7.771185104274956
 31
0.0
  0
LINE
  5
946
330
1F
100
AcDbEntity
  8
2
  6
CONTINUOUS
370
25
 62
7
100
AcDbLine
 10
68.43455266421532
 20
-5.827236678923366
 30
0.0
 11
69.84817100367701
 21
-7.240855018385044
 31
0.0
  0
LINE
  5
947
330
1F
100
AcDbEntity
  8
2
  6
CONTINUOUS
370
25
 62
7
100
AcDbLine
 10
68.50526334233399
 20
-5.473683288330097
 30
0.0
 11
69.74210498649902
 21
-6.710524932495129
 31
0.0
  0
LINE
  5
948
330
1F
100
AcDbEntity
  8
2
  6
CONTINUOUS
370
25
 62
7
100
AcDbLine
 10
68.57597402045263
 20
-5.120129897736824
 30
0.0
 11
69.63603896932105
 21
-6.180194846605225
 31
0.0
  0
LINE
  5
949
330
1F
100
AcDbEntity
  8
2
  6
CONTINUOUS
370
25
 62
7
100
AcDbLine
 10
68.64668469857129
 20
-4.766576507143551
 30
0.0
 11
69.52997295214307
 21
-5.649864760715321
 31
0.0
  0
LINE
  5
94A
330
1F
100
AcDbEntity
  8
2
  6
CONTINUOUS
370
25
 62
7
100
AcDbLine
 10
68.71739537668995
 20
-4.413023116550271
 30
0.0
 11
69.42390693496507
 21
-5.119534674825402
 31
0.0
  0
LINE
  5
94B
330
1F
100
AcDbEntity
  8
2
  6
CONTINUOUS
370
25
 62
7
100
AcDbLine
 10
68.7881060548086
 20
-4.059469725957001
 30
0.0
 11
69.3178409177871
 21
-4.589204588935495
 31
0.0
  0
LINE
  5
94C
330
1F
100
AcDbEntity
  8
2
  6
CONTINUOUS
370
25
 62
7
100
AcDbLine
 10
68.85881673292725
 20
-3.705916335363721
 30
0.0
 11
69.21177490060911
 21
-4.058874503045583
 31
0.0
  0
LINE
  5
94D
330
1F
100
AcDbEntity
  8
2
  6
CONTINUOUS
370
25
 62
7
100
AcDbLine
 10
68.92952741104591
 20
-3.352362944770451
 30
0.0
 11
69.10570888343113
 21
-3.528544417155672
 31
0.0
  0
LINE
  5
94E
330
1F
100
AcDbEntity
  8
2
  6
CONTINUOUS
370
25
 62
7
100
AcDbLine
 10
69.0
 20
2.999999999999998
 30
0.0
 11
68.0
 21
7.999999999999998
 31
0.0
  0
LINE
  5
94F
330
1F
100
AcDbEntity
  8
2
  6
CONTINUOUS
370
25
 62
7
100
AcDbLine
 10
68.0
 20
7.999999999999998
 30
0.0
 11
70.0
 21
7.999999999999998
 31
0.0
  0
LINE
  5
950
330
1F
100
AcDbEntity
  8
2
  6
CONTINUOUS
370
25
 62
7
100
AcDbLine
 10
70.0
 20
7.999999999999998
 30
0.0
 11
69.0
 21
2.999999999999998
 31
0.0
  0
LINE
  5
951
330
1F
100
AcDbEntity
  8
2
  6
CONTINUOUS
370
25
 62
7
100
AcDbLine
 10
68.996968896001
 20
3.015155519995066
 30
0.0
 11
69.00454665599852
 21
3.022733279992597
 31
0.0
  0
LINE
  5
952
330
1F
100
AcDbEntity
  8
2
  6
CONTINUOUS
370
25
 62
7
100
AcDbLine
 10
68.92625821788234
 20
3.368708910588335
 30
0.0
 11
69.1106126731765
 21
3.553063365882508
 31
0.0
  0
LINE
  5
953
330
1F
100
AcDbEntity
  8
2
  6
CONTINUOUS
370
25
 62
7
100
AcDbLine
 10
68.85554753976368
 20
3.722262301181612
 30
0.0
 11
69.21667869035448
 21
4.08339345177242
 31
0.0
  0
LINE
  5
954
330
1F
100
AcDbEntity
  8
2
  6
CONTINUOUS
370
25
 62
7
100
AcDbLine
 10
68.78483686164502
 20
4.075815691774881
 30
0.0
 11
69.32274470753246
 21
4.613723537662331
 31
0.0
  0
LINE
  5
955
330
1F
100
AcDbEntity
  8
2
  6
CONTINUOUS
370
25
 62
7
100
AcDbLine
 10
68.71412618352636
 20
4.429369082368162
 30
0.0
 11
69.42881072471044
 21
5.144053623552242
 31
0.0
  0
LINE
  5
956
330
1F
100
AcDbEntity
  8
2
  6
CONTINUOUS
370
25
 62
7
100
AcDbLine
 10
68.64341550540772
 20
4.782922472961438
 30
0.0
 11
69.53487674188844
 21
5.674383709442161
 31
0.0
  0
LINE
  5
957
330
1F
100
AcDbEntity
  8
2
  6
CONTINUOUS
370
25
 62
7
100
AcDbLine
 10
68.57270482728906
 20
5.136475863554708
 30
0.0
 11
69.64094275906642
 21
6.204713795332072
 31
0.0
  0
LINE
  5
958
330
1F
100
AcDbEntity
  8
2
  6
CONTINUOUS
370
25
 62
7
100
AcDbLine
 10
68.5019941491704
 20
5.490029254147981
 30
0.0
 11
69.7470087762444
 21
6.735043881221983
 31
0.0
  0
LINE
  5
959
330
1F
100
AcDbEntity
  8
2
  6
CONTINUOUS
370
25
 62
7
100
AcDbLine
 10
68.43128347105174
 20
5.843582644741257
 30
0.0
 11
69.85307479342238
 21
7.265373967111902
 31
0.0
  0
LINE
  5
95A
330
1F
100
AcDbEntity
  8
2
  6
CONTINUOUS
370
25
 62
7
100
AcDbLine
 10
68.36057279293308
 20
6.197136035334537
 30
0.0
 11
69.95914081060036
 21
7.79570405300182
 31
0.0
  0
LINE
  5
95B
330
1F
100
AcDbEntity
  8
2
  6
CONTINUOUS
370
25
 62
7
100
AcDbLine
 10
68.28986211481444
 20
6.550689425927811
 30
0.0
 11
69.73917268888661
 21
7.999999999999996
 31
0.0
  0
LINE
  5
95C
330
1F
100
AcDbEntity
  8
2
  6
CONTINUOUS
370
25
 62
7
100
AcDbLine
 10
68.21915143669578
 20
6.904242816521087
 30
0.0
 11
69.31490862017469
 21
8.0
 31
0.0
  0
LINE
  5
95D
330
1F
100
AcDbEntity
  8
2
  6
CONTINUOUS
370
25
 62
7
100
AcDbLine
 10
68.14844075857712
 20
7.257796207114364
 30
0.0
 11
68.89064455146276
 21
7.999999999999996
 31
0.0
  0
LINE
  5
95E
330
1F
100
AcDbEntity
  8
2
  6
CONTINUOUS
370
25
 62
7
100
AcDbLine
 10
68.07773008045848
 20
7.61134959770764
 30
0.0
 11
68.46638048275084
 21
8.0
 31
0.0
  0
LINE
  5
95F
330
1F
100
AcDbEntity
  8
2
  6
CONTINUOUS
370
25
 62
7
100
AcDbLine
 10
68.00701940233981
 20
7.96490298830091
 30
0.0
 11
68.0421164140389
 21
7.999999999999996
 31
0.0
  0
LINE
  5
960
330
1F
100
AcDbEntity
  8
2
  6
CONTINUOUS
370
25
 62
7
100
AcDbLine
 10
68.90865260858342
 20
3.456736957082839
 30
0.0
 11
69.06089826094438
 21
3.304491304721889
 31
0.0
  0
LINE
  5
961
330
1F
100
AcDbEntity
  8
2
  6
CONTINUOUS
370
25
 62
7
100
AcDbLine
 10
68.80258659140546
 20
3.98706704297274
 30
0.0
 11
69.13160893906303
 21
3.658044695315166
 31
0.0
  0
LINE
  5
962
330
1F
100
AcDbEntity
  8
2
  6
CONTINUOUS
370
25
 62
7
100
AcDbLine
 10
68.69652057422746
 20
4.517397128862658
 30
0.0
 11
69.20231961718169
 21
4.011598085908442
 31
0.0
  0
LINE
  5
963
330
1F
100
AcDbEntity
  8
2
  6
CONTINUOUS
370
25
 62
7
100
AcDbLine
 10
68.59045455704948
 20
5.047727214752562
 30
0.0
 11
69.27303029530034
 21
4.365151476501708
 31
0.0
  0
LINE
  5
964
330
1F
100
AcDbEntity
  8
2
  6
CONTINUOUS
370
25
 62
7
100
AcDbLine
 10
68.4843885398715
 20
5.578057300642477
 30
0.0
 11
69.343740973419
 21
4.718704867094988
 31
0.0
  0
LINE
  5
965
330
1F
100
AcDbEntity
  8
2
  6
CONTINUOUS
370
25
 62
7
100
AcDbLine
 10
68.37832252269352
 20
6.108387386532378
 30
0.0
 11
69.41445165153765
 21
5.072258257688262
 31
0.0
  0
LINE
  5
966
330
1F
100
AcDbEntity
  8
2
  6
CONTINUOUS
370
25
 62
7
100
AcDbLine
 10
68.27225650551554
 20
6.638717472422297
 30
0.0
 11
69.4851623296563
 21
5.425811648281535
 31
0.0
  0
LINE
  5
967
330
1F
100
AcDbEntity
  8
2
  6
CONTINUOUS
370
25
 62
7
100
AcDbLine
 10
68.16619048833756
 20
7.169047558312204
 30
0.0
 11
69.55587300777496
 21
5.779365038874808
 31
0.0
  0
LINE
  5
968
330
1F
100
AcDbEntity
  8
2
  6
CONTINUOUS
370
25
 62
7
100
AcDbLine
 10
68.06012447115958
 20
7.699377644202112
 30
0.0
 11
69.62658368589362
 21
6.132918429468084
 31
0.0
  0
LINE
  5
969
330
1F
100
AcDbEntity
  8
2
  6
CONTINUOUS
370
25
 62
7
100
AcDbLine
 10
68.18376618407362
 20
8.0
 30
0.0
 11
69.69729436401227
 21
6.486471820061361
 31
0.0
  0
LINE
  5
96A
330
1F
100
AcDbEntity
  8
2
  6
CONTINUOUS
370
25
 62
7
100
AcDbLine
 10
68.60803025278554
 20
8.0
 30
0.0
 11
69.76800504213092
 21
6.84002521065463
 31
0.0
  0
LINE
  5
96B
330
1F
100
AcDbEntity
  8
2
  6
CONTINUOUS
370
25
 62
7
100
AcDbLine
 10
69.03229432149749
 20
8.0
 30
0.0
 11
69.83871572024958
 21
7.193578601247907
 31
0.0
  0
LINE
  5
96C
330
1F
100
AcDbEntity
  8
2
  6
CONTINUOUS
370
25
 62
7
100
AcDbLine
 10
69.45655839020941
 20
8.0
 30
0.0
 11
69.90942639836824
 21
7.54713199184118
 31
0.0
  0
LINE
  5
96D
330
1F
100
AcDbEntity
  8
2
  6
CONTINUOUS
370
25
 62
7
100
AcDbLine
 10
69.88082245892134
 20
8.0
 30
0.0
 11
69.98013707648688
 21
7.900685382434453
 31
0.0
  0
TEXT
  5
96E
330
1F
100
AcDbEntity
  8
2
  6
CONTINUOUS
370
25
 62
7
100
AcDbText
 10
67.5
 20
13.34583333333333
 30
0.0
 40
3.5
  1
6
 50
90.00000000000001
 72
     1
 11
67.5
 21
14.5125
 31
0.0
100
AcDbText
  0
CIRCLE
  5
96F
330
1F
100
AcDbEntity
  8
2
  6
CONTINUOUS
370
25
 62
7
100
AcDbCircle
 10
65.75
 20
11.1875
 30
0.0
 40
1.4
  0
LINE
  5
970
330
1F
100
AcDbEntity
  8
2
  6
CONTINUOUS
370
25
 62
7
100
AcDbLine
 10
67.15
 20
9.7875
 30
0.0
 11
64.35
 21
12.5875
 31
0.0
  0
LINE
  5
971
330
1F
100
AcDbEntity
  8
2
  6
CONTINUOUS
370
25
 62
7
100
AcDbLine
 10
44.0
 20
-3.0
 30
0.0
 11
44.0
 21
-36.0
 31
0.0
  0
LINE
  5
972
330
1F
100
AcDbEntity
  8
2
  6
CONTINUOUS
370
25
 62
7
100
AcDbLine
 10
57.0
 20
-36.0
 30
0.0
 11
57.0
 21
-3.0
 31
0.0
  0
LINE
  5
973
330
1F
100
AcDbEntity
  8
2
  6
CONTINUOUS
370
25
 62
7
100
AcDbLine
 10
37.0
 20
-35.0
 30
0.0
 11
64.0
 21
-35.0
 31
0.0
  0
LINE
  5
974
330
1F
100
AcDbEntity
  8
2
  6
CONTINUOUS
370
25
 62
7
100
AcDbLine
 10
44.0
 20
-35.0
 30
0.0
 11
39.0
 21
-36.0
 31
0.0
  0
LINE
  5
975
330
1F
100
AcDbEntity
  8
2
  6
CONTINUOUS
370
25
 62
7
100
AcDbLine
 10
39.0
 20
-36.0
 30
0.0
 11
39.0
 21
-34.0
 31
0.0
  0
LINE
  5
976
330
1F
100
AcDbEntity
  8
2
  6
CONTINUOUS
370
25
 62
7
100
AcDbLine
 10
39.0
 20
-34.0
 30
0.0
 11
44.0
 21
-35.0
 31
0.0
  0
LINE
  5
977
330
1F
100
AcDbEntity
  8
2
  6
CONTINUOUS
370
25
 62
7
100
AcDbLine
 10
43.78703405742018
 20
-35.04259318851597
 30
0.0
 11
43.85802270494679
 21
-34.97160454098935
 31
0.0
  0
LINE
  5
978
330
1F
100
AcDbEntity
  8
2
  6
CONTINUOUS
370
25
 62
7
100
AcDbLine
 10
43.25670397153026
 20
-35.14865920569395
 30
0.0
 11
43.50446931435351
 21
-34.9008938628707
 31
0.0
  0
LINE
  5
979
330
1F
100
AcDbEntity
  8
2
  6
CONTINUOUS
370
25
 62
7
100
AcDbLine
 10
42.72637388564036
 20
-35.25472522287193
 30
0.0
 11
43.15091592376024
 21
-34.83018318475204
 31
0.0
  0
LINE
  5
97A
330
1F
100
AcDbEntity
  8
2
  6
CONTINUOUS
370
25
 62
7
100
AcDbLine
 10
42.19604379975044
 20
-35.36079124004991
 30
0.0
 11
42.79736253316697
 21
-34.75947250663339
 31
0.0
  0
LINE
  5
97B
330
1F
100
AcDbEntity
  8
2
  6
CONTINUOUS
370
25
 62
7
100
AcDbLine
 10
41.66571371386053
 20
-35.4668572572279
 30
0.0
 11
42.44380914257369
 21
-34.68876182851474
 31
0.0
  0
LINE
  5
97C
330
1F
100
AcDbEntity
  8
2
  6
CONTINUOUS
370
25
 62
7
100
AcDbLine
 10
41.13538362797061
 20
-35.57292327440588
 30
0.0
 11
42.09025575198041
 21
-34.61805115039608
 31
0.0
  0
LINE
  5
97D
330
1F
100
AcDbEntity
  8
2
  6
CONTINUOUS
370
25
 62
7
100
AcDbLine
 10
40.6050535420807
 20
-35.67898929158386
 30
0.0
 11
41.73670236138714
 21
-34.54734047227743
 31
0.0
  0
LINE
  5
97E
330
1F
100
AcDbEntity
  8
2
  6
CONTINUOUS
370
25
 62
7
100
AcDbLine
 10
40.07472345619079
 20
-35.78505530876185
 30
0.0
 11
41.38314897079387
 21
-34.47662979415877
 31
0.0
  0
LINE
  5
97F
330
1F
100
AcDbEntity
  8
2
  6
CONTINUOUS
370
25
 62
7
100
AcDbLine
 10
39.54439337030087
 20
-35.89112132593983
 30
0.0
 11
41.02959558020059
 21
-34.40591911604012
 31
0.0
  0
LINE
  5
980
330
1F
100
AcDbEntity
  8
2
  6
CONTINUOUS
370
25
 62
7
100
AcDbLine
 10
39.01406328441095
 20
-35.99718734311782
 30
0.0
 11
40.67604218960732
 21
-34.33520843792146
 31
0.0
  0
LINE
  5
981
330
1F
100
AcDbEntity
  8
2
  6
CONTINUOUS
370
25
 62
7
100
AcDbLine
 10
39.0
 20
-35.58698655881684
 30
0.0
 11
40.32248879901404
 21
-34.26449775980281
 31
0.0
  0
LINE
  5
982
330
1F
100
AcDbEntity
  8
2
  6
CONTINUOUS
370
25
 62
7
100
AcDbLine
 10
39.0
 20
-35.16272249010491
 30
0.0
 11
39.96893540842077
 21
-34.19378708168415
 31
0.0
  0
LINE
  5
983
330
1F
100
AcDbEntity
  8
2
  6
CONTINUOUS
370
25
 62
7
100
AcDbLine
 10
39.0
 20
-34.73845842139298
 30
0.0
 11
39.61538201782749
 21
-34.12307640356549
 31
0.0
  0
LINE
  5
984
330
1F
100
AcDbEntity
  8
2
  6
CONTINUOUS
370
25
 62
7
100
AcDbLine
 10
39.0
 20
-34.31419435268105
 30
0.0
 11
39.26182862723421
 21
-34.05236572544684
 31
0.0
  0
LINE
  5
985
330
1F
100
AcDbEntity
  8
2
  6
CONTINUOUS
370
25
 62
7
100
AcDbLine
 10
39.0
 20
-35.8906445514628
 30
0.0
 11
39.09112954044767
 21
-35.98177409191047
 31
0.0
  0
LINE
  5
986
330
1F
100
AcDbEntity
  8
2
  6
CONTINUOUS
370
25
 62
7
100
AcDbLine
 10
39.0
 20
-35.46638048275087
 30
0.0
 11
39.44468293104094
 21
-35.91106341379182
 31
0.0
  0
LINE
  5
987
330
1F
100
AcDbEntity
  8
2
  6
CONTINUOUS
370
25
 62
7
100
AcDbLine
 10
39.0
 20
-35.04211641403894
 30
0.0
 11
39.79823632163422
 21
-35.84035273567316
 31
0.0
  0
LINE
  5
988
330
1F
100
AcDbEntity
  8
2
  6
CONTINUOUS
370
25
 62
7
100
AcDbLine
 10
39.0
 20
-34.61785234532701
 30
0.0
 11
40.15178971222749
 21
-35.76964205755451
 31
0.0
  0
LINE
  5
989
330
1F
100
AcDbEntity
  8
2
  6
CONTINUOUS
370
25
 62
7
100
AcDbLine
 10
39.0
 20
-34.19358827661508
 30
0.0
 11
40.50534310282077
 21
-35.69893137943585
 31
0.0
  0
LINE
  5
98A
330
1F
100
AcDbEntity
  8
2
  6
CONTINUOUS
370
25
 62
7
100
AcDbLine
 10
39.28834474012105
 20
-34.05766894802421
 30
0.0
 11
40.85889649341404
 21
-35.6282207013172
 31
0.0
  0
LINE
  5
98B
330
1F
100
AcDbEntity
  8
2
  6
CONTINUOUS
370
25
 62
7
100
AcDbLine
 10
39.81867482601096
 20
-34.16373496520219
 30
0.0
 11
41.21244988400731
 21
-35.55751002319854
 31
0.0
  0
LINE
  5
98C
330
1F
100
AcDbEntity
  8
2
  6
CONTINUOUS
370
25
 62
7
100
AcDbLine
 10
40.34900491190088
 20
-34.26980098238018
 30
0.0
 11
41.5660032746006
 21
-35.48679934507989
 31
0.0
  0
LINE
  5
98D
330
1F
100
AcDbEntity
  8
2
  6
CONTINUOUS
370
25
 62
7
100
AcDbLine
 10
40.87933499779079
 20
-34.37586699955816
 30
0.0
 11
41.91955666519387
 21
-35.41608866696123
 31
0.0
  0
LINE
  5
98E
330
1F
100
AcDbEntity
  8
2
  6
CONTINUOUS
370
25
 62
7
100
AcDbLine
 10
41.40966508368071
 20
-34.48193301673614
 30
0.0
 11
42.27311005578714
 21
-35.34537798884257
 31
0.0
  0
LINE
  5
98F
330
1F
100
AcDbEntity
  8
2
  6
CONTINUOUS
370
25
 62
7
100
AcDbLine
 10
41.93999516957062
 20
-34.58799903391412
 30
0.0
 11
42.62666344638042
 21
-35.27466731072392
 31
0.0
  0
LINE
  5
990
330
1F
100
AcDbEntity
  8
2
  6
CONTINUOUS
370
25
 62
7
100
AcDbLine
 10
42.47032525546054
 20
-34.6940650510921
 30
0.0
 11
42.9802168369737
 21
-35.20395663260526
 31
0.0
  0
LINE
  5
991
330
1F
100
AcDbEntity
  8
2
  6
CONTINUOUS
370
25
 62
7
100
AcDbLine
 10
43.00065534135044
 20
-34.80013106827009
 30
0.0
 11
43.33377022756697
 21
-35.13324595448661
 31
0.0
  0
LINE
  5
992
330
1F
100
AcDbEntity
  8
2
  6
CONTINUOUS
370
25
 62
7
100
AcDbLine
 10
43.53098542724036
 20
-34.90619708544807
 30
0.0
 11
43.68732361816024
 21
-35.06253527636795
 31
0.0
  0
LINE
  5
993
330
1F
100
AcDbEntity
  8
2
  6
CONTINUOUS
370
25
 62
7
100
AcDbLine
 10
57.0
 20
-35.0
 30
0.0
 11
62.0
 21
-34.0
 31
0.0
  0
LINE
  5
994
330
1F
100
AcDbEntity
  8
2
  6
CONTINUOUS
370
25
 62
7
100
AcDbLine
 10
62.0
 20
-34.0
 30
0.0
 11
62.0
 21
-36.0
 31
0.0
  0
LINE
  5
995
330
1F
100
AcDbEntity
  8
2
  6
CONTINUOUS
370
25
 62
7
100
AcDbLine
 10
62.0
 20
-36.0
 30
0.0
 11
57.0
 21
-35.0
 31
0.0
  0
LINE
  5
996
330
1F
100
AcDbEntity
  8
2
  6
CONTINUOUS
370
25
 62
7
100
AcDbLine
 10
61.88255374788247
 20
-35.97651074957649
 30
0.0
 11
62.0
 21
-35.85906449745896
 31
0.0
  0
LINE
  5
997
330
1F
100
AcDbEntity
  8
2
  6
CONTINUOUS
370
25
 62
7
100
AcDbLine
 10
61.5290003572892
 20
-35.90580007145783
 30
0.0
 11
62.0
 21
-35.43480042874704
 31
0.0
  0
LINE
  5
998
330
1F
100
AcDbEntity
  8
2
  6
CONTINUOUS
370
25
 62
7
100
AcDbLine
 10
61.17544696669593
 20
-35.83508939333918
 30
0.0
 11
62.0
 21
-35.01053636003511
 31
0.0
  0
LINE
  5
999
330
1F
100
AcDbEntity
  8
2
  6
CONTINUOUS
370
25
 62
7
100
AcDbLine
 10
60.82189357610265
 20
-35.76437871522053
 30
0.0
 11
62.0
 21
-34.58627229132318
 31
0.0
  0
LINE
  5
99A
330
1F
100
AcDbEntity
  8
2
  6
CONTINUOUS
370
25
 62
7
100
AcDbLine
 10
60.46834018550937
 20
-35.69366803710187
 30
0.0
 11
62.0
 21
-34.16200822261125
 31
0.0
  0
LINE
  5
99B
330
1F
100
AcDbEntity
  8
2
  6
CONTINUOUS
370
25
 62
7
100
AcDbLine
 10
60.1147867949161
 20
-35.62295735898321
 30
0.0
 11
61.67218019237416
 21
-34.06556396152517
 31
0.0
  0
LINE
  5
99C
330
1F
100
AcDbEntity
  8
2
  6
CONTINUOUS
370
25
 62
7
100
AcDbLine
 10
59.76123340432282
 20
-35.55224668086456
 30
0.0
 11
61.14185010648424
 21
-34.17162997870315
 31
0.0
  0
LINE
  5
99D
330
1F
100
AcDbEntity
  8
2
  6
CONTINUOUS
370
25
 62
7
100
AcDbLine
 10
59.40768001372955
 20
-35.48153600274591
 30
0.0
 11
60.61152002059434
 21
-34.27769599588113
 31
0.0
  0
LINE
  5
99E
330
1F
100
AcDbEntity
  8
2
  6
CONTINUOUS
370
25
 62
7
100
AcDbLine
 10
59.05412662313628
 20
-35.41082532462725
 30
0.0
 11
60.08118993470443
 21
-34.38376201305911
 31
0.0
  0
LINE
  5
99F
330
1F
100
AcDbEntity
  8
2
  6
CONTINUOUS
370
25
 62
7
100
AcDbLine
 10
58.700573232543
 20
-35.3401146465086
 30
0.0
 11
59.5508598488145
 21
-34.4898280302371
 31
0.0
  0
LINE
  5
9A0
330
1F
100
AcDbEntity
  8
2
  6
CONTINUOUS
370
25
 62
7
100
AcDbLine
 10
58.34701984194972
 20
-35.26940396838994
 30
0.0
 11
59.02052976292458
 21
-34.59589404741509
 31
0.0
  0
LINE
  5
9A1
330
1F
100
AcDbEntity
  8
2
  6
CONTINUOUS
370
25
 62
7
100
AcDbLine
 10
57.99346645135644
 20
-35.19869329027129
 30
0.0
 11
58.49019967703467
 21
-34.70196006459307
 31
0.0
  0
LINE
  5
9A2
330
1F
100
AcDbEntity
  8
2
  6
CONTINUOUS
370
25
 62
7
100
AcDbLine
 10
57.63991306076317
 20
-35.12798261215264
 30
0.0
 11
57.95986959114477
 21
-34.80802608177105
 31
0.0
  0
LINE
  5
9A3
330
1F
100
AcDbEntity
  8
2
  6
CONTINUOUS
370
25
 62
7
100
AcDbLine
 10
57.2863596701699
 20
-35.05727193403398
 30
0.0
 11
57.42953950525485
 21
-34.91409209894903
 31
0.0
  0
LINE
  5
9A4
330
1F
100
AcDbEntity
  8
2
  6
CONTINUOUS
370
25
 62
7
100
AcDbLine
 10
57.11566058338331
 20
-34.97686788332334
 30
0.0
 11
57.17349087507498
 21
-35.034698175015
 31
0.0
  0
LINE
  5
9A5
330
1F
100
AcDbEntity
  8
2
  6
CONTINUOUS
370
25
 62
7
100
AcDbLine
 10
57.46921397397659
 20
-34.90615720520468
 30
0.0
 11
57.70382096096488
 21
-35.14076419219298
 31
0.0
  0
LINE
  5
9A6
330
1F
100
AcDbEntity
  8
2
  6
CONTINUOUS
370
25
 62
7
100
AcDbLine
 10
57.82276736456986
 20
-34.83544652708603
 30
0.0
 11
58.23415104685479
 21
-35.24683020937096
 31
0.0
  0
LINE
  5
9A7
330
1F
100
AcDbEntity
  8
2
  6
CONTINUOUS
370
25
 62
7
100
AcDbLine
 10
58.17632075516313
 20
-34.76473584896736
 30
0.0
 11
58.76448113274471
 21
-35.35289622654894
 31
0.0
  0
LINE
  5
9A8
330
1F
100
AcDbEntity
  8
2
  6
CONTINUOUS
370
25
 62
7
100
AcDbLine
 10
58.52987414575641
 20
-34.69402517084872
 30
0.0
 11
59.29481121863462
 21
-35.45896224372693
 31
0.0
  0
LINE
  5
9A9
330
1F
100
AcDbEntity
  8
2
  6
CONTINUOUS
370
25
 62
7
100
AcDbLine
 10
58.88342753634969
 20
-34.62331449273006
 30
0.0
 11
59.82514130452454
 21
-35.56502826090491
 31
0.0
  0
LINE
  5
9AA
330
1F
100
AcDbEntity
  8
2
  6
CONTINUOUS
370
25
 62
7
100
AcDbLine
 10
59.23698092694296
 20
-34.5526038146114
 30
0.0
 11
60.35547139041445
 21
-35.67109427808289
 31
0.0
  0
LINE
  5
9AB
330
1F
100
AcDbEntity
  8
2
  6
CONTINUOUS
370
25
 62
7
100
AcDbLine
 10
59.59053431753624
 20
-34.48189313649275
 30
0.0
 11
60.88580147630437
 21
-35.77716029526087
 31
0.0
  0
LINE
  5
9AC
330
1F
100
AcDbEntity
  8
2
  6
CONTINUOUS
370
25
 62
7
100
AcDbLine
 10
59.94408770812951
 20
-34.41118245837409
 30
0.0
 11
61.41613156219428
 21
-35.88322631243886
 31
0.0
  0
LINE
  5
9AD
330
1F
100
AcDbEntity
  8
2
  6
CONTINUOUS
370
25
 62
7
100
AcDbLine
 10
60.29764109872279
 20
-34.34047178025544
 30
0.0
 11
61.9464616480842
 21
-35.98929232961684
 31
0.0
  0
LINE
  5
9AE
330
1F
100
AcDbEntity
  8
2
  6
CONTINUOUS
370
25
 62
7
100
AcDbLine
 10
60.65119448931605
 20
-34.26976110213678
 30
0.0
 11
62.0
 21
-35.61856661282071
 31
0.0
  0
LINE
  5
9AF
330
1F
100
AcDbEntity
  8
2
  6
CONTINUOUS
370
25
 62
7
100
AcDbLine
 10
61.00474787990933
 20
-34.19905042401813
 30
0.0
 11
62.0
 21
-35.19430254410879
 31
0.0
  0
LINE
  5
9B0
330
1F
100
AcDbEntity
  8
2
  6
CONTINUOUS
370
25
 62
7
100
AcDbLine
 10
61.35830127050261
 20
-34.12833974589948
 30
0.0
 11
62.0
 21
-34.77003847539686
 31
0.0
  0
LINE
  5
9B1
330
1F
100
AcDbEntity
  8
2
  6
CONTINUOUS
370
25
 62
7
100
AcDbLine
 10
61.71185466109588
 20
-34.05762906778082
 30
0.0
 11
62.0
 21
-34.34577440668492
 31
0.0
  0
TEXT
  5
9B2
330
1F
100
AcDbEntity
  8
2
  6
CONTINUOUS
370
25
 62
7
100
AcDbText
 10
48.16666666666666
 20
-33.5
 30
0.0
 40
3.5
  1
13
 72
     1
 11
50.5
 21
-33.5
 31
0.0
100
AcDbText
  0
LINE
  5
9B3
330
1F
100
AcDbEntity
  8
2
  6
CONTINUOUS
370
25
 62
7
100
AcDbLine
 10
38.0
 20
0.0
 30
0.0
 11
38.0
 21
26.0
 31
0.0
  0
LINE
  5
9B4
330
1F
100
AcDbEntity
  8
2
  6
CONTINUOUS
370
25
 62
7
100
AcDbLine
 10
57.0
 20
26.0
 30
0.0
 11
57.0
 21
3.0
 31
0.0
  0
LINE
  5
9B5
330
1F
100
AcDbEntity
  8
2
  6
CONTINUOUS
370
25
 62
7
100
AcDbLine
 10
38.0
 20
25.0
 30
0.0
 11
57.0
 21
25.0
 31
0.0
  0
LINE
  5
9B6
330
1F
100
AcDbEntity
  8
2
  6
CONTINUOUS
370
25
 62
7
100
AcDbLine
 10
38.0
 20
25.0
 30
0.0
 11
43.0
 21
26.0
 31
0.0
  0
LINE
  5
9B7
330
1F
100
AcDbEntity
  8
2
  6
CONTINUOUS
370
25
 62
7
100
AcDbLine
 10
43.0
 20
26.0
 30
0.0
 11
43.0
 21
24.0
 31
0.0
  0
LINE
  5
9B8
330
1F
100
AcDbEntity
  8
2
  6
CONTINUOUS
370
25
 62
7
100
AcDbLine
 10
43.0
 20
24.0
 30
0.0
 11
38.0
 21
25.0
 31
0.0
  0
LINE
  5
9B9
330
1F
100
AcDbEntity
  8
2
  6
CONTINUOUS
370
25
 62
7
100
AcDbLine
 10
42.92343075663604
 20
24.01531384867279
 30
0.0
 11
43.0
 21
24.09188309203675
 31
0.0
  0
LINE
  5
9BA
330
1F
100
AcDbEntity
  8
2
  6
CONTINUOUS
370
25
 62
7
100
AcDbLine
 10
42.56987736604277
 20
24.08602452679144
 30
0.0
 11
43.0
 21
24.51614716074867
 31
0.0
  0
LINE
  5
9BB
330
1F
100
AcDbEntity
  8
2
  6
CONTINUOUS
370
25
 62
7
100
AcDbLine
 10
42.2163239754495
 20
24.1567352049101
 30
0.0
 11
43.0
 21
24.9404112294606
 31
0.0
  0
LINE
  5
9BC
330
1F
100
AcDbEntity
  8
2
  6
CONTINUOUS
370
25
 62
7
100
AcDbLine
 10
41.86277058485623
 20
24.22744588302875
 30
0.0
 11
43.0
 21
25.36467529817253
 31
0.0
  0
LINE
  5
9BD
330
1F
100
AcDbEntity
  8
2
  6
CONTINUOUS
370
25
 62
7
100
AcDbLine
 10
41.50921719426295
 20
24.29815656114741
 30
0.0
 11
43.0
 21
25.78893936688446
 31
0.0
  0
LINE
  5
9BE
330
1F
100
AcDbEntity
  8
2
  6
CONTINUOUS
370
25
 62
7
100
AcDbLine
 10
41.15566380366968
 20
24.36886723926606
 30
0.0
 11
42.73349570550452
 21
25.9466991411009
 31
0.0
  0
LINE
  5
9BF
330
1F
100
AcDbEntity
  8
2
  6
CONTINUOUS
370
25
 62
7
100
AcDbLine
 10
40.80211041307641
 20
24.43957791738472
 30
0.0
 11
42.20316561961462
 21
25.84063312392292
 31
0.0
  0
LINE
  5
9C0
330
1F
100
AcDbEntity
  8
2
  6
CONTINUOUS
370
25
 62
7
100
AcDbLine
 10
40.44855702248314
 20
24.51028859550337
 30
0.0
 11
41.6728355337247
 21
25.73456710674494
 31
0.0
  0
LINE
  5
9C1
330
1F
100
AcDbEntity
  8
2
  6
CONTINUOUS
370
25
 62
7
100
AcDbLine
 10
40.09500363188986
 20
24.58099927362203
 30
0.0
 11
41.14250544783479
 21
25.62850108956696
 31
0.0
  0
LINE
  5
9C2
330
1F
100
AcDbEntity
  8
2
  6
CONTINUOUS
370
25
 62
7
100
AcDbLine
 10
39.74145024129659
 20
24.65170995174068
 30
0.0
 11
40.61217536194489
 21
25.52243507238898
 31
0.0
  0
LINE
  5
9C3
330
1F
100
AcDbEntity
  8
2
  6
CONTINUOUS
370
25
 62
7
100
AcDbLine
 10
39.38789685070331
 20
24.72242062985934
 30
0.0
 11
40.08184527605498
 21
25.416369055211
 31
0.0
  0
LINE
  5
9C4
330
1F
100
AcDbEntity
  8
2
  6
CONTINUOUS
370
25
 62
7
100
AcDbLine
 10
39.03434346011004
 20
24.79313130797799
 30
0.0
 11
39.55151519016506
 21
25.31030303803301
 31
0.0
  0
LINE
  5
9C5
330
1F
100
AcDbEntity
  8
2
  6
CONTINUOUS
370
25
 62
7
100
AcDbLine
 10
38.68079006951677
 20
24.86384198609665
 30
0.0
 11
39.02118510427515
 21
25.20423702085503
 31
0.0
  0
LINE
  5
9C6
330
1F
100
AcDbEntity
  8
2
  6
CONTINUOUS
370
25
 62
7
100
AcDbLine
 10
38.3272366789235
 20
24.9345526642153
 30
0.0
 11
38.49085501838525
 21
25.09817100367705
 31
0.0
  0
LINE
  5
9C7
330
1F
100
AcDbEntity
  8
2
  6
CONTINUOUS
370
25
 62
7
100
AcDbLine
 10
38.02631671166979
 20
25.00526334233396
 30
0.0
 11
38.03947506750468
 21
24.99210498649906
 31
0.0
  0
LINE
  5
9C8
330
1F
100
AcDbEntity
  8
2
  6
CONTINUOUS
370
25
 62
7
100
AcDbLine
 10
38.37987010226306
 20
25.07597402045261
 30
0.0
 11
38.56980515339459
 21
24.88603896932108
 31
0.0
  0
LINE
  5
9C9
330
1F
100
AcDbEntity
  8
2
  6
CONTINUOUS
370
25
 62
7
100
AcDbLine
 10
38.73342349285633
 20
25.14668469857127
 30
0.0
 11
39.1001352392845
 21
24.7799729521431
 31
0.0
  0
LINE
  5
9CA
330
1F
100
AcDbEntity
  8
2
  6
CONTINUOUS
370
25
 62
7
100
AcDbLine
 10
39.08697688344961
 20
25.21739537668992
 30
0.0
 11
39.63046532517441
 21
24.67390693496512
 31
0.0
  0
LINE
  5
9CB
330
1F
100
AcDbEntity
  8
2
  6
CONTINUOUS
370
25
 62
7
100
AcDbLine
 10
39.44053027404288
 20
25.28810605480858
 30
0.0
 11
40.16079541106432
 21
24.56784091778714
 31
0.0
  0
LINE
  5
9CC
330
1F
100
AcDbEntity
  8
2
  6
CONTINUOUS
370
25
 62
7
100
AcDbLine
 10
39.79408366463615
 20
25.35881673292723
 30
0.0
 11
40.69112549695423
 21
24.46177490060915
 31
0.0
  0
LINE
  5
9CD
330
1F
100
AcDbEntity
  8
2
  6
CONTINUOUS
370
25
 62
7
100
AcDbLine
 10
40.14763705522942
 20
25.42952741104589
 30
0.0
 11
41.22145558284414
 21
24.35570888343117
 31
0.0
  0
LINE
  5
9CE
330
1F
100
AcDbEntity
  8
2
  6
CONTINUOUS
370
25
 62
7
100
AcDbLine
 10
40.5011904458227
 20
25.50023808916454
 30
0.0
 11
41.75178566873405
 21
24.24964286625319
 31
0.0
  0
LINE
  5
9CF
330
1F
100
AcDbEntity
  8
2
  6
CONTINUOUS
370
25
 62
7
100
AcDbLine
 10
40.85474383641597
 20
25.57094876728319
 30
0.0
 11
42.28211575462396
 21
24.14357684907521
 31
0.0
  0
LINE
  5
9D0
330
1F
100
AcDbEntity
  8
2
  6
CONTINUOUS
370
25
 62
7
100
AcDbLine
 10
41.20829722700925
 20
25.64165944540185
 30
0.0
 11
42.81244584051387
 21
24.03751083189723
 31
0.0
  0
LINE
  5
9D1
330
1F
100
AcDbEntity
  8
2
  6
CONTINUOUS
370
25
 62
7
100
AcDbLine
 10
41.56185061760252
 20
25.7123701235205
 30
0.0
 11
43.0
 21
24.27422074112302
 31
0.0
  0
LINE
  5
9D2
330
1F
100
AcDbEntity
  8
2
  6
CONTINUOUS
370
25
 62
7
100
AcDbLine
 10
41.91540400819579
 20
25.78308080163916
 30
0.0
 11
43.0
 21
24.69848480983495
 31
0.0
  0
LINE
  5
9D3
330
1F
100
AcDbEntity
  8
2
  6
CONTINUOUS
370
25
 62
7
100
AcDbLine
 10
42.26895739878907
 20
25.85379147975781
 30
0.0
 11
43.0
 21
25.12274887854688
 31
0.0
  0
LINE
  5
9D4
330
1F
100
AcDbEntity
  8
2
  6
CONTINUOUS
370
25
 62
7
100
AcDbLine
 10
42.62251078938234
 20
25.92450215787647
 30
0.0
 11
43.0
 21
25.54701294725881
 31
0.0
  0
LINE
  5
9D5
330
1F
100
AcDbEntity
  8
2
  6
CONTINUOUS
370
25
 62
7
100
AcDbLine
 10
42.97606417997561
 20
25.99521283599512
 30
0.0
 11
43.0
 21
25.97127701597073
 31
0.0
  0
LINE
  5
9D6
330
1F
100
AcDbEntity
  8
2
  6
CONTINUOUS
370
25
 62
7
100
AcDbLine
 10
57.0
 20
25.0
 30
0.0
 11
52.0
 21
24.0
 31
0.0
  0
LINE
  5
9D7
330
1F
100
AcDbEntity
  8
2
  6
CONTINUOUS
370
25
 62
7
100
AcDbLine
 10
52.0
 20
24.0
 30
0.0
 11
52.0
 21
26.0
 31
0.0
  0
LINE
  5
9D8
330
1F
100
AcDbEntity
  8
2
  6
CONTINUOUS
370
25
 62
7
100
AcDbLine
 10
52.0
 20
26.0
 30
0.0
 11
57.0
 21
25.0
 31
0.0
  0
LINE
  5
9D9
330
1F
100
AcDbEntity
  8
2
  6
CONTINUOUS
370
25
 62
7
100
AcDbLine
 10
56.54504871165134
 20
24.90900974233027
 30
0.0
 11
56.69669914110089
 21
25.06066017177982
 31
0.0
  0
LINE
  5
9DA
330
1F
100
AcDbEntity
  8
2
  6
CONTINUOUS
370
25
 62
7
100
AcDbLine
 10
56.01471862576143
 20
24.80294372515229
 30
0.0
 11
56.34314575050762
 21
25.13137084989848
 31
0.0
  0
LINE
  5
9DB
330
1F
100
AcDbEntity
  8
2
  6
CONTINUOUS
370
25
 62
7
100
AcDbLine
 10
55.48438853987152
 20
24.6968777079743
 30
0.0
 11
55.98959235991435
 21
25.20208152801713
 31
0.0
  0
LINE
  5
9DC
330
1F
100
AcDbEntity
  8
2
  6
CONTINUOUS
370
25
 62
7
100
AcDbLine
 10
54.95405845398162
 20
24.59081169079632
 30
0.0
 11
55.63603896932108
 21
25.27279220613579
 31
0.0
  0
LINE
  5
9DD
330
1F
100
AcDbEntity
  8
2
  6
CONTINUOUS
370
25
 62
7
100
AcDbLine
 10
54.4237283680917
 20
24.48474567361834
 30
0.0
 11
55.2824855787278
 21
25.34350288425444
 31
0.0
  0
LINE
  5
9DE
330
1F
100
AcDbEntity
  8
2
  6
CONTINUOUS
370
25
 62
7
100
AcDbLine
 10
53.89339828220179
 20
24.37867965644036
 30
0.0
 11
54.92893218813453
 21
25.4142135623731
 31
0.0
  0
LINE
  5
9DF
330
1F
100
AcDbEntity
  8
2
  6
CONTINUOUS
370
25
 62
7
100
AcDbLine
 10
53.36306819631189
 20
24.27261363926237
 30
0.0
 11
54.57537879754126
 21
25.48492424049175
 31
0.0
  0
LINE
  5
9E0
330
1F
100
AcDbEntity
  8
2
  6
CONTINUOUS
370
25
 62
7
100
AcDbLine
 10
52.83273811042197
 20
24.16654762208439
 30
0.0
 11
54.22182540694799
 21
25.55563491861041
 31
0.0
  0
LINE
  5
9E1
330
1F
100
AcDbEntity
  8
2
  6
CONTINUOUS
370
25
 62
7
100
AcDbLine
 10
52.30240802453206
 20
24.06048160490641
 30
0.0
 11
53.86827201635471
 21
25.62634559672906
 31
0.0
  0
LINE
  5
9E2
330
1F
100
AcDbEntity
  8
2
  6
CONTINUOUS
370
25
 62
7
100
AcDbLine
 10
52.0
 20
24.18233764908627
 30
0.0
 11
53.51471862576144
 21
25.69705627484771
 31
0.0
  0
LINE
  5
9E3
330
1F
100
AcDbEntity
  8
2
  6
CONTINUOUS
370
25
 62
7
100
AcDbLine
 10
52.0
 20
24.6066017177982
 30
0.0
 11
53.16116523516817
 21
25.76776695296637
 31
0.0
  0
LINE
  5
9E4
330
1F
100
AcDbEntity
  8
2
  6
CONTINUOUS
370
25
 62
7
100
AcDbLine
 10
52.0
 20
25.03086578651013
 30
0.0
 11
52.80761184457489
 21
25.83847763108502
 31
0.0
  0
LINE
  5
9E5
330
1F
100
AcDbEntity
  8
2
  6
CONTINUOUS
370
25
 62
7
100
AcDbLine
 10
52.0
 20
25.45512985522206
 30
0.0
 11
52.45405845398162
 21
25.90918830920368
 31
0.0
  0
LINE
  5
9E6
330
1F
100
AcDbEntity
  8
2
  6
CONTINUOUS
370
25
 62
7
100
AcDbLine
 10
52.0
 20
25.87939392393399
 30
0.0
 11
52.10050506338835
 21
25.97989898732233
 31
0.0
  0
LINE
  5
9E7
330
1F
100
AcDbEntity
  8
2
  6
CONTINUOUS
370
25
 62
7
100
AcDbLine
 10
52.0
 20
24.18376618407355
 30
0.0
 11
52.15313848672797
 21
24.03062769734559
 31
0.0
  0
LINE
  5
9E8
330
1F
100
AcDbEntity
  8
2
  6
CONTINUOUS
370
25
 62
7
100
AcDbLine
 10
52.0
 20
24.60803025278548
 30
0.0
 11
52.50669187732124
 21
24.10133837546424
 31
0.0
  0
LINE
  5
9E9
330
1F
100
AcDbEntity
  8
2
  6
CONTINUOUS
370
25
 62
7
100
AcDbLine
 10
52.0
 20
25.03229432149741
 30
0.0
 11
52.86024526791451
 21
24.1720490535829
 31
0.0
  0
LINE
  5
9EA
330
1F
100
AcDbEntity
  8
2
  6
CONTINUOUS
370
25
 62
7
100
AcDbLine
 10
52.0
 20
25.45655839020934
 30
0.0
 11
53.21379865850778
 21
24.24275973170155
 31
0.0
  0
LINE
  5
9EB
330
1F
100
AcDbEntity
  8
2
  6
CONTINUOUS
370
25
 62
7
100
AcDbLine
 10
52.0
 20
25.88082245892127
 30
0.0
 11
53.56735204910106
 21
24.31347040982021
 31
0.0
  0
LINE
  5
9EC
330
1F
100
AcDbEntity
  8
2
  6
CONTINUOUS
370
25
 62
7
100
AcDbLine
 10
52.38135815954149
 20
25.9237283680917
 30
0.0
 11
53.92090543969433
 21
24.38418108793886
 31
0.0
  0
LINE
  5
9ED
330
1F
100
AcDbEntity
  8
2
  6
CONTINUOUS
370
25
 62
7
100
AcDbLine
 10
52.9116882454314
 20
25.81766235091372
 30
0.0
 11
54.27445883028761
 21
24.45489176605752
 31
0.0
  0
LINE
  5
9EE
330
1F
100
AcDbEntity
  8
2
  6
CONTINUOUS
370
25
 62
7
100
AcDbLine
 10
53.44201833132131
 20
25.71159633373574
 30
0.0
 11
54.62801222088088
 21
24.52560244417617
 31
0.0
  0
LINE
  5
9EF
330
1F
100
AcDbEntity
  8
2
  6
CONTINUOUS
370
25
 62
7
100
AcDbLine
 10
53.97234841721122
 20
25.60553031655776
 30
0.0
 11
54.98156561147415
 21
24.59631312229483
 31
0.0
  0
LINE
  5
9F0
330
1F
100
AcDbEntity
  8
2
  6
CONTINUOUS
370
25
 62
7
100
AcDbLine
 10
54.50267850310114
 20
25.49946429937977
 30
0.0
 11
55.33511900206743
 21
24.66702380041349
 31
0.0
  0
LINE
  5
9F1
330
1F
100
AcDbEntity
  8
2
  6
CONTINUOUS
370
25
 62
7
100
AcDbLine
 10
55.03300858899104
 20
25.39339828220179
 30
0.0
 11
55.6886723926607
 21
24.73773447853214
 31
0.0
  0
LINE
  5
9F2
330
1F
100
AcDbEntity
  8
2
  6
CONTINUOUS
370
25
 62
7
100
AcDbLine
 10
55.56333867488095
 20
25.28733226502381
 30
0.0
 11
56.04222578325397
 21
24.80844515665079
 31
0.0
  0
LINE
  5
9F3
330
1F
100
AcDbEntity
  8
2
  6
CONTINUOUS
370
25
 62
7
100
AcDbLine
 10
56.09366876077087
 20
25.18126624784583
 30
0.0
 11
56.39577917384725
 21
24.87915583476945
 31
0.0
  0
LINE
  5
9F4
330
1F
100
AcDbEntity
  8
2
  6
CONTINUOUS
370
25
 62
7
100
AcDbLine
 10
56.62399884666078
 20
25.07520023066785
 30
0.0
 11
56.74933256444052
 21
24.9498665128881
 31
0.0
  0
TEXT
  5
9F5
330
1F
100
AcDbEntity
  8
2
  6
CONTINUOUS
370
25
 62
7
100
AcDbText
 10
45.16666666666666
 20
26.5
 30
0.0
 40
3.5
  1
19
 72
     1
 11
47.5
 21
26.5
 31
0.0
100
AcDbText
  0
LINE
  5
9F6
330
1F
100
AcDbEntity
  8
SK2
  6
CONTINUOUS
370
25
 62
7
100
AcDbLine
 10
0.0
 20
1.0
 30
0.0
 11
0.0
 21
36.0
 31
0.0
  0
LINE
  5
9F7
330
1F
100
AcDbEntity
  8
SK2
  6
CONTINUOUS
370
25
 62
7
100
AcDbLine
 10
57.0
 20
36.0
 30
0.0
 11
57.0
 21
3.0
 31
0.0
  0
LINE
  5
9F8
330
1F
100
AcDbEntity
  8
SK2
  6
CONTINUOUS
370
25
 62
7
100
AcDbLine
 10
0.0
 20
35.0
 30
0.0
 11
57.0
 21
35.0
 31
0.0
  0
LINE
  5
9F9
330
1F
100
AcDbEntity
  8
SK2
  6
CONTINUOUS
370
25
 62
7
100
AcDbLine
 10
0.0
 20
35.0
 30
0.0
 11
5.0
 21
36.0
 31
0.0
  0
LINE
  5
9FA
330
1F
100
AcDbEntity
  8
SK2
  6
CONTINUOUS
370
25
 62
7
100
AcDbLine
 10
5.0
 20
36.0
 30
0.0
 11
5.0
 21
34.0
 31
0.0
  0
LINE
  5
9FB
330
1F
100
AcDbEntity
  8
SK2
  6
CONTINUOUS
370
25
 62
7
100
AcDbLine
 10
5.0
 20
34.0
 30
0.0
 11
0.0
 21
35.0
 31
0.0
  0
LINE
  5
9FC
330
1F
100
AcDbEntity
  8
SK2
  6
CONTINUOUS
370
25
 62
7
100
AcDbLine
 10
4.971897619596078
 20
34.00562047608078
 30
0.0
 11
5.0
 21
34.0337228564847
 31
0.0
  0
LINE
  5
9FD
330
1F
100
AcDbEntity
  8
SK2
  6
CONTINUOUS
370
25
 62
7
100
AcDbLine
 10
4.618344229002801
 20
34.07633115419944
 30
0.0
 11
5.0
 21
34.45798692519664
 31
0.0
  0
LINE
  5
9FE
330
1F
100
AcDbEntity
  8
SK2
  6
CONTINUOUS
370
25
 62
7
100
AcDbLine
 10
4.264790838409525
 20
34.1470418323181
 30
0.0
 11
5.0
 21
34.88225099390857
 31
0.0
  0
LINE
  5
9FF
330
1F
100
AcDbEntity
  8
SK2
  6
CONTINUOUS
370
25
 62
7
100
AcDbLine
 10
3.911237447816241
 20
34.21775251043675
 30
0.0
 11
5.0
 21
35.30651506262051
 31
0.0
  0
LINE
  5
A00
330
1F
100
AcDbEntity
  8
SK2
  6
CONTINUOUS
370
25
 62
7
100
AcDbLine
 10
3.557684057222964
 20
34.2884631885554
 30
0.0
 11
5.0
 21
35.73077913133244
 31
0.0
  0
LINE
  5
A01
330
1F
100
AcDbEntity
  8
SK2
  6
CONTINUOUS
370
25
 62
7
100
AcDbLine
 10
3.204130666629695
 20
34.35917386667406
 30
0.0
 11
4.806195999944556
 21
35.96123919998892
 31
0.0
  0
LINE
  5
A02
330
1F
100
AcDbEntity
  8
SK2
  6
CONTINUOUS
370
25
 62
7
100
AcDbLine
 10
2.850577276036418
 20
34.42988454479271
 30
0.0
 11
4.275865914054634
 21
35.85517318281093
 31
0.0
  0
LINE
  5
A03
330
1F
100
AcDbEntity
  8
SK2
  6
CONTINUOUS
370
25
 62
7
100
AcDbLine
 10
2.497023885443141
 20
34.50059522291137
 30
0.0
 11
3.745535828164719
 21
35.74910716563295
 31
0.0
  0
LINE
  5
A04
330
1F
100
AcDbEntity
  8
SK2
  6
CONTINUOUS
370
25
 62
7
100
AcDbLine
 10
2.143470494849872
 20
34.57130590103002
 30
0.0
 11
3.215205742274819
 21
35.64304114845497
 31
0.0
  0
LINE
  5
A05
330
1F
100
AcDbEntity
  8
SK2
  6
CONTINUOUS
370
25
 62
7
100
AcDbLine
 10
1.789917104256595
 20
34.64201657914868
 30
0.0
 11
2.684875656384897
 21
35.53697513127698
 31
0.0
  0
LINE
  5
A06
330
1F
100
AcDbEntity
  8
SK2
  6
CONTINUOUS
370
25
 62
7
100
AcDbLine
 10
1.436363713663312
 20
34.71272725726733
 30
0.0
 11
2.154545570494982
 21
35.430909114099
 31
0.0
  0
LINE
  5
A07
330
1F
100
AcDbEntity
  8
SK2
  6
CONTINUOUS
370
25
 62
7
100
AcDbLine
 10
1.082810323070035
 20
34.78343793538599
 30
0.0
 11
1.62421548460506
 21
35.32484309692101
 31
0.0
  0
LINE
  5
A08
330
1F
100
AcDbEntity
  8
SK2
  6
CONTINUOUS
370
25
 62
7
100
AcDbLine
 10
0.7292569324767584
 20
34.85414861350465
 30
0.0
 11
1.093885398715145
 21
35.21877707974303
 31
0.0
  0
LINE
  5
A09
330
1F
100
AcDbEntity
  8
SK2
  6
CONTINUOUS
370
25
 62
7
100
AcDbLine
 10
0.3757035418834889
 20
34.9248592916233
 30
0.0
 11
0.563555312825244
 21
35.11271106256505
 31
0.0
  0
LINE
  5
A0A
330
1F
100
AcDbEntity
  8
SK2
  6
CONTINUOUS
370
25
 62
7
100
AcDbLine
 10
0.0221501512902123
 20
34.99556996974196
 30
0.0
 11
0.0332252269353219
 21
35.00664504538707
 31
0.0
  0
LINE
  5
A0B
330
1F
100
AcDbEntity
  8
SK2
  6
CONTINUOUS
370
25
 62
7
100
AcDbLine
 10
0.3423921989185672
 20
35.06847843978372
 30
0.0
 11
0.5135882983778615
 21
34.89728234032442
 31
0.0
  0
LINE
  5
A0C
330
1F
100
AcDbEntity
  8
SK2
  6
CONTINUOUS
370
25
 62
7
100
AcDbLine
 10
0.6959455895118367
 20
35.13918911790237
 30
0.0
 11
1.043918384267762
 21
34.79121632314644
 31
0.0
  0
LINE
  5
A0D
330
1F
100
AcDbEntity
  8
SK2
  6
CONTINUOUS
370
25
 62
7
100
AcDbLine
 10
1.04949898010512
 20
35.20989979602103
 30
0.0
 11
1.574248470157684
 21
34.68515030596846
 31
0.0
  0
LINE
  5
A0E
330
1F
100
AcDbEntity
  8
SK2
  6
CONTINUOUS
370
25
 62
7
100
AcDbLine
 10
1.403052370698397
 20
35.28061047413968
 30
0.0
 11
2.104578556047599
 21
34.57908428879048
 31
0.0
  0
LINE
  5
A0F
330
1F
100
AcDbEntity
  8
SK2
  6
CONTINUOUS
370
25
 62
7
100
AcDbLine
 10
1.756605761291667
 20
35.35132115225834
 30
0.0
 11
2.634908641937507
 21
34.4730182716125
 31
0.0
  0
LINE
  5
A10
330
1F
100
AcDbEntity
  8
SK2
  6
CONTINUOUS
370
25
 62
7
100
AcDbLine
 10
2.110159151884943
 20
35.42203183037699
 30
0.0
 11
3.165238727827415
 21
34.36695225443452
 31
0.0
  0
LINE
  5
A11
330
1F
100
AcDbEntity
  8
SK2
  6
CONTINUOUS
370
25
 62
7
100
AcDbLine
 10
2.463712542478227
 20
35.49274250849565
 30
0.0
 11
3.695568813717337
 21
34.26088623725653
 31
0.0
  0
LINE
  5
A12
330
1F
100
AcDbEntity
  8
SK2
  6
CONTINUOUS
370
25
 62
7
100
AcDbLine
 10
2.817265933071496
 20
35.5634531866143
 30
0.0
 11
4.225898899607245
 21
34.15482022007855
 31
0.0
  0
LINE
  5
A13
330
1F
100
AcDbEntity
  8
SK2
  6
CONTINUOUS
370
25
 62
7
100
AcDbLine
 10
3.170819323664773
 20
35.63416386473295
 30
0.0
 11
4.756228985497145
 21
34.04875420290057
 31
0.0
  0
LINE
  5
A14
330
1F
100
AcDbEntity
  8
SK2
  6
CONTINUOUS
370
25
 62
7
100
AcDbLine
 10
3.52437271425805
 20
35.70487454285161
 30
0.0
 11
5.0
 21
34.22924725710965
 31
0.0
  0
LINE
  5
A15
330
1F
100
AcDbEntity
  8
SK2
  6
CONTINUOUS
370
25
 62
7
100
AcDbLine
 10
3.877926104851319
 20
35.77558522097027
 30
0.0
 11
5.0
 21
34.65351132582158
 31
0.0
  0
LINE
  5
A16
330
1F
100
AcDbEntity
  8
SK2
  6
CONTINUOUS
370
25
 62
7
100
AcDbLine
 10
4.231479495444596
 20
35.84629589908892
 30
0.0
 11
5.0
 21
35.07777539453351
 31
0.0
  0
LINE
  5
A17
330
1F
100
AcDbEntity
  8
SK2
  6
CONTINUOUS
370
25
 62
7
100
AcDbLine
 10
4.585032886037872
 20
35.91700657720757
 30
0.0
 11
5.0
 21
35.50203946324544
 31
0.0
  0
LINE
  5
A18
330
1F
100
AcDbEntity
  8
SK2
  6
CONTINUOUS
370
25
 62
7
100
AcDbLine
 10
4.938586276631149
 20
35.98771725532623
 30
0.0
 11
5.0
 21
35.92630353195738
 31
0.0
  0
LINE
  5
A19
330
1F
100
AcDbEntity
  8
SK2
  6
CONTINUOUS
370
25
 62
7
100
AcDbLine
 10
57.0
 20
35.0
 30
0.0
 11
52.0
 21
34.0
 31
0.0
  0
LINE
  5
A1A
330
1F
100
AcDbEntity
  8
SK2
  6
CONTINUOUS
370
25
 62
7
100
AcDbLine
 10
52.0
 20
34.0
 30
0.0
 11
52.0
 21
36.0
 31
0.0
  0
LINE
  5
A1B
330
1F
100
AcDbEntity
  8
SK2
  6
CONTINUOUS
370
25
 62
7
100
AcDbLine
 10
52.0
 20
36.0
 30
0.0
 11
57.0
 21
35.0
 31
0.0
  0
LINE
  5
A1C
330
1F
100
AcDbEntity
  8
SK2
  6
CONTINUOUS
370
25
 62
7
100
AcDbLine
 10
56.84745673618338
 20
34.96949134723668
 30
0.0
 11
56.89830449078892
 21
35.02033910184221
 31
0.0
  0
LINE
  5
A1D
330
1F
100
AcDbEntity
  8
SK2
  6
CONTINUOUS
370
25
 62
7
100
AcDbLine
 10
56.31712665029347
 20
34.86342533005869
 30
0.0
 11
56.54475110019564
 21
35.09104977996087
 31
0.0
  0
LINE
  5
A1E
330
1F
100
AcDbEntity
  8
SK2
  6
CONTINUOUS
370
25
 62
7
100
AcDbLine
 10
55.78679656440356
 20
34.75735931288071
 30
0.0
 11
56.19119770960237
 21
35.16176045807953
 31
0.0
  0
LINE
  5
A1F
330
1F
100
AcDbEntity
  8
SK2
  6
CONTINUOUS
370
25
 62
7
100
AcDbLine
 10
55.25646647851364
 20
34.65129329570273
 30
0.0
 11
55.83764431900909
 21
35.23247113619818
 31
0.0
  0
LINE
  5
A20
330
1F
100
AcDbEntity
  8
SK2
  6
CONTINUOUS
370
25
 62
7
100
AcDbLine
 10
54.72613639262374
 20
34.54522727852475
 30
0.0
 11
55.48409092841582
 21
35.30318181431683
 31
0.0
  0
LINE
  5
A21
330
1F
100
AcDbEntity
  8
SK2
  6
CONTINUOUS
370
25
 62
7
100
AcDbLine
 10
54.19580630673383
 20
34.43916126134676
 30
0.0
 11
55.13053753782255
 21
35.37389249243549
 31
0.0
  0
LINE
  5
A22
330
1F
100
AcDbEntity
  8
SK2
  6
CONTINUOUS
370
25
 62
7
100
AcDbLine
 10
53.66547622084391
 20
34.33309524416878
 30
0.0
 11
54.77698414722927
 21
35.44460317055415
 31
0.0
  0
LINE
  5
A23
330
1F
100
AcDbEntity
  8
SK2
  6
CONTINUOUS
370
25
 62
7
100
AcDbLine
 10
53.13514613495401
 20
34.2270292269908
 30
0.0
 11
54.423430756636
 21
35.5153138486728
 31
0.0
  0
LINE
  5
A24
330
1F
100
AcDbEntity
  8
SK2
  6
CONTINUOUS
370
25
 62
7
100
AcDbLine
 10
52.6048160490641
 20
34.12096320981282
 30
0.0
 11
54.06987736604272
 21
35.58602452679145
 31
0.0
  0
LINE
  5
A25
330
1F
100
AcDbEntity
  8
SK2
  6
CONTINUOUS
370
25
 62
7
100
AcDbLine
 10
52.07448596317419
 20
34.01489719263483
 30
0.0
 11
53.71632397544946
 21
35.65673520491011
 31
0.0
  0
LINE
  5
A26
330
1F
100
AcDbEntity
  8
SK2
  6
CONTINUOUS
370
25
 62
7
100
AcDbLine
 10
52.0
 20
34.36467529817258
 30
0.0
 11
53.36277058485618
 21
35.72744588302876
 31
0.0
  0
LINE
  5
A27
330
1F
100
AcDbEntity
  8
SK2
  6
CONTINUOUS
370
25
 62
7
100
AcDbLine
 10
52.0
 20
34.78893936688451
 30
0.0
 11
53.0092171942629
 21
35.79815656114742
 31
0.0
  0
LINE
  5
A28
330
1F
100
AcDbEntity
  8
SK2
  6
CONTINUOUS
370
25
 62
7
100
AcDbLine
 10
52.0
 20
35.21320343559644
 30
0.0
 11
52.65566380366963
 21
35.86886723926607
 31
0.0
  0
LINE
  5
A29
330
1F
100
AcDbEntity
  8
SK2
  6
CONTINUOUS
370
25
 62
7
100
AcDbLine
 10
52.0
 20
35.63746750430837
 30
0.0
 11
52.30211041307636
 21
35.93957791738472
 31
0.0
  0
LINE
  5
A2A
330
1F
100
AcDbEntity
  8
SK2
  6
CONTINUOUS
370
25
 62
7
100
AcDbLine
 10
52.0
 20
34.36610383315983
 30
0.0
 11
52.30508652763319
 21
34.06101730552663
 31
0.0
  0
LINE
  5
A2B
330
1F
100
AcDbEntity
  8
SK2
  6
CONTINUOUS
370
25
 62
7
100
AcDbLine
 10
52.0
 20
34.79036790187175
 30
0.0
 11
52.65863991822646
 21
34.13172798364529
 31
0.0
  0
LINE
  5
A2C
330
1F
100
AcDbEntity
  8
SK2
  6
CONTINUOUS
370
25
 62
7
100
AcDbLine
 10
52.0
 20
35.21463197058368
 30
0.0
 11
53.01219330881973
 21
34.20243866176395
 31
0.0
  0
LINE
  5
A2D
330
1F
100
AcDbEntity
  8
SK2
  6
CONTINUOUS
370
25
 62
7
100
AcDbLine
 10
52.0
 20
35.63889603929562
 30
0.0
 11
53.36574669941301
 21
34.2731493398826
 31
0.0
  0
LINE
  5
A2E
330
1F
100
AcDbEntity
  8
SK2
  6
CONTINUOUS
370
25
 62
7
100
AcDbLine
 10
52.07895013500944
 20
35.98420997299811
 30
0.0
 11
53.71930009000629
 21
34.34386001800125
 31
0.0
  0
LINE
  5
A2F
330
1F
100
AcDbEntity
  8
SK2
  6
CONTINUOUS
370
25
 62
7
100
AcDbLine
 10
52.60928022089935
 20
35.87814395582013
 30
0.0
 11
54.07285348059956
 21
34.41457069611991
 31
0.0
  0
LINE
  5
A30
330
1F
100
AcDbEntity
  8
SK2
  6
CONTINUOUS
370
25
 62
7
100
AcDbLine
 10
53.13961030678925
 20
35.77207793864215
 30
0.0
 11
54.42640687119283
 21
34.48528137423857
 31
0.0
  0
LINE
  5
A31
330
1F
100
AcDbEntity
  8
SK2
  6
CONTINUOUS
370
25
 62
7
100
AcDbLine
 10
53.66994039267917
 20
35.66601192146417
 30
0.0
 11
54.7799602617861
 21
34.55599205235722
 31
0.0
  0
LINE
  5
A32
330
1F
100
AcDbEntity
  8
SK2
  6
CONTINUOUS
370
25
 62
7
100
AcDbLine
 10
54.20027047856907
 20
35.55994590428618
 30
0.0
 11
55.13351365237938
 21
34.62670273047587
 31
0.0
  0
LINE
  5
A33
330
1F
100
AcDbEntity
  8
SK2
  6
CONTINUOUS
370
25
 62
7
100
AcDbLine
 10
54.73060056445899
 20
35.4538798871082
 30
0.0
 11
55.48706704297265
 21
34.69741340859453
 31
0.0
  0
LINE
  5
A34
330
1F
100
AcDbEntity
  8
SK2
  6
CONTINUOUS
370
25
 62
7
100
AcDbLine
 10
55.2609306503489
 20
35.34781386993022
 30
0.0
 11
55.84062043356593
 21
34.76812408671319
 31
0.0
  0
LINE
  5
A35
330
1F
100
AcDbEntity
  8
SK2
  6
CONTINUOUS
370
25
 62
7
100
AcDbLine
 10
55.79126073623881
 20
35.24174785275223
 30
0.0
 11
56.19417382415921
 21
34.83883476483184
 31
0.0
  0
LINE
  5
A36
330
1F
100
AcDbEntity
  8
SK2
  6
CONTINUOUS
370
25
 62
7
100
AcDbLine
 10
56.32159082212872
 20
35.13568183557426
 30
0.0
 11
56.54772721475248
 21
34.90954544295049
 31
0.0
  0
LINE
  5
A37
330
1F
100
AcDbEntity
  8
SK2
  6
CONTINUOUS
370
25
 62
7
100
AcDbLine
 10
56.85192090801863
 20
35.02961581839627
 30
0.0
 11
56.90128060534575
 21
34.98025612106915
 31
0.0
  0
TEXT
  5
A38
330
1F
100
AcDbEntity
  8
SK2
  6
CONTINUOUS
370
25
 62
7
100
AcDbText
 10
25.58333333333333
 20
36.5
 30
0.0
 40
3.5
  1
57
 72
     1
 11
28.5
 21
36.5
 31
0.0
100
AcDbText
  0
LINE
  5
A39
330
1F
100
AcDbEntity
  8
2
  6
CONTINUOUS
370
25
 62
7
100
AcDbLine
 10
56.5
 20
-3.0
 30
0.0
 11
56.5
 21
-26.0
 31
0.0
  0
LINE
  5
A3A
330
1F
100
AcDbEntity
  8
2
  6
CONTINUOUS
370
25
 62
7
100
AcDbLine
 10
57.0
 20
-26.0
 30
0.0
 11
57.0
 21
-3.0
 31
0.0
  0
LINE
  5
A3B
330
1F
100
AcDbEntity
  8
2
  6
CONTINUOUS
370
25
 62
7
100
AcDbLine
 10
49.5
 20
-25.0
 30
0.0
 11
84.825
 21
-25.0
 31
0.0
  0
LINE
  5
A3C
330
1F
100
AcDbEntity
  8
2
  6
CONTINUOUS
370
25
 62
7
100
AcDbLine
 10
56.5
 20
-25.0
 30
0.0
 11
51.5
 21
-26.0
 31
0.0
  0
LINE
  5
A3D
330
1F
100
AcDbEntity
  8
2
  6
CONTINUOUS
370
25
 62
7
100
AcDbLine
 10
51.5
 20
-26.0
 30
0.0
 11
51.5
 21
-24.0
 31
0.0
  0
LINE
  5
A3E
330
1F
100
AcDbEntity
  8
2
  6
CONTINUOUS
370
25
 62
7
100
AcDbLine
 10
51.5
 20
-24.0
 30
0.0
 11
56.5
 21
-25.0
 31
0.0
  0
LINE
  5
A3F
330
1F
100
AcDbEntity
  8
2
  6
CONTINUOUS
370
25
 62
7
100
AcDbLine
 10
56.2300535420807
 20
-25.05398929158386
 30
0.0
 11
56.32003569472046
 21
-24.96400713894409
 31
0.0
  0
LINE
  5
A40
330
1F
100
AcDbEntity
  8
2
  6
CONTINUOUS
370
25
 62
7
100
AcDbLine
 10
55.6997234561908
 20
-25.16005530876184
 30
0.0
 11
55.9664823041272
 21
-24.89329646082544
 31
0.0
  0
LINE
  5
A41
330
1F
100
AcDbEntity
  8
2
  6
CONTINUOUS
370
25
 62
7
100
AcDbLine
 10
55.16939337030088
 20
-25.26612132593982
 30
0.0
 11
55.61292891353392
 21
-24.82258578270678
 31
0.0
  0
LINE
  5
A42
330
1F
100
AcDbEntity
  8
2
  6
CONTINUOUS
370
25
 62
7
100
AcDbLine
 10
54.63906328441098
 20
-25.3721873431178
 30
0.0
 11
55.25937552294065
 21
-24.75187510458813
 31
0.0
  0
LINE
  5
A43
330
1F
100
AcDbEntity
  8
2
  6
CONTINUOUS
370
25
 62
7
100
AcDbLine
 10
54.10873319852106
 20
-25.47825336029579
 30
0.0
 11
54.90582213234737
 21
-24.68116442646948
 31
0.0
  0
LINE
  5
A44
330
1F
100
AcDbEntity
  8
2
  6
CONTINUOUS
370
25
 62
7
100
AcDbLine
 10
53.57840311263116
 20
-25.58431937747377
 30
0.0
 11
54.55226874175411
 21
-24.61045374835082
 31
0.0
  0
LINE
  5
A45
330
1F
100
AcDbEntity
  8
2
  6
CONTINUOUS
370
25
 62
7
100
AcDbLine
 10
53.04807302674124
 20
-25.69038539465175
 30
0.0
 11
54.19871535116083
 21
-24.53974307023217
 31
0.0
  0
LINE
  5
A46
330
1F
100
AcDbEntity
  8
2
  6
CONTINUOUS
370
25
 62
7
100
AcDbLine
 10
52.51774294085133
 20
-25.79645141182973
 30
0.0
 11
53.84516196056756
 21
-24.46903239211351
 31
0.0
  0
LINE
  5
A47
330
1F
100
AcDbEntity
  8
2
  6
CONTINUOUS
370
25
 62
7
100
AcDbLine
 10
51.98741285496142
 20
-25.90251742900772
 30
0.0
 11
53.49160856997428
 21
-24.39832171399485
 31
0.0
  0
LINE
  5
A48
330
1F
100
AcDbEntity
  8
2
  6
CONTINUOUS
370
25
 62
7
100
AcDbLine
 10
51.5
 20
-25.96566621525722
 30
0.0
 11
53.13805517938101
 21
-24.3276110358762
 31
0.0
  0
LINE
  5
A49
330
1F
100
AcDbEntity
  8
2
  6
CONTINUOUS
370
25
 62
7
100
AcDbLine
 10
51.5
 20
-25.54140214654528
 30
0.0
 11
52.78450178878774
 21
-24.25690035775754
 31
0.0
  0
LINE
  5
A4A
330
1F
100
AcDbEntity
  8
2
  6
CONTINUOUS
370
25
 62
7
100
AcDbLine
 10
51.5
 20
-25.11713807783336
 30
0.0
 11
52.43094839819447
 21
-24.18618967963889
 31
0.0
  0
LINE
  5
A4B
330
1F
100
AcDbEntity
  8
2
  6
CONTINUOUS
370
25
 62
7
100
AcDbLine
 10
51.5
 20
-24.69287400912143
 30
0.0
 11
52.07739500760119
 21
-24.11547900152024
 31
0.0
  0
LINE
  5
A4C
330
1F
100
AcDbEntity
  8
2
  6
CONTINUOUS
370
25
 62
7
100
AcDbLine
 10
51.5
 20
-24.2686099404095
 30
0.0
 11
51.72384161700792
 21
-24.04476832340158
 31
0.0
  0
LINE
  5
A4D
330
1F
100
AcDbEntity
  8
2
  6
CONTINUOUS
370
25
 62
7
100
AcDbLine
 10
51.5
 20
-25.87664019319503
 30
0.0
 11
51.60279983900415
 21
-25.97944003219917
 31
0.0
  0
LINE
  5
A4E
330
1F
100
AcDbEntity
  8
2
  6
CONTINUOUS
370
25
 62
7
100
AcDbLine
 10
51.5
 20
-25.4523761244831
 30
0.0
 11
51.95635322959742
 21
-25.90872935408052
 31
0.0
  0
LINE
  5
A4F
330
1F
100
AcDbEntity
  8
2
  6
CONTINUOUS
370
25
 62
7
100
AcDbLine
 10
51.5
 20
-25.02811205577117
 30
0.0
 11
52.30990662019069
 21
-25.83801867596186
 31
0.0
  0
LINE
  5
A50
330
1F
100
AcDbEntity
  8
2
  6
CONTINUOUS
370
25
 62
7
100
AcDbLine
 10
51.5
 20
-24.60384798705925
 30
0.0
 11
52.66346001078396
 21
-25.76730799784321
 31
0.0
  0
LINE
  5
A51
330
1F
100
AcDbEntity
  8
2
  6
CONTINUOUS
370
25
 62
7
100
AcDbLine
 10
51.5
 20
-24.17958391834732
 30
0.0
 11
53.01701340137724
 21
-25.69659731972455
 31
0.0
  0
LINE
  5
A52
330
1F
100
AcDbEntity
  8
2
  6
CONTINUOUS
370
25
 62
7
100
AcDbLine
 10
51.80585018795576
 20
-24.06117003759115
 30
0.0
 11
53.37056679197051
 21
-25.6258866416059
 31
0.0
  0
LINE
  5
A53
330
1F
100
AcDbEntity
  8
2
  6
CONTINUOUS
370
25
 62
7
100
AcDbLine
 10
52.33618027384567
 20
-24.16723605476913
 30
0.0
 11
53.72412018256378
 21
-25.55517596348724
 31
0.0
  0
LINE
  5
A54
330
1F
100
AcDbEntity
  8
2
  6
CONTINUOUS
370
25
 62
7
100
AcDbLine
 10
52.86651035973559
 20
-24.27330207194711
 30
0.0
 11
54.07767357315706
 21
-25.48446528536859
 31
0.0
  0
LINE
  5
A55
330
1F
100
AcDbEntity
  8
2
  6
CONTINUOUS
370
25
 62
7
100
AcDbLine
 10
53.39684044562549
 20
-24.3793680891251
 30
0.0
 11
54.43122696375033
 21
-25.41375460724993
 31
0.0
  0
LINE
  5
A56
330
1F
100
AcDbEntity
  8
2
  6
CONTINUOUS
370
25
 62
7
100
AcDbLine
 10
53.9271705315154
 20
-24.48543410630308
 30
0.0
 11
54.7847803543436
 21
-25.34304392913128
 31
0.0
  0
LINE
  5
A57
330
1F
100
AcDbEntity
  8
2
  6
CONTINUOUS
370
25
 62
7
100
AcDbLine
 10
54.45750061740532
 20
-24.59150012348106
 30
0.0
 11
55.13833374493687
 21
-25.27233325101263
 31
0.0
  0
LINE
  5
A58
330
1F
100
AcDbEntity
  8
2
  6
CONTINUOUS
370
25
 62
7
100
AcDbLine
 10
54.98783070329522
 20
-24.69756614065905
 30
0.0
 11
55.49188713553015
 21
-25.20162257289397
 31
0.0
  0
LINE
  5
A59
330
1F
100
AcDbEntity
  8
2
  6
CONTINUOUS
370
25
 62
7
100
AcDbLine
 10
55.51816078918513
 20
-24.80363215783702
 30
0.0
 11
55.84544052612343
 21
-25.13091189477532
 31
0.0
  0
LINE
  5
A5A
330
1F
100
AcDbEntity
  8
2
  6
CONTINUOUS
370
25
 62
7
100
AcDbLine
 10
56.04849087507505
 20
-24.90969817501501
 30
0.0
 11
56.1989939167167
 21
-25.06020121665666
 31
0.0
  0
LINE
  5
A5B
330
1F
100
AcDbEntity
  8
2
  6
CONTINUOUS
370
25
 62
7
100
AcDbLine
 10
57.0
 20
-25.0
 30
0.0
 11
62.0
 21
-24.0
 31
0.0
  0
LINE
  5
A5C
330
1F
100
AcDbEntity
  8
2
  6
CONTINUOUS
370
25
 62
7
100
AcDbLine
 10
62.0
 20
-24.0
 30
0.0
 11
62.0
 21
-26.0
 31
0.0
  0
LINE
  5
A5D
330
1F
100
AcDbEntity
  8
2
  6
CONTINUOUS
370
25
 62
7
100
AcDbLine
 10
62.0
 20
-26.0
 30
0.0
 11
57.0
 21
-25.0
 31
0.0
  0
LINE
  5
A5E
330
1F
100
AcDbEntity
  8
2
  6
CONTINUOUS
370
25
 62
7
100
AcDbLine
 10
61.68094839819445
 20
-25.93618967963889
 30
0.0
 11
62.0
 21
-25.61713807783334
 31
0.0
  0
LINE
  5
A5F
330
1F
100
AcDbEntity
  8
2
  6
CONTINUOUS
370
25
 62
7
100
AcDbLine
 10
61.32739500760117
 20
-25.86547900152024
 30
0.0
 11
62.0
 21
-25.19287400912141
 31
0.0
  0
LINE
  5
A60
330
1F
100
AcDbEntity
  8
2
  6
CONTINUOUS
370
25
 62
7
100
AcDbLine
 10
60.9738416170079
 20
-25.79476832340158
 30
0.0
 11
62.0
 21
-24.76860994040948
 31
0.0
  0
LINE
  5
A61
330
1F
100
AcDbEntity
  8
2
  6
CONTINUOUS
370
25
 62
7
100
AcDbLine
 10
60.62028822641463
 20
-25.72405764528293
 30
0.0
 11
62.0
 21
-24.34434587169755
 31
0.0
  0
LINE
  5
A62
330
1F
100
AcDbEntity
  8
2
  6
CONTINUOUS
370
25
 62
7
100
AcDbLine
 10
60.26673483582135
 20
-25.65334696716427
 30
0.0
 11
61.90010225373203
 21
-24.01997954925359
 31
0.0
  0
LINE
  5
A63
330
1F
100
AcDbEntity
  8
2
  6
CONTINUOUS
370
25
 62
7
100
AcDbLine
 10
59.91318144522808
 20
-25.58263628904562
 30
0.0
 11
61.36977216784212
 21
-24.12604556643157
 31
0.0
  0
LINE
  5
A64
330
1F
100
AcDbEntity
  8
2
  6
CONTINUOUS
370
25
 62
7
100
AcDbLine
 10
59.55962805463481
 20
-25.51192561092696
 30
0.0
 11
60.83944208195221
 21
-24.23211158360956
 31
0.0
  0
LINE
  5
A65
330
1F
100
AcDbEntity
  8
2
  6
CONTINUOUS
370
25
 62
7
100
AcDbLine
 10
59.20607466404154
 20
-25.44121493280831
 30
0.0
 11
60.3091119960623
 21
-24.33817760078754
 31
0.0
  0
LINE
  5
A66
330
1F
100
AcDbEntity
  8
2
  6
CONTINUOUS
370
25
 62
7
100
AcDbLine
 10
58.85252127344826
 20
-25.37050425468965
 30
0.0
 11
59.77878191017239
 21
-24.44424361796552
 31
0.0
  0
LINE
  5
A67
330
1F
100
AcDbEntity
  8
2
  6
CONTINUOUS
370
25
 62
7
100
AcDbLine
 10
58.49896788285498
 20
-25.29979357657099
 30
0.0
 11
59.24845182428248
 21
-24.5503096351435
 31
0.0
  0
LINE
  5
A68
330
1F
100
AcDbEntity
  8
2
  6
CONTINUOUS
370
25
 62
7
100
AcDbLine
 10
58.14541449226171
 20
-25.22908289845234
 30
0.0
 11
58.71812173839257
 21
-24.65637565232149
 31
0.0
  0
LINE
  5
A69
330
1F
100
AcDbEntity
  8
2
  6
CONTINUOUS
370
25
 62
7
100
AcDbLine
 10
57.79186110166844
 20
-25.15837222033369
 30
0.0
 11
58.18779165250266
 21
-24.76244166949947
 31
0.0
  0
LINE
  5
A6A
330
1F
100
AcDbEntity
  8
2
  6
CONTINUOUS
370
25
 62
7
100
AcDbLine
 10
57.43830771107517
 20
-25.08766154221503
 30
0.0
 11
57.65746156661275
 21
-24.86850768667745
 31
0.0
  0
LINE
  5
A6B
330
1F
100
AcDbEntity
  8
2
  6
CONTINUOUS
370
25
 62
7
100
AcDbLine
 10
57.08475432048189
 20
-25.01695086409638
 30
0.0
 11
57.12713148072284
 21
-24.97457370385543
 31
0.0
  0
LINE
  5
A6C
330
1F
100
AcDbEntity
  8
2
  6
CONTINUOUS
370
25
 62
7
100
AcDbLine
 10
57.31726593307135
 20
-24.93654681338573
 30
0.0
 11
57.47589889960702
 21
-25.09517977992141
 31
0.0
  0
LINE
  5
A6D
330
1F
100
AcDbEntity
  8
2
  6
CONTINUOUS
370
25
 62
7
100
AcDbLine
 10
57.67081932366462
 20
-24.86583613526708
 30
0.0
 11
58.00622898549693
 21
-25.20124579709939
 31
0.0
  0
LINE
  5
A6E
330
1F
100
AcDbEntity
  8
2
  6
CONTINUOUS
370
25
 62
7
100
AcDbLine
 10
58.02437271425789
 20
-24.79512545714842
 30
0.0
 11
58.53655907138684
 21
-25.30731181427737
 31
0.0
  0
LINE
  5
A6F
330
1F
100
AcDbEntity
  8
2
  6
CONTINUOUS
370
25
 62
7
100
AcDbLine
 10
58.37792610485117
 20
-24.72441477902977
 30
0.0
 11
59.06688915727675
 21
-25.41337783145535
 31
0.0
  0
LINE
  5
A70
330
1F
100
AcDbEntity
  8
2
  6
CONTINUOUS
370
25
 62
7
100
AcDbLine
 10
58.73147949544444
 20
-24.65370410091111
 30
0.0
 11
59.59721924316666
 21
-25.51944384863333
 31
0.0
  0
LINE
  5
A71
330
1F
100
AcDbEntity
  8
2
  6
CONTINUOUS
370
25
 62
7
100
AcDbLine
 10
59.08503288603771
 20
-24.58299342279246
 30
0.0
 11
60.12754932905657
 21
-25.62550986581131
 31
0.0
  0
LINE
  5
A72
330
1F
100
AcDbEntity
  8
2
  6
CONTINUOUS
370
25
 62
7
100
AcDbLine
 10
59.43858627663099
 20
-24.5122827446738
 30
0.0
 11
60.65787941494648
 21
-25.7315758829893
 31
0.0
  0
LINE
  5
A73
330
1F
100
AcDbEntity
  8
2
  6
CONTINUOUS
370
25
 62
7
100
AcDbLine
 10
59.79213966722426
 20
-24.44157206655515
 30
0.0
 11
61.18820950083639
 21
-25.83764190016728
 31
0.0
  0
LINE
  5
A74
330
1F
100
AcDbEntity
  8
2
  6
CONTINUOUS
370
25
 62
7
100
AcDbLine
 10
60.14569305781753
 20
-24.37086138843649
 30
0.0
 11
61.7185395867263
 21
-25.94370791734526
 31
0.0
  0
LINE
  5
A75
330
1F
100
AcDbEntity
  8
2
  6
CONTINUOUS
370
25
 62
7
100
AcDbLine
 10
60.4992464484108
 20
-24.30015071031784
 30
0.0
 11
62.0
 21
-25.80090426190703
 31
0.0
  0
LINE
  5
A76
330
1F
100
AcDbEntity
  8
2
  6
CONTINUOUS
370
25
 62
7
100
AcDbLine
 10
60.85279983900408
 20
-24.22944003219918
 30
0.0
 11
62.0
 21
-25.3766401931951
 31
0.0
  0
LINE
  5
A77
330
1F
100
AcDbEntity
  8
2
  6
CONTINUOUS
370
25
 62
7
100
AcDbLine
 10
61.20635322959735
 20
-24.15872935408053
 30
0.0
 11
62.0
 21
-24.95237612448318
 31
0.0
  0
LINE
  5
A78
330
1F
100
AcDbEntity
  8
2
  6
CONTINUOUS
370
25
 62
7
100
AcDbLine
 10
61.55990662019062
 20
-24.08801867596187
 30
0.0
 11
62.0
 21
-24.52811205577125
 31
0.0
  0
LINE
  5
A79
330
1F
100
AcDbEntity
  8
2
  6
CONTINUOUS
370
25
 62
7
100
AcDbLine
 10
61.91346001078389
 20
-24.01730799784322
 30
0.0
 11
62.0
 21
-24.10384798705932
 31
0.0
  0
TEXT
  5
A7A
330
1F
100
AcDbEntity
  8
2
  6
CONTINUOUS
370
25
 62
7
100
AcDbText
 10
63.78749999999999
 20
-23.5
 30
0.0
 40
3.5
  1
0.5x45°
 72
     1
 11
73.4125
 21
-23.5
 31
0.0
100
AcDbText
  0
LINE
  5
A7B
330
1F
100
AcDbEntity
  8
SK1
  6
CONTINUOUS
370
50
 62
4
100
AcDbLine
 10
38.0
 20
0.0
 30
0.0
 11
39.75
 21
0.0
 31
0.0
  0
LINE
  5
A7C
330
1F
100
AcDbEntity
  8
SK1
  6
CONTINUOUS
370
50
 62
4
100
AcDbLine
 10
38.0
 20
0.0
 30
0.0
 11
38.0
 21
1.75
 31
0.0
  0
ARC
  5
A7D
330
1F
100
AcDbEntity
  8
SK1
  6
CONTINUOUS
370
50
 62
4
100
AcDbCircle
 10
38.0
 20
0.0
 30
0.0
 40
1.75
100
AcDbArc
 50
0.0
 51
90.0
  0
LINE
  5
A7E
330
1F
100
AcDbEntity
  8
SK1
  6
CONTINUOUS
370
50
 62
4
100
AcDbLine
 10
38.0
 20
0.0
 30
0.0
 11
36.25
 21
0.0
 31
0.0
  0
ARC
  5
A7F
330
1F
100
AcDbEntity
  8
SK1
  6
CONTINUOUS
370
50
 62
4
100
AcDbCircle
 10
38.0
 20
0.0
 30
0.0
 40
1.75
100
AcDbArc
 50
180.0
 51
270.0
  0
LINE
  5
A80
330
1F
100
AcDbEntity
  8
SK1
  6
CONTINUOUS
370
50
 62
4
100
AcDbLine
 10
38.0
 20
-1.75
 30
0.0
 11
38.0
 21
0.0
 31
0.0
  0
ARC
  5
A81
330
1F
100
AcDbEntity
  8
SK1
  6
CONTINUOUS
370
50
 62
4
100
AcDbCircle
 10
38.0
 20
0.0
 30
0.0
 40
1.75
100
AcDbArc
 50
270.0
 51
0.0
  0
ARC
  5
A82
330
1F
100
AcDbEntity
  8
SK1
  6
CONTINUOUS
370
50
 62
4
100
AcDbCircle
 10
38.0
 20
0.0
 30
0.0
 40
1.75
100
AcDbArc
 50
90.0
 51
180.0
  0
LINE
  5
A83
330
1F
100
AcDbEntity
  8
SK1
  6
CONTINUOUS
370
50
 62
4
100
AcDbLine
 10
37.77717274741573
 20
-1.73564731720198
 30
0.0
 11
38.0
 21
-1.512820064617713
 31
0.0
  0
LINE
  5
A84
330
1F
100
AcDbEntity
  8
SK1
  6
CONTINUOUS
370
50
 62
4
100
AcDbLine
 10
39.51282006461771
 20
0.0
 30
0.0
 11
39.73564731720198
 21
0.2228272525842674
 31
0.0
  0
LINE
  5
A85
330
1F
100
AcDbEntity
  8
SK1
  6
CONTINUOUS
370
50
 62
4
100
AcDbLine
 10
37.56930380681873
 20
-1.69602888438369
 30
0.0
 11
38.0
 21
-1.265332691202421
 31
0.0
  0
LINE
  5
A86
330
1F
100
AcDbEntity
  8
SK1
  6
CONTINUOUS
370
50
 62
4
100
AcDbLine
 10
39.26533269120242
 20
0.0
 30
0.0
 11
39.69602888438369
 21
0.4306961931812696
 31
0.0
  0
LINE
  5
A87
330
1F
100
AcDbEntity
  8
SK1
  6
CONTINUOUS
370
50
 62
4
100
AcDbLine
 10
37.38148340435765
 20
-1.636361913429485
 30
0.0
 11
38.0
 21
-1.01784531778713
 31
0.0
  0
LINE
  5
A88
330
1F
100
AcDbEntity
  8
SK1
  6
CONTINUOUS
370
50
 62
4
100
AcDbLine
 10
39.01784531778713
 20
0.0
 30
0.0
 11
39.63636191342948
 21
0.6185165956423557
 31
0.0
  0
LINE
  5
A89
330
1F
100
AcDbEntity
  8
SK1
  6
CONTINUOUS
370
50
 62
4
100
AcDbLine
 10
37.2098551094628
 20
-1.560502834909039
 30
0.0
 11
38.0
 21
-0.7703579443718382
 31
0.0
  0
LINE
  5
A8A
330
1F
100
AcDbEntity
  8
SK1
  6
CONTINUOUS
370
50
 62
4
100
AcDbLine
 10
38.77035794437184
 20
0.0
 30
0.0
 11
39.56050283490904
 21
0.7901448905372013
 31
0.0
  0
LINE
  5
A8B
330
1F
100
AcDbEntity
  8
SK1
  6
CONTINUOUS
370
50
 62
4
100
AcDbLine
 10
37.05217783219447
 20
-1.470692738762079
 30
0.0
 11
38.0
 21
-0.5228705709565462
 31
0.0
  0
LINE
  5
A8C
330
1F
100
AcDbEntity
  8
SK1
  6
CONTINUOUS
370
50
 62
4
100
AcDbLine
 10
38.52287057095655
 20
0.0
 30
0.0
 11
39.47069273876208
 21
0.947822167805533
 31
0.0
  0
LINE
  5
A8D
330
1F
100
AcDbEntity
  8
SK1
  6
CONTINUOUS
370
50
 62
4
100
AcDbLine
 10
36.90842956711548
 20
-1.366953630425777
 30
0.0
 11
38.0
 21
-0.2753831975412551
 31
0.0
  0
LINE
  5
A8E
330
1F
100
AcDbEntity
  8
SK1
  6
CONTINUOUS
370
50
 62
4
100
AcDbLine
 10
38.27538319754125
 20
0.0
 30
0.0
 11
39.36695363042578
 21
1.091570432884522
 31
0.0
  0
LINE
  5
A8F
330
1F
100
AcDbEntity
  8
SK1
  6
CONTINUOUS
370
50
 62
4
100
AcDbLine
 10
36.77712164538165
 20
-1.25077417874432
 30
0.0
 11
38.0
 21
-0.0278958241259639
 31
0.0
  0
LINE
  5
A90
330
1F
100
AcDbEntity
  8
SK1
  6
CONTINUOUS
370
50
 62
4
100
AcDbLine
 10
38.02789582412596
 20
0.0
 30
0.0
 11
39.25077417874432
 21
1.222878354618356
 31
0.0
  0
LINE
  5
A91
330
1F
100
AcDbEntity
  8
SK1
  6
CONTINUOUS
370
50
 62
4
100
AcDbLine
 10
36.65784030371346
 20
-1.122568146997212
 30
0.0
 11
37.78040845071067
 21
0.0
 31
0.0
  0
LINE
  5
A92
330
1F
100
AcDbEntity
  8
SK1
  6
CONTINUOUS
370
50
 62
4
100
AcDbLine
 10
38.0
 20
0.2195915492893277
 30
0.0
 11
39.12256814699721
 21
1.34215969628654
 31
0.0
  0
LINE
  5
A93
330
1F
100
AcDbEntity
  8
SK1
  6
CONTINUOUS
370
50
 62
4
100
AcDbLine
 10
36.55188167231256
 20
-0.9810394049828186
 30
0.0
 11
37.53292107729538
 21
0.0
 31
0.0
  0
LINE
  5
A94
330
1F
100
AcDbEntity
  8
SK1
  6
CONTINUOUS
370
50
 62
4
100
AcDbLine
 10
38.0
 20
0.4670789227046193
 30
0.0
 11
38.98103940498282
 21
1.448118327687438
 31
0.0
  0
LINE
  5
A95
330
1F
100
AcDbEntity
  8
SK1
  6
CONTINUOUS
370
50
 62
4
100
AcDbLine
 10
36.45832908651575
 20
-0.8271046173643402
 30
0.0
 11
37.28543370388009
 21
0.0
 31
0.0
  0
LINE
  5
A96
330
1F
100
AcDbEntity
  8
SK1
  6
CONTINUOUS
370
50
 62
4
100
AcDbLine
 10
38.0
 20
0.71456629611991
 30
0.0
 11
38.82710461736434
 21
1.54167091348425
 31
0.0
  0
LINE
  5
A97
330
1F
100
AcDbEntity
  8
SK1
  6
CONTINUOUS
370
50
 62
4
100
AcDbLine
 10
36.37918473824205
 20
-0.6587615922227528
 30
0.0
 11
37.0379463304648
 21
0.0
 31
0.0
  0
LINE
  5
A98
330
1F
100
AcDbEntity
  8
SK1
  6
CONTINUOUS
370
50
 62
4
100
AcDbLine
 10
38.0
 20
0.9620536695352015
 30
0.0
 11
38.65876159222275
 21
1.620815261757954
 31
0.0
  0
LINE
  5
A99
330
1F
100
AcDbEntity
  8
SK1
  6
CONTINUOUS
370
50
 62
4
100
AcDbLine
 10
36.31629687706963
 20
-0.474162079979876
 30
0.0
 11
36.79045895704951
 21
0.0
 31
0.0
  0
LINE
  5
A9A
330
1F
100
AcDbEntity
  8
SK1
  6
CONTINUOUS
370
50
 62
4
100
AcDbLine
 10
38.0
 20
1.209541042950494
 30
0.0
 11
38.47416207997988
 21
1.683703122930369
 31
0.0
  0
LINE
  5
A9B
330
1F
100
AcDbEntity
  8
SK1
  6
CONTINUOUS
370
50
 62
4
100
AcDbLine
 10
36.27198100434271
 20
-0.2709905792915031
 30
0.0
 11
36.54297158363422
 21
0.0
 31
0.0
  0
LINE
  5
A9C
330
1F
100
AcDbEntity
  8
SK1
  6
CONTINUOUS
370
50
 62
4
100
AcDbLine
 10
38.0
 20
1.457028416365784
 30
0.0
 11
38.2709905792915
 21
1.728018995657286
 31
0.0
  0
LINE
  5
A9D
330
1F
100
AcDbEntity
  8
SK1
  6
CONTINUOUS
370
50
 62
4
100
AcDbLine
 10
36.2513858468978
 20
-0.0440983633211194
 30
0.0
 11
36.29548421021892
 21
0.0
 31
0.0
  0
LINE
  5
A9E
330
1F
100
AcDbEntity
  8
SK1
  6
CONTINUOUS
370
50
 62
4
100
AcDbLine
 10
38.0
 20
1.704515789781075
 30
0.0
 11
38.04409836332112
 21
1.748614153102194
 31
0.0
  0
LINE
  5
A9F
330
1F
100
AcDbEntity
  8
SK1
  6
CONTINUOUS
370
50
 62
4
100
AcDbLine
 10
36.36386517603682
 20
-0.6191473609004006
 30
0.0
 11
37.3808526390996
 21
-1.636134823963186
 31
0.0
  0
LINE
  5
AA0
330
1F
100
AcDbEntity
  8
SK1
  6
CONTINUOUS
370
50
 62
4
100
AcDbLine
 10
36.27363430643545
 20
-0.2814291178837463
 30
0.0
 11
37.71857088211625
 21
-1.726365693564548
 31
0.0
  0
LINE
  5
AA1
330
1F
100
AcDbEntity
  8
SK1
  6
CONTINUOUS
370
50
 62
4
100
AcDbLine
 10
36.2503344343115
 20
-0.0106418723445003
 30
0.0
 11
37.9893581276555
 21
-1.749665565688503
 31
0.0
  0
LINE
  5
AA2
330
1F
100
AcDbEntity
  8
SK1
  6
CONTINUOUS
370
50
 62
4
100
AcDbLine
 10
36.48717993538229
 20
0.0
 30
0.0
 11
38.0
 21
-1.51282006461771
 31
0.0
  0
LINE
  5
AA3
330
1F
100
AcDbEntity
  8
SK1
  6
CONTINUOUS
370
50
 62
4
100
AcDbLine
 10
36.73466730879758
 20
0.0
 30
0.0
 11
38.0
 21
-1.265332691202418
 31
0.0
  0
LINE
  5
AA4
330
1F
100
AcDbEntity
  8
SK1
  6
CONTINUOUS
370
50
 62
4
100
AcDbLine
 10
36.98215468221287
 20
0.0
 30
0.0
 11
38.0
 21
-1.017845317787128
 31
0.0
  0
LINE
  5
AA5
330
1F
100
AcDbEntity
  8
SK1
  6
CONTINUOUS
370
50
 62
4
100
AcDbLine
 10
37.22964205562816
 20
0.0
 30
0.0
 11
38.0
 21
-0.7703579443718369
 31
0.0
  0
LINE
  5
AA6
330
1F
100
AcDbEntity
  8
SK1
  6
CONTINUOUS
370
50
 62
4
100
AcDbLine
 10
37.47712942904345
 20
0.0
 30
0.0
 11
38.0
 21
-0.5228705709565453
 31
0.0
  0
LINE
  5
AA7
330
1F
100
AcDbEntity
  8
SK1
  6
CONTINUOUS
370
50
 62
4
100
AcDbLine
 10
37.72461680245875
 20
0.0
 30
0.0
 11
38.0
 21
-0.2753831975412537
 31
0.0
  0
LINE
  5
AA8
330
1F
100
AcDbEntity
  8
SK1
  6
CONTINUOUS
370
50
 62
4
100
AcDbLine
 10
37.97210417587404
 20
0.0
 30
0.0
 11
38.0
 21
-0.027895824125963
 31
0.0
  0
LINE
  5
AA9
330
1F
100
AcDbEntity
  8
SK1
  6
CONTINUOUS
370
50
 62
4
100
AcDbLine
 10
38.0
 20
0.219591549289329
 30
0.0
 11
38.21959154928933
 21
0.0
 31
0.0
  0
LINE
  5
AAA
330
1F
100
AcDbEntity
  8
SK1
  6
CONTINUOUS
370
50
 62
4
100
AcDbLine
 10
38.0
 20
0.4670789227046202
 30
0.0
 11
38.46707892270462
 21
0.0
 31
0.0
  0
LINE
  5
AAB
330
1F
100
AcDbEntity
  8
SK1
  6
CONTINUOUS
370
50
 62
4
100
AcDbLine
 10
38.0
 20
0.7145662961199113
 30
0.0
 11
38.71456629611991
 21
0.0
 31
0.0
  0
LINE
  5
AAC
330
1F
100
AcDbEntity
  8
SK1
  6
CONTINUOUS
370
50
 62
4
100
AcDbLine
 10
38.0
 20
0.9620536695352029
 30
0.0
 11
38.9620536695352
 21
0.0
 31
0.0
  0
LINE
  5
AAD
330
1F
100
AcDbEntity
  8
SK1
  6
CONTINUOUS
370
50
 62
4
100
AcDbLine
 10
38.0
 20
1.209541042950494
 30
0.0
 11
39.2095410429505
 21
0.0
 31
0.0
  0
LINE
  5
AAE
330
1F
100
AcDbEntity
  8
SK1
  6
CONTINUOUS
370
50
 62
4
100
AcDbLine
 10
38.0
 20
1.457028416365785
 30
0.0
 11
39.45702841636579
 21
0.0
 31
0.0
  0
LINE
  5
AAF
330
1F
100
AcDbEntity
  8
SK1
  6
CONTINUOUS
370
50
 62
4
100
AcDbLine
 10
38.0
 20
1.704515789781076
 30
0.0
 11
39.70451578978108
 21
0.0
 31
0.0
  0
LINE
  5
AB0
330
1F
100
AcDbEntity
  8
SK1
  6
CONTINUOUS
370
50
 62
4
100
AcDbLine
 10
38.21543384193567
 20
1.736569321260697
 30
0.0
 11
39.7365693212607
 21
0.2154338419356714
 31
0.0
  0
LINE
  5
AB1
330
1F
100
AcDbEntity
  8
SK1
  6
CONTINUOUS
370
50
 62
4
100
AcDbLine
 10
38.53283284728993
 20
1.666657689321729
 30
0.0
 11
39.66665768932173
 21
0.5328328472899322
 31
0.0
  0
LINE
  5
AB2
330
1F
100
AcDbEntity
  8
SK1
  6
CONTINUOUS
370
50
 62
4
100
AcDbLine
 10
39.04009874905675
 20
1.406879160970207
 30
0.0
 11
39.40687916097021
 21
1.040098749056747
 31
0.0
  0
LINE
  5
AB3
330
1F
100
AcDbEntity
  8
4
  6
LONGDASH_DASH
370
25
 62
2
100
AcDbLine
 10
38.0
 20
0.0
 30
0.0
 11
57.0
 21
0.0
 31
0.0
  0
LINE
  5
AB4
330
1F
100
AcDbEntity
  8
SK4
  6
LONGDASH_DASH
370
25
 62
2
100
AcDbLine
 10
-6.0
 20
0.0
 30
0.0
 11
63.0
 21
0.0
 31
0.0
  0
ARC
  5
AB5
330
1F
100
AcDbEntity
  8
SK6
  6
CONTINUOUS
370
25
 62
5
100
AcDbCircle
 10
82.1613820083765
 20
-27.84524575338786
 30
0.0
 40
2.76048912849221
100
AcDbArc
 50
338.9379403434233
 51
90.44457437511365
  0
LINE
  5
AB6
330
1F
100
AcDbEntity
  8
SK6
  6
CONTINUOUS
370
25
 62
5
100
AcDbLine
 10
82.13996279695984
 20
-25.08483972421281
 30
0.0
 11
82.13996279695984
 21
-26.18789835613464
 31
0.0
  0
ARC
  5
AB7
330
1F
100
AcDbEntity
  8
SK6
  6
CONTINUOUS
370
25
 62
5
100
AcDbCircle
 10
82.15050902936916
 20
-27.86523924566821
 30
0.0
 40
1.677374043771779
100
AcDbArc
 50
243.4214706017868
 51
90.36024081226083
  0
ARC
  5
AB8
330
1F
100
AcDbEntity
  8
SK6
  6
CONTINUOUS
370
25
 62
5
100
AcDbCircle
 10
84.67275989684958
 20
-27.43383199215561
 30
0.0
 40
3.80021703002276
100
AcDbArc
 50
210.5483731288539
 51
236.97801693668
  0
LINE
  5
AB9
330
1F
100
AcDbEntity
  8
SK6
  6
CONTINUOUS
370
25
 62
5
100
AcDbLine
 10
82.60179068512487
 20
-30.62016781867535
 30
0.0
 11
86.74373096742671
 21
-30.62016781867535
 31
0.0
  0
ARC
  5
ABA
330
1F
100
AcDbEntity
  8
SK6
  6
CONTINUOUS
370
25
 62
5
100
AcDbCircle
 10
84.67276183877257
 20
-27.4338320937346
 30
0.0
 40
3.800216899582472
100
AcDbArc
 50
303.0219828477959
 51
326.3732153033476
  0
LINE
  5
ABB
330
1F
100
AcDbEntity
  8
SK6
  6
CONTINUOUS
370
25
 62
5
100
AcDbLine
 10
87.83705975135723
 20
-29.5383194907709
 30
0.0
 11
84.47976170575463
 21
-29.5383194907709
 31
0.0
  0
LINE
  5
ABC
330
1F
100
AcDbEntity
  8
SK6
  6
CONTINUOUS
370
25
 62
5
100
AcDbLine
 10
84.47976170575463
 20
-29.5383194907709
 30
0.0
 11
88.39962109771987
 21
-28.17691829641694
 31
0.0
  0
ARC
  5
ABD
330
1F
100
AcDbEntity
  8
SK6
  6
CONTINUOUS
370
25
 62
5
100
AcDbCircle
 10
84.67276256157211
 20
-27.4338326048594
 30
0.0
 40
3.800217216614723
100
AcDbArc
 50
348.7238644184696
 51
53.4691051260885
  0
LINE
  5
ABE
330
1F
100
AcDbEntity
  8
SK6
  6
CONTINUOUS
370
25
 62
5
100
AcDbLine
 10
86.93486524538545
 20
-24.38022124429967
 30
0.0
 11
84.73745047882737
 21
-28.83730973507058
 31
0.0
  0
ENDSEC
  0
SECTION
  2
OBJECTS
  0
DICTIONARY
  5
C
330
0
100
AcDbDictionary
281
     1
  3
ACAD_GROUP
350
D
  3
ACAD_LAYOUT
350
1A
  3
ACAD_MATERIAL
350
3B
  3
ACAD_MLEADERSTYLE
350
AC1
  3
ACAD_MLINESTYLE
350
17
  3
ACAD_PLOTSETTINGS
350
19
  3
ACAD_PLOTSTYLENAME
350
E
  3
ACAD_SCALELIST
350
398
  3
ACAD_VISUALSTYLE
350
2A
  3
AcDbVariableDictionary
350
ABF
  0
DICTIONARY
  5
D
102
{ACAD_REACTORS
330
C
102
}
330
C
100
AcDbDictionary
281
     1
  0
DICTIONARY
  5
1A
102
{ACAD_REACTORS
330
C
102
}
330
C
100
AcDbDictionary
281
     1
  3
Layout1
350
1E
  3
Layout2
350
26
  3
Model
350
22
  0
DICTIONARY
  5
3B
102
{ACAD_REACTORS
330
C
102
}
330
C
100
AcDbDictionary
281
     1
  3
ByBlock
350
3D
  3
ByLayer
350
3C
  3
Global
350
3E
  0
DICTIONARY
  5
AC1
102
{ACAD_REACTORS
330
C
102
}
330
C
100
AcDbDictionary
281
     1
  0
DICTIONARY
  5
17
102
{ACAD_REACTORS
330
C
102
}
330
C
100
AcDbDictionary
281
     1
  3
Standard
350
18
  0
DICTIONARY
  5
19
102
{ACAD_REACTORS
330
C
102
}
330
C
100
AcDbDictionary
281
     1
  0
ACDBDICTIONARYWDFLT
  5
E
102
{ACAD_REACTORS
330
C
102
}
330
C
100
AcDbDictionary
281
     1
  3
Normal
350
F
100
AcDbDictionaryWithDefault
340
F
  0
DICTIONARY
  5
398
102
{ACAD_REACTORS
330
C
102
}
330
C
100
AcDbDictionary
281
     1
  3
A0
350
399
  3
A1
350
39A
  3
A2
350
39B
  3
A3
350
39C
  3
A4
350
39D
  3
A5
350
39E
  3
A6
350
39F
  3
A7
350
3A0
  3
A8
350
3A1
  3
A9
350
3A2
  3
B0
350
3A3
  3
B1
350
3A4
  3
B2
350
3A5
  3
B3
350
3A6
  3
B4
350
3A7
  3
B5
350
3A8
  3
B6
350
3A9
  3
B7
350
3AA
  3
B8
350
3AB
  3
B9
350
3AC
  3
C0
350
3AD
  3
C1
350
3AE
  3
C2
350
3AF
  3
C3
350
3B0
  3
C4
350
3B1
  3
C5
350
3B2
  3
C6
350
3B3
  3
C7
350
3B4
  3
C8
350
3B5
  3
C9
350
3B6
  3
D0
350
3B7
  3
D1
350
3B8
  3
D2
350
3B9
  0
DICTIONARY
  5
2A
102
{ACAD_REACTORS
330
C
102
}
330
C
100
AcDbDictionary
281
     1
  3
2dWireframe
350
2F
  3
3D Hidden
350
31
  3
3dWireframe
350
30
  3
Basic
350
32
  3
Brighten
350
36
  3
ColorChange
350
3A
  3
Conceptual
350
34
  3
Dim
350
35
  3
Facepattern
350
39
  3
Flat
350
2B
  3
FlatWithEdges
350
2C
  3
Gouraud
350
2D
  3
GouraudWithEdges
350
2E
  3
Linepattern
350
38
  3
Realistic
350
33
  3
Thicken
350
37
  0
DICTIONARY
  5
ABF
102
{ACAD_REACTORS
330
C
102
}
330
C
100
AcDbDictionary
281
     1
  3
CANNOSCALE
350
AC4
  3
DIMASSOC
350
AC5
  3
HIDETEXT
350
AC6
  3
PSOLHEIGHT
350
AC3
  3
PSOLWIDTH
350
AC2
  0
LAYOUT
  5
1E
102
{ACAD_REACTORS
330
1A
102
}
330
1A
100
AcDbPlotSettings
  1

  2
none_device
  4

  6

 40
0.0
 41
0.0
 42
0.0
 43
0.0
 44
0.0
 45
0.0
 46
0.0
 47
0.0
 48
0.0
 49
0.0
140
0.0
141
0.0
142
1.0
143
1.0
 70
   688
 72
     0
 73
     0
 74
     5
  7

 75
    16
147
1.0
148
0.0
149
0.0
100
AcDbLayout
  1
Layout1
 70
     1
 71
     1
 10
0.0
 20
0.0
 11
420.0
 21
297.0
 12
0.0
 22
0.0
 32
0.0
 14
1.000000000000000E+20
 24
1.000000000000000E+20
 34
1.000000000000000E+20
 15
-1.000000000000000E+20
 25
-1.000000000000000E+20
 35
-1.000000000000000E+20
146
0.0
 13
0.0
 23
0.0
 33
0.0
 16
1.0
 26
0.0
 36
0.0
 17
0.0
 27
1.0
 37
0.0
 76
     0
330
1B
  0
LAYOUT
  5
26
102
{ACAD_REACTORS
330
1A
102
}
330
1A
100
AcDbPlotSettings
  1

  2
none_device
  4

  6

 40
0.0
 41
0.0
 42
0.0
 43
0.0
 44
0.0
 45
0.0
 46
0.0
 47
0.0
 48
0.0
 49
0.0
140
0.0
141
0.0
142
1.0
143
1.0
 70
   688
 72
     0
 73
     0
 74
     5
  7

 75
    16
147
1.0
148
0.0
149
0.0
100
AcDbLayout
  1
Layout2
 70
     1
 71
     2
 10
0.0
 20
0.0
 11
0.0
 21
0.0
 12
0.0
 22
0.0
 32
0.0
 14
0.0
 24
0.0
 34
0.0
 15
0.0
 25
0.0
 35
0.0
146
0.0
 13
0.0
 23
0.0
 33
0.0
 16
1.0
 26
0.0
 36
0.0
 17
0.0
 27
1.0
 37
0.0
 76
     0
330
23
  0
LAYOUT
  5
22
102
{ACAD_REACTORS
330
1A
102
}
330
1A
100
AcDbPlotSettings
  1

  2
none_device
  4

  6

 40
0.0
 41
0.0
 42
0.0
 43
0.0
 44
0.0
 45
0.0
 46
0.0
 47
0.0
 48
0.0
 49
0.0
140
0.0
141
0.0
142
1.0
143
1.0
 70
  1712
 72
     0
 73
     0
 74
     0
  7

 75
     0
147
1.0
148
0.0
149
0.0
100
AcDbLayout
  1
Model
 70
     1
 71
     0
 10
0.0
 20
0.0
 11
420.0
 21
297.0
 12
0.0
 22
0.0
 32
0.0
 14
0.0
 24
0.0
 34
0.0
 15
25.0
 25
35.0
 35
0.0
146
0.0
 13
0.0
 23
0.0
 33
0.0
 16
1.0
 26
0.0
 36
0.0
 17
0.0
 27
1.0
 37
0.0
 76
     0
330
1F
331
29
  0
MATERIAL
  5
3D
102
{ACAD_REACTORS
330
3B
102
}
102
{ACAD_XDICTIONARY
360
AE9
102
}
330
3B
100
AcDbMaterial
  1
ByBlock
  0
MATERIAL
  5
3C
102
{ACAD_REACTORS
330
3B
102
}
102
{ACAD_XDICTIONARY
360
AE7
102
}
330
3B
100
AcDbMaterial
  1
ByLayer
  0
MATERIAL
  5
3E
102
{ACAD_REACTORS
330
3B
102
}
102
{ACAD_XDICTIONARY
360
AEB
102
}
330
3B
100
AcDbMaterial
  1
Global
  0
MLINESTYLE
  5
18
102
{ACAD_REACTORS
330
17
102
}
330
17
100
AcDbMlineStyle
  2
Standard
 70
     0
  3

 62
   256
 51
90.0
 52
90.0
 71
     2
 49
0.5
 62
   256
  6
BYLAYER
 49
-0.5
 62
   256
  6
BYLAYER
  0
ACDBPLACEHOLDER
  5
F
102
{ACAD_REACTORS
330
E
102
}
330
E
  0
SCALE
  5
399
102
{ACAD_REACTORS
330
398
102
}
330
398
100
AcDbScale
 70
     0
300
1:1
140
1.0
141
1.0
290
     1
  0
SCALE
  5
39A
102
{ACAD_REACTORS
330
398
102
}
330
398
100
AcDbScale
 70
     0
300
1:2
140
1.0
141
2.0
290
     0
  0
SCALE
  5
39B
102
{ACAD_REACTORS
330
398
102
}
330
398
100
AcDbScale
 70
     0
300
1:4
140
1.0
141
4.0
290
     0
  0
SCALE
  5
39C
102
{ACAD_REACTORS
330
398
102
}
330
398
100
AcDbScale
 70
     0
300
1:5
140
1.0
141
5.0
290
     0
  0
SCALE
  5
39D
102
{ACAD_REACTORS
330
398
102
}
330
398
100
AcDbScale
 70
     0
300
1:8
140
1.0
141
8.0
290
     0
  0
SCALE
  5
39E
102
{ACAD_REACTORS
330
398
102
}
330
398
100
AcDbScale
 70
     0
300
1:10
140
1.0
141
10.0
290
     0
  0
SCALE
  5
39F
102
{ACAD_REACTORS
330
398
102
}
330
398
100
AcDbScale
 70
     0
300
1:16
140
1.0
141
16.0
290
     0
  0
SCALE
  5
3A0
102
{ACAD_REACTORS
330
398
102
}
330
398
100
AcDbScale
 70
     0
300
1:20
140
1.0
141
20.0
290
     0
  0
SCALE
  5
3A1
102
{ACAD_REACTORS
330
398
102
}
330
398
100
AcDbScale
 70
     0
300
1:30
140
1.0
141
30.0
290
     0
  0
SCALE
  5
3A2
102
{ACAD_REACTORS
330
398
102
}
330
398
100
AcDbScale
 70
     0
300
1:40
140
1.0
141
40.0
290
     0
  0
SCALE
  5
3A3
102
{ACAD_REACTORS
330
398
102
}
330
398
100
AcDbScale
 70
     0
300
1:50
140
1.0
141
50.0
290
     0
  0
SCALE
  5
3A4
102
{ACAD_REACTORS
330
398
102
}
330
398
100
AcDbScale
 70
     0
300
1:100
140
1.0
141
100.0
290
     0
  0
SCALE
  5
3A5
102
{ACAD_REACTORS
330
398
102
}
330
398
100
AcDbScale
 70
     0
300
2:1
140
2.0
141
1.0
290
     0
  0
SCALE
  5
3A6
102
{ACAD_REACTORS
330
398
102
}
330
398
100
AcDbScale
 70
     0
300
4:1
140
4.0
141
1.0
290
     0
  0
SCALE
  5
3A7
102
{ACAD_REACTORS
330
398
102
}
330
398
100
AcDbScale
 70
     0
300
8:1
140
8.0
141
1.0
290
     0
  0
SCALE
  5
3A8
102
{ACAD_REACTORS
330
398
102
}
330
398
100
AcDbScale
 70
     0
300
10:1
140
10.0
141
1.0
290
     0
  0
SCALE
  5
3A9
102
{ACAD_REACTORS
330
398
102
}
330
398
100
AcDbScale
 70
     0
300
100:1
140
100.0
141
1.0
290
     0
  0
SCALE
  5
3AA
102
{ACAD_REACTORS
330
398
102
}
330
398
100
AcDbScale
 70
     0
300
1/128" = 1'-0"
140
0.0078125
141
12.0
290
     0
  0
SCALE
  5
3AB
102
{ACAD_REACTORS
330
398
102
}
330
398
100
AcDbScale
 70
     0
300
1/64" = 1'-0"
140
0.015625
141
12.0
290
     0
  0
SCALE
  5
3AC
102
{ACAD_REACTORS
330
398
102
}
330
398
100
AcDbScale
 70
     0
300
1/32" = 1'-0"
140
0.03125
141
12.0
290
     0
  0
SCALE
  5
3AD
102
{ACAD_REACTORS
330
398
102
}
330
398
100
AcDbScale
 70
     0
300
1/16" = 1'-0"
140
0.0625
141
12.0
290
     0
  0
SCALE
  5
3AE
102
{ACAD_REACTORS
330
398
102
}
330
398
100
AcDbScale
 70
     0
300
3/32" = 1'-0"
140
0.09375
141
12.0
290
     0
  0
SCALE
  5
3AF
102
{ACAD_REACTORS
330
398
102
}
330
398
100
AcDbScale
 70
     0
300
1/8" = 1'-0"
140
0.125
141
12.0
290
     0
  0
SCALE
  5
3B0
102
{ACAD_REACTORS
330
398
102
}
330
398
100
AcDbScale
 70
     0
300
3/16" = 1'-0"
140
0.1875
141
12.0
290
     0
  0
SCALE
  5
3B1
102
{ACAD_REACTORS
330
398
102
}
330
398
100
AcDbScale
 70
     0
300
1/4" = 1'-0"
140
0.25
141
12.0
290
     0
  0
SCALE
  5
3B2
102
{ACAD_REACTORS
330
398
102
}
330
398
100
AcDbScale
 70
     0
300
3/8" = 1'-0"
140
0.375
141
12.0
290
     0
  0
SCALE
  5
3B3
102
{ACAD_REACTORS
330
398
102
}
330
398
100
AcDbScale
 70
     0
300
1/2" = 1'-0"
140
0.5
141
12.0
290
     0
  0
SCALE
  5
3B4
102
{ACAD_REACTORS
330
398
102
}
330
398
100
AcDbScale
 70
     0
300
3/4" = 1'-0"
140
0.75
141
12.0
290
     0
  0
SCALE
  5
3B5
102
{ACAD_REACTORS
330
398
102
}
330
398
100
AcDbScale
 70
     0
300
1" = 1'-0"
140
1.0
141
12.0
290
     0
  0
SCALE
  5
3B6
102
{ACAD_REACTORS
330
398
102
}
330
398
100
AcDbScale
 70
     0
300
1-1/2" = 1'-0"
140
1.5
141
12.0
290
     0
  0
SCALE
  5
3B7
102
{ACAD_REACTORS
330
398
102
}
330
398
100
AcDbScale
 70
     0
300
3" = 1'-0"
140
3.0
141
12.0
290
     0
  0
SCALE
  5
3B8
102
{ACAD_REACTORS
330
398
102
}
330
398
100
AcDbScale
 70
     0
300
6" = 1'-0"
140
6.0
141
12.0
290
     0
  0
SCALE
  5
3B9
102
{ACAD_REACTORS
330
398
102
}
330
398
100
AcDbScale
 70
     0
300
1'-0" = 1'-0"
140
12.0
141
12.0
290
     0
  0
VISUALSTYLE
  5
2F
102
{ACAD_REACTORS
330
2A
102
}
102
{ACAD_XDICTIONARY
360
ACF
102
}
330
2A
100
AcDbVisualStyle
  2
2dWireframe
 70
     4
 71
     0
 72
     2
 73
     0
 90
        0
 40
-0.6
 41
-30.0
 62
     5
 63
     7
 74
     1
 91
        4
 64
     7
 65
   257
 75
     1
175
     1
 42
1.0
 92
        0
 66
   257
 43
1.0
 76
     1
 77
     6
 78
     2
 67
     7
 79
     5
170
     0
171
     0
290
     0
174
     0
 93
        1
 44
0.0
173
     0
291
     0
 45
0.0
1001
ACAD
1000
AcDbSavedByObjectVersion
1070
     0
  0
VISUALSTYLE
  5
31
102
{ACAD_REACTORS
330
2A
102
}
102
{ACAD_XDICTIONARY
360
AD3
102
}
330
2A
100
AcDbVisualStyle
  2
3D Hidden
 70
     6
 71
     1
 72
     2
 73
     2
 90
        0
 40
-0.6
 41
-30.0
 62
     5
 63
     7
 74
     2
 91
        2
 64
     7
 65
   257
 75
     2
175
     1
 42
40.0
 92
        0
 66
   257
 43
1.0
 76
     1
 77
     6
 78
     2
 67
     7
 79
     3
170
     0
171
     0
290
     0
174
     0
 93
        1
 44
0.0
173
     0
291
     0
 45
0.0
1001
ACAD
1000
AcDbSavedByObjectVersion
1070
     0
  0
VISUALSTYLE
  5
30
102
{ACAD_REACTORS
330
2A
102
}
102
{ACAD_XDICTIONARY
360
AD1
102
}
330
2A
100
AcDbVisualStyle
  2
3dWireframe
 70
     5
 71
     0
 72
     2
 73
     0
 90
        0
 40
-0.6
 41
-30.0
 62
     5
 63
     7
 74
     1
 91
        4
 64
     7
 65
   257
 75
     1
175
     1
 42
1.0
 92
        0
 66
   257
 43
1.0
 76
     1
 77
     6
 78
     2
 67
     7
 79
     5
170
     0
171
     0
290
     0
174
     0
 93
        1
 44
0.0
173
     0
291
     0
 45
0.0
1001
ACAD
1000
AcDbSavedByObjectVersion
1070
     0
  0
VISUALSTYLE
  5
32
102
{ACAD_REACTORS
330
2A
102
}
102
{ACAD_XDICTIONARY
360
AD5
102
}
330
2A
100
AcDbVisualStyle
  2
Basic
 70
     7
 71
     1
 72
     0
 73
     1
 90
        0
 40
-0.6
 41
-30.0
 62
     5
 63
     7
 74
     0
 91
        4
 64
     7
 65
   257
 75
     1
175
     1
 42
1.0
 92
        8
 66
     7
 43
1.0
 76
     1
 77
     6
 78
     2
 67
     7
 79
     5
170
     0
171
     0
290
     0
174
     0
 93
        1
 44
0.0
173
     0
291
     1
 45
0.0
1001
ACAD
1000
AcDbSavedByObjectVersion
1070
     0
  0
VISUALSTYLE
  5
36
102
{ACAD_REACTORS
330
2A
102
}
102
{ACAD_XDICTIONARY
360
ADD
102
}
330
2A
100
AcDbVisualStyle
  2
Brighten
 70
    12
 71
     2
 72
     2
 73
     0
 90
        0
 40
-0.6
 41
-30.0
 62
     5
 63
     7
 74
     1
 91
        4
 64
     7
 65
   257
 75
     1
175
     1
 42
1.0
 92
        8
 66
     7
 43
1.0
 76
     1
 77
     6
 78
     2
 67
     7
 79
     5
170
     0
171
     0
290
     0
174
     0
 93
        1
 44
50.0
173
     0
291
     1
 45
0.0
1001
ACAD
1000
AcDbSavedByObjectVersion
1070
     0
  0
VISUALSTYLE
  5
3A
102
{ACAD_REACTORS
330
2A
102
}
102
{ACAD_XDICTIONARY
360
AE5
102
}
330
2A
100
AcDbVisualStyle
  2
ColorChange
 70
    16
 71
     2
 72
     2
 73
     3
 90
        0
 40
-0.6
 41
-30.0
 62
     5
 63
     8
 74
     1
 91
        4
 64
     7
 65
   257
 75
     1
175
     1
 42
1.0
 92
        8
 66
     8
 43
1.0
 76
     1
 77
     6
 78
     2
 67
     7
 79
     5
170
     0
171
     0
290
     0
174
     0
 93
        1
 44
0.0
173
     0
291
     1
 45
0.0
1001
ACAD
1000
AcDbSavedByObjectVersion
1070
     0
  0
VISUALSTYLE
  5
34
102
{ACAD_REACTORS
330
2A
102
}
102
{ACAD_XDICTIONARY
360
AD9
102
}
330
2A
100
AcDbVisualStyle
  2
Conceptual
 70
     9
 71
     3
 72
     2
 73
     0
 90
        0
 40
-0.6
 41
-30.0
 62
     5
 63
     7
 74
     2
 91
        2
 64
     7
 65
   257
 75
     1
175
     1
 42
40.0
 92
        8
 66
     7
 43
1.0
 76
     1
 77
     6
 78
     2
 67
     7
 79
     3
170
     0
171
     0
290
     0
174
     0
 93
        1
 44
0.0
173
     0
291
     0
 45
0.0
1001
ACAD
1000
AcDbSavedByObjectVersion
1070
     0
  0
VISUALSTYLE
  5
35
102
{ACAD_REACTORS
330
2A
102
}
102
{ACAD_XDICTIONARY
360
ADB
102
}
330
2A
100
AcDbVisualStyle
  2
Dim
 70
    11
 71
     2
 72
     2
 73
     0
 90
        0
 40
-0.6
 41
-30.0
 62
     5
 63
     7
 74
     1
 91
        4
 64
     7
 65
   257
 75
     1
175
     1
 42
1.0
 92
        8
 66
     7
 43
1.0
 76
     1
 77
     6
 78
     2
 67
     7
 79
     5
170
     0
171
     0
290
     0
174
     0
 93
        1
 44
-50.0
173
     0
291
     1
 45
0.0
1001
ACAD
1000
AcDbSavedByObjectVersion
1070
     0
  0
VISUALSTYLE
  5
39
102
{ACAD_REACTORS
330
2A
102
}
102
{ACAD_XDICTIONARY
360
AE3
102
}
330
2A
100
AcDbVisualStyle
  2
Facepattern
 70
    15
 71
     2
 72
     2
 73
     0
 90
        0
 40
-0.6
 41
-30.0
 62
     5
 63
     7
 74
     1
 91
        4
 64
     7
 65
   257
 75
     1
175
     1
 42
1.0
 92
        8
 66
     7
 43
1.0
 76
     1
 77
     6
 78
     2
 67
     7
 79
     5
170
     0
171
     0
290
     0
174
     0
 93
        1
 44
0.0
173
     0
291
     1
 45
0.0
1001
ACAD
1000
AcDbSavedByObjectVersion
1070
     0
  0
VISUALSTYLE
  5
2B
102
{ACAD_REACTORS
330
2A
102
}
102
{ACAD_XDICTIONARY
360
AC7
102
}
330
2A
100
AcDbVisualStyle
  2
Flat
 70
     0
 71
     2
 72
     1
 73
     1
 90
        2
 40
-0.6
 41
30.0
 62
     5
 63
     7
 74
     0
 91
        4
 64
     7
 65
   257
 75
     1
175
     1
 42
1.0
 92
        8
 66
     7
 43
1.0
 76
     1
 77
     6
 78
     2
 67
     7
 79
     5
170
     0
171
     0
290
     0
174
     0
 93
       13
 44
0.0
173
     0
291
     1
 45
0.0
1001
ACAD
1000
AcDbSavedByObjectVersion
1070
     0
  0
VISUALSTYLE
  5
2C
102
{ACAD_REACTORS
330
2A
102
}
102
{ACAD_XDICTIONARY
360
AC9
102
}
330
2A
100
AcDbVisualStyle
  2
FlatWithEdges
 70
     1
 71
     2
 72
     1
 73
     1
 90
        2
 40
-0.6
 41
30.0
 62
     5
 63
     7
 74
     1
 91
        4
 64
     7
 65
   257
 75
     1
175
     1
 42
1.0
 92
        0
 66
   257
 43
1.0
 76
     1
 77
     6
 78
     2
 67
     7
 79
     5
170
     0
171
     0
290
     0
174
     0
 93
       13
 44
0.0
173
     0
291
     1
 45
0.0
1001
ACAD
1000
AcDbSavedByObjectVersion
1070
     0
  0
VISUALSTYLE
  5
2D
102
{ACAD_REACTORS
330
2A
102
}
102
{ACAD_XDICTIONARY
360
ACB
102
}
330
2A
100
AcDbVisualStyle
  2
Gouraud
 70
     2
 71
     2
 72
     2
 73
     1
 90
        2
 40
-0.6
 41
30.0
 62
     5
 63
     7
 74
     0
 91
        4
 64
     7
 65
   257
 75
     1
175
     1
 42
1.0
 92
        0
 66
     7
 43
1.0
 76
     1
 77
     6
 78
     2
 67
     7
 79
     5
170
     0
171
     0
290
     0
174
     0
 93
       13
 44
0.0
173
     0
291
     1
 45
0.0
1001
ACAD
1000
AcDbSavedByObjectVersion
1070
     0
  0
VISUALSTYLE
  5
2E
102
{ACAD_REACTORS
330
2A
102
}
102
{ACAD_XDICTIONARY
360
ACD
102
}
330
2A
100
AcDbVisualStyle
  2
GouraudWithEdges
 70
     3
 71
     2
 72
     2
 73
     1
 90
        2
 40
-0.6
 41
30.0
 62
     5
 63
     7
 74
     1
 91
        4
 64
     7
 65
   257
 75
     1
175
     1
 42
1.0
 92
        0
 66
   257
 43
1.0
 76
     1
 77
     6
 78
     2
 67
     7
 79
     5
170
     0
171
     0
290
     0
174
     0
 93
       13
 44
0.0
173
     0
291
     1
 45
0.0
1001
ACAD
1000
AcDbSavedByObjectVersion
1070
     0
  0
VISUALSTYLE
  5
38
102
{ACAD_REACTORS
330
2A
102
}
102
{ACAD_XDICTIONARY
360
AE1
102
}
330
2A
100
AcDbVisualStyle
  2
Linepattern
 70
    14
 71
     2
 72
     2
 73
     0
 90
        0
 40
-0.6
 41
-30.0
 62
     5
 63
     7
 74
     1
 91
        4
 64
     7
 65
   257
 75
     7
175
     7
 42
1.0
 92
        8
 66
     7
 43
1.0
 76
     1
 77
     6
 78
     2
 67
     7
 79
     5
170
     0
171
     0
290
     0
174
     0
 93
        1
 44
0.0
173
     0
291
     1
 45
0.0
1001
ACAD
1000
AcDbSavedByObjectVersion
1070
     0
  0
VISUALSTYLE
  5
33
102
{ACAD_REACTORS
330
2A
102
}
102
{ACAD_XDICTIONARY
360
AD7
102
}
330
2A
100
AcDbVisualStyle
  2
Realistic
 70
     8
 71
     2
 72
     2
 73
     0
 90
        0
 40
-0.6
 41
-30.0
 62
     5
 63
     7
 74
     1
 91
        0
 64
     7
 65
   257
 75
     1
175
     1
 42
1.0
 92
        8
 66
     8
 43
1.0
 76
     1
 77
     6
 78
     2
 67
     7
 79
     5
170
     0
171
     0
290
     0
174
     0
 93
       13
 44
0.0
173
     0
291
     0
 45
0.0
1001
ACAD
1000
AcDbSavedByObjectVersion
1070
     0
  0
VISUALSTYLE
  5
37
102
{ACAD_REACTORS
330
2A
102
}
102
{ACAD_XDICTIONARY
360
ADF
102
}
330
2A
100
AcDbVisualStyle
  2
Thicken
 70
    13
 71
     2
 72
     2
 73
     0
 90
        0
 40
-0.6
 41
-30.0
 62
     5
 63
     7
 74
     1
 91
        4
 64
     7
 65
   257
 75
     1
175
     1
 42
1.0
 92
       12
 66
     7
 43
1.0
 76
     1
 77
     6
 78
     2
 67
     7
 79
     5
170
     0
171
     0
290
     0
174
     0
 93
        1
 44
0.0
173
     0
291
     1
 45
0.0
1001
ACAD
1000
AcDbSavedByObjectVersion
1070
     0
  0
DICTIONARYVAR
  5
AC4
102
{ACAD_REACTORS
330
ABF
102
}
330
ABF
100
DictionaryVariables
280
     0
  1
1:1
  0
DICTIONARYVAR
  5
AC5
102
{ACAD_REACTORS
330
ABF
102
}
330
ABF
100
DictionaryVariables
280
     0
  1
2
  0
DICTIONARYVAR
  5
AC6
102
{ACAD_REACTORS
330
ABF
102
}
330
ABF
100
DictionaryVariables
280
     0
  1
1
  0
DICTIONARYVAR
  5
AC3
102
{ACAD_REACTORS
330
ABF
102
}
330
ABF
100
DictionaryVariables
280
     0
  1
80.000000
  0
DICTIONARYVAR
  5
AC2
102
{ACAD_REACTORS
330
ABF
102
}
330
ABF
100
DictionaryVariables
280
     0
  1
5.000000
  0
DICTIONARY
  5
AE9
330
3D
100
AcDbDictionary
280
     1
281
     1
  3
ACAD_XREC_ROUNDTRIP
360
AEA
  0
DICTIONARY
  5
AE7
330
3C
100
AcDbDictionary
280
     1
281
     1
  3
ACAD_XREC_ROUNDTRIP
360
AE8
  0
DICTIONARY
  5
AEB
330
3E
100
AcDbDictionary
280
     1
281
     1
  3
ACAD_XREC_ROUNDTRIP
360
AEC
  0
DICTIONARY
  5
ACF
330
2F
100
AcDbDictionary
280
     1
281
     1
  3
ACAD_XREC_ROUNDTRIP
360
AD0
  0
DICTIONARY
  5
AD3
330
31
100
AcDbDictionary
280
     1
281
     1
  3
ACAD_XREC_ROUNDTRIP
360
AD4
  0
DICTIONARY
  5
AD1
330
30
100
AcDbDictionary
280
     1
281
     1
  3
ACAD_XREC_ROUNDTRIP
360
AD2
  0
DICTIONARY
  5
AD5
330
32
100
AcDbDictionary
280
     1
281
     1
  3
ACAD_XREC_ROUNDTRIP
360
AD6
  0
DICTIONARY
  5
ADD
330
36
100
AcDbDictionary
280
     1
281
     1
  3
ACAD_XREC_ROUNDTRIP
360
ADE
  0
DICTIONARY
  5
AE5
330
3A
100
AcDbDictionary
280
     1
281
     1
  3
ACAD_XREC_ROUNDTRIP
360
AE6
  0
DICTIONARY
  5
AD9
330
34
100
AcDbDictionary
280
     1
281
     1
  3
ACAD_XREC_ROUNDTRIP
360
ADA
  0
DICTIONARY
  5
ADB
330
35
100
AcDbDictionary
280
     1
281
     1
  3
ACAD_XREC_ROUNDTRIP
360
ADC
  0
DICTIONARY
  5
AE3
330
39
100
AcDbDictionary
280
     1
281
     1
  3
ACAD_XREC_ROUNDTRIP
360
AE4
  0
DICTIONARY
  5
AC7
330
2B
100
AcDbDictionary
280
     1
281
     1
  3
ACAD_XREC_ROUNDTRIP
360
AC8
  0
DICTIONARY
  5
AC9
330
2C
100
AcDbDictionary
280
     1
281
     1
  3
ACAD_XREC_ROUNDTRIP
360
ACA
  0
DICTIONARY
  5
ACB
330
2D
100
AcDbDictionary
280
     1
281
     1
  3
ACAD_XREC_ROUNDTRIP
360
ACC
  0
DICTIONARY
  5
ACD
330
2E
100
AcDbDictionary
280
     1
281
     1
  3
ACAD_XREC_ROUNDTRIP
360
ACE
  0
DICTIONARY
  5
AE1
330
38
100
AcDbDictionary
280
     1
281
     1
  3
ACAD_XREC_ROUNDTRIP
360
AE2
  0
DICTIONARY
  5
AD7
330
33
100
AcDbDictionary
280
     1
281
     1
  3
ACAD_XREC_ROUNDTRIP
360
AD8
  0
DICTIONARY
  5
ADF
330
37
100
AcDbDictionary
280
     1
281
     1
  3
ACAD_XREC_ROUNDTRIP
360
AE0
  0
XRECORD
  5
AEA
102
{ACAD_REACTORS
330
AE9
102
}
330
AE9
100
AcDbXrecord
280
     1
102
MATERIAL
148
0.0
149
0.0
149
0.0
 93
        0
 94
      127
282
     0
 72
     1
 77
     1
171
     1
175
     1
179
     1
273
     0
  0
XRECORD
  5
AE8
102
{ACAD_REACTORS
330
AE7
102
}
330
AE7
100
AcDbXrecord
280
     1
102
MATERIAL
148
0.0
149
0.0
149
0.0
 93
        0
 94
      127
282
     0
 72
     1
 77
     1
171
     1
175
     1
179
     1
273
     0
  0
XRECORD
  5
AEC
102
{ACAD_REACTORS
330
AEB
102
}
330
AEB
100
AcDbXrecord
280
     1
102
MATERIAL
148
0.0
149
0.0
149
0.0
 93
        0
 94
      127
282
     0
 72
     1
 77
     1
171
     1
175
     1
179
     1
273
     0
  0
XRECORD
  5
AD0
102
{ACAD_REACTORS
330
ACF
102
}
330
ACF
100
AcDbXrecord
280
     1
102
RTVSPropertyOp0
 70
     1
102
RTVSPropertyOp1
 70
     1
102
RTVSPropertyOp2
 70
     1
102
RTVSPropertyOp3
 70
     1
102
RTVSPropertyOp4
 70
     1
102
RTVSPropertyOp5
 70
     1
102
RTVSPropertyOp6
 70
     1
102
RTVSPropertyOp7
 70
     1
102
RTVSPropertyOp8
 70
     1
102
RTVSPropertyOp9
 70
     1
102
RTVSPropertyOp10
 70
     1
102
RTVSPropertyOp11
 70
     1
102
RTVSPropertyOp12
 70
     1
102
RTVSPropertyOp13
 70
     1
102
RTVSPropertyOp14
 70
     1
102
RTVSPropertyOp15
 70
     1
102
RTVSPropertyOp16
 70
     1
102
RTVSPropertyOp17
 70
     1
102
RTVSPropertyOp18
 70
     1
102
RTVSPropertyOp19
 70
     1
102
RTVSPropertyOp20
 70
     1
102
RTVSPropertyOp21
 70
     1
102
RTVSPropertyOp22
 70
     1
102
RTVSPropertyOp23
 70
     1
102
RTVSPropertyOp24
 70
     1
102
RTVSPropertyOp25
 70
     1
102
RTVSPropertyOp26
 70
     1
102
RTVSPropertyOp27
 70
     1
  0
XRECORD
  5
AD4
102
{ACAD_REACTORS
330
AD3
102
}
330
AD3
100
AcDbXrecord
280
     1
102
RTVSPropertyOp0
 70
     1
102
RTVSPropertyOp1
 70
     1
102
RTVSPropertyOp2
 70
     1
102
RTVSPropertyOp3
 70
     1
102
RTVSPropertyOp4
 70
     1
102
RTVSPropertyOp5
 70
     1
102
RTVSPropertyOp6
 70
     1
102
RTVSPropertyOp7
 70
     1
102
RTVSPropertyOp8
 70
     1
102
RTVSPropertyOp9
 70
     1
102
RTVSPropertyOp10
 70
     1
102
RTVSPropertyOp11
 70
     1
102
RTVSPropertyOp12
 70
     1
102
RTVSPropertyOp13
 70
     1
102
RTVSPropertyOp14
 70
     1
102
RTVSPropertyOp15
 70
     1
102
RTVSPropertyOp16
 70
     1
102
RTVSPropertyOp17
 70
     1
102
RTVSPropertyOp18
 70
     1
102
RTVSPropertyOp19
 70
     1
102
RTVSPropertyOp20
 70
     1
102
RTVSPropertyOp21
 70
     1
102
RTVSPropertyOp22
 70
     1
102
RTVSPropertyOp23
 70
     1
102
RTVSPropertyOp24
 70
     1
102
RTVSPropertyOp25
 70
     1
102
RTVSPropertyOp26
 70
     1
102
RTVSPropertyOp27
 70
     1
  0
XRECORD
  5
AD2
102
{ACAD_REACTORS
330
AD1
102
}
330
AD1
100
AcDbXrecord
280
     1
102
RTVSPropertyOp0
 70
     1
102
RTVSPropertyOp1
 70
     1
102
RTVSPropertyOp2
 70
     1
102
RTVSPropertyOp3
 70
     1
102
RTVSPropertyOp4
 70
     1
102
RTVSPropertyOp5
 70
     1
102
RTVSPropertyOp6
 70
     1
102
RTVSPropertyOp7
 70
     1
102
RTVSPropertyOp8
 70
     1
102
RTVSPropertyOp9
 70
     1
102
RTVSPropertyOp10
 70
     1
102
RTVSPropertyOp11
 70
     1
102
RTVSPropertyOp12
 70
     1
102
RTVSPropertyOp13
 70
     1
102
RTVSPropertyOp14
 70
     1
102
RTVSPropertyOp15
 70
     1
102
RTVSPropertyOp16
 70
     1
102
RTVSPropertyOp17
 70
     1
102
RTVSPropertyOp18
 70
     1
102
RTVSPropertyOp19
 70
     1
102
RTVSPropertyOp20
 70
     1
102
RTVSPropertyOp21
 70
     1
102
RTVSPropertyOp22
 70
     1
102
RTVSPropertyOp23
 70
     1
102
RTVSPropertyOp24
 70
     1
102
RTVSPropertyOp25
 70
     1
102
RTVSPropertyOp26
 70
     1
102
RTVSPropertyOp27
 70
     1
  0
XRECORD
  5
AD6
102
{ACAD_REACTORS
330
AD5
102
}
330
AD5
100
AcDbXrecord
280
     1
102
RTVSPropertyOp0
 70
     1
102
RTVSPropertyOp1
 70
     1
102
RTVSPropertyOp2
 70
     1
102
RTVSPropertyOp3
 70
     1
102
RTVSPropertyOp4
 70
     1
102
RTVSPropertyOp5
 70
     1
102
RTVSPropertyOp6
 70
     1
102
RTVSPropertyOp7
 70
     1
102
RTVSPropertyOp8
 70
     1
102
RTVSPropertyOp9
 70
     1
102
RTVSPropertyOp10
 70
     1
102
RTVSPropertyOp11
 70
     1
102
RTVSPropertyOp12
 70
     1
102
RTVSPropertyOp13
 70
     1
102
RTVSPropertyOp14
 70
     1
102
RTVSPropertyOp15
 70
     1
102
RTVSPropertyOp16
 70
     1
102
RTVSPropertyOp17
 70
     1
102
RTVSPropertyOp18
 70
     1
102
RTVSPropertyOp19
 70
     1
102
RTVSPropertyOp20
 70
     1
102
RTVSPropertyOp21
 70
     1
102
RTVSPropertyOp22
 70
     1
102
RTVSPropertyOp23
 70
     1
102
RTVSPropertyOp24
 70
     1
102
RTVSPropertyOp25
 70
     1
102
RTVSPropertyOp26
 70
     1
102
RTVSPropertyOp27
 70
     1
  0
XRECORD
  5
ADE
102
{ACAD_REACTORS
330
ADD
102
}
330
ADD
100
AcDbXrecord
280
     1
102
RTVSPropertyOp0
 70
     1
102
RTVSPropertyOp1
 70
     1
102
RTVSPropertyOp2
 70
     1
102
RTVSPropertyOp3
 70
     1
102
RTVSPropertyOp4
 70
     1
102
RTVSPropertyOp5
 70
     1
102
RTVSPropertyOp6
 70
     1
102
RTVSPropertyOp7
 70
     1
102
RTVSPropertyOp8
 70
     1
102
RTVSPropertyOp9
 70
     1
102
RTVSPropertyOp10
 70
     1
102
RTVSPropertyOp11
 70
     1
102
RTVSPropertyOp12
 70
     1
102
RTVSPropertyOp13
 70
     1
102
RTVSPropertyOp14
 70
     1
102
RTVSPropertyOp15
 70
     1
102
RTVSPropertyOp16
 70
     1
102
RTVSPropertyOp17
 70
     1
102
RTVSPropertyOp18
 70
     1
102
RTVSPropertyOp19
 70
     1
102
RTVSPropertyOp20
 70
     1
102
RTVSPropertyOp21
 70
     1
102
RTVSPropertyOp22
 70
     1
102
RTVSPropertyOp23
 70
     1
102
RTVSPropertyOp24
 70
     1
102
RTVSPropertyOp25
 70
     1
102
RTVSPropertyOp26
 70
     1
102
RTVSPropertyOp27
 70
     1
  0
XRECORD
  5
AE6
102
{ACAD_REACTORS
330
AE5
102
}
330
AE5
100
AcDbXrecord
280
     1
102
RTVSPropertyOp0
 70
     1
102
RTVSPropertyOp1
 70
     1
102
RTVSPropertyOp2
 70
     1
102
RTVSPropertyOp3
 70
     1
102
RTVSPropertyOp4
 70
     1
102
RTVSPropertyOp5
 70
     1
102
RTVSPropertyOp6
 70
     1
102
RTVSPropertyOp7
 70
     1
102
RTVSPropertyOp8
 70
     1
102
RTVSPropertyOp9
 70
     1
102
RTVSPropertyOp10
 70
     1
102
RTVSPropertyOp11
 70
     1
102
RTVSPropertyOp12
 70
     1
102
RTVSPropertyOp13
 70
     1
102
RTVSPropertyOp14
 70
     1
102
RTVSPropertyOp15
 70
     1
102
RTVSPropertyOp16
 70
     1
102
RTVSPropertyOp17
 70
     1
102
RTVSPropertyOp18
 70
     1
102
RTVSPropertyOp19
 70
     1
102
RTVSPropertyOp20
 70
     1
102
RTVSPropertyOp21
 70
     1
102
RTVSPropertyOp22
 70
     1
102
RTVSPropertyOp23
 70
     1
102
RTVSPropertyOp24
 70
     1
102
RTVSPropertyOp25
 70
     1
102
RTVSPropertyOp26
 70
     1
102
RTVSPropertyOp27
 70
     1
  0
XRECORD
  5
ADA
102
{ACAD_REACTORS
330
AD9
102
}
330
AD9
100
AcDbXrecord
280
     1
102
RTVSPropertyOp0
 70
     1
102
RTVSPropertyOp1
 70
     1
102
RTVSPropertyOp2
 70
     1
102
RTVSPropertyOp3
 70
     1
102
RTVSPropertyOp4
 70
     1
102
RTVSPropertyOp5
 70
     1
102
RTVSPropertyOp6
 70
     1
102
RTVSPropertyOp7
 70
     1
102
RTVSPropertyOp8
 70
     1
102
RTVSPropertyOp9
 70
     1
102
RTVSPropertyOp10
 70
     1
102
RTVSPropertyOp11
 70
     1
102
RTVSPropertyOp12
 70
     1
102
RTVSPropertyOp13
 70
     1
102
RTVSPropertyOp14
 70
     1
102
RTVSPropertyOp15
 70
     1
102
RTVSPropertyOp16
 70
     1
102
RTVSPropertyOp17
 70
     1
102
RTVSPropertyOp18
 70
     1
102
RTVSPropertyOp19
 70
     1
102
RTVSPropertyOp20
 70
     1
102
RTVSPropertyOp21
 70
     1
102
RTVSPropertyOp22
 70
     1
102
RTVSPropertyOp23
 70
     1
102
RTVSPropertyOp24
 70
     1
102
RTVSPropertyOp25
 70
     1
102
RTVSPropertyOp26
 70
     1
102
RTVSPropertyOp27
 70
     1
  0
XRECORD
  5
ADC
102
{ACAD_REACTORS
330
ADB
102
}
330
ADB
100
AcDbXrecord
280
     1
102
RTVSPropertyOp0
 70
     1
102
RTVSPropertyOp1
 70
     1
102
RTVSPropertyOp2
 70
     1
102
RTVSPropertyOp3
 70
     1
102
RTVSPropertyOp4
 70
     1
102
RTVSPropertyOp5
 70
     1
102
RTVSPropertyOp6
 70
     1
102
RTVSPropertyOp7
 70
     1
102
RTVSPropertyOp8
 70
     1
102
RTVSPropertyOp9
 70
     1
102
RTVSPropertyOp10
 70
     1
102
RTVSPropertyOp11
 70
     1
102
RTVSPropertyOp12
 70
     1
102
RTVSPropertyOp13
 70
     1
102
RTVSPropertyOp14
 70
     1
102
RTVSPropertyOp15
 70
     1
102
RTVSPropertyOp16
 70
     1
102
RTVSPropertyOp17
 70
     1
102
RTVSPropertyOp18
 70
     1
102
RTVSPropertyOp19
 70
     1
102
RTVSPropertyOp20
 70
     1
102
RTVSPropertyOp21
 70
     1
102
RTVSPropertyOp22
 70
     1
102
RTVSPropertyOp23
 70
     1
102
RTVSPropertyOp24
 70
     1
102
RTVSPropertyOp25
 70
     1
102
RTVSPropertyOp26
 70
     1
102
RTVSPropertyOp27
 70
     1
  0
XRECORD
  5
AE4
102
{ACAD_REACTORS
330
AE3
102
}
330
AE3
100
AcDbXrecord
280
     1
102
RTVSPropertyOp0
 70
     1
102
RTVSPropertyOp1
 70
     1
102
RTVSPropertyOp2
 70
     1
102
RTVSPropertyOp3
 70
     1
102
RTVSPropertyOp4
 70
     1
102
RTVSPropertyOp5
 70
     1
102
RTVSPropertyOp6
 70
     1
102
RTVSPropertyOp7
 70
     1
102
RTVSPropertyOp8
 70
     1
102
RTVSPropertyOp9
 70
     1
102
RTVSPropertyOp10
 70
     1
102
RTVSPropertyOp11
 70
     1
102
RTVSPropertyOp12
 70
     1
102
RTVSPropertyOp13
 70
     1
102
RTVSPropertyOp14
 70
     1
102
RTVSPropertyOp15
 70
     1
102
RTVSPropertyOp16
 70
     1
102
RTVSPropertyOp17
 70
     1
102
RTVSPropertyOp18
 70
     1
102
RTVSPropertyOp19
 70
     1
102
RTVSPropertyOp20
 70
     1
102
RTVSPropertyOp21
 70
     1
102
RTVSPropertyOp22
 70
     1
102
RTVSPropertyOp23
 70
     1
102
RTVSPropertyOp24
 70
     1
102
RTVSPropertyOp25
 70
     1
102
RTVSPropertyOp26
 70
     1
102
RTVSPropertyOp27
 70
     1
  0
XRECORD
  5
AC8
102
{ACAD_REACTORS
330
AC7
102
}
330
AC7
100
AcDbXrecord
280
     1
102
RTVSPropertyOp0
 70
     1
102
RTVSPropertyOp1
 70
     1
102
RTVSPropertyOp2
 70
     1
102
RTVSPropertyOp3
 70
     1
102
RTVSPropertyOp4
 70
     1
102
RTVSPropertyOp5
 70
     1
102
RTVSPropertyOp6
 70
     1
102
RTVSPropertyOp7
 70
     1
102
RTVSPropertyOp8
 70
     1
102
RTVSPropertyOp9
 70
     1
102
RTVSPropertyOp10
 70
     1
102
RTVSPropertyOp11
 70
     1
102
RTVSPropertyOp12
 70
     1
102
RTVSPropertyOp13
 70
     1
102
RTVSPropertyOp14
 70
     1
102
RTVSPropertyOp15
 70
     1
102
RTVSPropertyOp16
 70
     1
102
RTVSPropertyOp17
 70
     1
102
RTVSPropertyOp18
 70
     1
102
RTVSPropertyOp19
 70
     1
102
RTVSPropertyOp20
 70
     1
102
RTVSPropertyOp21
 70
     1
102
RTVSPropertyOp22
 70
     1
102
RTVSPropertyOp23
 70
     1
102
RTVSPropertyOp24
 70
     1
102
RTVSPropertyOp25
 70
     1
102
RTVSPropertyOp26
 70
     1
102
RTVSPropertyOp27
 70
     1
  0
XRECORD
  5
ACA
102
{ACAD_REACTORS
330
AC9
102
}
330
AC9
100
AcDbXrecord
280
     1
102
RTVSPropertyOp0
 70
     1
102
RTVSPropertyOp1
 70
     1
102
RTVSPropertyOp2
 70
     1
102
RTVSPropertyOp3
 70
     1
102
RTVSPropertyOp4
 70
     1
102
RTVSPropertyOp5
 70
     1
102
RTVSPropertyOp6
 70
     1
102
RTVSPropertyOp7
 70
     1
102
RTVSPropertyOp8
 70
     1
102
RTVSPropertyOp9
 70
     1
102
RTVSPropertyOp10
 70
     1
102
RTVSPropertyOp11
 70
     1
102
RTVSPropertyOp12
 70
     1
102
RTVSPropertyOp13
 70
     1
102
RTVSPropertyOp14
 70
     1
102
RTVSPropertyOp15
 70
     1
102
RTVSPropertyOp16
 70
     1
102
RTVSPropertyOp17
 70
     1
102
RTVSPropertyOp18
 70
     1
102
RTVSPropertyOp19
 70
     1
102
RTVSPropertyOp20
 70
     1
102
RTVSPropertyOp21
 70
     1
102
RTVSPropertyOp22
 70
     1
102
RTVSPropertyOp23
 70
     1
102
RTVSPropertyOp24
 70
     1
102
RTVSPropertyOp25
 70
     1
102
RTVSPropertyOp26
 70
     1
102
RTVSPropertyOp27
 70
     1
  0
XRECORD
  5
ACC
102
{ACAD_REACTORS
330
ACB
102
}
330
ACB
100
AcDbXrecord
280
     1
102
RTVSPropertyOp0
 70
     1
102
RTVSPropertyOp1
 70
     1
102
RTVSPropertyOp2
 70
     1
102
RTVSPropertyOp3
 70
     1
102
RTVSPropertyOp4
 70
     1
102
RTVSPropertyOp5
 70
     1
102
RTVSPropertyOp6
 70
     1
102
RTVSPropertyOp7
 70
     1
102
RTVSPropertyOp8
 70
     1
102
RTVSPropertyOp9
 70
     1
102
RTVSPropertyOp10
 70
     1
102
RTVSPropertyOp11
 70
     1
102
RTVSPropertyOp12
 70
     1
102
RTVSPropertyOp13
 70
     1
102
RTVSPropertyOp14
 70
     1
102
RTVSPropertyOp15
 70
     1
102
RTVSPropertyOp16
 70
     1
102
RTVSPropertyOp17
 70
     1
102
RTVSPropertyOp18
 70
     1
102
RTVSPropertyOp19
 70
     1
102
RTVSPropertyOp20
 70
     1
102
RTVSPropertyOp21
 70
     1
102
RTVSPropertyOp22
 70
     1
102
RTVSPropertyOp23
 70
     1
102
RTVSPropertyOp24
 70
     1
102
RTVSPropertyOp25
 70
     1
102
RTVSPropertyOp26
 70
     1
102
RTVSPropertyOp27
 70
     1
  0
XRECORD
  5
ACE
102
{ACAD_REACTORS
330
ACD
102
}
330
ACD
100
AcDbXrecord
280
     1
102
RTVSPropertyOp0
 70
     1
102
RTVSPropertyOp1
 70
     1
102
RTVSPropertyOp2
 70
     1
102
RTVSPropertyOp3
 70
     1
102
RTVSPropertyOp4
 70
     1
102
RTVSPropertyOp5
 70
     1
102
RTVSPropertyOp6
 70
     1
102
RTVSPropertyOp7
 70
     1
102
RTVSPropertyOp8
 70
     1
102
RTVSPropertyOp9
 70
     1
102
RTVSPropertyOp10
 70
     1
102
RTVSPropertyOp11
 70
     1
102
RTVSPropertyOp12
 70
     1
102
RTVSPropertyOp13
 70
     1
102
RTVSPropertyOp14
 70
     1
102
RTVSPropertyOp15
 70
     1
102
RTVSPropertyOp16
 70
     1
102
RTVSPropertyOp17
 70
     1
102
RTVSPropertyOp18
 70
     1
102
RTVSPropertyOp19
 70
     1
102
RTVSPropertyOp20
 70
     1
102
RTVSPropertyOp21
 70
     1
102
RTVSPropertyOp22
 70
     1
102
RTVSPropertyOp23
 70
     1
102
RTVSPropertyOp24
 70
     1
102
RTVSPropertyOp25
 70
     1
102
RTVSPropertyOp26
 70
     1
102
RTVSPropertyOp27
 70
     1
  0
XRECORD
  5
AE2
102
{ACAD_REACTORS
330
AE1
102
}
330
AE1
100
AcDbXrecord
280
     1
102
RTVSPropertyOp0
 70
     1
102
RTVSPropertyOp1
 70
     1
102
RTVSPropertyOp2
 70
     1
102
RTVSPropertyOp3
 70
     1
102
RTVSPropertyOp4
 70
     1
102
RTVSPropertyOp5
 70
     1
102
RTVSPropertyOp6
 70
     1
102
RTVSPropertyOp7
 70
     1
102
RTVSPropertyOp8
 70
     1
102
RTVSPropertyOp9
 70
     1
102
RTVSPropertyOp10
 70
     1
102
RTVSPropertyOp11
 70
     1
102
RTVSPropertyOp12
 70
     1
102
RTVSPropertyOp13
 70
     1
102
RTVSPropertyOp14
 70
     1
102
RTVSPropertyOp15
 70
     1
102
RTVSPropertyOp16
 70
     1
102
RTVSPropertyOp17
 70
     1
102
RTVSPropertyOp18
 70
     1
102
RTVSPropertyOp19
 70
     1
102
RTVSPropertyOp20
 70
     1
102
RTVSPropertyOp21
 70
     1
102
RTVSPropertyOp22
 70
     1
102
RTVSPropertyOp23
 70
     1
102
RTVSPropertyOp24
 70
     1
102
RTVSPropertyOp25
 70
     1
102
RTVSPropertyOp26
 70
     1
102
RTVSPropertyOp27
 70
     1
  0
XRECORD
  5
AD8
102
{ACAD_REACTORS
330
AD7
102
}
330
AD7
100
AcDbXrecord
280
     1
102
RTVSPropertyOp0
 70
     1
102
RTVSPropertyOp1
 70
     1
102
RTVSPropertyOp2
 70
     1
102
RTVSPropertyOp3
 70
     1
102
RTVSPropertyOp4
 70
     1
102
RTVSPropertyOp5
 70
     1
102
RTVSPropertyOp6
 70
     1
102
RTVSPropertyOp7
 70
     1
102
RTVSPropertyOp8
 70
     1
102
RTVSPropertyOp9
 70
     1
102
RTVSPropertyOp10
 70
     1
102
RTVSPropertyOp11
 70
     1
102
RTVSPropertyOp12
 70
     1
102
RTVSPropertyOp13
 70
     1
102
RTVSPropertyOp14
 70
     1
102
RTVSPropertyOp15
 70
     1
102
RTVSPropertyOp16
 70
     1
102
RTVSPropertyOp17
 70
     1
102
RTVSPropertyOp18
 70
     1
102
RTVSPropertyOp19
 70
     1
102
RTVSPropertyOp20
 70
     1
102
RTVSPropertyOp21
 70
     1
102
RTVSPropertyOp22
 70
     1
102
RTVSPropertyOp23
 70
     1
102
RTVSPropertyOp24
 70
     1
102
RTVSPropertyOp25
 70
     1
102
RTVSPropertyOp26
 70
     1
102
RTVSPropertyOp27
 70
     1
  0
XRECORD
  5
AE0
102
{ACAD_REACTORS
330
ADF
102
}
330
ADF
100
AcDbXrecord
280
     1
102
RTVSPropertyOp0
 70
     1
102
RTVSPropertyOp1
 70
     1
102
RTVSPropertyOp2
 70
     1
102
RTVSPropertyOp3
 70
     1
102
RTVSPropertyOp4
 70
     1
102
RTVSPropertyOp5
 70
     1
102
RTVSPropertyOp6
 70
     1
102
RTVSPropertyOp7
 70
     1
102
RTVSPropertyOp8
 70
     1
102
RTVSPropertyOp9
 70
     1
102
RTVSPropertyOp10
 70
     1
102
RTVSPropertyOp11
 70
     1
102
RTVSPropertyOp12
 70
     1
102
RTVSPropertyOp13
 70
     1
102
RTVSPropertyOp14
 70
     1
102
RTVSPropertyOp15
 70
     1
102
RTVSPropertyOp16
 70
     1
102
RTVSPropertyOp17
 70
     1
102
RTVSPropertyOp18
 70
     1
102
RTVSPropertyOp19
 70
     1
102
RTVSPropertyOp20
 70
     1
102
RTVSPropertyOp21
 70
     1
102
RTVSPropertyOp22
 70
     1
102
RTVSPropertyOp23
 70
     1
102
RTVSPropertyOp24
 70
     1
102
RTVSPropertyOp25
 70
     1
102
RTVSPropertyOp26
 70
     1
102
RTVSPropertyOp27
 70
     1
  0
ENDSEC
  0
EOF
