  0
SECTION
  2
HEADER
  9
$ACADVER
  1
AC1015
  9
$ACADMAINTVER
 70
     6
  9
$DWGCODEPAGE
  3
ANSI_1252
  9
$INSBASE
 10
0.0
 20
0.0
 30
0.0
  9
$EXTMIN
 10
0.0
 20
0.0
 30
0.0
  9
$EXTMAX
 10
25.0
 20
35.0
 30
0.0
  9
$LIMMIN
 10
0.0
 20
0.0
  9
$LIMMAX
 10
420.0
 20
297.0
  9
$ORTHOMODE
 70
     0
  9
$REGENMODE
 70
     1
  9
$FILLMODE
 70
     1
  9
$QTEXTMODE
 70
     0
  9
$MIRRTEXT
 70
     1
  9
$LTSCALE
 40
4.2
  9
$ATTMODE
 70
     1
  9
$TEXTSIZE
 40
2.5
  9
$TRACEWID
 40
1.0
  9
$TEXTSTYLE
  7
Standard
  9
$CLAYER
  8
0
  9
$CELTYPE
  6
ByLayer
  9
$CECOLOR
 62
   256
  9
$CELTSCALE
 40
1.0
  9
$DISPSILH
 70
     0
  9
$DIMSCALE
 40
1.0
  9
$DIMASZ
 40
2.5
  9
$DIMEXO
 40
0.625
  9
$DIMDLI
 40
3.75
  9
$DIMRND
 40
0.0
  9
$DIMDLE
 40
0.0
  9
$DIMEXE
 40
1.25
  9
$DIMTP
 40
0.0
  9
$DIMTM
 40
0.0
  9
$DIMTXT
 40
2.5
  9
$DIMCEN
 40
2.5
  9
$DIMTSZ
 40
0.0
  9
$DIMTOL
 70
     0
  9
$DIMLIM
 70
     0
  9
$DIMTIH
 70
     0
  9
$DIMTOH
 70
     0
  9
$DIMSE1
 70
     0
  9
$DIMSE2
 70
     0
  9
$DIMTAD
 70
     1
  9
$DIMZIN
 70
     8
  9
$DIMBLK
  1

  9
$DIMASO
 70
     1
  9
$DIMSHO
 70
     1
  9
$DIMPOST
  1

  9
$DIMAPOST
  1

  9
$DIMALT
 70
     0
  9
$DIMALTD
 70
     3
  9
$DIMALTF
 40
0.03937007874016
  9
$DIMLFAC
 40
1.0
  9
$DIMTOFL
 70
     1
  9
$DIMTVP
 40
0.0
  9
$DIMTIX
 70
     0
  9
$DIMSOXD
 70
     0
  9
$DIMSAH
 70
     0
  9
$DIMBLK1
  1

  9
$DIMBLK2
  1

  9
$DIMSTYLE
  2
ISO-25
  9
$DIMCLRD
 70
     0
  9
$DIMCLRE
 70
     0
  9
$DIMCLRT
 70
     0
  9
$DIMTFAC
 40
1.0
  9
$DIMGAP
 40
0.625
  9
$DIMJUST
 70
     0
  9
$DIMSD1
 70
     0
  9
$DIMSD2
 70
     0
  9
$DIMTOLJ
 70
     0
  9
$DIMTZIN
 70
     8
  9
$DIMALTZ
 70
     0
  9
$DIMALTTZ
 70
     0
  9
$DIMUPT
 70
     0
  9
$DIMDEC
 70
     2
  9
$DIMTDEC
 70
     2
  9
$DIMALTU
 70
     2
  9
$DIMALTTD
 70
     3
  9
$DIMTXSTY
  7
Standard
  9
$DIMAUNIT
 70
     0
  9
$DIMADEC
 70
     0
  9
$DIMALTRND
 40
0.0
  9
$DIMAZIN
 70
     0
  9
$DIMDSEP
 70
    44
  9
$DIMATFIT
 70
     3
  9
$DIMFRAC
 70
     0
  9
$DIMLDRBLK
  1

  9
$DIMLUNIT
 70
     2
  9
$DIMLWD
 70
    -2
  9
$DIMLWE
 70
    -2
  9
$DIMTMOVE
 70
     0
  9
$LUNITS
 70
     2
  9
$LUPREC
 70
     4
  9
$SKETCHINC
 40
1.0
  9
$FILLETRAD
 40
10.0
  9
$AUNITS
 70
     0
  9
$AUPREC
 70
     0
  9
$MENU
  1
.
  9
$ELEVATION
 40
0.0
  9
$PELEVATION
 40
0.0
  9
$THICKNESS
 40
0.0
  9
$LIMCHECK
 70
     0
  9
$CHAMFERA
 40
10.0
  9
$CHAMFERB
 40
10.0
  9
$CHAMFERC
 40
20.0
  9
$CHAMFERD
 40
0.0
  9
$SKPOLY
 70
     0
  9
$TDCREATE
 40
2458578.196527778
  9
$TDUCREATE
 40
2458578.113194444
  9
$TDUPDATE
 40
2458578.2
  9
$TDUUPDATE
 40
2458578.116666667
  9
$TDINDWG
 40
0.0000000116
  9
$TDUSRTIMER
 40
0.0000000116
  9
$USRTIMER
 70
     1
  9
$ANGBASE
 50
0.0
  9
$ANGDIR
 70
     0
  9
$PDMODE
 70
     0
  9
$PDSIZE
 40
0.0
  9
$PLINEWID
 40
0.0
  9
$SPLFRAME
 70
     0
  9
$SPLINETYPE
 70
     6
  9
$SPLINESEGS
 70
     8
  9
$HANDSEED
  5
CD5
  9
$SURFTAB1
 70
     6
  9
$SURFTAB2
 70
     6
  9
$SURFTYPE
 70
     6
  9
$SURFU
 70
     6
  9
$SURFV
 70
     6
  9
$UCSBASE
  2

  9
$UCSNAME
  2

  9
$UCSORG
 10
0.0
 20
0.0
 30
0.0
  9
$UCSXDIR
 10
1.0
 20
0.0
 30
0.0
  9
$UCSYDIR
 10
0.0
 20
1.0
 30
0.0
  9
$UCSORTHOREF
  2

  9
$UCSORTHOVIEW
 70
     0
  9
$UCSORGTOP
 10
0.0
 20
0.0
 30
0.0
  9
$UCSORGBOTTOM
 10
0.0
 20
0.0
 30
0.0
  9
$UCSORGLEFT
 10
0.0
 20
0.0
 30
0.0
  9
$UCSORGRIGHT
 10
0.0
 20
0.0
 30
0.0
  9
$UCSORGFRONT
 10
0.0
 20
0.0
 30
0.0
  9
$UCSORGBACK
 10
0.0
 20
0.0
 30
0.0
  9
$PUCSBASE
  2

  9
$PUCSNAME
  2

  9
$PUCSORG
 10
0.0
 20
0.0
 30
0.0
  9
$PUCSXDIR
 10
1.0
 20
0.0
 30
0.0
  9
$PUCSYDIR
 10
0.0
 20
1.0
 30
0.0
  9
$PUCSORTHOREF
  2

  9
$PUCSORTHOVIEW
 70
     0
  9
$PUCSORGTOP
 10
0.0
 20
0.0
 30
0.0
  9
$PUCSORGBOTTOM
 10
0.0
 20
0.0
 30
0.0
  9
$PUCSORGLEFT
 10
0.0
 20
0.0
 30
0.0
  9
$PUCSORGRIGHT
 10
0.0
 20
0.0
 30
0.0
  9
$PUCSORGFRONT
 10
0.0
 20
0.0
 30
0.0
  9
$PUCSORGBACK
 10
0.0
 20
0.0
 30
0.0
  9
$USERI1
 70
     0
  9
$USERI2
 70
     0
  9
$USERI3
 70
     0
  9
$USERI4
 70
     0
  9
$USERI5
 70
     0
  9
$USERR1
 40
0.0
  9
$USERR2
 40
0.0
  9
$USERR3
 40
0.0
  9
$USERR4
 40
0.0
  9
$USERR5
 40
0.0
  9
$WORLDVIEW
 70
     1
  9
$SHADEDGE
 70
     3
  9
$SHADEDIF
 70
    70
  9
$TILEMODE
 70
     1
  9
$MAXACTVP
 70
    64
  9
$PINSBASE
 10
0.0
 20
0.0
 30
0.0
  9
$PLIMCHECK
 70
     0
  9
$PEXTMIN
 10
1.000000000000000E+20
 20
1.000000000000000E+20
 30
1.000000000000000E+20
  9
$PEXTMAX
 10
-1.000000000000000E+20
 20
-1.000000000000000E+20
 30
-1.000000000000000E+20
  9
$PLIMMIN
 10
0.0
 20
0.0
  9
$PLIMMAX
 10
420.0
 20
297.0
  9
$UNITMODE
 70
     0
  9
$VISRETAIN
 70
     1
  9
$PLINEGEN
 70
     0
  9
$PSLTSCALE
 70
     1
  9
$TREEDEPTH
 70
  3020
  9
$CMLSTYLE
  2
Standard
  9
$CMLJUST
 70
     0
  9
$CMLSCALE
 40
20.0
  9
$PROXYGRAPHICS
 70
     1
  9
$MEASUREMENT
 70
     1
  9
$CELWEIGHT
370
    -1
  9
$ENDCAPS
280
     0
  9
$JOINSTYLE
280
     0
  9
$LWDISPLAY
290
     0
  9
$INSUNITS
 70
     4
  9
$HYPERLINKBASE
  1

  9
$STYLESHEET
  1

  9
$XEDIT
290
     1
  9
$CEPSNTYPE
380
     0
  9
$PSTYLEMODE
290
     1
  9
$FINGERPRINTGUID
  2
{6ACFB339-0F07-48A5-975F-52261D405AAE}
  9
$VERSIONGUID
  2
{FAEB1C32-E019-11D5-929B-00C0DF256EC4}
  9
$EXTNAMES
290
     1
  9
$PSVPSCALE
 40
0.0
  9
$OLESTARTUP
290
     0
  0
ENDSEC
  0
SECTION
  2
CLASSES
  0
CLASS
  1
ACDBDICTIONARYWDFLT
  2
AcDbDictionaryWithDefault
  3
ObjectDBX Classes
 90
        0
280
     0
281
     0
  0
CLASS
  1
VISUALSTYLE
  2
AcDbVisualStyle
  3
ObjectDBX Classes
 90
     4095
280
     0
281
     0
  0
CLASS
  1
MATERIAL
  2
AcDbMaterial
  3
ObjectDBX Classes
 90
     1153
280
     0
281
     0
  0
CLASS
  1
SCALE
  2
AcDbScale
  3
ObjectDBX Classes
 90
     1153
280
     0
281
     0
  0
CLASS
  1
DICTIONARYVAR
  2
AcDbDictionaryVar
  3
ObjectDBX Classes
 90
        0
280
     0
281
     0
  0
CLASS
  1
ACDBPLACEHOLDER
  2
AcDbPlaceHolder
  3
ObjectDBX Classes
 90
        0
280
     0
281
     0
  0
CLASS
  1
LAYOUT
  2
AcDbLayout
  3
ObjectDBX Classes
 90
        0
280
     0
281
     0
  0
ENDSEC
  0
SECTION
  2
TABLES
  0
TABLE
  2
VPORT
  5
8
330
0
100
AcDbSymbolTable
 70
     1
  0
VPORT
  5
29
330
8
100
AcDbSymbolTableRecord
100
AcDbViewportTableRecord
  2
*Active
 70
     0
 10
0.0
 20
0.0
 11
1.0
 21
1.0
 12
11.26
 22
4.5
 13
0.0
 23
0.0
 14
10.0
 24
10.0
 15
10.0
 25
10.0
 16
0.0
 26
0.0
 36
1.0
 17
0.0
 27
0.0
 37
0.0
 40
9.0
 41
2.503333333333333
 42
50.0
 43
0.0
 44
0.0
 50
0.0
 51
0.0
 71
     0
 72
   100
 73
     1
 74
     3
 75
     0
 76
     0
 77
     0
 78
     0
281
     0
 65
     1
110
0.0
120
0.0
130
0.0
111
1.0
121
0.0
131
0.0
112
0.0
122
1.0
132
0.0
 79
     0
146
0.0
  0
ENDTAB
  0
TABLE
  2
LTYPE
  5
5
330
0
100
AcDbSymbolTable
 70
    10
  0
LTYPE
  5
14
330
5
100
AcDbSymbolTableRecord
100
AcDbLinetypeTableRecord
  2
ByBlock
 70
     0
  3

 72
    65
 73
     0
 40
0.0
  0
LTYPE
  5
15
330
5
100
AcDbSymbolTableRecord
100
AcDbLinetypeTableRecord
  2
ByLayer
 70
     0
  3

 72
    65
 73
     0
 40
0.0
  0
LTYPE
  5
16
330
5
100
AcDbSymbolTableRecord
100
AcDbLinetypeTableRecord
  2
Continuous
 70
     0
  3
Solid line
 72
    65
 73
     0
 40
0.0
  0
LTYPE
  5
45
330
5
100
AcDbSymbolTableRecord
100
AcDbLinetypeTableRecord
  2
phl_thick
 70
     0
  3
THICK
 72
    65
 73
     0
 40
0.0
  0
LTYPE
  5
473
330
5
100
AcDbSymbolTableRecord
100
AcDbLinetypeTableRecord
  2
CUT
 70
     0
  3
THICK
 72
    65
 73
     0
 40
0.0
  0
LTYPE
  5
47A
330
5
100
AcDbSymbolTableRecord
100
AcDbLinetypeTableRecord
  2
NOCUT
 70
     0
  3
THICK
 72
    65
 73
     0
 40
0.0
  0
LTYPE
  5
482
330
5
100
AcDbSymbolTableRecord
100
AcDbLinetypeTableRecord
  2
SK1
 70
     0
  3
THICK
 72
    65
 73
     0
 40
0.0
  0
LTYPE
  5
48A
330
5
100
AcDbSymbolTableRecord
100
AcDbLinetypeTableRecord
  2
ls_SK2
 70
     0
  3
THIN
 72
    65
 73
     0
 40
0.0
  0
LTYPE
  5
535
330
5
100
AcDbSymbolTableRecord
100
AcDbLinetypeTableRecord
  2
ls_2
 70
     0
  3
THIN
 72
    65
 73
     0
 40
0.0
  0
LTYPE
  5
646
330
5
100
AcDbSymbolTableRecord
100
AcDbLinetypeTableRecord
  2
ls_SK1
 70
     0
  3
THICK
 72
    65
 73
     0
 40
0.0
  0
LTYPE
  5
680
330
5
100
AcDbSymbolTableRecord
100
AcDbLinetypeTableRecord
  2
LONGDASH_DASH
 70
     0
  3
THIN_DASHDOT
 72
    65
 73
     4
 40
0.85
 49
0.4
 74
     0
 49
-0.2
 74
     0
 49
0.05
 74
     0
 49
-0.2
 74
     0
  0
LTYPE
  5
685
330
5
100
AcDbSymbolTableRecord
100
AcDbLinetypeTableRecord
  2
ls1
 70
     0
  3
THICK
 72
    65
 73
     0
 40
0.0
  0
ENDTAB
  0
TABLE
  2
LAYER
  5
2
330
0
100
AcDbSymbolTable
 70
    10
  0
LAYER
  5
10
330
2
100
AcDbSymbolTableRecord
100
AcDbLayerTableRecord
  2
0
 70
     0
 62
     7
  6
Continuous
370
    -3
390
F
  0
LAYER
  5
44
330
2
100
AcDbSymbolTableRecord
100
AcDbLayerTableRecord
  2
1
 70
     0
 62
4
  6
CONTINUOUS
370
50
370
    -3
390
F
  0
LAYER
  5
472
330
2
100
AcDbSymbolTableRecord
100
AcDbLayerTableRecord
  2
CUT
 70
     0
 62
1
  6
CONTINUOUS
370
25
370
    -3
390
F
  0
LAYER
  5
479
330
2
100
AcDbSymbolTableRecord
100
AcDbLayerTableRecord
  2
NOCUT
 70
     0
 62
7
  6
CONTINUOUS
370
25
370
    -3
390
F
  0
LAYER
  5
481
330
2
100
AcDbSymbolTableRecord
100
AcDbLayerTableRecord
  2
SK1
 70
     0
 62
4
  6
CONTINUOUS
370
50
370
    -3
390
F
  0
LAYER
  5
489
330
2
100
AcDbSymbolTableRecord
100
AcDbLayerTableRecord
  2
SK2
 70
     0
 62
7
  6
CONTINUOUS
370
25
370
    -3
390
F
  0
LAYER
  5
534
330
2
100
AcDbSymbolTableRecord
100
AcDbLayerTableRecord
  2
2
 70
     0
 62
7
  6
CONTINUOUS
370
25
370
    -3
390
F
  0
LAYER
  5
67F
330
2
100
AcDbSymbolTableRecord
100
AcDbLayerTableRecord
  2
4
 70
     0
 62
2
  6
LONGDASH_DASH
370
25
370
    -3
390
F
  0
LAYER
  5
682
330
2
100
AcDbSymbolTableRecord
100
AcDbLayerTableRecord
  2
SK4
 70
     0
 62
2
  6
LONGDASH_DASH
370
25
370
    -3
390
F
  0
LAYER
  5
684
330
2
100
AcDbSymbolTableRecord
100
AcDbLayerTableRecord
  2
SK6
 70
     0
 62
5
  6
CONTINUOUS
370
25
370
    -3
390
F
  0
ENDTAB
  0
TABLE
  2
STYLE
  5
3
330
0
100
AcDbSymbolTable
 70
     1
  0
STYLE
  5
11
330
3
100
AcDbSymbolTableRecord
100
AcDbTextStyleTableRecord
  2
Standard
 70
     0
 40
0.0
 41
1.0
 50
0.0
 71
     0
 42
2.5
  3
Monospac821 BT
  4

  0
ENDTAB
  0
TABLE
  2
VIEW
  5
6
330
0
100
AcDbSymbolTable
 70
     0
  0
ENDTAB
  0
TABLE
  2
UCS
  5
7
330
0
100
AcDbSymbolTable
 70
     0
  0
ENDTAB
  0
TABLE
  2
APPID
  5
9
330
0
100
AcDbSymbolTable
 70
     2
  0
APPID
  5
12
330
9
100
AcDbSymbolTableRecord
100
AcDbRegAppTableRecord
  2
ACAD
 70
     0
  0
APPID
  5
3F
330
9
100
AcDbSymbolTableRecord
100
AcDbRegAppTableRecord
  2
ccLab
 70
     0
  0
ENDTAB
  0
TABLE
  2
DIMSTYLE
  5
A
330
0
100
AcDbSymbolTable
 70
     1
100
AcDbDimStyleTable
  0
DIMSTYLE
105
27
330
A
100
AcDbSymbolTableRecord
100
AcDbDimStyleTableRecord
  2
ISO-25
 70
     0
 41
2.5
 42
0.625
 43
3.75
 44
1.25
 73
     0
 74
     0
 77
     1
 78
     8
140
2.5
141
2.5
143
0.03937007874016
147
0.625
171
     3
172
     1
271
     2
272
     2
274
     3
278
    44
283
     0
284
     8
340
11
  0
ENDTAB
  0
TABLE
  2
BLOCK_RECORD
  5
1
330
0
100
AcDbSymbolTable
 70
     2
  0
BLOCK_RECORD
  5
1F
330
1
100
AcDbSymbolTableRecord
100
AcDbBlockTableRecord
  2
*Model_Space
340
22
  0
BLOCK_RECORD
  5
1B
330
1
100
AcDbSymbolTableRecord
100
AcDbBlockTableRecord
  2
*Paper_Space
340
1E
  0
BLOCK_RECORD
  5
23
330
1
100
AcDbSymbolTableRecord
100
AcDbBlockTableRecord
  2
*Paper_Space0
340
26
  0
ENDTAB
  0
ENDSEC
  0
SECTION
  2
BLOCKS
  0
BLOCK
  5
20
330
1F
100
AcDbEntity
  8
0
100
AcDbBlockBegin
  2
*Model_Space
 70
     0
 10
0.0
 20
0.0
 30
0.0
  3
*Model_Space
  1

  0
ENDBLK
  5
21
330
1F
100
AcDbEntity
  8
0
100
AcDbBlockEnd
  0
BLOCK
  5
1C
330
1B
100
AcDbEntity
 67
     1
  8
0
100
AcDbBlockBegin
  2
*Paper_Space
 70
     0
 10
0.0
 20
0.0
 30
0.0
  3
*Paper_Space
  1

  0
ENDBLK
  5
1D
330
1B
100
AcDbEntity
 67
     1
  8
0
100
AcDbBlockEnd
  0
BLOCK
  5
24
330
23
100
AcDbEntity
  8
0
100
AcDbBlockBegin
  2
*Paper_Space0
 70
     0
 10
0.0
 20
0.0
 30
0.0
  3
*Paper_Space0
  1

  0
ENDBLK
  5
25
330
23
100
AcDbEntity
  8
0
100
AcDbBlockEnd
  0
ENDSEC
  0
SECTION
  2
ENTITIES
  0
LINE
  5
68F
330
1F
100
AcDbEntity
  8
1
  6
CONTINUOUS
370
50
 62
4
100
AcDbLine
 10
58.787552
 20
-0.544319
 30
0.0
 11
58.787037
 21
-0.522481
 31
0.0
  0
LINE
  5
690
330
1F
100
AcDbEntity
  8
1
  6
CONTINUOUS
370
50
 62
4
100
AcDbLine
 10
79.82449299999999
 20
-0.607232
 30
0.0
 11
79.820343
 21
-0.505541
 31
0.0
  0
LINE
  5
691
330
1F
100
AcDbEntity
  8
1
  6
CONTINUOUS
370
50
 62
4
100
AcDbLine
 10
58.78736499999999
 20
2.950475
 30
0.0
 11
58.787178
 21
2.954436
 31
0.0
  0
LINE
  5
692
330
1F
100
AcDbEntity
  8
1
  6
CONTINUOUS
370
50
 62
4
100
AcDbLine
 10
79.831245
 20
-0.713614
 30
0.0
 11
79.82449299999999
 21
-0.607232
 31
0.0
  0
LINE
  5
693
330
1F
100
AcDbEntity
  8
1
  6
CONTINUOUS
370
50
 62
4
100
AcDbLine
 10
58.78806299999999
 20
1.69792
 30
0.0
 11
58.786823
 21
1.715827
 31
0.0
  0
LINE
  5
694
330
1F
100
AcDbEntity
  8
1
  6
CONTINUOUS
370
50
 62
4
100
AcDbLine
 10
79.097008
 20
-0.6165729999999999
 30
0.0
 11
79.09593199999999
 21
-0.603417
 31
0.0
  0
LINE
  5
695
330
1F
100
AcDbEntity
  8
1
  6
CONTINUOUS
370
50
 62
4
100
AcDbLine
 10
79.840553
 20
-0.824311
 30
0.0
 11
79.831245
 21
-0.713614
 31
0.0
  0
LINE
  5
696
330
1F
100
AcDbEntity
  8
1
  6
CONTINUOUS
370
50
 62
4
100
AcDbLine
 10
79.852379
 20
-0.938946
 30
0.0
 11
79.840553
 21
-0.824311
 31
0.0
  0
LINE
  5
697
330
1F
100
AcDbEntity
  8
1
  6
CONTINUOUS
370
50
 62
4
100
AcDbLine
 10
79.09593199999999
 20
-0.603417
 30
0.0
 11
79.094482
 21
-0.5901449999999999
 31
0.0
  0
LINE
  5
698
330
1F
100
AcDbEntity
  8
1
  6
CONTINUOUS
370
50
 62
4
100
AcDbLine
 10
79.865562
 20
-2.305001
 30
0.0
 11
79.84872399999999
 21
-2.154655
 31
0.0
  0
LINE
  5
699
330
1F
100
AcDbEntity
  8
1
  6
CONTINUOUS
370
50
 62
4
100
AcDbLine
 10
79.866676
 20
-1.057142
 30
0.0
 11
79.852379
 21
-0.938946
 31
0.0
  0
LINE
  5
69A
330
1F
100
AcDbEntity
  8
1
  6
CONTINUOUS
370
50
 62
4
100
AcDbLine
 10
79.825592
 20
-0.495408
 30
0.0
 11
79.824013
 21
-0.483639
 31
0.0
  0
LINE
  5
69B
330
1F
100
AcDbEntity
  8
1
  6
CONTINUOUS
370
50
 62
4
100
AcDbLine
 10
79.094482
 20
-0.5901449999999999
 30
0.0
 11
79.09266699999999
 21
-0.5767749999999999
 31
0.0
  0
LINE
  5
69C
330
1F
100
AcDbEntity
  8
1
  6
CONTINUOUS
370
50
 62
4
100
AcDbLine
 10
79.883392
 20
-1.178523
 30
0.0
 11
79.866676
 21
-1.057142
 31
0.0
  0
LINE
  5
69D
330
1F
100
AcDbEntity
  8
1
  6
CONTINUOUS
370
50
 62
4
100
AcDbLine
 10
79.885994
 20
-2.451015
 30
0.0
 11
79.865562
 21
-2.305001
 31
0.0
  0
LINE
  5
69E
330
1F
100
AcDbEntity
  8
1
  6
CONTINUOUS
370
50
 62
4
100
AcDbLine
 10
79.824013
 20
-0.483639
 30
0.0
 11
79.822289
 21
-0.471712
 31
0.0
  0
LINE
  5
69F
330
1F
100
AcDbEntity
  8
1
  6
CONTINUOUS
370
50
 62
4
100
AcDbLine
 10
79.902435
 20
-1.302421
 30
0.0
 11
79.883392
 21
-1.178523
 31
0.0
  0
LINE
  5
6A0
330
1F
100
AcDbEntity
  8
1
  6
CONTINUOUS
370
50
 62
4
100
AcDbLine
 10
79.822289
 20
-0.471712
 30
0.0
 11
79.820419
 21
-0.459643
 31
0.0
  0
LINE
  5
6A1
330
1F
100
AcDbEntity
  8
1
  6
CONTINUOUS
370
50
 62
4
100
AcDbLine
 10
79.09266699999999
 20
-0.5767749999999999
 30
0.0
 11
79.090485
 21
-0.563325
 31
0.0
  0
LINE
  5
6A2
330
1F
100
AcDbEntity
  8
1
  6
CONTINUOUS
370
50
 62
4
100
AcDbLine
 10
79.820419
 20
-0.459643
 30
0.0
 11
79.81841299999999
 21
-0.447445
 31
0.0
  0
LINE
  5
6A3
330
1F
100
AcDbEntity
  8
1
  6
CONTINUOUS
370
50
 62
4
100
AcDbLine
 10
79.923706
 20
-1.428218
 30
0.0
 11
79.902435
 21
-1.302421
 31
0.0
  0
LINE
  5
6A4
330
1F
100
AcDbEntity
  8
1
  6
CONTINUOUS
370
50
 62
4
100
AcDbLine
 10
79.909813
 20
-2.591449
 30
0.0
 11
79.885994
 21
-2.451015
 31
0.0
  0
LINE
  5
6A5
330
1F
100
AcDbEntity
  8
1
  6
CONTINUOUS
370
50
 62
4
100
AcDbLine
 10
79.097008
 20
0.833407
 30
0.0
 11
79.09593199999999
 21
0.839607
 31
0.0
  0
LINE
  5
6A6
330
1F
100
AcDbEntity
  8
1
  6
CONTINUOUS
370
50
 62
4
100
AcDbLine
 10
79.81841299999999
 20
-0.447445
 30
0.0
 11
79.816261
 21
-0.435132
 31
0.0
  0
LINE
  5
6A7
330
1F
100
AcDbEntity
  8
1
  6
CONTINUOUS
370
50
 62
4
100
AcDbLine
 10
79.947121
 20
-1.555512
 30
0.0
 11
79.923706
 21
-1.428218
 31
0.0
  0
LINE
  5
6A8
330
1F
100
AcDbEntity
  8
1
  6
CONTINUOUS
370
50
 62
4
100
AcDbLine
 10
79.816261
 20
-0.435132
 30
0.0
 11
79.81397199999999
 21
-0.422719
 31
0.0
  0
LINE
  5
6A9
330
1F
100
AcDbEntity
  8
1
  6
CONTINUOUS
370
50
 62
4
100
AcDbLine
 10
79.090485
 20
-0.563325
 30
0.0
 11
79.087944
 21
-0.549814
 31
0.0
  0
LINE
  5
6AA
330
1F
100
AcDbEntity
  8
1
  6
CONTINUOUS
370
50
 62
4
100
AcDbLine
 10
79.81397199999999
 20
-0.422719
 30
0.0
 11
79.81154599999999
 21
-0.410238
 31
0.0
  0
LINE
  5
6AB
330
1F
100
AcDbEntity
  8
1
  6
CONTINUOUS
370
50
 62
4
100
AcDbLine
 10
79.972595
 20
-1.683777
 30
0.0
 11
79.947121
 21
-1.555512
 31
0.0
  0
LINE
  5
6AC
330
1F
100
AcDbEntity
  8
1
  6
CONTINUOUS
370
50
 62
4
100
AcDbLine
 10
79.936852
 20
-2.725402
 30
0.0
 11
79.909813
 21
-2.591449
 31
0.0
  0
LINE
  5
6AD
330
1F
100
AcDbEntity
  8
1
  6
CONTINUOUS
370
50
 62
4
100
AcDbLine
 10
58.79189299999999
 20
-0.565531
 30
0.0
 11
58.787552
 21
-0.544319
 31
0.0
  0
LINE
  5
6AE
330
1F
100
AcDbEntity
  8
1
  6
CONTINUOUS
370
50
 62
4
100
AcDbLine
 10
80.0
 20
-1.812408
 30
0.0
 11
79.972595
 21
-1.683777
 31
0.0
  0
LINE
  5
6AF
330
1F
100
AcDbEntity
  8
1
  6
CONTINUOUS
370
50
 62
4
100
AcDbLine
 10
79.087944
 20
-0.549814
 30
0.0
 11
79.08503
 21
-0.536266
 31
0.0
  0
LINE
  5
6B0
330
1F
100
AcDbEntity
  8
1
  6
CONTINUOUS
370
50
 62
4
100
AcDbLine
 10
79.09593199999999
 20
0.839607
 30
0.0
 11
79.094482
 21
0.846285
 31
0.0
  0
LINE
  5
6B1
330
1F
100
AcDbEntity
  8
1
  6
CONTINUOUS
370
50
 62
4
100
AcDbLine
 10
79.966965
 20
-2.852293
 30
0.0
 11
79.936852
 21
-2.725402
 31
0.0
  0
LINE
  5
6B2
330
1F
100
AcDbEntity
  8
1
  6
CONTINUOUS
370
50
 62
4
100
AcDbLine
 10
79.08503
 20
-0.536266
 30
0.0
 11
79.081779
 21
-0.522767
 31
0.0
  0
LINE
  5
6B3
330
1F
100
AcDbEntity
  8
1
  6
CONTINUOUS
370
50
 62
4
100
AcDbLine
 10
79.094482
 20
0.846285
 30
0.0
 11
79.09266699999999
 21
0.853433
 31
0.0
  0
LINE
  5
6B4
330
1F
100
AcDbEntity
  8
1
  6
CONTINUOUS
370
50
 62
4
100
AcDbLine
 10
79.957657
 20
1.503345
 30
0.0
 11
79.94245099999999
 21
1.562853
 31
0.0
  0
LINE
  5
6B5
330
1F
100
AcDbEntity
  8
1
  6
CONTINUOUS
370
50
 62
4
100
AcDbLine
 10
79.081779
 20
-0.522767
 30
0.0
 11
79.078186
 21
-0.509351
 31
0.0
  0
LINE
  5
6B6
330
1F
100
AcDbEntity
  8
1
  6
CONTINUOUS
370
50
 62
4
100
AcDbLine
 10
80.0
 20
-2.97154
 30
0.0
 11
79.966965
 21
-2.852293
 31
0.0
  0
LINE
  5
6B7
330
1F
100
AcDbEntity
  8
1
  6
CONTINUOUS
370
50
 62
4
100
AcDbLine
 10
58.792953
 20
1.680481
 30
0.0
 11
58.78806299999999
 21
1.69792
 31
0.0
  0
LINE
  5
6B8
330
1F
100
AcDbEntity
  8
1
  6
CONTINUOUS
370
50
 62
4
100
AcDbLine
 10
79.09266699999999
 20
0.853433
 30
0.0
 11
79.090485
 21
0.861043
 31
0.0
  0
LINE
  5
6B9
330
1F
100
AcDbEntity
  8
1
  6
CONTINUOUS
370
50
 62
4
100
AcDbLine
 10
79.078186
 20
-0.509351
 30
0.0
 11
79.074272
 21
-0.496035
 31
0.0
  0
LINE
  5
6BA
330
1F
100
AcDbEntity
  8
1
  6
CONTINUOUS
370
50
 62
4
100
AcDbLine
 10
79.90901199999999
 20
2.37454
 30
0.0
 11
79.888123
 21
2.441516
 31
0.0
  0
LINE
  5
6BB
330
1F
100
AcDbEntity
  8
1
  6
CONTINUOUS
370
50
 62
4
100
AcDbLine
 10
79.090485
 20
0.861043
 30
0.0
 11
79.087944
 21
0.8691059999999999
 31
0.0
  0
LINE
  5
6BC
330
1F
100
AcDbEntity
  8
1
  6
CONTINUOUS
370
50
 62
4
100
AcDbLine
 10
58.791199
 20
-2.481751
 30
0.0
 11
58.787266
 21
-2.469366
 31
0.0
  0
LINE
  5
6BD
330
1F
100
AcDbEntity
  8
1
  6
CONTINUOUS
370
50
 62
4
100
AcDbLine
 10
79.94245099999999
 20
1.562853
 30
0.0
 11
79.925468
 21
1.616211
 31
0.0
  0
LINE
  5
6BE
330
1F
100
AcDbEntity
  8
1
  6
CONTINUOUS
370
50
 62
4
100
AcDbLine
 10
79.074272
 20
-0.496035
 30
0.0
 11
79.07003
 21
-0.482838
 31
0.0
  0
LINE
  5
6BF
330
1F
100
AcDbEntity
  8
1
  6
CONTINUOUS
370
50
 62
4
100
AcDbLine
 10
79.819031
 20
0.965366
 30
0.0
 11
79.817657
 21
0.9696039999999999
 31
0.0
  0
LINE
  5
6C0
330
1F
100
AcDbEntity
  8
1
  6
CONTINUOUS
370
50
 62
4
100
AcDbLine
 10
79.816216
 20
0.9740289999999999
 30
0.0
 11
79.81472
 21
0.978641
 31
0.0
  0
LINE
  5
6C1
330
1F
100
AcDbEntity
  8
1
  6
CONTINUOUS
370
50
 62
4
100
AcDbLine
 10
79.81472
 20
0.978641
 30
0.0
 11
79.813164
 21
0.983436
 31
0.0
  0
LINE
  5
6C2
330
1F
100
AcDbEntity
  8
1
  6
CONTINUOUS
370
50
 62
4
100
AcDbLine
 10
79.902519
 20
0.708415
 30
0.0
 11
79.88346899999999
 21
0.767064
 31
0.0
  0
LINE
  5
6C3
330
1F
100
AcDbEntity
  8
1
  6
CONTINUOUS
370
50
 62
4
100
AcDbLine
 10
79.947166
 20
0.5710029999999999
 30
0.0
 11
79.923782
 21
0.64298
 31
0.0
  0
LINE
  5
6C4
330
1F
100
AcDbEntity
  8
1
  6
CONTINUOUS
370
50
 62
4
100
AcDbLine
 10
80.0
 20
0.408407
 30
0.0
 11
79.97260299999999
 21
0.492731
 31
0.0
  0
LINE
  5
6C5
330
1F
100
AcDbEntity
  8
1
  6
CONTINUOUS
370
50
 62
4
100
AcDbLine
 10
79.840576
 20
0.89906
 30
0.0
 11
79.83125299999999
 21
0.9277529999999999
 31
0.0
  0
LINE
  5
6C6
330
1F
100
AcDbEntity
  8
1
  6
CONTINUOUS
370
50
 62
4
100
AcDbLine
 10
79.852417
 20
0.8626189999999999
 30
0.0
 11
79.840576
 21
0.89906
 31
0.0
  0
LINE
  5
6C7
330
1F
100
AcDbEntity
  8
1
  6
CONTINUOUS
370
50
 62
4
100
AcDbLine
 10
79.923782
 20
0.64298
 30
0.0
 11
79.902519
 21
0.708415
 31
0.0
  0
LINE
  5
6C8
330
1F
100
AcDbEntity
  8
1
  6
CONTINUOUS
370
50
 62
4
100
AcDbLine
 10
79.86672999999999
 20
0.818573
 30
0.0
 11
79.852417
 21
0.8626189999999999
 31
0.0
  0
LINE
  5
6C9
330
1F
100
AcDbEntity
  8
1
  6
CONTINUOUS
370
50
 62
4
100
AcDbLine
 10
79.88346899999999
 20
0.767064
 30
0.0
 11
79.86672999999999
 21
0.818573
 31
0.0
  0
LINE
  5
6CA
330
1F
100
AcDbEntity
  8
1
  6
CONTINUOUS
370
50
 62
4
100
AcDbLine
 10
79.97260299999999
 20
0.492731
 30
0.0
 11
79.947166
 21
0.5710029999999999
 31
0.0
  0
LINE
  5
6CB
330
1F
100
AcDbEntity
  8
1
  6
CONTINUOUS
370
50
 62
4
100
AcDbLine
 10
79.83125299999999
 20
0.9277529999999999
 30
0.0
 11
79.82449299999999
 21
0.948554
 31
0.0
  0
LINE
  5
6CC
330
1F
100
AcDbEntity
  8
1
  6
CONTINUOUS
370
50
 62
4
100
AcDbLine
 10
79.82449299999999
 20
0.948554
 30
0.0
 11
79.820343
 21
0.9613229999999999
 31
0.0
  0
LINE
  5
6CD
330
1F
100
AcDbEntity
  8
1
  6
CONTINUOUS
370
50
 62
4
100
AcDbLine
 10
79.817657
 20
0.9696039999999999
 30
0.0
 11
79.816216
 21
0.9740289999999999
 31
0.0
  0
LINE
  5
6CE
330
1F
100
AcDbEntity
  8
1
  6
CONTINUOUS
370
50
 62
4
100
AcDbLine
 10
79.813164
 20
0.983436
 30
0.0
 11
79.81154599999999
 21
0.988404
 31
0.0
  0
LINE
  5
6CF
330
1F
100
AcDbEntity
  8
1
  6
CONTINUOUS
370
50
 62
4
100
AcDbLine
 10
79.820351
 20
0.961318
 30
0.0
 11
79.819031
 21
0.965366
 31
0.0
  0
LINE
  5
6D0
330
1F
100
AcDbEntity
  8
1
  6
CONTINUOUS
370
50
 62
4
100
AcDbLine
 10
79.087944
 20
0.8691059999999999
 30
0.0
 11
79.08503
 21
0.877612
 31
0.0
  0
LINE
  5
6D1
330
1F
100
AcDbEntity
  8
1
  6
CONTINUOUS
370
50
 62
4
100
AcDbLine
 10
79.07003
 20
-0.482838
 30
0.0
 11
79.065483
 21
-0.469777
 31
0.0
  0
LINE
  5
6D2
330
1F
100
AcDbEntity
  8
1
  6
CONTINUOUS
370
50
 62
4
100
AcDbLine
 10
79.08503
 20
0.877612
 30
0.0
 11
79.081779
 21
0.8865069999999999
 31
0.0
  0
LINE
  5
6D3
330
1F
100
AcDbEntity
  8
1
  6
CONTINUOUS
370
50
 62
4
100
AcDbLine
 10
79.888123
 20
2.441516
 30
0.0
 11
79.864975
 21
2.501827
 31
0.0
  0
LINE
  5
6D4
330
1F
100
AcDbEntity
  8
1
  6
CONTINUOUS
370
50
 62
4
100
AcDbLine
 10
58.799732
 20
-0.5859369999999999
 30
0.0
 11
58.79189299999999
 21
-0.565531
 31
0.0
  0
LINE
  5
6D5
330
1F
100
AcDbEntity
  8
1
  6
CONTINUOUS
370
50
 62
4
100
AcDbLine
 10
79.081779
 20
0.8865069999999999
 30
0.0
 11
79.078186
 21
0.8957649999999999
 31
0.0
  0
LINE
  5
6D6
330
1F
100
AcDbEntity
  8
1
  6
CONTINUOUS
370
50
 62
4
100
AcDbLine
 10
79.925468
 20
1.616211
 30
0.0
 11
79.90656299999999
 21
1.663789
 31
0.0
  0
LINE
  5
6D7
330
1F
100
AcDbEntity
  8
1
  6
CONTINUOUS
370
50
 62
4
100
AcDbLine
 10
79.078186
 20
0.8957649999999999
 30
0.0
 11
79.074272
 21
0.9053709999999999
 31
0.0
  0
LINE
  5
6D8
330
1F
100
AcDbEntity
  8
1
  6
CONTINUOUS
370
50
 62
4
100
AcDbLine
 10
79.074272
 20
0.9053709999999999
 30
0.0
 11
79.07003
 21
0.9153089999999999
 31
0.0
  0
LINE
  5
6D9
330
1F
100
AcDbEntity
  8
1
  6
CONTINUOUS
370
50
 62
4
100
AcDbLine
 10
79.07003
 20
0.9153089999999999
 30
0.0
 11
79.065483
 21
0.9255639999999999
 31
0.0
  0
LINE
  5
6DA
330
1F
100
AcDbEntity
  8
1
  6
CONTINUOUS
370
50
 62
4
100
AcDbLine
 10
79.864975
 20
2.501827
 30
0.0
 11
79.839371
 21
2.556109
 31
0.0
  0
LINE
  5
6DB
330
1F
100
AcDbEntity
  8
1
  6
CONTINUOUS
370
50
 62
4
100
AcDbLine
 10
58.801159
 20
1.663625
 30
0.0
 11
58.792953
 21
1.680481
 31
0.0
  0
LINE
  5
6DC
330
1F
100
AcDbEntity
  8
1
  6
CONTINUOUS
370
50
 62
4
100
AcDbLine
 10
79.90656299999999
 20
1.663789
 30
0.0
 11
79.885567
 21
1.705959
 31
0.0
  0
LINE
  5
6DD
330
1F
100
AcDbEntity
  8
1
  6
CONTINUOUS
370
50
 62
4
100
AcDbLine
 10
79.039879
 20
-0.410198
 30
0.0
 11
79.03295899999999
 21
-0.396923
 31
0.0
  0
LINE
  5
6DE
330
1F
100
AcDbEntity
  8
1
  6
CONTINUOUS
370
50
 62
4
100
AcDbLine
 10
79.039879
 20
0.97807
 30
0.0
 11
79.033501
 21
0.990188
 31
0.0
  0
LINE
  5
6DF
330
1F
100
AcDbEntity
  8
1
  6
CONTINUOUS
370
50
 62
4
100
AcDbLine
 10
79.033501
 20
0.990188
 30
0.0
 11
79.026894
 21
1.002435
 31
0.0
  0
LINE
  5
6E0
330
1F
100
AcDbEntity
  8
1
  6
CONTINUOUS
370
50
 62
4
100
AcDbLine
 10
79.026894
 20
1.002435
 30
0.0
 11
79.02008099999999
 21
1.014793
 31
0.0
  0
LINE
  5
6E1
330
1F
100
AcDbEntity
  8
1
  6
CONTINUOUS
370
50
 62
4
100
AcDbLine
 10
79.03295899999999
 20
-0.396923
 30
0.0
 11
79.02578
 21
-0.384072
 31
0.0
  0
LINE
  5
6E2
330
1F
100
AcDbEntity
  8
1
  6
CONTINUOUS
370
50
 62
4
100
AcDbLine
 10
58.81052
 20
-0.605156
 30
0.0
 11
58.799732
 21
-0.5859369999999999
 31
0.0
  0
LINE
  5
6E3
330
1F
100
AcDbEntity
  8
1
  6
CONTINUOUS
370
50
 62
4
100
AcDbLine
 10
79.02008099999999
 20
1.014793
 30
0.0
 11
79.013069
 21
1.027239
 31
0.0
  0
LINE
  5
6E4
330
1F
100
AcDbEntity
  8
1
  6
CONTINUOUS
370
50
 62
4
100
AcDbLine
 10
79.013069
 20
1.027239
 30
0.0
 11
79.005875
 21
1.039754
 31
0.0
  0
LINE
  5
6E5
330
1F
100
AcDbEntity
  8
1
  6
CONTINUOUS
370
50
 62
4
100
AcDbLine
 10
79.839371
 20
2.556109
 30
0.0
 11
79.810287
 21
2.606257
 31
0.0
  0
LINE
  5
6E6
330
1F
100
AcDbEntity
  8
1
  6
CONTINUOUS
370
50
 62
4
100
AcDbLine
 10
79.005875
 20
1.039754
 30
0.0
 11
78.99851199999999
 21
1.0523
 31
0.0
  0
LINE
  5
6E7
330
1F
100
AcDbEntity
  8
1
  6
CONTINUOUS
370
50
 62
4
100
AcDbLine
 10
78.99851199999999
 20
1.0523
 30
0.0
 11
78.99101999999999
 21
1.064842
 31
0.0
  0
LINE
  5
6E8
330
1F
100
AcDbEntity
  8
1
  6
CONTINUOUS
370
50
 62
4
100
AcDbLine
 10
79.02578
 20
-0.384072
 30
0.0
 11
79.018356
 21
-0.37166
 31
0.0
  0
LINE
  5
6E9
330
1F
100
AcDbEntity
  8
1
  6
CONTINUOUS
370
50
 62
4
100
AcDbLine
 10
78.99101999999999
 20
1.064842
 30
0.0
 11
78.983398
 21
1.077364
 31
0.0
  0
LINE
  5
6EA
330
1F
100
AcDbEntity
  8
1
  6
CONTINUOUS
370
50
 62
4
100
AcDbLine
 10
78.983398
 20
1.077364
 30
0.0
 11
78.97567
 21
1.089847
 31
0.0
  0
LINE
  5
6EB
330
1F
100
AcDbEntity
  8
1
  6
CONTINUOUS
370
50
 62
4
100
AcDbLine
 10
79.885567
 20
1.705959
 30
0.0
 11
79.862312
 21
1.74309
 31
0.0
  0
LINE
  5
6EC
330
1F
100
AcDbEntity
  8
1
  6
CONTINUOUS
370
50
 62
4
100
AcDbLine
 10
78.97567
 20
1.089847
 30
0.0
 11
78.96784199999999
 21
1.102274
 31
0.0
  0
LINE
  5
6ED
330
1F
100
AcDbEntity
  8
1
  6
CONTINUOUS
370
50
 62
4
100
AcDbLine
 10
79.018356
 20
-0.37166
 30
0.0
 11
79.01070399999999
 21
-0.359702
 31
0.0
  0
LINE
  5
6EE
330
1F
100
AcDbEntity
  8
1
  6
CONTINUOUS
370
50
 62
4
100
AcDbLine
 10
58.798759
 20
-2.493563
 30
0.0
 11
58.791199
 21
-2.481751
 31
0.0
  0
LINE
  5
6EF
330
1F
100
AcDbEntity
  8
1
  6
CONTINUOUS
370
50
 62
4
100
AcDbLine
 10
78.96784199999999
 20
1.102274
 30
0.0
 11
78.95993
 21
1.114628
 31
0.0
  0
LINE
  5
6F0
330
1F
100
AcDbEntity
  8
1
  6
CONTINUOUS
370
50
 62
4
100
AcDbLine
 10
79.01070399999999
 20
-0.359702
 30
0.0
 11
79.00284599999999
 21
-0.348216
 31
0.0
  0
LINE
  5
6F1
330
1F
100
AcDbEntity
  8
1
  6
CONTINUOUS
370
50
 62
4
100
AcDbLine
 10
58.812126
 20
1.647697
 30
0.0
 11
58.801159
 21
1.663625
 31
0.0
  0
LINE
  5
6F2
330
1F
100
AcDbEntity
  8
1
  6
CONTINUOUS
370
50
 62
4
100
AcDbLine
 10
79.810287
 20
2.606257
 30
0.0
 11
79.77683999999999
 21
2.652971
 31
0.0
  0
LINE
  5
6F3
330
1F
100
AcDbEntity
  8
1
  6
CONTINUOUS
370
50
 62
4
100
AcDbLine
 10
79.00284599999999
 20
-0.348216
 30
0.0
 11
78.994812
 21
-0.337237
 31
0.0
  0
LINE
  5
6F4
330
1F
100
AcDbEntity
  8
1
  6
CONTINUOUS
370
50
 62
4
100
AcDbLine
 10
58.823643
 20
-0.6230089999999999
 30
0.0
 11
58.81052
 21
-0.605156
 31
0.0
  0
LINE
  5
6F5
330
1F
100
AcDbEntity
  8
1
  6
CONTINUOUS
370
50
 62
4
100
AcDbLine
 10
78.994812
 20
-0.337237
 30
0.0
 11
78.98661799999999
 21
-0.32678
 31
0.0
  0
LINE
  5
6F6
330
1F
100
AcDbEntity
  8
1
  6
CONTINUOUS
370
50
 62
4
100
AcDbLine
 10
79.862312
 20
1.74309
 30
0.0
 11
79.836624
 21
1.775586
 31
0.0
  0
LINE
  5
6F7
330
1F
100
AcDbEntity
  8
1
  6
CONTINUOUS
370
50
 62
4
100
AcDbLine
 10
61.961723
 20
0.401364
 30
0.0
 11
61.956036
 21
0.408169
 31
0.0
  0
LINE
  5
6F8
330
1F
100
AcDbEntity
  8
1
  6
CONTINUOUS
370
50
 62
4
100
AcDbLine
 10
78.98661799999999
 20
-0.32678
 30
0.0
 11
78.97829399999999
 21
-0.316852
 31
0.0
  0
LINE
  5
6F9
330
1F
100
AcDbEntity
  8
1
  6
CONTINUOUS
370
50
 62
4
100
AcDbLine
 10
58.825275
 20
1.632818
 30
0.0
 11
58.812126
 21
1.647697
 31
0.0
  0
LINE
  5
6FA
330
1F
100
AcDbEntity
  8
1
  6
CONTINUOUS
370
50
 62
4
100
AcDbLine
 10
79.77683999999999
 20
2.652971
 30
0.0
 11
79.738472
 21
2.6962
 31
0.0
  0
LINE
  5
6FB
330
1F
100
AcDbEntity
  8
1
  6
CONTINUOUS
370
50
 62
4
100
AcDbLine
 10
61.967667
 20
0.3947
 30
0.0
 11
61.961723
 21
0.401364
 31
0.0
  0
LINE
  5
6FC
330
1F
100
AcDbEntity
  8
1
  6
CONTINUOUS
370
50
 62
4
100
AcDbLine
 10
78.97829399999999
 20
-0.316852
 30
0.0
 11
78.969849
 21
-0.30746
 31
0.0
  0
LINE
  5
6FD
330
1F
100
AcDbEntity
  8
1
  6
CONTINUOUS
370
50
 62
4
100
AcDbLine
 10
58.838528
 20
-0.639466
 30
0.0
 11
58.823643
 21
-0.6230089999999999
 31
0.0
  0
LINE
  5
6FE
330
1F
100
AcDbEntity
  8
1
  6
CONTINUOUS
370
50
 62
4
100
AcDbLine
 10
79.201714
 20
0.855514
 30
0.0
 11
78.95993
 21
1.114628
 31
0.0
  0
LINE
  5
6FF
330
1F
100
AcDbEntity
  8
1
  6
CONTINUOUS
370
50
 62
4
100
AcDbLine
 10
61.97383499999999
 20
0.388183
 30
0.0
 11
61.967667
 21
0.3947
 31
0.0
  0
LINE
  5
700
330
1F
100
AcDbEntity
  8
1
  6
CONTINUOUS
370
50
 62
4
100
AcDbLine
 10
58.809406
 20
-2.504613
 30
0.0
 11
58.798759
 21
-2.493563
 31
0.0
  0
LINE
  5
701
330
1F
100
AcDbEntity
  8
1
  6
CONTINUOUS
370
50
 62
4
100
AcDbLine
 10
78.969849
 20
-0.30746
 30
0.0
 11
78.96129599999999
 21
-0.298611
 31
0.0
  0
LINE
  5
702
330
1F
100
AcDbEntity
  8
1
  6
CONTINUOUS
370
50
 62
4
100
AcDbLine
 10
61.980186
 20
0.381823
 30
0.0
 11
61.97383499999999
 21
0.388183
 31
0.0
  0
LINE
  5
703
330
1F
100
AcDbEntity
  8
1
  6
CONTINUOUS
370
50
 62
4
100
AcDbLine
 10
79.836624
 20
1.775586
 30
0.0
 11
79.807503
 21
1.804519
 31
0.0
  0
LINE
  5
704
330
1F
100
AcDbEntity
  8
1
  6
CONTINUOUS
370
50
 62
4
100
AcDbLine
 10
58.791451
 20
2.946456
 30
0.0
 11
58.78736499999999
 21
2.950475
 31
0.0
  0
LINE
  5
705
330
1F
100
AcDbEntity
  8
1
  6
CONTINUOUS
370
50
 62
4
100
AcDbLine
 10
61.961723
 20
-1.818407
 30
0.0
 11
61.956036
 21
-1.812939
 31
0.0
  0
LINE
  5
706
330
1F
100
AcDbEntity
  8
1
  6
CONTINUOUS
370
50
 62
4
100
AcDbLine
 10
61.986687
 20
0.375624
 30
0.0
 11
61.980186
 21
0.381823
 31
0.0
  0
LINE
  5
707
330
1F
100
AcDbEntity
  8
1
  6
CONTINUOUS
370
50
 62
4
100
AcDbLine
 10
58.854828
 20
-0.654685
 30
0.0
 11
58.838528
 21
-0.639466
 31
0.0
  0
LINE
  5
708
330
1F
100
AcDbEntity
  8
1
  6
CONTINUOUS
370
50
 62
4
100
AcDbLine
 10
58.840073
 20
1.619029
 30
0.0
 11
58.825275
 21
1.632818
 31
0.0
  0
LINE
  5
709
330
1F
100
AcDbEntity
  8
1
  6
CONTINUOUS
370
50
 62
4
100
AcDbLine
 10
61.993305
 20
0.369596
 30
0.0
 11
61.986687
 21
0.375624
 31
0.0
  0
LINE
  5
70A
330
1F
100
AcDbEntity
  8
1
  6
CONTINUOUS
370
50
 62
4
100
AcDbLine
 10
79.738472
 20
2.6962
 30
0.0
 11
79.694801
 21
2.735773
 31
0.0
  0
LINE
  5
70B
330
1F
100
AcDbEntity
  8
1
  6
CONTINUOUS
370
50
 62
4
100
AcDbLine
 10
61.967667
 20
-1.82375
 30
0.0
 11
61.961723
 21
-1.818407
 31
0.0
  0
LINE
  5
70C
330
1F
100
AcDbEntity
  8
1
  6
CONTINUOUS
370
50
 62
4
100
AcDbLine
 10
62.0
 20
0.363744
 30
0.0
 11
61.993305
 21
0.369596
 31
0.0
  0
LINE
  5
70D
330
1F
100
AcDbEntity
  8
1
  6
CONTINUOUS
370
50
 62
4
100
AcDbLine
 10
61.97383499999999
 20
-1.828964
 30
0.0
 11
61.967667
 21
-1.82375
 31
0.0
  0
LINE
  5
70E
330
1F
100
AcDbEntity
  8
1
  6
CONTINUOUS
370
50
 62
4
100
AcDbLine
 10
79.094872
 20
0.8351879999999999
 30
0.0
 11
79.092743
 21
0.836967
 31
0.0
  0
LINE
  5
70F
330
1F
100
AcDbEntity
  8
1
  6
CONTINUOUS
370
50
 62
4
100
AcDbLine
 10
79.09060699999999
 20
0.8387439999999999
 30
0.0
 11
79.088478
 21
0.8405199999999999
 31
0.0
  0
LINE
  5
710
330
1F
100
AcDbEntity
  8
1
  6
CONTINUOUS
370
50
 62
4
100
AcDbLine
 10
79.097008
 20
0.833407
 30
0.0
 11
79.094872
 21
0.8351879999999999
 31
0.0
  0
LINE
  5
711
330
1F
100
AcDbEntity
  8
1
  6
CONTINUOUS
370
50
 62
4
100
AcDbLine
 10
79.086342
 20
0.842295
 30
0.0
 11
79.08421299999999
 21
0.8440679999999999
 31
0.0
  0
LINE
  5
712
330
1F
100
AcDbEntity
  8
1
  6
CONTINUOUS
370
50
 62
4
100
AcDbLine
 10
79.08421299999999
 20
0.8440679999999999
 30
0.0
 11
79.08208499999999
 21
0.845839
 31
0.0
  0
LINE
  5
713
330
1F
100
AcDbEntity
  8
1
  6
CONTINUOUS
370
50
 62
4
100
AcDbLine
 10
79.092743
 20
0.836967
 30
0.0
 11
79.09060699999999
 21
0.8387439999999999
 31
0.0
  0
LINE
  5
714
330
1F
100
AcDbEntity
  8
1
  6
CONTINUOUS
370
50
 62
4
100
AcDbLine
 10
79.088478
 20
0.8405199999999999
 30
0.0
 11
79.086342
 21
0.842295
 31
0.0
  0
LINE
  5
715
330
1F
100
AcDbEntity
  8
1
  6
CONTINUOUS
370
50
 62
4
100
AcDbLine
 10
58.87244399999999
 20
-0.668932
 30
0.0
 11
58.854828
 21
-0.654685
 31
0.0
  0
LINE
  5
716
330
1F
100
AcDbEntity
  8
1
  6
CONTINUOUS
370
50
 62
4
100
AcDbLine
 10
61.980186
 20
-1.834044
 30
0.0
 11
61.97383499999999
 21
-1.828964
 31
0.0
  0
LINE
  5
717
330
1F
100
AcDbEntity
  8
1
  6
CONTINUOUS
370
50
 62
4
100
AcDbLine
 10
58.856232
 20
1.606179
 30
0.0
 11
58.840073
 21
1.619029
 31
0.0
  0
LINE
  5
718
330
1F
100
AcDbEntity
  8
1
  6
CONTINUOUS
370
50
 62
4
100
AcDbLine
 10
58.822498
 20
-2.514788
 30
0.0
 11
58.809406
 21
-2.504613
 31
0.0
  0
LINE
  5
719
330
1F
100
AcDbEntity
  8
1
  6
CONTINUOUS
370
50
 62
4
100
AcDbLine
 10
79.807503
 20
1.804519
 30
0.0
 11
79.774124
 21
1.830184
 31
0.0
  0
LINE
  5
71A
330
1F
100
AcDbEntity
  8
1
  6
CONTINUOUS
370
50
 62
4
100
AcDbLine
 10
61.986687
 20
-1.838984
 30
0.0
 11
61.980186
 21
-1.834044
 31
0.0
  0
LINE
  5
71B
330
1F
100
AcDbEntity
  8
1
  6
CONTINUOUS
370
50
 62
4
100
AcDbLine
 10
61.961723
 20
2.386021
 30
0.0
 11
61.956036
 21
2.390178
 31
0.0
  0
LINE
  5
71C
330
1F
100
AcDbEntity
  8
1
  6
CONTINUOUS
370
50
 62
4
100
AcDbLine
 10
79.694801
 20
2.735773
 30
0.0
 11
79.64542399999999
 21
2.771767
 31
0.0
  0
LINE
  5
71D
330
1F
100
AcDbEntity
  8
1
  6
CONTINUOUS
370
50
 62
4
100
AcDbLine
 10
61.993305
 20
-1.843781
 30
0.0
 11
61.986687
 21
-1.838984
 31
0.0
  0
LINE
  5
71E
330
1F
100
AcDbEntity
  8
1
  6
CONTINUOUS
370
50
 62
4
100
AcDbLine
 10
58.89109
 20
-0.682221
 30
0.0
 11
58.87244399999999
 21
-0.668932
 31
0.0
  0
LINE
  5
71F
330
1F
100
AcDbEntity
  8
1
  6
CONTINUOUS
370
50
 62
4
100
AcDbLine
 10
58.873642
 20
1.594087
 30
0.0
 11
58.856232
 21
1.606179
 31
0.0
  0
LINE
  5
720
330
1F
100
AcDbEntity
  8
1
  6
CONTINUOUS
370
50
 62
4
100
AcDbLine
 10
62.0
 20
-1.848428
 30
0.0
 11
61.993305
 21
-1.843781
 31
0.0
  0
LINE
  5
721
330
1F
100
AcDbEntity
  8
1
  6
CONTINUOUS
370
50
 62
4
100
AcDbLine
 10
61.967667
 20
2.381939
 30
0.0
 11
61.961723
 21
2.386021
 31
0.0
  0
LINE
  5
722
330
1F
100
AcDbEntity
  8
1
  6
CONTINUOUS
370
50
 62
4
100
AcDbLine
 10
61.97383499999999
 20
2.377938
 30
0.0
 11
61.967667
 21
2.381939
 31
0.0
  0
LINE
  5
723
330
1F
100
AcDbEntity
  8
1
  6
CONTINUOUS
370
50
 62
4
100
AcDbLine
 10
58.910477
 20
-0.694561
 30
0.0
 11
58.89109
 21
-0.682221
 31
0.0
  0
LINE
  5
724
330
1F
100
AcDbEntity
  8
1
  6
CONTINUOUS
370
50
 62
4
100
AcDbLine
 10
58.837444
 20
-2.524092
 30
0.0
 11
58.822498
 21
-2.514788
 31
0.0
  0
LINE
  5
725
330
1F
100
AcDbEntity
  8
1
  6
CONTINUOUS
370
50
 62
4
100
AcDbLine
 10
61.980186
 20
2.374022
 30
0.0
 11
61.97383499999999
 21
2.377938
 31
0.0
  0
LINE
  5
726
330
1F
100
AcDbEntity
  8
1
  6
CONTINUOUS
370
50
 62
4
100
AcDbLine
 10
58.892033
 20
1.582754
 30
0.0
 11
58.873642
 21
1.594087
 31
0.0
  0
LINE
  5
727
330
1F
100
AcDbEntity
  8
1
  6
CONTINUOUS
370
50
 62
4
100
AcDbLine
 10
61.986687
 20
2.370197
 30
0.0
 11
61.980186
 21
2.374022
 31
0.0
  0
LINE
  5
728
330
1F
100
AcDbEntity
  8
1
  6
CONTINUOUS
370
50
 62
4
100
AcDbLine
 10
79.64542399999999
 20
2.771767
 30
0.0
 11
79.589745
 21
2.80445
 31
0.0
  0
LINE
  5
729
330
1F
100
AcDbEntity
  8
1
  6
CONTINUOUS
370
50
 62
4
100
AcDbLine
 10
79.774124
 20
1.830184
 30
0.0
 11
79.735947
 21
1.852459
 31
0.0
  0
LINE
  5
72A
330
1F
100
AcDbEntity
  8
1
  6
CONTINUOUS
370
50
 62
4
100
AcDbLine
 10
58.930313
 20
-0.705963
 30
0.0
 11
58.910477
 21
-0.694561
 31
0.0
  0
LINE
  5
72B
330
1F
100
AcDbEntity
  8
1
  6
CONTINUOUS
370
50
 62
4
100
AcDbLine
 10
61.993305
 20
2.366468
 30
0.0
 11
61.986687
 21
2.370197
 31
0.0
  0
LINE
  5
72C
330
1F
100
AcDbEntity
  8
1
  6
CONTINUOUS
370
50
 62
4
100
AcDbLine
 10
58.911125
 20
1.572179
 30
0.0
 11
58.892033
 21
1.582754
 31
0.0
  0
LINE
  5
72D
330
1F
100
AcDbEntity
  8
1
  6
CONTINUOUS
370
50
 62
4
100
AcDbLine
 10
62.0
 20
2.36284
 30
0.0
 11
61.993305
 21
2.366468
 31
0.0
  0
LINE
  5
72E
330
1F
100
AcDbEntity
  8
1
  6
CONTINUOUS
370
50
 62
4
100
AcDbLine
 10
58.79911
 20
2.942436
 30
0.0
 11
58.791451
 21
2.946456
 31
0.0
  0
LINE
  5
72F
330
1F
100
AcDbEntity
  8
1
  6
CONTINUOUS
370
50
 62
4
100
AcDbLine
 10
58.950302
 20
-0.716437
 30
0.0
 11
58.930313
 21
-0.705963
 31
0.0
  0
LINE
  5
730
330
1F
100
AcDbEntity
  8
1
  6
CONTINUOUS
370
50
 62
4
100
AcDbLine
 10
58.85384
 20
-2.532616
 30
0.0
 11
58.837444
 21
-2.524092
 31
0.0
  0
LINE
  5
731
330
1F
100
AcDbEntity
  8
1
  6
CONTINUOUS
370
50
 62
4
100
AcDbLine
 10
58.93064099999999
 20
1.562364
 30
0.0
 11
58.911125
 21
1.572179
 31
0.0
  0
LINE
  5
732
330
1F
100
AcDbEntity
  8
1
  6
CONTINUOUS
370
50
 62
4
100
AcDbLine
 10
79.589745
 20
2.80445
 30
0.0
 11
79.52720599999999
 21
2.834092
 31
0.0
  0
LINE
  5
733
330
1F
100
AcDbEntity
  8
1
  6
CONTINUOUS
370
50
 62
4
100
AcDbLine
 10
58.950302
 20
1.553308
 30
0.0
 11
58.93064099999999
 21
1.562364
 31
0.0
  0
LINE
  5
734
330
1F
100
AcDbEntity
  8
1
  6
CONTINUOUS
370
50
 62
4
100
AcDbLine
 10
61.956036
 20
0.408169
 30
0.0
 11
61.528645
 21
0.6012799999999999
 31
0.0
  0
LINE
  5
735
330
1F
100
AcDbEntity
  8
1
  6
CONTINUOUS
370
50
 62
4
100
AcDbLine
 10
61.528645
 20
0.6012799999999999
 30
0.0
 11
61.110416
 21
0.7883199999999999
 31
0.0
  0
LINE
  5
736
330
1F
100
AcDbEntity
  8
1
  6
CONTINUOUS
370
50
 62
4
100
AcDbLine
 10
58.87159699999999
 20
-2.540534
 30
0.0
 11
58.85384
 21
-2.532616
 31
0.0
  0
LINE
  5
737
330
1F
100
AcDbEntity
  8
1
  6
CONTINUOUS
370
50
 62
4
100
AcDbLine
 10
79.735947
 20
1.852459
 30
0.0
 11
79.692596
 21
1.871196
 31
0.0
  0
LINE
  5
738
330
1F
100
AcDbEntity
  8
1
  6
CONTINUOUS
370
50
 62
4
100
AcDbLine
 10
61.110416
 20
0.7883199999999999
 30
0.0
 11
60.6908
 21
0.968521
 31
0.0
  0
LINE
  5
739
330
1F
100
AcDbEntity
  8
1
  6
CONTINUOUS
370
50
 62
4
100
AcDbLine
 10
60.6908
 20
0.968521
 30
0.0
 11
60.260414
 21
1.140648
 31
0.0
  0
LINE
  5
73A
330
1F
100
AcDbEntity
  8
1
  6
CONTINUOUS
370
50
 62
4
100
AcDbLine
 10
61.110416
 20
-1.489277
 30
0.0
 11
60.6908
 21
-1.322833
 31
0.0
  0
LINE
  5
73B
330
1F
100
AcDbEntity
  8
1
  6
CONTINUOUS
370
50
 62
4
100
AcDbLine
 10
61.528645
 20
-1.653052
 30
0.0
 11
61.110416
 21
-1.489277
 31
0.0
  0
LINE
  5
73C
330
1F
100
AcDbEntity
  8
1
  6
CONTINUOUS
370
50
 62
4
100
AcDbLine
 10
58.890427
 20
-2.547867
 30
0.0
 11
58.87159699999999
 21
-2.540534
 31
0.0
  0
LINE
  5
73D
330
1F
100
AcDbEntity
  8
1
  6
CONTINUOUS
370
50
 62
4
100
AcDbLine
 10
60.6908
 20
-1.322833
 30
0.0
 11
60.260414
 21
-1.155409
 31
0.0
  0
LINE
  5
73E
330
1F
100
AcDbEntity
  8
1
  6
CONTINUOUS
370
50
 62
4
100
AcDbLine
 10
79.52720599999999
 20
2.834092
 30
0.0
 11
79.45876299999999
 21
2.860415
 31
0.0
  0
LINE
  5
73F
330
1F
100
AcDbEntity
  8
1
  6
CONTINUOUS
370
50
 62
4
100
AcDbLine
 10
61.956036
 20
-1.812939
 30
0.0
 11
61.528645
 21
-1.653052
 31
0.0
  0
LINE
  5
740
330
1F
100
AcDbEntity
  8
1
  6
CONTINUOUS
370
50
 62
4
100
AcDbLine
 10
60.260414
 20
-1.155409
 30
0.0
 11
59.82835
 21
-0.9959429999999999
 31
0.0
  0
LINE
  5
741
330
1F
100
AcDbEntity
  8
1
  6
CONTINUOUS
370
50
 62
4
100
AcDbLine
 10
60.260414
 20
1.140648
 30
0.0
 11
59.82835
 21
1.296757
 31
0.0
  0
LINE
  5
742
330
1F
100
AcDbEntity
  8
1
  6
CONTINUOUS
370
50
 62
4
100
AcDbLine
 10
58.811329
 20
2.938025
 30
0.0
 11
58.79911
 21
2.942436
 31
0.0
  0
LINE
  5
743
330
1F
100
AcDbEntity
  8
1
  6
CONTINUOUS
370
50
 62
4
100
AcDbLine
 10
58.910019
 20
-2.55463
 30
0.0
 11
58.890427
 21
-2.547867
 31
0.0
  0
LINE
  5
744
330
1F
100
AcDbEntity
  8
1
  6
CONTINUOUS
370
50
 62
4
100
AcDbLine
 10
59.82835
 20
-0.9959429999999999
 30
0.0
 11
59.393929
 21
-0.8489599999999999
 31
0.0
  0
LINE
  5
745
330
1F
100
AcDbEntity
  8
1
  6
CONTINUOUS
370
50
 62
4
100
AcDbLine
 10
59.82835
 20
1.296757
 30
0.0
 11
59.393929
 21
1.434282
 31
0.0
  0
LINE
  5
746
330
1F
100
AcDbEntity
  8
1
  6
CONTINUOUS
370
50
 62
4
100
AcDbLine
 10
79.45876299999999
 20
2.860415
 30
0.0
 11
79.38787099999999
 21
2.882834
 31
0.0
  0
LINE
  5
747
330
1F
100
AcDbEntity
  8
1
  6
CONTINUOUS
370
50
 62
4
100
AcDbLine
 10
79.692596
 20
1.871196
 30
0.0
 11
79.643631
 21
1.886374
 31
0.0
  0
LINE
  5
748
330
1F
100
AcDbEntity
  8
1
  6
CONTINUOUS
370
50
 62
4
100
AcDbLine
 10
58.93008
 20
-2.560836
 30
0.0
 11
58.910019
 21
-2.55463
 31
0.0
  0
LINE
  5
749
330
1F
100
AcDbEntity
  8
1
  6
CONTINUOUS
370
50
 62
4
100
AcDbLine
 10
59.393929
 20
-0.8489599999999999
 30
0.0
 11
58.950302
 21
-0.716437
 31
0.0
  0
LINE
  5
74A
330
1F
100
AcDbEntity
  8
1
  6
CONTINUOUS
370
50
 62
4
100
AcDbLine
 10
58.950302
 20
-2.566503
 30
0.0
 11
58.93008
 21
-2.560836
 31
0.0
  0
LINE
  5
74B
330
1F
100
AcDbEntity
  8
1
  6
CONTINUOUS
370
50
 62
4
100
AcDbLine
 10
58.826496
 20
2.933821
 30
0.0
 11
58.811329
 21
2.938025
 31
0.0
  0
LINE
  5
74C
330
1F
100
AcDbEntity
  8
1
  6
CONTINUOUS
370
50
 62
4
100
AcDbLine
 10
59.393929
 20
1.434282
 30
0.0
 11
58.950302
 21
1.553308
 31
0.0
  0
LINE
  5
74D
330
1F
100
AcDbEntity
  8
1
  6
CONTINUOUS
370
50
 62
4
100
AcDbLine
 10
61.956036
 20
2.390178
 30
0.0
 11
61.528645
 21
2.50339
 31
0.0
  0
LINE
  5
74E
330
1F
100
AcDbEntity
  8
1
  6
CONTINUOUS
370
50
 62
4
100
AcDbLine
 10
79.38787099999999
 20
2.882834
 30
0.0
 11
79.31639899999999
 21
2.90175
 31
0.0
  0
LINE
  5
74F
330
1F
100
AcDbEntity
  8
1
  6
CONTINUOUS
370
50
 62
4
100
AcDbLine
 10
61.528645
 20
2.50339
 30
0.0
 11
61.110416
 21
2.60413
 31
0.0
  0
LINE
  5
750
330
1F
100
AcDbEntity
  8
1
  6
CONTINUOUS
370
50
 62
4
100
AcDbLine
 10
58.84379999999999
 20
2.929868
 30
0.0
 11
58.826496
 21
2.933821
 31
0.0
  0
LINE
  5
751
330
1F
100
AcDbEntity
  8
1
  6
CONTINUOUS
370
50
 62
4
100
AcDbLine
 10
79.31639899999999
 20
2.90175
 30
0.0
 11
79.245781
 21
2.917661
 31
0.0
  0
LINE
  5
752
330
1F
100
AcDbEntity
  8
1
  6
CONTINUOUS
370
50
 62
4
100
AcDbLine
 10
79.643631
 20
1.886374
 30
0.0
 11
79.588486
 21
1.898059
 31
0.0
  0
LINE
  5
753
330
1F
100
AcDbEntity
  8
1
  6
CONTINUOUS
370
50
 62
4
100
AcDbLine
 10
61.110416
 20
2.60413
 30
0.0
 11
60.6908
 21
2.692528
 31
0.0
  0
LINE
  5
754
330
1F
100
AcDbEntity
  8
1
  6
CONTINUOUS
370
50
 62
4
100
AcDbLine
 10
58.862904
 20
2.926122
 30
0.0
 11
58.84379999999999
 21
2.929868
 31
0.0
  0
LINE
  5
755
330
1F
100
AcDbEntity
  8
1
  6
CONTINUOUS
370
50
 62
4
100
AcDbLine
 10
79.245781
 20
2.917661
 30
0.0
 11
79.17371399999999
 21
2.931671
 31
0.0
  0
LINE
  5
756
330
1F
100
AcDbEntity
  8
1
  6
CONTINUOUS
370
50
 62
4
100
AcDbLine
 10
60.6908
 20
2.692528
 30
0.0
 11
60.260414
 21
2.768529
 31
0.0
  0
LINE
  5
757
330
1F
100
AcDbEntity
  8
1
  6
CONTINUOUS
370
50
 62
4
100
AcDbLine
 10
58.88353
 20
2.922561
 30
0.0
 11
58.862904
 21
2.926122
 31
0.0
  0
LINE
  5
758
330
1F
100
AcDbEntity
  8
1
  6
CONTINUOUS
370
50
 62
4
100
AcDbLine
 10
79.17371399999999
 20
2.931671
 30
0.0
 11
79.100319
 21
2.944104
 31
0.0
  0
LINE
  5
759
330
1F
100
AcDbEntity
  8
1
  6
CONTINUOUS
370
50
 62
4
100
AcDbLine
 10
61.961723
 20
-2.972979
 30
0.0
 11
61.956036
 21
-2.972053
 31
0.0
  0
LINE
  5
75A
330
1F
100
AcDbEntity
  8
1
  6
CONTINUOUS
370
50
 62
4
100
AcDbLine
 10
59.82835
 20
-2.705232
 30
0.0
 11
59.393929
 21
-2.634893
 31
0.0
  0
LINE
  5
75B
330
1F
100
AcDbEntity
  8
1
  6
CONTINUOUS
370
50
 62
4
100
AcDbLine
 10
60.260414
 20
-2.774642
 30
0.0
 11
59.82835
 21
-2.705232
 31
0.0
  0
LINE
  5
75C
330
1F
100
AcDbEntity
  8
1
  6
CONTINUOUS
370
50
 62
4
100
AcDbLine
 10
58.905254
 20
2.919201
 30
0.0
 11
58.88353
 21
2.922561
 31
0.0
  0
LINE
  5
75D
330
1F
100
AcDbEntity
  8
1
  6
CONTINUOUS
370
50
 62
4
100
AcDbLine
 10
59.393929
 20
-2.634893
 30
0.0
 11
58.950302
 21
-2.566503
 31
0.0
  0
LINE
  5
75E
330
1F
100
AcDbEntity
  8
1
  6
CONTINUOUS
370
50
 62
4
100
AcDbLine
 10
60.6908
 20
-2.839289
 30
0.0
 11
60.260414
 21
-2.774642
 31
0.0
  0
LINE
  5
75F
330
1F
100
AcDbEntity
  8
1
  6
CONTINUOUS
370
50
 62
4
100
AcDbLine
 10
61.967667
 20
-2.973871
 30
0.0
 11
61.961723
 21
-2.972979
 31
0.0
  0
LINE
  5
760
330
1F
100
AcDbEntity
  8
1
  6
CONTINUOUS
370
50
 62
4
100
AcDbLine
 10
79.100319
 20
2.944104
 30
0.0
 11
79.026611
 21
2.955068
 31
0.0
  0
LINE
  5
761
330
1F
100
AcDbEntity
  8
1
  6
CONTINUOUS
370
50
 62
4
100
AcDbLine
 10
60.260414
 20
2.768529
 30
0.0
 11
59.82835
 21
2.829834
 31
0.0
  0
LINE
  5
762
330
1F
100
AcDbEntity
  8
1
  6
CONTINUOUS
370
50
 62
4
100
AcDbLine
 10
58.927654
 20
2.916058
 30
0.0
 11
58.905254
 21
2.919201
 31
0.0
  0
LINE
  5
763
330
1F
100
AcDbEntity
  8
1
  6
CONTINUOUS
370
50
 62
4
100
AcDbLine
 10
61.97383499999999
 20
-2.974729
 30
0.0
 11
61.967667
 21
-2.973871
 31
0.0
  0
LINE
  5
764
330
1F
100
AcDbEntity
  8
1
  6
CONTINUOUS
370
50
 62
4
100
AcDbLine
 10
79.588486
 20
1.898059
 30
0.0
 11
79.526596
 21
1.906317
 31
0.0
  0
LINE
  5
765
330
1F
100
AcDbEntity
  8
1
  6
CONTINUOUS
370
50
 62
4
100
AcDbLine
 10
79.026611
 20
2.955068
 30
0.0
 11
78.953606
 21
2.964675
 31
0.0
  0
LINE
  5
766
330
1F
100
AcDbEntity
  8
1
  6
CONTINUOUS
370
50
 62
4
100
AcDbLine
 10
61.110416
 20
-2.894476
 30
0.0
 11
60.6908
 21
-2.839289
 31
0.0
  0
LINE
  5
767
330
1F
100
AcDbEntity
  8
1
  6
CONTINUOUS
370
50
 62
4
100
AcDbLine
 10
61.980186
 20
-2.975552
 30
0.0
 11
61.97383499999999
 21
-2.974729
 31
0.0
  0
LINE
  5
768
330
1F
100
AcDbEntity
  8
1
  6
CONTINUOUS
370
50
 62
4
100
AcDbLine
 10
58.950302
 20
2.913146
 30
0.0
 11
58.927654
 21
2.916058
 31
0.0
  0
LINE
  5
769
330
1F
100
AcDbEntity
  8
1
  6
CONTINUOUS
370
50
 62
4
100
AcDbLine
 10
61.986687
 20
-2.976341
 30
0.0
 11
61.980186
 21
-2.975552
 31
0.0
  0
LINE
  5
76A
330
1F
100
AcDbEntity
  8
1
  6
CONTINUOUS
370
50
 62
4
100
AcDbLine
 10
78.953606
 20
2.964675
 30
0.0
 11
78.882286
 21
2.973038
 31
0.0
  0
LINE
  5
76B
330
1F
100
AcDbEntity
  8
1
  6
CONTINUOUS
370
50
 62
4
100
AcDbLine
 10
61.993305
 20
-2.977096
 30
0.0
 11
61.986687
 21
-2.976341
 31
0.0
  0
LINE
  5
76C
330
1F
100
AcDbEntity
  8
1
  6
CONTINUOUS
370
50
 62
4
100
AcDbLine
 10
59.82835
 20
2.829834
 30
0.0
 11
59.393929
 21
2.877341
 31
0.0
  0
LINE
  5
76D
330
1F
100
AcDbEntity
  8
1
  6
CONTINUOUS
370
50
 62
4
100
AcDbLine
 10
62.0
 20
-2.977816
 30
0.0
 11
61.993305
 21
-2.977096
 31
0.0
  0
LINE
  5
76E
330
1F
100
AcDbEntity
  8
1
  6
CONTINUOUS
370
50
 62
4
100
AcDbLine
 10
61.528645
 20
-2.939048
 30
0.0
 11
61.110416
 21
-2.894476
 31
0.0
  0
LINE
  5
76F
330
1F
100
AcDbEntity
  8
1
  6
CONTINUOUS
370
50
 62
4
100
AcDbLine
 10
78.882286
 20
2.973038
 30
0.0
 11
78.810982
 21
2.980524
 31
0.0
  0
LINE
  5
770
330
1F
100
AcDbEntity
  8
1
  6
CONTINUOUS
370
50
 62
4
100
AcDbLine
 10
59.393929
 20
2.877341
 30
0.0
 11
58.950302
 21
2.913146
 31
0.0
  0
LINE
  5
771
330
1F
100
AcDbEntity
  8
1
  6
CONTINUOUS
370
50
 62
4
100
AcDbLine
 10
65.992203
 20
2.846102
 30
0.0
 11
65.402542
 21
2.891641
 31
0.0
  0
LINE
  5
772
330
1F
100
AcDbEntity
  8
1
  6
CONTINUOUS
370
50
 62
4
100
AcDbLine
 10
61.956036
 20
-2.972053
 30
0.0
 11
61.528645
 21
-2.939048
 31
0.0
  0
LINE
  5
773
330
1F
100
AcDbEntity
  8
1
  6
CONTINUOUS
370
50
 62
4
100
AcDbLine
 10
66.56964099999999
 20
-2.890327
 30
0.0
 11
65.994621
 21
-2.846152
 31
0.0
  0
LINE
  5
774
330
1F
100
AcDbEntity
  8
1
  6
CONTINUOUS
370
50
 62
4
100
AcDbLine
 10
75.38632199999999
 20
-2.890304
 30
0.0
 11
74.79997999999999
 21
-2.845923
 31
0.0
  0
LINE
  5
775
330
1F
100
AcDbEntity
  8
1
  6
CONTINUOUS
370
50
 62
4
100
AcDbLine
 10
74.79710399999999
 20
2.846554
 30
0.0
 11
74.184349
 21
2.892919
 31
0.0
  0
LINE
  5
776
330
1F
100
AcDbEntity
  8
1
  6
CONTINUOUS
370
50
 62
4
100
AcDbLine
 10
79.526596
 20
1.906317
 30
0.0
 11
79.458534
 21
1.911156
 31
0.0
  0
LINE
  5
777
330
1F
100
AcDbEntity
  8
1
  6
CONTINUOUS
370
50
 62
4
100
AcDbLine
 10
65.402542
 20
2.891641
 30
0.0
 11
64.812241
 21
2.929739
 31
0.0
  0
LINE
  5
778
330
1F
100
AcDbEntity
  8
1
  6
CONTINUOUS
370
50
 62
4
100
AcDbLine
 10
67.149323
 20
-2.927292
 30
0.0
 11
66.56964099999999
 21
-2.890327
 31
0.0
  0
LINE
  5
779
330
1F
100
AcDbEntity
  8
1
  6
CONTINUOUS
370
50
 62
4
100
AcDbLine
 10
75.975555
 20
-2.9274
 30
0.0
 11
75.38632199999999
 21
-2.890304
 31
0.0
  0
LINE
  5
77A
330
1F
100
AcDbEntity
  8
1
  6
CONTINUOUS
370
50
 62
4
100
AcDbLine
 10
74.184349
 20
2.892919
 30
0.0
 11
73.57003
 21
2.931419
 31
0.0
  0
LINE
  5
77B
330
1F
100
AcDbEntity
  8
1
  6
CONTINUOUS
370
50
 62
4
100
AcDbLine
 10
64.812241
 20
2.929739
 30
0.0
 11
64.222565
 21
2.960016
 31
0.0
  0
LINE
  5
77C
330
1F
100
AcDbEntity
  8
1
  6
CONTINUOUS
370
50
 62
4
100
AcDbLine
 10
67.732841
 20
-2.956915
 30
0.0
 11
67.149323
 21
-2.927292
 31
0.0
  0
LINE
  5
77D
330
1F
100
AcDbEntity
  8
1
  6
CONTINUOUS
370
50
 62
4
100
AcDbLine
 10
76.566345
 20
-2.95705
 30
0.0
 11
75.975555
 21
-2.9274
 31
0.0
  0
LINE
  5
77E
330
1F
100
AcDbEntity
  8
1
  6
CONTINUOUS
370
50
 62
4
100
AcDbLine
 10
73.57003
 20
2.931419
 30
0.0
 11
72.955376
 21
2.96171
 31
0.0
  0
LINE
  5
77F
330
1F
100
AcDbEntity
  8
1
  6
CONTINUOUS
370
50
 62
4
100
AcDbLine
 10
68.31850399999999
 20
-2.978986
 30
0.0
 11
67.732841
 21
-2.956915
 31
0.0
  0
LINE
  5
780
330
1F
100
AcDbEntity
  8
1
  6
CONTINUOUS
370
50
 62
4
100
AcDbLine
 10
64.222565
 20
2.960016
 30
0.0
 11
63.635395
 21
2.982079
 31
0.0
  0
LINE
  5
781
330
1F
100
AcDbEntity
  8
1
  6
CONTINUOUS
370
50
 62
4
100
AcDbLine
 10
77.15731799999999
 20
-2.979091
 30
0.0
 11
76.566345
 21
-2.95705
 31
0.0
  0
LINE
  5
782
330
1F
100
AcDbEntity
  8
1
  6
CONTINUOUS
370
50
 62
4
100
AcDbLine
 10
72.955376
 20
2.96171
 30
0.0
 11
72.34161399999999
 21
2.983448
 31
0.0
  0
LINE
  5
783
330
1F
100
AcDbEntity
  8
1
  6
CONTINUOUS
370
50
 62
4
100
AcDbLine
 10
68.90458699999999
 20
-2.993294
 30
0.0
 11
68.31850399999999
 21
-2.978986
 31
0.0
  0
LINE
  5
784
330
1F
100
AcDbEntity
  8
1
  6
CONTINUOUS
370
50
 62
4
100
AcDbLine
 10
77.74713899999999
 20
-2.993363
 30
0.0
 11
77.15731799999999
 21
-2.979091
 31
0.0
  0
LINE
  5
785
330
1F
100
AcDbEntity
  8
1
  6
CONTINUOUS
370
50
 62
4
100
AcDbLine
 10
79.458534
 20
1.911156
 30
0.0
 11
79.387817
 21
1.912787
 31
0.0
  0
LINE
  5
786
330
1F
100
AcDbEntity
  8
1
  6
CONTINUOUS
370
50
 62
4
100
AcDbLine
 10
63.635395
 20
2.982079
 30
0.0
 11
63.049274
 21
2.995508
 31
0.0
  0
LINE
  5
787
330
1F
100
AcDbEntity
  8
1
  6
CONTINUOUS
370
50
 62
4
100
AcDbLine
 10
72.34161399999999
 20
2.983448
 30
0.0
 11
71.72998
 21
2.996287
 31
0.0
  0
LINE
  5
788
330
1F
100
AcDbEntity
  8
1
  6
CONTINUOUS
370
50
 62
4
100
AcDbLine
 10
69.48938
 20
-2.99963
 30
0.0
 11
68.90458699999999
 21
-2.993294
 31
0.0
  0
LINE
  5
789
330
1F
100
AcDbEntity
  8
1
  6
CONTINUOUS
370
50
 62
4
100
AcDbLine
 10
78.334442
 20
-2.999703
 30
0.0
 11
77.74713899999999
 21
-2.993363
 31
0.0
  0
LINE
  5
78A
330
1F
100
AcDbEntity
  8
1
  6
CONTINUOUS
370
50
 62
4
100
AcDbLine
 10
63.049274
 20
2.995508
 30
0.0
 11
62.45049299999999
 21
2.999968
 31
0.0
  0
LINE
  5
78B
330
1F
100
AcDbEntity
  8
1
  6
CONTINUOUS
370
50
 62
4
100
AcDbLine
 10
71.72998
 20
2.996287
 30
0.0
 11
71.12149
 21
2.999889
 31
0.0
  0
LINE
  5
78C
330
1F
100
AcDbEntity
  8
1
  6
CONTINUOUS
370
50
 62
4
100
AcDbLine
 10
78.615135
 20
-2.999881
 30
0.0
 11
78.334442
 21
-2.999703
 31
0.0
  0
LINE
  5
78D
330
1F
100
AcDbEntity
  8
1
  6
CONTINUOUS
370
50
 62
4
100
AcDbLine
 10
62.452686
 20
-2.999902
 30
0.0
 11
62.0
 21
-2.9999
 31
0.0
  0
LINE
  5
78E
330
1F
100
AcDbEntity
  8
1
  6
CONTINUOUS
370
50
 62
4
100
AcDbLine
 10
71.196342
 20
-2.999951
 30
0.0
 11
69.650894
 21
-2.999943
 31
0.0
  0
LINE
  5
78F
330
1F
100
AcDbEntity
  8
1
  6
CONTINUOUS
370
50
 62
4
100
AcDbLine
 10
80.0
 20
-3.0
 30
0.0
 11
78.500732
 21
-2.999992
 31
0.0
  0
LINE
  5
790
330
1F
100
AcDbEntity
  8
1
  6
CONTINUOUS
370
50
 62
4
100
AcDbLine
 10
56.0
 20
-2.99995
 30
0.0
 11
62.0
 21
-2.99995
 31
0.0
  0
LINE
  5
791
330
1F
100
AcDbEntity
  8
1
  6
CONTINUOUS
370
50
 62
4
100
AcDbLine
 10
56.0
 20
2.99995
 30
0.0
 11
62.0
 21
2.99995
 31
0.0
  0
LINE
  5
792
330
1F
100
AcDbEntity
  8
1
  6
CONTINUOUS
370
50
 62
4
100
AcDbLine
 10
62.0
 20
2.9999
 30
0.0
 11
62.452686
 21
2.999902
 31
0.0
  0
LINE
  5
793
330
1F
100
AcDbEntity
  8
1
  6
CONTINUOUS
370
50
 62
4
100
AcDbLine
 10
78.500748
 20
2.999992
 30
0.0
 11
80.0
 21
3.0
 31
0.0
  0
LINE
  5
794
330
1F
100
AcDbEntity
  8
1
  6
CONTINUOUS
370
50
 62
4
100
AcDbLine
 10
69.650894
 20
2.999943
 30
0.0
 11
71.196342
 21
2.999951
 31
0.0
  0
LINE
  5
795
330
1F
100
AcDbEntity
  8
1
  6
CONTINUOUS
370
50
 62
4
100
AcDbLine
 10
61.645447
 20
2.997657
 30
0.0
 11
62.0
 21
2.997908
 31
0.0
  0
LINE
  5
796
330
1F
100
AcDbEntity
  8
1
  6
CONTINUOUS
370
50
 62
4
100
AcDbLine
 10
61.291019
 20
2.997302
 30
0.0
 11
61.645447
 21
2.997657
 31
0.0
  0
LINE
  5
797
330
1F
100
AcDbEntity
  8
1
  6
CONTINUOUS
370
50
 62
4
100
AcDbLine
 10
62.376572
 20
2.999883
 30
0.0
 11
62.45049299999999
 21
2.999968
 31
0.0
  0
LINE
  5
798
330
1F
100
AcDbEntity
  8
1
  6
CONTINUOUS
370
50
 62
4
100
AcDbLine
 10
60.93671
 20
2.996816
 30
0.0
 11
61.291019
 21
2.997302
 31
0.0
  0
LINE
  5
799
330
1F
100
AcDbEntity
  8
1
  6
CONTINUOUS
370
50
 62
4
100
AcDbLine
 10
60.582508
 20
2.996172
 30
0.0
 11
60.93671
 21
2.996816
 31
0.0
  0
LINE
  5
79A
330
1F
100
AcDbEntity
  8
1
  6
CONTINUOUS
370
50
 62
4
100
AcDbLine
 10
60.228405
 20
2.995344
 30
0.0
 11
60.582508
 21
2.996172
 31
0.0
  0
LINE
  5
79B
330
1F
100
AcDbEntity
  8
1
  6
CONTINUOUS
370
50
 62
4
100
AcDbLine
 10
59.87439699999999
 20
2.994304
 30
0.0
 11
60.228405
 21
2.995344
 31
0.0
  0
LINE
  5
79C
330
1F
100
AcDbEntity
  8
1
  6
CONTINUOUS
370
50
 62
4
100
AcDbLine
 10
62.30221899999999
 20
2.999663
 30
0.0
 11
62.376572
 21
2.999883
 31
0.0
  0
LINE
  5
79D
330
1F
100
AcDbEntity
  8
1
  6
CONTINUOUS
370
50
 62
4
100
AcDbLine
 10
59.52047
 20
2.993026
 30
0.0
 11
59.87439699999999
 21
2.994304
 31
0.0
  0
LINE
  5
79E
330
1F
100
AcDbEntity
  8
1
  6
CONTINUOUS
370
50
 62
4
100
AcDbLine
 10
59.48450099999999
 20
2.992862
 30
0.0
 11
59.52047
 21
2.993026
 31
0.0
  0
LINE
  5
79F
330
1F
100
AcDbEntity
  8
1
  6
CONTINUOUS
370
50
 62
4
100
AcDbLine
 10
62.227413
 20
2.999306
 30
0.0
 11
62.30221899999999
 21
2.999663
 31
0.0
  0
LINE
  5
7A0
330
1F
100
AcDbEntity
  8
1
  6
CONTINUOUS
370
50
 62
4
100
AcDbLine
 10
59.44891399999999
 20
2.992656
 30
0.0
 11
59.48450099999999
 21
2.992862
 31
0.0
  0
LINE
  5
7A1
330
1F
100
AcDbEntity
  8
1
  6
CONTINUOUS
370
50
 62
4
100
AcDbLine
 10
78.615135
 20
-2.999881
 30
0.0
 11
78.894798
 21
-2.998175
 31
0.0
  0
LINE
  5
7A2
330
1F
100
AcDbEntity
  8
1
  6
CONTINUOUS
370
50
 62
4
100
AcDbLine
 10
62.152126
 20
2.998811
 30
0.0
 11
62.227413
 21
2.999306
 31
0.0
  0
LINE
  5
7A3
330
1F
100
AcDbEntity
  8
1
  6
CONTINUOUS
370
50
 62
4
100
AcDbLine
 10
59.413754
 20
2.992405
 30
0.0
 11
59.44891399999999
 21
2.992656
 31
0.0
  0
LINE
  5
7A4
330
1F
100
AcDbEntity
  8
1
  6
CONTINUOUS
370
50
 62
4
100
AcDbLine
 10
62.076332
 20
2.998178
 30
0.0
 11
62.152126
 21
2.998811
 31
0.0
  0
LINE
  5
7A5
330
1F
100
AcDbEntity
  8
1
  6
CONTINUOUS
370
50
 62
4
100
AcDbLine
 10
69.48938
 20
-2.99963
 30
0.0
 11
70.491005
 21
-2.991189
 31
0.0
  0
LINE
  5
7A6
330
1F
100
AcDbEntity
  8
1
  6
CONTINUOUS
370
50
 62
4
100
AcDbLine
 10
59.379063
 20
2.992108
 30
0.0
 11
59.413754
 21
2.992405
 31
0.0
  0
LINE
  5
7A7
330
1F
100
AcDbEntity
  8
1
  6
CONTINUOUS
370
50
 62
4
100
AcDbLine
 10
62.0
 20
2.997407
 30
0.0
 11
62.076332
 21
2.998178
 31
0.0
  0
LINE
  5
7A8
330
1F
100
AcDbEntity
  8
1
  6
CONTINUOUS
370
50
 62
4
100
AcDbLine
 10
59.34487499999999
 20
2.991761
 30
0.0
 11
59.379063
 21
2.992108
 31
0.0
  0
LINE
  5
7A9
330
1F
100
AcDbEntity
  8
1
  6
CONTINUOUS
370
50
 62
4
100
AcDbLine
 10
71.12149
 20
-2.999889
 30
0.0
 11
72.080017
 21
-2.990041
 31
0.0
  0
LINE
  5
7AA
330
1F
100
AcDbEntity
  8
1
  6
CONTINUOUS
370
50
 62
4
100
AcDbLine
 10
59.311241
 20
2.991363
 30
0.0
 11
59.34487499999999
 21
2.991761
 31
0.0
  0
LINE
  5
7AB
330
1F
100
AcDbEntity
  8
1
  6
CONTINUOUS
370
50
 62
4
100
AcDbLine
 10
62.45049299999999
 20
-2.999968
 30
0.0
 11
63.416912
 21
-2.988126
 31
0.0
  0
LINE
  5
7AC
330
1F
100
AcDbEntity
  8
1
  6
CONTINUOUS
370
50
 62
4
100
AcDbLine
 10
78.894798
 20
-2.998175
 30
0.0
 11
79.173264
 21
-2.994567
 31
0.0
  0
LINE
  5
7AD
330
1F
100
AcDbEntity
  8
1
  6
CONTINUOUS
370
50
 62
4
100
AcDbLine
 10
61.645447
 20
-2.202705
 30
0.0
 11
62.0
 21
-2.198096
 31
0.0
  0
LINE
  5
7AE
330
1F
100
AcDbEntity
  8
1
  6
CONTINUOUS
370
50
 62
4
100
AcDbLine
 10
79.316368
 20
1.911841
 30
0.0
 11
79.387817
 21
1.912787
 31
0.0
  0
LINE
  5
7AF
330
1F
100
AcDbEntity
  8
1
  6
CONTINUOUS
370
50
 62
4
100
AcDbLine
 10
59.278194
 20
2.990911
 30
0.0
 11
59.311241
 21
2.991363
 31
0.0
  0
LINE
  5
7B0
330
1F
100
AcDbEntity
  8
1
  6
CONTINUOUS
370
50
 62
4
100
AcDbLine
 10
70.187996
 20
2.987044
 30
0.0
 11
71.12149
 21
2.999889
 31
0.0
  0
LINE
  5
7B1
330
1F
100
AcDbEntity
  8
1
  6
CONTINUOUS
370
50
 62
4
100
AcDbLine
 10
61.645447
 20
2.036622
 30
0.0
 11
62.0
 21
2.041586
 31
0.0
  0
LINE
  5
7B2
330
1F
100
AcDbEntity
  8
1
  6
CONTINUOUS
370
50
 62
4
100
AcDbLine
 10
59.245785
 20
2.990403
 30
0.0
 11
59.278194
 21
2.990911
 31
0.0
  0
LINE
  5
7B3
330
1F
100
AcDbEntity
  8
1
  6
CONTINUOUS
370
50
 62
4
100
AcDbLine
 10
68.448433
 20
2.982834
 30
0.0
 11
69.48938
 21
2.99963
 31
0.0
  0
LINE
  5
7B4
330
1F
100
AcDbEntity
  8
1
  6
CONTINUOUS
370
50
 62
4
100
AcDbLine
 10
61.291019
 20
-2.208817
 30
0.0
 11
61.645447
 21
-2.202705
 31
0.0
  0
LINE
  5
7B5
330
1F
100
AcDbEntity
  8
1
  6
CONTINUOUS
370
50
 62
4
100
AcDbLine
 10
59.214046
 20
2.989837
 30
0.0
 11
59.245785
 21
2.990403
 31
0.0
  0
LINE
  5
7B6
330
1F
100
AcDbEntity
  8
1
  6
CONTINUOUS
370
50
 62
4
100
AcDbLine
 10
77.108757
 20
2.97757
 30
0.0
 11
78.334457
 21
2.999703
 31
0.0
  0
LINE
  5
7B7
330
1F
100
AcDbEntity
  8
1
  6
CONTINUOUS
370
50
 62
4
100
AcDbLine
 10
61.291019
 20
2.030008
 30
0.0
 11
61.645447
 21
2.036622
 31
0.0
  0
LINE
  5
7B8
330
1F
100
AcDbEntity
  8
1
  6
CONTINUOUS
370
50
 62
4
100
AcDbLine
 10
61.645447
 20
-0.117438
 30
0.0
 11
62.0
 21
-0.11067
 31
0.0
  0
LINE
  5
7B9
330
1F
100
AcDbEntity
  8
1
  6
CONTINUOUS
370
50
 62
4
100
AcDbLine
 10
79.173264
 20
-2.994567
 30
0.0
 11
79.450378
 21
-2.98904
 31
0.0
  0
LINE
  5
7BA
330
1F
100
AcDbEntity
  8
1
  6
CONTINUOUS
370
50
 62
4
100
AcDbLine
 10
59.183029
 20
2.989211
 30
0.0
 11
59.214046
 21
2.989837
 31
0.0
  0
LINE
  5
7BB
330
1F
100
AcDbEntity
  8
1
  6
CONTINUOUS
370
50
 62
4
100
AcDbLine
 10
60.93671
 20
-2.216389
 30
0.0
 11
61.291019
 21
-2.208817
 31
0.0
  0
LINE
  5
7BC
330
1F
100
AcDbEntity
  8
1
  6
CONTINUOUS
370
50
 62
4
100
AcDbLine
 10
59.152767
 20
2.988522
 30
0.0
 11
59.183029
 21
2.989211
 31
0.0
  0
LINE
  5
7BD
330
1F
100
AcDbEntity
  8
1
  6
CONTINUOUS
370
50
 62
4
100
AcDbLine
 10
60.93671
 20
2.021749
 30
0.0
 11
61.291019
 21
2.030008
 31
0.0
  0
LINE
  5
7BE
330
1F
100
AcDbEntity
  8
1
  6
CONTINUOUS
370
50
 62
4
100
AcDbLine
 10
60.582508
 20
-2.225379
 30
0.0
 11
60.93671
 21
-2.216389
 31
0.0
  0
LINE
  5
7BF
330
1F
100
AcDbEntity
  8
1
  6
CONTINUOUS
370
50
 62
4
100
AcDbLine
 10
61.291019
 20
-0.126437
 30
0.0
 11
61.645447
 21
-0.117438
 31
0.0
  0
LINE
  5
7C0
330
1F
100
AcDbEntity
  8
1
  6
CONTINUOUS
370
50
 62
4
100
AcDbLine
 10
59.123314
 20
2.987767
 30
0.0
 11
59.152767
 21
2.988522
 31
0.0
  0
LINE
  5
7C1
330
1F
100
AcDbEntity
  8
1
  6
CONTINUOUS
370
50
 62
4
100
AcDbLine
 10
79.450378
 20
-2.98904
 30
0.0
 11
79.726013
 21
-2.981575
 31
0.0
  0
LINE
  5
7C2
330
1F
100
AcDbEntity
  8
1
  6
CONTINUOUS
370
50
 62
4
100
AcDbLine
 10
60.582508
 20
2.011848
 30
0.0
 11
60.93671
 21
2.021749
 31
0.0
  0
LINE
  5
7C3
330
1F
100
AcDbEntity
  8
1
  6
CONTINUOUS
370
50
 62
4
100
AcDbLine
 10
59.09481
 20
2.986946
 30
0.0
 11
59.123314
 21
2.987767
 31
0.0
  0
LINE
  5
7C4
330
1F
100
AcDbEntity
  8
1
  6
CONTINUOUS
370
50
 62
4
100
AcDbLine
 10
60.228405
 20
-2.235744
 30
0.0
 11
60.582508
 21
-2.225379
 31
0.0
  0
LINE
  5
7C5
330
1F
100
AcDbEntity
  8
1
  6
CONTINUOUS
370
50
 62
4
100
AcDbLine
 10
60.93671
 20
-0.137632
 30
0.0
 11
61.291019
 21
-0.126437
 31
0.0
  0
LINE
  5
7C6
330
1F
100
AcDbEntity
  8
1
  6
CONTINUOUS
370
50
 62
4
100
AcDbLine
 10
59.06732599999999
 20
2.986055
 30
0.0
 11
59.09481
 21
2.986946
 31
0.0
  0
LINE
  5
7C7
330
1F
100
AcDbEntity
  8
1
  6
CONTINUOUS
370
50
 62
4
100
AcDbLine
 10
60.228405
 20
2.000312
 30
0.0
 11
60.582508
 21
2.011848
 31
0.0
  0
LINE
  5
7C8
330
1F
100
AcDbEntity
  8
1
  6
CONTINUOUS
370
50
 62
4
100
AcDbLine
 10
59.87439699999999
 20
-2.247441
 30
0.0
 11
60.228405
 21
-2.235744
 31
0.0
  0
LINE
  5
7C9
330
1F
100
AcDbEntity
  8
1
  6
CONTINUOUS
370
50
 62
4
100
AcDbLine
 10
72.080017
 20
-2.990041
 30
0.0
 11
73.04489099999999
 21
-2.957821
 31
0.0
  0
LINE
  5
7CA
330
1F
100
AcDbEntity
  8
1
  6
CONTINUOUS
370
50
 62
4
100
AcDbLine
 10
70.491005
 20
-2.991189
 30
0.0
 11
71.476807
 21
-2.957918
 31
0.0
  0
LINE
  5
7CB
330
1F
100
AcDbEntity
  8
1
  6
CONTINUOUS
370
50
 62
4
100
AcDbLine
 10
79.726013
 20
-2.981575
 30
0.0
 11
80.0
 21
-2.972154
 31
0.0
  0
LINE
  5
7CC
330
1F
100
AcDbEntity
  8
1
  6
CONTINUOUS
370
50
 62
4
100
AcDbLine
 10
77.32601199999999
 20
2.079173
 30
0.0
 11
78.384209
 21
2.117658
 31
0.0
  0
LINE
  5
7CD
330
1F
100
AcDbEntity
  8
1
  6
CONTINUOUS
370
50
 62
4
100
AcDbLine
 10
59.04089699999999
 20
2.985093
 30
0.0
 11
59.06732599999999
 21
2.986055
 31
0.0
  0
LINE
  5
7CE
330
1F
100
AcDbEntity
  8
1
  6
CONTINUOUS
370
50
 62
4
100
AcDbLine
 10
63.416912
 20
-2.988126
 30
0.0
 11
64.371414
 21
-2.953126
 31
0.0
  0
LINE
  5
7CF
330
1F
100
AcDbEntity
  8
1
  6
CONTINUOUS
370
50
 62
4
100
AcDbLine
 10
59.52047
 20
-2.260427
 30
0.0
 11
59.87439699999999
 21
-2.247441
 31
0.0
  0
LINE
  5
7D0
330
1F
100
AcDbEntity
  8
1
  6
CONTINUOUS
370
50
 62
4
100
AcDbLine
 10
59.87439699999999
 20
1.987145
 30
0.0
 11
60.228405
 21
2.000312
 31
0.0
  0
LINE
  5
7D1
330
1F
100
AcDbEntity
  8
1
  6
CONTINUOUS
370
50
 62
4
100
AcDbLine
 10
69.192719
 20
2.949875
 30
0.0
 11
70.187996
 21
2.987044
 31
0.0
  0
LINE
  5
7D2
330
1F
100
AcDbEntity
  8
1
  6
CONTINUOUS
370
50
 62
4
100
AcDbLine
 10
62.0
 20
-2.984583
 30
0.0
 11
62.82082
 21
-2.953831
 31
0.0
  0
LINE
  5
7D3
330
1F
100
AcDbEntity
  8
1
  6
CONTINUOUS
370
50
 62
4
100
AcDbLine
 10
68.439774
 20
2.076986
 30
0.0
 11
69.51306199999999
 21
2.117398
 31
0.0
  0
LINE
  5
7D4
330
1F
100
AcDbEntity
  8
1
  6
CONTINUOUS
370
50
 62
4
100
AcDbLine
 10
60.582508
 20
-0.150989
 30
0.0
 11
60.93671
 21
-0.137632
 31
0.0
  0
LINE
  5
7D5
330
1F
100
AcDbEntity
  8
1
  6
CONTINUOUS
370
50
 62
4
100
AcDbLine
 10
67.407631
 20
2.941342
 30
0.0
 11
68.448433
 21
2.982834
 31
0.0
  0
LINE
  5
7D6
330
1F
100
AcDbEntity
  8
1
  6
CONTINUOUS
370
50
 62
4
100
AcDbLine
 10
77.95118
 20
2.945713
 30
0.0
 11
78.811073
 21
2.980517
 31
0.0
  0
LINE
  5
7D7
330
1F
100
AcDbEntity
  8
1
  6
CONTINUOUS
370
50
 62
4
100
AcDbLine
 10
59.015553
 20
2.984056
 30
0.0
 11
59.04089699999999
 21
2.985093
 31
0.0
  0
LINE
  5
7D8
330
1F
100
AcDbEntity
  8
1
  6
CONTINUOUS
370
50
 62
4
100
AcDbLine
 10
79.245758
 20
1.908944
 30
0.0
 11
79.316368
 21
1.911841
 31
0.0
  0
LINE
  5
7D9
330
1F
100
AcDbEntity
  8
1
  6
CONTINUOUS
370
50
 62
4
100
AcDbLine
 10
59.52047
 20
1.972352
 30
0.0
 11
59.87439699999999
 21
1.987145
 31
0.0
  0
LINE
  5
7DA
330
1F
100
AcDbEntity
  8
1
  6
CONTINUOUS
370
50
 62
4
100
AcDbLine
 10
60.228405
 20
-0.166475
 30
0.0
 11
60.582508
 21
-0.150989
 31
0.0
  0
LINE
  5
7DB
330
1F
100
AcDbEntity
  8
1
  6
CONTINUOUS
370
50
 62
4
100
AcDbLine
 10
59.48280699999999
 20
-2.262102
 30
0.0
 11
59.52047
 21
-2.260427
 31
0.0
  0
LINE
  5
7DC
330
1F
100
AcDbEntity
  8
1
  6
CONTINUOUS
370
50
 62
4
100
AcDbLine
 10
75.878494
 20
2.921806
 30
0.0
 11
77.108757
 21
2.97757
 31
0.0
  0
LINE
  5
7DD
330
1F
100
AcDbEntity
  8
1
  6
CONTINUOUS
370
50
 62
4
100
AcDbLine
 10
58.99133699999999
 20
2.982943
 30
0.0
 11
59.015553
 21
2.984056
 31
0.0
  0
LINE
  5
7DE
330
1F
100
AcDbEntity
  8
1
  6
CONTINUOUS
370
50
 62
4
100
AcDbLine
 10
59.87439699999999
 20
-0.184057
 30
0.0
 11
60.228405
 21
-0.166475
 31
0.0
  0
LINE
  5
7DF
330
1F
100
AcDbEntity
  8
1
  6
CONTINUOUS
370
50
 62
4
100
AcDbLine
 10
59.485329
 20
1.970577
 30
0.0
 11
59.52047
 21
1.972352
 31
0.0
  0
LINE
  5
7E0
330
1F
100
AcDbEntity
  8
1
  6
CONTINUOUS
370
50
 62
4
100
AcDbLine
 10
58.96828499999999
 20
2.98175
 30
0.0
 11
58.99133699999999
 21
2.982943
 31
0.0
  0
LINE
  5
7E1
330
1F
100
AcDbEntity
  8
1
  6
CONTINUOUS
370
50
 62
4
100
AcDbLine
 10
76.267815
 20
2.023399
 30
0.0
 11
77.32601199999999
 21
2.079173
 31
0.0
  0
LINE
  5
7E2
330
1F
100
AcDbEntity
  8
1
  6
CONTINUOUS
370
50
 62
4
100
AcDbLine
 10
67.366478
 20
2.018451
 30
0.0
 11
68.439774
 21
2.076986
 31
0.0
  0
LINE
  5
7E3
330
1F
100
AcDbEntity
  8
1
  6
CONTINUOUS
370
50
 62
4
100
AcDbLine
 10
73.04489099999999
 20
-2.957821
 30
0.0
 11
74.01153599999999
 21
-2.904566
 31
0.0
  0
LINE
  5
7E4
330
1F
100
AcDbEntity
  8
1
  6
CONTINUOUS
370
50
 62
4
100
AcDbLine
 10
59.52047
 20
-0.203699
 30
0.0
 11
59.87439699999999
 21
-0.184057
 31
0.0
  0
LINE
  5
7E5
330
1F
100
AcDbEntity
  8
1
  6
CONTINUOUS
370
50
 62
4
100
AcDbLine
 10
59.445564
 20
-2.264209
 30
0.0
 11
59.48280699999999
 21
-2.262102
 31
0.0
  0
LINE
  5
7E6
330
1F
100
AcDbEntity
  8
1
  6
CONTINUOUS
370
50
 62
4
100
AcDbLine
 10
58.946426
 20
2.980475
 30
0.0
 11
58.96828499999999
 21
2.98175
 31
0.0
  0
LINE
  5
7E7
330
1F
100
AcDbEntity
  8
1
  6
CONTINUOUS
370
50
 62
4
100
AcDbLine
 10
71.476807
 20
-2.957918
 30
0.0
 11
72.50205199999999
 21
-2.897876
 31
0.0
  0
LINE
  5
7E8
330
1F
100
AcDbEntity
  8
1
  6
CONTINUOUS
370
50
 62
4
100
AcDbLine
 10
62.82082
 20
-2.953831
 30
0.0
 11
63.63026
 21
-2.906338
 31
0.0
  0
LINE
  5
7E9
330
1F
100
AcDbEntity
  8
1
  6
CONTINUOUS
370
50
 62
4
100
AcDbLine
 10
64.371414
 20
-2.953126
 30
0.0
 11
65.331116
 21
-2.896655
 31
0.0
  0
LINE
  5
7EA
330
1F
100
AcDbEntity
  8
1
  6
CONTINUOUS
370
50
 62
4
100
AcDbLine
 10
77.087578
 20
2.894383
 30
0.0
 11
77.95118
 21
2.945713
 31
0.0
  0
LINE
  5
7EB
330
1F
100
AcDbEntity
  8
1
  6
CONTINUOUS
370
50
 62
4
100
AcDbLine
 10
68.164619
 20
2.888247
 30
0.0
 11
69.192719
 21
2.949875
 31
0.0
  0
LINE
  5
7EC
330
1F
100
AcDbEntity
  8
1
  6
CONTINUOUS
370
50
 62
4
100
AcDbLine
 10
59.512741
 20
-0.204165
 30
0.0
 11
59.52047
 21
-0.203699
 31
0.0
  0
LINE
  5
7ED
330
1F
100
AcDbEntity
  8
1
  6
CONTINUOUS
370
50
 62
4
100
AcDbLine
 10
79.173935
 20
1.904433
 30
0.0
 11
79.245758
 21
1.908944
 31
0.0
  0
LINE
  5
7EE
330
1F
100
AcDbEntity
  8
1
  6
CONTINUOUS
370
50
 62
4
100
AcDbLine
 10
66.376595
 20
2.876337
 30
0.0
 11
67.407631
 21
2.941342
 31
0.0
  0
LINE
  5
7EF
330
1F
100
AcDbEntity
  8
1
  6
CONTINUOUS
370
50
 62
4
100
AcDbLine
 10
59.450554
 20
1.968369
 30
0.0
 11
59.485329
 21
1.970577
 31
0.0
  0
LINE
  5
7F0
330
1F
100
AcDbEntity
  8
1
  6
CONTINUOUS
370
50
 62
4
100
AcDbLine
 10
59.505028
 20
-0.204658
 30
0.0
 11
59.512741
 21
-0.204165
 31
0.0
  0
LINE
  5
7F1
330
1F
100
AcDbEntity
  8
1
  6
CONTINUOUS
370
50
 62
4
100
AcDbLine
 10
58.9258
 20
2.979117
 30
0.0
 11
58.946426
 21
2.980475
 31
0.0
  0
LINE
  5
7F2
330
1F
100
AcDbEntity
  8
1
  6
CONTINUOUS
370
50
 62
4
100
AcDbLine
 10
59.497334
 20
-0.205179
 30
0.0
 11
59.505028
 21
-0.204658
 31
0.0
  0
LINE
  5
7F3
330
1F
100
AcDbEntity
  8
1
  6
CONTINUOUS
370
50
 62
4
100
AcDbLine
 10
75.20961799999999
 20
1.950681
 30
0.0
 11
76.267815
 21
2.023399
 31
0.0
  0
LINE
  5
7F4
330
1F
100
AcDbEntity
  8
1
  6
CONTINUOUS
370
50
 62
4
100
AcDbLine
 10
59.408794
 20
-2.266738
 30
0.0
 11
59.445564
 21
-2.264209
 31
0.0
  0
LINE
  5
7F5
330
1F
100
AcDbEntity
  8
1
  6
CONTINUOUS
370
50
 62
4
100
AcDbLine
 10
66.293182
 20
1.942529
 30
0.0
 11
67.366478
 21
2.018451
 31
0.0
  0
LINE
  5
7F6
330
1F
100
AcDbEntity
  8
1
  6
CONTINUOUS
370
50
 62
4
100
AcDbLine
 10
59.489658
 20
-0.205728
 30
0.0
 11
59.497334
 21
-0.205179
 31
0.0
  0
LINE
  5
7F7
330
1F
100
AcDbEntity
  8
1
  6
CONTINUOUS
370
50
 62
4
100
AcDbLine
 10
74.655914
 20
2.833871
 30
0.0
 11
75.878494
 21
2.921806
 31
0.0
  0
LINE
  5
7F8
330
1F
100
AcDbEntity
  8
1
  6
CONTINUOUS
370
50
 62
4
100
AcDbLine
 10
58.906406
 20
2.977669
 30
0.0
 11
58.9258
 21
2.979117
 31
0.0
  0
LINE
  5
7F9
330
1F
100
AcDbEntity
  8
1
  6
CONTINUOUS
370
50
 62
4
100
AcDbLine
 10
59.481995
 20
-0.206304
 30
0.0
 11
59.489658
 21
-0.205728
 31
0.0
  0
LINE
  5
7FA
330
1F
100
AcDbEntity
  8
1
  6
CONTINUOUS
370
50
 62
4
100
AcDbLine
 10
74.01153599999999
 20
-2.904566
 30
0.0
 11
74.975166
 21
-2.831615
 31
0.0
  0
LINE
  5
7FB
330
1F
100
AcDbEntity
  8
1
  6
CONTINUOUS
370
50
 62
4
100
AcDbLine
 10
59.416183
 20
1.965733
 30
0.0
 11
59.450554
 21
1.968369
 31
0.0
  0
LINE
  5
7FC
330
1F
100
AcDbEntity
  8
1
  6
CONTINUOUS
370
50
 62
4
100
AcDbLine
 10
76.22451
 20
2.827328
 30
0.0
 11
77.087578
 21
2.894383
 31
0.0
  0
LINE
  5
7FD
330
1F
100
AcDbEntity
  8
1
  6
CONTINUOUS
370
50
 62
4
100
AcDbLine
 10
63.63026
 20
-2.906338
 30
0.0
 11
64.45734399999999
 21
-2.8413
 31
0.0
  0
LINE
  5
7FE
330
1F
100
AcDbEntity
  8
1
  6
CONTINUOUS
370
50
 62
4
100
AcDbLine
 10
59.474354
 20
-0.206908
 30
0.0
 11
59.481995
 21
-0.206304
 31
0.0
  0
LINE
  5
7FF
330
1F
100
AcDbEntity
  8
1
  6
CONTINUOUS
370
50
 62
4
100
AcDbLine
 10
65.331116
 20
-2.896655
 30
0.0
 11
66.29072599999999
 21
-2.820264
 31
0.0
  0
LINE
  5
800
330
1F
100
AcDbEntity
  8
1
  6
CONTINUOUS
370
50
 62
4
100
AcDbLine
 10
79.100685
 20
1.89854
 30
0.0
 11
79.173935
 21
1.904433
 31
0.0
  0
LINE
  5
801
330
1F
100
AcDbEntity
  8
1
  6
CONTINUOUS
370
50
 62
4
100
AcDbLine
 10
72.50205199999999
 20
-2.897876
 30
0.0
 11
73.566147
 21
-2.811749
 31
0.0
  0
LINE
  5
802
330
1F
100
AcDbEntity
  8
1
  6
CONTINUOUS
370
50
 62
4
100
AcDbLine
 10
59.372543
 20
-2.26968
 30
0.0
 11
59.408794
 21
-2.266738
 31
0.0
  0
LINE
  5
803
330
1F
100
AcDbEntity
  8
1
  6
CONTINUOUS
370
50
 62
4
100
AcDbLine
 10
67.13248399999999
 20
2.803423
 30
0.0
 11
68.164619
 21
2.888247
 31
0.0
  0
LINE
  5
804
330
1F
100
AcDbEntity
  8
1
  6
CONTINUOUS
370
50
 62
4
100
AcDbLine
 10
74.151421
 20
1.861319
 30
0.0
 11
75.20961799999999
 21
1.950681
 31
0.0
  0
LINE
  5
805
330
1F
100
AcDbEntity
  8
1
  6
CONTINUOUS
370
50
 62
4
100
AcDbLine
 10
58.887558
 20
2.976063
 30
0.0
 11
58.906406
 21
2.977669
 31
0.0
  0
LINE
  5
806
330
1F
100
AcDbEntity
  8
1
  6
CONTINUOUS
370
50
 62
4
100
AcDbLine
 10
65.354034
 20
2.787905
 30
0.0
 11
66.376595
 21
2.876337
 31
0.0
  0
LINE
  5
807
330
1F
100
AcDbEntity
  8
1
  6
CONTINUOUS
370
50
 62
4
100
AcDbLine
 10
65.219887
 20
1.848426
 30
0.0
 11
66.293182
 21
1.942529
 31
0.0
  0
LINE
  5
808
330
1F
100
AcDbEntity
  8
1
  6
CONTINUOUS
370
50
 62
4
100
AcDbLine
 10
59.439125
 20
-0.210065
 30
0.0
 11
59.474354
 21
-0.206908
 31
0.0
  0
LINE
  5
809
330
1F
100
AcDbEntity
  8
1
  6
CONTINUOUS
370
50
 62
4
100
AcDbLine
 10
59.38225199999999
 20
1.962673
 30
0.0
 11
59.416183
 21
1.965733
 31
0.0
  0
LINE
  5
80A
330
1F
100
AcDbEntity
  8
1
  6
CONTINUOUS
370
50
 62
4
100
AcDbLine
 10
59.33685699999999
 20
-2.273024
 30
0.0
 11
59.372543
 21
-2.26968
 31
0.0
  0
LINE
  5
80B
330
1F
100
AcDbEntity
  8
1
  6
CONTINUOUS
370
50
 62
4
100
AcDbLine
 10
79.027
 20
1.891539
 30
0.0
 11
79.100685
 21
1.89854
 31
0.0
  0
LINE
  5
80C
330
1F
100
AcDbEntity
  8
1
  6
CONTINUOUS
370
50
 62
4
100
AcDbLine
 10
75.365456
 20
2.745255
 30
0.0
 11
76.22451
 21
2.827328
 31
0.0
  0
LINE
  5
80D
330
1F
100
AcDbEntity
  8
1
  6
CONTINUOUS
370
50
 62
4
100
AcDbLine
 10
74.975166
 20
-2.831615
 30
0.0
 11
75.932045
 21
-2.740186
 31
0.0
  0
LINE
  5
80E
330
1F
100
AcDbEntity
  8
1
  6
CONTINUOUS
370
50
 62
4
100
AcDbLine
 10
64.45734399999999
 20
-2.8413
 30
0.0
 11
65.301941
 21
-2.760126
 31
0.0
  0
LINE
  5
80F
330
1F
100
AcDbEntity
  8
1
  6
CONTINUOUS
370
50
 62
4
100
AcDbLine
 10
58.869259
 20
2.97426
 30
0.0
 11
58.887558
 21
2.976063
 31
0.0
  0
LINE
  5
810
330
1F
100
AcDbEntity
  8
1
  6
CONTINUOUS
370
50
 62
4
100
AcDbLine
 10
73.446434
 20
2.714458
 30
0.0
 11
74.655914
 21
2.833871
 31
0.0
  0
LINE
  5
811
330
1F
100
AcDbEntity
  8
1
  6
CONTINUOUS
370
50
 62
4
100
AcDbLine
 10
64.998863
 20
1.427393
 30
0.0
 11
65.622551
 21
1.489336
 31
0.0
  0
LINE
  5
812
330
1F
100
AcDbEntity
  8
1
  6
CONTINUOUS
370
50
 62
4
100
AcDbLine
 10
73.407265
 20
1.386991
 30
0.0
 11
74.434715
 21
1.489242
 31
0.0
  0
LINE
  5
813
330
1F
100
AcDbEntity
  8
1
  6
CONTINUOUS
370
50
 62
4
100
AcDbLine
 10
66.29072599999999
 20
-2.820264
 30
0.0
 11
67.257797
 21
-2.723846
 31
0.0
  0
LINE
  5
814
330
1F
100
AcDbEntity
  8
1
  6
CONTINUOUS
370
50
 62
4
100
AcDbLine
 10
73.09322399999999
 20
1.754914
 30
0.0
 11
74.151421
 21
1.861319
 31
0.0
  0
LINE
  5
815
330
1F
100
AcDbEntity
  8
1
  6
CONTINUOUS
370
50
 62
4
100
AcDbLine
 10
73.566147
 20
-2.811749
 30
0.0
 11
74.631332
 21
-2.702685
 31
0.0
  0
LINE
  5
816
330
1F
100
AcDbEntity
  8
1
  6
CONTINUOUS
370
50
 62
4
100
AcDbLine
 10
59.34880399999999
 20
1.959195
 30
0.0
 11
59.38225199999999
 21
1.962673
 31
0.0
  0
LINE
  5
817
330
1F
100
AcDbEntity
  8
1
  6
CONTINUOUS
370
50
 62
4
100
AcDbLine
 10
66.105621
 20
2.696284
 30
0.0
 11
67.13248399999999
 21
2.803423
 31
0.0
  0
LINE
  5
818
330
1F
100
AcDbEntity
  8
1
  6
CONTINUOUS
370
50
 62
4
100
AcDbLine
 10
64.146591
 20
1.734822
 30
0.0
 11
65.219887
 21
1.848426
 31
0.0
  0
LINE
  5
819
330
1F
100
AcDbEntity
  8
1
  6
CONTINUOUS
370
50
 62
4
100
AcDbLine
 10
59.30178799999999
 20
-2.276761
 30
0.0
 11
59.33685699999999
 21
-2.273024
 31
0.0
  0
LINE
  5
81A
330
1F
100
AcDbEntity
  8
1
  6
CONTINUOUS
370
50
 62
4
100
AcDbLine
 10
78.95388
 20
1.883705
 30
0.0
 11
79.027
 21
1.891539
 31
0.0
  0
LINE
  5
81B
330
1F
100
AcDbEntity
  8
1
  6
CONTINUOUS
370
50
 62
4
100
AcDbLine
 10
59.40432699999999
 20
-0.213801
 30
0.0
 11
59.439125
 21
-0.210065
 31
0.0
  0
LINE
  5
81C
330
1F
100
AcDbEntity
  8
1
  6
CONTINUOUS
370
50
 62
4
100
AcDbLine
 10
64.3825
 20
1.360756
 30
0.0
 11
64.998863
 21
1.427393
 31
0.0
  0
LINE
  5
81D
330
1F
100
AcDbEntity
  8
1
  6
CONTINUOUS
370
50
 62
4
100
AcDbLine
 10
64.331322
 20
2.674315
 30
0.0
 11
65.354034
 21
2.787905
 31
0.0
  0
LINE
  5
81E
330
1F
100
AcDbEntity
  8
1
  6
CONTINUOUS
370
50
 62
4
100
AcDbLine
 10
72.42926
 20
1.277142
 30
0.0
 11
73.407265
 21
1.386991
 31
0.0
  0
LINE
  5
81F
330
1F
100
AcDbEntity
  8
1
  6
CONTINUOUS
370
50
 62
4
100
AcDbLine
 10
65.301941
 20
-2.760126
 30
0.0
 11
66.14656099999999
 21
-2.664801
 31
0.0
  0
LINE
  5
820
330
1F
100
AcDbEntity
  8
1
  6
CONTINUOUS
370
50
 62
4
100
AcDbLine
 10
74.50252499999999
 20
2.647324
 30
0.0
 11
75.365456
 21
2.745255
 31
0.0
  0
LINE
  5
821
330
1F
100
AcDbEntity
  8
1
  6
CONTINUOUS
370
50
 62
4
100
AcDbLine
 10
72.71373
 20
1.263431
 30
0.0
 11
73.633102
 21
1.368556
 31
0.0
  0
LINE
  5
822
330
1F
100
AcDbEntity
  8
1
  6
CONTINUOUS
370
50
 62
4
100
AcDbLine
 10
64.342964
 20
1.309875
 30
0.0
 11
64.818024
 21
1.36436
 31
0.0
  0
LINE
  5
823
330
1F
100
AcDbEntity
  8
1
  6
CONTINUOUS
370
50
 62
4
100
AcDbLine
 10
75.932045
 20
-2.740186
 30
0.0
 11
76.891823
 21
-2.629488
 31
0.0
  0
LINE
  5
824
330
1F
100
AcDbEntity
  8
1
  6
CONTINUOUS
370
50
 62
4
100
AcDbLine
 10
58.851871
 20
2.972246
 30
0.0
 11
58.869259
 21
2.97426
 31
0.0
  0
LINE
  5
825
330
1F
100
AcDbEntity
  8
1
  6
CONTINUOUS
370
50
 62
4
100
AcDbLine
 10
63.785458
 20
1.290798
 30
0.0
 11
64.3825
 21
1.360756
 31
0.0
  0
LINE
  5
826
330
1F
100
AcDbEntity
  8
1
  6
CONTINUOUS
370
50
 62
4
100
AcDbLine
 10
78.882317
 20
1.875313
 30
0.0
 11
78.95388
 21
1.883705
 31
0.0
  0
LINE
  5
827
330
1F
100
AcDbEntity
  8
1
  6
CONTINUOUS
370
50
 62
4
100
AcDbLine
 10
72.035027
 20
1.630469
 30
0.0
 11
73.09322399999999
 21
1.754914
 31
0.0
  0
LINE
  5
828
330
1F
100
AcDbEntity
  8
1
  6
CONTINUOUS
370
50
 62
4
100
AcDbLine
 10
59.315876
 20
1.955304
 30
0.0
 11
59.34880399999999
 21
1.959195
 31
0.0
  0
LINE
  5
829
330
1F
100
AcDbEntity
  8
1
  6
CONTINUOUS
370
50
 62
4
100
AcDbLine
 10
59.267376
 20
-2.280881
 30
0.0
 11
59.30178799999999
 21
-2.276761
 31
0.0
  0
LINE
  5
82A
330
1F
100
AcDbEntity
  8
1
  6
CONTINUOUS
370
50
 62
4
100
AcDbLine
 10
67.257797
 20
-2.723846
 30
0.0
 11
68.228531
 21
-2.607455
 31
0.0
  0
LINE
  5
82B
330
1F
100
AcDbEntity
  8
1
  6
CONTINUOUS
370
50
 62
4
100
AcDbLine
 10
63.876625
 20
1.253456
 30
0.0
 11
64.342964
 21
1.309875
 31
0.0
  0
LINE
  5
82C
330
1F
100
AcDbEntity
  8
1
  6
CONTINUOUS
370
50
 62
4
100
AcDbLine
 10
74.631332
 20
-2.702685
 30
0.0
 11
75.707222
 21
-2.570279
 31
0.0
  0
LINE
  5
82D
330
1F
100
AcDbEntity
  8
1
  6
CONTINUOUS
370
50
 62
4
100
AcDbLine
 10
63.073292
 20
1.601267
 30
0.0
 11
64.146591
 21
1.734822
 31
0.0
  0
LINE
  5
82E
330
1F
100
AcDbEntity
  8
1
  6
CONTINUOUS
370
50
 62
4
100
AcDbLine
 10
71.501961
 20
1.161185
 30
0.0
 11
72.42926
 21
1.277142
 31
0.0
  0
LINE
  5
82F
330
1F
100
AcDbEntity
  8
1
  6
CONTINUOUS
370
50
 62
4
100
AcDbLine
 10
63.198471
 20
1.217385
 30
0.0
 11
63.785458
 21
1.290798
 31
0.0
  0
LINE
  5
830
330
1F
100
AcDbEntity
  8
1
  6
CONTINUOUS
370
50
 62
4
100
AcDbLine
 10
59.369999
 20
-0.218107
 30
0.0
 11
59.40432699999999
 21
-0.213801
 31
0.0
  0
LINE
  5
831
330
1F
100
AcDbEntity
  8
1
  6
CONTINUOUS
370
50
 62
4
100
AcDbLine
 10
71.796669
 20
1.147841
 30
0.0
 11
72.71373
 21
1.263431
 31
0.0
  0
LINE
  5
832
330
1F
100
AcDbEntity
  8
1
  6
CONTINUOUS
370
50
 62
4
100
AcDbLine
 10
78.810982
 20
1.866321
 30
0.0
 11
78.882317
 21
1.875313
 31
0.0
  0
LINE
  5
833
330
1F
100
AcDbEntity
  8
1
  6
CONTINUOUS
370
50
 62
4
100
AcDbLine
 10
63.414085
 20
1.194943
 30
0.0
 11
63.876625
 21
1.253456
 31
0.0
  0
LINE
  5
834
330
1F
100
AcDbEntity
  8
1
  6
CONTINUOUS
370
50
 62
4
100
AcDbLine
 10
72.240028
 20
2.56158
 30
0.0
 11
73.446434
 21
2.714458
 31
0.0
  0
LINE
  5
835
330
1F
100
AcDbEntity
  8
1
  6
CONTINUOUS
370
50
 62
4
100
AcDbLine
 10
65.08551
 20
2.566624
 30
0.0
 11
66.105621
 21
2.696284
 31
0.0
  0
LINE
  5
836
330
1F
100
AcDbEntity
  8
1
  6
CONTINUOUS
370
50
 62
4
100
AcDbLine
 10
66.14656099999999
 20
-2.664801
 30
0.0
 11
66.99398
 21
-2.555406
 31
0.0
  0
LINE
  5
837
330
1F
100
AcDbEntity
  8
1
  6
CONTINUOUS
370
50
 62
4
100
AcDbLine
 10
62.607872
 20
1.139998
 30
0.0
 11
63.198471
 21
1.217385
 31
0.0
  0
LINE
  5
838
330
1F
100
AcDbEntity
  8
1
  6
CONTINUOUS
370
50
 62
4
100
AcDbLine
 10
62.95041999999999
 20
1.134179
 30
0.0
 11
63.414085
 21
1.194943
 31
0.0
  0
LINE
  5
839
330
1F
100
AcDbEntity
  8
1
  6
CONTINUOUS
370
50
 62
4
100
AcDbLine
 10
73.635201
 20
2.533026
 30
0.0
 11
74.50252499999999
 21
2.647324
 31
0.0
  0
LINE
  5
83A
330
1F
100
AcDbEntity
  8
1
  6
CONTINUOUS
370
50
 62
4
100
AcDbLine
 10
59.283504
 20
1.951003
 30
0.0
 11
59.315876
 21
1.955304
 31
0.0
  0
LINE
  5
83B
330
1F
100
AcDbEntity
  8
1
  6
CONTINUOUS
370
50
 62
4
100
AcDbLine
 10
59.233677
 20
-2.285375
 30
0.0
 11
59.267376
 21
-2.280881
 31
0.0
  0
LINE
  5
83C
330
1F
100
AcDbEntity
  8
1
  6
CONTINUOUS
370
50
 62
4
100
AcDbLine
 10
62.480698
 20
1.071005
 30
0.0
 11
62.95041999999999
 21
1.134179
 31
0.0
  0
LINE
  5
83D
330
1F
100
AcDbEntity
  8
1
  6
CONTINUOUS
370
50
 62
4
100
AcDbLine
 10
62.0
 20
1.058115
 30
0.0
 11
62.607872
 21
1.139998
 31
0.0
  0
LINE
  5
83E
330
1F
100
AcDbEntity
  8
1
  6
CONTINUOUS
370
50
 62
4
100
AcDbLine
 10
70.976837
 20
1.486976
 30
0.0
 11
72.035027
 21
1.630469
 31
0.0
  0
LINE
  5
83F
330
1F
100
AcDbEntity
  8
1
  6
CONTINUOUS
370
50
 62
4
100
AcDbLine
 10
76.891823
 20
-2.629488
 30
0.0
 11
77.853447
 21
-2.499085
 31
0.0
  0
LINE
  5
840
330
1F
100
AcDbEntity
  8
1
  6
CONTINUOUS
370
50
 62
4
100
AcDbLine
 10
75.818146
 20
-1.101043
 30
0.0
 11
76.362175
 21
-1.027267
 31
0.0
  0
LINE
  5
841
330
1F
100
AcDbEntity
  8
1
  6
CONTINUOUS
370
50
 62
4
100
AcDbLine
 10
62.0
 20
1.455251
 30
0.0
 11
63.073292
 21
1.601267
 31
0.0
  0
LINE
  5
842
330
1F
100
AcDbEntity
  8
1
  6
CONTINUOUS
370
50
 62
4
100
AcDbLine
 10
62.0
 20
1.005264
 30
0.0
 11
62.480698
 21
1.071005
 31
0.0
  0
LINE
  5
843
330
1F
100
AcDbEntity
  8
1
  6
CONTINUOUS
370
50
 62
4
100
AcDbLine
 10
63.341503
 20
2.538836
 30
0.0
 11
64.331322
 21
2.674315
 31
0.0
  0
LINE
  5
844
330
1F
100
AcDbEntity
  8
1
  6
CONTINUOUS
370
50
 62
4
100
AcDbLine
 10
75.62681599999999
 20
-1.147264
 30
0.0
 11
76.202698
 21
-1.068401
 31
0.0
  0
LINE
  5
845
330
1F
100
AcDbEntity
  8
1
  6
CONTINUOUS
370
50
 62
4
100
AcDbLine
 10
70.878304
 20
1.021943
 30
0.0
 11
71.796669
 21
1.147841
 31
0.0
  0
LINE
  5
846
330
1F
100
AcDbEntity
  8
1
  6
CONTINUOUS
370
50
 62
4
100
AcDbLine
 10
70.623665
 20
1.040598
 30
0.0
 11
71.501961
 21
1.161185
 31
0.0
  0
LINE
  5
847
330
1F
100
AcDbEntity
  8
1
  6
CONTINUOUS
370
50
 62
4
100
AcDbLine
 10
58.83575099999999
 20
2.970006
 30
0.0
 11
58.851871
 21
2.972246
 31
0.0
  0
LINE
  5
848
330
1F
100
AcDbEntity
  8
1
  6
CONTINUOUS
370
50
 62
4
100
AcDbLine
 10
67.01165
 20
-1.098445
 30
0.0
 11
68.218071
 21
-0.929392
 31
0.0
  0
LINE
  5
849
330
1F
100
AcDbEntity
  8
1
  6
CONTINUOUS
370
50
 62
4
100
AcDbLine
 10
76.362175
 20
-1.027267
 30
0.0
 11
76.908714
 21
-0.950615
 31
0.0
  0
LINE
  5
84A
330
1F
100
AcDbEntity
  8
1
  6
CONTINUOUS
370
50
 62
4
100
AcDbLine
 10
68.228531
 20
-2.607455
 30
0.0
 11
69.19519
 21
-2.471429
 31
0.0
  0
LINE
  5
84B
330
1F
100
AcDbEntity
  8
1
  6
CONTINUOUS
370
50
 62
4
100
AcDbLine
 10
66.810715
 20
-1.146582
 30
0.0
 11
68.00573
 21
-0.9779829999999999
 31
0.0
  0
LINE
  5
84C
330
1F
100
AcDbEntity
  8
1
  6
CONTINUOUS
370
50
 62
4
100
AcDbLine
 10
76.202698
 20
-1.068401
 30
0.0
 11
76.77857999999999
 21
-0.986671
 31
0.0
  0
LINE
  5
84D
330
1F
100
AcDbEntity
  8
1
  6
CONTINUOUS
370
50
 62
4
100
AcDbLine
 10
69.756248
 20
0.916501
 30
0.0
 11
70.623665
 21
1.040598
 31
0.0
  0
LINE
  5
84E
330
1F
100
AcDbEntity
  8
1
  6
CONTINUOUS
370
50
 62
4
100
AcDbLine
 10
69.943161
 20
0.887575
 30
0.0
 11
70.878304
 21
1.021943
 31
0.0
  0
LINE
  5
84F
330
1F
100
AcDbEntity
  8
1
  6
CONTINUOUS
370
50
 62
4
100
AcDbLine
 10
75.707222
 20
-2.570279
 30
0.0
 11
76.79039
 21
-2.414596
 31
0.0
  0
LINE
  5
850
330
1F
100
AcDbEntity
  8
1
  6
CONTINUOUS
370
50
 62
4
100
AcDbLine
 10
59.336185
 20
-0.222973
 30
0.0
 11
59.369999
 21
-0.218107
 31
0.0
  0
LINE
  5
851
330
1F
100
AcDbEntity
  8
1
  6
CONTINUOUS
370
50
 62
4
100
AcDbLine
 10
78.112206
 20
0.788187
 30
0.0
 11
79.065491
 21
0.9255369999999999
 31
0.0
  0
LINE
  5
852
330
1F
100
AcDbEntity
  8
1
  6
CONTINUOUS
370
50
 62
4
100
AcDbLine
 10
77.952263
 20
0.82117
 30
0.0
 11
79.039886
 21
0.9780329999999999
 31
0.0
  0
LINE
  5
853
330
1F
100
AcDbEntity
  8
1
  6
CONTINUOUS
370
50
 62
4
100
AcDbLine
 10
76.908714
 20
-0.950615
 30
0.0
 11
77.456619
 21
-0.87117
 31
0.0
  0
LINE
  5
854
330
1F
100
AcDbEntity
  8
1
  6
CONTINUOUS
370
50
 62
4
100
AcDbLine
 10
66.99398
 20
-2.555406
 30
0.0
 11
67.85051
 21
-2.430815
 31
0.0
  0
LINE
  5
855
330
1F
100
AcDbEntity
  8
1
  6
CONTINUOUS
370
50
 62
4
100
AcDbLine
 10
78.87005599999999
 20
1.344444
 30
0.0
 11
79.957657
 21
1.503245
 31
0.0
  0
LINE
  5
856
330
1F
100
AcDbEntity
  8
1
  6
CONTINUOUS
370
50
 62
4
100
AcDbLine
 10
68.88877099999999
 20
0.789686
 30
0.0
 11
69.756248
 21
0.916501
 31
0.0
  0
LINE
  5
857
330
1F
100
AcDbEntity
  8
1
  6
CONTINUOUS
370
50
 62
4
100
AcDbLine
 10
76.77857999999999
 20
-0.986671
 30
0.0
 11
77.354462
 21
-0.9020469999999999
 31
0.0
  0
LINE
  5
858
330
1F
100
AcDbEntity
  8
1
  6
CONTINUOUS
370
50
 62
4
100
AcDbLine
 10
77.257545
 20
-0.7453719999999999
 30
0.0
 11
77.559906
 21
-0.7009409999999999
 31
0.0
  0
LINE
  5
859
330
1F
100
AcDbEntity
  8
1
  6
CONTINUOUS
370
50
 62
4
100
AcDbLine
 10
59.200733
 20
-2.290232
 30
0.0
 11
59.233677
 21
-2.285375
 31
0.0
  0
LINE
  5
85A
330
1F
100
AcDbEntity
  8
1
  6
CONTINUOUS
370
50
 62
4
100
AcDbLine
 10
77.15375499999999
 20
0.646791
 30
0.0
 11
78.112206
 21
0.788187
 31
0.0
  0
LINE
  5
85B
330
1F
100
AcDbEntity
  8
1
  6
CONTINUOUS
370
50
 62
4
100
AcDbLine
 10
76.868416
 20
0.660978
 30
0.0
 11
77.952263
 21
0.82117
 31
0.0
  0
LINE
  5
85C
330
1F
100
AcDbEntity
  8
1
  6
CONTINUOUS
370
50
 62
4
100
AcDbLine
 10
71.713768
 20
1.077509
 30
0.0
 11
71.81804699999999
 21
1.092926
 31
0.0
  0
LINE
  5
85D
330
1F
100
AcDbEntity
  8
1
  6
CONTINUOUS
370
50
 62
4
100
AcDbLine
 10
68.976547
 20
0.744664
 30
0.0
 11
69.943161
 21
0.887575
 31
0.0
  0
LINE
  5
85E
330
1F
100
AcDbEntity
  8
1
  6
CONTINUOUS
370
50
 62
4
100
AcDbLine
 10
59.25173599999999
 20
1.946299
 30
0.0
 11
59.283504
 21
1.951003
 31
0.0
  0
LINE
  5
85F
330
1F
100
AcDbEntity
  8
1
  6
CONTINUOUS
370
50
 62
4
100
AcDbLine
 10
69.91864799999999
 20
1.330037
 30
0.0
 11
70.976837
 21
1.486976
 31
0.0
  0
LINE
  5
860
330
1F
100
AcDbEntity
  8
1
  6
CONTINUOUS
370
50
 62
4
100
AcDbLine
 10
71.81804699999999
 20
1.092926
 30
0.0
 11
72.008057
 21
1.121108
 31
0.0
  0
LINE
  5
861
330
1F
100
AcDbEntity
  8
1
  6
CONTINUOUS
370
50
 62
4
100
AcDbLine
 10
62.810005
 20
1.051904
 30
0.0
 11
62.972008
 21
1.07596
 31
0.0
  0
LINE
  5
862
330
1F
100
AcDbEntity
  8
1
  6
CONTINUOUS
370
50
 62
4
100
AcDbLine
 10
68.02111099999999
 20
0.6605059999999999
 30
0.0
 11
68.88877099999999
 21
0.789686
 31
0.0
  0
LINE
  5
863
330
1F
100
AcDbEntity
  8
1
  6
CONTINUOUS
370
50
 62
4
100
AcDbLine
 10
72.008057
 20
1.121108
 30
0.0
 11
72.198067
 21
1.149398
 31
0.0
  0
LINE
  5
864
330
1F
100
AcDbEntity
  8
1
  6
CONTINUOUS
370
50
 62
4
100
AcDbLine
 10
77.559906
 20
-0.7009409999999999
 30
0.0
 11
77.862122
 21
-0.655887
 31
0.0
  0
LINE
  5
865
330
1F
100
AcDbEntity
  8
1
  6
CONTINUOUS
370
50
 62
4
100
AcDbLine
 10
62.648003
 20
1.027735
 30
0.0
 11
62.810005
 21
1.051904
 31
0.0
  0
LINE
  5
866
330
1F
100
AcDbEntity
  8
1
  6
CONTINUOUS
370
50
 62
4
100
AcDbLine
 10
62.972008
 20
1.075947
 30
0.0
 11
63.138084
 21
1.100727
 31
0.0
  0
LINE
  5
867
330
1F
100
AcDbEntity
  8
1
  6
CONTINUOUS
370
50
 62
4
100
AcDbLine
 10
72.198067
 20
1.149398
 30
0.0
 11
72.3881
 21
1.177794
 31
0.0
  0
LINE
  5
868
330
1F
100
AcDbEntity
  8
1
  6
CONTINUOUS
370
50
 62
4
100
AcDbLine
 10
62.486
 20
1.003455
 30
0.0
 11
62.648003
 21
1.027735
 31
0.0
  0
LINE
  5
869
330
1F
100
AcDbEntity
  8
1
  6
CONTINUOUS
370
50
 62
4
100
AcDbLine
 10
77.456619
 20
-0.87117
 30
0.0
 11
78.004738
 21
-0.7890149999999999
 31
0.0
  0
LINE
  5
86A
330
1F
100
AcDbEntity
  8
1
  6
CONTINUOUS
370
50
 62
4
100
AcDbLine
 10
72.3881
 20
1.177794
 30
0.0
 11
72.578125
 21
1.206288
 31
0.0
  0
LINE
  5
86B
330
1F
100
AcDbEntity
  8
1
  6
CONTINUOUS
370
50
 62
4
100
AcDbLine
 10
72.578125
 20
1.206288
 30
0.0
 11
72.768166
 21
1.234878
 31
0.0
  0
LINE
  5
86C
330
1F
100
AcDbEntity
  8
1
  6
CONTINUOUS
370
50
 62
4
100
AcDbLine
 10
62.324001
 20
0.979069
 30
0.0
 11
62.486
 21
1.003455
 31
0.0
  0
LINE
  5
86D
330
1F
100
AcDbEntity
  8
1
  6
CONTINUOUS
370
50
 62
4
100
AcDbLine
 10
72.76694499999999
 20
2.402253
 30
0.0
 11
73.635201
 21
2.533026
 31
0.0
  0
LINE
  5
86E
330
1F
100
AcDbEntity
  8
1
  6
CONTINUOUS
370
50
 62
4
100
AcDbLine
 10
68.218071
 20
-0.929392
 30
0.0
 11
69.41450499999999
 21
-0.749185
 31
0.0
  0
LINE
  5
86F
330
1F
100
AcDbEntity
  8
1
  6
CONTINUOUS
370
50
 62
4
100
AcDbLine
 10
67.975517
 20
0.5938749999999999
 30
0.0
 11
68.976547
 21
0.744664
 31
0.0
  0
LINE
  5
870
330
1F
100
AcDbEntity
  8
1
  6
CONTINUOUS
370
50
 62
4
100
AcDbLine
 10
75.783531
 20
0.497415
 30
0.0
 11
76.868416
 21
0.660978
 31
0.0
  0
LINE
  5
871
330
1F
100
AcDbEntity
  8
1
  6
CONTINUOUS
370
50
 62
4
100
AcDbLine
 10
72.768166
 20
1.234878
 30
0.0
 11
72.95820599999999
 21
1.26356
 31
0.0
  0
LINE
  5
872
330
1F
100
AcDbEntity
  8
1
  6
CONTINUOUS
370
50
 62
4
100
AcDbLine
 10
76.196518
 20
0.5022449999999999
 30
0.0
 11
77.15375499999999
 21
0.646791
 31
0.0
  0
LINE
  5
873
330
1F
100
AcDbEntity
  8
1
  6
CONTINUOUS
370
50
 62
4
100
AcDbLine
 10
64.065773
 20
2.412494
 30
0.0
 11
65.08551
 21
2.566624
 31
0.0
  0
LINE
  5
874
330
1F
100
AcDbEntity
  8
1
  6
CONTINUOUS
370
50
 62
4
100
AcDbLine
 10
62.16199899999999
 20
0.95458
 30
0.0
 11
62.324001
 21
0.979069
 31
0.0
  0
LINE
  5
875
330
1F
100
AcDbEntity
  8
1
  6
CONTINUOUS
370
50
 62
4
100
AcDbLine
 10
77.862122
 20
-0.655887
 30
0.0
 11
78.163986
 21
-0.610227
 31
0.0
  0
LINE
  5
876
330
1F
100
AcDbEntity
  8
1
  6
CONTINUOUS
370
50
 62
4
100
AcDbLine
 10
63.138084
 20
1.100727
 30
0.0
 11
63.304161
 21
1.125854
 31
0.0
  0
LINE
  5
877
330
1F
100
AcDbEntity
  8
1
  6
CONTINUOUS
370
50
 62
4
100
AcDbLine
 10
72.95820599999999
 20
1.26356
 30
0.0
 11
73.148262
 21
1.292331
 31
0.0
  0
LINE
  5
878
330
1F
100
AcDbEntity
  8
1
  6
CONTINUOUS
370
50
 62
4
100
AcDbLine
 10
68.00573
 20
-0.9779829999999999
 30
0.0
 11
69.200706
 21
-0.796937
 31
0.0
  0
LINE
  5
879
330
1F
100
AcDbEntity
  8
1
  6
CONTINUOUS
370
50
 62
4
100
AcDbLine
 10
67.147308
 20
0.5279539999999999
 30
0.0
 11
68.02111099999999
 21
0.6605059999999999
 31
0.0
  0
LINE
  5
87A
330
1F
100
AcDbEntity
  8
1
  6
CONTINUOUS
370
50
 62
4
100
AcDbLine
 10
62.0
 20
0.92999
 30
0.0
 11
62.16199899999999
 21
0.95458
 31
0.0
  0
LINE
  5
87B
330
1F
100
AcDbEntity
  8
1
  6
CONTINUOUS
370
50
 62
4
100
AcDbLine
 10
73.148262
 20
1.292331
 30
0.0
 11
73.338318
 21
1.321189
 31
0.0
  0
LINE
  5
87C
330
1F
100
AcDbEntity
  8
1
  6
CONTINUOUS
370
50
 62
4
100
AcDbLine
 10
68.434341
 20
-0.744263
 30
0.0
 11
69.46302
 21
-0.587913
 31
0.0
  0
LINE
  5
87D
330
1F
100
AcDbEntity
  8
1
  6
CONTINUOUS
370
50
 62
4
100
AcDbLine
 10
77.354462
 20
-0.9020469999999999
 30
0.0
 11
77.930336
 21
-0.814504
 31
0.0
  0
LINE
  5
87E
330
1F
100
AcDbEntity
  8
1
  6
CONTINUOUS
370
50
 62
4
100
AcDbLine
 10
73.980598
 20
0.014989
 30
0.0
 11
73.980644
 21
0.014996
 31
0.0
  0
LINE
  5
87F
330
1F
100
AcDbEntity
  8
1
  6
CONTINUOUS
370
50
 62
4
100
AcDbLine
 10
73.338318
 20
1.321189
 30
0.0
 11
73.454437
 21
1.338862
 31
0.0
  0
LINE
  5
880
330
1F
100
AcDbEntity
  8
1
  6
CONTINUOUS
370
50
 62
4
100
AcDbLine
 10
73.454437
 20
1.338862
 30
0.0
 11
73.64866599999999
 21
1.368492
 31
0.0
  0
LINE
  5
881
330
1F
100
AcDbEntity
  8
1
  6
CONTINUOUS
370
50
 62
4
100
AcDbLine
 10
73.64866599999999
 20
1.368492
 30
0.0
 11
73.842896
 21
1.398208
 31
0.0
  0
LINE
  5
882
330
1F
100
AcDbEntity
  8
1
  6
CONTINUOUS
370
50
 62
4
100
AcDbLine
 10
77.782448
 20
1.177864
 30
0.0
 11
78.87005599999999
 21
1.344444
 31
0.0
  0
LINE
  5
883
330
1F
100
AcDbEntity
  8
1
  6
CONTINUOUS
370
50
 62
4
100
AcDbLine
 10
63.304161
 20
1.125854
 30
0.0
 11
63.47023799999999
 21
1.15133
 31
0.0
  0
LINE
  5
884
330
1F
100
AcDbEntity
  8
1
  6
CONTINUOUS
370
50
 62
4
100
AcDbLine
 10
73.842896
 20
1.398208
 30
0.0
 11
74.037125
 21
1.42801
 31
0.0
  0
LINE
  5
885
330
1F
100
AcDbEntity
  8
1
  6
CONTINUOUS
370
50
 62
4
100
AcDbLine
 10
78.163986
 20
-0.610227
 30
0.0
 11
78.46530899999999
 21
-0.563981
 31
0.0
  0
LINE
  5
886
330
1F
100
AcDbEntity
  8
1
  6
CONTINUOUS
370
50
 62
4
100
AcDbLine
 10
74.69734199999999
 20
0.330279
 30
0.0
 11
75.783531
 21
0.497415
 31
0.0
  0
LINE
  5
887
330
1F
100
AcDbEntity
  8
1
  6
CONTINUOUS
370
50
 62
4
100
AcDbLine
 10
74.037125
 20
1.42801
 30
0.0
 11
74.231354
 21
1.457897
 31
0.0
  0
LINE
  5
888
330
1F
100
AcDbEntity
  8
1
  6
CONTINUOUS
370
50
 62
4
100
AcDbLine
 10
74.231354
 20
1.457897
 30
0.0
 11
74.425591
 21
1.487872
 31
0.0
  0
LINE
  5
889
330
1F
100
AcDbEntity
  8
1
  6
CONTINUOUS
370
50
 62
4
100
AcDbLine
 10
70.625946
 20
0.909582
 30
0.0
 11
71.713768
 21
1.077495
 31
0.0
  0
LINE
  5
88A
330
1F
100
AcDbEntity
  8
1
  6
CONTINUOUS
370
50
 62
4
100
AcDbLine
 10
66.97023
 20
0.438694
 30
0.0
 11
67.975517
 21
0.5938749999999999
 31
0.0
  0
LINE
  5
88B
330
1F
100
AcDbEntity
  8
1
  6
CONTINUOUS
370
50
 62
4
100
AcDbLine
 10
77.800552
 20
-0.60685
 30
0.0
 11
78.006424
 21
-0.575033
 31
0.0
  0
LINE
  5
88C
330
1F
100
AcDbEntity
  8
1
  6
CONTINUOUS
370
50
 62
4
100
AcDbLine
 10
75.24086799999999
 20
0.354546
 30
0.0
 11
76.196518
 21
0.5022449999999999
 31
0.0
  0
LINE
  5
88D
330
1F
100
AcDbEntity
  8
1
  6
CONTINUOUS
370
50
 62
4
100
AcDbLine
 10
74.425591
 20
1.487872
 30
0.0
 11
74.619835
 21
1.517934
 31
0.0
  0
LINE
  5
88E
330
1F
100
AcDbEntity
  8
1
  6
CONTINUOUS
370
50
 62
4
100
AcDbLine
 10
63.47023799999999
 20
1.15133
 30
0.0
 11
63.636318
 21
1.177053
 31
0.0
  0
LINE
  5
88F
330
1F
100
AcDbEntity
  8
1
  6
CONTINUOUS
370
50
 62
4
100
AcDbLine
 10
78.004738
 20
-0.7890149999999999
 30
0.0
 11
78.55193299999999
 21
-0.704237
 31
0.0
  0
LINE
  5
890
330
1F
100
AcDbEntity
  8
1
  6
CONTINUOUS
370
50
 62
4
100
AcDbLine
 10
66.26677699999999
 20
0.391468
 30
0.0
 11
67.147308
 21
0.5279539999999999
 31
0.0
  0
LINE
  5
891
330
1F
100
AcDbEntity
  8
1
  6
CONTINUOUS
370
50
 62
4
100
AcDbLine
 10
63.636318
 20
1.177053
 30
0.0
 11
63.75155299999999
 21
1.194932
 31
0.0
  0
LINE
  5
892
330
1F
100
AcDbEntity
  8
1
  6
CONTINUOUS
370
50
 62
4
100
AcDbLine
 10
74.619835
 20
1.517934
 30
0.0
 11
74.814072
 21
1.548083
 31
0.0
  0
LINE
  5
893
330
1F
100
AcDbEntity
  8
1
  6
CONTINUOUS
370
50
 62
4
100
AcDbLine
 10
63.75155299999999
 20
1.194932
 30
0.0
 11
63.866787
 21
1.212832
 31
0.0
  0
LINE
  5
894
330
1F
100
AcDbEntity
  8
1
  6
CONTINUOUS
370
50
 62
4
100
AcDbLine
 10
68.860458
 20
1.165472
 30
0.0
 11
69.91864799999999
 21
1.330037
 31
0.0
  0
LINE
  5
895
330
1F
100
AcDbEntity
  8
1
  6
CONTINUOUS
370
50
 62
4
100
AcDbLine
 10
63.866787
 20
1.212832
 30
0.0
 11
63.982029
 21
1.230754
 31
0.0
  0
LINE
  5
896
330
1F
100
AcDbEntity
  8
1
  6
CONTINUOUS
370
50
 62
4
100
AcDbLine
 10
74.814072
 20
1.548083
 30
0.0
 11
75.008316
 21
1.578321
 31
0.0
  0
LINE
  5
897
330
1F
100
AcDbEntity
  8
1
  6
CONTINUOUS
370
50
 62
4
100
AcDbLine
 10
63.982029
 20
1.230754
 30
0.0
 11
64.097275
 21
1.248695
 31
0.0
  0
LINE
  5
898
330
1F
100
AcDbEntity
  8
1
  6
CONTINUOUS
370
50
 62
4
100
AcDbLine
 10
78.46530899999999
 20
-0.563981
 30
0.0
 11
78.765877
 21
-0.517168
 31
0.0
  0
LINE
  5
899
330
1F
100
AcDbEntity
  8
1
  6
CONTINUOUS
370
50
 62
4
100
AcDbLine
 10
64.097275
 20
1.248695
 30
0.0
 11
64.212524
 21
1.266656
 31
0.0
  0
LINE
  5
89A
330
1F
100
AcDbEntity
  8
1
  6
CONTINUOUS
370
50
 62
4
100
AcDbLine
 10
79.75149499999999
 20
0.950471
 30
0.0
 11
79.82032799999999
 21
0.9612029999999999
 31
0.0
  0
LINE
  5
89B
330
1F
100
AcDbEntity
  8
1
  6
CONTINUOUS
370
50
 62
4
100
AcDbLine
 10
64.212524
 20
1.266656
 30
0.0
 11
64.327782
 21
1.284635
 31
0.0
  0
LINE
  5
89C
330
1F
100
AcDbEntity
  8
1
  6
CONTINUOUS
370
50
 62
4
100
AcDbLine
 10
71.099052
 20
2.383595
 30
0.0
 11
72.240028
 21
2.56158
 31
0.0
  0
LINE
  5
89D
330
1F
100
AcDbEntity
  8
1
  6
CONTINUOUS
370
50
 62
4
100
AcDbLine
 10
79.682655
 20
0.939731
 30
0.0
 11
79.75149499999999
 21
0.950471
 31
0.0
  0
LINE
  5
89E
330
1F
100
AcDbEntity
  8
1
  6
CONTINUOUS
370
50
 62
4
100
AcDbLine
 10
75.008316
 20
1.578321
 30
0.0
 11
75.090851
 21
1.591198
 31
0.0
  0
LINE
  5
89F
330
1F
100
AcDbEntity
  8
1
  6
CONTINUOUS
370
50
 62
4
100
AcDbLine
 10
79.613823
 20
0.9289839999999999
 30
0.0
 11
79.682655
 21
0.939731
 31
0.0
  0
LINE
  5
8A0
330
1F
100
AcDbEntity
  8
1
  6
CONTINUOUS
370
50
 62
4
100
AcDbLine
 10
64.327782
 20
1.284635
 30
0.0
 11
64.44303099999999
 21
1.302631
 31
0.0
  0
LINE
  5
8A1
330
1F
100
AcDbEntity
  8
1
  6
CONTINUOUS
370
50
 62
4
100
AcDbLine
 10
78.006424
 20
-0.575033
 30
0.0
 11
78.21257
 21
-0.542836
 31
0.0
  0
LINE
  5
8A2
330
1F
100
AcDbEntity
  8
1
  6
CONTINUOUS
370
50
 62
4
100
AcDbLine
 10
79.544983
 20
0.91823
 30
0.0
 11
79.613823
 21
0.9289839999999999
 31
0.0
  0
LINE
  5
8A3
330
1F
100
AcDbEntity
  8
1
  6
CONTINUOUS
370
50
 62
4
100
AcDbLine
 10
64.44303099999999
 20
1.302631
 30
0.0
 11
64.558289
 21
1.320644
 31
0.0
  0
LINE
  5
8A4
330
1F
100
AcDbEntity
  8
1
  6
CONTINUOUS
370
50
 62
4
100
AcDbLine
 10
79.476143
 20
0.9074679999999999
 30
0.0
 11
79.544983
 21
0.91823
 31
0.0
  0
LINE
  5
8A5
330
1F
100
AcDbEntity
  8
1
  6
CONTINUOUS
370
50
 62
4
100
AcDbLine
 10
75.090851
 20
1.591198
 30
0.0
 11
75.295403
 21
1.623179
 31
0.0
  0
LINE
  5
8A6
330
1F
100
AcDbEntity
  8
1
  6
CONTINUOUS
370
50
 62
4
100
AcDbLine
 10
79.407303
 20
0.896697
 30
0.0
 11
79.476143
 21
0.9074679999999999
 31
0.0
  0
LINE
  5
8A7
330
1F
100
AcDbEntity
  8
1
  6
CONTINUOUS
370
50
 62
4
100
AcDbLine
 10
64.558289
 20
1.320644
 30
0.0
 11
64.736893
 21
1.34859
 31
0.0
  0
LINE
  5
8A8
330
1F
100
AcDbEntity
  8
1
  6
CONTINUOUS
370
50
 62
4
100
AcDbLine
 10
64.736893
 20
1.34859
 30
0.0
 11
64.915489
 21
1.376575
 31
0.0
  0
LINE
  5
8A9
330
1F
100
AcDbEntity
  8
1
  6
CONTINUOUS
370
50
 62
4
100
AcDbLine
 10
77.853447
 20
-2.499085
 30
0.0
 11
78.811073
 21
-2.349007
 31
0.0
  0
LINE
  5
8AA
330
1F
100
AcDbEntity
  8
1
  6
CONTINUOUS
370
50
 62
4
100
AcDbLine
 10
75.295403
 20
1.623179
 30
0.0
 11
75.499954
 21
1.655263
 31
0.0
  0
LINE
  5
8AB
330
1F
100
AcDbEntity
  8
1
  6
CONTINUOUS
370
50
 62
4
100
AcDbLine
 10
64.915489
 20
1.376575
 30
0.0
 11
65.094109
 21
1.4046
 31
0.0
  0
LINE
  5
8AC
330
1F
100
AcDbEntity
  8
1
  6
CONTINUOUS
370
50
 62
4
100
AcDbLine
 10
62.351589
 20
2.383383
 30
0.0
 11
63.341503
 21
2.538836
 31
0.0
  0
LINE
  5
8AD
330
1F
100
AcDbEntity
  8
1
  6
CONTINUOUS
370
50
 62
4
100
AcDbLine
 10
65.094109
 20
1.4046
 30
0.0
 11
65.27271999999999
 21
1.432665
 31
0.0
  0
LINE
  5
8AE
330
1F
100
AcDbEntity
  8
1
  6
CONTINUOUS
370
50
 62
4
100
AcDbLine
 10
77.930336
 20
-0.814504
 30
0.0
 11
78.506203
 21
-0.724013
 31
0.0
  0
LINE
  5
8AF
330
1F
100
AcDbEntity
  8
1
  6
CONTINUOUS
370
50
 62
4
100
AcDbLine
 10
65.27271999999999
 20
1.432665
 30
0.0
 11
65.388237
 21
1.450835
 31
0.0
  0
LINE
  5
8B0
330
1F
100
AcDbEntity
  8
1
  6
CONTINUOUS
370
50
 62
4
100
AcDbLine
 10
75.499954
 20
1.655263
 30
0.0
 11
75.704506
 21
1.687452
 31
0.0
  0
LINE
  5
8B1
330
1F
100
AcDbEntity
  8
1
  6
CONTINUOUS
370
50
 62
4
100
AcDbLine
 10
65.388237
 20
1.450835
 30
0.0
 11
65.503754
 21
1.469023
 31
0.0
  0
LINE
  5
8B2
330
1F
100
AcDbEntity
  8
1
  6
CONTINUOUS
370
50
 62
4
100
AcDbLine
 10
65.503754
 20
1.469023
 30
0.0
 11
65.61927
 21
1.487228
 31
0.0
  0
LINE
  5
8B3
330
1F
100
AcDbEntity
  8
1
  6
CONTINUOUS
370
50
 62
4
100
AcDbLine
 10
65.61927
 20
1.487228
 30
0.0
 11
65.734787
 21
1.50545
 31
0.0
  0
LINE
  5
8B4
330
1F
100
AcDbEntity
  8
1
  6
CONTINUOUS
370
50
 62
4
100
AcDbLine
 10
73.637115
 20
0.162986
 30
0.0
 11
74.69734199999999
 21
0.330279
 31
0.0
  0
LINE
  5
8B5
330
1F
100
AcDbEntity
  8
1
  6
CONTINUOUS
370
50
 62
4
100
AcDbLine
 10
78.21257
 20
-0.542836
 30
0.0
 11
78.419144
 21
-0.51024
 31
0.0
  0
LINE
  5
8B6
330
1F
100
AcDbEntity
  8
1
  6
CONTINUOUS
370
50
 62
4
100
AcDbLine
 10
75.704506
 20
1.687452
 30
0.0
 11
75.909058
 21
1.719747
 31
0.0
  0
LINE
  5
8B7
330
1F
100
AcDbEntity
  8
1
  6
CONTINUOUS
370
50
 62
4
100
AcDbLine
 10
65.734787
 20
1.50545
 30
0.0
 11
65.85031099999999
 21
1.523692
 31
0.0
  0
LINE
  5
8B8
330
1F
100
AcDbEntity
  8
1
  6
CONTINUOUS
370
50
 62
4
100
AcDbLine
 10
78.231873
 20
0.711359
 30
0.0
 11
79.082062
 21
0.845696
 31
0.0
  0
LINE
  5
8B9
330
1F
100
AcDbEntity
  8
1
  6
CONTINUOUS
370
50
 62
4
100
AcDbLine
 10
65.85031099999999
 20
1.523692
 30
0.0
 11
65.965828
 21
1.541951
 31
0.0
  0
LINE
  5
8BA
330
1F
100
AcDbEntity
  8
1
  6
CONTINUOUS
370
50
 62
4
100
AcDbLine
 10
78.765877
 20
-0.517168
 30
0.0
 11
79.065491
 21
-0.469807
 31
0.0
  0
LINE
  5
8BB
330
1F
100
AcDbEntity
  8
1
  6
CONTINUOUS
370
50
 62
4
100
AcDbLine
 10
74.283104
 20
0.203049
 30
0.0
 11
75.24086799999999
 21
0.354546
 31
0.0
  0
LINE
  5
8BC
330
1F
100
AcDbEntity
  8
1
  6
CONTINUOUS
370
50
 62
4
100
AcDbLine
 10
65.965828
 20
1.541951
 30
0.0
 11
66.081352
 21
1.56023
 31
0.0
  0
LINE
  5
8BD
330
1F
100
AcDbEntity
  8
1
  6
CONTINUOUS
370
50
 62
4
100
AcDbLine
 10
66.081352
 20
1.56023
 30
0.0
 11
66.19686899999999
 21
1.578529
 31
0.0
  0
LINE
  5
8BE
330
1F
100
AcDbEntity
  8
1
  6
CONTINUOUS
370
50
 62
4
100
AcDbLine
 10
75.909058
 20
1.719747
 30
0.0
 11
76.113609
 21
1.752152
 31
0.0
  0
LINE
  5
8BF
330
1F
100
AcDbEntity
  8
1
  6
CONTINUOUS
370
50
 62
4
100
AcDbLine
 10
68.997841
 20
-0.5997049999999999
 30
0.0
 11
69.883102
 21
-0.459388
 31
0.0
  0
LINE
  5
8C0
330
1F
100
AcDbEntity
  8
1
  6
CONTINUOUS
370
50
 62
4
100
AcDbLine
 10
65.960281
 20
0.278546
 30
0.0
 11
66.97023
 21
0.438694
 31
0.0
  0
LINE
  5
8C1
330
1F
100
AcDbEntity
  8
1
  6
CONTINUOUS
370
50
 62
4
100
AcDbLine
 10
66.19686899999999
 20
1.578529
 30
0.0
 11
66.374931
 21
1.606774
 31
0.0
  0
LINE
  5
8C2
330
1F
100
AcDbEntity
  8
1
  6
CONTINUOUS
370
50
 62
4
100
AcDbLine
 10
66.374931
 20
1.606774
 30
0.0
 11
66.55298599999999
 21
1.63507
 31
0.0
  0
LINE
  5
8C3
330
1F
100
AcDbEntity
  8
1
  6
CONTINUOUS
370
50
 62
4
100
AcDbLine
 10
76.113609
 20
1.752152
 30
0.0
 11
76.318161
 21
1.784668
 31
0.0
  0
LINE
  5
8C4
330
1F
100
AcDbEntity
  8
1
  6
CONTINUOUS
370
50
 62
4
100
AcDbLine
 10
65.386803
 20
0.251574
 30
0.0
 11
66.26677699999999
 21
0.391468
 31
0.0
  0
LINE
  5
8C5
330
1F
100
AcDbEntity
  8
1
  6
CONTINUOUS
370
50
 62
4
100
AcDbLine
 10
66.55298599999999
 20
1.63507
 30
0.0
 11
66.731049
 21
1.66342
 31
0.0
  0
LINE
  5
8C6
330
1F
100
AcDbEntity
  8
1
  6
CONTINUOUS
370
50
 62
4
100
AcDbLine
 10
78.419144
 20
-0.51024
 30
0.0
 11
78.625992
 21
-0.477262
 31
0.0
  0
LINE
  5
8C7
330
1F
100
AcDbEntity
  8
1
  6
CONTINUOUS
370
50
 62
4
100
AcDbLine
 10
69.538139
 20
0.736111
 30
0.0
 11
70.625946
 21
0.909582
 31
0.0
  0
LINE
  5
8C8
330
1F
100
AcDbEntity
  8
1
  6
CONTINUOUS
370
50
 62
4
100
AcDbLine
 10
76.318161
 20
1.784668
 30
0.0
 11
76.522713
 21
1.817297
 31
0.0
  0
LINE
  5
8C9
330
1F
100
AcDbEntity
  8
1
  6
CONTINUOUS
370
50
 62
4
100
AcDbLine
 10
66.731049
 20
1.66342
 30
0.0
 11
66.909103
 21
1.691827
 31
0.0
  0
LINE
  5
8CA
330
1F
100
AcDbEntity
  8
1
  6
CONTINUOUS
370
50
 62
4
100
AcDbLine
 10
66.909103
 20
1.691827
 30
0.0
 11
67.028206
 21
1.710862
 31
0.0
  0
LINE
  5
8CB
330
1F
100
AcDbEntity
  8
1
  6
CONTINUOUS
370
50
 62
4
100
AcDbLine
 10
77.38166
 20
0.575382
 30
0.0
 11
78.231873
 21
0.711359
 31
0.0
  0
LINE
  5
8CC
330
1F
100
AcDbEntity
  8
1
  6
CONTINUOUS
370
50
 62
4
100
AcDbLine
 10
67.028206
 20
1.710862
 30
0.0
 11
67.147316
 21
1.729926
 31
0.0
  0
LINE
  5
8CD
330
1F
100
AcDbEntity
  8
1
  6
CONTINUOUS
370
50
 62
4
100
AcDbLine
 10
76.522713
 20
1.817297
 30
0.0
 11
76.727257
 21
1.850041
 31
0.0
  0
LINE
  5
8CE
330
1F
100
AcDbEntity
  8
1
  6
CONTINUOUS
370
50
 62
4
100
AcDbLine
 10
78.55193299999999
 20
-0.704237
 30
0.0
 11
79.09706899999999
 21
-0.616918
 31
0.0
  0
LINE
  5
8CF
330
1F
100
AcDbEntity
  8
1
  6
CONTINUOUS
370
50
 62
4
100
AcDbLine
 10
69.46302
 20
-0.587913
 30
0.0
 11
70.451065
 21
-0.429623
 31
0.0
  0
LINE
  5
8D0
330
1F
100
AcDbEntity
  8
1
  6
CONTINUOUS
370
50
 62
4
100
AcDbLine
 10
76.694847
 20
1.0036
 30
0.0
 11
77.782448
 21
1.177864
 31
0.0
  0
LINE
  5
8D1
330
1F
100
AcDbEntity
  8
1
  6
CONTINUOUS
370
50
 62
4
100
AcDbLine
 10
67.147316
 20
1.729926
 30
0.0
 11
67.266418
 21
1.749018
 31
0.0
  0
LINE
  5
8D2
330
1F
100
AcDbEntity
  8
1
  6
CONTINUOUS
370
50
 62
4
100
AcDbLine
 10
67.266418
 20
1.749018
 30
0.0
 11
67.385521
 21
1.768141
 31
0.0
  0
LINE
  5
8D3
330
1F
100
AcDbEntity
  8
1
  6
CONTINUOUS
370
50
 62
4
100
AcDbLine
 10
76.727257
 20
1.850041
 30
0.0
 11
76.93180799999999
 21
1.882901
 31
0.0
  0
LINE
  5
8D4
330
1F
100
AcDbEntity
  8
1
  6
CONTINUOUS
370
50
 62
4
100
AcDbLine
 10
67.385521
 20
1.768141
 30
0.0
 11
67.504631
 21
1.787294
 31
0.0
  0
LINE
  5
8D5
330
1F
100
AcDbEntity
  8
1
  6
CONTINUOUS
370
50
 62
4
100
AcDbLine
 10
67.504631
 20
1.787294
 30
0.0
 11
67.623734
 21
1.806479
 31
0.0
  0
LINE
  5
8D6
330
1F
100
AcDbEntity
  8
1
  6
CONTINUOUS
370
50
 62
4
100
AcDbLine
 10
78.625992
 20
-0.477262
 30
0.0
 11
78.832954
 21
-0.443921
 31
0.0
  0
LINE
  5
8D7
330
1F
100
AcDbEntity
  8
1
  6
CONTINUOUS
370
50
 62
4
100
AcDbLine
 10
76.93180799999999
 20
1.882901
 30
0.0
 11
77.13636
 21
1.91588
 31
0.0
  0
LINE
  5
8D8
330
1F
100
AcDbEntity
  8
1
  6
CONTINUOUS
370
50
 62
4
100
AcDbLine
 10
73.980682
 20
0.015003
 30
0.0
 11
73.980713
 21
0.015008
 31
0.0
  0
LINE
  5
8D9
330
1F
100
AcDbEntity
  8
1
  6
CONTINUOUS
370
50
 62
4
100
AcDbLine
 10
67.623734
 20
1.806479
 30
0.0
 11
67.742836
 21
1.825698
 31
0.0
  0
LINE
  5
8DA
330
1F
100
AcDbEntity
  8
1
  6
CONTINUOUS
370
50
 62
4
100
AcDbLine
 10
68.450333
 20
0.56031
 30
0.0
 11
69.538139
 21
0.736111
 31
0.0
  0
LINE
  5
8DB
330
1F
100
AcDbEntity
  8
1
  6
CONTINUOUS
370
50
 62
4
100
AcDbLine
 10
73.32442499999999
 20
0.04811
 30
0.0
 11
74.283104
 21
0.203049
 31
0.0
  0
LINE
  5
8DC
330
1F
100
AcDbEntity
  8
1
  6
CONTINUOUS
370
50
 62
4
100
AcDbLine
 10
67.742836
 20
1.825698
 30
0.0
 11
67.861938
 21
1.84495
 31
0.0
  0
LINE
  5
8DD
330
1F
100
AcDbEntity
  8
1
  6
CONTINUOUS
370
50
 62
4
100
AcDbLine
 10
77.13636
 20
1.91588
 30
0.0
 11
77.340912
 21
1.948978
 31
0.0
  0
LINE
  5
8DE
330
1F
100
AcDbEntity
  8
1
  6
CONTINUOUS
370
50
 62
4
100
AcDbLine
 10
76.531441
 20
0.437752
 30
0.0
 11
77.38166
 21
0.575382
 31
0.0
  0
LINE
  5
8DF
330
1F
100
AcDbEntity
  8
1
  6
CONTINUOUS
370
50
 62
4
100
AcDbLine
 10
67.861938
 20
1.84495
 30
0.0
 11
68.032814
 21
1.872633
 31
0.0
  0
LINE
  5
8E0
330
1F
100
AcDbEntity
  8
1
  6
CONTINUOUS
370
50
 62
4
100
AcDbLine
 10
72.628044
 20
-0.000565
 30
0.0
 11
73.637115
 21
0.162986
 31
0.0
  0
LINE
  5
8E1
330
1F
100
AcDbEntity
  8
1
  6
CONTINUOUS
370
50
 62
4
100
AcDbLine
 10
59.168598
 20
-2.295444
 30
0.0
 11
59.200733
 21
-2.290232
 31
0.0
  0
LINE
  5
8E2
330
1F
100
AcDbEntity
  8
1
  6
CONTINUOUS
370
50
 62
4
100
AcDbLine
 10
69.41450499999999
 20
-0.749185
 30
0.0
 11
70.572418
 21
-0.561345
 31
0.0
  0
LINE
  5
8E3
330
1F
100
AcDbEntity
  8
1
  6
CONTINUOUS
370
50
 62
4
100
AcDbLine
 10
67.85051
 20
-2.430815
 30
0.0
 11
68.710899
 21
-2.291195
 31
0.0
  0
LINE
  5
8E4
330
1F
100
AcDbEntity
  8
1
  6
CONTINUOUS
370
50
 62
4
100
AcDbLine
 10
77.340912
 20
1.948978
 30
0.0
 11
77.545456
 21
1.982196
 31
0.0
  0
LINE
  5
8E5
330
1F
100
AcDbEntity
  8
1
  6
CONTINUOUS
370
50
 62
4
100
AcDbLine
 10
78.506203
 20
-0.724013
 30
0.0
 11
79.082062
 21
-0.63049
 31
0.0
  0
LINE
  5
8E6
330
1F
100
AcDbEntity
  8
1
  6
CONTINUOUS
370
50
 62
4
100
AcDbLine
 10
68.032814
 20
1.872633
 30
0.0
 11
68.20369
 21
1.900391
 31
0.0
  0
LINE
  5
8E7
330
1F
100
AcDbEntity
  8
1
  6
CONTINUOUS
370
50
 62
4
100
AcDbLine
 10
67.802269
 20
0.9933869999999999
 30
0.0
 11
68.860458
 21
1.165472
 31
0.0
  0
LINE
  5
8E8
330
1F
100
AcDbEntity
  8
1
  6
CONTINUOUS
370
50
 62
4
100
AcDbLine
 10
69.19519
 20
-2.471429
 30
0.0
 11
70.133163
 21
-2.318861
 31
0.0
  0
LINE
  5
8E9
330
1F
100
AcDbEntity
  8
1
  6
CONTINUOUS
370
50
 62
4
100
AcDbLine
 10
78.832954
 20
-0.443921
 30
0.0
 11
79.039886
 21
-0.410233
 31
0.0
  0
LINE
  5
8EA
330
1F
100
AcDbEntity
  8
1
  6
CONTINUOUS
370
50
 62
4
100
AcDbLine
 10
59.302921
 20
-0.22839
 30
0.0
 11
59.336185
 21
-0.222973
 31
0.0
  0
LINE
  5
8EB
330
1F
100
AcDbEntity
  8
1
  6
CONTINUOUS
370
50
 62
4
100
AcDbLine
 10
69.200706
 20
-0.796937
 30
0.0
 11
70.39568299999999
 21
-0.602325
 31
0.0
  0
LINE
  5
8EC
330
1F
100
AcDbEntity
  8
1
  6
CONTINUOUS
370
50
 62
4
100
AcDbLine
 10
68.20369
 20
1.900391
 30
0.0
 11
68.37456499999999
 21
1.928227
 31
0.0
  0
LINE
  5
8ED
330
1F
100
AcDbEntity
  8
1
  6
CONTINUOUS
370
50
 62
4
100
AcDbLine
 10
64.951149
 20
0.114122
 30
0.0
 11
65.960281
 21
0.278546
 31
0.0
  0
LINE
  5
8EE
330
1F
100
AcDbEntity
  8
1
  6
CONTINUOUS
370
50
 62
4
100
AcDbLine
 10
77.545456
 20
1.982196
 30
0.0
 11
77.74999199999999
 21
2.015531
 31
0.0
  0
LINE
  5
8EF
330
1F
100
AcDbEntity
  8
1
  6
CONTINUOUS
370
50
 62
4
100
AcDbLine
 10
68.37456499999999
 20
1.928227
 30
0.0
 11
68.545441
 21
1.956143
 31
0.0
  0
LINE
  5
8F0
330
1F
100
AcDbEntity
  8
1
  6
CONTINUOUS
370
50
 62
4
100
AcDbLine
 10
77.74999199999999
 20
2.015531
 30
0.0
 11
77.954521
 21
2.048986
 31
0.0
  0
LINE
  5
8F1
330
1F
100
AcDbEntity
  8
1
  6
CONTINUOUS
370
50
 62
4
100
AcDbLine
 10
64.514984
 20
0.108846
 30
0.0
 11
65.386803
 21
0.251574
 31
0.0
  0
LINE
  5
8F2
330
1F
100
AcDbEntity
  8
1
  6
CONTINUOUS
370
50
 62
4
100
AcDbLine
 10
68.545441
 20
1.956143
 30
0.0
 11
68.666069
 21
1.9759
 31
0.0
  0
LINE
  5
8F3
330
1F
100
AcDbEntity
  8
1
  6
CONTINUOUS
370
50
 62
4
100
AcDbLine
 10
75.681213
 20
0.298474
 30
0.0
 11
76.531441
 21
0.437752
 31
0.0
  0
LINE
  5
8F4
330
1F
100
AcDbEntity
  8
1
  6
CONTINUOUS
370
50
 62
4
100
AcDbLine
 10
59.2206
 20
1.941196
 30
0.0
 11
59.25173599999999
 21
1.946299
 31
0.0
  0
LINE
  5
8F5
330
1F
100
AcDbEntity
  8
1
  6
CONTINUOUS
370
50
 62
4
100
AcDbLine
 10
67.362503
 20
0.381969
 30
0.0
 11
68.450333
 21
0.56031
 31
0.0
  0
LINE
  5
8F6
330
1F
100
AcDbEntity
  8
1
  6
CONTINUOUS
370
50
 62
4
100
AcDbLine
 10
68.666069
 20
1.9759
 30
0.0
 11
68.78669
 21
1.995699
 31
0.0
  0
LINE
  5
8F7
330
1F
100
AcDbEntity
  8
1
  6
CONTINUOUS
370
50
 62
4
100
AcDbLine
 10
77.954521
 20
2.048986
 30
0.0
 11
78.15905
 21
2.082559
 31
0.0
  0
LINE
  5
8F8
330
1F
100
AcDbEntity
  8
1
  6
CONTINUOUS
370
50
 62
4
100
AcDbLine
 10
62.0
 20
2.325506
 30
0.0
 11
62.058598
 21
2.33514
 31
0.0
  0
LINE
  5
8F9
330
1F
100
AcDbEntity
  8
1
  6
CONTINUOUS
370
50
 62
4
100
AcDbLine
 10
68.78669
 20
1.995699
 30
0.0
 11
68.907318
 21
2.015541
 31
0.0
  0
LINE
  5
8FA
330
1F
100
AcDbEntity
  8
1
  6
CONTINUOUS
370
50
 62
4
100
AcDbLine
 10
62.058598
 20
2.33514
 30
0.0
 11
62.117195
 21
2.34478
 31
0.0
  0
LINE
  5
8FB
330
1F
100
AcDbEntity
  8
1
  6
CONTINUOUS
370
50
 62
4
100
AcDbLine
 10
62.0
 20
-0.378663
 30
0.0
 11
62.993347
 21
-0.215193
 31
0.0
  0
LINE
  5
8FC
330
1F
100
AcDbEntity
  8
1
  6
CONTINUOUS
370
50
 62
4
100
AcDbLine
 10
62.117195
 20
2.34478
 30
0.0
 11
62.175793
 21
2.354424
 31
0.0
  0
LINE
  5
8FD
330
1F
100
AcDbEntity
  8
1
  6
CONTINUOUS
370
50
 62
4
100
AcDbLine
 10
62.175793
 20
2.354424
 30
0.0
 11
62.23439
 21
2.364072
 31
0.0
  0
LINE
  5
8FE
330
1F
100
AcDbEntity
  8
1
  6
CONTINUOUS
370
50
 62
4
100
AcDbLine
 10
62.23439
 20
2.364072
 30
0.0
 11
62.29298799999999
 21
2.373724
 31
0.0
  0
LINE
  5
8FF
330
1F
100
AcDbEntity
  8
1
  6
CONTINUOUS
370
50
 62
4
100
AcDbLine
 10
78.15905
 20
2.082559
 30
0.0
 11
78.363655
 21
2.116262
 31
0.0
  0
LINE
  5
900
330
1F
100
AcDbEntity
  8
1
  6
CONTINUOUS
370
50
 62
4
100
AcDbLine
 10
62.29298799999999
 20
2.373724
 30
0.0
 11
62.351589
 21
2.383381
 31
0.0
  0
LINE
  5
901
330
1F
100
AcDbEntity
  8
1
  6
CONTINUOUS
370
50
 62
4
100
AcDbLine
 10
72.367859
 20
-0.109555
 30
0.0
 11
73.32442499999999
 21
0.04811
 31
0.0
  0
LINE
  5
902
330
1F
100
AcDbEntity
  8
1
  6
CONTINUOUS
370
50
 62
4
100
AcDbLine
 10
68.907318
 20
2.015541
 30
0.0
 11
69.027939
 21
2.035426
 31
0.0
  0
LINE
  5
903
330
1F
100
AcDbEntity
  8
1
  6
CONTINUOUS
370
50
 62
4
100
AcDbLine
 10
76.79039
 20
-2.414596
 30
0.0
 11
77.87248199999999
 21
-2.236175
 31
0.0
  0
LINE
  5
904
330
1F
100
AcDbEntity
  8
1
  6
CONTINUOUS
370
50
 62
4
100
AcDbLine
 10
69.027939
 20
2.035426
 30
0.0
 11
69.14856
 21
2.055355
 31
0.0
  0
LINE
  5
905
330
1F
100
AcDbEntity
  8
1
  6
CONTINUOUS
370
50
 62
4
100
AcDbLine
 10
62.292995
 20
2.373699
 30
0.0
 11
62.351589
 21
2.383383
 31
0.0
  0
LINE
  5
906
330
1F
100
AcDbEntity
  8
1
  6
CONTINUOUS
370
50
 62
4
100
AcDbLine
 10
78.363655
 20
2.116262
 30
0.0
 11
78.563271
 21
2.149255
 31
0.0
  0
LINE
  5
907
330
1F
100
AcDbEntity
  8
1
  6
CONTINUOUS
370
50
 62
4
100
AcDbLine
 10
69.14856
 20
2.055355
 30
0.0
 11
69.269173
 21
2.075329
 31
0.0
  0
LINE
  5
908
330
1F
100
AcDbEntity
  8
1
  6
CONTINUOUS
370
50
 62
4
100
AcDbLine
 10
78.563271
 20
2.149255
 30
0.0
 11
78.76297
 21
2.182351
 31
0.0
  0
LINE
  5
909
330
1F
100
AcDbEntity
  8
1
  6
CONTINUOUS
370
50
 62
4
100
AcDbLine
 10
74.830986
 20
0.157554
 30
0.0
 11
75.681213
 21
0.298474
 31
0.0
  0
LINE
  5
90A
330
1F
100
AcDbEntity
  8
1
  6
CONTINUOUS
370
50
 62
4
100
AcDbLine
 10
69.883102
 20
-0.459388
 30
0.0
 11
70.768097
 21
-0.31255
 31
0.0
  0
LINE
  5
90B
330
1F
100
AcDbEntity
  8
1
  6
CONTINUOUS
370
50
 62
4
100
AcDbLine
 10
69.269173
 20
2.075329
 30
0.0
 11
69.389793
 21
2.095348
 31
0.0
  0
LINE
  5
90C
330
1F
100
AcDbEntity
  8
1
  6
CONTINUOUS
370
50
 62
4
100
AcDbLine
 10
71.67150099999999
 20
-0.159399
 30
0.0
 11
72.628044
 21
-0.000565
 31
0.0
  0
LINE
  5
90D
330
1F
100
AcDbEntity
  8
1
  6
CONTINUOUS
370
50
 62
4
100
AcDbLine
 10
62.234402
 20
2.363963
 30
0.0
 11
62.292995
 21
2.373699
 31
0.0
  0
LINE
  5
90E
330
1F
100
AcDbEntity
  8
1
  6
CONTINUOUS
370
50
 62
4
100
AcDbLine
 10
78.76297
 20
2.182351
 30
0.0
 11
78.962654
 21
2.215543
 31
0.0
  0
LINE
  5
90F
330
1F
100
AcDbEntity
  8
1
  6
CONTINUOUS
370
50
 62
4
100
AcDbLine
 10
62.0
 20
-0.5307379999999999
 30
0.0
 11
62.540081
 21
-0.440892
 31
0.0
  0
LINE
  5
910
330
1F
100
AcDbEntity
  8
1
  6
CONTINUOUS
370
50
 62
4
100
AcDbLine
 10
69.389793
 20
2.095348
 30
0.0
 11
69.510406
 21
2.115414
 31
0.0
  0
LINE
  5
911
330
1F
100
AcDbEntity
  8
1
  6
CONTINUOUS
370
50
 62
4
100
AcDbLine
 10
70.451065
 20
-0.429623
 30
0.0
 11
71.41297899999999
 21
-0.269465
 31
0.0
  0
LINE
  5
912
330
1F
100
AcDbEntity
  8
1
  6
CONTINUOUS
370
50
 62
4
100
AcDbLine
 10
79.42736099999999
 20
-0.562564
 30
0.0
 11
79.49389599999999
 21
-0.551478
 31
0.0
  0
LINE
  5
913
330
1F
100
AcDbEntity
  8
1
  6
CONTINUOUS
370
50
 62
4
100
AcDbLine
 10
78.962654
 20
2.215543
 30
0.0
 11
79.16233799999999
 21
2.248844
 31
0.0
  0
LINE
  5
914
330
1F
100
AcDbEntity
  8
1
  6
CONTINUOUS
370
50
 62
4
100
AcDbLine
 10
69.510406
 20
2.115414
 30
0.0
 11
69.678253
 21
2.143413
 31
0.0
  0
LINE
  5
915
330
1F
100
AcDbEntity
  8
1
  6
CONTINUOUS
370
50
 62
4
100
AcDbLine
 10
66.274658
 20
0.200442
 30
0.0
 11
67.362503
 21
0.381969
 31
0.0
  0
LINE
  5
916
330
1F
100
AcDbEntity
  8
1
  6
CONTINUOUS
370
50
 62
4
100
AcDbLine
 10
72.830681
 20
-0.177108
 30
0.0
 11
73.980598
 21
0.014859
 31
0.0
  0
LINE
  5
917
330
1F
100
AcDbEntity
  8
1
  6
CONTINUOUS
370
50
 62
4
100
AcDbLine
 10
62.0
 20
-0.315973
 30
0.0
 11
62.848896
 21
-0.174241
 31
0.0
  0
LINE
  5
918
330
1F
100
AcDbEntity
  8
1
  6
CONTINUOUS
370
50
 62
4
100
AcDbLine
 10
62.175804
 20
2.354175
 30
0.0
 11
62.234402
 21
2.363963
 31
0.0
  0
LINE
  5
919
330
1F
100
AcDbEntity
  8
1
  6
CONTINUOUS
370
50
 62
4
100
AcDbLine
 10
75.607231
 20
0.8217
 30
0.0
 11
76.694847
 21
1.0036
 31
0.0
  0
LINE
  5
91A
330
1F
100
AcDbEntity
  8
1
  6
CONTINUOUS
370
50
 62
4
100
AcDbLine
 10
79.49389599999999
 20
-0.551478
 30
0.0
 11
79.56037099999999
 21
-0.540357
 31
0.0
  0
LINE
  5
91B
330
1F
100
AcDbEntity
  8
1
  6
CONTINUOUS
370
50
 62
4
100
AcDbLine
 10
69.678253
 20
2.143413
 30
0.0
 11
69.84609999999999
 21
2.171502
 31
0.0
  0
LINE
  5
91C
330
1F
100
AcDbEntity
  8
1
  6
CONTINUOUS
370
50
 62
4
100
AcDbLine
 10
79.16233799999999
 20
2.248844
 30
0.0
 11
79.36200699999999
 21
2.282265
 31
0.0
  0
LINE
  5
91D
330
1F
100
AcDbEntity
  8
1
  6
CONTINUOUS
370
50
 62
4
100
AcDbLine
 10
71.41297899999999
 20
-0.269465
 30
0.0
 11
72.367859
 21
-0.109555
 31
0.0
  0
LINE
  5
91E
330
1F
100
AcDbEntity
  8
1
  6
CONTINUOUS
370
50
 62
4
100
AcDbLine
 10
63.962135
 20
-0.051531
 30
0.0
 11
64.951149
 21
0.114122
 31
0.0
  0
LINE
  5
91F
330
1F
100
AcDbEntity
  8
1
  6
CONTINUOUS
370
50
 62
4
100
AcDbLine
 10
73.98075899999999
 20
0.014984
 30
0.0
 11
74.830986
 21
0.157554
 31
0.0
  0
LINE
  5
920
330
1F
100
AcDbEntity
  8
1
  6
CONTINUOUS
370
50
 62
4
100
AcDbLine
 10
62.117203
 20
2.344336
 30
0.0
 11
62.175804
 21
2.354175
 31
0.0
  0
LINE
  5
921
330
1F
100
AcDbEntity
  8
1
  6
CONTINUOUS
370
50
 62
4
100
AcDbLine
 10
69.84609999999999
 20
2.171502
 30
0.0
 11
70.013931
 21
2.199681
 31
0.0
  0
LINE
  5
922
330
1F
100
AcDbEntity
  8
1
  6
CONTINUOUS
370
50
 62
4
100
AcDbLine
 10
79.56037099999999
 20
-0.540357
 30
0.0
 11
79.626778
 21
-0.529199
 31
0.0
  0
LINE
  5
923
330
1F
100
AcDbEntity
  8
1
  6
CONTINUOUS
370
50
 62
4
100
AcDbLine
 10
79.36200699999999
 20
2.282265
 30
0.0
 11
79.561668
 21
2.315819
 31
0.0
  0
LINE
  5
924
330
1F
100
AcDbEntity
  8
1
  6
CONTINUOUS
370
50
 62
4
100
AcDbLine
 10
70.013931
 20
2.199681
 30
0.0
 11
70.181763
 21
2.22795
 31
0.0
  0
LINE
  5
925
330
1F
100
AcDbEntity
  8
1
  6
CONTINUOUS
370
50
 62
4
100
AcDbLine
 10
79.626778
 20
-0.529199
 30
0.0
 11
79.693123
 21
-0.5180049999999999
 31
0.0
  0
LINE
  5
926
330
1F
100
AcDbEntity
  8
1
  6
CONTINUOUS
370
50
 62
4
100
AcDbLine
 10
62.0
 20
-0.5406369999999999
 30
0.0
 11
62.531116
 21
-0.451012
 31
0.0
  0
LINE
  5
927
330
1F
100
AcDbEntity
  8
1
  6
CONTINUOUS
370
50
 62
4
100
AcDbLine
 10
79.561668
 20
2.315819
 30
0.0
 11
79.761307
 21
2.349513
 31
0.0
  0
LINE
  5
928
330
1F
100
AcDbEntity
  8
1
  6
CONTINUOUS
370
50
 62
4
100
AcDbLine
 10
62.058601
 20
2.334445
 30
0.0
 11
62.117203
 21
2.344336
 31
0.0
  0
LINE
  5
929
330
1F
100
AcDbEntity
  8
1
  6
CONTINUOUS
370
50
 62
4
100
AcDbLine
 10
70.181763
 20
2.22795
 30
0.0
 11
70.296432
 21
2.247315
 31
0.0
  0
LINE
  5
92A
330
1F
100
AcDbEntity
  8
1
  6
CONTINUOUS
370
50
 62
4
100
AcDbLine
 10
79.407303
 20
-0.5762189999999999
 30
0.0
 11
79.476143
 21
-0.5645899999999999
 31
0.0
  0
LINE
  5
92B
330
1F
100
AcDbEntity
  8
1
  6
CONTINUOUS
370
50
 62
4
100
AcDbLine
 10
62.993347
 20
-0.215193
 30
0.0
 11
63.962135
 21
-0.051531
 31
0.0
  0
LINE
  5
92C
330
1F
100
AcDbEntity
  8
1
  6
CONTINUOUS
370
50
 62
4
100
AcDbLine
 10
63.67446099999999
 20
-0.033278
 30
0.0
 11
64.514984
 21
0.108846
 31
0.0
  0
LINE
  5
92D
330
1F
100
AcDbEntity
  8
1
  6
CONTINUOUS
370
50
 62
4
100
AcDbLine
 10
70.296432
 20
2.247315
 30
0.0
 11
70.411095
 21
2.266723
 31
0.0
  0
LINE
  5
92E
330
1F
100
AcDbEntity
  8
1
  6
CONTINUOUS
370
50
 62
4
100
AcDbLine
 10
79.693123
 20
-0.5180049999999999
 30
0.0
 11
79.759399
 21
-0.506776
 31
0.0
  0
LINE
  5
92F
330
1F
100
AcDbEntity
  8
1
  6
CONTINUOUS
370
50
 62
4
100
AcDbLine
 10
79.993492
 20
2.388884
 30
0.0
 11
80.0
 21
2.389987
 31
0.0
  0
LINE
  5
930
330
1F
100
AcDbEntity
  8
1
  6
CONTINUOUS
370
50
 62
4
100
AcDbLine
 10
70.768097
 20
-0.31255
 30
0.0
 11
71.67150099999999
 21
-0.159399
 31
0.0
  0
LINE
  5
931
330
1F
100
AcDbEntity
  8
1
  6
CONTINUOUS
370
50
 62
4
100
AcDbLine
 10
79.761307
 20
2.349513
 30
0.0
 11
79.960945
 21
2.38336
 31
0.0
  0
LINE
  5
932
330
1F
100
AcDbEntity
  8
1
  6
CONTINUOUS
370
50
 62
4
100
AcDbLine
 10
79.96745299999999
 20
2.384466
 30
0.0
 11
79.973969
 21
2.385571
 31
0.0
  0
LINE
  5
933
330
1F
100
AcDbEntity
  8
1
  6
CONTINUOUS
370
50
 62
4
100
AcDbLine
 10
70.411095
 20
2.266723
 30
0.0
 11
70.525764
 21
2.286172
 31
0.0
  0
LINE
  5
934
330
1F
100
AcDbEntity
  8
1
  6
CONTINUOUS
370
50
 62
4
100
AcDbLine
 10
71.685913
 20
-0.371304
 30
0.0
 11
72.830681
 21
-0.177108
 31
0.0
  0
LINE
  5
935
330
1F
100
AcDbEntity
  8
1
  6
CONTINUOUS
370
50
 62
4
100
AcDbLine
 10
79.980476
 20
2.386676
 30
0.0
 11
79.993492
 21
2.388884
 31
0.0
  0
LINE
  5
936
330
1F
100
AcDbEntity
  8
1
  6
CONTINUOUS
370
50
 62
4
100
AcDbLine
 10
66.74408
 20
0.813869
 30
0.0
 11
67.802269
 21
0.9933869999999999
 31
0.0
  0
LINE
  5
937
330
1F
100
AcDbEntity
  8
1
  6
CONTINUOUS
370
50
 62
4
100
AcDbLine
 10
62.0
 20
2.324503
 30
0.0
 11
62.058601
 21
2.334445
 31
0.0
  0
LINE
  5
938
330
1F
100
AcDbEntity
  8
1
  6
CONTINUOUS
370
50
 62
4
100
AcDbLine
 10
79.476143
 20
-0.5645899999999999
 30
0.0
 11
79.544983
 21
-0.552909
 31
0.0
  0
LINE
  5
939
330
1F
100
AcDbEntity
  8
1
  6
CONTINUOUS
370
50
 62
4
100
AcDbLine
 10
79.973969
 20
2.385571
 30
0.0
 11
79.980476
 21
2.386676
 31
0.0
  0
LINE
  5
93A
330
1F
100
AcDbEntity
  8
1
  6
CONTINUOUS
370
50
 62
4
100
AcDbLine
 10
70.525764
 20
2.286172
 30
0.0
 11
70.640434
 21
2.305663
 31
0.0
  0
LINE
  5
93B
330
1F
100
AcDbEntity
  8
1
  6
CONTINUOUS
370
50
 62
4
100
AcDbLine
 10
79.960945
 20
2.383359
 30
0.0
 11
79.96745299999999
 21
2.384466
 31
0.0
  0
LINE
  5
93C
330
1F
100
AcDbEntity
  8
1
  6
CONTINUOUS
370
50
 62
4
100
AcDbLine
 10
79.759399
 20
-0.506776
 30
0.0
 11
79.82560699999999
 21
-0.495511
 31
0.0
  0
LINE
  5
93D
330
1F
100
AcDbEntity
  8
1
  6
CONTINUOUS
370
50
 62
4
100
AcDbLine
 10
72.78570599999999
 20
-0.188385
 30
0.0
 11
73.98075899999999
 21
0.014984
 31
0.0
  0
LINE
  5
93E
330
1F
100
AcDbEntity
  8
1
  6
CONTINUOUS
370
50
 62
4
100
AcDbLine
 10
71.901237
 20
2.254897
 30
0.0
 11
72.76694499999999
 21
2.402253
 31
0.0
  0
LINE
  5
93F
330
1F
100
AcDbEntity
  8
1
  6
CONTINUOUS
370
50
 62
4
100
AcDbLine
 10
64.642448
 20
-0.07773
 30
0.0
 11
65.186729
 21
0.01496
 31
0.0
  0
LINE
  5
940
330
1F
100
AcDbEntity
  8
1
  6
CONTINUOUS
370
50
 62
4
100
AcDbLine
 10
70.640434
 20
2.305663
 30
0.0
 11
70.755089
 21
2.325191
 31
0.0
  0
LINE
  5
941
330
1F
100
AcDbEntity
  8
1
  6
CONTINUOUS
370
50
 62
4
100
AcDbLine
 10
79.544983
 20
-0.552909
 30
0.0
 11
79.613823
 21
-0.541177
 31
0.0
  0
LINE
  5
942
330
1F
100
AcDbEntity
  8
1
  6
CONTINUOUS
370
50
 62
4
100
AcDbLine
 10
65.18678299999999
 20
0.014981
 30
0.0
 11
66.274658
 21
0.200442
 31
0.0
  0
LINE
  5
943
330
1F
100
AcDbEntity
  8
1
  6
CONTINUOUS
370
50
 62
4
100
AcDbLine
 10
70.572418
 20
-0.561345
 30
0.0
 11
71.685913
 21
-0.371304
 31
0.0
  0
LINE
  5
944
330
1F
100
AcDbEntity
  8
1
  6
CONTINUOUS
370
50
 62
4
100
AcDbLine
 10
70.755089
 20
2.325191
 30
0.0
 11
70.869743
 21
2.34476
 31
0.0
  0
LINE
  5
945
330
1F
100
AcDbEntity
  8
1
  6
CONTINUOUS
370
50
 62
4
100
AcDbLine
 10
62.848896
 20
-0.174241
 30
0.0
 11
63.67446099999999
 21
-0.033278
 31
0.0
  0
LINE
  5
946
330
1F
100
AcDbEntity
  8
1
  6
CONTINUOUS
370
50
 62
4
100
AcDbLine
 10
62.540081
 20
-0.440892
 30
0.0
 11
63.065998
 21
-0.351061
 31
0.0
  0
LINE
  5
947
330
1F
100
AcDbEntity
  8
1
  6
CONTINUOUS
370
50
 62
4
100
AcDbLine
 10
70.984398
 20
2.364367
 30
0.0
 11
71.099052
 21
2.383956
 31
0.0
  0
LINE
  5
948
330
1F
100
AcDbEntity
  8
1
  6
CONTINUOUS
370
50
 62
4
100
AcDbLine
 10
70.869743
 20
2.34476
 30
0.0
 11
70.984398
 21
2.364367
 31
0.0
  0
LINE
  5
949
330
1F
100
AcDbEntity
  8
1
  6
CONTINUOUS
370
50
 62
4
100
AcDbLine
 10
79.613823
 20
-0.541177
 30
0.0
 11
79.682655
 21
-0.529393
 31
0.0
  0
LINE
  5
94A
330
1F
100
AcDbEntity
  8
1
  6
CONTINUOUS
370
50
 62
4
100
AcDbLine
 10
58.821224
 20
2.967519
 30
0.0
 11
58.83575099999999
 21
2.970006
 31
0.0
  0
LINE
  5
94B
330
1F
100
AcDbEntity
  8
1
  6
CONTINUOUS
370
50
 62
4
100
AcDbLine
 10
79.682655
 20
-0.529393
 30
0.0
 11
79.75149499999999
 21
-0.517556
 31
0.0
  0
LINE
  5
94C
330
1F
100
AcDbEntity
  8
1
  6
CONTINUOUS
370
50
 62
4
100
AcDbLine
 10
64.10880999999999
 20
-0.169873
 30
0.0
 11
64.642448
 21
-0.07773
 31
0.0
  0
LINE
  5
94D
330
1F
100
AcDbEntity
  8
1
  6
CONTINUOUS
370
50
 62
4
100
AcDbLine
 10
79.75149499999999
 20
-0.517556
 30
0.0
 11
79.82032799999999
 21
-0.505665
 31
0.0
  0
LINE
  5
94E
330
1F
100
AcDbEntity
  8
1
  6
CONTINUOUS
370
50
 62
4
100
AcDbLine
 10
71.590668
 20
-0.395204
 30
0.0
 11
72.78570599999999
 21
-0.188385
 31
0.0
  0
LINE
  5
94F
330
1F
100
AcDbEntity
  8
1
  6
CONTINUOUS
370
50
 62
4
100
AcDbLine
 10
62.531116
 20
-0.451012
 30
0.0
 11
63.062241
 21
-0.359058
 31
0.0
  0
LINE
  5
950
330
1F
100
AcDbEntity
  8
1
  6
CONTINUOUS
370
50
 62
4
100
AcDbLine
 10
70.39568299999999
 20
-0.602325
 30
0.0
 11
71.590668
 21
-0.395204
 31
0.0
  0
LINE
  5
951
330
1F
100
AcDbEntity
  8
1
  6
CONTINUOUS
370
50
 62
4
100
AcDbLine
 10
63.065998
 20
-0.351061
 30
0.0
 11
63.586113
 21
-0.260853
 31
0.0
  0
LINE
  5
952
330
1F
100
AcDbEntity
  8
1
  6
CONTINUOUS
370
50
 62
4
100
AcDbLine
 10
64.655647
 20
-0.077194
 30
0.0
 11
65.18678299999999
 21
0.014981
 31
0.0
  0
LINE
  5
953
330
1F
100
AcDbEntity
  8
1
  6
CONTINUOUS
370
50
 62
4
100
AcDbLine
 10
63.586113
 20
-0.260853
 30
0.0
 11
64.10880999999999
 21
-0.169873
 31
0.0
  0
LINE
  5
954
330
1F
100
AcDbEntity
  8
1
  6
CONTINUOUS
370
50
 62
4
100
AcDbLine
 10
74.519623
 20
0.632212
 30
0.0
 11
75.607231
 21
0.8217
 31
0.0
  0
LINE
  5
955
330
1F
100
AcDbEntity
  8
1
  6
CONTINUOUS
370
50
 62
4
100
AcDbLine
 10
63.051838
 20
2.235138
 30
0.0
 11
64.065773
 21
2.412494
 31
0.0
  0
LINE
  5
956
330
1F
100
AcDbEntity
  8
1
  6
CONTINUOUS
370
50
 62
4
100
AcDbLine
 10
64.124504
 20
-0.170456
 30
0.0
 11
64.655647
 21
-0.077194
 31
0.0
  0
LINE
  5
957
330
1F
100
AcDbEntity
  8
1
  6
CONTINUOUS
370
50
 62
4
100
AcDbLine
 10
78.92643
 20
2.200351
 30
0.0
 11
79.960945
 21
2.383359
 31
0.0
  0
LINE
  5
958
330
1F
100
AcDbEntity
  8
1
  6
CONTINUOUS
370
50
 62
4
100
AcDbLine
 10
65.685883
 20
0.626545
 30
0.0
 11
66.74408
 21
0.813869
 31
0.0
  0
LINE
  5
959
330
1F
100
AcDbEntity
  8
1
  6
CONTINUOUS
370
50
 62
4
100
AcDbLine
 10
63.062241
 20
-0.359058
 30
0.0
 11
63.593369
 21
-0.264803
 31
0.0
  0
LINE
  5
95A
330
1F
100
AcDbEntity
  8
1
  6
CONTINUOUS
370
50
 62
4
100
AcDbLine
 10
59.137314
 20
-2.300999
 30
0.0
 11
59.168598
 21
-2.295444
 31
0.0
  0
LINE
  5
95B
330
1F
100
AcDbEntity
  8
1
  6
CONTINUOUS
370
50
 62
4
100
AcDbLine
 10
63.593369
 20
-0.264803
 30
0.0
 11
64.124504
 21
-0.170456
 31
0.0
  0
LINE
  5
95C
330
1F
100
AcDbEntity
  8
1
  6
CONTINUOUS
370
50
 62
4
100
AcDbLine
 10
70.087547
 20
2.203347
 30
0.0
 11
71.099052
 21
2.383595
 31
0.0
  0
LINE
  5
95D
330
1F
100
AcDbEntity
  8
1
  6
CONTINUOUS
370
50
 62
4
100
AcDbLine
 10
68.710899
 20
-2.291195
 30
0.0
 11
69.56974
 21
-2.136735
 31
0.0
  0
LINE
  5
95E
330
1F
100
AcDbEntity
  8
1
  6
CONTINUOUS
370
50
 62
4
100
AcDbLine
 10
59.19014
 20
1.935698
 30
0.0
 11
59.2206
 21
1.941196
 31
0.0
  0
LINE
  5
95F
330
1F
100
AcDbEntity
  8
1
  6
CONTINUOUS
370
50
 62
4
100
AcDbLine
 10
73.432014
 20
0.435121
 30
0.0
 11
74.519623
 21
0.632212
 31
0.0
  0
LINE
  5
960
330
1F
100
AcDbEntity
  8
1
  6
CONTINUOUS
370
50
 62
4
100
AcDbLine
 10
59.270256
 20
-0.234348
 30
0.0
 11
59.302921
 21
-0.22839
 31
0.0
  0
LINE
  5
961
330
1F
100
AcDbEntity
  8
1
  6
CONTINUOUS
370
50
 62
4
100
AcDbLine
 10
73.980644
 20
0.014996
 30
0.0
 11
73.980682
 21
0.015003
 31
0.0
  0
LINE
  5
962
330
1F
100
AcDbEntity
  8
1
  6
CONTINUOUS
370
50
 62
4
100
AcDbLine
 10
70.133163
 20
-2.318861
 30
0.0
 11
71.014366
 21
-2.156421
 31
0.0
  0
LINE
  5
963
330
1F
100
AcDbEntity
  8
1
  6
CONTINUOUS
370
50
 62
4
100
AcDbLine
 10
64.627686
 20
0.430555
 30
0.0
 11
65.685883
 21
0.626545
 31
0.0
  0
LINE
  5
964
330
1F
100
AcDbEntity
  8
1
  6
CONTINUOUS
370
50
 62
4
100
AcDbLine
 10
77.87248199999999
 20
-2.236175
 30
0.0
 11
78.945137
 21
-2.035555
 31
0.0
  0
LINE
  5
965
330
1F
100
AcDbEntity
  8
1
  6
CONTINUOUS
370
50
 62
4
100
AcDbLine
 10
72.34440599999999
 20
0.230274
 30
0.0
 11
73.432014
 21
0.435121
 31
0.0
  0
LINE
  5
966
330
1F
100
AcDbEntity
  8
1
  6
CONTINUOUS
370
50
 62
4
100
AcDbLine
 10
77.874969
 20
2.000427
 30
0.0
 11
78.92643
 21
2.200351
 31
0.0
  0
LINE
  5
967
330
1F
100
AcDbEntity
  8
1
  6
CONTINUOUS
370
50
 62
4
100
AcDbLine
 10
71.040909
 20
2.090896
 30
0.0
 11
71.901237
 21
2.254897
 31
0.0
  0
LINE
  5
968
330
1F
100
AcDbEntity
  8
1
  6
CONTINUOUS
370
50
 62
4
100
AcDbLine
 10
69.059784
 20
2.006327
 30
0.0
 11
70.087547
 21
2.203347
 31
0.0
  0
LINE
  5
969
330
1F
100
AcDbEntity
  8
1
  6
CONTINUOUS
370
50
 62
4
100
AcDbLine
 10
62.0
 20
2.033031
 30
0.0
 11
63.051838
 21
2.235138
 31
0.0
  0
LINE
  5
96A
330
1F
100
AcDbEntity
  8
1
  6
CONTINUOUS
370
50
 62
4
100
AcDbLine
 10
62.0
 20
-2.205943
 30
0.0
 11
62.873058
 21
-2.037674
 31
0.0
  0
LINE
  5
96B
330
1F
100
AcDbEntity
  8
1
  6
CONTINUOUS
370
50
 62
4
100
AcDbLine
 10
79.359779
 20
0.887637
 30
0.0
 11
79.407326
 21
0.89684
 31
0.0
  0
LINE
  5
96C
330
1F
100
AcDbEntity
  8
1
  6
CONTINUOUS
370
50
 62
4
100
AcDbLine
 10
59.106991
 20
-2.306879
 30
0.0
 11
59.137314
 21
-2.300999
 31
0.0
  0
LINE
  5
96D
330
1F
100
AcDbEntity
  8
1
  6
CONTINUOUS
370
50
 62
4
100
AcDbLine
 10
63.569492
 20
0.225015
 30
0.0
 11
64.627686
 21
0.430555
 31
0.0
  0
LINE
  5
96E
330
1F
100
AcDbEntity
  8
1
  6
CONTINUOUS
370
50
 62
4
100
AcDbLine
 10
71.256798
 20
0.017506
 30
0.0
 11
72.34440599999999
 21
0.230274
 31
0.0
  0
LINE
  5
96F
330
1F
100
AcDbEntity
  8
1
  6
CONTINUOUS
370
50
 62
4
100
AcDbLine
 10
62.51129899999999
 20
0.016336
 30
0.0
 11
63.569492
 21
0.225015
 31
0.0
  0
LINE
  5
970
330
1F
100
AcDbEntity
  8
1
  6
CONTINUOUS
370
50
 62
4
100
AcDbLine
 10
59.160397
 20
1.929812
 30
0.0
 11
59.19014
 21
1.935698
 31
0.0
  0
LINE
  5
971
330
1F
100
AcDbEntity
  8
1
  6
CONTINUOUS
370
50
 62
4
100
AcDbLine
 10
79.31201899999999
 20
0.878173
 30
0.0
 11
79.359779
 21
0.887637
 31
0.0
  0
LINE
  5
972
330
1F
100
AcDbEntity
  8
1
  6
CONTINUOUS
370
50
 62
4
100
AcDbLine
 10
69.56974
 20
-2.136735
 30
0.0
 11
70.421616
 21
-1.967625
 31
0.0
  0
LINE
  5
973
330
1F
100
AcDbEntity
  8
1
  6
CONTINUOUS
370
50
 62
4
100
AcDbLine
 10
71.014366
 20
-2.156421
 30
0.0
 11
71.877586
 21
-1.983554
 31
0.0
  0
LINE
  5
974
330
1F
100
AcDbEntity
  8
1
  6
CONTINUOUS
370
50
 62
4
100
AcDbLine
 10
59.23822
 20
-0.240837
 30
0.0
 11
59.270256
 21
-0.234348
 31
0.0
  0
LINE
  5
975
330
1F
100
AcDbEntity
  8
1
  6
CONTINUOUS
370
50
 62
4
100
AcDbLine
 10
79.264061
 20
0.868456
 30
0.0
 11
79.31201899999999
 21
0.878173
 31
0.0
  0
LINE
  5
976
330
1F
100
AcDbEntity
  8
1
  6
CONTINUOUS
370
50
 62
4
100
AcDbLine
 10
76.81443
 20
1.785422
 30
0.0
 11
77.874969
 21
2.000427
 31
0.0
  0
LINE
  5
977
330
1F
100
AcDbEntity
  8
1
  6
CONTINUOUS
370
50
 62
4
100
AcDbLine
 10
68.026619
 20
1.795296
 30
0.0
 11
69.059784
 21
2.006327
 31
0.0
  0
LINE
  5
978
330
1F
100
AcDbEntity
  8
1
  6
CONTINUOUS
370
50
 62
4
100
AcDbLine
 10
70.163994
 20
1.909957
 30
0.0
 11
71.040909
 21
2.090896
 31
0.0
  0
LINE
  5
979
330
1F
100
AcDbEntity
  8
1
  6
CONTINUOUS
370
50
 62
4
100
AcDbLine
 10
79.215927
 20
0.858494
 30
0.0
 11
79.264061
 21
0.868456
 31
0.0
  0
LINE
  5
97A
330
1F
100
AcDbEntity
  8
1
  6
CONTINUOUS
370
50
 62
4
100
AcDbLine
 10
71.877586
 20
-1.983554
 30
0.0
 11
72.746155
 21
-1.80143
 31
0.0
  0
LINE
  5
97B
330
1F
100
AcDbEntity
  8
1
  6
CONTINUOUS
370
50
 62
4
100
AcDbLine
 10
78.945137
 20
-2.035555
 30
0.0
 11
80.0
 21
-1.813274
 31
0.0
  0
LINE
  5
97C
330
1F
100
AcDbEntity
  8
1
  6
CONTINUOUS
370
50
 62
4
100
AcDbLine
 10
62.873058
 20
-2.037674
 30
0.0
 11
63.711254
 21
-1.861002
 31
0.0
  0
LINE
  5
97D
330
1F
100
AcDbEntity
  8
1
  6
CONTINUOUS
370
50
 62
4
100
AcDbLine
 10
79.16761799999999
 20
0.848294
 30
0.0
 11
79.215927
 21
0.858494
 31
0.0
  0
LINE
  5
97E
330
1F
100
AcDbEntity
  8
1
  6
CONTINUOUS
370
50
 62
4
100
AcDbLine
 10
59.077766
 20
-2.31305
 30
0.0
 11
59.106991
 21
-2.306879
 31
0.0
  0
LINE
  5
97F
330
1F
100
AcDbEntity
  8
1
  6
CONTINUOUS
370
50
 62
4
100
AcDbLine
 10
78.05905899999999
 20
1.704727
 30
0.0
 11
78.811073
 21
1.86608
 31
0.0
  0
LINE
  5
980
330
1F
100
AcDbEntity
  8
1
  6
CONTINUOUS
370
50
 62
4
100
AcDbLine
 10
75.75267
 20
1.557173
 30
0.0
 11
76.81443
 21
1.785422
 31
0.0
  0
LINE
  5
981
330
1F
100
AcDbEntity
  8
1
  6
CONTINUOUS
370
50
 62
4
100
AcDbLine
 10
79.11915599999999
 20
0.8378629999999999
 30
0.0
 11
79.16761799999999
 21
0.848294
 31
0.0
  0
LINE
  5
982
330
1F
100
AcDbEntity
  8
1
  6
CONTINUOUS
370
50
 62
4
100
AcDbLine
 10
62.0
 20
-1.896334
 30
0.0
 11
62.67880599999999
 21
-1.750122
 31
0.0
  0
LINE
  5
983
330
1F
100
AcDbEntity
  8
1
  6
CONTINUOUS
370
50
 62
4
100
AcDbLine
 10
69.23129999999999
 20
1.708439
 30
0.0
 11
70.163994
 21
1.909957
 31
0.0
  0
LINE
  5
984
330
1F
100
AcDbEntity
  8
1
  6
CONTINUOUS
370
50
 62
4
100
AcDbLine
 10
59.13140499999999
 20
1.923541
 30
0.0
 11
59.160397
 21
1.929812
 31
0.0
  0
LINE
  5
985
330
1F
100
AcDbEntity
  8
1
  6
CONTINUOUS
370
50
 62
4
100
AcDbLine
 10
70.421616
 20
-1.967625
 30
0.0
 11
71.26023099999999
 21
-1.785877
 31
0.0
  0
LINE
  5
986
330
1F
100
AcDbEntity
  8
1
  6
CONTINUOUS
370
50
 62
4
100
AcDbLine
 10
66.997421
 20
1.572213
 30
0.0
 11
68.026619
 21
1.795296
 31
0.0
  0
LINE
  5
987
330
1F
100
AcDbEntity
  8
1
  6
CONTINUOUS
370
50
 62
4
100
AcDbLine
 10
72.746155
 20
-1.80143
 30
0.0
 11
73.617355
 21
-1.611361
 31
0.0
  0
LINE
  5
988
330
1F
100
AcDbEntity
  8
1
  6
CONTINUOUS
370
50
 62
4
100
AcDbLine
 10
79.07056399999999
 20
0.8272079999999999
 30
0.0
 11
79.11915599999999
 21
0.8378629999999999
 31
0.0
  0
LINE
  5
989
330
1F
100
AcDbEntity
  8
1
  6
CONTINUOUS
370
50
 62
4
100
AcDbLine
 10
58.808529
 20
2.964726
 30
0.0
 11
58.821224
 21
2.967519
 31
0.0
  0
LINE
  5
98A
330
1F
100
AcDbEntity
  8
1
  6
CONTINUOUS
370
50
 62
4
100
AcDbLine
 10
77.303795
 20
1.537525
 30
0.0
 11
78.05905899999999
 21
1.704727
 31
0.0
  0
LINE
  5
98B
330
1F
100
AcDbEntity
  8
1
  6
CONTINUOUS
370
50
 62
4
100
AcDbLine
 10
63.711254
 20
-1.861002
 30
0.0
 11
64.55085799999999
 21
-1.674666
 31
0.0
  0
LINE
  5
98C
330
1F
100
AcDbEntity
  8
1
  6
CONTINUOUS
370
50
 62
4
100
AcDbLine
 10
59.206863
 20
-0.247849
 30
0.0
 11
59.23822
 21
-0.240837
 31
0.0
  0
LINE
  5
98D
330
1F
100
AcDbEntity
  8
1
  6
CONTINUOUS
370
50
 62
4
100
AcDbLine
 10
68.268265
 20
1.492592
 30
0.0
 11
69.23129999999999
 21
1.708439
 31
0.0
  0
LINE
  5
98E
330
1F
100
AcDbEntity
  8
1
  6
CONTINUOUS
370
50
 62
4
100
AcDbLine
 10
73.617355
 20
-1.611361
 30
0.0
 11
74.487701
 21
-1.414628
 31
0.0
  0
LINE
  5
98F
330
1F
100
AcDbEntity
  8
1
  6
CONTINUOUS
370
50
 62
4
100
AcDbLine
 10
74.697571
 20
1.317517
 30
0.0
 11
75.75267
 21
1.557173
 31
0.0
  0
LINE
  5
990
330
1F
100
AcDbEntity
  8
1
  6
CONTINUOUS
370
50
 62
4
100
AcDbLine
 10
76.54813399999999
 20
1.365244
 30
0.0
 11
77.303795
 21
1.537525
 31
0.0
  0
LINE
  5
991
330
1F
100
AcDbEntity
  8
1
  6
CONTINUOUS
370
50
 62
4
100
AcDbLine
 10
71.26023099999999
 20
-1.785877
 30
0.0
 11
72.114166
 21
-1.590666
 31
0.0
  0
LINE
  5
992
330
1F
100
AcDbEntity
  8
1
  6
CONTINUOUS
370
50
 62
4
100
AcDbLine
 10
64.55085799999999
 20
-1.674666
 30
0.0
 11
65.393295
 21
-1.482068
 31
0.0
  0
LINE
  5
993
330
1F
100
AcDbEntity
  8
1
  6
CONTINUOUS
370
50
 62
4
100
AcDbLine
 10
62.67880599999999
 20
-1.750122
 30
0.0
 11
63.353077
 21
-1.595377
 31
0.0
  0
LINE
  5
994
330
1F
100
AcDbEntity
  8
1
  6
CONTINUOUS
370
50
 62
4
100
AcDbLine
 10
65.98056799999999
 20
1.338784
 30
0.0
 11
66.997421
 21
1.572213
 31
0.0
  0
LINE
  5
995
330
1F
100
AcDbEntity
  8
1
  6
CONTINUOUS
370
50
 62
4
100
AcDbLine
 10
59.04968299999999
 20
-2.319499
 30
0.0
 11
59.077766
 21
-2.31305
 31
0.0
  0
LINE
  5
996
330
1F
100
AcDbEntity
  8
1
  6
CONTINUOUS
370
50
 62
4
100
AcDbLine
 10
67.30085799999999
 20
1.267308
 30
0.0
 11
68.268265
 21
1.492592
 31
0.0
  0
LINE
  5
997
330
1F
100
AcDbEntity
  8
1
  6
CONTINUOUS
370
50
 62
4
100
AcDbLine
 10
74.487701
 20
-1.414628
 30
0.0
 11
75.353676
 21
-1.212509
 31
0.0
  0
LINE
  5
998
330
1F
100
AcDbEntity
  8
1
  6
CONTINUOUS
370
50
 62
4
100
AcDbLine
 10
72.114166
 20
-1.590666
 30
0.0
 11
73.01422099999999
 21
-1.380073
 31
0.0
  0
LINE
  5
999
330
1F
100
AcDbEntity
  8
1
  6
CONTINUOUS
370
50
 62
4
100
AcDbLine
 10
75.79491399999999
 20
1.188654
 30
0.0
 11
76.54813399999999
 21
1.365244
 31
0.0
  0
LINE
  5
99A
330
1F
100
AcDbEntity
  8
1
  6
CONTINUOUS
370
50
 62
4
100
AcDbLine
 10
65.393295
 20
-1.482068
 30
0.0
 11
66.235298
 21
-1.284356
 31
0.0
  0
LINE
  5
99B
330
1F
100
AcDbEntity
  8
1
  6
CONTINUOUS
370
50
 62
4
100
AcDbLine
 10
59.103283
 20
1.916905
 30
0.0
 11
59.13140499999999
 21
1.923541
 31
0.0
  0
LINE
  5
99C
330
1F
100
AcDbEntity
  8
1
  6
CONTINUOUS
370
50
 62
4
100
AcDbLine
 10
71.25672899999999
 20
0.01751
 30
0.0
 11
71.257835
 21
0.017773
 31
0.0
  0
LINE
  5
99D
330
1F
100
AcDbEntity
  8
1
  6
CONTINUOUS
370
50
 62
4
100
AcDbLine
 10
73.01422099999999
 20
-1.380073
 30
0.0
 11
73.919769
 21
-1.16358
 31
0.0
  0
LINE
  5
99E
330
1F
100
AcDbEntity
  8
1
  6
CONTINUOUS
370
50
 62
4
100
AcDbLine
 10
73.653221
 20
1.067343
 30
0.0
 11
74.697571
 21
1.317517
 31
0.0
  0
LINE
  5
99F
330
1F
100
AcDbEntity
  8
1
  6
CONTINUOUS
370
50
 62
4
100
AcDbLine
 10
75.353676
 20
-1.212509
 30
0.0
 11
76.21566
 21
-1.005205
 31
0.0
  0
LINE
  5
9A0
330
1F
100
AcDbEntity
  8
1
  6
CONTINUOUS
370
50
 62
4
100
AcDbLine
 10
63.353077
 20
-1.595377
 30
0.0
 11
64.02087399999999
 21
-1.434747
 31
0.0
  0
LINE
  5
9A1
330
1F
100
AcDbEntity
  8
1
  6
CONTINUOUS
370
50
 62
4
100
AcDbLine
 10
75.043106
 20
1.007481
 30
0.0
 11
75.79491399999999
 21
1.188654
 31
0.0
  0
LINE
  5
9A2
330
1F
100
AcDbEntity
  8
1
  6
CONTINUOUS
370
50
 62
4
100
AcDbLine
 10
66.235298
 20
-1.284356
 30
0.0
 11
67.08326
 21
-1.079928
 31
0.0
  0
LINE
  5
9A3
330
1F
100
AcDbEntity
  8
1
  6
CONTINUOUS
370
50
 62
4
100
AcDbLine
 10
66.33674599999999
 20
1.033944
 30
0.0
 11
67.30085799999999
 21
1.267308
 31
0.0
  0
LINE
  5
9A4
330
1F
100
AcDbEntity
  8
1
  6
CONTINUOUS
370
50
 62
4
100
AcDbLine
 10
64.965919
 20
1.091884
 30
0.0
 11
65.98056799999999
 21
1.338784
 31
0.0
  0
LINE
  5
9A5
330
1F
100
AcDbEntity
  8
1
  6
CONTINUOUS
370
50
 62
4
100
AcDbLine
 10
73.919769
 20
-1.16358
 30
0.0
 11
74.826836
 21
-0.94236
 31
0.0
  0
LINE
  5
9A6
330
1F
100
AcDbEntity
  8
1
  6
CONTINUOUS
370
50
 62
4
100
AcDbLine
 10
64.02087399999999
 20
-1.434747
 30
0.0
 11
64.71685
 21
-1.264934
 31
0.0
  0
LINE
  5
9A7
330
1F
100
AcDbEntity
  8
1
  6
CONTINUOUS
370
50
 62
4
100
AcDbLine
 10
59.17622
 20
-0.255374
 30
0.0
 11
59.206863
 21
-0.247849
 31
0.0
  0
LINE
  5
9A8
330
1F
100
AcDbEntity
  8
1
  6
CONTINUOUS
370
50
 62
4
100
AcDbLine
 10
64.71685
 20
-1.264934
 30
0.0
 11
65.415581
 21
-1.092491
 31
0.0
  0
LINE
  5
9A9
330
1F
100
AcDbEntity
  8
1
  6
CONTINUOUS
370
50
 62
4
100
AcDbLine
 10
67.08326
 20
-1.079928
 30
0.0
 11
67.935127
 21
-0.868853
 31
0.0
  0
LINE
  5
9AA
330
1F
100
AcDbEntity
  8
1
  6
CONTINUOUS
370
50
 62
4
100
AcDbLine
 10
74.286591
 20
0.820027
 30
0.0
 11
75.043106
 21
1.007481
 31
0.0
  0
LINE
  5
9AB
330
1F
100
AcDbEntity
  8
1
  6
CONTINUOUS
370
50
 62
4
100
AcDbLine
 10
76.21566
 20
-1.005205
 30
0.0
 11
77.08165699999999
 21
-0.7904869999999999
 31
0.0
  0
LINE
  5
9AC
330
1F
100
AcDbEntity
  8
1
  6
CONTINUOUS
370
50
 62
4
100
AcDbLine
 10
74.826836
 20
-0.94236
 30
0.0
 11
75.742935
 21
-0.714521
 31
0.0
  0
LINE
  5
9AD
330
1F
100
AcDbEntity
  8
1
  6
CONTINUOUS
370
50
 62
4
100
AcDbLine
 10
59.022778
 20
-2.32621
 30
0.0
 11
59.04968299999999
 21
-2.319499
 31
0.0
  0
LINE
  5
9AE
330
1F
100
AcDbEntity
  8
1
  6
CONTINUOUS
370
50
 62
4
100
AcDbLine
 10
65.415581
 20
-1.092491
 30
0.0
 11
66.113945
 21
-0.918222
 31
0.0
  0
LINE
  5
9AF
330
1F
100
AcDbEntity
  8
1
  6
CONTINUOUS
370
50
 62
4
100
AcDbLine
 10
65.38028
 20
0.79299
 30
0.0
 11
66.33674599999999
 21
1.033944
 31
0.0
  0
LINE
  5
9B0
330
1F
100
AcDbEntity
  8
1
  6
CONTINUOUS
370
50
 62
4
100
AcDbLine
 10
66.113945
 20
-0.918222
 30
0.0
 11
66.813576
 21
-0.7416539999999999
 31
0.0
  0
LINE
  5
9B1
330
1F
100
AcDbEntity
  8
1
  6
CONTINUOUS
370
50
 62
4
100
AcDbLine
 10
72.610039
 20
0.803979
 30
0.0
 11
73.653221
 21
1.067343
 31
0.0
  0
LINE
  5
9B2
330
1F
100
AcDbEntity
  8
1
  6
CONTINUOUS
370
50
 62
4
100
AcDbLine
 10
75.742935
 20
-0.714521
 30
0.0
 11
76.664093
 21
-0.48085
 31
0.0
  0
LINE
  5
9B3
330
1F
100
AcDbEntity
  8
1
  6
CONTINUOUS
370
50
 62
4
100
AcDbLine
 10
73.527367
 20
0.626755
 30
0.0
 11
74.286591
 21
0.820027
 31
0.0
  0
LINE
  5
9B4
330
1F
100
AcDbEntity
  8
1
  6
CONTINUOUS
370
50
 62
4
100
AcDbLine
 10
67.935127
 20
-0.868853
 30
0.0
 11
68.785652
 21
-0.6519469999999999
 31
0.0
  0
LINE
  5
9B5
330
1F
100
AcDbEntity
  8
1
  6
CONTINUOUS
370
50
 62
4
100
AcDbLine
 10
77.08165699999999
 20
-0.7904869999999999
 30
0.0
 11
77.948227
 21
-0.568967
 31
0.0
  0
LINE
  5
9B6
330
1F
100
AcDbEntity
  8
1
  6
CONTINUOUS
370
50
 62
4
100
AcDbLine
 10
66.813576
 20
-0.7416539999999999
 30
0.0
 11
67.520073
 21
-0.561048
 31
0.0
  0
LINE
  5
9B7
330
1F
100
AcDbEntity
  8
1
  6
CONTINUOUS
370
50
 62
4
100
AcDbLine
 10
59.07611799999999
 20
1.909925
 30
0.0
 11
59.103283
 21
1.916905
 31
0.0
  0
LINE
  5
9B8
330
1F
100
AcDbEntity
  8
1
  6
CONTINUOUS
370
50
 62
4
100
AcDbLine
 10
63.955631
 20
0.83107
 30
0.0
 11
64.965919
 21
1.091884
 31
0.0
  0
LINE
  5
9B9
330
1F
100
AcDbEntity
  8
1
  6
CONTINUOUS
370
50
 62
4
100
AcDbLine
 10
76.664093
 20
-0.48085
 30
0.0
 11
77.58517499999999
 21
-0.242431
 31
0.0
  0
LINE
  5
9BA
330
1F
100
AcDbEntity
  8
1
  6
CONTINUOUS
370
50
 62
4
100
AcDbLine
 10
67.520073
 20
-0.561048
 30
0.0
 11
68.230637
 21
-0.376859
 31
0.0
  0
LINE
  5
9BB
330
1F
100
AcDbEntity
  8
1
  6
CONTINUOUS
370
50
 62
4
100
AcDbLine
 10
72.767769
 20
0.428213
 30
0.0
 11
73.527367
 21
0.626755
 31
0.0
  0
LINE
  5
9BC
330
1F
100
AcDbEntity
  8
1
  6
CONTINUOUS
370
50
 62
4
100
AcDbLine
 10
64.42379
 20
0.541828
 30
0.0
 11
65.38028
 21
0.79299
 31
0.0
  0
LINE
  5
9BD
330
1F
100
AcDbEntity
  8
1
  6
CONTINUOUS
370
50
 62
4
100
AcDbLine
 10
68.785652
 20
-0.6519469999999999
 30
0.0
 11
69.628395
 21
-0.430311
 31
0.0
  0
LINE
  5
9BE
330
1F
100
AcDbEntity
  8
1
  6
CONTINUOUS
370
50
 62
4
100
AcDbLine
 10
68.230637
 20
-0.376859
 30
0.0
 11
68.9422
 21
-0.189616
 31
0.0
  0
LINE
  5
9BF
330
1F
100
AcDbEntity
  8
1
  6
CONTINUOUS
370
50
 62
4
100
AcDbLine
 10
77.948227
 20
-0.568967
 30
0.0
 11
78.811073
 21
-0.341482
 31
0.0
  0
LINE
  5
9C0
330
1F
100
AcDbEntity
  8
1
  6
CONTINUOUS
370
50
 62
4
100
AcDbLine
 10
77.58517499999999
 20
-0.242431
 30
0.0
 11
78.50104499999999
 21
-0.000346
 31
0.0
  0
LINE
  5
9C1
330
1F
100
AcDbEntity
  8
1
  6
CONTINUOUS
370
50
 62
4
100
AcDbLine
 10
71.597572
 20
0.534372
 30
0.0
 11
72.610039
 21
0.803979
 31
0.0
  0
LINE
  5
9C2
330
1F
100
AcDbEntity
  8
1
  6
CONTINUOUS
370
50
 62
4
100
AcDbLine
 10
68.9422
 20
-0.189616
 30
0.0
 11
69.651703
 21
0.000155
 31
0.0
  0
LINE
  5
9C3
330
1F
100
AcDbEntity
  8
1
  6
CONTINUOUS
370
50
 62
4
100
AcDbLine
 10
78.50104499999999
 20
-0.000346
 30
0.0
 11
78.717491
 21
0.057639
 31
0.0
  0
LINE
  5
9C4
330
1F
100
AcDbEntity
  8
1
  6
CONTINUOUS
370
50
 62
4
100
AcDbLine
 10
72.010117
 20
0.224948
 30
0.0
 11
72.767769
 21
0.428213
 31
0.0
  0
LINE
  5
9C5
330
1F
100
AcDbEntity
  8
1
  6
CONTINUOUS
370
50
 62
4
100
AcDbLine
 10
59.146336
 20
-0.263402
 30
0.0
 11
59.17622
 21
-0.255374
 31
0.0
  0
LINE
  5
9C6
330
1F
100
AcDbEntity
  8
1
  6
CONTINUOUS
370
50
 62
4
100
AcDbLine
 10
62.0
 20
-0.122267
 30
0.0
 11
62.065666
 21
-0.104585
 31
0.0
  0
LINE
  5
9C7
330
1F
100
AcDbEntity
  8
1
  6
CONTINUOUS
370
50
 62
4
100
AcDbLine
 10
78.717491
 20
0.057639
 30
0.0
 11
78.933281
 21
0.115754
 31
0.0
  0
LINE
  5
9C8
330
1F
100
AcDbEntity
  8
1
  6
CONTINUOUS
370
50
 62
4
100
AcDbLine
 10
62.0
 20
0.302761
 30
0.0
 11
62.985481
 21
0.568376
 31
0.0
  0
LINE
  5
9C9
330
1F
100
AcDbEntity
  8
1
  6
CONTINUOUS
370
50
 62
4
100
AcDbLine
 10
79.574333
 20
0.922789
 30
0.0
 11
79.613663
 21
0.9333969999999999
 31
0.0
  0
LINE
  5
9CA
330
1F
100
AcDbEntity
  8
1
  6
CONTINUOUS
370
50
 62
4
100
AcDbLine
 10
62.065666
 20
-0.104585
 30
0.0
 11
62.130936
 21
-0.086963
 31
0.0
  0
LINE
  5
9CB
330
1F
100
AcDbEntity
  8
1
  6
CONTINUOUS
370
50
 62
4
100
AcDbLine
 10
62.130936
 20
-0.086963
 30
0.0
 11
62.19582399999999
 21
-0.069399
 31
0.0
  0
LINE
  5
9CC
330
1F
100
AcDbEntity
  8
1
  6
CONTINUOUS
370
50
 62
4
100
AcDbLine
 10
78.933281
 20
0.115754
 30
0.0
 11
79.14834599999999
 21
0.173987
 31
0.0
  0
LINE
  5
9CD
330
1F
100
AcDbEntity
  8
1
  6
CONTINUOUS
370
50
 62
4
100
AcDbLine
 10
62.985481
 20
0.568376
 30
0.0
 11
63.955631
 21
0.83107
 31
0.0
  0
LINE
  5
9CE
330
1F
100
AcDbEntity
  8
1
  6
CONTINUOUS
370
50
 62
4
100
AcDbLine
 10
58.997097
 20
-2.333168
 30
0.0
 11
59.022778
 21
-2.32621
 31
0.0
  0
LINE
  5
9CF
330
1F
100
AcDbEntity
  8
1
  6
CONTINUOUS
370
50
 62
4
100
AcDbLine
 10
62.19582399999999
 20
-0.069399
 30
0.0
 11
62.260349
 21
-0.051891
 31
0.0
  0
LINE
  5
9D0
330
1F
100
AcDbEntity
  8
1
  6
CONTINUOUS
370
50
 62
4
100
AcDbLine
 10
62.260349
 20
-0.051891
 30
0.0
 11
62.324524
 21
-0.034437
 31
0.0
  0
LINE
  5
9D1
330
1F
100
AcDbEntity
  8
1
  6
CONTINUOUS
370
50
 62
4
100
AcDbLine
 10
69.628395
 20
-0.430311
 30
0.0
 11
70.429108
 21
-0.21251
 31
0.0
  0
LINE
  5
9D2
330
1F
100
AcDbEntity
  8
1
  6
CONTINUOUS
370
50
 62
4
100
AcDbLine
 10
79.14834599999999
 20
0.173987
 30
0.0
 11
79.362625
 21
0.232323
 31
0.0
  0
LINE
  5
9D3
330
1F
100
AcDbEntity
  8
1
  6
CONTINUOUS
370
50
 62
4
100
AcDbLine
 10
62.324524
 20
-0.034437
 30
0.0
 11
62.388367
 21
-0.017035
 31
0.0
  0
LINE
  5
9D4
330
1F
100
AcDbEntity
  8
1
  6
CONTINUOUS
370
50
 62
4
100
AcDbLine
 10
79.613663
 20
0.9333969999999999
 30
0.0
 11
79.653114
 21
0.9441529999999999
 31
0.0
  0
LINE
  5
9D5
330
1F
100
AcDbEntity
  8
1
  6
CONTINUOUS
370
50
 62
4
100
AcDbLine
 10
62.388367
 20
-0.017035
 30
0.0
 11
62.451897
 21
0.000317
 31
0.0
  0
LINE
  5
9D6
330
1F
100
AcDbEntity
  8
1
  6
CONTINUOUS
370
50
 62
4
100
AcDbLine
 10
63.472126
 20
0.281816
 30
0.0
 11
64.42379
 21
0.541828
 31
0.0
  0
LINE
  5
9D7
330
1F
100
AcDbEntity
  8
1
  6
CONTINUOUS
370
50
 62
4
100
AcDbLine
 10
69.651703
 20
0.000155
 30
0.0
 11
70.63119499999999
 21
0.267794
 31
0.0
  0
LINE
  5
9D8
330
1F
100
AcDbEntity
  8
1
  6
CONTINUOUS
370
50
 62
4
100
AcDbLine
 10
62.451897
 20
0.000317
 30
0.0
 11
62.461823
 21
0.003031
 31
0.0
  0
LINE
  5
9D9
330
1F
100
AcDbEntity
  8
1
  6
CONTINUOUS
370
50
 62
4
100
AcDbLine
 10
62.461823
 20
0.003031
 30
0.0
 11
62.47174099999999
 21
0.005744
 31
0.0
  0
LINE
  5
9DA
330
1F
100
AcDbEntity
  8
1
  6
CONTINUOUS
370
50
 62
4
100
AcDbLine
 10
62.47174099999999
 20
0.005744
 30
0.0
 11
62.481651
 21
0.008455
 31
0.0
  0
LINE
  5
9DB
330
1F
100
AcDbEntity
  8
1
  6
CONTINUOUS
370
50
 62
4
100
AcDbLine
 10
62.481651
 20
0.008455
 30
0.0
 11
62.491558
 21
0.011166
 31
0.0
  0
LINE
  5
9DC
330
1F
100
AcDbEntity
  8
1
  6
CONTINUOUS
370
50
 62
4
100
AcDbLine
 10
62.501453
 20
0.013875
 30
0.0
 11
62.511345
 21
0.016583
 31
0.0
  0
LINE
  5
9DD
330
1F
100
AcDbEntity
  8
1
  6
CONTINUOUS
370
50
 62
4
100
AcDbLine
 10
79.362625
 20
0.232323
 30
0.0
 11
79.57603499999999
 21
0.290746
 31
0.0
  0
LINE
  5
9DE
330
1F
100
AcDbEntity
  8
1
  6
CONTINUOUS
370
50
 62
4
100
AcDbLine
 10
62.491558
 20
0.011166
 30
0.0
 11
62.501453
 21
0.013875
 31
0.0
  0
LINE
  5
9DF
330
1F
100
AcDbEntity
  8
1
  6
CONTINUOUS
370
50
 62
4
100
AcDbLine
 10
79.57603499999999
 20
0.290746
 30
0.0
 11
79.788521
 21
0.349242
 31
0.0
  0
LINE
  5
9E0
330
1F
100
AcDbEntity
  8
1
  6
CONTINUOUS
370
50
 62
4
100
AcDbLine
 10
71.25672899999999
 20
0.01751
 30
0.0
 11
72.010117
 21
0.224948
 31
0.0
  0
LINE
  5
9E1
330
1F
100
AcDbEntity
  8
1
  6
CONTINUOUS
370
50
 62
4
100
AcDbLine
 10
79.653114
 20
0.9441529999999999
 30
0.0
 11
79.692657
 21
0.955044
 31
0.0
  0
LINE
  5
9E2
330
1F
100
AcDbEntity
  8
1
  6
CONTINUOUS
370
50
 62
4
100
AcDbLine
 10
70.63119499999999
 20
0.267794
 30
0.0
 11
71.597572
 21
0.534372
 31
0.0
  0
LINE
  5
9E3
330
1F
100
AcDbEntity
  8
1
  6
CONTINUOUS
370
50
 62
4
100
AcDbLine
 10
62.511345
 20
0.016583
 30
0.0
 11
63.472126
 21
0.281816
 31
0.0
  0
LINE
  5
9E4
330
1F
100
AcDbEntity
  8
1
  6
CONTINUOUS
370
50
 62
4
100
AcDbLine
 10
79.788521
 20
0.349242
 30
0.0
 11
80.0
 21
0.407797
 31
0.0
  0
LINE
  5
9E5
330
1F
100
AcDbEntity
  8
1
  6
CONTINUOUS
370
50
 62
4
100
AcDbLine
 10
70.429108
 20
-0.21251
 30
0.0
 11
71.19401599999999
 21
0.000013
 31
0.0
  0
LINE
  5
9E6
330
1F
100
AcDbEntity
  8
1
  6
CONTINUOUS
370
50
 62
4
100
AcDbLine
 10
79.692657
 20
0.955044
 30
0.0
 11
79.732269
 21
0.966058
 31
0.0
  0
LINE
  5
9E7
330
1F
100
AcDbEntity
  8
1
  6
CONTINUOUS
370
50
 62
4
100
AcDbLine
 10
71.20446799999999
 20
0.002931
 30
0.0
 11
71.214928
 21
0.005847
 31
0.0
  0
LINE
  5
9E8
330
1F
100
AcDbEntity
  8
1
  6
CONTINUOUS
370
50
 62
4
100
AcDbLine
 10
71.22538
 20
0.008764
 30
0.0
 11
71.235832
 21
0.011679
 31
0.0
  0
LINE
  5
9E9
330
1F
100
AcDbEntity
  8
1
  6
CONTINUOUS
370
50
 62
4
100
AcDbLine
 10
71.24627699999999
 20
0.014595
 30
0.0
 11
71.25672899999999
 21
0.01751
 31
0.0
  0
LINE
  5
9EA
330
1F
100
AcDbEntity
  8
1
  6
CONTINUOUS
370
50
 62
4
100
AcDbLine
 10
71.214928
 20
0.005847
 30
0.0
 11
71.22538
 21
0.008764
 31
0.0
  0
LINE
  5
9EB
330
1F
100
AcDbEntity
  8
1
  6
CONTINUOUS
370
50
 62
4
100
AcDbLine
 10
71.235832
 20
0.011679
 30
0.0
 11
71.24627699999999
 21
0.014595
 31
0.0
  0
LINE
  5
9EC
330
1F
100
AcDbEntity
  8
1
  6
CONTINUOUS
370
50
 62
4
100
AcDbLine
 10
71.19401599999999
 20
0.000013
 30
0.0
 11
71.20446799999999
 21
0.002931
 31
0.0
  0
LINE
  5
9ED
330
1F
100
AcDbEntity
  8
1
  6
CONTINUOUS
370
50
 62
4
100
AcDbLine
 10
59.04995
 20
1.902608
 30
0.0
 11
59.07611799999999
 21
1.909925
 31
0.0
  0
LINE
  5
9EE
330
1F
100
AcDbEntity
  8
1
  6
CONTINUOUS
370
50
 62
4
100
AcDbLine
 10
79.732269
 20
0.966058
 30
0.0
 11
79.771912
 21
0.977181
 31
0.0
  0
LINE
  5
9EF
330
1F
100
AcDbEntity
  8
1
  6
CONTINUOUS
370
50
 62
4
100
AcDbLine
 10
79.771912
 20
0.977181
 30
0.0
 11
79.81154599999999
 21
0.988401
 31
0.0
  0
LINE
  5
9F0
330
1F
100
AcDbEntity
  8
1
  6
CONTINUOUS
370
50
 62
4
100
AcDbLine
 10
59.117271
 20
-0.271918
 30
0.0
 11
59.146336
 21
-0.263402
 31
0.0
  0
LINE
  5
9F1
330
1F
100
AcDbEntity
  8
1
  6
CONTINUOUS
370
50
 62
4
100
AcDbLine
 10
58.972683
 20
-2.340359
 30
0.0
 11
58.997097
 21
-2.333168
 31
0.0
  0
LINE
  5
9F2
330
1F
100
AcDbEntity
  8
1
  6
CONTINUOUS
370
50
 62
4
100
AcDbLine
 10
58.79821399999999
 20
2.961603
 30
0.0
 11
58.808529
 21
2.964726
 31
0.0
  0
LINE
  5
9F3
330
1F
100
AcDbEntity
  8
1
  6
CONTINUOUS
370
50
 62
4
100
AcDbLine
 10
59.024811
 20
1.894964
 30
0.0
 11
59.04995
 21
1.902608
 31
0.0
  0
LINE
  5
9F4
330
1F
100
AcDbEntity
  8
1
  6
CONTINUOUS
370
50
 62
4
100
AcDbLine
 10
78.959946
 20
1.114549
 30
0.0
 11
79.00003099999999
 21
1.126791
 31
0.0
  0
LINE
  5
9F5
330
1F
100
AcDbEntity
  8
1
  6
CONTINUOUS
370
50
 62
4
100
AcDbLine
 10
79.00003099999999
 20
1.126791
 30
0.0
 11
79.03974199999999
 21
1.138985
 31
0.0
  0
LINE
  5
9F6
330
1F
100
AcDbEntity
  8
1
  6
CONTINUOUS
370
50
 62
4
100
AcDbLine
 10
79.03974199999999
 20
1.138985
 30
0.0
 11
79.079033
 21
1.151125
 31
0.0
  0
LINE
  5
9F7
330
1F
100
AcDbEntity
  8
1
  6
CONTINUOUS
370
50
 62
4
100
AcDbLine
 10
79.079033
 20
1.151125
 30
0.0
 11
79.117874
 21
1.163203
 31
0.0
  0
LINE
  5
9F8
330
1F
100
AcDbEntity
  8
1
  6
CONTINUOUS
370
50
 62
4
100
AcDbLine
 10
79.117874
 20
1.163203
 30
0.0
 11
79.15624199999999
 21
1.175212
 31
0.0
  0
LINE
  5
9F9
330
1F
100
AcDbEntity
  8
1
  6
CONTINUOUS
370
50
 62
4
100
AcDbLine
 10
79.15624199999999
 20
1.175212
 30
0.0
 11
79.194099
 21
1.187143
 31
0.0
  0
LINE
  5
9FA
330
1F
100
AcDbEntity
  8
1
  6
CONTINUOUS
370
50
 62
4
100
AcDbLine
 10
79.194099
 20
1.187143
 30
0.0
 11
79.231415
 21
1.198991
 31
0.0
  0
LINE
  5
9FB
330
1F
100
AcDbEntity
  8
1
  6
CONTINUOUS
370
50
 62
4
100
AcDbLine
 10
59.089169
 20
-0.280883
 30
0.0
 11
59.117271
 21
-0.271918
 31
0.0
  0
LINE
  5
9FC
330
1F
100
AcDbEntity
  8
1
  6
CONTINUOUS
370
50
 62
4
100
AcDbLine
 10
79.231415
 20
1.198991
 30
0.0
 11
79.268158
 21
1.210746
 31
0.0
  0
LINE
  5
9FD
330
1F
100
AcDbEntity
  8
1
  6
CONTINUOUS
370
50
 62
4
100
AcDbLine
 10
58.949574
 20
-2.347767
 30
0.0
 11
58.972683
 21
-2.340359
 31
0.0
  0
LINE
  5
9FE
330
1F
100
AcDbEntity
  8
1
  6
CONTINUOUS
370
50
 62
4
100
AcDbLine
 10
79.268158
 20
1.210746
 30
0.0
 11
79.304298
 21
1.222403
 31
0.0
  0
LINE
  5
9FF
330
1F
100
AcDbEntity
  8
1
  6
CONTINUOUS
370
50
 62
4
100
AcDbLine
 10
79.304298
 20
1.222403
 30
0.0
 11
79.339806
 21
1.233953
 31
0.0
  0
LINE
  5
A00
330
1F
100
AcDbEntity
  8
1
  6
CONTINUOUS
370
50
 62
4
100
AcDbLine
 10
79.339806
 20
1.233953
 30
0.0
 11
79.374641
 21
1.245389
 31
0.0
  0
LINE
  5
A01
330
1F
100
AcDbEntity
  8
1
  6
CONTINUOUS
370
50
 62
4
100
AcDbLine
 10
59.000729
 20
1.887002
 30
0.0
 11
59.024811
 21
1.894964
 31
0.0
  0
LINE
  5
A02
330
1F
100
AcDbEntity
  8
1
  6
CONTINUOUS
370
50
 62
4
100
AcDbLine
 10
79.374641
 20
1.245389
 30
0.0
 11
79.408783
 21
1.256704
 31
0.0
  0
LINE
  5
A03
330
1F
100
AcDbEntity
  8
1
  6
CONTINUOUS
370
50
 62
4
100
AcDbLine
 10
79.408783
 20
1.256704
 30
0.0
 11
79.44219199999999
 21
1.26789
 31
0.0
  0
LINE
  5
A04
330
1F
100
AcDbEntity
  8
1
  6
CONTINUOUS
370
50
 62
4
100
AcDbLine
 10
79.44219199999999
 20
1.26789
 30
0.0
 11
79.474846
 21
1.27894
 31
0.0
  0
LINE
  5
A05
330
1F
100
AcDbEntity
  8
1
  6
CONTINUOUS
370
50
 62
4
100
AcDbLine
 10
79.474846
 20
1.27894
 30
0.0
 11
79.506706
 21
1.289847
 31
0.0
  0
LINE
  5
A06
330
1F
100
AcDbEntity
  8
1
  6
CONTINUOUS
370
50
 62
4
100
AcDbLine
 10
79.506706
 20
1.289847
 30
0.0
 11
79.537735
 21
1.300603
 31
0.0
  0
LINE
  5
A07
330
1F
100
AcDbEntity
  8
1
  6
CONTINUOUS
370
50
 62
4
100
AcDbLine
 10
59.062077
 20
-0.290275
 30
0.0
 11
59.089169
 21
-0.280883
 31
0.0
  0
LINE
  5
A08
330
1F
100
AcDbEntity
  8
1
  6
CONTINUOUS
370
50
 62
4
100
AcDbLine
 10
58.92780699999999
 20
-2.355378
 30
0.0
 11
58.949574
 21
-2.347767
 31
0.0
  0
LINE
  5
A09
330
1F
100
AcDbEntity
  8
1
  6
CONTINUOUS
370
50
 62
4
100
AcDbLine
 10
79.537735
 20
1.300603
 30
0.0
 11
79.567917
 21
1.3112
 31
0.0
  0
LINE
  5
A0A
330
1F
100
AcDbEntity
  8
1
  6
CONTINUOUS
370
50
 62
4
100
AcDbLine
 10
79.567917
 20
1.3112
 30
0.0
 11
79.597206
 21
1.321631
 31
0.0
  0
LINE
  5
A0B
330
1F
100
AcDbEntity
  8
1
  6
CONTINUOUS
370
50
 62
4
100
AcDbLine
 10
58.977745
 20
1.87873
 30
0.0
 11
59.000729
 21
1.887002
 31
0.0
  0
LINE
  5
A0C
330
1F
100
AcDbEntity
  8
1
  6
CONTINUOUS
370
50
 62
4
100
AcDbLine
 10
79.597206
 20
1.321631
 30
0.0
 11
79.62558
 21
1.33189
 31
0.0
  0
LINE
  5
A0D
330
1F
100
AcDbEntity
  8
1
  6
CONTINUOUS
370
50
 62
4
100
AcDbLine
 10
79.62558
 20
1.33189
 30
0.0
 11
79.653008
 21
1.341967
 31
0.0
  0
LINE
  5
A0E
330
1F
100
AcDbEntity
  8
1
  6
CONTINUOUS
370
50
 62
4
100
AcDbLine
 10
79.653008
 20
1.341967
 30
0.0
 11
79.679451
 21
1.351857
 31
0.0
  0
LINE
  5
A0F
330
1F
100
AcDbEntity
  8
1
  6
CONTINUOUS
370
50
 62
4
100
AcDbLine
 10
59.03603
 20
-0.300081
 30
0.0
 11
59.062077
 21
-0.290275
 31
0.0
  0
LINE
  5
A10
330
1F
100
AcDbEntity
  8
1
  6
CONTINUOUS
370
50
 62
4
100
AcDbLine
 10
79.679451
 20
1.351857
 30
0.0
 11
79.704887
 21
1.361551
 31
0.0
  0
LINE
  5
A11
330
1F
100
AcDbEntity
  8
1
  6
CONTINUOUS
370
50
 62
4
100
AcDbLine
 10
58.908218
 20
-2.362863
 30
0.0
 11
58.92780699999999
 21
-2.355378
 31
0.0
  0
LINE
  5
A12
330
1F
100
AcDbEntity
  8
1
  6
CONTINUOUS
370
50
 62
4
100
AcDbLine
 10
79.704887
 20
1.361551
 30
0.0
 11
79.729462
 21
1.371116
 31
0.0
  0
LINE
  5
A13
330
1F
100
AcDbEntity
  8
1
  6
CONTINUOUS
370
50
 62
4
100
AcDbLine
 10
79.756371
 20
-0.431875
 30
0.0
 11
79.81154599999999
 21
-0.410238
 31
0.0
  0
LINE
  5
A14
330
1F
100
AcDbEntity
  8
1
  6
CONTINUOUS
370
50
 62
4
100
AcDbLine
 10
58.955887
 20
1.870157
 30
0.0
 11
58.977745
 21
1.87873
 31
0.0
  0
LINE
  5
A15
330
1F
100
AcDbEntity
  8
1
  6
CONTINUOUS
370
50
 62
4
100
AcDbLine
 10
79.701126
 20
-0.4536
 30
0.0
 11
79.756371
 21
-0.431875
 31
0.0
  0
LINE
  5
A16
330
1F
100
AcDbEntity
  8
1
  6
CONTINUOUS
370
50
 62
4
100
AcDbLine
 10
79.645912
 20
-0.475379
 30
0.0
 11
79.701126
 21
-0.4536
 31
0.0
  0
LINE
  5
A17
330
1F
100
AcDbEntity
  8
1
  6
CONTINUOUS
370
50
 62
4
100
AcDbLine
 10
79.590828
 20
-0.497177
 30
0.0
 11
79.645912
 21
-0.475379
 31
0.0
  0
LINE
  5
A18
330
1F
100
AcDbEntity
  8
1
  6
CONTINUOUS
370
50
 62
4
100
AcDbLine
 10
79.53596499999999
 20
-0.518958
 30
0.0
 11
79.590828
 21
-0.497177
 31
0.0
  0
LINE
  5
A19
330
1F
100
AcDbEntity
  8
1
  6
CONTINUOUS
370
50
 62
4
100
AcDbLine
 10
79.48143
 20
-0.540687
 30
0.0
 11
79.53596499999999
 21
-0.518958
 31
0.0
  0
LINE
  5
A1A
330
1F
100
AcDbEntity
  8
1
  6
CONTINUOUS
370
50
 62
4
100
AcDbLine
 10
79.729462
 20
1.371116
 30
0.0
 11
79.75426499999999
 21
1.380999
 31
0.0
  0
LINE
  5
A1B
330
1F
100
AcDbEntity
  8
1
  6
CONTINUOUS
370
50
 62
4
100
AcDbLine
 10
79.427315
 20
-0.562329
 30
0.0
 11
79.48143
 21
-0.540687
 31
0.0
  0
LINE
  5
A1C
330
1F
100
AcDbEntity
  8
1
  6
CONTINUOUS
370
50
 62
4
100
AcDbLine
 10
59.011066
 20
-0.310285
 30
0.0
 11
59.03603
 21
-0.300081
 31
0.0
  0
LINE
  5
A1D
330
1F
100
AcDbEntity
  8
1
  6
CONTINUOUS
370
50
 62
4
100
AcDbLine
 10
79.75426499999999
 20
1.380999
 30
0.0
 11
79.77918199999999
 21
1.391206
 31
0.0
  0
LINE
  5
A1E
330
1F
100
AcDbEntity
  8
1
  6
CONTINUOUS
370
50
 62
4
100
AcDbLine
 10
79.07056399999999
 20
-0.7163689999999999
 30
0.0
 11
79.119194
 21
-0.696303
 31
0.0
  0
LINE
  5
A1F
330
1F
100
AcDbEntity
  8
1
  6
CONTINUOUS
370
50
 62
4
100
AcDbLine
 10
79.119194
 20
-0.696303
 30
0.0
 11
79.16767899999999
 21
-0.676237
 31
0.0
  0
LINE
  5
A20
330
1F
100
AcDbEntity
  8
1
  6
CONTINUOUS
370
50
 62
4
100
AcDbLine
 10
79.16767899999999
 20
-0.676237
 30
0.0
 11
79.21599599999999
 21
-0.656175
 31
0.0
  0
LINE
  5
A21
330
1F
100
AcDbEntity
  8
1
  6
CONTINUOUS
370
50
 62
4
100
AcDbLine
 10
79.21599599999999
 20
-0.656175
 30
0.0
 11
79.26413699999999
 21
-0.636122
 31
0.0
  0
LINE
  5
A22
330
1F
100
AcDbEntity
  8
1
  6
CONTINUOUS
370
50
 62
4
100
AcDbLine
 10
79.26413699999999
 20
-0.636122
 30
0.0
 11
79.31208
 21
-0.6160829999999999
 31
0.0
  0
LINE
  5
A23
330
1F
100
AcDbEntity
  8
1
  6
CONTINUOUS
370
50
 62
4
100
AcDbLine
 10
58.88924799999999
 20
-2.370814
 30
0.0
 11
58.908218
 21
-2.362863
 31
0.0
  0
LINE
  5
A24
330
1F
100
AcDbEntity
  8
1
  6
CONTINUOUS
370
50
 62
4
100
AcDbLine
 10
79.31208
 20
-0.6160829999999999
 30
0.0
 11
79.35981799999999
 21
-0.596063
 31
0.0
  0
LINE
  5
A25
330
1F
100
AcDbEntity
  8
1
  6
CONTINUOUS
370
50
 62
4
100
AcDbLine
 10
79.35981799999999
 20
-0.596063
 30
0.0
 11
79.407326
 21
-0.576067
 31
0.0
  0
LINE
  5
A26
330
1F
100
AcDbEntity
  8
1
  6
CONTINUOUS
370
50
 62
4
100
AcDbLine
 10
79.77918199999999
 20
1.391206
 30
0.0
 11
79.803856
 21
1.401648
 31
0.0
  0
LINE
  5
A27
330
1F
100
AcDbEntity
  8
1
  6
CONTINUOUS
370
50
 62
4
100
AcDbLine
 10
58.935192
 20
1.861291
 30
0.0
 11
58.955887
 21
1.870157
 31
0.0
  0
LINE
  5
A28
330
1F
100
AcDbEntity
  8
1
  6
CONTINUOUS
370
50
 62
4
100
AcDbLine
 10
79.803856
 20
1.401648
 30
0.0
 11
79.827927
 21
1.412238
 31
0.0
  0
LINE
  5
A29
330
1F
100
AcDbEntity
  8
1
  6
CONTINUOUS
370
50
 62
4
100
AcDbLine
 10
58.98721699999999
 20
-0.320871
 30
0.0
 11
59.011066
 21
-0.310285
 31
0.0
  0
LINE
  5
A2A
330
1F
100
AcDbEntity
  8
1
  6
CONTINUOUS
370
50
 62
4
100
AcDbLine
 10
79.827927
 20
1.412238
 30
0.0
 11
79.851028
 21
1.422888
 31
0.0
  0
LINE
  5
A2B
330
1F
100
AcDbEntity
  8
1
  6
CONTINUOUS
370
50
 62
4
100
AcDbLine
 10
58.8708
 20
-2.379384
 30
0.0
 11
58.88924799999999
 21
-2.370814
 31
0.0
  0
LINE
  5
A2C
330
1F
100
AcDbEntity
  8
1
  6
CONTINUOUS
370
50
 62
4
100
AcDbLine
 10
58.915691
 20
1.852143
 30
0.0
 11
58.935192
 21
1.861291
 31
0.0
  0
LINE
  5
A2D
330
1F
100
AcDbEntity
  8
1
  6
CONTINUOUS
370
50
 62
4
100
AcDbLine
 10
58.790905
 20
2.958155
 30
0.0
 11
58.79821399999999
 21
2.961603
 31
0.0
  0
LINE
  5
A2E
330
1F
100
AcDbEntity
  8
1
  6
CONTINUOUS
370
50
 62
4
100
AcDbLine
 10
58.96452
 20
-0.331824
 30
0.0
 11
58.98721699999999
 21
-0.320871
 31
0.0
  0
LINE
  5
A2F
330
1F
100
AcDbEntity
  8
1
  6
CONTINUOUS
370
50
 62
4
100
AcDbLine
 10
79.851028
 20
1.422888
 30
0.0
 11
79.872818
 21
1.43351
 31
0.0
  0
LINE
  5
A30
330
1F
100
AcDbEntity
  8
1
  6
CONTINUOUS
370
50
 62
4
100
AcDbLine
 10
58.897106
 20
1.842553
 30
0.0
 11
58.915691
 21
1.852143
 31
0.0
  0
LINE
  5
A31
330
1F
100
AcDbEntity
  8
1
  6
CONTINUOUS
370
50
 62
4
100
AcDbLine
 10
58.853237
 20
-2.388556
 30
0.0
 11
58.8708
 21
-2.379384
 31
0.0
  0
LINE
  5
A32
330
1F
100
AcDbEntity
  8
1
  6
CONTINUOUS
370
50
 62
4
100
AcDbLine
 10
79.872818
 20
1.43351
 30
0.0
 11
79.89291399999999
 21
1.444017
 31
0.0
  0
LINE
  5
A33
330
1F
100
AcDbEntity
  8
1
  6
CONTINUOUS
370
50
 62
4
100
AcDbLine
 10
58.943012
 20
-0.343128
 30
0.0
 11
58.96452
 21
-0.331824
 31
0.0
  0
LINE
  5
A34
330
1F
100
AcDbEntity
  8
1
  6
CONTINUOUS
370
50
 62
4
100
AcDbLine
 10
79.89291399999999
 20
1.444017
 30
0.0
 11
79.911423
 21
1.454589
 31
0.0
  0
LINE
  5
A35
330
1F
100
AcDbEntity
  8
1
  6
CONTINUOUS
370
50
 62
4
100
AcDbLine
 10
58.87891
 20
1.832132
 30
0.0
 11
58.897106
 21
1.842553
 31
0.0
  0
LINE
  5
A36
330
1F
100
AcDbEntity
  8
1
  6
CONTINUOUS
370
50
 62
4
100
AcDbLine
 10
58.922722
 20
-0.354768
 30
0.0
 11
58.943012
 21
-0.343128
 31
0.0
  0
LINE
  5
A37
330
1F
100
AcDbEntity
  8
1
  6
CONTINUOUS
370
50
 62
4
100
AcDbLine
 10
58.836929
 20
-2.398314
 30
0.0
 11
58.853237
 21
-2.388556
 31
0.0
  0
LINE
  5
A38
330
1F
100
AcDbEntity
  8
1
  6
CONTINUOUS
370
50
 62
4
100
AcDbLine
 10
58.903599
 20
-0.366789
 30
0.0
 11
58.922722
 21
-0.354768
 31
0.0
  0
LINE
  5
A39
330
1F
100
AcDbEntity
  8
1
  6
CONTINUOUS
370
50
 62
4
100
AcDbLine
 10
58.861397
 20
1.820859
 30
0.0
 11
58.87891
 21
1.832132
 31
0.0
  0
LINE
  5
A3A
330
1F
100
AcDbEntity
  8
1
  6
CONTINUOUS
370
50
 62
4
100
AcDbLine
 10
79.911423
 20
1.454589
 30
0.0
 11
79.928635
 21
1.465724
 31
0.0
  0
LINE
  5
A3B
330
1F
100
AcDbEntity
  8
1
  6
CONTINUOUS
370
50
 62
4
100
AcDbLine
 10
79.407326
 20
-0.576067
 30
0.0
 11
79.41020999999999
 21
-0.574098
 31
0.0
  0
LINE
  5
A3C
330
1F
100
AcDbEntity
  8
1
  6
CONTINUOUS
370
50
 62
4
100
AcDbLine
 10
79.413078
 20
-0.572131
 30
0.0
 11
79.415947
 21
-0.570166
 31
0.0
  0
LINE
  5
A3D
330
1F
100
AcDbEntity
  8
1
  6
CONTINUOUS
370
50
 62
4
100
AcDbLine
 10
79.41020999999999
 20
-0.574098
 30
0.0
 11
79.413078
 21
-0.572131
 31
0.0
  0
LINE
  5
A3E
330
1F
100
AcDbEntity
  8
1
  6
CONTINUOUS
370
50
 62
4
100
AcDbLine
 10
79.415947
 20
-0.570166
 30
0.0
 11
79.41879999999999
 21
-0.5682039999999999
 31
0.0
  0
LINE
  5
A3F
330
1F
100
AcDbEntity
  8
1
  6
CONTINUOUS
370
50
 62
4
100
AcDbLine
 10
79.41879999999999
 20
-0.5682039999999999
 30
0.0
 11
79.421646
 21
-0.5662429999999999
 31
0.0
  0
LINE
  5
A40
330
1F
100
AcDbEntity
  8
1
  6
CONTINUOUS
370
50
 62
4
100
AcDbLine
 10
79.421646
 20
-0.5662429999999999
 30
0.0
 11
79.42448399999999
 21
-0.5642849999999999
 31
0.0
  0
LINE
  5
A41
330
1F
100
AcDbEntity
  8
1
  6
CONTINUOUS
370
50
 62
4
100
AcDbLine
 10
79.42448399999999
 20
-0.5642849999999999
 30
0.0
 11
79.427315
 21
-0.562329
 31
0.0
  0
LINE
  5
A42
330
1F
100
AcDbEntity
  8
1
  6
CONTINUOUS
370
50
 62
4
100
AcDbLine
 10
58.884937
 20
-0.379733
 30
0.0
 11
58.903599
 21
-0.366789
 31
0.0
  0
LINE
  5
A43
330
1F
100
AcDbEntity
  8
1
  6
CONTINUOUS
370
50
 62
4
100
AcDbLine
 10
58.822208
 20
-2.40866
 30
0.0
 11
58.836929
 21
-2.398314
 31
0.0
  0
LINE
  5
A44
330
1F
100
AcDbEntity
  8
1
  6
CONTINUOUS
370
50
 62
4
100
AcDbLine
 10
58.844902
 20
1.808732
 30
0.0
 11
58.861397
 21
1.820859
 31
0.0
  0
LINE
  5
A45
330
1F
100
AcDbEntity
  8
1
  6
CONTINUOUS
370
50
 62
4
100
AcDbLine
 10
79.378113
 20
-0.479317
 30
0.0
 11
79.900002
 21
-0.077075
 31
0.0
  0
LINE
  5
A46
330
1F
100
AcDbEntity
  8
1
  6
CONTINUOUS
370
50
 62
4
100
AcDbLine
 10
79.070557
 20
-0.716366
 30
0.0
 11
79.378113
 21
-0.479317
 31
0.0
  0
LINE
  5
A47
330
1F
100
AcDbEntity
  8
1
  6
CONTINUOUS
370
50
 62
4
100
AcDbLine
 10
58.866867
 20
-0.393723
 30
0.0
 11
58.884937
 21
-0.379733
 31
0.0
  0
LINE
  5
A48
330
1F
100
AcDbEntity
  8
1
  6
CONTINUOUS
370
50
 62
4
100
AcDbLine
 10
79.928635
 20
1.465724
 30
0.0
 11
79.94323
 21
1.477174
 31
0.0
  0
LINE
  5
A49
330
1F
100
AcDbEntity
  8
1
  6
CONTINUOUS
370
50
 62
4
100
AcDbLine
 10
58.82976499999999
 20
1.795747
 30
0.0
 11
58.844902
 21
1.808732
 31
0.0
  0
LINE
  5
A4A
330
1F
100
AcDbEntity
  8
1
  6
CONTINUOUS
370
50
 62
4
100
AcDbLine
 10
58.809307
 20
-2.419731
 30
0.0
 11
58.822208
 21
-2.40866
 31
0.0
  0
LINE
  5
A4B
330
1F
100
AcDbEntity
  8
1
  6
CONTINUOUS
370
50
 62
4
100
AcDbLine
 10
58.849739
 20
-0.408751
 30
0.0
 11
58.866867
 21
-0.393723
 31
0.0
  0
LINE
  5
A4C
330
1F
100
AcDbEntity
  8
1
  6
CONTINUOUS
370
50
 62
4
100
AcDbLine
 10
79.094872
 20
-0.618535
 30
0.0
 11
79.097008
 21
-0.6165729999999999
 31
0.0
  0
LINE
  5
A4D
330
1F
100
AcDbEntity
  8
1
  6
CONTINUOUS
370
50
 62
4
100
AcDbLine
 10
79.09060699999999
 20
-0.622464
 30
0.0
 11
79.092743
 21
-0.620499
 31
0.0
  0
LINE
  5
A4E
330
1F
100
AcDbEntity
  8
1
  6
CONTINUOUS
370
50
 62
4
100
AcDbLine
 10
79.086342
 20
-0.6264
 30
0.0
 11
79.088478
 21
-0.624431
 31
0.0
  0
LINE
  5
A4F
330
1F
100
AcDbEntity
  8
1
  6
CONTINUOUS
370
50
 62
4
100
AcDbLine
 10
79.092743
 20
-0.620499
 30
0.0
 11
79.094872
 21
-0.618535
 31
0.0
  0
LINE
  5
A50
330
1F
100
AcDbEntity
  8
1
  6
CONTINUOUS
370
50
 62
4
100
AcDbLine
 10
79.088478
 20
-0.624431
 30
0.0
 11
79.09060699999999
 21
-0.622464
 31
0.0
  0
LINE
  5
A51
330
1F
100
AcDbEntity
  8
1
  6
CONTINUOUS
370
50
 62
4
100
AcDbLine
 10
79.08421299999999
 20
-0.62837
 30
0.0
 11
79.086342
 21
-0.6264
 31
0.0
  0
LINE
  5
A52
330
1F
100
AcDbEntity
  8
1
  6
CONTINUOUS
370
50
 62
4
100
AcDbLine
 10
79.08208499999999
 20
-0.630342
 30
0.0
 11
79.08421299999999
 21
-0.62837
 31
0.0
  0
LINE
  5
A53
330
1F
100
AcDbEntity
  8
1
  6
CONTINUOUS
370
50
 62
4
100
AcDbLine
 10
58.787178
 20
2.954436
 30
0.0
 11
58.790905
 21
2.958155
 31
0.0
  0
LINE
  5
A54
330
1F
100
AcDbEntity
  8
1
  6
CONTINUOUS
370
50
 62
4
100
AcDbLine
 10
58.833912
 20
-0.424807
 30
0.0
 11
58.849739
 21
-0.408751
 31
0.0
  0
LINE
  5
A55
330
1F
100
AcDbEntity
  8
1
  6
CONTINUOUS
370
50
 62
4
100
AcDbLine
 10
58.816219
 20
1.781787
 30
0.0
 11
58.82976499999999
 21
1.795747
 31
0.0
  0
LINE
  5
A56
330
1F
100
AcDbEntity
  8
1
  6
CONTINUOUS
370
50
 62
4
100
AcDbLine
 10
58.798771
 20
-2.431509
 30
0.0
 11
58.809307
 21
-2.419731
 31
0.0
  0
LINE
  5
A57
330
1F
100
AcDbEntity
  8
1
  6
CONTINUOUS
370
50
 62
4
100
AcDbLine
 10
79.94323
 20
1.477174
 30
0.0
 11
79.954506
 21
1.489979
 31
0.0
  0
LINE
  5
A58
330
1F
100
AcDbEntity
  8
1
  6
CONTINUOUS
370
50
 62
4
100
AcDbLine
 10
58.819679
 20
-0.44195
 30
0.0
 11
58.833912
 21
-0.424807
 31
0.0
  0
LINE
  5
A59
330
1F
100
AcDbEntity
  8
1
  6
CONTINUOUS
370
50
 62
4
100
AcDbLine
 10
79.080238
 20
0.843482
 30
0.0
 11
79.08208499999999
 21
0.845839
 31
0.0
  0
LINE
  5
A5A
330
1F
100
AcDbEntity
  8
1
  6
CONTINUOUS
370
50
 62
4
100
AcDbLine
 10
58.804596
 20
1.766699
 30
0.0
 11
58.816219
 21
1.781787
 31
0.0
  0
LINE
  5
A5B
330
1F
100
AcDbEntity
  8
1
  6
CONTINUOUS
370
50
 62
4
100
AcDbLine
 10
79.078453
 20
0.8410219999999999
 30
0.0
 11
79.080238
 21
0.843482
 31
0.0
  0
LINE
  5
A5C
330
1F
100
AcDbEntity
  8
1
  6
CONTINUOUS
370
50
 62
4
100
AcDbLine
 10
79.895393
 20
-0.28639
 30
0.0
 11
79.900002
 21
-0.279583
 31
0.0
  0
LINE
  5
A5D
330
1F
100
AcDbEntity
  8
1
  6
CONTINUOUS
370
50
 62
4
100
AcDbLine
 10
79.81154599999999
 20
-0.410238
 30
0.0
 11
79.895393
 21
-0.28639
 31
0.0
  0
LINE
  5
A5E
330
1F
100
AcDbEntity
  8
1
  6
CONTINUOUS
370
50
 62
4
100
AcDbLine
 10
58.807301
 20
-0.460418
 30
0.0
 11
58.819679
 21
-0.44195
 31
0.0
  0
LINE
  5
A5F
330
1F
100
AcDbEntity
  8
1
  6
CONTINUOUS
370
50
 62
4
100
AcDbLine
 10
79.07674399999999
 20
0.83846
 30
0.0
 11
79.078453
 21
0.8410219999999999
 31
0.0
  0
LINE
  5
A60
330
1F
100
AcDbEntity
  8
1
  6
CONTINUOUS
370
50
 62
4
100
AcDbLine
 10
79.075096
 20
0.835796
 30
0.0
 11
79.07674399999999
 21
0.83846
 31
0.0
  0
LINE
  5
A61
330
1F
100
AcDbEntity
  8
1
  6
CONTINUOUS
370
50
 62
4
100
AcDbLine
 10
58.79122899999999
 20
-2.443875
 30
0.0
 11
58.798771
 21
-2.431509
 31
0.0
  0
LINE
  5
A62
330
1F
100
AcDbEntity
  8
1
  6
CONTINUOUS
370
50
 62
4
100
AcDbLine
 10
79.073517
 20
0.8330299999999999
 30
0.0
 11
79.075096
 21
0.835796
 31
0.0
  0
LINE
  5
A63
330
1F
100
AcDbEntity
  8
1
  6
CONTINUOUS
370
50
 62
4
100
AcDbLine
 10
58.795441
 20
1.750512
 30
0.0
 11
58.804596
 21
1.766699
 31
0.0
  0
LINE
  5
A64
330
1F
100
AcDbEntity
  8
1
  6
CONTINUOUS
370
50
 62
4
100
AcDbLine
 10
79.072006
 20
0.830163
 30
0.0
 11
79.073517
 21
0.8330299999999999
 31
0.0
  0
LINE
  5
A65
330
1F
100
AcDbEntity
  8
1
  6
CONTINUOUS
370
50
 62
4
100
AcDbLine
 10
79.824089
 20
-0.4983
 30
0.0
 11
79.824844
 21
-0.496854
 31
0.0
  0
LINE
  5
A66
330
1F
100
AcDbEntity
  8
1
  6
CONTINUOUS
370
50
 62
4
100
AcDbLine
 10
79.820343
 20
-0.505541
 30
0.0
 11
79.82109799999999
 21
-0.504091
 31
0.0
  0
LINE
  5
A67
330
1F
100
AcDbEntity
  8
1
  6
CONTINUOUS
370
50
 62
4
100
AcDbLine
 10
79.824844
 20
-0.496854
 30
0.0
 11
79.825592
 21
-0.495408
 31
0.0
  0
LINE
  5
A68
330
1F
100
AcDbEntity
  8
1
  6
CONTINUOUS
370
50
 62
4
100
AcDbLine
 10
79.823341
 20
-0.499747
 30
0.0
 11
79.824089
 21
-0.4983
 31
0.0
  0
LINE
  5
A69
330
1F
100
AcDbEntity
  8
1
  6
CONTINUOUS
370
50
 62
4
100
AcDbLine
 10
79.82109799999999
 20
-0.504091
 30
0.0
 11
79.821846
 21
-0.502643
 31
0.0
  0
LINE
  5
A6A
330
1F
100
AcDbEntity
  8
1
  6
CONTINUOUS
370
50
 62
4
100
AcDbLine
 10
79.822594
 20
-0.501194
 30
0.0
 11
79.823341
 21
-0.499747
 31
0.0
  0
LINE
  5
A6B
330
1F
100
AcDbEntity
  8
1
  6
CONTINUOUS
370
50
 62
4
100
AcDbLine
 10
79.821846
 20
-0.502643
 30
0.0
 11
79.822594
 21
-0.501194
 31
0.0
  0
LINE
  5
A6C
330
1F
100
AcDbEntity
  8
1
  6
CONTINUOUS
370
50
 62
4
100
AcDbLine
 10
58.79733299999999
 20
-0.480178
 30
0.0
 11
58.807301
 21
-0.460418
 31
0.0
  0
LINE
  5
A6D
330
1F
100
AcDbEntity
  8
1
  6
CONTINUOUS
370
50
 62
4
100
AcDbLine
 10
79.070557
 20
0.827195
 30
0.0
 11
79.072006
 21
0.830163
 31
0.0
  0
LINE
  5
A6E
330
1F
100
AcDbEntity
  8
1
  6
CONTINUOUS
370
50
 62
4
100
AcDbLine
 10
58.789371
 20
1.733476
 30
0.0
 11
58.795441
 21
1.750512
 31
0.0
  0
LINE
  5
A6F
330
1F
100
AcDbEntity
  8
1
  6
CONTINUOUS
370
50
 62
4
100
AcDbLine
 10
58.790401
 20
-0.501002
 30
0.0
 11
58.79733299999999
 21
-0.480178
 31
0.0
  0
LINE
  5
A70
330
1F
100
AcDbEntity
  8
1
  6
CONTINUOUS
370
50
 62
4
100
AcDbLine
 10
79.96483599999999
 20
-0.5166229999999999
 30
0.0
 11
80.0
 21
-0.408407
 31
0.0
  0
LINE
  5
A71
330
1F
100
AcDbEntity
  8
1
  6
CONTINUOUS
370
50
 62
4
100
AcDbLine
 10
58.787281
 20
-2.456543
 30
0.0
 11
58.79122899999999
 21
-2.443875
 31
0.0
  0
LINE
  5
A72
330
1F
100
AcDbEntity
  8
1
  6
CONTINUOUS
370
50
 62
4
100
AcDbLine
 10
79.954506
 20
1.489979
 30
0.0
 11
79.957657
 21
1.503345
 31
0.0
  0
LINE
  5
A73
330
1F
100
AcDbEntity
  8
1
  6
CONTINUOUS
370
50
 62
4
100
AcDbLine
 10
58.787037
 20
-0.522481
 30
0.0
 11
58.790401
 21
-0.501002
 31
0.0
  0
LINE
  5
A74
330
1F
100
AcDbEntity
  8
1
  6
CONTINUOUS
370
50
 62
4
100
AcDbLine
 10
79.080238
 20
-0.642446
 30
0.0
 11
79.08208499999999
 21
-0.630342
 31
0.0
  0
LINE
  5
A75
330
1F
100
AcDbEntity
  8
1
  6
CONTINUOUS
370
50
 62
4
100
AcDbLine
 10
79.078453
 20
-0.654612
 30
0.0
 11
79.080238
 21
-0.642446
 31
0.0
  0
LINE
  5
A76
330
1F
100
AcDbEntity
  8
1
  6
CONTINUOUS
370
50
 62
4
100
AcDbLine
 10
58.786823
 20
1.715827
 30
0.0
 11
58.789371
 21
1.733476
 31
0.0
  0
LINE
  5
A77
330
1F
100
AcDbEntity
  8
1
  6
CONTINUOUS
370
50
 62
4
100
AcDbLine
 10
79.07674399999999
 20
-0.66684
 30
0.0
 11
79.078453
 21
-0.654612
 31
0.0
  0
LINE
  5
A78
330
1F
100
AcDbEntity
  8
1
  6
CONTINUOUS
370
50
 62
4
100
AcDbLine
 10
79.075096
 20
-0.6791309999999999
 30
0.0
 11
79.07674399999999
 21
-0.66684
 31
0.0
  0
LINE
  5
A79
330
1F
100
AcDbEntity
  8
1
  6
CONTINUOUS
370
50
 62
4
100
AcDbLine
 10
79.073517
 20
-0.6914819999999999
 30
0.0
 11
79.075096
 21
-0.6791309999999999
 31
0.0
  0
LINE
  5
A7A
330
1F
100
AcDbEntity
  8
1
  6
CONTINUOUS
370
50
 62
4
100
AcDbLine
 10
79.072006
 20
-0.703894
 30
0.0
 11
79.073517
 21
-0.6914819999999999
 31
0.0
  0
LINE
  5
A7B
330
1F
100
AcDbEntity
  8
1
  6
CONTINUOUS
370
50
 62
4
100
AcDbLine
 10
79.070557
 20
-0.716366
 30
0.0
 11
79.072006
 21
-0.703894
 31
0.0
  0
LINE
  5
A7C
330
1F
100
AcDbEntity
  8
1
  6
CONTINUOUS
370
50
 62
4
100
AcDbLine
 10
58.787266
 20
-2.469366
 30
0.0
 11
58.787281
 21
-2.456543
 31
0.0
  0
LINE
  5
A7D
330
1F
100
AcDbEntity
  8
1
  6
CONTINUOUS
370
50
 62
4
100
AcDbLine
 10
56.0
 20
-2.99995
 30
0.0
 11
56.0
 21
2.99995
 31
0.0
  0
LINE
  5
A7E
330
1F
100
AcDbEntity
  8
1
  6
CONTINUOUS
370
50
 62
4
100
AcDbLine
 10
62.0
 20
-2.99995
 30
0.0
 11
62.0
 21
2.377191
 31
0.0
  0
LINE
  5
A7F
330
1F
100
AcDbEntity
  8
1
  6
CONTINUOUS
370
50
 62
4
100
AcDbLine
 10
62.0
 20
2.997908
 30
0.0
 11
62.0
 21
2.99995
 31
0.0
  0
LINE
  5
A80
330
1F
100
AcDbEntity
  8
1
  6
CONTINUOUS
370
50
 62
4
100
AcDbLine
 10
62.0
 20
2.377192
 30
0.0
 11
62.0
 21
2.997908
 31
0.0
  0
LINE
  5
A81
330
1F
100
AcDbEntity
  8
1
  6
CONTINUOUS
370
50
 62
4
100
AcDbLine
 10
62.0
 20
2.997407
 30
0.0
 11
62.0
 21
2.9999
 31
0.0
  0
LINE
  5
A82
330
1F
100
AcDbEntity
  8
1
  6
CONTINUOUS
370
50
 62
4
100
AcDbLine
 10
62.0
 20
2.377193
 30
0.0
 11
62.0
 21
2.480562
 31
0.0
  0
LINE
  5
A83
330
1F
100
AcDbEntity
  8
1
  6
CONTINUOUS
370
50
 62
4
100
AcDbLine
 10
62.0
 20
2.480562
 30
0.0
 11
62.0
 21
2.583931
 31
0.0
  0
LINE
  5
A84
330
1F
100
AcDbEntity
  8
1
  6
CONTINUOUS
370
50
 62
4
100
AcDbLine
 10
62.0
 20
2.583931
 30
0.0
 11
62.0
 21
2.6873
 31
0.0
  0
LINE
  5
A85
330
1F
100
AcDbEntity
  8
1
  6
CONTINUOUS
370
50
 62
4
100
AcDbLine
 10
62.0
 20
2.6873
 30
0.0
 11
62.0
 21
2.790669
 31
0.0
  0
LINE
  5
A86
330
1F
100
AcDbEntity
  8
1
  6
CONTINUOUS
370
50
 62
4
100
AcDbLine
 10
62.0
 20
2.790669
 30
0.0
 11
62.0
 21
2.894038
 31
0.0
  0
LINE
  5
A87
330
1F
100
AcDbEntity
  8
1
  6
CONTINUOUS
370
50
 62
4
100
AcDbLine
 10
62.0
 20
2.894038
 30
0.0
 11
62.0
 21
2.997407
 31
0.0
  0
LINE
  5
A88
330
1F
100
AcDbEntity
  8
1
  6
CONTINUOUS
370
50
 62
4
100
AcDbLine
 10
79.900002
 20
0.7161759999999999
 30
0.0
 11
79.900002
 21
0.932844
 31
0.0
  0
LINE
  5
A89
330
1F
100
AcDbEntity
  8
1
  6
CONTINUOUS
370
50
 62
4
100
AcDbLine
 10
79.900002
 20
-0.077075
 30
0.0
 11
79.900002
 21
-0.033009
 31
0.0
  0
LINE
  5
A8A
330
1F
100
AcDbEntity
  8
1
  6
CONTINUOUS
370
50
 62
4
100
AcDbLine
 10
79.900002
 20
-0.279583
 30
0.0
 11
79.900002
 21
-0.077075
 31
0.0
  0
LINE
  5
A8B
330
1F
100
AcDbEntity
  8
1
  6
CONTINUOUS
370
50
 62
4
100
AcDbLine
 10
79.900002
 20
-0.302782
 30
0.0
 11
79.900002
 21
-0.279583
 31
0.0
  0
LINE
  5
A8C
330
1F
100
AcDbEntity
  8
1
  6
CONTINUOUS
370
50
 62
4
100
AcDbLine
 10
80.0
 20
0.621076
 30
0.0
 11
80.0
 21
2.389987
 31
0.0
  0
LINE
  5
A8D
330
1F
100
AcDbEntity
  8
1
  6
CONTINUOUS
370
50
 62
4
100
AcDbLine
 10
80.0
 20
-0.408407
 30
0.0
 11
80.0
 21
-0.004709
 31
0.0
  0
LINE
  5
A8E
330
1F
100
AcDbEntity
  8
1
  6
CONTINUOUS
370
50
 62
4
100
AcDbLine
 10
80.0
 20
0.0
 30
0.0
 11
80.0
 21
0.407797
 31
0.0
  0
LINE
  5
A8F
330
1F
100
AcDbEntity
  8
1
  6
CONTINUOUS
370
50
 62
4
100
AcDbLine
 10
80.0
 20
0.408305
 30
0.0
 11
80.0
 21
0.408407
 31
0.0
  0
LINE
  5
A90
330
1F
100
AcDbEntity
  8
1
  6
CONTINUOUS
370
50
 62
4
100
AcDbLine
 10
80.0
 20
0.408204
 30
0.0
 11
80.0
 21
0.408305
 31
0.0
  0
LINE
  5
A91
330
1F
100
AcDbEntity
  8
1
  6
CONTINUOUS
370
50
 62
4
100
AcDbLine
 10
80.0
 20
0.408102
 30
0.0
 11
80.0
 21
0.408204
 31
0.0
  0
LINE
  5
A92
330
1F
100
AcDbEntity
  8
1
  6
CONTINUOUS
370
50
 62
4
100
AcDbLine
 10
80.0
 20
0.408
 30
0.0
 11
80.0
 21
0.408102
 31
0.0
  0
LINE
  5
A93
330
1F
100
AcDbEntity
  8
1
  6
CONTINUOUS
370
50
 62
4
100
AcDbLine
 10
80.0
 20
0.407899
 30
0.0
 11
80.0
 21
0.408
 31
0.0
  0
LINE
  5
A94
330
1F
100
AcDbEntity
  8
1
  6
CONTINUOUS
370
50
 62
4
100
AcDbLine
 10
80.0
 20
0.407797
 30
0.0
 11
80.0
 21
0.407899
 31
0.0
  0
LINE
  5
A95
330
1F
100
AcDbEntity
  8
1
  6
CONTINUOUS
370
50
 62
4
100
AcDbLine
 10
80.0
 20
-1.812553
 30
0.0
 11
80.0
 21
-1.812408
 31
0.0
  0
LINE
  5
A96
330
1F
100
AcDbEntity
  8
1
  6
CONTINUOUS
370
50
 62
4
100
AcDbLine
 10
80.0
 20
-1.812697
 30
0.0
 11
80.0
 21
-1.812553
 31
0.0
  0
LINE
  5
A97
330
1F
100
AcDbEntity
  8
1
  6
CONTINUOUS
370
50
 62
4
100
AcDbLine
 10
80.0
 20
-1.812841
 30
0.0
 11
80.0
 21
-1.812697
 31
0.0
  0
LINE
  5
A98
330
1F
100
AcDbEntity
  8
1
  6
CONTINUOUS
370
50
 62
4
100
AcDbLine
 10
80.0
 20
-1.812986
 30
0.0
 11
80.0
 21
-1.812841
 31
0.0
  0
LINE
  5
A99
330
1F
100
AcDbEntity
  8
1
  6
CONTINUOUS
370
50
 62
4
100
AcDbLine
 10
80.0
 20
-1.81313
 30
0.0
 11
80.0
 21
-1.812986
 31
0.0
  0
LINE
  5
A9A
330
1F
100
AcDbEntity
  8
1
  6
CONTINUOUS
370
50
 62
4
100
AcDbLine
 10
80.0
 20
-1.813274
 30
0.0
 11
80.0
 21
-1.81313
 31
0.0
  0
LINE
  5
A9B
330
1F
100
AcDbEntity
  8
1
  6
CONTINUOUS
370
50
 62
4
100
AcDbLine
 10
80.0
 20
-2.971642
 30
0.0
 11
80.0
 21
-2.97154
 31
0.0
  0
LINE
  5
A9C
330
1F
100
AcDbEntity
  8
1
  6
CONTINUOUS
370
50
 62
4
100
AcDbLine
 10
80.0
 20
-2.971745
 30
0.0
 11
80.0
 21
-2.971642
 31
0.0
  0
LINE
  5
A9D
330
1F
100
AcDbEntity
  8
1
  6
CONTINUOUS
370
50
 62
4
100
AcDbLine
 10
80.0
 20
-2.971847
 30
0.0
 11
80.0
 21
-2.971745
 31
0.0
  0
LINE
  5
A9E
330
1F
100
AcDbEntity
  8
1
  6
CONTINUOUS
370
50
 62
4
100
AcDbLine
 10
80.0
 20
-2.97195
 30
0.0
 11
80.0
 21
-2.971847
 31
0.0
  0
LINE
  5
A9F
330
1F
100
AcDbEntity
  8
1
  6
CONTINUOUS
370
50
 62
4
100
AcDbLine
 10
80.0
 20
-2.972052
 30
0.0
 11
80.0
 21
-2.97195
 31
0.0
  0
LINE
  5
AA0
330
1F
100
AcDbEntity
  8
1
  6
CONTINUOUS
370
50
 62
4
100
AcDbLine
 10
80.0
 20
-2.972154
 30
0.0
 11
80.0
 21
-2.972052
 31
0.0
  0
LINE
  5
AA1
330
1F
100
AcDbEntity
  8
1
  6
CONTINUOUS
370
50
 62
4
100
AcDbLine
 10
80.0
 20
2.389988
 30
0.0
 11
80.0
 21
2.999996
 31
0.0
  0
LINE
  5
AA2
330
1F
100
AcDbEntity
  8
1
  6
CONTINUOUS
370
50
 62
4
100
AcDbLine
 10
80.0
 20
-1.812408
 30
0.0
 11
80.0
 21
-0.621076
 31
0.0
  0
LINE
  5
AA3
330
1F
100
AcDbEntity
  8
1
  6
CONTINUOUS
370
50
 62
4
100
AcDbLine
 10
80.0
 20
-2.12465
 30
0.0
 11
80.0
 21
-1.813274
 31
0.0
  0
LINE
  5
AA4
330
1F
100
AcDbEntity
  8
1
  6
CONTINUOUS
370
50
 62
4
100
AcDbLine
 10
80.0
 20
-0.004713
 30
0.0
 11
80.0
 21
0.0
 31
0.0
  0
LINE
  5
AA5
330
1F
100
AcDbEntity
  8
1
  6
CONTINUOUS
370
50
 62
4
100
AcDbLine
 10
80.0
 20
-3.0
 30
0.0
 11
80.0
 21
-2.972154
 31
0.0
  0
LINE
  5
AA6
330
1F
100
AcDbEntity
  8
1
  6
CONTINUOUS
370
50
 62
4
100
AcDbLine
 10
80.0
 20
-2.97154
 30
0.0
 11
80.0
 21
-2.124649
 31
0.0
  0
ELLIPSE
  5
AA7
330
1F
100
AcDbEntity
  8
1
  6
CONTINUOUS
370
50
 62
4
100
AcDbEllipse
 10
67.813765
 20
-23.91096
 30
0.0
 11
-20.90467091628846
 21
8.281391211312593
 31
0.0
210
0.0
220
0.0
230
1.0
 40
0.9493329611235811
 41
5.335446700897085
 42
5.33748611865373
  0
ELLIPSE
  5
AA8
330
1F
100
AcDbEntity
  8
1
  6
CONTINUOUS
370
50
 62
4
100
AcDbEllipse
 10
67.813765
 20
-12.567078
 30
0.0
 11
-22.29232600394184
 21
2.939206970103212
 31
0.0
210
0.0
220
0.0
230
1.0
 40
0.4646769491024605
 41
5.036921232798929
 42
5.038960650559098
  0
ELLIPSE
  5
AA9
330
1F
100
AcDbEntity
  8
1
  6
CONTINUOUS
370
50
 62
4
100
AcDbEllipse
 10
67.813765
 20
6.138427999999999
 30
0.0
 11
-22.31996695684901
 21
2.72136135391427
 31
0.0
210
0.0
220
0.0
230
0.9999999999999998
 40
0.2921805409934094
 41
1.341024102112293
 42
1.343063519983983
  0
ELLIPSE
  5
AAA
330
1F
100
AcDbEntity
  8
1
  6
CONTINUOUS
370
50
 62
4
100
AcDbEllipse
 10
67.813765
 20
21.248126
 30
0.0
 11
-21.81855488316106
 21
5.434831469059053
 31
0.0
210
0.0
220
0.0
230
1.0
 40
0.8778826136264003
 41
1.52069994991068
 42
1.522739367684565
  0
ELLIPSE
  5
AAB
330
1F
100
AcDbEntity
  8
1
  6
CONTINUOUS
370
50
 62
4
100
AcDbEllipse
 10
67.913043
 20
-23.660355
 30
0.0
 11
-21.89125387160667
 21
8.672226324102601
 31
0.0
210
0.0
220
0.0
230
1.0
 40
0.94933296199936
 41
5.422331551578622
 42
5.465381346225245
  0
ELLIPSE
  5
AAC
330
1F
100
AcDbEntity
  8
1
  6
CONTINUOUS
370
50
 62
4
100
AcDbEllipse
 10
67.913043
 20
-11.814113
 30
0.0
 11
-23.34439800599899
 21
3.077920954500846
 31
0.0
210
0.0
220
0.0
230
1.0
 40
0.4646769645404664
 41
5.029175257568671
 42
5.166855890900097
  0
ELLIPSE
  5
AAD
330
1F
100
AcDbEntity
  8
1
  6
CONTINUOUS
370
50
 62
4
100
AcDbEllipse
 10
67.913043
 20
6.952677
 30
0.0
 11
-23.37334297611126
 21
2.849794195929777
 31
0.0
210
0.0
220
0.0
230
1.0
 40
0.2921805390727283
 41
1.213128870562758
 42
1.350809506874125
  0
ELLIPSE
  5
AAE
330
1F
100
AcDbEntity
  8
1
  6
CONTINUOUS
370
50
 62
4
100
AcDbEllipse
 10
67.97707799999999
 20
7.477882999999999
 30
0.0
 11
-23.34076104332292
 21
2.84582164467564
 31
0.0
210
0.0
220
0.0
230
1.0
 40
0.2921805345259796
 41
1.235905786131993
 42
1.347609548142913
  0
ELLIPSE
  5
AAF
330
1F
100
AcDbEntity
  8
1
  6
CONTINUOUS
370
50
 62
4
100
AcDbEllipse
 10
67.97707799999999
 20
21.903759
 30
0.0
 11
-22.81641697133301
 21
5.683391115085874
 31
0.0
210
0.0
220
0.0
230
0.9999999999999999
 40
0.8778826208171467
 41
1.415581630516402
 42
1.437545365071254
  0
ELLIPSE
  5
AB0
330
1F
100
AcDbEntity
  8
1
  6
CONTINUOUS
370
50
 62
4
100
AcDbEllipse
 10
80.0
 20
0.0
 30
0.0
 11
-0.5481081036628199
 21
1.317537956875302
 31
0.0
210
0.0
220
0.0
230
1.0
 40
0.5368816316345469
 41
1.510165498489777
 42
1.714022068763532
  0
ELLIPSE
  5
AB1
330
1F
100
AcDbEntity
  8
1
  6
CONTINUOUS
370
50
 62
4
100
AcDbEllipse
 10
80.0
 20
0.0
 30
0.0
 11
-0.7469339696130112
 21
1.795474012641271
 31
0.0
210
0.0
220
0.0
230
0.9999999999999999
 40
0.5368815979956777
 41
1.575913840353469
 42
1.609268164158974
  0
ELLIPSE
  5
AB2
330
1F
100
AcDbEntity
  8
1
  6
CONTINUOUS
370
50
 62
4
100
AcDbEllipse
 10
80.0
 20
0.0
 30
0.0
 11
-1.18374099510816
 21
1.829919003164442
 31
0.0
210
0.0
220
0.0
230
0.9999999999999998
 40
0.1601468432891593
 41
0.9070289548853804
 42
0.9403832924751674
  0
ELLIPSE
  5
AB3
330
1F
100
AcDbEntity
  8
1
  6
CONTINUOUS
370
50
 62
4
100
AcDbEllipse
 10
80.0
 20
0.0
 30
0.0
 11
3.48825994118625
 21
1.33271415393973
 31
0.0
210
0.0
220
0.0
230
1.0
 40
0.0617339616084858
 41
4.509620676039213
 42
4.658822633153687
  0
ELLIPSE
  5
AB4
330
1F
100
AcDbEntity
  8
1
  6
CONTINUOUS
370
50
 62
4
100
AcDbEllipse
 10
80.0
 20
0.0
 30
0.0
 11
4.766999941181637
 21
0.99338728225363
 31
0.0
210
0.0
220
0.0
230
1.0
 40
0.1917675934294794
 41
1.53085544565176
 42
1.565652619194349
  0
ELLIPSE
  5
AB5
330
1F
100
AcDbEntity
  8
1
  6
CONTINUOUS
370
50
 62
4
100
AcDbEllipse
 10
80.000208
 20
0.0
 30
0.0
 11
10.60178800012811
 21
0.005122734880296268
 31
0.0
210
0.0
220
0.0
230
1.0
 40
0.2829707592874616
 41
1.570679229578969
 42
1.683068657582542
  0
ELLIPSE
  5
AB6
330
1F
100
AcDbEntity
  8
1
  6
CONTINUOUS
370
50
 62
4
100
AcDbEllipse
 10
80.000208
 20
0.000042
 30
0.0
 11
10.59332499299483
 21
2.201175033712912
 31
0.0
210
0.0
220
0.0
230
1.0
 40
0.1924173881609977
 41
4.560019022137933
 42
4.672408440159256
  0
ELLIPSE
  5
AB7
330
1F
100
AcDbEntity
  8
1
  6
CONTINUOUS
370
50
 62
4
100
AcDbEllipse
 10
80.000208
 20
0.000042
 30
0.0
 11
10.59333294974393
 21
2.207527241165468
 31
0.0
210
0.0
220
0.0
230
0.9999999999999999
 40
0.1917675929746474
 41
1.530875078683801
 42
1.643264465109656
  0
ELLIPSE
  5
AB8
330
1F
100
AcDbEntity
  8
1
  6
CONTINUOUS
370
50
 62
4
100
AcDbEllipse
 10
80.000208
 20
0.000059
 30
0.0
 11
10.60178806149175
 21
2.999996782692252
 31
0.0
210
0.0
220
0.0
230
1.0
 40
0.000411544197262
 41
4.599865279615758
 42
4.712252892757177
  0
ELLIPSE
  5
AB9
330
1F
100
AcDbEntity
  8
1
  6
CONTINUOUS
370
50
 62
4
100
AcDbEllipse
 10
80.132699
 20
0.0
 30
0.0
 11
0.3260421108172833
 21
1.348132973199161
 31
0.0
210
0.0
220
0.0
230
0.9999999999999998
 40
0.2176588074508664
 41
1.145328914076223
 42
1.230690432701361
  0
ELLIPSE
  5
ABA
330
1F
100
AcDbEntity
  8
1
  6
CONTINUOUS
370
50
 62
4
100
AcDbEllipse
 10
80.132699
 20
0.0
 30
0.0
 11
-0.3260421108172906
 21
1.348132973199159
 31
0.0
210
0.0
220
0.0
230
1.0
 40
0.2176588074508667
 41
1.731969821342271
 42
1.996263739513566
  0
LINE
  5
ABB
330
1F
100
AcDbEntity
  8
CUT
  6
CONTINUOUS
370
25
 62
1
100
AcDbLine
 10
62.0
 20
1.35
 30
0.0
 11
80.0
 21
1.35
 31
0.0
  0
LINE
  5
ABC
330
1F
100
AcDbEntity
  8
CUT
  6
CONTINUOUS
370
25
 62
1
100
AcDbLine
 10
80.0
 20
1.35
 30
0.0
 11
80.0
 21
2.995
 31
0.0
  0
LINE
  5
ABD
330
1F
100
AcDbEntity
  8
CUT
  6
CONTINUOUS
370
25
 62
1
100
AcDbLine
 10
80.0
 20
2.995
 30
0.0
 11
80.0
 21
3.0
 31
0.0
  0
LINE
  5
ABE
330
1F
100
AcDbEntity
  8
CUT
  6
CONTINUOUS
370
25
 62
1
100
AcDbLine
 10
80.0
 20
3.0
 30
0.0
 11
62.0
 21
2.9999
 31
0.0
  0
LINE
  5
ABF
330
1F
100
AcDbEntity
  8
CUT
  6
CONTINUOUS
370
25
 62
1
100
AcDbLine
 10
62.0
 20
2.9999
 30
0.0
 11
62.0
 21
1.35
 31
0.0
  0
LINE
  5
AC0
330
1F
100
AcDbEntity
  8
NOCUT
  6
CONTINUOUS
370
25
 62
7
100
AcDbLine
 10
56.0
 20
0.0
 30
0.0
 11
79.9
 21
0.0
 31
0.0
  0
LINE
  5
AC1
330
1F
100
AcDbEntity
  8
NOCUT
  6
CONTINUOUS
370
25
 62
7
100
AcDbLine
 10
79.9
 20
0.0
 30
0.0
 11
79.9
 21
1.35
 31
0.0
  0
LINE
  5
AC2
330
1F
100
AcDbEntity
  8
NOCUT
  6
CONTINUOUS
370
25
 62
7
100
AcDbLine
 10
79.9
 20
1.35
 30
0.0
 11
62.0
 21
1.35
 31
0.0
  0
LINE
  5
AC3
330
1F
100
AcDbEntity
  8
NOCUT
  6
CONTINUOUS
370
25
 62
7
100
AcDbLine
 10
62.0
 20
1.35
 30
0.0
 11
62.0
 21
2.99995
 31
0.0
  0
LINE
  5
AC4
330
1F
100
AcDbEntity
  8
NOCUT
  6
CONTINUOUS
370
25
 62
7
100
AcDbLine
 10
62.0
 20
2.99995
 30
0.0
 11
56.0
 21
2.99995
 31
0.0
  0
LINE
  5
AC5
330
1F
100
AcDbEntity
  8
NOCUT
  6
CONTINUOUS
370
25
 62
7
100
AcDbLine
 10
56.0
 20
2.99995
 30
0.0
 11
56.0
 21
0.0
 31
0.0
  0
LINE
  5
AC6
330
1F
100
AcDbEntity
  8
SK1
  6
CONTINUOUS
370
50
 62
4
100
AcDbLine
 10
56.0
 20
3.0
 30
0.0
 11
0.3999999999999986
 21
3.0
 31
0.0
  0
LINE
  5
AC7
330
1F
100
AcDbEntity
  8
SK1
  6
CONTINUOUS
370
50
 62
4
100
AcDbLine
 10
0.3999999999999986
 20
3.0
 30
0.0
 11
0.0
 21
2.6
 31
0.0
  0
LINE
  5
AC8
330
1F
100
AcDbEntity
  8
SK1
  6
CONTINUOUS
370
50
 62
4
100
AcDbLine
 10
0.0
 20
2.6
 30
0.0
 11
0.0
 21
-2.6
 31
0.0
  0
LINE
  5
AC9
330
1F
100
AcDbEntity
  8
SK1
  6
CONTINUOUS
370
50
 62
4
100
AcDbLine
 10
0.0
 20
-2.6
 30
0.0
 11
0.3999999999999986
 21
-3.0
 31
0.0
  0
LINE
  5
ACA
330
1F
100
AcDbEntity
  8
SK1
  6
CONTINUOUS
370
50
 62
4
100
AcDbLine
 10
0.3999999999999986
 20
-3.0
 30
0.0
 11
56.0
 21
-3.0
 31
0.0
  0
LINE
  5
ACB
330
1F
100
AcDbEntity
  8
SK1
  6
CONTINUOUS
370
50
 62
4
100
AcDbLine
 10
0.3999999999999986
 20
3.0
 30
0.0
 11
0.3999999999999986
 21
-3.0
 31
0.0
  0
LINE
  5
ACC
330
1F
100
AcDbEntity
  8
SK2
  6
CONTINUOUS
370
25
 62
7
100
AcDbLine
 10
-12.0000002
 20
-3.000001
 30
0.0
 11
-13.00000000000008
 21
-3.000001
 31
0.0
  0
LINE
  5
ACD
330
1F
100
AcDbEntity
  8
SK2
  6
CONTINUOUS
370
25
 62
7
100
AcDbLine
 10
0.0
 20
-3.000001
 30
0.0
 11
-11.9999998
 21
-3.000001
 31
0.0
  0
LINE
  5
ACE
330
1F
100
AcDbEntity
  8
SK2
  6
CONTINUOUS
370
25
 62
7
100
AcDbLine
 10
-13.0
 20
3.0
 30
0.0
 11
0.0
 21
3.0
 31
0.0
  0
LINE
  5
ACF
330
1F
100
AcDbEntity
  8
SK2
  6
CONTINUOUS
370
25
 62
7
100
AcDbLine
 10
-12.0
 20
-10.0
 30
0.0
 11
-12.0
 21
16.475
 31
0.0
  0
LINE
  5
AD0
330
1F
100
AcDbEntity
  8
SK2
  6
CONTINUOUS
370
25
 62
7
100
AcDbLine
 10
-12.0
 20
-3.0
 30
0.0
 11
-11.0
 21
-8.0
 31
0.0
  0
LINE
  5
AD1
330
1F
100
AcDbEntity
  8
SK2
  6
CONTINUOUS
370
25
 62
7
100
AcDbLine
 10
-11.0
 20
-8.0
 30
0.0
 11
-13.0
 21
-8.0
 31
0.0
  0
LINE
  5
AD2
330
1F
100
AcDbEntity
  8
SK2
  6
CONTINUOUS
370
25
 62
7
100
AcDbLine
 10
-13.0
 20
-8.0
 30
0.0
 11
-12.0
 21
-3.0
 31
0.0
  0
LINE
  5
AD3
330
1F
100
AcDbEntity
  8
SK2
  6
CONTINUOUS
370
25
 62
7
100
AcDbLine
 10
-11.39696961967032
 20
-8.0
 30
0.0
 11
-11.06616160327839
 21
-7.669191983608073
 31
0.0
  0
LINE
  5
AD4
330
1F
100
AcDbEntity
  8
SK2
  6
CONTINUOUS
370
25
 62
7
100
AcDbLine
 10
-11.82123368838225
 20
-8.000000000000007
 30
0.0
 11
-11.13687228139703
 21
-7.315638593014789
 31
0.0
  0
LINE
  5
AD5
330
1F
100
AcDbEntity
  8
SK2
  6
CONTINUOUS
370
25
 62
7
100
AcDbLine
 10
-12.24549775709417
 20
-8.0
 30
0.0
 11
-11.20758295951569
 21
-6.962085202421505
 31
0.0
  0
LINE
  5
AD6
330
1F
100
AcDbEntity
  8
SK2
  6
CONTINUOUS
370
25
 62
7
100
AcDbLine
 10
-12.66976182580609
 20
-8.0
 30
0.0
 11
-11.27829363763436
 21
-6.608531811828257
 31
0.0
  0
LINE
  5
AD7
330
1F
100
AcDbEntity
  8
SK2
  6
CONTINUOUS
370
25
 62
7
100
AcDbLine
 10
-12.97649352637049
 20
-7.882467631852464
 30
0.0
 11
-11.34900431575301
 21
-6.254978421234981
 31
0.0
  0
LINE
  5
AD8
330
1F
100
AcDbEntity
  8
SK2
  6
CONTINUOUS
370
25
 62
7
100
AcDbLine
 10
-12.87042750919251
 20
-7.35213754596257
 30
0.0
 11
-11.41971499387166
 21
-5.901425030641711
 31
0.0
  0
LINE
  5
AD9
330
1F
100
AcDbEntity
  8
SK2
  6
CONTINUOUS
370
25
 62
7
100
AcDbLine
 10
-12.76436149201453
 20
-6.821807460072648
 30
0.0
 11
-11.49042567199032
 21
-5.547871640048427
 31
0.0
  0
LINE
  5
ADA
330
1F
100
AcDbEntity
  8
SK2
  6
CONTINUOUS
370
25
 62
7
100
AcDbLine
 10
-12.65829547483655
 20
-6.291477374182747
 30
0.0
 11
-11.56113635010897
 21
-5.194318249455151
 31
0.0
  0
LINE
  5
ADB
330
1F
100
AcDbEntity
  8
SK2
  6
CONTINUOUS
370
25
 62
7
100
AcDbLine
 10
-12.55222945765857
 20
-5.761147288292833
 30
0.0
 11
-11.63184702822763
 21
-4.840764858861888
 31
0.0
  0
LINE
  5
ADC
330
1F
100
AcDbEntity
  8
SK2
  6
CONTINUOUS
370
25
 62
7
100
AcDbLine
 10
-12.44616344048057
 20
-5.230817202402896
 30
0.0
 11
-11.70255770634628
 21
-4.487211468268605
 31
0.0
  0
LINE
  5
ADD
330
1F
100
AcDbEntity
  8
SK2
  6
CONTINUOUS
370
25
 62
7
100
AcDbLine
 10
-12.34009742330261
 20
-4.700487116513017
 30
0.0
 11
-11.77326838446493
 21
-4.133658077675321
 31
0.0
  0
LINE
  5
ADE
330
1F
100
AcDbEntity
  8
SK2
  6
CONTINUOUS
370
25
 62
7
100
AcDbLine
 10
-12.23403140612461
 20
-4.170157030623074
 30
0.0
 11
-11.84397906258359
 21
-3.780104687082044
 31
0.0
  0
LINE
  5
ADF
330
1F
100
AcDbEntity
  8
SK2
  6
CONTINUOUS
370
25
 62
7
100
AcDbLine
 10
-12.12796538894663
 20
-3.639826944733173
 30
0.0
 11
-11.91468974070224
 21
-3.426551296488782
 31
0.0
  0
LINE
  5
AE0
330
1F
100
AcDbEntity
  8
SK2
  6
CONTINUOUS
370
25
 62
7
100
AcDbLine
 10
-12.02189937176865
 20
-3.109496858843272
 30
0.0
 11
-11.9854004188209
 21
-3.072997905895519
 31
0.0
  0
LINE
  5
AE1
330
1F
100
AcDbEntity
  8
SK2
  6
CONTINUOUS
370
25
 62
7
100
AcDbLine
 10
-12.98141695816359
 20
-7.907084790818018
 30
0.0
 11
-12.88850174898161
 21
-8.0
 31
0.0
  0
LINE
  5
AE2
330
1F
100
AcDbEntity
  8
SK2
  6
CONTINUOUS
370
25
 62
7
100
AcDbLine
 10
-12.91070628004495
 20
-7.553531400224742
 30
0.0
 11
-12.46423768026969
 21
-8.0
 31
0.0
  0
LINE
  5
AE3
330
1F
100
AcDbEntity
  8
SK2
  6
CONTINUOUS
370
25
 62
7
100
AcDbLine
 10
-12.83999560192629
 20
-7.199978009631465
 30
0.0
 11
-12.03997361155776
 21
-8.0
 31
0.0
  0
LINE
  5
AE4
330
1F
100
AcDbEntity
  8
SK2
  6
CONTINUOUS
370
25
 62
7
100
AcDbLine
 10
-12.76928492380763
 20
-6.846424619038203
 30
0.0
 11
-11.61570954284583
 21
-8.0
 31
0.0
  0
LINE
  5
AE5
330
1F
100
AcDbEntity
  8
SK2
  6
CONTINUOUS
370
25
 62
7
100
AcDbLine
 10
-12.69857424568899
 20
-6.492871228444926
 30
0.0
 11
-11.19144547413391
 21
-8.0
 31
0.0
  0
LINE
  5
AE6
330
1F
100
AcDbEntity
  8
SK2
  6
CONTINUOUS
370
25
 62
7
100
AcDbLine
 10
-12.62786356757033
 20
-6.13931783785165
 30
0.0
 11
-11.05820464864451
 21
-7.708976756777474
 31
0.0
  0
LINE
  5
AE7
330
1F
100
AcDbEntity
  8
SK2
  6
CONTINUOUS
370
25
 62
7
100
AcDbLine
 10
-12.55715288945167
 20
-5.785764447258387
 30
0.0
 11
-11.16427066582249
 21
-7.178646670887574
 31
0.0
  0
LINE
  5
AE8
330
1F
100
AcDbEntity
  8
SK2
  6
CONTINUOUS
370
25
 62
7
100
AcDbLine
 10
-12.48644221133303
 20
-5.432211056665096
 30
0.0
 11
-11.27033668300047
 21
-6.648316584997659
 31
0.0
  0
LINE
  5
AE9
330
1F
100
AcDbEntity
  8
SK2
  6
CONTINUOUS
370
25
 62
7
100
AcDbLine
 10
-12.41573153321437
 20
-5.078657666071834
 30
0.0
 11
-11.37640270017845
 21
-6.117986499107758
 31
0.0
  0
LINE
  5
AEA
330
1F
100
AcDbEntity
  8
SK2
  6
CONTINUOUS
370
25
 62
7
100
AcDbLine
 10
-12.34502085509571
 20
-4.725104275478557
 30
0.0
 11
-11.48246871735644
 21
-5.587656413217829
 31
0.0
  0
LINE
  5
AEB
330
1F
100
AcDbEntity
  8
SK2
  6
CONTINUOUS
370
25
 62
7
100
AcDbLine
 10
-12.27431017697705
 20
-4.371550884885295
 30
0.0
 11
-11.58853473453442
 21
-5.057326327327914
 31
0.0
  0
LINE
  5
AEC
330
1F
100
AcDbEntity
  8
SK2
  6
CONTINUOUS
370
25
 62
7
100
AcDbLine
 10
-12.20359949885841
 20
-4.017997494292018
 30
0.0
 11
-11.6946007517124
 21
-4.526996241438027
 31
0.0
  0
LINE
  5
AED
330
1F
100
AcDbEntity
  8
SK2
  6
CONTINUOUS
370
25
 62
7
100
AcDbLine
 10
-12.13288882073975
 20
-3.664444103698742
 30
0.0
 11
-11.80066676889038
 21
-3.996666155548112
 31
0.0
  0
LINE
  5
AEE
330
1F
100
AcDbEntity
  8
SK2
  6
CONTINUOUS
370
25
 62
7
100
AcDbLine
 10
-12.06217814262109
 20
-3.310890713105479
 30
0.0
 11
-11.90673278606837
 21
-3.466336069658198
 31
0.0
  0
LINE
  5
AEF
330
1F
100
AcDbEntity
  8
SK2
  6
CONTINUOUS
370
25
 62
7
100
AcDbLine
 10
-12.0
 20
3.0
 30
0.0
 11
-13.0
 21
8.0
 31
0.0
  0
LINE
  5
AF0
330
1F
100
AcDbEntity
  8
SK2
  6
CONTINUOUS
370
25
 62
7
100
AcDbLine
 10
-13.0
 20
8.0
 30
0.0
 11
-11.0
 21
8.0
 31
0.0
  0
LINE
  5
AF1
330
1F
100
AcDbEntity
  8
SK2
  6
CONTINUOUS
370
25
 62
7
100
AcDbLine
 10
-11.0
 20
8.0
 30
0.0
 11
-12.0
 21
3.0
 31
0.0
  0
LINE
  5
AF2
330
1F
100
AcDbEntity
  8
SK2
  6
CONTINUOUS
370
25
 62
7
100
AcDbLine
 10
-12.0460605906007
 20
3.230302953003545
 30
0.0
 11
-11.93090911409894
 21
3.34545442950531
 31
0.0
  0
LINE
  5
AF3
330
1F
100
AcDbEntity
  8
SK2
  6
CONTINUOUS
370
25
 62
7
100
AcDbLine
 10
-12.11677126871936
 20
3.583856343596821
 30
0.0
 11
-11.82484309692096
 21
3.875784515395225
 31
0.0
  0
LINE
  5
AF4
330
1F
100
AcDbEntity
  8
SK2
  6
CONTINUOUS
370
25
 62
7
100
AcDbLine
 10
-12.18748194683802
 20
3.937409734190069
 30
0.0
 11
-11.71877707974298
 21
4.406114601285111
 31
0.0
  0
LINE
  5
AF5
330
1F
100
AcDbEntity
  8
SK2
  6
CONTINUOUS
370
25
 62
7
100
AcDbLine
 10
-12.25819262495668
 20
4.29096312478336
 30
0.0
 11
-11.61271106256498
 21
4.936444687175054
 31
0.0
  0
LINE
  5
AF6
330
1F
100
AcDbEntity
  8
SK2
  6
CONTINUOUS
370
25
 62
7
100
AcDbLine
 10
-12.32890330307532
 20
4.644516515376637
 30
0.0
 11
-11.506645045387
 21
5.466774773064955
 31
0.0
  0
LINE
  5
AF7
330
1F
100
AcDbEntity
  8
SK2
  6
CONTINUOUS
370
25
 62
7
100
AcDbLine
 10
-12.39961398119398
 20
4.998069905969913
 30
0.0
 11
-11.40057902820902
 21
5.99710485895487
 31
0.0
  0
LINE
  5
AF8
330
1F
100
AcDbEntity
  8
SK2
  6
CONTINUOUS
370
25
 62
7
100
AcDbLine
 10
-12.47032465931264
 20
5.351623296563176
 30
0.0
 11
-11.29451301103106
 21
6.527434944844771
 31
0.0
  0
LINE
  5
AF9
330
1F
100
AcDbEntity
  8
SK2
  6
CONTINUOUS
370
25
 62
7
100
AcDbLine
 10
-12.5410353374313
 20
5.705176687156452
 30
0.0
 11
-11.18844699385306
 21
7.0577650307347
 31
0.0
  0
LINE
  5
AFA
330
1F
100
AcDbEntity
  8
SK2
  6
CONTINUOUS
370
25
 62
7
100
AcDbLine
 10
-12.61174601554994
 20
6.058730077749729
 30
0.0
 11
-11.08238097667508
 21
7.588095116624601
 31
0.0
  0
LINE
  5
AFB
330
1F
100
AcDbEntity
  8
SK2
  6
CONTINUOUS
370
25
 62
7
100
AcDbLine
 10
-12.6824566936686
 20
6.412283468343006
 30
0.0
 11
-11.09474016201162
 21
8.0
 31
0.0
  0
LINE
  5
AFC
330
1F
100
AcDbEntity
  8
SK2
  6
CONTINUOUS
370
25
 62
7
100
AcDbLine
 10
-12.75316737178726
 20
6.765836858936282
 30
0.0
 11
-11.51900423072355
 21
8.0
 31
0.0
  0
LINE
  5
AFD
330
1F
100
AcDbEntity
  8
SK2
  6
CONTINUOUS
370
25
 62
7
100
AcDbLine
 10
-12.8238780499059
 20
7.119390249529559
 30
0.0
 11
-11.94326829943546
 21
8.0
 31
0.0
  0
LINE
  5
AFE
330
1F
100
AcDbEntity
  8
SK2
  6
CONTINUOUS
370
25
 62
7
100
AcDbLine
 10
-12.89458872802457
 20
7.472943640122807
 30
0.0
 11
-12.36753236814738
 21
8.0
 31
0.0
  0
LINE
  5
AFF
330
1F
100
AcDbEntity
  8
SK2
  6
CONTINUOUS
370
25
 62
7
100
AcDbLine
 10
-12.96529940614322
 20
7.826497030716084
 30
0.0
 11
-12.7917964368593
 21
8.0
 31
0.0
  0
LINE
  5
B00
330
1F
100
AcDbEntity
  8
SK2
  6
CONTINUOUS
370
25
 62
7
100
AcDbLine
 10
-12.08835616766102
 20
3.441780838305135
 30
0.0
 11
-11.94109588822599
 21
3.294520558870104
 31
0.0
  0
LINE
  5
B01
330
1F
100
AcDbEntity
  8
SK2
  6
CONTINUOUS
370
25
 62
7
100
AcDbLine
 10
-12.19442218483901
 20
3.97211092419505
 30
0.0
 11
-11.87038521010733
 21
3.648073949463367
 31
0.0
  0
LINE
  5
B02
330
1F
100
AcDbEntity
  8
SK2
  6
CONTINUOUS
370
25
 62
7
100
AcDbLine
 10
-12.30048820201699
 20
4.502441010084951
 30
0.0
 11
-11.79967453198867
 21
4.001627340056629
 31
0.0
  0
LINE
  5
B03
330
1F
100
AcDbEntity
  8
SK2
  6
CONTINUOUS
370
25
 62
7
100
AcDbLine
 10
-12.40655421919497
 20
5.032771095974866
 30
0.0
 11
-11.72896385387001
 21
4.355180730649906
 31
0.0
  0
LINE
  5
B04
330
1F
100
AcDbEntity
  8
SK2
  6
CONTINUOUS
370
25
 62
7
100
AcDbLine
 10
-12.51262023637295
 20
5.563101181864774
 30
0.0
 11
-11.65825317575137
 21
4.708734121243189
 31
0.0
  0
LINE
  5
B05
330
1F
100
AcDbEntity
  8
SK2
  6
CONTINUOUS
370
25
 62
7
100
AcDbLine
 10
-12.61868625355093
 20
6.093431267754681
 30
0.0
 11
-11.58754249763271
 21
5.062287511836459
 31
0.0
  0
LINE
  5
B06
330
1F
100
AcDbEntity
  8
SK2
  6
CONTINUOUS
370
25
 62
7
100
AcDbLine
 10
-12.72475227072893
 20
6.623761353644596
 30
0.0
 11
-11.51683181951405
 21
5.415840902429721
 31
0.0
  0
LINE
  5
B07
330
1F
100
AcDbEntity
  8
SK2
  6
CONTINUOUS
370
25
 62
7
100
AcDbLine
 10
-12.83081828790691
 20
7.154091439534497
 30
0.0
 11
-11.44612114139539
 21
5.769394293022984
 31
0.0
  0
LINE
  5
B08
330
1F
100
AcDbEntity
  8
SK2
  6
CONTINUOUS
370
25
 62
7
100
AcDbLine
 10
-12.93688430508489
 20
7.684421525424405
 30
0.0
 11
-11.37541046327675
 21
6.122947683616282
 31
0.0
  0
LINE
  5
B09
330
1F
100
AcDbEntity
  8
SK2
  6
CONTINUOUS
370
25
 62
7
100
AcDbLine
 10
-12.82819871094856
 20
8.0
 30
0.0
 11
-11.30469978515808
 21
6.476501074209537
 31
0.0
  0
LINE
  5
B0A
330
1F
100
AcDbEntity
  8
SK2
  6
CONTINUOUS
370
25
 62
7
100
AcDbLine
 10
-12.40393464223662
 20
8.0
 30
0.0
 11
-11.23398910703943
 21
6.830054464802814
 31
0.0
  0
LINE
  5
B0B
330
1F
100
AcDbEntity
  8
SK2
  6
CONTINUOUS
370
25
 62
7
100
AcDbLine
 10
-11.9796705735247
 20
8.0
 30
0.0
 11
-11.16327842892078
 21
7.18360785539609
 31
0.0
  0
LINE
  5
B0C
330
1F
100
AcDbEntity
  8
SK2
  6
CONTINUOUS
370
25
 62
7
100
AcDbLine
 10
-11.55540650481277
 20
7.999999999999993
 30
0.0
 11
-11.09256775080213
 21
7.53716124598936
 31
0.0
  0
LINE
  5
B0D
330
1F
100
AcDbEntity
  8
SK2
  6
CONTINUOUS
370
25
 62
7
100
AcDbLine
 10
-11.13114243610084
 20
8.0
 30
0.0
 11
-11.02185707268347
 21
7.890714636582629
 31
0.0
  0
TEXT
  5
B0E
330
1F
100
AcDbEntity
  8
SK2
  6
CONTINUOUS
370
25
 62
7
100
AcDbText
 10
-13.5
 20
13.34583333333333
 30
0.0
 40
3.5
  1
6
 50
90.00000000000001
 72
     1
 11
-13.5
 21
14.5125
 31
0.0
100
AcDbText
  0
CIRCLE
  5
B0F
330
1F
100
AcDbEntity
  8
SK2
  6
CONTINUOUS
370
25
 62
7
100
AcDbCircle
 10
-15.25
 20
11.1875
 30
0.0
 40
1.4
  0
LINE
  5
B10
330
1F
100
AcDbEntity
  8
SK2
  6
CONTINUOUS
370
25
 62
7
100
AcDbLine
 10
-13.84999999999999
 20
9.787500000000001
 30
0.0
 11
-16.65000000000001
 21
12.5875
 31
0.0
  0
LINE
  5
B11
330
1F
100
AcDbEntity
  8
SK2
  6
CONTINUOUS
370
25
 62
7
100
AcDbLine
 10
0.0
 20
3.0
 30
0.0
 11
0.0
 21
16.00001
 31
0.0
  0
LINE
  5
B12
330
1F
100
AcDbEntity
  8
SK2
  6
CONTINUOUS
370
25
 62
7
100
AcDbLine
 10
56.0
 20
16.00001
 30
0.0
 11
56.0
 21
3.0
 31
0.0
  0
LINE
  5
B13
330
1F
100
AcDbEntity
  8
SK2
  6
CONTINUOUS
370
25
 62
7
100
AcDbLine
 10
0.0
 20
15.00001
 30
0.0
 11
56.0
 21
15.00001
 31
0.0
  0
LINE
  5
B14
330
1F
100
AcDbEntity
  8
SK2
  6
CONTINUOUS
370
25
 62
7
100
AcDbLine
 10
0.0
 20
15.00001
 30
0.0
 11
5.0
 21
16.00001
 31
0.0
  0
LINE
  5
B15
330
1F
100
AcDbEntity
  8
SK2
  6
CONTINUOUS
370
25
 62
7
100
AcDbLine
 10
5.0
 20
16.00001
 30
0.0
 11
5.0
 21
14.00001
 31
0.0
  0
LINE
  5
B16
330
1F
100
AcDbEntity
  8
SK2
  6
CONTINUOUS
370
25
 62
7
100
AcDbLine
 10
5.0
 20
14.00001
 30
0.0
 11
0.0
 21
15.00001
 31
0.0
  0
LINE
  5
B17
330
1F
100
AcDbEntity
  8
SK2
  6
CONTINUOUS
370
25
 62
7
100
AcDbLine
 10
4.719452848635882
 20
14.05611943027283
 30
0.0
 11
5.0
 21
14.33666658163695
 31
0.0
  0
LINE
  5
B18
330
1F
100
AcDbEntity
  8
SK2
  6
CONTINUOUS
370
25
 62
7
100
AcDbLine
 10
4.365899458042598
 20
14.12683010839148
 30
0.0
 11
5.0
 21
14.76093065034888
 31
0.0
  0
LINE
  5
B19
330
1F
100
AcDbEntity
  8
SK2
  6
CONTINUOUS
370
25
 62
7
100
AcDbLine
 10
4.012346067449336
 20
14.19754078651014
 30
0.0
 11
5.0
 21
15.1851947190608
 31
0.0
  0
LINE
  5
B1A
330
1F
100
AcDbEntity
  8
SK2
  6
CONTINUOUS
370
25
 62
7
100
AcDbLine
 10
3.658792676856052
 20
14.26825146462879
 30
0.0
 11
5.0
 21
15.60945878777274
 31
0.0
  0
LINE
  5
B1B
330
1F
100
AcDbEntity
  8
SK2
  6
CONTINUOUS
370
25
 62
7
100
AcDbLine
 10
3.305239286262776
 20
14.33896214274745
 30
0.0
 11
4.957858929394156
 21
15.99158178587883
 31
0.0
  0
LINE
  5
B1C
330
1F
100
AcDbEntity
  8
SK2
  6
CONTINUOUS
370
25
 62
7
100
AcDbLine
 10
2.951685895669499
 20
14.40967282086611
 30
0.0
 11
4.427528843504234
 21
15.88551576870084
 31
0.0
  0
LINE
  5
B1D
330
1F
100
AcDbEntity
  8
SK2
  6
CONTINUOUS
370
25
 62
7
100
AcDbLine
 10
2.598132505076229
 20
14.48038349898476
 30
0.0
 11
3.897198757614333
 21
15.77944975152286
 31
0.0
  0
LINE
  5
B1E
330
1F
100
AcDbEntity
  8
SK2
  6
CONTINUOUS
370
25
 62
7
100
AcDbLine
 10
2.244579114482953
 20
14.55109417710342
 30
0.0
 11
3.366868671724411
 21
15.67338373434487
 31
0.0
  0
LINE
  5
B1F
330
1F
100
AcDbEntity
  8
SK2
  6
CONTINUOUS
370
25
 62
7
100
AcDbLine
 10
1.891025723889683
 20
14.62180485522207
 30
0.0
 11
2.836538585834511
 21
15.56731771716689
 31
0.0
  0
LINE
  5
B20
330
1F
100
AcDbEntity
  8
SK2
  6
CONTINUOUS
370
25
 62
7
100
AcDbLine
 10
1.537472333296407
 20
14.69251553334072
 30
0.0
 11
2.306208499944596
 21
15.46125169998891
 31
0.0
  0
LINE
  5
B21
330
1F
100
AcDbEntity
  8
SK2
  6
CONTINUOUS
370
25
 62
7
100
AcDbLine
 10
1.183918942703123
 20
14.76322621145938
 30
0.0
 11
1.775878414054674
 21
15.35518568281093
 31
0.0
  0
LINE
  5
B22
330
1F
100
AcDbEntity
  8
SK2
  6
CONTINUOUS
370
25
 62
7
100
AcDbLine
 10
0.8303655521098463
 20
14.83393688957803
 30
0.0
 11
1.245548328164759
 21
15.24911966563295
 31
0.0
  0
LINE
  5
B23
330
1F
100
AcDbEntity
  8
SK2
  6
CONTINUOUS
370
25
 62
7
100
AcDbLine
 10
0.4768121615165768
 20
14.90464756769668
 30
0.0
 11
0.7152182422748581
 21
15.14305364845497
 31
0.0
  0
LINE
  5
B24
330
1F
100
AcDbEntity
  8
SK2
  6
CONTINUOUS
370
25
 62
7
100
AcDbLine
 10
0.1232587709233002
 20
14.97535824581534
 30
0.0
 11
0.1848881563849361
 21
15.03698763127698
 31
0.0
  0
LINE
  5
B25
330
1F
100
AcDbEntity
  8
SK2
  6
CONTINUOUS
370
25
 62
7
100
AcDbLine
 10
0.1419856283865784
 20
15.02840712567732
 30
0.0
 11
0.2129784425798746
 21
14.95741431148402
 31
0.0
  0
LINE
  5
B26
330
1F
100
AcDbEntity
  8
SK2
  6
CONTINUOUS
370
25
 62
7
100
AcDbLine
 10
0.4955390189798479
 20
15.09911780379598
 30
0.0
 11
0.7433085284697896
 21
14.85134829430604
 31
0.0
  0
LINE
  5
B27
330
1F
100
AcDbEntity
  8
SK2
  6
CONTINUOUS
370
25
 62
7
100
AcDbLine
 10
0.8490924095731387
 20
15.16982848191462
 30
0.0
 11
1.273638614359704
 21
14.74528227712806
 31
0.0
  0
LINE
  5
B28
330
1F
100
AcDbEntity
  8
SK2
  6
CONTINUOUS
370
25
 62
7
100
AcDbLine
 10
1.202645800166408
 20
15.24053916003329
 30
0.0
 11
1.803968700249627
 21
14.63921625995008
 31
0.0
  0
LINE
  5
B29
330
1F
100
AcDbEntity
  8
SK2
  6
CONTINUOUS
370
25
 62
7
100
AcDbLine
 10
1.556199190759685
 20
15.31124983815194
 30
0.0
 11
2.334298786139534
 21
14.53315024277209
 31
0.0
  0
LINE
  5
B2A
330
1F
100
AcDbEntity
  8
SK2
  6
CONTINUOUS
370
25
 62
7
100
AcDbLine
 10
1.909752581352969
 20
15.38196051627059
 30
0.0
 11
2.864628872029449
 21
14.42708422559411
 31
0.0
  0
LINE
  5
B2B
330
1F
100
AcDbEntity
  8
SK2
  6
CONTINUOUS
370
25
 62
7
100
AcDbLine
 10
2.263305971946231
 20
15.45267119438926
 30
0.0
 11
3.394958957919364
 21
14.32101820841613
 31
0.0
  0
LINE
  5
B2C
330
1F
100
AcDbEntity
  8
SK2
  6
CONTINUOUS
370
25
 62
7
100
AcDbLine
 10
2.616859362539522
 20
15.5233818725079
 30
0.0
 11
3.925289043809286
 21
14.21495219123814
 31
0.0
  0
LINE
  5
B2D
330
1F
100
AcDbEntity
  8
SK2
  6
CONTINUOUS
370
25
 62
7
100
AcDbLine
 10
2.970412753132791
 20
15.59409255062656
 30
0.0
 11
4.455619129699194
 21
14.10888617406016
 31
0.0
  0
LINE
  5
B2E
330
1F
100
AcDbEntity
  8
SK2
  6
CONTINUOUS
370
25
 62
7
100
AcDbLine
 10
3.323966143726068
 20
15.66480322874521
 30
0.0
 11
4.985949215589102
 21
14.00282015688218
 31
0.0
  0
LINE
  5
B2F
330
1F
100
AcDbEntity
  8
SK2
  6
CONTINUOUS
370
25
 62
7
100
AcDbLine
 10
3.677519534319345
 20
15.73551390686387
 30
0.0
 11
5.0
 21
14.41303344118322
 31
0.0
  0
LINE
  5
B30
330
1F
100
AcDbEntity
  8
SK2
  6
CONTINUOUS
370
25
 62
7
100
AcDbLine
 10
4.031072924912621
 20
15.80622458498253
 30
0.0
 11
5.0
 21
14.83729750989515
 31
0.0
  0
LINE
  5
B31
330
1F
100
AcDbEntity
  8
SK2
  6
CONTINUOUS
370
25
 62
7
100
AcDbLine
 10
4.384626315505898
 20
15.87693526310118
 30
0.0
 11
5.0
 21
15.26156157860708
 31
0.0
  0
LINE
  5
B32
330
1F
100
AcDbEntity
  8
SK2
  6
CONTINUOUS
370
25
 62
7
100
AcDbLine
 10
4.738179706099174
 20
15.94764594121983
 30
0.0
 11
5.0
 21
15.68582564731901
 31
0.0
  0
LINE
  5
B33
330
1F
100
AcDbEntity
  8
SK2
  6
CONTINUOUS
370
25
 62
7
100
AcDbLine
 10
56.0
 20
15.00001
 30
0.0
 11
51.0
 21
14.00001
 31
0.0
  0
LINE
  5
B34
330
1F
100
AcDbEntity
  8
SK2
  6
CONTINUOUS
370
25
 62
7
100
AcDbLine
 10
51.0
 20
14.00001
 30
0.0
 11
51.0
 21
16.00001
 31
0.0
  0
LINE
  5
B35
330
1F
100
AcDbEntity
  8
SK2
  6
CONTINUOUS
370
25
 62
7
100
AcDbLine
 10
51.0
 20
16.00001
 30
0.0
 11
56.0
 21
15.00001
 31
0.0
  0
LINE
  5
B36
330
1F
100
AcDbEntity
  8
SK2
  6
CONTINUOUS
370
25
 62
7
100
AcDbLine
 10
55.65812940796322
 20
14.93163588159264
 30
0.0
 11
55.77208627197548
 21
15.0455927456049
 31
0.0
  0
LINE
  5
B37
330
1F
100
AcDbEntity
  8
SK2
  6
CONTINUOUS
370
25
 62
7
100
AcDbLine
 10
55.12779932207331
 20
14.82556986441466
 30
0.0
 11
55.41853288138221
 21
15.11630342372356
 31
0.0
  0
LINE
  5
B38
330
1F
100
AcDbEntity
  8
SK2
  6
CONTINUOUS
370
25
 62
7
100
AcDbLine
 10
54.5974692361834
 20
14.71950384723668
 30
0.0
 11
55.06497949078894
 21
15.18701410184221
 31
0.0
  0
LINE
  5
B39
330
1F
100
AcDbEntity
  8
SK2
  6
CONTINUOUS
370
25
 62
7
100
AcDbLine
 10
54.06713915029349
 20
14.6134378300587
 30
0.0
 11
54.71142610019566
 21
15.25772477996087
 31
0.0
  0
LINE
  5
B3A
330
1F
100
AcDbEntity
  8
SK2
  6
CONTINUOUS
370
25
 62
7
100
AcDbLine
 10
53.53680906440358
 20
14.50737181288072
 30
0.0
 11
54.35787270960239
 21
15.32843545807952
 31
0.0
  0
LINE
  5
B3B
330
1F
100
AcDbEntity
  8
SK2
  6
CONTINUOUS
370
25
 62
7
100
AcDbLine
 10
53.00647897851367
 20
14.40130579570273
 30
0.0
 11
54.00431931900911
 21
15.39914613619818
 31
0.0
  0
LINE
  5
B3C
330
1F
100
AcDbEntity
  8
SK2
  6
CONTINUOUS
370
25
 62
7
100
AcDbLine
 10
52.47614889262376
 20
14.29523977852475
 30
0.0
 11
53.65076592841584
 21
15.46985681431683
 31
0.0
  0
LINE
  5
B3D
330
1F
100
AcDbEntity
  8
SK2
  6
CONTINUOUS
370
25
 62
7
100
AcDbLine
 10
51.94581880673385
 20
14.18917376134677
 30
0.0
 11
53.29721253782257
 21
15.54056749243549
 31
0.0
  0
LINE
  5
B3E
330
1F
100
AcDbEntity
  8
SK2
  6
CONTINUOUS
370
25
 62
7
100
AcDbLine
 10
51.41548872084394
 20
14.08310774416879
 30
0.0
 11
52.94365914722929
 21
15.61127817055414
 31
0.0
  0
LINE
  5
B3F
330
1F
100
AcDbEntity
  8
SK2
  6
CONTINUOUS
370
25
 62
7
100
AcDbLine
 10
51.0
 20
14.09188309203677
 30
0.0
 11
52.59010575663602
 21
15.68198884867279
 31
0.0
  0
LINE
  5
B40
330
1F
100
AcDbEntity
  8
SK2
  6
CONTINUOUS
370
25
 62
7
100
AcDbLine
 10
51.0
 20
14.5161471607487
 30
0.0
 11
52.23655236604274
 21
15.75269952679145
 31
0.0
  0
LINE
  5
B41
330
1F
100
AcDbEntity
  8
SK2
  6
CONTINUOUS
370
25
 62
7
100
AcDbLine
 10
51.0
 20
14.94041122946063
 30
0.0
 11
51.88299897544947
 21
15.8234102049101
 31
0.0
  0
LINE
  5
B42
330
1F
100
AcDbEntity
  8
SK2
  6
CONTINUOUS
370
25
 62
7
100
AcDbLine
 10
51.0
 20
15.36467529817256
 30
0.0
 11
51.52944558485621
 21
15.89412088302876
 31
0.0
  0
LINE
  5
B43
330
1F
100
AcDbEntity
  8
SK2
  6
CONTINUOUS
370
25
 62
7
100
AcDbLine
 10
51.0
 20
15.78893936688448
 30
0.0
 11
51.17589219426293
 21
15.96483156114741
 31
0.0
  0
LINE
  5
B44
330
1F
100
AcDbEntity
  8
SK2
  6
CONTINUOUS
370
25
 62
7
100
AcDbLine
 10
51.0
 20
14.3338095116624
 30
0.0
 11
51.27816625971867
 21
14.05564325194373
 31
0.0
  0
LINE
  5
B45
330
1F
100
AcDbEntity
  8
SK2
  6
CONTINUOUS
370
25
 62
7
100
AcDbLine
 10
51.0
 20
14.75807358037433
 30
0.0
 11
51.63171965031194
 21
14.12635393006239
 31
0.0
  0
LINE
  5
B46
330
1F
100
AcDbEntity
  8
SK2
  6
CONTINUOUS
370
25
 62
7
100
AcDbLine
 10
51.0
 20
15.18233764908626
 30
0.0
 11
51.98527304090521
 21
14.19706460818104
 31
0.0
  0
LINE
  5
B47
330
1F
100
AcDbEntity
  8
SK2
  6
CONTINUOUS
370
25
 62
7
100
AcDbLine
 10
51.0
 20
15.60660171779818
 30
0.0
 11
52.33882643149849
 21
14.2677752862997
 31
0.0
  0
LINE
  5
B48
330
1F
100
AcDbEntity
  8
SK2
  6
CONTINUOUS
370
25
 62
7
100
AcDbLine
 10
51.03856973313764
 20
15.99229605337247
 30
0.0
 11
52.69237982209176
 21
14.33848596441835
 31
0.0
  0
LINE
  5
B49
330
1F
100
AcDbEntity
  8
SK2
  6
CONTINUOUS
370
25
 62
7
100
AcDbLine
 10
51.56889981902755
 20
15.88623003619449
 30
0.0
 11
53.04593321268504
 21
14.40919664253701
 31
0.0
  0
LINE
  5
B4A
330
1F
100
AcDbEntity
  8
SK2
  6
CONTINUOUS
370
25
 62
7
100
AcDbLine
 10
52.09922990491746
 20
15.78016401901651
 30
0.0
 11
53.39948660327831
 21
14.47990732065566
 31
0.0
  0
LINE
  5
B4B
330
1F
100
AcDbEntity
  8
SK2
  6
CONTINUOUS
370
25
 62
7
100
AcDbLine
 10
52.62955999080737
 20
15.67409800183852
 30
0.0
 11
53.75303999387158
 21
14.55061799877432
 31
0.0
  0
LINE
  5
B4C
330
1F
100
AcDbEntity
  8
SK2
  6
CONTINUOUS
370
25
 62
7
100
AcDbLine
 10
53.15989007669728
 20
15.56803198466054
 30
0.0
 11
54.10659338446486
 21
14.62132867689297
 31
0.0
  0
LINE
  5
B4D
330
1F
100
AcDbEntity
  8
SK2
  6
CONTINUOUS
370
25
 62
7
100
AcDbLine
 10
53.69022016258719
 20
15.46196596748256
 30
0.0
 11
54.46014677505813
 21
14.69203935501162
 31
0.0
  0
LINE
  5
B4E
330
1F
100
AcDbEntity
  8
SK2
  6
CONTINUOUS
370
25
 62
7
100
AcDbLine
 10
54.2205502484771
 20
15.35589995030458
 30
0.0
 11
54.8137001656514
 21
14.76275003313028
 31
0.0
  0
LINE
  5
B4F
330
1F
100
AcDbEntity
  8
SK2
  6
CONTINUOUS
370
25
 62
7
100
AcDbLine
 10
54.75088033436701
 20
15.2498339331266
 30
0.0
 11
55.16725355624467
 21
14.83346071124894
 31
0.0
  0
LINE
  5
B50
330
1F
100
AcDbEntity
  8
SK2
  6
CONTINUOUS
370
25
 62
7
100
AcDbLine
 10
55.28121042025693
 20
15.14376791594862
 30
0.0
 11
55.52080694683795
 21
14.90417138936759
 31
0.0
  0
LINE
  5
B51
330
1F
100
AcDbEntity
  8
SK2
  6
CONTINUOUS
370
25
 62
7
100
AcDbLine
 10
55.81154050614683
 20
15.03770189877063
 30
0.0
 11
55.87436033743123
 21
14.97488206748625
 31
0.0
  0
TEXT
  5
B52
330
1F
100
AcDbEntity
  8
SK2
  6
CONTINUOUS
370
25
 62
7
100
AcDbText
 10
25.08333333333333
 20
16.50001
 30
0.0
 40
3.5
  1
56
 72
     1
 11
28.0
 21
16.50001
 31
0.0
100
AcDbText
  0
LINE
  5
B53
330
1F
100
AcDbEntity
  8
2
  6
CONTINUOUS
370
25
 62
7
100
AcDbLine
 10
80.0
 20
-3.0
 30
0.0
 11
93.0
 21
-3.000000000000002
 31
0.0
  0
LINE
  5
B54
330
1F
100
AcDbEntity
  8
2
  6
CONTINUOUS
370
25
 62
7
100
AcDbLine
 10
93.0
 20
2.999999999999998
 30
0.0
 11
80.0
 21
3.0
 31
0.0
  0
LINE
  5
B55
330
1F
100
AcDbEntity
  8
2
  6
CONTINUOUS
370
25
 62
7
100
AcDbLine
 10
92.0
 20
-10.0
 30
0.0
 11
92.0
 21
16.475
 31
0.0
  0
LINE
  5
B56
330
1F
100
AcDbEntity
  8
2
  6
CONTINUOUS
370
25
 62
7
100
AcDbLine
 10
92.0
 20
-3.000000000000002
 30
0.0
 11
93.0
 21
-8.000000000000002
 31
0.0
  0
LINE
  5
B57
330
1F
100
AcDbEntity
  8
2
  6
CONTINUOUS
370
25
 62
7
100
AcDbLine
 10
93.0
 20
-8.000000000000002
 30
0.0
 11
91.0
 21
-8.000000000000002
 31
0.0
  0
LINE
  5
B58
330
1F
100
AcDbEntity
  8
2
  6
CONTINUOUS
370
25
 62
7
100
AcDbLine
 10
91.0
 20
-8.000000000000002
 30
0.0
 11
92.0
 21
-3.000000000000002
 31
0.0
  0
LINE
  5
B59
330
1F
100
AcDbEntity
  8
2
  6
CONTINUOUS
370
25
 62
7
100
AcDbLine
 10
92.70830690237648
 20
-8.0
 30
0.0
 11
92.95138448372941
 21
-7.756922418647065
 31
0.0
  0
LINE
  5
B5A
330
1F
100
AcDbEntity
  8
2
  6
CONTINUOUS
370
25
 62
7
100
AcDbLine
 10
92.28404283366456
 20
-8.0
 30
0.0
 11
92.88067380561077
 21
-7.403369028053788
 31
0.0
  0
LINE
  5
B5B
330
1F
100
AcDbEntity
  8
2
  6
CONTINUOUS
370
25
 62
7
100
AcDbLine
 10
91.85977876495261
 20
-8.0
 30
0.0
 11
92.8099631274921
 21
-7.049815637460512
 31
0.0
  0
LINE
  5
B5C
330
1F
100
AcDbEntity
  8
2
  6
CONTINUOUS
370
25
 62
7
100
AcDbLine
 10
91.43551469624069
 20
-8.0
 30
0.0
 11
92.73925244937345
 21
-6.696262246867242
 31
0.0
  0
LINE
  5
B5D
330
1F
100
AcDbEntity
  8
2
  6
CONTINUOUS
370
25
 62
7
100
AcDbLine
 10
91.01125062752875
 20
-8.0
 30
0.0
 11
92.6685417712548
 21
-6.342708856273958
 31
0.0
  0
LINE
  5
B5E
330
1F
100
AcDbEntity
  8
2
  6
CONTINUOUS
370
25
 62
7
100
AcDbLine
 10
91.1032533602958
 20
-7.48373319852103
 30
0.0
 11
92.59783109313614
 21
-5.989155465680689
 31
0.0
  0
LINE
  5
B5F
330
1F
100
AcDbEntity
  8
2
  6
CONTINUOUS
370
25
 62
7
100
AcDbLine
 10
91.20931937747378
 20
-6.953403112631129
 30
0.0
 11
92.52712041501749
 21
-5.635602075087412
 31
0.0
  0
LINE
  5
B60
330
1F
100
AcDbEntity
  8
2
  6
CONTINUOUS
370
25
 62
7
100
AcDbLine
 10
91.31538539465176
 20
-6.423073026741207
 30
0.0
 11
92.45640973689882
 21
-5.282048684494136
 31
0.0
  0
LINE
  5
B61
330
1F
100
AcDbEntity
  8
2
  6
CONTINUOUS
370
25
 62
7
100
AcDbLine
 10
91.42145141182974
 20
-5.892742940851306
 30
0.0
 11
92.38569905878018
 21
-4.928495293900866
 31
0.0
  0
LINE
  5
B62
330
1F
100
AcDbEntity
  8
2
  6
CONTINUOUS
370
25
 62
7
100
AcDbLine
 10
91.52751742900773
 20
-5.362412854961384
 30
0.0
 11
92.31498838066152
 21
-4.57494190330759
 31
0.0
  0
LINE
  5
B63
330
1F
100
AcDbEntity
  8
2
  6
CONTINUOUS
370
25
 62
7
100
AcDbLine
 10
91.6335834461857
 20
-4.832082769071476
 30
0.0
 11
92.24427770254286
 21
-4.221388512714313
 31
0.0
  0
LINE
  5
B64
330
1F
100
AcDbEntity
  8
2
  6
CONTINUOUS
370
25
 62
7
100
AcDbLine
 10
91.73964946336369
 20
-4.301752683181554
 30
0.0
 11
92.1735670244242
 21
-3.867835122121043
 31
0.0
  0
LINE
  5
B65
330
1F
100
AcDbEntity
  8
2
  6
CONTINUOUS
370
25
 62
7
100
AcDbLine
 10
91.84571548054167
 20
-3.771422597291647
 30
0.0
 11
92.10285634630554
 21
-3.514281731527767
 31
0.0
  0
LINE
  5
B66
330
1F
100
AcDbEntity
  8
2
  6
CONTINUOUS
370
25
 62
7
100
AcDbLine
 10
91.95178149771965
 20
-3.241092511401732
 30
0.0
 11
92.0321456681869
 21
-3.16072834093449
 31
0.0
  0
LINE
  5
B67
330
1F
100
AcDbEntity
  8
2
  6
CONTINUOUS
370
25
 62
7
100
AcDbLine
 10
91.0254833995939
 20
-7.872583002030481
 30
0.0
 11
91.15290039756343
 21
-8.0
 31
0.0
  0
LINE
  5
B68
330
1F
100
AcDbEntity
  8
2
  6
CONTINUOUS
370
25
 62
7
100
AcDbLine
 10
91.09619407771257
 20
-7.519029611437205
 30
0.0
 11
91.57716446627535
 21
-8.0
 31
0.0
  0
LINE
  5
B69
330
1F
100
AcDbEntity
  8
2
  6
CONTINUOUS
370
25
 62
7
100
AcDbLine
 10
91.16690475583121
 20
-7.165476220843928
 30
0.0
 11
92.00142853498728
 21
-8.0
 31
0.0
  0
LINE
  5
B6A
330
1F
100
AcDbEntity
  8
2
  6
CONTINUOUS
370
25
 62
7
100
AcDbLine
 10
91.23761543394987
 20
-6.811922830250658
 30
0.0
 11
92.42569260369922
 21
-8.0
 31
0.0
  0
LINE
  5
B6B
330
1F
100
AcDbEntity
  8
2
  6
CONTINUOUS
370
25
 62
7
100
AcDbLine
 10
91.30832611206853
 20
-6.458369439657385
 30
0.0
 11
92.84995667241115
 21
-8.000000000000004
 31
0.0
  0
LINE
  5
B6C
330
1F
100
AcDbEntity
  8
2
  6
CONTINUOUS
370
25
 62
7
100
AcDbLine
 10
91.37903679018717
 20
-6.104816049064109
 30
0.0
 11
92.93144481471923
 21
-7.657224073596151
 31
0.0
  0
LINE
  5
B6D
330
1F
100
AcDbEntity
  8
2
  6
CONTINUOUS
370
25
 62
7
100
AcDbLine
 10
91.44974746830583
 20
-5.751262658470832
 30
0.0
 11
92.82537879754125
 21
-7.126893987706243
 31
0.0
  0
LINE
  5
B6E
330
1F
100
AcDbEntity
  8
2
  6
CONTINUOUS
370
25
 62
7
100
AcDbLine
 10
91.52045814642449
 20
-5.397709267877559
 30
0.0
 11
92.71931278036325
 21
-6.596563901816324
 31
0.0
  0
LINE
  5
B6F
330
1F
100
AcDbEntity
  8
2
  6
CONTINUOUS
370
25
 62
7
100
AcDbLine
 10
91.59116882454313
 20
-5.044155877284282
 30
0.0
 11
92.61324676318529
 21
-6.066233815926424
 31
0.0
  0
LINE
  5
B70
330
1F
100
AcDbEntity
  8
2
  6
CONTINUOUS
370
25
 62
7
100
AcDbLine
 10
91.6618795026618
 20
-4.690602486691009
 30
0.0
 11
92.5071807460073
 21
-5.535903730036505
 31
0.0
  0
LINE
  5
B71
330
1F
100
AcDbEntity
  8
2
  6
CONTINUOUS
370
25
 62
7
100
AcDbLine
 10
91.73259018078045
 20
-4.337049096097736
 30
0.0
 11
92.40111472882933
 21
-5.005573644146601
 31
0.0
  0
LINE
  5
B72
330
1F
100
AcDbEntity
  8
2
  6
CONTINUOUS
370
25
 62
7
100
AcDbLine
 10
91.8033008588991
 20
-3.983495705504463
 30
0.0
 11
92.29504871165133
 21
-4.475243558256683
 31
0.0
  0
LINE
  5
B73
330
1F
100
AcDbEntity
  8
2
  6
CONTINUOUS
370
25
 62
7
100
AcDbLine
 10
91.87401153701776
 20
-3.62994231491119
 30
0.0
 11
92.18898269447335
 21
-3.944913472366778
 31
0.0
  0
LINE
  5
B74
330
1F
100
AcDbEntity
  8
2
  6
CONTINUOUS
370
25
 62
7
100
AcDbLine
 10
91.94472221513642
 20
-3.276388924317921
 30
0.0
 11
92.08291667729537
 21
-3.414583386476863
 31
0.0
  0
LINE
  5
B75
330
1F
100
AcDbEntity
  8
2
  6
CONTINUOUS
370
25
 62
7
100
AcDbLine
 10
92.0
 20
2.999999999999998
 30
0.0
 11
91.0
 21
7.999999999999998
 31
0.0
  0
LINE
  5
B76
330
1F
100
AcDbEntity
  8
2
  6
CONTINUOUS
370
25
 62
7
100
AcDbLine
 10
91.0
 20
7.999999999999998
 30
0.0
 11
93.0
 21
7.999999999999998
 31
0.0
  0
LINE
  5
B77
330
1F
100
AcDbEntity
  8
2
  6
CONTINUOUS
370
25
 62
7
100
AcDbLine
 10
93.0
 20
7.999999999999998
 30
0.0
 11
92.0
 21
2.999999999999998
 31
0.0
  0
LINE
  5
B78
330
1F
100
AcDbEntity
  8
2
  6
CONTINUOUS
370
25
 62
7
100
AcDbLine
 10
91.98177409191047
 20
3.091129540447682
 30
0.0
 11
92.02733886213431
 21
3.13669431067153
 31
0.0
  0
LINE
  5
B79
330
1F
100
AcDbEntity
  8
2
  6
CONTINUOUS
370
25
 62
7
100
AcDbLine
 10
91.9110634137918
 20
3.444682931040958
 30
0.0
 11
92.1334048793123
 21
3.667024396561452
 31
0.0
  0
LINE
  5
B7A
330
1F
100
AcDbEntity
  8
2
  6
CONTINUOUS
370
25
 62
7
100
AcDbLine
 10
91.84035273567315
 20
3.798236321634235
 30
0.0
 11
92.23947089649027
 21
4.19735448245136
 31
0.0
  0
LINE
  5
B7B
330
1F
100
AcDbEntity
  8
2
  6
CONTINUOUS
370
25
 62
7
100
AcDbLine
 10
91.7696420575545
 20
4.151789712227515
 30
0.0
 11
92.34553691366825
 21
4.727684568341271
 31
0.0
  0
LINE
  5
B7C
330
1F
100
AcDbEntity
  8
2
  6
CONTINUOUS
370
25
 62
7
100
AcDbLine
 10
91.69893137943583
 20
4.505343102820785
 30
0.0
 11
92.45160293084624
 21
5.258014654231186
 31
0.0
  0
LINE
  5
B7D
330
1F
100
AcDbEntity
  8
2
  6
CONTINUOUS
370
25
 62
7
100
AcDbLine
 10
91.62822070131719
 20
4.858896493414054
 30
0.0
 11
92.55766894802423
 21
5.788344740121094
 31
0.0
  0
LINE
  5
B7E
330
1F
100
AcDbEntity
  8
2
  6
CONTINUOUS
370
25
 62
7
100
AcDbLine
 10
91.55751002319853
 20
5.212449884007331
 30
0.0
 11
92.6637349652022
 21
6.318674826011009
 31
0.0
  0
LINE
  5
B7F
330
1F
100
AcDbEntity
  8
2
  6
CONTINUOUS
370
25
 62
7
100
AcDbLine
 10
91.48679934507987
 20
5.566003274600615
 30
0.0
 11
92.76980098238019
 21
6.849004911900916
 31
0.0
  0
LINE
  5
B80
330
1F
100
AcDbEntity
  8
2
  6
CONTINUOUS
370
25
 62
7
100
AcDbLine
 10
91.41608866696123
 20
5.919556665193888
 30
0.0
 11
92.87586699955816
 21
7.379334997790828
 31
0.0
  0
LINE
  5
B81
330
1F
100
AcDbEntity
  8
2
  6
CONTINUOUS
370
25
 62
7
100
AcDbLine
 10
91.34537798884257
 20
6.273110055787164
 30
0.0
 11
92.98193301673615
 21
7.909665083680736
 31
0.0
  0
LINE
  5
B82
330
1F
100
AcDbEntity
  8
2
  6
CONTINUOUS
370
25
 62
7
100
AcDbLine
 10
91.27466731072391
 20
6.626663446380441
 30
0.0
 11
92.64800386434348
 21
8.0
 31
0.0
  0
LINE
  5
B83
330
1F
100
AcDbEntity
  8
2
  6
CONTINUOUS
370
25
 62
7
100
AcDbLine
 10
91.20395663260526
 20
6.980216836973703
 30
0.0
 11
92.22373979563154
 21
8.0
 31
0.0
  0
LINE
  5
B84
330
1F
100
AcDbEntity
  8
2
  6
CONTINUOUS
370
25
 62
7
100
AcDbLine
 10
91.1332459544866
 20
7.33377022756698
 30
0.0
 11
91.79947572691961
 21
8.0
 31
0.0
  0
LINE
  5
B85
330
1F
100
AcDbEntity
  8
2
  6
CONTINUOUS
370
25
 62
7
100
AcDbLine
 10
91.06253527636795
 20
7.687323618160264
 30
0.0
 11
91.37521165820769
 21
8.0
 31
0.0
  0
LINE
  5
B86
330
1F
100
AcDbEntity
  8
2
  6
CONTINUOUS
370
25
 62
7
100
AcDbLine
 10
91.99192641962564
 20
3.040367901871775
 30
0.0
 11
92.00538238691624
 21
3.026911934581179
 31
0.0
  0
LINE
  5
B87
330
1F
100
AcDbEntity
  8
2
  6
CONTINUOUS
370
25
 62
7
100
AcDbLine
 10
91.88586040244766
 20
3.57069798776169
 30
0.0
 11
92.07609306503488
 21
3.380465325174463
 31
0.0
  0
LINE
  5
B88
330
1F
100
AcDbEntity
  8
2
  6
CONTINUOUS
370
25
 62
7
100
AcDbLine
 10
91.77979438526967
 20
4.101028073651598
 30
0.0
 11
92.14680374315355
 21
3.734018715767725
 31
0.0
  0
LINE
  5
B89
330
1F
100
AcDbEntity
  8
2
  6
CONTINUOUS
370
25
 62
7
100
AcDbLine
 10
91.6737283680917
 20
4.631358159541506
 30
0.0
 11
92.2175144212722
 21
4.087572106361002
 31
0.0
  0
LINE
  5
B8A
330
1F
100
AcDbEntity
  8
2
  6
CONTINUOUS
370
25
 62
7
100
AcDbLine
 10
91.56766235091371
 20
5.161688245431421
 30
0.0
 11
92.28822509939086
 21
4.441125496954285
 31
0.0
  0
LINE
  5
B8B
330
1F
100
AcDbEntity
  8
2
  6
CONTINUOUS
370
25
 62
7
100
AcDbLine
 10
91.46159633373574
 20
5.692018331321329
 30
0.0
 11
92.35893577750952
 21
4.794678887547555
 31
0.0
  0
LINE
  5
B8C
330
1F
100
AcDbEntity
  8
2
  6
CONTINUOUS
370
25
 62
7
100
AcDbLine
 10
91.35553031655775
 20
6.222348417211244
 30
0.0
 11
92.42964645562816
 21
5.148232278140831
 31
0.0
  0
LINE
  5
B8D
330
1F
100
AcDbEntity
  8
2
  6
CONTINUOUS
370
25
 62
7
100
AcDbLine
 10
91.24946429937978
 20
6.752678503101137
 30
0.0
 11
92.50035713374682
 21
5.501785668734108
 31
0.0
  0
LINE
  5
B8E
330
1F
100
AcDbEntity
  8
2
  6
CONTINUOUS
370
25
 62
7
100
AcDbLine
 10
91.14339828220179
 20
7.283008588991052
 30
0.0
 11
92.57106781186548
 21
5.85533905932737
 31
0.0
  0
LINE
  5
B8F
330
1F
100
AcDbEntity
  8
2
  6
CONTINUOUS
370
25
 62
7
100
AcDbLine
 10
91.0373322650238
 20
7.81333867488096
 30
0.0
 11
92.64177848998413
 21
6.208892449920647
 31
0.0
  0
LINE
  5
B90
330
1F
100
AcDbEntity
  8
2
  6
CONTINUOUS
370
25
 62
7
100
AcDbLine
 10
91.2749350086167
 20
8.0
 30
0.0
 11
92.71248916810279
 21
6.562445840513924
 31
0.0
  0
LINE
  5
B91
330
1F
100
AcDbEntity
  8
2
  6
CONTINUOUS
370
25
 62
7
100
AcDbLine
 10
91.69919907732864
 20
8.0
 30
0.0
 11
92.78319984622144
 21
6.915999231107207
 31
0.0
  0
LINE
  5
B92
330
1F
100
AcDbEntity
  8
2
  6
CONTINUOUS
370
25
 62
7
100
AcDbLine
 10
92.12346314604056
 20
8.0
 30
0.0
 11
92.8539105243401
 21
7.269552621700477
 31
0.0
  0
LINE
  5
B93
330
1F
100
AcDbEntity
  8
2
  6
CONTINUOUS
370
25
 62
7
100
AcDbLine
 10
92.5477272147525
 20
8.0
 30
0.0
 11
92.92462120245875
 21
7.623106012293746
 31
0.0
  0
LINE
  5
B94
330
1F
100
AcDbEntity
  8
2
  6
CONTINUOUS
370
25
 62
7
100
AcDbLine
 10
92.97199128346443
 20
8.0
 30
0.0
 11
92.99533188057741
 21
7.976659402887023
 31
0.0
  0
TEXT
  5
B95
330
1F
100
AcDbEntity
  8
2
  6
CONTINUOUS
370
25
 62
7
100
AcDbText
 10
90.5
 20
13.34583333333333
 30
0.0
 40
3.5
  1
6
 50
90.00000000000001
 72
     1
 11
90.5
 21
14.5125
 31
0.0
100
AcDbText
  0
CIRCLE
  5
B96
330
1F
100
AcDbEntity
  8
2
  6
CONTINUOUS
370
25
 62
7
100
AcDbCircle
 10
88.75
 20
11.1875
 30
0.0
 40
1.4
  0
LINE
  5
B97
330
1F
100
AcDbEntity
  8
2
  6
CONTINUOUS
370
25
 62
7
100
AcDbLine
 10
90.15
 20
9.7875
 30
0.0
 11
87.35
 21
12.5875
 31
0.0
  0
LINE
  5
B98
330
1F
100
AcDbEntity
  8
2
  6
CONTINUOUS
370
25
 62
7
100
AcDbLine
 10
62.0
 20
-3.0
 30
0.0
 11
62.0
 21
-16.0
 31
0.0
  0
LINE
  5
B99
330
1F
100
AcDbEntity
  8
2
  6
CONTINUOUS
370
25
 62
7
100
AcDbLine
 10
80.0
 20
-16.0
 30
0.0
 11
80.0
 21
-3.0
 31
0.0
  0
LINE
  5
B9A
330
1F
100
AcDbEntity
  8
2
  6
CONTINUOUS
370
25
 62
7
100
AcDbLine
 10
62.0
 20
-15.0
 30
0.0
 11
80.0
 21
-15.0
 31
0.0
  0
LINE
  5
B9B
330
1F
100
AcDbEntity
  8
2
  6
CONTINUOUS
370
25
 62
7
100
AcDbLine
 10
62.0
 20
-15.0
 30
0.0
 11
67.0
 21
-14.0
 31
0.0
  0
LINE
  5
B9C
330
1F
100
AcDbEntity
  8
2
  6
CONTINUOUS
370
25
 62
7
100
AcDbLine
 10
67.0
 20
-14.0
 30
0.0
 11
67.0
 21
-16.0
 31
0.0
  0
LINE
  5
B9D
330
1F
100
AcDbEntity
  8
2
  6
CONTINUOUS
370
25
 62
7
100
AcDbLine
 10
67.0
 20
-16.0
 30
0.0
 11
62.0
 21
-15.0
 31
0.0
  0
LINE
  5
B9E
330
1F
100
AcDbEntity
  8
2
  6
CONTINUOUS
370
25
 62
7
100
AcDbLine
 10
66.95971821415785
 20
-15.99194364283157
 30
0.0
 11
67.0
 21
-15.95166185698941
 31
0.0
  0
LINE
  5
B9F
330
1F
100
AcDbEntity
  8
2
  6
CONTINUOUS
370
25
 62
7
100
AcDbLine
 10
66.60616482356457
 20
-15.92123296471291
 30
0.0
 11
67.0
 21
-15.52739778827748
 31
0.0
  0
LINE
  5
BA0
330
1F
100
AcDbEntity
  8
2
  6
CONTINUOUS
370
25
 62
7
100
AcDbLine
 10
66.25261143297129
 20
-15.85052228659426
 30
0.0
 11
67.0
 21
-15.10313371956556
 31
0.0
  0
LINE
  5
BA1
330
1F
100
AcDbEntity
  8
2
  6
CONTINUOUS
370
25
 62
7
100
AcDbLine
 10
65.89905804237802
 20
-15.7798116084756
 30
0.0
 11
67.0
 21
-14.67886965085363
 31
0.0
  0
LINE
  5
BA2
330
1F
100
AcDbEntity
  8
2
  6
CONTINUOUS
370
25
 62
7
100
AcDbLine
 10
65.54550465178475
 20
-15.70910093035695
 30
0.0
 11
67.0
 21
-14.2546055821417
 31
0.0
  0
LINE
  5
BA3
330
1F
100
AcDbEntity
  8
2
  6
CONTINUOUS
370
25
 62
7
100
AcDbLine
 10
65.19195126119148
 20
-15.6383902522383
 30
0.0
 11
66.78792689178721
 21
-14.04241462164256
 31
0.0
  0
LINE
  5
BA4
330
1F
100
AcDbEntity
  8
2
  6
CONTINUOUS
370
25
 62
7
100
AcDbLine
 10
64.8383978705982
 20
-15.56767957411964
 30
0.0
 11
66.25759680589731
 21
-14.14848063882054
 31
0.0
  0
LINE
  5
BA5
330
1F
100
AcDbEntity
  8
2
  6
CONTINUOUS
370
25
 62
7
100
AcDbLine
 10
64.48484448000494
 20
-15.49696889600099
 30
0.0
 11
65.72726672000739
 21
-14.25454665599852
 31
0.0
  0
LINE
  5
BA6
330
1F
100
AcDbEntity
  8
2
  6
CONTINUOUS
370
25
 62
7
100
AcDbLine
 10
64.13129108941166
 20
-15.42625821788233
 30
0.0
 11
65.19693663411749
 21
-14.3606126731765
 31
0.0
  0
LINE
  5
BA7
330
1F
100
AcDbEntity
  8
2
  6
CONTINUOUS
370
25
 62
7
100
AcDbLine
 10
63.77773769881838
 20
-15.35554753976368
 30
0.0
 11
64.66660654822758
 21
-14.46667869035448
 31
0.0
  0
LINE
  5
BA8
330
1F
100
AcDbEntity
  8
2
  6
CONTINUOUS
370
25
 62
7
100
AcDbLine
 10
63.42418430822511
 20
-15.28483686164502
 30
0.0
 11
64.13627646233766
 21
-14.57274470753247
 31
0.0
  0
LINE
  5
BA9
330
1F
100
AcDbEntity
  8
2
  6
CONTINUOUS
370
25
 62
7
100
AcDbLine
 10
63.07063091763184
 20
-15.21412618352637
 30
0.0
 11
63.60594637644775
 21
-14.67881072471045
 31
0.0
  0
LINE
  5
BAA
330
1F
100
AcDbEntity
  8
2
  6
CONTINUOUS
370
25
 62
7
100
AcDbLine
 10
62.71707752703856
 20
-15.14341550540771
 30
0.0
 11
63.07561629055785
 21
-14.78487674188843
 31
0.0
  0
LINE
  5
BAB
330
1F
100
AcDbEntity
  8
2
  6
CONTINUOUS
370
25
 62
7
100
AcDbLine
 10
62.36352413644529
 20
-15.07270482728906
 30
0.0
 11
62.54528620466794
 21
-14.89094275906641
 31
0.0
  0
LINE
  5
BAC
330
1F
100
AcDbEntity
  8
2
  6
CONTINUOUS
370
25
 62
7
100
AcDbLine
 10
62.00997074585202
 20
-15.0019941491704
 30
0.0
 11
62.01495611877803
 21
-14.99700877624439
 31
0.0
  0
LINE
  5
BAD
330
1F
100
AcDbEntity
  8
2
  6
CONTINUOUS
370
25
 62
7
100
AcDbLine
 10
62.29213966722434
 20
-14.94157206655513
 30
0.0
 11
62.43820950083651
 21
-15.0876419001673
 31
0.0
  0
LINE
  5
BAE
330
1F
100
AcDbEntity
  8
2
  6
CONTINUOUS
370
25
 62
7
100
AcDbLine
 10
62.64569305781761
 20
-14.87086138843648
 30
0.0
 11
62.96853958672642
 21
-15.19370791734528
 31
0.0
  0
LINE
  5
BAF
330
1F
100
AcDbEntity
  8
2
  6
CONTINUOUS
370
25
 62
7
100
AcDbLine
 10
62.99924644841089
 20
-14.80015071031782
 30
0.0
 11
63.49886967261633
 21
-15.29977393452327
 31
0.0
  0
LINE
  5
BB0
330
1F
100
AcDbEntity
  8
2
  6
CONTINUOUS
370
25
 62
7
100
AcDbLine
 10
63.35279983900416
 20
-14.72944003219917
 30
0.0
 11
64.02919975850624
 21
-15.40583995170125
 31
0.0
  0
LINE
  5
BB1
330
1F
100
AcDbEntity
  8
2
  6
CONTINUOUS
370
25
 62
7
100
AcDbLine
 10
63.70635322959743
 20
-14.65872935408051
 30
0.0
 11
64.55952984439615
 21
-15.51190596887923
 31
0.0
  0
LINE
  5
BB2
330
1F
100
AcDbEntity
  8
2
  6
CONTINUOUS
370
25
 62
7
100
AcDbLine
 10
64.0599066201907
 20
-14.58801867596186
 30
0.0
 11
65.08985993028605
 21
-15.61797198605721
 31
0.0
  0
LINE
  5
BB3
330
1F
100
AcDbEntity
  8
2
  6
CONTINUOUS
370
25
 62
7
100
AcDbLine
 10
64.41346001078398
 20
-14.5173079978432
 30
0.0
 11
65.62019001617597
 21
-15.72403800323519
 31
0.0
  0
LINE
  5
BB4
330
1F
100
AcDbEntity
  8
2
  6
CONTINUOUS
370
25
 62
7
100
AcDbLine
 10
64.76701340137726
 20
-14.44659731972455
 30
0.0
 11
66.15052010206588
 21
-15.83010402041318
 31
0.0
  0
LINE
  5
BB5
330
1F
100
AcDbEntity
  8
2
  6
CONTINUOUS
370
25
 62
7
100
AcDbLine
 10
65.12056679197052
 20
-14.37588664160589
 30
0.0
 11
66.68085018795578
 21
-15.93617003759116
 31
0.0
  0
LINE
  5
BB6
330
1F
100
AcDbEntity
  8
2
  6
CONTINUOUS
370
25
 62
7
100
AcDbLine
 10
65.4741201825638
 20
-14.30517596348724
 30
0.0
 11
67.0
 21
-15.83105578092344
 31
0.0
  0
LINE
  5
BB7
330
1F
100
AcDbEntity
  8
2
  6
CONTINUOUS
370
25
 62
7
100
AcDbLine
 10
65.82767357315707
 20
-14.23446528536859
 30
0.0
 11
67.0
 21
-15.40679171221151
 31
0.0
  0
LINE
  5
BB8
330
1F
100
AcDbEntity
  8
2
  6
CONTINUOUS
370
25
 62
7
100
AcDbLine
 10
66.18122696375035
 20
-14.16375460724993
 30
0.0
 11
67.0
 21
-14.98252764349959
 31
0.0
  0
LINE
  5
BB9
330
1F
100
AcDbEntity
  8
2
  6
CONTINUOUS
370
25
 62
7
100
AcDbLine
 10
66.53478035434361
 20
-14.09304392913128
 30
0.0
 11
67.0
 21
-14.55826357478766
 31
0.0
  0
LINE
  5
BBA
330
1F
100
AcDbEntity
  8
2
  6
CONTINUOUS
370
25
 62
7
100
AcDbLine
 10
66.88833374493689
 20
-14.02233325101262
 30
0.0
 11
67.0
 21
-14.13399950607573
 31
0.0
  0
LINE
  5
BBB
330
1F
100
AcDbEntity
  8
2
  6
CONTINUOUS
370
25
 62
7
100
AcDbLine
 10
80.0
 20
-15.0
 30
0.0
 11
75.0
 21
-16.0
 31
0.0
  0
LINE
  5
BBC
330
1F
100
AcDbEntity
  8
2
  6
CONTINUOUS
370
25
 62
7
100
AcDbLine
 10
75.0
 20
-16.0
 30
0.0
 11
75.0
 21
-14.0
 31
0.0
  0
LINE
  5
BBD
330
1F
100
AcDbEntity
  8
2
  6
CONTINUOUS
370
25
 62
7
100
AcDbLine
 10
75.0
 20
-14.0
 30
0.0
 11
80.0
 21
-15.0
 31
0.0
  0
LINE
  5
BBE
330
1F
100
AcDbEntity
  8
2
  6
CONTINUOUS
370
25
 62
7
100
AcDbLine
 10
79.9386844868697
 20
-15.01226310262606
 30
0.0
 11
79.95912299124647
 21
-14.99182459824929
 31
0.0
  0
LINE
  5
BBF
330
1F
100
AcDbEntity
  8
2
  6
CONTINUOUS
370
25
 62
7
100
AcDbLine
 10
79.40835440097979
 20
-15.11832911980405
 30
0.0
 11
79.6055696006532
 21
-14.92111392013064
 31
0.0
  0
LINE
  5
BC0
330
1F
100
AcDbEntity
  8
2
  6
CONTINUOUS
370
25
 62
7
100
AcDbLine
 10
78.87802431508989
 20
-15.22439513698203
 30
0.0
 11
79.25201621005994
 21
-14.85040324201199
 31
0.0
  0
LINE
  5
BC1
330
1F
100
AcDbEntity
  8
2
  6
CONTINUOUS
370
25
 62
7
100
AcDbLine
 10
78.34769422919997
 20
-15.33046115416001
 30
0.0
 11
78.89846281946666
 21
-14.77969256389333
 31
0.0
  0
LINE
  5
BC2
330
1F
100
AcDbEntity
  8
2
  6
CONTINUOUS
370
25
 62
7
100
AcDbLine
 10
77.81736414331007
 20
-15.43652717133799
 30
0.0
 11
78.54490942887338
 21
-14.70898188577468
 31
0.0
  0
LINE
  5
BC3
330
1F
100
AcDbEntity
  8
2
  6
CONTINUOUS
370
25
 62
7
100
AcDbLine
 10
77.28703405742016
 20
-15.54259318851597
 30
0.0
 11
78.1913560382801
 21
-14.63827120765602
 31
0.0
  0
LINE
  5
BC4
330
1F
100
AcDbEntity
  8
2
  6
CONTINUOUS
370
25
 62
7
100
AcDbLine
 10
76.75670397153024
 20
-15.64865920569395
 30
0.0
 11
77.83780264768683
 21
-14.56756052953737
 31
0.0
  0
LINE
  5
BC5
330
1F
100
AcDbEntity
  8
2
  6
CONTINUOUS
370
25
 62
7
100
AcDbLine
 10
76.22637388564033
 20
-15.75472522287194
 30
0.0
 11
77.48424925709355
 21
-14.49684985141871
 31
0.0
  0
LINE
  5
BC6
330
1F
100
AcDbEntity
  8
2
  6
CONTINUOUS
370
25
 62
7
100
AcDbLine
 10
75.69604379975043
 20
-15.86079124004992
 30
0.0
 11
77.13069586650029
 21
-14.42613917330006
 31
0.0
  0
LINE
  5
BC7
330
1F
100
AcDbEntity
  8
2
  6
CONTINUOUS
370
25
 62
7
100
AcDbLine
 10
75.16571371386051
 20
-15.9668572572279
 30
0.0
 11
76.77714247590701
 21
-14.3554284951814
 31
0.0
  0
LINE
  5
BC8
330
1F
100
AcDbEntity
  8
2
  6
CONTINUOUS
370
25
 62
7
100
AcDbLine
 10
75.0
 20
-15.70830690237649
 30
0.0
 11
76.42358908531375
 21
-14.28471781706275
 31
0.0
  0
LINE
  5
BC9
330
1F
100
AcDbEntity
  8
2
  6
CONTINUOUS
370
25
 62
7
100
AcDbLine
 10
75.0
 20
-15.28404283366456
 30
0.0
 11
76.07003569472047
 21
-14.21400713894409
 31
0.0
  0
LINE
  5
BCA
330
1F
100
AcDbEntity
  8
2
  6
CONTINUOUS
370
25
 62
7
100
AcDbLine
 10
75.0
 20
-14.85977876495264
 30
0.0
 11
75.7164823041272
 21
-14.14329646082544
 31
0.0
  0
LINE
  5
BCB
330
1F
100
AcDbEntity
  8
2
  6
CONTINUOUS
370
25
 62
7
100
AcDbLine
 10
75.0
 20
-14.4355146962407
 30
0.0
 11
75.36292891353392
 21
-14.07258578270678
 31
0.0
  0
LINE
  5
BCC
330
1F
100
AcDbEntity
  8
2
  6
CONTINUOUS
370
25
 62
7
100
AcDbLine
 10
75.0
 20
-14.01125062752878
 30
0.0
 11
75.00937552294064
 21
-14.00187510458813
 31
0.0
  0
LINE
  5
BCD
330
1F
100
AcDbEntity
  8
2
  6
CONTINUOUS
370
25
 62
7
100
AcDbLine
 10
75.0
 20
-15.60588745030448
 30
0.0
 11
75.32842712474627
 21
-15.93431457505075
 31
0.0
  0
LINE
  5
BCE
330
1F
100
AcDbEntity
  8
2
  6
CONTINUOUS
370
25
 62
7
100
AcDbLine
 10
75.0
 20
-15.18162338159256
 30
0.0
 11
75.68198051533953
 21
-15.86360389693209
 31
0.0
  0
LINE
  5
BCF
330
1F
100
AcDbEntity
  8
2
  6
CONTINUOUS
370
25
 62
7
100
AcDbLine
 10
75.0
 20
-14.75735931288063
 30
0.0
 11
76.03553390593281
 21
-15.79289321881343
 31
0.0
  0
LINE
  5
BD0
330
1F
100
AcDbEntity
  8
2
  6
CONTINUOUS
370
25
 62
7
100
AcDbLine
 10
75.0
 20
-14.3330952441687
 30
0.0
 11
76.38908729652609
 21
-15.72218254069478
 31
0.0
  0
LINE
  5
BD1
330
1F
100
AcDbEntity
  8
2
  6
CONTINUOUS
370
25
 62
7
100
AcDbLine
 10
75.11396103067904
 20
-14.02279220613581
 30
0.0
 11
76.74264068711936
 21
-15.65147186257613
 31
0.0
  0
LINE
  5
BD2
330
1F
100
AcDbEntity
  8
2
  6
CONTINUOUS
370
25
 62
7
100
AcDbLine
 10
75.64429111656895
 20
-14.12885822331379
 30
0.0
 11
77.09619407771262
 21
-15.58076118445747
 31
0.0
  0
LINE
  5
BD3
330
1F
100
AcDbEntity
  8
2
  6
CONTINUOUS
370
25
 62
7
100
AcDbLine
 10
76.17462120245885
 20
-14.23492424049177
 30
0.0
 11
77.4497474683059
 21
-15.51005050633882
 31
0.0
  0
LINE
  5
BD4
330
1F
100
AcDbEntity
  8
2
  6
CONTINUOUS
370
25
 62
7
100
AcDbLine
 10
76.70495128834875
 20
-14.34099025766975
 30
0.0
 11
77.80330085889918
 21
-15.43933982822016
 31
0.0
  0
LINE
  5
BD5
330
1F
100
AcDbEntity
  8
2
  6
CONTINUOUS
370
25
 62
7
100
AcDbLine
 10
77.23528137423867
 20
-14.44705627484773
 30
0.0
 11
78.15685424949245
 21
-15.36862915010151
 31
0.0
  0
LINE
  5
BD6
330
1F
100
AcDbEntity
  8
2
  6
CONTINUOUS
370
25
 62
7
100
AcDbLine
 10
77.76561146012858
 20
-14.55312229202571
 30
0.0
 11
78.51040764008573
 21
-15.29791847198286
 31
0.0
  0
LINE
  5
BD7
330
1F
100
AcDbEntity
  8
2
  6
CONTINUOUS
370
25
 62
7
100
AcDbLine
 10
78.2959415460185
 20
-14.6591883092037
 30
0.0
 11
78.863961030679
 21
-15.2272077938642
 31
0.0
  0
LINE
  5
BD8
330
1F
100
AcDbEntity
  8
2
  6
CONTINUOUS
370
25
 62
7
100
AcDbLine
 10
78.8262716319084
 20
-14.76525432638168
 30
0.0
 11
79.21751442127227
 21
-15.15649711574555
 31
0.0
  0
LINE
  5
BD9
330
1F
100
AcDbEntity
  8
2
  6
CONTINUOUS
370
25
 62
7
100
AcDbLine
 10
79.35660171779831
 20
-14.87132034355966
 30
0.0
 11
79.57106781186555
 21
-15.0857864376269
 31
0.0
  0
LINE
  5
BDA
330
1F
100
AcDbEntity
  8
2
  6
CONTINUOUS
370
25
 62
7
100
AcDbLine
 10
79.88693180368823
 20
-14.97738636073765
 30
0.0
 11
79.92462120245882
 21
-15.01507575950824
 31
0.0
  0
TEXT
  5
BDB
330
1F
100
AcDbEntity
  8
2
  6
CONTINUOUS
370
25
 62
7
100
AcDbText
 10
68.66666666666667
 20
-13.5
 30
0.0
 40
3.5
  1
18
 72
     1
 11
71.0
 21
-13.5
 31
0.0
100
AcDbText
  0
LINE
  5
BDC
330
1F
100
AcDbEntity
  8
2
  6
CONTINUOUS
370
25
 62
7
100
AcDbLine
 10
56.0
 20
0.0
 30
0.0
 11
56.0
 21
26.0
 31
0.0
  0
LINE
  5
BDD
330
1F
100
AcDbEntity
  8
2
  6
CONTINUOUS
370
25
 62
7
100
AcDbLine
 10
80.0
 20
26.0
 30
0.0
 11
80.0
 21
3.0
 31
0.0
  0
LINE
  5
BDE
330
1F
100
AcDbEntity
  8
2
  6
CONTINUOUS
370
25
 62
7
100
AcDbLine
 10
56.0
 20
25.0
 30
0.0
 11
80.0
 21
25.0
 31
0.0
  0
LINE
  5
BDF
330
1F
100
AcDbEntity
  8
2
  6
CONTINUOUS
370
25
 62
7
100
AcDbLine
 10
56.0
 20
25.0
 30
0.0
 11
61.0
 21
26.0
 31
0.0
  0
LINE
  5
BE0
330
1F
100
AcDbEntity
  8
2
  6
CONTINUOUS
370
25
 62
7
100
AcDbLine
 10
61.0
 20
26.0
 30
0.0
 11
61.0
 21
24.0
 31
0.0
  0
LINE
  5
BE1
330
1F
100
AcDbEntity
  8
2
  6
CONTINUOUS
370
25
 62
7
100
AcDbLine
 10
61.0
 20
24.0
 30
0.0
 11
56.0
 21
25.0
 31
0.0
  0
LINE
  5
BE2
330
1F
100
AcDbEntity
  8
2
  6
CONTINUOUS
370
25
 62
7
100
AcDbLine
 10
60.92343075663604
 20
24.01531384867279
 30
0.0
 11
61.0
 21
24.09188309203675
 31
0.0
  0
LINE
  5
BE3
330
1F
100
AcDbEntity
  8
2
  6
CONTINUOUS
370
25
 62
7
100
AcDbLine
 10
60.56987736604277
 20
24.08602452679144
 30
0.0
 11
61.0
 21
24.51614716074867
 31
0.0
  0
LINE
  5
BE4
330
1F
100
AcDbEntity
  8
2
  6
CONTINUOUS
370
25
 62
7
100
AcDbLine
 10
60.2163239754495
 20
24.1567352049101
 30
0.0
 11
61.0
 21
24.9404112294606
 31
0.0
  0
LINE
  5
BE5
330
1F
100
AcDbEntity
  8
2
  6
CONTINUOUS
370
25
 62
7
100
AcDbLine
 10
59.86277058485623
 20
24.22744588302875
 30
0.0
 11
61.0
 21
25.36467529817253
 31
0.0
  0
LINE
  5
BE6
330
1F
100
AcDbEntity
  8
2
  6
CONTINUOUS
370
25
 62
7
100
AcDbLine
 10
59.50921719426295
 20
24.29815656114741
 30
0.0
 11
61.0
 21
25.78893936688446
 31
0.0
  0
LINE
  5
BE7
330
1F
100
AcDbEntity
  8
2
  6
CONTINUOUS
370
25
 62
7
100
AcDbLine
 10
59.15566380366968
 20
24.36886723926606
 30
0.0
 11
60.73349570550452
 21
25.9466991411009
 31
0.0
  0
LINE
  5
BE8
330
1F
100
AcDbEntity
  8
2
  6
CONTINUOUS
370
25
 62
7
100
AcDbLine
 10
58.80211041307641
 20
24.43957791738472
 30
0.0
 11
60.20316561961462
 21
25.84063312392292
 31
0.0
  0
LINE
  5
BE9
330
1F
100
AcDbEntity
  8
2
  6
CONTINUOUS
370
25
 62
7
100
AcDbLine
 10
58.44855702248314
 20
24.51028859550337
 30
0.0
 11
59.6728355337247
 21
25.73456710674494
 31
0.0
  0
LINE
  5
BEA
330
1F
100
AcDbEntity
  8
2
  6
CONTINUOUS
370
25
 62
7
100
AcDbLine
 10
58.09500363188986
 20
24.58099927362203
 30
0.0
 11
59.14250544783479
 21
25.62850108956696
 31
0.0
  0
LINE
  5
BEB
330
1F
100
AcDbEntity
  8
2
  6
CONTINUOUS
370
25
 62
7
100
AcDbLine
 10
57.74145024129659
 20
24.65170995174068
 30
0.0
 11
58.61217536194489
 21
25.52243507238898
 31
0.0
  0
LINE
  5
BEC
330
1F
100
AcDbEntity
  8
2
  6
CONTINUOUS
370
25
 62
7
100
AcDbLine
 10
57.38789685070331
 20
24.72242062985934
 30
0.0
 11
58.08184527605498
 21
25.416369055211
 31
0.0
  0
LINE
  5
BED
330
1F
100
AcDbEntity
  8
2
  6
CONTINUOUS
370
25
 62
7
100
AcDbLine
 10
57.03434346011004
 20
24.79313130797799
 30
0.0
 11
57.55151519016506
 21
25.31030303803301
 31
0.0
  0
LINE
  5
BEE
330
1F
100
AcDbEntity
  8
2
  6
CONTINUOUS
370
25
 62
7
100
AcDbLine
 10
56.68079006951677
 20
24.86384198609665
 30
0.0
 11
57.02118510427515
 21
25.20423702085503
 31
0.0
  0
LINE
  5
BEF
330
1F
100
AcDbEntity
  8
2
  6
CONTINUOUS
370
25
 62
7
100
AcDbLine
 10
56.3272366789235
 20
24.9345526642153
 30
0.0
 11
56.49085501838525
 21
25.09817100367705
 31
0.0
  0
LINE
  5
BF0
330
1F
100
AcDbEntity
  8
2
  6
CONTINUOUS
370
25
 62
7
100
AcDbLine
 10
56.02631671166979
 20
25.00526334233396
 30
0.0
 11
56.03947506750468
 21
24.99210498649906
 31
0.0
  0
LINE
  5
BF1
330
1F
100
AcDbEntity
  8
2
  6
CONTINUOUS
370
25
 62
7
100
AcDbLine
 10
56.37987010226306
 20
25.07597402045261
 30
0.0
 11
56.56980515339459
 21
24.88603896932108
 31
0.0
  0
LINE
  5
BF2
330
1F
100
AcDbEntity
  8
2
  6
CONTINUOUS
370
25
 62
7
100
AcDbLine
 10
56.73342349285633
 20
25.14668469857127
 30
0.0
 11
57.1001352392845
 21
24.7799729521431
 31
0.0
  0
LINE
  5
BF3
330
1F
100
AcDbEntity
  8
2
  6
CONTINUOUS
370
25
 62
7
100
AcDbLine
 10
57.08697688344961
 20
25.21739537668992
 30
0.0
 11
57.63046532517441
 21
24.67390693496512
 31
0.0
  0
LINE
  5
BF4
330
1F
100
AcDbEntity
  8
2
  6
CONTINUOUS
370
25
 62
7
100
AcDbLine
 10
57.44053027404288
 20
25.28810605480858
 30
0.0
 11
58.16079541106432
 21
24.56784091778714
 31
0.0
  0
LINE
  5
BF5
330
1F
100
AcDbEntity
  8
2
  6
CONTINUOUS
370
25
 62
7
100
AcDbLine
 10
57.79408366463615
 20
25.35881673292723
 30
0.0
 11
58.69112549695423
 21
24.46177490060915
 31
0.0
  0
LINE
  5
BF6
330
1F
100
AcDbEntity
  8
2
  6
CONTINUOUS
370
25
 62
7
100
AcDbLine
 10
58.14763705522942
 20
25.42952741104589
 30
0.0
 11
59.22145558284414
 21
24.35570888343117
 31
0.0
  0
LINE
  5
BF7
330
1F
100
AcDbEntity
  8
2
  6
CONTINUOUS
370
25
 62
7
100
AcDbLine
 10
58.5011904458227
 20
25.50023808916454
 30
0.0
 11
59.75178566873405
 21
24.24964286625319
 31
0.0
  0
LINE
  5
BF8
330
1F
100
AcDbEntity
  8
2
  6
CONTINUOUS
370
25
 62
7
100
AcDbLine
 10
58.85474383641597
 20
25.57094876728319
 30
0.0
 11
60.28211575462396
 21
24.14357684907521
 31
0.0
  0
LINE
  5
BF9
330
1F
100
AcDbEntity
  8
2
  6
CONTINUOUS
370
25
 62
7
100
AcDbLine
 10
59.20829722700925
 20
25.64165944540185
 30
0.0
 11
60.81244584051387
 21
24.03751083189723
 31
0.0
  0
LINE
  5
BFA
330
1F
100
AcDbEntity
  8
2
  6
CONTINUOUS
370
25
 62
7
100
AcDbLine
 10
59.56185061760252
 20
25.7123701235205
 30
0.0
 11
61.0
 21
24.27422074112302
 31
0.0
  0
LINE
  5
BFB
330
1F
100
AcDbEntity
  8
2
  6
CONTINUOUS
370
25
 62
7
100
AcDbLine
 10
59.91540400819579
 20
25.78308080163916
 30
0.0
 11
61.0
 21
24.69848480983495
 31
0.0
  0
LINE
  5
BFC
330
1F
100
AcDbEntity
  8
2
  6
CONTINUOUS
370
25
 62
7
100
AcDbLine
 10
60.26895739878907
 20
25.85379147975781
 30
0.0
 11
61.0
 21
25.12274887854688
 31
0.0
  0
LINE
  5
BFD
330
1F
100
AcDbEntity
  8
2
  6
CONTINUOUS
370
25
 62
7
100
AcDbLine
 10
60.62251078938234
 20
25.92450215787647
 30
0.0
 11
61.0
 21
25.54701294725881
 31
0.0
  0
LINE
  5
BFE
330
1F
100
AcDbEntity
  8
2
  6
CONTINUOUS
370
25
 62
7
100
AcDbLine
 10
60.97606417997561
 20
25.99521283599512
 30
0.0
 11
61.0
 21
25.97127701597073
 31
0.0
  0
LINE
  5
BFF
330
1F
100
AcDbEntity
  8
2
  6
CONTINUOUS
370
25
 62
7
100
AcDbLine
 10
80.0
 20
25.0
 30
0.0
 11
75.0
 21
24.0
 31
0.0
  0
LINE
  5
C00
330
1F
100
AcDbEntity
  8
2
  6
CONTINUOUS
370
25
 62
7
100
AcDbLine
 10
75.0
 20
24.0
 30
0.0
 11
75.0
 21
26.0
 31
0.0
  0
LINE
  5
C01
330
1F
100
AcDbEntity
  8
2
  6
CONTINUOUS
370
25
 62
7
100
AcDbLine
 10
75.0
 20
26.0
 30
0.0
 11
80.0
 21
25.0
 31
0.0
  0
LINE
  5
C02
330
1F
100
AcDbEntity
  8
2
  6
CONTINUOUS
370
25
 62
7
100
AcDbLine
 10
79.78971256052131
 20
24.95794251210426
 30
0.0
 11
79.85980837368086
 21
25.02803832526383
 31
0.0
  0
LINE
  5
C03
330
1F
100
AcDbEntity
  8
2
  6
CONTINUOUS
370
25
 62
7
100
AcDbLine
 10
79.2593824746314
 20
24.85187649492628
 30
0.0
 11
79.5062549830876
 21
25.09874900338248
 31
0.0
  0
LINE
  5
C04
330
1F
100
AcDbEntity
  8
2
  6
CONTINUOUS
370
25
 62
7
100
AcDbLine
 10
78.72905238874148
 20
24.7458104777483
 30
0.0
 11
79.15270159249432
 21
25.16945968150113
 31
0.0
  0
LINE
  5
C05
330
1F
100
AcDbEntity
  8
2
  6
CONTINUOUS
370
25
 62
7
100
AcDbLine
 10
78.19872230285158
 20
24.63974446057032
 30
0.0
 11
78.79914820190105
 21
25.24017035961979
 31
0.0
  0
LINE
  5
C06
330
1F
100
AcDbEntity
  8
2
  6
CONTINUOUS
370
25
 62
7
100
AcDbLine
 10
77.66839221696166
 20
24.53367844339233
 30
0.0
 11
78.44559481130779
 21
25.31088103773844
 31
0.0
  0
LINE
  5
C07
330
1F
100
AcDbEntity
  8
2
  6
CONTINUOUS
370
25
 62
7
100
AcDbLine
 10
77.13806213107176
 20
24.42761242621435
 30
0.0
 11
78.09204142071451
 21
25.3815917158571
 31
0.0
  0
LINE
  5
C08
330
1F
100
AcDbEntity
  8
2
  6
CONTINUOUS
370
25
 62
7
100
AcDbLine
 10
76.60773204518185
 20
24.32154640903637
 30
0.0
 11
77.73848803012123
 21
25.45230239397575
 31
0.0
  0
LINE
  5
C09
330
1F
100
AcDbEntity
  8
2
  6
CONTINUOUS
370
25
 62
7
100
AcDbLine
 10
76.07740195929193
 20
24.21548039185839
 30
0.0
 11
77.38493463952796
 21
25.52301307209441
 31
0.0
  0
LINE
  5
C0A
330
1F
100
AcDbEntity
  8
2
  6
CONTINUOUS
370
25
 62
7
100
AcDbLine
 10
75.54707187340203
 20
24.10941437468041
 30
0.0
 11
77.03138124893468
 21
25.59372375021306
 31
0.0
  0
LINE
  5
C0B
330
1F
100
AcDbEntity
  8
2
  6
CONTINUOUS
370
25
 62
7
100
AcDbLine
 10
75.01674178751212
 20
24.00334835750242
 30
0.0
 11
76.67782785834142
 21
25.66443442833172
 31
0.0
  0
LINE
  5
C0C
330
1F
100
AcDbEntity
  8
2
  6
CONTINUOUS
370
25
 62
7
100
AcDbLine
 10
75.0
 20
24.41087063870224
 30
0.0
 11
76.32427446774814
 21
25.73514510645037
 31
0.0
  0
LINE
  5
C0D
330
1F
100
AcDbEntity
  8
2
  6
CONTINUOUS
370
25
 62
7
100
AcDbLine
 10
75.0
 20
24.83513470741416
 30
0.0
 11
75.97072107715486
 21
25.80585578456903
 31
0.0
  0
LINE
  5
C0E
330
1F
100
AcDbEntity
  8
2
  6
CONTINUOUS
370
25
 62
7
100
AcDbLine
 10
75.0
 20
25.25939877612609
 30
0.0
 11
75.6171676865616
 21
25.87656646268768
 31
0.0
  0
LINE
  5
C0F
330
1F
100
AcDbEntity
  8
2
  6
CONTINUOUS
370
25
 62
7
100
AcDbLine
 10
75.0
 20
25.68366284483802
 30
0.0
 11
75.26361429596832
 21
25.94727714080634
 31
0.0
  0
LINE
  5
C10
330
1F
100
AcDbEntity
  8
2
  6
CONTINUOUS
370
25
 62
7
100
AcDbLine
 10
75.0
 20
24.27493500861669
 30
0.0
 11
75.22911250718057
 21
24.04582250143611
 31
0.0
  0
LINE
  5
C11
330
1F
100
AcDbEntity
  8
2
  6
CONTINUOUS
370
25
 62
7
100
AcDbLine
 10
75.0
 20
24.69919907732861
 30
0.0
 11
75.58266589777385
 21
24.11653317955477
 31
0.0
  0
LINE
  5
C12
330
1F
100
AcDbEntity
  8
2
  6
CONTINUOUS
370
25
 62
7
100
AcDbLine
 10
75.0
 20
25.12346314604054
 30
0.0
 11
75.93621928836711
 21
24.18724385767342
 31
0.0
  0
LINE
  5
C13
330
1F
100
AcDbEntity
  8
2
  6
CONTINUOUS
370
25
 62
7
100
AcDbLine
 10
75.0
 20
25.54772721475247
 30
0.0
 11
76.28977267896039
 21
24.25795453579208
 31
0.0
  0
LINE
  5
C14
330
1F
100
AcDbEntity
  8
2
  6
CONTINUOUS
370
25
 62
7
100
AcDbLine
 10
75.0
 20
25.9719912834644
 30
0.0
 11
76.64332606955367
 21
24.32866521391074
 31
0.0
  0
LINE
  5
C15
330
1F
100
AcDbEntity
  8
2
  6
CONTINUOUS
370
25
 62
7
100
AcDbLine
 10
75.49531919022041
 20
25.90093616195592
 30
0.0
 11
76.99687946014694
 21
24.39937589202939
 31
0.0
  0
LINE
  5
C16
330
1F
100
AcDbEntity
  8
2
  6
CONTINUOUS
370
25
 62
7
100
AcDbLine
 10
76.02564927611031
 20
25.79487014477793
 30
0.0
 11
77.35043285074022
 21
24.47008657014804
 31
0.0
  0
LINE
  5
C17
330
1F
100
AcDbEntity
  8
2
  6
CONTINUOUS
370
25
 62
7
100
AcDbLine
 10
76.55597936200023
 20
25.68880412759995
 30
0.0
 11
77.70398624133348
 21
24.5407972482667
 31
0.0
  0
LINE
  5
C18
330
1F
100
AcDbEntity
  8
2
  6
CONTINUOUS
370
25
 62
7
100
AcDbLine
 10
77.08630944789014
 20
25.58273811042197
 30
0.0
 11
78.05753963192676
 21
24.61150792638535
 31
0.0
  0
LINE
  5
C19
330
1F
100
AcDbEntity
  8
2
  6
CONTINUOUS
370
25
 62
7
100
AcDbLine
 10
77.61663953378005
 20
25.47667209324399
 30
0.0
 11
78.41109302252003
 21
24.68221860450401
 31
0.0
  0
LINE
  5
C1A
330
1F
100
AcDbEntity
  8
2
  6
CONTINUOUS
370
25
 62
7
100
AcDbLine
 10
78.14696961966996
 20
25.37060607606601
 30
0.0
 11
78.7646464131133
 21
24.75292928262266
 31
0.0
  0
LINE
  5
C1B
330
1F
100
AcDbEntity
  8
2
  6
CONTINUOUS
370
25
 62
7
100
AcDbLine
 10
78.67729970555988
 20
25.26454005888803
 30
0.0
 11
79.11819980370657
 21
24.82363996074132
 31
0.0
  0
LINE
  5
C1C
330
1F
100
AcDbEntity
  8
2
  6
CONTINUOUS
370
25
 62
7
100
AcDbLine
 10
79.20762979144978
 20
25.15847404171004
 30
0.0
 11
79.47175319429985
 21
24.89435063885997
 31
0.0
  0
LINE
  5
C1D
330
1F
100
AcDbEntity
  8
2
  6
CONTINUOUS
370
25
 62
7
100
AcDbLine
 10
79.73795987733969
 20
25.05240802453206
 30
0.0
 11
79.82530658489313
 21
24.96506131697863
 31
0.0
  0
TEXT
  5
C1E
330
1F
100
AcDbEntity
  8
2
  6
CONTINUOUS
370
25
 62
7
100
AcDbText
 10
65.08333333333333
 20
26.5
 30
0.0
 40
3.5
  1
24
 72
     1
 11
68.0
 21
26.5
 31
0.0
100
AcDbText
  0
LINE
  5
C1F
330
1F
100
AcDbEntity
  8
SK2
  6
CONTINUOUS
370
25
 62
7
100
AcDbLine
 10
0.0
 20
1.0
 30
0.0
 11
0.0
 21
36.0
 31
0.0
  0
LINE
  5
C20
330
1F
100
AcDbEntity
  8
SK2
  6
CONTINUOUS
370
25
 62
7
100
AcDbLine
 10
80.0
 20
36.0
 30
0.0
 11
80.0
 21
3.0
 31
0.0
  0
LINE
  5
C21
330
1F
100
AcDbEntity
  8
SK2
  6
CONTINUOUS
370
25
 62
7
100
AcDbLine
 10
0.0
 20
35.0
 30
0.0
 11
80.0
 21
35.0
 31
0.0
  0
LINE
  5
C22
330
1F
100
AcDbEntity
  8
SK2
  6
CONTINUOUS
370
25
 62
7
100
AcDbLine
 10
0.0
 20
35.0
 30
0.0
 11
5.0
 21
36.0
 31
0.0
  0
LINE
  5
C23
330
1F
100
AcDbEntity
  8
SK2
  6
CONTINUOUS
370
25
 62
7
100
AcDbLine
 10
5.0
 20
36.0
 30
0.0
 11
5.0
 21
34.0
 31
0.0
  0
LINE
  5
C24
330
1F
100
AcDbEntity
  8
SK2
  6
CONTINUOUS
370
25
 62
7
100
AcDbLine
 10
5.0
 20
34.0
 30
0.0
 11
0.0
 21
35.0
 31
0.0
  0
LINE
  5
C25
330
1F
100
AcDbEntity
  8
SK2
  6
CONTINUOUS
370
25
 62
7
100
AcDbLine
 10
4.769101824085283
 20
34.04617963518294
 30
0.0
 11
5.0
 21
34.27707781109766
 31
0.0
  0
LINE
  5
C26
330
1F
100
AcDbEntity
  8
SK2
  6
CONTINUOUS
370
25
 62
7
100
AcDbLine
 10
4.415548433492013
 20
34.1168903133016
 30
0.0
 11
5.0
 21
34.70134187980958
 31
0.0
  0
LINE
  5
C27
330
1F
100
AcDbEntity
  8
SK2
  6
CONTINUOUS
370
25
 62
7
100
AcDbLine
 10
4.061995042898729
 20
34.18760099142025
 30
0.0
 11
5.0
 21
35.12560594852152
 31
0.0
  0
LINE
  5
C28
330
1F
100
AcDbEntity
  8
SK2
  6
CONTINUOUS
370
25
 62
7
100
AcDbLine
 10
3.70844165230546
 20
34.25831166953891
 30
0.0
 11
5.0
 21
35.54987001723345
 31
0.0
  0
LINE
  5
C29
330
1F
100
AcDbEntity
  8
SK2
  6
CONTINUOUS
370
25
 62
7
100
AcDbLine
 10
3.354888261712176
 20
34.32902234765756
 30
0.0
 11
5.0
 21
35.97413408594539
 31
0.0
  0
LINE
  5
C2A
330
1F
100
AcDbEntity
  8
SK2
  6
CONTINUOUS
370
25
 62
7
100
AcDbLine
 10
3.001334871118893
 20
34.39973302577621
 30
0.0
 11
4.502002306678349
 21
35.90040046133567
 31
0.0
  0
LINE
  5
C2B
330
1F
100
AcDbEntity
  8
SK2
  6
CONTINUOUS
370
25
 62
7
100
AcDbLine
 10
2.647781480525623
 20
34.47044370389487
 30
0.0
 11
3.971672220788442
 21
35.79433444415769
 31
0.0
  0
LINE
  5
C2C
330
1F
100
AcDbEntity
  8
SK2
  6
CONTINUOUS
370
25
 62
7
100
AcDbLine
 10
2.294228089932346
 20
34.54115438201352
 30
0.0
 11
3.441342134898527
 21
35.68826842697971
 31
0.0
  0
LINE
  5
C2D
330
1F
100
AcDbEntity
  8
SK2
  6
CONTINUOUS
370
25
 62
7
100
AcDbLine
 10
1.940674699339063
 20
34.61186506013218
 30
0.0
 11
2.911012049008605
 21
35.58220240980172
 31
0.0
  0
LINE
  5
C2E
330
1F
100
AcDbEntity
  8
SK2
  6
CONTINUOUS
370
25
 62
7
100
AcDbLine
 10
1.587121308745793
 20
34.68257573825083
 30
0.0
 11
2.380681963118697
 21
35.47613639262374
 31
0.0
  0
LINE
  5
C2F
330
1F
100
AcDbEntity
  8
SK2
  6
CONTINUOUS
370
25
 62
7
100
AcDbLine
 10
1.233567918152517
 20
34.7532864163695
 30
0.0
 11
1.850351877228782
 21
35.37007037544576
 31
0.0
  0
LINE
  5
C30
330
1F
100
AcDbEntity
  8
SK2
  6
CONTINUOUS
370
25
 62
7
100
AcDbLine
 10
0.8800145275592328
 20
34.82399709448815
 30
0.0
 11
1.32002179133886
 21
35.26400435826778
 31
0.0
  0
LINE
  5
C31
330
1F
100
AcDbEntity
  8
SK2
  6
CONTINUOUS
370
25
 62
7
100
AcDbLine
 10
0.5264611369659633
 20
34.8947077726068
 30
0.0
 11
0.7896917054489592
 21
35.1579383410898
 31
0.0
  0
LINE
  5
C32
330
1F
100
AcDbEntity
  8
SK2
  6
CONTINUOUS
370
25
 62
7
100
AcDbLine
 10
0.1729077463726867
 20
34.96541845072546
 30
0.0
 11
0.2593616195590371
 21
35.05187232391181
 31
0.0
  0
LINE
  5
C33
330
1F
100
AcDbEntity
  8
SK2
  6
CONTINUOUS
370
25
 62
7
100
AcDbLine
 10
0.1916346038360572
 20
35.03832692076721
 30
0.0
 11
0.2874519057540965
 21
34.94250961884917
 31
0.0
  0
LINE
  5
C34
330
1F
100
AcDbEntity
  8
SK2
  6
CONTINUOUS
370
25
 62
7
100
AcDbLine
 10
0.5451879944293339
 20
35.10903759888588
 30
0.0
 11
0.8177819916440185
 21
34.83644360167119
 31
0.0
  0
LINE
  5
C35
330
1F
100
AcDbEntity
  8
SK2
  6
CONTINUOUS
370
25
 62
7
100
AcDbLine
 10
0.8987413850226105
 20
35.17974827700453
 30
0.0
 11
1.348112077533926
 21
34.73037758449321
 31
0.0
  0
LINE
  5
C36
330
1F
100
AcDbEntity
  8
SK2
  6
CONTINUOUS
370
25
 62
7
100
AcDbLine
 10
1.252294775615901
 20
35.25045895512317
 30
0.0
 11
1.878442163423848
 21
34.62431156731522
 31
0.0
  0
LINE
  5
C37
330
1F
100
AcDbEntity
  8
SK2
  6
CONTINUOUS
370
25
 62
7
100
AcDbLine
 10
1.605848166209178
 20
35.32116963324183
 30
0.0
 11
2.408772249313763
 21
34.51824555013724
 31
0.0
  0
LINE
  5
C38
330
1F
100
AcDbEntity
  8
SK2
  6
CONTINUOUS
370
25
 62
7
100
AcDbLine
 10
1.95940155680244
 20
35.3918803113605
 30
0.0
 11
2.939102335203678
 21
34.41217953295926
 31
0.0
  0
LINE
  5
C39
330
1F
100
AcDbEntity
  8
SK2
  6
CONTINUOUS
370
25
 62
7
100
AcDbLine
 10
2.312954947395724
 20
35.46259098947915
 30
0.0
 11
3.469432421093593
 21
34.30611351578128
 31
0.0
  0
LINE
  5
C3A
330
1F
100
AcDbEntity
  8
SK2
  6
CONTINUOUS
370
25
 62
7
100
AcDbLine
 10
2.666508337989001
 20
35.5333016675978
 30
0.0
 11
3.999762506983501
 21
34.2000474986033
 31
0.0
  0
LINE
  5
C3B
330
1F
100
AcDbEntity
  8
SK2
  6
CONTINUOUS
370
25
 62
7
100
AcDbLine
 10
3.020061728582277
 20
35.60401234571646
 30
0.0
 11
4.530092592873416
 21
34.09398148142531
 31
0.0
  0
LINE
  5
C3C
330
1F
100
AcDbEntity
  8
SK2
  6
CONTINUOUS
370
25
 62
7
100
AcDbLine
 10
3.373615119175554
 20
35.67472302383511
 30
0.0
 11
5.0
 21
34.04833814301066
 31
0.0
  0
LINE
  5
C3D
330
1F
100
AcDbEntity
  8
SK2
  6
CONTINUOUS
370
25
 62
7
100
AcDbLine
 10
3.727168509768831
 20
35.74543370195377
 30
0.0
 11
5.0
 21
34.4726022117226
 31
0.0
  0
LINE
  5
C3E
330
1F
100
AcDbEntity
  8
SK2
  6
CONTINUOUS
370
25
 62
7
100
AcDbLine
 10
4.080721900362107
 20
35.81614438007242
 30
0.0
 11
5.0
 21
34.89686628043453
 31
0.0
  0
LINE
  5
C3F
330
1F
100
AcDbEntity
  8
SK2
  6
CONTINUOUS
370
25
 62
7
100
AcDbLine
 10
4.434275290955384
 20
35.88685505819108
 30
0.0
 11
5.0
 21
35.32113034914646
 31
0.0
  0
LINE
  5
C40
330
1F
100
AcDbEntity
  8
SK2
  6
CONTINUOUS
370
25
 62
7
100
AcDbLine
 10
4.787828681548667
 20
35.95756573630973
 30
0.0
 11
5.0
 21
35.7453944178584
 31
0.0
  0
LINE
  5
C41
330
1F
100
AcDbEntity
  8
SK2
  6
CONTINUOUS
370
25
 62
7
100
AcDbLine
 10
80.0
 20
35.0
 30
0.0
 11
75.0
 21
34.0
 31
0.0
  0
LINE
  5
C42
330
1F
100
AcDbEntity
  8
SK2
  6
CONTINUOUS
370
25
 62
7
100
AcDbLine
 10
75.0
 20
34.0
 30
0.0
 11
75.0
 21
36.0
 31
0.0
  0
LINE
  5
C43
330
1F
100
AcDbEntity
  8
SK2
  6
CONTINUOUS
370
25
 62
7
100
AcDbLine
 10
75.0
 20
36.0
 30
0.0
 11
80.0
 21
35.0
 31
0.0
  0
LINE
  5
C44
330
1F
100
AcDbEntity
  8
SK2
  6
CONTINUOUS
370
25
 62
7
100
AcDbLine
 10
79.96141776686231
 20
34.99228355337246
 30
0.0
 11
79.97427851124155
 21
35.00514429775168
 31
0.0
  0
LINE
  5
C45
330
1F
100
AcDbEntity
  8
SK2
  6
CONTINUOUS
370
25
 62
7
100
AcDbLine
 10
79.43108768097241
 20
34.88621753619448
 30
0.0
 11
79.62072512064827
 21
35.07585497587034
 31
0.0
  0
LINE
  5
C46
330
1F
100
AcDbEntity
  8
SK2
  6
CONTINUOUS
370
25
 62
7
100
AcDbLine
 10
78.9007575950825
 20
34.7801515190165
 30
0.0
 11
79.267171730055
 21
35.146565653989
 31
0.0
  0
LINE
  5
C47
330
1F
100
AcDbEntity
  8
SK2
  6
CONTINUOUS
370
25
 62
7
100
AcDbLine
 10
78.37042750919258
 20
34.67408550183852
 30
0.0
 11
78.91361833946172
 21
35.21727633210766
 31
0.0
  0
LINE
  5
C48
330
1F
100
AcDbEntity
  8
SK2
  6
CONTINUOUS
370
25
 62
7
100
AcDbLine
 10
77.84009742330267
 20
34.56801948466053
 30
0.0
 11
78.56006494886844
 21
35.28798701022631
 31
0.0
  0
LINE
  5
C49
330
1F
100
AcDbEntity
  8
SK2
  6
CONTINUOUS
370
25
 62
7
100
AcDbLine
 10
77.30976733741277
 20
34.46195346748255
 30
0.0
 11
78.20651155827517
 21
35.35869768834496
 31
0.0
  0
LINE
  5
C4A
330
1F
100
AcDbEntity
  8
SK2
  6
CONTINUOUS
370
25
 62
7
100
AcDbLine
 10
76.77943725152285
 20
34.35588745030457
 30
0.0
 11
77.85295816768189
 21
35.42940836646362
 31
0.0
  0
LINE
  5
C4B
330
1F
100
AcDbEntity
  8
SK2
  6
CONTINUOUS
370
25
 62
7
100
AcDbLine
 10
76.24910716563295
 20
34.24982143312658
 30
0.0
 11
77.49940477708863
 21
35.50011904458228
 31
0.0
  0
LINE
  5
C4C
330
1F
100
AcDbEntity
  8
SK2
  6
CONTINUOUS
370
25
 62
7
100
AcDbLine
 10
75.71877707974303
 20
34.1437554159486
 30
0.0
 11
77.14585138649535
 21
35.57082972270093
 31
0.0
  0
LINE
  5
C4D
330
1F
100
AcDbEntity
  8
SK2
  6
CONTINUOUS
370
25
 62
7
100
AcDbLine
 10
75.18844699385312
 20
34.03768939877062
 30
0.0
 11
76.79229799590208
 21
35.64154040081958
 31
0.0
  0
LINE
  5
C4E
330
1F
100
AcDbEntity
  8
SK2
  6
CONTINUOUS
370
25
 62
7
100
AcDbLine
 10
75.0
 20
34.27350647362942
 30
0.0
 11
76.4387446053088
 21
35.71225107893824
 31
0.0
  0
LINE
  5
C4F
330
1F
100
AcDbEntity
  8
SK2
  6
CONTINUOUS
370
25
 62
7
100
AcDbLine
 10
75.0
 20
34.69777054234136
 30
0.0
 11
76.08519121471554
 21
35.7829617570569
 31
0.0
  0
LINE
  5
C50
330
1F
100
AcDbEntity
  8
SK2
  6
CONTINUOUS
370
25
 62
7
100
AcDbLine
 10
75.0
 20
35.12203461105329
 30
0.0
 11
75.73163782412226
 21
35.85367243517555
 31
0.0
  0
LINE
  5
C51
330
1F
100
AcDbEntity
  8
SK2
  6
CONTINUOUS
370
25
 62
7
100
AcDbLine
 10
75.0
 20
35.54629867976521
 30
0.0
 11
75.37808443352898
 21
35.9243831132942
 31
0.0
  0
LINE
  5
C52
330
1F
100
AcDbEntity
  8
SK2
  6
CONTINUOUS
370
25
 62
7
100
AcDbLine
 10
75.0
 20
35.97056274847715
 30
0.0
 11
75.0245310429357
 21
35.99509379141286
 31
0.0
  0
LINE
  5
C53
330
1F
100
AcDbEntity
  8
SK2
  6
CONTINUOUS
370
25
 62
7
100
AcDbLine
 10
75.0
 20
34.03300858899104
 30
0.0
 11
75.02750715749252
 21
34.0055014314985
 31
0.0
  0
LINE
  5
C54
330
1F
100
AcDbEntity
  8
SK2
  6
CONTINUOUS
370
25
 62
7
100
AcDbLine
 10
75.0
 20
34.45727265770297
 30
0.0
 11
75.38106054808581
 21
34.07621210961716
 31
0.0
  0
LINE
  5
C55
330
1F
100
AcDbEntity
  8
SK2
  6
CONTINUOUS
370
25
 62
7
100
AcDbLine
 10
75.0
 20
34.88153672641489
 30
0.0
 11
75.73461393867908
 21
34.14692278773582
 31
0.0
  0
LINE
  5
C56
330
1F
100
AcDbEntity
  8
SK2
  6
CONTINUOUS
370
25
 62
7
100
AcDbLine
 10
75.0
 20
35.30580079512683
 30
0.0
 11
76.08816732927235
 21
34.21763346585447
 31
0.0
  0
LINE
  5
C57
330
1F
100
AcDbEntity
  8
SK2
  6
CONTINUOUS
370
25
 62
7
100
AcDbLine
 10
75.0
 20
35.73006486383876
 30
0.0
 11
76.44172071986563
 21
34.28834414397312
 31
0.0
  0
LINE
  5
C58
330
1F
100
AcDbEntity
  8
SK2
  6
CONTINUOUS
370
25
 62
7
100
AcDbLine
 10
75.19291116568836
 20
35.96141776686233
 30
0.0
 11
76.7952741104589
 21
34.35905482209178
 31
0.0
  0
LINE
  5
C59
330
1F
100
AcDbEntity
  8
SK2
  6
CONTINUOUS
370
25
 62
7
100
AcDbLine
 10
75.72324125157827
 20
35.85535174968435
 30
0.0
 11
77.14882750105218
 21
34.42976550021044
 31
0.0
  0
LINE
  5
C5A
330
1F
100
AcDbEntity
  8
SK2
  6
CONTINUOUS
370
25
 62
7
100
AcDbLine
 10
76.25357133746817
 20
35.74928573250637
 30
0.0
 11
77.50238089164546
 21
34.50047617832909
 31
0.0
  0
LINE
  5
C5B
330
1F
100
AcDbEntity
  8
SK2
  6
CONTINUOUS
370
25
 62
7
100
AcDbLine
 10
76.7839014233581
 20
35.64321971532838
 30
0.0
 11
77.85593428223874
 21
34.57118685644775
 31
0.0
  0
LINE
  5
C5C
330
1F
100
AcDbEntity
  8
SK2
  6
CONTINUOUS
370
25
 62
7
100
AcDbLine
 10
77.314231509248
 20
35.5371536981504
 30
0.0
 11
78.209487672832
 21
34.6418975345664
 31
0.0
  0
LINE
  5
C5D
330
1F
100
AcDbEntity
  8
SK2
  6
CONTINUOUS
370
25
 62
7
100
AcDbLine
 10
77.84456159513792
 20
35.43108768097241
 30
0.0
 11
78.56304106342527
 21
34.71260821268505
 31
0.0
  0
LINE
  5
C5E
330
1F
100
AcDbEntity
  8
SK2
  6
CONTINUOUS
370
25
 62
7
100
AcDbLine
 10
78.37489168102783
 20
35.32502166379443
 30
0.0
 11
78.91659445401855
 21
34.78331889080371
 31
0.0
  0
LINE
  5
C5F
330
1F
100
AcDbEntity
  8
SK2
  6
CONTINUOUS
370
25
 62
7
100
AcDbLine
 10
78.90522176691775
 20
35.21895564661645
 30
0.0
 11
79.27014784461183
 21
34.85402956892236
 31
0.0
  0
LINE
  5
C60
330
1F
100
AcDbEntity
  8
SK2
  6
CONTINUOUS
370
25
 62
7
100
AcDbLine
 10
79.43555185280765
 20
35.11288962943847
 30
0.0
 11
79.62370123520509
 21
34.92474024704102
 31
0.0
  0
LINE
  5
C61
330
1F
100
AcDbEntity
  8
SK2
  6
CONTINUOUS
370
25
 62
7
100
AcDbLine
 10
79.96588193869755
 20
35.00682361226049
 30
0.0
 11
79.97725462579837
 21
34.99545092515967
 31
0.0
  0
TEXT
  5
C62
330
1F
100
AcDbEntity
  8
SK2
  6
CONTINUOUS
370
25
 62
7
100
AcDbText
 10
37.375
 20
36.5
 30
0.0
 40
3.5
  1
80
 72
     1
 11
40.0
 21
36.5
 31
0.0
100
AcDbText
  0
LINE
  5
C63
330
1F
100
AcDbEntity
  8
SK1
  6
CONTINUOUS
370
50
 62
4
100
AcDbLine
 10
56.0
 20
0.0
 30
0.0
 11
57.75
 21
0.0
 31
0.0
  0
LINE
  5
C64
330
1F
100
AcDbEntity
  8
SK1
  6
CONTINUOUS
370
50
 62
4
100
AcDbLine
 10
56.0
 20
0.0
 30
0.0
 11
56.0
 21
1.75
 31
0.0
  0
ARC
  5
C65
330
1F
100
AcDbEntity
  8
SK1
  6
CONTINUOUS
370
50
 62
4
100
AcDbCircle
 10
56.0
 20
0.0
 30
0.0
 40
1.75
100
AcDbArc
 50
0.0
 51
90.0
  0
LINE
  5
C66
330
1F
100
AcDbEntity
  8
SK1
  6
CONTINUOUS
370
50
 62
4
100
AcDbLine
 10
56.0
 20
0.0
 30
0.0
 11
54.25
 21
0.0
 31
0.0
  0
ARC
  5
C67
330
1F
100
AcDbEntity
  8
SK1
  6
CONTINUOUS
370
50
 62
4
100
AcDbCircle
 10
56.0
 20
0.0
 30
0.0
 40
1.75
100
AcDbArc
 50
180.0
 51
270.0
  0
LINE
  5
C68
330
1F
100
AcDbEntity
  8
SK1
  6
CONTINUOUS
370
50
 62
4
100
AcDbLine
 10
56.0
 20
-1.75
 30
0.0
 11
56.0
 21
0.0
 31
0.0
  0
ARC
  5
C69
330
1F
100
AcDbEntity
  8
SK1
  6
CONTINUOUS
370
50
 62
4
100
AcDbCircle
 10
56.0
 20
0.0
 30
0.0
 40
1.75
100
AcDbArc
 50
270.0
 51
0.0
  0
ARC
  5
C6A
330
1F
100
AcDbEntity
  8
SK1
  6
CONTINUOUS
370
50
 62
4
100
AcDbCircle
 10
56.0
 20
0.0
 30
0.0
 40
1.75
100
AcDbArc
 50
90.0
 51
180.0
  0
LINE
  5
C6B
330
1F
100
AcDbEntity
  8
SK1
  6
CONTINUOUS
370
50
 62
4
100
AcDbLine
 10
55.77717274741573
 20
-1.73564731720198
 30
0.0
 11
56.0
 21
-1.512820064617713
 31
0.0
  0
LINE
  5
C6C
330
1F
100
AcDbEntity
  8
SK1
  6
CONTINUOUS
370
50
 62
4
100
AcDbLine
 10
57.51282006461771
 20
0.0
 30
0.0
 11
57.73564731720198
 21
0.2228272525842674
 31
0.0
  0
LINE
  5
C6D
330
1F
100
AcDbEntity
  8
SK1
  6
CONTINUOUS
370
50
 62
4
100
AcDbLine
 10
55.56930380681873
 20
-1.69602888438369
 30
0.0
 11
56.0
 21
-1.265332691202421
 31
0.0
  0
LINE
  5
C6E
330
1F
100
AcDbEntity
  8
SK1
  6
CONTINUOUS
370
50
 62
4
100
AcDbLine
 10
57.26533269120242
 20
0.0
 30
0.0
 11
57.69602888438369
 21
0.4306961931812696
 31
0.0
  0
LINE
  5
C6F
330
1F
100
AcDbEntity
  8
SK1
  6
CONTINUOUS
370
50
 62
4
100
AcDbLine
 10
55.38148340435765
 20
-1.636361913429485
 30
0.0
 11
56.0
 21
-1.01784531778713
 31
0.0
  0
LINE
  5
C70
330
1F
100
AcDbEntity
  8
SK1
  6
CONTINUOUS
370
50
 62
4
100
AcDbLine
 10
57.01784531778713
 20
0.0
 30
0.0
 11
57.63636191342948
 21
0.6185165956423557
 31
0.0
  0
LINE
  5
C71
330
1F
100
AcDbEntity
  8
SK1
  6
CONTINUOUS
370
50
 62
4
100
AcDbLine
 10
55.2098551094628
 20
-1.560502834909039
 30
0.0
 11
56.0
 21
-0.7703579443718382
 31
0.0
  0
LINE
  5
C72
330
1F
100
AcDbEntity
  8
SK1
  6
CONTINUOUS
370
50
 62
4
100
AcDbLine
 10
56.77035794437184
 20
0.0
 30
0.0
 11
57.56050283490904
 21
0.7901448905372013
 31
0.0
  0
LINE
  5
C73
330
1F
100
AcDbEntity
  8
SK1
  6
CONTINUOUS
370
50
 62
4
100
AcDbLine
 10
55.05217783219447
 20
-1.470692738762079
 30
0.0
 11
56.0
 21
-0.5228705709565462
 31
0.0
  0
LINE
  5
C74
330
1F
100
AcDbEntity
  8
SK1
  6
CONTINUOUS
370
50
 62
4
100
AcDbLine
 10
56.52287057095655
 20
0.0
 30
0.0
 11
57.47069273876208
 21
0.947822167805533
 31
0.0
  0
LINE
  5
C75
330
1F
100
AcDbEntity
  8
SK1
  6
CONTINUOUS
370
50
 62
4
100
AcDbLine
 10
54.90842956711548
 20
-1.366953630425777
 30
0.0
 11
56.0
 21
-0.2753831975412551
 31
0.0
  0
LINE
  5
C76
330
1F
100
AcDbEntity
  8
SK1
  6
CONTINUOUS
370
50
 62
4
100
AcDbLine
 10
56.27538319754125
 20
0.0
 30
0.0
 11
57.36695363042578
 21
1.091570432884522
 31
0.0
  0
LINE
  5
C77
330
1F
100
AcDbEntity
  8
SK1
  6
CONTINUOUS
370
50
 62
4
100
AcDbLine
 10
54.77712164538165
 20
-1.25077417874432
 30
0.0
 11
56.0
 21
-0.0278958241259639
 31
0.0
  0
LINE
  5
C78
330
1F
100
AcDbEntity
  8
SK1
  6
CONTINUOUS
370
50
 62
4
100
AcDbLine
 10
56.02789582412596
 20
0.0
 30
0.0
 11
57.25077417874432
 21
1.222878354618356
 31
0.0
  0
LINE
  5
C79
330
1F
100
AcDbEntity
  8
SK1
  6
CONTINUOUS
370
50
 62
4
100
AcDbLine
 10
54.65784030371346
 20
-1.122568146997212
 30
0.0
 11
55.78040845071067
 21
0.0
 31
0.0
  0
LINE
  5
C7A
330
1F
100
AcDbEntity
  8
SK1
  6
CONTINUOUS
370
50
 62
4
100
AcDbLine
 10
56.0
 20
0.2195915492893277
 30
0.0
 11
57.12256814699721
 21
1.34215969628654
 31
0.0
  0
LINE
  5
C7B
330
1F
100
AcDbEntity
  8
SK1
  6
CONTINUOUS
370
50
 62
4
100
AcDbLine
 10
54.55188167231256
 20
-0.9810394049828186
 30
0.0
 11
55.53292107729538
 21
0.0
 31
0.0
  0
LINE
  5
C7C
330
1F
100
AcDbEntity
  8
SK1
  6
CONTINUOUS
370
50
 62
4
100
AcDbLine
 10
56.0
 20
0.4670789227046193
 30
0.0
 11
56.98103940498282
 21
1.448118327687438
 31
0.0
  0
LINE
  5
C7D
330
1F
100
AcDbEntity
  8
SK1
  6
CONTINUOUS
370
50
 62
4
100
AcDbLine
 10
54.45832908651575
 20
-0.8271046173643402
 30
0.0
 11
55.28543370388009
 21
0.0
 31
0.0
  0
LINE
  5
C7E
330
1F
100
AcDbEntity
  8
SK1
  6
CONTINUOUS
370
50
 62
4
100
AcDbLine
 10
56.0
 20
0.71456629611991
 30
0.0
 11
56.82710461736434
 21
1.54167091348425
 31
0.0
  0
LINE
  5
C7F
330
1F
100
AcDbEntity
  8
SK1
  6
CONTINUOUS
370
50
 62
4
100
AcDbLine
 10
54.37918473824205
 20
-0.6587615922227528
 30
0.0
 11
55.0379463304648
 21
0.0
 31
0.0
  0
LINE
  5
C80
330
1F
100
AcDbEntity
  8
SK1
  6
CONTINUOUS
370
50
 62
4
100
AcDbLine
 10
56.0
 20
0.9620536695352015
 30
0.0
 11
56.65876159222275
 21
1.620815261757954
 31
0.0
  0
LINE
  5
C81
330
1F
100
AcDbEntity
  8
SK1
  6
CONTINUOUS
370
50
 62
4
100
AcDbLine
 10
54.31629687706963
 20
-0.474162079979876
 30
0.0
 11
54.79045895704951
 21
0.0
 31
0.0
  0
LINE
  5
C82
330
1F
100
AcDbEntity
  8
SK1
  6
CONTINUOUS
370
50
 62
4
100
AcDbLine
 10
56.0
 20
1.209541042950494
 30
0.0
 11
56.47416207997988
 21
1.683703122930369
 31
0.0
  0
LINE
  5
C83
330
1F
100
AcDbEntity
  8
SK1
  6
CONTINUOUS
370
50
 62
4
100
AcDbLine
 10
54.27198100434271
 20
-0.2709905792915031
 30
0.0
 11
54.54297158363422
 21
0.0
 31
0.0
  0
LINE
  5
C84
330
1F
100
AcDbEntity
  8
SK1
  6
CONTINUOUS
370
50
 62
4
100
AcDbLine
 10
56.0
 20
1.457028416365784
 30
0.0
 11
56.2709905792915
 21
1.728018995657286
 31
0.0
  0
LINE
  5
C85
330
1F
100
AcDbEntity
  8
SK1
  6
CONTINUOUS
370
50
 62
4
100
AcDbLine
 10
54.2513858468978
 20
-0.0440983633211194
 30
0.0
 11
54.29548421021892
 21
0.0
 31
0.0
  0
LINE
  5
C86
330
1F
100
AcDbEntity
  8
SK1
  6
CONTINUOUS
370
50
 62
4
100
AcDbLine
 10
56.0
 20
1.704515789781075
 30
0.0
 11
56.04409836332112
 21
1.748614153102194
 31
0.0
  0
LINE
  5
C87
330
1F
100
AcDbEntity
  8
SK1
  6
CONTINUOUS
370
50
 62
4
100
AcDbLine
 10
54.36386517603682
 20
-0.6191473609004006
 30
0.0
 11
55.3808526390996
 21
-1.636134823963186
 31
0.0
  0
LINE
  5
C88
330
1F
100
AcDbEntity
  8
SK1
  6
CONTINUOUS
370
50
 62
4
100
AcDbLine
 10
54.27363430643545
 20
-0.2814291178837463
 30
0.0
 11
55.71857088211625
 21
-1.726365693564548
 31
0.0
  0
LINE
  5
C89
330
1F
100
AcDbEntity
  8
SK1
  6
CONTINUOUS
370
50
 62
4
100
AcDbLine
 10
54.2503344343115
 20
-0.0106418723445003
 30
0.0
 11
55.9893581276555
 21
-1.749665565688503
 31
0.0
  0
LINE
  5
C8A
330
1F
100
AcDbEntity
  8
SK1
  6
CONTINUOUS
370
50
 62
4
100
AcDbLine
 10
54.48717993538229
 20
0.0
 30
0.0
 11
56.0
 21
-1.51282006461771
 31
0.0
  0
LINE
  5
C8B
330
1F
100
AcDbEntity
  8
SK1
  6
CONTINUOUS
370
50
 62
4
100
AcDbLine
 10
54.73466730879758
 20
0.0
 30
0.0
 11
56.0
 21
-1.265332691202418
 31
0.0
  0
LINE
  5
C8C
330
1F
100
AcDbEntity
  8
SK1
  6
CONTINUOUS
370
50
 62
4
100
AcDbLine
 10
54.98215468221287
 20
0.0
 30
0.0
 11
56.0
 21
-1.017845317787128
 31
0.0
  0
LINE
  5
C8D
330
1F
100
AcDbEntity
  8
SK1
  6
CONTINUOUS
370
50
 62
4
100
AcDbLine
 10
55.22964205562816
 20
0.0
 30
0.0
 11
56.0
 21
-0.7703579443718369
 31
0.0
  0
LINE
  5
C8E
330
1F
100
AcDbEntity
  8
SK1
  6
CONTINUOUS
370
50
 62
4
100
AcDbLine
 10
55.47712942904345
 20
0.0
 30
0.0
 11
56.0
 21
-0.5228705709565453
 31
0.0
  0
LINE
  5
C8F
330
1F
100
AcDbEntity
  8
SK1
  6
CONTINUOUS
370
50
 62
4
100
AcDbLine
 10
55.72461680245875
 20
0.0
 30
0.0
 11
56.0
 21
-0.2753831975412537
 31
0.0
  0
LINE
  5
C90
330
1F
100
AcDbEntity
  8
SK1
  6
CONTINUOUS
370
50
 62
4
100
AcDbLine
 10
55.97210417587404
 20
0.0
 30
0.0
 11
56.0
 21
-0.027895824125963
 31
0.0
  0
LINE
  5
C91
330
1F
100
AcDbEntity
  8
SK1
  6
CONTINUOUS
370
50
 62
4
100
AcDbLine
 10
56.0
 20
0.219591549289329
 30
0.0
 11
56.21959154928933
 21
0.0
 31
0.0
  0
LINE
  5
C92
330
1F
100
AcDbEntity
  8
SK1
  6
CONTINUOUS
370
50
 62
4
100
AcDbLine
 10
56.0
 20
0.4670789227046202
 30
0.0
 11
56.46707892270462
 21
0.0
 31
0.0
  0
LINE
  5
C93
330
1F
100
AcDbEntity
  8
SK1
  6
CONTINUOUS
370
50
 62
4
100
AcDbLine
 10
56.0
 20
0.7145662961199113
 30
0.0
 11
56.71456629611991
 21
0.0
 31
0.0
  0
LINE
  5
C94
330
1F
100
AcDbEntity
  8
SK1
  6
CONTINUOUS
370
50
 62
4
100
AcDbLine
 10
56.0
 20
0.9620536695352029
 30
0.0
 11
56.9620536695352
 21
0.0
 31
0.0
  0
LINE
  5
C95
330
1F
100
AcDbEntity
  8
SK1
  6
CONTINUOUS
370
50
 62
4
100
AcDbLine
 10
56.0
 20
1.209541042950494
 30
0.0
 11
57.2095410429505
 21
0.0
 31
0.0
  0
LINE
  5
C96
330
1F
100
AcDbEntity
  8
SK1
  6
CONTINUOUS
370
50
 62
4
100
AcDbLine
 10
56.0
 20
1.457028416365785
 30
0.0
 11
57.45702841636579
 21
0.0
 31
0.0
  0
LINE
  5
C97
330
1F
100
AcDbEntity
  8
SK1
  6
CONTINUOUS
370
50
 62
4
100
AcDbLine
 10
56.0
 20
1.704515789781076
 30
0.0
 11
57.70451578978108
 21
0.0
 31
0.0
  0
LINE
  5
C98
330
1F
100
AcDbEntity
  8
SK1
  6
CONTINUOUS
370
50
 62
4
100
AcDbLine
 10
56.21543384193567
 20
1.736569321260697
 30
0.0
 11
57.7365693212607
 21
0.2154338419356714
 31
0.0
  0
LINE
  5
C99
330
1F
100
AcDbEntity
  8
SK1
  6
CONTINUOUS
370
50
 62
4
100
AcDbLine
 10
56.53283284728993
 20
1.666657689321729
 30
0.0
 11
57.66665768932173
 21
0.5328328472899322
 31
0.0
  0
LINE
  5
C9A
330
1F
100
AcDbEntity
  8
SK1
  6
CONTINUOUS
370
50
 62
4
100
AcDbLine
 10
57.04009874905675
 20
1.406879160970207
 30
0.0
 11
57.40687916097021
 21
1.040098749056747
 31
0.0
  0
LINE
  5
C9B
330
1F
100
AcDbEntity
  8
4
  6
LONGDASH_DASH
370
25
 62
2
100
AcDbLine
 10
56.0
 20
0.0
 30
0.0
 11
80.0
 21
0.0
 31
0.0
  0
LINE
  5
C9C
330
1F
100
AcDbEntity
  8
SK4
  6
LONGDASH_DASH
370
25
 62
2
100
AcDbLine
 10
-6.0
 20
0.0
 30
0.0
 11
86.0
 21
0.0
 31
0.0
  0
ARC
  5
C9D
330
1F
100
AcDbEntity
  8
SK6
  6
CONTINUOUS
370
25
 62
5
100
AcDbCircle
 10
107.4613820083765
 20
-27.84524575338786
 30
0.0
 40
2.76048912849221
100
AcDbArc
 50
338.9379403434233
 51
90.44457437511365
  0
LINE
  5
C9E
330
1F
100
AcDbEntity
  8
SK6
  6
CONTINUOUS
370
25
 62
5
100
AcDbLine
 10
107.4399627969598
 20
-25.08483972421281
 30
0.0
 11
107.4399627969598
 21
-26.18789835613464
 31
0.0
  0
ARC
  5
C9F
330
1F
100
AcDbEntity
  8
SK6
  6
CONTINUOUS
370
25
 62
5
100
AcDbCircle
 10
107.4505090293692
 20
-27.86523924566821
 30
0.0
 40
1.677374043771779
100
AcDbArc
 50
243.4214706017868
 51
90.36024081226083
  0
ARC
  5
CA0
330
1F
100
AcDbEntity
  8
SK6
  6
CONTINUOUS
370
25
 62
5
100
AcDbCircle
 10
109.9727598968496
 20
-27.43383199215561
 30
0.0
 40
3.80021703002276
100
AcDbArc
 50
210.5483731288539
 51
236.97801693668
  0
LINE
  5
CA1
330
1F
100
AcDbEntity
  8
SK6
  6
CONTINUOUS
370
25
 62
5
100
AcDbLine
 10
107.9017906851249
 20
-30.62016781867535
 30
0.0
 11
112.0437309674267
 21
-30.62016781867535
 31
0.0
  0
ARC
  5
CA2
330
1F
100
AcDbEntity
  8
SK6
  6
CONTINUOUS
370
25
 62
5
100
AcDbCircle
 10
109.9727618387726
 20
-27.4338320937346
 30
0.0
 40
3.800216899582472
100
AcDbArc
 50
303.0219828477959
 51
326.3732153033476
  0
LINE
  5
CA3
330
1F
100
AcDbEntity
  8
SK6
  6
CONTINUOUS
370
25
 62
5
100
AcDbLine
 10
113.1370597513572
 20
-29.5383194907709
 30
0.0
 11
109.7797617057546
 21
-29.5383194907709
 31
0.0
  0
LINE
  5
CA4
330
1F
100
AcDbEntity
  8
SK6
  6
CONTINUOUS
370
25
 62
5
100
AcDbLine
 10
109.7797617057546
 20
-29.5383194907709
 30
0.0
 11
113.6996210977199
 21
-28.17691829641694
 31
0.0
  0
ARC
  5
CA5
330
1F
100
AcDbEntity
  8
SK6
  6
CONTINUOUS
370
25
 62
5
100
AcDbCircle
 10
109.9727625615721
 20
-27.4338326048594
 30
0.0
 40
3.800217216614723
100
AcDbArc
 50
348.7238644184696
 51
53.4691051260885
  0
LINE
  5
CA6
330
1F
100
AcDbEntity
  8
SK6
  6
CONTINUOUS
370
25
 62
5
100
AcDbLine
 10
112.2348652453854
 20
-24.38022124429967
 30
0.0
 11
110.0374504788274
 21
-28.83730973507058
 31
0.0
  0
ENDSEC
  0
SECTION
  2
OBJECTS
  0
DICTIONARY
  5
C
330
0
100
AcDbDictionary
281
     1
  3
ACAD_GROUP
350
D
  3
ACAD_LAYOUT
350
1A
  3
ACAD_MATERIAL
350
3B
  3
ACAD_MLEADERSTYLE
350
CA9
  3
ACAD_MLINESTYLE
350
17
  3
ACAD_PLOTSETTINGS
350
19
  3
ACAD_PLOTSTYLENAME
350
E
  3
ACAD_SCALELIST
350
4CD
  3
ACAD_VISUALSTYLE
350
2A
  3
AcDbVariableDictionary
350
CA7
  0
DICTIONARY
  5
D
102
{ACAD_REACTORS
330
C
102
}
330
C
100
AcDbDictionary
281
     1
  0
DICTIONARY
  5
1A
102
{ACAD_REACTORS
330
C
102
}
330
C
100
AcDbDictionary
281
     1
  3
Layout1
350
1E
  3
Layout2
350
26
  3
Model
350
22
  0
DICTIONARY
  5
3B
102
{ACAD_REACTORS
330
C
102
}
330
C
100
AcDbDictionary
281
     1
  3
ByBlock
350
3D
  3
ByLayer
350
3C
  3
Global
350
3E
  0
DICTIONARY
  5
CA9
102
{ACAD_REACTORS
330
C
102
}
330
C
100
AcDbDictionary
281
     1
  0
DICTIONARY
  5
17
102
{ACAD_REACTORS
330
C
102
}
330
C
100
AcDbDictionary
281
     1
  3
Standard
350
18
  0
DICTIONARY
  5
19
102
{ACAD_REACTORS
330
C
102
}
330
C
100
AcDbDictionary
281
     1
  0
ACDBDICTIONARYWDFLT
  5
E
102
{ACAD_REACTORS
330
C
102
}
330
C
100
AcDbDictionary
281
     1
  3
Normal
350
F
100
AcDbDictionaryWithDefault
340
F
  0
DICTIONARY
  5
4CD
102
{ACAD_REACTORS
330
C
102
}
330
C
100
AcDbDictionary
281
     1
  3
A0
350
4CE
  3
A1
350
4CF
  3
A2
350
4D0
  3
A3
350
4D1
  3
A4
350
4D2
  3
A5
350
4D3
  3
A6
350
4D4
  3
A7
350
4D5
  3
A8
350
4D6
  3
A9
350
4D7
  3
B0
350
4D8
  3
B1
350
4D9
  3
B2
350
4DA
  3
B3
350
4DB
  3
B4
350
4DC
  3
B5
350
4DD
  3
B6
350
4DE
  3
B7
350
4DF
  3
B8
350
4E0
  3
B9
350
4E1
  3
C0
350
4E2
  3
C1
350
4E3
  3
C2
350
4E4
  3
C3
350
4E5
  3
C4
350
4E6
  3
C5
350
4E7
  3
C6
350
4E8
  3
C7
350
4E9
  3
C8
350
4EA
  3
C9
350
4EB
  3
D0
350
4EC
  3
D1
350
4ED
  3
D2
350
4EE
  0
DICTIONARY
  5
2A
102
{ACAD_REACTORS
330
C
102
}
330
C
100
AcDbDictionary
281
     1
  3
2dWireframe
350
2F
  3
3D Hidden
350
31
  3
3dWireframe
350
30
  3
Basic
350
32
  3
Brighten
350
36
  3
ColorChange
350
3A
  3
Conceptual
350
34
  3
Dim
350
35
  3
Facepattern
350
39
  3
Flat
350
2B
  3
FlatWithEdges
350
2C
  3
Gouraud
350
2D
  3
GouraudWithEdges
350
2E
  3
Linepattern
350
38
  3
Realistic
350
33
  3
Thicken
350
37
  0
DICTIONARY
  5
CA7
102
{ACAD_REACTORS
330
C
102
}
330
C
100
AcDbDictionary
281
     1
  3
CANNOSCALE
350
CAC
  3
DIMASSOC
350
CAD
  3
HIDETEXT
350
CAE
  3
PSOLHEIGHT
350
CAB
  3
PSOLWIDTH
350
CAA
  0
LAYOUT
  5
1E
102
{ACAD_REACTORS
330
1A
102
}
330
1A
100
AcDbPlotSettings
  1

  2
none_device
  4

  6

 40
0.0
 41
0.0
 42
0.0
 43
0.0
 44
0.0
 45
0.0
 46
0.0
 47
0.0
 48
0.0
 49
0.0
140
0.0
141
0.0
142
1.0
143
1.0
 70
   688
 72
     0
 73
     0
 74
     5
  7

 75
    16
147
1.0
148
0.0
149
0.0
100
AcDbLayout
  1
Layout1
 70
     1
 71
     1
 10
0.0
 20
0.0
 11
420.0
 21
297.0
 12
0.0
 22
0.0
 32
0.0
 14
1.000000000000000E+20
 24
1.000000000000000E+20
 34
1.000000000000000E+20
 15
-1.000000000000000E+20
 25
-1.000000000000000E+20
 35
-1.000000000000000E+20
146
0.0
 13
0.0
 23
0.0
 33
0.0
 16
1.0
 26
0.0
 36
0.0
 17
0.0
 27
1.0
 37
0.0
 76
     0
330
1B
  0
LAYOUT
  5
26
102
{ACAD_REACTORS
330
1A
102
}
330
1A
100
AcDbPlotSettings
  1

  2
none_device
  4

  6

 40
0.0
 41
0.0
 42
0.0
 43
0.0
 44
0.0
 45
0.0
 46
0.0
 47
0.0
 48
0.0
 49
0.0
140
0.0
141
0.0
142
1.0
143
1.0
 70
   688
 72
     0
 73
     0
 74
     5
  7

 75
    16
147
1.0
148
0.0
149
0.0
100
AcDbLayout
  1
Layout2
 70
     1
 71
     2
 10
0.0
 20
0.0
 11
0.0
 21
0.0
 12
0.0
 22
0.0
 32
0.0
 14
0.0
 24
0.0
 34
0.0
 15
0.0
 25
0.0
 35
0.0
146
0.0
 13
0.0
 23
0.0
 33
0.0
 16
1.0
 26
0.0
 36
0.0
 17
0.0
 27
1.0
 37
0.0
 76
     0
330
23
  0
LAYOUT
  5
22
102
{ACAD_REACTORS
330
1A
102
}
330
1A
100
AcDbPlotSettings
  1

  2
none_device
  4

  6

 40
0.0
 41
0.0
 42
0.0
 43
0.0
 44
0.0
 45
0.0
 46
0.0
 47
0.0
 48
0.0
 49
0.0
140
0.0
141
0.0
142
1.0
143
1.0
 70
  1712
 72
     0
 73
     0
 74
     0
  7

 75
     0
147
1.0
148
0.0
149
0.0
100
AcDbLayout
  1
Model
 70
     1
 71
     0
 10
0.0
 20
0.0
 11
420.0
 21
297.0
 12
0.0
 22
0.0
 32
0.0
 14
0.0
 24
0.0
 34
0.0
 15
25.0
 25
35.0
 35
0.0
146
0.0
 13
0.0
 23
0.0
 33
0.0
 16
1.0
 26
0.0
 36
0.0
 17
0.0
 27
1.0
 37
0.0
 76
     0
330
1F
331
29
  0
MATERIAL
  5
3D
102
{ACAD_REACTORS
330
3B
102
}
102
{ACAD_XDICTIONARY
360
CD1
102
}
330
3B
100
AcDbMaterial
  1
ByBlock
  0
MATERIAL
  5
3C
102
{ACAD_REACTORS
330
3B
102
}
102
{ACAD_XDICTIONARY
360
CCF
102
}
330
3B
100
AcDbMaterial
  1
ByLayer
  0
MATERIAL
  5
3E
102
{ACAD_REACTORS
330
3B
102
}
102
{ACAD_XDICTIONARY
360
CD3
102
}
330
3B
100
AcDbMaterial
  1
Global
  0
MLINESTYLE
  5
18
102
{ACAD_REACTORS
330
17
102
}
330
17
100
AcDbMlineStyle
  2
Standard
 70
     0
  3

 62
   256
 51
90.0
 52
90.0
 71
     2
 49
0.5
 62
   256
  6
BYLAYER
 49
-0.5
 62
   256
  6
BYLAYER
  0
ACDBPLACEHOLDER
  5
F
102
{ACAD_REACTORS
330
E
102
}
330
E
  0
SCALE
  5
4CE
102
{ACAD_REACTORS
330
4CD
102
}
330
4CD
100
AcDbScale
 70
     0
300
1:1
140
1.0
141
1.0
290
     1
  0
SCALE
  5
4CF
102
{ACAD_REACTORS
330
4CD
102
}
330
4CD
100
AcDbScale
 70
     0
300
1:2
140
1.0
141
2.0
290
     0
  0
SCALE
  5
4D0
102
{ACAD_REACTORS
330
4CD
102
}
330
4CD
100
AcDbScale
 70
     0
300
1:4
140
1.0
141
4.0
290
     0
  0
SCALE
  5
4D1
102
{ACAD_REACTORS
330
4CD
102
}
330
4CD
100
AcDbScale
 70
     0
300
1:5
140
1.0
141
5.0
290
     0
  0
SCALE
  5
4D2
102
{ACAD_REACTORS
330
4CD
102
}
330
4CD
100
AcDbScale
 70
     0
300
1:8
140
1.0
141
8.0
290
     0
  0
SCALE
  5
4D3
102
{ACAD_REACTORS
330
4CD
102
}
330
4CD
100
AcDbScale
 70
     0
300
1:10
140
1.0
141
10.0
290
     0
  0
SCALE
  5
4D4
102
{ACAD_REACTORS
330
4CD
102
}
330
4CD
100
AcDbScale
 70
     0
300
1:16
140
1.0
141
16.0
290
     0
  0
SCALE
  5
4D5
102
{ACAD_REACTORS
330
4CD
102
}
330
4CD
100
AcDbScale
 70
     0
300
1:20
140
1.0
141
20.0
290
     0
  0
SCALE
  5
4D6
102
{ACAD_REACTORS
330
4CD
102
}
330
4CD
100
AcDbScale
 70
     0
300
1:30
140
1.0
141
30.0
290
     0
  0
SCALE
  5
4D7
102
{ACAD_REACTORS
330
4CD
102
}
330
4CD
100
AcDbScale
 70
     0
300
1:40
140
1.0
141
40.0
290
     0
  0
SCALE
  5
4D8
102
{ACAD_REACTORS
330
4CD
102
}
330
4CD
100
AcDbScale
 70
     0
300
1:50
140
1.0
141
50.0
290
     0
  0
SCALE
  5
4D9
102
{ACAD_REACTORS
330
4CD
102
}
330
4CD
100
AcDbScale
 70
     0
300
1:100
140
1.0
141
100.0
290
     0
  0
SCALE
  5
4DA
102
{ACAD_REACTORS
330
4CD
102
}
330
4CD
100
AcDbScale
 70
     0
300
2:1
140
2.0
141
1.0
290
     0
  0
SCALE
  5
4DB
102
{ACAD_REACTORS
330
4CD
102
}
330
4CD
100
AcDbScale
 70
     0
300
4:1
140
4.0
141
1.0
290
     0
  0
SCALE
  5
4DC
102
{ACAD_REACTORS
330
4CD
102
}
330
4CD
100
AcDbScale
 70
     0
300
8:1
140
8.0
141
1.0
290
     0
  0
SCALE
  5
4DD
102
{ACAD_REACTORS
330
4CD
102
}
330
4CD
100
AcDbScale
 70
     0
300
10:1
140
10.0
141
1.0
290
     0
  0
SCALE
  5
4DE
102
{ACAD_REACTORS
330
4CD
102
}
330
4CD
100
AcDbScale
 70
     0
300
100:1
140
100.0
141
1.0
290
     0
  0
SCALE
  5
4DF
102
{ACAD_REACTORS
330
4CD
102
}
330
4CD
100
AcDbScale
 70
     0
300
1/128" = 1'-0"
140
0.0078125
141
12.0
290
     0
  0
SCALE
  5
4E0
102
{ACAD_REACTORS
330
4CD
102
}
330
4CD
100
AcDbScale
 70
     0
300
1/64" = 1'-0"
140
0.015625
141
12.0
290
     0
  0
SCALE
  5
4E1
102
{ACAD_REACTORS
330
4CD
102
}
330
4CD
100
AcDbScale
 70
     0
300
1/32" = 1'-0"
140
0.03125
141
12.0
290
     0
  0
SCALE
  5
4E2
102
{ACAD_REACTORS
330
4CD
102
}
330
4CD
100
AcDbScale
 70
     0
300
1/16" = 1'-0"
140
0.0625
141
12.0
290
     0
  0
SCALE
  5
4E3
102
{ACAD_REACTORS
330
4CD
102
}
330
4CD
100
AcDbScale
 70
     0
300
3/32" = 1'-0"
140
0.09375
141
12.0
290
     0
  0
SCALE
  5
4E4
102
{ACAD_REACTORS
330
4CD
102
}
330
4CD
100
AcDbScale
 70
     0
300
1/8" = 1'-0"
140
0.125
141
12.0
290
     0
  0
SCALE
  5
4E5
102
{ACAD_REACTORS
330
4CD
102
}
330
4CD
100
AcDbScale
 70
     0
300
3/16" = 1'-0"
140
0.1875
141
12.0
290
     0
  0
SCALE
  5
4E6
102
{ACAD_REACTORS
330
4CD
102
}
330
4CD
100
AcDbScale
 70
     0
300
1/4" = 1'-0"
140
0.25
141
12.0
290
     0
  0
SCALE
  5
4E7
102
{ACAD_REACTORS
330
4CD
102
}
330
4CD
100
AcDbScale
 70
     0
300
3/8" = 1'-0"
140
0.375
141
12.0
290
     0
  0
SCALE
  5
4E8
102
{ACAD_REACTORS
330
4CD
102
}
330
4CD
100
AcDbScale
 70
     0
300
1/2" = 1'-0"
140
0.5
141
12.0
290
     0
  0
SCALE
  5
4E9
102
{ACAD_REACTORS
330
4CD
102
}
330
4CD
100
AcDbScale
 70
     0
300
3/4" = 1'-0"
140
0.75
141
12.0
290
     0
  0
SCALE
  5
4EA
102
{ACAD_REACTORS
330
4CD
102
}
330
4CD
100
AcDbScale
 70
     0
300
1" = 1'-0"
140
1.0
141
12.0
290
     0
  0
SCALE
  5
4EB
102
{ACAD_REACTORS
330
4CD
102
}
330
4CD
100
AcDbScale
 70
     0
300
1-1/2" = 1'-0"
140
1.5
141
12.0
290
     0
  0
SCALE
  5
4EC
102
{ACAD_REACTORS
330
4CD
102
}
330
4CD
100
AcDbScale
 70
     0
300
3" = 1'-0"
140
3.0
141
12.0
290
     0
  0
SCALE
  5
4ED
102
{ACAD_REACTORS
330
4CD
102
}
330
4CD
100
AcDbScale
 70
     0
300
6" = 1'-0"
140
6.0
141
12.0
290
     0
  0
SCALE
  5
4EE
102
{ACAD_REACTORS
330
4CD
102
}
330
4CD
100
AcDbScale
 70
     0
300
1'-0" = 1'-0"
140
12.0
141
12.0
290
     0
  0
VISUALSTYLE
  5
2F
102
{ACAD_REACTORS
330
2A
102
}
102
{ACAD_XDICTIONARY
360
CB7
102
}
330
2A
100
AcDbVisualStyle
  2
2dWireframe
 70
     4
 71
     0
 72
     2
 73
     0
 90
        0
 40
-0.6
 41
-30.0
 62
     5
 63
     7
 74
     1
 91
        4
 64
     7
 65
   257
 75
     1
175
     1
 42
1.0
 92
        0
 66
   257
 43
1.0
 76
     1
 77
     6
 78
     2
 67
     7
 79
     5
170
     0
171
     0
290
     0
174
     0
 93
        1
 44
0.0
173
     0
291
     0
 45
0.0
1001
ACAD
1000
AcDbSavedByObjectVersion
1070
     0
  0
VISUALSTYLE
  5
31
102
{ACAD_REACTORS
330
2A
102
}
102
{ACAD_XDICTIONARY
360
CBB
102
}
330
2A
100
AcDbVisualStyle
  2
3D Hidden
 70
     6
 71
     1
 72
     2
 73
     2
 90
        0
 40
-0.6
 41
-30.0
 62
     5
 63
     7
 74
     2
 91
        2
 64
     7
 65
   257
 75
     2
175
     1
 42
40.0
 92
        0
 66
   257
 43
1.0
 76
     1
 77
     6
 78
     2
 67
     7
 79
     3
170
     0
171
     0
290
     0
174
     0
 93
        1
 44
0.0
173
     0
291
     0
 45
0.0
1001
ACAD
1000
AcDbSavedByObjectVersion
1070
     0
  0
VISUALSTYLE
  5
30
102
{ACAD_REACTORS
330
2A
102
}
102
{ACAD_XDICTIONARY
360
CB9
102
}
330
2A
100
AcDbVisualStyle
  2
3dWireframe
 70
     5
 71
     0
 72
     2
 73
     0
 90
        0
 40
-0.6
 41
-30.0
 62
     5
 63
     7
 74
     1
 91
        4
 64
     7
 65
   257
 75
     1
175
     1
 42
1.0
 92
        0
 66
   257
 43
1.0
 76
     1
 77
     6
 78
     2
 67
     7
 79
     5
170
     0
171
     0
290
     0
174
     0
 93
        1
 44
0.0
173
     0
291
     0
 45
0.0
1001
ACAD
1000
AcDbSavedByObjectVersion
1070
     0
  0
VISUALSTYLE
  5
32
102
{ACAD_REACTORS
330
2A
102
}
102
{ACAD_XDICTIONARY
360
CBD
102
}
330
2A
100
AcDbVisualStyle
  2
Basic
 70
     7
 71
     1
 72
     0
 73
     1
 90
        0
 40
-0.6
 41
-30.0
 62
     5
 63
     7
 74
     0
 91
        4
 64
     7
 65
   257
 75
     1
175
     1
 42
1.0
 92
        8
 66
     7
 43
1.0
 76
     1
 77
     6
 78
     2
 67
     7
 79
     5
170
     0
171
     0
290
     0
174
     0
 93
        1
 44
0.0
173
     0
291
     1
 45
0.0
1001
ACAD
1000
AcDbSavedByObjectVersion
1070
     0
  0
VISUALSTYLE
  5
36
102
{ACAD_REACTORS
330
2A
102
}
102
{ACAD_XDICTIONARY
360
CC5
102
}
330
2A
100
AcDbVisualStyle
  2
Brighten
 70
    12
 71
     2
 72
     2
 73
     0
 90
        0
 40
-0.6
 41
-30.0
 62
     5
 63
     7
 74
     1
 91
        4
 64
     7
 65
   257
 75
     1
175
     1
 42
1.0
 92
        8
 66
     7
 43
1.0
 76
     1
 77
     6
 78
     2
 67
     7
 79
     5
170
     0
171
     0
290
     0
174
     0
 93
        1
 44
50.0
173
     0
291
     1
 45
0.0
1001
ACAD
1000
AcDbSavedByObjectVersion
1070
     0
  0
VISUALSTYLE
  5
3A
102
{ACAD_REACTORS
330
2A
102
}
102
{ACAD_XDICTIONARY
360
CCD
102
}
330
2A
100
AcDbVisualStyle
  2
ColorChange
 70
    16
 71
     2
 72
     2
 73
     3
 90
        0
 40
-0.6
 41
-30.0
 62
     5
 63
     8
 74
     1
 91
        4
 64
     7
 65
   257
 75
     1
175
     1
 42
1.0
 92
        8
 66
     8
 43
1.0
 76
     1
 77
     6
 78
     2
 67
     7
 79
     5
170
     0
171
     0
290
     0
174
     0
 93
        1
 44
0.0
173
     0
291
     1
 45
0.0
1001
ACAD
1000
AcDbSavedByObjectVersion
1070
     0
  0
VISUALSTYLE
  5
34
102
{ACAD_REACTORS
330
2A
102
}
102
{ACAD_XDICTIONARY
360
CC1
102
}
330
2A
100
AcDbVisualStyle
  2
Conceptual
 70
     9
 71
     3
 72
     2
 73
     0
 90
        0
 40
-0.6
 41
-30.0
 62
     5
 63
     7
 74
     2
 91
        2
 64
     7
 65
   257
 75
     1
175
     1
 42
40.0
 92
        8
 66
     7
 43
1.0
 76
     1
 77
     6
 78
     2
 67
     7
 79
     3
170
     0
171
     0
290
     0
174
     0
 93
        1
 44
0.0
173
     0
291
     0
 45
0.0
1001
ACAD
1000
AcDbSavedByObjectVersion
1070
     0
  0
VISUALSTYLE
  5
35
102
{ACAD_REACTORS
330
2A
102
}
102
{ACAD_XDICTIONARY
360
CC3
102
}
330
2A
100
AcDbVisualStyle
  2
Dim
 70
    11
 71
     2
 72
     2
 73
     0
 90
        0
 40
-0.6
 41
-30.0
 62
     5
 63
     7
 74
     1
 91
        4
 64
     7
 65
   257
 75
     1
175
     1
 42
1.0
 92
        8
 66
     7
 43
1.0
 76
     1
 77
     6
 78
     2
 67
     7
 79
     5
170
     0
171
     0
290
     0
174
     0
 93
        1
 44
-50.0
173
     0
291
     1
 45
0.0
1001
ACAD
1000
AcDbSavedByObjectVersion
1070
     0
  0
VISUALSTYLE
  5
39
102
{ACAD_REACTORS
330
2A
102
}
102
{ACAD_XDICTIONARY
360
CCB
102
}
330
2A
100
AcDbVisualStyle
  2
Facepattern
 70
    15
 71
     2
 72
     2
 73
     0
 90
        0
 40
-0.6
 41
-30.0
 62
     5
 63
     7
 74
     1
 91
        4
 64
     7
 65
   257
 75
     1
175
     1
 42
1.0
 92
        8
 66
     7
 43
1.0
 76
     1
 77
     6
 78
     2
 67
     7
 79
     5
170
     0
171
     0
290
     0
174
     0
 93
        1
 44
0.0
173
     0
291
     1
 45
0.0
1001
ACAD
1000
AcDbSavedByObjectVersion
1070
     0
  0
VISUALSTYLE
  5
2B
102
{ACAD_REACTORS
330
2A
102
}
102
{ACAD_XDICTIONARY
360
CAF
102
}
330
2A
100
AcDbVisualStyle
  2
Flat
 70
     0
 71
     2
 72
     1
 73
     1
 90
        2
 40
-0.6
 41
30.0
 62
     5
 63
     7
 74
     0
 91
        4
 64
     7
 65
   257
 75
     1
175
     1
 42
1.0
 92
        8
 66
     7
 43
1.0
 76
     1
 77
     6
 78
     2
 67
     7
 79
     5
170
     0
171
     0
290
     0
174
     0
 93
       13
 44
0.0
173
     0
291
     1
 45
0.0
1001
ACAD
1000
AcDbSavedByObjectVersion
1070
     0
  0
VISUALSTYLE
  5
2C
102
{ACAD_REACTORS
330
2A
102
}
102
{ACAD_XDICTIONARY
360
CB1
102
}
330
2A
100
AcDbVisualStyle
  2
FlatWithEdges
 70
     1
 71
     2
 72
     1
 73
     1
 90
        2
 40
-0.6
 41
30.0
 62
     5
 63
     7
 74
     1
 91
        4
 64
     7
 65
   257
 75
     1
175
     1
 42
1.0
 92
        0
 66
   257
 43
1.0
 76
     1
 77
     6
 78
     2
 67
     7
 79
     5
170
     0
171
     0
290
     0
174
     0
 93
       13
 44
0.0
173
     0
291
     1
 45
0.0
1001
ACAD
1000
AcDbSavedByObjectVersion
1070
     0
  0
VISUALSTYLE
  5
2D
102
{ACAD_REACTORS
330
2A
102
}
102
{ACAD_XDICTIONARY
360
CB3
102
}
330
2A
100
AcDbVisualStyle
  2
Gouraud
 70
     2
 71
     2
 72
     2
 73
     1
 90
        2
 40
-0.6
 41
30.0
 62
     5
 63
     7
 74
     0
 91
        4
 64
     7
 65
   257
 75
     1
175
     1
 42
1.0
 92
        0
 66
     7
 43
1.0
 76
     1
 77
     6
 78
     2
 67
     7
 79
     5
170
     0
171
     0
290
     0
174
     0
 93
       13
 44
0.0
173
     0
291
     1
 45
0.0
1001
ACAD
1000
AcDbSavedByObjectVersion
1070
     0
  0
VISUALSTYLE
  5
2E
102
{ACAD_REACTORS
330
2A
102
}
102
{ACAD_XDICTIONARY
360
CB5
102
}
330
2A
100
AcDbVisualStyle
  2
GouraudWithEdges
 70
     3
 71
     2
 72
     2
 73
     1
 90
        2
 40
-0.6
 41
30.0
 62
     5
 63
     7
 74
     1
 91
        4
 64
     7
 65
   257
 75
     1
175
     1
 42
1.0
 92
        0
 66
   257
 43
1.0
 76
     1
 77
     6
 78
     2
 67
     7
 79
     5
170
     0
171
     0
290
     0
174
     0
 93
       13
 44
0.0
173
     0
291
     1
 45
0.0
1001
ACAD
1000
AcDbSavedByObjectVersion
1070
     0
  0
VISUALSTYLE
  5
38
102
{ACAD_REACTORS
330
2A
102
}
102
{ACAD_XDICTIONARY
360
CC9
102
}
330
2A
100
AcDbVisualStyle
  2
Linepattern
 70
    14
 71
     2
 72
     2
 73
     0
 90
        0
 40
-0.6
 41
-30.0
 62
     5
 63
     7
 74
     1
 91
        4
 64
     7
 65
   257
 75
     7
175
     7
 42
1.0
 92
        8
 66
     7
 43
1.0
 76
     1
 77
     6
 78
     2
 67
     7
 79
     5
170
     0
171
     0
290
     0
174
     0
 93
        1
 44
0.0
173
     0
291
     1
 45
0.0
1001
ACAD
1000
AcDbSavedByObjectVersion
1070
     0
  0
VISUALSTYLE
  5
33
102
{ACAD_REACTORS
330
2A
102
}
102
{ACAD_XDICTIONARY
360
CBF
102
}
330
2A
100
AcDbVisualStyle
  2
Realistic
 70
     8
 71
     2
 72
     2
 73
     0
 90
        0
 40
-0.6
 41
-30.0
 62
     5
 63
     7
 74
     1
 91
        0
 64
     7
 65
   257
 75
     1
175
     1
 42
1.0
 92
        8
 66
     8
 43
1.0
 76
     1
 77
     6
 78
     2
 67
     7
 79
     5
170
     0
171
     0
290
     0
174
     0
 93
       13
 44
0.0
173
     0
291
     0
 45
0.0
1001
ACAD
1000
AcDbSavedByObjectVersion
1070
     0
  0
VISUALSTYLE
  5
37
102
{ACAD_REACTORS
330
2A
102
}
102
{ACAD_XDICTIONARY
360
CC7
102
}
330
2A
100
AcDbVisualStyle
  2
Thicken
 70
    13
 71
     2
 72
     2
 73
     0
 90
        0
 40
-0.6
 41
-30.0
 62
     5
 63
     7
 74
     1
 91
        4
 64
     7
 65
   257
 75
     1
175
     1
 42
1.0
 92
       12
 66
     7
 43
1.0
 76
     1
 77
     6
 78
     2
 67
     7
 79
     5
170
     0
171
     0
290
     0
174
     0
 93
        1
 44
0.0
173
     0
291
     1
 45
0.0
1001
ACAD
1000
AcDbSavedByObjectVersion
1070
     0
  0
DICTIONARYVAR
  5
CAC
102
{ACAD_REACTORS
330
CA7
102
}
330
CA7
100
DictionaryVariables
280
     0
  1
1:1
  0
DICTIONARYVAR
  5
CAD
102
{ACAD_REACTORS
330
CA7
102
}
330
CA7
100
DictionaryVariables
280
     0
  1
2
  0
DICTIONARYVAR
  5
CAE
102
{ACAD_REACTORS
330
CA7
102
}
330
CA7
100
DictionaryVariables
280
     0
  1
1
  0
DICTIONARYVAR
  5
CAB
102
{ACAD_REACTORS
330
CA7
102
}
330
CA7
100
DictionaryVariables
280
     0
  1
80.000000
  0
DICTIONARYVAR
  5
CAA
102
{ACAD_REACTORS
330
CA7
102
}
330
CA7
100
DictionaryVariables
280
     0
  1
5.000000
  0
DICTIONARY
  5
CD1
330
3D
100
AcDbDictionary
280
     1
281
     1
  3
ACAD_XREC_ROUNDTRIP
360
CD2
  0
DICTIONARY
  5
CCF
330
3C
100
AcDbDictionary
280
     1
281
     1
  3
ACAD_XREC_ROUNDTRIP
360
CD0
  0
DICTIONARY
  5
CD3
330
3E
100
AcDbDictionary
280
     1
281
     1
  3
ACAD_XREC_ROUNDTRIP
360
CD4
  0
DICTIONARY
  5
CB7
330
2F
100
AcDbDictionary
280
     1
281
     1
  3
ACAD_XREC_ROUNDTRIP
360
CB8
  0
DICTIONARY
  5
CBB
330
31
100
AcDbDictionary
280
     1
281
     1
  3
ACAD_XREC_ROUNDTRIP
360
CBC
  0
DICTIONARY
  5
CB9
330
30
100
AcDbDictionary
280
     1
281
     1
  3
ACAD_XREC_ROUNDTRIP
360
CBA
  0
DICTIONARY
  5
CBD
330
32
100
AcDbDictionary
280
     1
281
     1
  3
ACAD_XREC_ROUNDTRIP
360
CBE
  0
DICTIONARY
  5
CC5
330
36
100
AcDbDictionary
280
     1
281
     1
  3
ACAD_XREC_ROUNDTRIP
360
CC6
  0
DICTIONARY
  5
CCD
330
3A
100
AcDbDictionary
280
     1
281
     1
  3
ACAD_XREC_ROUNDTRIP
360
CCE
  0
DICTIONARY
  5
CC1
330
34
100
AcDbDictionary
280
     1
281
     1
  3
ACAD_XREC_ROUNDTRIP
360
CC2
  0
DICTIONARY
  5
CC3
330
35
100
AcDbDictionary
280
     1
281
     1
  3
ACAD_XREC_ROUNDTRIP
360
CC4
  0
DICTIONARY
  5
CCB
330
39
100
AcDbDictionary
280
     1
281
     1
  3
ACAD_XREC_ROUNDTRIP
360
CCC
  0
DICTIONARY
  5
CAF
330
2B
100
AcDbDictionary
280
     1
281
     1
  3
ACAD_XREC_ROUNDTRIP
360
CB0
  0
DICTIONARY
  5
CB1
330
2C
100
AcDbDictionary
280
     1
281
     1
  3
ACAD_XREC_ROUNDTRIP
360
CB2
  0
DICTIONARY
  5
CB3
330
2D
100
AcDbDictionary
280
     1
281
     1
  3
ACAD_XREC_ROUNDTRIP
360
CB4
  0
DICTIONARY
  5
CB5
330
2E
100
AcDbDictionary
280
     1
281
     1
  3
ACAD_XREC_ROUNDTRIP
360
CB6
  0
DICTIONARY
  5
CC9
330
38
100
AcDbDictionary
280
     1
281
     1
  3
ACAD_XREC_ROUNDTRIP
360
CCA
  0
DICTIONARY
  5
CBF
330
33
100
AcDbDictionary
280
     1
281
     1
  3
ACAD_XREC_ROUNDTRIP
360
CC0
  0
DICTIONARY
  5
CC7
330
37
100
AcDbDictionary
280
     1
281
     1
  3
ACAD_XREC_ROUNDTRIP
360
CC8
  0
XRECORD
  5
CD2
102
{ACAD_REACTORS
330
CD1
102
}
330
CD1
100
AcDbXrecord
280
     1
102
MATERIAL
148
0.0
149
0.0
149
0.0
 93
        0
 94
      127
282
     0
 72
     1
 77
     1
171
     1
175
     1
179
     1
273
     0
  0
XRECORD
  5
CD0
102
{ACAD_REACTORS
330
CCF
102
}
330
CCF
100
AcDbXrecord
280
     1
102
MATERIAL
148
0.0
149
0.0
149
0.0
 93
        0
 94
      127
282
     0
 72
     1
 77
     1
171
     1
175
     1
179
     1
273
     0
  0
XRECORD
  5
CD4
102
{ACAD_REACTORS
330
CD3
102
}
330
CD3
100
AcDbXrecord
280
     1
102
MATERIAL
148
0.0
149
0.0
149
0.0
 93
        0
 94
      127
282
     0
 72
     1
 77
     1
171
     1
175
     1
179
     1
273
     0
  0
XRECORD
  5
CB8
102
{ACAD_REACTORS
330
CB7
102
}
330
CB7
100
AcDbXrecord
280
     1
102
RTVSPropertyOp0
 70
     1
102
RTVSPropertyOp1
 70
     1
102
RTVSPropertyOp2
 70
     1
102
RTVSPropertyOp3
 70
     1
102
RTVSPropertyOp4
 70
     1
102
RTVSPropertyOp5
 70
     1
102
RTVSPropertyOp6
 70
     1
102
RTVSPropertyOp7
 70
     1
102
RTVSPropertyOp8
 70
     1
102
RTVSPropertyOp9
 70
     1
102
RTVSPropertyOp10
 70
     1
102
RTVSPropertyOp11
 70
     1
102
RTVSPropertyOp12
 70
     1
102
RTVSPropertyOp13
 70
     1
102
RTVSPropertyOp14
 70
     1
102
RTVSPropertyOp15
 70
     1
102
RTVSPropertyOp16
 70
     1
102
RTVSPropertyOp17
 70
     1
102
RTVSPropertyOp18
 70
     1
102
RTVSPropertyOp19
 70
     1
102
RTVSPropertyOp20
 70
     1
102
RTVSPropertyOp21
 70
     1
102
RTVSPropertyOp22
 70
     1
102
RTVSPropertyOp23
 70
     1
102
RTVSPropertyOp24
 70
     1
102
RTVSPropertyOp25
 70
     1
102
RTVSPropertyOp26
 70
     1
102
RTVSPropertyOp27
 70
     1
  0
XRECORD
  5
CBC
102
{ACAD_REACTORS
330
CBB
102
}
330
CBB
100
AcDbXrecord
280
     1
102
RTVSPropertyOp0
 70
     1
102
RTVSPropertyOp1
 70
     1
102
RTVSPropertyOp2
 70
     1
102
RTVSPropertyOp3
 70
     1
102
RTVSPropertyOp4
 70
     1
102
RTVSPropertyOp5
 70
     1
102
RTVSPropertyOp6
 70
     1
102
RTVSPropertyOp7
 70
     1
102
RTVSPropertyOp8
 70
     1
102
RTVSPropertyOp9
 70
     1
102
RTVSPropertyOp10
 70
     1
102
RTVSPropertyOp11
 70
     1
102
RTVSPropertyOp12
 70
     1
102
RTVSPropertyOp13
 70
     1
102
RTVSPropertyOp14
 70
     1
102
RTVSPropertyOp15
 70
     1
102
RTVSPropertyOp16
 70
     1
102
RTVSPropertyOp17
 70
     1
102
RTVSPropertyOp18
 70
     1
102
RTVSPropertyOp19
 70
     1
102
RTVSPropertyOp20
 70
     1
102
RTVSPropertyOp21
 70
     1
102
RTVSPropertyOp22
 70
     1
102
RTVSPropertyOp23
 70
     1
102
RTVSPropertyOp24
 70
     1
102
RTVSPropertyOp25
 70
     1
102
RTVSPropertyOp26
 70
     1
102
RTVSPropertyOp27
 70
     1
  0
XRECORD
  5
CBA
102
{ACAD_REACTORS
330
CB9
102
}
330
CB9
100
AcDbXrecord
280
     1
102
RTVSPropertyOp0
 70
     1
102
RTVSPropertyOp1
 70
     1
102
RTVSPropertyOp2
 70
     1
102
RTVSPropertyOp3
 70
     1
102
RTVSPropertyOp4
 70
     1
102
RTVSPropertyOp5
 70
     1
102
RTVSPropertyOp6
 70
     1
102
RTVSPropertyOp7
 70
     1
102
RTVSPropertyOp8
 70
     1
102
RTVSPropertyOp9
 70
     1
102
RTVSPropertyOp10
 70
     1
102
RTVSPropertyOp11
 70
     1
102
RTVSPropertyOp12
 70
     1
102
RTVSPropertyOp13
 70
     1
102
RTVSPropertyOp14
 70
     1
102
RTVSPropertyOp15
 70
     1
102
RTVSPropertyOp16
 70
     1
102
RTVSPropertyOp17
 70
     1
102
RTVSPropertyOp18
 70
     1
102
RTVSPropertyOp19
 70
     1
102
RTVSPropertyOp20
 70
     1
102
RTVSPropertyOp21
 70
     1
102
RTVSPropertyOp22
 70
     1
102
RTVSPropertyOp23
 70
     1
102
RTVSPropertyOp24
 70
     1
102
RTVSPropertyOp25
 70
     1
102
RTVSPropertyOp26
 70
     1
102
RTVSPropertyOp27
 70
     1
  0
XRECORD
  5
CBE
102
{ACAD_REACTORS
330
CBD
102
}
330
CBD
100
AcDbXrecord
280
     1
102
RTVSPropertyOp0
 70
     1
102
RTVSPropertyOp1
 70
     1
102
RTVSPropertyOp2
 70
     1
102
RTVSPropertyOp3
 70
     1
102
RTVSPropertyOp4
 70
     1
102
RTVSPropertyOp5
 70
     1
102
RTVSPropertyOp6
 70
     1
102
RTVSPropertyOp7
 70
     1
102
RTVSPropertyOp8
 70
     1
102
RTVSPropertyOp9
 70
     1
102
RTVSPropertyOp10
 70
     1
102
RTVSPropertyOp11
 70
     1
102
RTVSPropertyOp12
 70
     1
102
RTVSPropertyOp13
 70
     1
102
RTVSPropertyOp14
 70
     1
102
RTVSPropertyOp15
 70
     1
102
RTVSPropertyOp16
 70
     1
102
RTVSPropertyOp17
 70
     1
102
RTVSPropertyOp18
 70
     1
102
RTVSPropertyOp19
 70
     1
102
RTVSPropertyOp20
 70
     1
102
RTVSPropertyOp21
 70
     1
102
RTVSPropertyOp22
 70
     1
102
RTVSPropertyOp23
 70
     1
102
RTVSPropertyOp24
 70
     1
102
RTVSPropertyOp25
 70
     1
102
RTVSPropertyOp26
 70
     1
102
RTVSPropertyOp27
 70
     1
  0
XRECORD
  5
CC6
102
{ACAD_REACTORS
330
CC5
102
}
330
CC5
100
AcDbXrecord
280
     1
102
RTVSPropertyOp0
 70
     1
102
RTVSPropertyOp1
 70
     1
102
RTVSPropertyOp2
 70
     1
102
RTVSPropertyOp3
 70
     1
102
RTVSPropertyOp4
 70
     1
102
RTVSPropertyOp5
 70
     1
102
RTVSPropertyOp6
 70
     1
102
RTVSPropertyOp7
 70
     1
102
RTVSPropertyOp8
 70
     1
102
RTVSPropertyOp9
 70
     1
102
RTVSPropertyOp10
 70
     1
102
RTVSPropertyOp11
 70
     1
102
RTVSPropertyOp12
 70
     1
102
RTVSPropertyOp13
 70
     1
102
RTVSPropertyOp14
 70
     1
102
RTVSPropertyOp15
 70
     1
102
RTVSPropertyOp16
 70
     1
102
RTVSPropertyOp17
 70
     1
102
RTVSPropertyOp18
 70
     1
102
RTVSPropertyOp19
 70
     1
102
RTVSPropertyOp20
 70
     1
102
RTVSPropertyOp21
 70
     1
102
RTVSPropertyOp22
 70
     1
102
RTVSPropertyOp23
 70
     1
102
RTVSPropertyOp24
 70
     1
102
RTVSPropertyOp25
 70
     1
102
RTVSPropertyOp26
 70
     1
102
RTVSPropertyOp27
 70
     1
  0
XRECORD
  5
CCE
102
{ACAD_REACTORS
330
CCD
102
}
330
CCD
100
AcDbXrecord
280
     1
102
RTVSPropertyOp0
 70
     1
102
RTVSPropertyOp1
 70
     1
102
RTVSPropertyOp2
 70
     1
102
RTVSPropertyOp3
 70
     1
102
RTVSPropertyOp4
 70
     1
102
RTVSPropertyOp5
 70
     1
102
RTVSPropertyOp6
 70
     1
102
RTVSPropertyOp7
 70
     1
102
RTVSPropertyOp8
 70
     1
102
RTVSPropertyOp9
 70
     1
102
RTVSPropertyOp10
 70
     1
102
RTVSPropertyOp11
 70
     1
102
RTVSPropertyOp12
 70
     1
102
RTVSPropertyOp13
 70
     1
102
RTVSPropertyOp14
 70
     1
102
RTVSPropertyOp15
 70
     1
102
RTVSPropertyOp16
 70
     1
102
RTVSPropertyOp17
 70
     1
102
RTVSPropertyOp18
 70
     1
102
RTVSPropertyOp19
 70
     1
102
RTVSPropertyOp20
 70
     1
102
RTVSPropertyOp21
 70
     1
102
RTVSPropertyOp22
 70
     1
102
RTVSPropertyOp23
 70
     1
102
RTVSPropertyOp24
 70
     1
102
RTVSPropertyOp25
 70
     1
102
RTVSPropertyOp26
 70
     1
102
RTVSPropertyOp27
 70
     1
  0
XRECORD
  5
CC2
102
{ACAD_REACTORS
330
CC1
102
}
330
CC1
100
AcDbXrecord
280
     1
102
RTVSPropertyOp0
 70
     1
102
RTVSPropertyOp1
 70
     1
102
RTVSPropertyOp2
 70
     1
102
RTVSPropertyOp3
 70
     1
102
RTVSPropertyOp4
 70
     1
102
RTVSPropertyOp5
 70
     1
102
RTVSPropertyOp6
 70
     1
102
RTVSPropertyOp7
 70
     1
102
RTVSPropertyOp8
 70
     1
102
RTVSPropertyOp9
 70
     1
102
RTVSPropertyOp10
 70
     1
102
RTVSPropertyOp11
 70
     1
102
RTVSPropertyOp12
 70
     1
102
RTVSPropertyOp13
 70
     1
102
RTVSPropertyOp14
 70
     1
102
RTVSPropertyOp15
 70
     1
102
RTVSPropertyOp16
 70
     1
102
RTVSPropertyOp17
 70
     1
102
RTVSPropertyOp18
 70
     1
102
RTVSPropertyOp19
 70
     1
102
RTVSPropertyOp20
 70
     1
102
RTVSPropertyOp21
 70
     1
102
RTVSPropertyOp22
 70
     1
102
RTVSPropertyOp23
 70
     1
102
RTVSPropertyOp24
 70
     1
102
RTVSPropertyOp25
 70
     1
102
RTVSPropertyOp26
 70
     1
102
RTVSPropertyOp27
 70
     1
  0
XRECORD
  5
CC4
102
{ACAD_REACTORS
330
CC3
102
}
330
CC3
100
AcDbXrecord
280
     1
102
RTVSPropertyOp0
 70
     1
102
RTVSPropertyOp1
 70
     1
102
RTVSPropertyOp2
 70
     1
102
RTVSPropertyOp3
 70
     1
102
RTVSPropertyOp4
 70
     1
102
RTVSPropertyOp5
 70
     1
102
RTVSPropertyOp6
 70
     1
102
RTVSPropertyOp7
 70
     1
102
RTVSPropertyOp8
 70
     1
102
RTVSPropertyOp9
 70
     1
102
RTVSPropertyOp10
 70
     1
102
RTVSPropertyOp11
 70
     1
102
RTVSPropertyOp12
 70
     1
102
RTVSPropertyOp13
 70
     1
102
RTVSPropertyOp14
 70
     1
102
RTVSPropertyOp15
 70
     1
102
RTVSPropertyOp16
 70
     1
102
RTVSPropertyOp17
 70
     1
102
RTVSPropertyOp18
 70
     1
102
RTVSPropertyOp19
 70
     1
102
RTVSPropertyOp20
 70
     1
102
RTVSPropertyOp21
 70
     1
102
RTVSPropertyOp22
 70
     1
102
RTVSPropertyOp23
 70
     1
102
RTVSPropertyOp24
 70
     1
102
RTVSPropertyOp25
 70
     1
102
RTVSPropertyOp26
 70
     1
102
RTVSPropertyOp27
 70
     1
  0
XRECORD
  5
CCC
102
{ACAD_REACTORS
330
CCB
102
}
330
CCB
100
AcDbXrecord
280
     1
102
RTVSPropertyOp0
 70
     1
102
RTVSPropertyOp1
 70
     1
102
RTVSPropertyOp2
 70
     1
102
RTVSPropertyOp3
 70
     1
102
RTVSPropertyOp4
 70
     1
102
RTVSPropertyOp5
 70
     1
102
RTVSPropertyOp6
 70
     1
102
RTVSPropertyOp7
 70
     1
102
RTVSPropertyOp8
 70
     1
102
RTVSPropertyOp9
 70
     1
102
RTVSPropertyOp10
 70
     1
102
RTVSPropertyOp11
 70
     1
102
RTVSPropertyOp12
 70
     1
102
RTVSPropertyOp13
 70
     1
102
RTVSPropertyOp14
 70
     1
102
RTVSPropertyOp15
 70
     1
102
RTVSPropertyOp16
 70
     1
102
RTVSPropertyOp17
 70
     1
102
RTVSPropertyOp18
 70
     1
102
RTVSPropertyOp19
 70
     1
102
RTVSPropertyOp20
 70
     1
102
RTVSPropertyOp21
 70
     1
102
RTVSPropertyOp22
 70
     1
102
RTVSPropertyOp23
 70
     1
102
RTVSPropertyOp24
 70
     1
102
RTVSPropertyOp25
 70
     1
102
RTVSPropertyOp26
 70
     1
102
RTVSPropertyOp27
 70
     1
  0
XRECORD
  5
CB0
102
{ACAD_REACTORS
330
CAF
102
}
330
CAF
100
AcDbXrecord
280
     1
102
RTVSPropertyOp0
 70
     1
102
RTVSPropertyOp1
 70
     1
102
RTVSPropertyOp2
 70
     1
102
RTVSPropertyOp3
 70
     1
102
RTVSPropertyOp4
 70
     1
102
RTVSPropertyOp5
 70
     1
102
RTVSPropertyOp6
 70
     1
102
RTVSPropertyOp7
 70
     1
102
RTVSPropertyOp8
 70
     1
102
RTVSPropertyOp9
 70
     1
102
RTVSPropertyOp10
 70
     1
102
RTVSPropertyOp11
 70
     1
102
RTVSPropertyOp12
 70
     1
102
RTVSPropertyOp13
 70
     1
102
RTVSPropertyOp14
 70
     1
102
RTVSPropertyOp15
 70
     1
102
RTVSPropertyOp16
 70
     1
102
RTVSPropertyOp17
 70
     1
102
RTVSPropertyOp18
 70
     1
102
RTVSPropertyOp19
 70
     1
102
RTVSPropertyOp20
 70
     1
102
RTVSPropertyOp21
 70
     1
102
RTVSPropertyOp22
 70
     1
102
RTVSPropertyOp23
 70
     1
102
RTVSPropertyOp24
 70
     1
102
RTVSPropertyOp25
 70
     1
102
RTVSPropertyOp26
 70
     1
102
RTVSPropertyOp27
 70
     1
  0
XRECORD
  5
CB2
102
{ACAD_REACTORS
330
CB1
102
}
330
CB1
100
AcDbXrecord
280
     1
102
RTVSPropertyOp0
 70
     1
102
RTVSPropertyOp1
 70
     1
102
RTVSPropertyOp2
 70
     1
102
RTVSPropertyOp3
 70
     1
102
RTVSPropertyOp4
 70
     1
102
RTVSPropertyOp5
 70
     1
102
RTVSPropertyOp6
 70
     1
102
RTVSPropertyOp7
 70
     1
102
RTVSPropertyOp8
 70
     1
102
RTVSPropertyOp9
 70
     1
102
RTVSPropertyOp10
 70
     1
102
RTVSPropertyOp11
 70
     1
102
RTVSPropertyOp12
 70
     1
102
RTVSPropertyOp13
 70
     1
102
RTVSPropertyOp14
 70
     1
102
RTVSPropertyOp15
 70
     1
102
RTVSPropertyOp16
 70
     1
102
RTVSPropertyOp17
 70
     1
102
RTVSPropertyOp18
 70
     1
102
RTVSPropertyOp19
 70
     1
102
RTVSPropertyOp20
 70
     1
102
RTVSPropertyOp21
 70
     1
102
RTVSPropertyOp22
 70
     1
102
RTVSPropertyOp23
 70
     1
102
RTVSPropertyOp24
 70
     1
102
RTVSPropertyOp25
 70
     1
102
RTVSPropertyOp26
 70
     1
102
RTVSPropertyOp27
 70
     1
  0
XRECORD
  5
CB4
102
{ACAD_REACTORS
330
CB3
102
}
330
CB3
100
AcDbXrecord
280
     1
102
RTVSPropertyOp0
 70
     1
102
RTVSPropertyOp1
 70
     1
102
RTVSPropertyOp2
 70
     1
102
RTVSPropertyOp3
 70
     1
102
RTVSPropertyOp4
 70
     1
102
RTVSPropertyOp5
 70
     1
102
RTVSPropertyOp6
 70
     1
102
RTVSPropertyOp7
 70
     1
102
RTVSPropertyOp8
 70
     1
102
RTVSPropertyOp9
 70
     1
102
RTVSPropertyOp10
 70
     1
102
RTVSPropertyOp11
 70
     1
102
RTVSPropertyOp12
 70
     1
102
RTVSPropertyOp13
 70
     1
102
RTVSPropertyOp14
 70
     1
102
RTVSPropertyOp15
 70
     1
102
RTVSPropertyOp16
 70
     1
102
RTVSPropertyOp17
 70
     1
102
RTVSPropertyOp18
 70
     1
102
RTVSPropertyOp19
 70
     1
102
RTVSPropertyOp20
 70
     1
102
RTVSPropertyOp21
 70
     1
102
RTVSPropertyOp22
 70
     1
102
RTVSPropertyOp23
 70
     1
102
RTVSPropertyOp24
 70
     1
102
RTVSPropertyOp25
 70
     1
102
RTVSPropertyOp26
 70
     1
102
RTVSPropertyOp27
 70
     1
  0
XRECORD
  5
CB6
102
{ACAD_REACTORS
330
CB5
102
}
330
CB5
100
AcDbXrecord
280
     1
102
RTVSPropertyOp0
 70
     1
102
RTVSPropertyOp1
 70
     1
102
RTVSPropertyOp2
 70
     1
102
RTVSPropertyOp3
 70
     1
102
RTVSPropertyOp4
 70
     1
102
RTVSPropertyOp5
 70
     1
102
RTVSPropertyOp6
 70
     1
102
RTVSPropertyOp7
 70
     1
102
RTVSPropertyOp8
 70
     1
102
RTVSPropertyOp9
 70
     1
102
RTVSPropertyOp10
 70
     1
102
RTVSPropertyOp11
 70
     1
102
RTVSPropertyOp12
 70
     1
102
RTVSPropertyOp13
 70
     1
102
RTVSPropertyOp14
 70
     1
102
RTVSPropertyOp15
 70
     1
102
RTVSPropertyOp16
 70
     1
102
RTVSPropertyOp17
 70
     1
102
RTVSPropertyOp18
 70
     1
102
RTVSPropertyOp19
 70
     1
102
RTVSPropertyOp20
 70
     1
102
RTVSPropertyOp21
 70
     1
102
RTVSPropertyOp22
 70
     1
102
RTVSPropertyOp23
 70
     1
102
RTVSPropertyOp24
 70
     1
102
RTVSPropertyOp25
 70
     1
102
RTVSPropertyOp26
 70
     1
102
RTVSPropertyOp27
 70
     1
  0
XRECORD
  5
CCA
102
{ACAD_REACTORS
330
CC9
102
}
330
CC9
100
AcDbXrecord
280
     1
102
RTVSPropertyOp0
 70
     1
102
RTVSPropertyOp1
 70
     1
102
RTVSPropertyOp2
 70
     1
102
RTVSPropertyOp3
 70
     1
102
RTVSPropertyOp4
 70
     1
102
RTVSPropertyOp5
 70
     1
102
RTVSPropertyOp6
 70
     1
102
RTVSPropertyOp7
 70
     1
102
RTVSPropertyOp8
 70
     1
102
RTVSPropertyOp9
 70
     1
102
RTVSPropertyOp10
 70
     1
102
RTVSPropertyOp11
 70
     1
102
RTVSPropertyOp12
 70
     1
102
RTVSPropertyOp13
 70
     1
102
RTVSPropertyOp14
 70
     1
102
RTVSPropertyOp15
 70
     1
102
RTVSPropertyOp16
 70
     1
102
RTVSPropertyOp17
 70
     1
102
RTVSPropertyOp18
 70
     1
102
RTVSPropertyOp19
 70
     1
102
RTVSPropertyOp20
 70
     1
102
RTVSPropertyOp21
 70
     1
102
RTVSPropertyOp22
 70
     1
102
RTVSPropertyOp23
 70
     1
102
RTVSPropertyOp24
 70
     1
102
RTVSPropertyOp25
 70
     1
102
RTVSPropertyOp26
 70
     1
102
RTVSPropertyOp27
 70
     1
  0
XRECORD
  5
CC0
102
{ACAD_REACTORS
330
CBF
102
}
330
CBF
100
AcDbXrecord
280
     1
102
RTVSPropertyOp0
 70
     1
102
RTVSPropertyOp1
 70
     1
102
RTVSPropertyOp2
 70
     1
102
RTVSPropertyOp3
 70
     1
102
RTVSPropertyOp4
 70
     1
102
RTVSPropertyOp5
 70
     1
102
RTVSPropertyOp6
 70
     1
102
RTVSPropertyOp7
 70
     1
102
RTVSPropertyOp8
 70
     1
102
RTVSPropertyOp9
 70
     1
102
RTVSPropertyOp10
 70
     1
102
RTVSPropertyOp11
 70
     1
102
RTVSPropertyOp12
 70
     1
102
RTVSPropertyOp13
 70
     1
102
RTVSPropertyOp14
 70
     1
102
RTVSPropertyOp15
 70
     1
102
RTVSPropertyOp16
 70
     1
102
RTVSPropertyOp17
 70
     1
102
RTVSPropertyOp18
 70
     1
102
RTVSPropertyOp19
 70
     1
102
RTVSPropertyOp20
 70
     1
102
RTVSPropertyOp21
 70
     1
102
RTVSPropertyOp22
 70
     1
102
RTVSPropertyOp23
 70
     1
102
RTVSPropertyOp24
 70
     1
102
RTVSPropertyOp25
 70
     1
102
RTVSPropertyOp26
 70
     1
102
RTVSPropertyOp27
 70
     1
  0
XRECORD
  5
CC8
102
{ACAD_REACTORS
330
CC7
102
}
330
CC7
100
AcDbXrecord
280
     1
102
RTVSPropertyOp0
 70
     1
102
RTVSPropertyOp1
 70
     1
102
RTVSPropertyOp2
 70
     1
102
RTVSPropertyOp3
 70
     1
102
RTVSPropertyOp4
 70
     1
102
RTVSPropertyOp5
 70
     1
102
RTVSPropertyOp6
 70
     1
102
RTVSPropertyOp7
 70
     1
102
RTVSPropertyOp8
 70
     1
102
RTVSPropertyOp9
 70
     1
102
RTVSPropertyOp10
 70
     1
102
RTVSPropertyOp11
 70
     1
102
RTVSPropertyOp12
 70
     1
102
RTVSPropertyOp13
 70
     1
102
RTVSPropertyOp14
 70
     1
102
RTVSPropertyOp15
 70
     1
102
RTVSPropertyOp16
 70
     1
102
RTVSPropertyOp17
 70
     1
102
RTVSPropertyOp18
 70
     1
102
RTVSPropertyOp19
 70
     1
102
RTVSPropertyOp20
 70
     1
102
RTVSPropertyOp21
 70
     1
102
RTVSPropertyOp22
 70
     1
102
RTVSPropertyOp23
 70
     1
102
RTVSPropertyOp24
 70
     1
102
RTVSPropertyOp25
 70
     1
102
RTVSPropertyOp26
 70
     1
102
RTVSPropertyOp27
 70
     1
  0
ENDSEC
  0
EOF
