  0
SECTION
  2
HEADER
  9
$ACADVER
  1
AC1015
  9
$ACADMAINTVER
 70
     6
  9
$DWGCODEPAGE
  3
ANSI_1252
  9
$INSBASE
 10
0.0
 20
0.0
 30
0.0
  9
$EXTMIN
 10
0.0
 20
0.0
 30
0.0
  9
$EXTMAX
 10
25.0
 20
35.0
 30
0.0
  9
$LIMMIN
 10
0.0
 20
0.0
  9
$LIMMAX
 10
420.0
 20
297.0
  9
$ORTHOMODE
 70
     0
  9
$REGENMODE
 70
     1
  9
$FILLMODE
 70
     1
  9
$QTEXTMODE
 70
     0
  9
$MIRRTEXT
 70
     1
  9
$LTSCALE
 40
4.2
  9
$ATTMODE
 70
     1
  9
$TEXTSIZE
 40
2.5
  9
$TRACEWID
 40
1.0
  9
$TEXTSTYLE
  7
Standard
  9
$CLAYER
  8
0
  9
$CELTYPE
  6
ByLayer
  9
$CECOLOR
 62
   256
  9
$CELTSCALE
 40
1.0
  9
$DISPSILH
 70
     0
  9
$DIMSCALE
 40
1.0
  9
$DIMASZ
 40
2.5
  9
$DIMEXO
 40
0.625
  9
$DIMDLI
 40
3.75
  9
$DIMRND
 40
0.0
  9
$DIMDLE
 40
0.0
  9
$DIMEXE
 40
1.25
  9
$DIMTP
 40
0.0
  9
$DIMTM
 40
0.0
  9
$DIMTXT
 40
2.5
  9
$DIMCEN
 40
2.5
  9
$DIMTSZ
 40
0.0
  9
$DIMTOL
 70
     0
  9
$DIMLIM
 70
     0
  9
$DIMTIH
 70
     0
  9
$DIMTOH
 70
     0
  9
$DIMSE1
 70
     0
  9
$DIMSE2
 70
     0
  9
$DIMTAD
 70
     1
  9
$DIMZIN
 70
     8
  9
$DIMBLK
  1

  9
$DIMASO
 70
     1
  9
$DIMSHO
 70
     1
  9
$DIMPOST
  1

  9
$DIMAPOST
  1

  9
$DIMALT
 70
     0
  9
$DIMALTD
 70
     3
  9
$DIMALTF
 40
0.03937007874016
  9
$DIMLFAC
 40
1.0
  9
$DIMTOFL
 70
     1
  9
$DIMTVP
 40
0.0
  9
$DIMTIX
 70
     0
  9
$DIMSOXD
 70
     0
  9
$DIMSAH
 70
     0
  9
$DIMBLK1
  1

  9
$DIMBLK2
  1

  9
$DIMSTYLE
  2
ISO-25
  9
$DIMCLRD
 70
     0
  9
$DIMCLRE
 70
     0
  9
$DIMCLRT
 70
     0
  9
$DIMTFAC
 40
1.0
  9
$DIMGAP
 40
0.625
  9
$DIMJUST
 70
     0
  9
$DIMSD1
 70
     0
  9
$DIMSD2
 70
     0
  9
$DIMTOLJ
 70
     0
  9
$DIMTZIN
 70
     8
  9
$DIMALTZ
 70
     0
  9
$DIMALTTZ
 70
     0
  9
$DIMUPT
 70
     0
  9
$DIMDEC
 70
     2
  9
$DIMTDEC
 70
     2
  9
$DIMALTU
 70
     2
  9
$DIMALTTD
 70
     3
  9
$DIMTXSTY
  7
Standard
  9
$DIMAUNIT
 70
     0
  9
$DIMADEC
 70
     0
  9
$DIMALTRND
 40
0.0
  9
$DIMAZIN
 70
     0
  9
$DIMDSEP
 70
    44
  9
$DIMATFIT
 70
     3
  9
$DIMFRAC
 70
     0
  9
$DIMLDRBLK
  1

  9
$DIMLUNIT
 70
     2
  9
$DIMLWD
 70
    -2
  9
$DIMLWE
 70
    -2
  9
$DIMTMOVE
 70
     0
  9
$LUNITS
 70
     2
  9
$LUPREC
 70
     4
  9
$SKETCHINC
 40
1.0
  9
$FILLETRAD
 40
10.0
  9
$AUNITS
 70
     0
  9
$AUPREC
 70
     0
  9
$MENU
  1
.
  9
$ELEVATION
 40
0.0
  9
$PELEVATION
 40
0.0
  9
$THICKNESS
 40
0.0
  9
$LIMCHECK
 70
     0
  9
$CHAMFERA
 40
10.0
  9
$CHAMFERB
 40
10.0
  9
$CHAMFERC
 40
20.0
  9
$CHAMFERD
 40
0.0
  9
$SKPOLY
 70
     0
  9
$TDCREATE
 40
2458576.847916667
  9
$TDUCREATE
 40
2458576.764583333
  9
$TDUPDATE
 40
2458576.851388889
  9
$TDUUPDATE
 40
2458576.768055555
  9
$TDINDWG
 40
0.0000000116
  9
$TDUSRTIMER
 40
0.0000000116
  9
$USRTIMER
 70
     1
  9
$ANGBASE
 50
0.0
  9
$ANGDIR
 70
     0
  9
$PDMODE
 70
     0
  9
$PDSIZE
 40
0.0
  9
$PLINEWID
 40
0.0
  9
$SPLFRAME
 70
     0
  9
$SPLINETYPE
 70
     6
  9
$SPLINESEGS
 70
     8
  9
$HANDSEED
  5
9BF
  9
$SURFTAB1
 70
     6
  9
$SURFTAB2
 70
     6
  9
$SURFTYPE
 70
     6
  9
$SURFU
 70
     6
  9
$SURFV
 70
     6
  9
$UCSBASE
  2

  9
$UCSNAME
  2

  9
$UCSORG
 10
0.0
 20
0.0
 30
0.0
  9
$UCSXDIR
 10
1.0
 20
0.0
 30
0.0
  9
$UCSYDIR
 10
0.0
 20
1.0
 30
0.0
  9
$UCSORTHOREF
  2

  9
$UCSORTHOVIEW
 70
     0
  9
$UCSORGTOP
 10
0.0
 20
0.0
 30
0.0
  9
$UCSORGBOTTOM
 10
0.0
 20
0.0
 30
0.0
  9
$UCSORGLEFT
 10
0.0
 20
0.0
 30
0.0
  9
$UCSORGRIGHT
 10
0.0
 20
0.0
 30
0.0
  9
$UCSORGFRONT
 10
0.0
 20
0.0
 30
0.0
  9
$UCSORGBACK
 10
0.0
 20
0.0
 30
0.0
  9
$PUCSBASE
  2

  9
$PUCSNAME
  2

  9
$PUCSORG
 10
0.0
 20
0.0
 30
0.0
  9
$PUCSXDIR
 10
1.0
 20
0.0
 30
0.0
  9
$PUCSYDIR
 10
0.0
 20
1.0
 30
0.0
  9
$PUCSORTHOREF
  2

  9
$PUCSORTHOVIEW
 70
     0
  9
$PUCSORGTOP
 10
0.0
 20
0.0
 30
0.0
  9
$PUCSORGBOTTOM
 10
0.0
 20
0.0
 30
0.0
  9
$PUCSORGLEFT
 10
0.0
 20
0.0
 30
0.0
  9
$PUCSORGRIGHT
 10
0.0
 20
0.0
 30
0.0
  9
$PUCSORGFRONT
 10
0.0
 20
0.0
 30
0.0
  9
$PUCSORGBACK
 10
0.0
 20
0.0
 30
0.0
  9
$USERI1
 70
     0
  9
$USERI2
 70
     0
  9
$USERI3
 70
     0
  9
$USERI4
 70
     0
  9
$USERI5
 70
     0
  9
$USERR1
 40
0.0
  9
$USERR2
 40
0.0
  9
$USERR3
 40
0.0
  9
$USERR4
 40
0.0
  9
$USERR5
 40
0.0
  9
$WORLDVIEW
 70
     1
  9
$SHADEDGE
 70
     3
  9
$SHADEDIF
 70
    70
  9
$TILEMODE
 70
     1
  9
$MAXACTVP
 70
    64
  9
$PINSBASE
 10
0.0
 20
0.0
 30
0.0
  9
$PLIMCHECK
 70
     0
  9
$PEXTMIN
 10
1.000000000000000E+20
 20
1.000000000000000E+20
 30
1.000000000000000E+20
  9
$PEXTMAX
 10
-1.000000000000000E+20
 20
-1.000000000000000E+20
 30
-1.000000000000000E+20
  9
$PLIMMIN
 10
0.0
 20
0.0
  9
$PLIMMAX
 10
420.0
 20
297.0
  9
$UNITMODE
 70
     0
  9
$VISRETAIN
 70
     1
  9
$PLINEGEN
 70
     0
  9
$PSLTSCALE
 70
     1
  9
$TREEDEPTH
 70
  3020
  9
$CMLSTYLE
  2
Standard
  9
$CMLJUST
 70
     0
  9
$CMLSCALE
 40
20.0
  9
$PROXYGRAPHICS
 70
     1
  9
$MEASUREMENT
 70
     1
  9
$CELWEIGHT
370
    -1
  9
$ENDCAPS
280
     0
  9
$JOINSTYLE
280
     0
  9
$LWDISPLAY
290
     0
  9
$INSUNITS
 70
     4
  9
$HYPERLINKBASE
  1

  9
$STYLESHEET
  1

  9
$XEDIT
290
     1
  9
$CEPSNTYPE
380
     0
  9
$PSTYLEMODE
290
     1
  9
$FINGERPRINTGUID
  2
{3E447D47-5349-4915-80B0-B681CBB3DBB9}
  9
$VERSIONGUID
  2
{FAEB1C32-E019-11D5-929B-00C0DF256EC4}
  9
$EXTNAMES
290
     1
  9
$PSVPSCALE
 40
0.0
  9
$OLESTARTUP
290
     0
  0
ENDSEC
  0
SECTION
  2
CLASSES
  0
CLASS
  1
ACDBDICTIONARYWDFLT
  2
AcDbDictionaryWithDefault
  3
ObjectDBX Classes
 90
        0
280
     0
281
     0
  0
CLASS
  1
VISUALSTYLE
  2
AcDbVisualStyle
  3
ObjectDBX Classes
 90
     4095
280
     0
281
     0
  0
CLASS
  1
MATERIAL
  2
AcDbMaterial
  3
ObjectDBX Classes
 90
     1153
280
     0
281
     0
  0
CLASS
  1
SCALE
  2
AcDbScale
  3
ObjectDBX Classes
 90
     1153
280
     0
281
     0
  0
CLASS
  1
DICTIONARYVAR
  2
AcDbDictionaryVar
  3
ObjectDBX Classes
 90
        0
280
     0
281
     0
  0
CLASS
  1
ACDBPLACEHOLDER
  2
AcDbPlaceHolder
  3
ObjectDBX Classes
 90
        0
280
     0
281
     0
  0
CLASS
  1
LAYOUT
  2
AcDbLayout
  3
ObjectDBX Classes
 90
        0
280
     0
281
     0
  0
ENDSEC
  0
SECTION
  2
TABLES
  0
TABLE
  2
VPORT
  5
8
330
0
100
AcDbSymbolTable
 70
     1
  0
VPORT
  5
29
330
8
100
AcDbSymbolTableRecord
100
AcDbViewportTableRecord
  2
*Active
 70
     0
 10
0.0
 20
0.0
 11
1.0
 21
1.0
 12
11.26
 22
4.5
 13
0.0
 23
0.0
 14
10.0
 24
10.0
 15
10.0
 25
10.0
 16
0.0
 26
0.0
 36
1.0
 17
0.0
 27
0.0
 37
0.0
 40
9.0
 41
2.503333333333333
 42
50.0
 43
0.0
 44
0.0
 50
0.0
 51
0.0
 71
     0
 72
   100
 73
     1
 74
     3
 75
     0
 76
     0
 77
     0
 78
     0
281
     0
 65
     1
110
0.0
120
0.0
130
0.0
111
1.0
121
0.0
131
0.0
112
0.0
122
1.0
132
0.0
 79
     0
146
0.0
  0
ENDTAB
  0
TABLE
  2
LTYPE
  5
5
330
0
100
AcDbSymbolTable
 70
    10
  0
LTYPE
  5
14
330
5
100
AcDbSymbolTableRecord
100
AcDbLinetypeTableRecord
  2
ByBlock
 70
     0
  3

 72
    65
 73
     0
 40
0.0
  0
LTYPE
  5
15
330
5
100
AcDbSymbolTableRecord
100
AcDbLinetypeTableRecord
  2
ByLayer
 70
     0
  3

 72
    65
 73
     0
 40
0.0
  0
LTYPE
  5
16
330
5
100
AcDbSymbolTableRecord
100
AcDbLinetypeTableRecord
  2
Continuous
 70
     0
  3
Solid line
 72
    65
 73
     0
 40
0.0
  0
LTYPE
  5
45
330
5
100
AcDbSymbolTableRecord
100
AcDbLinetypeTableRecord
  2
phl_thick
 70
     0
  3
THICK
 72
    65
 73
     0
 40
0.0
  0
LTYPE
  5
2E8
330
5
100
AcDbSymbolTableRecord
100
AcDbLinetypeTableRecord
  2
CUT
 70
     0
  3
THICK
 72
    65
 73
     0
 40
0.0
  0
LTYPE
  5
2EF
330
5
100
AcDbSymbolTableRecord
100
AcDbLinetypeTableRecord
  2
NOCUT
 70
     0
  3
THICK
 72
    65
 73
     0
 40
0.0
  0
LTYPE
  5
2F5
330
5
100
AcDbSymbolTableRecord
100
AcDbLinetypeTableRecord
  2
SK1
 70
     0
  3
THICK
 72
    65
 73
     0
 40
0.0
  0
LTYPE
  5
2FD
330
5
100
AcDbSymbolTableRecord
100
AcDbLinetypeTableRecord
  2
ls_SK2
 70
     0
  3
THIN
 72
    65
 73
     0
 40
0.0
  0
LTYPE
  5
3AA
330
5
100
AcDbSymbolTableRecord
100
AcDbLinetypeTableRecord
  2
ls_2
 70
     0
  3
THIN
 72
    65
 73
     0
 40
0.0
  0
LTYPE
  5
4BB
330
5
100
AcDbSymbolTableRecord
100
AcDbLinetypeTableRecord
  2
ls_SK1
 70
     0
  3
THICK
 72
    65
 73
     0
 40
0.0
  0
LTYPE
  5
4F5
330
5
100
AcDbSymbolTableRecord
100
AcDbLinetypeTableRecord
  2
LONGDASH_DASH
 70
     0
  3
THIN_DASHDOT
 72
    65
 73
     4
 40
0.85
 49
0.4
 74
     0
 49
-0.2
 74
     0
 49
0.05
 74
     0
 49
-0.2
 74
     0
  0
LTYPE
  5
4FA
330
5
100
AcDbSymbolTableRecord
100
AcDbLinetypeTableRecord
  2
ls1
 70
     0
  3
THICK
 72
    65
 73
     0
 40
0.0
  0
ENDTAB
  0
TABLE
  2
LAYER
  5
2
330
0
100
AcDbSymbolTable
 70
    10
  0
LAYER
  5
10
330
2
100
AcDbSymbolTableRecord
100
AcDbLayerTableRecord
  2
0
 70
     0
 62
     7
  6
Continuous
370
    -3
390
F
  0
LAYER
  5
44
330
2
100
AcDbSymbolTableRecord
100
AcDbLayerTableRecord
  2
1
 70
     0
 62
4
  6
CONTINUOUS
370
50
370
    -3
390
F
  0
LAYER
  5
2E7
330
2
100
AcDbSymbolTableRecord
100
AcDbLayerTableRecord
  2
CUT
 70
     0
 62
1
  6
CONTINUOUS
370
25
370
    -3
390
F
  0
LAYER
  5
2EE
330
2
100
AcDbSymbolTableRecord
100
AcDbLayerTableRecord
  2
NOCUT
 70
     0
 62
7
  6
CONTINUOUS
370
25
370
    -3
390
F
  0
LAYER
  5
2F4
330
2
100
AcDbSymbolTableRecord
100
AcDbLayerTableRecord
  2
SK1
 70
     0
 62
4
  6
CONTINUOUS
370
50
370
    -3
390
F
  0
LAYER
  5
2FC
330
2
100
AcDbSymbolTableRecord
100
AcDbLayerTableRecord
  2
SK2
 70
     0
 62
7
  6
CONTINUOUS
370
25
370
    -3
390
F
  0
LAYER
  5
3A9
330
2
100
AcDbSymbolTableRecord
100
AcDbLayerTableRecord
  2
2
 70
     0
 62
7
  6
CONTINUOUS
370
25
370
    -3
390
F
  0
LAYER
  5
4F4
330
2
100
AcDbSymbolTableRecord
100
AcDbLayerTableRecord
  2
4
 70
     0
 62
2
  6
LONGDASH_DASH
370
25
370
    -3
390
F
  0
LAYER
  5
4F7
330
2
100
AcDbSymbolTableRecord
100
AcDbLayerTableRecord
  2
SK4
 70
     0
 62
2
  6
LONGDASH_DASH
370
25
370
    -3
390
F
  0
LAYER
  5
4F9
330
2
100
AcDbSymbolTableRecord
100
AcDbLayerTableRecord
  2
SK6
 70
     0
 62
5
  6
CONTINUOUS
370
25
370
    -3
390
F
  0
ENDTAB
  0
TABLE
  2
STYLE
  5
3
330
0
100
AcDbSymbolTable
 70
     1
  0
STYLE
  5
11
330
3
100
AcDbSymbolTableRecord
100
AcDbTextStyleTableRecord
  2
Standard
 70
     0
 40
0.0
 41
1.0
 50
0.0
 71
     0
 42
2.5
  3
Monospac821 BT
  4

  0
ENDTAB
  0
TABLE
  2
VIEW
  5
6
330
0
100
AcDbSymbolTable
 70
     0
  0
ENDTAB
  0
TABLE
  2
UCS
  5
7
330
0
100
AcDbSymbolTable
 70
     0
  0
ENDTAB
  0
TABLE
  2
APPID
  5
9
330
0
100
AcDbSymbolTable
 70
     2
  0
APPID
  5
12
330
9
100
AcDbSymbolTableRecord
100
AcDbRegAppTableRecord
  2
ACAD
 70
     0
  0
APPID
  5
3F
330
9
100
AcDbSymbolTableRecord
100
AcDbRegAppTableRecord
  2
ccLab
 70
     0
  0
ENDTAB
  0
TABLE
  2
DIMSTYLE
  5
A
330
0
100
AcDbSymbolTable
 70
     1
100
AcDbDimStyleTable
  0
DIMSTYLE
105
27
330
A
100
AcDbSymbolTableRecord
100
AcDbDimStyleTableRecord
  2
ISO-25
 70
     0
 41
2.5
 42
0.625
 43
3.75
 44
1.25
 73
     0
 74
     0
 77
     1
 78
     8
140
2.5
141
2.5
143
0.03937007874016
147
0.625
171
     3
172
     1
271
     2
272
     2
274
     3
278
    44
283
     0
284
     8
340
11
  0
ENDTAB
  0
TABLE
  2
BLOCK_RECORD
  5
1
330
0
100
AcDbSymbolTable
 70
     2
  0
BLOCK_RECORD
  5
1F
330
1
100
AcDbSymbolTableRecord
100
AcDbBlockTableRecord
  2
*Model_Space
340
22
  0
BLOCK_RECORD
  5
1B
330
1
100
AcDbSymbolTableRecord
100
AcDbBlockTableRecord
  2
*Paper_Space
340
1E
  0
BLOCK_RECORD
  5
23
330
1
100
AcDbSymbolTableRecord
100
AcDbBlockTableRecord
  2
*Paper_Space0
340
26
  0
ENDTAB
  0
ENDSEC
  0
SECTION
  2
BLOCKS
  0
BLOCK
  5
20
330
1F
100
AcDbEntity
  8
0
100
AcDbBlockBegin
  2
*Model_Space
 70
     0
 10
0.0
 20
0.0
 30
0.0
  3
*Model_Space
  1

  0
ENDBLK
  5
21
330
1F
100
AcDbEntity
  8
0
100
AcDbBlockEnd
  0
BLOCK
  5
1C
330
1B
100
AcDbEntity
 67
     1
  8
0
100
AcDbBlockBegin
  2
*Paper_Space
 70
     0
 10
0.0
 20
0.0
 30
0.0
  3
*Paper_Space
  1

  0
ENDBLK
  5
1D
330
1B
100
AcDbEntity
 67
     1
  8
0
100
AcDbBlockEnd
  0
BLOCK
  5
24
330
23
100
AcDbEntity
  8
0
100
AcDbBlockBegin
  2
*Paper_Space0
 70
     0
 10
0.0
 20
0.0
 30
0.0
  3
*Paper_Space0
  1

  0
ENDBLK
  5
25
330
23
100
AcDbEntity
  8
0
100
AcDbBlockEnd
  0
ENDSEC
  0
SECTION
  2
ENTITIES
  0
LINE
  5
504
330
1F
100
AcDbEntity
  8
1
  6
CONTINUOUS
370
50
 62
4
100
AcDbLine
 10
67.668205
 20
-0.801744
 30
0.0
 11
67.668144
 21
-0.759301
 31
0.0
  0
LINE
  5
505
330
1F
100
AcDbEntity
  8
1
  6
CONTINUOUS
370
50
 62
4
100
AcDbLine
 10
67.660805
 20
-1.195663
 30
0.0
 11
67.660355
 21
-1.065153
 31
0.0
  0
LINE
  5
506
330
1F
100
AcDbEntity
  8
1
  6
CONTINUOUS
370
50
 62
4
100
AcDbLine
 10
67.668144
 20
-0.759301
 30
0.0
 11
67.667397
 21
-0.716974
 31
0.0
  0
LINE
  5
507
330
1F
100
AcDbEntity
  8
1
  6
CONTINUOUS
370
50
 62
4
100
AcDbLine
 10
67.663658
 20
-1.325784
 30
0.0
 11
67.660805
 21
-1.195663
 31
0.0
  0
LINE
  5
508
330
1F
100
AcDbEntity
  8
1
  6
CONTINUOUS
370
50
 62
4
100
AcDbLine
 10
67.667397
 20
-0.716974
 30
0.0
 11
67.66597
 21
-0.674836
 31
0.0
  0
LINE
  5
509
330
1F
100
AcDbEntity
  8
1
  6
CONTINUOUS
370
50
 62
4
100
AcDbLine
 10
67.010941
 20
-0.29896
 30
0.0
 11
67.00907099999999
 21
-0.252796
 31
0.0
  0
LINE
  5
50A
330
1F
100
AcDbEntity
  8
1
  6
CONTINUOUS
370
50
 62
4
100
AcDbLine
 10
67.668915
 20
-1.455219
 30
0.0
 11
67.663658
 21
-1.325784
 31
0.0
  0
LINE
  5
50B
330
1F
100
AcDbEntity
  8
1
  6
CONTINUOUS
370
50
 62
4
100
AcDbLine
 10
67.66597
 20
-0.674836
 30
0.0
 11
67.663879
 21
-0.632962
 31
0.0
  0
LINE
  5
50C
330
1F
100
AcDbEntity
  8
1
  6
CONTINUOUS
370
50
 62
4
100
AcDbLine
 10
46.066101
 20
-0.7558539999999999
 30
0.0
 11
46.063877
 21
-0.7142689999999999
 31
0.0
  0
LINE
  5
50D
330
1F
100
AcDbEntity
  8
1
  6
CONTINUOUS
370
50
 62
4
100
AcDbLine
 10
67.676575
 20
-1.583675
 30
0.0
 11
67.668915
 21
-1.455219
 31
0.0
  0
LINE
  5
50E
330
1F
100
AcDbEntity
  8
1
  6
CONTINUOUS
370
50
 62
4
100
AcDbLine
 10
67.663879
 20
-0.632962
 30
0.0
 11
67.661125
 21
-0.591426
 31
0.0
  0
LINE
  5
50F
330
1F
100
AcDbEntity
  8
1
  6
CONTINUOUS
370
50
 62
4
100
AcDbLine
 10
67.011116
 20
1.539996
 30
0.0
 11
67.009666
 21
1.561457
 31
0.0
  0
LINE
  5
510
330
1F
100
AcDbEntity
  8
1
  6
CONTINUOUS
370
50
 62
4
100
AcDbLine
 10
67.686638
 20
-1.710803
 30
0.0
 11
67.676575
 21
-1.583675
 31
0.0
  0
LINE
  5
511
330
1F
100
AcDbEntity
  8
1
  6
CONTINUOUS
370
50
 62
4
100
AcDbLine
 10
67.00907099999999
 20
-0.252796
 30
0.0
 11
67.005371
 21
-0.207933
 31
0.0
  0
LINE
  5
512
330
1F
100
AcDbEntity
  8
1
  6
CONTINUOUS
370
50
 62
4
100
AcDbLine
 10
67.661125
 20
-0.591426
 30
0.0
 11
67.65773
 21
-0.5503859999999999
 31
0.0
  0
LINE
  5
513
330
1F
100
AcDbEntity
  8
1
  6
CONTINUOUS
370
50
 62
4
100
AcDbLine
 10
67.65773
 20
-0.5503859999999999
 30
0.0
 11
67.653725
 21
-0.5099699999999999
 31
0.0
  0
LINE
  5
514
330
1F
100
AcDbEntity
  8
1
  6
CONTINUOUS
370
50
 62
4
100
AcDbLine
 10
67.699005
 20
-1.835541
 30
0.0
 11
67.686638
 21
-1.710803
 31
0.0
  0
LINE
  5
515
330
1F
100
AcDbEntity
  8
1
  6
CONTINUOUS
370
50
 62
4
100
AcDbLine
 10
67.713623
 20
-1.957387
 30
0.0
 11
67.699005
 21
-1.835541
 31
0.0
  0
LINE
  5
516
330
1F
100
AcDbEntity
  8
1
  6
CONTINUOUS
370
50
 62
4
100
AcDbLine
 10
67.005371
 20
-0.207933
 30
0.0
 11
66.999886
 21
-0.164468
 31
0.0
  0
LINE
  5
517
330
1F
100
AcDbEntity
  8
1
  6
CONTINUOUS
370
50
 62
4
100
AcDbLine
 10
67.009666
 20
1.561457
 30
0.0
 11
67.006325
 21
1.585575
 31
0.0
  0
LINE
  5
518
330
1F
100
AcDbEntity
  8
1
  6
CONTINUOUS
370
50
 62
4
100
AcDbLine
 10
67.730415
 20
-2.076102
 30
0.0
 11
67.713623
 21
-1.957387
 31
0.0
  0
LINE
  5
519
330
1F
100
AcDbEntity
  8
1
  6
CONTINUOUS
370
50
 62
4
100
AcDbLine
 10
67.749344
 20
-2.191448
 30
0.0
 11
67.730415
 21
-2.076102
 31
0.0
  0
LINE
  5
51A
330
1F
100
AcDbEntity
  8
1
  6
CONTINUOUS
370
50
 62
4
100
AcDbLine
 10
66.999886
 20
-0.164468
 30
0.0
 11
66.992691
 21
-0.122584
 31
0.0
  0
LINE
  5
51B
330
1F
100
AcDbEntity
  8
1
  6
CONTINUOUS
370
50
 62
4
100
AcDbLine
 10
67.77033999999999
 20
-2.303187
 30
0.0
 11
67.749344
 21
-2.191448
 31
0.0
  0
LINE
  5
51C
330
1F
100
AcDbEntity
  8
1
  6
CONTINUOUS
370
50
 62
4
100
AcDbLine
 10
67.006325
 20
1.585575
 30
0.0
 11
67.00115199999999
 21
1.612218
 31
0.0
  0
LINE
  5
51D
330
1F
100
AcDbEntity
  8
1
  6
CONTINUOUS
370
50
 62
4
100
AcDbLine
 10
46.074284
 20
-0.796769
 30
0.0
 11
46.066101
 21
-0.7558539999999999
 31
0.0
  0
LINE
  5
51E
330
1F
100
AcDbEntity
  8
1
  6
CONTINUOUS
370
50
 62
4
100
AcDbLine
 10
67.793358
 20
-2.41108
 30
0.0
 11
67.77033999999999
 21
-2.303187
 31
0.0
  0
LINE
  5
51F
330
1F
100
AcDbEntity
  8
1
  6
CONTINUOUS
370
50
 62
4
100
AcDbLine
 10
66.992691
 20
-0.122584
 30
0.0
 11
66.98389399999999
 21
-0.082534
 31
0.0
  0
LINE
  5
520
330
1F
100
AcDbEntity
  8
1
  6
CONTINUOUS
370
50
 62
4
100
AcDbLine
 10
67.00115199999999
 20
1.612218
 30
0.0
 11
66.994194
 21
1.641219
 31
0.0
  0
LINE
  5
521
330
1F
100
AcDbEntity
  8
1
  6
CONTINUOUS
370
50
 62
4
100
AcDbLine
 10
67.818291
 20
-2.51473
 30
0.0
 11
67.793358
 21
-2.41108
 31
0.0
  0
LINE
  5
522
330
1F
100
AcDbEntity
  8
1
  6
CONTINUOUS
370
50
 62
4
100
AcDbLine
 10
67.844955
 20
-2.613463
 30
0.0
 11
67.818291
 21
-2.51473
 31
0.0
  0
LINE
  5
523
330
1F
100
AcDbEntity
  8
1
  6
CONTINUOUS
370
50
 62
4
100
AcDbLine
 10
66.98389399999999
 20
-0.082534
 30
0.0
 11
66.973564
 21
-0.04436
 31
0.0
  0
LINE
  5
524
330
1F
100
AcDbEntity
  8
1
  6
CONTINUOUS
370
50
 62
4
100
AcDbLine
 10
66.994194
 20
1.641219
 30
0.0
 11
66.98558
 21
1.672275
 31
0.0
  0
LINE
  5
525
330
1F
100
AcDbEntity
  8
1
  6
CONTINUOUS
370
50
 62
4
100
AcDbLine
 10
67.873245
 20
-2.707119
 30
0.0
 11
67.844955
 21
-2.613463
 31
0.0
  0
LINE
  5
526
330
1F
100
AcDbEntity
  8
1
  6
CONTINUOUS
370
50
 62
4
100
AcDbLine
 10
66.98558
 20
1.672275
 30
0.0
 11
66.975372
 21
1.705223
 31
0.0
  0
LINE
  5
527
330
1F
100
AcDbEntity
  8
1
  6
CONTINUOUS
370
50
 62
4
100
AcDbLine
 10
67.65493
 20
1.470411
 30
0.0
 11
67.653725
 21
1.47414
 31
0.0
  0
LINE
  5
528
330
1F
100
AcDbEntity
  8
1
  6
CONTINUOUS
370
50
 62
4
100
AcDbLine
 10
67.657204
 20
1.463415
 30
0.0
 11
67.656097
 21
1.466836
 31
0.0
  0
LINE
  5
529
330
1F
100
AcDbEntity
  8
1
  6
CONTINUOUS
370
50
 62
4
100
AcDbLine
 10
67.659279
 20
1.457042
 30
0.0
 11
67.658272
 21
1.46015
 31
0.0
  0
LINE
  5
52A
330
1F
100
AcDbEntity
  8
1
  6
CONTINUOUS
370
50
 62
4
100
AcDbLine
 10
67.661537
 20
1.450078
 30
0.0
 11
67.66023299999999
 21
1.454097
 31
0.0
  0
LINE
  5
52B
330
1F
100
AcDbEntity
  8
1
  6
CONTINUOUS
370
50
 62
4
100
AcDbLine
 10
67.671989
 20
1.417913
 30
0.0
 11
67.665459
 21
1.438018
 31
0.0
  0
LINE
  5
52C
330
1F
100
AcDbEntity
  8
1
  6
CONTINUOUS
370
50
 62
4
100
AcDbLine
 10
67.967056
 20
0.509791
 30
0.0
 11
67.93300599999999
 21
0.614603
 31
0.0
  0
LINE
  5
52D
330
1F
100
AcDbEntity
  8
1
  6
CONTINUOUS
370
50
 62
4
100
AcDbLine
 10
67.72365599999999
 20
1.258908
 30
0.0
 11
67.707062
 21
1.309985
 31
0.0
  0
LINE
  5
52E
330
1F
100
AcDbEntity
  8
1
  6
CONTINUOUS
370
50
 62
4
100
AcDbLine
 10
67.812775
 20
0.984622
 30
0.0
 11
67.787224
 21
1.063266
 31
0.0
  0
LINE
  5
52F
330
1F
100
AcDbEntity
  8
1
  6
CONTINUOUS
370
50
 62
4
100
AcDbLine
 10
67.84024
 20
0.9000889999999999
 30
0.0
 11
67.812775
 21
0.984622
 31
0.0
  0
LINE
  5
530
330
1F
100
AcDbEntity
  8
1
  6
CONTINUOUS
370
50
 62
4
100
AcDbLine
 10
67.787224
 20
1.063266
 30
0.0
 11
67.763802
 21
1.135354
 31
0.0
  0
LINE
  5
531
330
1F
100
AcDbEntity
  8
1
  6
CONTINUOUS
370
50
 62
4
100
AcDbLine
 10
67.692863
 20
1.353668
 30
0.0
 11
67.68113699999999
 21
1.389758
 31
0.0
  0
LINE
  5
532
330
1F
100
AcDbEntity
  8
1
  6
CONTINUOUS
370
50
 62
4
100
AcDbLine
 10
67.763802
 20
1.135354
 30
0.0
 11
67.742592
 21
1.200633
 31
0.0
  0
LINE
  5
533
330
1F
100
AcDbEntity
  8
1
  6
CONTINUOUS
370
50
 62
4
100
AcDbLine
 10
67.68113699999999
 20
1.389758
 30
0.0
 11
67.671989
 21
1.417913
 31
0.0
  0
LINE
  5
534
330
1F
100
AcDbEntity
  8
1
  6
CONTINUOUS
370
50
 62
4
100
AcDbLine
 10
67.900452
 20
0.7147859999999999
 30
0.0
 11
67.86949899999999
 21
0.8100459999999999
 31
0.0
  0
LINE
  5
535
330
1F
100
AcDbEntity
  8
1
  6
CONTINUOUS
370
50
 62
4
100
AcDbLine
 10
67.742592
 20
1.200633
 30
0.0
 11
67.72365599999999
 21
1.258908
 31
0.0
  0
LINE
  5
536
330
1F
100
AcDbEntity
  8
1
  6
CONTINUOUS
370
50
 62
4
100
AcDbLine
 10
68.0
 20
0.408407
 30
0.0
 11
67.967056
 21
0.509791
 31
0.0
  0
LINE
  5
537
330
1F
100
AcDbEntity
  8
1
  6
CONTINUOUS
370
50
 62
4
100
AcDbLine
 10
67.86949899999999
 20
0.8100459999999999
 30
0.0
 11
67.84024
 21
0.9000889999999999
 31
0.0
  0
LINE
  5
538
330
1F
100
AcDbEntity
  8
1
  6
CONTINUOUS
370
50
 62
4
100
AcDbLine
 10
67.93300599999999
 20
0.614603
 30
0.0
 11
67.900452
 21
0.7147859999999999
 31
0.0
  0
LINE
  5
539
330
1F
100
AcDbEntity
  8
1
  6
CONTINUOUS
370
50
 62
4
100
AcDbLine
 10
66.973564
 20
-0.04436
 30
0.0
 11
66.961777
 21
-0.008094
 31
0.0
  0
LINE
  5
53A
330
1F
100
AcDbEntity
  8
1
  6
CONTINUOUS
370
50
 62
4
100
AcDbLine
 10
67.707062
 20
1.309985
 30
0.0
 11
67.692863
 21
1.353668
 31
0.0
  0
LINE
  5
53B
330
1F
100
AcDbEntity
  8
1
  6
CONTINUOUS
370
50
 62
4
100
AcDbLine
 10
67.665459
 20
1.438018
 30
0.0
 11
67.661537
 21
1.450078
 31
0.0
  0
LINE
  5
53C
330
1F
100
AcDbEntity
  8
1
  6
CONTINUOUS
370
50
 62
4
100
AcDbLine
 10
67.66024
 20
1.454092
 30
0.0
 11
67.659279
 21
1.457042
 31
0.0
  0
LINE
  5
53D
330
1F
100
AcDbEntity
  8
1
  6
CONTINUOUS
370
50
 62
4
100
AcDbLine
 10
67.656097
 20
1.466836
 30
0.0
 11
67.65493
 21
1.470411
 31
0.0
  0
LINE
  5
53E
330
1F
100
AcDbEntity
  8
1
  6
CONTINUOUS
370
50
 62
4
100
AcDbLine
 10
67.658272
 20
1.46015
 30
0.0
 11
67.657204
 21
1.463415
 31
0.0
  0
LINE
  5
53F
330
1F
100
AcDbEntity
  8
1
  6
CONTINUOUS
370
50
 62
4
100
AcDbLine
 10
67.903076
 20
-2.795571
 30
0.0
 11
67.873245
 21
-2.707119
 31
0.0
  0
LINE
  5
540
330
1F
100
AcDbEntity
  8
1
  6
CONTINUOUS
370
50
 62
4
100
AcDbLine
 10
66.975372
 20
1.705223
 30
0.0
 11
66.963669
 21
1.739915
 31
0.0
  0
LINE
  5
541
330
1F
100
AcDbEntity
  8
1
  6
CONTINUOUS
370
50
 62
4
100
AcDbLine
 10
46.08799
 20
-0.8365809999999999
 30
0.0
 11
46.074284
 21
-0.796769
 31
0.0
  0
LINE
  5
542
330
1F
100
AcDbEntity
  8
1
  6
CONTINUOUS
370
50
 62
4
100
AcDbLine
 10
66.963669
 20
1.739915
 30
0.0
 11
66.95053899999999
 21
1.776208
 31
0.0
  0
LINE
  5
543
330
1F
100
AcDbEntity
  8
1
  6
CONTINUOUS
370
50
 62
4
100
AcDbLine
 10
67.93437999999999
 20
-2.878696
 30
0.0
 11
67.903076
 21
-2.795571
 31
0.0
  0
LINE
  5
544
330
1F
100
AcDbEntity
  8
1
  6
CONTINUOUS
370
50
 62
4
100
AcDbLine
 10
66.961777
 20
-0.008094
 30
0.0
 11
66.948608
 21
0.026231
 31
0.0
  0
LINE
  5
545
330
1F
100
AcDbEntity
  8
1
  6
CONTINUOUS
370
50
 62
4
100
AcDbLine
 10
66.95053899999999
 20
1.776208
 30
0.0
 11
66.93605
 21
1.813956
 31
0.0
  0
LINE
  5
546
330
1F
100
AcDbEntity
  8
1
  6
CONTINUOUS
370
50
 62
4
100
AcDbLine
 10
46.068779
 20
2.898686
 30
0.0
 11
46.063843
 21
2.911352
 31
0.0
  0
LINE
  5
547
330
1F
100
AcDbEntity
  8
1
  6
CONTINUOUS
370
50
 62
4
100
AcDbLine
 10
66.93605
 20
1.813956
 30
0.0
 11
66.92030299999999
 21
1.853014
 31
0.0
  0
LINE
  5
548
330
1F
100
AcDbEntity
  8
1
  6
CONTINUOUS
370
50
 62
4
100
AcDbLine
 10
67.967056
 20
-2.956368
 30
0.0
 11
67.93437999999999
 21
-2.878696
 31
0.0
  0
LINE
  5
549
330
1F
100
AcDbEntity
  8
1
  6
CONTINUOUS
370
50
 62
4
100
AcDbLine
 10
66.92030299999999
 20
1.853014
 30
0.0
 11
66.903358
 21
1.893228
 31
0.0
  0
LINE
  5
54A
330
1F
100
AcDbEntity
  8
1
  6
CONTINUOUS
370
50
 62
4
100
AcDbLine
 10
66.903358
 20
1.893228
 30
0.0
 11
66.88531499999999
 21
1.93444
 31
0.0
  0
LINE
  5
54B
330
1F
100
AcDbEntity
  8
1
  6
CONTINUOUS
370
50
 62
4
100
AcDbLine
 10
66.948608
 20
0.026231
 30
0.0
 11
66.934135
 21
0.058582
 31
0.0
  0
LINE
  5
54C
330
1F
100
AcDbEntity
  8
1
  6
CONTINUOUS
370
50
 62
4
100
AcDbLine
 10
66.88531499999999
 20
1.93444
 30
0.0
 11
66.86623399999999
 21
1.976539
 31
0.0
  0
LINE
  5
54D
330
1F
100
AcDbEntity
  8
1
  6
CONTINUOUS
370
50
 62
4
100
AcDbLine
 10
66.86623399999999
 20
1.976539
 30
0.0
 11
66.846169
 21
2.019419
 31
0.0
  0
LINE
  5
54E
330
1F
100
AcDbEntity
  8
1
  6
CONTINUOUS
370
50
 62
4
100
AcDbLine
 10
66.846169
 20
2.019419
 30
0.0
 11
66.825195
 21
2.062975
 31
0.0
  0
LINE
  5
54F
330
1F
100
AcDbEntity
  8
1
  6
CONTINUOUS
370
50
 62
4
100
AcDbLine
 10
46.106384
 20
-0.874473
 30
0.0
 11
46.08799
 21
-0.8365809999999999
 31
0.0
  0
LINE
  5
550
330
1F
100
AcDbEntity
  8
1
  6
CONTINUOUS
370
50
 62
4
100
AcDbLine
 10
66.825195
 20
2.062975
 30
0.0
 11
66.803375
 21
2.1071
 31
0.0
  0
LINE
  5
551
330
1F
100
AcDbEntity
  8
1
  6
CONTINUOUS
370
50
 62
4
100
AcDbLine
 10
66.803375
 20
2.1071
 30
0.0
 11
66.780754
 21
2.151688
 31
0.0
  0
LINE
  5
552
330
1F
100
AcDbEntity
  8
1
  6
CONTINUOUS
370
50
 62
4
100
AcDbLine
 10
66.934135
 20
0.058582
 30
0.0
 11
66.91843399999999
 21
0.088927
 31
0.0
  0
LINE
  5
553
330
1F
100
AcDbEntity
  8
1
  6
CONTINUOUS
370
50
 62
4
100
AcDbLine
 10
66.780754
 20
2.151688
 30
0.0
 11
66.75741599999999
 21
2.196634
 31
0.0
  0
LINE
  5
554
330
1F
100
AcDbEntity
  8
1
  6
CONTINUOUS
370
50
 62
4
100
AcDbLine
 10
66.75741599999999
 20
2.196634
 30
0.0
 11
66.733406
 21
2.241831
 31
0.0
  0
LINE
  5
555
330
1F
100
AcDbEntity
  8
1
  6
CONTINUOUS
370
50
 62
4
100
AcDbLine
 10
66.617508
 20
2.458599
 30
0.0
 11
66.59832
 21
2.494682
 31
0.0
  0
LINE
  5
556
330
1F
100
AcDbEntity
  8
1
  6
CONTINUOUS
370
50
 62
4
100
AcDbLine
 10
66.63673399999999
 20
2.422504
 30
0.0
 11
66.617508
 21
2.458599
 31
0.0
  0
LINE
  5
557
330
1F
100
AcDbEntity
  8
1
  6
CONTINUOUS
370
50
 62
4
100
AcDbLine
 10
66.655998
 20
2.386395
 30
0.0
 11
66.63673399999999
 21
2.422504
 31
0.0
  0
LINE
  5
558
330
1F
100
AcDbEntity
  8
1
  6
CONTINUOUS
370
50
 62
4
100
AcDbLine
 10
66.675293
 20
2.350273
 30
0.0
 11
66.655998
 21
2.386395
 31
0.0
  0
LINE
  5
559
330
1F
100
AcDbEntity
  8
1
  6
CONTINUOUS
370
50
 62
4
100
AcDbLine
 10
66.694626
 20
2.314138
 30
0.0
 11
66.675293
 21
2.350273
 31
0.0
  0
LINE
  5
55A
330
1F
100
AcDbEntity
  8
1
  6
CONTINUOUS
370
50
 62
4
100
AcDbLine
 10
66.71399699999999
 20
2.277991
 30
0.0
 11
66.694626
 21
2.314138
 31
0.0
  0
LINE
  5
55B
330
1F
100
AcDbEntity
  8
1
  6
CONTINUOUS
370
50
 62
4
100
AcDbLine
 10
66.733406
 20
2.241831
 30
0.0
 11
66.71399699999999
 21
2.277991
 31
0.0
  0
LINE
  5
55C
330
1F
100
AcDbEntity
  8
1
  6
CONTINUOUS
370
50
 62
4
100
AcDbLine
 10
67.15361
 20
1.50639
 30
0.0
 11
66.59832
 21
2.494682
 31
0.0
  0
LINE
  5
55D
330
1F
100
AcDbEntity
  8
1
  6
CONTINUOUS
370
50
 62
4
100
AcDbLine
 10
66.91843399999999
 20
0.088927
 30
0.0
 11
66.901588
 21
0.117229
 31
0.0
  0
LINE
  5
55E
330
1F
100
AcDbEntity
  8
1
  6
CONTINUOUS
370
50
 62
4
100
AcDbLine
 10
46.128712
 20
-0.9103559999999999
 30
0.0
 11
46.106384
 21
-0.874473
 31
0.0
  0
LINE
  5
55F
330
1F
100
AcDbEntity
  8
1
  6
CONTINUOUS
370
50
 62
4
100
AcDbLine
 10
66.901588
 20
0.117229
 30
0.0
 11
66.883675
 21
0.143458
 31
0.0
  0
LINE
  5
560
330
1F
100
AcDbEntity
  8
1
  6
CONTINUOUS
370
50
 62
4
100
AcDbLine
 10
46.154221
 20
-0.944162
 30
0.0
 11
46.128712
 21
-0.9103559999999999
 31
0.0
  0
LINE
  5
561
330
1F
100
AcDbEntity
  8
1
  6
CONTINUOUS
370
50
 62
4
100
AcDbLine
 10
66.883675
 20
0.143458
 30
0.0
 11
66.864746
 21
0.167608
 31
0.0
  0
LINE
  5
562
330
1F
100
AcDbEntity
  8
1
  6
CONTINUOUS
370
50
 62
4
100
AcDbLine
 10
66.864746
 20
0.167608
 30
0.0
 11
66.84487899999999
 21
0.189676
 31
0.0
  0
LINE
  5
563
330
1F
100
AcDbEntity
  8
1
  6
CONTINUOUS
370
50
 62
4
100
AcDbLine
 10
46.081928
 20
2.885435
 30
0.0
 11
46.068779
 21
2.898686
 31
0.0
  0
LINE
  5
564
330
1F
100
AcDbEntity
  8
1
  6
CONTINUOUS
370
50
 62
4
100
AcDbLine
 10
46.671963
 20
-1.450895
 30
0.0
 11
46.50404
 21
-1.285322
 31
0.0
  0
LINE
  5
565
330
1F
100
AcDbEntity
  8
1
  6
CONTINUOUS
370
50
 62
4
100
AcDbLine
 10
46.50404
 20
-1.285322
 30
0.0
 11
46.332165
 21
-1.116177
 31
0.0
  0
LINE
  5
566
330
1F
100
AcDbEntity
  8
1
  6
CONTINUOUS
370
50
 62
4
100
AcDbLine
 10
46.838055
 20
-1.612194
 30
0.0
 11
46.671963
 21
-1.450895
 31
0.0
  0
LINE
  5
567
330
1F
100
AcDbEntity
  8
1
  6
CONTINUOUS
370
50
 62
4
100
AcDbLine
 10
46.332165
 20
-1.116177
 30
0.0
 11
46.154221
 21
-0.944162
 31
0.0
  0
LINE
  5
568
330
1F
100
AcDbEntity
  8
1
  6
CONTINUOUS
370
50
 62
4
100
AcDbLine
 10
66.84487899999999
 20
0.189676
 30
0.0
 11
66.82412
 21
0.209659
 31
0.0
  0
LINE
  5
569
330
1F
100
AcDbEntity
  8
1
  6
CONTINUOUS
370
50
 62
4
100
AcDbLine
 10
47.004433
 20
-1.768516
 30
0.0
 11
46.838055
 21
-1.612194
 31
0.0
  0
LINE
  5
56A
330
1F
100
AcDbEntity
  8
1
  6
CONTINUOUS
370
50
 62
4
100
AcDbLine
 10
47.17321399999999
 20
-1.919158
 30
0.0
 11
47.004433
 21
-1.768516
 31
0.0
  0
LINE
  5
56B
330
1F
100
AcDbEntity
  8
1
  6
CONTINUOUS
370
50
 62
4
100
AcDbLine
 10
47.343697
 20
-2.060955
 30
0.0
 11
47.17321399999999
 21
-1.919158
 31
0.0
  0
LINE
  5
56C
330
1F
100
AcDbEntity
  8
1
  6
CONTINUOUS
370
50
 62
4
100
AcDbLine
 10
66.82412
 20
0.209659
 30
0.0
 11
66.802536
 21
0.227554
 31
0.0
  0
LINE
  5
56D
330
1F
100
AcDbEntity
  8
1
  6
CONTINUOUS
370
50
 62
4
100
AcDbLine
 10
47.66116
 20
1.935793
 30
0.0
 11
47.48501599999999
 21
2.072141
 31
0.0
  0
LINE
  5
56E
330
1F
100
AcDbEntity
  8
1
  6
CONTINUOUS
370
50
 62
4
100
AcDbLine
 10
47.842159
 20
1.796207
 30
0.0
 11
47.66116
 21
1.935793
 31
0.0
  0
LINE
  5
56F
330
1F
100
AcDbEntity
  8
1
  6
CONTINUOUS
370
50
 62
4
100
AcDbLine
 10
47.48501599999999
 20
2.072141
 30
0.0
 11
47.311436
 21
2.204183
 31
0.0
  0
LINE
  5
570
330
1F
100
AcDbEntity
  8
1
  6
CONTINUOUS
370
50
 62
4
100
AcDbLine
 10
47.514862
 20
-2.191066
 30
0.0
 11
47.343697
 21
-2.060955
 31
0.0
  0
LINE
  5
571
330
1F
100
AcDbEntity
  8
1
  6
CONTINUOUS
370
50
 62
4
100
AcDbLine
 10
48.030296
 20
1.654449
 30
0.0
 11
47.842159
 21
1.796207
 31
0.0
  0
LINE
  5
572
330
1F
100
AcDbEntity
  8
1
  6
CONTINUOUS
370
50
 62
4
100
AcDbLine
 10
47.311436
 20
2.204183
 30
0.0
 11
47.138302
 21
2.330724
 31
0.0
  0
LINE
  5
573
330
1F
100
AcDbEntity
  8
1
  6
CONTINUOUS
370
50
 62
4
100
AcDbLine
 10
48.22781
 20
1.511626
 30
0.0
 11
48.030296
 21
1.654449
 31
0.0
  0
LINE
  5
574
330
1F
100
AcDbEntity
  8
1
  6
CONTINUOUS
370
50
 62
4
100
AcDbLine
 10
66.802536
 20
0.227554
 30
0.0
 11
66.780174
 21
0.243357
 31
0.0
  0
LINE
  5
575
330
1F
100
AcDbEntity
  8
1
  6
CONTINUOUS
370
50
 62
4
100
AcDbLine
 10
47.138302
 20
2.330724
 30
0.0
 11
46.967552
 21
2.447694
 31
0.0
  0
LINE
  5
576
330
1F
100
AcDbEntity
  8
1
  6
CONTINUOUS
370
50
 62
4
100
AcDbLine
 10
48.432125
 20
1.372195
 30
0.0
 11
48.22781
 21
1.511626
 31
0.0
  0
LINE
  5
577
330
1F
100
AcDbEntity
  8
1
  6
CONTINUOUS
370
50
 62
4
100
AcDbLine
 10
47.688896
 20
-2.309773
 30
0.0
 11
47.514862
 21
-2.191066
 31
0.0
  0
LINE
  5
578
330
1F
100
AcDbEntity
  8
1
  6
CONTINUOUS
370
50
 62
4
100
AcDbLine
 10
46.102177
 20
2.872027
 30
0.0
 11
46.081928
 21
2.885435
 31
0.0
  0
LINE
  5
579
330
1F
100
AcDbEntity
  8
1
  6
CONTINUOUS
370
50
 62
4
100
AcDbLine
 10
48.64170499999999
 20
1.238768
 30
0.0
 11
48.432125
 21
1.372195
 31
0.0
  0
LINE
  5
57A
330
1F
100
AcDbEntity
  8
1
  6
CONTINUOUS
370
50
 62
4
100
AcDbLine
 10
46.967552
 20
2.447694
 30
0.0
 11
46.79880499999999
 21
2.553517
 31
0.0
  0
LINE
  5
57B
330
1F
100
AcDbEntity
  8
1
  6
CONTINUOUS
370
50
 62
4
100
AcDbLine
 10
67.61095399999999
 20
2.255957
 30
0.0
 11
67.57077799999999
 21
2.280263
 31
0.0
  0
LINE
  5
57C
330
1F
100
AcDbEntity
  8
1
  6
CONTINUOUS
370
50
 62
4
100
AcDbLine
 10
47.867973
 20
-2.417359
 30
0.0
 11
47.688896
 21
-2.309773
 31
0.0
  0
LINE
  5
57D
330
1F
100
AcDbEntity
  8
1
  6
CONTINUOUS
370
50
 62
4
100
AcDbLine
 10
66.780174
 20
0.243357
 30
0.0
 11
66.75711799999999
 21
0.257065
 31
0.0
  0
LINE
  5
57E
330
1F
100
AcDbEntity
  8
1
  6
CONTINUOUS
370
50
 62
4
100
AcDbLine
 10
48.857967
 20
1.111497
 30
0.0
 11
48.64170499999999
 21
1.238768
 31
0.0
  0
LINE
  5
57F
330
1F
100
AcDbEntity
  8
1
  6
CONTINUOUS
370
50
 62
4
100
AcDbLine
 10
46.79880499999999
 20
2.553517
 30
0.0
 11
46.629833
 21
2.648137
 31
0.0
  0
LINE
  5
580
330
1F
100
AcDbEntity
  8
1
  6
CONTINUOUS
370
50
 62
4
100
AcDbLine
 10
67.642563
 20
2.238318
 30
0.0
 11
67.61095399999999
 21
2.255957
 31
0.0
  0
LINE
  5
581
330
1F
100
AcDbEntity
  8
1
  6
CONTINUOUS
370
50
 62
4
100
AcDbLine
 10
49.082317
 20
0.990536
 30
0.0
 11
48.857967
 21
1.111497
 31
0.0
  0
LINE
  5
582
330
1F
100
AcDbEntity
  8
1
  6
CONTINUOUS
370
50
 62
4
100
AcDbLine
 10
67.57077799999999
 20
2.280263
 30
0.0
 11
67.527092
 21
2.303239
 31
0.0
  0
LINE
  5
583
330
1F
100
AcDbEntity
  8
1
  6
CONTINUOUS
370
50
 62
4
100
AcDbLine
 10
49.824818
 20
0.659023
 30
0.0
 11
49.797756
 21
0.673194
 31
0.0
  0
LINE
  5
584
330
1F
100
AcDbEntity
  8
1
  6
CONTINUOUS
370
50
 62
4
100
AcDbLine
 10
48.054283
 20
-2.514108
 30
0.0
 11
47.867973
 21
-2.417359
 31
0.0
  0
LINE
  5
585
330
1F
100
AcDbEntity
  8
1
  6
CONTINUOUS
370
50
 62
4
100
AcDbLine
 10
46.128201
 20
2.858724
 30
0.0
 11
46.102177
 21
2.872027
 31
0.0
  0
LINE
  5
586
330
1F
100
AcDbEntity
  8
1
  6
CONTINUOUS
370
50
 62
4
100
AcDbLine
 10
49.85317999999999
 20
0.645103
 30
0.0
 11
49.824818
 21
0.659023
 31
0.0
  0
LINE
  5
587
330
1F
100
AcDbEntity
  8
1
  6
CONTINUOUS
370
50
 62
4
100
AcDbLine
 10
49.315628
 20
0.8762639999999999
 30
0.0
 11
49.082317
 21
0.990536
 31
0.0
  0
LINE
  5
588
330
1F
100
AcDbEntity
  8
1
  6
CONTINUOUS
370
50
 62
4
100
AcDbLine
 10
66.75711799999999
 20
0.257065
 30
0.0
 11
66.733406
 21
0.268674
 31
0.0
  0
LINE
  5
589
330
1F
100
AcDbEntity
  8
1
  6
CONTINUOUS
370
50
 62
4
100
AcDbLine
 10
46.629833
 20
2.648137
 30
0.0
 11
46.45842
 21
2.731498
 31
0.0
  0
LINE
  5
58A
330
1F
100
AcDbEntity
  8
1
  6
CONTINUOUS
370
50
 62
4
100
AcDbLine
 10
66.617508
 20
0.32204
 30
0.0
 11
66.59832
 21
0.331346
 31
0.0
  0
LINE
  5
58B
330
1F
100
AcDbEntity
  8
1
  6
CONTINUOUS
370
50
 62
4
100
AcDbLine
 10
66.63673399999999
 20
0.312852
 30
0.0
 11
66.617508
 21
0.32204
 31
0.0
  0
LINE
  5
58C
330
1F
100
AcDbEntity
  8
1
  6
CONTINUOUS
370
50
 62
4
100
AcDbLine
 10
66.655998
 20
0.30378
 30
0.0
 11
66.63673399999999
 21
0.312852
 31
0.0
  0
LINE
  5
58D
330
1F
100
AcDbEntity
  8
1
  6
CONTINUOUS
370
50
 62
4
100
AcDbLine
 10
49.882427
 20
0.631521
 30
0.0
 11
49.85317999999999
 21
0.645103
 31
0.0
  0
LINE
  5
58E
330
1F
100
AcDbEntity
  8
1
  6
CONTINUOUS
370
50
 62
4
100
AcDbLine
 10
66.675293
 20
0.294826
 30
0.0
 11
66.655998
 21
0.30378
 31
0.0
  0
LINE
  5
58F
330
1F
100
AcDbEntity
  8
1
  6
CONTINUOUS
370
50
 62
4
100
AcDbLine
 10
46.132324
 20
2.856837
 30
0.0
 11
46.128201
 21
2.858724
 31
0.0
  0
LINE
  5
590
330
1F
100
AcDbEntity
  8
1
  6
CONTINUOUS
370
50
 62
4
100
AcDbLine
 10
66.694626
 20
0.28599
 30
0.0
 11
66.675293
 21
0.294826
 31
0.0
  0
LINE
  5
591
330
1F
100
AcDbEntity
  8
1
  6
CONTINUOUS
370
50
 62
4
100
AcDbLine
 10
67.527092
 20
2.303239
 30
0.0
 11
67.479614
 21
2.324934
 31
0.0
  0
LINE
  5
592
330
1F
100
AcDbEntity
  8
1
  6
CONTINUOUS
370
50
 62
4
100
AcDbLine
 10
66.71399699999999
 20
0.277273
 30
0.0
 11
66.694626
 21
0.28599
 31
0.0
  0
LINE
  5
593
330
1F
100
AcDbEntity
  8
1
  6
CONTINUOUS
370
50
 62
4
100
AcDbLine
 10
46.136539
 20
2.854955
 30
0.0
 11
46.132324
 21
2.856837
 31
0.0
  0
LINE
  5
594
330
1F
100
AcDbEntity
  8
1
  6
CONTINUOUS
370
50
 62
4
100
AcDbLine
 10
66.733406
 20
0.268674
 30
0.0
 11
66.71399699999999
 21
0.277273
 31
0.0
  0
LINE
  5
595
330
1F
100
AcDbEntity
  8
1
  6
CONTINUOUS
370
50
 62
4
100
AcDbLine
 10
49.554451
 20
0.7704639999999999
 30
0.0
 11
49.315628
 21
0.8762639999999999
 31
0.0
  0
LINE
  5
596
330
1F
100
AcDbEntity
  8
1
  6
CONTINUOUS
370
50
 62
4
100
AcDbLine
 10
49.91214799999999
 20
0.618363
 30
0.0
 11
49.882427
 21
0.631521
 31
0.0
  0
LINE
  5
597
330
1F
100
AcDbEntity
  8
1
  6
CONTINUOUS
370
50
 62
4
100
AcDbLine
 10
67.683167
 20
2.22036
 30
0.0
 11
67.642563
 21
2.238318
 31
0.0
  0
LINE
  5
598
330
1F
100
AcDbEntity
  8
1
  6
CONTINUOUS
370
50
 62
4
100
AcDbLine
 10
48.249809
 20
-2.600232
 30
0.0
 11
48.054283
 21
-2.514108
 31
0.0
  0
LINE
  5
599
330
1F
100
AcDbEntity
  8
1
  6
CONTINUOUS
370
50
 62
4
100
AcDbLine
 10
46.45842
 20
2.731498
 30
0.0
 11
46.408958
 21
2.753123
 31
0.0
  0
LINE
  5
59A
330
1F
100
AcDbEntity
  8
1
  6
CONTINUOUS
370
50
 62
4
100
AcDbLine
 10
46.939831
 20
2.521763
 30
0.0
 11
46.45840099999999
 21
2.731563
 31
0.0
  0
LINE
  5
59B
330
1F
100
AcDbEntity
  8
1
  6
CONTINUOUS
370
50
 62
4
100
AcDbLine
 10
46.140842
 20
2.853081
 30
0.0
 11
46.136539
 21
2.854955
 31
0.0
  0
LINE
  5
59C
330
1F
100
AcDbEntity
  8
1
  6
CONTINUOUS
370
50
 62
4
100
AcDbLine
 10
46.145226
 20
2.851213
 30
0.0
 11
46.140842
 21
2.853081
 31
0.0
  0
LINE
  5
59D
330
1F
100
AcDbEntity
  8
1
  6
CONTINUOUS
370
50
 62
4
100
AcDbLine
 10
49.94192899999999
 20
0.605718
 30
0.0
 11
49.91214799999999
 21
0.618363
 31
0.0
  0
LINE
  5
59E
330
1F
100
AcDbEntity
  8
1
  6
CONTINUOUS
370
50
 62
4
100
AcDbLine
 10
46.149685
 20
2.849353
 30
0.0
 11
46.145226
 21
2.851213
 31
0.0
  0
LINE
  5
59F
330
1F
100
AcDbEntity
  8
1
  6
CONTINUOUS
370
50
 62
4
100
AcDbLine
 10
46.408958
 20
2.753123
 30
0.0
 11
46.35907
 21
2.773834
 31
0.0
  0
LINE
  5
5A0
330
1F
100
AcDbEntity
  8
1
  6
CONTINUOUS
370
50
 62
4
100
AcDbLine
 10
47.42569
 20
2.321681
 30
0.0
 11
46.939831
 21
2.521763
 31
0.0
  0
LINE
  5
5A1
330
1F
100
AcDbEntity
  8
1
  6
CONTINUOUS
370
50
 62
4
100
AcDbLine
 10
49.971352
 20
0.593671
 30
0.0
 11
49.94192899999999
 21
0.605718
 31
0.0
  0
LINE
  5
5A2
330
1F
100
AcDbEntity
  8
1
  6
CONTINUOUS
370
50
 62
4
100
AcDbLine
 10
46.154221
 20
2.8475
 30
0.0
 11
46.149685
 21
2.849353
 31
0.0
  0
LINE
  5
5A3
330
1F
100
AcDbEntity
  8
1
  6
CONTINUOUS
370
50
 62
4
100
AcDbLine
 10
49.797756
 20
0.673194
 30
0.0
 11
49.554451
 21
0.7704639999999999
 31
0.0
  0
LINE
  5
5A4
330
1F
100
AcDbEntity
  8
1
  6
CONTINUOUS
370
50
 62
4
100
AcDbLine
 10
67.479614
 20
2.324934
 30
0.0
 11
67.428085
 21
2.345394
 31
0.0
  0
LINE
  5
5A5
330
1F
100
AcDbEntity
  8
1
  6
CONTINUOUS
370
50
 62
4
100
AcDbLine
 10
50.0
 20
0.58231
 30
0.0
 11
49.971352
 21
0.593671
 31
0.0
  0
LINE
  5
5A6
330
1F
100
AcDbEntity
  8
1
  6
CONTINUOUS
370
50
 62
4
100
AcDbLine
 10
46.35907
 20
2.773834
 30
0.0
 11
46.308701
 21
2.793628
 31
0.0
  0
LINE
  5
5A7
330
1F
100
AcDbEntity
  8
1
  6
CONTINUOUS
370
50
 62
4
100
AcDbLine
 10
48.024342
 20
2.091841
 30
0.0
 11
47.42569
 21
2.321681
 31
0.0
  0
LINE
  5
5A8
330
1F
100
AcDbEntity
  8
1
  6
CONTINUOUS
370
50
 62
4
100
AcDbLine
 10
67.732147
 20
2.202109
 30
0.0
 11
67.683167
 21
2.22036
 31
0.0
  0
LINE
  5
5A9
330
1F
100
AcDbEntity
  8
1
  6
CONTINUOUS
370
50
 62
4
100
AcDbLine
 10
46.308701
 20
2.793628
 30
0.0
 11
46.257805
 21
2.812505
 31
0.0
  0
LINE
  5
5AA
330
1F
100
AcDbEntity
  8
1
  6
CONTINUOUS
370
50
 62
4
100
AcDbLine
 10
48.451408
 20
-2.674416
 30
0.0
 11
48.249809
 21
-2.600232
 31
0.0
  0
LINE
  5
5AB
330
1F
100
AcDbEntity
  8
1
  6
CONTINUOUS
370
50
 62
4
100
AcDbLine
 10
48.700943
 20
1.850027
 30
0.0
 11
48.024342
 21
2.091841
 31
0.0
  0
LINE
  5
5AC
330
1F
100
AcDbEntity
  8
1
  6
CONTINUOUS
370
50
 62
4
100
AcDbLine
 10
46.257805
 20
2.812505
 30
0.0
 11
46.206329
 21
2.830462
 31
0.0
  0
LINE
  5
5AD
330
1F
100
AcDbEntity
  8
1
  6
CONTINUOUS
370
50
 62
4
100
AcDbLine
 10
67.428085
 20
2.345394
 30
0.0
 11
67.372231
 21
2.36467
 31
0.0
  0
LINE
  5
5AE
330
1F
100
AcDbEntity
  8
1
  6
CONTINUOUS
370
50
 62
4
100
AcDbLine
 10
46.206329
 20
2.830462
 30
0.0
 11
46.154221
 21
2.8475
 31
0.0
  0
LINE
  5
5AF
330
1F
100
AcDbEntity
  8
1
  6
CONTINUOUS
370
50
 62
4
100
AcDbLine
 10
67.788918
 20
2.18359
 30
0.0
 11
67.732147
 21
2.202109
 31
0.0
  0
LINE
  5
5B0
330
1F
100
AcDbEntity
  8
1
  6
CONTINUOUS
370
50
 62
4
100
AcDbLine
 10
49.347778
 20
1.639314
 30
0.0
 11
48.700943
 21
1.850027
 31
0.0
  0
LINE
  5
5B1
330
1F
100
AcDbEntity
  8
1
  6
CONTINUOUS
370
50
 62
4
100
AcDbLine
 10
50.461823
 20
-0.003031
 30
0.0
 11
50.451984
 21
0.0
 31
0.0
  0
LINE
  5
5B2
330
1F
100
AcDbEntity
  8
1
  6
CONTINUOUS
370
50
 62
4
100
AcDbLine
 10
48.658241
 20
-2.737117
 30
0.0
 11
48.451408
 21
-2.674416
 31
0.0
  0
LINE
  5
5B3
330
1F
100
AcDbEntity
  8
1
  6
CONTINUOUS
370
50
 62
4
100
AcDbLine
 10
67.372231
 20
2.36467
 30
0.0
 11
67.311768
 21
2.382808
 31
0.0
  0
LINE
  5
5B4
330
1F
100
AcDbEntity
  8
1
  6
CONTINUOUS
370
50
 62
4
100
AcDbLine
 10
50.0
 20
1.44559
 30
0.0
 11
49.347778
 21
1.639314
 31
0.0
  0
LINE
  5
5B5
330
1F
100
AcDbEntity
  8
1
  6
CONTINUOUS
370
50
 62
4
100
AcDbLine
 10
67.852882
 20
2.16483
 30
0.0
 11
67.788918
 21
2.18359
 31
0.0
  0
LINE
  5
5B6
330
1F
100
AcDbEntity
  8
1
  6
CONTINUOUS
370
50
 62
4
100
AcDbLine
 10
51.90972499999999
 20
0.083819
 30
0.0
 11
51.605911
 21
0.168268
 31
0.0
  0
LINE
  5
5B7
330
1F
100
AcDbEntity
  8
1
  6
CONTINUOUS
370
50
 62
4
100
AcDbLine
 10
51.605911
 20
0.168268
 30
0.0
 11
51.299225
 21
0.253506
 31
0.0
  0
LINE
  5
5B8
330
1F
100
AcDbEntity
  8
1
  6
CONTINUOUS
370
50
 62
4
100
AcDbLine
 10
51.299225
 20
0.253506
 30
0.0
 11
50.986961
 21
0.33973
 31
0.0
  0
LINE
  5
5B9
330
1F
100
AcDbEntity
  8
1
  6
CONTINUOUS
370
50
 62
4
100
AcDbLine
 10
51.54578
 20
-0.302177
 30
0.0
 11
50.511345
 21
-0.016584
 31
0.0
  0
LINE
  5
5BA
330
1F
100
AcDbEntity
  8
1
  6
CONTINUOUS
370
50
 62
4
100
AcDbLine
 10
52.213867
 20
0.0
 30
0.0
 11
51.90972499999999
 21
0.083819
 31
0.0
  0
LINE
  5
5BB
330
1F
100
AcDbEntity
  8
1
  6
CONTINUOUS
370
50
 62
4
100
AcDbLine
 10
68.0
 20
0.015873
 30
0.0
 11
67.085815
 21
0.267531
 31
0.0
  0
LINE
  5
5BC
330
1F
100
AcDbEntity
  8
1
  6
CONTINUOUS
370
50
 62
4
100
AcDbLine
 10
50.511345
 20
-0.016584
 30
0.0
 11
50.501453
 21
-0.013875
 31
0.0
  0
LINE
  5
5BD
330
1F
100
AcDbEntity
  8
1
  6
CONTINUOUS
370
50
 62
4
100
AcDbLine
 10
50.501453
 20
-0.013875
 30
0.0
 11
50.491558
 21
-0.011166
 31
0.0
  0
LINE
  5
5BE
330
1F
100
AcDbEntity
  8
1
  6
CONTINUOUS
370
50
 62
4
100
AcDbLine
 10
50.491558
 20
-0.011166
 30
0.0
 11
50.481655
 21
-0.008455
 31
0.0
  0
LINE
  5
5BF
330
1F
100
AcDbEntity
  8
1
  6
CONTINUOUS
370
50
 62
4
100
AcDbLine
 10
50.47174099999999
 20
-0.005744
 30
0.0
 11
50.461823
 21
-0.003031
 31
0.0
  0
LINE
  5
5C0
330
1F
100
AcDbEntity
  8
1
  6
CONTINUOUS
370
50
 62
4
100
AcDbLine
 10
50.986961
 20
0.33973
 30
0.0
 11
50.667454
 21
0.427105
 31
0.0
  0
LINE
  5
5C1
330
1F
100
AcDbEntity
  8
1
  6
CONTINUOUS
370
50
 62
4
100
AcDbLine
 10
50.481655
 20
-0.008455
 30
0.0
 11
50.47174099999999
 21
-0.005744
 31
0.0
  0
LINE
  5
5C2
330
1F
100
AcDbEntity
  8
1
  6
CONTINUOUS
370
50
 62
4
100
AcDbLine
 10
50.388367
 20
0.017035
 30
0.0
 11
50.324524
 21
0.034437
 31
0.0
  0
LINE
  5
5C3
330
1F
100
AcDbEntity
  8
1
  6
CONTINUOUS
370
50
 62
4
100
AcDbLine
 10
52.572376
 20
-0.581538
 30
0.0
 11
51.54578
 21
-0.302177
 31
0.0
  0
LINE
  5
5C4
330
1F
100
AcDbEntity
  8
1
  6
CONTINUOUS
370
50
 62
4
100
AcDbLine
 10
50.324524
 20
0.034437
 30
0.0
 11
50.260349
 21
0.051891
 31
0.0
  0
LINE
  5
5C5
330
1F
100
AcDbEntity
  8
1
  6
CONTINUOUS
370
50
 62
4
100
AcDbLine
 10
50.260349
 20
0.051891
 30
0.0
 11
50.19582399999999
 21
0.069399
 31
0.0
  0
LINE
  5
5C6
330
1F
100
AcDbEntity
  8
1
  6
CONTINUOUS
370
50
 62
4
100
AcDbLine
 10
52.97336199999999
 20
-0.205984
 30
0.0
 11
52.213867
 21
0.0
 31
0.0
  0
LINE
  5
5C7
330
1F
100
AcDbEntity
  8
1
  6
CONTINUOUS
370
50
 62
4
100
AcDbLine
 10
50.19582399999999
 20
0.069399
 30
0.0
 11
50.130936
 21
0.086963
 31
0.0
  0
LINE
  5
5C8
330
1F
100
AcDbEntity
  8
1
  6
CONTINUOUS
370
50
 62
4
100
AcDbLine
 10
50.667454
 20
0.427105
 30
0.0
 11
50.33902699999999
 21
0.515794
 31
0.0
  0
LINE
  5
5C9
330
1F
100
AcDbEntity
  8
1
  6
CONTINUOUS
370
50
 62
4
100
AcDbLine
 10
50.130936
 20
0.086963
 30
0.0
 11
50.065666
 21
0.104585
 31
0.0
  0
LINE
  5
5CA
330
1F
100
AcDbEntity
  8
1
  6
CONTINUOUS
370
50
 62
4
100
AcDbLine
 10
50.065666
 20
0.104585
 30
0.0
 11
50.0
 21
0.122267
 31
0.0
  0
LINE
  5
5CB
330
1F
100
AcDbEntity
  8
1
  6
CONTINUOUS
370
50
 62
4
100
AcDbLine
 10
67.923447
 20
2.145855
 30
0.0
 11
67.852882
 21
2.16483
 31
0.0
  0
LINE
  5
5CC
330
1F
100
AcDbEntity
  8
1
  6
CONTINUOUS
370
50
 62
4
100
AcDbLine
 10
67.967056
 20
0.509792
 30
0.0
 11
66.817802
 21
0.817538
 31
0.0
  0
LINE
  5
5CD
330
1F
100
AcDbEntity
  8
1
  6
CONTINUOUS
370
50
 62
4
100
AcDbLine
 10
50.451984
 20
0.0
 30
0.0
 11
50.388367
 21
0.017035
 31
0.0
  0
LINE
  5
5CE
330
1F
100
AcDbEntity
  8
1
  6
CONTINUOUS
370
50
 62
4
100
AcDbLine
 10
67.085815
 20
0.267531
 30
0.0
 11
66.160797
 21
0.513579
 31
0.0
  0
LINE
  5
5CF
330
1F
100
AcDbEntity
  8
1
  6
CONTINUOUS
370
50
 62
4
100
AcDbLine
 10
50.33902699999999
 20
0.515794
 30
0.0
 11
50.0
 21
0.605962
 31
0.0
  0
LINE
  5
5D0
330
1F
100
AcDbEntity
  8
1
  6
CONTINUOUS
370
50
 62
4
100
AcDbLine
 10
53.733448
 20
-0.407575
 30
0.0
 11
52.97336199999999
 21
-0.205984
 31
0.0
  0
LINE
  5
5D1
330
1F
100
AcDbEntity
  8
1
  6
CONTINUOUS
370
50
 62
4
100
AcDbLine
 10
67.311768
 20
2.382808
 30
0.0
 11
67.24642899999999
 21
2.399858
 31
0.0
  0
LINE
  5
5D2
330
1F
100
AcDbEntity
  8
1
  6
CONTINUOUS
370
50
 62
4
100
AcDbLine
 10
53.603306
 20
-0.850065
 30
0.0
 11
52.572376
 21
-0.581538
 31
0.0
  0
LINE
  5
5D3
330
1F
100
AcDbEntity
  8
1
  6
CONTINUOUS
370
50
 62
4
100
AcDbLine
 10
54.498791
 20
-0.6062759999999999
 30
0.0
 11
53.733448
 21
-0.407575
 31
0.0
  0
LINE
  5
5D4
330
1F
100
AcDbEntity
  8
1
  6
CONTINUOUS
370
50
 62
4
100
AcDbLine
 10
66.160797
 20
0.513579
 30
0.0
 11
65.230263
 21
0.752979
 31
0.0
  0
LINE
  5
5D5
330
1F
100
AcDbEntity
  8
1
  6
CONTINUOUS
370
50
 62
4
100
AcDbLine
 10
55.266907
 20
-0.801831
 30
0.0
 11
54.498791
 21
-0.6062759999999999
 31
0.0
  0
LINE
  5
5D6
330
1F
100
AcDbEntity
  8
1
  6
CONTINUOUS
370
50
 62
4
100
AcDbLine
 10
66.817802
 20
0.817538
 30
0.0
 11
65.653404
 21
1.110958
 31
0.0
  0
LINE
  5
5D7
330
1F
100
AcDbEntity
  8
1
  6
CONTINUOUS
370
50
 62
4
100
AcDbLine
 10
68.0
 20
2.126691
 30
0.0
 11
67.923447
 21
2.145855
 31
0.0
  0
LINE
  5
5D8
330
1F
100
AcDbEntity
  8
1
  6
CONTINUOUS
370
50
 62
4
100
AcDbLine
 10
56.033928
 20
-0.99362
 30
0.0
 11
55.266907
 21
-0.801831
 31
0.0
  0
LINE
  5
5D9
330
1F
100
AcDbEntity
  8
1
  6
CONTINUOUS
370
50
 62
4
100
AcDbLine
 10
54.635708
 20
-1.107289
 30
0.0
 11
53.603306
 21
-0.850065
 31
0.0
  0
LINE
  5
5DA
330
1F
100
AcDbEntity
  8
1
  6
CONTINUOUS
370
50
 62
4
100
AcDbLine
 10
65.230263
 20
0.752979
 30
0.0
 11
64.299545
 21
0.9846929999999999
 31
0.0
  0
LINE
  5
5DB
330
1F
100
AcDbEntity
  8
1
  6
CONTINUOUS
370
50
 62
4
100
AcDbLine
 10
48.871655
 20
-2.789731
 30
0.0
 11
48.658241
 21
-2.737117
 31
0.0
  0
LINE
  5
5DC
330
1F
100
AcDbEntity
  8
1
  6
CONTINUOUS
370
50
 62
4
100
AcDbLine
 10
56.796009
 20
-1.18103
 30
0.0
 11
56.033928
 21
-0.99362
 31
0.0
  0
LINE
  5
5DD
330
1F
100
AcDbEntity
  8
1
  6
CONTINUOUS
370
50
 62
4
100
AcDbLine
 10
57.556168
 20
-1.365061
 30
0.0
 11
56.796009
 21
-1.18103
 31
0.0
  0
LINE
  5
5DE
330
1F
100
AcDbEntity
  8
1
  6
CONTINUOUS
370
50
 62
4
100
AcDbLine
 10
64.299545
 20
0.9846929999999999
 30
0.0
 11
63.373222
 21
1.207877
 31
0.0
  0
LINE
  5
5DF
330
1F
100
AcDbEntity
  8
1
  6
CONTINUOUS
370
50
 62
4
100
AcDbLine
 10
66.688194
 20
0.309861
 30
0.0
 11
66.59832
 21
0.331344
 31
0.0
  0
LINE
  5
5E0
330
1F
100
AcDbEntity
  8
1
  6
CONTINUOUS
370
50
 62
4
100
AcDbLine
 10
66.776085
 20
0.288856
 30
0.0
 11
66.688194
 21
0.309861
 31
0.0
  0
LINE
  5
5E1
330
1F
100
AcDbEntity
  8
1
  6
CONTINUOUS
370
50
 62
4
100
AcDbLine
 10
66.86171
 20
0.268394
 30
0.0
 11
66.776085
 21
0.288856
 31
0.0
  0
LINE
  5
5E2
330
1F
100
AcDbEntity
  8
1
  6
CONTINUOUS
370
50
 62
4
100
AcDbLine
 10
66.94480899999999
 20
0.248538
 30
0.0
 11
66.86171
 21
0.268394
 31
0.0
  0
LINE
  5
5E3
330
1F
100
AcDbEntity
  8
1
  6
CONTINUOUS
370
50
 62
4
100
AcDbLine
 10
67.025108
 20
0.229353
 30
0.0
 11
66.94480899999999
 21
0.248538
 31
0.0
  0
LINE
  5
5E4
330
1F
100
AcDbEntity
  8
1
  6
CONTINUOUS
370
50
 62
4
100
AcDbLine
 10
67.102341
 20
0.210903
 30
0.0
 11
67.025108
 21
0.229353
 31
0.0
  0
LINE
  5
5E5
330
1F
100
AcDbEntity
  8
1
  6
CONTINUOUS
370
50
 62
4
100
AcDbLine
 10
67.176239
 20
0.193253
 30
0.0
 11
67.102341
 21
0.210903
 31
0.0
  0
LINE
  5
5E6
330
1F
100
AcDbEntity
  8
1
  6
CONTINUOUS
370
50
 62
4
100
AcDbLine
 10
67.24642899999999
 20
0.176491
 30
0.0
 11
67.176239
 21
0.193253
 31
0.0
  0
LINE
  5
5E7
330
1F
100
AcDbEntity
  8
1
  6
CONTINUOUS
370
50
 62
4
100
AcDbLine
 10
55.676888
 20
-1.355904
 30
0.0
 11
54.635708
 21
-1.107289
 31
0.0
  0
LINE
  5
5E8
330
1F
100
AcDbEntity
  8
1
  6
CONTINUOUS
370
50
 62
4
100
AcDbLine
 10
68.0
 20
-0.003305
 30
0.0
 11
67.923447
 21
0.014974
 31
0.0
  0
LINE
  5
5E9
330
1F
100
AcDbEntity
  8
1
  6
CONTINUOUS
370
50
 62
4
100
AcDbLine
 10
67.311768
 20
0.160892
 30
0.0
 11
67.24642899999999
 21
0.176491
 31
0.0
  0
LINE
  5
5EA
330
1F
100
AcDbEntity
  8
1
  6
CONTINUOUS
370
50
 62
4
100
AcDbLine
 10
67.923447
 20
0.014974
 30
0.0
 11
67.852882
 21
0.031819
 31
0.0
  0
LINE
  5
5EB
330
1F
100
AcDbEntity
  8
1
  6
CONTINUOUS
370
50
 62
4
100
AcDbLine
 10
67.852882
 20
0.031819
 30
0.0
 11
67.788918
 21
0.047088
 31
0.0
  0
LINE
  5
5EC
330
1F
100
AcDbEntity
  8
1
  6
CONTINUOUS
370
50
 62
4
100
AcDbLine
 10
67.372231
 20
0.146461
 30
0.0
 11
67.311768
 21
0.160892
 31
0.0
  0
LINE
  5
5ED
330
1F
100
AcDbEntity
  8
1
  6
CONTINUOUS
370
50
 62
4
100
AcDbLine
 10
67.428085
 20
0.133131
 30
0.0
 11
67.372231
 21
0.146461
 31
0.0
  0
LINE
  5
5EE
330
1F
100
AcDbEntity
  8
1
  6
CONTINUOUS
370
50
 62
4
100
AcDbLine
 10
67.788918
 20
0.047088
 30
0.0
 11
67.732147
 21
0.060636
 31
0.0
  0
LINE
  5
5EF
330
1F
100
AcDbEntity
  8
1
  6
CONTINUOUS
370
50
 62
4
100
AcDbLine
 10
67.732147
 20
0.060636
 30
0.0
 11
67.683167
 21
0.072323
 31
0.0
  0
LINE
  5
5F0
330
1F
100
AcDbEntity
  8
1
  6
CONTINUOUS
370
50
 62
4
100
AcDbLine
 10
67.479614
 20
0.120839
 30
0.0
 11
67.428085
 21
0.133131
 31
0.0
  0
LINE
  5
5F1
330
1F
100
AcDbEntity
  8
1
  6
CONTINUOUS
370
50
 62
4
100
AcDbLine
 10
67.683167
 20
0.072323
 30
0.0
 11
67.642563
 21
0.082004
 31
0.0
  0
LINE
  5
5F2
330
1F
100
AcDbEntity
  8
1
  6
CONTINUOUS
370
50
 62
4
100
AcDbLine
 10
67.527092
 20
0.10952
 30
0.0
 11
67.479614
 21
0.120839
 31
0.0
  0
LINE
  5
5F3
330
1F
100
AcDbEntity
  8
1
  6
CONTINUOUS
370
50
 62
4
100
AcDbLine
 10
67.57077799999999
 20
0.099107
 30
0.0
 11
67.527092
 21
0.10952
 31
0.0
  0
LINE
  5
5F4
330
1F
100
AcDbEntity
  8
1
  6
CONTINUOUS
370
50
 62
4
100
AcDbLine
 10
67.642563
 20
0.082004
 30
0.0
 11
67.61095399999999
 21
0.089537
 31
0.0
  0
LINE
  5
5F5
330
1F
100
AcDbEntity
  8
1
  6
CONTINUOUS
370
50
 62
4
100
AcDbLine
 10
67.61095399999999
 20
0.089537
 30
0.0
 11
67.57077799999999
 21
0.099107
 31
0.0
  0
LINE
  5
5F6
330
1F
100
AcDbEntity
  8
1
  6
CONTINUOUS
370
50
 62
4
100
AcDbLine
 10
58.316525
 20
-1.546032
 30
0.0
 11
57.556168
 21
-1.365061
 31
0.0
  0
LINE
  5
5F7
330
1F
100
AcDbEntity
  8
1
  6
CONTINUOUS
370
50
 62
4
100
AcDbLine
 10
65.653404
 20
1.110958
 30
0.0
 11
64.484161
 21
1.388361
 31
0.0
  0
LINE
  5
5F8
330
1F
100
AcDbEntity
  8
1
  6
CONTINUOUS
370
50
 62
4
100
AcDbLine
 10
59.075726
 20
-1.723184
 30
0.0
 11
58.316525
 21
-1.546032
 31
0.0
  0
LINE
  5
5F9
330
1F
100
AcDbEntity
  8
1
  6
CONTINUOUS
370
50
 62
4
100
AcDbLine
 10
63.373222
 20
1.207877
 30
0.0
 11
62.44277599999999
 21
1.424944
 31
0.0
  0
LINE
  5
5FA
330
1F
100
AcDbEntity
  8
1
  6
CONTINUOUS
370
50
 62
4
100
AcDbLine
 10
56.71843699999999
 20
-1.594521
 30
0.0
 11
55.676888
 21
-1.355904
 31
0.0
  0
LINE
  5
5FB
330
1F
100
AcDbEntity
  8
1
  6
CONTINUOUS
370
50
 62
4
100
AcDbLine
 10
67.24642899999999
 20
2.399858
 30
0.0
 11
67.176239
 21
2.415806
 31
0.0
  0
LINE
  5
5FC
330
1F
100
AcDbEntity
  8
1
  6
CONTINUOUS
370
50
 62
4
100
AcDbLine
 10
62.44277599999999
 20
1.424944
 30
0.0
 11
61.507492
 21
1.635719
 31
0.0
  0
LINE
  5
5FD
330
1F
100
AcDbEntity
  8
1
  6
CONTINUOUS
370
50
 62
4
100
AcDbLine
 10
64.484161
 20
1.388361
 30
0.0
 11
63.320347
 21
1.648066
 31
0.0
  0
LINE
  5
5FE
330
1F
100
AcDbEntity
  8
1
  6
CONTINUOUS
370
50
 62
4
100
AcDbLine
 10
59.896778
 20
-1.904343
 30
0.0
 11
59.075726
 21
-1.723184
 31
0.0
  0
LINE
  5
5FF
330
1F
100
AcDbEntity
  8
1
  6
CONTINUOUS
370
50
 62
4
100
AcDbLine
 10
57.747406
 20
-1.820815
 30
0.0
 11
56.71843699999999
 21
-1.594521
 31
0.0
  0
LINE
  5
600
330
1F
100
AcDbEntity
  8
1
  6
CONTINUOUS
370
50
 62
4
100
AcDbLine
 10
61.507492
 20
1.635719
 30
0.0
 11
60.571724
 21
1.838615
 31
0.0
  0
LINE
  5
601
330
1F
100
AcDbEntity
  8
1
  6
CONTINUOUS
370
50
 62
4
100
AcDbLine
 10
58.713631
 20
-2.024631
 30
0.0
 11
57.747406
 21
-1.820815
 31
0.0
  0
LINE
  5
602
330
1F
100
AcDbEntity
  8
1
  6
CONTINUOUS
370
50
 62
4
100
AcDbLine
 10
68.0
 20
0.008224
 30
0.0
 11
67.935158
 21
0.021901
 31
0.0
  0
LINE
  5
603
330
1F
100
AcDbEntity
  8
1
  6
CONTINUOUS
370
50
 62
4
100
AcDbLine
 10
67.935158
 20
0.021901
 30
0.0
 11
67.870316
 21
0.035539
 31
0.0
  0
LINE
  5
604
330
1F
100
AcDbEntity
  8
1
  6
CONTINUOUS
370
50
 62
4
100
AcDbLine
 10
67.870316
 20
0.035539
 30
0.0
 11
67.80547299999999
 21
0.049139
 31
0.0
  0
LINE
  5
605
330
1F
100
AcDbEntity
  8
1
  6
CONTINUOUS
370
50
 62
4
100
AcDbLine
 10
63.320347
 20
1.648066
 30
0.0
 11
62.156315
 21
1.891894
 31
0.0
  0
LINE
  5
606
330
1F
100
AcDbEntity
  8
1
  6
CONTINUOUS
370
50
 62
4
100
AcDbLine
 10
67.80547299999999
 20
0.049139
 30
0.0
 11
67.740631
 21
0.0627
 31
0.0
  0
LINE
  5
607
330
1F
100
AcDbEntity
  8
1
  6
CONTINUOUS
370
50
 62
4
100
AcDbLine
 10
67.740631
 20
0.0627
 30
0.0
 11
67.675789
 21
0.076223
 31
0.0
  0
LINE
  5
608
330
1F
100
AcDbEntity
  8
1
  6
CONTINUOUS
370
50
 62
4
100
AcDbLine
 10
67.675789
 20
0.076223
 30
0.0
 11
67.610947
 21
0.089708
 31
0.0
  0
LINE
  5
609
330
1F
100
AcDbEntity
  8
1
  6
CONTINUOUS
370
50
 62
4
100
AcDbLine
 10
60.571724
 20
1.838615
 30
0.0
 11
59.63982
 21
2.032044
 31
0.0
  0
LINE
  5
60A
330
1F
100
AcDbEntity
  8
1
  6
CONTINUOUS
370
50
 62
4
100
AcDbLine
 10
50.085217
 20
0.070519
 30
0.0
 11
50.0
 21
0.088075
 31
0.0
  0
LINE
  5
60B
330
1F
100
AcDbEntity
  8
1
  6
CONTINUOUS
370
50
 62
4
100
AcDbLine
 10
50.511311
 20
-0.016347
 30
0.0
 11
50.426094
 21
0.001104
 31
0.0
  0
LINE
  5
60C
330
1F
100
AcDbEntity
  8
1
  6
CONTINUOUS
370
50
 62
4
100
AcDbLine
 10
50.426094
 20
0.001104
 30
0.0
 11
50.340874
 21
0.018516
 31
0.0
  0
LINE
  5
60D
330
1F
100
AcDbEntity
  8
1
  6
CONTINUOUS
370
50
 62
4
100
AcDbLine
 10
50.340874
 20
0.018516
 30
0.0
 11
50.255657
 21
0.035889
 31
0.0
  0
LINE
  5
60E
330
1F
100
AcDbEntity
  8
1
  6
CONTINUOUS
370
50
 62
4
100
AcDbLine
 10
50.255657
 20
0.035889
 30
0.0
 11
50.170437
 21
0.053223
 31
0.0
  0
LINE
  5
60F
330
1F
100
AcDbEntity
  8
1
  6
CONTINUOUS
370
50
 62
4
100
AcDbLine
 10
50.170437
 20
0.053223
 30
0.0
 11
50.085217
 21
0.070519
 31
0.0
  0
LINE
  5
610
330
1F
100
AcDbEntity
  8
1
  6
CONTINUOUS
370
50
 62
4
100
AcDbLine
 10
60.790783
 20
-2.084754
 30
0.0
 11
59.896778
 21
-1.904343
 31
0.0
  0
LINE
  5
611
330
1F
100
AcDbEntity
  8
1
  6
CONTINUOUS
370
50
 62
4
100
AcDbLine
 10
49.092991
 20
-2.833657
 30
0.0
 11
48.871655
 21
-2.789731
 31
0.0
  0
LINE
  5
612
330
1F
100
AcDbEntity
  8
1
  6
CONTINUOUS
370
50
 62
4
100
AcDbLine
 10
67.176239
 20
2.415806
 30
0.0
 11
67.102341
 21
2.430458
 31
0.0
  0
LINE
  5
613
330
1F
100
AcDbEntity
  8
1
  6
CONTINUOUS
370
50
 62
4
100
AcDbLine
 10
66.733398
 20
0.268776
 30
0.0
 11
65.687561
 21
0.474814
 31
0.0
  0
LINE
  5
614
330
1F
100
AcDbEntity
  8
1
  6
CONTINUOUS
370
50
 62
4
100
AcDbLine
 10
59.642208
 20
-2.207378
 30
0.0
 11
58.713631
 21
-2.024631
 31
0.0
  0
LINE
  5
615
330
1F
100
AcDbEntity
  8
1
  6
CONTINUOUS
370
50
 62
4
100
AcDbLine
 10
59.63982
 20
2.032044
 30
0.0
 11
58.710949
 21
2.214309
 31
0.0
  0
LINE
  5
616
330
1F
100
AcDbEntity
  8
1
  6
CONTINUOUS
370
50
 62
4
100
AcDbLine
 10
62.156315
 20
1.891894
 30
0.0
 11
60.988811
 21
2.120183
 31
0.0
  0
LINE
  5
617
330
1F
100
AcDbEntity
  8
1
  6
CONTINUOUS
370
50
 62
4
100
AcDbLine
 10
65.687561
 20
0.474814
 30
0.0
 11
64.641724
 21
0.673524
 31
0.0
  0
LINE
  5
618
330
1F
100
AcDbEntity
  8
1
  6
CONTINUOUS
370
50
 62
4
100
AcDbLine
 10
64.641724
 20
0.673524
 30
0.0
 11
63.595882
 21
0.8651829999999999
 31
0.0
  0
LINE
  5
619
330
1F
100
AcDbEntity
  8
1
  6
CONTINUOUS
370
50
 62
4
100
AcDbLine
 10
61.690735
 20
-2.249419
 30
0.0
 11
60.790783
 21
-2.084754
 31
0.0
  0
LINE
  5
61A
330
1F
100
AcDbEntity
  8
1
  6
CONTINUOUS
370
50
 62
4
100
AcDbLine
 10
60.988811
 20
2.120183
 30
0.0
 11
59.830357
 21
2.329536
 31
0.0
  0
LINE
  5
61B
330
1F
100
AcDbEntity
  8
1
  6
CONTINUOUS
370
50
 62
4
100
AcDbLine
 10
63.595882
 20
0.8651829999999999
 30
0.0
 11
62.550041
 21
1.050063
 31
0.0
  0
LINE
  5
61C
330
1F
100
AcDbEntity
  8
1
  6
CONTINUOUS
370
50
 62
4
100
AcDbLine
 10
58.710949
 20
2.214309
 30
0.0
 11
57.744255
 21
2.384724
 31
0.0
  0
LINE
  5
61D
330
1F
100
AcDbEntity
  8
1
  6
CONTINUOUS
370
50
 62
4
100
AcDbLine
 10
60.57386
 20
-2.370884
 30
0.0
 11
59.642208
 21
-2.207378
 31
0.0
  0
LINE
  5
61E
330
1F
100
AcDbEntity
  8
1
  6
CONTINUOUS
370
50
 62
4
100
AcDbLine
 10
67.102341
 20
2.430458
 30
0.0
 11
67.025108
 21
2.443862
 31
0.0
  0
LINE
  5
61F
330
1F
100
AcDbEntity
  8
1
  6
CONTINUOUS
370
50
 62
4
100
AcDbLine
 10
62.550041
 20
1.050063
 30
0.0
 11
61.504196
 21
1.228137
 31
0.0
  0
LINE
  5
620
330
1F
100
AcDbEntity
  8
1
  6
CONTINUOUS
370
50
 62
4
100
AcDbLine
 10
62.590908
 20
-2.397928
 30
0.0
 11
61.690735
 21
-2.249419
 31
0.0
  0
LINE
  5
621
330
1F
100
AcDbEntity
  8
1
  6
CONTINUOUS
370
50
 62
4
100
AcDbLine
 10
59.830357
 20
2.329536
 30
0.0
 11
58.79239699999999
 21
2.500444
 31
0.0
  0
LINE
  5
622
330
1F
100
AcDbEntity
  8
1
  6
CONTINUOUS
370
50
 62
4
100
AcDbLine
 10
61.504196
 20
1.228137
 30
0.0
 11
60.458355
 21
1.398688
 31
0.0
  0
LINE
  5
623
330
1F
100
AcDbEntity
  8
1
  6
CONTINUOUS
370
50
 62
4
100
AcDbLine
 10
49.322975
 20
-2.870172
 30
0.0
 11
49.092991
 21
-2.833657
 31
0.0
  0
LINE
  5
624
330
1F
100
AcDbEntity
  8
1
  6
CONTINUOUS
370
50
 62
4
100
AcDbLine
 10
60.458355
 20
1.398688
 30
0.0
 11
59.412521
 21
1.560903
 31
0.0
  0
LINE
  5
625
330
1F
100
AcDbEntity
  8
1
  6
CONTINUOUS
370
50
 62
4
100
AcDbLine
 10
61.509361
 20
-2.5151
 30
0.0
 11
60.57386
 21
-2.370884
 31
0.0
  0
LINE
  5
626
330
1F
100
AcDbEntity
  8
1
  6
CONTINUOUS
370
50
 62
4
100
AcDbLine
 10
57.744255
 20
2.384724
 30
0.0
 11
56.714878
 21
2.54159
 31
0.0
  0
LINE
  5
627
330
1F
100
AcDbEntity
  8
1
  6
CONTINUOUS
370
50
 62
4
100
AcDbLine
 10
67.025108
 20
2.443862
 30
0.0
 11
66.94480899999999
 21
2.456089
 31
0.0
  0
LINE
  5
628
330
1F
100
AcDbEntity
  8
1
  6
CONTINUOUS
370
50
 62
4
100
AcDbLine
 10
59.81553599999999
 20
0.295184
 30
0.0
 11
58.768459
 21
0.450714
 31
0.0
  0
LINE
  5
629
330
1F
100
AcDbEntity
  8
1
  6
CONTINUOUS
370
50
 62
4
100
AcDbLine
 10
63.487011
 20
-2.530165
 30
0.0
 11
62.590908
 21
-2.397928
 31
0.0
  0
LINE
  5
62A
330
1F
100
AcDbEntity
  8
1
  6
CONTINUOUS
370
50
 62
4
100
AcDbLine
 10
60.862572
 20
0.141358
 30
0.0
 11
59.81553599999999
 21
0.295184
 31
0.0
  0
LINE
  5
62B
330
1F
100
AcDbEntity
  8
1
  6
CONTINUOUS
370
50
 62
4
100
AcDbLine
 10
61.909584
 20
-0.010108
 30
0.0
 11
60.862572
 21
0.141358
 31
0.0
  0
LINE
  5
62C
330
1F
100
AcDbEntity
  8
1
  6
CONTINUOUS
370
50
 62
4
100
AcDbLine
 10
59.412521
 20
1.560903
 30
0.0
 11
58.366688
 21
1.711918
 31
0.0
  0
LINE
  5
62D
330
1F
100
AcDbEntity
  8
1
  6
CONTINUOUS
370
50
 62
4
100
AcDbLine
 10
62.86908
 20
-0.146972
 30
0.0
 11
61.909584
 21
-0.010108
 31
0.0
  0
LINE
  5
62E
330
1F
100
AcDbEntity
  8
1
  6
CONTINUOUS
370
50
 62
4
100
AcDbLine
 10
58.768459
 20
0.450714
 30
0.0
 11
57.721352
 21
0.600011
 31
0.0
  0
LINE
  5
62F
330
1F
100
AcDbEntity
  8
1
  6
CONTINUOUS
370
50
 62
4
100
AcDbLine
 10
62.86599
 20
-0.146294
 30
0.0
 11
61.909508
 21
-0.010004
 31
0.0
  0
LINE
  5
630
330
1F
100
AcDbEntity
  8
1
  6
CONTINUOUS
370
50
 62
4
100
AcDbLine
 10
58.79239699999999
 20
2.500444
 30
0.0
 11
57.807537
 21
2.639771
 31
0.0
  0
LINE
  5
631
330
1F
100
AcDbEntity
  8
1
  6
CONTINUOUS
370
50
 62
4
100
AcDbLine
 10
63.828571
 20
-0.282131
 30
0.0
 11
62.86908
 21
-0.146972
 31
0.0
  0
LINE
  5
632
330
1F
100
AcDbEntity
  8
1
  6
CONTINUOUS
370
50
 62
4
100
AcDbLine
 10
63.820473
 20
-0.28022
 30
0.0
 11
62.86599
 21
-0.146294
 31
0.0
  0
LINE
  5
633
330
1F
100
AcDbEntity
  8
1
  6
CONTINUOUS
370
50
 62
4
100
AcDbLine
 10
64.788071
 20
-0.415517
 30
0.0
 11
63.828571
 21
-0.282131
 31
0.0
  0
LINE
  5
634
330
1F
100
AcDbEntity
  8
1
  6
CONTINUOUS
370
50
 62
4
100
AcDbLine
 10
64.783096
 20
-0.413302
 30
0.0
 11
63.820473
 21
-0.28022
 31
0.0
  0
LINE
  5
635
330
1F
100
AcDbEntity
  8
1
  6
CONTINUOUS
370
50
 62
4
100
AcDbLine
 10
65.747581
 20
-0.547028
 30
0.0
 11
64.788071
 21
-0.415517
 31
0.0
  0
LINE
  5
636
330
1F
100
AcDbEntity
  8
1
  6
CONTINUOUS
370
50
 62
4
100
AcDbLine
 10
65.749275
 20
-0.545033
 30
0.0
 11
64.783096
 21
-0.413302
 31
0.0
  0
LINE
  5
637
330
1F
100
AcDbEntity
  8
1
  6
CONTINUOUS
370
50
 62
4
100
AcDbLine
 10
59.065186
 20
2.473268
 30
0.0
 11
58.91547
 21
2.493547
 31
0.0
  0
LINE
  5
638
330
1F
100
AcDbEntity
  8
1
  6
CONTINUOUS
370
50
 62
4
100
AcDbLine
 10
59.214901
 20
2.453034
 30
0.0
 11
59.065186
 21
2.473268
 31
0.0
  0
LINE
  5
639
330
1F
100
AcDbEntity
  8
1
  6
CONTINUOUS
370
50
 62
4
100
AcDbLine
 10
66.70710799999999
 20
-0.676561
 30
0.0
 11
65.747581
 21
-0.547028
 31
0.0
  0
LINE
  5
63A
330
1F
100
AcDbEntity
  8
1
  6
CONTINUOUS
370
50
 62
4
100
AcDbLine
 10
58.91547
 20
2.493547
 30
0.0
 11
58.765755
 21
2.513716
 31
0.0
  0
LINE
  5
63B
330
1F
100
AcDbEntity
  8
1
  6
CONTINUOUS
370
50
 62
4
100
AcDbLine
 10
59.364616
 20
2.432882
 30
0.0
 11
59.214901
 21
2.453034
 31
0.0
  0
LINE
  5
63C
330
1F
100
AcDbEntity
  8
1
  6
CONTINUOUS
370
50
 62
4
100
AcDbLine
 10
66.71298999999999
 20
-0.6746989999999999
 30
0.0
 11
65.749275
 21
-0.545033
 31
0.0
  0
LINE
  5
63D
330
1F
100
AcDbEntity
  8
1
  6
CONTINUOUS
370
50
 62
4
100
AcDbLine
 10
59.47353
 20
2.418275
 30
0.0
 11
59.364616
 21
2.432882
 31
0.0
  0
LINE
  5
63E
330
1F
100
AcDbEntity
  8
1
  6
CONTINUOUS
370
50
 62
4
100
AcDbLine
 10
58.765755
 20
2.513716
 30
0.0
 11
58.616028
 21
2.533759
 31
0.0
  0
LINE
  5
63F
330
1F
100
AcDbEntity
  8
1
  6
CONTINUOUS
370
50
 62
4
100
AcDbLine
 10
66.94480899999999
 20
2.456089
 30
0.0
 11
66.86171
 21
2.467212
 31
0.0
  0
LINE
  5
640
330
1F
100
AcDbEntity
  8
1
  6
CONTINUOUS
370
50
 62
4
100
AcDbLine
 10
62.444374
 20
-2.640161
 30
0.0
 11
61.509361
 21
-2.5151
 31
0.0
  0
LINE
  5
641
330
1F
100
AcDbEntity
  8
1
  6
CONTINUOUS
370
50
 62
4
100
AcDbLine
 10
59.582439
 20
2.403712
 30
0.0
 11
59.47353
 21
2.418275
 31
0.0
  0
LINE
  5
642
330
1F
100
AcDbEntity
  8
1
  6
CONTINUOUS
370
50
 62
4
100
AcDbLine
 10
57.721352
 20
0.600011
 30
0.0
 11
56.674248
 21
0.7399939999999999
 31
0.0
  0
LINE
  5
643
330
1F
100
AcDbEntity
  8
1
  6
CONTINUOUS
370
50
 62
4
100
AcDbLine
 10
59.691349
 20
2.389195
 30
0.0
 11
59.582439
 21
2.403712
 31
0.0
  0
LINE
  5
644
330
1F
100
AcDbEntity
  8
1
  6
CONTINUOUS
370
50
 62
4
100
AcDbLine
 10
58.616028
 20
2.533759
 30
0.0
 11
58.466305
 21
2.553673
 31
0.0
  0
LINE
  5
645
330
1F
100
AcDbEntity
  8
1
  6
CONTINUOUS
370
50
 62
4
100
AcDbLine
 10
67.668205
 20
-0.801744
 30
0.0
 11
66.71298999999999
 21
-0.6746989999999999
 31
0.0
  0
LINE
  5
646
330
1F
100
AcDbEntity
  8
1
  6
CONTINUOUS
370
50
 62
4
100
AcDbLine
 10
59.800259
 20
2.374724
 30
0.0
 11
59.691349
 21
2.389195
 31
0.0
  0
LINE
  5
647
330
1F
100
AcDbEntity
  8
1
  6
CONTINUOUS
370
50
 62
4
100
AcDbLine
 10
67.666664
 20
-0.804043
 30
0.0
 11
66.70710799999999
 21
-0.676561
 31
0.0
  0
LINE
  5
648
330
1F
100
AcDbEntity
  8
1
  6
CONTINUOUS
370
50
 62
4
100
AcDbLine
 10
59.943855
 20
2.355716
 30
0.0
 11
59.800259
 21
2.374724
 31
0.0
  0
LINE
  5
649
330
1F
100
AcDbEntity
  8
1
  6
CONTINUOUS
370
50
 62
4
100
AcDbLine
 10
58.466305
 20
2.553673
 30
0.0
 11
58.31656599999999
 21
2.573461
 31
0.0
  0
LINE
  5
64A
330
1F
100
AcDbEntity
  8
1
  6
CONTINUOUS
370
50
 62
4
100
AcDbLine
 10
60.087452
 20
2.33679
 30
0.0
 11
59.943855
 21
2.355716
 31
0.0
  0
LINE
  5
64B
330
1F
100
AcDbEntity
  8
1
  6
CONTINUOUS
370
50
 62
4
100
AcDbLine
 10
58.31656599999999
 20
2.573461
 30
0.0
 11
58.166828
 21
2.593122
 31
0.0
  0
LINE
  5
64C
330
1F
100
AcDbEntity
  8
1
  6
CONTINUOUS
370
50
 62
4
100
AcDbLine
 10
60.231052
 20
2.317948
 30
0.0
 11
60.087452
 21
2.33679
 31
0.0
  0
LINE
  5
64D
330
1F
100
AcDbEntity
  8
1
  6
CONTINUOUS
370
50
 62
4
100
AcDbLine
 10
60.374649
 20
2.299191
 30
0.0
 11
60.231052
 21
2.317948
 31
0.0
  0
LINE
  5
64E
330
1F
100
AcDbEntity
  8
1
  6
CONTINUOUS
370
50
 62
4
100
AcDbLine
 10
64.384933
 20
-2.647376
 30
0.0
 11
63.487011
 21
-2.530165
 31
0.0
  0
LINE
  5
64F
330
1F
100
AcDbEntity
  8
1
  6
CONTINUOUS
370
50
 62
4
100
AcDbLine
 10
58.166828
 20
2.593122
 30
0.0
 11
57.98718299999999
 21
2.616545
 31
0.0
  0
LINE
  5
650
330
1F
100
AcDbEntity
  8
1
  6
CONTINUOUS
370
50
 62
4
100
AcDbLine
 10
60.518257
 20
2.280516
 30
0.0
 11
60.374649
 21
2.299191
 31
0.0
  0
LINE
  5
651
330
1F
100
AcDbEntity
  8
1
  6
CONTINUOUS
370
50
 62
4
100
AcDbLine
 10
56.714878
 20
2.54159
 30
0.0
 11
55.673012
 21
2.676486
 31
0.0
  0
LINE
  5
652
330
1F
100
AcDbEntity
  8
1
  6
CONTINUOUS
370
50
 62
4
100
AcDbLine
 10
60.661869
 20
2.261928
 30
0.0
 11
60.518257
 21
2.280516
 31
0.0
  0
LINE
  5
653
330
1F
100
AcDbEntity
  8
1
  6
CONTINUOUS
370
50
 62
4
100
AcDbLine
 10
57.98718299999999
 20
2.616545
 30
0.0
 11
57.807537
 21
2.639789
 31
0.0
  0
LINE
  5
654
330
1F
100
AcDbEntity
  8
1
  6
CONTINUOUS
370
50
 62
4
100
AcDbLine
 10
60.805477
 20
2.243426
 30
0.0
 11
60.661869
 21
2.261928
 31
0.0
  0
LINE
  5
655
330
1F
100
AcDbEntity
  8
1
  6
CONTINUOUS
370
50
 62
4
100
AcDbLine
 10
60.949089
 20
2.22501
 30
0.0
 11
60.805477
 21
2.243426
 31
0.0
  0
LINE
  5
656
330
1F
100
AcDbEntity
  8
1
  6
CONTINUOUS
370
50
 62
4
100
AcDbLine
 10
61.070229
 20
2.209543
 30
0.0
 11
60.949089
 21
2.22501
 31
0.0
  0
LINE
  5
657
330
1F
100
AcDbEntity
  8
1
  6
CONTINUOUS
370
50
 62
4
100
AcDbLine
 10
50.990784
 20
-0.921862
 30
0.0
 11
50.0
 21
-0.7956099999999999
 31
0.0
  0
LINE
  5
658
330
1F
100
AcDbEntity
  8
1
  6
CONTINUOUS
370
50
 62
4
100
AcDbLine
 10
61.191364
 20
2.194138
 30
0.0
 11
61.070229
 21
2.209543
 31
0.0
  0
LINE
  5
659
330
1F
100
AcDbEntity
  8
1
  6
CONTINUOUS
370
50
 62
4
100
AcDbLine
 10
50.99166899999999
 20
-0.923418
 30
0.0
 11
50.0
 21
-0.797605
 31
0.0
  0
LINE
  5
65A
330
1F
100
AcDbEntity
  8
1
  6
CONTINUOUS
370
50
 62
4
100
AcDbLine
 10
61.312504
 20
2.178794
 30
0.0
 11
61.191364
 21
2.194138
 31
0.0
  0
LINE
  5
65B
330
1F
100
AcDbEntity
  8
1
  6
CONTINUOUS
370
50
 62
4
100
AcDbLine
 10
61.433643
 20
2.163512
 30
0.0
 11
61.312504
 21
2.178794
 31
0.0
  0
LINE
  5
65C
330
1F
100
AcDbEntity
  8
1
  6
CONTINUOUS
370
50
 62
4
100
AcDbLine
 10
58.366688
 20
1.711918
 30
0.0
 11
57.32085799999999
 21
1.843552
 31
0.0
  0
LINE
  5
65D
330
1F
100
AcDbEntity
  8
1
  6
CONTINUOUS
370
50
 62
4
100
AcDbLine
 10
49.558197
 20
-2.899761
 30
0.0
 11
49.322975
 21
-2.870172
 31
0.0
  0
LINE
  5
65E
330
1F
100
AcDbEntity
  8
1
  6
CONTINUOUS
370
50
 62
4
100
AcDbLine
 10
61.57732799999999
 20
2.145464
 30
0.0
 11
61.433643
 21
2.163512
 31
0.0
  0
LINE
  5
65F
330
1F
100
AcDbEntity
  8
1
  6
CONTINUOUS
370
50
 62
4
100
AcDbLine
 10
56.674248
 20
0.7399939999999999
 30
0.0
 11
55.627159
 21
0.871265
 31
0.0
  0
LINE
  5
660
330
1F
100
AcDbEntity
  8
1
  6
CONTINUOUS
370
50
 62
4
100
AcDbLine
 10
61.72101199999999
 20
2.127503
 30
0.0
 11
61.57732799999999
 21
2.145464
 31
0.0
  0
LINE
  5
661
330
1F
100
AcDbEntity
  8
1
  6
CONTINUOUS
370
50
 62
4
100
AcDbLine
 10
61.864697
 20
2.109627
 30
0.0
 11
61.72101199999999
 21
2.127503
 31
0.0
  0
LINE
  5
662
330
1F
100
AcDbEntity
  8
1
  6
CONTINUOUS
370
50
 62
4
100
AcDbLine
 10
62.008381
 20
2.091836
 30
0.0
 11
61.864697
 21
2.109627
 31
0.0
  0
LINE
  5
663
330
1F
100
AcDbEntity
  8
1
  6
CONTINUOUS
370
50
 62
4
100
AcDbLine
 10
62.15207299999999
 20
2.07413
 30
0.0
 11
62.008381
 21
2.091836
 31
0.0
  0
LINE
  5
664
330
1F
100
AcDbEntity
  8
1
  6
CONTINUOUS
370
50
 62
4
100
AcDbLine
 10
62.295765
 20
2.056507
 30
0.0
 11
62.15207299999999
 21
2.07413
 31
0.0
  0
LINE
  5
665
330
1F
100
AcDbEntity
  8
1
  6
CONTINUOUS
370
50
 62
4
100
AcDbLine
 10
62.439457
 20
2.038967
 30
0.0
 11
62.295765
 21
2.056507
 31
0.0
  0
LINE
  5
666
330
1F
100
AcDbEntity
  8
1
  6
CONTINUOUS
370
50
 62
4
100
AcDbLine
 10
51.957848
 20
-1.039434
 30
0.0
 11
50.990784
 21
-0.921862
 31
0.0
  0
LINE
  5
667
330
1F
100
AcDbEntity
  8
1
  6
CONTINUOUS
370
50
 62
4
100
AcDbLine
 10
51.983311
 20
-1.043934
 30
0.0
 11
50.99166899999999
 21
-0.923418
 31
0.0
  0
LINE
  5
668
330
1F
100
AcDbEntity
  8
1
  6
CONTINUOUS
370
50
 62
4
100
AcDbLine
 10
62.58314499999999
 20
2.021511
 30
0.0
 11
62.439457
 21
2.038967
 31
0.0
  0
LINE
  5
669
330
1F
100
AcDbEntity
  8
1
  6
CONTINUOUS
370
50
 62
4
100
AcDbLine
 10
62.704105
 20
2.006879
 30
0.0
 11
62.58314499999999
 21
2.021511
 31
0.0
  0
LINE
  5
66A
330
1F
100
AcDbEntity
  8
1
  6
CONTINUOUS
370
50
 62
4
100
AcDbLine
 10
62.825066
 20
1.992305
 30
0.0
 11
62.704105
 21
2.006879
 31
0.0
  0
LINE
  5
66B
330
1F
100
AcDbEntity
  8
1
  6
CONTINUOUS
370
50
 62
4
100
AcDbLine
 10
62.946026
 20
1.977788
 30
0.0
 11
62.825066
 21
1.992305
 31
0.0
  0
LINE
  5
66C
330
1F
100
AcDbEntity
  8
1
  6
CONTINUOUS
370
50
 62
4
100
AcDbLine
 10
63.066986
 20
1.963329
 30
0.0
 11
62.946026
 21
1.977788
 31
0.0
  0
LINE
  5
66D
330
1F
100
AcDbEntity
  8
1
  6
CONTINUOUS
370
50
 62
4
100
AcDbLine
 10
49.824818
 20
-2.926666
 30
0.0
 11
49.797756
 21
-2.923441
 31
0.0
  0
LINE
  5
66E
330
1F
100
AcDbEntity
  8
1
  6
CONTINUOUS
370
50
 62
4
100
AcDbLine
 10
63.21343599999999
 20
1.945898
 30
0.0
 11
63.066986
 21
1.963329
 31
0.0
  0
LINE
  5
66F
330
1F
100
AcDbEntity
  8
1
  6
CONTINUOUS
370
50
 62
4
100
AcDbLine
 10
63.359882
 20
1.928548
 30
0.0
 11
63.21343599999999
 21
1.945898
 31
0.0
  0
LINE
  5
670
330
1F
100
AcDbEntity
  8
1
  6
CONTINUOUS
370
50
 62
4
100
AcDbLine
 10
63.50632899999999
 20
1.91128
 30
0.0
 11
63.359882
 21
1.928548
 31
0.0
  0
LINE
  5
671
330
1F
100
AcDbEntity
  8
1
  6
CONTINUOUS
370
50
 62
4
100
AcDbLine
 10
66.86171
 20
2.467212
 30
0.0
 11
66.776085
 21
2.477304
 31
0.0
  0
LINE
  5
672
330
1F
100
AcDbEntity
  8
1
  6
CONTINUOUS
370
50
 62
4
100
AcDbLine
 10
55.627159
 20
0.871265
 30
0.0
 11
54.580101
 21
0.994556
 31
0.0
  0
LINE
  5
673
330
1F
100
AcDbEntity
  8
1
  6
CONTINUOUS
370
50
 62
4
100
AcDbLine
 10
57.807537
 20
2.639771
 30
0.0
 11
56.879101
 21
2.748917
 31
0.0
  0
LINE
  5
674
330
1F
100
AcDbEntity
  8
1
  6
CONTINUOUS
370
50
 62
4
100
AcDbLine
 10
63.652775
 20
1.894092
 30
0.0
 11
63.50632899999999
 21
1.91128
 31
0.0
  0
LINE
  5
675
330
1F
100
AcDbEntity
  8
1
  6
CONTINUOUS
370
50
 62
4
100
AcDbLine
 10
63.799221
 20
1.876984
 30
0.0
 11
63.652775
 21
1.894092
 31
0.0
  0
LINE
  5
676
330
1F
100
AcDbEntity
  8
1
  6
CONTINUOUS
370
50
 62
4
100
AcDbLine
 10
63.945667
 20
1.859955
 30
0.0
 11
63.799221
 21
1.876984
 31
0.0
  0
LINE
  5
677
330
1F
100
AcDbEntity
  8
1
  6
CONTINUOUS
370
50
 62
4
100
AcDbLine
 10
64.092117
 20
1.843004
 30
0.0
 11
63.945667
 21
1.859955
 31
0.0
  0
LINE
  5
678
330
1F
100
AcDbEntity
  8
1
  6
CONTINUOUS
370
50
 62
4
100
AcDbLine
 10
64.238564
 20
1.826131
 30
0.0
 11
64.092117
 21
1.843004
 31
0.0
  0
LINE
  5
679
330
1F
100
AcDbEntity
  8
1
  6
CONTINUOUS
370
50
 62
4
100
AcDbLine
 10
64.354004
 20
1.812885
 30
0.0
 11
64.238564
 21
1.826131
 31
0.0
  0
LINE
  5
67A
330
1F
100
AcDbEntity
  8
1
  6
CONTINUOUS
370
50
 62
4
100
AcDbLine
 10
64.469437
 20
1.799687
 30
0.0
 11
64.354004
 21
1.812885
 31
0.0
  0
LINE
  5
67B
330
1F
100
AcDbEntity
  8
1
  6
CONTINUOUS
370
50
 62
4
100
AcDbLine
 10
63.374546
 20
-2.746204
 30
0.0
 11
62.444374
 21
-2.640161
 31
0.0
  0
LINE
  5
67C
330
1F
100
AcDbEntity
  8
1
  6
CONTINUOUS
370
50
 62
4
100
AcDbLine
 10
64.58487699999999
 20
1.786536
 30
0.0
 11
64.469437
 21
1.799687
 31
0.0
  0
LINE
  5
67D
330
1F
100
AcDbEntity
  8
1
  6
CONTINUOUS
370
50
 62
4
100
AcDbLine
 10
64.700317
 20
1.773432
 30
0.0
 11
64.58487699999999
 21
1.786536
 31
0.0
  0
LINE
  5
67E
330
1F
100
AcDbEntity
  8
1
  6
CONTINUOUS
370
50
 62
4
100
AcDbLine
 10
65.28662899999999
 20
-2.749643
 30
0.0
 11
64.384933
 21
-2.647376
 31
0.0
  0
LINE
  5
67F
330
1F
100
AcDbEntity
  8
1
  6
CONTINUOUS
370
50
 62
4
100
AcDbLine
 10
64.847931
 20
1.756746
 30
0.0
 11
64.700317
 21
1.773432
 31
0.0
  0
LINE
  5
680
330
1F
100
AcDbEntity
  8
1
  6
CONTINUOUS
370
50
 62
4
100
AcDbLine
 10
64.995544
 20
1.740137
 30
0.0
 11
64.847931
 21
1.756746
 31
0.0
  0
LINE
  5
681
330
1F
100
AcDbEntity
  8
1
  6
CONTINUOUS
370
50
 62
4
100
AcDbLine
 10
65.143158
 20
1.723604
 30
0.0
 11
64.995544
 21
1.740137
 31
0.0
  0
LINE
  5
682
330
1F
100
AcDbEntity
  8
1
  6
CONTINUOUS
370
50
 62
4
100
AcDbLine
 10
65.29077099999999
 20
1.707149
 30
0.0
 11
65.143158
 21
1.723604
 31
0.0
  0
LINE
  5
683
330
1F
100
AcDbEntity
  8
1
  6
CONTINUOUS
370
50
 62
4
100
AcDbLine
 10
52.945057
 20
-1.149081
 30
0.0
 11
51.957848
 21
-1.039434
 31
0.0
  0
LINE
  5
684
330
1F
100
AcDbEntity
  8
1
  6
CONTINUOUS
370
50
 62
4
100
AcDbLine
 10
65.438377
 20
1.690772
 30
0.0
 11
65.29077099999999
 21
1.707149
 31
0.0
  0
LINE
  5
685
330
1F
100
AcDbEntity
  8
1
  6
CONTINUOUS
370
50
 62
4
100
AcDbLine
 10
54.580101
 20
0.994556
 30
0.0
 11
53.533066
 21
1.110369
 31
0.0
  0
LINE
  5
686
330
1F
100
AcDbEntity
  8
1
  6
CONTINUOUS
370
50
 62
4
100
AcDbLine
 10
52.974934
 20
-1.153573
 30
0.0
 11
51.983311
 21
-1.043934
 31
0.0
  0
LINE
  5
687
330
1F
100
AcDbEntity
  8
1
  6
CONTINUOUS
370
50
 62
4
100
AcDbLine
 10
65.585983
 20
1.674472
 30
0.0
 11
65.438377
 21
1.690772
 31
0.0
  0
LINE
  5
688
330
1F
100
AcDbEntity
  8
1
  6
CONTINUOUS
370
50
 62
4
100
AcDbLine
 10
65.733582
 20
1.658251
 30
0.0
 11
65.585983
 21
1.674472
 31
0.0
  0
LINE
  5
689
330
1F
100
AcDbEntity
  8
1
  6
CONTINUOUS
370
50
 62
4
100
AcDbLine
 10
65.881187
 20
1.642108
 30
0.0
 11
65.733582
 21
1.658251
 31
0.0
  0
LINE
  5
68A
330
1F
100
AcDbEntity
  8
1
  6
CONTINUOUS
370
50
 62
4
100
AcDbLine
 10
49.85317999999999
 20
-2.929763
 30
0.0
 11
49.824818
 21
-2.926666
 31
0.0
  0
LINE
  5
68B
330
1F
100
AcDbEntity
  8
1
  6
CONTINUOUS
370
50
 62
4
100
AcDbLine
 10
65.994301
 20
1.62979
 30
0.0
 11
65.881187
 21
1.642108
 31
0.0
  0
LINE
  5
68C
330
1F
100
AcDbEntity
  8
1
  6
CONTINUOUS
370
50
 62
4
100
AcDbLine
 10
66.107407
 20
1.61752
 30
0.0
 11
65.994301
 21
1.62979
 31
0.0
  0
LINE
  5
68D
330
1F
100
AcDbEntity
  8
1
  6
CONTINUOUS
370
50
 62
4
100
AcDbLine
 10
66.22052
 20
1.605297
 30
0.0
 11
66.107407
 21
1.61752
 31
0.0
  0
LINE
  5
68E
330
1F
100
AcDbEntity
  8
1
  6
CONTINUOUS
370
50
 62
4
100
AcDbLine
 10
57.32085799999999
 20
1.843552
 30
0.0
 11
56.27502399999999
 21
1.956158
 31
0.0
  0
LINE
  5
68F
330
1F
100
AcDbEntity
  8
1
  6
CONTINUOUS
370
50
 62
4
100
AcDbLine
 10
66.33363299999999
 20
1.593122
 30
0.0
 11
66.22052
 21
1.605297
 31
0.0
  0
LINE
  5
690
330
1F
100
AcDbEntity
  8
1
  6
CONTINUOUS
370
50
 62
4
100
AcDbLine
 10
55.673012
 20
2.676486
 30
0.0
 11
54.631557
 21
2.788495
 31
0.0
  0
LINE
  5
691
330
1F
100
AcDbEntity
  8
1
  6
CONTINUOUS
370
50
 62
4
100
AcDbLine
 10
66.477135
 20
1.577744
 30
0.0
 11
66.33363299999999
 21
1.593122
 31
0.0
  0
LINE
  5
692
330
1F
100
AcDbEntity
  8
1
  6
CONTINUOUS
370
50
 62
4
100
AcDbLine
 10
66.62063599999999
 20
1.56245
 30
0.0
 11
66.477135
 21
1.577744
 31
0.0
  0
LINE
  5
693
330
1F
100
AcDbEntity
  8
1
  6
CONTINUOUS
370
50
 62
4
100
AcDbLine
 10
66.764145
 20
1.547243
 30
0.0
 11
66.62063599999999
 21
1.56245
 31
0.0
  0
LINE
  5
694
330
1F
100
AcDbEntity
  8
1
  6
CONTINUOUS
370
50
 62
4
100
AcDbLine
 10
66.907654
 20
1.53212
 30
0.0
 11
66.764145
 21
1.547243
 31
0.0
  0
LINE
  5
695
330
1F
100
AcDbEntity
  8
1
  6
CONTINUOUS
370
50
 62
4
100
AcDbLine
 10
67.051155
 20
1.51708
 30
0.0
 11
66.907654
 21
1.53212
 31
0.0
  0
LINE
  5
696
330
1F
100
AcDbEntity
  8
1
  6
CONTINUOUS
370
50
 62
4
100
AcDbLine
 10
67.194656
 20
1.502118
 30
0.0
 11
67.051155
 21
1.51708
 31
0.0
  0
LINE
  5
697
330
1F
100
AcDbEntity
  8
1
  6
CONTINUOUS
370
50
 62
4
100
AcDbLine
 10
66.776085
 20
2.477304
 30
0.0
 11
66.688194
 21
2.486436
 31
0.0
  0
LINE
  5
698
330
1F
100
AcDbEntity
  8
1
  6
CONTINUOUS
370
50
 62
4
100
AcDbLine
 10
67.33815
 20
1.487235
 30
0.0
 11
67.194656
 21
1.502118
 31
0.0
  0
LINE
  5
699
330
1F
100
AcDbEntity
  8
1
  6
CONTINUOUS
370
50
 62
4
100
AcDbLine
 10
53.533066
 20
1.110369
 30
0.0
 11
52.48604599999999
 21
1.218944
 31
0.0
  0
LINE
  5
69A
330
1F
100
AcDbEntity
  8
1
  6
CONTINUOUS
370
50
 62
4
100
AcDbLine
 10
67.481644
 20
1.472426
 30
0.0
 11
67.33815
 21
1.487235
 31
0.0
  0
LINE
  5
69B
330
1F
100
AcDbEntity
  8
1
  6
CONTINUOUS
370
50
 62
4
100
AcDbLine
 10
67.66023299999999
 20
1.454097
 30
0.0
 11
67.481644
 21
1.472426
 31
0.0
  0
LINE
  5
69C
330
1F
100
AcDbEntity
  8
1
  6
CONTINUOUS
370
50
 62
4
100
AcDbLine
 10
49.882427
 20
-2.932718
 30
0.0
 11
49.85317999999999
 21
-2.929763
 31
0.0
  0
LINE
  5
69D
330
1F
100
AcDbEntity
  8
1
  6
CONTINUOUS
370
50
 62
4
100
AcDbLine
 10
53.941986
 20
-1.248114
 30
0.0
 11
52.945057
 21
-1.149081
 31
0.0
  0
LINE
  5
69E
330
1F
100
AcDbEntity
  8
1
  6
CONTINUOUS
370
50
 62
4
100
AcDbLine
 10
53.966564
 20
-1.252059
 30
0.0
 11
52.974934
 21
-1.153573
 31
0.0
  0
LINE
  5
69F
330
1F
100
AcDbEntity
  8
1
  6
CONTINUOUS
370
50
 62
4
100
AcDbLine
 10
50.179901
 20
1.440205
 30
0.0
 11
50.0
 21
1.458058
 31
0.0
  0
LINE
  5
6A0
330
1F
100
AcDbEntity
  8
1
  6
CONTINUOUS
370
50
 62
4
100
AcDbLine
 10
49.797756
 20
-2.923441
 30
0.0
 11
49.558197
 21
-2.899761
 31
0.0
  0
LINE
  5
6A1
330
1F
100
AcDbEntity
  8
1
  6
CONTINUOUS
370
50
 62
4
100
AcDbLine
 10
50.35980199999999
 20
1.422511
 30
0.0
 11
50.179901
 21
1.440205
 31
0.0
  0
LINE
  5
6A2
330
1F
100
AcDbEntity
  8
1
  6
CONTINUOUS
370
50
 62
4
100
AcDbLine
 10
50.539688
 20
1.40498
 30
0.0
 11
50.35980199999999
 21
1.422511
 31
0.0
  0
LINE
  5
6A3
330
1F
100
AcDbEntity
  8
1
  6
CONTINUOUS
370
50
 62
4
100
AcDbLine
 10
50.71957399999999
 20
1.387613
 30
0.0
 11
50.539688
 21
1.40498
 31
0.0
  0
LINE
  5
6A4
330
1F
100
AcDbEntity
  8
1
  6
CONTINUOUS
370
50
 62
4
100
AcDbLine
 10
52.48604599999999
 20
1.218944
 30
0.0
 11
51.43902199999999
 21
1.31988
 31
0.0
  0
LINE
  5
6A5
330
1F
100
AcDbEntity
  8
1
  6
CONTINUOUS
370
50
 62
4
100
AcDbLine
 10
66.18736299999999
 20
-2.835924
 30
0.0
 11
65.28662899999999
 21
-2.749643
 31
0.0
  0
LINE
  5
6A6
330
1F
100
AcDbEntity
  8
1
  6
CONTINUOUS
370
50
 62
4
100
AcDbLine
 10
56.879101
 20
2.748917
 30
0.0
 11
55.948467
 21
2.837962
 31
0.0
  0
LINE
  5
6A7
330
1F
100
AcDbEntity
  8
1
  6
CONTINUOUS
370
50
 62
4
100
AcDbLine
 10
50.899448
 20
1.370415
 30
0.0
 11
50.71957399999999
 21
1.387613
 31
0.0
  0
LINE
  5
6A8
330
1F
100
AcDbEntity
  8
1
  6
CONTINUOUS
370
50
 62
4
100
AcDbLine
 10
64.300606
 20
-2.833863
 30
0.0
 11
63.374546
 21
-2.746204
 31
0.0
  0
LINE
  5
6A9
330
1F
100
AcDbEntity
  8
1
  6
CONTINUOUS
370
50
 62
4
100
AcDbLine
 10
51.079319
 20
1.35339
 30
0.0
 11
50.899448
 21
1.370415
 31
0.0
  0
LINE
  5
6AA
330
1F
100
AcDbEntity
  8
1
  6
CONTINUOUS
370
50
 62
4
100
AcDbLine
 10
49.91214799999999
 20
-2.93552
 30
0.0
 11
49.882427
 21
-2.932718
 31
0.0
  0
LINE
  5
6AB
330
1F
100
AcDbEntity
  8
1
  6
CONTINUOUS
370
50
 62
4
100
AcDbLine
 10
51.25917099999999
 20
1.336544
 30
0.0
 11
51.079319
 21
1.35339
 31
0.0
  0
LINE
  5
6AC
330
1F
100
AcDbEntity
  8
1
  6
CONTINUOUS
370
50
 62
4
100
AcDbLine
 10
51.43902199999999
 20
1.31988
 30
0.0
 11
51.25917099999999
 21
1.336544
 31
0.0
  0
LINE
  5
6AD
330
1F
100
AcDbEntity
  8
1
  6
CONTINUOUS
370
50
 62
4
100
AcDbLine
 10
66.688194
 20
2.486436
 30
0.0
 11
66.59832
 21
2.494682
 31
0.0
  0
LINE
  5
6AE
330
1F
100
AcDbEntity
  8
1
  6
CONTINUOUS
370
50
 62
4
100
AcDbLine
 10
56.27502399999999
 20
1.956158
 30
0.0
 11
55.229191
 21
2.051013
 31
0.0
  0
LINE
  5
6AF
330
1F
100
AcDbEntity
  8
1
  6
CONTINUOUS
370
50
 62
4
100
AcDbLine
 10
54.958214
 20
-1.339936
 30
0.0
 11
53.966564
 21
-1.252059
 31
0.0
  0
LINE
  5
6B0
330
1F
100
AcDbEntity
  8
1
  6
CONTINUOUS
370
50
 62
4
100
AcDbLine
 10
49.94192899999999
 20
-2.938158
 30
0.0
 11
49.91214799999999
 21
-2.93552
 31
0.0
  0
LINE
  5
6B1
330
1F
100
AcDbEntity
  8
1
  6
CONTINUOUS
370
50
 62
4
100
AcDbLine
 10
54.940041
 20
-1.336245
 30
0.0
 11
53.941986
 21
-1.248114
 31
0.0
  0
LINE
  5
6B2
330
1F
100
AcDbEntity
  8
1
  6
CONTINUOUS
370
50
 62
4
100
AcDbLine
 10
54.631557
 20
2.788495
 30
0.0
 11
53.598888
 21
2.877295
 31
0.0
  0
LINE
  5
6B3
330
1F
100
AcDbEntity
  8
1
  6
CONTINUOUS
370
50
 62
4
100
AcDbLine
 10
49.971352
 20
-2.94062
 30
0.0
 11
49.94192899999999
 21
-2.938158
 31
0.0
  0
LINE
  5
6B4
330
1F
100
AcDbEntity
  8
1
  6
CONTINUOUS
370
50
 62
4
100
AcDbLine
 10
50.0
 20
-2.942892
 30
0.0
 11
49.971352
 21
-2.94062
 31
0.0
  0
LINE
  5
6B5
330
1F
100
AcDbEntity
  8
1
  6
CONTINUOUS
370
50
 62
4
100
AcDbLine
 10
55.949886
 20
-1.417567
 30
0.0
 11
54.958214
 21
-1.339936
 31
0.0
  0
LINE
  5
6B6
330
1F
100
AcDbEntity
  8
1
  6
CONTINUOUS
370
50
 62
4
100
AcDbLine
 10
55.93192699999999
 20
-1.413384
 30
0.0
 11
54.940041
 21
-1.336245
 31
0.0
  0
LINE
  5
6B7
330
1F
100
AcDbEntity
  8
1
  6
CONTINUOUS
370
50
 62
4
100
AcDbLine
 10
67.08242
 20
-2.90518
 30
0.0
 11
66.18736299999999
 21
-2.835924
 31
0.0
  0
LINE
  5
6B8
330
1F
100
AcDbEntity
  8
1
  6
CONTINUOUS
370
50
 62
4
100
AcDbLine
 10
65.231064
 20
-2.904018
 30
0.0
 11
64.300606
 21
-2.833863
 31
0.0
  0
LINE
  5
6B9
330
1F
100
AcDbEntity
  8
1
  6
CONTINUOUS
370
50
 62
4
100
AcDbLine
 10
55.948467
 20
2.837962
 30
0.0
 11
55.011284
 21
2.907956
 31
0.0
  0
LINE
  5
6BA
330
1F
100
AcDbEntity
  8
1
  6
CONTINUOUS
370
50
 62
4
100
AcDbLine
 10
55.229191
 20
2.051013
 30
0.0
 11
54.183353
 21
2.129006
 31
0.0
  0
LINE
  5
6BB
330
1F
100
AcDbEntity
  8
1
  6
CONTINUOUS
370
50
 62
4
100
AcDbLine
 10
53.598888
 20
2.877295
 30
0.0
 11
52.567665
 21
2.94326
 31
0.0
  0
LINE
  5
6BC
330
1F
100
AcDbEntity
  8
1
  6
CONTINUOUS
370
50
 62
4
100
AcDbLine
 10
54.183353
 20
2.129006
 30
0.0
 11
53.137512
 21
2.189559
 31
0.0
  0
LINE
  5
6BD
330
1F
100
AcDbEntity
  8
1
  6
CONTINUOUS
370
50
 62
4
100
AcDbLine
 10
67.967056
 20
-2.956368
 30
0.0
 11
67.08242
 21
-2.90518
 31
0.0
  0
LINE
  5
6BE
330
1F
100
AcDbEntity
  8
1
  6
CONTINUOUS
370
50
 62
4
100
AcDbLine
 10
66.161324
 20
-2.955752
 30
0.0
 11
65.231064
 21
-2.904018
 31
0.0
  0
LINE
  5
6BF
330
1F
100
AcDbEntity
  8
1
  6
CONTINUOUS
370
50
 62
4
100
AcDbLine
 10
55.011284
 20
2.907956
 30
0.0
 11
54.074379
 21
2.958539
 31
0.0
  0
LINE
  5
6C0
330
1F
100
AcDbEntity
  8
1
  6
CONTINUOUS
370
50
 62
4
100
AcDbLine
 10
50.39502299999999
 20
-2.957842
 30
0.0
 11
50.0
 21
-2.938062
 31
0.0
  0
LINE
  5
6C1
330
1F
100
AcDbEntity
  8
1
  6
CONTINUOUS
370
50
 62
4
100
AcDbLine
 10
50.77596699999999
 20
-2.973507
 30
0.0
 11
50.39502299999999
 21
-2.957842
 31
0.0
  0
LINE
  5
6C2
330
1F
100
AcDbEntity
  8
1
  6
CONTINUOUS
370
50
 62
4
100
AcDbLine
 10
52.567665
 20
2.94326
 30
0.0
 11
51.540821
 21
2.984846
 31
0.0
  0
LINE
  5
6C3
330
1F
100
AcDbEntity
  8
1
  6
CONTINUOUS
370
50
 62
4
100
AcDbLine
 10
53.137512
 20
2.189559
 30
0.0
 11
52.091675
 21
2.231748
 31
0.0
  0
LINE
  5
6C4
330
1F
100
AcDbEntity
  8
1
  6
CONTINUOUS
370
50
 62
4
100
AcDbLine
 10
67.086075
 20
-2.988065
 30
0.0
 11
66.161324
 21
-2.955752
 31
0.0
  0
LINE
  5
6C5
330
1F
100
AcDbEntity
  8
1
  6
CONTINUOUS
370
50
 62
4
100
AcDbLine
 10
54.074379
 20
2.958539
 30
0.0
 11
53.144386
 21
2.989337
 31
0.0
  0
LINE
  5
6C6
330
1F
100
AcDbEntity
  8
1
  6
CONTINUOUS
370
50
 62
4
100
AcDbLine
 10
51.14549599999999
 20
-2.985311
 30
0.0
 11
50.77596699999999
 21
-2.973507
 31
0.0
  0
LINE
  5
6C7
330
1F
100
AcDbEntity
  8
1
  6
CONTINUOUS
370
50
 62
4
100
AcDbLine
 10
67.653725
 20
-0.5099549999999999
 30
0.0
 11
67.561218
 21
-0.50752
 31
0.0
  0
LINE
  5
6C8
330
1F
100
AcDbEntity
  8
1
  6
CONTINUOUS
370
50
 62
4
100
AcDbLine
 10
67.561218
 20
-0.50752
 30
0.0
 11
67.468285
 21
-0.505141
 31
0.0
  0
LINE
  5
6C9
330
1F
100
AcDbEntity
  8
1
  6
CONTINUOUS
370
50
 62
4
100
AcDbLine
 10
67.468285
 20
-0.505141
 30
0.0
 11
67.374985
 21
-0.502821
 31
0.0
  0
LINE
  5
6CA
330
1F
100
AcDbEntity
  8
1
  6
CONTINUOUS
370
50
 62
4
100
AcDbLine
 10
67.374985
 20
-0.502821
 30
0.0
 11
67.281357
 21
-0.50056
 31
0.0
  0
LINE
  5
6CB
330
1F
100
AcDbEntity
  8
1
  6
CONTINUOUS
370
50
 62
4
100
AcDbLine
 10
67.281357
 20
-0.50056
 30
0.0
 11
67.187469
 21
-0.49836
 31
0.0
  0
LINE
  5
6CC
330
1F
100
AcDbEntity
  8
1
  6
CONTINUOUS
370
50
 62
4
100
AcDbLine
 10
51.506294
 20
-2.993508
 30
0.0
 11
51.14549599999999
 21
-2.985311
 31
0.0
  0
LINE
  5
6CD
330
1F
100
AcDbEntity
  8
1
  6
CONTINUOUS
370
50
 62
4
100
AcDbLine
 10
67.187469
 20
-0.49836
 30
0.0
 11
67.09337599999999
 21
-0.496224
 31
0.0
  0
LINE
  5
6CE
330
1F
100
AcDbEntity
  8
1
  6
CONTINUOUS
370
50
 62
4
100
AcDbLine
 10
67.09337599999999
 20
-0.496224
 30
0.0
 11
66.99913
 21
-0.494153
 31
0.0
  0
LINE
  5
6CF
330
1F
100
AcDbEntity
  8
1
  6
CONTINUOUS
370
50
 62
4
100
AcDbLine
 10
52.091675
 20
2.231748
 30
0.0
 11
51.045834
 21
2.254519
 31
0.0
  0
LINE
  5
6D0
330
1F
100
AcDbEntity
  8
1
  6
CONTINUOUS
370
50
 62
4
100
AcDbLine
 10
67.441414
 20
1.476848
 30
0.0
 11
67.39870499999999
 21
1.477521
 31
0.0
  0
LINE
  5
6D1
330
1F
100
AcDbEntity
  8
1
  6
CONTINUOUS
370
50
 62
4
100
AcDbLine
 10
67.484047
 20
1.476216
 30
0.0
 11
67.441414
 21
1.476848
 31
0.0
  0
LINE
  5
6D2
330
1F
100
AcDbEntity
  8
1
  6
CONTINUOUS
370
50
 62
4
100
AcDbLine
 10
51.540821
 20
2.984846
 30
0.0
 11
50.505886
 21
2.999941
 31
0.0
  0
LINE
  5
6D3
330
1F
100
AcDbEntity
  8
1
  6
CONTINUOUS
370
50
 62
4
100
AcDbLine
 10
67.526596
 20
1.475625
 30
0.0
 11
67.484047
 21
1.476216
 31
0.0
  0
LINE
  5
6D4
330
1F
100
AcDbEntity
  8
1
  6
CONTINUOUS
370
50
 62
4
100
AcDbLine
 10
51.861675
 20
-2.998338
 30
0.0
 11
51.506294
 21
-2.993508
 31
0.0
  0
LINE
  5
6D5
330
1F
100
AcDbEntity
  8
1
  6
CONTINUOUS
370
50
 62
4
100
AcDbLine
 10
68.0
 20
-2.999958
 30
0.0
 11
67.086075
 21
-2.988065
 31
0.0
  0
LINE
  5
6D6
330
1F
100
AcDbEntity
  8
1
  6
CONTINUOUS
370
50
 62
4
100
AcDbLine
 10
67.56906099999999
 20
1.475075
 30
0.0
 11
67.526596
 21
1.475625
 31
0.0
  0
LINE
  5
6D7
330
1F
100
AcDbEntity
  8
1
  6
CONTINUOUS
370
50
 62
4
100
AcDbLine
 10
67.611443
 20
1.474566
 30
0.0
 11
67.56906099999999
 21
1.475075
 31
0.0
  0
LINE
  5
6D8
330
1F
100
AcDbEntity
  8
1
  6
CONTINUOUS
370
50
 62
4
100
AcDbLine
 10
53.144386
 20
2.989337
 30
0.0
 11
52.216995
 21
2.999915
 31
0.0
  0
LINE
  5
6D9
330
1F
100
AcDbEntity
  8
1
  6
CONTINUOUS
370
50
 62
4
100
AcDbLine
 10
67.653725
 20
1.474097
 30
0.0
 11
67.611443
 21
1.474566
 31
0.0
  0
LINE
  5
6DA
330
1F
100
AcDbEntity
  8
1
  6
CONTINUOUS
370
50
 62
4
100
AcDbLine
 10
50.085873
 20
-2.998266
 30
0.0
 11
50.0
 21
-2.997407
 31
0.0
  0
LINE
  5
6DB
330
1F
100
AcDbEntity
  8
1
  6
CONTINUOUS
370
50
 62
4
100
AcDbLine
 10
50.17107
 20
-2.998948
 30
0.0
 11
50.085873
 21
-2.998266
 31
0.0
  0
LINE
  5
6DC
330
1F
100
AcDbEntity
  8
1
  6
CONTINUOUS
370
50
 62
4
100
AcDbLine
 10
50.255634
 20
-2.999456
 30
0.0
 11
50.17107
 21
-2.998948
 31
0.0
  0
LINE
  5
6DD
330
1F
100
AcDbEntity
  8
1
  6
CONTINUOUS
370
50
 62
4
100
AcDbLine
 10
52.216995
 20
-2.999915
 30
0.0
 11
51.861675
 21
-2.998338
 31
0.0
  0
LINE
  5
6DE
330
1F
100
AcDbEntity
  8
1
  6
CONTINUOUS
370
50
 62
4
100
AcDbLine
 10
50.3396
 20
-2.999791
 30
0.0
 11
50.255634
 21
-2.999456
 31
0.0
  0
LINE
  5
6DF
330
1F
100
AcDbEntity
  8
1
  6
CONTINUOUS
370
50
 62
4
100
AcDbLine
 10
51.045834
 20
2.254519
 30
0.0
 11
50.0
 21
2.256606
 31
0.0
  0
LINE
  5
6E0
330
1F
100
AcDbEntity
  8
1
  6
CONTINUOUS
370
50
 62
4
100
AcDbLine
 10
50.423004
 20
-2.999952
 30
0.0
 11
50.3396
 21
-2.999791
 31
0.0
  0
LINE
  5
6E1
330
1F
100
AcDbEntity
  8
1
  6
CONTINUOUS
370
50
 62
4
100
AcDbLine
 10
49.066132
 20
2.998673
 30
0.0
 11
48.755005
 21
2.998974
 31
0.0
  0
LINE
  5
6E2
330
1F
100
AcDbEntity
  8
1
  6
CONTINUOUS
370
50
 62
4
100
AcDbLine
 10
48.755005
 20
2.998974
 30
0.0
 11
48.443943
 21
2.999266
 31
0.0
  0
LINE
  5
6E3
330
1F
100
AcDbEntity
  8
1
  6
CONTINUOUS
370
50
 62
4
100
AcDbLine
 10
49.377335
 20
2.998382
 30
0.0
 11
49.066132
 21
2.998673
 31
0.0
  0
LINE
  5
6E4
330
1F
100
AcDbEntity
  8
1
  6
CONTINUOUS
370
50
 62
4
100
AcDbLine
 10
48.443943
 20
2.999266
 30
0.0
 11
48.132942
 21
2.999532
 31
0.0
  0
LINE
  5
6E5
330
1F
100
AcDbEntity
  8
1
  6
CONTINUOUS
370
50
 62
4
100
AcDbLine
 10
47.696209
 20
2.999851
 30
0.0
 11
47.63309899999999
 21
2.999905
 31
0.0
  0
LINE
  5
6E6
330
1F
100
AcDbEntity
  8
1
  6
CONTINUOUS
370
50
 62
4
100
AcDbLine
 10
47.759197
 20
2.999798
 30
0.0
 11
47.696209
 21
2.999851
 31
0.0
  0
LINE
  5
6E7
330
1F
100
AcDbEntity
  8
1
  6
CONTINUOUS
370
50
 62
4
100
AcDbLine
 10
49.688622
 20
2.998121
 30
0.0
 11
49.377335
 21
2.998382
 31
0.0
  0
LINE
  5
6E8
330
1F
100
AcDbEntity
  8
1
  6
CONTINUOUS
370
50
 62
4
100
AcDbLine
 10
47.63309899999999
 20
2.999905
 30
0.0
 11
47.569931
 21
2.999954
 31
0.0
  0
LINE
  5
6E9
330
1F
100
AcDbEntity
  8
1
  6
CONTINUOUS
370
50
 62
4
100
AcDbLine
 10
47.821995
 20
2.999752
 30
0.0
 11
47.759197
 21
2.999798
 31
0.0
  0
LINE
  5
6EA
330
1F
100
AcDbEntity
  8
1
  6
CONTINUOUS
370
50
 62
4
100
AcDbLine
 10
48.132942
 20
2.999532
 30
0.0
 11
47.821995
 21
2.999752
 31
0.0
  0
LINE
  5
6EB
330
1F
100
AcDbEntity
  8
1
  6
CONTINUOUS
370
50
 62
4
100
AcDbLine
 10
50.0
 20
2.997908
 30
0.0
 11
49.688622
 21
2.998121
 31
0.0
  0
LINE
  5
6EC
330
1F
100
AcDbEntity
  8
1
  6
CONTINUOUS
370
50
 62
4
100
AcDbLine
 10
47.569931
 20
2.999954
 30
0.0
 11
47.506771
 21
2.99999
 31
0.0
  0
LINE
  5
6ED
330
1F
100
AcDbEntity
  8
1
  6
CONTINUOUS
370
50
 62
4
100
AcDbLine
 10
47.506771
 20
2.99999
 30
0.0
 11
47.443684
 21
3.000005
 31
0.0
  0
LINE
  5
6EE
330
1F
100
AcDbEntity
  8
1
  6
CONTINUOUS
370
50
 62
4
100
AcDbLine
 10
50.505886
 20
2.999941
 30
0.0
 11
50.423004
 21
2.999952
 31
0.0
  0
LINE
  5
6EF
330
1F
100
AcDbEntity
  8
1
  6
CONTINUOUS
370
50
 62
4
100
AcDbLine
 10
52.21449699999999
 20
-2.999912
 30
0.0
 11
50.451038
 21
-2.999902
 31
0.0
  0
LINE
  5
6F0
330
1F
100
AcDbEntity
  8
1
  6
CONTINUOUS
370
50
 62
4
100
AcDbLine
 10
44.0
 20
-2.99995
 30
0.0
 11
47.441792
 21
-2.99995
 31
0.0
  0
LINE
  5
6F1
330
1F
100
AcDbEntity
  8
1
  6
CONTINUOUS
370
50
 62
4
100
AcDbLine
 10
44.0
 20
2.99995
 30
0.0
 11
47.441792
 21
2.99995
 31
0.0
  0
LINE
  5
6F2
330
1F
100
AcDbEntity
  8
1
  6
CONTINUOUS
370
50
 62
4
100
AcDbLine
 10
50.451038
 20
2.999902
 30
0.0
 11
52.21449699999999
 21
2.999912
 31
0.0
  0
LINE
  5
6F3
330
1F
100
AcDbEntity
  8
1
  6
CONTINUOUS
370
50
 62
4
100
AcDbLine
 10
50.423004
 20
-2.999952
 30
0.0
 11
50.505886
 21
-2.999941
 31
0.0
  0
LINE
  5
6F4
330
1F
100
AcDbEntity
  8
1
  6
CONTINUOUS
370
50
 62
4
100
AcDbLine
 10
47.37307699999999
 20
2.999989
 30
0.0
 11
47.443684
 21
3.000005
 31
0.0
  0
LINE
  5
6F5
330
1F
100
AcDbEntity
  8
1
  6
CONTINUOUS
370
50
 62
4
100
AcDbLine
 10
47.443684
 20
-3.000005
 30
0.0
 11
47.506771
 21
-2.99999
 31
0.0
  0
LINE
  5
6F6
330
1F
100
AcDbEntity
  8
1
  6
CONTINUOUS
370
50
 62
4
100
AcDbLine
 10
47.506771
 20
-2.99999
 30
0.0
 11
47.569931
 21
-2.999954
 31
0.0
  0
LINE
  5
6F7
330
1F
100
AcDbEntity
  8
1
  6
CONTINUOUS
370
50
 62
4
100
AcDbLine
 10
49.688622
 20
-2.998121
 30
0.0
 11
50.0
 21
-2.997908
 31
0.0
  0
LINE
  5
6F8
330
1F
100
AcDbEntity
  8
1
  6
CONTINUOUS
370
50
 62
4
100
AcDbLine
 10
47.821995
 20
-2.999752
 30
0.0
 11
48.132942
 21
-2.999532
 31
0.0
  0
LINE
  5
6F9
330
1F
100
AcDbEntity
  8
1
  6
CONTINUOUS
370
50
 62
4
100
AcDbLine
 10
47.759197
 20
-2.999798
 30
0.0
 11
47.821995
 21
-2.999752
 31
0.0
  0
LINE
  5
6FA
330
1F
100
AcDbEntity
  8
1
  6
CONTINUOUS
370
50
 62
4
100
AcDbLine
 10
47.569931
 20
-2.999954
 30
0.0
 11
47.63309899999999
 21
-2.999905
 31
0.0
  0
LINE
  5
6FB
330
1F
100
AcDbEntity
  8
1
  6
CONTINUOUS
370
50
 62
4
100
AcDbLine
 10
49.377335
 20
-2.998382
 30
0.0
 11
49.688622
 21
-2.998121
 31
0.0
  0
LINE
  5
6FC
330
1F
100
AcDbEntity
  8
1
  6
CONTINUOUS
370
50
 62
4
100
AcDbLine
 10
47.696209
 20
-2.999851
 30
0.0
 11
47.759197
 21
-2.999798
 31
0.0
  0
LINE
  5
6FD
330
1F
100
AcDbEntity
  8
1
  6
CONTINUOUS
370
50
 62
4
100
AcDbLine
 10
47.63309899999999
 20
-2.999905
 30
0.0
 11
47.696209
 21
-2.999851
 31
0.0
  0
LINE
  5
6FE
330
1F
100
AcDbEntity
  8
1
  6
CONTINUOUS
370
50
 62
4
100
AcDbLine
 10
48.132942
 20
-2.999532
 30
0.0
 11
48.443943
 21
-2.999266
 31
0.0
  0
LINE
  5
6FF
330
1F
100
AcDbEntity
  8
1
  6
CONTINUOUS
370
50
 62
4
100
AcDbLine
 10
47.302734
 20
2.999928
 30
0.0
 11
47.37307699999999
 21
2.999989
 31
0.0
  0
LINE
  5
700
330
1F
100
AcDbEntity
  8
1
  6
CONTINUOUS
370
50
 62
4
100
AcDbLine
 10
49.066132
 20
-2.998673
 30
0.0
 11
49.377335
 21
-2.998382
 31
0.0
  0
LINE
  5
701
330
1F
100
AcDbEntity
  8
1
  6
CONTINUOUS
370
50
 62
4
100
AcDbLine
 10
48.443943
 20
-2.999266
 30
0.0
 11
48.755005
 21
-2.998974
 31
0.0
  0
LINE
  5
702
330
1F
100
AcDbEntity
  8
1
  6
CONTINUOUS
370
50
 62
4
100
AcDbLine
 10
48.755005
 20
-2.998974
 30
0.0
 11
49.066132
 21
-2.998673
 31
0.0
  0
LINE
  5
703
330
1F
100
AcDbEntity
  8
1
  6
CONTINUOUS
370
50
 62
4
100
AcDbLine
 10
67.935158
 20
2.257585
 30
0.0
 11
68.0
 21
2.25768
 31
0.0
  0
LINE
  5
704
330
1F
100
AcDbEntity
  8
1
  6
CONTINUOUS
370
50
 62
4
100
AcDbLine
 10
47.232754
 20
2.999813
 30
0.0
 11
47.302734
 21
2.999928
 31
0.0
  0
LINE
  5
705
330
1F
100
AcDbEntity
  8
1
  6
CONTINUOUS
370
50
 62
4
100
AcDbLine
 10
50.3396
 20
2.999791
 30
0.0
 11
50.423004
 21
2.999952
 31
0.0
  0
LINE
  5
706
330
1F
100
AcDbEntity
  8
1
  6
CONTINUOUS
370
50
 62
4
100
AcDbLine
 10
67.870316
 20
2.25742
 30
0.0
 11
67.935158
 21
2.257585
 31
0.0
  0
LINE
  5
707
330
1F
100
AcDbEntity
  8
1
  6
CONTINUOUS
370
50
 62
4
100
AcDbLine
 10
47.163227
 20
2.999633
 30
0.0
 11
47.232754
 21
2.999813
 31
0.0
  0
LINE
  5
708
330
1F
100
AcDbEntity
  8
1
  6
CONTINUOUS
370
50
 62
4
100
AcDbLine
 10
47.094246
 20
2.999378
 30
0.0
 11
47.163227
 21
2.999633
 31
0.0
  0
LINE
  5
709
330
1F
100
AcDbEntity
  8
1
  6
CONTINUOUS
370
50
 62
4
100
AcDbLine
 10
67.80547299999999
 20
2.257174
 30
0.0
 11
67.870316
 21
2.25742
 31
0.0
  0
LINE
  5
70A
330
1F
100
AcDbEntity
  8
1
  6
CONTINUOUS
370
50
 62
4
100
AcDbLine
 10
50.255634
 20
2.999456
 30
0.0
 11
50.3396
 21
2.999791
 31
0.0
  0
LINE
  5
70B
330
1F
100
AcDbEntity
  8
1
  6
CONTINUOUS
370
50
 62
4
100
AcDbLine
 10
47.025959
 20
2.999038
 30
0.0
 11
47.094246
 21
2.999378
 31
0.0
  0
LINE
  5
70C
330
1F
100
AcDbEntity
  8
1
  6
CONTINUOUS
370
50
 62
4
100
AcDbLine
 10
67.740631
 20
2.256848
 30
0.0
 11
67.80547299999999
 21
2.257174
 31
0.0
  0
LINE
  5
70D
330
1F
100
AcDbEntity
  8
1
  6
CONTINUOUS
370
50
 62
4
100
AcDbLine
 10
50.17107
 20
2.998948
 30
0.0
 11
50.255634
 21
2.999456
 31
0.0
  0
LINE
  5
70E
330
1F
100
AcDbEntity
  8
1
  6
CONTINUOUS
370
50
 62
4
100
AcDbLine
 10
67.675789
 20
2.256442
 30
0.0
 11
67.740631
 21
2.256848
 31
0.0
  0
LINE
  5
70F
330
1F
100
AcDbEntity
  8
1
  6
CONTINUOUS
370
50
 62
4
100
AcDbLine
 10
46.959259
 20
2.998594
 30
0.0
 11
47.025959
 21
2.999038
 31
0.0
  0
LINE
  5
710
330
1F
100
AcDbEntity
  8
1
  6
CONTINUOUS
370
50
 62
4
100
AcDbLine
 10
67.61095399999999
 20
2.255957
 30
0.0
 11
67.675789
 21
2.256442
 31
0.0
  0
LINE
  5
711
330
1F
100
AcDbEntity
  8
1
  6
CONTINUOUS
370
50
 62
4
100
AcDbLine
 10
50.085873
 20
2.998266
 30
0.0
 11
50.17107
 21
2.998948
 31
0.0
  0
LINE
  5
712
330
1F
100
AcDbEntity
  8
1
  6
CONTINUOUS
370
50
 62
4
100
AcDbLine
 10
46.894447
 20
2.998029
 30
0.0
 11
46.959259
 21
2.998594
 31
0.0
  0
LINE
  5
713
330
1F
100
AcDbEntity
  8
1
  6
CONTINUOUS
370
50
 62
4
100
AcDbLine
 10
50.0
 20
2.997407
 30
0.0
 11
50.085873
 21
2.998266
 31
0.0
  0
LINE
  5
714
330
1F
100
AcDbEntity
  8
1
  6
CONTINUOUS
370
50
 62
4
100
AcDbLine
 10
46.831596
 20
2.997329
 30
0.0
 11
46.894447
 21
2.998029
 31
0.0
  0
LINE
  5
715
330
1F
100
AcDbEntity
  8
1
  6
CONTINUOUS
370
50
 62
4
100
AcDbLine
 10
52.216995
 20
-2.999915
 30
0.0
 11
53.144386
 21
-2.989337
 31
0.0
  0
LINE
  5
716
330
1F
100
AcDbEntity
  8
1
  6
CONTINUOUS
370
50
 62
4
100
AcDbLine
 10
67.047607
 20
2.987117
 30
0.0
 11
68.0
 21
2.999958
 31
0.0
  0
LINE
  5
717
330
1F
100
AcDbEntity
  8
1
  6
CONTINUOUS
370
50
 62
4
100
AcDbLine
 10
46.770756
 20
2.996478
 30
0.0
 11
46.831596
 21
2.997329
 31
0.0
  0
LINE
  5
718
330
1F
100
AcDbEntity
  8
1
  6
CONTINUOUS
370
50
 62
4
100
AcDbLine
 10
46.711987
 20
2.995461
 30
0.0
 11
46.770756
 21
2.996478
 31
0.0
  0
LINE
  5
719
330
1F
100
AcDbEntity
  8
1
  6
CONTINUOUS
370
50
 62
4
100
AcDbLine
 10
49.688622
 20
0.104845
 30
0.0
 11
50.0
 21
0.11067
 31
0.0
  0
LINE
  5
71A
330
1F
100
AcDbEntity
  8
1
  6
CONTINUOUS
370
50
 62
4
100
AcDbLine
 10
46.655354
 20
2.994264
 30
0.0
 11
46.711987
 21
2.995461
 31
0.0
  0
LINE
  5
71B
330
1F
100
AcDbEntity
  8
1
  6
CONTINUOUS
370
50
 62
4
100
AcDbLine
 10
49.377335
 20
0.097297
 30
0.0
 11
49.688622
 21
0.104845
 31
0.0
  0
LINE
  5
71C
330
1F
100
AcDbEntity
  8
1
  6
CONTINUOUS
370
50
 62
4
100
AcDbLine
 10
46.60091
 20
2.992871
 30
0.0
 11
46.655354
 21
2.994264
 31
0.0
  0
LINE
  5
71D
330
1F
100
AcDbEntity
  8
1
  6
CONTINUOUS
370
50
 62
4
100
AcDbLine
 10
66.058662
 20
2.221931
 30
0.0
 11
66.733406
 21
2.241831
 31
0.0
  0
LINE
  5
71E
330
1F
100
AcDbEntity
  8
1
  6
CONTINUOUS
370
50
 62
4
100
AcDbLine
 10
49.066132
 20
0.088046
 30
0.0
 11
49.377335
 21
0.097297
 31
0.0
  0
LINE
  5
71F
330
1F
100
AcDbEntity
  8
1
  6
CONTINUOUS
370
50
 62
4
100
AcDbLine
 10
46.548717
 20
2.991266
 30
0.0
 11
46.60091
 21
2.992871
 31
0.0
  0
LINE
  5
720
330
1F
100
AcDbEntity
  8
1
  6
CONTINUOUS
370
50
 62
4
100
AcDbLine
 10
53.144386
 20
-2.989337
 30
0.0
 11
54.074379
 21
-2.958539
 31
0.0
  0
LINE
  5
721
330
1F
100
AcDbEntity
  8
1
  6
CONTINUOUS
370
50
 62
4
100
AcDbLine
 10
48.755005
 20
0.077112
 30
0.0
 11
49.066132
 21
0.088046
 31
0.0
  0
LINE
  5
722
330
1F
100
AcDbEntity
  8
1
  6
CONTINUOUS
370
50
 62
4
100
AcDbLine
 10
66.08371
 20
2.952157
 30
0.0
 11
67.047607
 21
2.987117
 31
0.0
  0
LINE
  5
723
330
1F
100
AcDbEntity
  8
1
  6
CONTINUOUS
370
50
 62
4
100
AcDbLine
 10
46.49883699999999
 20
2.989437
 30
0.0
 11
46.548717
 21
2.991266
 31
0.0
  0
LINE
  5
724
330
1F
100
AcDbEntity
  8
1
  6
CONTINUOUS
370
50
 62
4
100
AcDbLine
 10
48.443943
 20
0.064518
 30
0.0
 11
48.755005
 21
0.077112
 31
0.0
  0
LINE
  5
725
330
1F
100
AcDbEntity
  8
1
  6
CONTINUOUS
370
50
 62
4
100
AcDbLine
 10
65.383926
 20
2.194512
 30
0.0
 11
66.058662
 21
2.221931
 31
0.0
  0
LINE
  5
726
330
1F
100
AcDbEntity
  8
1
  6
CONTINUOUS
370
50
 62
4
100
AcDbLine
 10
46.451324
 20
2.987366
 30
0.0
 11
46.49883699999999
 21
2.989437
 31
0.0
  0
LINE
  5
727
330
1F
100
AcDbEntity
  8
1
  6
CONTINUOUS
370
50
 62
4
100
AcDbLine
 10
48.132942
 20
0.050285
 30
0.0
 11
48.443943
 21
0.064518
 31
0.0
  0
LINE
  5
728
330
1F
100
AcDbEntity
  8
1
  6
CONTINUOUS
370
50
 62
4
100
AcDbLine
 10
47.821995
 20
0.034433
 30
0.0
 11
48.132942
 21
0.050285
 31
0.0
  0
LINE
  5
729
330
1F
100
AcDbEntity
  8
1
  6
CONTINUOUS
370
50
 62
4
100
AcDbLine
 10
46.405071
 20
2.984978
 30
0.0
 11
46.451324
 21
2.987366
 31
0.0
  0
LINE
  5
72A
330
1F
100
AcDbEntity
  8
1
  6
CONTINUOUS
370
50
 62
4
100
AcDbLine
 10
64.70918999999999
 20
2.159673
 30
0.0
 11
65.383926
 21
2.194512
 31
0.0
  0
LINE
  5
72B
330
1F
100
AcDbEntity
  8
1
  6
CONTINUOUS
370
50
 62
4
100
AcDbLine
 10
54.074379
 20
-2.958539
 30
0.0
 11
55.011284
 21
-2.907956
 31
0.0
  0
LINE
  5
72C
330
1F
100
AcDbEntity
  8
1
  6
CONTINUOUS
370
50
 62
4
100
AcDbLine
 10
65.11430399999999
 20
2.896211
 30
0.0
 11
66.08371
 21
2.952157
 31
0.0
  0
LINE
  5
72D
330
1F
100
AcDbEntity
  8
1
  6
CONTINUOUS
370
50
 62
4
100
AcDbLine
 10
47.767761
 20
0.031255
 30
0.0
 11
47.821995
 21
0.034433
 31
0.0
  0
LINE
  5
72E
330
1F
100
AcDbEntity
  8
1
  6
CONTINUOUS
370
50
 62
4
100
AcDbLine
 10
46.3592
 20
2.982158
 30
0.0
 11
46.405071
 21
2.984978
 31
0.0
  0
LINE
  5
72F
330
1F
100
AcDbEntity
  8
1
  6
CONTINUOUS
370
50
 62
4
100
AcDbLine
 10
64.034454
 20
2.117509
 30
0.0
 11
64.70918999999999
 21
2.159673
 31
0.0
  0
LINE
  5
730
330
1F
100
AcDbEntity
  8
1
  6
CONTINUOUS
370
50
 62
4
100
AcDbLine
 10
47.713383
 20
0.027516
 30
0.0
 11
47.767761
 21
0.031255
 31
0.0
  0
LINE
  5
731
330
1F
100
AcDbEntity
  8
1
  6
CONTINUOUS
370
50
 62
4
100
AcDbLine
 10
63.35971499999999
 20
2.068114
 30
0.0
 11
64.034454
 21
2.117509
 31
0.0
  0
LINE
  5
732
330
1F
100
AcDbEntity
  8
1
  6
CONTINUOUS
370
50
 62
4
100
AcDbLine
 10
46.314335
 20
2.978839
 30
0.0
 11
46.3592
 21
2.982158
 31
0.0
  0
LINE
  5
733
330
1F
100
AcDbEntity
  8
1
  6
CONTINUOUS
370
50
 62
4
100
AcDbLine
 10
55.011284
 20
-2.907956
 30
0.0
 11
55.948467
 21
-2.837962
 31
0.0
  0
LINE
  5
734
330
1F
100
AcDbEntity
  8
1
  6
CONTINUOUS
370
50
 62
4
100
AcDbLine
 10
64.145416
 20
2.820409
 30
0.0
 11
65.11430399999999
 21
2.896211
 31
0.0
  0
LINE
  5
735
330
1F
100
AcDbEntity
  8
1
  6
CONTINUOUS
370
50
 62
4
100
AcDbLine
 10
47.658897
 20
0.023205
 30
0.0
 11
47.713383
 21
0.027516
 31
0.0
  0
LINE
  5
736
330
1F
100
AcDbEntity
  8
1
  6
CONTINUOUS
370
50
 62
4
100
AcDbLine
 10
62.68497799999999
 20
2.011582
 30
0.0
 11
63.35971499999999
 21
2.068114
 31
0.0
  0
LINE
  5
737
330
1F
100
AcDbEntity
  8
1
  6
CONTINUOUS
370
50
 62
4
100
AcDbLine
 10
47.604351
 20
0.01831
 30
0.0
 11
47.658897
 21
0.023205
 31
0.0
  0
LINE
  5
738
330
1F
100
AcDbEntity
  8
1
  6
CONTINUOUS
370
50
 62
4
100
AcDbLine
 10
46.271111
 20
2.974956
 30
0.0
 11
46.314335
 21
2.978839
 31
0.0
  0
LINE
  5
739
330
1F
100
AcDbEntity
  8
1
  6
CONTINUOUS
370
50
 62
4
100
AcDbLine
 10
55.948467
 20
-2.837962
 30
0.0
 11
56.879101
 21
-2.748917
 31
0.0
  0
LINE
  5
73A
330
1F
100
AcDbEntity
  8
1
  6
CONTINUOUS
370
50
 62
4
100
AcDbLine
 10
63.18078999999999
 20
2.72561
 30
0.0
 11
64.145416
 21
2.820409
 31
0.0
  0
LINE
  5
73B
330
1F
100
AcDbEntity
  8
1
  6
CONTINUOUS
370
50
 62
4
100
AcDbLine
 10
47.549786
 20
0.012821
 30
0.0
 11
47.604351
 21
0.01831
 31
0.0
  0
LINE
  5
73C
330
1F
100
AcDbEntity
  8
1
  6
CONTINUOUS
370
50
 62
4
100
AcDbLine
 10
46.23016
 20
2.970443
 30
0.0
 11
46.271111
 21
2.974956
 31
0.0
  0
LINE
  5
73D
330
1F
100
AcDbEntity
  8
1
  6
CONTINUOUS
370
50
 62
4
100
AcDbLine
 10
47.495239
 20
0.006726
 30
0.0
 11
47.549786
 21
0.012821
 31
0.0
  0
LINE
  5
73E
330
1F
100
AcDbEntity
  8
1
  6
CONTINUOUS
370
50
 62
4
100
AcDbLine
 10
56.879101
 20
-2.748917
 30
0.0
 11
57.807537
 21
-2.639771
 31
0.0
  0
LINE
  5
73F
330
1F
100
AcDbEntity
  8
1
  6
CONTINUOUS
370
50
 62
4
100
AcDbLine
 10
62.21019699999999
 20
2.610593
 30
0.0
 11
63.18078999999999
 21
2.72561
 31
0.0
  0
LINE
  5
740
330
1F
100
AcDbEntity
  8
1
  6
CONTINUOUS
370
50
 62
4
100
AcDbLine
 10
47.440758
 20
0.0
 30
0.0
 11
47.495239
 21
0.006726
 31
0.0
  0
LINE
  5
741
330
1F
100
AcDbEntity
  8
1
  6
CONTINUOUS
370
50
 62
4
100
AcDbLine
 10
57.807537
 20
-2.639789
 30
0.0
 11
57.989342
 21
-2.616264
 31
0.0
  0
LINE
  5
742
330
1F
100
AcDbEntity
  8
1
  6
CONTINUOUS
370
50
 62
4
100
AcDbLine
 10
57.989342
 20
-2.616264
 30
0.0
 11
58.17042499999999
 21
-2.592652
 31
0.0
  0
LINE
  5
743
330
1F
100
AcDbEntity
  8
1
  6
CONTINUOUS
370
50
 62
4
100
AcDbLine
 10
60.115047
 20
-2.333163
 30
0.0
 11
60.260368
 21
-2.314112
 31
0.0
  0
LINE
  5
744
330
1F
100
AcDbEntity
  8
1
  6
CONTINUOUS
370
50
 62
4
100
AcDbLine
 10
58.17042499999999
 20
-2.592652
 30
0.0
 11
58.32196
 21
-2.57275
 31
0.0
  0
LINE
  5
745
330
1F
100
AcDbEntity
  8
1
  6
CONTINUOUS
370
50
 62
4
100
AcDbLine
 10
59.96972299999999
 20
-2.3523
 30
0.0
 11
60.115047
 21
-2.333163
 31
0.0
  0
LINE
  5
746
330
1F
100
AcDbEntity
  8
1
  6
CONTINUOUS
370
50
 62
4
100
AcDbLine
 10
58.32196
 20
-2.57275
 30
0.0
 11
58.473495
 21
-2.552719
 31
0.0
  0
LINE
  5
747
330
1F
100
AcDbEntity
  8
1
  6
CONTINUOUS
370
50
 62
4
100
AcDbLine
 10
59.820366
 20
-2.372058
 30
0.0
 11
59.96972299999999
 21
-2.3523
 31
0.0
  0
LINE
  5
748
330
1F
100
AcDbEntity
  8
1
  6
CONTINUOUS
370
50
 62
4
100
AcDbLine
 10
59.708351
 20
-2.386933
 30
0.0
 11
59.820366
 21
-2.372058
 31
0.0
  0
LINE
  5
749
330
1F
100
AcDbEntity
  8
1
  6
CONTINUOUS
370
50
 62
4
100
AcDbLine
 10
58.473495
 20
-2.552719
 30
0.0
 11
58.62501899999999
 21
-2.532559
 31
0.0
  0
LINE
  5
74A
330
1F
100
AcDbEntity
  8
1
  6
CONTINUOUS
370
50
 62
4
100
AcDbLine
 10
59.598133
 20
-2.401617
 30
0.0
 11
59.708351
 21
-2.386933
 31
0.0
  0
LINE
  5
74B
330
1F
100
AcDbEntity
  8
1
  6
CONTINUOUS
370
50
 62
4
100
AcDbLine
 10
59.48791499999999
 20
-2.416348
 30
0.0
 11
59.598133
 21
-2.401617
 31
0.0
  0
LINE
  5
74C
330
1F
100
AcDbEntity
  8
1
  6
CONTINUOUS
370
50
 62
4
100
AcDbLine
 10
58.62501899999999
 20
-2.532559
 30
0.0
 11
58.776543
 21
-2.512267
 31
0.0
  0
LINE
  5
74D
330
1F
100
AcDbEntity
  8
1
  6
CONTINUOUS
370
50
 62
4
100
AcDbLine
 10
59.377697
 20
-2.431126
 30
0.0
 11
59.48791499999999
 21
-2.416348
 31
0.0
  0
LINE
  5
74E
330
1F
100
AcDbEntity
  8
1
  6
CONTINUOUS
370
50
 62
4
100
AcDbLine
 10
59.23151
 20
-2.450795
 30
0.0
 11
59.377697
 21
-2.431126
 31
0.0
  0
LINE
  5
74F
330
1F
100
AcDbEntity
  8
1
  6
CONTINUOUS
370
50
 62
4
100
AcDbLine
 10
58.776543
 20
-2.512267
 30
0.0
 11
58.928055
 21
-2.491845
 31
0.0
  0
LINE
  5
750
330
1F
100
AcDbEntity
  8
1
  6
CONTINUOUS
370
50
 62
4
100
AcDbLine
 10
59.07957099999999
 20
-2.47132
 30
0.0
 11
59.23151
 21
-2.450795
 31
0.0
  0
LINE
  5
751
330
1F
100
AcDbEntity
  8
1
  6
CONTINUOUS
370
50
 62
4
100
AcDbLine
 10
47.381332
 20
-0.008038
 30
0.0
 11
47.440758
 21
0.0
 31
0.0
  0
LINE
  5
752
330
1F
100
AcDbEntity
  8
1
  6
CONTINUOUS
370
50
 62
4
100
AcDbLine
 10
58.928055
 20
-2.491845
 30
0.0
 11
59.07957099999999
 21
-2.47132
 31
0.0
  0
LINE
  5
753
330
1F
100
AcDbEntity
  8
1
  6
CONTINUOUS
370
50
 62
4
100
AcDbLine
 10
46.192085
 20
2.965229
 30
0.0
 11
46.23016
 21
2.970443
 31
0.0
  0
LINE
  5
754
330
1F
100
AcDbEntity
  8
1
  6
CONTINUOUS
370
50
 62
4
100
AcDbLine
 10
61.235538
 20
2.474897
 30
0.0
 11
62.21019699999999
 21
2.610593
 31
0.0
  0
LINE
  5
755
330
1F
100
AcDbEntity
  8
1
  6
CONTINUOUS
370
50
 62
4
100
AcDbLine
 10
47.32209
 20
-0.016854
 30
0.0
 11
47.381332
 21
-0.008038
 31
0.0
  0
LINE
  5
756
330
1F
100
AcDbEntity
  8
1
  6
CONTINUOUS
370
50
 62
4
100
AcDbLine
 10
60.261723
 20
2.31837
 30
0.0
 11
61.235538
 21
2.474897
 31
0.0
  0
LINE
  5
757
330
1F
100
AcDbEntity
  8
1
  6
CONTINUOUS
370
50
 62
4
100
AcDbLine
 10
47.263084
 20
-0.026449
 30
0.0
 11
47.32209
 21
-0.016854
 31
0.0
  0
LINE
  5
758
330
1F
100
AcDbEntity
  8
1
  6
CONTINUOUS
370
50
 62
4
100
AcDbLine
 10
46.157001
 20
2.959125
 30
0.0
 11
46.192085
 21
2.965229
 31
0.0
  0
LINE
  5
759
330
1F
100
AcDbEntity
  8
1
  6
CONTINUOUS
370
50
 62
4
100
AcDbLine
 10
47.204372
 20
-0.036836
 30
0.0
 11
47.263084
 21
-0.026449
 31
0.0
  0
LINE
  5
75A
330
1F
100
AcDbEntity
  8
1
  6
CONTINUOUS
370
50
 62
4
100
AcDbLine
 10
47.14600799999999
 20
-0.04803
 30
0.0
 11
47.204372
 21
-0.036836
 31
0.0
  0
LINE
  5
75B
330
1F
100
AcDbEntity
  8
1
  6
CONTINUOUS
370
50
 62
4
100
AcDbLine
 10
47.088043
 20
-0.060045
 30
0.0
 11
47.14600799999999
 21
-0.04803
 31
0.0
  0
LINE
  5
75C
330
1F
100
AcDbEntity
  8
1
  6
CONTINUOUS
370
50
 62
4
100
AcDbLine
 10
47.030575
 20
-0.072887
 30
0.0
 11
47.088043
 21
-0.060045
 31
0.0
  0
LINE
  5
75D
330
1F
100
AcDbEntity
  8
1
  6
CONTINUOUS
370
50
 62
4
100
AcDbLine
 10
46.125759
 20
2.951969
 30
0.0
 11
46.157001
 21
2.959125
 31
0.0
  0
LINE
  5
75E
330
1F
100
AcDbEntity
  8
1
  6
CONTINUOUS
370
50
 62
4
100
AcDbLine
 10
46.974216
 20
-0.086438
 30
0.0
 11
47.030575
 21
-0.072887
 31
0.0
  0
LINE
  5
75F
330
1F
100
AcDbEntity
  8
1
  6
CONTINUOUS
370
50
 62
4
100
AcDbLine
 10
46.919186
 20
-0.100641
 30
0.0
 11
46.974216
 21
-0.086438
 31
0.0
  0
LINE
  5
760
330
1F
100
AcDbEntity
  8
1
  6
CONTINUOUS
370
50
 62
4
100
AcDbLine
 10
46.865524
 20
-0.115482
 30
0.0
 11
46.919186
 21
-0.100641
 31
0.0
  0
LINE
  5
761
330
1F
100
AcDbEntity
  8
1
  6
CONTINUOUS
370
50
 62
4
100
AcDbLine
 10
46.813267
 20
-0.130946
 30
0.0
 11
46.865524
 21
-0.115482
 31
0.0
  0
LINE
  5
762
330
1F
100
AcDbEntity
  8
1
  6
CONTINUOUS
370
50
 62
4
100
AcDbLine
 10
46.76244699999999
 20
-0.147016
 30
0.0
 11
46.813267
 21
-0.130946
 31
0.0
  0
LINE
  5
763
330
1F
100
AcDbEntity
  8
1
  6
CONTINUOUS
370
50
 62
4
100
AcDbLine
 10
46.099583
 20
2.943642
 30
0.0
 11
46.125759
 21
2.951969
 31
0.0
  0
LINE
  5
764
330
1F
100
AcDbEntity
  8
1
  6
CONTINUOUS
370
50
 62
4
100
AcDbLine
 10
46.7131
 20
-0.163677
 30
0.0
 11
46.76244699999999
 21
-0.147016
 31
0.0
  0
LINE
  5
765
330
1F
100
AcDbEntity
  8
1
  6
CONTINUOUS
370
50
 62
4
100
AcDbLine
 10
46.665264
 20
-0.180915
 30
0.0
 11
46.7131
 21
-0.163677
 31
0.0
  0
LINE
  5
766
330
1F
100
AcDbEntity
  8
1
  6
CONTINUOUS
370
50
 62
4
100
AcDbLine
 10
46.618969
 20
-0.198712
 30
0.0
 11
46.665264
 21
-0.180915
 31
0.0
  0
LINE
  5
767
330
1F
100
AcDbEntity
  8
1
  6
CONTINUOUS
370
50
 62
4
100
AcDbLine
 10
46.574257
 20
-0.217055
 30
0.0
 11
46.618969
 21
-0.198712
 31
0.0
  0
LINE
  5
768
330
1F
100
AcDbEntity
  8
1
  6
CONTINUOUS
370
50
 62
4
100
AcDbLine
 10
46.531158
 20
-0.235928
 30
0.0
 11
46.574257
 21
-0.217055
 31
0.0
  0
LINE
  5
769
330
1F
100
AcDbEntity
  8
1
  6
CONTINUOUS
370
50
 62
4
100
AcDbLine
 10
46.489712
 20
-0.255314
 30
0.0
 11
46.531158
 21
-0.235928
 31
0.0
  0
LINE
  5
76A
330
1F
100
AcDbEntity
  8
1
  6
CONTINUOUS
370
50
 62
4
100
AcDbLine
 10
46.079823
 20
2.934102
 30
0.0
 11
46.099583
 21
2.943642
 31
0.0
  0
LINE
  5
76B
330
1F
100
AcDbEntity
  8
1
  6
CONTINUOUS
370
50
 62
4
100
AcDbLine
 10
66.99913
 20
-0.494184
 30
0.0
 11
67.995491
 21
-0.002228
 31
0.0
  0
LINE
  5
76C
330
1F
100
AcDbEntity
  8
1
  6
CONTINUOUS
370
50
 62
4
100
AcDbLine
 10
46.449951
 20
-0.275199
 30
0.0
 11
46.489712
 21
-0.255314
 31
0.0
  0
LINE
  5
76D
330
1F
100
AcDbEntity
  8
1
  6
CONTINUOUS
370
50
 62
4
100
AcDbLine
 10
46.411022
 20
-0.296061
 30
0.0
 11
46.449951
 21
-0.275199
 31
0.0
  0
LINE
  5
76E
330
1F
100
AcDbEntity
  8
1
  6
CONTINUOUS
370
50
 62
4
100
AcDbLine
 10
46.372307
 20
-0.31839
 30
0.0
 11
46.411022
 21
-0.296061
 31
0.0
  0
LINE
  5
76F
330
1F
100
AcDbEntity
  8
1
  6
CONTINUOUS
370
50
 62
4
100
AcDbLine
 10
46.334171
 20
-0.342189
 30
0.0
 11
46.372307
 21
-0.31839
 31
0.0
  0
LINE
  5
770
330
1F
100
AcDbEntity
  8
1
  6
CONTINUOUS
370
50
 62
4
100
AcDbLine
 10
46.297005
 20
-0.367463
 30
0.0
 11
46.334171
 21
-0.342189
 31
0.0
  0
LINE
  5
771
330
1F
100
AcDbEntity
  8
1
  6
CONTINUOUS
370
50
 62
4
100
AcDbLine
 10
46.261173
 20
-0.394215
 30
0.0
 11
46.297005
 21
-0.367463
 31
0.0
  0
LINE
  5
772
330
1F
100
AcDbEntity
  8
1
  6
CONTINUOUS
370
50
 62
4
100
AcDbLine
 10
46.227055
 20
-0.422451
 30
0.0
 11
46.261173
 21
-0.394215
 31
0.0
  0
LINE
  5
773
330
1F
100
AcDbEntity
  8
1
  6
CONTINUOUS
370
50
 62
4
100
AcDbLine
 10
46.0676
 20
2.92331
 30
0.0
 11
46.079823
 21
2.934102
 31
0.0
  0
LINE
  5
774
330
1F
100
AcDbEntity
  8
1
  6
CONTINUOUS
370
50
 62
4
100
AcDbLine
 10
46.19501899999999
 20
-0.452185
 30
0.0
 11
46.227055
 21
-0.422451
 31
0.0
  0
LINE
  5
775
330
1F
100
AcDbEntity
  8
1
  6
CONTINUOUS
370
50
 62
4
100
AcDbLine
 10
67.653725
 20
-0.5099699999999999
 30
0.0
 11
68.0
 21
-0.144205
 31
0.0
  0
LINE
  5
776
330
1F
100
AcDbEntity
  8
1
  6
CONTINUOUS
370
50
 62
4
100
AcDbLine
 10
46.165062
 20
-0.483869
 30
0.0
 11
46.19501899999999
 21
-0.452185
 31
0.0
  0
LINE
  5
777
330
1F
100
AcDbEntity
  8
1
  6
CONTINUOUS
370
50
 62
4
100
AcDbLine
 10
46.137623
 20
-0.517708
 30
0.0
 11
46.165062
 21
-0.483869
 31
0.0
  0
LINE
  5
778
330
1F
100
AcDbEntity
  8
1
  6
CONTINUOUS
370
50
 62
4
100
AcDbLine
 10
46.113426
 20
-0.5536519999999999
 30
0.0
 11
46.137623
 21
-0.517708
 31
0.0
  0
LINE
  5
779
330
1F
100
AcDbEntity
  8
1
  6
CONTINUOUS
370
50
 62
4
100
AcDbLine
 10
67.666901
 20
-0.803739
 30
0.0
 11
67.667168
 21
-0.8033399999999999
 31
0.0
  0
LINE
  5
77A
330
1F
100
AcDbEntity
  8
1
  6
CONTINUOUS
370
50
 62
4
100
AcDbLine
 10
67.666641
 20
-0.8041379999999999
 30
0.0
 11
67.666901
 21
-0.803739
 31
0.0
  0
LINE
  5
77B
330
1F
100
AcDbEntity
  8
1
  6
CONTINUOUS
370
50
 62
4
100
AcDbLine
 10
67.667686
 20
-0.802542
 30
0.0
 11
67.667946
 21
-0.8021429999999999
 31
0.0
  0
LINE
  5
77C
330
1F
100
AcDbEntity
  8
1
  6
CONTINUOUS
370
50
 62
4
100
AcDbLine
 10
67.667168
 20
-0.8033399999999999
 30
0.0
 11
67.667686
 21
-0.802542
 31
0.0
  0
LINE
  5
77D
330
1F
100
AcDbEntity
  8
1
  6
CONTINUOUS
370
50
 62
4
100
AcDbLine
 10
67.667946
 20
-0.8021429999999999
 30
0.0
 11
67.668205
 21
-0.801744
 31
0.0
  0
LINE
  5
77E
330
1F
100
AcDbEntity
  8
1
  6
CONTINUOUS
370
50
 62
4
100
AcDbLine
 10
46.093216
 20
-0.591612
 30
0.0
 11
46.113426
 21
-0.5536519999999999
 31
0.0
  0
LINE
  5
77F
330
1F
100
AcDbEntity
  8
1
  6
CONTINUOUS
370
50
 62
4
100
AcDbLine
 10
46.077824
 20
-0.631189
 30
0.0
 11
46.093216
 21
-0.591612
 31
0.0
  0
LINE
  5
780
330
1F
100
AcDbEntity
  8
1
  6
CONTINUOUS
370
50
 62
4
100
AcDbLine
 10
46.063843
 20
2.911352
 30
0.0
 11
46.0676
 21
2.92331
 31
0.0
  0
LINE
  5
781
330
1F
100
AcDbEntity
  8
1
  6
CONTINUOUS
370
50
 62
4
100
AcDbLine
 10
46.067856
 20
-0.672225
 30
0.0
 11
46.077824
 21
-0.631189
 31
0.0
  0
LINE
  5
782
330
1F
100
AcDbEntity
  8
1
  6
CONTINUOUS
370
50
 62
4
100
AcDbLine
 10
66.99913
 20
-0.494184
 30
0.0
 11
67.005043
 21
-0.444246
 31
0.0
  0
LINE
  5
783
330
1F
100
AcDbEntity
  8
1
  6
CONTINUOUS
370
50
 62
4
100
AcDbLine
 10
46.063877
 20
-0.7142689999999999
 30
0.0
 11
46.067856
 21
-0.672225
 31
0.0
  0
LINE
  5
784
330
1F
100
AcDbEntity
  8
1
  6
CONTINUOUS
370
50
 62
4
100
AcDbLine
 10
67.005043
 20
-0.444246
 30
0.0
 11
67.00898
 21
-0.394802
 31
0.0
  0
LINE
  5
785
330
1F
100
AcDbEntity
  8
1
  6
CONTINUOUS
370
50
 62
4
100
AcDbLine
 10
67.00898
 20
-0.394802
 30
0.0
 11
67.010925
 21
-0.346327
 31
0.0
  0
LINE
  5
786
330
1F
100
AcDbEntity
  8
1
  6
CONTINUOUS
370
50
 62
4
100
AcDbLine
 10
67.6623
 20
-0.934546
 30
0.0
 11
67.666641
 21
-0.8041379999999999
 31
0.0
  0
LINE
  5
787
330
1F
100
AcDbEntity
  8
1
  6
CONTINUOUS
370
50
 62
4
100
AcDbLine
 10
67.01062
 20
1.52132
 30
0.0
 11
67.011116
 21
1.539996
 31
0.0
  0
LINE
  5
788
330
1F
100
AcDbEntity
  8
1
  6
CONTINUOUS
370
50
 62
4
100
AcDbLine
 10
67.660355
 20
-1.065153
 30
0.0
 11
67.6623
 21
-0.934546
 31
0.0
  0
LINE
  5
789
330
1F
100
AcDbEntity
  8
1
  6
CONTINUOUS
370
50
 62
4
100
AcDbLine
 10
67.010925
 20
-0.346327
 30
0.0
 11
67.010941
 21
-0.29896
 31
0.0
  0
LINE
  5
78A
330
1F
100
AcDbEntity
  8
1
  6
CONTINUOUS
370
50
 62
4
100
AcDbLine
 10
44.0
 20
-2.99995
 30
0.0
 11
44.0
 21
2.99995
 31
0.0
  0
LINE
  5
78B
330
1F
100
AcDbEntity
  8
1
  6
CONTINUOUS
370
50
 62
4
100
AcDbLine
 10
50.0
 20
-2.997908
 30
0.0
 11
50.0
 21
2.997908
 31
0.0
  0
LINE
  5
78C
330
1F
100
AcDbEntity
  8
1
  6
CONTINUOUS
370
50
 62
4
100
AcDbLine
 10
68.0
 20
0.408416
 30
0.0
 11
68.0
 21
2.999958
 31
0.0
  0
LINE
  5
78D
330
1F
100
AcDbEntity
  8
1
  6
CONTINUOUS
370
50
 62
4
100
AcDbLine
 10
68.0
 20
0.007688
 30
0.0
 11
68.0
 21
0.008091
 31
0.0
  0
LINE
  5
78E
330
1F
100
AcDbEntity
  8
1
  6
CONTINUOUS
370
50
 62
4
100
AcDbLine
 10
68.0
 20
0.006874
 30
0.0
 11
68.0
 21
0.007688
 31
0.0
  0
LINE
  5
78F
330
1F
100
AcDbEntity
  8
1
  6
CONTINUOUS
370
50
 62
4
100
AcDbLine
 10
68.0
 20
0.005651
 30
0.0
 11
68.0
 21
0.006874
 31
0.0
  0
LINE
  5
790
330
1F
100
AcDbEntity
  8
1
  6
CONTINUOUS
370
50
 62
4
100
AcDbLine
 10
68.0
 20
0.00402
 30
0.0
 11
68.0
 21
0.005651
 31
0.0
  0
LINE
  5
791
330
1F
100
AcDbEntity
  8
1
  6
CONTINUOUS
370
50
 62
4
100
AcDbLine
 10
68.0
 20
0.001983
 30
0.0
 11
68.0
 21
0.00402
 31
0.0
  0
LINE
  5
792
330
1F
100
AcDbEntity
  8
1
  6
CONTINUOUS
370
50
 62
4
100
AcDbLine
 10
68.0
 20
-0.000459
 30
0.0
 11
68.0
 21
0.001983
 31
0.0
  0
LINE
  5
793
330
1F
100
AcDbEntity
  8
1
  6
CONTINUOUS
370
50
 62
4
100
AcDbLine
 10
68.0
 20
-0.003305
 30
0.0
 11
68.0
 21
-0.000459
 31
0.0
  0
LINE
  5
794
330
1F
100
AcDbEntity
  8
1
  6
CONTINUOUS
370
50
 62
4
100
AcDbLine
 10
68.0
 20
0.014761
 30
0.0
 11
68.0
 21
0.015873
 31
0.0
  0
LINE
  5
795
330
1F
100
AcDbEntity
  8
1
  6
CONTINUOUS
370
50
 62
4
100
AcDbLine
 10
68.0
 20
0.01365
 30
0.0
 11
68.0
 21
0.014761
 31
0.0
  0
LINE
  5
796
330
1F
100
AcDbEntity
  8
1
  6
CONTINUOUS
370
50
 62
4
100
AcDbLine
 10
68.0
 20
0.012538
 30
0.0
 11
68.0
 21
0.01365
 31
0.0
  0
LINE
  5
797
330
1F
100
AcDbEntity
  8
1
  6
CONTINUOUS
370
50
 62
4
100
AcDbLine
 10
68.0
 20
0.011426
 30
0.0
 11
68.0
 21
0.012538
 31
0.0
  0
LINE
  5
798
330
1F
100
AcDbEntity
  8
1
  6
CONTINUOUS
370
50
 62
4
100
AcDbLine
 10
68.0
 20
0.010314
 30
0.0
 11
68.0
 21
0.011426
 31
0.0
  0
LINE
  5
799
330
1F
100
AcDbEntity
  8
1
  6
CONTINUOUS
370
50
 62
4
100
AcDbLine
 10
68.0
 20
0.009203
 30
0.0
 11
68.0
 21
0.010314
 31
0.0
  0
LINE
  5
79A
330
1F
100
AcDbEntity
  8
1
  6
CONTINUOUS
370
50
 62
4
100
AcDbLine
 10
68.0
 20
0.008091
 30
0.0
 11
68.0
 21
0.009203
 31
0.0
  0
LINE
  5
79B
330
1F
100
AcDbEntity
  8
1
  6
CONTINUOUS
370
50
 62
4
100
AcDbLine
 10
68.0
 20
-2.999958
 30
0.0
 11
68.0
 21
-2.972071
 31
0.0
  0
LINE
  5
79C
330
1F
100
AcDbEntity
  8
1
  6
CONTINUOUS
370
50
 62
4
100
AcDbLine
 10
68.0
 20
-0.144205
 30
0.0
 11
68.0
 21
-0.003303
 31
0.0
  0
LINE
  5
79D
330
1F
100
AcDbEntity
  8
1
  6
CONTINUOUS
370
50
 62
4
100
AcDbLine
 10
68.0
 20
-2.972071
 30
0.0
 11
68.0
 21
-0.144205
 31
0.0
  0
LINE
  5
79E
330
1F
100
AcDbEntity
  8
1
  6
CONTINUOUS
370
50
 62
4
100
AcDbLine
 10
68.0
 20
0.015873
 30
0.0
 11
68.0
 21
0.408407
 31
0.0
  0
ELLIPSE
  5
79F
330
1F
100
AcDbEntity
  8
1
  6
CONTINUOUS
370
50
 62
4
100
AcDbEllipse
 10
55.590529
 20
-12.720834
 30
0.0
 11
-23.41191894409658
 21
2.978682439391079
 31
0.0
210
0.0
220
0.0
230
0.9999999999999998
 40
0.398685303558991
 41
5.003873750173561
 42
5.012767286048279
  0
ELLIPSE
  5
7A0
330
1F
100
AcDbEntity
  8
1
  6
CONTINUOUS
370
50
 62
4
100
AcDbEllipse
 10
55.590529
 20
21.347946
 30
0.0
 11
-22.66478993230689
 21
6.580103233165058
 31
0.0
210
0.0
220
0.0
230
1.0
 40
0.9097541595719185
 41
1.579324476369723
 42
1.58821801241949
  0
ELLIPSE
  5
7A1
330
1F
100
AcDbEntity
  8
1
  6
CONTINUOUS
370
50
 62
4
100
AcDbEllipse
 10
55.850473
 20
-10.677716
 30
0.0
 11
-23.5787489858103
 21
2.999908111528555
 31
0.0
210
0.0
220
0.0
230
1.0
 40
0.3986852730054322
 41
5.01348520434744
 42
5.186292167872683
  0
ELLIPSE
  5
7A2
330
1F
100
AcDbEntity
  8
1
  6
CONTINUOUS
370
50
 62
4
100
AcDbEllipse
 10
55.982891
 20
-9.636937
 30
0.0
 11
-23.22669997999552
 21
2.955117157231715
 31
0.0
210
0.0
220
0.0
230
0.9999999999999999
 40
0.3986853076127662
 41
5.023251601133947
 42
5.121609794919355
  0
ELLIPSE
  5
7A3
330
1F
100
AcDbEntity
  8
1
  6
CONTINUOUS
370
50
 62
4
100
AcDbEllipse
 10
55.982891
 20
22.699415
 30
0.0
 11
-22.48548290396521
 21
6.528046330786345
 31
0.0
210
0.0
220
0.0
230
1.0
 40
0.9097541312740001
 41
1.470481972052422
 42
1.568840164097491
  0
ELLIPSE
  5
7A4
330
1F
100
AcDbEntity
  8
1
  6
CONTINUOUS
370
50
 62
4
100
AcDbEllipse
 10
68.132701
 20
0.0
 30
0.0
 11
1.836910143036743E-16
 21
3.000001
 31
0.0
210
0.0
220
0.0
230
1.0
 40
0.3249195583601469
 41
2.970831763867519
 42
3.005031083306463
  0
LINE
  5
7A5
330
1F
100
AcDbEntity
  8
CUT
  6
CONTINUOUS
370
25
 62
1
100
AcDbLine
 10
50.0
 20
0.0
 30
0.0
 11
68.0
 21
0.0
 31
0.0
  0
LINE
  5
7A6
330
1F
100
AcDbEntity
  8
CUT
  6
CONTINUOUS
370
25
 62
1
100
AcDbLine
 10
68.0
 20
0.0
 30
0.0
 11
68.0
 21
2.995
 31
0.0
  0
LINE
  5
7A7
330
1F
100
AcDbEntity
  8
CUT
  6
CONTINUOUS
370
25
 62
1
100
AcDbLine
 10
68.0
 20
2.995
 30
0.0
 11
68.0
 21
3.0
 31
0.0
  0
LINE
  5
7A8
330
1F
100
AcDbEntity
  8
CUT
  6
CONTINUOUS
370
25
 62
1
100
AcDbLine
 10
68.0
 20
3.0
 30
0.0
 11
50.0
 21
2.9999
 31
0.0
  0
LINE
  5
7A9
330
1F
100
AcDbEntity
  8
CUT
  6
CONTINUOUS
370
25
 62
1
100
AcDbLine
 10
50.0
 20
2.9999
 30
0.0
 11
50.0
 21
0.0
 31
0.0
  0
LINE
  5
7AA
330
1F
100
AcDbEntity
  8
NOCUT
  6
CONTINUOUS
370
25
 62
7
100
AcDbLine
 10
44.0
 20
0.0
 30
0.0
 11
50.0
 21
0.0
 31
0.0
  0
LINE
  5
7AB
330
1F
100
AcDbEntity
  8
NOCUT
  6
CONTINUOUS
370
25
 62
7
100
AcDbLine
 10
50.0
 20
0.0
 30
0.0
 11
50.0
 21
2.99995
 31
0.0
  0
LINE
  5
7AC
330
1F
100
AcDbEntity
  8
NOCUT
  6
CONTINUOUS
370
25
 62
7
100
AcDbLine
 10
50.0
 20
2.99995
 30
0.0
 11
44.0
 21
2.99995
 31
0.0
  0
LINE
  5
7AD
330
1F
100
AcDbEntity
  8
NOCUT
  6
CONTINUOUS
370
25
 62
7
100
AcDbLine
 10
44.0
 20
2.99995
 30
0.0
 11
44.0
 21
0.0
 31
0.0
  0
LINE
  5
7AE
330
1F
100
AcDbEntity
  8
SK1
  6
CONTINUOUS
370
50
 62
4
100
AcDbLine
 10
44.0
 20
3.0
 30
0.0
 11
0.3999999999999986
 21
3.0
 31
0.0
  0
LINE
  5
7AF
330
1F
100
AcDbEntity
  8
SK1
  6
CONTINUOUS
370
50
 62
4
100
AcDbLine
 10
0.3999999999999986
 20
3.0
 30
0.0
 11
0.0
 21
2.6
 31
0.0
  0
LINE
  5
7B0
330
1F
100
AcDbEntity
  8
SK1
  6
CONTINUOUS
370
50
 62
4
100
AcDbLine
 10
0.0
 20
2.6
 30
0.0
 11
0.0
 21
-2.6
 31
0.0
  0
LINE
  5
7B1
330
1F
100
AcDbEntity
  8
SK1
  6
CONTINUOUS
370
50
 62
4
100
AcDbLine
 10
0.0
 20
-2.6
 30
0.0
 11
0.3999999999999986
 21
-3.0
 31
0.0
  0
LINE
  5
7B2
330
1F
100
AcDbEntity
  8
SK1
  6
CONTINUOUS
370
50
 62
4
100
AcDbLine
 10
0.3999999999999986
 20
-3.0
 30
0.0
 11
44.0
 21
-3.0
 31
0.0
  0
LINE
  5
7B3
330
1F
100
AcDbEntity
  8
SK1
  6
CONTINUOUS
370
50
 62
4
100
AcDbLine
 10
0.3999999999999986
 20
3.0
 30
0.0
 11
0.3999999999999986
 21
-3.0
 31
0.0
  0
LINE
  5
7B4
330
1F
100
AcDbEntity
  8
SK2
  6
CONTINUOUS
370
25
 62
7
100
AcDbLine
 10
-12.0000002
 20
-3.000001
 30
0.0
 11
-13.00000000000008
 21
-3.000001
 31
0.0
  0
LINE
  5
7B5
330
1F
100
AcDbEntity
  8
SK2
  6
CONTINUOUS
370
25
 62
7
100
AcDbLine
 10
0.0
 20
-3.000001
 30
0.0
 11
-11.9999998
 21
-3.000001
 31
0.0
  0
LINE
  5
7B6
330
1F
100
AcDbEntity
  8
SK2
  6
CONTINUOUS
370
25
 62
7
100
AcDbLine
 10
-13.0
 20
3.0
 30
0.0
 11
0.0
 21
3.0
 31
0.0
  0
LINE
  5
7B7
330
1F
100
AcDbEntity
  8
SK2
  6
CONTINUOUS
370
25
 62
7
100
AcDbLine
 10
-12.0
 20
-10.0
 30
0.0
 11
-12.0
 21
16.475
 31
0.0
  0
LINE
  5
7B8
330
1F
100
AcDbEntity
  8
SK2
  6
CONTINUOUS
370
25
 62
7
100
AcDbLine
 10
-12.0
 20
-3.0
 30
0.0
 11
-11.0
 21
-8.0
 31
0.0
  0
LINE
  5
7B9
330
1F
100
AcDbEntity
  8
SK2
  6
CONTINUOUS
370
25
 62
7
100
AcDbLine
 10
-11.0
 20
-8.0
 30
0.0
 11
-13.0
 21
-8.0
 31
0.0
  0
LINE
  5
7BA
330
1F
100
AcDbEntity
  8
SK2
  6
CONTINUOUS
370
25
 62
7
100
AcDbLine
 10
-13.0
 20
-8.0
 30
0.0
 11
-12.0
 21
-3.0
 31
0.0
  0
LINE
  5
7BB
330
1F
100
AcDbEntity
  8
SK2
  6
CONTINUOUS
370
25
 62
7
100
AcDbLine
 10
-11.09331162702403
 20
-8.0
 30
0.0
 11
-11.01555193783734
 21
-7.922240310813308
 31
0.0
  0
LINE
  5
7BC
330
1F
100
AcDbEntity
  8
SK2
  6
CONTINUOUS
370
25
 62
7
100
AcDbLine
 10
-11.51757569573596
 20
-8.0
 30
0.0
 11
-11.086262615956
 21
-7.568686920220038
 31
0.0
  0
LINE
  5
7BD
330
1F
100
AcDbEntity
  8
SK2
  6
CONTINUOUS
370
25
 62
7
100
AcDbLine
 10
-11.94183976444789
 20
-8.0
 30
0.0
 11
-11.15697329407465
 21
-7.215133529626755
 31
0.0
  0
LINE
  5
7BE
330
1F
100
AcDbEntity
  8
SK2
  6
CONTINUOUS
370
25
 62
7
100
AcDbLine
 10
-12.36610383315983
 20
-8.0
 30
0.0
 11
-11.22768397219331
 21
-6.861580139033485
 31
0.0
  0
LINE
  5
7BF
330
1F
100
AcDbEntity
  8
SK2
  6
CONTINUOUS
370
25
 62
7
100
AcDbLine
 10
-12.79036790187175
 20
-8.0
 30
0.0
 11
-11.29839465031196
 21
-6.508026748440209
 31
0.0
  0
LINE
  5
7C0
330
1F
100
AcDbEntity
  8
SK2
  6
CONTINUOUS
370
25
 62
7
100
AcDbLine
 10
-12.94634200735408
 20
-7.731710036770401
 30
0.0
 11
-11.36910532843061
 21
-6.154473357846925
 31
0.0
  0
LINE
  5
7C1
330
1F
100
AcDbEntity
  8
SK2
  6
CONTINUOUS
370
25
 62
7
100
AcDbLine
 10
-12.8402759901761
 20
-7.201379950880479
 30
0.0
 11
-11.43981600654928
 21
-5.800919967253655
 31
0.0
  0
LINE
  5
7C2
330
1F
100
AcDbEntity
  8
SK2
  6
CONTINUOUS
370
25
 62
7
100
AcDbLine
 10
-12.73420997299811
 20
-6.671049864990557
 30
0.0
 11
-11.51052668466793
 21
-5.447366576660372
 31
0.0
  0
LINE
  5
7C3
330
1F
100
AcDbEntity
  8
SK2
  6
CONTINUOUS
370
25
 62
7
100
AcDbLine
 10
-12.62814395582013
 20
-6.14071977910065
 30
0.0
 11
-11.58123736278659
 21
-5.093813186067102
 31
0.0
  0
LINE
  5
7C4
330
1F
100
AcDbEntity
  8
SK2
  6
CONTINUOUS
370
25
 62
7
100
AcDbLine
 10
-12.52207793864215
 20
-5.610389693210742
 30
0.0
 11
-11.65194804090524
 21
-4.740259795473825
 31
0.0
  0
LINE
  5
7C5
330
1F
100
AcDbEntity
  8
SK2
  6
CONTINUOUS
370
25
 62
7
100
AcDbLine
 10
-12.41601192146417
 20
-5.08005960732082
 30
0.0
 11
-11.72265871902388
 21
-4.386706404880535
 31
0.0
  0
LINE
  5
7C6
330
1F
100
AcDbEntity
  8
SK2
  6
CONTINUOUS
370
25
 62
7
100
AcDbLine
 10
-12.30994590428618
 20
-4.549729521430898
 30
0.0
 11
-11.79336939714255
 21
-4.033153014287265
 31
0.0
  0
LINE
  5
7C7
330
1F
100
AcDbEntity
  8
SK2
  6
CONTINUOUS
370
25
 62
7
100
AcDbLine
 10
-12.2038798871082
 20
-4.01939943554099
 30
0.0
 11
-11.8640800752612
 21
-3.679599623693989
 31
0.0
  0
LINE
  5
7C8
330
1F
100
AcDbEntity
  8
SK2
  6
CONTINUOUS
370
25
 62
7
100
AcDbLine
 10
-12.09781386993022
 20
-3.489069349651082
 30
0.0
 11
-11.93479075337986
 21
-3.326046233100719
 31
0.0
  0
LINE
  5
7C9
330
1F
100
AcDbEntity
  8
SK2
  6
CONTINUOUS
370
25
 62
7
100
AcDbLine
 10
-12.96131594548598
 20
-7.806579727429913
 30
0.0
 11
-12.76789567291589
 21
-8.0
 31
0.0
  0
LINE
  5
7CA
330
1F
100
AcDbEntity
  8
SK2
  6
CONTINUOUS
370
25
 62
7
100
AcDbLine
 10
-12.89060526736733
 20
-7.453026336836622
 30
0.0
 11
-12.34363160420395
 21
-8.0
 31
0.0
  0
LINE
  5
7CB
330
1F
100
AcDbEntity
  8
SK2
  6
CONTINUOUS
370
25
 62
7
100
AcDbLine
 10
-12.81989458924867
 20
-7.099472946243353
 30
0.0
 11
-11.91936753549202
 21
-8.0
 31
0.0
  0
LINE
  5
7CC
330
1F
100
AcDbEntity
  8
SK2
  6
CONTINUOUS
370
25
 62
7
100
AcDbLine
 10
-12.74918391113001
 20
-6.745919555650076
 30
0.0
 11
-11.49510346678009
 21
-8.0
 31
0.0
  0
LINE
  5
7CD
330
1F
100
AcDbEntity
  8
SK2
  6
CONTINUOUS
370
25
 62
7
100
AcDbLine
 10
-12.67847323301137
 20
-6.392366165056792
 30
0.0
 11
-11.07083939806816
 21
-8.0
 31
0.0
  0
LINE
  5
7CE
330
1F
100
AcDbEntity
  8
SK2
  6
CONTINUOUS
370
25
 62
7
100
AcDbLine
 10
-12.6077625548927
 20
-6.038812774463523
 30
0.0
 11
-11.08835616766095
 21
-7.558219161695277
 31
0.0
  0
LINE
  5
7CF
330
1F
100
AcDbEntity
  8
SK2
  6
CONTINUOUS
370
25
 62
7
100
AcDbLine
 10
-12.53705187677405
 20
-5.685259383870246
 30
0.0
 11
-11.19442218483893
 21
-7.027889075805369
 31
0.0
  0
LINE
  5
7D0
330
1F
100
AcDbEntity
  8
SK2
  6
CONTINUOUS
370
25
 62
7
100
AcDbLine
 10
-12.46634119865539
 20
-5.331705993276969
 30
0.0
 11
-11.30048820201691
 21
-6.497558989915454
 31
0.0
  0
LINE
  5
7D1
330
1F
100
AcDbEntity
  8
SK2
  6
CONTINUOUS
370
25
 62
7
100
AcDbLine
 10
-12.39563052053674
 20
-4.978152602683693
 30
0.0
 11
-11.40655421919489
 21
-5.967228904025546
 31
0.0
  0
LINE
  5
7D2
330
1F
100
AcDbEntity
  8
SK2
  6
CONTINUOUS
370
25
 62
7
100
AcDbLine
 10
-12.32491984241809
 20
-4.624599212090409
 30
0.0
 11
-11.51262023637287
 21
-5.436898818135631
 31
0.0
  0
LINE
  5
7D3
330
1F
100
AcDbEntity
  8
SK2
  6
CONTINUOUS
370
25
 62
7
100
AcDbLine
 10
-12.25420916429943
 20
-4.27104582149714
 30
0.0
 11
-11.61868625355086
 21
-4.906568732245709
 31
0.0
  0
LINE
  5
7D4
330
1F
100
AcDbEntity
  8
SK2
  6
CONTINUOUS
370
25
 62
7
100
AcDbLine
 10
-12.18349848618077
 20
-3.917492430903863
 30
0.0
 11
-11.72475227072884
 21
-4.376238646355802
 31
0.0
  0
LINE
  5
7D5
330
1F
100
AcDbEntity
  8
SK2
  6
CONTINUOUS
370
25
 62
7
100
AcDbLine
 10
-12.11278780806212
 20
-3.563939040310586
 30
0.0
 11
-11.83081828790682
 21
-3.845908560465887
 31
0.0
  0
LINE
  5
7D6
330
1F
100
AcDbEntity
  8
SK2
  6
CONTINUOUS
370
25
 62
7
100
AcDbLine
 10
-12.04207712994346
 20
-3.21038564971731
 30
0.0
 11
-11.93688430508481
 21
-3.315578474575972
 31
0.0
  0
LINE
  5
7D7
330
1F
100
AcDbEntity
  8
SK2
  6
CONTINUOUS
370
25
 62
7
100
AcDbLine
 10
-12.0
 20
3.0
 30
0.0
 11
-13.0
 21
8.0
 31
0.0
  0
LINE
  5
7D8
330
1F
100
AcDbEntity
  8
SK2
  6
CONTINUOUS
370
25
 62
7
100
AcDbLine
 10
-13.0
 20
8.0
 30
0.0
 11
-11.0
 21
8.0
 31
0.0
  0
LINE
  5
7D9
330
1F
100
AcDbEntity
  8
SK2
  6
CONTINUOUS
370
25
 62
7
100
AcDbLine
 10
-11.0
 20
8.0
 30
0.0
 11
-12.0
 21
3.0
 31
0.0
  0
LINE
  5
7DA
330
1F
100
AcDbEntity
  8
SK2
  6
CONTINUOUS
370
25
 62
7
100
AcDbLine
 10
-12.06616160327832
 20
3.330808016391636
 30
0.0
 11
-11.90075759508251
 21
3.49621202458745
 31
0.0
  0
LINE
  5
7DB
330
1F
100
AcDbEntity
  8
SK2
  6
CONTINUOUS
370
25
 62
7
100
AcDbLine
 10
-12.13687228139698
 20
3.684361406984905
 30
0.0
 11
-11.79469157790453
 21
4.026542110477358
 31
0.0
  0
LINE
  5
7DC
330
1F
100
AcDbEntity
  8
SK2
  6
CONTINUOUS
370
25
 62
7
100
AcDbLine
 10
-12.20758295951563
 20
4.037914797578189
 30
0.0
 11
-11.68862556072655
 21
4.556872196367273
 31
0.0
  0
LINE
  5
7DD
330
1F
100
AcDbEntity
  8
SK2
  6
CONTINUOUS
370
25
 62
7
100
AcDbLine
 10
-12.27829363763428
 20
4.391468188171466
 30
0.0
 11
-11.58255954354857
 21
5.087202282257181
 31
0.0
  0
LINE
  5
7DE
330
1F
100
AcDbEntity
  8
SK2
  6
CONTINUOUS
370
25
 62
7
100
AcDbLine
 10
-12.34900431575294
 20
4.745021578764742
 30
0.0
 11
-11.47649352637058
 21
5.617532368147103
 31
0.0
  0
LINE
  5
7DF
330
1F
100
AcDbEntity
  8
SK2
  6
CONTINUOUS
370
25
 62
7
100
AcDbLine
 10
-12.4197149938716
 20
5.098574969358005
 30
0.0
 11
-11.3704275091926
 21
6.147862454037011
 31
0.0
  0
LINE
  5
7E0
330
1F
100
AcDbEntity
  8
SK2
  6
CONTINUOUS
370
25
 62
7
100
AcDbLine
 10
-12.49042567199027
 20
5.452128359951274
 30
0.0
 11
-11.26436149201461
 21
6.678192539926933
 31
0.0
  0
LINE
  5
7E1
330
1F
100
AcDbEntity
  8
SK2
  6
CONTINUOUS
370
25
 62
7
100
AcDbLine
 10
-12.56113635010892
 20
5.805681750544558
 30
0.0
 11
-11.15829547483662
 21
7.208522625816855
 31
0.0
  0
LINE
  5
7E2
330
1F
100
AcDbEntity
  8
SK2
  6
CONTINUOUS
370
25
 62
7
100
AcDbLine
 10
-12.63184702822758
 20
6.159235141137827
 30
0.0
 11
-11.05222945765864
 21
7.738852711706762
 31
0.0
  0
LINE
  5
7E3
330
1F
100
AcDbEntity
  8
SK2
  6
CONTINUOUS
370
25
 62
7
100
AcDbLine
 10
-12.70255770634623
 20
6.512788531731111
 30
0.0
 11
-11.21534623807734
 21
8.0
 31
0.0
  0
LINE
  5
7E4
330
1F
100
AcDbEntity
  8
SK2
  6
CONTINUOUS
370
25
 62
7
100
AcDbLine
 10
-12.77326838446488
 20
6.866341922324388
 30
0.0
 11
-11.63961030678927
 21
8.0
 31
0.0
  0
LINE
  5
7E5
330
1F
100
AcDbEntity
  8
SK2
  6
CONTINUOUS
370
25
 62
7
100
AcDbLine
 10
-12.84397906258354
 20
7.219895312917664
 30
0.0
 11
-12.0638743755012
 21
8.0
 31
0.0
  0
LINE
  5
7E6
330
1F
100
AcDbEntity
  8
SK2
  6
CONTINUOUS
370
25
 62
7
100
AcDbLine
 10
-12.91468974070219
 20
7.573448703510948
 30
0.0
 11
-12.48813844421313
 21
8.0
 31
0.0
  0
LINE
  5
7E7
330
1F
100
AcDbEntity
  8
SK2
  6
CONTINUOUS
370
25
 62
7
100
AcDbLine
 10
-12.98540041882085
 20
7.927002094104203
 30
0.0
 11
-12.91240251292506
 21
8.0
 31
0.0
  0
LINE
  5
7E8
330
1F
100
AcDbEntity
  8
SK2
  6
CONTINUOUS
370
25
 62
7
100
AcDbLine
 10
-12.01244166949946
 20
3.062208347497325
 30
0.0
 11
-11.99170555366703
 21
3.041472231664905
 31
0.0
  0
LINE
  5
7E9
330
1F
100
AcDbEntity
  8
SK2
  6
CONTINUOUS
370
25
 62
7
100
AcDbLine
 10
-12.11850768667744
 20
3.592538433387233
 30
0.0
 11
-11.92099487554837
 21
3.39502562225816
 31
0.0
  0
LINE
  5
7EA
330
1F
100
AcDbEntity
  8
SK2
  6
CONTINUOUS
370
25
 62
7
100
AcDbLine
 10
-12.22457370385543
 20
4.122868519277155
 30
0.0
 11
-11.85028419742972
 21
3.748579012851444
 31
0.0
  0
LINE
  5
7EB
330
1F
100
AcDbEntity
  8
SK2
  6
CONTINUOUS
370
25
 62
7
100
AcDbLine
 10
-12.33063972103341
 20
4.653198605167063
 30
0.0
 11
-11.77957351931106
 21
4.102132403444713
 31
0.0
  0
LINE
  5
7EC
330
1F
100
AcDbEntity
  8
SK2
  6
CONTINUOUS
370
25
 62
7
100
AcDbLine
 10
-12.43670573821139
 20
5.183528691056978
 30
0.0
 11
-11.70886284119241
 21
4.455685794037997
 31
0.0
  0
LINE
  5
7ED
330
1F
100
AcDbEntity
  8
SK2
  6
CONTINUOUS
370
25
 62
7
100
AcDbLine
 10
-12.54277175538937
 20
5.713858776946893
 30
0.0
 11
-11.63815216307374
 21
4.809239184631259
 31
0.0
  0
LINE
  5
7EE
330
1F
100
AcDbEntity
  8
SK2
  6
CONTINUOUS
370
25
 62
7
100
AcDbLine
 10
-12.64883777256736
 20
6.244188862836815
 30
0.0
 11
-11.56744148495509
 21
5.162792575224543
 31
0.0
  0
LINE
  5
7EF
330
1F
100
AcDbEntity
  8
SK2
  6
CONTINUOUS
370
25
 62
7
100
AcDbLine
 10
-12.75490378974534
 20
6.774518948726723
 30
0.0
 11
-11.49673080683644
 21
5.51634596581782
 31
0.0
  0
LINE
  5
7F0
330
1F
100
AcDbEntity
  8
SK2
  6
CONTINUOUS
370
25
 62
7
100
AcDbLine
 10
-12.86096980692333
 20
7.304849034616645
 30
0.0
 11
-11.42602012871778
 21
5.869899356411096
 31
0.0
  0
LINE
  5
7F1
330
1F
100
AcDbEntity
  8
SK2
  6
CONTINUOUS
370
25
 62
7
100
AcDbLine
 10
-12.96703582410131
 20
7.835179120506552
 30
0.0
 11
-11.35530945059912
 21
6.223452747004366
 31
0.0
  0
LINE
  5
7F2
330
1F
100
AcDbEntity
  8
SK2
  6
CONTINUOUS
370
25
 62
7
100
AcDbLine
 10
-12.70759263488282
 20
8.0
 30
0.0
 11
-11.28459877248046
 21
6.577006137597643
 31
0.0
  0
LINE
  5
7F3
330
1F
100
AcDbEntity
  8
SK2
  6
CONTINUOUS
370
25
 62
7
100
AcDbLine
 10
-12.28332856617089
 20
8.0
 30
0.0
 11
-11.21388809436181
 21
6.930559528190919
 31
0.0
  0
LINE
  5
7F4
330
1F
100
AcDbEntity
  8
SK2
  6
CONTINUOUS
370
25
 62
7
100
AcDbLine
 10
-11.85906449745896
 20
8.0
 30
0.0
 11
-11.14317741624316
 21
7.28411291878421
 31
0.0
  0
LINE
  5
7F5
330
1F
100
AcDbEntity
  8
SK2
  6
CONTINUOUS
370
25
 62
7
100
AcDbLine
 10
-11.43480042874702
 20
8.0
 30
0.0
 11
-11.0724667381245
 21
7.637666309377479
 31
0.0
  0
LINE
  5
7F6
330
1F
100
AcDbEntity
  8
SK2
  6
CONTINUOUS
370
25
 62
7
100
AcDbLine
 10
-11.0105363600351
 20
8.0
 30
0.0
 11
-11.00175606000585
 21
7.991219699970749
 31
0.0
  0
TEXT
  5
7F7
330
1F
100
AcDbEntity
  8
SK2
  6
CONTINUOUS
370
25
 62
7
100
AcDbText
 10
-13.5
 20
13.34583333333333
 30
0.0
 40
3.5
  1
6
 50
90.00000000000001
 72
     1
 11
-13.5
 21
14.5125
 31
0.0
100
AcDbText
  0
CIRCLE
  5
7F8
330
1F
100
AcDbEntity
  8
SK2
  6
CONTINUOUS
370
25
 62
7
100
AcDbCircle
 10
-15.25
 20
11.1875
 30
0.0
 40
1.4
  0
LINE
  5
7F9
330
1F
100
AcDbEntity
  8
SK2
  6
CONTINUOUS
370
25
 62
7
100
AcDbLine
 10
-13.85
 20
9.787500000000001
 30
0.0
 11
-16.65
 21
12.5875
 31
0.0
  0
LINE
  5
7FA
330
1F
100
AcDbEntity
  8
SK2
  6
CONTINUOUS
370
25
 62
7
100
AcDbLine
 10
0.0
 20
3.0
 30
0.0
 11
0.0
 21
16.00001
 31
0.0
  0
LINE
  5
7FB
330
1F
100
AcDbEntity
  8
SK2
  6
CONTINUOUS
370
25
 62
7
100
AcDbLine
 10
44.0
 20
16.00001
 30
0.0
 11
44.0
 21
3.0
 31
0.0
  0
LINE
  5
7FC
330
1F
100
AcDbEntity
  8
SK2
  6
CONTINUOUS
370
25
 62
7
100
AcDbLine
 10
0.0
 20
15.00001
 30
0.0
 11
44.0
 21
15.00001
 31
0.0
  0
LINE
  5
7FD
330
1F
100
AcDbEntity
  8
SK2
  6
CONTINUOUS
370
25
 62
7
100
AcDbLine
 10
0.0
 20
15.00001
 30
0.0
 11
5.0
 21
16.00001
 31
0.0
  0
LINE
  5
7FE
330
1F
100
AcDbEntity
  8
SK2
  6
CONTINUOUS
370
25
 62
7
100
AcDbLine
 10
5.0
 20
16.00001
 30
0.0
 11
5.0
 21
14.00001
 31
0.0
  0
LINE
  5
7FF
330
1F
100
AcDbEntity
  8
SK2
  6
CONTINUOUS
370
25
 62
7
100
AcDbLine
 10
5.0
 20
14.00001
 30
0.0
 11
0.0
 21
15.00001
 31
0.0
  0
LINE
  5
800
330
1F
100
AcDbEntity
  8
SK2
  6
CONTINUOUS
370
25
 62
7
100
AcDbLine
 10
4.97250117584079
 20
14.00550976483184
 30
0.0
 11
5.0
 21
14.03300858899105
 31
0.0
  0
LINE
  5
801
330
1F
100
AcDbEntity
  8
SK2
  6
CONTINUOUS
370
25
 62
7
100
AcDbLine
 10
4.618947785247514
 20
14.0762204429505
 30
0.0
 11
5.0
 21
14.45727265770299
 31
0.0
  0
LINE
  5
802
330
1F
100
AcDbEntity
  8
SK2
  6
CONTINUOUS
370
25
 62
7
100
AcDbLine
 10
4.265394394654244
 20
14.14693112106915
 30
0.0
 11
5.0
 21
14.88153672641491
 31
0.0
  0
LINE
  5
803
330
1F
100
AcDbEntity
  8
SK2
  6
CONTINUOUS
370
25
 62
7
100
AcDbLine
 10
3.911841004060967
 20
14.21764179918781
 30
0.0
 11
5.0
 21
15.30580079512684
 31
0.0
  0
LINE
  5
804
330
1F
100
AcDbEntity
  8
SK2
  6
CONTINUOUS
370
25
 62
7
100
AcDbLine
 10
3.558287613467691
 20
14.28835247730646
 30
0.0
 11
5.0
 21
15.73006486383877
 31
0.0
  0
LINE
  5
805
330
1F
100
AcDbEntity
  8
SK2
  6
CONTINUOUS
370
25
 62
7
100
AcDbLine
 10
3.204734222874414
 20
14.35906315542512
 30
0.0
 11
4.807101334311618
 21
15.96143026686232
 31
0.0
  0
LINE
  5
806
330
1F
100
AcDbEntity
  8
SK2
  6
CONTINUOUS
370
25
 62
7
100
AcDbLine
 10
2.851180832281138
 20
14.42977383354377
 30
0.0
 11
4.276771248421703
 21
15.85536424968434
 31
0.0
  0
LINE
  5
807
330
1F
100
AcDbEntity
  8
SK2
  6
CONTINUOUS
370
25
 62
7
100
AcDbLine
 10
2.497627441687861
 20
14.50048451166243
 30
0.0
 11
3.746441162531788
 21
15.74929823250636
 31
0.0
  0
LINE
  5
808
330
1F
100
AcDbEntity
  8
SK2
  6
CONTINUOUS
370
25
 62
7
100
AcDbLine
 10
2.144074051094584
 20
14.57119518978108
 30
0.0
 11
3.21611107664188
 21
15.64323221532837
 31
0.0
  0
LINE
  5
809
330
1F
100
AcDbEntity
  8
SK2
  6
CONTINUOUS
370
25
 62
7
100
AcDbLine
 10
1.790520660501308
 20
14.64190586789974
 30
0.0
 11
2.685780990751958
 21
15.53716619815039
 31
0.0
  0
LINE
  5
80A
330
1F
100
AcDbEntity
  8
SK2
  6
CONTINUOUS
370
25
 62
7
100
AcDbLine
 10
1.436967269908038
 20
14.7126165460184
 30
0.0
 11
2.15545090486205
 21
15.43110018097241
 31
0.0
  0
LINE
  5
80B
330
1F
100
AcDbEntity
  8
SK2
  6
CONTINUOUS
370
25
 62
7
100
AcDbLine
 10
1.083413879314755
 20
14.78332722413705
 30
0.0
 11
1.625120818972128
 21
15.32503416379442
 31
0.0
  0
LINE
  5
80C
330
1F
100
AcDbEntity
  8
SK2
  6
CONTINUOUS
370
25
 62
7
100
AcDbLine
 10
0.729860488721485
 20
14.8540379022557
 30
0.0
 11
1.09479073308222
 21
15.21896814661644
 31
0.0
  0
LINE
  5
80D
330
1F
100
AcDbEntity
  8
SK2
  6
CONTINUOUS
370
25
 62
7
100
AcDbLine
 10
0.3763070981282013
 20
14.92474858037436
 30
0.0
 11
0.5644606471922984
 21
15.11290212943845
 31
0.0
  0
LINE
  5
80E
330
1F
100
AcDbEntity
  8
SK2
  6
CONTINUOUS
370
25
 62
7
100
AcDbLine
 10
0.0227537075349318
 20
14.99545925849301
 30
0.0
 11
0.0341305613023906
 21
15.00683611226047
 31
0.0
  0
LINE
  5
80F
330
1F
100
AcDbEntity
  8
SK2
  6
CONTINUOUS
370
25
 62
7
100
AcDbLine
 10
0.2424906917749183
 20
15.04850813835499
 30
0.0
 11
0.3637360376623917
 21
14.92726279246751
 31
0.0
  0
LINE
  5
810
330
1F
100
AcDbEntity
  8
SK2
  6
CONTINUOUS
370
25
 62
7
100
AcDbLine
 10
0.596044082368195
 20
15.11921881647364
 30
0.0
 11
0.8940661235522995
 21
14.82119677528954
 31
0.0
  0
LINE
  5
811
330
1F
100
AcDbEntity
  8
SK2
  6
CONTINUOUS
370
25
 62
7
100
AcDbLine
 10
0.9495974729614787
 20
15.18992949459229
 30
0.0
 11
1.424396209442214
 21
14.71513075811155
 31
0.0
  0
LINE
  5
812
330
1F
100
AcDbEntity
  8
SK2
  6
CONTINUOUS
370
25
 62
7
100
AcDbLine
 10
1.303150863554748
 20
15.26064017271095
 30
0.0
 11
1.954726295332129
 21
14.60906474093357
 31
0.0
  0
LINE
  5
813
330
1F
100
AcDbEntity
  8
SK2
  6
CONTINUOUS
370
25
 62
7
100
AcDbLine
 10
1.656704254148025
 20
15.3313508508296
 30
0.0
 11
2.485056381222051
 21
14.50299872375559
 31
0.0
  0
LINE
  5
814
330
1F
100
AcDbEntity
  8
SK2
  6
CONTINUOUS
370
25
 62
7
100
AcDbLine
 10
2.010257644741301
 20
15.40206152894826
 30
0.0
 11
3.015386467111959
 21
14.39693270657761
 31
0.0
  0
LINE
  5
815
330
1F
100
AcDbEntity
  8
SK2
  6
CONTINUOUS
370
25
 62
7
100
AcDbLine
 10
2.363811035334578
 20
15.47277220706691
 30
0.0
 11
3.545716553001867
 21
14.29086668939963
 31
0.0
  0
LINE
  5
816
330
1F
100
AcDbEntity
  8
SK2
  6
CONTINUOUS
370
25
 62
7
100
AcDbLine
 10
2.717364425927855
 20
15.54348288518558
 30
0.0
 11
4.076046638891789
 21
14.18480067222164
 31
0.0
  0
LINE
  5
817
330
1F
100
AcDbEntity
  8
SK2
  6
CONTINUOUS
370
25
 62
7
100
AcDbLine
 10
3.070917816521124
 20
15.61419356330424
 30
0.0
 11
4.606376724781704
 21
14.07873465504366
 31
0.0
  0
LINE
  5
818
330
1F
100
AcDbEntity
  8
SK2
  6
CONTINUOUS
370
25
 62
7
100
AcDbLine
 10
3.424471207114408
 20
15.68490424142288
 30
0.0
 11
5.0
 21
14.10937544853729
 31
0.0
  0
LINE
  5
819
330
1F
100
AcDbEntity
  8
SK2
  6
CONTINUOUS
370
25
 62
7
100
AcDbLine
 10
3.778024597707685
 20
15.75561491954154
 30
0.0
 11
5.0
 21
14.53363951724922
 31
0.0
  0
LINE
  5
81A
330
1F
100
AcDbEntity
  8
SK2
  6
CONTINUOUS
370
25
 62
7
100
AcDbLine
 10
4.131577988300961
 20
15.82632559766019
 30
0.0
 11
5.0
 21
14.95790358596116
 31
0.0
  0
LINE
  5
81B
330
1F
100
AcDbEntity
  8
SK2
  6
CONTINUOUS
370
25
 62
7
100
AcDbLine
 10
4.485131378894231
 20
15.89703627577886
 30
0.0
 11
5.0
 21
15.38216765467309
 31
0.0
  0
LINE
  5
81C
330
1F
100
AcDbEntity
  8
SK2
  6
CONTINUOUS
370
25
 62
7
100
AcDbLine
 10
4.838684769487514
 20
15.9677469538975
 30
0.0
 11
5.0
 21
15.80643172338502
 31
0.0
  0
LINE
  5
81D
330
1F
100
AcDbEntity
  8
SK2
  6
CONTINUOUS
370
25
 62
7
100
AcDbLine
 10
44.0
 20
15.00001
 30
0.0
 11
39.0
 21
14.00001
 31
0.0
  0
LINE
  5
81E
330
1F
100
AcDbEntity
  8
SK2
  6
CONTINUOUS
370
25
 62
7
100
AcDbLine
 10
39.0
 20
14.00001
 30
0.0
 11
39.0
 21
16.00001
 31
0.0
  0
LINE
  5
81F
330
1F
100
AcDbEntity
  8
SK2
  6
CONTINUOUS
370
25
 62
7
100
AcDbLine
 10
39.0
 20
16.00001
 30
0.0
 11
44.0
 21
15.00001
 31
0.0
  0
LINE
  5
820
330
1F
100
AcDbEntity
  8
SK2
  6
CONTINUOUS
370
25
 62
7
100
AcDbLine
 10
43.65812940796322
 20
14.93163588159264
 30
0.0
 11
43.77208627197548
 21
15.0455927456049
 31
0.0
  0
LINE
  5
821
330
1F
100
AcDbEntity
  8
SK2
  6
CONTINUOUS
370
25
 62
7
100
AcDbLine
 10
43.12779932207331
 20
14.82556986441466
 30
0.0
 11
43.41853288138221
 21
15.11630342372356
 31
0.0
  0
LINE
  5
822
330
1F
100
AcDbEntity
  8
SK2
  6
CONTINUOUS
370
25
 62
7
100
AcDbLine
 10
42.5974692361834
 20
14.71950384723668
 30
0.0
 11
43.06497949078894
 21
15.18701410184221
 31
0.0
  0
LINE
  5
823
330
1F
100
AcDbEntity
  8
SK2
  6
CONTINUOUS
370
25
 62
7
100
AcDbLine
 10
42.06713915029349
 20
14.6134378300587
 30
0.0
 11
42.71142610019566
 21
15.25772477996087
 31
0.0
  0
LINE
  5
824
330
1F
100
AcDbEntity
  8
SK2
  6
CONTINUOUS
370
25
 62
7
100
AcDbLine
 10
41.53680906440358
 20
14.50737181288072
 30
0.0
 11
42.35787270960239
 21
15.32843545807952
 31
0.0
  0
LINE
  5
825
330
1F
100
AcDbEntity
  8
SK2
  6
CONTINUOUS
370
25
 62
7
100
AcDbLine
 10
41.00647897851367
 20
14.40130579570273
 30
0.0
 11
42.00431931900911
 21
15.39914613619818
 31
0.0
  0
LINE
  5
826
330
1F
100
AcDbEntity
  8
SK2
  6
CONTINUOUS
370
25
 62
7
100
AcDbLine
 10
40.47614889262376
 20
14.29523977852475
 30
0.0
 11
41.65076592841584
 21
15.46985681431683
 31
0.0
  0
LINE
  5
827
330
1F
100
AcDbEntity
  8
SK2
  6
CONTINUOUS
370
25
 62
7
100
AcDbLine
 10
39.94581880673385
 20
14.18917376134677
 30
0.0
 11
41.29721253782257
 21
15.54056749243549
 31
0.0
  0
LINE
  5
828
330
1F
100
AcDbEntity
  8
SK2
  6
CONTINUOUS
370
25
 62
7
100
AcDbLine
 10
39.41548872084394
 20
14.08310774416879
 30
0.0
 11
40.94365914722929
 21
15.61127817055414
 31
0.0
  0
LINE
  5
829
330
1F
100
AcDbEntity
  8
SK2
  6
CONTINUOUS
370
25
 62
7
100
AcDbLine
 10
39.0
 20
14.09188309203677
 30
0.0
 11
40.59010575663602
 21
15.68198884867279
 31
0.0
  0
LINE
  5
82A
330
1F
100
AcDbEntity
  8
SK2
  6
CONTINUOUS
370
25
 62
7
100
AcDbLine
 10
39.0
 20
14.5161471607487
 30
0.0
 11
40.23655236604274
 21
15.75269952679145
 31
0.0
  0
LINE
  5
82B
330
1F
100
AcDbEntity
  8
SK2
  6
CONTINUOUS
370
25
 62
7
100
AcDbLine
 10
39.0
 20
14.94041122946063
 30
0.0
 11
39.88299897544947
 21
15.8234102049101
 31
0.0
  0
LINE
  5
82C
330
1F
100
AcDbEntity
  8
SK2
  6
CONTINUOUS
370
25
 62
7
100
AcDbLine
 10
39.0
 20
15.36467529817256
 30
0.0
 11
39.52944558485621
 21
15.89412088302876
 31
0.0
  0
LINE
  5
82D
330
1F
100
AcDbEntity
  8
SK2
  6
CONTINUOUS
370
25
 62
7
100
AcDbLine
 10
39.0
 20
15.78893936688448
 30
0.0
 11
39.17589219426293
 21
15.96483156114741
 31
0.0
  0
LINE
  5
82E
330
1F
100
AcDbEntity
  8
SK2
  6
CONTINUOUS
370
25
 62
7
100
AcDbLine
 10
39.0
 20
14.3338095116624
 30
0.0
 11
39.27816625971867
 21
14.05564325194373
 31
0.0
  0
LINE
  5
82F
330
1F
100
AcDbEntity
  8
SK2
  6
CONTINUOUS
370
25
 62
7
100
AcDbLine
 10
39.0
 20
14.75807358037433
 30
0.0
 11
39.63171965031194
 21
14.12635393006239
 31
0.0
  0
LINE
  5
830
330
1F
100
AcDbEntity
  8
SK2
  6
CONTINUOUS
370
25
 62
7
100
AcDbLine
 10
39.0
 20
15.18233764908626
 30
0.0
 11
39.98527304090521
 21
14.19706460818104
 31
0.0
  0
LINE
  5
831
330
1F
100
AcDbEntity
  8
SK2
  6
CONTINUOUS
370
25
 62
7
100
AcDbLine
 10
39.0
 20
15.60660171779818
 30
0.0
 11
40.33882643149849
 21
14.2677752862997
 31
0.0
  0
LINE
  5
832
330
1F
100
AcDbEntity
  8
SK2
  6
CONTINUOUS
370
25
 62
7
100
AcDbLine
 10
39.03856973313764
 20
15.99229605337247
 30
0.0
 11
40.69237982209176
 21
14.33848596441835
 31
0.0
  0
LINE
  5
833
330
1F
100
AcDbEntity
  8
SK2
  6
CONTINUOUS
370
25
 62
7
100
AcDbLine
 10
39.56889981902755
 20
15.88623003619449
 30
0.0
 11
41.04593321268504
 21
14.40919664253701
 31
0.0
  0
LINE
  5
834
330
1F
100
AcDbEntity
  8
SK2
  6
CONTINUOUS
370
25
 62
7
100
AcDbLine
 10
40.09922990491746
 20
15.78016401901651
 30
0.0
 11
41.39948660327831
 21
14.47990732065566
 31
0.0
  0
LINE
  5
835
330
1F
100
AcDbEntity
  8
SK2
  6
CONTINUOUS
370
25
 62
7
100
AcDbLine
 10
40.62955999080737
 20
15.67409800183852
 30
0.0
 11
41.75303999387158
 21
14.55061799877432
 31
0.0
  0
LINE
  5
836
330
1F
100
AcDbEntity
  8
SK2
  6
CONTINUOUS
370
25
 62
7
100
AcDbLine
 10
41.15989007669728
 20
15.56803198466054
 30
0.0
 11
42.10659338446486
 21
14.62132867689297
 31
0.0
  0
LINE
  5
837
330
1F
100
AcDbEntity
  8
SK2
  6
CONTINUOUS
370
25
 62
7
100
AcDbLine
 10
41.69022016258719
 20
15.46196596748256
 30
0.0
 11
42.46014677505813
 21
14.69203935501162
 31
0.0
  0
LINE
  5
838
330
1F
100
AcDbEntity
  8
SK2
  6
CONTINUOUS
370
25
 62
7
100
AcDbLine
 10
42.2205502484771
 20
15.35589995030458
 30
0.0
 11
42.8137001656514
 21
14.76275003313028
 31
0.0
  0
LINE
  5
839
330
1F
100
AcDbEntity
  8
SK2
  6
CONTINUOUS
370
25
 62
7
100
AcDbLine
 10
42.75088033436701
 20
15.2498339331266
 30
0.0
 11
43.16725355624467
 21
14.83346071124894
 31
0.0
  0
LINE
  5
83A
330
1F
100
AcDbEntity
  8
SK2
  6
CONTINUOUS
370
25
 62
7
100
AcDbLine
 10
43.28121042025693
 20
15.14376791594862
 30
0.0
 11
43.52080694683795
 21
14.90417138936759
 31
0.0
  0
LINE
  5
83B
330
1F
100
AcDbEntity
  8
SK2
  6
CONTINUOUS
370
25
 62
7
100
AcDbLine
 10
43.81154050614683
 20
15.03770189877063
 30
0.0
 11
43.87436033743123
 21
14.97488206748625
 31
0.0
  0
TEXT
  5
83C
330
1F
100
AcDbEntity
  8
SK2
  6
CONTINUOUS
370
25
 62
7
100
AcDbText
 10
19.08333333333333
 20
16.50001
 30
0.0
 40
3.5
  1
44
 72
     1
 11
22.0
 21
16.50001
 31
0.0
100
AcDbText
  0
LINE
  5
83D
330
1F
100
AcDbEntity
  8
2
  6
CONTINUOUS
370
25
 62
7
100
AcDbLine
 10
68.0
 20
-3.0
 30
0.0
 11
81.0
 21
-3.000000000000002
 31
0.0
  0
LINE
  5
83E
330
1F
100
AcDbEntity
  8
2
  6
CONTINUOUS
370
25
 62
7
100
AcDbLine
 10
81.0
 20
2.999999999999998
 30
0.0
 11
68.0
 21
3.0
 31
0.0
  0
LINE
  5
83F
330
1F
100
AcDbEntity
  8
2
  6
CONTINUOUS
370
25
 62
7
100
AcDbLine
 10
80.0
 20
-10.0
 30
0.0
 11
80.0
 21
16.475
 31
0.0
  0
LINE
  5
840
330
1F
100
AcDbEntity
  8
2
  6
CONTINUOUS
370
25
 62
7
100
AcDbLine
 10
80.0
 20
-3.000000000000002
 30
0.0
 11
81.0
 21
-8.000000000000002
 31
0.0
  0
LINE
  5
841
330
1F
100
AcDbEntity
  8
2
  6
CONTINUOUS
370
25
 62
7
100
AcDbLine
 10
81.0
 20
-8.000000000000002
 30
0.0
 11
79.0
 21
-8.000000000000002
 31
0.0
  0
LINE
  5
842
330
1F
100
AcDbEntity
  8
2
  6
CONTINUOUS
370
25
 62
7
100
AcDbLine
 10
79.0
 20
-8.000000000000002
 30
0.0
 11
80.0
 21
-3.000000000000002
 31
0.0
  0
LINE
  5
843
330
1F
100
AcDbEntity
  8
2
  6
CONTINUOUS
370
25
 62
7
100
AcDbLine
 10
80.70830690237648
 20
-8.0
 30
0.0
 11
80.95138448372941
 21
-7.756922418647065
 31
0.0
  0
LINE
  5
844
330
1F
100
AcDbEntity
  8
2
  6
CONTINUOUS
370
25
 62
7
100
AcDbLine
 10
80.28404283366456
 20
-8.0
 30
0.0
 11
80.88067380561077
 21
-7.403369028053788
 31
0.0
  0
LINE
  5
845
330
1F
100
AcDbEntity
  8
2
  6
CONTINUOUS
370
25
 62
7
100
AcDbLine
 10
79.85977876495261
 20
-8.0
 30
0.0
 11
80.8099631274921
 21
-7.049815637460512
 31
0.0
  0
LINE
  5
846
330
1F
100
AcDbEntity
  8
2
  6
CONTINUOUS
370
25
 62
7
100
AcDbLine
 10
79.43551469624069
 20
-8.0
 30
0.0
 11
80.73925244937345
 21
-6.696262246867242
 31
0.0
  0
LINE
  5
847
330
1F
100
AcDbEntity
  8
2
  6
CONTINUOUS
370
25
 62
7
100
AcDbLine
 10
79.01125062752875
 20
-8.0
 30
0.0
 11
80.6685417712548
 21
-6.342708856273958
 31
0.0
  0
LINE
  5
848
330
1F
100
AcDbEntity
  8
2
  6
CONTINUOUS
370
25
 62
7
100
AcDbLine
 10
79.1032533602958
 20
-7.48373319852103
 30
0.0
 11
80.59783109313614
 21
-5.989155465680689
 31
0.0
  0
LINE
  5
849
330
1F
100
AcDbEntity
  8
2
  6
CONTINUOUS
370
25
 62
7
100
AcDbLine
 10
79.20931937747378
 20
-6.953403112631129
 30
0.0
 11
80.52712041501749
 21
-5.635602075087412
 31
0.0
  0
LINE
  5
84A
330
1F
100
AcDbEntity
  8
2
  6
CONTINUOUS
370
25
 62
7
100
AcDbLine
 10
79.31538539465176
 20
-6.423073026741207
 30
0.0
 11
80.45640973689882
 21
-5.282048684494136
 31
0.0
  0
LINE
  5
84B
330
1F
100
AcDbEntity
  8
2
  6
CONTINUOUS
370
25
 62
7
100
AcDbLine
 10
79.42145141182974
 20
-5.892742940851306
 30
0.0
 11
80.38569905878018
 21
-4.928495293900866
 31
0.0
  0
LINE
  5
84C
330
1F
100
AcDbEntity
  8
2
  6
CONTINUOUS
370
25
 62
7
100
AcDbLine
 10
79.52751742900773
 20
-5.362412854961384
 30
0.0
 11
80.31498838066152
 21
-4.57494190330759
 31
0.0
  0
LINE
  5
84D
330
1F
100
AcDbEntity
  8
2
  6
CONTINUOUS
370
25
 62
7
100
AcDbLine
 10
79.6335834461857
 20
-4.832082769071476
 30
0.0
 11
80.24427770254286
 21
-4.221388512714313
 31
0.0
  0
LINE
  5
84E
330
1F
100
AcDbEntity
  8
2
  6
CONTINUOUS
370
25
 62
7
100
AcDbLine
 10
79.73964946336369
 20
-4.301752683181554
 30
0.0
 11
80.1735670244242
 21
-3.867835122121043
 31
0.0
  0
LINE
  5
84F
330
1F
100
AcDbEntity
  8
2
  6
CONTINUOUS
370
25
 62
7
100
AcDbLine
 10
79.84571548054167
 20
-3.771422597291647
 30
0.0
 11
80.10285634630554
 21
-3.514281731527767
 31
0.0
  0
LINE
  5
850
330
1F
100
AcDbEntity
  8
2
  6
CONTINUOUS
370
25
 62
7
100
AcDbLine
 10
79.95178149771965
 20
-3.241092511401732
 30
0.0
 11
80.0321456681869
 21
-3.16072834093449
 31
0.0
  0
LINE
  5
851
330
1F
100
AcDbEntity
  8
2
  6
CONTINUOUS
370
25
 62
7
100
AcDbLine
 10
79.0254833995939
 20
-7.872583002030481
 30
0.0
 11
79.15290039756343
 21
-8.0
 31
0.0
  0
LINE
  5
852
330
1F
100
AcDbEntity
  8
2
  6
CONTINUOUS
370
25
 62
7
100
AcDbLine
 10
79.09619407771257
 20
-7.519029611437205
 30
0.0
 11
79.57716446627535
 21
-8.0
 31
0.0
  0
LINE
  5
853
330
1F
100
AcDbEntity
  8
2
  6
CONTINUOUS
370
25
 62
7
100
AcDbLine
 10
79.16690475583121
 20
-7.165476220843928
 30
0.0
 11
80.00142853498728
 21
-8.0
 31
0.0
  0
LINE
  5
854
330
1F
100
AcDbEntity
  8
2
  6
CONTINUOUS
370
25
 62
7
100
AcDbLine
 10
79.23761543394987
 20
-6.811922830250658
 30
0.0
 11
80.42569260369922
 21
-8.0
 31
0.0
  0
LINE
  5
855
330
1F
100
AcDbEntity
  8
2
  6
CONTINUOUS
370
25
 62
7
100
AcDbLine
 10
79.30832611206853
 20
-6.458369439657385
 30
0.0
 11
80.84995667241115
 21
-8.000000000000004
 31
0.0
  0
LINE
  5
856
330
1F
100
AcDbEntity
  8
2
  6
CONTINUOUS
370
25
 62
7
100
AcDbLine
 10
79.37903679018717
 20
-6.104816049064109
 30
0.0
 11
80.93144481471923
 21
-7.657224073596151
 31
0.0
  0
LINE
  5
857
330
1F
100
AcDbEntity
  8
2
  6
CONTINUOUS
370
25
 62
7
100
AcDbLine
 10
79.44974746830583
 20
-5.751262658470832
 30
0.0
 11
80.82537879754125
 21
-7.126893987706243
 31
0.0
  0
LINE
  5
858
330
1F
100
AcDbEntity
  8
2
  6
CONTINUOUS
370
25
 62
7
100
AcDbLine
 10
79.52045814642449
 20
-5.397709267877559
 30
0.0
 11
80.71931278036325
 21
-6.596563901816324
 31
0.0
  0
LINE
  5
859
330
1F
100
AcDbEntity
  8
2
  6
CONTINUOUS
370
25
 62
7
100
AcDbLine
 10
79.59116882454313
 20
-5.044155877284282
 30
0.0
 11
80.61324676318529
 21
-6.066233815926424
 31
0.0
  0
LINE
  5
85A
330
1F
100
AcDbEntity
  8
2
  6
CONTINUOUS
370
25
 62
7
100
AcDbLine
 10
79.6618795026618
 20
-4.690602486691009
 30
0.0
 11
80.5071807460073
 21
-5.535903730036505
 31
0.0
  0
LINE
  5
85B
330
1F
100
AcDbEntity
  8
2
  6
CONTINUOUS
370
25
 62
7
100
AcDbLine
 10
79.73259018078045
 20
-4.337049096097736
 30
0.0
 11
80.40111472882933
 21
-5.005573644146601
 31
0.0
  0
LINE
  5
85C
330
1F
100
AcDbEntity
  8
2
  6
CONTINUOUS
370
25
 62
7
100
AcDbLine
 10
79.8033008588991
 20
-3.983495705504463
 30
0.0
 11
80.29504871165133
 21
-4.475243558256683
 31
0.0
  0
LINE
  5
85D
330
1F
100
AcDbEntity
  8
2
  6
CONTINUOUS
370
25
 62
7
100
AcDbLine
 10
79.87401153701776
 20
-3.62994231491119
 30
0.0
 11
80.18898269447335
 21
-3.944913472366778
 31
0.0
  0
LINE
  5
85E
330
1F
100
AcDbEntity
  8
2
  6
CONTINUOUS
370
25
 62
7
100
AcDbLine
 10
79.94472221513642
 20
-3.276388924317921
 30
0.0
 11
80.08291667729537
 21
-3.414583386476863
 31
0.0
  0
LINE
  5
85F
330
1F
100
AcDbEntity
  8
2
  6
CONTINUOUS
370
25
 62
7
100
AcDbLine
 10
80.0
 20
2.999999999999998
 30
0.0
 11
79.0
 21
7.999999999999998
 31
0.0
  0
LINE
  5
860
330
1F
100
AcDbEntity
  8
2
  6
CONTINUOUS
370
25
 62
7
100
AcDbLine
 10
79.0
 20
7.999999999999998
 30
0.0
 11
81.0
 21
7.999999999999998
 31
0.0
  0
LINE
  5
861
330
1F
100
AcDbEntity
  8
2
  6
CONTINUOUS
370
25
 62
7
100
AcDbLine
 10
81.0
 20
7.999999999999998
 30
0.0
 11
80.0
 21
2.999999999999998
 31
0.0
  0
LINE
  5
862
330
1F
100
AcDbEntity
  8
2
  6
CONTINUOUS
370
25
 62
7
100
AcDbLine
 10
79.98177409191047
 20
3.091129540447682
 30
0.0
 11
80.02733886213431
 21
3.13669431067153
 31
0.0
  0
LINE
  5
863
330
1F
100
AcDbEntity
  8
2
  6
CONTINUOUS
370
25
 62
7
100
AcDbLine
 10
79.9110634137918
 20
3.444682931040958
 30
0.0
 11
80.1334048793123
 21
3.667024396561452
 31
0.0
  0
LINE
  5
864
330
1F
100
AcDbEntity
  8
2
  6
CONTINUOUS
370
25
 62
7
100
AcDbLine
 10
79.84035273567315
 20
3.798236321634235
 30
0.0
 11
80.23947089649027
 21
4.19735448245136
 31
0.0
  0
LINE
  5
865
330
1F
100
AcDbEntity
  8
2
  6
CONTINUOUS
370
25
 62
7
100
AcDbLine
 10
79.7696420575545
 20
4.151789712227515
 30
0.0
 11
80.34553691366825
 21
4.727684568341271
 31
0.0
  0
LINE
  5
866
330
1F
100
AcDbEntity
  8
2
  6
CONTINUOUS
370
25
 62
7
100
AcDbLine
 10
79.69893137943583
 20
4.505343102820785
 30
0.0
 11
80.45160293084624
 21
5.258014654231186
 31
0.0
  0
LINE
  5
867
330
1F
100
AcDbEntity
  8
2
  6
CONTINUOUS
370
25
 62
7
100
AcDbLine
 10
79.62822070131719
 20
4.858896493414054
 30
0.0
 11
80.55766894802423
 21
5.788344740121094
 31
0.0
  0
LINE
  5
868
330
1F
100
AcDbEntity
  8
2
  6
CONTINUOUS
370
25
 62
7
100
AcDbLine
 10
79.55751002319853
 20
5.212449884007331
 30
0.0
 11
80.6637349652022
 21
6.318674826011009
 31
0.0
  0
LINE
  5
869
330
1F
100
AcDbEntity
  8
2
  6
CONTINUOUS
370
25
 62
7
100
AcDbLine
 10
79.48679934507987
 20
5.566003274600615
 30
0.0
 11
80.76980098238019
 21
6.849004911900916
 31
0.0
  0
LINE
  5
86A
330
1F
100
AcDbEntity
  8
2
  6
CONTINUOUS
370
25
 62
7
100
AcDbLine
 10
79.41608866696123
 20
5.919556665193888
 30
0.0
 11
80.87586699955816
 21
7.379334997790828
 31
0.0
  0
LINE
  5
86B
330
1F
100
AcDbEntity
  8
2
  6
CONTINUOUS
370
25
 62
7
100
AcDbLine
 10
79.34537798884257
 20
6.273110055787164
 30
0.0
 11
80.98193301673615
 21
7.909665083680736
 31
0.0
  0
LINE
  5
86C
330
1F
100
AcDbEntity
  8
2
  6
CONTINUOUS
370
25
 62
7
100
AcDbLine
 10
79.27466731072391
 20
6.626663446380441
 30
0.0
 11
80.64800386434348
 21
8.0
 31
0.0
  0
LINE
  5
86D
330
1F
100
AcDbEntity
  8
2
  6
CONTINUOUS
370
25
 62
7
100
AcDbLine
 10
79.20395663260526
 20
6.980216836973703
 30
0.0
 11
80.22373979563154
 21
8.0
 31
0.0
  0
LINE
  5
86E
330
1F
100
AcDbEntity
  8
2
  6
CONTINUOUS
370
25
 62
7
100
AcDbLine
 10
79.1332459544866
 20
7.33377022756698
 30
0.0
 11
79.79947572691961
 21
8.0
 31
0.0
  0
LINE
  5
86F
330
1F
100
AcDbEntity
  8
2
  6
CONTINUOUS
370
25
 62
7
100
AcDbLine
 10
79.06253527636795
 20
7.687323618160264
 30
0.0
 11
79.37521165820769
 21
8.0
 31
0.0
  0
LINE
  5
870
330
1F
100
AcDbEntity
  8
2
  6
CONTINUOUS
370
25
 62
7
100
AcDbLine
 10
79.99192641962564
 20
3.040367901871775
 30
0.0
 11
80.00538238691624
 21
3.026911934581179
 31
0.0
  0
LINE
  5
871
330
1F
100
AcDbEntity
  8
2
  6
CONTINUOUS
370
25
 62
7
100
AcDbLine
 10
79.88586040244766
 20
3.57069798776169
 30
0.0
 11
80.07609306503488
 21
3.380465325174463
 31
0.0
  0
LINE
  5
872
330
1F
100
AcDbEntity
  8
2
  6
CONTINUOUS
370
25
 62
7
100
AcDbLine
 10
79.77979438526967
 20
4.101028073651598
 30
0.0
 11
80.14680374315355
 21
3.734018715767725
 31
0.0
  0
LINE
  5
873
330
1F
100
AcDbEntity
  8
2
  6
CONTINUOUS
370
25
 62
7
100
AcDbLine
 10
79.6737283680917
 20
4.631358159541506
 30
0.0
 11
80.2175144212722
 21
4.087572106361002
 31
0.0
  0
LINE
  5
874
330
1F
100
AcDbEntity
  8
2
  6
CONTINUOUS
370
25
 62
7
100
AcDbLine
 10
79.56766235091371
 20
5.161688245431421
 30
0.0
 11
80.28822509939086
 21
4.441125496954285
 31
0.0
  0
LINE
  5
875
330
1F
100
AcDbEntity
  8
2
  6
CONTINUOUS
370
25
 62
7
100
AcDbLine
 10
79.46159633373574
 20
5.692018331321329
 30
0.0
 11
80.35893577750952
 21
4.794678887547555
 31
0.0
  0
LINE
  5
876
330
1F
100
AcDbEntity
  8
2
  6
CONTINUOUS
370
25
 62
7
100
AcDbLine
 10
79.35553031655775
 20
6.222348417211244
 30
0.0
 11
80.42964645562816
 21
5.148232278140831
 31
0.0
  0
LINE
  5
877
330
1F
100
AcDbEntity
  8
2
  6
CONTINUOUS
370
25
 62
7
100
AcDbLine
 10
79.24946429937978
 20
6.752678503101137
 30
0.0
 11
80.50035713374682
 21
5.501785668734108
 31
0.0
  0
LINE
  5
878
330
1F
100
AcDbEntity
  8
2
  6
CONTINUOUS
370
25
 62
7
100
AcDbLine
 10
79.14339828220179
 20
7.283008588991052
 30
0.0
 11
80.57106781186548
 21
5.85533905932737
 31
0.0
  0
LINE
  5
879
330
1F
100
AcDbEntity
  8
2
  6
CONTINUOUS
370
25
 62
7
100
AcDbLine
 10
79.0373322650238
 20
7.81333867488096
 30
0.0
 11
80.64177848998413
 21
6.208892449920647
 31
0.0
  0
LINE
  5
87A
330
1F
100
AcDbEntity
  8
2
  6
CONTINUOUS
370
25
 62
7
100
AcDbLine
 10
79.2749350086167
 20
8.0
 30
0.0
 11
80.71248916810279
 21
6.562445840513924
 31
0.0
  0
LINE
  5
87B
330
1F
100
AcDbEntity
  8
2
  6
CONTINUOUS
370
25
 62
7
100
AcDbLine
 10
79.69919907732864
 20
8.0
 30
0.0
 11
80.78319984622144
 21
6.915999231107207
 31
0.0
  0
LINE
  5
87C
330
1F
100
AcDbEntity
  8
2
  6
CONTINUOUS
370
25
 62
7
100
AcDbLine
 10
80.12346314604056
 20
8.0
 30
0.0
 11
80.8539105243401
 21
7.269552621700477
 31
0.0
  0
LINE
  5
87D
330
1F
100
AcDbEntity
  8
2
  6
CONTINUOUS
370
25
 62
7
100
AcDbLine
 10
80.5477272147525
 20
8.0
 30
0.0
 11
80.92462120245875
 21
7.623106012293746
 31
0.0
  0
LINE
  5
87E
330
1F
100
AcDbEntity
  8
2
  6
CONTINUOUS
370
25
 62
7
100
AcDbLine
 10
80.97199128346443
 20
8.0
 30
0.0
 11
80.99533188057741
 21
7.976659402887023
 31
0.0
  0
TEXT
  5
87F
330
1F
100
AcDbEntity
  8
2
  6
CONTINUOUS
370
25
 62
7
100
AcDbText
 10
78.5
 20
13.34583333333333
 30
0.0
 40
3.5
  1
6
 50
90.00000000000001
 72
     1
 11
78.5
 21
14.5125
 31
0.0
100
AcDbText
  0
CIRCLE
  5
880
330
1F
100
AcDbEntity
  8
2
  6
CONTINUOUS
370
25
 62
7
100
AcDbCircle
 10
76.75
 20
11.1875
 30
0.0
 40
1.4
  0
LINE
  5
881
330
1F
100
AcDbEntity
  8
2
  6
CONTINUOUS
370
25
 62
7
100
AcDbLine
 10
78.15
 20
9.7875
 30
0.0
 11
75.35
 21
12.5875
 31
0.0
  0
LINE
  5
882
330
1F
100
AcDbEntity
  8
2
  6
CONTINUOUS
370
25
 62
7
100
AcDbLine
 10
50.0
 20
-3.0
 30
0.0
 11
50.0
 21
-16.0
 31
0.0
  0
LINE
  5
883
330
1F
100
AcDbEntity
  8
2
  6
CONTINUOUS
370
25
 62
7
100
AcDbLine
 10
68.0
 20
-16.0
 30
0.0
 11
68.0
 21
-3.0
 31
0.0
  0
LINE
  5
884
330
1F
100
AcDbEntity
  8
2
  6
CONTINUOUS
370
25
 62
7
100
AcDbLine
 10
50.0
 20
-15.0
 30
0.0
 11
68.0
 21
-15.0
 31
0.0
  0
LINE
  5
885
330
1F
100
AcDbEntity
  8
2
  6
CONTINUOUS
370
25
 62
7
100
AcDbLine
 10
50.0
 20
-15.0
 30
0.0
 11
55.0
 21
-14.0
 31
0.0
  0
LINE
  5
886
330
1F
100
AcDbEntity
  8
2
  6
CONTINUOUS
370
25
 62
7
100
AcDbLine
 10
55.0
 20
-14.0
 30
0.0
 11
55.0
 21
-16.0
 31
0.0
  0
LINE
  5
887
330
1F
100
AcDbEntity
  8
2
  6
CONTINUOUS
370
25
 62
7
100
AcDbLine
 10
55.0
 20
-16.0
 30
0.0
 11
50.0
 21
-15.0
 31
0.0
  0
LINE
  5
888
330
1F
100
AcDbEntity
  8
2
  6
CONTINUOUS
370
25
 62
7
100
AcDbLine
 10
54.95971821415785
 20
-15.99194364283157
 30
0.0
 11
55.0
 21
-15.95166185698941
 31
0.0
  0
LINE
  5
889
330
1F
100
AcDbEntity
  8
2
  6
CONTINUOUS
370
25
 62
7
100
AcDbLine
 10
54.60616482356457
 20
-15.92123296471291
 30
0.0
 11
55.0
 21
-15.52739778827748
 31
0.0
  0
LINE
  5
88A
330
1F
100
AcDbEntity
  8
2
  6
CONTINUOUS
370
25
 62
7
100
AcDbLine
 10
54.25261143297129
 20
-15.85052228659426
 30
0.0
 11
55.0
 21
-15.10313371956556
 31
0.0
  0
LINE
  5
88B
330
1F
100
AcDbEntity
  8
2
  6
CONTINUOUS
370
25
 62
7
100
AcDbLine
 10
53.89905804237802
 20
-15.7798116084756
 30
0.0
 11
55.0
 21
-14.67886965085363
 31
0.0
  0
LINE
  5
88C
330
1F
100
AcDbEntity
  8
2
  6
CONTINUOUS
370
25
 62
7
100
AcDbLine
 10
53.54550465178475
 20
-15.70910093035695
 30
0.0
 11
55.0
 21
-14.2546055821417
 31
0.0
  0
LINE
  5
88D
330
1F
100
AcDbEntity
  8
2
  6
CONTINUOUS
370
25
 62
7
100
AcDbLine
 10
53.19195126119148
 20
-15.6383902522383
 30
0.0
 11
54.78792689178722
 21
-14.04241462164256
 31
0.0
  0
LINE
  5
88E
330
1F
100
AcDbEntity
  8
2
  6
CONTINUOUS
370
25
 62
7
100
AcDbLine
 10
52.8383978705982
 20
-15.56767957411964
 30
0.0
 11
54.25759680589731
 21
-14.14848063882054
 31
0.0
  0
LINE
  5
88F
330
1F
100
AcDbEntity
  8
2
  6
CONTINUOUS
370
25
 62
7
100
AcDbLine
 10
52.48484448000493
 20
-15.49696889600099
 30
0.0
 11
53.72726672000739
 21
-14.25454665599852
 31
0.0
  0
LINE
  5
890
330
1F
100
AcDbEntity
  8
2
  6
CONTINUOUS
370
25
 62
7
100
AcDbLine
 10
52.13129108941166
 20
-15.42625821788233
 30
0.0
 11
53.19693663411748
 21
-14.3606126731765
 31
0.0
  0
LINE
  5
891
330
1F
100
AcDbEntity
  8
2
  6
CONTINUOUS
370
25
 62
7
100
AcDbLine
 10
51.77773769881838
 20
-15.35554753976368
 30
0.0
 11
52.66660654822758
 21
-14.46667869035448
 31
0.0
  0
LINE
  5
892
330
1F
100
AcDbEntity
  8
2
  6
CONTINUOUS
370
25
 62
7
100
AcDbLine
 10
51.42418430822511
 20
-15.28483686164502
 30
0.0
 11
52.13627646233766
 21
-14.57274470753247
 31
0.0
  0
LINE
  5
893
330
1F
100
AcDbEntity
  8
2
  6
CONTINUOUS
370
25
 62
7
100
AcDbLine
 10
51.07063091763184
 20
-15.21412618352637
 30
0.0
 11
51.60594637644775
 21
-14.67881072471045
 31
0.0
  0
LINE
  5
894
330
1F
100
AcDbEntity
  8
2
  6
CONTINUOUS
370
25
 62
7
100
AcDbLine
 10
50.71707752703856
 20
-15.14341550540771
 30
0.0
 11
51.07561629055785
 21
-14.78487674188843
 31
0.0
  0
LINE
  5
895
330
1F
100
AcDbEntity
  8
2
  6
CONTINUOUS
370
25
 62
7
100
AcDbLine
 10
50.36352413644529
 20
-15.07270482728906
 30
0.0
 11
50.54528620466794
 21
-14.89094275906641
 31
0.0
  0
LINE
  5
896
330
1F
100
AcDbEntity
  8
2
  6
CONTINUOUS
370
25
 62
7
100
AcDbLine
 10
50.00997074585202
 20
-15.0019941491704
 30
0.0
 11
50.01495611877803
 21
-14.99700877624439
 31
0.0
  0
LINE
  5
897
330
1F
100
AcDbEntity
  8
2
  6
CONTINUOUS
370
25
 62
7
100
AcDbLine
 10
50.29213966722434
 20
-14.94157206655513
 30
0.0
 11
50.43820950083651
 21
-15.0876419001673
 31
0.0
  0
LINE
  5
898
330
1F
100
AcDbEntity
  8
2
  6
CONTINUOUS
370
25
 62
7
100
AcDbLine
 10
50.64569305781761
 20
-14.87086138843648
 30
0.0
 11
50.96853958672642
 21
-15.19370791734528
 31
0.0
  0
LINE
  5
899
330
1F
100
AcDbEntity
  8
2
  6
CONTINUOUS
370
25
 62
7
100
AcDbLine
 10
50.99924644841089
 20
-14.80015071031782
 30
0.0
 11
51.49886967261633
 21
-15.29977393452327
 31
0.0
  0
LINE
  5
89A
330
1F
100
AcDbEntity
  8
2
  6
CONTINUOUS
370
25
 62
7
100
AcDbLine
 10
51.35279983900416
 20
-14.72944003219917
 30
0.0
 11
52.02919975850624
 21
-15.40583995170125
 31
0.0
  0
LINE
  5
89B
330
1F
100
AcDbEntity
  8
2
  6
CONTINUOUS
370
25
 62
7
100
AcDbLine
 10
51.70635322959743
 20
-14.65872935408051
 30
0.0
 11
52.55952984439615
 21
-15.51190596887923
 31
0.0
  0
LINE
  5
89C
330
1F
100
AcDbEntity
  8
2
  6
CONTINUOUS
370
25
 62
7
100
AcDbLine
 10
52.0599066201907
 20
-14.58801867596186
 30
0.0
 11
53.08985993028606
 21
-15.61797198605721
 31
0.0
  0
LINE
  5
89D
330
1F
100
AcDbEntity
  8
2
  6
CONTINUOUS
370
25
 62
7
100
AcDbLine
 10
52.41346001078398
 20
-14.5173079978432
 30
0.0
 11
53.62019001617597
 21
-15.72403800323519
 31
0.0
  0
LINE
  5
89E
330
1F
100
AcDbEntity
  8
2
  6
CONTINUOUS
370
25
 62
7
100
AcDbLine
 10
52.76701340137725
 20
-14.44659731972455
 30
0.0
 11
54.15052010206588
 21
-15.83010402041318
 31
0.0
  0
LINE
  5
89F
330
1F
100
AcDbEntity
  8
2
  6
CONTINUOUS
370
25
 62
7
100
AcDbLine
 10
53.12056679197052
 20
-14.37588664160589
 30
0.0
 11
54.68085018795579
 21
-15.93617003759116
 31
0.0
  0
LINE
  5
8A0
330
1F
100
AcDbEntity
  8
2
  6
CONTINUOUS
370
25
 62
7
100
AcDbLine
 10
53.47412018256379
 20
-14.30517596348724
 30
0.0
 11
55.0
 21
-15.83105578092344
 31
0.0
  0
LINE
  5
8A1
330
1F
100
AcDbEntity
  8
2
  6
CONTINUOUS
370
25
 62
7
100
AcDbLine
 10
53.82767357315707
 20
-14.23446528536859
 30
0.0
 11
55.0
 21
-15.40679171221151
 31
0.0
  0
LINE
  5
8A2
330
1F
100
AcDbEntity
  8
2
  6
CONTINUOUS
370
25
 62
7
100
AcDbLine
 10
54.18122696375035
 20
-14.16375460724993
 30
0.0
 11
55.0
 21
-14.98252764349959
 31
0.0
  0
LINE
  5
8A3
330
1F
100
AcDbEntity
  8
2
  6
CONTINUOUS
370
25
 62
7
100
AcDbLine
 10
54.53478035434362
 20
-14.09304392913128
 30
0.0
 11
55.0
 21
-14.55826357478766
 31
0.0
  0
LINE
  5
8A4
330
1F
100
AcDbEntity
  8
2
  6
CONTINUOUS
370
25
 62
7
100
AcDbLine
 10
54.88833374493689
 20
-14.02233325101262
 30
0.0
 11
55.0
 21
-14.13399950607573
 31
0.0
  0
LINE
  5
8A5
330
1F
100
AcDbEntity
  8
2
  6
CONTINUOUS
370
25
 62
7
100
AcDbLine
 10
68.0
 20
-15.0
 30
0.0
 11
63.0
 21
-16.0
 31
0.0
  0
LINE
  5
8A6
330
1F
100
AcDbEntity
  8
2
  6
CONTINUOUS
370
25
 62
7
100
AcDbLine
 10
63.0
 20
-16.0
 30
0.0
 11
63.0
 21
-14.0
 31
0.0
  0
LINE
  5
8A7
330
1F
100
AcDbEntity
  8
2
  6
CONTINUOUS
370
25
 62
7
100
AcDbLine
 10
63.0
 20
-14.0
 30
0.0
 11
68.0
 21
-15.0
 31
0.0
  0
LINE
  5
8A8
330
1F
100
AcDbEntity
  8
2
  6
CONTINUOUS
370
25
 62
7
100
AcDbLine
 10
67.9386844868697
 20
-15.01226310262606
 30
0.0
 11
67.95912299124647
 21
-14.99182459824929
 31
0.0
  0
LINE
  5
8A9
330
1F
100
AcDbEntity
  8
2
  6
CONTINUOUS
370
25
 62
7
100
AcDbLine
 10
67.40835440097979
 20
-15.11832911980405
 30
0.0
 11
67.6055696006532
 21
-14.92111392013064
 31
0.0
  0
LINE
  5
8AA
330
1F
100
AcDbEntity
  8
2
  6
CONTINUOUS
370
25
 62
7
100
AcDbLine
 10
66.87802431508989
 20
-15.22439513698203
 30
0.0
 11
67.25201621005994
 21
-14.85040324201199
 31
0.0
  0
LINE
  5
8AB
330
1F
100
AcDbEntity
  8
2
  6
CONTINUOUS
370
25
 62
7
100
AcDbLine
 10
66.34769422919997
 20
-15.33046115416001
 30
0.0
 11
66.89846281946666
 21
-14.77969256389333
 31
0.0
  0
LINE
  5
8AC
330
1F
100
AcDbEntity
  8
2
  6
CONTINUOUS
370
25
 62
7
100
AcDbLine
 10
65.81736414331007
 20
-15.43652717133799
 30
0.0
 11
66.54490942887338
 21
-14.70898188577468
 31
0.0
  0
LINE
  5
8AD
330
1F
100
AcDbEntity
  8
2
  6
CONTINUOUS
370
25
 62
7
100
AcDbLine
 10
65.28703405742016
 20
-15.54259318851597
 30
0.0
 11
66.1913560382801
 21
-14.63827120765602
 31
0.0
  0
LINE
  5
8AE
330
1F
100
AcDbEntity
  8
2
  6
CONTINUOUS
370
25
 62
7
100
AcDbLine
 10
64.75670397153024
 20
-15.64865920569395
 30
0.0
 11
65.83780264768683
 21
-14.56756052953737
 31
0.0
  0
LINE
  5
8AF
330
1F
100
AcDbEntity
  8
2
  6
CONTINUOUS
370
25
 62
7
100
AcDbLine
 10
64.22637388564033
 20
-15.75472522287194
 30
0.0
 11
65.48424925709355
 21
-14.49684985141871
 31
0.0
  0
LINE
  5
8B0
330
1F
100
AcDbEntity
  8
2
  6
CONTINUOUS
370
25
 62
7
100
AcDbLine
 10
63.69604379975043
 20
-15.86079124004992
 30
0.0
 11
65.13069586650029
 21
-14.42613917330006
 31
0.0
  0
LINE
  5
8B1
330
1F
100
AcDbEntity
  8
2
  6
CONTINUOUS
370
25
 62
7
100
AcDbLine
 10
63.16571371386051
 20
-15.9668572572279
 30
0.0
 11
64.77714247590701
 21
-14.3554284951814
 31
0.0
  0
LINE
  5
8B2
330
1F
100
AcDbEntity
  8
2
  6
CONTINUOUS
370
25
 62
7
100
AcDbLine
 10
63.0
 20
-15.70830690237649
 30
0.0
 11
64.42358908531375
 21
-14.28471781706275
 31
0.0
  0
LINE
  5
8B3
330
1F
100
AcDbEntity
  8
2
  6
CONTINUOUS
370
25
 62
7
100
AcDbLine
 10
63.0
 20
-15.28404283366456
 30
0.0
 11
64.07003569472047
 21
-14.21400713894409
 31
0.0
  0
LINE
  5
8B4
330
1F
100
AcDbEntity
  8
2
  6
CONTINUOUS
370
25
 62
7
100
AcDbLine
 10
63.0
 20
-14.85977876495264
 30
0.0
 11
63.7164823041272
 21
-14.14329646082544
 31
0.0
  0
LINE
  5
8B5
330
1F
100
AcDbEntity
  8
2
  6
CONTINUOUS
370
25
 62
7
100
AcDbLine
 10
63.0
 20
-14.4355146962407
 30
0.0
 11
63.36292891353392
 21
-14.07258578270678
 31
0.0
  0
LINE
  5
8B6
330
1F
100
AcDbEntity
  8
2
  6
CONTINUOUS
370
25
 62
7
100
AcDbLine
 10
63.0
 20
-14.01125062752878
 30
0.0
 11
63.00937552294065
 21
-14.00187510458813
 31
0.0
  0
LINE
  5
8B7
330
1F
100
AcDbEntity
  8
2
  6
CONTINUOUS
370
25
 62
7
100
AcDbLine
 10
63.0
 20
-15.60588745030448
 30
0.0
 11
63.32842712474626
 21
-15.93431457505075
 31
0.0
  0
LINE
  5
8B8
330
1F
100
AcDbEntity
  8
2
  6
CONTINUOUS
370
25
 62
7
100
AcDbLine
 10
63.0
 20
-15.18162338159256
 30
0.0
 11
63.68198051533953
 21
-15.86360389693209
 31
0.0
  0
LINE
  5
8B9
330
1F
100
AcDbEntity
  8
2
  6
CONTINUOUS
370
25
 62
7
100
AcDbLine
 10
63.0
 20
-14.75735931288063
 30
0.0
 11
64.03553390593281
 21
-15.79289321881343
 31
0.0
  0
LINE
  5
8BA
330
1F
100
AcDbEntity
  8
2
  6
CONTINUOUS
370
25
 62
7
100
AcDbLine
 10
63.0
 20
-14.3330952441687
 30
0.0
 11
64.38908729652609
 21
-15.72218254069478
 31
0.0
  0
LINE
  5
8BB
330
1F
100
AcDbEntity
  8
2
  6
CONTINUOUS
370
25
 62
7
100
AcDbLine
 10
63.11396103067904
 20
-14.02279220613581
 30
0.0
 11
64.74264068711936
 21
-15.65147186257613
 31
0.0
  0
LINE
  5
8BC
330
1F
100
AcDbEntity
  8
2
  6
CONTINUOUS
370
25
 62
7
100
AcDbLine
 10
63.64429111656894
 20
-14.12885822331379
 30
0.0
 11
65.09619407771262
 21
-15.58076118445747
 31
0.0
  0
LINE
  5
8BD
330
1F
100
AcDbEntity
  8
2
  6
CONTINUOUS
370
25
 62
7
100
AcDbLine
 10
64.17462120245885
 20
-14.23492424049177
 30
0.0
 11
65.4497474683059
 21
-15.51005050633882
 31
0.0
  0
LINE
  5
8BE
330
1F
100
AcDbEntity
  8
2
  6
CONTINUOUS
370
25
 62
7
100
AcDbLine
 10
64.70495128834875
 20
-14.34099025766975
 30
0.0
 11
65.80330085889918
 21
-15.43933982822016
 31
0.0
  0
LINE
  5
8BF
330
1F
100
AcDbEntity
  8
2
  6
CONTINUOUS
370
25
 62
7
100
AcDbLine
 10
65.23528137423867
 20
-14.44705627484773
 30
0.0
 11
66.15685424949245
 21
-15.36862915010151
 31
0.0
  0
LINE
  5
8C0
330
1F
100
AcDbEntity
  8
2
  6
CONTINUOUS
370
25
 62
7
100
AcDbLine
 10
65.76561146012858
 20
-14.55312229202571
 30
0.0
 11
66.51040764008573
 21
-15.29791847198286
 31
0.0
  0
LINE
  5
8C1
330
1F
100
AcDbEntity
  8
2
  6
CONTINUOUS
370
25
 62
7
100
AcDbLine
 10
66.2959415460185
 20
-14.6591883092037
 30
0.0
 11
66.863961030679
 21
-15.2272077938642
 31
0.0
  0
LINE
  5
8C2
330
1F
100
AcDbEntity
  8
2
  6
CONTINUOUS
370
25
 62
7
100
AcDbLine
 10
66.8262716319084
 20
-14.76525432638168
 30
0.0
 11
67.21751442127227
 21
-15.15649711574555
 31
0.0
  0
LINE
  5
8C3
330
1F
100
AcDbEntity
  8
2
  6
CONTINUOUS
370
25
 62
7
100
AcDbLine
 10
67.35660171779831
 20
-14.87132034355966
 30
0.0
 11
67.57106781186555
 21
-15.0857864376269
 31
0.0
  0
LINE
  5
8C4
330
1F
100
AcDbEntity
  8
2
  6
CONTINUOUS
370
25
 62
7
100
AcDbLine
 10
67.88693180368823
 20
-14.97738636073765
 30
0.0
 11
67.92462120245882
 21
-15.01507575950824
 31
0.0
  0
TEXT
  5
8C5
330
1F
100
AcDbEntity
  8
2
  6
CONTINUOUS
370
25
 62
7
100
AcDbText
 10
56.66666666666666
 20
-13.5
 30
0.0
 40
3.5
  1
18
 72
     1
 11
59.0
 21
-13.5
 31
0.0
100
AcDbText
  0
LINE
  5
8C6
330
1F
100
AcDbEntity
  8
2
  6
CONTINUOUS
370
25
 62
7
100
AcDbLine
 10
44.0
 20
0.0
 30
0.0
 11
44.0
 21
26.0
 31
0.0
  0
LINE
  5
8C7
330
1F
100
AcDbEntity
  8
2
  6
CONTINUOUS
370
25
 62
7
100
AcDbLine
 10
68.0
 20
26.0
 30
0.0
 11
68.0
 21
3.0
 31
0.0
  0
LINE
  5
8C8
330
1F
100
AcDbEntity
  8
2
  6
CONTINUOUS
370
25
 62
7
100
AcDbLine
 10
44.0
 20
25.0
 30
0.0
 11
68.0
 21
25.0
 31
0.0
  0
LINE
  5
8C9
330
1F
100
AcDbEntity
  8
2
  6
CONTINUOUS
370
25
 62
7
100
AcDbLine
 10
44.0
 20
25.0
 30
0.0
 11
49.0
 21
26.0
 31
0.0
  0
LINE
  5
8CA
330
1F
100
AcDbEntity
  8
2
  6
CONTINUOUS
370
25
 62
7
100
AcDbLine
 10
49.0
 20
26.0
 30
0.0
 11
49.0
 21
24.0
 31
0.0
  0
LINE
  5
8CB
330
1F
100
AcDbEntity
  8
2
  6
CONTINUOUS
370
25
 62
7
100
AcDbLine
 10
49.0
 20
24.0
 30
0.0
 11
44.0
 21
25.0
 31
0.0
  0
LINE
  5
8CC
330
1F
100
AcDbEntity
  8
2
  6
CONTINUOUS
370
25
 62
7
100
AcDbLine
 10
48.92343075663604
 20
24.01531384867279
 30
0.0
 11
49.0
 21
24.09188309203675
 31
0.0
  0
LINE
  5
8CD
330
1F
100
AcDbEntity
  8
2
  6
CONTINUOUS
370
25
 62
7
100
AcDbLine
 10
48.56987736604277
 20
24.08602452679144
 30
0.0
 11
49.0
 21
24.51614716074867
 31
0.0
  0
LINE
  5
8CE
330
1F
100
AcDbEntity
  8
2
  6
CONTINUOUS
370
25
 62
7
100
AcDbLine
 10
48.2163239754495
 20
24.1567352049101
 30
0.0
 11
49.0
 21
24.9404112294606
 31
0.0
  0
LINE
  5
8CF
330
1F
100
AcDbEntity
  8
2
  6
CONTINUOUS
370
25
 62
7
100
AcDbLine
 10
47.86277058485623
 20
24.22744588302875
 30
0.0
 11
49.0
 21
25.36467529817253
 31
0.0
  0
LINE
  5
8D0
330
1F
100
AcDbEntity
  8
2
  6
CONTINUOUS
370
25
 62
7
100
AcDbLine
 10
47.50921719426295
 20
24.29815656114741
 30
0.0
 11
49.0
 21
25.78893936688446
 31
0.0
  0
LINE
  5
8D1
330
1F
100
AcDbEntity
  8
2
  6
CONTINUOUS
370
25
 62
7
100
AcDbLine
 10
47.15566380366968
 20
24.36886723926606
 30
0.0
 11
48.73349570550452
 21
25.9466991411009
 31
0.0
  0
LINE
  5
8D2
330
1F
100
AcDbEntity
  8
2
  6
CONTINUOUS
370
25
 62
7
100
AcDbLine
 10
46.80211041307641
 20
24.43957791738472
 30
0.0
 11
48.20316561961462
 21
25.84063312392292
 31
0.0
  0
LINE
  5
8D3
330
1F
100
AcDbEntity
  8
2
  6
CONTINUOUS
370
25
 62
7
100
AcDbLine
 10
46.44855702248314
 20
24.51028859550337
 30
0.0
 11
47.6728355337247
 21
25.73456710674494
 31
0.0
  0
LINE
  5
8D4
330
1F
100
AcDbEntity
  8
2
  6
CONTINUOUS
370
25
 62
7
100
AcDbLine
 10
46.09500363188986
 20
24.58099927362203
 30
0.0
 11
47.14250544783479
 21
25.62850108956696
 31
0.0
  0
LINE
  5
8D5
330
1F
100
AcDbEntity
  8
2
  6
CONTINUOUS
370
25
 62
7
100
AcDbLine
 10
45.74145024129659
 20
24.65170995174068
 30
0.0
 11
46.61217536194489
 21
25.52243507238898
 31
0.0
  0
LINE
  5
8D6
330
1F
100
AcDbEntity
  8
2
  6
CONTINUOUS
370
25
 62
7
100
AcDbLine
 10
45.38789685070331
 20
24.72242062985934
 30
0.0
 11
46.08184527605498
 21
25.416369055211
 31
0.0
  0
LINE
  5
8D7
330
1F
100
AcDbEntity
  8
2
  6
CONTINUOUS
370
25
 62
7
100
AcDbLine
 10
45.03434346011004
 20
24.79313130797799
 30
0.0
 11
45.55151519016506
 21
25.31030303803301
 31
0.0
  0
LINE
  5
8D8
330
1F
100
AcDbEntity
  8
2
  6
CONTINUOUS
370
25
 62
7
100
AcDbLine
 10
44.68079006951677
 20
24.86384198609665
 30
0.0
 11
45.02118510427515
 21
25.20423702085503
 31
0.0
  0
LINE
  5
8D9
330
1F
100
AcDbEntity
  8
2
  6
CONTINUOUS
370
25
 62
7
100
AcDbLine
 10
44.3272366789235
 20
24.9345526642153
 30
0.0
 11
44.49085501838525
 21
25.09817100367705
 31
0.0
  0
LINE
  5
8DA
330
1F
100
AcDbEntity
  8
2
  6
CONTINUOUS
370
25
 62
7
100
AcDbLine
 10
44.02631671166979
 20
25.00526334233396
 30
0.0
 11
44.03947506750468
 21
24.99210498649906
 31
0.0
  0
LINE
  5
8DB
330
1F
100
AcDbEntity
  8
2
  6
CONTINUOUS
370
25
 62
7
100
AcDbLine
 10
44.37987010226306
 20
25.07597402045261
 30
0.0
 11
44.56980515339459
 21
24.88603896932108
 31
0.0
  0
LINE
  5
8DC
330
1F
100
AcDbEntity
  8
2
  6
CONTINUOUS
370
25
 62
7
100
AcDbLine
 10
44.73342349285633
 20
25.14668469857127
 30
0.0
 11
45.1001352392845
 21
24.7799729521431
 31
0.0
  0
LINE
  5
8DD
330
1F
100
AcDbEntity
  8
2
  6
CONTINUOUS
370
25
 62
7
100
AcDbLine
 10
45.08697688344961
 20
25.21739537668992
 30
0.0
 11
45.63046532517441
 21
24.67390693496512
 31
0.0
  0
LINE
  5
8DE
330
1F
100
AcDbEntity
  8
2
  6
CONTINUOUS
370
25
 62
7
100
AcDbLine
 10
45.44053027404288
 20
25.28810605480858
 30
0.0
 11
46.16079541106432
 21
24.56784091778714
 31
0.0
  0
LINE
  5
8DF
330
1F
100
AcDbEntity
  8
2
  6
CONTINUOUS
370
25
 62
7
100
AcDbLine
 10
45.79408366463615
 20
25.35881673292723
 30
0.0
 11
46.69112549695423
 21
24.46177490060915
 31
0.0
  0
LINE
  5
8E0
330
1F
100
AcDbEntity
  8
2
  6
CONTINUOUS
370
25
 62
7
100
AcDbLine
 10
46.14763705522942
 20
25.42952741104589
 30
0.0
 11
47.22145558284414
 21
24.35570888343117
 31
0.0
  0
LINE
  5
8E1
330
1F
100
AcDbEntity
  8
2
  6
CONTINUOUS
370
25
 62
7
100
AcDbLine
 10
46.5011904458227
 20
25.50023808916454
 30
0.0
 11
47.75178566873405
 21
24.24964286625319
 31
0.0
  0
LINE
  5
8E2
330
1F
100
AcDbEntity
  8
2
  6
CONTINUOUS
370
25
 62
7
100
AcDbLine
 10
46.85474383641597
 20
25.57094876728319
 30
0.0
 11
48.28211575462396
 21
24.14357684907521
 31
0.0
  0
LINE
  5
8E3
330
1F
100
AcDbEntity
  8
2
  6
CONTINUOUS
370
25
 62
7
100
AcDbLine
 10
47.20829722700925
 20
25.64165944540185
 30
0.0
 11
48.81244584051387
 21
24.03751083189723
 31
0.0
  0
LINE
  5
8E4
330
1F
100
AcDbEntity
  8
2
  6
CONTINUOUS
370
25
 62
7
100
AcDbLine
 10
47.56185061760252
 20
25.7123701235205
 30
0.0
 11
49.0
 21
24.27422074112302
 31
0.0
  0
LINE
  5
8E5
330
1F
100
AcDbEntity
  8
2
  6
CONTINUOUS
370
25
 62
7
100
AcDbLine
 10
47.91540400819579
 20
25.78308080163916
 30
0.0
 11
49.0
 21
24.69848480983495
 31
0.0
  0
LINE
  5
8E6
330
1F
100
AcDbEntity
  8
2
  6
CONTINUOUS
370
25
 62
7
100
AcDbLine
 10
48.26895739878907
 20
25.85379147975781
 30
0.0
 11
49.0
 21
25.12274887854688
 31
0.0
  0
LINE
  5
8E7
330
1F
100
AcDbEntity
  8
2
  6
CONTINUOUS
370
25
 62
7
100
AcDbLine
 10
48.62251078938234
 20
25.92450215787647
 30
0.0
 11
49.0
 21
25.54701294725881
 31
0.0
  0
LINE
  5
8E8
330
1F
100
AcDbEntity
  8
2
  6
CONTINUOUS
370
25
 62
7
100
AcDbLine
 10
48.97606417997561
 20
25.99521283599512
 30
0.0
 11
49.0
 21
25.97127701597073
 31
0.0
  0
LINE
  5
8E9
330
1F
100
AcDbEntity
  8
2
  6
CONTINUOUS
370
25
 62
7
100
AcDbLine
 10
68.0
 20
25.0
 30
0.0
 11
63.0
 21
24.0
 31
0.0
  0
LINE
  5
8EA
330
1F
100
AcDbEntity
  8
2
  6
CONTINUOUS
370
25
 62
7
100
AcDbLine
 10
63.0
 20
24.0
 30
0.0
 11
63.0
 21
26.0
 31
0.0
  0
LINE
  5
8EB
330
1F
100
AcDbEntity
  8
2
  6
CONTINUOUS
370
25
 62
7
100
AcDbLine
 10
63.0
 20
26.0
 30
0.0
 11
68.0
 21
25.0
 31
0.0
  0
LINE
  5
8EC
330
1F
100
AcDbEntity
  8
2
  6
CONTINUOUS
370
25
 62
7
100
AcDbLine
 10
67.78971256052131
 20
24.95794251210426
 30
0.0
 11
67.85980837368086
 21
25.02803832526383
 31
0.0
  0
LINE
  5
8ED
330
1F
100
AcDbEntity
  8
2
  6
CONTINUOUS
370
25
 62
7
100
AcDbLine
 10
67.2593824746314
 20
24.85187649492628
 30
0.0
 11
67.5062549830876
 21
25.09874900338248
 31
0.0
  0
LINE
  5
8EE
330
1F
100
AcDbEntity
  8
2
  6
CONTINUOUS
370
25
 62
7
100
AcDbLine
 10
66.72905238874148
 20
24.7458104777483
 30
0.0
 11
67.15270159249432
 21
25.16945968150113
 31
0.0
  0
LINE
  5
8EF
330
1F
100
AcDbEntity
  8
2
  6
CONTINUOUS
370
25
 62
7
100
AcDbLine
 10
66.19872230285158
 20
24.63974446057032
 30
0.0
 11
66.79914820190105
 21
25.24017035961979
 31
0.0
  0
LINE
  5
8F0
330
1F
100
AcDbEntity
  8
2
  6
CONTINUOUS
370
25
 62
7
100
AcDbLine
 10
65.66839221696166
 20
24.53367844339233
 30
0.0
 11
66.44559481130779
 21
25.31088103773844
 31
0.0
  0
LINE
  5
8F1
330
1F
100
AcDbEntity
  8
2
  6
CONTINUOUS
370
25
 62
7
100
AcDbLine
 10
65.13806213107176
 20
24.42761242621435
 30
0.0
 11
66.09204142071451
 21
25.3815917158571
 31
0.0
  0
LINE
  5
8F2
330
1F
100
AcDbEntity
  8
2
  6
CONTINUOUS
370
25
 62
7
100
AcDbLine
 10
64.60773204518185
 20
24.32154640903637
 30
0.0
 11
65.73848803012123
 21
25.45230239397575
 31
0.0
  0
LINE
  5
8F3
330
1F
100
AcDbEntity
  8
2
  6
CONTINUOUS
370
25
 62
7
100
AcDbLine
 10
64.07740195929193
 20
24.21548039185839
 30
0.0
 11
65.38493463952796
 21
25.52301307209441
 31
0.0
  0
LINE
  5
8F4
330
1F
100
AcDbEntity
  8
2
  6
CONTINUOUS
370
25
 62
7
100
AcDbLine
 10
63.54707187340203
 20
24.10941437468041
 30
0.0
 11
65.03138124893468
 21
25.59372375021306
 31
0.0
  0
LINE
  5
8F5
330
1F
100
AcDbEntity
  8
2
  6
CONTINUOUS
370
25
 62
7
100
AcDbLine
 10
63.01674178751212
 20
24.00334835750242
 30
0.0
 11
64.67782785834142
 21
25.66443442833172
 31
0.0
  0
LINE
  5
8F6
330
1F
100
AcDbEntity
  8
2
  6
CONTINUOUS
370
25
 62
7
100
AcDbLine
 10
63.0
 20
24.41087063870224
 30
0.0
 11
64.32427446774814
 21
25.73514510645037
 31
0.0
  0
LINE
  5
8F7
330
1F
100
AcDbEntity
  8
2
  6
CONTINUOUS
370
25
 62
7
100
AcDbLine
 10
63.0
 20
24.83513470741416
 30
0.0
 11
63.97072107715486
 21
25.80585578456903
 31
0.0
  0
LINE
  5
8F8
330
1F
100
AcDbEntity
  8
2
  6
CONTINUOUS
370
25
 62
7
100
AcDbLine
 10
63.0
 20
25.25939877612609
 30
0.0
 11
63.61716768656159
 21
25.87656646268768
 31
0.0
  0
LINE
  5
8F9
330
1F
100
AcDbEntity
  8
2
  6
CONTINUOUS
370
25
 62
7
100
AcDbLine
 10
63.0
 20
25.68366284483802
 30
0.0
 11
63.26361429596832
 21
25.94727714080634
 31
0.0
  0
LINE
  5
8FA
330
1F
100
AcDbEntity
  8
2
  6
CONTINUOUS
370
25
 62
7
100
AcDbLine
 10
63.0
 20
24.27493500861669
 30
0.0
 11
63.22911250718057
 21
24.04582250143611
 31
0.0
  0
LINE
  5
8FB
330
1F
100
AcDbEntity
  8
2
  6
CONTINUOUS
370
25
 62
7
100
AcDbLine
 10
63.0
 20
24.69919907732861
 30
0.0
 11
63.58266589777385
 21
24.11653317955477
 31
0.0
  0
LINE
  5
8FC
330
1F
100
AcDbEntity
  8
2
  6
CONTINUOUS
370
25
 62
7
100
AcDbLine
 10
63.0
 20
25.12346314604054
 30
0.0
 11
63.93621928836712
 21
24.18724385767342
 31
0.0
  0
LINE
  5
8FD
330
1F
100
AcDbEntity
  8
2
  6
CONTINUOUS
370
25
 62
7
100
AcDbLine
 10
63.0
 20
25.54772721475247
 30
0.0
 11
64.28977267896039
 21
24.25795453579208
 31
0.0
  0
LINE
  5
8FE
330
1F
100
AcDbEntity
  8
2
  6
CONTINUOUS
370
25
 62
7
100
AcDbLine
 10
63.0
 20
25.9719912834644
 30
0.0
 11
64.64332606955367
 21
24.32866521391074
 31
0.0
  0
LINE
  5
8FF
330
1F
100
AcDbEntity
  8
2
  6
CONTINUOUS
370
25
 62
7
100
AcDbLine
 10
63.49531919022041
 20
25.90093616195592
 30
0.0
 11
64.99687946014694
 21
24.39937589202939
 31
0.0
  0
LINE
  5
900
330
1F
100
AcDbEntity
  8
2
  6
CONTINUOUS
370
25
 62
7
100
AcDbLine
 10
64.02564927611031
 20
25.79487014477793
 30
0.0
 11
65.35043285074022
 21
24.47008657014804
 31
0.0
  0
LINE
  5
901
330
1F
100
AcDbEntity
  8
2
  6
CONTINUOUS
370
25
 62
7
100
AcDbLine
 10
64.55597936200023
 20
25.68880412759995
 30
0.0
 11
65.70398624133348
 21
24.5407972482667
 31
0.0
  0
LINE
  5
902
330
1F
100
AcDbEntity
  8
2
  6
CONTINUOUS
370
25
 62
7
100
AcDbLine
 10
65.08630944789014
 20
25.58273811042197
 30
0.0
 11
66.05753963192676
 21
24.61150792638535
 31
0.0
  0
LINE
  5
903
330
1F
100
AcDbEntity
  8
2
  6
CONTINUOUS
370
25
 62
7
100
AcDbLine
 10
65.61663953378005
 20
25.47667209324399
 30
0.0
 11
66.41109302252003
 21
24.68221860450401
 31
0.0
  0
LINE
  5
904
330
1F
100
AcDbEntity
  8
2
  6
CONTINUOUS
370
25
 62
7
100
AcDbLine
 10
66.14696961966996
 20
25.37060607606601
 30
0.0
 11
66.7646464131133
 21
24.75292928262266
 31
0.0
  0
LINE
  5
905
330
1F
100
AcDbEntity
  8
2
  6
CONTINUOUS
370
25
 62
7
100
AcDbLine
 10
66.67729970555988
 20
25.26454005888803
 30
0.0
 11
67.11819980370657
 21
24.82363996074132
 31
0.0
  0
LINE
  5
906
330
1F
100
AcDbEntity
  8
2
  6
CONTINUOUS
370
25
 62
7
100
AcDbLine
 10
67.20762979144978
 20
25.15847404171004
 30
0.0
 11
67.47175319429985
 21
24.89435063885997
 31
0.0
  0
LINE
  5
907
330
1F
100
AcDbEntity
  8
2
  6
CONTINUOUS
370
25
 62
7
100
AcDbLine
 10
67.73795987733969
 20
25.05240802453206
 30
0.0
 11
67.82530658489313
 21
24.96506131697863
 31
0.0
  0
TEXT
  5
908
330
1F
100
AcDbEntity
  8
2
  6
CONTINUOUS
370
25
 62
7
100
AcDbText
 10
53.08333333333334
 20
26.5
 30
0.0
 40
3.5
  1
24
 72
     1
 11
56.0
 21
26.5
 31
0.0
100
AcDbText
  0
LINE
  5
909
330
1F
100
AcDbEntity
  8
SK2
  6
CONTINUOUS
370
25
 62
7
100
AcDbLine
 10
0.0
 20
1.0
 30
0.0
 11
0.0
 21
36.0
 31
0.0
  0
LINE
  5
90A
330
1F
100
AcDbEntity
  8
SK2
  6
CONTINUOUS
370
25
 62
7
100
AcDbLine
 10
68.0
 20
36.0
 30
0.0
 11
68.0
 21
3.0
 31
0.0
  0
LINE
  5
90B
330
1F
100
AcDbEntity
  8
SK2
  6
CONTINUOUS
370
25
 62
7
100
AcDbLine
 10
0.0
 20
35.0
 30
0.0
 11
68.0
 21
35.0
 31
0.0
  0
LINE
  5
90C
330
1F
100
AcDbEntity
  8
SK2
  6
CONTINUOUS
370
25
 62
7
100
AcDbLine
 10
0.0
 20
35.0
 30
0.0
 11
5.0
 21
36.0
 31
0.0
  0
LINE
  5
90D
330
1F
100
AcDbEntity
  8
SK2
  6
CONTINUOUS
370
25
 62
7
100
AcDbLine
 10
5.0
 20
36.0
 30
0.0
 11
5.0
 21
34.0
 31
0.0
  0
LINE
  5
90E
330
1F
100
AcDbEntity
  8
SK2
  6
CONTINUOUS
370
25
 62
7
100
AcDbLine
 10
5.0
 20
34.0
 30
0.0
 11
0.0
 21
35.0
 31
0.0
  0
LINE
  5
90F
330
1F
100
AcDbEntity
  8
SK2
  6
CONTINUOUS
370
25
 62
7
100
AcDbLine
 10
4.668596760696957
 20
34.06628064786061
 30
0.0
 11
5.0
 21
34.39768388716365
 31
0.0
  0
LINE
  5
910
330
1F
100
AcDbEntity
  8
SK2
  6
CONTINUOUS
370
25
 62
7
100
AcDbLine
 10
4.31504337010368
 20
34.13699132597926
 30
0.0
 11
5.0
 21
34.82194795587558
 31
0.0
  0
LINE
  5
911
330
1F
100
AcDbEntity
  8
SK2
  6
CONTINUOUS
370
25
 62
7
100
AcDbLine
 10
3.961489979510411
 20
34.20770200409792
 30
0.0
 11
5.0
 21
35.24621202458751
 31
0.0
  0
LINE
  5
912
330
1F
100
AcDbEntity
  8
SK2
  6
CONTINUOUS
370
25
 62
7
100
AcDbLine
 10
3.607936588917134
 20
34.27841268221657
 30
0.0
 11
5.0
 21
35.67047609329944
 31
0.0
  0
LINE
  5
913
330
1F
100
AcDbEntity
  8
SK2
  6
CONTINUOUS
370
25
 62
7
100
AcDbLine
 10
3.25438319832385
 20
34.34912336033523
 30
0.0
 11
4.881574797485769
 21
35.97631495949715
 31
0.0
  0
LINE
  5
914
330
1F
100
AcDbEntity
  8
SK2
  6
CONTINUOUS
370
25
 62
7
100
AcDbLine
 10
2.900829807730574
 20
34.41983403845389
 30
0.0
 11
4.351244711595854
 21
35.87024894231917
 31
0.0
  0
LINE
  5
915
330
1F
100
AcDbEntity
  8
SK2
  6
CONTINUOUS
370
25
 62
7
100
AcDbLine
 10
2.547276417137297
 20
34.49054471657254
 30
0.0
 11
3.820914625705939
 21
35.76418292514118
 31
0.0
  0
LINE
  5
916
330
1F
100
AcDbEntity
  8
SK2
  6
CONTINUOUS
370
25
 62
7
100
AcDbLine
 10
2.193723026544028
 20
34.56125539469119
 30
0.0
 11
3.290584539816038
 21
35.6581169079632
 31
0.0
  0
LINE
  5
917
330
1F
100
AcDbEntity
  8
SK2
  6
CONTINUOUS
370
25
 62
7
100
AcDbLine
 10
1.840169635950744
 20
34.63196607280985
 30
0.0
 11
2.760254453926109
 21
35.55205089078522
 31
0.0
  0
LINE
  5
918
330
1F
100
AcDbEntity
  8
SK2
  6
CONTINUOUS
370
25
 62
7
100
AcDbLine
 10
1.486616245357467
 20
34.7026767509285
 30
0.0
 11
2.229924368036201
 21
35.44598487360724
 31
0.0
  0
LINE
  5
919
330
1F
100
AcDbEntity
  8
SK2
  6
CONTINUOUS
370
25
 62
7
100
AcDbLine
 10
1.133062854764184
 20
34.77338742904716
 30
0.0
 11
1.699594282146272
 21
35.33991885642926
 31
0.0
  0
LINE
  5
91A
330
1F
100
AcDbEntity
  8
SK2
  6
CONTINUOUS
370
25
 62
7
100
AcDbLine
 10
0.7795094641709142
 20
34.84409810716582
 30
0.0
 11
1.169264196256364
 21
35.23385283925127
 31
0.0
  0
LINE
  5
91B
330
1F
100
AcDbEntity
  8
SK2
  6
CONTINUOUS
370
25
 62
7
100
AcDbLine
 10
0.4259560735776446
 20
34.91480878528448
 30
0.0
 11
0.6389341103664563
 21
35.12778682207329
 31
0.0
  0
LINE
  5
91C
330
1F
100
AcDbEntity
  8
SK2
  6
CONTINUOUS
370
25
 62
7
100
AcDbLine
 10
0.0724026829843538
 20
34.98551946340313
 30
0.0
 11
0.1086040244765343
 21
35.02172080489531
 31
0.0
  0
LINE
  5
91D
330
1F
100
AcDbEntity
  8
SK2
  6
CONTINUOUS
370
25
 62
7
100
AcDbLine
 10
0.2921396672243972
 20
35.05842793344488
 30
0.0
 11
0.4382095008365994
 21
34.91235809983267
 31
0.0
  0
LINE
  5
91E
330
1F
100
AcDbEntity
  8
SK2
  6
CONTINUOUS
370
25
 62
7
100
AcDbLine
 10
0.6456930578176738
 20
35.12913861156353
 30
0.0
 11
0.9685395867265072
 21
34.8062920826547
 31
0.0
  0
LINE
  5
91F
330
1F
100
AcDbEntity
  8
SK2
  6
CONTINUOUS
370
25
 62
7
100
AcDbLine
 10
0.9992464484109504
 20
35.19984928968218
 30
0.0
 11
1.498869672616429
 21
34.70022606547671
 31
0.0
  0
LINE
  5
920
330
1F
100
AcDbEntity
  8
SK2
  6
CONTINUOUS
370
25
 62
7
100
AcDbLine
 10
1.352799839004227
 20
35.27055996780084
 30
0.0
 11
2.029199758506337
 21
34.59416004829873
 31
0.0
  0
LINE
  5
921
330
1F
100
AcDbEntity
  8
SK2
  6
CONTINUOUS
370
25
 62
7
100
AcDbLine
 10
1.706353229597504
 20
35.3412706459195
 30
0.0
 11
2.559529844396266
 21
34.48809403112074
 31
0.0
  0
LINE
  5
922
330
1F
100
AcDbEntity
  8
SK2
  6
CONTINUOUS
370
25
 62
7
100
AcDbLine
 10
2.05990662019078
 20
35.41198132403816
 30
0.0
 11
3.089859930286167
 21
34.38202801394277
 31
0.0
  0
LINE
  5
923
330
1F
100
AcDbEntity
  8
SK2
  6
CONTINUOUS
370
25
 62
7
100
AcDbLine
 10
2.413460010784057
 20
35.48269200215681
 30
0.0
 11
3.620190016176089
 21
34.27596199676478
 31
0.0
  0
LINE
  5
924
330
1F
100
AcDbEntity
  8
SK2
  6
CONTINUOUS
370
25
 62
7
100
AcDbLine
 10
2.767013401377334
 20
35.55340268027547
 30
0.0
 11
4.150520102065997
 21
34.1698959795868
 31
0.0
  0
LINE
  5
925
330
1F
100
AcDbEntity
  8
SK2
  6
CONTINUOUS
370
25
 62
7
100
AcDbLine
 10
3.12056679197061
 20
35.62411335839413
 30
0.0
 11
4.680850187955912
 21
34.06382996240882
 31
0.0
  0
LINE
  5
926
330
1F
100
AcDbEntity
  8
SK2
  6
CONTINUOUS
370
25
 62
7
100
AcDbLine
 10
3.474120182563887
 20
35.69482403651278
 30
0.0
 11
5.0
 21
34.16894421907666
 31
0.0
  0
LINE
  5
927
330
1F
100
AcDbEntity
  8
SK2
  6
CONTINUOUS
370
25
 62
7
100
AcDbLine
 10
3.827673573157163
 20
35.76553471463143
 30
0.0
 11
5.0
 21
34.59320828778859
 31
0.0
  0
LINE
  5
928
330
1F
100
AcDbEntity
  8
SK2
  6
CONTINUOUS
370
25
 62
7
100
AcDbLine
 10
4.18122696375044
 20
35.83624539275009
 30
0.0
 11
5.0
 21
35.01747235650053
 31
0.0
  0
LINE
  5
929
330
1F
100
AcDbEntity
  8
SK2
  6
CONTINUOUS
370
25
 62
7
100
AcDbLine
 10
4.534780354343724
 20
35.90695607086874
 30
0.0
 11
5.0
 21
35.44173642521246
 31
0.0
  0
LINE
  5
92A
330
1F
100
AcDbEntity
  8
SK2
  6
CONTINUOUS
370
25
 62
7
100
AcDbLine
 10
4.888333744937
 20
35.9776667489874
 30
0.0
 11
5.0
 21
35.8660004939244
 31
0.0
  0
LINE
  5
92B
330
1F
100
AcDbEntity
  8
SK2
  6
CONTINUOUS
370
25
 62
7
100
AcDbLine
 10
68.0
 20
35.0
 30
0.0
 11
63.0
 21
34.0
 31
0.0
  0
LINE
  5
92C
330
1F
100
AcDbEntity
  8
SK2
  6
CONTINUOUS
370
25
 62
7
100
AcDbLine
 10
63.0
 20
34.0
 30
0.0
 11
63.0
 21
36.0
 31
0.0
  0
LINE
  5
92D
330
1F
100
AcDbEntity
  8
SK2
  6
CONTINUOUS
370
25
 62
7
100
AcDbLine
 10
63.0
 20
36.0
 30
0.0
 11
68.0
 21
35.0
 31
0.0
  0
LINE
  5
92E
330
1F
100
AcDbEntity
  8
SK2
  6
CONTINUOUS
370
25
 62
7
100
AcDbLine
 10
67.96141776686231
 20
34.99228355337246
 30
0.0
 11
67.97427851124155
 21
35.00514429775168
 31
0.0
  0
LINE
  5
92F
330
1F
100
AcDbEntity
  8
SK2
  6
CONTINUOUS
370
25
 62
7
100
AcDbLine
 10
67.43108768097241
 20
34.88621753619448
 30
0.0
 11
67.62072512064827
 21
35.07585497587034
 31
0.0
  0
LINE
  5
930
330
1F
100
AcDbEntity
  8
SK2
  6
CONTINUOUS
370
25
 62
7
100
AcDbLine
 10
66.9007575950825
 20
34.7801515190165
 30
0.0
 11
67.267171730055
 21
35.146565653989
 31
0.0
  0
LINE
  5
931
330
1F
100
AcDbEntity
  8
SK2
  6
CONTINUOUS
370
25
 62
7
100
AcDbLine
 10
66.37042750919258
 20
34.67408550183852
 30
0.0
 11
66.91361833946172
 21
35.21727633210766
 31
0.0
  0
LINE
  5
932
330
1F
100
AcDbEntity
  8
SK2
  6
CONTINUOUS
370
25
 62
7
100
AcDbLine
 10
65.84009742330267
 20
34.56801948466053
 30
0.0
 11
66.56006494886844
 21
35.28798701022631
 31
0.0
  0
LINE
  5
933
330
1F
100
AcDbEntity
  8
SK2
  6
CONTINUOUS
370
25
 62
7
100
AcDbLine
 10
65.30976733741277
 20
34.46195346748255
 30
0.0
 11
66.20651155827517
 21
35.35869768834496
 31
0.0
  0
LINE
  5
934
330
1F
100
AcDbEntity
  8
SK2
  6
CONTINUOUS
370
25
 62
7
100
AcDbLine
 10
64.77943725152285
 20
34.35588745030457
 30
0.0
 11
65.85295816768189
 21
35.42940836646362
 31
0.0
  0
LINE
  5
935
330
1F
100
AcDbEntity
  8
SK2
  6
CONTINUOUS
370
25
 62
7
100
AcDbLine
 10
64.24910716563295
 20
34.24982143312658
 30
0.0
 11
65.49940477708863
 21
35.50011904458228
 31
0.0
  0
LINE
  5
936
330
1F
100
AcDbEntity
  8
SK2
  6
CONTINUOUS
370
25
 62
7
100
AcDbLine
 10
63.71877707974303
 20
34.1437554159486
 30
0.0
 11
65.14585138649535
 21
35.57082972270093
 31
0.0
  0
LINE
  5
937
330
1F
100
AcDbEntity
  8
SK2
  6
CONTINUOUS
370
25
 62
7
100
AcDbLine
 10
63.18844699385312
 20
34.03768939877062
 30
0.0
 11
64.79229799590208
 21
35.64154040081958
 31
0.0
  0
LINE
  5
938
330
1F
100
AcDbEntity
  8
SK2
  6
CONTINUOUS
370
25
 62
7
100
AcDbLine
 10
63.0
 20
34.27350647362942
 30
0.0
 11
64.4387446053088
 21
35.71225107893824
 31
0.0
  0
LINE
  5
939
330
1F
100
AcDbEntity
  8
SK2
  6
CONTINUOUS
370
25
 62
7
100
AcDbLine
 10
63.0
 20
34.69777054234136
 30
0.0
 11
64.08519121471554
 21
35.7829617570569
 31
0.0
  0
LINE
  5
93A
330
1F
100
AcDbEntity
  8
SK2
  6
CONTINUOUS
370
25
 62
7
100
AcDbLine
 10
63.0
 20
35.12203461105329
 30
0.0
 11
63.73163782412225
 21
35.85367243517555
 31
0.0
  0
LINE
  5
93B
330
1F
100
AcDbEntity
  8
SK2
  6
CONTINUOUS
370
25
 62
7
100
AcDbLine
 10
63.0
 20
35.54629867976521
 30
0.0
 11
63.37808443352898
 21
35.9243831132942
 31
0.0
  0
LINE
  5
93C
330
1F
100
AcDbEntity
  8
SK2
  6
CONTINUOUS
370
25
 62
7
100
AcDbLine
 10
63.0
 20
35.97056274847715
 30
0.0
 11
63.02453104293571
 21
35.99509379141286
 31
0.0
  0
LINE
  5
93D
330
1F
100
AcDbEntity
  8
SK2
  6
CONTINUOUS
370
25
 62
7
100
AcDbLine
 10
63.0
 20
34.03300858899104
 30
0.0
 11
63.02750715749253
 21
34.0055014314985
 31
0.0
  0
LINE
  5
93E
330
1F
100
AcDbEntity
  8
SK2
  6
CONTINUOUS
370
25
 62
7
100
AcDbLine
 10
63.0
 20
34.45727265770297
 30
0.0
 11
63.38106054808581
 21
34.07621210961716
 31
0.0
  0
LINE
  5
93F
330
1F
100
AcDbEntity
  8
SK2
  6
CONTINUOUS
370
25
 62
7
100
AcDbLine
 10
63.0
 20
34.88153672641489
 30
0.0
 11
63.73461393867908
 21
34.14692278773582
 31
0.0
  0
LINE
  5
940
330
1F
100
AcDbEntity
  8
SK2
  6
CONTINUOUS
370
25
 62
7
100
AcDbLine
 10
63.0
 20
35.30580079512683
 30
0.0
 11
64.08816732927235
 21
34.21763346585447
 31
0.0
  0
LINE
  5
941
330
1F
100
AcDbEntity
  8
SK2
  6
CONTINUOUS
370
25
 62
7
100
AcDbLine
 10
63.0
 20
35.73006486383876
 30
0.0
 11
64.44172071986563
 21
34.28834414397312
 31
0.0
  0
LINE
  5
942
330
1F
100
AcDbEntity
  8
SK2
  6
CONTINUOUS
370
25
 62
7
100
AcDbLine
 10
63.19291116568836
 20
35.96141776686233
 30
0.0
 11
64.7952741104589
 21
34.35905482209178
 31
0.0
  0
LINE
  5
943
330
1F
100
AcDbEntity
  8
SK2
  6
CONTINUOUS
370
25
 62
7
100
AcDbLine
 10
63.72324125157827
 20
35.85535174968435
 30
0.0
 11
65.14882750105218
 21
34.42976550021044
 31
0.0
  0
LINE
  5
944
330
1F
100
AcDbEntity
  8
SK2
  6
CONTINUOUS
370
25
 62
7
100
AcDbLine
 10
64.25357133746817
 20
35.74928573250637
 30
0.0
 11
65.50238089164546
 21
34.50047617832909
 31
0.0
  0
LINE
  5
945
330
1F
100
AcDbEntity
  8
SK2
  6
CONTINUOUS
370
25
 62
7
100
AcDbLine
 10
64.7839014233581
 20
35.64321971532838
 30
0.0
 11
65.85593428223874
 21
34.57118685644775
 31
0.0
  0
LINE
  5
946
330
1F
100
AcDbEntity
  8
SK2
  6
CONTINUOUS
370
25
 62
7
100
AcDbLine
 10
65.314231509248
 20
35.5371536981504
 30
0.0
 11
66.209487672832
 21
34.6418975345664
 31
0.0
  0
LINE
  5
947
330
1F
100
AcDbEntity
  8
SK2
  6
CONTINUOUS
370
25
 62
7
100
AcDbLine
 10
65.84456159513792
 20
35.43108768097241
 30
0.0
 11
66.56304106342527
 21
34.71260821268505
 31
0.0
  0
LINE
  5
948
330
1F
100
AcDbEntity
  8
SK2
  6
CONTINUOUS
370
25
 62
7
100
AcDbLine
 10
66.37489168102783
 20
35.32502166379443
 30
0.0
 11
66.91659445401855
 21
34.78331889080371
 31
0.0
  0
LINE
  5
949
330
1F
100
AcDbEntity
  8
SK2
  6
CONTINUOUS
370
25
 62
7
100
AcDbLine
 10
66.90522176691775
 20
35.21895564661645
 30
0.0
 11
67.27014784461183
 21
34.85402956892236
 31
0.0
  0
LINE
  5
94A
330
1F
100
AcDbEntity
  8
SK2
  6
CONTINUOUS
370
25
 62
7
100
AcDbLine
 10
67.43555185280765
 20
35.11288962943847
 30
0.0
 11
67.62370123520509
 21
34.92474024704102
 31
0.0
  0
LINE
  5
94B
330
1F
100
AcDbEntity
  8
SK2
  6
CONTINUOUS
370
25
 62
7
100
AcDbLine
 10
67.96588193869755
 20
35.00682361226049
 30
0.0
 11
67.97725462579837
 21
34.99545092515967
 31
0.0
  0
TEXT
  5
94C
330
1F
100
AcDbEntity
  8
SK2
  6
CONTINUOUS
370
25
 62
7
100
AcDbText
 10
31.08333333333333
 20
36.5
 30
0.0
 40
3.5
  1
68
 72
     1
 11
34.0
 21
36.5
 31
0.0
100
AcDbText
  0
LINE
  5
94D
330
1F
100
AcDbEntity
  8
SK1
  6
CONTINUOUS
370
50
 62
4
100
AcDbLine
 10
44.0
 20
0.0
 30
0.0
 11
45.75
 21
0.0
 31
0.0
  0
LINE
  5
94E
330
1F
100
AcDbEntity
  8
SK1
  6
CONTINUOUS
370
50
 62
4
100
AcDbLine
 10
44.0
 20
0.0
 30
0.0
 11
44.0
 21
1.75
 31
0.0
  0
ARC
  5
94F
330
1F
100
AcDbEntity
  8
SK1
  6
CONTINUOUS
370
50
 62
4
100
AcDbCircle
 10
44.0
 20
0.0
 30
0.0
 40
1.75
100
AcDbArc
 50
0.0
 51
90.0
  0
LINE
  5
950
330
1F
100
AcDbEntity
  8
SK1
  6
CONTINUOUS
370
50
 62
4
100
AcDbLine
 10
44.0
 20
0.0
 30
0.0
 11
42.25
 21
0.0
 31
0.0
  0
ARC
  5
951
330
1F
100
AcDbEntity
  8
SK1
  6
CONTINUOUS
370
50
 62
4
100
AcDbCircle
 10
44.0
 20
0.0
 30
0.0
 40
1.75
100
AcDbArc
 50
180.0
 51
270.0
  0
LINE
  5
952
330
1F
100
AcDbEntity
  8
SK1
  6
CONTINUOUS
370
50
 62
4
100
AcDbLine
 10
44.0
 20
-1.75
 30
0.0
 11
44.0
 21
0.0
 31
0.0
  0
ARC
  5
953
330
1F
100
AcDbEntity
  8
SK1
  6
CONTINUOUS
370
50
 62
4
100
AcDbCircle
 10
44.0
 20
0.0
 30
0.0
 40
1.75
100
AcDbArc
 50
270.0
 51
0.0
  0
ARC
  5
954
330
1F
100
AcDbEntity
  8
SK1
  6
CONTINUOUS
370
50
 62
4
100
AcDbCircle
 10
44.0
 20
0.0
 30
0.0
 40
1.75
100
AcDbArc
 50
90.0
 51
180.0
  0
LINE
  5
955
330
1F
100
AcDbEntity
  8
SK1
  6
CONTINUOUS
370
50
 62
4
100
AcDbLine
 10
43.77717274741573
 20
-1.73564731720198
 30
0.0
 11
44.0
 21
-1.512820064617713
 31
0.0
  0
LINE
  5
956
330
1F
100
AcDbEntity
  8
SK1
  6
CONTINUOUS
370
50
 62
4
100
AcDbLine
 10
45.51282006461771
 20
0.0
 30
0.0
 11
45.73564731720198
 21
0.2228272525842674
 31
0.0
  0
LINE
  5
957
330
1F
100
AcDbEntity
  8
SK1
  6
CONTINUOUS
370
50
 62
4
100
AcDbLine
 10
43.56930380681873
 20
-1.69602888438369
 30
0.0
 11
44.0
 21
-1.265332691202421
 31
0.0
  0
LINE
  5
958
330
1F
100
AcDbEntity
  8
SK1
  6
CONTINUOUS
370
50
 62
4
100
AcDbLine
 10
45.26533269120242
 20
0.0
 30
0.0
 11
45.69602888438369
 21
0.4306961931812696
 31
0.0
  0
LINE
  5
959
330
1F
100
AcDbEntity
  8
SK1
  6
CONTINUOUS
370
50
 62
4
100
AcDbLine
 10
43.38148340435765
 20
-1.636361913429485
 30
0.0
 11
44.0
 21
-1.01784531778713
 31
0.0
  0
LINE
  5
95A
330
1F
100
AcDbEntity
  8
SK1
  6
CONTINUOUS
370
50
 62
4
100
AcDbLine
 10
45.01784531778713
 20
0.0
 30
0.0
 11
45.63636191342948
 21
0.6185165956423557
 31
0.0
  0
LINE
  5
95B
330
1F
100
AcDbEntity
  8
SK1
  6
CONTINUOUS
370
50
 62
4
100
AcDbLine
 10
43.2098551094628
 20
-1.560502834909039
 30
0.0
 11
44.0
 21
-0.7703579443718382
 31
0.0
  0
LINE
  5
95C
330
1F
100
AcDbEntity
  8
SK1
  6
CONTINUOUS
370
50
 62
4
100
AcDbLine
 10
44.77035794437184
 20
0.0
 30
0.0
 11
45.56050283490904
 21
0.7901448905372013
 31
0.0
  0
LINE
  5
95D
330
1F
100
AcDbEntity
  8
SK1
  6
CONTINUOUS
370
50
 62
4
100
AcDbLine
 10
43.05217783219447
 20
-1.470692738762079
 30
0.0
 11
44.0
 21
-0.5228705709565462
 31
0.0
  0
LINE
  5
95E
330
1F
100
AcDbEntity
  8
SK1
  6
CONTINUOUS
370
50
 62
4
100
AcDbLine
 10
44.52287057095655
 20
0.0
 30
0.0
 11
45.47069273876208
 21
0.947822167805533
 31
0.0
  0
LINE
  5
95F
330
1F
100
AcDbEntity
  8
SK1
  6
CONTINUOUS
370
50
 62
4
100
AcDbLine
 10
42.90842956711548
 20
-1.366953630425777
 30
0.0
 11
44.0
 21
-0.2753831975412551
 31
0.0
  0
LINE
  5
960
330
1F
100
AcDbEntity
  8
SK1
  6
CONTINUOUS
370
50
 62
4
100
AcDbLine
 10
44.27538319754125
 20
0.0
 30
0.0
 11
45.36695363042578
 21
1.091570432884522
 31
0.0
  0
LINE
  5
961
330
1F
100
AcDbEntity
  8
SK1
  6
CONTINUOUS
370
50
 62
4
100
AcDbLine
 10
42.77712164538165
 20
-1.25077417874432
 30
0.0
 11
44.0
 21
-0.0278958241259639
 31
0.0
  0
LINE
  5
962
330
1F
100
AcDbEntity
  8
SK1
  6
CONTINUOUS
370
50
 62
4
100
AcDbLine
 10
44.02789582412596
 20
0.0
 30
0.0
 11
45.25077417874432
 21
1.222878354618356
 31
0.0
  0
LINE
  5
963
330
1F
100
AcDbEntity
  8
SK1
  6
CONTINUOUS
370
50
 62
4
100
AcDbLine
 10
42.65784030371346
 20
-1.122568146997212
 30
0.0
 11
43.78040845071067
 21
0.0
 31
0.0
  0
LINE
  5
964
330
1F
100
AcDbEntity
  8
SK1
  6
CONTINUOUS
370
50
 62
4
100
AcDbLine
 10
44.0
 20
0.2195915492893277
 30
0.0
 11
45.12256814699721
 21
1.34215969628654
 31
0.0
  0
LINE
  5
965
330
1F
100
AcDbEntity
  8
SK1
  6
CONTINUOUS
370
50
 62
4
100
AcDbLine
 10
42.55188167231256
 20
-0.9810394049828186
 30
0.0
 11
43.53292107729538
 21
0.0
 31
0.0
  0
LINE
  5
966
330
1F
100
AcDbEntity
  8
SK1
  6
CONTINUOUS
370
50
 62
4
100
AcDbLine
 10
44.0
 20
0.4670789227046193
 30
0.0
 11
44.98103940498282
 21
1.448118327687438
 31
0.0
  0
LINE
  5
967
330
1F
100
AcDbEntity
  8
SK1
  6
CONTINUOUS
370
50
 62
4
100
AcDbLine
 10
42.45832908651575
 20
-0.8271046173643402
 30
0.0
 11
43.28543370388009
 21
0.0
 31
0.0
  0
LINE
  5
968
330
1F
100
AcDbEntity
  8
SK1
  6
CONTINUOUS
370
50
 62
4
100
AcDbLine
 10
44.0
 20
0.71456629611991
 30
0.0
 11
44.82710461736434
 21
1.54167091348425
 31
0.0
  0
LINE
  5
969
330
1F
100
AcDbEntity
  8
SK1
  6
CONTINUOUS
370
50
 62
4
100
AcDbLine
 10
42.37918473824205
 20
-0.6587615922227528
 30
0.0
 11
43.0379463304648
 21
0.0
 31
0.0
  0
LINE
  5
96A
330
1F
100
AcDbEntity
  8
SK1
  6
CONTINUOUS
370
50
 62
4
100
AcDbLine
 10
44.0
 20
0.9620536695352015
 30
0.0
 11
44.65876159222275
 21
1.620815261757954
 31
0.0
  0
LINE
  5
96B
330
1F
100
AcDbEntity
  8
SK1
  6
CONTINUOUS
370
50
 62
4
100
AcDbLine
 10
42.31629687706963
 20
-0.474162079979876
 30
0.0
 11
42.79045895704951
 21
0.0
 31
0.0
  0
LINE
  5
96C
330
1F
100
AcDbEntity
  8
SK1
  6
CONTINUOUS
370
50
 62
4
100
AcDbLine
 10
44.0
 20
1.209541042950494
 30
0.0
 11
44.47416207997988
 21
1.683703122930369
 31
0.0
  0
LINE
  5
96D
330
1F
100
AcDbEntity
  8
SK1
  6
CONTINUOUS
370
50
 62
4
100
AcDbLine
 10
42.27198100434271
 20
-0.2709905792915031
 30
0.0
 11
42.54297158363422
 21
0.0
 31
0.0
  0
LINE
  5
96E
330
1F
100
AcDbEntity
  8
SK1
  6
CONTINUOUS
370
50
 62
4
100
AcDbLine
 10
44.0
 20
1.457028416365784
 30
0.0
 11
44.2709905792915
 21
1.728018995657286
 31
0.0
  0
LINE
  5
96F
330
1F
100
AcDbEntity
  8
SK1
  6
CONTINUOUS
370
50
 62
4
100
AcDbLine
 10
42.2513858468978
 20
-0.0440983633211194
 30
0.0
 11
42.29548421021892
 21
0.0
 31
0.0
  0
LINE
  5
970
330
1F
100
AcDbEntity
  8
SK1
  6
CONTINUOUS
370
50
 62
4
100
AcDbLine
 10
44.0
 20
1.704515789781075
 30
0.0
 11
44.04409836332112
 21
1.748614153102194
 31
0.0
  0
LINE
  5
971
330
1F
100
AcDbEntity
  8
SK1
  6
CONTINUOUS
370
50
 62
4
100
AcDbLine
 10
42.36386517603682
 20
-0.6191473609004006
 30
0.0
 11
43.3808526390996
 21
-1.636134823963186
 31
0.0
  0
LINE
  5
972
330
1F
100
AcDbEntity
  8
SK1
  6
CONTINUOUS
370
50
 62
4
100
AcDbLine
 10
42.27363430643545
 20
-0.2814291178837463
 30
0.0
 11
43.71857088211625
 21
-1.726365693564548
 31
0.0
  0
LINE
  5
973
330
1F
100
AcDbEntity
  8
SK1
  6
CONTINUOUS
370
50
 62
4
100
AcDbLine
 10
42.2503344343115
 20
-0.0106418723445003
 30
0.0
 11
43.9893581276555
 21
-1.749665565688503
 31
0.0
  0
LINE
  5
974
330
1F
100
AcDbEntity
  8
SK1
  6
CONTINUOUS
370
50
 62
4
100
AcDbLine
 10
42.48717993538229
 20
0.0
 30
0.0
 11
44.0
 21
-1.51282006461771
 31
0.0
  0
LINE
  5
975
330
1F
100
AcDbEntity
  8
SK1
  6
CONTINUOUS
370
50
 62
4
100
AcDbLine
 10
42.73466730879758
 20
0.0
 30
0.0
 11
44.0
 21
-1.265332691202418
 31
0.0
  0
LINE
  5
976
330
1F
100
AcDbEntity
  8
SK1
  6
CONTINUOUS
370
50
 62
4
100
AcDbLine
 10
42.98215468221287
 20
0.0
 30
0.0
 11
44.0
 21
-1.017845317787128
 31
0.0
  0
LINE
  5
977
330
1F
100
AcDbEntity
  8
SK1
  6
CONTINUOUS
370
50
 62
4
100
AcDbLine
 10
43.22964205562816
 20
0.0
 30
0.0
 11
44.0
 21
-0.7703579443718369
 31
0.0
  0
LINE
  5
978
330
1F
100
AcDbEntity
  8
SK1
  6
CONTINUOUS
370
50
 62
4
100
AcDbLine
 10
43.47712942904345
 20
0.0
 30
0.0
 11
44.0
 21
-0.5228705709565453
 31
0.0
  0
LINE
  5
979
330
1F
100
AcDbEntity
  8
SK1
  6
CONTINUOUS
370
50
 62
4
100
AcDbLine
 10
43.72461680245875
 20
0.0
 30
0.0
 11
44.0
 21
-0.2753831975412537
 31
0.0
  0
LINE
  5
97A
330
1F
100
AcDbEntity
  8
SK1
  6
CONTINUOUS
370
50
 62
4
100
AcDbLine
 10
43.97210417587404
 20
0.0
 30
0.0
 11
44.0
 21
-0.027895824125963
 31
0.0
  0
LINE
  5
97B
330
1F
100
AcDbEntity
  8
SK1
  6
CONTINUOUS
370
50
 62
4
100
AcDbLine
 10
44.0
 20
0.219591549289329
 30
0.0
 11
44.21959154928933
 21
0.0
 31
0.0
  0
LINE
  5
97C
330
1F
100
AcDbEntity
  8
SK1
  6
CONTINUOUS
370
50
 62
4
100
AcDbLine
 10
44.0
 20
0.4670789227046202
 30
0.0
 11
44.46707892270462
 21
0.0
 31
0.0
  0
LINE
  5
97D
330
1F
100
AcDbEntity
  8
SK1
  6
CONTINUOUS
370
50
 62
4
100
AcDbLine
 10
44.0
 20
0.7145662961199113
 30
0.0
 11
44.71456629611991
 21
0.0
 31
0.0
  0
LINE
  5
97E
330
1F
100
AcDbEntity
  8
SK1
  6
CONTINUOUS
370
50
 62
4
100
AcDbLine
 10
44.0
 20
0.9620536695352029
 30
0.0
 11
44.9620536695352
 21
0.0
 31
0.0
  0
LINE
  5
97F
330
1F
100
AcDbEntity
  8
SK1
  6
CONTINUOUS
370
50
 62
4
100
AcDbLine
 10
44.0
 20
1.209541042950494
 30
0.0
 11
45.2095410429505
 21
0.0
 31
0.0
  0
LINE
  5
980
330
1F
100
AcDbEntity
  8
SK1
  6
CONTINUOUS
370
50
 62
4
100
AcDbLine
 10
44.0
 20
1.457028416365785
 30
0.0
 11
45.45702841636579
 21
0.0
 31
0.0
  0
LINE
  5
981
330
1F
100
AcDbEntity
  8
SK1
  6
CONTINUOUS
370
50
 62
4
100
AcDbLine
 10
44.0
 20
1.704515789781076
 30
0.0
 11
45.70451578978108
 21
0.0
 31
0.0
  0
LINE
  5
982
330
1F
100
AcDbEntity
  8
SK1
  6
CONTINUOUS
370
50
 62
4
100
AcDbLine
 10
44.21543384193567
 20
1.736569321260697
 30
0.0
 11
45.7365693212607
 21
0.2154338419356714
 31
0.0
  0
LINE
  5
983
330
1F
100
AcDbEntity
  8
SK1
  6
CONTINUOUS
370
50
 62
4
100
AcDbLine
 10
44.53283284728993
 20
1.666657689321729
 30
0.0
 11
45.66665768932173
 21
0.5328328472899322
 31
0.0
  0
LINE
  5
984
330
1F
100
AcDbEntity
  8
SK1
  6
CONTINUOUS
370
50
 62
4
100
AcDbLine
 10
45.04009874905675
 20
1.406879160970207
 30
0.0
 11
45.40687916097021
 21
1.040098749056747
 31
0.0
  0
LINE
  5
985
330
1F
100
AcDbEntity
  8
4
  6
LONGDASH_DASH
370
25
 62
2
100
AcDbLine
 10
44.0
 20
0.0
 30
0.0
 11
68.0
 21
0.0
 31
0.0
  0
LINE
  5
986
330
1F
100
AcDbEntity
  8
SK4
  6
LONGDASH_DASH
370
25
 62
2
100
AcDbLine
 10
-6.0
 20
0.0
 30
0.0
 11
74.0
 21
0.0
 31
0.0
  0
ARC
  5
987
330
1F
100
AcDbEntity
  8
SK6
  6
CONTINUOUS
370
25
 62
5
100
AcDbCircle
 10
94.2613820083765
 20
-27.84524575338786
 30
0.0
 40
2.76048912849221
100
AcDbArc
 50
338.9379403434233
 51
90.44457437511365
  0
LINE
  5
988
330
1F
100
AcDbEntity
  8
SK6
  6
CONTINUOUS
370
25
 62
5
100
AcDbLine
 10
94.23996279695983
 20
-25.08483972421281
 30
0.0
 11
94.23996279695983
 21
-26.18789835613464
 31
0.0
  0
ARC
  5
989
330
1F
100
AcDbEntity
  8
SK6
  6
CONTINUOUS
370
25
 62
5
100
AcDbCircle
 10
94.25050902936916
 20
-27.86523924566821
 30
0.0
 40
1.677374043771779
100
AcDbArc
 50
243.4214706017868
 51
90.36024081226083
  0
ARC
  5
98A
330
1F
100
AcDbEntity
  8
SK6
  6
CONTINUOUS
370
25
 62
5
100
AcDbCircle
 10
96.77275989684958
 20
-27.43383199215561
 30
0.0
 40
3.80021703002276
100
AcDbArc
 50
210.5483731288539
 51
236.97801693668
  0
LINE
  5
98B
330
1F
100
AcDbEntity
  8
SK6
  6
CONTINUOUS
370
25
 62
5
100
AcDbLine
 10
94.70179068512486
 20
-30.62016781867535
 30
0.0
 11
98.84373096742671
 21
-30.62016781867535
 31
0.0
  0
ARC
  5
98C
330
1F
100
AcDbEntity
  8
SK6
  6
CONTINUOUS
370
25
 62
5
100
AcDbCircle
 10
96.77276183877257
 20
-27.4338320937346
 30
0.0
 40
3.800216899582472
100
AcDbArc
 50
303.0219828477959
 51
326.3732153033476
  0
LINE
  5
98D
330
1F
100
AcDbEntity
  8
SK6
  6
CONTINUOUS
370
25
 62
5
100
AcDbLine
 10
99.93705975135722
 20
-29.5383194907709
 30
0.0
 11
96.57976170575462
 21
-29.5383194907709
 31
0.0
  0
LINE
  5
98E
330
1F
100
AcDbEntity
  8
SK6
  6
CONTINUOUS
370
25
 62
5
100
AcDbLine
 10
96.57976170575462
 20
-29.5383194907709
 30
0.0
 11
100.4996210977199
 21
-28.17691829641694
 31
0.0
  0
ARC
  5
98F
330
1F
100
AcDbEntity
  8
SK6
  6
CONTINUOUS
370
25
 62
5
100
AcDbCircle
 10
96.77276256157211
 20
-27.4338326048594
 30
0.0
 40
3.800217216614723
100
AcDbArc
 50
348.7238644184696
 51
53.4691051260885
  0
LINE
  5
990
330
1F
100
AcDbEntity
  8
SK6
  6
CONTINUOUS
370
25
 62
5
100
AcDbLine
 10
99.03486524538545
 20
-24.38022124429967
 30
0.0
 11
96.83745047882736
 21
-28.83730973507058
 31
0.0
  0
ENDSEC
  0
SECTION
  2
OBJECTS
  0
DICTIONARY
  5
C
330
0
100
AcDbDictionary
281
     1
  3
ACAD_GROUP
350
D
  3
ACAD_LAYOUT
350
1A
  3
ACAD_MATERIAL
350
3B
  3
ACAD_MLEADERSTYLE
350
993
  3
ACAD_MLINESTYLE
350
17
  3
ACAD_PLOTSETTINGS
350
19
  3
ACAD_PLOTSTYLENAME
350
E
  3
ACAD_SCALELIST
350
341
  3
ACAD_VISUALSTYLE
350
2A
  3
AcDbVariableDictionary
350
991
  0
DICTIONARY
  5
D
102
{ACAD_REACTORS
330
C
102
}
330
C
100
AcDbDictionary
281
     1
  0
DICTIONARY
  5
1A
102
{ACAD_REACTORS
330
C
102
}
330
C
100
AcDbDictionary
281
     1
  3
Layout1
350
1E
  3
Layout2
350
26
  3
Model
350
22
  0
DICTIONARY
  5
3B
102
{ACAD_REACTORS
330
C
102
}
330
C
100
AcDbDictionary
281
     1
  3
ByBlock
350
3D
  3
ByLayer
350
3C
  3
Global
350
3E
  0
DICTIONARY
  5
993
102
{ACAD_REACTORS
330
C
102
}
330
C
100
AcDbDictionary
281
     1
  0
DICTIONARY
  5
17
102
{ACAD_REACTORS
330
C
102
}
330
C
100
AcDbDictionary
281
     1
  3
Standard
350
18
  0
DICTIONARY
  5
19
102
{ACAD_REACTORS
330
C
102
}
330
C
100
AcDbDictionary
281
     1
  0
ACDBDICTIONARYWDFLT
  5
E
102
{ACAD_REACTORS
330
C
102
}
330
C
100
AcDbDictionary
281
     1
  3
Normal
350
F
100
AcDbDictionaryWithDefault
340
F
  0
DICTIONARY
  5
341
102
{ACAD_REACTORS
330
C
102
}
330
C
100
AcDbDictionary
281
     1
  3
A0
350
342
  3
A1
350
343
  3
A2
350
344
  3
A3
350
345
  3
A4
350
346
  3
A5
350
347
  3
A6
350
348
  3
A7
350
349
  3
A8
350
34A
  3
A9
350
34B
  3
B0
350
34C
  3
B1
350
34D
  3
B2
350
34E
  3
B3
350
34F
  3
B4
350
350
  3
B5
350
351
  3
B6
350
352
  3
B7
350
353
  3
B8
350
354
  3
B9
350
355
  3
C0
350
356
  3
C1
350
357
  3
C2
350
358
  3
C3
350
359
  3
C4
350
35A
  3
C5
350
35B
  3
C6
350
35C
  3
C7
350
35D
  3
C8
350
35E
  3
C9
350
35F
  3
D0
350
360
  3
D1
350
361
  3
D2
350
362
  0
DICTIONARY
  5
2A
102
{ACAD_REACTORS
330
C
102
}
330
C
100
AcDbDictionary
281
     1
  3
2dWireframe
350
2F
  3
3D Hidden
350
31
  3
3dWireframe
350
30
  3
Basic
350
32
  3
Brighten
350
36
  3
ColorChange
350
3A
  3
Conceptual
350
34
  3
Dim
350
35
  3
Facepattern
350
39
  3
Flat
350
2B
  3
FlatWithEdges
350
2C
  3
Gouraud
350
2D
  3
GouraudWithEdges
350
2E
  3
Linepattern
350
38
  3
Realistic
350
33
  3
Thicken
350
37
  0
DICTIONARY
  5
991
102
{ACAD_REACTORS
330
C
102
}
330
C
100
AcDbDictionary
281
     1
  3
CANNOSCALE
350
996
  3
DIMASSOC
350
997
  3
HIDETEXT
350
998
  3
PSOLHEIGHT
350
995
  3
PSOLWIDTH
350
994
  0
LAYOUT
  5
1E
102
{ACAD_REACTORS
330
1A
102
}
330
1A
100
AcDbPlotSettings
  1

  2
none_device
  4

  6

 40
0.0
 41
0.0
 42
0.0
 43
0.0
 44
0.0
 45
0.0
 46
0.0
 47
0.0
 48
0.0
 49
0.0
140
0.0
141
0.0
142
1.0
143
1.0
 70
   688
 72
     0
 73
     0
 74
     5
  7

 75
    16
147
1.0
148
0.0
149
0.0
100
AcDbLayout
  1
Layout1
 70
     1
 71
     1
 10
0.0
 20
0.0
 11
420.0
 21
297.0
 12
0.0
 22
0.0
 32
0.0
 14
1.000000000000000E+20
 24
1.000000000000000E+20
 34
1.000000000000000E+20
 15
-1.000000000000000E+20
 25
-1.000000000000000E+20
 35
-1.000000000000000E+20
146
0.0
 13
0.0
 23
0.0
 33
0.0
 16
1.0
 26
0.0
 36
0.0
 17
0.0
 27
1.0
 37
0.0
 76
     0
330
1B
  0
LAYOUT
  5
26
102
{ACAD_REACTORS
330
1A
102
}
330
1A
100
AcDbPlotSettings
  1

  2
none_device
  4

  6

 40
0.0
 41
0.0
 42
0.0
 43
0.0
 44
0.0
 45
0.0
 46
0.0
 47
0.0
 48
0.0
 49
0.0
140
0.0
141
0.0
142
1.0
143
1.0
 70
   688
 72
     0
 73
     0
 74
     5
  7

 75
    16
147
1.0
148
0.0
149
0.0
100
AcDbLayout
  1
Layout2
 70
     1
 71
     2
 10
0.0
 20
0.0
 11
0.0
 21
0.0
 12
0.0
 22
0.0
 32
0.0
 14
0.0
 24
0.0
 34
0.0
 15
0.0
 25
0.0
 35
0.0
146
0.0
 13
0.0
 23
0.0
 33
0.0
 16
1.0
 26
0.0
 36
0.0
 17
0.0
 27
1.0
 37
0.0
 76
     0
330
23
  0
LAYOUT
  5
22
102
{ACAD_REACTORS
330
1A
102
}
330
1A
100
AcDbPlotSettings
  1

  2
none_device
  4

  6

 40
0.0
 41
0.0
 42
0.0
 43
0.0
 44
0.0
 45
0.0
 46
0.0
 47
0.0
 48
0.0
 49
0.0
140
0.0
141
0.0
142
1.0
143
1.0
 70
  1712
 72
     0
 73
     0
 74
     0
  7

 75
     0
147
1.0
148
0.0
149
0.0
100
AcDbLayout
  1
Model
 70
     1
 71
     0
 10
0.0
 20
0.0
 11
420.0
 21
297.0
 12
0.0
 22
0.0
 32
0.0
 14
0.0
 24
0.0
 34
0.0
 15
25.0
 25
35.0
 35
0.0
146
0.0
 13
0.0
 23
0.0
 33
0.0
 16
1.0
 26
0.0
 36
0.0
 17
0.0
 27
1.0
 37
0.0
 76
     0
330
1F
331
29
  0
MATERIAL
  5
3D
102
{ACAD_REACTORS
330
3B
102
}
102
{ACAD_XDICTIONARY
360
9BB
102
}
330
3B
100
AcDbMaterial
  1
ByBlock
  0
MATERIAL
  5
3C
102
{ACAD_REACTORS
330
3B
102
}
102
{ACAD_XDICTIONARY
360
9B9
102
}
330
3B
100
AcDbMaterial
  1
ByLayer
  0
MATERIAL
  5
3E
102
{ACAD_REACTORS
330
3B
102
}
102
{ACAD_XDICTIONARY
360
9BD
102
}
330
3B
100
AcDbMaterial
  1
Global
  0
MLINESTYLE
  5
18
102
{ACAD_REACTORS
330
17
102
}
330
17
100
AcDbMlineStyle
  2
Standard
 70
     0
  3

 62
   256
 51
90.0
 52
90.0
 71
     2
 49
0.5
 62
   256
  6
BYLAYER
 49
-0.5
 62
   256
  6
BYLAYER
  0
ACDBPLACEHOLDER
  5
F
102
{ACAD_REACTORS
330
E
102
}
330
E
  0
SCALE
  5
342
102
{ACAD_REACTORS
330
341
102
}
330
341
100
AcDbScale
 70
     0
300
1:1
140
1.0
141
1.0
290
     1
  0
SCALE
  5
343
102
{ACAD_REACTORS
330
341
102
}
330
341
100
AcDbScale
 70
     0
300
1:2
140
1.0
141
2.0
290
     0
  0
SCALE
  5
344
102
{ACAD_REACTORS
330
341
102
}
330
341
100
AcDbScale
 70
     0
300
1:4
140
1.0
141
4.0
290
     0
  0
SCALE
  5
345
102
{ACAD_REACTORS
330
341
102
}
330
341
100
AcDbScale
 70
     0
300
1:5
140
1.0
141
5.0
290
     0
  0
SCALE
  5
346
102
{ACAD_REACTORS
330
341
102
}
330
341
100
AcDbScale
 70
     0
300
1:8
140
1.0
141
8.0
290
     0
  0
SCALE
  5
347
102
{ACAD_REACTORS
330
341
102
}
330
341
100
AcDbScale
 70
     0
300
1:10
140
1.0
141
10.0
290
     0
  0
SCALE
  5
348
102
{ACAD_REACTORS
330
341
102
}
330
341
100
AcDbScale
 70
     0
300
1:16
140
1.0
141
16.0
290
     0
  0
SCALE
  5
349
102
{ACAD_REACTORS
330
341
102
}
330
341
100
AcDbScale
 70
     0
300
1:20
140
1.0
141
20.0
290
     0
  0
SCALE
  5
34A
102
{ACAD_REACTORS
330
341
102
}
330
341
100
AcDbScale
 70
     0
300
1:30
140
1.0
141
30.0
290
     0
  0
SCALE
  5
34B
102
{ACAD_REACTORS
330
341
102
}
330
341
100
AcDbScale
 70
     0
300
1:40
140
1.0
141
40.0
290
     0
  0
SCALE
  5
34C
102
{ACAD_REACTORS
330
341
102
}
330
341
100
AcDbScale
 70
     0
300
1:50
140
1.0
141
50.0
290
     0
  0
SCALE
  5
34D
102
{ACAD_REACTORS
330
341
102
}
330
341
100
AcDbScale
 70
     0
300
1:100
140
1.0
141
100.0
290
     0
  0
SCALE
  5
34E
102
{ACAD_REACTORS
330
341
102
}
330
341
100
AcDbScale
 70
     0
300
2:1
140
2.0
141
1.0
290
     0
  0
SCALE
  5
34F
102
{ACAD_REACTORS
330
341
102
}
330
341
100
AcDbScale
 70
     0
300
4:1
140
4.0
141
1.0
290
     0
  0
SCALE
  5
350
102
{ACAD_REACTORS
330
341
102
}
330
341
100
AcDbScale
 70
     0
300
8:1
140
8.0
141
1.0
290
     0
  0
SCALE
  5
351
102
{ACAD_REACTORS
330
341
102
}
330
341
100
AcDbScale
 70
     0
300
10:1
140
10.0
141
1.0
290
     0
  0
SCALE
  5
352
102
{ACAD_REACTORS
330
341
102
}
330
341
100
AcDbScale
 70
     0
300
100:1
140
100.0
141
1.0
290
     0
  0
SCALE
  5
353
102
{ACAD_REACTORS
330
341
102
}
330
341
100
AcDbScale
 70
     0
300
1/128" = 1'-0"
140
0.0078125
141
12.0
290
     0
  0
SCALE
  5
354
102
{ACAD_REACTORS
330
341
102
}
330
341
100
AcDbScale
 70
     0
300
1/64" = 1'-0"
140
0.015625
141
12.0
290
     0
  0
SCALE
  5
355
102
{ACAD_REACTORS
330
341
102
}
330
341
100
AcDbScale
 70
     0
300
1/32" = 1'-0"
140
0.03125
141
12.0
290
     0
  0
SCALE
  5
356
102
{ACAD_REACTORS
330
341
102
}
330
341
100
AcDbScale
 70
     0
300
1/16" = 1'-0"
140
0.0625
141
12.0
290
     0
  0
SCALE
  5
357
102
{ACAD_REACTORS
330
341
102
}
330
341
100
AcDbScale
 70
     0
300
3/32" = 1'-0"
140
0.09375
141
12.0
290
     0
  0
SCALE
  5
358
102
{ACAD_REACTORS
330
341
102
}
330
341
100
AcDbScale
 70
     0
300
1/8" = 1'-0"
140
0.125
141
12.0
290
     0
  0
SCALE
  5
359
102
{ACAD_REACTORS
330
341
102
}
330
341
100
AcDbScale
 70
     0
300
3/16" = 1'-0"
140
0.1875
141
12.0
290
     0
  0
SCALE
  5
35A
102
{ACAD_REACTORS
330
341
102
}
330
341
100
AcDbScale
 70
     0
300
1/4" = 1'-0"
140
0.25
141
12.0
290
     0
  0
SCALE
  5
35B
102
{ACAD_REACTORS
330
341
102
}
330
341
100
AcDbScale
 70
     0
300
3/8" = 1'-0"
140
0.375
141
12.0
290
     0
  0
SCALE
  5
35C
102
{ACAD_REACTORS
330
341
102
}
330
341
100
AcDbScale
 70
     0
300
1/2" = 1'-0"
140
0.5
141
12.0
290
     0
  0
SCALE
  5
35D
102
{ACAD_REACTORS
330
341
102
}
330
341
100
AcDbScale
 70
     0
300
3/4" = 1'-0"
140
0.75
141
12.0
290
     0
  0
SCALE
  5
35E
102
{ACAD_REACTORS
330
341
102
}
330
341
100
AcDbScale
 70
     0
300
1" = 1'-0"
140
1.0
141
12.0
290
     0
  0
SCALE
  5
35F
102
{ACAD_REACTORS
330
341
102
}
330
341
100
AcDbScale
 70
     0
300
1-1/2" = 1'-0"
140
1.5
141
12.0
290
     0
  0
SCALE
  5
360
102
{ACAD_REACTORS
330
341
102
}
330
341
100
AcDbScale
 70
     0
300
3" = 1'-0"
140
3.0
141
12.0
290
     0
  0
SCALE
  5
361
102
{ACAD_REACTORS
330
341
102
}
330
341
100
AcDbScale
 70
     0
300
6" = 1'-0"
140
6.0
141
12.0
290
     0
  0
SCALE
  5
362
102
{ACAD_REACTORS
330
341
102
}
330
341
100
AcDbScale
 70
     0
300
1'-0" = 1'-0"
140
12.0
141
12.0
290
     0
  0
VISUALSTYLE
  5
2F
102
{ACAD_REACTORS
330
2A
102
}
102
{ACAD_XDICTIONARY
360
9A1
102
}
330
2A
100
AcDbVisualStyle
  2
2dWireframe
 70
     4
 71
     0
 72
     2
 73
     0
 90
        0
 40
-0.6
 41
-30.0
 62
     5
 63
     7
 74
     1
 91
        4
 64
     7
 65
   257
 75
     1
175
     1
 42
1.0
 92
        0
 66
   257
 43
1.0
 76
     1
 77
     6
 78
     2
 67
     7
 79
     5
170
     0
171
     0
290
     0
174
     0
 93
        1
 44
0.0
173
     0
291
     0
 45
0.0
1001
ACAD
1000
AcDbSavedByObjectVersion
1070
     0
  0
VISUALSTYLE
  5
31
102
{ACAD_REACTORS
330
2A
102
}
102
{ACAD_XDICTIONARY
360
9A5
102
}
330
2A
100
AcDbVisualStyle
  2
3D Hidden
 70
     6
 71
     1
 72
     2
 73
     2
 90
        0
 40
-0.6
 41
-30.0
 62
     5
 63
     7
 74
     2
 91
        2
 64
     7
 65
   257
 75
     2
175
     1
 42
40.0
 92
        0
 66
   257
 43
1.0
 76
     1
 77
     6
 78
     2
 67
     7
 79
     3
170
     0
171
     0
290
     0
174
     0
 93
        1
 44
0.0
173
     0
291
     0
 45
0.0
1001
ACAD
1000
AcDbSavedByObjectVersion
1070
     0
  0
VISUALSTYLE
  5
30
102
{ACAD_REACTORS
330
2A
102
}
102
{ACAD_XDICTIONARY
360
9A3
102
}
330
2A
100
AcDbVisualStyle
  2
3dWireframe
 70
     5
 71
     0
 72
     2
 73
     0
 90
        0
 40
-0.6
 41
-30.0
 62
     5
 63
     7
 74
     1
 91
        4
 64
     7
 65
   257
 75
     1
175
     1
 42
1.0
 92
        0
 66
   257
 43
1.0
 76
     1
 77
     6
 78
     2
 67
     7
 79
     5
170
     0
171
     0
290
     0
174
     0
 93
        1
 44
0.0
173
     0
291
     0
 45
0.0
1001
ACAD
1000
AcDbSavedByObjectVersion
1070
     0
  0
VISUALSTYLE
  5
32
102
{ACAD_REACTORS
330
2A
102
}
102
{ACAD_XDICTIONARY
360
9A7
102
}
330
2A
100
AcDbVisualStyle
  2
Basic
 70
     7
 71
     1
 72
     0
 73
     1
 90
        0
 40
-0.6
 41
-30.0
 62
     5
 63
     7
 74
     0
 91
        4
 64
     7
 65
   257
 75
     1
175
     1
 42
1.0
 92
        8
 66
     7
 43
1.0
 76
     1
 77
     6
 78
     2
 67
     7
 79
     5
170
     0
171
     0
290
     0
174
     0
 93
        1
 44
0.0
173
     0
291
     1
 45
0.0
1001
ACAD
1000
AcDbSavedByObjectVersion
1070
     0
  0
VISUALSTYLE
  5
36
102
{ACAD_REACTORS
330
2A
102
}
102
{ACAD_XDICTIONARY
360
9AF
102
}
330
2A
100
AcDbVisualStyle
  2
Brighten
 70
    12
 71
     2
 72
     2
 73
     0
 90
        0
 40
-0.6
 41
-30.0
 62
     5
 63
     7
 74
     1
 91
        4
 64
     7
 65
   257
 75
     1
175
     1
 42
1.0
 92
        8
 66
     7
 43
1.0
 76
     1
 77
     6
 78
     2
 67
     7
 79
     5
170
     0
171
     0
290
     0
174
     0
 93
        1
 44
50.0
173
     0
291
     1
 45
0.0
1001
ACAD
1000
AcDbSavedByObjectVersion
1070
     0
  0
VISUALSTYLE
  5
3A
102
{ACAD_REACTORS
330
2A
102
}
102
{ACAD_XDICTIONARY
360
9B7
102
}
330
2A
100
AcDbVisualStyle
  2
ColorChange
 70
    16
 71
     2
 72
     2
 73
     3
 90
        0
 40
-0.6
 41
-30.0
 62
     5
 63
     8
 74
     1
 91
        4
 64
     7
 65
   257
 75
     1
175
     1
 42
1.0
 92
        8
 66
     8
 43
1.0
 76
     1
 77
     6
 78
     2
 67
     7
 79
     5
170
     0
171
     0
290
     0
174
     0
 93
        1
 44
0.0
173
     0
291
     1
 45
0.0
1001
ACAD
1000
AcDbSavedByObjectVersion
1070
     0
  0
VISUALSTYLE
  5
34
102
{ACAD_REACTORS
330
2A
102
}
102
{ACAD_XDICTIONARY
360
9AB
102
}
330
2A
100
AcDbVisualStyle
  2
Conceptual
 70
     9
 71
     3
 72
     2
 73
     0
 90
        0
 40
-0.6
 41
-30.0
 62
     5
 63
     7
 74
     2
 91
        2
 64
     7
 65
   257
 75
     1
175
     1
 42
40.0
 92
        8
 66
     7
 43
1.0
 76
     1
 77
     6
 78
     2
 67
     7
 79
     3
170
     0
171
     0
290
     0
174
     0
 93
        1
 44
0.0
173
     0
291
     0
 45
0.0
1001
ACAD
1000
AcDbSavedByObjectVersion
1070
     0
  0
VISUALSTYLE
  5
35
102
{ACAD_REACTORS
330
2A
102
}
102
{ACAD_XDICTIONARY
360
9AD
102
}
330
2A
100
AcDbVisualStyle
  2
Dim
 70
    11
 71
     2
 72
     2
 73
     0
 90
        0
 40
-0.6
 41
-30.0
 62
     5
 63
     7
 74
     1
 91
        4
 64
     7
 65
   257
 75
     1
175
     1
 42
1.0
 92
        8
 66
     7
 43
1.0
 76
     1
 77
     6
 78
     2
 67
     7
 79
     5
170
     0
171
     0
290
     0
174
     0
 93
        1
 44
-50.0
173
     0
291
     1
 45
0.0
1001
ACAD
1000
AcDbSavedByObjectVersion
1070
     0
  0
VISUALSTYLE
  5
39
102
{ACAD_REACTORS
330
2A
102
}
102
{ACAD_XDICTIONARY
360
9B5
102
}
330
2A
100
AcDbVisualStyle
  2
Facepattern
 70
    15
 71
     2
 72
     2
 73
     0
 90
        0
 40
-0.6
 41
-30.0
 62
     5
 63
     7
 74
     1
 91
        4
 64
     7
 65
   257
 75
     1
175
     1
 42
1.0
 92
        8
 66
     7
 43
1.0
 76
     1
 77
     6
 78
     2
 67
     7
 79
     5
170
     0
171
     0
290
     0
174
     0
 93
        1
 44
0.0
173
     0
291
     1
 45
0.0
1001
ACAD
1000
AcDbSavedByObjectVersion
1070
     0
  0
VISUALSTYLE
  5
2B
102
{ACAD_REACTORS
330
2A
102
}
102
{ACAD_XDICTIONARY
360
999
102
}
330
2A
100
AcDbVisualStyle
  2
Flat
 70
     0
 71
     2
 72
     1
 73
     1
 90
        2
 40
-0.6
 41
30.0
 62
     5
 63
     7
 74
     0
 91
        4
 64
     7
 65
   257
 75
     1
175
     1
 42
1.0
 92
        8
 66
     7
 43
1.0
 76
     1
 77
     6
 78
     2
 67
     7
 79
     5
170
     0
171
     0
290
     0
174
     0
 93
       13
 44
0.0
173
     0
291
     1
 45
0.0
1001
ACAD
1000
AcDbSavedByObjectVersion
1070
     0
  0
VISUALSTYLE
  5
2C
102
{ACAD_REACTORS
330
2A
102
}
102
{ACAD_XDICTIONARY
360
99B
102
}
330
2A
100
AcDbVisualStyle
  2
FlatWithEdges
 70
     1
 71
     2
 72
     1
 73
     1
 90
        2
 40
-0.6
 41
30.0
 62
     5
 63
     7
 74
     1
 91
        4
 64
     7
 65
   257
 75
     1
175
     1
 42
1.0
 92
        0
 66
   257
 43
1.0
 76
     1
 77
     6
 78
     2
 67
     7
 79
     5
170
     0
171
     0
290
     0
174
     0
 93
       13
 44
0.0
173
     0
291
     1
 45
0.0
1001
ACAD
1000
AcDbSavedByObjectVersion
1070
     0
  0
VISUALSTYLE
  5
2D
102
{ACAD_REACTORS
330
2A
102
}
102
{ACAD_XDICTIONARY
360
99D
102
}
330
2A
100
AcDbVisualStyle
  2
Gouraud
 70
     2
 71
     2
 72
     2
 73
     1
 90
        2
 40
-0.6
 41
30.0
 62
     5
 63
     7
 74
     0
 91
        4
 64
     7
 65
   257
 75
     1
175
     1
 42
1.0
 92
        0
 66
     7
 43
1.0
 76
     1
 77
     6
 78
     2
 67
     7
 79
     5
170
     0
171
     0
290
     0
174
     0
 93
       13
 44
0.0
173
     0
291
     1
 45
0.0
1001
ACAD
1000
AcDbSavedByObjectVersion
1070
     0
  0
VISUALSTYLE
  5
2E
102
{ACAD_REACTORS
330
2A
102
}
102
{ACAD_XDICTIONARY
360
99F
102
}
330
2A
100
AcDbVisualStyle
  2
GouraudWithEdges
 70
     3
 71
     2
 72
     2
 73
     1
 90
        2
 40
-0.6
 41
30.0
 62
     5
 63
     7
 74
     1
 91
        4
 64
     7
 65
   257
 75
     1
175
     1
 42
1.0
 92
        0
 66
   257
 43
1.0
 76
     1
 77
     6
 78
     2
 67
     7
 79
     5
170
     0
171
     0
290
     0
174
     0
 93
       13
 44
0.0
173
     0
291
     1
 45
0.0
1001
ACAD
1000
AcDbSavedByObjectVersion
1070
     0
  0
VISUALSTYLE
  5
38
102
{ACAD_REACTORS
330
2A
102
}
102
{ACAD_XDICTIONARY
360
9B3
102
}
330
2A
100
AcDbVisualStyle
  2
Linepattern
 70
    14
 71
     2
 72
     2
 73
     0
 90
        0
 40
-0.6
 41
-30.0
 62
     5
 63
     7
 74
     1
 91
        4
 64
     7
 65
   257
 75
     7
175
     7
 42
1.0
 92
        8
 66
     7
 43
1.0
 76
     1
 77
     6
 78
     2
 67
     7
 79
     5
170
     0
171
     0
290
     0
174
     0
 93
        1
 44
0.0
173
     0
291
     1
 45
0.0
1001
ACAD
1000
AcDbSavedByObjectVersion
1070
     0
  0
VISUALSTYLE
  5
33
102
{ACAD_REACTORS
330
2A
102
}
102
{ACAD_XDICTIONARY
360
9A9
102
}
330
2A
100
AcDbVisualStyle
  2
Realistic
 70
     8
 71
     2
 72
     2
 73
     0
 90
        0
 40
-0.6
 41
-30.0
 62
     5
 63
     7
 74
     1
 91
        0
 64
     7
 65
   257
 75
     1
175
     1
 42
1.0
 92
        8
 66
     8
 43
1.0
 76
     1
 77
     6
 78
     2
 67
     7
 79
     5
170
     0
171
     0
290
     0
174
     0
 93
       13
 44
0.0
173
     0
291
     0
 45
0.0
1001
ACAD
1000
AcDbSavedByObjectVersion
1070
     0
  0
VISUALSTYLE
  5
37
102
{ACAD_REACTORS
330
2A
102
}
102
{ACAD_XDICTIONARY
360
9B1
102
}
330
2A
100
AcDbVisualStyle
  2
Thicken
 70
    13
 71
     2
 72
     2
 73
     0
 90
        0
 40
-0.6
 41
-30.0
 62
     5
 63
     7
 74
     1
 91
        4
 64
     7
 65
   257
 75
     1
175
     1
 42
1.0
 92
       12
 66
     7
 43
1.0
 76
     1
 77
     6
 78
     2
 67
     7
 79
     5
170
     0
171
     0
290
     0
174
     0
 93
        1
 44
0.0
173
     0
291
     1
 45
0.0
1001
ACAD
1000
AcDbSavedByObjectVersion
1070
     0
  0
DICTIONARYVAR
  5
996
102
{ACAD_REACTORS
330
991
102
}
330
991
100
DictionaryVariables
280
     0
  1
1:1
  0
DICTIONARYVAR
  5
997
102
{ACAD_REACTORS
330
991
102
}
330
991
100
DictionaryVariables
280
     0
  1
2
  0
DICTIONARYVAR
  5
998
102
{ACAD_REACTORS
330
991
102
}
330
991
100
DictionaryVariables
280
     0
  1
1
  0
DICTIONARYVAR
  5
995
102
{ACAD_REACTORS
330
991
102
}
330
991
100
DictionaryVariables
280
     0
  1
80.000000
  0
DICTIONARYVAR
  5
994
102
{ACAD_REACTORS
330
991
102
}
330
991
100
DictionaryVariables
280
     0
  1
5.000000
  0
DICTIONARY
  5
9BB
330
3D
100
AcDbDictionary
280
     1
281
     1
  3
ACAD_XREC_ROUNDTRIP
360
9BC
  0
DICTIONARY
  5
9B9
330
3C
100
AcDbDictionary
280
     1
281
     1
  3
ACAD_XREC_ROUNDTRIP
360
9BA
  0
DICTIONARY
  5
9BD
330
3E
100
AcDbDictionary
280
     1
281
     1
  3
ACAD_XREC_ROUNDTRIP
360
9BE
  0
DICTIONARY
  5
9A1
330
2F
100
AcDbDictionary
280
     1
281
     1
  3
ACAD_XREC_ROUNDTRIP
360
9A2
  0
DICTIONARY
  5
9A5
330
31
100
AcDbDictionary
280
     1
281
     1
  3
ACAD_XREC_ROUNDTRIP
360
9A6
  0
DICTIONARY
  5
9A3
330
30
100
AcDbDictionary
280
     1
281
     1
  3
ACAD_XREC_ROUNDTRIP
360
9A4
  0
DICTIONARY
  5
9A7
330
32
100
AcDbDictionary
280
     1
281
     1
  3
ACAD_XREC_ROUNDTRIP
360
9A8
  0
DICTIONARY
  5
9AF
330
36
100
AcDbDictionary
280
     1
281
     1
  3
ACAD_XREC_ROUNDTRIP
360
9B0
  0
DICTIONARY
  5
9B7
330
3A
100
AcDbDictionary
280
     1
281
     1
  3
ACAD_XREC_ROUNDTRIP
360
9B8
  0
DICTIONARY
  5
9AB
330
34
100
AcDbDictionary
280
     1
281
     1
  3
ACAD_XREC_ROUNDTRIP
360
9AC
  0
DICTIONARY
  5
9AD
330
35
100
AcDbDictionary
280
     1
281
     1
  3
ACAD_XREC_ROUNDTRIP
360
9AE
  0
DICTIONARY
  5
9B5
330
39
100
AcDbDictionary
280
     1
281
     1
  3
ACAD_XREC_ROUNDTRIP
360
9B6
  0
DICTIONARY
  5
999
330
2B
100
AcDbDictionary
280
     1
281
     1
  3
ACAD_XREC_ROUNDTRIP
360
99A
  0
DICTIONARY
  5
99B
330
2C
100
AcDbDictionary
280
     1
281
     1
  3
ACAD_XREC_ROUNDTRIP
360
99C
  0
DICTIONARY
  5
99D
330
2D
100
AcDbDictionary
280
     1
281
     1
  3
ACAD_XREC_ROUNDTRIP
360
99E
  0
DICTIONARY
  5
99F
330
2E
100
AcDbDictionary
280
     1
281
     1
  3
ACAD_XREC_ROUNDTRIP
360
9A0
  0
DICTIONARY
  5
9B3
330
38
100
AcDbDictionary
280
     1
281
     1
  3
ACAD_XREC_ROUNDTRIP
360
9B4
  0
DICTIONARY
  5
9A9
330
33
100
AcDbDictionary
280
     1
281
     1
  3
ACAD_XREC_ROUNDTRIP
360
9AA
  0
DICTIONARY
  5
9B1
330
37
100
AcDbDictionary
280
     1
281
     1
  3
ACAD_XREC_ROUNDTRIP
360
9B2
  0
XRECORD
  5
9BC
102
{ACAD_REACTORS
330
9BB
102
}
330
9BB
100
AcDbXrecord
280
     1
102
MATERIAL
148
0.0
149
0.0
149
0.0
 93
        0
 94
      127
282
     0
 72
     1
 77
     1
171
     1
175
     1
179
     1
273
     0
  0
XRECORD
  5
9BA
102
{ACAD_REACTORS
330
9B9
102
}
330
9B9
100
AcDbXrecord
280
     1
102
MATERIAL
148
0.0
149
0.0
149
0.0
 93
        0
 94
      127
282
     0
 72
     1
 77
     1
171
     1
175
     1
179
     1
273
     0
  0
XRECORD
  5
9BE
102
{ACAD_REACTORS
330
9BD
102
}
330
9BD
100
AcDbXrecord
280
     1
102
MATERIAL
148
0.0
149
0.0
149
0.0
 93
        0
 94
      127
282
     0
 72
     1
 77
     1
171
     1
175
     1
179
     1
273
     0
  0
XRECORD
  5
9A2
102
{ACAD_REACTORS
330
9A1
102
}
330
9A1
100
AcDbXrecord
280
     1
102
RTVSPropertyOp0
 70
     1
102
RTVSPropertyOp1
 70
     1
102
RTVSPropertyOp2
 70
     1
102
RTVSPropertyOp3
 70
     1
102
RTVSPropertyOp4
 70
     1
102
RTVSPropertyOp5
 70
     1
102
RTVSPropertyOp6
 70
     1
102
RTVSPropertyOp7
 70
     1
102
RTVSPropertyOp8
 70
     1
102
RTVSPropertyOp9
 70
     1
102
RTVSPropertyOp10
 70
     1
102
RTVSPropertyOp11
 70
     1
102
RTVSPropertyOp12
 70
     1
102
RTVSPropertyOp13
 70
     1
102
RTVSPropertyOp14
 70
     1
102
RTVSPropertyOp15
 70
     1
102
RTVSPropertyOp16
 70
     1
102
RTVSPropertyOp17
 70
     1
102
RTVSPropertyOp18
 70
     1
102
RTVSPropertyOp19
 70
     1
102
RTVSPropertyOp20
 70
     1
102
RTVSPropertyOp21
 70
     1
102
RTVSPropertyOp22
 70
     1
102
RTVSPropertyOp23
 70
     1
102
RTVSPropertyOp24
 70
     1
102
RTVSPropertyOp25
 70
     1
102
RTVSPropertyOp26
 70
     1
102
RTVSPropertyOp27
 70
     1
  0
XRECORD
  5
9A6
102
{ACAD_REACTORS
330
9A5
102
}
330
9A5
100
AcDbXrecord
280
     1
102
RTVSPropertyOp0
 70
     1
102
RTVSPropertyOp1
 70
     1
102
RTVSPropertyOp2
 70
     1
102
RTVSPropertyOp3
 70
     1
102
RTVSPropertyOp4
 70
     1
102
RTVSPropertyOp5
 70
     1
102
RTVSPropertyOp6
 70
     1
102
RTVSPropertyOp7
 70
     1
102
RTVSPropertyOp8
 70
     1
102
RTVSPropertyOp9
 70
     1
102
RTVSPropertyOp10
 70
     1
102
RTVSPropertyOp11
 70
     1
102
RTVSPropertyOp12
 70
     1
102
RTVSPropertyOp13
 70
     1
102
RTVSPropertyOp14
 70
     1
102
RTVSPropertyOp15
 70
     1
102
RTVSPropertyOp16
 70
     1
102
RTVSPropertyOp17
 70
     1
102
RTVSPropertyOp18
 70
     1
102
RTVSPropertyOp19
 70
     1
102
RTVSPropertyOp20
 70
     1
102
RTVSPropertyOp21
 70
     1
102
RTVSPropertyOp22
 70
     1
102
RTVSPropertyOp23
 70
     1
102
RTVSPropertyOp24
 70
     1
102
RTVSPropertyOp25
 70
     1
102
RTVSPropertyOp26
 70
     1
102
RTVSPropertyOp27
 70
     1
  0
XRECORD
  5
9A4
102
{ACAD_REACTORS
330
9A3
102
}
330
9A3
100
AcDbXrecord
280
     1
102
RTVSPropertyOp0
 70
     1
102
RTVSPropertyOp1
 70
     1
102
RTVSPropertyOp2
 70
     1
102
RTVSPropertyOp3
 70
     1
102
RTVSPropertyOp4
 70
     1
102
RTVSPropertyOp5
 70
     1
102
RTVSPropertyOp6
 70
     1
102
RTVSPropertyOp7
 70
     1
102
RTVSPropertyOp8
 70
     1
102
RTVSPropertyOp9
 70
     1
102
RTVSPropertyOp10
 70
     1
102
RTVSPropertyOp11
 70
     1
102
RTVSPropertyOp12
 70
     1
102
RTVSPropertyOp13
 70
     1
102
RTVSPropertyOp14
 70
     1
102
RTVSPropertyOp15
 70
     1
102
RTVSPropertyOp16
 70
     1
102
RTVSPropertyOp17
 70
     1
102
RTVSPropertyOp18
 70
     1
102
RTVSPropertyOp19
 70
     1
102
RTVSPropertyOp20
 70
     1
102
RTVSPropertyOp21
 70
     1
102
RTVSPropertyOp22
 70
     1
102
RTVSPropertyOp23
 70
     1
102
RTVSPropertyOp24
 70
     1
102
RTVSPropertyOp25
 70
     1
102
RTVSPropertyOp26
 70
     1
102
RTVSPropertyOp27
 70
     1
  0
XRECORD
  5
9A8
102
{ACAD_REACTORS
330
9A7
102
}
330
9A7
100
AcDbXrecord
280
     1
102
RTVSPropertyOp0
 70
     1
102
RTVSPropertyOp1
 70
     1
102
RTVSPropertyOp2
 70
     1
102
RTVSPropertyOp3
 70
     1
102
RTVSPropertyOp4
 70
     1
102
RTVSPropertyOp5
 70
     1
102
RTVSPropertyOp6
 70
     1
102
RTVSPropertyOp7
 70
     1
102
RTVSPropertyOp8
 70
     1
102
RTVSPropertyOp9
 70
     1
102
RTVSPropertyOp10
 70
     1
102
RTVSPropertyOp11
 70
     1
102
RTVSPropertyOp12
 70
     1
102
RTVSPropertyOp13
 70
     1
102
RTVSPropertyOp14
 70
     1
102
RTVSPropertyOp15
 70
     1
102
RTVSPropertyOp16
 70
     1
102
RTVSPropertyOp17
 70
     1
102
RTVSPropertyOp18
 70
     1
102
RTVSPropertyOp19
 70
     1
102
RTVSPropertyOp20
 70
     1
102
RTVSPropertyOp21
 70
     1
102
RTVSPropertyOp22
 70
     1
102
RTVSPropertyOp23
 70
     1
102
RTVSPropertyOp24
 70
     1
102
RTVSPropertyOp25
 70
     1
102
RTVSPropertyOp26
 70
     1
102
RTVSPropertyOp27
 70
     1
  0
XRECORD
  5
9B0
102
{ACAD_REACTORS
330
9AF
102
}
330
9AF
100
AcDbXrecord
280
     1
102
RTVSPropertyOp0
 70
     1
102
RTVSPropertyOp1
 70
     1
102
RTVSPropertyOp2
 70
     1
102
RTVSPropertyOp3
 70
     1
102
RTVSPropertyOp4
 70
     1
102
RTVSPropertyOp5
 70
     1
102
RTVSPropertyOp6
 70
     1
102
RTVSPropertyOp7
 70
     1
102
RTVSPropertyOp8
 70
     1
102
RTVSPropertyOp9
 70
     1
102
RTVSPropertyOp10
 70
     1
102
RTVSPropertyOp11
 70
     1
102
RTVSPropertyOp12
 70
     1
102
RTVSPropertyOp13
 70
     1
102
RTVSPropertyOp14
 70
     1
102
RTVSPropertyOp15
 70
     1
102
RTVSPropertyOp16
 70
     1
102
RTVSPropertyOp17
 70
     1
102
RTVSPropertyOp18
 70
     1
102
RTVSPropertyOp19
 70
     1
102
RTVSPropertyOp20
 70
     1
102
RTVSPropertyOp21
 70
     1
102
RTVSPropertyOp22
 70
     1
102
RTVSPropertyOp23
 70
     1
102
RTVSPropertyOp24
 70
     1
102
RTVSPropertyOp25
 70
     1
102
RTVSPropertyOp26
 70
     1
102
RTVSPropertyOp27
 70
     1
  0
XRECORD
  5
9B8
102
{ACAD_REACTORS
330
9B7
102
}
330
9B7
100
AcDbXrecord
280
     1
102
RTVSPropertyOp0
 70
     1
102
RTVSPropertyOp1
 70
     1
102
RTVSPropertyOp2
 70
     1
102
RTVSPropertyOp3
 70
     1
102
RTVSPropertyOp4
 70
     1
102
RTVSPropertyOp5
 70
     1
102
RTVSPropertyOp6
 70
     1
102
RTVSPropertyOp7
 70
     1
102
RTVSPropertyOp8
 70
     1
102
RTVSPropertyOp9
 70
     1
102
RTVSPropertyOp10
 70
     1
102
RTVSPropertyOp11
 70
     1
102
RTVSPropertyOp12
 70
     1
102
RTVSPropertyOp13
 70
     1
102
RTVSPropertyOp14
 70
     1
102
RTVSPropertyOp15
 70
     1
102
RTVSPropertyOp16
 70
     1
102
RTVSPropertyOp17
 70
     1
102
RTVSPropertyOp18
 70
     1
102
RTVSPropertyOp19
 70
     1
102
RTVSPropertyOp20
 70
     1
102
RTVSPropertyOp21
 70
     1
102
RTVSPropertyOp22
 70
     1
102
RTVSPropertyOp23
 70
     1
102
RTVSPropertyOp24
 70
     1
102
RTVSPropertyOp25
 70
     1
102
RTVSPropertyOp26
 70
     1
102
RTVSPropertyOp27
 70
     1
  0
XRECORD
  5
9AC
102
{ACAD_REACTORS
330
9AB
102
}
330
9AB
100
AcDbXrecord
280
     1
102
RTVSPropertyOp0
 70
     1
102
RTVSPropertyOp1
 70
     1
102
RTVSPropertyOp2
 70
     1
102
RTVSPropertyOp3
 70
     1
102
RTVSPropertyOp4
 70
     1
102
RTVSPropertyOp5
 70
     1
102
RTVSPropertyOp6
 70
     1
102
RTVSPropertyOp7
 70
     1
102
RTVSPropertyOp8
 70
     1
102
RTVSPropertyOp9
 70
     1
102
RTVSPropertyOp10
 70
     1
102
RTVSPropertyOp11
 70
     1
102
RTVSPropertyOp12
 70
     1
102
RTVSPropertyOp13
 70
     1
102
RTVSPropertyOp14
 70
     1
102
RTVSPropertyOp15
 70
     1
102
RTVSPropertyOp16
 70
     1
102
RTVSPropertyOp17
 70
     1
102
RTVSPropertyOp18
 70
     1
102
RTVSPropertyOp19
 70
     1
102
RTVSPropertyOp20
 70
     1
102
RTVSPropertyOp21
 70
     1
102
RTVSPropertyOp22
 70
     1
102
RTVSPropertyOp23
 70
     1
102
RTVSPropertyOp24
 70
     1
102
RTVSPropertyOp25
 70
     1
102
RTVSPropertyOp26
 70
     1
102
RTVSPropertyOp27
 70
     1
  0
XRECORD
  5
9AE
102
{ACAD_REACTORS
330
9AD
102
}
330
9AD
100
AcDbXrecord
280
     1
102
RTVSPropertyOp0
 70
     1
102
RTVSPropertyOp1
 70
     1
102
RTVSPropertyOp2
 70
     1
102
RTVSPropertyOp3
 70
     1
102
RTVSPropertyOp4
 70
     1
102
RTVSPropertyOp5
 70
     1
102
RTVSPropertyOp6
 70
     1
102
RTVSPropertyOp7
 70
     1
102
RTVSPropertyOp8
 70
     1
102
RTVSPropertyOp9
 70
     1
102
RTVSPropertyOp10
 70
     1
102
RTVSPropertyOp11
 70
     1
102
RTVSPropertyOp12
 70
     1
102
RTVSPropertyOp13
 70
     1
102
RTVSPropertyOp14
 70
     1
102
RTVSPropertyOp15
 70
     1
102
RTVSPropertyOp16
 70
     1
102
RTVSPropertyOp17
 70
     1
102
RTVSPropertyOp18
 70
     1
102
RTVSPropertyOp19
 70
     1
102
RTVSPropertyOp20
 70
     1
102
RTVSPropertyOp21
 70
     1
102
RTVSPropertyOp22
 70
     1
102
RTVSPropertyOp23
 70
     1
102
RTVSPropertyOp24
 70
     1
102
RTVSPropertyOp25
 70
     1
102
RTVSPropertyOp26
 70
     1
102
RTVSPropertyOp27
 70
     1
  0
XRECORD
  5
9B6
102
{ACAD_REACTORS
330
9B5
102
}
330
9B5
100
AcDbXrecord
280
     1
102
RTVSPropertyOp0
 70
     1
102
RTVSPropertyOp1
 70
     1
102
RTVSPropertyOp2
 70
     1
102
RTVSPropertyOp3
 70
     1
102
RTVSPropertyOp4
 70
     1
102
RTVSPropertyOp5
 70
     1
102
RTVSPropertyOp6
 70
     1
102
RTVSPropertyOp7
 70
     1
102
RTVSPropertyOp8
 70
     1
102
RTVSPropertyOp9
 70
     1
102
RTVSPropertyOp10
 70
     1
102
RTVSPropertyOp11
 70
     1
102
RTVSPropertyOp12
 70
     1
102
RTVSPropertyOp13
 70
     1
102
RTVSPropertyOp14
 70
     1
102
RTVSPropertyOp15
 70
     1
102
RTVSPropertyOp16
 70
     1
102
RTVSPropertyOp17
 70
     1
102
RTVSPropertyOp18
 70
     1
102
RTVSPropertyOp19
 70
     1
102
RTVSPropertyOp20
 70
     1
102
RTVSPropertyOp21
 70
     1
102
RTVSPropertyOp22
 70
     1
102
RTVSPropertyOp23
 70
     1
102
RTVSPropertyOp24
 70
     1
102
RTVSPropertyOp25
 70
     1
102
RTVSPropertyOp26
 70
     1
102
RTVSPropertyOp27
 70
     1
  0
XRECORD
  5
99A
102
{ACAD_REACTORS
330
999
102
}
330
999
100
AcDbXrecord
280
     1
102
RTVSPropertyOp0
 70
     1
102
RTVSPropertyOp1
 70
     1
102
RTVSPropertyOp2
 70
     1
102
RTVSPropertyOp3
 70
     1
102
RTVSPropertyOp4
 70
     1
102
RTVSPropertyOp5
 70
     1
102
RTVSPropertyOp6
 70
     1
102
RTVSPropertyOp7
 70
     1
102
RTVSPropertyOp8
 70
     1
102
RTVSPropertyOp9
 70
     1
102
RTVSPropertyOp10
 70
     1
102
RTVSPropertyOp11
 70
     1
102
RTVSPropertyOp12
 70
     1
102
RTVSPropertyOp13
 70
     1
102
RTVSPropertyOp14
 70
     1
102
RTVSPropertyOp15
 70
     1
102
RTVSPropertyOp16
 70
     1
102
RTVSPropertyOp17
 70
     1
102
RTVSPropertyOp18
 70
     1
102
RTVSPropertyOp19
 70
     1
102
RTVSPropertyOp20
 70
     1
102
RTVSPropertyOp21
 70
     1
102
RTVSPropertyOp22
 70
     1
102
RTVSPropertyOp23
 70
     1
102
RTVSPropertyOp24
 70
     1
102
RTVSPropertyOp25
 70
     1
102
RTVSPropertyOp26
 70
     1
102
RTVSPropertyOp27
 70
     1
  0
XRECORD
  5
99C
102
{ACAD_REACTORS
330
99B
102
}
330
99B
100
AcDbXrecord
280
     1
102
RTVSPropertyOp0
 70
     1
102
RTVSPropertyOp1
 70
     1
102
RTVSPropertyOp2
 70
     1
102
RTVSPropertyOp3
 70
     1
102
RTVSPropertyOp4
 70
     1
102
RTVSPropertyOp5
 70
     1
102
RTVSPropertyOp6
 70
     1
102
RTVSPropertyOp7
 70
     1
102
RTVSPropertyOp8
 70
     1
102
RTVSPropertyOp9
 70
     1
102
RTVSPropertyOp10
 70
     1
102
RTVSPropertyOp11
 70
     1
102
RTVSPropertyOp12
 70
     1
102
RTVSPropertyOp13
 70
     1
102
RTVSPropertyOp14
 70
     1
102
RTVSPropertyOp15
 70
     1
102
RTVSPropertyOp16
 70
     1
102
RTVSPropertyOp17
 70
     1
102
RTVSPropertyOp18
 70
     1
102
RTVSPropertyOp19
 70
     1
102
RTVSPropertyOp20
 70
     1
102
RTVSPropertyOp21
 70
     1
102
RTVSPropertyOp22
 70
     1
102
RTVSPropertyOp23
 70
     1
102
RTVSPropertyOp24
 70
     1
102
RTVSPropertyOp25
 70
     1
102
RTVSPropertyOp26
 70
     1
102
RTVSPropertyOp27
 70
     1
  0
XRECORD
  5
99E
102
{ACAD_REACTORS
330
99D
102
}
330
99D
100
AcDbXrecord
280
     1
102
RTVSPropertyOp0
 70
     1
102
RTVSPropertyOp1
 70
     1
102
RTVSPropertyOp2
 70
     1
102
RTVSPropertyOp3
 70
     1
102
RTVSPropertyOp4
 70
     1
102
RTVSPropertyOp5
 70
     1
102
RTVSPropertyOp6
 70
     1
102
RTVSPropertyOp7
 70
     1
102
RTVSPropertyOp8
 70
     1
102
RTVSPropertyOp9
 70
     1
102
RTVSPropertyOp10
 70
     1
102
RTVSPropertyOp11
 70
     1
102
RTVSPropertyOp12
 70
     1
102
RTVSPropertyOp13
 70
     1
102
RTVSPropertyOp14
 70
     1
102
RTVSPropertyOp15
 70
     1
102
RTVSPropertyOp16
 70
     1
102
RTVSPropertyOp17
 70
     1
102
RTVSPropertyOp18
 70
     1
102
RTVSPropertyOp19
 70
     1
102
RTVSPropertyOp20
 70
     1
102
RTVSPropertyOp21
 70
     1
102
RTVSPropertyOp22
 70
     1
102
RTVSPropertyOp23
 70
     1
102
RTVSPropertyOp24
 70
     1
102
RTVSPropertyOp25
 70
     1
102
RTVSPropertyOp26
 70
     1
102
RTVSPropertyOp27
 70
     1
  0
XRECORD
  5
9A0
102
{ACAD_REACTORS
330
99F
102
}
330
99F
100
AcDbXrecord
280
     1
102
RTVSPropertyOp0
 70
     1
102
RTVSPropertyOp1
 70
     1
102
RTVSPropertyOp2
 70
     1
102
RTVSPropertyOp3
 70
     1
102
RTVSPropertyOp4
 70
     1
102
RTVSPropertyOp5
 70
     1
102
RTVSPropertyOp6
 70
     1
102
RTVSPropertyOp7
 70
     1
102
RTVSPropertyOp8
 70
     1
102
RTVSPropertyOp9
 70
     1
102
RTVSPropertyOp10
 70
     1
102
RTVSPropertyOp11
 70
     1
102
RTVSPropertyOp12
 70
     1
102
RTVSPropertyOp13
 70
     1
102
RTVSPropertyOp14
 70
     1
102
RTVSPropertyOp15
 70
     1
102
RTVSPropertyOp16
 70
     1
102
RTVSPropertyOp17
 70
     1
102
RTVSPropertyOp18
 70
     1
102
RTVSPropertyOp19
 70
     1
102
RTVSPropertyOp20
 70
     1
102
RTVSPropertyOp21
 70
     1
102
RTVSPropertyOp22
 70
     1
102
RTVSPropertyOp23
 70
     1
102
RTVSPropertyOp24
 70
     1
102
RTVSPropertyOp25
 70
     1
102
RTVSPropertyOp26
 70
     1
102
RTVSPropertyOp27
 70
     1
  0
XRECORD
  5
9B4
102
{ACAD_REACTORS
330
9B3
102
}
330
9B3
100
AcDbXrecord
280
     1
102
RTVSPropertyOp0
 70
     1
102
RTVSPropertyOp1
 70
     1
102
RTVSPropertyOp2
 70
     1
102
RTVSPropertyOp3
 70
     1
102
RTVSPropertyOp4
 70
     1
102
RTVSPropertyOp5
 70
     1
102
RTVSPropertyOp6
 70
     1
102
RTVSPropertyOp7
 70
     1
102
RTVSPropertyOp8
 70
     1
102
RTVSPropertyOp9
 70
     1
102
RTVSPropertyOp10
 70
     1
102
RTVSPropertyOp11
 70
     1
102
RTVSPropertyOp12
 70
     1
102
RTVSPropertyOp13
 70
     1
102
RTVSPropertyOp14
 70
     1
102
RTVSPropertyOp15
 70
     1
102
RTVSPropertyOp16
 70
     1
102
RTVSPropertyOp17
 70
     1
102
RTVSPropertyOp18
 70
     1
102
RTVSPropertyOp19
 70
     1
102
RTVSPropertyOp20
 70
     1
102
RTVSPropertyOp21
 70
     1
102
RTVSPropertyOp22
 70
     1
102
RTVSPropertyOp23
 70
     1
102
RTVSPropertyOp24
 70
     1
102
RTVSPropertyOp25
 70
     1
102
RTVSPropertyOp26
 70
     1
102
RTVSPropertyOp27
 70
     1
  0
XRECORD
  5
9AA
102
{ACAD_REACTORS
330
9A9
102
}
330
9A9
100
AcDbXrecord
280
     1
102
RTVSPropertyOp0
 70
     1
102
RTVSPropertyOp1
 70
     1
102
RTVSPropertyOp2
 70
     1
102
RTVSPropertyOp3
 70
     1
102
RTVSPropertyOp4
 70
     1
102
RTVSPropertyOp5
 70
     1
102
RTVSPropertyOp6
 70
     1
102
RTVSPropertyOp7
 70
     1
102
RTVSPropertyOp8
 70
     1
102
RTVSPropertyOp9
 70
     1
102
RTVSPropertyOp10
 70
     1
102
RTVSPropertyOp11
 70
     1
102
RTVSPropertyOp12
 70
     1
102
RTVSPropertyOp13
 70
     1
102
RTVSPropertyOp14
 70
     1
102
RTVSPropertyOp15
 70
     1
102
RTVSPropertyOp16
 70
     1
102
RTVSPropertyOp17
 70
     1
102
RTVSPropertyOp18
 70
     1
102
RTVSPropertyOp19
 70
     1
102
RTVSPropertyOp20
 70
     1
102
RTVSPropertyOp21
 70
     1
102
RTVSPropertyOp22
 70
     1
102
RTVSPropertyOp23
 70
     1
102
RTVSPropertyOp24
 70
     1
102
RTVSPropertyOp25
 70
     1
102
RTVSPropertyOp26
 70
     1
102
RTVSPropertyOp27
 70
     1
  0
XRECORD
  5
9B2
102
{ACAD_REACTORS
330
9B1
102
}
330
9B1
100
AcDbXrecord
280
     1
102
RTVSPropertyOp0
 70
     1
102
RTVSPropertyOp1
 70
     1
102
RTVSPropertyOp2
 70
     1
102
RTVSPropertyOp3
 70
     1
102
RTVSPropertyOp4
 70
     1
102
RTVSPropertyOp5
 70
     1
102
RTVSPropertyOp6
 70
     1
102
RTVSPropertyOp7
 70
     1
102
RTVSPropertyOp8
 70
     1
102
RTVSPropertyOp9
 70
     1
102
RTVSPropertyOp10
 70
     1
102
RTVSPropertyOp11
 70
     1
102
RTVSPropertyOp12
 70
     1
102
RTVSPropertyOp13
 70
     1
102
RTVSPropertyOp14
 70
     1
102
RTVSPropertyOp15
 70
     1
102
RTVSPropertyOp16
 70
     1
102
RTVSPropertyOp17
 70
     1
102
RTVSPropertyOp18
 70
     1
102
RTVSPropertyOp19
 70
     1
102
RTVSPropertyOp20
 70
     1
102
RTVSPropertyOp21
 70
     1
102
RTVSPropertyOp22
 70
     1
102
RTVSPropertyOp23
 70
     1
102
RTVSPropertyOp24
 70
     1
102
RTVSPropertyOp25
 70
     1
102
RTVSPropertyOp26
 70
     1
102
RTVSPropertyOp27
 70
     1
  0
ENDSEC
  0
EOF
