  0
SECTION
  2
HEADER
  9
$ACADVER
  1
AC1015
  9
$ACADMAINTVER
 70
     6
  9
$DWGCODEPAGE
  3
ANSI_1252
  9
$INSBASE
 10
0.0
 20
0.0
 30
0.0
  9
$EXTMIN
 10
0.0
 20
0.0
 30
0.0
  9
$EXTMAX
 10
25.0
 20
35.0
 30
0.0
  9
$LIMMIN
 10
0.0
 20
0.0
  9
$LIMMAX
 10
420.0
 20
297.0
  9
$ORTHOMODE
 70
     0
  9
$REGENMODE
 70
     1
  9
$FILLMODE
 70
     1
  9
$QTEXTMODE
 70
     0
  9
$MIRRTEXT
 70
     1
  9
$LTSCALE
 40
4.3
  9
$ATTMODE
 70
     1
  9
$TEXTSIZE
 40
2.5
  9
$TRACEWID
 40
1.0
  9
$TEXTSTYLE
  7
Standard
  9
$CLAYER
  8
0
  9
$CELTYPE
  6
ByLayer
  9
$CECOLOR
 62
   256
  9
$CELTSCALE
 40
1.0
  9
$DISPSILH
 70
     0
  9
$DIMSCALE
 40
1.0
  9
$DIMASZ
 40
2.5
  9
$DIMEXO
 40
0.625
  9
$DIMDLI
 40
3.75
  9
$DIMRND
 40
0.0
  9
$DIMDLE
 40
0.0
  9
$DIMEXE
 40
1.25
  9
$DIMTP
 40
0.0
  9
$DIMTM
 40
0.0
  9
$DIMTXT
 40
2.5
  9
$DIMCEN
 40
2.5
  9
$DIMTSZ
 40
0.0
  9
$DIMTOL
 70
     0
  9
$DIMLIM
 70
     0
  9
$DIMTIH
 70
     0
  9
$DIMTOH
 70
     0
  9
$DIMSE1
 70
     0
  9
$DIMSE2
 70
     0
  9
$DIMTAD
 70
     1
  9
$DIMZIN
 70
     8
  9
$DIMBLK
  1

  9
$DIMASO
 70
     1
  9
$DIMSHO
 70
     1
  9
$DIMPOST
  1

  9
$DIMAPOST
  1

  9
$DIMALT
 70
     0
  9
$DIMALTD
 70
     3
  9
$DIMALTF
 40
0.03937007874016
  9
$DIMLFAC
 40
1.0
  9
$DIMTOFL
 70
     1
  9
$DIMTVP
 40
0.0
  9
$DIMTIX
 70
     0
  9
$DIMSOXD
 70
     0
  9
$DIMSAH
 70
     0
  9
$DIMBLK1
  1

  9
$DIMBLK2
  1

  9
$DIMSTYLE
  2
ISO-25
  9
$DIMCLRD
 70
     0
  9
$DIMCLRE
 70
     0
  9
$DIMCLRT
 70
     0
  9
$DIMTFAC
 40
1.0
  9
$DIMGAP
 40
0.625
  9
$DIMJUST
 70
     0
  9
$DIMSD1
 70
     0
  9
$DIMSD2
 70
     0
  9
$DIMTOLJ
 70
     0
  9
$DIMTZIN
 70
     8
  9
$DIMALTZ
 70
     0
  9
$DIMALTTZ
 70
     0
  9
$DIMUPT
 70
     0
  9
$DIMDEC
 70
     2
  9
$DIMTDEC
 70
     2
  9
$DIMALTU
 70
     2
  9
$DIMALTTD
 70
     3
  9
$DIMTXSTY
  7
Standard
  9
$DIMAUNIT
 70
     0
  9
$DIMADEC
 70
     0
  9
$DIMALTRND
 40
0.0
  9
$DIMAZIN
 70
     0
  9
$DIMDSEP
 70
    44
  9
$DIMATFIT
 70
     3
  9
$DIMFRAC
 70
     0
  9
$DIMLDRBLK
  1

  9
$DIMLUNIT
 70
     2
  9
$DIMLWD
 70
    -2
  9
$DIMLWE
 70
    -2
  9
$DIMTMOVE
 70
     0
  9
$LUNITS
 70
     2
  9
$LUPREC
 70
     4
  9
$SKETCHINC
 40
1.0
  9
$FILLETRAD
 40
10.0
  9
$AUNITS
 70
     0
  9
$AUPREC
 70
     0
  9
$MENU
  1
.
  9
$ELEVATION
 40
0.0
  9
$PELEVATION
 40
0.0
  9
$THICKNESS
 40
0.0
  9
$LIMCHECK
 70
     0
  9
$CHAMFERA
 40
10.0
  9
$CHAMFERB
 40
10.0
  9
$CHAMFERC
 40
20.0
  9
$CHAMFERD
 40
0.0
  9
$SKPOLY
 70
     0
  9
$TDCREATE
 40
2458577.451388889
  9
$TDUCREATE
 40
2458577.368055556
  9
$TDUPDATE
 40
2458577.454861111
  9
$TDUUPDATE
 40
2458577.371527778
  9
$TDINDWG
 40
0.0000000116
  9
$TDUSRTIMER
 40
0.0000000116
  9
$USRTIMER
 70
     1
  9
$ANGBASE
 50
0.0
  9
$ANGDIR
 70
     0
  9
$PDMODE
 70
     0
  9
$PDSIZE
 40
0.0
  9
$PLINEWID
 40
0.0
  9
$SPLFRAME
 70
     0
  9
$SPLINETYPE
 70
     6
  9
$SPLINESEGS
 70
     8
  9
$HANDSEED
  5
C27
  9
$SURFTAB1
 70
     6
  9
$SURFTAB2
 70
     6
  9
$SURFTYPE
 70
     6
  9
$SURFU
 70
     6
  9
$SURFV
 70
     6
  9
$UCSBASE
  2

  9
$UCSNAME
  2

  9
$UCSORG
 10
0.0
 20
0.0
 30
0.0
  9
$UCSXDIR
 10
1.0
 20
0.0
 30
0.0
  9
$UCSYDIR
 10
0.0
 20
1.0
 30
0.0
  9
$UCSORTHOREF
  2

  9
$UCSORTHOVIEW
 70
     0
  9
$UCSORGTOP
 10
0.0
 20
0.0
 30
0.0
  9
$UCSORGBOTTOM
 10
0.0
 20
0.0
 30
0.0
  9
$UCSORGLEFT
 10
0.0
 20
0.0
 30
0.0
  9
$UCSORGRIGHT
 10
0.0
 20
0.0
 30
0.0
  9
$UCSORGFRONT
 10
0.0
 20
0.0
 30
0.0
  9
$UCSORGBACK
 10
0.0
 20
0.0
 30
0.0
  9
$PUCSBASE
  2

  9
$PUCSNAME
  2

  9
$PUCSORG
 10
0.0
 20
0.0
 30
0.0
  9
$PUCSXDIR
 10
1.0
 20
0.0
 30
0.0
  9
$PUCSYDIR
 10
0.0
 20
1.0
 30
0.0
  9
$PUCSORTHOREF
  2

  9
$PUCSORTHOVIEW
 70
     0
  9
$PUCSORGTOP
 10
0.0
 20
0.0
 30
0.0
  9
$PUCSORGBOTTOM
 10
0.0
 20
0.0
 30
0.0
  9
$PUCSORGLEFT
 10
0.0
 20
0.0
 30
0.0
  9
$PUCSORGRIGHT
 10
0.0
 20
0.0
 30
0.0
  9
$PUCSORGFRONT
 10
0.0
 20
0.0
 30
0.0
  9
$PUCSORGBACK
 10
0.0
 20
0.0
 30
0.0
  9
$USERI1
 70
     0
  9
$USERI2
 70
     0
  9
$USERI3
 70
     0
  9
$USERI4
 70
     0
  9
$USERI5
 70
     0
  9
$USERR1
 40
0.0
  9
$USERR2
 40
0.0
  9
$USERR3
 40
0.0
  9
$USERR4
 40
0.0
  9
$USERR5
 40
0.0
  9
$WORLDVIEW
 70
     1
  9
$SHADEDGE
 70
     3
  9
$SHADEDIF
 70
    70
  9
$TILEMODE
 70
     1
  9
$MAXACTVP
 70
    64
  9
$PINSBASE
 10
0.0
 20
0.0
 30
0.0
  9
$PLIMCHECK
 70
     0
  9
$PEXTMIN
 10
1.000000000000000E+20
 20
1.000000000000000E+20
 30
1.000000000000000E+20
  9
$PEXTMAX
 10
-1.000000000000000E+20
 20
-1.000000000000000E+20
 30
-1.000000000000000E+20
  9
$PLIMMIN
 10
0.0
 20
0.0
  9
$PLIMMAX
 10
420.0
 20
297.0
  9
$UNITMODE
 70
     0
  9
$VISRETAIN
 70
     1
  9
$PLINEGEN
 70
     0
  9
$PSLTSCALE
 70
     1
  9
$TREEDEPTH
 70
  3020
  9
$CMLSTYLE
  2
Standard
  9
$CMLJUST
 70
     0
  9
$CMLSCALE
 40
20.0
  9
$PROXYGRAPHICS
 70
     1
  9
$MEASUREMENT
 70
     1
  9
$CELWEIGHT
370
    -1
  9
$ENDCAPS
280
     0
  9
$JOINSTYLE
280
     0
  9
$LWDISPLAY
290
     0
  9
$INSUNITS
 70
     4
  9
$HYPERLINKBASE
  1

  9
$STYLESHEET
  1

  9
$XEDIT
290
     1
  9
$CEPSNTYPE
380
     0
  9
$PSTYLEMODE
290
     1
  9
$FINGERPRINTGUID
  2
{964BFE9F-BFBC-4145-BBF6-E1E6C5F31687}
  9
$VERSIONGUID
  2
{FAEB1C32-E019-11D5-929B-00C0DF256EC4}
  9
$EXTNAMES
290
     1
  9
$PSVPSCALE
 40
0.0
  9
$OLESTARTUP
290
     0
  0
ENDSEC
  0
SECTION
  2
CLASSES
  0
CLASS
  1
ACDBDICTIONARYWDFLT
  2
AcDbDictionaryWithDefault
  3
ObjectDBX Classes
 90
        0
280
     0
281
     0
  0
CLASS
  1
VISUALSTYLE
  2
AcDbVisualStyle
  3
ObjectDBX Classes
 90
     4095
280
     0
281
     0
  0
CLASS
  1
MATERIAL
  2
AcDbMaterial
  3
ObjectDBX Classes
 90
     1153
280
     0
281
     0
  0
CLASS
  1
SCALE
  2
AcDbScale
  3
ObjectDBX Classes
 90
     1153
280
     0
281
     0
  0
CLASS
  1
DICTIONARYVAR
  2
AcDbDictionaryVar
  3
ObjectDBX Classes
 90
        0
280
     0
281
     0
  0
CLASS
  1
ACDBPLACEHOLDER
  2
AcDbPlaceHolder
  3
ObjectDBX Classes
 90
        0
280
     0
281
     0
  0
CLASS
  1
LAYOUT
  2
AcDbLayout
  3
ObjectDBX Classes
 90
        0
280
     0
281
     0
  0
ENDSEC
  0
SECTION
  2
TABLES
  0
TABLE
  2
VPORT
  5
8
330
0
100
AcDbSymbolTable
 70
     1
  0
VPORT
  5
29
330
8
100
AcDbSymbolTableRecord
100
AcDbViewportTableRecord
  2
*Active
 70
     0
 10
0.0
 20
0.0
 11
1.0
 21
1.0
 12
11.26
 22
4.5
 13
0.0
 23
0.0
 14
10.0
 24
10.0
 15
10.0
 25
10.0
 16
0.0
 26
0.0
 36
1.0
 17
0.0
 27
0.0
 37
0.0
 40
9.0
 41
2.503333333333333
 42
50.0
 43
0.0
 44
0.0
 50
0.0
 51
0.0
 71
     0
 72
   100
 73
     1
 74
     3
 75
     0
 76
     0
 77
     0
 78
     0
281
     0
 65
     1
110
0.0
120
0.0
130
0.0
111
1.0
121
0.0
131
0.0
112
0.0
122
1.0
132
0.0
 79
     0
146
0.0
  0
ENDTAB
  0
TABLE
  2
LTYPE
  5
5
330
0
100
AcDbSymbolTable
 70
    10
  0
LTYPE
  5
14
330
5
100
AcDbSymbolTableRecord
100
AcDbLinetypeTableRecord
  2
ByBlock
 70
     0
  3

 72
    65
 73
     0
 40
0.0
  0
LTYPE
  5
15
330
5
100
AcDbSymbolTableRecord
100
AcDbLinetypeTableRecord
  2
ByLayer
 70
     0
  3

 72
    65
 73
     0
 40
0.0
  0
LTYPE
  5
16
330
5
100
AcDbSymbolTableRecord
100
AcDbLinetypeTableRecord
  2
Continuous
 70
     0
  3
Solid line
 72
    65
 73
     0
 40
0.0
  0
LTYPE
  5
45
330
5
100
AcDbSymbolTableRecord
100
AcDbLinetypeTableRecord
  2
phl_thick
 70
     0
  3
THICK
 72
    65
 73
     0
 40
0.0
  0
LTYPE
  5
3E1
330
5
100
AcDbSymbolTableRecord
100
AcDbLinetypeTableRecord
  2
ls_CUT
 70
     0
  3
THICK
 72
    65
 73
     0
 40
0.0
  0
LTYPE
  5
3E7
330
5
100
AcDbSymbolTableRecord
100
AcDbLinetypeTableRecord
  2
ls1
 70
     0
  3
THICK
 72
    65
 73
     0
 40
0.0
  0
LTYPE
  5
3ED
330
5
100
AcDbSymbolTableRecord
100
AcDbLinetypeTableRecord
  2
NOCUT
 70
     0
  3
THICK
 72
    65
 73
     0
 40
0.0
  0
LTYPE
  5
3F1
330
5
100
AcDbSymbolTableRecord
100
AcDbLinetypeTableRecord
  2
SK1
 70
     0
  3
THICK
 72
    65
 73
     0
 40
0.0
  0
LTYPE
  5
3F9
330
5
100
AcDbSymbolTableRecord
100
AcDbLinetypeTableRecord
  2
ls_SK2
 70
     0
  3
THIN
 72
    65
 73
     0
 40
0.0
  0
LTYPE
  5
4A5
330
5
100
AcDbSymbolTableRecord
100
AcDbLinetypeTableRecord
  2
ls_2
 70
     0
  3
THIN
 72
    65
 73
     0
 40
0.0
  0
LTYPE
  5
5B5
330
5
100
AcDbSymbolTableRecord
100
AcDbLinetypeTableRecord
  2
LONGDASH_DASH
 70
     0
  3
THIN_DASHDOT
 72
    65
 73
     4
 40
0.85
 49
0.4
 74
     0
 49
-0.2
 74
     0
 49
0.05
 74
     0
 49
-0.2
 74
     0
  0
LTYPE
  5
5F5
330
5
100
AcDbSymbolTableRecord
100
AcDbLinetypeTableRecord
  2
ls_SK1
 70
     0
  3
THICK
 72
    65
 73
     0
 40
0.0
  0
ENDTAB
  0
TABLE
  2
LAYER
  5
2
330
0
100
AcDbSymbolTable
 70
    10
  0
LAYER
  5
10
330
2
100
AcDbSymbolTableRecord
100
AcDbLayerTableRecord
  2
0
 70
     0
 62
     7
  6
Continuous
370
    -3
390
F
  0
LAYER
  5
44
330
2
100
AcDbSymbolTableRecord
100
AcDbLayerTableRecord
  2
1
 70
     0
 62
4
  6
CONTINUOUS
370
50
370
    -3
390
F
  0
LAYER
  5
3E0
330
2
100
AcDbSymbolTableRecord
100
AcDbLayerTableRecord
  2
CUT
 70
     0
 62
1
  6
CONTINUOUS
370
25
370
    -3
390
F
  0
LAYER
  5
3E6
330
2
100
AcDbSymbolTableRecord
100
AcDbLayerTableRecord
  2
NOCUT
 70
     0
 62
7
  6
CONTINUOUS
370
25
370
    -3
390
F
  0
LAYER
  5
3F0
330
2
100
AcDbSymbolTableRecord
100
AcDbLayerTableRecord
  2
SK1
 70
     0
 62
4
  6
CONTINUOUS
370
50
370
    -3
390
F
  0
LAYER
  5
3F8
330
2
100
AcDbSymbolTableRecord
100
AcDbLayerTableRecord
  2
SK2
 70
     0
 62
7
  6
CONTINUOUS
370
25
370
    -3
390
F
  0
LAYER
  5
4A4
330
2
100
AcDbSymbolTableRecord
100
AcDbLayerTableRecord
  2
2
 70
     0
 62
7
  6
CONTINUOUS
370
25
370
    -3
390
F
  0
LAYER
  5
5B4
330
2
100
AcDbSymbolTableRecord
100
AcDbLayerTableRecord
  2
4
 70
     0
 62
2
  6
LONGDASH_DASH
370
25
370
    -3
390
F
  0
LAYER
  5
5B7
330
2
100
AcDbSymbolTableRecord
100
AcDbLayerTableRecord
  2
SK4
 70
     0
 62
2
  6
LONGDASH_DASH
370
25
370
    -3
390
F
  0
LAYER
  5
62E
330
2
100
AcDbSymbolTableRecord
100
AcDbLayerTableRecord
  2
SK6
 70
     0
 62
5
  6
CONTINUOUS
370
25
370
    -3
390
F
  0
ENDTAB
  0
TABLE
  2
STYLE
  5
3
330
0
100
AcDbSymbolTable
 70
     1
  0
STYLE
  5
11
330
3
100
AcDbSymbolTableRecord
100
AcDbTextStyleTableRecord
  2
Standard
 70
     0
 40
0.0
 41
1.0
 50
0.0
 71
     0
 42
2.5
  3
Monospac821 BT
  4

  0
ENDTAB
  0
TABLE
  2
VIEW
  5
6
330
0
100
AcDbSymbolTable
 70
     0
  0
ENDTAB
  0
TABLE
  2
UCS
  5
7
330
0
100
AcDbSymbolTable
 70
     0
  0
ENDTAB
  0
TABLE
  2
APPID
  5
9
330
0
100
AcDbSymbolTable
 70
     2
  0
APPID
  5
12
330
9
100
AcDbSymbolTableRecord
100
AcDbRegAppTableRecord
  2
ACAD
 70
     0
  0
APPID
  5
3F
330
9
100
AcDbSymbolTableRecord
100
AcDbRegAppTableRecord
  2
ccLab
 70
     0
  0
ENDTAB
  0
TABLE
  2
DIMSTYLE
  5
A
330
0
100
AcDbSymbolTable
 70
     1
100
AcDbDimStyleTable
  0
DIMSTYLE
105
27
330
A
100
AcDbSymbolTableRecord
100
AcDbDimStyleTableRecord
  2
ISO-25
 70
     0
 41
2.5
 42
0.625
 43
3.75
 44
1.25
 73
     0
 74
     0
 77
     1
 78
     8
140
2.5
141
2.5
143
0.03937007874016
147
0.625
171
     3
172
     1
271
     2
272
     2
274
     3
278
    44
283
     0
284
     8
340
11
  0
ENDTAB
  0
TABLE
  2
BLOCK_RECORD
  5
1
330
0
100
AcDbSymbolTable
 70
     2
  0
BLOCK_RECORD
  5
1F
330
1
100
AcDbSymbolTableRecord
100
AcDbBlockTableRecord
  2
*Model_Space
340
22
  0
BLOCK_RECORD
  5
1B
330
1
100
AcDbSymbolTableRecord
100
AcDbBlockTableRecord
  2
*Paper_Space
340
1E
  0
BLOCK_RECORD
  5
23
330
1
100
AcDbSymbolTableRecord
100
AcDbBlockTableRecord
  2
*Paper_Space0
340
26
  0
ENDTAB
  0
ENDSEC
  0
SECTION
  2
BLOCKS
  0
BLOCK
  5
20
330
1F
100
AcDbEntity
  8
0
100
AcDbBlockBegin
  2
*Model_Space
 70
     0
 10
0.0
 20
0.0
 30
0.0
  3
*Model_Space
  1

  0
ENDBLK
  5
21
330
1F
100
AcDbEntity
  8
0
100
AcDbBlockEnd
  0
BLOCK
  5
1C
330
1B
100
AcDbEntity
 67
     1
  8
0
100
AcDbBlockBegin
  2
*Paper_Space
 70
     0
 10
0.0
 20
0.0
 30
0.0
  3
*Paper_Space
  1

  0
ENDBLK
  5
1D
330
1B
100
AcDbEntity
 67
     1
  8
0
100
AcDbBlockEnd
  0
BLOCK
  5
24
330
23
100
AcDbEntity
  8
0
100
AcDbBlockBegin
  2
*Paper_Space0
 70
     0
 10
0.0
 20
0.0
 30
0.0
  3
*Paper_Space0
  1

  0
ENDBLK
  5
25
330
23
100
AcDbEntity
  8
0
100
AcDbBlockEnd
  0
ENDSEC
  0
SECTION
  2
ENTITIES
  0
LINE
  5
638
330
1F
100
AcDbEntity
  8
1
  6
CONTINUOUS
370
50
 62
4
100
AcDbLine
 10
119.424309
 20
-0.7975639999999999
 30
0.0
 11
119.424202
 21
-0.69112
 31
0.0
  0
LINE
  5
639
330
1F
100
AcDbEntity
  8
1
  6
CONTINUOUS
370
50
 62
4
100
AcDbLine
 10
119.424614
 20
-0.900775
 30
0.0
 11
119.424309
 21
-0.7975639999999999
 31
0.0
  0
LINE
  5
63A
330
1F
100
AcDbEntity
  8
1
  6
CONTINUOUS
370
50
 62
4
100
AcDbLine
 10
119.42514
 20
-0.999018
 30
0.0
 11
119.424614
 21
-0.900775
 31
0.0
  0
LINE
  5
63B
330
1F
100
AcDbEntity
  8
1
  6
CONTINUOUS
370
50
 62
4
100
AcDbLine
 10
119.425873
 20
-1.090829
 30
0.0
 11
119.42514
 21
-0.999018
 31
0.0
  0
LINE
  5
63C
330
1F
100
AcDbEntity
  8
1
  6
CONTINUOUS
370
50
 62
4
100
AcDbLine
 10
119.426819
 20
-1.174929
 30
0.0
 11
119.425873
 21
-1.090829
 31
0.0
  0
LINE
  5
63D
330
1F
100
AcDbEntity
  8
1
  6
CONTINUOUS
370
50
 62
4
100
AcDbLine
 10
119.427963
 20
-1.250299
 30
0.0
 11
119.426819
 21
-1.174929
 31
0.0
  0
LINE
  5
63E
330
1F
100
AcDbEntity
  8
1
  6
CONTINUOUS
370
50
 62
4
100
AcDbLine
 10
119.429283
 20
-1.316176
 30
0.0
 11
119.427963
 21
-1.250299
 31
0.0
  0
LINE
  5
63F
330
1F
100
AcDbEntity
  8
1
  6
CONTINUOUS
370
50
 62
4
100
AcDbLine
 10
119.430771
 20
-1.371893
 30
0.0
 11
119.429283
 21
-1.316176
 31
0.0
  0
LINE
  5
640
330
1F
100
AcDbEntity
  8
1
  6
CONTINUOUS
370
50
 62
4
100
AcDbLine
 10
119.432388
 20
-1.417223
 30
0.0
 11
119.430771
 21
-1.371893
 31
0.0
  0
LINE
  5
641
330
1F
100
AcDbEntity
  8
1
  6
CONTINUOUS
370
50
 62
4
100
AcDbLine
 10
119.454048
 20
1.329548
 30
0.0
 11
119.452667
 21
1.360264
 31
0.0
  0
LINE
  5
642
330
1F
100
AcDbEntity
  8
1
  6
CONTINUOUS
370
50
 62
4
100
AcDbLine
 10
119.43412
 20
-1.452367
 30
0.0
 11
119.432388
 21
-1.417223
 31
0.0
  0
LINE
  5
643
330
1F
100
AcDbEntity
  8
1
  6
CONTINUOUS
370
50
 62
4
100
AcDbLine
 10
119.452667
 20
1.360264
 30
0.0
 11
119.451279
 21
1.388352
 31
0.0
  0
LINE
  5
644
330
1F
100
AcDbEntity
  8
1
  6
CONTINUOUS
370
50
 62
4
100
AcDbLine
 10
119.451279
 20
1.388352
 30
0.0
 11
119.449875
 21
1.413654
 31
0.0
  0
LINE
  5
645
330
1F
100
AcDbEntity
  8
1
  6
CONTINUOUS
370
50
 62
4
100
AcDbLine
 10
119.449875
 20
1.413654
 30
0.0
 11
119.448463
 21
1.436011
 31
0.0
  0
LINE
  5
646
330
1F
100
AcDbEntity
  8
1
  6
CONTINUOUS
370
50
 62
4
100
AcDbLine
 10
119.491043
 20
1.028531
 30
0.0
 11
119.488617
 21
1.065214
 31
0.0
  0
LINE
  5
647
330
1F
100
AcDbEntity
  8
1
  6
CONTINUOUS
370
50
 62
4
100
AcDbLine
 10
119.448463
 20
1.436011
 30
0.0
 11
119.44706
 21
1.455268
 31
0.0
  0
LINE
  5
648
330
1F
100
AcDbEntity
  8
1
  6
CONTINUOUS
370
50
 62
4
100
AcDbLine
 10
119.436028
 20
-1.478162
 30
0.0
 11
119.43412
 21
-1.452367
 31
0.0
  0
LINE
  5
649
330
1F
100
AcDbEntity
  8
1
  6
CONTINUOUS
370
50
 62
4
100
AcDbLine
 10
119.44706
 20
1.455268
 30
0.0
 11
119.445663
 21
1.471265
 31
0.0
  0
LINE
  5
64A
330
1F
100
AcDbEntity
  8
1
  6
CONTINUOUS
370
50
 62
4
100
AcDbLine
 10
119.445663
 20
1.471265
 30
0.0
 11
119.444283
 21
1.483847
 31
0.0
  0
LINE
  5
64B
330
1F
100
AcDbEntity
  8
1
  6
CONTINUOUS
370
50
 62
4
100
AcDbLine
 10
119.922707
 20
-0.062154
 30
0.0
 11
119.921371
 21
-0.050088
 31
0.0
  0
LINE
  5
64C
330
1F
100
AcDbEntity
  8
1
  6
CONTINUOUS
370
50
 62
4
100
AcDbLine
 10
119.438095
 20
-1.494165
 30
0.0
 11
119.436028
 21
-1.478162
 31
0.0
  0
LINE
  5
64D
330
1F
100
AcDbEntity
  8
1
  6
CONTINUOUS
370
50
 62
4
100
AcDbLine
 10
119.921371
 20
-0.050088
 30
0.0
 11
119.919662
 21
-0.037648
 31
0.0
  0
LINE
  5
64E
330
1F
100
AcDbEntity
  8
1
  6
CONTINUOUS
370
50
 62
4
100
AcDbLine
 10
119.444283
 20
1.483847
 30
0.0
 11
119.442924
 21
1.492854
 31
0.0
  0
LINE
  5
64F
330
1F
100
AcDbEntity
  8
1
  6
CONTINUOUS
370
50
 62
4
100
AcDbLine
 10
119.919662
 20
-0.037648
 30
0.0
 11
119.917557
 21
-0.024732
 31
0.0
  0
LINE
  5
650
330
1F
100
AcDbEntity
  8
1
  6
CONTINUOUS
370
50
 62
4
100
AcDbLine
 10
119.488617
 20
1.065214
 30
0.0
 11
119.48259
 21
1.102002
 31
0.0
  0
LINE
  5
651
330
1F
100
AcDbEntity
  8
1
  6
CONTINUOUS
370
50
 62
4
100
AcDbLine
 10
119.917557
 20
-0.024732
 30
0.0
 11
119.915024
 21
-0.011229
 31
0.0
  0
LINE
  5
652
330
1F
100
AcDbEntity
  8
1
  6
CONTINUOUS
370
50
 62
4
100
AcDbLine
 10
119.515457
 20
-0.335234
 30
0.0
 11
119.510979
 21
-0.31165
 31
0.0
  0
LINE
  5
653
330
1F
100
AcDbEntity
  8
1
  6
CONTINUOUS
370
50
 62
4
100
AcDbLine
 10
119.915024
 20
-0.011229
 30
0.0
 11
119.912025
 21
0.002989
 31
0.0
  0
LINE
  5
654
330
1F
100
AcDbEntity
  8
1
  6
CONTINUOUS
370
50
 62
4
100
AcDbLine
 10
119.912025
 20
0.002989
 30
0.0
 11
119.908516
 21
0.018069
 31
0.0
  0
LINE
  5
655
330
1F
100
AcDbEntity
  8
1
  6
CONTINUOUS
370
50
 62
4
100
AcDbLine
 10
119.48259
 20
1.102002
 30
0.0
 11
119.473419
 21
1.138639
 31
0.0
  0
LINE
  5
656
330
1F
100
AcDbEntity
  8
1
  6
CONTINUOUS
370
50
 62
4
100
AcDbLine
 10
119.442924
 20
1.492854
 30
0.0
 11
119.441589
 21
1.498159
 31
0.0
  0
LINE
  5
657
330
1F
100
AcDbEntity
  8
1
  6
CONTINUOUS
370
50
 62
4
100
AcDbLine
 10
119.908516
 20
0.018069
 30
0.0
 11
119.904427
 21
0.034184
 31
0.0
  0
LINE
  5
658
330
1F
100
AcDbEntity
  8
1
  6
CONTINUOUS
370
50
 62
4
100
AcDbLine
 10
119.908417
 20
0.034177
 30
0.0
 11
119.896805
 21
0.075096
 31
0.0
  0
LINE
  5
659
330
1F
100
AcDbEntity
  8
1
  6
CONTINUOUS
370
50
 62
4
100
AcDbLine
 10
119.896805
 20
0.075096
 30
0.0
 11
119.880615
 21
0.12555
 31
0.0
  0
LINE
  5
65A
330
1F
100
AcDbEntity
  8
1
  6
CONTINUOUS
370
50
 62
4
100
AcDbLine
 10
119.510979
 20
-0.31165
 30
0.0
 11
119.502571
 21
-0.286202
 31
0.0
  0
LINE
  5
65B
330
1F
100
AcDbEntity
  8
1
  6
CONTINUOUS
370
50
 62
4
100
AcDbLine
 10
119.880615
 20
0.12555
 30
0.0
 11
119.857658
 21
0.190957
 31
0.0
  0
LINE
  5
65C
330
1F
100
AcDbEntity
  8
1
  6
CONTINUOUS
370
50
 62
4
100
AcDbLine
 10
120.0
 20
0.0
 30
0.0
 11
119.441574
 21
1.498264
 31
0.0
  0
LINE
  5
65D
330
1F
100
AcDbEntity
  8
1
  6
CONTINUOUS
370
50
 62
4
100
AcDbLine
 10
119.857658
 20
0.190957
 30
0.0
 11
119.823822
 21
0.281216
 31
0.0
  0
LINE
  5
65E
330
1F
100
AcDbEntity
  8
1
  6
CONTINUOUS
370
50
 62
4
100
AcDbLine
 10
119.440285
 20
-1.5
 30
0.0
 11
119.438095
 21
-1.494165
 31
0.0
  0
LINE
  5
65F
330
1F
100
AcDbEntity
  8
1
  6
CONTINUOUS
370
50
 62
4
100
AcDbLine
 10
119.823822
 20
0.281216
 30
0.0
 11
119.770584
 21
0.416716
 31
0.0
  0
LINE
  5
660
330
1F
100
AcDbEntity
  8
1
  6
CONTINUOUS
370
50
 62
4
100
AcDbLine
 10
119.473419
 20
1.138639
 30
0.0
 11
119.470673
 21
1.145511
 31
0.0
  0
LINE
  5
661
330
1F
100
AcDbEntity
  8
1
  6
CONTINUOUS
370
50
 62
4
100
AcDbLine
 10
119.470673
 20
1.145511
 30
0.0
 11
119.467911
 21
1.152361
 31
0.0
  0
LINE
  5
662
330
1F
100
AcDbEntity
  8
1
  6
CONTINUOUS
370
50
 62
4
100
AcDbLine
 10
119.467911
 20
1.152361
 30
0.0
 11
119.465141
 21
1.159191
 31
0.0
  0
LINE
  5
663
330
1F
100
AcDbEntity
  8
1
  6
CONTINUOUS
370
50
 62
4
100
AcDbLine
 10
119.770584
 20
0.416716
 30
0.0
 11
119.676926
 21
0.6475139999999999
 31
0.0
  0
LINE
  5
664
330
1F
100
AcDbEntity
  8
1
  6
CONTINUOUS
370
50
 62
4
100
AcDbLine
 10
119.465141
 20
1.159191
 30
0.0
 11
119.462372
 21
1.166
 31
0.0
  0
LINE
  5
665
330
1F
100
AcDbEntity
  8
1
  6
CONTINUOUS
370
50
 62
4
100
AcDbLine
 10
119.462372
 20
1.166
 30
0.0
 11
119.459602
 21
1.17279
 31
0.0
  0
LINE
  5
666
330
1F
100
AcDbEntity
  8
1
  6
CONTINUOUS
370
50
 62
4
100
AcDbLine
 10
119.459602
 20
1.17279
 30
0.0
 11
119.456833
 21
1.179559
 31
0.0
  0
LINE
  5
667
330
1F
100
AcDbEntity
  8
1
  6
CONTINUOUS
370
50
 62
4
100
AcDbLine
 10
120.0
 20
0.0
 30
0.0
 11
119.454048
 21
1.329548
 31
0.0
  0
LINE
  5
668
330
1F
100
AcDbEntity
  8
1
  6
CONTINUOUS
370
50
 62
4
100
AcDbLine
 10
119.456833
 20
1.179559
 30
0.0
 11
119.454048
 21
1.186304
 31
0.0
  0
LINE
  5
669
330
1F
100
AcDbEntity
  8
1
  6
CONTINUOUS
370
50
 62
4
100
AcDbLine
 10
119.676926
 20
0.6475139999999999
 30
0.0
 11
119.473419
 21
1.138639
 31
0.0
  0
LINE
  5
66A
330
1F
100
AcDbEntity
  8
1
  6
CONTINUOUS
370
50
 62
4
100
AcDbLine
 10
119.441589
 20
1.498159
 30
0.0
 11
119.441368
 21
1.498684
 31
0.0
  0
LINE
  5
66B
330
1F
100
AcDbEntity
  8
1
  6
CONTINUOUS
370
50
 62
4
100
AcDbLine
 10
119.502571
 20
-0.286202
 30
0.0
 11
119.491333
 21
-0.259875
 31
0.0
  0
LINE
  5
66C
330
1F
100
AcDbEntity
  8
1
  6
CONTINUOUS
370
50
 62
4
100
AcDbLine
 10
119.491333
 20
-0.259875
 30
0.0
 11
119.477478
 21
-0.232013
 31
0.0
  0
LINE
  5
66D
330
1F
100
AcDbEntity
  8
1
  6
CONTINUOUS
370
50
 62
4
100
AcDbLine
 10
119.441368
 20
1.498684
 30
0.0
 11
119.441154
 21
1.499108
 31
0.0
  0
LINE
  5
66E
330
1F
100
AcDbEntity
  8
1
  6
CONTINUOUS
370
50
 62
4
100
AcDbLine
 10
119.477478
 20
-0.232013
 30
0.0
 11
119.461174
 21
-0.202489
 31
0.0
  0
LINE
  5
66F
330
1F
100
AcDbEntity
  8
1
  6
CONTINUOUS
370
50
 62
4
100
AcDbLine
 10
119.461174
 20
-0.202489
 30
0.0
 11
119.442741
 21
-0.171571
 31
0.0
  0
LINE
  5
670
330
1F
100
AcDbEntity
  8
1
  6
CONTINUOUS
370
50
 62
4
100
AcDbLine
 10
119.442741
 20
-0.171571
 30
0.0
 11
119.422493
 21
-0.139529
 31
0.0
  0
LINE
  5
671
330
1F
100
AcDbEntity
  8
1
  6
CONTINUOUS
370
50
 62
4
100
AcDbLine
 10
119.422493
 20
-0.139529
 30
0.0
 11
119.400658
 21
-0.106511
 31
0.0
  0
LINE
  5
672
330
1F
100
AcDbEntity
  8
1
  6
CONTINUOUS
370
50
 62
4
100
AcDbLine
 10
119.441154
 20
1.499108
 30
0.0
 11
119.440933
 21
1.499432
 31
0.0
  0
LINE
  5
673
330
1F
100
AcDbEntity
  8
1
  6
CONTINUOUS
370
50
 62
4
100
AcDbLine
 10
119.400658
 20
-0.106511
 30
0.0
 11
119.377022
 21
-0.072038
 31
0.0
  0
LINE
  5
674
330
1F
100
AcDbEntity
  8
1
  6
CONTINUOUS
370
50
 62
4
100
AcDbLine
 10
119.377022
 20
-0.072038
 30
0.0
 11
119.351624
 21
-0.036099
 31
0.0
  0
LINE
  5
675
330
1F
100
AcDbEntity
  8
1
  6
CONTINUOUS
370
50
 62
4
100
AcDbLine
 10
119.351624
 20
-0.036099
 30
0.0
 11
119.32457
 21
0.001218
 31
0.0
  0
LINE
  5
676
330
1F
100
AcDbEntity
  8
1
  6
CONTINUOUS
370
50
 62
4
100
AcDbLine
 10
119.32457
 20
0.001218
 30
0.0
 11
119.295967
 21
0.039825
 31
0.0
  0
LINE
  5
677
330
1F
100
AcDbEntity
  8
1
  6
CONTINUOUS
370
50
 62
4
100
AcDbLine
 10
119.295967
 20
0.039825
 30
0.0
 11
119.26593
 21
0.079634
 31
0.0
  0
LINE
  5
678
330
1F
100
AcDbEntity
  8
1
  6
CONTINUOUS
370
50
 62
4
100
AcDbLine
 10
119.26593
 20
0.079634
 30
0.0
 11
119.234558
 21
0.120558
 31
0.0
  0
LINE
  5
679
330
1F
100
AcDbEntity
  8
1
  6
CONTINUOUS
370
50
 62
4
100
AcDbLine
 10
119.234558
 20
0.120558
 30
0.0
 11
119.201965
 21
0.162508
 31
0.0
  0
LINE
  5
67A
330
1F
100
AcDbEntity
  8
1
  6
CONTINUOUS
370
50
 62
4
100
AcDbLine
 10
119.201965
 20
0.162508
 30
0.0
 11
119.168221
 21
0.205439
 31
0.0
  0
LINE
  5
67B
330
1F
100
AcDbEntity
  8
1
  6
CONTINUOUS
370
50
 62
4
100
AcDbLine
 10
119.168221
 20
0.205439
 30
0.0
 11
119.133224
 21
0.249514
 31
0.0
  0
LINE
  5
67C
330
1F
100
AcDbEntity
  8
1
  6
CONTINUOUS
370
50
 62
4
100
AcDbLine
 10
119.133224
 20
0.249514
 30
0.0
 11
119.097084
 21
0.294612
 31
0.0
  0
LINE
  5
67D
330
1F
100
AcDbEntity
  8
1
  6
CONTINUOUS
370
50
 62
4
100
AcDbLine
 10
119.097084
 20
0.294612
 30
0.0
 11
119.059967
 21
0.340561
 31
0.0
  0
LINE
  5
67E
330
1F
100
AcDbEntity
  8
1
  6
CONTINUOUS
370
50
 62
4
100
AcDbLine
 10
119.059967
 20
0.340561
 30
0.0
 11
119.022018
 21
0.387185
 31
0.0
  0
LINE
  5
67F
330
1F
100
AcDbEntity
  8
1
  6
CONTINUOUS
370
50
 62
4
100
AcDbLine
 10
119.022018
 20
0.387185
 30
0.0
 11
118.983406
 21
0.43431
 31
0.0
  0
LINE
  5
680
330
1F
100
AcDbEntity
  8
1
  6
CONTINUOUS
370
50
 62
4
100
AcDbLine
 10
118.983406
 20
0.43431
 30
0.0
 11
118.944283
 21
0.481762
 31
0.0
  0
LINE
  5
681
330
1F
100
AcDbEntity
  8
1
  6
CONTINUOUS
370
50
 62
4
100
AcDbLine
 10
118.944283
 20
0.481762
 30
0.0
 11
118.904808
 21
0.529368
 31
0.0
  0
LINE
  5
682
330
1F
100
AcDbEntity
  8
1
  6
CONTINUOUS
370
50
 62
4
100
AcDbLine
 10
118.904808
 20
0.529368
 30
0.0
 11
118.865135
 21
0.576952
 31
0.0
  0
LINE
  5
683
330
1F
100
AcDbEntity
  8
1
  6
CONTINUOUS
370
50
 62
4
100
AcDbLine
 10
118.865135
 20
0.576952
 30
0.0
 11
118.825409
 21
0.624338
 31
0.0
  0
LINE
  5
684
330
1F
100
AcDbEntity
  8
1
  6
CONTINUOUS
370
50
 62
4
100
AcDbLine
 10
119.440933
 20
1.499432
 30
0.0
 11
119.44072
 21
1.499655
 31
0.0
  0
LINE
  5
685
330
1F
100
AcDbEntity
  8
1
  6
CONTINUOUS
370
50
 62
4
100
AcDbLine
 10
55.999565
 20
-1.281779
 30
0.0
 11
55.999424
 21
-1.281668
 31
0.0
  0
LINE
  5
686
330
1F
100
AcDbEntity
  8
1
  6
CONTINUOUS
370
50
 62
4
100
AcDbLine
 10
55.999855
 20
-1.282003
 30
0.0
 11
55.999565
 21
-1.281779
 31
0.0
  0
LINE
  5
687
330
1F
100
AcDbEntity
  8
1
  6
CONTINUOUS
370
50
 62
4
100
AcDbLine
 10
55.999424
 20
-1.281668
 30
0.0
 11
55.99927899999999
 21
-1.281556
 31
0.0
  0
LINE
  5
688
330
1F
100
AcDbEntity
  8
1
  6
CONTINUOUS
370
50
 62
4
100
AcDbLine
 10
56.0
 20
-1.282114
 30
0.0
 11
55.999855
 21
-1.282003
 31
0.0
  0
LINE
  5
689
330
1F
100
AcDbEntity
  8
1
  6
CONTINUOUS
370
50
 62
4
100
AcDbLine
 10
55.99927899999999
 20
-1.281556
 30
0.0
 11
55.999134
 21
-1.281445
 31
0.0
  0
LINE
  5
68A
330
1F
100
AcDbEntity
  8
1
  6
CONTINUOUS
370
50
 62
4
100
AcDbLine
 10
51.657085
 20
0.932685
 30
0.0
 11
51.579895
 21
0.984958
 31
0.0
  0
LINE
  5
68B
330
1F
100
AcDbEntity
  8
1
  6
CONTINUOUS
370
50
 62
4
100
AcDbLine
 10
51.579895
 20
0.984958
 30
0.0
 11
51.50244499999999
 21
1.037009
 31
0.0
  0
LINE
  5
68C
330
1F
100
AcDbEntity
  8
1
  6
CONTINUOUS
370
50
 62
4
100
AcDbLine
 10
51.50244499999999
 20
1.037009
 30
0.0
 11
51.424225
 21
1.088444
 31
0.0
  0
LINE
  5
68D
330
1F
100
AcDbEntity
  8
1
  6
CONTINUOUS
370
50
 62
4
100
AcDbLine
 10
51.424225
 20
1.088444
 30
0.0
 11
51.34473
 21
1.138866
 31
0.0
  0
LINE
  5
68E
330
1F
100
AcDbEntity
  8
1
  6
CONTINUOUS
370
50
 62
4
100
AcDbLine
 10
119.922707
 20
-0.062154
 30
0.0
 11
118.825409
 21
0.624338
 31
0.0
  0
LINE
  5
68F
330
1F
100
AcDbEntity
  8
1
  6
CONTINUOUS
370
50
 62
4
100
AcDbLine
 10
51.34473
 20
1.138866
 30
0.0
 11
51.263458
 21
1.187881
 31
0.0
  0
LINE
  5
690
330
1F
100
AcDbEntity
  8
1
  6
CONTINUOUS
370
50
 62
4
100
AcDbLine
 10
53.361759
 20
-0.014449
 30
0.0
 11
53.33685699999999
 21
0.0
 31
0.0
  0
LINE
  5
691
330
1F
100
AcDbEntity
  8
1
  6
CONTINUOUS
370
50
 62
4
100
AcDbLine
 10
102.496391
 20
-0.088929
 30
0.0
 11
102.246193
 21
0.056235
 31
0.0
  0
LINE
  5
692
330
1F
100
AcDbEntity
  8
1
  6
CONTINUOUS
370
50
 62
4
100
AcDbLine
 10
77.99376699999999
 20
-0.089488
 30
0.0
 11
77.743889
 21
0.055475
 31
0.0
  0
LINE
  5
693
330
1F
100
AcDbEntity
  8
1
  6
CONTINUOUS
370
50
 62
4
100
AcDbLine
 10
53.386677
 20
-0.028903
 30
0.0
 11
53.361759
 21
-0.014449
 31
0.0
  0
LINE
  5
694
330
1F
100
AcDbEntity
  8
1
  6
CONTINUOUS
370
50
 62
4
100
AcDbLine
 10
53.41161
 20
-0.043361
 30
0.0
 11
53.386677
 21
-0.028903
 31
0.0
  0
LINE
  5
695
330
1F
100
AcDbEntity
  8
1
  6
CONTINUOUS
370
50
 62
4
100
AcDbLine
 10
113.75193
 20
-0.054103
 30
0.0
 11
113.50573
 21
0.088613
 31
0.0
  0
LINE
  5
696
330
1F
100
AcDbEntity
  8
1
  6
CONTINUOUS
370
50
 62
4
100
AcDbLine
 10
89.250877
 20
-0.055571
 30
0.0
 11
89.000992
 21
0.089245
 31
0.0
  0
LINE
  5
697
330
1F
100
AcDbEntity
  8
1
  6
CONTINUOUS
370
50
 62
4
100
AcDbLine
 10
64.74543
 20
-0.054476
 30
0.0
 11
64.496307
 21
0.08984
 31
0.0
  0
LINE
  5
698
330
1F
100
AcDbEntity
  8
1
  6
CONTINUOUS
370
50
 62
4
100
AcDbLine
 10
53.43656499999999
 20
-0.057814
 30
0.0
 11
53.41161
 21
-0.043361
 31
0.0
  0
LINE
  5
699
330
1F
100
AcDbEntity
  8
1
  6
CONTINUOUS
370
50
 62
4
100
AcDbLine
 10
53.33685699999999
 20
0.0
 30
0.0
 11
53.09777099999999
 21
0.138463
 31
0.0
  0
LINE
  5
69A
330
1F
100
AcDbEntity
  8
1
  6
CONTINUOUS
370
50
 62
4
100
AcDbLine
 10
56.579514
 20
-0.05467
 30
0.0
 11
56.330093
 21
0.089669
 31
0.0
  0
LINE
  5
69B
330
1F
100
AcDbEntity
  8
1
  6
CONTINUOUS
370
50
 62
4
100
AcDbLine
 10
53.46154
 20
-0.072254
 30
0.0
 11
53.43656499999999
 21
-0.057814
 31
0.0
  0
LINE
  5
69C
330
1F
100
AcDbEntity
  8
1
  6
CONTINUOUS
370
50
 62
4
100
AcDbLine
 10
56.828644
 20
-0.198688
 30
0.0
 11
56.579514
 21
-0.05467
 31
0.0
  0
LINE
  5
69D
330
1F
100
AcDbEntity
  8
1
  6
CONTINUOUS
370
50
 62
4
100
AcDbLine
 10
81.082726
 20
-0.054381
 30
0.0
 11
80.83461799999999
 21
0.089044
 31
0.0
  0
LINE
  5
69E
330
1F
100
AcDbEntity
  8
1
  6
CONTINUOUS
370
50
 62
4
100
AcDbLine
 10
81.329613
 20
-0.197098
 30
0.0
 11
81.082726
 21
-0.054381
 31
0.0
  0
LINE
  5
69F
330
1F
100
AcDbEntity
  8
1
  6
CONTINUOUS
370
50
 62
4
100
AcDbLine
 10
118.89016
 20
-0.121356
 30
0.0
 11
118.832726
 21
-0.088174
 31
0.0
  0
LINE
  5
6A0
330
1F
100
AcDbEntity
  8
1
  6
CONTINUOUS
370
50
 62
4
100
AcDbLine
 10
105.837624
 20
-0.199531
 30
0.0
 11
105.588776
 21
-0.055764
 31
0.0
  0
LINE
  5
6A1
330
1F
100
AcDbEntity
  8
1
  6
CONTINUOUS
370
50
 62
4
100
AcDbLine
 10
118.947609
 20
-0.154527
 30
0.0
 11
118.89016
 21
-0.121356
 31
0.0
  0
LINE
  5
6A2
330
1F
100
AcDbEntity
  8
1
  6
CONTINUOUS
370
50
 62
4
100
AcDbLine
 10
56.0
 20
-1.5005
 30
0.0
 11
55.999134
 21
-1.5
 31
0.0
  0
LINE
  5
6A3
330
1F
100
AcDbEntity
  8
1
  6
CONTINUOUS
370
50
 62
4
100
AcDbLine
 10
110.414459
 20
0.054915
 30
0.0
 11
110.166016
 21
0.198348
 31
0.0
  0
LINE
  5
6A4
330
1F
100
AcDbEntity
  8
1
  6
CONTINUOUS
370
50
 62
4
100
AcDbLine
 10
53.48652999999999
 20
-0.086681
 30
0.0
 11
53.46154
 21
-0.072254
 31
0.0
  0
LINE
  5
6A5
330
1F
100
AcDbEntity
  8
1
  6
CONTINUOUS
370
50
 62
4
100
AcDbLine
 10
105.588776
 20
-0.055764
 30
0.0
 11
105.338875
 21
0.088503
 31
0.0
  0
LINE
  5
6A6
330
1F
100
AcDbEntity
  8
1
  6
CONTINUOUS
370
50
 62
4
100
AcDbLine
 10
69.827904
 20
-0.089456
 30
0.0
 11
69.579071
 21
0.05417
 31
0.0
  0
LINE
  5
6A7
330
1F
100
AcDbEntity
  8
1
  6
CONTINUOUS
370
50
 62
4
100
AcDbLine
 10
70.07260099999999
 20
-0.230683
 30
0.0
 11
69.827904
 21
-0.089456
 31
0.0
  0
LINE
  5
6A8
330
1F
100
AcDbEntity
  8
1
  6
CONTINUOUS
370
50
 62
4
100
AcDbLine
 10
85.912857
 20
0.053907
 30
0.0
 11
85.664886
 21
0.196952
 31
0.0
  0
LINE
  5
6A9
330
1F
100
AcDbEntity
  8
1
  6
CONTINUOUS
370
50
 62
4
100
AcDbLine
 10
94.57815599999999
 20
-0.231724
 30
0.0
 11
94.330429
 21
-0.088827
 31
0.0
  0
LINE
  5
6AA
330
1F
100
AcDbEntity
  8
1
  6
CONTINUOUS
370
50
 62
4
100
AcDbLine
 10
119.005028
 20
-0.18763
 30
0.0
 11
118.947609
 21
-0.154527
 31
0.0
  0
LINE
  5
6AB
330
1F
100
AcDbEntity
  8
1
  6
CONTINUOUS
370
50
 62
4
100
AcDbLine
 10
64.496307
 20
0.08984
 30
0.0
 11
64.250877
 21
0.231332
 31
0.0
  0
LINE
  5
6AC
330
1F
100
AcDbEntity
  8
1
  6
CONTINUOUS
370
50
 62
4
100
AcDbLine
 10
102.246193
 20
0.056235
 30
0.0
 11
101.995407
 21
0.20081
 31
0.0
  0
LINE
  5
6AD
330
1F
100
AcDbEntity
  8
1
  6
CONTINUOUS
370
50
 62
4
100
AcDbLine
 10
94.330429
 20
-0.088827
 30
0.0
 11
94.079292
 21
0.055882
 31
0.0
  0
LINE
  5
6AE
330
1F
100
AcDbEntity
  8
1
  6
CONTINUOUS
370
50
 62
4
100
AcDbLine
 10
89.000992
 20
0.089245
 30
0.0
 11
88.75632499999999
 21
0.230208
 31
0.0
  0
LINE
  5
6AF
330
1F
100
AcDbEntity
  8
1
  6
CONTINUOUS
370
50
 62
4
100
AcDbLine
 10
113.50573
 20
0.088613
 30
0.0
 11
113.260674
 21
0.22969
 31
0.0
  0
LINE
  5
6B0
330
1F
100
AcDbEntity
  8
1
  6
CONTINUOUS
370
50
 62
4
100
AcDbLine
 10
61.411297
 20
0.053128
 30
0.0
 11
61.163086
 21
0.195945
 31
0.0
  0
LINE
  5
6B1
330
1F
100
AcDbEntity
  8
1
  6
CONTINUOUS
370
50
 62
4
100
AcDbLine
 10
77.743889
 20
0.055475
 30
0.0
 11
77.492729
 21
0.199986
 31
0.0
  0
LINE
  5
6B2
330
1F
100
AcDbEntity
  8
1
  6
CONTINUOUS
370
50
 62
4
100
AcDbLine
 10
118.832726
 20
-0.088174
 30
0.0
 11
118.580444
 21
0.056951
 31
0.0
  0
LINE
  5
6B3
330
1F
100
AcDbEntity
  8
1
  6
CONTINUOUS
370
50
 62
4
100
AcDbLine
 10
56.330093
 20
0.089669
 30
0.0
 11
56.275135
 21
0.12128
 31
0.0
  0
LINE
  5
6B4
330
1F
100
AcDbEntity
  8
1
  6
CONTINUOUS
370
50
 62
4
100
AcDbLine
 10
119.06237
 20
-0.2206
 30
0.0
 11
119.005028
 21
-0.18763
 31
0.0
  0
LINE
  5
6B5
330
1F
100
AcDbEntity
  8
1
  6
CONTINUOUS
370
50
 62
4
100
AcDbLine
 10
110.66375
 20
-0.088398
 30
0.0
 11
110.414459
 21
0.054915
 31
0.0
  0
LINE
  5
6B6
330
1F
100
AcDbEntity
  8
1
  6
CONTINUOUS
370
50
 62
4
100
AcDbLine
 10
97.16832
 20
0.08886
 30
0.0
 11
96.92199699999999
 21
0.230454
 31
0.0
  0
LINE
  5
6B7
330
1F
100
AcDbEntity
  8
1
  6
CONTINUOUS
370
50
 62
4
100
AcDbLine
 10
72.663887
 20
0.089421
 30
0.0
 11
72.41835
 21
0.230499
 31
0.0
  0
LINE
  5
6B8
330
1F
100
AcDbEntity
  8
1
  6
CONTINUOUS
370
50
 62
4
100
AcDbLine
 10
113.999207
 20
-0.196109
 30
0.0
 11
113.75193
 21
-0.054103
 31
0.0
  0
LINE
  5
6B9
330
1F
100
AcDbEntity
  8
1
  6
CONTINUOUS
370
50
 62
4
100
AcDbLine
 10
102.742508
 20
-0.230268
 30
0.0
 11
102.496391
 21
-0.088929
 31
0.0
  0
LINE
  5
6BA
330
1F
100
AcDbEntity
  8
1
  6
CONTINUOUS
370
50
 62
4
100
AcDbLine
 10
73.16339099999999
 20
-0.19703
 30
0.0
 11
72.914177
 21
-0.053918
 31
0.0
  0
LINE
  5
6BB
330
1F
100
AcDbEntity
  8
1
  6
CONTINUOUS
370
50
 62
4
100
AcDbLine
 10
61.66031599999999
 20
-0.08984
 30
0.0
 11
61.411297
 21
0.053128
 31
0.0
  0
LINE
  5
6BC
330
1F
100
AcDbEntity
  8
1
  6
CONTINUOUS
370
50
 62
4
100
AcDbLine
 10
86.16233799999999
 20
-0.089203
 30
0.0
 11
85.912857
 21
0.053907
 31
0.0
  0
LINE
  5
6BD
330
1F
100
AcDbEntity
  8
1
  6
CONTINUOUS
370
50
 62
4
100
AcDbLine
 10
97.41928899999999
 20
-0.055089
 30
0.0
 11
97.16832
 21
0.08886
 31
0.0
  0
LINE
  5
6BE
330
1F
100
AcDbEntity
  8
1
  6
CONTINUOUS
370
50
 62
4
100
AcDbLine
 10
78.241058
 20
-0.231327
 30
0.0
 11
77.99376699999999
 21
-0.089488
 31
0.0
  0
LINE
  5
6BF
330
1F
100
AcDbEntity
  8
1
  6
CONTINUOUS
370
50
 62
4
100
AcDbLine
 10
119.119652
 20
-0.253426
 30
0.0
 11
119.06237
 21
-0.2206
 31
0.0
  0
LINE
  5
6C0
330
1F
100
AcDbEntity
  8
1
  6
CONTINUOUS
370
50
 62
4
100
AcDbLine
 10
56.275135
 20
0.12128
 30
0.0
 11
56.220108
 21
0.152813
 31
0.0
  0
LINE
  5
6C1
330
1F
100
AcDbEntity
  8
1
  6
CONTINUOUS
370
50
 62
4
100
AcDbLine
 10
97.669823
 20
-0.19862
 30
0.0
 11
97.41928899999999
 21
-0.055089
 31
0.0
  0
LINE
  5
6C2
330
1F
100
AcDbEntity
  8
1
  6
CONTINUOUS
370
50
 62
4
100
AcDbLine
 10
89.502335
 20
-0.19959
 30
0.0
 11
89.250877
 21
-0.055571
 31
0.0
  0
LINE
  5
6C3
330
1F
100
AcDbEntity
  8
1
  6
CONTINUOUS
370
50
 62
4
100
AcDbLine
 10
72.914177
 20
-0.053918
 30
0.0
 11
72.663887
 21
0.089421
 31
0.0
  0
LINE
  5
6C4
330
1F
100
AcDbEntity
  8
1
  6
CONTINUOUS
370
50
 62
4
100
AcDbLine
 10
64.995995
 20
-0.197871
 30
0.0
 11
64.74543
 21
-0.054476
 31
0.0
  0
LINE
  5
6C5
330
1F
100
AcDbEntity
  8
1
  6
CONTINUOUS
370
50
 62
4
100
AcDbLine
 10
61.908016
 20
-0.231536
 30
0.0
 11
61.66031599999999
 21
-0.08984
 31
0.0
  0
LINE
  5
6C6
330
1F
100
AcDbEntity
  8
1
  6
CONTINUOUS
370
50
 62
4
100
AcDbLine
 10
53.738674
 20
-0.230914
 30
0.0
 11
53.48652999999999
 21
-0.086681
 31
0.0
  0
LINE
  5
6C7
330
1F
100
AcDbEntity
  8
1
  6
CONTINUOUS
370
50
 62
4
100
AcDbLine
 10
69.579071
 20
0.05417
 30
0.0
 11
69.32914
 21
0.197004
 31
0.0
  0
LINE
  5
6C8
330
1F
100
AcDbEntity
  8
1
  6
CONTINUOUS
370
50
 62
4
100
AcDbLine
 10
61.163086
 20
0.195945
 30
0.0
 11
60.91662599999999
 21
0.336754
 31
0.0
  0
LINE
  5
6C9
330
1F
100
AcDbEntity
  8
1
  6
CONTINUOUS
370
50
 62
4
100
AcDbLine
 10
85.664886
 20
0.196952
 30
0.0
 11
85.41751099999999
 21
0.338188
 31
0.0
  0
LINE
  5
6CA
330
1F
100
AcDbEntity
  8
1
  6
CONTINUOUS
370
50
 62
4
100
AcDbLine
 10
86.40954599999999
 20
-0.230342
 30
0.0
 11
86.16233799999999
 21
-0.089203
 31
0.0
  0
LINE
  5
6CB
330
1F
100
AcDbEntity
  8
1
  6
CONTINUOUS
370
50
 62
4
100
AcDbLine
 10
119.17691
 20
-0.286105
 30
0.0
 11
119.119652
 21
-0.253426
 31
0.0
  0
LINE
  5
6CC
330
1F
100
AcDbEntity
  8
1
  6
CONTINUOUS
370
50
 62
4
100
AcDbLine
 10
118.580444
 20
0.056951
 30
0.0
 11
118.328964
 21
0.200473
 31
0.0
  0
LINE
  5
6CD
330
1F
100
AcDbEntity
  8
1
  6
CONTINUOUS
370
50
 62
4
100
AcDbLine
 10
56.220108
 20
0.152813
 30
0.0
 11
56.16501599999999
 21
0.184238
 31
0.0
  0
LINE
  5
6CE
330
1F
100
AcDbEntity
  8
1
  6
CONTINUOUS
370
50
 62
4
100
AcDbLine
 10
73.412323
 20
-0.339007
 30
0.0
 11
73.16339099999999
 21
-0.19703
 31
0.0
  0
LINE
  5
6CF
330
1F
100
AcDbEntity
  8
1
  6
CONTINUOUS
370
50
 62
4
100
AcDbLine
 10
94.079292
 20
0.055882
 30
0.0
 11
93.828796
 21
0.198733
 31
0.0
  0
LINE
  5
6D0
330
1F
100
AcDbEntity
  8
1
  6
CONTINUOUS
370
50
 62
4
100
AcDbLine
 10
80.83461799999999
 20
0.089044
 30
0.0
 11
80.58801299999999
 21
0.229627
 31
0.0
  0
LINE
  5
6D1
330
1F
100
AcDbEntity
  8
1
  6
CONTINUOUS
370
50
 62
4
100
AcDbLine
 10
53.09777099999999
 20
0.138463
 30
0.0
 11
52.857422
 21
0.275452
 31
0.0
  0
LINE
  5
6D2
330
1F
100
AcDbEntity
  8
1
  6
CONTINUOUS
370
50
 62
4
100
AcDbLine
 10
97.918274
 20
-0.340214
 30
0.0
 11
97.669823
 21
-0.19862
 31
0.0
  0
LINE
  5
6D3
330
1F
100
AcDbEntity
  8
1
  6
CONTINUOUS
370
50
 62
4
100
AcDbLine
 10
105.338875
 20
0.088503
 30
0.0
 11
105.091095
 21
0.229623
 31
0.0
  0
LINE
  5
6D4
330
1F
100
AcDbEntity
  8
1
  6
CONTINUOUS
370
50
 62
4
100
AcDbLine
 10
110.909142
 20
-0.22812
 30
0.0
 11
110.66375
 21
-0.088398
 31
0.0
  0
LINE
  5
6D5
330
1F
100
AcDbEntity
  8
1
  6
CONTINUOUS
370
50
 62
4
100
AcDbLine
 10
110.166016
 20
0.198348
 30
0.0
 11
109.916588
 21
0.340278
 31
0.0
  0
LINE
  5
6D6
330
1F
100
AcDbEntity
  8
1
  6
CONTINUOUS
370
50
 62
4
100
AcDbLine
 10
81.576584
 20
-0.337553
 30
0.0
 11
81.329613
 21
-0.197098
 31
0.0
  0
LINE
  5
6D7
330
1F
100
AcDbEntity
  8
1
  6
CONTINUOUS
370
50
 62
4
100
AcDbLine
 10
106.087593
 20
-0.341624
 30
0.0
 11
105.837624
 21
-0.199531
 31
0.0
  0
LINE
  5
6D8
330
1F
100
AcDbEntity
  8
1
  6
CONTINUOUS
370
50
 62
4
100
AcDbLine
 10
118.328964
 20
0.200473
 30
0.0
 11
118.079048
 21
0.342535
 31
0.0
  0
LINE
  5
6D9
330
1F
100
AcDbEntity
  8
1
  6
CONTINUOUS
370
50
 62
4
100
AcDbLine
 10
72.41835
 20
0.230499
 30
0.0
 11
72.173805
 21
0.369486
 31
0.0
  0
LINE
  5
6DA
330
1F
100
AcDbEntity
  8
1
  6
CONTINUOUS
370
50
 62
4
100
AcDbLine
 10
96.92199699999999
 20
0.230454
 30
0.0
 11
96.676262
 21
0.370085
 31
0.0
  0
LINE
  5
6DB
330
1F
100
AcDbEntity
  8
1
  6
CONTINUOUS
370
50
 62
4
100
AcDbLine
 10
57.078033
 20
-0.340328
 30
0.0
 11
56.828644
 21
-0.198688
 31
0.0
  0
LINE
  5
6DC
330
1F
100
AcDbEntity
  8
1
  6
CONTINUOUS
370
50
 62
4
100
AcDbLine
 10
93.828796
 20
0.198733
 30
0.0
 11
93.580231
 21
0.339905
 31
0.0
  0
LINE
  5
6DD
330
1F
100
AcDbEntity
  8
1
  6
CONTINUOUS
370
50
 62
4
100
AcDbLine
 10
62.154469
 20
-0.371471
 30
0.0
 11
61.908016
 21
-0.231536
 31
0.0
  0
LINE
  5
6DE
330
1F
100
AcDbEntity
  8
1
  6
CONTINUOUS
370
50
 62
4
100
AcDbLine
 10
86.65522
 20
-0.369745
 30
0.0
 11
86.40954599999999
 21
-0.230342
 31
0.0
  0
LINE
  5
6DF
330
1F
100
AcDbEntity
  8
1
  6
CONTINUOUS
370
50
 62
4
100
AcDbLine
 10
56.16501599999999
 20
0.184238
 30
0.0
 11
56.109951
 21
0.215479
 31
0.0
  0
LINE
  5
6E0
330
1F
100
AcDbEntity
  8
1
  6
CONTINUOUS
370
50
 62
4
100
AcDbLine
 10
94.82553899999999
 20
-0.37207
 30
0.0
 11
94.57815599999999
 21
-0.231724
 31
0.0
  0
LINE
  5
6E1
330
1F
100
AcDbEntity
  8
1
  6
CONTINUOUS
370
50
 62
4
100
AcDbLine
 10
70.317657
 20
-0.369671
 30
0.0
 11
70.07260099999999
 21
-0.230683
 31
0.0
  0
LINE
  5
6E2
330
1F
100
AcDbEntity
  8
1
  6
CONTINUOUS
370
50
 62
4
100
AcDbLine
 10
111.153481
 20
-0.36662
 30
0.0
 11
110.909142
 21
-0.22812
 31
0.0
  0
LINE
  5
6E3
330
1F
100
AcDbEntity
  8
1
  6
CONTINUOUS
370
50
 62
4
100
AcDbLine
 10
69.32914
 20
0.197004
 30
0.0
 11
69.079742
 21
0.338257
 31
0.0
  0
LINE
  5
6E4
330
1F
100
AcDbEntity
  8
1
  6
CONTINUOUS
370
50
 62
4
100
AcDbLine
 10
65.245567
 20
-0.338917
 30
0.0
 11
64.995995
 21
-0.197871
 31
0.0
  0
LINE
  5
6E5
330
1F
100
AcDbEntity
  8
1
  6
CONTINUOUS
370
50
 62
4
100
AcDbLine
 10
56.109951
 20
0.215479
 30
0.0
 11
56.054939
 21
0.246568
 31
0.0
  0
LINE
  5
6E6
330
1F
100
AcDbEntity
  8
1
  6
CONTINUOUS
370
50
 62
4
100
AcDbLine
 10
51.263458
 20
1.187881
 30
0.0
 11
51.179924
 21
1.235079
 31
0.0
  0
LINE
  5
6E7
330
1F
100
AcDbEntity
  8
1
  6
CONTINUOUS
370
50
 62
4
100
AcDbLine
 10
77.492729
 20
0.199986
 30
0.0
 11
77.24091299999999
 21
0.342232
 31
0.0
  0
LINE
  5
6E8
330
1F
100
AcDbEntity
  8
1
  6
CONTINUOUS
370
50
 62
4
100
AcDbLine
 10
64.250877
 20
0.231332
 30
0.0
 11
64.004044
 21
0.370669
 31
0.0
  0
LINE
  5
6E9
330
1F
100
AcDbEntity
  8
1
  6
CONTINUOUS
370
50
 62
4
100
AcDbLine
 10
105.091095
 20
0.229623
 30
0.0
 11
104.844803
 21
0.368632
 31
0.0
  0
LINE
  5
6EA
330
1F
100
AcDbEntity
  8
1
  6
CONTINUOUS
370
50
 62
4
100
AcDbLine
 10
89.753143
 20
-0.341145
 30
0.0
 11
89.502335
 21
-0.19959
 31
0.0
  0
LINE
  5
6EB
330
1F
100
AcDbEntity
  8
1
  6
CONTINUOUS
370
50
 62
4
100
AcDbLine
 10
56.054939
 20
0.246568
 30
0.0
 11
56.0
 21
0.277551
 31
0.0
  0
LINE
  5
6EC
330
1F
100
AcDbEntity
  8
1
  6
CONTINUOUS
370
50
 62
4
100
AcDbLine
 10
88.75632499999999
 20
0.230208
 30
0.0
 11
88.510155
 21
0.368973
 31
0.0
  0
LINE
  5
6ED
330
1F
100
AcDbEntity
  8
1
  6
CONTINUOUS
370
50
 62
4
100
AcDbLine
 10
80.58801299999999
 20
0.229627
 30
0.0
 11
80.342804
 21
0.367825
 31
0.0
  0
LINE
  5
6EE
330
1F
100
AcDbEntity
  8
1
  6
CONTINUOUS
370
50
 62
4
100
AcDbLine
 10
114.248726
 20
-0.33668
 30
0.0
 11
113.999207
 21
-0.196109
 31
0.0
  0
LINE
  5
6EF
330
1F
100
AcDbEntity
  8
1
  6
CONTINUOUS
370
50
 62
4
100
AcDbLine
 10
101.995407
 20
0.20081
 30
0.0
 11
101.743866
 21
0.342478
 31
0.0
  0
LINE
  5
6F0
330
1F
100
AcDbEntity
  8
1
  6
CONTINUOUS
370
50
 62
4
100
AcDbLine
 10
102.989578
 20
-0.369342
 30
0.0
 11
102.742508
 21
-0.230268
 31
0.0
  0
LINE
  5
6F1
330
1F
100
AcDbEntity
  8
1
  6
CONTINUOUS
370
50
 62
4
100
AcDbLine
 10
113.260674
 20
0.22969
 30
0.0
 11
113.013657
 21
0.36873
 31
0.0
  0
LINE
  5
6F2
330
1F
100
AcDbEntity
  8
1
  6
CONTINUOUS
370
50
 62
4
100
AcDbLine
 10
53.991112
 20
-0.372854
 30
0.0
 11
53.738674
 21
-0.230914
 31
0.0
  0
LINE
  5
6F3
330
1F
100
AcDbEntity
  8
1
  6
CONTINUOUS
370
50
 62
4
100
AcDbLine
 10
55.999134
 20
0.277321
 30
0.0
 11
55.759926
 21
0.411436
 31
0.0
  0
LINE
  5
6F4
330
1F
100
AcDbEntity
  8
1
  6
CONTINUOUS
370
50
 62
4
100
AcDbLine
 10
78.48816699999999
 20
-0.36982
 30
0.0
 11
78.241058
 21
-0.231327
 31
0.0
  0
LINE
  5
6F5
330
1F
100
AcDbEntity
  8
1
  6
CONTINUOUS
370
50
 62
4
100
AcDbLine
 10
69.079742
 20
0.338257
 30
0.0
 11
68.832298
 21
0.476428
 31
0.0
  0
LINE
  5
6F6
330
1F
100
AcDbEntity
  8
1
  6
CONTINUOUS
370
50
 62
4
100
AcDbLine
 10
93.580231
 20
0.339905
 30
0.0
 11
93.331711
 21
0.478629
 31
0.0
  0
LINE
  5
6F7
330
1F
100
AcDbEntity
  8
1
  6
CONTINUOUS
370
50
 62
4
100
AcDbLine
 10
118.079048
 20
0.342535
 30
0.0
 11
117.829201
 21
0.481893
 31
0.0
  0
LINE
  5
6F8
330
1F
100
AcDbEntity
  8
1
  6
CONTINUOUS
370
50
 62
4
100
AcDbLine
 10
98.165909
 20
-0.478288
 30
0.0
 11
97.918274
 21
-0.340214
 31
0.0
  0
LINE
  5
6F9
330
1F
100
AcDbEntity
  8
1
  6
CONTINUOUS
370
50
 62
4
100
AcDbLine
 10
73.661301
 20
-0.477813
 30
0.0
 11
73.412323
 21
-0.339007
 31
0.0
  0
LINE
  5
6FA
330
1F
100
AcDbEntity
  8
1
  6
CONTINUOUS
370
50
 62
4
100
AcDbLine
 10
65.49365999999999
 20
-0.477048
 30
0.0
 11
65.245567
 21
-0.338917
 31
0.0
  0
LINE
  5
6FB
330
1F
100
AcDbEntity
  8
1
  6
CONTINUOUS
370
50
 62
4
100
AcDbLine
 10
60.91662599999999
 20
0.336754
 30
0.0
 11
60.670357
 21
0.473773
 31
0.0
  0
LINE
  5
6FC
330
1F
100
AcDbEntity
  8
1
  6
CONTINUOUS
370
50
 62
4
100
AcDbLine
 10
90.002281
 20
-0.479648
 30
0.0
 11
89.753143
 21
-0.341145
 31
0.0
  0
LINE
  5
6FD
330
1F
100
AcDbEntity
  8
1
  6
CONTINUOUS
370
50
 62
4
100
AcDbLine
 10
114.497986
 20
-0.475159
 30
0.0
 11
114.248726
 21
-0.33668
 31
0.0
  0
LINE
  5
6FE
330
1F
100
AcDbEntity
  8
1
  6
CONTINUOUS
370
50
 62
4
100
AcDbLine
 10
111.397179
 20
-0.5019509999999999
 30
0.0
 11
111.153481
 21
-0.36662
 31
0.0
  0
LINE
  5
6FF
330
1F
100
AcDbEntity
  8
1
  6
CONTINUOUS
370
50
 62
4
100
AcDbLine
 10
52.857422
 20
0.275452
 30
0.0
 11
52.615204
 21
0.409961
 31
0.0
  0
LINE
  5
700
330
1F
100
AcDbEntity
  8
1
  6
CONTINUOUS
370
50
 62
4
100
AcDbLine
 10
85.41751099999999
 20
0.338188
 30
0.0
 11
85.168739
 21
0.476237
 31
0.0
  0
LINE
  5
701
330
1F
100
AcDbEntity
  8
1
  6
CONTINUOUS
370
50
 62
4
100
AcDbLine
 10
86.900803
 20
-0.506019
 30
0.0
 11
86.65522
 21
-0.369745
 31
0.0
  0
LINE
  5
702
330
1F
100
AcDbEntity
  8
1
  6
CONTINUOUS
370
50
 62
4
100
AcDbLine
 10
62.400749
 20
-0.5080629999999999
 30
0.0
 11
62.154469
 21
-0.371471
 31
0.0
  0
LINE
  5
703
330
1F
100
AcDbEntity
  8
1
  6
CONTINUOUS
370
50
 62
4
100
AcDbLine
 10
80.342804
 20
0.367825
 30
0.0
 11
80.099068
 21
0.5029859999999999
 31
0.0
  0
LINE
  5
704
330
1F
100
AcDbEntity
  8
1
  6
CONTINUOUS
370
50
 62
4
100
AcDbLine
 10
104.844803
 20
0.368632
 30
0.0
 11
104.60006
 21
0.504346
 31
0.0
  0
LINE
  5
705
330
1F
100
AcDbEntity
  8
1
  6
CONTINUOUS
370
50
 62
4
100
AcDbLine
 10
119.44072
 20
1.499655
 30
0.0
 11
119.440498
 21
1.499778
 31
0.0
  0
LINE
  5
706
330
1F
100
AcDbEntity
  8
1
  6
CONTINUOUS
370
50
 62
4
100
AcDbLine
 10
72.173805
 20
0.369486
 30
0.0
 11
71.928726
 21
0.505099
 31
0.0
  0
LINE
  5
707
330
1F
100
AcDbEntity
  8
1
  6
CONTINUOUS
370
50
 62
4
100
AcDbLine
 10
77.24091299999999
 20
0.342232
 30
0.0
 11
76.98964699999999
 21
0.48124
 31
0.0
  0
LINE
  5
708
330
1F
100
AcDbEntity
  8
1
  6
CONTINUOUS
370
50
 62
4
100
AcDbLine
 10
101.743866
 20
0.342478
 30
0.0
 11
101.493668
 21
0.480811
 31
0.0
  0
LINE
  5
709
330
1F
100
AcDbEntity
  8
1
  6
CONTINUOUS
370
50
 62
4
100
AcDbLine
 10
109.916588
 20
0.340278
 30
0.0
 11
109.666245
 21
0.47868
 31
0.0
  0
LINE
  5
70A
330
1F
100
AcDbEntity
  8
1
  6
CONTINUOUS
370
50
 62
4
100
AcDbLine
 10
96.676262
 20
0.370085
 30
0.0
 11
96.42993899999999
 21
0.506169
 31
0.0
  0
LINE
  5
70B
330
1F
100
AcDbEntity
  8
1
  6
CONTINUOUS
370
50
 62
4
100
AcDbLine
 10
78.732941
 20
-0.5049279999999999
 30
0.0
 11
78.48816699999999
 21
-0.36982
 31
0.0
  0
LINE
  5
70C
330
1F
100
AcDbEntity
  8
1
  6
CONTINUOUS
370
50
 62
4
100
AcDbLine
 10
54.24251899999999
 20
-0.511606
 30
0.0
 11
53.991112
 21
-0.372854
 31
0.0
  0
LINE
  5
70D
330
1F
100
AcDbEntity
  8
1
  6
CONTINUOUS
370
50
 62
4
100
AcDbLine
 10
81.825623
 20
-0.474862
 30
0.0
 11
81.576584
 21
-0.337553
 31
0.0
  0
LINE
  5
70E
330
1F
100
AcDbEntity
  8
1
  6
CONTINUOUS
370
50
 62
4
100
AcDbLine
 10
106.338562
 20
-0.479984
 30
0.0
 11
106.087593
 21
-0.341624
 31
0.0
  0
LINE
  5
70F
330
1F
100
AcDbEntity
  8
1
  6
CONTINUOUS
370
50
 62
4
100
AcDbLine
 10
57.328083
 20
-0.478102
 30
0.0
 11
57.078033
 21
-0.340328
 31
0.0
  0
LINE
  5
710
330
1F
100
AcDbEntity
  8
1
  6
CONTINUOUS
370
50
 62
4
100
AcDbLine
 10
103.236641
 20
-0.505192
 30
0.0
 11
102.989578
 21
-0.369342
 31
0.0
  0
LINE
  5
711
330
1F
100
AcDbEntity
  8
1
  6
CONTINUOUS
370
50
 62
4
100
AcDbLine
 10
55.759926
 20
0.411436
 30
0.0
 11
55.521854
 21
0.542262
 31
0.0
  0
LINE
  5
712
330
1F
100
AcDbEntity
  8
1
  6
CONTINUOUS
370
50
 62
4
100
AcDbLine
 10
95.07382199999999
 20
-0.508365
 30
0.0
 11
94.82553899999999
 21
-0.37207
 31
0.0
  0
LINE
  5
713
330
1F
100
AcDbEntity
  8
1
  6
CONTINUOUS
370
50
 62
4
100
AcDbLine
 10
70.56328599999999
 20
-0.504487
 30
0.0
 11
70.317657
 21
-0.369671
 31
0.0
  0
LINE
  5
714
330
1F
100
AcDbEntity
  8
1
  6
CONTINUOUS
370
50
 62
4
100
AcDbLine
 10
113.013657
 20
0.36873
 30
0.0
 11
112.766396
 21
0.50444
 31
0.0
  0
LINE
  5
715
330
1F
100
AcDbEntity
  8
1
  6
CONTINUOUS
370
50
 62
4
100
AcDbLine
 10
88.510155
 20
0.368973
 30
0.0
 11
88.263931
 21
0.504001
 31
0.0
  0
LINE
  5
716
330
1F
100
AcDbEntity
  8
1
  6
CONTINUOUS
370
50
 62
4
100
AcDbLine
 10
64.004044
 20
0.370669
 30
0.0
 11
63.756817
 21
0.506153
 31
0.0
  0
LINE
  5
717
330
1F
100
AcDbEntity
  8
1
  6
CONTINUOUS
370
50
 62
4
100
AcDbLine
 10
52.615204
 20
0.409961
 30
0.0
 11
52.373287
 21
0.541426
 31
0.0
  0
LINE
  5
718
330
1F
100
AcDbEntity
  8
1
  6
CONTINUOUS
370
50
 62
4
100
AcDbLine
 10
65.741798
 20
-0.611182
 30
0.0
 11
65.49365999999999
 21
-0.477048
 31
0.0
  0
LINE
  5
719
330
1F
100
AcDbEntity
  8
1
  6
CONTINUOUS
370
50
 62
4
100
AcDbLine
 10
114.747139
 20
-0.6098049999999999
 30
0.0
 11
114.497986
 21
-0.475159
 31
0.0
  0
LINE
  5
71A
330
1F
100
AcDbEntity
  8
1
  6
CONTINUOUS
370
50
 62
4
100
AcDbLine
 10
68.832298
 20
0.476428
 30
0.0
 11
68.585587
 21
0.609704
 31
0.0
  0
LINE
  5
71B
330
1F
100
AcDbEntity
  8
1
  6
CONTINUOUS
370
50
 62
4
100
AcDbLine
 10
90.25138899999999
 20
-0.614163
 30
0.0
 11
90.002281
 21
-0.479648
 31
0.0
  0
LINE
  5
71C
330
1F
100
AcDbEntity
  8
1
  6
CONTINUOUS
370
50
 62
4
100
AcDbLine
 10
101.493668
 20
0.480811
 30
0.0
 11
101.244156
 21
0.6153689999999999
 31
0.0
  0
LINE
  5
71D
330
1F
100
AcDbEntity
  8
1
  6
CONTINUOUS
370
50
 62
4
100
AcDbLine
 10
76.98964699999999
 20
0.48124
 30
0.0
 11
76.74041
 21
0.615601
 31
0.0
  0
LINE
  5
71E
330
1F
100
AcDbEntity
  8
1
  6
CONTINUOUS
370
50
 62
4
100
AcDbLine
 10
93.331711
 20
0.478629
 30
0.0
 11
93.08270999999999
 21
0.612775
 31
0.0
  0
LINE
  5
71F
330
1F
100
AcDbEntity
  8
1
  6
CONTINUOUS
370
50
 62
4
100
AcDbLine
 10
117.829201
 20
0.481893
 30
0.0
 11
117.579254
 21
0.6162869999999999
 31
0.0
  0
LINE
  5
720
330
1F
100
AcDbEntity
  8
1
  6
CONTINUOUS
370
50
 62
4
100
AcDbLine
 10
57.576775
 20
-0.6117699999999999
 30
0.0
 11
57.328083
 21
-0.478102
 31
0.0
  0
LINE
  5
721
330
1F
100
AcDbEntity
  8
1
  6
CONTINUOUS
370
50
 62
4
100
AcDbLine
 10
82.075287
 20
-0.6089289999999999
 30
0.0
 11
81.825623
 21
-0.474862
 31
0.0
  0
LINE
  5
722
330
1F
100
AcDbEntity
  8
1
  6
CONTINUOUS
370
50
 62
4
100
AcDbLine
 10
78.977043
 20
-0.635941
 30
0.0
 11
78.732941
 21
-0.5049279999999999
 31
0.0
  0
LINE
  5
723
330
1F
100
AcDbEntity
  8
1
  6
CONTINUOUS
370
50
 62
4
100
AcDbLine
 10
80.099068
 20
0.5029859999999999
 30
0.0
 11
79.854568
 21
0.634141
 31
0.0
  0
LINE
  5
724
330
1F
100
AcDbEntity
  8
1
  6
CONTINUOUS
370
50
 62
4
100
AcDbLine
 10
73.911377
 20
-0.611908
 30
0.0
 11
73.661301
 21
-0.477813
 31
0.0
  0
LINE
  5
725
330
1F
100
AcDbEntity
  8
1
  6
CONTINUOUS
370
50
 62
4
100
AcDbLine
 10
98.41500099999999
 20
-0.611845
 30
0.0
 11
98.165909
 21
-0.478288
 31
0.0
  0
LINE
  5
726
330
1F
100
AcDbEntity
  8
1
  6
CONTINUOUS
370
50
 62
4
100
AcDbLine
 10
104.60006
 20
0.504346
 30
0.0
 11
104.354622
 21
0.635821
 31
0.0
  0
LINE
  5
727
330
1F
100
AcDbEntity
  8
1
  6
CONTINUOUS
370
50
 62
4
100
AcDbLine
 10
106.588013
 20
-0.613606
 30
0.0
 11
106.338562
 21
-0.479984
 31
0.0
  0
LINE
  5
728
330
1F
100
AcDbEntity
  8
1
  6
CONTINUOUS
370
50
 62
4
100
AcDbLine
 10
109.666245
 20
0.47868
 30
0.0
 11
109.415947
 21
0.6126269999999999
 31
0.0
  0
LINE
  5
729
330
1F
100
AcDbEntity
  8
1
  6
CONTINUOUS
370
50
 62
4
100
AcDbLine
 10
54.493118
 20
-0.645689
 30
0.0
 11
54.24251899999999
 21
-0.511606
 31
0.0
  0
LINE
  5
72A
330
1F
100
AcDbEntity
  8
1
  6
CONTINUOUS
370
50
 62
4
100
AcDbLine
 10
103.482765
 20
-0.636875
 30
0.0
 11
103.236641
 21
-0.505192
 31
0.0
  0
LINE
  5
72B
330
1F
100
AcDbEntity
  8
1
  6
CONTINUOUS
370
50
 62
4
100
AcDbLine
 10
112.766396
 20
0.50444
 30
0.0
 11
112.520584
 21
0.6359009999999999
 31
0.0
  0
LINE
  5
72C
330
1F
100
AcDbEntity
  8
1
  6
CONTINUOUS
370
50
 62
4
100
AcDbLine
 10
88.263931
 20
0.504001
 30
0.0
 11
88.019325
 21
0.6347929999999999
 31
0.0
  0
LINE
  5
72D
330
1F
100
AcDbEntity
  8
1
  6
CONTINUOUS
370
50
 62
4
100
AcDbLine
 10
85.168739
 20
0.476237
 30
0.0
 11
84.91912099999999
 21
0.609702
 31
0.0
  0
LINE
  5
72E
330
1F
100
AcDbEntity
  8
1
  6
CONTINUOUS
370
50
 62
4
100
AcDbLine
 10
111.64222
 20
-0.63284
 30
0.0
 11
111.397179
 21
-0.5019509999999999
 31
0.0
  0
LINE
  5
72F
330
1F
100
AcDbEntity
  8
1
  6
CONTINUOUS
370
50
 62
4
100
AcDbLine
 10
63.756817
 20
0.506153
 30
0.0
 11
63.51111599999999
 21
0.637344
 31
0.0
  0
LINE
  5
730
330
1F
100
AcDbEntity
  8
1
  6
CONTINUOUS
370
50
 62
4
100
AcDbLine
 10
60.670357
 20
0.473773
 30
0.0
 11
60.421589
 21
0.6065769999999999
 31
0.0
  0
LINE
  5
731
330
1F
100
AcDbEntity
  8
1
  6
CONTINUOUS
370
50
 62
4
100
AcDbLine
 10
87.146507
 20
-0.637116
 30
0.0
 11
86.900803
 21
-0.506019
 31
0.0
  0
LINE
  5
732
330
1F
100
AcDbEntity
  8
1
  6
CONTINUOUS
370
50
 62
4
100
AcDbLine
 10
62.647385
 20
-0.639408
 30
0.0
 11
62.400749
 21
-0.5080629999999999
 31
0.0
  0
LINE
  5
733
330
1F
100
AcDbEntity
  8
1
  6
CONTINUOUS
370
50
 62
4
100
AcDbLine
 10
50.02861
 20
-1.467829
 30
0.0
 11
50.0
 21
-1.452595
 31
0.0
  0
LINE
  5
734
330
1F
100
AcDbEntity
  8
1
  6
CONTINUOUS
370
50
 62
4
100
AcDbLine
 10
52.373287
 20
0.541426
 30
0.0
 11
52.133694
 21
0.668851
 31
0.0
  0
LINE
  5
735
330
1F
100
AcDbEntity
  8
1
  6
CONTINUOUS
370
50
 62
4
100
AcDbLine
 10
70.80864
 20
-0.63476
 30
0.0
 11
70.56328599999999
 21
-0.504487
 31
0.0
  0
LINE
  5
736
330
1F
100
AcDbEntity
  8
1
  6
CONTINUOUS
370
50
 62
4
100
AcDbLine
 10
71.928726
 20
0.505099
 30
0.0
 11
71.682121
 21
0.635904
 31
0.0
  0
LINE
  5
737
330
1F
100
AcDbEntity
  8
1
  6
CONTINUOUS
370
50
 62
4
100
AcDbLine
 10
55.521854
 20
0.542262
 30
0.0
 11
55.282829
 21
0.6689069999999999
 31
0.0
  0
LINE
  5
738
330
1F
100
AcDbEntity
  8
1
  6
CONTINUOUS
370
50
 62
4
100
AcDbLine
 10
96.42993899999999
 20
0.506169
 30
0.0
 11
96.183296
 21
0.636795
 31
0.0
  0
LINE
  5
739
330
1F
100
AcDbEntity
  8
1
  6
CONTINUOUS
370
50
 62
4
100
AcDbLine
 10
95.320763
 20
-0.6391439999999999
 30
0.0
 11
95.07382199999999
 21
-0.508365
 31
0.0
  0
LINE
  5
73A
330
1F
100
AcDbEntity
  8
1
  6
CONTINUOUS
370
50
 62
4
100
AcDbLine
 10
51.179924
 20
1.235079
 30
0.0
 11
51.095467
 21
1.279153
 31
0.0
  0
LINE
  5
73B
330
1F
100
AcDbEntity
  8
1
  6
CONTINUOUS
370
50
 62
4
100
AcDbLine
 10
82.324562
 20
-0.737981
 30
0.0
 11
82.075287
 21
-0.6089289999999999
 31
0.0
  0
LINE
  5
73C
330
1F
100
AcDbEntity
  8
1
  6
CONTINUOUS
370
50
 62
4
100
AcDbLine
 10
57.825027
 20
-0.7402839999999999
 30
0.0
 11
57.576775
 21
-0.6117699999999999
 31
0.0
  0
LINE
  5
73D
330
1F
100
AcDbEntity
  8
1
  6
CONTINUOUS
370
50
 62
4
100
AcDbLine
 10
76.74041
 20
0.615601
 30
0.0
 11
76.492195
 21
0.743983
 31
0.0
  0
LINE
  5
73E
330
1F
100
AcDbEntity
  8
1
  6
CONTINUOUS
370
50
 62
4
100
AcDbLine
 10
101.244156
 20
0.6153689999999999
 30
0.0
 11
100.994568
 21
0.744366
 31
0.0
  0
LINE
  5
73F
330
1F
100
AcDbEntity
  8
1
  6
CONTINUOUS
370
50
 62
4
100
AcDbLine
 10
114.996468
 20
-0.7386039999999999
 30
0.0
 11
114.747139
 21
-0.6098049999999999
 31
0.0
  0
LINE
  5
740
330
1F
100
AcDbEntity
  8
1
  6
CONTINUOUS
370
50
 62
4
100
AcDbLine
 10
106.836418
 20
-0.74191
 30
0.0
 11
106.588013
 21
-0.613606
 31
0.0
  0
LINE
  5
741
330
1F
100
AcDbEntity
  8
1
  6
CONTINUOUS
370
50
 62
4
100
AcDbLine
 10
65.98975399999999
 20
-0.7390519999999999
 30
0.0
 11
65.741798
 21
-0.611182
 31
0.0
  0
LINE
  5
742
330
1F
100
AcDbEntity
  8
1
  6
CONTINUOUS
370
50
 62
4
100
AcDbLine
 10
109.415947
 20
0.6126269999999999
 30
0.0
 11
109.166656
 21
0.7411409999999999
 31
0.0
  0
LINE
  5
743
330
1F
100
AcDbEntity
  8
1
  6
CONTINUOUS
370
50
 62
4
100
AcDbLine
 10
60.421589
 20
0.6065769999999999
 30
0.0
 11
60.171997
 21
0.735228
 31
0.0
  0
LINE
  5
744
330
1F
100
AcDbEntity
  8
1
  6
CONTINUOUS
370
50
 62
4
100
AcDbLine
 10
90.500198
 20
-0.7423989999999999
 30
0.0
 11
90.25138899999999
 21
-0.614163
 31
0.0
  0
LINE
  5
745
330
1F
100
AcDbEntity
  8
1
  6
CONTINUOUS
370
50
 62
4
100
AcDbLine
 10
84.91912099999999
 20
0.609702
 30
0.0
 11
84.670059
 21
0.7378129999999999
 31
0.0
  0
LINE
  5
746
330
1F
100
AcDbEntity
  8
1
  6
CONTINUOUS
370
50
 62
4
100
AcDbLine
 10
88.019325
 20
0.6347929999999999
 30
0.0
 11
87.77480299999999
 21
0.760334
 31
0.0
  0
LINE
  5
747
330
1F
100
AcDbEntity
  8
1
  6
CONTINUOUS
370
50
 62
4
100
AcDbLine
 10
68.585587
 20
0.609704
 30
0.0
 11
68.33715099999999
 21
0.737178
 31
0.0
  0
LINE
  5
748
330
1F
100
AcDbEntity
  8
1
  6
CONTINUOUS
370
50
 62
4
100
AcDbLine
 10
63.51111599999999
 20
0.637344
 30
0.0
 11
63.265648
 21
0.7632639999999999
 31
0.0
  0
LINE
  5
749
330
1F
100
AcDbEntity
  8
1
  6
CONTINUOUS
370
50
 62
4
100
AcDbLine
 10
71.052643
 20
-0.7599199999999999
 30
0.0
 11
70.80864
 21
-0.63476
 31
0.0
  0
LINE
  5
74A
330
1F
100
AcDbEntity
  8
1
  6
CONTINUOUS
370
50
 62
4
100
AcDbLine
 10
112.520584
 20
0.6359009999999999
 30
0.0
 11
112.275742
 21
0.761486
 31
0.0
  0
LINE
  5
74B
330
1F
100
AcDbEntity
  8
1
  6
CONTINUOUS
370
50
 62
4
100
AcDbLine
 10
74.161789
 20
-0.74027
 30
0.0
 11
73.911377
 21
-0.611908
 31
0.0
  0
LINE
  5
74C
330
1F
100
AcDbEntity
  8
1
  6
CONTINUOUS
370
50
 62
4
100
AcDbLine
 10
103.727966
 20
-0.762502
 30
0.0
 11
103.482765
 21
-0.636875
 31
0.0
  0
LINE
  5
74D
330
1F
100
AcDbEntity
  8
1
  6
CONTINUOUS
370
50
 62
4
100
AcDbLine
 10
79.222748
 20
-0.761736
 30
0.0
 11
78.977043
 21
-0.635941
 31
0.0
  0
LINE
  5
74E
330
1F
100
AcDbEntity
  8
1
  6
CONTINUOUS
370
50
 62
4
100
AcDbLine
 10
93.08270999999999
 20
0.612775
 30
0.0
 11
92.832436
 21
0.740906
 31
0.0
  0
LINE
  5
74F
330
1F
100
AcDbEntity
  8
1
  6
CONTINUOUS
370
50
 62
4
100
AcDbLine
 10
95.56599399999999
 20
-0.7645839999999999
 30
0.0
 11
95.320763
 21
-0.6391439999999999
 31
0.0
  0
LINE
  5
750
330
1F
100
AcDbEntity
  8
1
  6
CONTINUOUS
370
50
 62
4
100
AcDbLine
 10
52.133694
 20
0.668851
 30
0.0
 11
51.89567899999999
 21
0.790594
 31
0.0
  0
LINE
  5
751
330
1F
100
AcDbEntity
  8
1
  6
CONTINUOUS
370
50
 62
4
100
AcDbLine
 10
98.66478699999999
 20
-0.739584
 30
0.0
 11
98.41500099999999
 21
-0.611845
 31
0.0
  0
LINE
  5
752
330
1F
100
AcDbEntity
  8
1
  6
CONTINUOUS
370
50
 62
4
100
AcDbLine
 10
119.211716
 20
-0.303865
 30
0.0
 11
119.17691
 21
-0.286105
 31
0.0
  0
LINE
  5
753
330
1F
100
AcDbEntity
  8
1
  6
CONTINUOUS
370
50
 62
4
100
AcDbLine
 10
117.579254
 20
0.6162869999999999
 30
0.0
 11
117.328552
 21
0.744076
 31
0.0
  0
LINE
  5
754
330
1F
100
AcDbEntity
  8
1
  6
CONTINUOUS
370
50
 62
4
100
AcDbLine
 10
79.854568
 20
0.634141
 30
0.0
 11
79.607933
 21
0.759857
 31
0.0
  0
LINE
  5
755
330
1F
100
AcDbEntity
  8
1
  6
CONTINUOUS
370
50
 62
4
100
AcDbLine
 10
96.183296
 20
0.636795
 30
0.0
 11
95.938606
 21
0.76138
 31
0.0
  0
LINE
  5
756
330
1F
100
AcDbEntity
  8
1
  6
CONTINUOUS
370
50
 62
4
100
AcDbLine
 10
71.682121
 20
0.635904
 30
0.0
 11
71.43618
 21
0.761021
 31
0.0
  0
LINE
  5
757
330
1F
100
AcDbEntity
  8
1
  6
CONTINUOUS
370
50
 62
4
100
AcDbLine
 10
104.354622
 20
0.635821
 30
0.0
 11
104.107147
 21
0.761658
 31
0.0
  0
LINE
  5
758
330
1F
100
AcDbEntity
  8
1
  6
CONTINUOUS
370
50
 62
4
100
AcDbLine
 10
54.744938
 20
-0.7735759999999999
 30
0.0
 11
54.493118
 21
-0.645689
 31
0.0
  0
LINE
  5
759
330
1F
100
AcDbEntity
  8
1
  6
CONTINUOUS
370
50
 62
4
100
AcDbLine
 10
111.888321
 20
-0.757768
 30
0.0
 11
111.64222
 21
-0.63284
 31
0.0
  0
LINE
  5
75A
330
1F
100
AcDbEntity
  8
1
  6
CONTINUOUS
370
50
 62
4
100
AcDbLine
 10
87.39364599999999
 20
-0.7621509999999999
 30
0.0
 11
87.146507
 21
-0.637116
 31
0.0
  0
LINE
  5
75B
330
1F
100
AcDbEntity
  8
1
  6
CONTINUOUS
370
50
 62
4
100
AcDbLine
 10
62.893322
 20
-0.7637689999999999
 30
0.0
 11
62.647385
 21
-0.639408
 31
0.0
  0
LINE
  5
75C
330
1F
100
AcDbEntity
  8
1
  6
CONTINUOUS
370
50
 62
4
100
AcDbLine
 10
55.999565
 20
0.277109
 30
0.0
 11
55.999424
 21
0.27718
 31
0.0
  0
LINE
  5
75D
330
1F
100
AcDbEntity
  8
1
  6
CONTINUOUS
370
50
 62
4
100
AcDbLine
 10
55.282829
 20
0.6689069999999999
 30
0.0
 11
55.041977
 21
0.789951
 31
0.0
  0
LINE
  5
75E
330
1F
100
AcDbEntity
  8
1
  6
CONTINUOUS
370
50
 62
4
100
AcDbLine
 10
60.171997
 20
0.735228
 30
0.0
 11
59.922943
 21
0.8576459999999999
 31
0.0
  0
LINE
  5
75F
330
1F
100
AcDbEntity
  8
1
  6
CONTINUOUS
370
50
 62
4
100
AcDbLine
 10
84.670059
 20
0.7378129999999999
 30
0.0
 11
84.422798
 21
0.8592339999999999
 31
0.0
  0
LINE
  5
760
330
1F
100
AcDbEntity
  8
1
  6
CONTINUOUS
370
50
 62
4
100
AcDbLine
 10
82.573814
 20
-0.860189
 30
0.0
 11
82.324562
 21
-0.737981
 31
0.0
  0
LINE
  5
761
330
1F
100
AcDbEntity
  8
1
  6
CONTINUOUS
370
50
 62
4
100
AcDbLine
 10
109.166656
 20
0.7411409999999999
 30
0.0
 11
108.918266
 21
0.862888
 31
0.0
  0
LINE
  5
762
330
1F
100
AcDbEntity
  8
1
  6
CONTINUOUS
370
50
 62
4
100
AcDbLine
 10
58.072567
 20
-0.8615039999999999
 30
0.0
 11
57.825027
 21
-0.7402839999999999
 31
0.0
  0
LINE
  5
763
330
1F
100
AcDbEntity
  8
1
  6
CONTINUOUS
370
50
 62
4
100
AcDbLine
 10
56.0
 20
0.276897
 30
0.0
 11
55.999855
 21
0.276968
 31
0.0
  0
LINE
  5
764
330
1F
100
AcDbEntity
  8
1
  6
CONTINUOUS
370
50
 62
4
100
AcDbLine
 10
55.99971
 20
0.277038
 30
0.0
 11
55.999565
 21
0.277109
 31
0.0
  0
LINE
  5
765
330
1F
100
AcDbEntity
  8
1
  6
CONTINUOUS
370
50
 62
4
100
AcDbLine
 10
55.99927899999999
 20
0.27725
 30
0.0
 11
55.999134
 21
0.277321
 31
0.0
  0
LINE
  5
766
330
1F
100
AcDbEntity
  8
1
  6
CONTINUOUS
370
50
 62
4
100
AcDbLine
 10
107.085632
 20
-0.863634
 30
0.0
 11
106.836418
 21
-0.74191
 31
0.0
  0
LINE
  5
767
330
1F
100
AcDbEntity
  8
1
  6
CONTINUOUS
370
50
 62
4
100
AcDbLine
 10
98.913681
 20
-0.8611479999999999
 30
0.0
 11
98.66478699999999
 21
-0.739584
 31
0.0
  0
LINE
  5
768
330
1F
100
AcDbEntity
  8
1
  6
CONTINUOUS
370
50
 62
4
100
AcDbLine
 10
119.244949
 20
-0.320087
 30
0.0
 11
119.211716
 21
-0.303865
 31
0.0
  0
LINE
  5
769
330
1F
100
AcDbEntity
  8
1
  6
CONTINUOUS
370
50
 62
4
100
AcDbLine
 10
74.411514
 20
-0.8620869999999999
 30
0.0
 11
74.161789
 21
-0.74027
 31
0.0
  0
LINE
  5
76A
330
1F
100
AcDbEntity
  8
1
  6
CONTINUOUS
370
50
 62
4
100
AcDbLine
 10
76.492195
 20
0.743983
 30
0.0
 11
76.24245499999999
 21
0.8654919999999999
 31
0.0
  0
LINE
  5
76B
330
1F
100
AcDbEntity
  8
1
  6
CONTINUOUS
370
50
 62
4
100
AcDbLine
 10
71.29757699999999
 20
-0.8788929999999999
 30
0.0
 11
71.052643
 21
-0.7599199999999999
 31
0.0
  0
LINE
  5
76C
330
1F
100
AcDbEntity
  8
1
  6
CONTINUOUS
370
50
 62
4
100
AcDbLine
 10
117.328552
 20
0.744076
 30
0.0
 11
117.080009
 21
0.864784
 31
0.0
  0
LINE
  5
76D
330
1F
100
AcDbEntity
  8
1
  6
CONTINUOUS
370
50
 62
4
100
AcDbLine
 10
68.33715099999999
 20
0.737178
 30
0.0
 11
68.086975
 21
0.858661
 31
0.0
  0
LINE
  5
76E
330
1F
100
AcDbEntity
  8
1
  6
CONTINUOUS
370
50
 62
4
100
AcDbLine
 10
92.832436
 20
0.740906
 30
0.0
 11
92.58236699999999
 21
0.8622719999999999
 31
0.0
  0
LINE
  5
76F
330
1F
100
AcDbEntity
  8
1
  6
CONTINUOUS
370
50
 62
4
100
AcDbLine
 10
115.247131
 20
-0.8602289999999999
 30
0.0
 11
114.996468
 21
-0.7386039999999999
 31
0.0
  0
LINE
  5
770
330
1F
100
AcDbEntity
  8
1
  6
CONTINUOUS
370
50
 62
4
100
AcDbLine
 10
95.938606
 20
0.76138
 30
0.0
 11
95.695168
 21
0.8794609999999999
 31
0.0
  0
LINE
  5
771
330
1F
100
AcDbEntity
  8
1
  6
CONTINUOUS
370
50
 62
4
100
AcDbLine
 10
100.994568
 20
0.744366
 30
0.0
 11
100.743958
 21
0.865915
 31
0.0
  0
LINE
  5
772
330
1F
100
AcDbEntity
  8
1
  6
CONTINUOUS
370
50
 62
4
100
AcDbLine
 10
71.43618
 20
0.761021
 30
0.0
 11
71.19210799999999
 21
0.879389
 31
0.0
  0
LINE
  5
773
330
1F
100
AcDbEntity
  8
1
  6
CONTINUOUS
370
50
 62
4
100
AcDbLine
 10
95.81179
 20
-0.8837069999999999
 30
0.0
 11
95.56599399999999
 21
-0.7645839999999999
 31
0.0
  0
LINE
  5
774
330
1F
100
AcDbEntity
  8
1
  6
CONTINUOUS
370
50
 62
4
100
AcDbLine
 10
66.239464
 20
-0.860019
 30
0.0
 11
65.98975399999999
 21
-0.7390519999999999
 31
0.0
  0
LINE
  5
775
330
1F
100
AcDbEntity
  8
1
  6
CONTINUOUS
370
50
 62
4
100
AcDbLine
 10
87.77480299999999
 20
0.760334
 30
0.0
 11
87.529854
 21
0.878891
 31
0.0
  0
LINE
  5
776
330
1F
100
AcDbEntity
  8
1
  6
CONTINUOUS
370
50
 62
4
100
AcDbLine
 10
63.265648
 20
0.7632639999999999
 30
0.0
 11
63.019974
 21
0.882114
 31
0.0
  0
LINE
  5
777
330
1F
100
AcDbEntity
  8
1
  6
CONTINUOUS
370
50
 62
4
100
AcDbLine
 10
90.750023
 20
-0.863221
 30
0.0
 11
90.500198
 21
-0.7423989999999999
 31
0.0
  0
LINE
  5
778
330
1F
100
AcDbEntity
  8
1
  6
CONTINUOUS
370
50
 62
4
100
AcDbLine
 10
51.89567899999999
 20
0.790594
 30
0.0
 11
51.657085
 21
0.9058379999999999
 31
0.0
  0
LINE
  5
779
330
1F
100
AcDbEntity
  8
1
  6
CONTINUOUS
370
50
 62
4
100
AcDbLine
 10
63.13666499999999
 20
-0.8812949999999999
 30
0.0
 11
62.893322
 21
-0.7637689999999999
 31
0.0
  0
LINE
  5
77A
330
1F
100
AcDbEntity
  8
1
  6
CONTINUOUS
370
50
 62
4
100
AcDbLine
 10
112.275742
 20
0.761486
 30
0.0
 11
112.029793
 21
0.880257
 31
0.0
  0
LINE
  5
77B
330
1F
100
AcDbEntity
  8
1
  6
CONTINUOUS
370
50
 62
4
100
AcDbLine
 10
55.999855
 20
0.276968
 30
0.0
 11
55.99971
 21
0.277038
 31
0.0
  0
LINE
  5
77C
330
1F
100
AcDbEntity
  8
1
  6
CONTINUOUS
370
50
 62
4
100
AcDbLine
 10
55.999424
 20
0.27718
 30
0.0
 11
55.99927899999999
 21
0.27725
 31
0.0
  0
LINE
  5
77D
330
1F
100
AcDbEntity
  8
1
  6
CONTINUOUS
370
50
 62
4
100
AcDbLine
 10
112.133652
 20
-0.876093
 30
0.0
 11
111.888321
 21
-0.757768
 31
0.0
  0
LINE
  5
77E
330
1F
100
AcDbEntity
  8
1
  6
CONTINUOUS
370
50
 62
4
100
AcDbLine
 10
87.63988499999999
 20
-0.880903
 30
0.0
 11
87.39364599999999
 21
-0.7621509999999999
 31
0.0
  0
LINE
  5
77F
330
1F
100
AcDbEntity
  8
1
  6
CONTINUOUS
370
50
 62
4
100
AcDbLine
 10
103.974045
 20
-0.880799
 30
0.0
 11
103.727966
 21
-0.762502
 31
0.0
  0
LINE
  5
780
330
1F
100
AcDbEntity
  8
1
  6
CONTINUOUS
370
50
 62
4
100
AcDbLine
 10
79.607933
 20
0.759857
 30
0.0
 11
79.360626
 21
0.878641
 31
0.0
  0
LINE
  5
781
330
1F
100
AcDbEntity
  8
1
  6
CONTINUOUS
370
50
 62
4
100
AcDbLine
 10
79.469925
 20
-0.880444
 30
0.0
 11
79.222748
 21
-0.761736
 31
0.0
  0
LINE
  5
782
330
1F
100
AcDbEntity
  8
1
  6
CONTINUOUS
370
50
 62
4
100
AcDbLine
 10
104.107147
 20
0.761658
 30
0.0
 11
103.859306
 21
0.880562
 31
0.0
  0
LINE
  5
783
330
1F
100
AcDbEntity
  8
1
  6
CONTINUOUS
370
50
 62
4
100
AcDbLine
 10
54.997581
 20
-0.8939309999999999
 30
0.0
 11
54.744938
 21
-0.7735759999999999
 31
0.0
  0
LINE
  5
784
330
1F
100
AcDbEntity
  8
1
  6
CONTINUOUS
370
50
 62
4
100
AcDbLine
 10
51.095467
 20
1.279153
 30
0.0
 11
51.010887
 21
1.319425
 31
0.0
  0
LINE
  5
785
330
1F
100
AcDbEntity
  8
1
  6
CONTINUOUS
370
50
 62
4
100
AcDbLine
 10
55.041977
 20
0.789951
 30
0.0
 11
54.800583
 21
0.9041779999999999
 31
0.0
  0
LINE
  5
786
330
1F
100
AcDbEntity
  8
1
  6
CONTINUOUS
370
50
 62
4
100
AcDbLine
 10
119.276535
 20
-0.334733
 30
0.0
 11
119.244949
 21
-0.320087
 31
0.0
  0
LINE
  5
787
330
1F
100
AcDbEntity
  8
1
  6
CONTINUOUS
370
50
 62
4
100
AcDbLine
 10
59.922943
 20
0.8576459999999999
 30
0.0
 11
59.674225
 21
0.9718939999999999
 31
0.0
  0
LINE
  5
788
330
1F
100
AcDbEntity
  8
1
  6
CONTINUOUS
370
50
 62
4
100
AcDbLine
 10
84.422798
 20
0.8592339999999999
 30
0.0
 11
84.176163
 21
0.972309
 31
0.0
  0
LINE
  5
789
330
1F
100
AcDbEntity
  8
1
  6
CONTINUOUS
370
50
 62
4
100
AcDbLine
 10
99.16188799999999
 20
-0.974926
 30
0.0
 11
98.913681
 21
-0.8611479999999999
 31
0.0
  0
LINE
  5
78A
330
1F
100
AcDbEntity
  8
1
  6
CONTINUOUS
370
50
 62
4
100
AcDbLine
 10
68.086975
 20
0.858661
 30
0.0
 11
67.837685
 21
0.9729249999999999
 31
0.0
  0
LINE
  5
78B
330
1F
100
AcDbEntity
  8
1
  6
CONTINUOUS
370
50
 62
4
100
AcDbLine
 10
74.659904
 20
-0.975922
 30
0.0
 11
74.411514
 21
-0.8620869999999999
 31
0.0
  0
LINE
  5
78C
330
1F
100
AcDbEntity
  8
1
  6
CONTINUOUS
370
50
 62
4
100
AcDbLine
 10
92.58236699999999
 20
0.8622719999999999
 30
0.0
 11
92.333878
 21
0.9759629999999999
 31
0.0
  0
LINE
  5
78D
330
1F
100
AcDbEntity
  8
1
  6
CONTINUOUS
370
50
 62
4
100
AcDbLine
 10
117.080009
 20
0.864784
 30
0.0
 11
116.831818
 21
0.9782219999999999
 31
0.0
  0
LINE
  5
78E
330
1F
100
AcDbEntity
  8
1
  6
CONTINUOUS
370
50
 62
4
100
AcDbLine
 10
108.918266
 20
0.862888
 30
0.0
 11
108.668808
 21
0.9766999999999999
 31
0.0
  0
LINE
  5
78F
330
1F
100
AcDbEntity
  8
1
  6
CONTINUOUS
370
50
 62
4
100
AcDbLine
 10
66.489426
 20
-0.9740449999999999
 30
0.0
 11
66.239464
 21
-0.860019
 31
0.0
  0
LINE
  5
790
330
1F
100
AcDbEntity
  8
1
  6
CONTINUOUS
370
50
 62
4
100
AcDbLine
 10
82.824287
 20
-0.97412
 30
0.0
 11
82.573814
 21
-0.860189
 31
0.0
  0
LINE
  5
791
330
1F
100
AcDbEntity
  8
1
  6
CONTINUOUS
370
50
 62
4
100
AcDbLine
 10
90.999359
 20
-0.9765849999999999
 30
0.0
 11
90.750023
 21
-0.863221
 31
0.0
  0
LINE
  5
792
330
1F
100
AcDbEntity
  8
1
  6
CONTINUOUS
370
50
 62
4
100
AcDbLine
 10
115.497543
 20
-0.973977
 30
0.0
 11
115.247131
 21
-0.8602289999999999
 31
0.0
  0
LINE
  5
793
330
1F
100
AcDbEntity
  8
1
  6
CONTINUOUS
370
50
 62
4
100
AcDbLine
 10
112.377754
 20
-0.9869429999999999
 30
0.0
 11
112.133652
 21
-0.876093
 31
0.0
  0
LINE
  5
794
330
1F
100
AcDbEntity
  8
1
  6
CONTINUOUS
370
50
 62
4
100
AcDbLine
 10
58.321526
 20
-0.9745499999999999
 30
0.0
 11
58.072567
 21
-0.8615039999999999
 31
0.0
  0
LINE
  5
795
330
1F
100
AcDbEntity
  8
1
  6
CONTINUOUS
370
50
 62
4
100
AcDbLine
 10
107.33567
 20
-0.977093
 30
0.0
 11
107.085632
 21
-0.863634
 31
0.0
  0
LINE
  5
796
330
1F
100
AcDbEntity
  8
1
  6
CONTINUOUS
370
50
 62
4
100
AcDbLine
 10
71.19210799999999
 20
0.879389
 30
0.0
 11
70.947998
 21
0.9900589999999999
 31
0.0
  0
LINE
  5
797
330
1F
100
AcDbEntity
  8
1
  6
CONTINUOUS
370
50
 62
4
100
AcDbLine
 10
63.379951
 20
-0.99159
 30
0.0
 11
63.13666499999999
 21
-0.8812949999999999
 31
0.0
  0
LINE
  5
798
330
1F
100
AcDbEntity
  8
1
  6
CONTINUOUS
370
50
 62
4
100
AcDbLine
 10
87.885391
 20
-0.9921209999999999
 30
0.0
 11
87.63988499999999
 21
-0.880903
 31
0.0
  0
LINE
  5
799
330
1F
100
AcDbEntity
  8
1
  6
CONTINUOUS
370
50
 62
4
100
AcDbLine
 10
95.695168
 20
0.8794609999999999
 30
0.0
 11
95.450768
 21
0.9901629999999999
 31
0.0
  0
LINE
  5
79A
330
1F
100
AcDbEntity
  8
1
  6
CONTINUOUS
370
50
 62
4
100
AcDbLine
 10
100.743958
 20
0.865915
 30
0.0
 11
100.494408
 21
0.9786279999999999
 31
0.0
  0
LINE
  5
79B
330
1F
100
AcDbEntity
  8
1
  6
CONTINUOUS
370
50
 62
4
100
AcDbLine
 10
79.360626
 20
0.878641
 30
0.0
 11
79.114403
 21
0.989814
 31
0.0
  0
LINE
  5
79C
330
1F
100
AcDbEntity
  8
1
  6
CONTINUOUS
370
50
 62
4
100
AcDbLine
 10
103.859306
 20
0.880562
 30
0.0
 11
103.61277
 21
0.991875
 31
0.0
  0
LINE
  5
79D
330
1F
100
AcDbEntity
  8
1
  6
CONTINUOUS
370
50
 62
4
100
AcDbLine
 10
76.24245499999999
 20
0.8654919999999999
 30
0.0
 11
75.992134
 21
0.9784379999999999
 31
0.0
  0
LINE
  5
79E
330
1F
100
AcDbEntity
  8
1
  6
CONTINUOUS
370
50
 62
4
100
AcDbLine
 10
71.544106
 20
-0.989826
 30
0.0
 11
71.29757699999999
 21
-0.8788929999999999
 31
0.0
  0
LINE
  5
79F
330
1F
100
AcDbEntity
  8
1
  6
CONTINUOUS
370
50
 62
4
100
AcDbLine
 10
96.058022
 20
-0.994493
 30
0.0
 11
95.81179
 21
-0.8837069999999999
 31
0.0
  0
LINE
  5
7A0
330
1F
100
AcDbEntity
  8
1
  6
CONTINUOUS
370
50
 62
4
100
AcDbLine
 10
79.71700299999999
 20
-0.9912749999999999
 30
0.0
 11
79.469925
 21
-0.880444
 31
0.0
  0
LINE
  5
7A1
330
1F
100
AcDbEntity
  8
1
  6
CONTINUOUS
370
50
 62
4
100
AcDbLine
 10
87.529854
 20
0.878891
 30
0.0
 11
87.283981
 21
0.989151
 31
0.0
  0
LINE
  5
7A2
330
1F
100
AcDbEntity
  8
1
  6
CONTINUOUS
370
50
 62
4
100
AcDbLine
 10
63.019974
 20
0.882114
 30
0.0
 11
62.773636
 21
0.992482
 31
0.0
  0
LINE
  5
7A3
330
1F
100
AcDbEntity
  8
1
  6
CONTINUOUS
370
50
 62
4
100
AcDbLine
 10
112.029793
 20
0.880257
 30
0.0
 11
111.783127
 21
0.9906189999999999
 31
0.0
  0
LINE
  5
7A4
330
1F
100
AcDbEntity
  8
1
  6
CONTINUOUS
370
50
 62
4
100
AcDbLine
 10
104.21981
 20
-0.9907309999999999
 30
0.0
 11
103.974045
 21
-0.880799
 31
0.0
  0
LINE
  5
7A5
330
1F
100
AcDbEntity
  8
1
  6
CONTINUOUS
370
50
 62
4
100
AcDbLine
 10
55.24953499999999
 20
-1.006063
 30
0.0
 11
54.997581
 21
-0.8939309999999999
 31
0.0
  0
LINE
  5
7A6
330
1F
100
AcDbEntity
  8
1
  6
CONTINUOUS
370
50
 62
4
100
AcDbLine
 10
54.800583
 20
0.9041779999999999
 30
0.0
 11
54.559879
 21
1.010938
 31
0.0
  0
LINE
  5
7A7
330
1F
100
AcDbEntity
  8
1
  6
CONTINUOUS
370
50
 62
4
100
AcDbLine
 10
119.307693
 20
-0.348295
 30
0.0
 11
119.276535
 21
-0.334733
 31
0.0
  0
LINE
  5
7A8
330
1F
100
AcDbEntity
  8
1
  6
CONTINUOUS
370
50
 62
4
100
AcDbLine
 10
51.010887
 20
1.319425
 30
0.0
 11
50.925961
 21
1.355837
 31
0.0
  0
LINE
  5
7A9
330
1F
100
AcDbEntity
  8
1
  6
CONTINUOUS
370
50
 62
4
100
AcDbLine
 10
67.837685
 20
0.9729249999999999
 30
0.0
 11
67.58783
 21
1.078567
 31
0.0
  0
LINE
  5
7AA
330
1F
100
AcDbEntity
  8
1
  6
CONTINUOUS
370
50
 62
4
100
AcDbLine
 10
66.738968
 20
-1.079475
 30
0.0
 11
66.489426
 21
-0.9740449999999999
 31
0.0
  0
LINE
  5
7AB
330
1F
100
AcDbEntity
  8
1
  6
CONTINUOUS
370
50
 62
4
100
AcDbLine
 10
92.333878
 20
0.9759629999999999
 30
0.0
 11
92.085876
 21
1.080621
 31
0.0
  0
LINE
  5
7AC
330
1F
100
AcDbEntity
  8
1
  6
CONTINUOUS
370
50
 62
4
100
AcDbLine
 10
115.745949
 20
-1.078763
 30
0.0
 11
115.497543
 21
-0.973977
 31
0.0
  0
LINE
  5
7AD
330
1F
100
AcDbEntity
  8
1
  6
CONTINUOUS
370
50
 62
4
100
AcDbLine
 10
91.24786399999999
 20
-1.081295
 30
0.0
 11
90.999359
 21
-0.9765849999999999
 31
0.0
  0
LINE
  5
7AE
330
1F
100
AcDbEntity
  8
1
  6
CONTINUOUS
370
50
 62
4
100
AcDbLine
 10
99.409714
 20
-1.079258
 30
0.0
 11
99.16188799999999
 21
-0.974926
 31
0.0
  0
LINE
  5
7AF
330
1F
100
AcDbEntity
  8
1
  6
CONTINUOUS
370
50
 62
4
100
AcDbLine
 10
116.831818
 20
0.9782219999999999
 30
0.0
 11
116.583466
 21
1.082718
 31
0.0
  0
LINE
  5
7B0
330
1F
100
AcDbEntity
  8
1
  6
CONTINUOUS
370
50
 62
4
100
AcDbLine
 10
74.908615
 20
-1.080452
 30
0.0
 11
74.659904
 21
-0.975922
 31
0.0
  0
LINE
  5
7B1
330
1F
100
AcDbEntity
  8
1
  6
CONTINUOUS
370
50
 62
4
100
AcDbLine
 10
59.674225
 20
0.9718939999999999
 30
0.0
 11
59.423721
 21
1.077079
 31
0.0
  0
LINE
  5
7B2
330
1F
100
AcDbEntity
  8
1
  6
CONTINUOUS
370
50
 62
4
100
AcDbLine
 10
100.494408
 20
0.9786279999999999
 30
0.0
 11
100.246788
 21
1.082506
 31
0.0
  0
LINE
  5
7B3
330
1F
100
AcDbEntity
  8
1
  6
CONTINUOUS
370
50
 62
4
100
AcDbLine
 10
75.992134
 20
0.9784379999999999
 30
0.0
 11
75.743607
 21
1.082623
 31
0.0
  0
LINE
  5
7B4
330
1F
100
AcDbEntity
  8
1
  6
CONTINUOUS
370
50
 62
4
100
AcDbLine
 10
84.176163
 20
0.972309
 30
0.0
 11
83.92775
 21
1.076337
 31
0.0
  0
LINE
  5
7B5
330
1F
100
AcDbEntity
  8
1
  6
CONTINUOUS
370
50
 62
4
100
AcDbLine
 10
58.571667
 20
-1.079218
 30
0.0
 11
58.321526
 21
-0.9745499999999999
 31
0.0
  0
LINE
  5
7B6
330
1F
100
AcDbEntity
  8
1
  6
CONTINUOUS
370
50
 62
4
100
AcDbLine
 10
112.621819
 20
-1.088971
 30
0.0
 11
112.377754
 21
-0.9869429999999999
 31
0.0
  0
LINE
  5
7B7
330
1F
100
AcDbEntity
  8
1
  6
CONTINUOUS
370
50
 62
4
100
AcDbLine
 10
83.075127
 20
-1.078956
 30
0.0
 11
82.824287
 21
-0.97412
 31
0.0
  0
LINE
  5
7B8
330
1F
100
AcDbEntity
  8
1
  6
CONTINUOUS
370
50
 62
4
100
AcDbLine
 10
107.585754
 20
-1.081544
 30
0.0
 11
107.33567
 21
-0.977093
 31
0.0
  0
LINE
  5
7B9
330
1F
100
AcDbEntity
  8
1
  6
CONTINUOUS
370
50
 62
4
100
AcDbLine
 10
108.668808
 20
0.9766999999999999
 30
0.0
 11
108.418465
 21
1.081243
 31
0.0
  0
LINE
  5
7BA
330
1F
100
AcDbEntity
  8
1
  6
CONTINUOUS
370
50
 62
4
100
AcDbLine
 10
79.114403
 20
0.989814
 30
0.0
 11
78.86955999999999
 21
1.092011
 31
0.0
  0
LINE
  5
7BB
330
1F
100
AcDbEntity
  8
1
  6
CONTINUOUS
370
50
 62
4
100
AcDbLine
 10
103.61277
 20
0.991875
 30
0.0
 11
103.36647
 21
1.094418
 31
0.0
  0
LINE
  5
7BC
330
1F
100
AcDbEntity
  8
1
  6
CONTINUOUS
370
50
 62
4
100
AcDbLine
 10
79.96260099999999
 20
-1.093461
 30
0.0
 11
79.71700299999999
 21
-0.9912749999999999
 31
0.0
  0
LINE
  5
7BD
330
1F
100
AcDbEntity
  8
1
  6
CONTINUOUS
370
50
 62
4
100
AcDbLine
 10
104.464516
 20
-1.092493
 30
0.0
 11
104.21981
 21
-0.9907309999999999
 31
0.0
  0
LINE
  5
7BE
330
1F
100
AcDbEntity
  8
1
  6
CONTINUOUS
370
50
 62
4
100
AcDbLine
 10
88.13164499999999
 20
-1.094525
 30
0.0
 11
87.885391
 21
-0.9921209999999999
 31
0.0
  0
LINE
  5
7BF
330
1F
100
AcDbEntity
  8
1
  6
CONTINUOUS
370
50
 62
4
100
AcDbLine
 10
63.625065
 20
-1.093408
 30
0.0
 11
63.379951
 21
-0.99159
 31
0.0
  0
LINE
  5
7C0
330
1F
100
AcDbEntity
  8
1
  6
CONTINUOUS
370
50
 62
4
100
AcDbLine
 10
70.947998
 20
0.9900589999999999
 30
0.0
 11
70.701988
 21
1.092059
 31
0.0
  0
LINE
  5
7C1
330
1F
100
AcDbEntity
  8
1
  6
CONTINUOUS
370
50
 62
4
100
AcDbLine
 10
111.783127
 20
0.9906189999999999
 30
0.0
 11
111.538094
 21
1.092105
 31
0.0
  0
LINE
  5
7C2
330
1F
100
AcDbEntity
  8
1
  6
CONTINUOUS
370
50
 62
4
100
AcDbLine
 10
87.283981
 20
0.989151
 30
0.0
 11
87.03828399999999
 21
1.090885
 31
0.0
  0
LINE
  5
7C3
330
1F
100
AcDbEntity
  8
1
  6
CONTINUOUS
370
50
 62
4
100
AcDbLine
 10
95.450768
 20
0.9901629999999999
 30
0.0
 11
95.204269
 21
1.092162
 31
0.0
  0
LINE
  5
7C4
330
1F
100
AcDbEntity
  8
1
  6
CONTINUOUS
370
50
 62
4
100
AcDbLine
 10
71.79092399999999
 20
-1.091763
 30
0.0
 11
71.544106
 21
-0.989826
 31
0.0
  0
LINE
  5
7C5
330
1F
100
AcDbEntity
  8
1
  6
CONTINUOUS
370
50
 62
4
100
AcDbLine
 10
62.773636
 20
0.992482
 30
0.0
 11
62.528484
 21
1.093643
 31
0.0
  0
LINE
  5
7C6
330
1F
100
AcDbEntity
  8
1
  6
CONTINUOUS
370
50
 62
4
100
AcDbLine
 10
55.49938599999999
 20
-1.108676
 30
0.0
 11
55.24953499999999
 21
-1.006063
 31
0.0
  0
LINE
  5
7C7
330
1F
100
AcDbEntity
  8
1
  6
CONTINUOUS
370
50
 62
4
100
AcDbLine
 10
96.304245
 20
-1.095466
 30
0.0
 11
96.058022
 21
-0.994493
 31
0.0
  0
LINE
  5
7C8
330
1F
100
AcDbEntity
  8
1
  6
CONTINUOUS
370
50
 62
4
100
AcDbLine
 10
54.559879
 20
1.010938
 30
0.0
 11
54.320408
 21
1.10907
 31
0.0
  0
LINE
  5
7C9
330
1F
100
AcDbEntity
  8
1
  6
CONTINUOUS
370
50
 62
4
100
AcDbLine
 10
119.339096
 20
-0.360885
 30
0.0
 11
119.307693
 21
-0.348295
 31
0.0
  0
LINE
  5
7CA
330
1F
100
AcDbEntity
  8
1
  6
CONTINUOUS
370
50
 62
4
100
AcDbLine
 10
115.99353
 20
-1.173424
 30
0.0
 11
115.745949
 21
-1.078763
 31
0.0
  0
LINE
  5
7CB
330
1F
100
AcDbEntity
  8
1
  6
CONTINUOUS
370
50
 62
4
100
AcDbLine
 10
66.98861699999999
 20
-1.174807
 30
0.0
 11
66.738968
 21
-1.079475
 31
0.0
  0
LINE
  5
7CC
330
1F
100
AcDbEntity
  8
1
  6
CONTINUOUS
370
50
 62
4
100
AcDbLine
 10
58.821186
 20
-1.174487
 30
0.0
 11
58.571667
 21
-1.079218
 31
0.0
  0
LINE
  5
7CD
330
1F
100
AcDbEntity
  8
1
  6
CONTINUOUS
370
50
 62
4
100
AcDbLine
 10
83.32428
 20
-1.173982
 30
0.0
 11
83.075127
 21
-1.078956
 31
0.0
  0
LINE
  5
7CE
330
1F
100
AcDbEntity
  8
1
  6
CONTINUOUS
370
50
 62
4
100
AcDbLine
 10
100.246788
 20
1.082506
 30
0.0
 11
99.999123
 21
1.176933
 31
0.0
  0
LINE
  5
7CF
330
1F
100
AcDbEntity
  8
1
  6
CONTINUOUS
370
50
 62
4
100
AcDbLine
 10
91.49608599999999
 20
-1.175931
 30
0.0
 11
91.24786399999999
 21
-1.081295
 31
0.0
  0
LINE
  5
7D0
330
1F
100
AcDbEntity
  8
1
  6
CONTINUOUS
370
50
 62
4
100
AcDbLine
 10
75.743607
 20
1.082623
 30
0.0
 11
75.494919
 21
1.177343
 31
0.0
  0
LINE
  5
7D1
330
1F
100
AcDbEntity
  8
1
  6
CONTINUOUS
370
50
 62
4
100
AcDbLine
 10
50.925961
 20
1.355837
 30
0.0
 11
50.840767
 21
1.388281
 31
0.0
  0
LINE
  5
7D2
330
1F
100
AcDbEntity
  8
1
  6
CONTINUOUS
370
50
 62
4
100
AcDbLine
 10
67.58783
 20
1.078567
 30
0.0
 11
67.336761
 21
1.173944
 31
0.0
  0
LINE
  5
7D3
330
1F
100
AcDbEntity
  8
1
  6
CONTINUOUS
370
50
 62
4
100
AcDbLine
 10
83.92775
 20
1.076337
 30
0.0
 11
83.67765
 21
1.171345
 31
0.0
  0
LINE
  5
7D4
330
1F
100
AcDbEntity
  8
1
  6
CONTINUOUS
370
50
 62
4
100
AcDbLine
 10
107.835068
 20
-1.176239
 30
0.0
 11
107.585754
 21
-1.081544
 31
0.0
  0
LINE
  5
7D5
330
1F
100
AcDbEntity
  8
1
  6
CONTINUOUS
370
50
 62
4
100
AcDbLine
 10
92.085876
 20
1.080621
 30
0.0
 11
91.836365
 21
1.175272
 31
0.0
  0
LINE
  5
7D6
330
1F
100
AcDbEntity
  8
1
  6
CONTINUOUS
370
50
 62
4
100
AcDbLine
 10
59.423721
 20
1.077079
 30
0.0
 11
59.172318
 21
1.172399
 31
0.0
  0
LINE
  5
7D7
330
1F
100
AcDbEntity
  8
1
  6
CONTINUOUS
370
50
 62
4
100
AcDbLine
 10
108.418465
 20
1.081243
 30
0.0
 11
108.168198
 21
1.175854
 31
0.0
  0
LINE
  5
7D8
330
1F
100
AcDbEntity
  8
1
  6
CONTINUOUS
370
50
 62
4
100
AcDbLine
 10
116.583466
 20
1.082718
 30
0.0
 11
116.334038
 21
1.177008
 31
0.0
  0
LINE
  5
7D9
330
1F
100
AcDbEntity
  8
1
  6
CONTINUOUS
370
50
 62
4
100
AcDbLine
 10
99.659279
 20
-1.173543
 30
0.0
 11
99.409714
 21
-1.079258
 31
0.0
  0
LINE
  5
7DA
330
1F
100
AcDbEntity
  8
1
  6
CONTINUOUS
370
50
 62
4
100
AcDbLine
 10
87.03828399999999
 20
1.090885
 30
0.0
 11
86.79420499999999
 21
1.183041
 31
0.0
  0
LINE
  5
7DB
330
1F
100
AcDbEntity
  8
1
  6
CONTINUOUS
370
50
 62
4
100
AcDbLine
 10
75.158958
 20
-1.174958
 30
0.0
 11
74.908615
 21
-1.080452
 31
0.0
  0
LINE
  5
7DC
330
1F
100
AcDbEntity
  8
1
  6
CONTINUOUS
370
50
 62
4
100
AcDbLine
 10
104.708595
 20
-1.184582
 30
0.0
 11
104.464516
 21
-1.092493
 31
0.0
  0
LINE
  5
7DD
330
1F
100
AcDbEntity
  8
1
  6
CONTINUOUS
370
50
 62
4
100
AcDbLine
 10
111.538094
 20
1.092105
 30
0.0
 11
111.294487
 21
1.18396
 31
0.0
  0
LINE
  5
7DE
330
1F
100
AcDbEntity
  8
1
  6
CONTINUOUS
370
50
 62
4
100
AcDbLine
 10
80.207588
 20
-1.185804
 30
0.0
 11
79.96260099999999
 21
-1.093461
 31
0.0
  0
LINE
  5
7DF
330
1F
100
AcDbEntity
  8
1
  6
CONTINUOUS
370
50
 62
4
100
AcDbLine
 10
62.528484
 20
1.093643
 30
0.0
 11
62.285118
 21
1.185261
 31
0.0
  0
LINE
  5
7E0
330
1F
100
AcDbEntity
  8
1
  6
CONTINUOUS
370
50
 62
4
100
AcDbLine
 10
78.86955999999999
 20
1.092011
 30
0.0
 11
78.62409199999999
 21
1.184413
 31
0.0
  0
LINE
  5
7E1
330
1F
100
AcDbEntity
  8
1
  6
CONTINUOUS
370
50
 62
4
100
AcDbLine
 10
112.866341
 20
-1.180881
 30
0.0
 11
112.621819
 21
-1.088971
 31
0.0
  0
LINE
  5
7E2
330
1F
100
AcDbEntity
  8
1
  6
CONTINUOUS
370
50
 62
4
100
AcDbLine
 10
72.036697
 20
-1.184092
 30
0.0
 11
71.79092399999999
 21
-1.091763
 31
0.0
  0
LINE
  5
7E3
330
1F
100
AcDbEntity
  8
1
  6
CONTINUOUS
370
50
 62
4
100
AcDbLine
 10
103.36647
 20
1.094418
 30
0.0
 11
103.12014
 21
1.186714
 31
0.0
  0
LINE
  5
7E4
330
1F
100
AcDbEntity
  8
1
  6
CONTINUOUS
370
50
 62
4
100
AcDbLine
 10
96.54763
 20
-1.186391
 30
0.0
 11
96.304245
 21
-1.095466
 31
0.0
  0
LINE
  5
7E5
330
1F
100
AcDbEntity
  8
1
  6
CONTINUOUS
370
50
 62
4
100
AcDbLine
 10
120.0
 20
0.0
 30
0.0
 11
119.908417
 21
0.034177
 31
0.0
  0
LINE
  5
7E6
330
1F
100
AcDbEntity
  8
1
  6
CONTINUOUS
370
50
 62
4
100
AcDbLine
 10
63.871216
 20
-1.185261
 30
0.0
 11
63.625065
 21
-1.093408
 31
0.0
  0
LINE
  5
7E7
330
1F
100
AcDbEntity
  8
1
  6
CONTINUOUS
370
50
 62
4
100
AcDbLine
 10
95.204269
 20
1.092162
 30
0.0
 11
94.957268
 21
1.184326
 31
0.0
  0
LINE
  5
7E8
330
1F
100
AcDbEntity
  8
1
  6
CONTINUOUS
370
50
 62
4
100
AcDbLine
 10
70.701988
 20
1.092059
 30
0.0
 11
70.455139
 21
1.184161
 31
0.0
  0
LINE
  5
7E9
330
1F
100
AcDbEntity
  8
1
  6
CONTINUOUS
370
50
 62
4
100
AcDbLine
 10
88.378372
 20
-1.186495
 30
0.0
 11
88.13164499999999
 21
-1.094525
 31
0.0
  0
LINE
  5
7EA
330
1F
100
AcDbEntity
  8
1
  6
CONTINUOUS
370
50
 62
4
100
AcDbLine
 10
55.748436
 20
-1.200646
 30
0.0
 11
55.49938599999999
 21
-1.108676
 31
0.0
  0
LINE
  5
7EB
330
1F
100
AcDbEntity
  8
1
  6
CONTINUOUS
370
50
 62
4
100
AcDbLine
 10
54.320408
 20
1.10907
 30
0.0
 11
54.080624
 21
1.197595
 31
0.0
  0
LINE
  5
7EC
330
1F
100
AcDbEntity
  8
1
  6
CONTINUOUS
370
50
 62
4
100
AcDbLine
 10
120.0
 20
0.0
 30
0.0
 11
119.904427
 21
0.034184
 31
0.0
  0
LINE
  5
7ED
330
1F
100
AcDbEntity
  8
1
  6
CONTINUOUS
370
50
 62
4
100
AcDbLine
 10
119.370033
 20
-0.371946
 30
0.0
 11
119.339096
 21
-0.360885
 31
0.0
  0
LINE
  5
7EE
330
1F
100
AcDbEntity
  8
1
  6
CONTINUOUS
370
50
 62
4
100
AcDbLine
 10
50.063381
 20
-1.479682
 30
0.0
 11
50.02861
 21
-1.467829
 31
0.0
  0
LINE
  5
7EF
330
1F
100
AcDbEntity
  8
1
  6
CONTINUOUS
370
50
 62
4
100
AcDbLine
 10
83.67765
 20
1.171345
 30
0.0
 11
83.42843599999999
 21
1.256043
 31
0.0
  0
LINE
  5
7F0
330
1F
100
AcDbEntity
  8
1
  6
CONTINUOUS
370
50
 62
4
100
AcDbLine
 10
83.571983
 20
-1.257986
 30
0.0
 11
83.32428
 21
-1.173982
 31
0.0
  0
LINE
  5
7F1
330
1F
100
AcDbEntity
  8
1
  6
CONTINUOUS
370
50
 62
4
100
AcDbLine
 10
59.172318
 20
1.172399
 30
0.0
 11
58.922298
 21
1.257163
 31
0.0
  0
LINE
  5
7F2
330
1F
100
AcDbEntity
  8
1
  6
CONTINUOUS
370
50
 62
4
100
AcDbLine
 10
59.070709
 20
-1.25905
 30
0.0
 11
58.821186
 21
-1.174487
 31
0.0
  0
LINE
  5
7F3
330
1F
100
AcDbEntity
  8
1
  6
CONTINUOUS
370
50
 62
4
100
AcDbLine
 10
108.083344
 20
-1.260077
 30
0.0
 11
107.835068
 21
-1.176239
 31
0.0
  0
LINE
  5
7F4
330
1F
100
AcDbEntity
  8
1
  6
CONTINUOUS
370
50
 62
4
100
AcDbLine
 10
108.168198
 20
1.175854
 30
0.0
 11
107.918915
 21
1.259882
 31
0.0
  0
LINE
  5
7F5
330
1F
100
AcDbEntity
  8
1
  6
CONTINUOUS
370
50
 62
4
100
AcDbLine
 10
116.242546
 20
-1.257314
 30
0.0
 11
115.99353
 21
-1.173424
 31
0.0
  0
LINE
  5
7F6
330
1F
100
AcDbEntity
  8
1
  6
CONTINUOUS
370
50
 62
4
100
AcDbLine
 10
99.909126
 20
-1.257642
 30
0.0
 11
99.659279
 21
-1.173543
 31
0.0
  0
LINE
  5
7F7
330
1F
100
AcDbEntity
  8
1
  6
CONTINUOUS
370
50
 62
4
100
AcDbLine
 10
99.999123
 20
1.176933
 30
0.0
 11
99.751106
 21
1.260412
 31
0.0
  0
LINE
  5
7F8
330
1F
100
AcDbEntity
  8
1
  6
CONTINUOUS
370
50
 62
4
100
AcDbLine
 10
75.40892
 20
-1.259033
 30
0.0
 11
75.158958
 21
-1.174958
 31
0.0
  0
LINE
  5
7F9
330
1F
100
AcDbEntity
  8
1
  6
CONTINUOUS
370
50
 62
4
100
AcDbLine
 10
67.336761
 20
1.173944
 30
0.0
 11
67.085487
 21
1.258335
 31
0.0
  0
LINE
  5
7FA
330
1F
100
AcDbEntity
  8
1
  6
CONTINUOUS
370
50
 62
4
100
AcDbLine
 10
75.494919
 20
1.177343
 30
0.0
 11
75.245331
 21
1.261051
 31
0.0
  0
LINE
  5
7FB
330
1F
100
AcDbEntity
  8
1
  6
CONTINUOUS
370
50
 62
4
100
AcDbLine
 10
67.23951699999999
 20
-1.258933
 30
0.0
 11
66.98861699999999
 21
-1.174807
 31
0.0
  0
LINE
  5
7FC
330
1F
100
AcDbEntity
  8
1
  6
CONTINUOUS
370
50
 62
4
100
AcDbLine
 10
91.745941
 20
-1.259698
 30
0.0
 11
91.49608599999999
 21
-1.175931
 31
0.0
  0
LINE
  5
7FD
330
1F
100
AcDbEntity
  8
1
  6
CONTINUOUS
370
50
 62
4
100
AcDbLine
 10
86.79420499999999
 20
1.183041
 30
0.0
 11
86.54969
 21
1.264862
 31
0.0
  0
LINE
  5
7FE
330
1F
100
AcDbEntity
  8
1
  6
CONTINUOUS
370
50
 62
4
100
AcDbLine
 10
91.836365
 20
1.175272
 30
0.0
 11
91.58603699999999
 21
1.259019
 31
0.0
  0
LINE
  5
7FF
330
1F
100
AcDbEntity
  8
1
  6
CONTINUOUS
370
50
 62
4
100
AcDbLine
 10
72.281181
 20
-1.265876
 30
0.0
 11
72.036697
 21
-1.184092
 31
0.0
  0
LINE
  5
800
330
1F
100
AcDbEntity
  8
1
  6
CONTINUOUS
370
50
 62
4
100
AcDbLine
 10
62.285118
 20
1.185261
 30
0.0
 11
62.04145399999999
 21
1.266626
 31
0.0
  0
LINE
  5
801
330
1F
100
AcDbEntity
  8
1
  6
CONTINUOUS
370
50
 62
4
100
AcDbLine
 10
116.334038
 20
1.177008
 30
0.0
 11
116.084229
 21
1.260424
 31
0.0
  0
LINE
  5
802
330
1F
100
AcDbEntity
  8
1
  6
CONTINUOUS
370
50
 62
4
100
AcDbLine
 10
111.294487
 20
1.18396
 30
0.0
 11
111.050179
 21
1.265496
 31
0.0
  0
LINE
  5
803
330
1F
100
AcDbEntity
  8
1
  6
CONTINUOUS
370
50
 62
4
100
AcDbLine
 10
96.789856
 20
-1.267107
 30
0.0
 11
96.54763
 21
-1.186391
 31
0.0
  0
LINE
  5
804
330
1F
100
AcDbEntity
  8
1
  6
CONTINUOUS
370
50
 62
4
100
AcDbLine
 10
50.840767
 20
1.388281
 30
0.0
 11
50.755508
 21
1.416689
 31
0.0
  0
LINE
  5
805
330
1F
100
AcDbEntity
  8
1
  6
CONTINUOUS
370
50
 62
4
100
AcDbLine
 10
70.455139
 20
1.184161
 30
0.0
 11
70.209518
 21
1.26589
 31
0.0
  0
LINE
  5
806
330
1F
100
AcDbEntity
  8
1
  6
CONTINUOUS
370
50
 62
4
100
AcDbLine
 10
94.957268
 20
1.184326
 30
0.0
 11
94.711456
 21
1.266103
 31
0.0
  0
LINE
  5
807
330
1F
100
AcDbEntity
  8
1
  6
CONTINUOUS
370
50
 62
4
100
AcDbLine
 10
104.954048
 20
-1.266131
 30
0.0
 11
104.708595
 21
-1.184582
 31
0.0
  0
LINE
  5
808
330
1F
100
AcDbEntity
  8
1
  6
CONTINUOUS
370
50
 62
4
100
AcDbLine
 10
119.454048
 20
1.186304
 30
0.0
 11
119.209366
 21
1.26753
 31
0.0
  0
LINE
  5
809
330
1F
100
AcDbEntity
  8
1
  6
CONTINUOUS
370
50
 62
4
100
AcDbLine
 10
113.113297
 20
-1.262725
 30
0.0
 11
112.866341
 21
-1.180881
 31
0.0
  0
LINE
  5
80A
330
1F
100
AcDbEntity
  8
1
  6
CONTINUOUS
370
50
 62
4
100
AcDbLine
 10
80.454048
 20
-1.267441
 30
0.0
 11
80.207588
 21
-1.185804
 31
0.0
  0
LINE
  5
80B
330
1F
100
AcDbEntity
  8
1
  6
CONTINUOUS
370
50
 62
4
100
AcDbLine
 10
64.117119
 20
-1.266624
 30
0.0
 11
63.871216
 21
-1.185261
 31
0.0
  0
LINE
  5
80C
330
1F
100
AcDbEntity
  8
1
  6
CONTINUOUS
370
50
 62
4
100
AcDbLine
 10
78.62409199999999
 20
1.184413
 30
0.0
 11
78.377342
 21
1.265952
 31
0.0
  0
LINE
  5
80D
330
1F
100
AcDbEntity
  8
1
  6
CONTINUOUS
370
50
 62
4
100
AcDbLine
 10
88.623306
 20
-1.26713
 30
0.0
 11
88.378372
 21
-1.186495
 31
0.0
  0
LINE
  5
80E
330
1F
100
AcDbEntity
  8
1
  6
CONTINUOUS
370
50
 62
4
100
AcDbLine
 10
103.12014
 20
1.186714
 30
0.0
 11
102.873413
 21
1.26782
 31
0.0
  0
LINE
  5
80F
330
1F
100
AcDbEntity
  8
1
  6
CONTINUOUS
370
50
 62
4
100
AcDbLine
 10
54.080624
 20
1.197595
 30
0.0
 11
53.839405
 21
1.275768
 31
0.0
  0
LINE
  5
810
330
1F
100
AcDbEntity
  8
1
  6
CONTINUOUS
370
50
 62
4
100
AcDbLine
 10
55.999134
 20
-1.281445
 30
0.0
 11
55.748436
 21
-1.200646
 31
0.0
  0
LINE
  5
811
330
1F
100
AcDbEntity
  8
1
  6
CONTINUOUS
370
50
 62
4
100
AcDbLine
 10
119.399788
 20
-0.380923
 30
0.0
 11
119.370033
 21
-0.371946
 31
0.0
  0
LINE
  5
812
330
1F
100
AcDbEntity
  8
1
  6
CONTINUOUS
370
50
 62
4
100
AcDbLine
 10
83.42843599999999
 20
1.256043
 30
0.0
 11
83.178871
 21
1.329334
 31
0.0
  0
LINE
  5
813
330
1F
100
AcDbEntity
  8
1
  6
CONTINUOUS
370
50
 62
4
100
AcDbLine
 10
58.922298
 20
1.257163
 30
0.0
 11
58.673176
 21
1.330248
 31
0.0
  0
LINE
  5
814
330
1F
100
AcDbEntity
  8
1
  6
CONTINUOUS
370
50
 62
4
100
AcDbLine
 10
100.158295
 20
-1.330437
 30
0.0
 11
99.909126
 21
-1.257642
 31
0.0
  0
LINE
  5
815
330
1F
100
AcDbEntity
  8
1
  6
CONTINUOUS
370
50
 62
4
100
AcDbLine
 10
75.657455
 20
-1.331553
 30
0.0
 11
75.40892
 21
-1.259033
 31
0.0
  0
LINE
  5
816
330
1F
100
AcDbEntity
  8
1
  6
CONTINUOUS
370
50
 62
4
100
AcDbLine
 10
83.82047299999999
 20
-1.330396
 30
0.0
 11
83.571983
 21
-1.257986
 31
0.0
  0
LINE
  5
817
330
1F
100
AcDbEntity
  8
1
  6
CONTINUOUS
370
50
 62
4
100
AcDbLine
 10
107.918915
 20
1.259882
 30
0.0
 11
107.670128
 21
1.332275
 31
0.0
  0
LINE
  5
818
330
1F
100
AcDbEntity
  8
1
  6
CONTINUOUS
370
50
 62
4
100
AcDbLine
 10
67.085487
 20
1.258335
 30
0.0
 11
66.835083
 21
1.331172
 31
0.0
  0
LINE
  5
819
330
1F
100
AcDbEntity
  8
1
  6
CONTINUOUS
370
50
 62
4
100
AcDbLine
 10
59.321068
 20
-1.331746
 30
0.0
 11
59.070709
 21
-1.25905
 31
0.0
  0
LINE
  5
81A
330
1F
100
AcDbEntity
  8
1
  6
CONTINUOUS
370
50
 62
4
100
AcDbLine
 10
91.58603699999999
 20
1.259019
 30
0.0
 11
91.33655499999999
 21
1.33139
 31
0.0
  0
LINE
  5
81B
330
1F
100
AcDbEntity
  8
1
  6
CONTINUOUS
370
50
 62
4
100
AcDbLine
 10
108.33252
 20
-1.332297
 30
0.0
 11
108.083344
 21
-1.260077
 31
0.0
  0
LINE
  5
81C
330
1F
100
AcDbEntity
  8
1
  6
CONTINUOUS
370
50
 62
4
100
AcDbLine
 10
67.489426
 20
-1.33125
 30
0.0
 11
67.23951699999999
 21
-1.258933
 31
0.0
  0
LINE
  5
81D
330
1F
100
AcDbEntity
  8
1
  6
CONTINUOUS
370
50
 62
4
100
AcDbLine
 10
116.49324
 20
-1.329764
 30
0.0
 11
116.242546
 21
-1.257314
 31
0.0
  0
LINE
  5
81E
330
1F
100
AcDbEntity
  8
1
  6
CONTINUOUS
370
50
 62
4
100
AcDbLine
 10
116.084229
 20
1.260424
 30
0.0
 11
115.835007
 21
1.332434
 31
0.0
  0
LINE
  5
81F
330
1F
100
AcDbEntity
  8
1
  6
CONTINUOUS
370
50
 62
4
100
AcDbLine
 10
113.359993
 20
-1.333847
 30
0.0
 11
113.113297
 21
-1.262725
 31
0.0
  0
LINE
  5
820
330
1F
100
AcDbEntity
  8
1
  6
CONTINUOUS
370
50
 62
4
100
AcDbLine
 10
75.245331
 20
1.261051
 30
0.0
 11
74.99542199999999
 21
1.333078
 31
0.0
  0
LINE
  5
821
330
1F
100
AcDbEntity
  8
1
  6
CONTINUOUS
370
50
 62
4
100
AcDbLine
 10
70.209518
 20
1.26589
 30
0.0
 11
69.964897
 21
1.336374
 31
0.0
  0
LINE
  5
822
330
1F
100
AcDbEntity
  8
1
  6
CONTINUOUS
370
50
 62
4
100
AcDbLine
 10
91.996338
 20
-1.331837
 30
0.0
 11
91.745941
 21
-1.259698
 31
0.0
  0
LINE
  5
823
330
1F
100
AcDbEntity
  8
1
  6
CONTINUOUS
370
50
 62
4
100
AcDbLine
 10
99.751106
 20
1.260412
 30
0.0
 11
99.50160199999999
 21
1.332222
 31
0.0
  0
LINE
  5
824
330
1F
100
AcDbEntity
  8
1
  6
CONTINUOUS
370
50
 62
4
100
AcDbLine
 10
94.711456
 20
1.266103
 30
0.0
 11
94.466904
 21
1.336467
 31
0.0
  0
LINE
  5
825
330
1F
100
AcDbEntity
  8
1
  6
CONTINUOUS
370
50
 62
4
100
AcDbLine
 10
72.526474
 20
-1.336393
 30
0.0
 11
72.281181
 21
-1.265876
 31
0.0
  0
LINE
  5
826
330
1F
100
AcDbEntity
  8
1
  6
CONTINUOUS
370
50
 62
4
100
AcDbLine
 10
64.36172499999999
 20
-1.336913
 30
0.0
 11
64.117119
 21
-1.266624
 31
0.0
  0
LINE
  5
827
330
1F
100
AcDbEntity
  8
1
  6
CONTINUOUS
370
50
 62
4
100
AcDbLine
 10
97.033287
 20
-1.336966
 30
0.0
 11
96.789856
 21
-1.267107
 31
0.0
  0
LINE
  5
828
330
1F
100
AcDbEntity
  8
1
  6
CONTINUOUS
370
50
 62
4
100
AcDbLine
 10
88.866447
 20
-1.336853
 30
0.0
 11
88.623306
 21
-1.26713
 31
0.0
  0
LINE
  5
829
330
1F
100
AcDbEntity
  8
1
  6
CONTINUOUS
370
50
 62
4
100
AcDbLine
 10
119.209366
 20
1.26753
 30
0.0
 11
118.964859
 21
1.337603
 31
0.0
  0
LINE
  5
82A
330
1F
100
AcDbEntity
  8
1
  6
CONTINUOUS
370
50
 62
4
100
AcDbLine
 10
86.54969
 20
1.264862
 30
0.0
 11
86.303139
 21
1.335495
 31
0.0
  0
LINE
  5
82B
330
1F
100
AcDbEntity
  8
1
  6
CONTINUOUS
370
50
 62
4
100
AcDbLine
 10
62.04145399999999
 20
1.266626
 30
0.0
 11
61.795738
 21
1.336913
 31
0.0
  0
LINE
  5
82C
330
1F
100
AcDbEntity
  8
1
  6
CONTINUOUS
370
50
 62
4
100
AcDbLine
 10
50.755508
 20
1.416689
 30
0.0
 11
50.67024199999999
 21
1.441058
 31
0.0
  0
LINE
  5
82D
330
1F
100
AcDbEntity
  8
1
  6
CONTINUOUS
370
50
 62
4
100
AcDbLine
 10
78.377342
 20
1.265952
 30
0.0
 11
78.13156099999999
 21
1.336132
 31
0.0
  0
LINE
  5
82E
330
1F
100
AcDbEntity
  8
1
  6
CONTINUOUS
370
50
 62
4
100
AcDbLine
 10
111.050179
 20
1.265496
 30
0.0
 11
110.803886
 21
1.335807
 31
0.0
  0
LINE
  5
82F
330
1F
100
AcDbEntity
  8
1
  6
CONTINUOUS
370
50
 62
4
100
AcDbLine
 10
102.873413
 20
1.26782
 30
0.0
 11
102.628716
 21
1.337467
 31
0.0
  0
LINE
  5
830
330
1F
100
AcDbEntity
  8
1
  6
CONTINUOUS
370
50
 62
4
100
AcDbLine
 10
105.200577
 20
-1.336234
 30
0.0
 11
104.954048
 21
-1.266131
 31
0.0
  0
LINE
  5
831
330
1F
100
AcDbEntity
  8
1
  6
CONTINUOUS
370
50
 62
4
100
AcDbLine
 10
80.70105699999999
 20
-1.337481
 30
0.0
 11
80.454048
 21
-1.267441
 31
0.0
  0
LINE
  5
832
330
1F
100
AcDbEntity
  8
1
  6
CONTINUOUS
370
50
 62
4
100
AcDbLine
 10
53.839405
 20
1.275768
 30
0.0
 11
53.598404
 21
1.343113
 31
0.0
  0
LINE
  5
833
330
1F
100
AcDbEntity
  8
1
  6
CONTINUOUS
370
50
 62
4
100
AcDbLine
 10
56.2024
 20
-1.339021
 30
0.0
 11
56.0
 21
-1.282752
 31
0.0
  0
LINE
  5
834
330
1F
100
AcDbEntity
  8
1
  6
CONTINUOUS
370
50
 62
4
100
AcDbLine
 10
51.479237
 20
-1.384304
 30
0.0
 11
51.417713
 21
-1.369042
 31
0.0
  0
LINE
  5
835
330
1F
100
AcDbEntity
  8
1
  6
CONTINUOUS
370
50
 62
4
100
AcDbLine
 10
51.417713
 20
-1.369042
 30
0.0
 11
51.355247
 21
-1.35363
 31
0.0
  0
LINE
  5
836
330
1F
100
AcDbEntity
  8
1
  6
CONTINUOUS
370
50
 62
4
100
AcDbLine
 10
51.53990899999999
 20
-1.399249
 30
0.0
 11
51.479237
 21
-1.384304
 31
0.0
  0
LINE
  5
837
330
1F
100
AcDbEntity
  8
1
  6
CONTINUOUS
370
50
 62
4
100
AcDbLine
 10
100.406311
 20
-1.390687
 30
0.0
 11
100.158295
 21
-1.330437
 31
0.0
  0
LINE
  5
838
330
1F
100
AcDbEntity
  8
1
  6
CONTINUOUS
370
50
 62
4
100
AcDbLine
 10
66.835083
 20
1.331172
 30
0.0
 11
66.585838
 21
1.391716
 31
0.0
  0
LINE
  5
839
330
1F
100
AcDbEntity
  8
1
  6
CONTINUOUS
370
50
 62
4
100
AcDbLine
 10
83.178871
 20
1.329334
 30
0.0
 11
82.92867299999999
 21
1.390053
 31
0.0
  0
LINE
  5
83A
330
1F
100
AcDbEntity
  8
1
  6
CONTINUOUS
370
50
 62
4
100
AcDbLine
 10
91.33655499999999
 20
1.33139
 30
0.0
 11
91.08873
 21
1.391523
 31
0.0
  0
LINE
  5
83B
330
1F
100
AcDbEntity
  8
1
  6
CONTINUOUS
370
50
 62
4
100
AcDbLine
 10
58.673176
 20
1.330248
 30
0.0
 11
58.422714
 21
1.390973
 31
0.0
  0
LINE
  5
83C
330
1F
100
AcDbEntity
  8
1
  6
CONTINUOUS
370
50
 62
4
100
AcDbLine
 10
51.355247
 20
-1.35363
 30
0.0
 11
51.29174399999999
 21
-1.338238
 31
0.0
  0
LINE
  5
83D
330
1F
100
AcDbEntity
  8
1
  6
CONTINUOUS
370
50
 62
4
100
AcDbLine
 10
67.73784599999999
 20
-1.39145
 30
0.0
 11
67.489426
 21
-1.33125
 31
0.0
  0
LINE
  5
83E
330
1F
100
AcDbEntity
  8
1
  6
CONTINUOUS
370
50
 62
4
100
AcDbLine
 10
116.743179
 20
-1.390298
 30
0.0
 11
116.49324
 21
-1.329764
 31
0.0
  0
LINE
  5
83F
330
1F
100
AcDbEntity
  8
1
  6
CONTINUOUS
370
50
 62
4
100
AcDbLine
 10
75.906624
 20
-1.391872
 30
0.0
 11
75.657455
 21
-1.331553
 31
0.0
  0
LINE
  5
840
330
1F
100
AcDbEntity
  8
1
  6
CONTINUOUS
370
50
 62
4
100
AcDbLine
 10
115.835007
 20
1.332434
 30
0.0
 11
115.586807
 21
1.392361
 31
0.0
  0
LINE
  5
841
330
1F
100
AcDbEntity
  8
1
  6
CONTINUOUS
370
50
 62
4
100
AcDbLine
 10
92.24507899999999
 20
-1.391867
 30
0.0
 11
91.996338
 21
-1.331837
 31
0.0
  0
LINE
  5
842
330
1F
100
AcDbEntity
  8
1
  6
CONTINUOUS
370
50
 62
4
100
AcDbLine
 10
51.599827
 20
-1.413708
 30
0.0
 11
51.53990899999999
 21
-1.399249
 31
0.0
  0
LINE
  5
843
330
1F
100
AcDbEntity
  8
1
  6
CONTINUOUS
370
50
 62
4
100
AcDbLine
 10
113.605766
 20
-1.392995
 30
0.0
 11
113.359993
 21
-1.333847
 31
0.0
  0
LINE
  5
844
330
1F
100
AcDbEntity
  8
1
  6
CONTINUOUS
370
50
 62
4
100
AcDbLine
 10
56.405357
 20
-1.387851
 30
0.0
 11
56.2024
 21
-1.339021
 31
0.0
  0
LINE
  5
845
330
1F
100
AcDbEntity
  8
1
  6
CONTINUOUS
370
50
 62
4
100
AcDbLine
 10
84.071022
 20
-1.390646
 30
0.0
 11
83.82047299999999
 21
-1.330396
 31
0.0
  0
LINE
  5
846
330
1F
100
AcDbEntity
  8
1
  6
CONTINUOUS
370
50
 62
4
100
AcDbLine
 10
59.572292
 20
-1.391987
 30
0.0
 11
59.321068
 21
-1.331746
 31
0.0
  0
LINE
  5
847
330
1F
100
AcDbEntity
  8
1
  6
CONTINUOUS
370
50
 62
4
100
AcDbLine
 10
74.99542199999999
 20
1.333078
 30
0.0
 11
74.745842
 21
1.392924
 31
0.0
  0
LINE
  5
848
330
1F
100
AcDbEntity
  8
1
  6
CONTINUOUS
370
50
 62
4
100
AcDbLine
 10
107.670128
 20
1.332275
 30
0.0
 11
107.420776
 21
1.39204
 31
0.0
  0
LINE
  5
849
330
1F
100
AcDbEntity
  8
1
  6
CONTINUOUS
370
50
 62
4
100
AcDbLine
 10
99.50160199999999
 20
1.332222
 30
0.0
 11
99.252174
 21
1.391957
 31
0.0
  0
LINE
  5
84A
330
1F
100
AcDbEntity
  8
1
  6
CONTINUOUS
370
50
 62
4
100
AcDbLine
 10
78.13156099999999
 20
1.336132
 30
0.0
 11
77.887093
 21
1.394593
 31
0.0
  0
LINE
  5
84B
330
1F
100
AcDbEntity
  8
1
  6
CONTINUOUS
370
50
 62
4
100
AcDbLine
 10
64.606133
 20
-1.395321
 30
0.0
 11
64.36172499999999
 21
-1.336913
 31
0.0
  0
LINE
  5
84C
330
1F
100
AcDbEntity
  8
1
  6
CONTINUOUS
370
50
 62
4
100
AcDbLine
 10
50.67024199999999
 20
1.441058
 30
0.0
 11
50.585297
 21
1.461351
 31
0.0
  0
LINE
  5
84D
330
1F
100
AcDbEntity
  8
1
  6
CONTINUOUS
370
50
 62
4
100
AcDbLine
 10
89.110153
 20
-1.395066
 30
0.0
 11
88.866447
 21
-1.336853
 31
0.0
  0
LINE
  5
84E
330
1F
100
AcDbEntity
  8
1
  6
CONTINUOUS
370
50
 62
4
100
AcDbLine
 10
108.582512
 20
-1.392006
 30
0.0
 11
108.33252
 21
-1.332297
 31
0.0
  0
LINE
  5
84F
330
1F
100
AcDbEntity
  8
1
  6
CONTINUOUS
370
50
 62
4
100
AcDbLine
 10
69.964897
 20
1.336374
 30
0.0
 11
69.719505
 21
1.39495
 31
0.0
  0
LINE
  5
850
330
1F
100
AcDbEntity
  8
1
  6
CONTINUOUS
370
50
 62
4
100
AcDbLine
 10
94.466904
 20
1.336467
 30
0.0
 11
94.221581
 21
1.394885
 31
0.0
  0
LINE
  5
851
330
1F
100
AcDbEntity
  8
1
  6
CONTINUOUS
370
50
 62
4
100
AcDbLine
 10
102.628716
 20
1.337467
 30
0.0
 11
102.385078
 21
1.395454
 31
0.0
  0
LINE
  5
852
330
1F
100
AcDbEntity
  8
1
  6
CONTINUOUS
370
50
 62
4
100
AcDbLine
 10
105.446533
 20
-1.394532
 30
0.0
 11
105.200577
 21
-1.336234
 31
0.0
  0
LINE
  5
853
330
1F
100
AcDbEntity
  8
1
  6
CONTINUOUS
370
50
 62
4
100
AcDbLine
 10
97.27849599999999
 20
-1.395084
 30
0.0
 11
97.033287
 21
-1.336966
 31
0.0
  0
LINE
  5
854
330
1F
100
AcDbEntity
  8
1
  6
CONTINUOUS
370
50
 62
4
100
AcDbLine
 10
86.303139
 20
1.335495
 30
0.0
 11
86.055855
 21
1.394105
 31
0.0
  0
LINE
  5
855
330
1F
100
AcDbEntity
  8
1
  6
CONTINUOUS
370
50
 62
4
100
AcDbLine
 10
80.946426
 20
-1.395623
 30
0.0
 11
80.70105699999999
 21
-1.337481
 31
0.0
  0
LINE
  5
856
330
1F
100
AcDbEntity
  8
1
  6
CONTINUOUS
370
50
 62
4
100
AcDbLine
 10
72.773224
 20
-1.394809
 30
0.0
 11
72.526474
 21
-1.336393
 31
0.0
  0
LINE
  5
857
330
1F
100
AcDbEntity
  8
1
  6
CONTINUOUS
370
50
 62
4
100
AcDbLine
 10
118.964859
 20
1.337603
 30
0.0
 11
118.719635
 21
1.395657
 31
0.0
  0
LINE
  5
858
330
1F
100
AcDbEntity
  8
1
  6
CONTINUOUS
370
50
 62
4
100
AcDbLine
 10
110.803886
 20
1.335807
 30
0.0
 11
110.55719
 21
1.394173
 31
0.0
  0
LINE
  5
859
330
1F
100
AcDbEntity
  8
1
  6
CONTINUOUS
370
50
 62
4
100
AcDbLine
 10
61.795738
 20
1.336913
 30
0.0
 11
61.549053
 21
1.395211
 31
0.0
  0
LINE
  5
85A
330
1F
100
AcDbEntity
  8
1
  6
CONTINUOUS
370
50
 62
4
100
AcDbLine
 10
51.29174399999999
 20
-1.338238
 30
0.0
 11
51.227112
 21
-1.323031
 31
0.0
  0
LINE
  5
85B
330
1F
100
AcDbEntity
  8
1
  6
CONTINUOUS
370
50
 62
4
100
AcDbLine
 10
53.598404
 20
1.343113
 30
0.0
 11
53.35942499999999
 21
1.398928
 31
0.0
  0
LINE
  5
85C
330
1F
100
AcDbEntity
  8
1
  6
CONTINUOUS
370
50
 62
4
100
AcDbLine
 10
51.659084
 20
-1.427515
 30
0.0
 11
51.599827
 21
-1.413708
 31
0.0
  0
LINE
  5
85D
330
1F
100
AcDbEntity
  8
1
  6
CONTINUOUS
370
50
 62
4
100
AcDbLine
 10
119.427711
 20
-0.387273
 30
0.0
 11
119.399788
 21
-0.380923
 31
0.0
  0
LINE
  5
85E
330
1F
100
AcDbEntity
  8
1
  6
CONTINUOUS
370
50
 62
4
100
AcDbLine
 10
51.227112
 20
-1.323031
 30
0.0
 11
51.161335
 21
-1.308211
 31
0.0
  0
LINE
  5
85F
330
1F
100
AcDbEntity
  8
1
  6
CONTINUOUS
370
50
 62
4
100
AcDbLine
 10
50.103584
 20
-1.488679
 30
0.0
 11
50.063381
 21
-1.479682
 31
0.0
  0
LINE
  5
860
330
1F
100
AcDbEntity
  8
1
  6
CONTINUOUS
370
50
 62
4
100
AcDbLine
 10
51.161335
 20
-1.308211
 30
0.0
 11
51.094551
 21
-1.294046
 31
0.0
  0
LINE
  5
861
330
1F
100
AcDbEntity
  8
1
  6
CONTINUOUS
370
50
 62
4
100
AcDbLine
 10
56.607819
 20
-1.428317
 30
0.0
 11
56.405357
 21
-1.387851
 31
0.0
  0
LINE
  5
862
330
1F
100
AcDbEntity
  8
1
  6
CONTINUOUS
370
50
 62
4
100
AcDbLine
 10
51.094551
 20
-1.294046
 30
0.0
 11
51.02681399999999
 21
-1.280762
 31
0.0
  0
LINE
  5
863
330
1F
100
AcDbEntity
  8
1
  6
CONTINUOUS
370
50
 62
4
100
AcDbLine
 10
50.585297
 20
1.461351
 30
0.0
 11
50.500961
 21
1.477514
 31
0.0
  0
LINE
  5
864
330
1F
100
AcDbEntity
  8
1
  6
CONTINUOUS
370
50
 62
4
100
AcDbLine
 10
116.99202
 20
-1.437972
 30
0.0
 11
116.743179
 21
-1.390298
 31
0.0
  0
LINE
  5
865
330
1F
100
AcDbEntity
  8
1
  6
CONTINUOUS
370
50
 62
4
100
AcDbLine
 10
67.986366
 20
-1.438988
 30
0.0
 11
67.73784599999999
 21
-1.39145
 31
0.0
  0
LINE
  5
866
330
1F
100
AcDbEntity
  8
1
  6
CONTINUOUS
370
50
 62
4
100
AcDbLine
 10
66.585838
 20
1.391716
 30
0.0
 11
66.33612099999999
 21
1.439349
 31
0.0
  0
LINE
  5
867
330
1F
100
AcDbEntity
  8
1
  6
CONTINUOUS
370
50
 62
4
100
AcDbLine
 10
92.492485
 20
-1.439027
 30
0.0
 11
92.24507899999999
 21
-1.391867
 31
0.0
  0
LINE
  5
868
330
1F
100
AcDbEntity
  8
1
  6
CONTINUOUS
370
50
 62
4
100
AcDbLine
 10
91.08873
 20
1.391523
 30
0.0
 11
90.84060699999999
 21
1.4388
 31
0.0
  0
LINE
  5
869
330
1F
100
AcDbEntity
  8
1
  6
CONTINUOUS
370
50
 62
4
100
AcDbLine
 10
84.321602
 20
-1.438353
 30
0.0
 11
84.071022
 21
-1.390646
 31
0.0
  0
LINE
  5
86A
330
1F
100
AcDbEntity
  8
1
  6
CONTINUOUS
370
50
 62
4
100
AcDbLine
 10
99.252174
 20
1.391957
 30
0.0
 11
99.004395
 21
1.439104
 31
0.0
  0
LINE
  5
86B
330
1F
100
AcDbEntity
  8
1
  6
CONTINUOUS
370
50
 62
4
100
AcDbLine
 10
100.655411
 20
-1.438056
 30
0.0
 11
100.406311
 21
-1.390687
 31
0.0
  0
LINE
  5
86C
330
1F
100
AcDbEntity
  8
1
  6
CONTINUOUS
370
50
 62
4
100
AcDbLine
 10
82.92867299999999
 20
1.390053
 30
0.0
 11
82.676743
 21
1.437932
 31
0.0
  0
LINE
  5
86D
330
1F
100
AcDbEntity
  8
1
  6
CONTINUOUS
370
50
 62
4
100
AcDbLine
 10
59.822437
 20
-1.439453
 30
0.0
 11
59.572292
 21
-1.391987
 31
0.0
  0
LINE
  5
86E
330
1F
100
AcDbEntity
  8
1
  6
CONTINUOUS
370
50
 62
4
100
AcDbLine
 10
58.422714
 20
1.390973
 30
0.0
 11
58.171181
 21
1.438701
 31
0.0
  0
LINE
  5
86F
330
1F
100
AcDbEntity
  8
1
  6
CONTINUOUS
370
50
 62
4
100
AcDbLine
 10
74.745842
 20
1.392924
 30
0.0
 11
74.497963
 21
1.439932
 31
0.0
  0
LINE
  5
870
330
1F
100
AcDbEntity
  8
1
  6
CONTINUOUS
370
50
 62
4
100
AcDbLine
 10
115.586807
 20
1.392361
 30
0.0
 11
115.338455
 21
1.439322
 31
0.0
  0
LINE
  5
871
330
1F
100
AcDbEntity
  8
1
  6
CONTINUOUS
370
50
 62
4
100
AcDbLine
 10
108.830887
 20
-1.438922
 30
0.0
 11
108.582512
 21
-1.392006
 31
0.0
  0
LINE
  5
872
330
1F
100
AcDbEntity
  8
1
  6
CONTINUOUS
370
50
 62
4
100
AcDbLine
 10
76.157204
 20
-1.439196
 30
0.0
 11
75.906624
 21
-1.391872
 31
0.0
  0
LINE
  5
873
330
1F
100
AcDbEntity
  8
1
  6
CONTINUOUS
370
50
 62
4
100
AcDbLine
 10
113.852783
 20
-1.439573
 30
0.0
 11
113.605766
 21
-1.392995
 31
0.0
  0
LINE
  5
874
330
1F
100
AcDbEntity
  8
1
  6
CONTINUOUS
370
50
 62
4
100
AcDbLine
 10
77.887093
 20
1.394593
 30
0.0
 11
77.641869
 21
1.440753
 31
0.0
  0
LINE
  5
875
330
1F
100
AcDbEntity
  8
1
  6
CONTINUOUS
370
50
 62
4
100
AcDbLine
 10
105.690926
 20
-1.440495
 30
0.0
 11
105.446533
 21
-1.394532
 31
0.0
  0
LINE
  5
876
330
1F
100
AcDbEntity
  8
1
  6
CONTINUOUS
370
50
 62
4
100
AcDbLine
 10
107.420776
 20
1.39204
 30
0.0
 11
107.171715
 21
1.438865
 31
0.0
  0
LINE
  5
877
330
1F
100
AcDbEntity
  8
1
  6
CONTINUOUS
370
50
 62
4
100
AcDbLine
 10
86.055855
 20
1.394105
 30
0.0
 11
85.809662
 21
1.440371
 31
0.0
  0
LINE
  5
878
330
1F
100
AcDbEntity
  8
1
  6
CONTINUOUS
370
50
 62
4
100
AcDbLine
 10
110.55719
 20
1.394173
 30
0.0
 11
110.311729
 21
1.440261
 31
0.0
  0
LINE
  5
879
330
1F
100
AcDbEntity
  8
1
  6
CONTINUOUS
370
50
 62
4
100
AcDbLine
 10
81.19117
 20
-1.441496
 30
0.0
 11
80.946426
 21
-1.395623
 31
0.0
  0
LINE
  5
87A
330
1F
100
AcDbEntity
  8
1
  6
CONTINUOUS
370
50
 62
4
100
AcDbLine
 10
61.549053
 20
1.395211
 30
0.0
 11
61.30324899999999
 21
1.44119
 31
0.0
  0
LINE
  5
87B
330
1F
100
AcDbEntity
  8
1
  6
CONTINUOUS
370
50
 62
4
100
AcDbLine
 10
102.385078
 20
1.395454
 30
0.0
 11
102.140381
 21
1.441226
 31
0.0
  0
LINE
  5
87C
330
1F
100
AcDbEntity
  8
1
  6
CONTINUOUS
370
50
 62
4
100
AcDbLine
 10
89.355736
 20
-1.440914
 30
0.0
 11
89.110153
 21
-1.395066
 31
0.0
  0
LINE
  5
87D
330
1F
100
AcDbEntity
  8
1
  6
CONTINUOUS
370
50
 62
4
100
AcDbLine
 10
64.851913
 20
-1.441194
 30
0.0
 11
64.606133
 21
-1.395321
 31
0.0
  0
LINE
  5
87E
330
1F
100
AcDbEntity
  8
1
  6
CONTINUOUS
370
50
 62
4
100
AcDbLine
 10
69.719505
 20
1.39495
 30
0.0
 11
69.473541
 21
1.44082
 31
0.0
  0
LINE
  5
87F
330
1F
100
AcDbEntity
  8
1
  6
CONTINUOUS
370
50
 62
4
100
AcDbLine
 10
73.019745
 20
-1.440777
 30
0.0
 11
72.773224
 21
-1.394809
 31
0.0
  0
LINE
  5
880
330
1F
100
AcDbEntity
  8
1
  6
CONTINUOUS
370
50
 62
4
100
AcDbLine
 10
97.524048
 20
-1.440788
 30
0.0
 11
97.27849599999999
 21
-1.395084
 31
0.0
  0
LINE
  5
881
330
1F
100
AcDbEntity
  8
1
  6
CONTINUOUS
370
50
 62
4
100
AcDbLine
 10
94.221581
 20
1.394885
 30
0.0
 11
93.97507499999999
 21
1.440696
 31
0.0
  0
LINE
  5
882
330
1F
100
AcDbEntity
  8
1
  6
CONTINUOUS
370
50
 62
4
100
AcDbLine
 10
118.719635
 20
1.395657
 30
0.0
 11
118.474075
 21
1.441003
 31
0.0
  0
LINE
  5
883
330
1F
100
AcDbEntity
  8
1
  6
CONTINUOUS
370
50
 62
4
100
AcDbLine
 10
53.35942499999999
 20
1.398928
 30
0.0
 11
53.121277
 21
1.442716
 31
0.0
  0
LINE
  5
884
330
1F
100
AcDbEntity
  8
1
  6
CONTINUOUS
370
50
 62
4
100
AcDbLine
 10
51.02681399999999
 20
-1.280762
 30
0.0
 11
50.958164
 21
-1.268588
 31
0.0
  0
LINE
  5
885
330
1F
100
AcDbEntity
  8
1
  6
CONTINUOUS
370
50
 62
4
100
AcDbLine
 10
56.810268
 20
-1.46002
 30
0.0
 11
56.607819
 21
-1.428317
 31
0.0
  0
LINE
  5
886
330
1F
100
AcDbEntity
  8
1
  6
CONTINUOUS
370
50
 62
4
100
AcDbLine
 10
50.958164
 20
-1.268588
 30
0.0
 11
50.888645
 21
-1.25775
 31
0.0
  0
LINE
  5
887
330
1F
100
AcDbEntity
  8
1
  6
CONTINUOUS
370
50
 62
4
100
AcDbLine
 10
51.78302
 20
-1.457447
 30
0.0
 11
51.659084
 21
-1.43872
 31
0.0
  0
LINE
  5
888
330
1F
100
AcDbEntity
  8
1
  6
CONTINUOUS
370
50
 62
4
100
AcDbLine
 10
50.500961
 20
1.477514
 30
0.0
 11
50.417355
 21
1.489503
 31
0.0
  0
LINE
  5
889
330
1F
100
AcDbEntity
  8
1
  6
CONTINUOUS
370
50
 62
4
100
AcDbLine
 10
50.14978
 20
-1.495145
 30
0.0
 11
50.103584
 21
-1.488679
 31
0.0
  0
LINE
  5
88A
330
1F
100
AcDbEntity
  8
1
  6
CONTINUOUS
370
50
 62
4
100
AcDbLine
 10
84.570717
 20
-1.472789
 30
0.0
 11
84.321602
 21
-1.438353
 31
0.0
  0
LINE
  5
88B
330
1F
100
AcDbEntity
  8
1
  6
CONTINUOUS
370
50
 62
4
100
AcDbLine
 10
82.676743
 20
1.437932
 30
0.0
 11
82.425438
 21
1.472613
 31
0.0
  0
LINE
  5
88C
330
1F
100
AcDbEntity
  8
1
  6
CONTINUOUS
370
50
 62
4
100
AcDbLine
 10
117.241943
 20
-1.472382
 30
0.0
 11
116.99202
 21
-1.437972
 31
0.0
  0
LINE
  5
88D
330
1F
100
AcDbEntity
  8
1
  6
CONTINUOUS
370
50
 62
4
100
AcDbLine
 10
60.07053399999999
 20
-1.473556
 30
0.0
 11
59.822437
 21
-1.439453
 31
0.0
  0
LINE
  5
88E
330
1F
100
AcDbEntity
  8
1
  6
CONTINUOUS
370
50
 62
4
100
AcDbLine
 10
58.171181
 20
1.438701
 30
0.0
 11
57.920265
 21
1.47317
 31
0.0
  0
LINE
  5
88F
330
1F
100
AcDbEntity
  8
1
  6
CONTINUOUS
370
50
 62
4
100
AcDbLine
 10
68.234726
 20
-1.473098
 30
0.0
 11
67.986366
 21
-1.438988
 31
0.0
  0
LINE
  5
890
330
1F
100
AcDbEntity
  8
1
  6
CONTINUOUS
370
50
 62
4
100
AcDbLine
 10
99.004395
 20
1.439104
 30
0.0
 11
98.75688199999999
 21
1.473058
 31
0.0
  0
LINE
  5
891
330
1F
100
AcDbEntity
  8
1
  6
CONTINUOUS
370
50
 62
4
100
AcDbLine
 10
109.078362
 20
-1.472842
 30
0.0
 11
108.830887
 21
-1.438922
 31
0.0
  0
LINE
  5
892
330
1F
100
AcDbEntity
  8
1
  6
CONTINUOUS
370
50
 62
4
100
AcDbLine
 10
107.171715
 20
1.438865
 30
0.0
 11
106.92411
 21
1.47278
 31
0.0
  0
LINE
  5
893
330
1F
100
AcDbEntity
  8
1
  6
CONTINUOUS
370
50
 62
4
100
AcDbLine
 10
92.740875
 20
-1.473025
 30
0.0
 11
92.492485
 21
-1.439027
 31
0.0
  0
LINE
  5
894
330
1F
100
AcDbEntity
  8
1
  6
CONTINUOUS
370
50
 62
4
100
AcDbLine
 10
100.906296
 20
-1.472384
 30
0.0
 11
100.655411
 21
-1.438056
 31
0.0
  0
LINE
  5
895
330
1F
100
AcDbEntity
  8
1
  6
CONTINUOUS
370
50
 62
4
100
AcDbLine
 10
74.497963
 20
1.439932
 30
0.0
 11
74.251389
 21
1.473651
 31
0.0
  0
LINE
  5
896
330
1F
100
AcDbEntity
  8
1
  6
CONTINUOUS
370
50
 62
4
100
AcDbLine
 10
90.84060699999999
 20
1.4388
 30
0.0
 11
90.59047699999999
 21
1.472894
 31
0.0
  0
LINE
  5
897
330
1F
100
AcDbEntity
  8
1
  6
CONTINUOUS
370
50
 62
4
100
AcDbLine
 10
76.406746
 20
-1.473192
 30
0.0
 11
76.157204
 21
-1.439196
 31
0.0
  0
LINE
  5
898
330
1F
100
AcDbEntity
  8
1
  6
CONTINUOUS
370
50
 62
4
100
AcDbLine
 10
66.33612099999999
 20
1.439349
 30
0.0
 11
66.085625
 21
1.473422
 31
0.0
  0
LINE
  5
899
330
1F
100
AcDbEntity
  8
1
  6
CONTINUOUS
370
50
 62
4
100
AcDbLine
 10
85.809662
 20
1.440371
 30
0.0
 11
85.564056
 21
1.473772
 31
0.0
  0
LINE
  5
89A
330
1F
100
AcDbEntity
  8
1
  6
CONTINUOUS
370
50
 62
4
100
AcDbLine
 10
110.311729
 20
1.440261
 30
0.0
 11
110.066589
 21
1.473516
 31
0.0
  0
LINE
  5
89B
330
1F
100
AcDbEntity
  8
1
  6
CONTINUOUS
370
50
 62
4
100
AcDbLine
 10
73.264816
 20
-1.474001
 30
0.0
 11
73.019745
 21
-1.440777
 31
0.0
  0
LINE
  5
89C
330
1F
100
AcDbEntity
  8
1
  6
CONTINUOUS
370
50
 62
4
100
AcDbLine
 10
61.30324899999999
 20
1.44119
 30
0.0
 11
61.058979
 21
1.474302
 31
0.0
  0
LINE
  5
89D
330
1F
100
AcDbEntity
  8
1
  6
CONTINUOUS
370
50
 62
4
100
AcDbLine
 10
105.935501
 20
-1.473615
 30
0.0
 11
105.690926
 21
-1.440495
 31
0.0
  0
LINE
  5
89E
330
1F
100
AcDbEntity
  8
1
  6
CONTINUOUS
370
50
 62
4
100
AcDbLine
 10
114.100937
 20
-1.47306
 30
0.0
 11
113.852783
 21
-1.439573
 31
0.0
  0
LINE
  5
89F
330
1F
100
AcDbEntity
  8
1
  6
CONTINUOUS
370
50
 62
4
100
AcDbLine
 10
115.338455
 20
1.439322
 30
0.0
 11
115.089447
 21
1.472915
 31
0.0
  0
LINE
  5
8A0
330
1F
100
AcDbEntity
  8
1
  6
CONTINUOUS
370
50
 62
4
100
AcDbLine
 10
77.641869
 20
1.440753
 30
0.0
 11
77.3955
 21
1.473944
 31
0.0
  0
LINE
  5
8A1
330
1F
100
AcDbEntity
  8
1
  6
CONTINUOUS
370
50
 62
4
100
AcDbLine
 10
81.43556199999999
 20
-1.474378
 30
0.0
 11
81.19117
 21
-1.441496
 31
0.0
  0
LINE
  5
8A2
330
1F
100
AcDbEntity
  8
1
  6
CONTINUOUS
370
50
 62
4
100
AcDbLine
 10
69.473541
 20
1.44082
 30
0.0
 11
69.227043
 21
1.473978
 31
0.0
  0
LINE
  5
8A3
330
1F
100
AcDbEntity
  8
1
  6
CONTINUOUS
370
50
 62
4
100
AcDbLine
 10
93.97507499999999
 20
1.440696
 30
0.0
 11
93.72966
 21
1.473704
 31
0.0
  0
LINE
  5
8A4
330
1F
100
AcDbEntity
  8
1
  6
CONTINUOUS
370
50
 62
4
100
AcDbLine
 10
97.769363
 20
-1.473768
 30
0.0
 11
97.524048
 21
-1.440788
 31
0.0
  0
LINE
  5
8A5
330
1F
100
AcDbEntity
  8
1
  6
CONTINUOUS
370
50
 62
4
100
AcDbLine
 10
65.09816
 20
-1.474205
 30
0.0
 11
64.851913
 21
-1.441194
 31
0.0
  0
LINE
  5
8A6
330
1F
100
AcDbEntity
  8
1
  6
CONTINUOUS
370
50
 62
4
100
AcDbLine
 10
118.474075
 20
1.441003
 30
0.0
 11
118.230431
 21
1.473629
 31
0.0
  0
LINE
  5
8A7
330
1F
100
AcDbEntity
  8
1
  6
CONTINUOUS
370
50
 62
4
100
AcDbLine
 10
89.601959
 20
-1.473878
 30
0.0
 11
89.355736
 21
-1.440914
 31
0.0
  0
LINE
  5
8A8
330
1F
100
AcDbEntity
  8
1
  6
CONTINUOUS
370
50
 62
4
100
AcDbLine
 10
102.140381
 20
1.441226
 30
0.0
 11
101.895058
 21
1.47403
 31
0.0
  0
LINE
  5
8A9
330
1F
100
AcDbEntity
  8
1
  6
CONTINUOUS
370
50
 62
4
100
AcDbLine
 10
53.121277
 20
1.442716
 30
0.0
 11
52.881874
 21
1.474291
 31
0.0
  0
LINE
  5
8AA
330
1F
100
AcDbEntity
  8
1
  6
CONTINUOUS
370
50
 62
4
100
AcDbLine
 10
50.888645
 20
-1.25775
 30
0.0
 11
50.818306
 21
-1.248474
 31
0.0
  0
LINE
  5
8AB
330
1F
100
AcDbEntity
  8
1
  6
CONTINUOUS
370
50
 62
4
100
AcDbLine
 10
51.90619299999999
 20
-1.472768
 30
0.0
 11
51.78302
 21
-1.457447
 31
0.0
  0
LINE
  5
8AC
330
1F
100
AcDbEntity
  8
1
  6
CONTINUOUS
370
50
 62
4
100
AcDbLine
 10
119.453712
 20
-0.390452
 30
0.0
 11
119.427711
 21
-0.387273
 31
0.0
  0
LINE
  5
8AD
330
1F
100
AcDbEntity
  8
1
  6
CONTINUOUS
370
50
 62
4
100
AcDbLine
 10
119.440498
 20
1.499778
 30
0.0
 11
119.440285
 21
1.499802
 31
0.0
  0
LINE
  5
8AE
330
1F
100
AcDbEntity
  8
1
  6
CONTINUOUS
370
50
 62
4
100
AcDbLine
 10
57.013817
 20
-1.482764
 30
0.0
 11
56.810268
 21
-1.46002
 31
0.0
  0
LINE
  5
8AF
330
1F
100
AcDbEntity
  8
1
  6
CONTINUOUS
370
50
 62
4
100
AcDbLine
 10
50.818306
 20
-1.248474
 30
0.0
 11
50.748417
 21
-1.241124
 31
0.0
  0
LINE
  5
8B0
330
1F
100
AcDbEntity
  8
1
  6
CONTINUOUS
370
50
 62
4
100
AcDbLine
 10
52.028889
 20
-1.484685
 30
0.0
 11
51.90619299999999
 21
-1.472768
 31
0.0
  0
LINE
  5
8B1
330
1F
100
AcDbEntity
  8
1
  6
CONTINUOUS
370
50
 62
4
100
AcDbLine
 10
50.417355
 20
1.489503
 30
0.0
 11
50.335693
 21
1.497072
 31
0.0
  0
LINE
  5
8B2
330
1F
100
AcDbEntity
  8
1
  6
CONTINUOUS
370
50
 62
4
100
AcDbLine
 10
82.425438
 20
1.472613
 30
0.0
 11
82.175583
 21
1.493575
 31
0.0
  0
LINE
  5
8B3
330
1F
100
AcDbEntity
  8
1
  6
CONTINUOUS
370
50
 62
4
100
AcDbLine
 10
57.920265
 20
1.47317
 30
0.0
 11
57.670982
 21
1.494012
 31
0.0
  0
LINE
  5
8B4
330
1F
100
AcDbEntity
  8
1
  6
CONTINUOUS
370
50
 62
4
100
AcDbLine
 10
101.15683
 20
-1.493287
 30
0.0
 11
100.906296
 21
-1.472384
 31
0.0
  0
LINE
  5
8B5
330
1F
100
AcDbEntity
  8
1
  6
CONTINUOUS
370
50
 62
4
100
AcDbLine
 10
84.82029
 20
-1.493598
 30
0.0
 11
84.570717
 21
-1.472789
 31
0.0
  0
LINE
  5
8B6
330
1F
100
AcDbEntity
  8
1
  6
CONTINUOUS
370
50
 62
4
100
AcDbLine
 10
106.92411
 20
1.47278
 30
0.0
 11
106.676422
 21
1.493345
 31
0.0
  0
LINE
  5
8B7
330
1F
100
AcDbEntity
  8
1
  6
CONTINUOUS
370
50
 62
4
100
AcDbLine
 10
76.654831
 20
-1.493766
 30
0.0
 11
76.406746
 21
-1.473192
 31
0.0
  0
LINE
  5
8B8
330
1F
100
AcDbEntity
  8
1
  6
CONTINUOUS
370
50
 62
4
100
AcDbLine
 10
60.31852
 20
-1.494079
 30
0.0
 11
60.07053399999999
 21
-1.473556
 31
0.0
  0
LINE
  5
8B9
330
1F
100
AcDbEntity
  8
1
  6
CONTINUOUS
370
50
 62
4
100
AcDbLine
 10
109.326103
 20
-1.493338
 30
0.0
 11
109.078362
 21
-1.472842
 31
0.0
  0
LINE
  5
8BA
330
1F
100
AcDbEntity
  8
1
  6
CONTINUOUS
370
50
 62
4
100
AcDbLine
 10
68.48555
 20
-1.49379
 30
0.0
 11
68.234726
 21
-1.473098
 31
0.0
  0
LINE
  5
8BB
330
1F
100
AcDbEntity
  8
1
  6
CONTINUOUS
370
50
 62
4
100
AcDbLine
 10
117.493271
 20
-1.493107
 30
0.0
 11
117.241943
 21
-1.472382
 31
0.0
  0
LINE
  5
8BC
330
1F
100
AcDbEntity
  8
1
  6
CONTINUOUS
370
50
 62
4
100
AcDbLine
 10
90.59047699999999
 20
1.472894
 30
0.0
 11
90.34002699999999
 21
1.493534
 31
0.0
  0
LINE
  5
8BD
330
1F
100
AcDbEntity
  8
1
  6
CONTINUOUS
370
50
 62
4
100
AcDbLine
 10
66.085625
 20
1.473422
 30
0.0
 11
65.836105
 21
1.493944
 31
0.0
  0
LINE
  5
8BE
330
1F
100
AcDbEntity
  8
1
  6
CONTINUOUS
370
50
 62
4
100
AcDbLine
 10
98.75688199999999
 20
1.473058
 30
0.0
 11
98.50779
 21
1.493524
 31
0.0
  0
LINE
  5
8BF
330
1F
100
AcDbEntity
  8
1
  6
CONTINUOUS
370
50
 62
4
100
AcDbLine
 10
115.089447
 20
1.472915
 30
0.0
 11
114.841965
 21
1.493235
 31
0.0
  0
LINE
  5
8C0
330
1F
100
AcDbEntity
  8
1
  6
CONTINUOUS
370
50
 62
4
100
AcDbLine
 10
92.991058
 20
-1.493541
 30
0.0
 11
92.740875
 21
-1.473025
 31
0.0
  0
LINE
  5
8C1
330
1F
100
AcDbEntity
  8
1
  6
CONTINUOUS
370
50
 62
4
100
AcDbLine
 10
69.227043
 20
1.473978
 30
0.0
 11
68.982216
 21
1.494055
 31
0.0
  0
LINE
  5
8C2
330
1F
100
AcDbEntity
  8
1
  6
CONTINUOUS
370
50
 62
4
100
AcDbLine
 10
74.251389
 20
1.473651
 30
0.0
 11
74.003654
 21
1.493953
 31
0.0
  0
LINE
  5
8C3
330
1F
100
AcDbEntity
  8
1
  6
CONTINUOUS
370
50
 62
4
100
AcDbLine
 10
73.509697
 20
-1.49406
 30
0.0
 11
73.264816
 21
-1.474001
 31
0.0
  0
LINE
  5
8C4
330
1F
100
AcDbEntity
  8
1
  6
CONTINUOUS
370
50
 62
4
100
AcDbLine
 10
93.72966
 20
1.473704
 30
0.0
 11
93.485435
 21
1.493702
 31
0.0
  0
LINE
  5
8C5
330
1F
100
AcDbEntity
  8
1
  6
CONTINUOUS
370
50
 62
4
100
AcDbLine
 10
85.564056
 20
1.473772
 30
0.0
 11
85.318405
 21
1.493854
 31
0.0
  0
LINE
  5
8C6
330
1F
100
AcDbEntity
  8
1
  6
CONTINUOUS
370
50
 62
4
100
AcDbLine
 10
114.348625
 20
-1.493291
 30
0.0
 11
114.100937
 21
-1.47306
 31
0.0
  0
LINE
  5
8C7
330
1F
100
AcDbEntity
  8
1
  6
CONTINUOUS
370
50
 62
4
100
AcDbLine
 10
61.058979
 20
1.474302
 30
0.0
 11
60.814369
 21
1.494269
 31
0.0
  0
LINE
  5
8C8
330
1F
100
AcDbEntity
  8
1
  6
CONTINUOUS
370
50
 62
4
100
AcDbLine
 10
98.01387
 20
-1.493708
 30
0.0
 11
97.769363
 21
-1.473768
 31
0.0
  0
LINE
  5
8C9
330
1F
100
AcDbEntity
  8
1
  6
CONTINUOUS
370
50
 62
4
100
AcDbLine
 10
110.066589
 20
1.473516
 30
0.0
 11
109.821457
 21
1.493491
 31
0.0
  0
LINE
  5
8CA
330
1F
100
AcDbEntity
  8
1
  6
CONTINUOUS
370
50
 62
4
100
AcDbLine
 10
118.230431
 20
1.473629
 30
0.0
 11
117.987869
 21
1.493385
 31
0.0
  0
LINE
  5
8CB
330
1F
100
AcDbEntity
  8
1
  6
CONTINUOUS
370
50
 62
4
100
AcDbLine
 10
65.343559
 20
-1.494168
 30
0.0
 11
65.09816
 21
-1.474205
 31
0.0
  0
LINE
  5
8CC
330
1F
100
AcDbEntity
  8
1
  6
CONTINUOUS
370
50
 62
4
100
AcDbLine
 10
77.3955
 20
1.473944
 30
0.0
 11
77.148926
 21
1.493962
 31
0.0
  0
LINE
  5
8CD
330
1F
100
AcDbEntity
  8
1
  6
CONTINUOUS
370
50
 62
4
100
AcDbLine
 10
89.847366
 20
-1.493798
 30
0.0
 11
89.601959
 21
-1.473878
 31
0.0
  0
LINE
  5
8CE
330
1F
100
AcDbEntity
  8
1
  6
CONTINUOUS
370
50
 62
4
100
AcDbLine
 10
106.181664
 20
-1.493568
 30
0.0
 11
105.935501
 21
-1.473615
 31
0.0
  0
LINE
  5
8CF
330
1F
100
AcDbEntity
  8
1
  6
CONTINUOUS
370
50
 62
4
100
AcDbLine
 10
81.68086199999999
 20
-1.494076
 30
0.0
 11
81.43556199999999
 21
-1.474378
 31
0.0
  0
LINE
  5
8D0
330
1F
100
AcDbEntity
  8
1
  6
CONTINUOUS
370
50
 62
4
100
AcDbLine
 10
101.895058
 20
1.47403
 30
0.0
 11
101.649872
 21
1.493698
 31
0.0
  0
LINE
  5
8D1
330
1F
100
AcDbEntity
  8
1
  6
CONTINUOUS
370
50
 62
4
100
AcDbLine
 10
52.881874
 20
1.474291
 30
0.0
 11
52.639351
 21
1.493488
 31
0.0
  0
LINE
  5
8D2
330
1F
100
AcDbEntity
  8
1
  6
CONTINUOUS
370
50
 62
4
100
AcDbLine
 10
50.748417
 20
-1.241124
 30
0.0
 11
50.68086599999999
 21
-1.235931
 31
0.0
  0
LINE
  5
8D3
330
1F
100
AcDbEntity
  8
1
  6
CONTINUOUS
370
50
 62
4
100
AcDbLine
 10
50.201443
 20
-1.498951
 30
0.0
 11
50.14978
 21
-1.495145
 31
0.0
  0
LINE
  5
8D4
330
1F
100
AcDbEntity
  8
1
  6
CONTINUOUS
370
50
 62
4
100
AcDbLine
 10
52.15139
 20
-1.493195
 30
0.0
 11
52.028889
 21
-1.484685
 31
0.0
  0
LINE
  5
8D5
330
1F
100
AcDbEntity
  8
1
  6
CONTINUOUS
370
50
 62
4
100
AcDbLine
 10
57.21795299999999
 20
-1.496423
 30
0.0
 11
57.013817
 21
-1.482764
 31
0.0
  0
LINE
  5
8D6
330
1F
100
AcDbEntity
  8
1
  6
CONTINUOUS
370
50
 62
4
100
AcDbLine
 10
50.68086599999999
 20
-1.235931
 30
0.0
 11
50.615795
 21
-1.232804
 31
0.0
  0
LINE
  5
8D7
330
1F
100
AcDbEntity
  8
1
  6
CONTINUOUS
370
50
 62
4
100
AcDbLine
 10
52.273987
 20
-1.498299
 30
0.0
 11
52.15139
 21
-1.493195
 31
0.0
  0
LINE
  5
8D8
330
1F
100
AcDbEntity
  8
1
  6
CONTINUOUS
370
50
 62
4
100
AcDbLine
 10
50.335693
 20
1.497072
 30
0.0
 11
50.258053
 21
1.499968
 31
0.0
  0
LINE
  5
8D9
330
1F
100
AcDbEntity
  8
1
  6
CONTINUOUS
370
50
 62
4
100
AcDbLine
 10
101.406754
 20
-1.500284
 30
0.0
 11
101.15683
 21
-1.493287
 31
0.0
  0
LINE
  5
8DA
330
1F
100
AcDbEntity
  8
1
  6
CONTINUOUS
370
50
 62
4
100
AcDbLine
 10
82.175583
 20
1.493575
 30
0.0
 11
81.92495699999999
 21
1.500591
 31
0.0
  0
LINE
  5
8DB
330
1F
100
AcDbEntity
  8
1
  6
CONTINUOUS
370
50
 62
4
100
AcDbLine
 10
57.670982
 20
1.494012
 30
0.0
 11
57.421547
 21
1.500978
 31
0.0
  0
LINE
  5
8DC
330
1F
100
AcDbEntity
  8
1
  6
CONTINUOUS
370
50
 62
4
100
AcDbLine
 10
68.737045
 20
-1.500799
 30
0.0
 11
68.48555
 21
-1.49379
 31
0.0
  0
LINE
  5
8DD
330
1F
100
AcDbEntity
  8
1
  6
CONTINUOUS
370
50
 62
4
100
AcDbLine
 10
90.34002699999999
 20
1.493534
 30
0.0
 11
90.09124
 21
1.500463
 31
0.0
  0
LINE
  5
8DE
330
1F
100
AcDbEntity
  8
1
  6
CONTINUOUS
370
50
 62
4
100
AcDbLine
 10
76.903091
 20
-1.500671
 30
0.0
 11
76.654831
 21
-1.493766
 31
0.0
  0
LINE
  5
8DF
330
1F
100
AcDbEntity
  8
1
  6
CONTINUOUS
370
50
 62
4
100
AcDbLine
 10
65.836105
 20
1.493944
 30
0.0
 11
65.58760099999999
 21
1.500849
 31
0.0
  0
LINE
  5
8E0
330
1F
100
AcDbEntity
  8
1
  6
CONTINUOUS
370
50
 62
4
100
AcDbLine
 10
114.841965
 20
1.493235
 30
0.0
 11
114.594887
 21
1.500077
 31
0.0
  0
LINE
  5
8E1
330
1F
100
AcDbEntity
  8
1
  6
CONTINUOUS
370
50
 62
4
100
AcDbLine
 10
106.676422
 20
1.493345
 30
0.0
 11
106.428314
 21
1.500205
 31
0.0
  0
LINE
  5
8E2
330
1F
100
AcDbEntity
  8
1
  6
CONTINUOUS
370
50
 62
4
100
AcDbLine
 10
85.071556
 20
-1.500542
 30
0.0
 11
84.82029
 21
-1.493598
 31
0.0
  0
LINE
  5
8E3
330
1F
100
AcDbEntity
  8
1
  6
CONTINUOUS
370
50
 62
4
100
AcDbLine
 10
117.744217
 20
-1.500027
 30
0.0
 11
117.493271
 21
-1.493107
 31
0.0
  0
LINE
  5
8E4
330
1F
100
AcDbEntity
  8
1
  6
CONTINUOUS
370
50
 62
4
100
AcDbLine
 10
114.594887
 20
-1.500077
 30
0.0
 11
114.348625
 21
-1.493291
 31
0.0
  0
LINE
  5
8E5
330
1F
100
AcDbEntity
  8
1
  6
CONTINUOUS
370
50
 62
4
100
AcDbLine
 10
93.24065399999999
 20
-1.500413
 30
0.0
 11
92.991058
 21
-1.493541
 31
0.0
  0
LINE
  5
8E6
330
1F
100
AcDbEntity
  8
1
  6
CONTINUOUS
370
50
 62
4
100
AcDbLine
 10
68.982216
 20
1.494055
 30
0.0
 11
68.737045
 21
1.500799
 31
0.0
  0
LINE
  5
8E7
330
1F
100
AcDbEntity
  8
1
  6
CONTINUOUS
370
50
 62
4
100
AcDbLine
 10
109.574684
 20
-1.500156
 30
0.0
 11
109.326103
 21
-1.493338
 31
0.0
  0
LINE
  5
8E8
330
1F
100
AcDbEntity
  8
1
  6
CONTINUOUS
370
50
 62
4
100
AcDbLine
 10
93.485435
 20
1.493702
 30
0.0
 11
93.24065399999999
 21
1.500413
 31
0.0
  0
LINE
  5
8E9
330
1F
100
AcDbEntity
  8
1
  6
CONTINUOUS
370
50
 62
4
100
AcDbLine
 10
60.568439
 20
-1.500928
 30
0.0
 11
60.31852
 21
-1.494079
 31
0.0
  0
LINE
  5
8EA
330
1F
100
AcDbEntity
  8
1
  6
CONTINUOUS
370
50
 62
4
100
AcDbLine
 10
65.58760099999999
 20
-1.500849
 30
0.0
 11
65.343559
 21
-1.494168
 31
0.0
  0
LINE
  5
8EB
330
1F
100
AcDbEntity
  8
1
  6
CONTINUOUS
370
50
 62
4
100
AcDbLine
 10
90.09124
 20
-1.500463
 30
0.0
 11
89.847366
 21
-1.493798
 31
0.0
  0
LINE
  5
8EC
330
1F
100
AcDbEntity
  8
1
  6
CONTINUOUS
370
50
 62
4
100
AcDbLine
 10
77.148926
 20
1.493962
 30
0.0
 11
76.903091
 21
1.500671
 31
0.0
  0
LINE
  5
8ED
330
1F
100
AcDbEntity
  8
1
  6
CONTINUOUS
370
50
 62
4
100
AcDbLine
 10
117.987869
 20
1.493385
 30
0.0
 11
117.744217
 21
1.500027
 31
0.0
  0
LINE
  5
8EE
330
1F
100
AcDbEntity
  8
1
  6
CONTINUOUS
370
50
 62
4
100
AcDbLine
 10
98.50779
 20
1.493524
 30
0.0
 11
98.25795
 21
1.500334
 31
0.0
  0
LINE
  5
8EF
330
1F
100
AcDbEntity
  8
1
  6
CONTINUOUS
370
50
 62
4
100
AcDbLine
 10
73.754654
 20
-1.50072
 30
0.0
 11
73.509697
 21
-1.49406
 31
0.0
  0
LINE
  5
8F0
330
1F
100
AcDbEntity
  8
1
  6
CONTINUOUS
370
50
 62
4
100
AcDbLine
 10
74.003654
 20
1.493953
 30
0.0
 11
73.754654
 21
1.50072
 31
0.0
  0
LINE
  5
8F1
330
1F
100
AcDbEntity
  8
1
  6
CONTINUOUS
370
50
 62
4
100
AcDbLine
 10
98.25795
 20
-1.500334
 30
0.0
 11
98.01387
 21
-1.493708
 31
0.0
  0
LINE
  5
8F2
330
1F
100
AcDbEntity
  8
1
  6
CONTINUOUS
370
50
 62
4
100
AcDbLine
 10
85.318405
 20
1.493854
 30
0.0
 11
85.071556
 21
1.500542
 31
0.0
  0
LINE
  5
8F3
330
1F
100
AcDbEntity
  8
1
  6
CONTINUOUS
370
50
 62
4
100
AcDbLine
 10
101.649872
 20
1.493698
 30
0.0
 11
101.406754
 21
1.500284
 31
0.0
  0
LINE
  5
8F4
330
1F
100
AcDbEntity
  8
1
  6
CONTINUOUS
370
50
 62
4
100
AcDbLine
 10
60.814369
 20
1.494269
 30
0.0
 11
60.568439
 21
1.500928
 31
0.0
  0
LINE
  5
8F5
330
1F
100
AcDbEntity
  8
1
  6
CONTINUOUS
370
50
 62
4
100
AcDbLine
 10
109.821457
 20
1.493491
 30
0.0
 11
109.574684
 21
1.500156
 31
0.0
  0
LINE
  5
8F6
330
1F
100
AcDbEntity
  8
1
  6
CONTINUOUS
370
50
 62
4
100
AcDbLine
 10
106.428314
 20
-1.500205
 30
0.0
 11
106.181664
 21
-1.493568
 31
0.0
  0
LINE
  5
8F7
330
1F
100
AcDbEntity
  8
1
  6
CONTINUOUS
370
50
 62
4
100
AcDbLine
 10
52.639351
 20
1.493488
 30
0.0
 11
52.396961
 21
1.499997
 31
0.0
  0
LINE
  5
8F8
330
1F
100
AcDbEntity
  8
1
  6
CONTINUOUS
370
50
 62
4
100
AcDbLine
 10
81.92495699999999
 20
-1.500591
 30
0.0
 11
81.68086199999999
 21
-1.494076
 31
0.0
  0
LINE
  5
8F9
330
1F
100
AcDbEntity
  8
1
  6
CONTINUOUS
370
50
 62
4
100
AcDbLine
 10
57.421547
 20
-1.500978
 30
0.0
 11
57.21795299999999
 21
-1.496423
 31
0.0
  0
LINE
  5
8FA
330
1F
100
AcDbEntity
  8
1
  6
CONTINUOUS
370
50
 62
4
100
AcDbLine
 10
50.615795
 20
-1.232804
 30
0.0
 11
50.553326
 21
-1.231649
 31
0.0
  0
LINE
  5
8FB
330
1F
100
AcDbEntity
  8
1
  6
CONTINUOUS
370
50
 62
4
100
AcDbLine
 10
50.258053
 20
-1.499968
 30
0.0
 11
50.201443
 21
-1.498951
 31
0.0
  0
LINE
  5
8FC
330
1F
100
AcDbEntity
  8
1
  6
CONTINUOUS
370
50
 62
4
100
AcDbLine
 10
52.396961
 20
-1.499997
 30
0.0
 11
52.273987
 21
-1.498299
 31
0.0
  0
LINE
  5
8FD
330
1F
100
AcDbEntity
  8
1
  6
CONTINUOUS
370
50
 62
4
100
AcDbLine
 10
119.908417
 20
0.034177
 30
0.0
 11
119.904427
 21
0.034184
 31
0.0
  0
LINE
  5
8FE
330
1F
100
AcDbEntity
  8
1
  6
CONTINUOUS
370
50
 62
4
100
AcDbLine
 10
57.421547
 20
1.500978
 30
0.0
 11
56.0
 21
1.501
 31
0.0
  0
LINE
  5
8FF
330
1F
100
AcDbEntity
  8
1
  6
CONTINUOUS
370
50
 62
4
100
AcDbLine
 10
73.754654
 20
1.50072
 30
0.0
 11
68.737045
 21
1.500799
 31
0.0
  0
LINE
  5
900
330
1F
100
AcDbEntity
  8
1
  6
CONTINUOUS
370
50
 62
4
100
AcDbLine
 10
90.09124
 20
1.500463
 30
0.0
 11
85.071556
 21
1.500542
 31
0.0
  0
LINE
  5
901
330
1F
100
AcDbEntity
  8
1
  6
CONTINUOUS
370
50
 62
4
100
AcDbLine
 10
106.428314
 20
1.500205
 30
0.0
 11
101.406754
 21
1.500284
 31
0.0
  0
LINE
  5
902
330
1F
100
AcDbEntity
  8
1
  6
CONTINUOUS
370
50
 62
4
100
AcDbLine
 10
119.440285
 20
1.5
 30
0.0
 11
117.744217
 21
1.500027
 31
0.0
  0
LINE
  5
903
330
1F
100
AcDbEntity
  8
1
  6
CONTINUOUS
370
50
 62
4
100
AcDbLine
 10
65.58760099999999
 20
1.500849
 30
0.0
 11
60.568439
 21
1.500928
 31
0.0
  0
LINE
  5
904
330
1F
100
AcDbEntity
  8
1
  6
CONTINUOUS
370
50
 62
4
100
AcDbLine
 10
81.92495699999999
 20
1.500591
 30
0.0
 11
76.903091
 21
1.500671
 31
0.0
  0
LINE
  5
905
330
1F
100
AcDbEntity
  8
1
  6
CONTINUOUS
370
50
 62
4
100
AcDbLine
 10
98.25795
 20
1.500334
 30
0.0
 11
93.24065399999999
 21
1.500413
 31
0.0
  0
LINE
  5
906
330
1F
100
AcDbEntity
  8
1
  6
CONTINUOUS
370
50
 62
4
100
AcDbLine
 10
114.594887
 20
1.500077
 30
0.0
 11
109.574684
 21
1.500156
 31
0.0
  0
LINE
  5
907
330
1F
100
AcDbEntity
  8
1
  6
CONTINUOUS
370
50
 62
4
100
AcDbLine
 10
52.396667
 20
-1.5
 30
0.0
 11
55.999134
 21
-1.5
 31
0.0
  0
LINE
  5
908
330
1F
100
AcDbEntity
  8
1
  6
CONTINUOUS
370
50
 62
4
100
AcDbLine
 10
50.0
 20
-1.5
 30
0.0
 11
50.249641
 21
-1.5
 31
0.0
  0
LINE
  5
909
330
1F
100
AcDbEntity
  8
1
  6
CONTINUOUS
370
50
 62
4
100
AcDbLine
 10
52.396667
 20
1.5
 30
0.0
 11
55.999134
 21
1.5
 31
0.0
  0
LINE
  5
90A
330
1F
100
AcDbEntity
  8
1
  6
CONTINUOUS
370
50
 62
4
100
AcDbLine
 10
50.0
 20
1.5
 30
0.0
 11
50.249641
 21
1.5
 31
0.0
  0
LINE
  5
90B
330
1F
100
AcDbEntity
  8
1
  6
CONTINUOUS
370
50
 62
4
100
AcDbLine
 10
60.568439
 20
-1.500928
 30
0.0
 11
65.58760099999999
 21
-1.500849
 31
0.0
  0
LINE
  5
90C
330
1F
100
AcDbEntity
  8
1
  6
CONTINUOUS
370
50
 62
4
100
AcDbLine
 10
76.903091
 20
-1.500671
 30
0.0
 11
81.92495699999999
 21
-1.500591
 31
0.0
  0
LINE
  5
90D
330
1F
100
AcDbEntity
  8
1
  6
CONTINUOUS
370
50
 62
4
100
AcDbLine
 10
93.24065399999999
 20
-1.500413
 30
0.0
 11
98.25795
 21
-1.500334
 31
0.0
  0
LINE
  5
90E
330
1F
100
AcDbEntity
  8
1
  6
CONTINUOUS
370
50
 62
4
100
AcDbLine
 10
109.574684
 20
-1.500156
 30
0.0
 11
114.594887
 21
-1.500077
 31
0.0
  0
LINE
  5
90F
330
1F
100
AcDbEntity
  8
1
  6
CONTINUOUS
370
50
 62
4
100
AcDbLine
 10
56.0
 20
-1.501
 30
0.0
 11
57.421547
 21
-1.500978
 31
0.0
  0
LINE
  5
910
330
1F
100
AcDbEntity
  8
1
  6
CONTINUOUS
370
50
 62
4
100
AcDbLine
 10
68.737045
 20
-1.500799
 30
0.0
 11
73.754654
 21
-1.50072
 31
0.0
  0
LINE
  5
911
330
1F
100
AcDbEntity
  8
1
  6
CONTINUOUS
370
50
 62
4
100
AcDbLine
 10
85.071556
 20
-1.500542
 30
0.0
 11
90.09124
 21
-1.500463
 31
0.0
  0
LINE
  5
912
330
1F
100
AcDbEntity
  8
1
  6
CONTINUOUS
370
50
 62
4
100
AcDbLine
 10
101.406754
 20
-1.500284
 30
0.0
 11
106.428314
 21
-1.500205
 31
0.0
  0
LINE
  5
913
330
1F
100
AcDbEntity
  8
1
  6
CONTINUOUS
370
50
 62
4
100
AcDbLine
 10
117.744217
 20
-1.500027
 30
0.0
 11
119.440285
 21
-1.5
 31
0.0
  0
LINE
  5
914
330
1F
100
AcDbEntity
  8
1
  6
CONTINUOUS
370
50
 62
4
100
AcDbLine
 10
50.49357999999999
 20
-1.232374
 30
0.0
 11
50.553326
 21
-1.231649
 31
0.0
  0
LINE
  5
915
330
1F
100
AcDbEntity
  8
1
  6
CONTINUOUS
370
50
 62
4
100
AcDbLine
 10
52.273987
 20
1.498299
 30
0.0
 11
52.396961
 21
1.499997
 31
0.0
  0
LINE
  5
916
330
1F
100
AcDbEntity
  8
1
  6
CONTINUOUS
370
50
 62
4
100
AcDbLine
 10
98.25795
 20
-1.500334
 30
0.0
 11
98.520271
 21
-1.492814
 31
0.0
  0
LINE
  5
917
330
1F
100
AcDbEntity
  8
1
  6
CONTINUOUS
370
50
 62
4
100
AcDbLine
 10
73.754654
 20
-1.50072
 30
0.0
 11
74.018044
 21
-1.493129
 31
0.0
  0
LINE
  5
918
330
1F
100
AcDbEntity
  8
1
  6
CONTINUOUS
370
50
 62
4
100
AcDbLine
 10
60.305378
 20
1.493336
 30
0.0
 11
60.568439
 21
1.500928
 31
0.0
  0
LINE
  5
919
330
1F
100
AcDbEntity
  8
1
  6
CONTINUOUS
370
50
 62
4
100
AcDbLine
 10
117.481346
 20
1.492436
 30
0.0
 11
117.744217
 21
1.500027
 31
0.0
  0
LINE
  5
91A
330
1F
100
AcDbEntity
  8
1
  6
CONTINUOUS
370
50
 62
4
100
AcDbLine
 10
84.808296
 20
1.492914
 30
0.0
 11
85.071556
 21
1.500542
 31
0.0
  0
LINE
  5
91B
330
1F
100
AcDbEntity
  8
1
  6
CONTINUOUS
370
50
 62
4
100
AcDbLine
 10
92.978287
 20
1.492808
 30
0.0
 11
93.24065399999999
 21
1.500413
 31
0.0
  0
LINE
  5
91C
330
1F
100
AcDbEntity
  8
1
  6
CONTINUOUS
370
50
 62
4
100
AcDbLine
 10
68.474182
 20
1.493164
 30
0.0
 11
68.737045
 21
1.500799
 31
0.0
  0
LINE
  5
91D
330
1F
100
AcDbEntity
  8
1
  6
CONTINUOUS
370
50
 62
4
100
AcDbLine
 10
109.311432
 20
1.492506
 30
0.0
 11
109.574684
 21
1.500156
 31
0.0
  0
LINE
  5
91E
330
1F
100
AcDbEntity
  8
1
  6
CONTINUOUS
370
50
 62
4
100
AcDbLine
 10
81.92495699999999
 20
-1.500591
 30
0.0
 11
82.185532
 21
-1.493005
 31
0.0
  0
LINE
  5
91F
330
1F
100
AcDbEntity
  8
1
  6
CONTINUOUS
370
50
 62
4
100
AcDbLine
 10
101.146576
 20
1.492702
 30
0.0
 11
101.406754
 21
1.500284
 31
0.0
  0
LINE
  5
920
330
1F
100
AcDbEntity
  8
1
  6
CONTINUOUS
370
50
 62
4
100
AcDbLine
 10
114.594887
 20
-1.500077
 30
0.0
 11
114.85643
 21
-1.492431
 31
0.0
  0
LINE
  5
921
330
1F
100
AcDbEntity
  8
1
  6
CONTINUOUS
370
50
 62
4
100
AcDbLine
 10
65.58760099999999
 20
-1.500849
 30
0.0
 11
65.84957899999999
 21
-1.493189
 31
0.0
  0
LINE
  5
922
330
1F
100
AcDbEntity
  8
1
  6
CONTINUOUS
370
50
 62
4
100
AcDbLine
 10
57.421547
 20
-1.500978
 30
0.0
 11
57.682693
 21
-1.493342
 31
0.0
  0
LINE
  5
923
330
1F
100
AcDbEntity
  8
1
  6
CONTINUOUS
370
50
 62
4
100
AcDbLine
 10
90.09124
 20
-1.500463
 30
0.0
 11
90.353134
 21
-1.492789
 31
0.0
  0
LINE
  5
924
330
1F
100
AcDbEntity
  8
1
  6
CONTINUOUS
370
50
 62
4
100
AcDbLine
 10
76.641525
 20
1.493006
 30
0.0
 11
76.903091
 21
1.500671
 31
0.0
  0
LINE
  5
925
330
1F
100
AcDbEntity
  8
1
  6
CONTINUOUS
370
50
 62
4
100
AcDbLine
 10
106.428314
 20
-1.500205
 30
0.0
 11
106.691238
 21
-1.492499
 31
0.0
  0
LINE
  5
926
330
1F
100
AcDbEntity
  8
1
  6
CONTINUOUS
370
50
 62
4
100
AcDbLine
 10
50.258053
 20
-1.499968
 30
0.0
 11
50.34233099999999
 21
-1.49662
 31
0.0
  0
LINE
  5
927
330
1F
100
AcDbEntity
  8
1
  6
CONTINUOUS
370
50
 62
4
100
AcDbLine
 10
119.453712
 20
-0.390452
 30
0.0
 11
119.476761
 21
-0.389536
 31
0.0
  0
LINE
  5
928
330
1F
100
AcDbEntity
  8
1
  6
CONTINUOUS
370
50
 62
4
100
AcDbLine
 10
52.15139
 20
1.493195
 30
0.0
 11
52.273987
 21
1.498299
 31
0.0
  0
LINE
  5
929
330
1F
100
AcDbEntity
  8
1
  6
CONTINUOUS
370
50
 62
4
100
AcDbLine
 10
50.436687
 20
-1.234884
 30
0.0
 11
50.49357999999999
 21
-1.232374
 31
0.0
  0
LINE
  5
92A
330
1F
100
AcDbEntity
  8
1
  6
CONTINUOUS
370
50
 62
4
100
AcDbLine
 10
52.028889
 20
1.484685
 30
0.0
 11
52.15139
 21
1.493195
 31
0.0
  0
LINE
  5
92B
330
1F
100
AcDbEntity
  8
1
  6
CONTINUOUS
370
50
 62
4
100
AcDbLine
 10
50.38267099999999
 20
-1.239081
 30
0.0
 11
50.436687
 21
-1.234884
 31
0.0
  0
LINE
  5
92C
330
1F
100
AcDbEntity
  8
1
  6
CONTINUOUS
370
50
 62
4
100
AcDbLine
 10
92.714981
 20
1.470117
 30
0.0
 11
92.978287
 21
1.492808
 31
0.0
  0
LINE
  5
92D
330
1F
100
AcDbEntity
  8
1
  6
CONTINUOUS
370
50
 62
4
100
AcDbLine
 10
98.520271
 20
-1.492814
 30
0.0
 11
98.782738
 21
-1.470143
 31
0.0
  0
LINE
  5
92E
330
1F
100
AcDbEntity
  8
1
  6
CONTINUOUS
370
50
 62
4
100
AcDbLine
 10
117.218155
 20
1.469701
 30
0.0
 11
117.481346
 21
1.492436
 31
0.0
  0
LINE
  5
92F
330
1F
100
AcDbEntity
  8
1
  6
CONTINUOUS
370
50
 62
4
100
AcDbLine
 10
68.21034999999999
 20
1.470341
 30
0.0
 11
68.474182
 21
1.493164
 31
0.0
  0
LINE
  5
930
330
1F
100
AcDbEntity
  8
1
  6
CONTINUOUS
370
50
 62
4
100
AcDbLine
 10
65.84957899999999
 20
-1.493189
 30
0.0
 11
66.11312099999999
 21
-1.470384
 31
0.0
  0
LINE
  5
931
330
1F
100
AcDbEntity
  8
1
  6
CONTINUOUS
370
50
 62
4
100
AcDbLine
 10
114.85643
 20
-1.492431
 30
0.0
 11
115.119324
 21
-1.469661
 31
0.0
  0
LINE
  5
932
330
1F
100
AcDbEntity
  8
1
  6
CONTINUOUS
370
50
 62
4
100
AcDbLine
 10
90.353134
 20
-1.492789
 30
0.0
 11
90.616783
 21
-1.469943
 31
0.0
  0
LINE
  5
933
330
1F
100
AcDbEntity
  8
1
  6
CONTINUOUS
370
50
 62
4
100
AcDbLine
 10
100.884285
 20
1.469919
 30
0.0
 11
101.146576
 21
1.492702
 31
0.0
  0
LINE
  5
934
330
1F
100
AcDbEntity
  8
1
  6
CONTINUOUS
370
50
 62
4
100
AcDbLine
 10
74.018044
 20
-1.493129
 30
0.0
 11
74.282066
 21
-1.470184
 31
0.0
  0
LINE
  5
935
330
1F
100
AcDbEntity
  8
1
  6
CONTINUOUS
370
50
 62
4
100
AcDbLine
 10
60.044491
 20
1.470607
 30
0.0
 11
60.305378
 21
1.493336
 31
0.0
  0
LINE
  5
936
330
1F
100
AcDbEntity
  8
1
  6
CONTINUOUS
370
50
 62
4
100
AcDbLine
 10
76.379707
 20
1.470143
 30
0.0
 11
76.641525
 21
1.493006
 31
0.0
  0
LINE
  5
937
330
1F
100
AcDbEntity
  8
1
  6
CONTINUOUS
370
50
 62
4
100
AcDbLine
 10
82.185532
 20
-1.493005
 30
0.0
 11
82.446693
 21
-1.470197
 31
0.0
  0
LINE
  5
938
330
1F
100
AcDbEntity
  8
1
  6
CONTINUOUS
370
50
 62
4
100
AcDbLine
 10
84.54634899999999
 20
1.470015
 30
0.0
 11
84.808296
 21
1.492914
 31
0.0
  0
LINE
  5
939
330
1F
100
AcDbEntity
  8
1
  6
CONTINUOUS
370
50
 62
4
100
AcDbLine
 10
57.682693
 20
-1.493342
 30
0.0
 11
57.944004
 21
-1.47048
 31
0.0
  0
LINE
  5
93A
330
1F
100
AcDbEntity
  8
1
  6
CONTINUOUS
370
50
 62
4
100
AcDbLine
 10
109.049736
 20
1.469601
 30
0.0
 11
109.311432
 21
1.492506
 31
0.0
  0
LINE
  5
93B
330
1F
100
AcDbEntity
  8
1
  6
CONTINUOUS
370
50
 62
4
100
AcDbLine
 10
106.691238
 20
-1.492499
 30
0.0
 11
106.953438
 21
-1.469447
 31
0.0
  0
LINE
  5
93C
330
1F
100
AcDbEntity
  8
1
  6
CONTINUOUS
370
50
 62
4
100
AcDbLine
 10
51.90619299999999
 20
1.472768
 30
0.0
 11
52.028889
 21
1.484685
 31
0.0
  0
LINE
  5
93D
330
1F
100
AcDbEntity
  8
1
  6
CONTINUOUS
370
50
 62
4
100
AcDbLine
 10
50.34233099999999
 20
-1.49662
 30
0.0
 11
50.431068
 21
-1.48782
 31
0.0
  0
LINE
  5
93E
330
1F
100
AcDbEntity
  8
1
  6
CONTINUOUS
370
50
 62
4
100
AcDbLine
 10
50.331345
 20
-1.244841
 30
0.0
 11
50.38267099999999
 21
-1.239081
 31
0.0
  0
LINE
  5
93F
330
1F
100
AcDbEntity
  8
1
  6
CONTINUOUS
370
50
 62
4
100
AcDbLine
 10
51.78302
 20
1.457447
 30
0.0
 11
51.90619299999999
 21
1.472768
 31
0.0
  0
LINE
  5
940
330
1F
100
AcDbEntity
  8
1
  6
CONTINUOUS
370
50
 62
4
100
AcDbLine
 10
118.825409
 20
0.624338
 30
0.0
 11
118.877579
 21
0.6312519999999999
 31
0.0
  0
LINE
  5
941
330
1F
100
AcDbEntity
  8
1
  6
CONTINUOUS
370
50
 62
4
100
AcDbLine
 10
100.620544
 20
1.432217
 30
0.0
 11
100.884285
 21
1.469919
 31
0.0
  0
LINE
  5
942
330
1F
100
AcDbEntity
  8
1
  6
CONTINUOUS
370
50
 62
4
100
AcDbLine
 10
76.116997
 20
1.432545
 30
0.0
 11
76.379707
 21
1.470143
 31
0.0
  0
LINE
  5
943
330
1F
100
AcDbEntity
  8
1
  6
CONTINUOUS
370
50
 62
4
100
AcDbLine
 10
115.119324
 20
-1.469661
 30
0.0
 11
115.382294
 21
-1.431991
 31
0.0
  0
LINE
  5
944
330
1F
100
AcDbEntity
  8
1
  6
CONTINUOUS
370
50
 62
4
100
AcDbLine
 10
90.616783
 20
-1.469943
 30
0.0
 11
90.879662
 21
-1.432245
 31
0.0
  0
LINE
  5
945
330
1F
100
AcDbEntity
  8
1
  6
CONTINUOUS
370
50
 62
4
100
AcDbLine
 10
82.446693
 20
-1.470197
 30
0.0
 11
82.70981599999999
 21
-1.43243
 31
0.0
  0
LINE
  5
946
330
1F
100
AcDbEntity
  8
1
  6
CONTINUOUS
370
50
 62
4
100
AcDbLine
 10
57.944004
 20
-1.47048
 30
0.0
 11
58.207043
 21
-1.432722
 31
0.0
  0
LINE
  5
947
330
1F
100
AcDbEntity
  8
1
  6
CONTINUOUS
370
50
 62
4
100
AcDbLine
 10
66.11312099999999
 20
-1.470384
 30
0.0
 11
66.37593799999999
 21
-1.432658
 31
0.0
  0
LINE
  5
948
330
1F
100
AcDbEntity
  8
1
  6
CONTINUOUS
370
50
 62
4
100
AcDbLine
 10
92.453575
 20
1.432474
 30
0.0
 11
92.714981
 21
1.470117
 31
0.0
  0
LINE
  5
949
330
1F
100
AcDbEntity
  8
1
  6
CONTINUOUS
370
50
 62
4
100
AcDbLine
 10
67.947723
 20
1.432466
 30
0.0
 11
68.21034999999999
 21
1.470341
 31
0.0
  0
LINE
  5
94A
330
1F
100
AcDbEntity
  8
1
  6
CONTINUOUS
370
50
 62
4
100
AcDbLine
 10
116.95636
 20
1.431943
 30
0.0
 11
117.218155
 21
1.469701
 31
0.0
  0
LINE
  5
94B
330
1F
100
AcDbEntity
  8
1
  6
CONTINUOUS
370
50
 62
4
100
AcDbLine
 10
98.782738
 20
-1.470143
 30
0.0
 11
99.04401399999999
 21
-1.432429
 31
0.0
  0
LINE
  5
94C
330
1F
100
AcDbEntity
  8
1
  6
CONTINUOUS
370
50
 62
4
100
AcDbLine
 10
59.783432
 20
1.432891
 30
0.0
 11
60.044491
 21
1.470607
 31
0.0
  0
LINE
  5
94D
330
1F
100
AcDbEntity
  8
1
  6
CONTINUOUS
370
50
 62
4
100
AcDbLine
 10
106.953438
 20
-1.469447
 30
0.0
 11
107.215881
 21
-1.431467
 31
0.0
  0
LINE
  5
94E
330
1F
100
AcDbEntity
  8
1
  6
CONTINUOUS
370
50
 62
4
100
AcDbLine
 10
108.788033
 20
1.431722
 30
0.0
 11
109.049736
 21
1.469601
 31
0.0
  0
LINE
  5
94F
330
1F
100
AcDbEntity
  8
1
  6
CONTINUOUS
370
50
 62
4
100
AcDbLine
 10
84.284813
 20
1.432145
 30
0.0
 11
84.54634899999999
 21
1.470015
 31
0.0
  0
LINE
  5
950
330
1F
100
AcDbEntity
  8
1
  6
CONTINUOUS
370
50
 62
4
100
AcDbLine
 10
74.282066
 20
-1.470184
 30
0.0
 11
74.544815
 21
-1.432029
 31
0.0
  0
LINE
  5
951
330
1F
100
AcDbEntity
  8
1
  6
CONTINUOUS
370
50
 62
4
100
AcDbLine
 10
50.282822
 20
-1.252042
 30
0.0
 11
50.331345
 21
-1.244841
 31
0.0
  0
LINE
  5
952
330
1F
100
AcDbEntity
  8
1
  6
CONTINUOUS
370
50
 62
4
100
AcDbLine
 10
51.659084
 20
1.43872
 30
0.0
 11
51.78302
 21
1.457447
 31
0.0
  0
LINE
  5
953
330
1F
100
AcDbEntity
  8
1
  6
CONTINUOUS
370
50
 62
4
100
AcDbLine
 10
118.877579
 20
0.6312519999999999
 30
0.0
 11
118.927994
 21
0.6389199999999999
 31
0.0
  0
LINE
  5
954
330
1F
100
AcDbEntity
  8
1
  6
CONTINUOUS
370
50
 62
4
100
AcDbLine
 10
50.431068
 20
-1.48782
 30
0.0
 11
50.521832
 21
-1.47389
 31
0.0
  0
LINE
  5
955
330
1F
100
AcDbEntity
  8
1
  6
CONTINUOUS
370
50
 62
4
100
AcDbLine
 10
118.927994
 20
0.6389199999999999
 30
0.0
 11
118.976738
 21
0.647376
 31
0.0
  0
LINE
  5
956
330
1F
100
AcDbEntity
  8
1
  6
CONTINUOUS
370
50
 62
4
100
AcDbLine
 10
50.237247
 20
-1.260561
 30
0.0
 11
50.282822
 21
-1.252042
 31
0.0
  0
LINE
  5
957
330
1F
100
AcDbEntity
  8
1
  6
CONTINUOUS
370
50
 62
4
100
AcDbLine
 10
118.976738
 20
0.647376
 30
0.0
 11
119.024467
 21
0.656809
 31
0.0
  0
LINE
  5
958
330
1F
100
AcDbEntity
  8
1
  6
CONTINUOUS
370
50
 62
4
100
AcDbLine
 10
82.70981599999999
 20
-1.43243
 30
0.0
 11
82.97344199999999
 21
-1.380139
 31
0.0
  0
LINE
  5
959
330
1F
100
AcDbEntity
  8
1
  6
CONTINUOUS
370
50
 62
4
100
AcDbLine
 10
107.215881
 20
-1.431467
 30
0.0
 11
107.479134
 21
-1.379249
 31
0.0
  0
LINE
  5
95A
330
1F
100
AcDbEntity
  8
1
  6
CONTINUOUS
370
50
 62
4
100
AcDbLine
 10
58.207043
 20
-1.432722
 30
0.0
 11
58.470341
 21
-1.380456
 31
0.0
  0
LINE
  5
95B
330
1F
100
AcDbEntity
  8
1
  6
CONTINUOUS
370
50
 62
4
100
AcDbLine
 10
108.524605
 20
1.379362
 30
0.0
 11
108.788033
 21
1.431722
 31
0.0
  0
LINE
  5
95C
330
1F
100
AcDbEntity
  8
1
  6
CONTINUOUS
370
50
 62
4
100
AcDbLine
 10
59.52016399999999
 20
1.38052
 30
0.0
 11
59.783432
 21
1.432891
 31
0.0
  0
LINE
  5
95D
330
1F
100
AcDbEntity
  8
1
  6
CONTINUOUS
370
50
 62
4
100
AcDbLine
 10
75.85408799999999
 20
1.380239
 30
0.0
 11
76.116997
 21
1.432545
 31
0.0
  0
LINE
  5
95E
330
1F
100
AcDbEntity
  8
1
  6
CONTINUOUS
370
50
 62
4
100
AcDbLine
 10
84.021553
 20
1.379746
 30
0.0
 11
84.284813
 21
1.432145
 31
0.0
  0
LINE
  5
95F
330
1F
100
AcDbEntity
  8
1
  6
CONTINUOUS
370
50
 62
4
100
AcDbLine
 10
100.357513
 20
1.37984
 30
0.0
 11
100.620544
 21
1.432217
 31
0.0
  0
LINE
  5
960
330
1F
100
AcDbEntity
  8
1
  6
CONTINUOUS
370
50
 62
4
100
AcDbLine
 10
99.04401399999999
 20
-1.432429
 30
0.0
 11
99.306709
 21
-1.379959
 31
0.0
  0
LINE
  5
961
330
1F
100
AcDbEntity
  8
1
  6
CONTINUOUS
370
50
 62
4
100
AcDbLine
 10
115.382294
 20
-1.431991
 30
0.0
 11
115.644058
 21
-1.379661
 31
0.0
  0
LINE
  5
962
330
1F
100
AcDbEntity
  8
1
  6
CONTINUOUS
370
50
 62
4
100
AcDbLine
 10
116.69455
 20
1.379518
 30
0.0
 11
116.95636
 21
1.431943
 31
0.0
  0
LINE
  5
963
330
1F
100
AcDbEntity
  8
1
  6
CONTINUOUS
370
50
 62
4
100
AcDbLine
 10
92.19249699999999
 20
1.380193
 30
0.0
 11
92.453575
 21
1.432474
 31
0.0
  0
LINE
  5
964
330
1F
100
AcDbEntity
  8
1
  6
CONTINUOUS
370
50
 62
4
100
AcDbLine
 10
90.879662
 20
-1.432245
 30
0.0
 11
91.140564
 21
-1.379982
 31
0.0
  0
LINE
  5
965
330
1F
100
AcDbEntity
  8
1
  6
CONTINUOUS
370
50
 62
4
100
AcDbLine
 10
66.37593799999999
 20
-1.432658
 30
0.0
 11
66.636978
 21
-1.380324
 31
0.0
  0
LINE
  5
966
330
1F
100
AcDbEntity
  8
1
  6
CONTINUOUS
370
50
 62
4
100
AcDbLine
 10
67.686554
 20
1.380031
 30
0.0
 11
67.947723
 21
1.432466
 31
0.0
  0
LINE
  5
967
330
1F
100
AcDbEntity
  8
1
  6
CONTINUOUS
370
50
 62
4
100
AcDbLine
 10
74.544815
 20
-1.432029
 30
0.0
 11
74.80830399999999
 21
-1.37911
 31
0.0
  0
LINE
  5
968
330
1F
100
AcDbEntity
  8
1
  6
CONTINUOUS
370
50
 62
4
100
AcDbLine
 10
50.521832
 20
-1.47389
 30
0.0
 11
50.613297
 21
-1.455103
 31
0.0
  0
LINE
  5
969
330
1F
100
AcDbEntity
  8
1
  6
CONTINUOUS
370
50
 62
4
100
AcDbLine
 10
51.073792
 20
1.28985
 30
0.0
 11
51.151745
 21
1.306119
 31
0.0
  0
LINE
  5
96A
330
1F
100
AcDbEntity
  8
1
  6
CONTINUOUS
370
50
 62
4
100
AcDbLine
 10
51.151745
 20
1.306119
 30
0.0
 11
51.228352
 21
1.323318
 31
0.0
  0
LINE
  5
96B
330
1F
100
AcDbEntity
  8
1
  6
CONTINUOUS
370
50
 62
4
100
AcDbLine
 10
119.024467
 20
0.656809
 30
0.0
 11
119.071068
 21
0.6673049999999999
 31
0.0
  0
LINE
  5
96C
330
1F
100
AcDbEntity
  8
1
  6
CONTINUOUS
370
50
 62
4
100
AcDbLine
 10
50.194759
 20
-1.270277
 30
0.0
 11
50.237247
 21
-1.260561
 31
0.0
  0
LINE
  5
96D
330
1F
100
AcDbEntity
  8
1
  6
CONTINUOUS
370
50
 62
4
100
AcDbLine
 10
51.59008
 20
1.411385
 30
0.0
 11
51.659084
 21
1.427515
 31
0.0
  0
LINE
  5
96E
330
1F
100
AcDbEntity
  8
1
  6
CONTINUOUS
370
50
 62
4
100
AcDbLine
 10
51.228352
 20
1.323318
 30
0.0
 11
51.303417
 21
1.341039
 31
0.0
  0
LINE
  5
96F
330
1F
100
AcDbEntity
  8
1
  6
CONTINUOUS
370
50
 62
4
100
AcDbLine
 10
51.52016099999999
 20
1.394408
 30
0.0
 11
51.59008
 21
1.411385
 31
0.0
  0
LINE
  5
970
330
1F
100
AcDbEntity
  8
1
  6
CONTINUOUS
370
50
 62
4
100
AcDbLine
 10
51.303417
 20
1.341039
 30
0.0
 11
51.376976
 21
1.35897
 31
0.0
  0
LINE
  5
971
330
1F
100
AcDbEntity
  8
1
  6
CONTINUOUS
370
50
 62
4
100
AcDbLine
 10
51.44917299999999
 20
1.376848
 30
0.0
 11
51.52016099999999
 21
1.394408
 31
0.0
  0
LINE
  5
972
330
1F
100
AcDbEntity
  8
1
  6
CONTINUOUS
370
50
 62
4
100
AcDbLine
 10
51.376976
 20
1.35897
 30
0.0
 11
51.44917299999999
 21
1.376848
 31
0.0
  0
LINE
  5
973
330
1F
100
AcDbEntity
  8
1
  6
CONTINUOUS
370
50
 62
4
100
AcDbLine
 10
59.256161
 20
1.314132
 30
0.0
 11
59.52016399999999
 21
1.38052
 31
0.0
  0
LINE
  5
974
330
1F
100
AcDbEntity
  8
1
  6
CONTINUOUS
370
50
 62
4
100
AcDbLine
 10
99.306709
 20
-1.379959
 30
0.0
 11
99.570793
 21
-1.313529
 31
0.0
  0
LINE
  5
975
330
1F
100
AcDbEntity
  8
1
  6
CONTINUOUS
370
50
 62
4
100
AcDbLine
 10
83.75825499999999
 20
1.313437
 30
0.0
 11
84.021553
 21
1.379746
 31
0.0
  0
LINE
  5
976
330
1F
100
AcDbEntity
  8
1
  6
CONTINUOUS
370
50
 62
4
100
AcDbLine
 10
108.261734
 20
1.313094
 30
0.0
 11
108.524605
 21
1.379362
 31
0.0
  0
LINE
  5
977
330
1F
100
AcDbEntity
  8
1
  6
CONTINUOUS
370
50
 62
4
100
AcDbLine
 10
74.80830399999999
 20
-1.37911
 30
0.0
 11
75.071838
 21
-1.312671
 31
0.0
  0
LINE
  5
978
330
1F
100
AcDbEntity
  8
1
  6
CONTINUOUS
370
50
 62
4
100
AcDbLine
 10
116.431564
 20
1.313191
 30
0.0
 11
116.69455
 21
1.379518
 31
0.0
  0
LINE
  5
979
330
1F
100
AcDbEntity
  8
1
  6
CONTINUOUS
370
50
 62
4
100
AcDbLine
 10
91.929352
 20
1.313676
 30
0.0
 11
92.19249699999999
 21
1.380193
 31
0.0
  0
LINE
  5
97A
330
1F
100
AcDbEntity
  8
1
  6
CONTINUOUS
370
50
 62
4
100
AcDbLine
 10
107.479134
 20
-1.379249
 30
0.0
 11
107.740463
 21
-1.31307
 31
0.0
  0
LINE
  5
97B
330
1F
100
AcDbEntity
  8
1
  6
CONTINUOUS
370
50
 62
4
100
AcDbLine
 10
82.97344199999999
 20
-1.380139
 30
0.0
 11
83.235901
 21
-1.313673
 31
0.0
  0
LINE
  5
97C
330
1F
100
AcDbEntity
  8
1
  6
CONTINUOUS
370
50
 62
4
100
AcDbLine
 10
67.42439999999999
 20
1.31354
 30
0.0
 11
67.686554
 21
1.380031
 31
0.0
  0
LINE
  5
97D
330
1F
100
AcDbEntity
  8
1
  6
CONTINUOUS
370
50
 62
4
100
AcDbLine
 10
58.470341
 20
-1.380456
 30
0.0
 11
58.732193
 21
-1.314036
 31
0.0
  0
LINE
  5
97E
330
1F
100
AcDbEntity
  8
1
  6
CONTINUOUS
370
50
 62
4
100
AcDbLine
 10
66.636978
 20
-1.380324
 30
0.0
 11
66.898636
 21
-1.313826
 31
0.0
  0
LINE
  5
97F
330
1F
100
AcDbEntity
  8
1
  6
CONTINUOUS
370
50
 62
4
100
AcDbLine
 10
91.140564
 20
-1.379982
 30
0.0
 11
91.402046
 21
-1.313522
 31
0.0
  0
LINE
  5
980
330
1F
100
AcDbEntity
  8
1
  6
CONTINUOUS
370
50
 62
4
100
AcDbLine
 10
115.644058
 20
-1.379661
 30
0.0
 11
115.905556
 21
-1.313195
 31
0.0
  0
LINE
  5
981
330
1F
100
AcDbEntity
  8
1
  6
CONTINUOUS
370
50
 62
4
100
AcDbLine
 10
75.592247
 20
1.313676
 30
0.0
 11
75.85408799999999
 21
1.380239
 31
0.0
  0
LINE
  5
982
330
1F
100
AcDbEntity
  8
1
  6
CONTINUOUS
370
50
 62
4
100
AcDbLine
 10
100.09623
 20
1.313417
 30
0.0
 11
100.357513
 21
1.37984
 31
0.0
  0
LINE
  5
983
330
1F
100
AcDbEntity
  8
1
  6
CONTINUOUS
370
50
 62
4
100
AcDbLine
 10
50.613297
 20
-1.455103
 30
0.0
 11
50.705452
 21
-1.431482
 31
0.0
  0
LINE
  5
984
330
1F
100
AcDbEntity
  8
1
  6
CONTINUOUS
370
50
 62
4
100
AcDbLine
 10
119.071068
 20
0.6673049999999999
 30
0.0
 11
119.116318
 21
0.678939
 31
0.0
  0
LINE
  5
985
330
1F
100
AcDbEntity
  8
1
  6
CONTINUOUS
370
50
 62
4
100
AcDbLine
 10
50.154827
 20
-1.281273
 30
0.0
 11
50.194759
 21
-1.270277
 31
0.0
  0
LINE
  5
986
330
1F
100
AcDbEntity
  8
1
  6
CONTINUOUS
370
50
 62
4
100
AcDbLine
 10
119.116318
 20
0.678939
 30
0.0
 11
119.160011
 21
0.6917869999999999
 31
0.0
  0
LINE
  5
987
330
1F
100
AcDbEntity
  8
1
  6
CONTINUOUS
370
50
 62
4
100
AcDbLine
 10
91.664932
 20
1.233828
 30
0.0
 11
91.929352
 21
1.313676
 31
0.0
  0
LINE
  5
988
330
1F
100
AcDbEntity
  8
1
  6
CONTINUOUS
370
50
 62
4
100
AcDbLine
 10
67.16126299999999
 20
1.234062
 30
0.0
 11
67.42439999999999
 21
1.31354
 31
0.0
  0
LINE
  5
989
330
1F
100
AcDbEntity
  8
1
  6
CONTINUOUS
370
50
 62
4
100
AcDbLine
 10
116.168381
 20
1.233567
 30
0.0
 11
116.431564
 21
1.313191
 31
0.0
  0
LINE
  5
98A
330
1F
100
AcDbEntity
  8
1
  6
CONTINUOUS
370
50
 62
4
100
AcDbLine
 10
66.898636
 20
-1.313826
 30
0.0
 11
67.161835
 21
-1.234141
 31
0.0
  0
LINE
  5
98B
330
1F
100
AcDbEntity
  8
1
  6
CONTINUOUS
370
50
 62
4
100
AcDbLine
 10
91.402046
 20
-1.313522
 30
0.0
 11
91.665039
 21
-1.233887
 31
0.0
  0
LINE
  5
98C
330
1F
100
AcDbEntity
  8
1
  6
CONTINUOUS
370
50
 62
4
100
AcDbLine
 10
99.570793
 20
-1.313529
 30
0.0
 11
99.834549
 21
-1.233645
 31
0.0
  0
LINE
  5
98D
330
1F
100
AcDbEntity
  8
1
  6
CONTINUOUS
370
50
 62
4
100
AcDbLine
 10
115.905556
 20
-1.313195
 30
0.0
 11
116.168327
 21
-1.233566
 31
0.0
  0
LINE
  5
98E
330
1F
100
AcDbEntity
  8
1
  6
CONTINUOUS
370
50
 62
4
100
AcDbLine
 10
75.071838
 20
-1.312671
 30
0.0
 11
75.33107
 21
-1.233969
 31
0.0
  0
LINE
  5
98F
330
1F
100
AcDbEntity
  8
1
  6
CONTINUOUS
370
50
 62
4
100
AcDbLine
 10
58.9935
 20
1.234116
 30
0.0
 11
59.256161
 21
1.314132
 31
0.0
  0
LINE
  5
990
330
1F
100
AcDbEntity
  8
1
  6
CONTINUOUS
370
50
 62
4
100
AcDbLine
 10
99.834572
 20
1.233647
 30
0.0
 11
100.09623
 21
1.313417
 31
0.0
  0
LINE
  5
991
330
1F
100
AcDbEntity
  8
1
  6
CONTINUOUS
370
50
 62
4
100
AcDbLine
 10
83.497124
 20
1.233791
 30
0.0
 11
83.75825499999999
 21
1.313437
 31
0.0
  0
LINE
  5
992
330
1F
100
AcDbEntity
  8
1
  6
CONTINUOUS
370
50
 62
4
100
AcDbLine
 10
108.000786
 20
1.233455
 30
0.0
 11
108.261734
 21
1.313094
 31
0.0
  0
LINE
  5
993
330
1F
100
AcDbEntity
  8
1
  6
CONTINUOUS
370
50
 62
4
100
AcDbLine
 10
75.33052099999999
 20
1.233788
 30
0.0
 11
75.592247
 21
1.313676
 31
0.0
  0
LINE
  5
994
330
1F
100
AcDbEntity
  8
1
  6
CONTINUOUS
370
50
 62
4
100
AcDbLine
 10
107.740463
 20
-1.31307
 30
0.0
 11
108.000793
 21
-1.233456
 31
0.0
  0
LINE
  5
995
330
1F
100
AcDbEntity
  8
1
  6
CONTINUOUS
370
50
 62
4
100
AcDbLine
 10
83.235901
 20
-1.313673
 30
0.0
 11
83.49711599999999
 21
-1.233788
 31
0.0
  0
LINE
  5
996
330
1F
100
AcDbEntity
  8
1
  6
CONTINUOUS
370
50
 62
4
100
AcDbLine
 10
58.732193
 20
-1.314036
 30
0.0
 11
58.993492
 21
-1.234115
 31
0.0
  0
LINE
  5
997
330
1F
100
AcDbEntity
  8
1
  6
CONTINUOUS
370
50
 62
4
100
AcDbLine
 10
50.705452
 20
-1.431482
 30
0.0
 11
50.79776
 21
-1.403117
 31
0.0
  0
LINE
  5
998
330
1F
100
AcDbEntity
  8
1
  6
CONTINUOUS
370
50
 62
4
100
AcDbLine
 10
119.476761
 20
-0.389536
 30
0.0
 11
119.495338
 21
-0.383653
 31
0.0
  0
LINE
  5
999
330
1F
100
AcDbEntity
  8
1
  6
CONTINUOUS
370
50
 62
4
100
AcDbLine
 10
50.116917
 20
-1.293762
 30
0.0
 11
50.154827
 21
-1.281273
 31
0.0
  0
LINE
  5
99A
330
1F
100
AcDbEntity
  8
1
  6
CONTINUOUS
370
50
 62
4
100
AcDbLine
 10
119.160011
 20
0.6917869999999999
 30
0.0
 11
119.201927
 21
0.705923
 31
0.0
  0
LINE
  5
99B
330
1F
100
AcDbEntity
  8
1
  6
CONTINUOUS
370
50
 62
4
100
AcDbLine
 10
50.79776
 20
-1.403117
 30
0.0
 11
50.890049
 21
-1.37001
 31
0.0
  0
LINE
  5
99C
330
1F
100
AcDbEntity
  8
1
  6
CONTINUOUS
370
50
 62
4
100
AcDbLine
 10
119.201927
 20
0.705923
 30
0.0
 11
119.241875
 21
0.721421
 31
0.0
  0
LINE
  5
99D
330
1F
100
AcDbEntity
  8
1
  6
CONTINUOUS
370
50
 62
4
100
AcDbLine
 10
50.081722
 20
-1.307671
 30
0.0
 11
50.116917
 21
-1.293762
 31
0.0
  0
LINE
  5
99E
330
1F
100
AcDbEntity
  8
1
  6
CONTINUOUS
370
50
 62
4
100
AcDbLine
 10
50.890049
 20
-1.37001
 30
0.0
 11
50.982132
 21
-1.33221
 31
0.0
  0
LINE
  5
99F
330
1F
100
AcDbEntity
  8
1
  6
CONTINUOUS
370
50
 62
4
100
AcDbLine
 10
119.241875
 20
0.721421
 30
0.0
 11
119.279655
 21
0.738374
 31
0.0
  0
LINE
  5
9A0
330
1F
100
AcDbEntity
  8
1
  6
CONTINUOUS
370
50
 62
4
100
AcDbLine
 10
50.982132
 20
-1.33221
 30
0.0
 11
51.073788
 21
-1.28985
 31
0.0
  0
LINE
  5
9A1
330
1F
100
AcDbEntity
  8
1
  6
CONTINUOUS
370
50
 62
4
100
AcDbLine
 10
50.050022
 20
-1.322892
 30
0.0
 11
50.081722
 21
-1.307671
 31
0.0
  0
LINE
  5
9A2
330
1F
100
AcDbEntity
  8
1
  6
CONTINUOUS
370
50
 62
4
100
AcDbLine
 10
119.279655
 20
0.738374
 30
0.0
 11
119.315811
 21
0.757293
 31
0.0
  0
LINE
  5
9A3
330
1F
100
AcDbEntity
  8
1
  6
CONTINUOUS
370
50
 62
4
100
AcDbLine
 10
50.040249
 20
-1.328295
 30
0.0
 11
50.050022
 21
-1.322892
 31
0.0
  0
LINE
  5
9A4
330
1F
100
AcDbEntity
  8
1
  6
CONTINUOUS
370
50
 62
4
100
AcDbLine
 10
119.440498
 20
-1.499778
 30
0.0
 11
119.44072
 21
-1.499655
 31
0.0
  0
LINE
  5
9A5
330
1F
100
AcDbEntity
  8
1
  6
CONTINUOUS
370
50
 62
4
100
AcDbLine
 10
55.999134
 20
1.5
 30
0.0
 11
56.0
 21
1.5005
 31
0.0
  0
LINE
  5
9A6
330
1F
100
AcDbEntity
  8
1
  6
CONTINUOUS
370
50
 62
4
100
AcDbLine
 10
50.031021
 20
-1.333802
 30
0.0
 11
50.040249
 21
-1.328295
 31
0.0
  0
LINE
  5
9A7
330
1F
100
AcDbEntity
  8
1
  6
CONTINUOUS
370
50
 62
4
100
AcDbLine
 10
119.315811
 20
0.757293
 30
0.0
 11
119.350136
 21
0.778517
 31
0.0
  0
LINE
  5
9A8
330
1F
100
AcDbEntity
  8
1
  6
CONTINUOUS
370
50
 62
4
100
AcDbLine
 10
50.022358
 20
-1.339404
 30
0.0
 11
50.031021
 21
-1.333802
 31
0.0
  0
LINE
  5
9A9
330
1F
100
AcDbEntity
  8
1
  6
CONTINUOUS
370
50
 62
4
100
AcDbLine
 10
50.01428199999999
 20
-1.345094
 30
0.0
 11
50.022358
 21
-1.339404
 31
0.0
  0
LINE
  5
9AA
330
1F
100
AcDbEntity
  8
1
  6
CONTINUOUS
370
50
 62
4
100
AcDbLine
 10
119.350136
 20
0.778517
 30
0.0
 11
119.382034
 21
0.8022199999999999
 31
0.0
  0
LINE
  5
9AB
330
1F
100
AcDbEntity
  8
1
  6
CONTINUOUS
370
50
 62
4
100
AcDbLine
 10
50.00682399999999
 20
-1.350863
 30
0.0
 11
50.01428199999999
 21
-1.345094
 31
0.0
  0
LINE
  5
9AC
330
1F
100
AcDbEntity
  8
1
  6
CONTINUOUS
370
50
 62
4
100
AcDbLine
 10
119.424606
 20
-0.462695
 30
0.0
 11
119.922707
 21
-0.062154
 31
0.0
  0
LINE
  5
9AD
330
1F
100
AcDbEntity
  8
1
  6
CONTINUOUS
370
50
 62
4
100
AcDbLine
 10
50.0
 20
-1.356703
 30
0.0
 11
50.00682399999999
 21
-1.350863
 31
0.0
  0
LINE
  5
9AE
330
1F
100
AcDbEntity
  8
1
  6
CONTINUOUS
370
50
 62
4
100
AcDbLine
 10
119.495338
 20
-0.383653
 30
0.0
 11
119.508278
 21
-0.372299
 31
0.0
  0
LINE
  5
9AF
330
1F
100
AcDbEntity
  8
1
  6
CONTINUOUS
370
50
 62
4
100
AcDbLine
 10
119.382034
 20
0.8022199999999999
 30
0.0
 11
119.410912
 21
0.828569
 31
0.0
  0
LINE
  5
9B0
330
1F
100
AcDbEntity
  8
1
  6
CONTINUOUS
370
50
 62
4
100
AcDbLine
 10
119.440285
 20
-1.5
 30
0.0
 11
119.440498
 21
-1.499778
 31
0.0
  0
LINE
  5
9B1
330
1F
100
AcDbEntity
  8
1
  6
CONTINUOUS
370
50
 62
4
100
AcDbLine
 10
119.44072
 20
-1.499655
 30
0.0
 11
119.440933
 21
-1.499432
 31
0.0
  0
LINE
  5
9B2
330
1F
100
AcDbEntity
  8
1
  6
CONTINUOUS
370
50
 62
4
100
AcDbLine
 10
119.410912
 20
0.828569
 30
0.0
 11
119.435837
 21
0.857277
 31
0.0
  0
LINE
  5
9B3
330
1F
100
AcDbEntity
  8
1
  6
CONTINUOUS
370
50
 62
4
100
AcDbLine
 10
119.440933
 20
-1.499432
 30
0.0
 11
119.441154
 21
-1.499108
 31
0.0
  0
LINE
  5
9B4
330
1F
100
AcDbEntity
  8
1
  6
CONTINUOUS
370
50
 62
4
100
AcDbLine
 10
119.435837
 20
0.857277
 30
0.0
 11
119.456345
 21
0.888183
 31
0.0
  0
LINE
  5
9B5
330
1F
100
AcDbEntity
  8
1
  6
CONTINUOUS
370
50
 62
4
100
AcDbLine
 10
119.441154
 20
-1.499108
 30
0.0
 11
119.441368
 21
-1.498684
 31
0.0
  0
LINE
  5
9B6
330
1F
100
AcDbEntity
  8
1
  6
CONTINUOUS
370
50
 62
4
100
AcDbLine
 10
119.456345
 20
0.888183
 30
0.0
 11
119.472267
 21
0.921376
 31
0.0
  0
LINE
  5
9B7
330
1F
100
AcDbEntity
  8
1
  6
CONTINUOUS
370
50
 62
4
100
AcDbLine
 10
119.441368
 20
-1.498684
 30
0.0
 11
119.441589
 21
-1.498159
 31
0.0
  0
LINE
  5
9B8
330
1F
100
AcDbEntity
  8
1
  6
CONTINUOUS
370
50
 62
4
100
AcDbLine
 10
119.508278
 20
-0.372299
 30
0.0
 11
119.514877
 21
-0.355785
 31
0.0
  0
LINE
  5
9B9
330
1F
100
AcDbEntity
  8
1
  6
CONTINUOUS
370
50
 62
4
100
AcDbLine
 10
119.441574
 20
-1.498264
 30
0.0
 11
120.0
 21
0.0
 31
0.0
  0
LINE
  5
9BA
330
1F
100
AcDbEntity
  8
1
  6
CONTINUOUS
370
50
 62
4
100
AcDbLine
 10
119.472267
 20
0.921376
 30
0.0
 11
119.483315
 21
0.9563919999999999
 31
0.0
  0
LINE
  5
9BB
330
1F
100
AcDbEntity
  8
1
  6
CONTINUOUS
370
50
 62
4
100
AcDbLine
 10
119.483315
 20
0.9563919999999999
 30
0.0
 11
119.489426
 21
0.9921869999999999
 31
0.0
  0
LINE
  5
9BC
330
1F
100
AcDbEntity
  8
1
  6
CONTINUOUS
370
50
 62
4
100
AcDbLine
 10
119.489426
 20
0.9921869999999999
 30
0.0
 11
119.491043
 21
1.028531
 31
0.0
  0
LINE
  5
9BD
330
1F
100
AcDbEntity
  8
1
  6
CONTINUOUS
370
50
 62
4
100
AcDbLine
 10
119.514877
 20
-0.355785
 30
0.0
 11
119.515457
 21
-0.335234
 31
0.0
  0
LINE
  5
9BE
330
1F
100
AcDbEntity
  8
1
  6
CONTINUOUS
370
50
 62
4
100
AcDbLine
 10
119.424301
 20
-0.5800759999999999
 30
0.0
 11
119.424606
 21
-0.462693
 31
0.0
  0
LINE
  5
9BF
330
1F
100
AcDbEntity
  8
1
  6
CONTINUOUS
370
50
 62
4
100
AcDbLine
 10
119.424202
 20
-0.69112
 30
0.0
 11
119.424301
 21
-0.5800759999999999
 31
0.0
  0
LINE
  5
9C0
330
1F
100
AcDbEntity
  8
1
  6
CONTINUOUS
370
50
 62
4
100
AcDbLine
 10
50.0
 20
-1.5
 30
0.0
 11
50.0
 21
1.5
 31
0.0
  0
LINE
  5
9C1
330
1F
100
AcDbEntity
  8
1
  6
CONTINUOUS
370
50
 62
4
100
AcDbLine
 10
51.657085
 20
0.9058379999999999
 30
0.0
 11
51.657085
 21
0.932685
 31
0.0
  0
LINE
  5
9C2
330
1F
100
AcDbEntity
  8
1
  6
CONTINUOUS
370
50
 62
4
100
AcDbLine
 10
51.659084
 20
-1.43872
 30
0.0
 11
51.659084
 21
-1.427515
 31
0.0
  0
LINE
  5
9C3
330
1F
100
AcDbEntity
  8
1
  6
CONTINUOUS
370
50
 62
4
100
AcDbLine
 10
51.659084
 20
0.904898
 30
0.0
 11
51.659084
 21
0.947581
 31
0.0
  0
LINE
  5
9C4
330
1F
100
AcDbEntity
  8
1
  6
CONTINUOUS
370
50
 62
4
100
AcDbLine
 10
51.659084
 20
0.947581
 30
0.0
 11
51.659084
 21
0.9932669999999999
 31
0.0
  0
LINE
  5
9C5
330
1F
100
AcDbEntity
  8
1
  6
CONTINUOUS
370
50
 62
4
100
AcDbLine
 10
51.659084
 20
0.9932669999999999
 30
0.0
 11
51.659084
 21
1.041647
 31
0.0
  0
LINE
  5
9C6
330
1F
100
AcDbEntity
  8
1
  6
CONTINUOUS
370
50
 62
4
100
AcDbLine
 10
51.659084
 20
1.041647
 30
0.0
 11
51.659084
 21
1.092502
 31
0.0
  0
LINE
  5
9C7
330
1F
100
AcDbEntity
  8
1
  6
CONTINUOUS
370
50
 62
4
100
AcDbLine
 10
51.659084
 20
1.092502
 30
0.0
 11
51.659084
 21
1.145674
 31
0.0
  0
LINE
  5
9C8
330
1F
100
AcDbEntity
  8
1
  6
CONTINUOUS
370
50
 62
4
100
AcDbLine
 10
51.659084
 20
1.145674
 30
0.0
 11
51.659084
 21
1.201004
 31
0.0
  0
LINE
  5
9C9
330
1F
100
AcDbEntity
  8
1
  6
CONTINUOUS
370
50
 62
4
100
AcDbLine
 10
51.659084
 20
1.201004
 30
0.0
 11
51.659084
 21
1.258273
 31
0.0
  0
LINE
  5
9CA
330
1F
100
AcDbEntity
  8
1
  6
CONTINUOUS
370
50
 62
4
100
AcDbLine
 10
51.659084
 20
1.258273
 30
0.0
 11
51.659084
 21
1.317111
 31
0.0
  0
LINE
  5
9CB
330
1F
100
AcDbEntity
  8
1
  6
CONTINUOUS
370
50
 62
4
100
AcDbLine
 10
51.659084
 20
1.317111
 30
0.0
 11
51.659084
 21
1.377322
 31
0.0
  0
LINE
  5
9CC
330
1F
100
AcDbEntity
  8
1
  6
CONTINUOUS
370
50
 62
4
100
AcDbLine
 10
51.659084
 20
1.377322
 30
0.0
 11
51.659084
 21
1.43872
 31
0.0
  0
LINE
  5
9CD
330
1F
100
AcDbEntity
  8
1
  6
CONTINUOUS
370
50
 62
4
100
AcDbLine
 10
55.999134
 20
0.277321
 30
0.0
 11
55.999134
 21
1.5
 31
0.0
  0
LINE
  5
9CE
330
1F
100
AcDbEntity
  8
1
  6
CONTINUOUS
370
50
 62
4
100
AcDbLine
 10
55.999134
 20
-1.5
 30
0.0
 11
55.999134
 21
-1.281445
 31
0.0
  0
LINE
  5
9CF
330
1F
100
AcDbEntity
  8
1
  6
CONTINUOUS
370
50
 62
4
100
AcDbLine
 10
56.0
 20
-1.501
 30
0.0
 11
56.0
 21
1.501
 31
0.0
  0
LINE
  5
9D0
330
1F
100
AcDbEntity
  8
1
  6
CONTINUOUS
370
50
 62
4
100
AcDbLine
 10
119.454048
 20
1.186304
 30
0.0
 11
119.454048
 21
1.329548
 31
0.0
  0
ELLIPSE
  5
9D1
330
1F
100
AcDbEntity
  8
1
  6
CONTINUOUS
370
50
 62
4
100
AcDbEllipse
 10
119.999951
 20
0.000028
 30
0.0
 11
-2.119683991138814
 21
1.378841013622248
 31
0.0
210
0.0
220
0.0
230
1.0
 40
0.2786122751151999
 41
1.358059315206742
 42
1.479725591326119
  0
LINE
  5
9D2
330
1F
100
AcDbEntity
  8
CUT
  6
CONTINUOUS
370
25
 62
1
100
AcDbLine
 10
56.0
 20
0.0
 30
0.0
 11
120.0
 21
0.0
 31
0.0
  0
LINE
  5
9D3
330
1F
100
AcDbEntity
  8
CUT
  6
CONTINUOUS
370
25
 62
1
100
AcDbLine
 10
120.0
 20
0.0
 30
0.0
 11
119.45404465
 21
1.5
 31
0.0
  0
LINE
  5
9D4
330
1F
100
AcDbEntity
  8
CUT
  6
CONTINUOUS
370
25
 62
1
100
AcDbLine
 10
119.45404465
 20
1.5
 30
0.0
 11
56.0
 21
1.5
 31
0.0
  0
LINE
  5
9D5
330
1F
100
AcDbEntity
  8
CUT
  6
CONTINUOUS
370
25
 62
1
100
AcDbLine
 10
56.0
 20
1.5
 30
0.0
 11
56.0
 21
0.0
 31
0.0
  0
LINE
  5
9D6
330
1F
100
AcDbEntity
  8
NOCUT
  6
CONTINUOUS
370
25
 62
7
100
AcDbLine
 10
50.0
 20
0.0
 30
0.0
 11
56.0
 21
0.0
 31
0.0
  0
LINE
  5
9D7
330
1F
100
AcDbEntity
  8
NOCUT
  6
CONTINUOUS
370
25
 62
7
100
AcDbLine
 10
56.0
 20
0.0
 30
0.0
 11
56.0
 21
1.5005
 31
0.0
  0
LINE
  5
9D8
330
1F
100
AcDbEntity
  8
NOCUT
  6
CONTINUOUS
370
25
 62
7
100
AcDbLine
 10
56.0
 20
1.5005
 30
0.0
 11
55.99913397459622
 21
1.5
 31
0.0
  0
LINE
  5
9D9
330
1F
100
AcDbEntity
  8
NOCUT
  6
CONTINUOUS
370
25
 62
7
100
AcDbLine
 10
55.99913397459622
 20
1.5
 30
0.0
 11
50.0
 21
1.5
 31
0.0
  0
LINE
  5
9DA
330
1F
100
AcDbEntity
  8
NOCUT
  6
CONTINUOUS
370
25
 62
7
100
AcDbLine
 10
50.0
 20
1.5
 30
0.0
 11
50.0
 21
0.0
 31
0.0
  0
LINE
  5
9DB
330
1F
100
AcDbEntity
  8
NOCUT
  6
CONTINUOUS
370
25
 62
7
100
AcDbLine
 10
56.0
 20
1.5
 30
0.0
 11
56.0
 21
0.0
 31
0.0
  0
LINE
  5
9DC
330
1F
100
AcDbEntity
  8
NOCUT
  6
CONTINUOUS
370
25
 62
7
100
AcDbLine
 10
56.0
 20
1.5
 30
0.0
 11
56.0
 21
0.0
 31
0.0
  0
LINE
  5
9DD
330
1F
100
AcDbEntity
  8
SK1
  6
CONTINUOUS
370
50
 62
4
100
AcDbLine
 10
50.0
 20
1.5
 30
0.0
 11
0.2999999999999972
 21
1.5
 31
0.0
  0
LINE
  5
9DE
330
1F
100
AcDbEntity
  8
SK1
  6
CONTINUOUS
370
50
 62
4
100
AcDbLine
 10
0.2999999999999972
 20
1.5
 30
0.0
 11
0.0
 21
1.2
 31
0.0
  0
LINE
  5
9DF
330
1F
100
AcDbEntity
  8
SK1
  6
CONTINUOUS
370
50
 62
4
100
AcDbLine
 10
0.0
 20
1.2
 30
0.0
 11
0.0
 21
-1.2
 31
0.0
  0
LINE
  5
9E0
330
1F
100
AcDbEntity
  8
SK1
  6
CONTINUOUS
370
50
 62
4
100
AcDbLine
 10
0.0
 20
-1.2
 30
0.0
 11
0.2999999999999972
 21
-1.5
 31
0.0
  0
LINE
  5
9E1
330
1F
100
AcDbEntity
  8
SK1
  6
CONTINUOUS
370
50
 62
4
100
AcDbLine
 10
0.2999999999999972
 20
-1.5
 30
0.0
 11
50.0
 21
-1.5
 31
0.0
  0
LINE
  5
9E2
330
1F
100
AcDbEntity
  8
SK1
  6
CONTINUOUS
370
50
 62
4
100
AcDbLine
 10
0.2999999999999972
 20
1.5
 30
0.0
 11
0.2999999999999972
 21
-1.5
 31
0.0
  0
LINE
  5
9E3
330
1F
100
AcDbEntity
  8
SK2
  6
CONTINUOUS
370
25
 62
7
100
AcDbLine
 10
-12.0000002
 20
-1.500001
 30
0.0
 11
-13.00000000000008
 21
-1.500001
 31
0.0
  0
LINE
  5
9E4
330
1F
100
AcDbEntity
  8
SK2
  6
CONTINUOUS
370
25
 62
7
100
AcDbLine
 10
0.0
 20
-1.500001
 30
0.0
 11
-11.9999998
 21
-1.500001
 31
0.0
  0
LINE
  5
9E5
330
1F
100
AcDbEntity
  8
SK2
  6
CONTINUOUS
370
25
 62
7
100
AcDbLine
 10
-13.0
 20
1.5
 30
0.0
 11
0.0
 21
1.5
 31
0.0
  0
LINE
  5
9E6
330
1F
100
AcDbEntity
  8
SK2
  6
CONTINUOUS
370
25
 62
7
100
AcDbLine
 10
-12.0
 20
-8.5
 30
0.0
 11
-12.0
 21
14.975
 31
0.0
  0
LINE
  5
9E7
330
1F
100
AcDbEntity
  8
SK2
  6
CONTINUOUS
370
25
 62
7
100
AcDbLine
 10
-12.0
 20
-1.5
 30
0.0
 11
-11.0
 21
-6.5
 31
0.0
  0
LINE
  5
9E8
330
1F
100
AcDbEntity
  8
SK2
  6
CONTINUOUS
370
25
 62
7
100
AcDbLine
 10
-11.0
 20
-6.5
 30
0.0
 11
-13.0
 21
-6.5
 31
0.0
  0
LINE
  5
9E9
330
1F
100
AcDbEntity
  8
SK2
  6
CONTINUOUS
370
25
 62
7
100
AcDbLine
 10
-13.0
 20
-6.5
 30
0.0
 11
-12.0
 21
-1.5
 31
0.0
  0
LINE
  5
9EA
330
1F
100
AcDbEntity
  8
SK2
  6
CONTINUOUS
370
25
 62
7
100
AcDbLine
 10
-11.23006486383871
 20
-6.5
 30
0.0
 11
-11.03834414397312
 21
-6.308279280134407
 31
0.0
  0
LINE
  5
9EB
330
1F
100
AcDbEntity
  8
SK2
  6
CONTINUOUS
370
25
 62
7
100
AcDbLine
 10
-11.65432893255063
 20
-6.5
 30
0.0
 11
-11.10905482209178
 21
-5.954725889541137
 31
0.0
  0
LINE
  5
9EC
330
1F
100
AcDbEntity
  8
SK2
  6
CONTINUOUS
370
25
 62
7
100
AcDbLine
 10
-12.07859300126258
 20
-6.5
 30
0.0
 11
-11.17976550021043
 21
-5.601172498947847
 31
0.0
  0
LINE
  5
9ED
330
1F
100
AcDbEntity
  8
SK2
  6
CONTINUOUS
370
25
 62
7
100
AcDbLine
 10
-12.5028570699745
 20
-6.5
 30
0.0
 11
-11.25047617832908
 21
-5.24761910835457
 31
0.0
  0
LINE
  5
9EE
330
1F
100
AcDbEntity
  8
SK2
  6
CONTINUOUS
370
25
 62
7
100
AcDbLine
 10
-12.92712113868642
 20
-6.5
 30
0.0
 11
-11.32118685644774
 21
-4.894065717761301
 31
0.0
  0
LINE
  5
9EF
330
1F
100
AcDbEntity
  8
SK2
  6
CONTINUOUS
370
25
 62
7
100
AcDbLine
 10
-12.91215369815041
 20
-6.060768490752068
 30
0.0
 11
-11.3918975345664
 21
-4.540512327168038
 31
0.0
  0
LINE
  5
9F0
330
1F
100
AcDbEntity
  8
SK2
  6
CONTINUOUS
370
25
 62
7
100
AcDbLine
 10
-12.80608768097243
 20
-5.53043840486216
 30
0.0
 11
-11.46260821268505
 21
-4.186958936574769
 31
0.0
  0
LINE
  5
9F1
330
1F
100
AcDbEntity
  8
SK2
  6
CONTINUOUS
370
25
 62
7
100
AcDbLine
 10
-12.70002166379445
 20
-5.000108318972231
 30
0.0
 11
-11.53331889080371
 21
-3.833405545981478
 31
0.0
  0
LINE
  5
9F2
330
1F
100
AcDbEntity
  8
SK2
  6
CONTINUOUS
370
25
 62
7
100
AcDbLine
 10
-12.59395564661646
 20
-4.469778233082323
 30
0.0
 11
-11.60402956892236
 21
-3.479852155388215
 31
0.0
  0
LINE
  5
9F3
330
1F
100
AcDbEntity
  8
SK2
  6
CONTINUOUS
370
25
 62
7
100
AcDbLine
 10
-12.48788962943848
 20
-3.939448147192415
 30
0.0
 11
-11.67474024704102
 21
-3.126298764794939
 31
0.0
  0
LINE
  5
9F4
330
1F
100
AcDbEntity
  8
SK2
  6
CONTINUOUS
370
25
 62
7
100
AcDbLine
 10
-12.3818236122605
 20
-3.409118061302486
 30
0.0
 11
-11.74545092515967
 21
-2.772745374201648
 31
0.0
  0
LINE
  5
9F5
330
1F
100
AcDbEntity
  8
SK2
  6
CONTINUOUS
370
25
 62
7
100
AcDbLine
 10
-12.27575759508252
 20
-2.878787975412578
 30
0.0
 11
-11.81616160327832
 21
-2.419191983608378
 31
0.0
  0
LINE
  5
9F6
330
1F
100
AcDbEntity
  8
SK2
  6
CONTINUOUS
370
25
 62
7
100
AcDbLine
 10
-12.16969157790454
 20
-2.348457889522678
 30
0.0
 11
-11.88687228139698
 21
-2.065638593015109
 31
0.0
  0
LINE
  5
9F7
330
1F
100
AcDbEntity
  8
SK2
  6
CONTINUOUS
370
25
 62
7
100
AcDbLine
 10
-12.06362556072656
 20
-1.818127803632756
 30
0.0
 11
-11.95758295951563
 21
-1.712085202421825
 31
0.0
  0
LINE
  5
9F8
330
1F
100
AcDbEntity
  8
SK2
  6
CONTINUOUS
370
25
 62
7
100
AcDbLine
 10
-12.93349848618077
 20
-6.167492430903877
 30
0.0
 11
-12.60099091708465
 21
-6.5
 31
0.0
  0
LINE
  5
9F9
330
1F
100
AcDbEntity
  8
SK2
  6
CONTINUOUS
370
25
 62
7
100
AcDbLine
 10
-12.86278780806212
 20
-5.813939040310608
 30
0.0
 11
-12.17672684837272
 21
-6.5
 31
0.0
  0
LINE
  5
9FA
330
1F
100
AcDbEntity
  8
SK2
  6
CONTINUOUS
370
25
 62
7
100
AcDbLine
 10
-12.79207712994346
 20
-5.460385649717338
 30
0.0
 11
-11.7524627796608
 21
-6.5
 31
0.0
  0
LINE
  5
9FB
330
1F
100
AcDbEntity
  8
SK2
  6
CONTINUOUS
370
25
 62
7
100
AcDbLine
 10
-12.72136645182481
 20
-5.106832259124062
 30
0.0
 11
-11.32819871094886
 21
-6.5
 31
0.0
  0
LINE
  5
9FC
330
1F
100
AcDbEntity
  8
SK2
  6
CONTINUOUS
370
25
 62
7
100
AcDbLine
 10
-12.65065577370616
 20
-4.753278868530785
 30
0.0
 11
-11.02401633944077
 21
-6.379918302796156
 31
0.0
  0
LINE
  5
9FD
330
1F
100
AcDbEntity
  8
SK2
  6
CONTINUOUS
370
25
 62
7
100
AcDbLine
 10
-12.5799450955875
 20
-4.399725477937508
 30
0.0
 11
-11.13008235661876
 21
-5.849588216906248
 31
0.0
  0
LINE
  5
9FE
330
1F
100
AcDbEntity
  8
SK2
  6
CONTINUOUS
370
25
 62
7
100
AcDbLine
 10
-12.50923441746885
 20
-4.046172087344239
 30
0.0
 11
-11.23614837379674
 21
-5.31925813101634
 31
0.0
  0
LINE
  5
9FF
330
1F
100
AcDbEntity
  8
SK2
  6
CONTINUOUS
370
25
 62
7
100
AcDbLine
 10
-12.4385237393502
 20
-3.692618696750962
 30
0.0
 11
-11.34221439097472
 21
-4.788928045126433
 31
0.0
  0
LINE
  5
A00
330
1F
100
AcDbEntity
  8
SK2
  6
CONTINUOUS
370
25
 62
7
100
AcDbLine
 10
-12.36781306123154
 20
-3.3390653061577
 30
0.0
 11
-11.44828040815269
 21
-4.258597959236546
 31
0.0
  0
LINE
  5
A01
330
1F
100
AcDbEntity
  8
SK2
  6
CONTINUOUS
370
25
 62
7
100
AcDbLine
 10
-12.29710238311289
 20
-2.985511915564423
 30
0.0
 11
-11.55434642533067
 21
-3.728267873346631
 31
0.0
  0
LINE
  5
A02
330
1F
100
AcDbEntity
  8
SK2
  6
CONTINUOUS
370
25
 62
7
100
AcDbLine
 10
-12.22639170499423
 20
-2.631958524971147
 30
0.0
 11
-11.66041244250865
 21
-3.197937787456723
 31
0.0
  0
LINE
  5
A03
330
1F
100
AcDbEntity
  8
SK2
  6
CONTINUOUS
370
25
 62
7
100
AcDbLine
 10
-12.15568102687558
 20
-2.278405134377877
 30
0.0
 11
-11.76647845968663
 21
-2.667607701566816
 31
0.0
  0
LINE
  5
A04
330
1F
100
AcDbEntity
  8
SK2
  6
CONTINUOUS
370
25
 62
7
100
AcDbLine
 10
-12.08497034875692
 20
-1.924851743784629
 30
0.0
 11
-11.87254447686462
 21
-2.137277615676922
 31
0.0
  0
LINE
  5
A05
330
1F
100
AcDbEntity
  8
SK2
  6
CONTINUOUS
370
25
 62
7
100
AcDbLine
 10
-12.01425967063826
 20
-1.571298353191345
 30
0.0
 11
-11.97861049404261
 21
-1.606947529787
 31
0.0
  0
LINE
  5
A06
330
1F
100
AcDbEntity
  8
SK2
  6
CONTINUOUS
370
25
 62
7
100
AcDbLine
 10
-12.0
 20
1.5
 30
0.0
 11
-13.0
 21
6.5
 31
0.0
  0
LINE
  5
A07
330
1F
100
AcDbEntity
  8
SK2
  6
CONTINUOUS
370
25
 62
7
100
AcDbLine
 10
-13.0
 20
6.5
 30
0.0
 11
-11.0
 21
6.5
 31
0.0
  0
LINE
  5
A08
330
1F
100
AcDbEntity
  8
SK2
  6
CONTINUOUS
370
25
 62
7
100
AcDbLine
 10
-11.0
 20
6.5
 30
0.0
 11
-12.0
 21
1.5
 31
0.0
  0
LINE
  5
A09
330
1F
100
AcDbEntity
  8
SK2
  6
CONTINUOUS
370
25
 62
7
100
AcDbLine
 10
-12.02326838446487
 20
1.616341922324345
 30
0.0
 11
-11.96509742330269
 21
1.674512883486521
 31
0.0
  0
LINE
  5
A0A
330
1F
100
AcDbEntity
  8
SK2
  6
CONTINUOUS
370
25
 62
7
100
AcDbLine
 10
-12.09397906258353
 20
1.969895312917622
 30
0.0
 11
-11.85903140612471
 21
2.204842969376436
 31
0.0
  0
LINE
  5
A0B
330
1F
100
AcDbEntity
  8
SK2
  6
CONTINUOUS
370
25
 62
7
100
AcDbLine
 10
-12.16468974070218
 20
2.323448703510891
 30
0.0
 11
-11.75296538894673
 21
2.735173055266344
 31
0.0
  0
LINE
  5
A0C
330
1F
100
AcDbEntity
  8
SK2
  6
CONTINUOUS
370
25
 62
7
100
AcDbLine
 10
-12.23540041882084
 20
2.677002094104161
 30
0.0
 11
-11.64689937176875
 21
3.265503141156266
 31
0.0
  0
LINE
  5
A0D
330
1F
100
AcDbEntity
  8
SK2
  6
CONTINUOUS
370
25
 62
7
100
AcDbLine
 10
-12.3061110969395
 20
3.030555484697437
 30
0.0
 11
-11.54083335459076
 21
3.795833227046174
 31
0.0
  0
LINE
  5
A0E
330
1F
100
AcDbEntity
  8
SK2
  6
CONTINUOUS
370
25
 62
7
100
AcDbLine
 10
-12.37682177505815
 20
3.384108875290707
 30
0.0
 11
-11.43476733741278
 21
4.326163312936082
 31
0.0
  0
LINE
  5
A0F
330
1F
100
AcDbEntity
  8
SK2
  6
CONTINUOUS
370
25
 62
7
100
AcDbLine
 10
-12.44753245317681
 20
3.737662265883998
 30
0.0
 11
-11.32870132023479
 21
4.856493398826018
 31
0.0
  0
LINE
  5
A10
330
1F
100
AcDbEntity
  8
SK2
  6
CONTINUOUS
370
25
 62
7
100
AcDbLine
 10
-12.51824313129546
 20
4.091215656477267
 30
0.0
 11
-11.22263530305682
 21
5.386823484715912
 31
0.0
  0
LINE
  5
A11
330
1F
100
AcDbEntity
  8
SK2
  6
CONTINUOUS
370
25
 62
7
100
AcDbLine
 10
-12.58895380941411
 20
4.444769047070537
 30
0.0
 11
-11.11656928587884
 21
5.917153570605819
 31
0.0
  0
LINE
  5
A12
330
1F
100
AcDbEntity
  8
SK2
  6
CONTINUOUS
370
25
 62
7
100
AcDbLine
 10
-12.65966448753275
 20
4.798322437663813
 30
0.0
 11
-11.01050326870086
 21
6.44748365649572
 31
0.0
  0
LINE
  5
A13
330
1F
100
AcDbEntity
  8
SK2
  6
CONTINUOUS
370
25
 62
7
100
AcDbLine
 10
-12.73037516565142
 20
5.15187582825709
 30
0.0
 11
-11.38225099390853
 21
6.5
 31
0.0
  0
LINE
  5
A14
330
1F
100
AcDbEntity
  8
SK2
  6
CONTINUOUS
370
25
 62
7
100
AcDbLine
 10
-12.80108584377007
 20
5.505429218850367
 30
0.0
 11
-11.80651506262045
 21
6.5
 31
0.0
  0
LINE
  5
A15
330
1F
100
AcDbEntity
  8
SK2
  6
CONTINUOUS
370
25
 62
7
100
AcDbLine
 10
-12.87179652188873
 20
5.858982609443629
 30
0.0
 11
-12.23077913133236
 21
6.5
 31
0.0
  0
LINE
  5
A16
330
1F
100
AcDbEntity
  8
SK2
  6
CONTINUOUS
370
25
 62
7
100
AcDbLine
 10
-12.94250720000738
 20
6.21253600003692
 30
0.0
 11
-12.6550432000443
 21
6.5
 31
0.0
  0
LINE
  5
A17
330
1F
100
AcDbEntity
  8
SK2
  6
CONTINUOUS
370
25
 62
7
100
AcDbLine
 10
-12.04662997870314
 20
1.733149893515701
 30
0.0
 11
-11.96891334753124
 21
1.655433262343813
 31
0.0
  0
LINE
  5
A18
330
1F
100
AcDbEntity
  8
SK2
  6
CONTINUOUS
370
25
 62
7
100
AcDbLine
 10
-12.15269599588112
 20
2.263479979405616
 30
0.0
 11
-11.89820266941258
 21
2.008986652937082
 31
0.0
  0
LINE
  5
A19
330
1F
100
AcDbEntity
  8
SK2
  6
CONTINUOUS
370
25
 62
7
100
AcDbLine
 10
-12.2587620130591
 20
2.793810065295531
 30
0.0
 11
-11.82749199129393
 21
2.362540043530366
 31
0.0
  0
LINE
  5
A1A
330
1F
100
AcDbEntity
  8
SK2
  6
CONTINUOUS
370
25
 62
7
100
AcDbLine
 10
-12.36482803023708
 20
3.324140151185425
 30
0.0
 11
-11.75678131317528
 21
2.716093434123628
 31
0.0
  0
LINE
  5
A1B
330
1F
100
AcDbEntity
  8
SK2
  6
CONTINUOUS
370
25
 62
7
100
AcDbLine
 10
-12.47089404741506
 20
3.854470237075333
 30
0.0
 11
-11.68607063505662
 21
3.069646824716905
 31
0.0
  0
LINE
  5
A1C
330
1F
100
AcDbEntity
  8
SK2
  6
CONTINUOUS
370
25
 62
7
100
AcDbLine
 10
-12.57696006459304
 20
4.384800322965233
 30
0.0
 11
-11.61535995693797
 21
3.423200215310175
 31
0.0
  0
LINE
  5
A1D
330
1F
100
AcDbEntity
  8
SK2
  6
CONTINUOUS
370
25
 62
7
100
AcDbLine
 10
-12.68302608177102
 20
4.915130408855148
 30
0.0
 11
-11.54464927881931
 21
3.776753605903458
 31
0.0
  0
LINE
  5
A1E
330
1F
100
AcDbEntity
  8
SK2
  6
CONTINUOUS
370
25
 62
7
100
AcDbLine
 10
-12.789092098949
 20
5.445460494745042
 30
0.0
 11
-11.47393860070066
 21
4.130306996496721
 31
0.0
  0
LINE
  5
A1F
330
1F
100
AcDbEntity
  8
SK2
  6
CONTINUOUS
370
25
 62
7
100
AcDbLine
 10
-12.89515811612698
 20
5.97579058063495
 30
0.0
 11
-11.40322792258201
 21
4.483860387089997
 31
0.0
  0
LINE
  5
A20
330
1F
100
AcDbEntity
  8
SK2
  6
CONTINUOUS
370
25
 62
7
100
AcDbLine
 10
-12.9951034667801
 20
6.5
 30
0.0
 11
-11.33251724446335
 21
4.837413777683267
 31
0.0
  0
LINE
  5
A21
330
1F
100
AcDbEntity
  8
SK2
  6
CONTINUOUS
370
25
 62
7
100
AcDbLine
 10
-12.57083939806817
 20
6.5
 30
0.0
 11
-11.26180656634469
 21
5.190967168276529
 31
0.0
  0
LINE
  5
A22
330
1F
100
AcDbEntity
  8
SK2
  6
CONTINUOUS
370
25
 62
7
100
AcDbLine
 10
-12.14657532935625
 20
6.5
 30
0.0
 11
-11.19109588822604
 21
5.544520558869799
 31
0.0
  0
LINE
  5
A23
330
1F
100
AcDbEntity
  8
SK2
  6
CONTINUOUS
370
25
 62
7
100
AcDbLine
 10
-11.72231126064432
 20
6.5
 30
0.0
 11
-11.12038521010739
 21
5.898073949463075
 31
0.0
  0
LINE
  5
A24
330
1F
100
AcDbEntity
  8
SK2
  6
CONTINUOUS
370
25
 62
7
100
AcDbLine
 10
-11.29804719193239
 20
6.5
 30
0.0
 11
-11.04967453198873
 21
6.251627340056345
 31
0.0
  0
TEXT
  5
A25
330
1F
100
AcDbEntity
  8
SK2
  6
CONTINUOUS
370
25
 62
7
100
AcDbText
 10
-13.5
 20
11.84583333333333
 30
0.0
 40
3.5
  1
3
 50
90.00000000000001
 72
     1
 11
-13.5
 21
13.0125
 31
0.0
100
AcDbText
  0
CIRCLE
  5
A26
330
1F
100
AcDbEntity
  8
SK2
  6
CONTINUOUS
370
25
 62
7
100
AcDbCircle
 10
-15.25
 20
9.6875
 30
0.0
 40
1.4
  0
LINE
  5
A27
330
1F
100
AcDbEntity
  8
SK2
  6
CONTINUOUS
370
25
 62
7
100
AcDbLine
 10
-13.85
 20
8.287500000000001
 30
0.0
 11
-16.65000000000001
 21
11.0875
 31
0.0
  0
LINE
  5
A28
330
1F
100
AcDbEntity
  8
SK2
  6
CONTINUOUS
370
25
 62
7
100
AcDbLine
 10
0.0
 20
1.5
 30
0.0
 11
0.0
 21
14.50065282
 31
0.0
  0
LINE
  5
A29
330
1F
100
AcDbEntity
  8
SK2
  6
CONTINUOUS
370
25
 62
7
100
AcDbLine
 10
50.0
 20
14.50065282
 30
0.0
 11
50.0
 21
1.5
 31
0.0
  0
LINE
  5
A2A
330
1F
100
AcDbEntity
  8
SK2
  6
CONTINUOUS
370
25
 62
7
100
AcDbLine
 10
0.0
 20
13.50065282
 30
0.0
 11
50.0
 21
13.50065282
 31
0.0
  0
LINE
  5
A2B
330
1F
100
AcDbEntity
  8
SK2
  6
CONTINUOUS
370
25
 62
7
100
AcDbLine
 10
0.0
 20
13.50065282
 30
0.0
 11
5.0
 21
14.50065282
 31
0.0
  0
LINE
  5
A2C
330
1F
100
AcDbEntity
  8
SK2
  6
CONTINUOUS
370
25
 62
7
100
AcDbLine
 10
5.0
 20
14.50065282
 30
0.0
 11
5.0
 21
12.50065282
 31
0.0
  0
LINE
  5
A2D
330
1F
100
AcDbEntity
  8
SK2
  6
CONTINUOUS
370
25
 62
7
100
AcDbLine
 10
5.0
 20
12.50065282
 30
0.0
 11
0.0
 21
13.50065282
 31
0.0
  0
LINE
  5
A2E
330
1F
100
AcDbEntity
  8
SK2
  6
CONTINUOUS
370
25
 62
7
100
AcDbLine
 10
4.833949562648129
 20
12.53386290747038
 30
0.0
 11
5.0
 21
12.69991334482225
 31
0.0
  0
LINE
  5
A2F
330
1F
100
AcDbEntity
  8
SK2
  6
CONTINUOUS
370
25
 62
7
100
AcDbLine
 10
4.480396172054846
 20
12.60457358558903
 30
0.0
 11
5.0
 21
13.12417741353418
 31
0.0
  0
LINE
  5
A30
330
1F
100
AcDbEntity
  8
SK2
  6
CONTINUOUS
370
25
 62
7
100
AcDbLine
 10
4.126842781461576
 20
12.67528426370769
 30
0.0
 11
5.0
 21
13.54844148224611
 31
0.0
  0
LINE
  5
A31
330
1F
100
AcDbEntity
  8
SK2
  6
CONTINUOUS
370
25
 62
7
100
AcDbLine
 10
3.7732893908683
 20
12.74599494182634
 30
0.0
 11
5.0
 21
13.97270555095804
 31
0.0
  0
LINE
  5
A32
330
1F
100
AcDbEntity
  8
SK2
  6
CONTINUOUS
370
25
 62
7
100
AcDbLine
 10
3.419736000275023
 20
12.816705619945
 30
0.0
 11
5.0
 21
14.39696961966997
 31
0.0
  0
LINE
  5
A33
330
1F
100
AcDbEntity
  8
SK2
  6
CONTINUOUS
370
25
 62
7
100
AcDbLine
 10
3.066182609681746
 20
12.88741629806366
 30
0.0
 11
4.599273914522605
 21
14.42050760290451
 31
0.0
  0
LINE
  5
A34
330
1F
100
AcDbEntity
  8
SK2
  6
CONTINUOUS
370
25
 62
7
100
AcDbLine
 10
2.71262921908847
 20
12.95812697618231
 30
0.0
 11
4.068943828632698
 21
14.31444158572653
 31
0.0
  0
LINE
  5
A35
330
1F
100
AcDbEntity
  8
SK2
  6
CONTINUOUS
370
25
 62
7
100
AcDbLine
 10
2.3590758284952
 20
13.02883765430096
 30
0.0
 11
3.53861374274279
 21
14.20837556854855
 31
0.0
  0
LINE
  5
A36
330
1F
100
AcDbEntity
  8
SK2
  6
CONTINUOUS
370
25
 62
7
100
AcDbLine
 10
2.005522437901917
 20
13.09954833241962
 30
0.0
 11
3.008283656852868
 21
14.10230955137057
 31
0.0
  0
LINE
  5
A37
330
1F
100
AcDbEntity
  8
SK2
  6
CONTINUOUS
370
25
 62
7
100
AcDbLine
 10
1.65196904730864
 20
13.17025901053827
 30
0.0
 11
2.477953570962953
 21
13.99624353419259
 31
0.0
  0
LINE
  5
A38
330
1F
100
AcDbEntity
  8
SK2
  6
CONTINUOUS
370
25
 62
7
100
AcDbLine
 10
1.298415656715363
 20
13.24096968865693
 30
0.0
 11
1.947623485073038
 21
13.8901775170146
 31
0.0
  0
LINE
  5
A39
330
1F
100
AcDbEntity
  8
SK2
  6
CONTINUOUS
370
25
 62
7
100
AcDbLine
 10
0.9448622661220938
 20
13.31168036677558
 30
0.0
 11
1.41729339918313
 21
13.78411149983662
 31
0.0
  0
LINE
  5
A3A
330
1F
100
AcDbEntity
  8
SK2
  6
CONTINUOUS
370
25
 62
7
100
AcDbLine
 10
0.5913088755288101
 20
13.38239104489423
 30
0.0
 11
0.8869633132932151
 21
13.67804548265864
 31
0.0
  0
LINE
  5
A3B
330
1F
100
AcDbEntity
  8
SK2
  6
CONTINUOUS
370
25
 62
7
100
AcDbLine
 10
0.2377554849355335
 20
13.45310172301289
 30
0.0
 11
0.3566332274032931
 21
13.57197946548065
 31
0.0
  0
LINE
  5
A3C
330
1F
100
AcDbEntity
  8
SK2
  6
CONTINUOUS
370
25
 62
7
100
AcDbLine
 10
0.0034340151939034
 20
13.50133962303879
 30
0.0
 11
0.0051510227908622
 21
13.49962261544183
 31
0.0
  0
LINE
  5
A3D
330
1F
100
AcDbEntity
  8
SK2
  6
CONTINUOUS
370
25
 62
7
100
AcDbLine
 10
0.35698740578718
 20
13.57205030115744
 30
0.0
 11
0.5354811086807771
 21
13.39355659826384
 31
0.0
  0
LINE
  5
A3E
330
1F
100
AcDbEntity
  8
SK2
  6
CONTINUOUS
370
25
 62
7
100
AcDbLine
 10
0.7105407963804637
 20
13.64276097927609
 30
0.0
 11
1.065811194570699
 21
13.28749058108586
 31
0.0
  0
LINE
  5
A3F
330
1F
100
AcDbEntity
  8
SK2
  6
CONTINUOUS
370
25
 62
7
100
AcDbLine
 10
1.06409418697374
 20
13.71347165739475
 30
0.0
 11
1.596141280460621
 21
13.18142456390787
 31
0.0
  0
LINE
  5
A40
330
1F
100
AcDbEntity
  8
SK2
  6
CONTINUOUS
370
25
 62
7
100
AcDbLine
 10
1.41764757756701
 20
13.7841823355134
 30
0.0
 11
2.126471366350522
 21
13.07535854672989
 31
0.0
  0
LINE
  5
A41
330
1F
100
AcDbEntity
  8
SK2
  6
CONTINUOUS
370
25
 62
7
100
AcDbLine
 10
1.771200968160286
 20
13.85489301363206
 30
0.0
 11
2.656801452240437
 21
12.96929252955191
 31
0.0
  0
LINE
  5
A42
330
1F
100
AcDbEntity
  8
SK2
  6
CONTINUOUS
370
25
 62
7
100
AcDbLine
 10
2.124754358753563
 20
13.92560369175072
 30
0.0
 11
3.187131538130352
 21
12.86322651237393
 31
0.0
  0
LINE
  5
A43
330
1F
100
AcDbEntity
  8
SK2
  6
CONTINUOUS
370
25
 62
7
100
AcDbLine
 10
2.478307749346833
 20
13.99631436986937
 30
0.0
 11
3.71746162402026
 21
12.75716049519595
 31
0.0
  0
LINE
  5
A44
330
1F
100
AcDbEntity
  8
SK2
  6
CONTINUOUS
370
25
 62
7
100
AcDbLine
 10
2.831861139940116
 20
14.06702504798803
 30
0.0
 11
4.247791709910182
 21
12.65109447801796
 31
0.0
  0
LINE
  5
A45
330
1F
100
AcDbEntity
  8
SK2
  6
CONTINUOUS
370
25
 62
7
100
AcDbLine
 10
3.185414530533393
 20
14.13773572610668
 30
0.0
 11
4.778121795800097
 21
12.54502846083998
 31
0.0
  0
LINE
  5
A46
330
1F
100
AcDbEntity
  8
SK2
  6
CONTINUOUS
370
25
 62
7
100
AcDbLine
 10
3.53896792112667
 20
14.20844640422533
 30
0.0
 11
5.0
 21
12.747414325352
 31
0.0
  0
LINE
  5
A47
330
1F
100
AcDbEntity
  8
SK2
  6
CONTINUOUS
370
25
 62
7
100
AcDbLine
 10
3.892521311719939
 20
14.279157082344
 30
0.0
 11
5.0
 21
13.17167839406394
 31
0.0
  0
LINE
  5
A48
330
1F
100
AcDbEntity
  8
SK2
  6
CONTINUOUS
370
25
 62
7
100
AcDbLine
 10
4.246074702313223
 20
14.34986776046264
 30
0.0
 11
5.0
 21
13.59594246277587
 31
0.0
  0
LINE
  5
A49
330
1F
100
AcDbEntity
  8
SK2
  6
CONTINUOUS
370
25
 62
7
100
AcDbLine
 10
4.599628092906499
 20
14.4205784385813
 30
0.0
 11
5.0
 21
14.0202065314878
 31
0.0
  0
LINE
  5
A4A
330
1F
100
AcDbEntity
  8
SK2
  6
CONTINUOUS
370
25
 62
7
100
AcDbLine
 10
4.953181483499776
 20
14.49128911669995
 30
0.0
 11
5.0
 21
14.44447060019973
 31
0.0
  0
LINE
  5
A4B
330
1F
100
AcDbEntity
  8
SK2
  6
CONTINUOUS
370
25
 62
7
100
AcDbLine
 10
50.0
 20
13.50065282
 30
0.0
 11
45.0
 21
12.50065282
 31
0.0
  0
LINE
  5
A4C
330
1F
100
AcDbEntity
  8
SK2
  6
CONTINUOUS
370
25
 62
7
100
AcDbLine
 10
45.0
 20
12.50065282
 30
0.0
 11
45.0
 21
14.50065282
 31
0.0
  0
LINE
  5
A4D
330
1F
100
AcDbEntity
  8
SK2
  6
CONTINUOUS
370
25
 62
7
100
AcDbLine
 10
45.0
 20
14.50065282
 30
0.0
 11
50.0
 21
13.50065282
 31
0.0
  0
LINE
  5
A4E
330
1F
100
AcDbEntity
  8
SK2
  6
CONTINUOUS
370
25
 62
7
100
AcDbLine
 10
49.90525327652286
 20
13.48170347530457
 30
0.0
 11
49.93683551768191
 21
13.51328571646362
 31
0.0
  0
LINE
  5
A4F
330
1F
100
AcDbEntity
  8
SK2
  6
CONTINUOUS
370
25
 62
7
100
AcDbLine
 10
49.37492319063295
 20
13.37563745812659
 30
0.0
 11
49.58328212708864
 21
13.58399639458227
 31
0.0
  0
LINE
  5
A50
330
1F
100
AcDbEntity
  8
SK2
  6
CONTINUOUS
370
25
 62
7
100
AcDbLine
 10
48.84459310474304
 20
13.26957144094861
 30
0.0
 11
49.22972873649536
 21
13.65470707270093
 31
0.0
  0
LINE
  5
A51
330
1F
100
AcDbEntity
  8
SK2
  6
CONTINUOUS
370
25
 62
7
100
AcDbLine
 10
48.31426301885313
 20
13.16350542377063
 30
0.0
 11
48.87617534590208
 21
13.72541775081958
 31
0.0
  0
LINE
  5
A52
330
1F
100
AcDbEntity
  8
SK2
  6
CONTINUOUS
370
25
 62
7
100
AcDbLine
 10
47.78393293296322
 20
13.05743940659264
 30
0.0
 11
48.52262195530881
 21
13.79612842893824
 31
0.0
  0
LINE
  5
A53
330
1F
100
AcDbEntity
  8
SK2
  6
CONTINUOUS
370
25
 62
7
100
AcDbLine
 10
47.25360284707331
 20
12.95137338941466
 30
0.0
 11
48.16906856471554
 21
13.86683910705689
 31
0.0
  0
LINE
  5
A54
330
1F
100
AcDbEntity
  8
SK2
  6
CONTINUOUS
370
25
 62
7
100
AcDbLine
 10
46.7232727611834
 20
12.84530737223668
 30
0.0
 11
47.81551517412227
 21
13.93754978517554
 31
0.0
  0
LINE
  5
A55
330
1F
100
AcDbEntity
  8
SK2
  6
CONTINUOUS
370
25
 62
7
100
AcDbLine
 10
46.19294267529349
 20
12.7392413550587
 30
0.0
 11
47.46196178352899
 21
14.0082604632942
 31
0.0
  0
LINE
  5
A56
330
1F
100
AcDbEntity
  8
SK2
  6
CONTINUOUS
370
25
 62
7
100
AcDbLine
 10
45.66261258940358
 20
12.63317533788072
 30
0.0
 11
47.10840839293572
 21
14.07897114141285
 31
0.0
  0
LINE
  5
A57
330
1F
100
AcDbEntity
  8
SK2
  6
CONTINUOUS
370
25
 62
7
100
AcDbLine
 10
45.13228250351367
 20
12.52710932070273
 30
0.0
 11
46.75485500234245
 21
14.14968181953151
 31
0.0
  0
LINE
  5
A58
330
1F
100
AcDbEntity
  8
SK2
  6
CONTINUOUS
370
25
 62
7
100
AcDbLine
 10
45.0
 20
12.81909088590099
 30
0.0
 11
46.40130161174918
 21
14.22039249765016
 31
0.0
  0
LINE
  5
A59
330
1F
100
AcDbEntity
  8
SK2
  6
CONTINUOUS
370
25
 62
7
100
AcDbLine
 10
45.0
 20
13.24335495461292
 30
0.0
 11
46.0477482211559
 21
14.29110317576882
 31
0.0
  0
LINE
  5
A5A
330
1F
100
AcDbEntity
  8
SK2
  6
CONTINUOUS
370
25
 62
7
100
AcDbLine
 10
45.0
 20
13.66761902332484
 30
0.0
 11
45.69419483056263
 21
14.36181385388747
 31
0.0
  0
LINE
  5
A5B
330
1F
100
AcDbEntity
  8
SK2
  6
CONTINUOUS
370
25
 62
7
100
AcDbLine
 10
45.0
 20
14.09188309203677
 30
0.0
 11
45.34064143996936
 21
14.43252453200613
 31
0.0
  0
LINE
  5
A5C
330
1F
100
AcDbEntity
  8
SK2
  6
CONTINUOUS
370
25
 62
7
100
AcDbLine
 10
45.0
 20
12.63675323681471
 30
0.0
 11
45.11341701401226
 21
12.52333622280245
 31
0.0
  0
LINE
  5
A5D
330
1F
100
AcDbEntity
  8
SK2
  6
CONTINUOUS
370
25
 62
7
100
AcDbLine
 10
45.0
 20
13.06101730552664
 30
0.0
 11
45.46697040460554
 21
12.59404690092111
 31
0.0
  0
LINE
  5
A5E
330
1F
100
AcDbEntity
  8
SK2
  6
CONTINUOUS
370
25
 62
7
100
AcDbLine
 10
45.0
 20
13.48528137423857
 30
0.0
 11
45.82052379519881
 21
12.66475757903976
 31
0.0
  0
LINE
  5
A5F
330
1F
100
AcDbEntity
  8
SK2
  6
CONTINUOUS
370
25
 62
7
100
AcDbLine
 10
45.0
 20
13.9095454429505
 30
0.0
 11
46.17407718579209
 21
12.73546825715842
 31
0.0
  0
LINE
  5
A60
330
1F
100
AcDbEntity
  8
SK2
  6
CONTINUOUS
370
25
 62
7
100
AcDbLine
 10
45.0
 20
14.33380951166242
 30
0.0
 11
46.52763057638536
 21
12.80617893527707
 31
0.0
  0
LINE
  5
A61
330
1F
100
AcDbEntity
  8
SK2
  6
CONTINUOUS
370
25
 62
7
100
AcDbLine
 10
45.32177595046794
 20
14.43629762990641
 30
0.0
 11
46.88118396697863
 21
12.87688961339573
 31
0.0
  0
LINE
  5
A62
330
1F
100
AcDbEntity
  8
SK2
  6
CONTINUOUS
370
25
 62
7
100
AcDbLine
 10
45.85210603635785
 20
14.33023161272843
 30
0.0
 11
47.2347373575719
 21
12.94760029151438
 31
0.0
  0
LINE
  5
A63
330
1F
100
AcDbEntity
  8
SK2
  6
CONTINUOUS
370
25
 62
7
100
AcDbLine
 10
46.38243612224777
 20
14.22416559555045
 30
0.0
 11
47.58829074816518
 21
13.01831096963303
 31
0.0
  0
LINE
  5
A64
330
1F
100
AcDbEntity
  8
SK2
  6
CONTINUOUS
370
25
 62
7
100
AcDbLine
 10
46.91276620813768
 20
14.11809957837247
 30
0.0
 11
47.94184413875845
 21
13.08902164775169
 31
0.0
  0
LINE
  5
A65
330
1F
100
AcDbEntity
  8
SK2
  6
CONTINUOUS
370
25
 62
7
100
AcDbLine
 10
47.44309629402758
 20
14.01203356119448
 30
0.0
 11
48.29539752935172
 21
13.15973232587034
 31
0.0
  0
LINE
  5
A66
330
1F
100
AcDbEntity
  8
SK2
  6
CONTINUOUS
370
25
 62
7
100
AcDbLine
 10
47.97342637991749
 20
13.9059675440165
 30
0.0
 11
48.64895091994499
 21
13.230443003989
 31
0.0
  0
LINE
  5
A67
330
1F
100
AcDbEntity
  8
SK2
  6
CONTINUOUS
370
25
 62
7
100
AcDbLine
 10
48.50375646580741
 20
13.79990152683852
 30
0.0
 11
49.00250431053827
 21
13.30115368210765
 31
0.0
  0
LINE
  5
A68
330
1F
100
AcDbEntity
  8
SK2
  6
CONTINUOUS
370
25
 62
7
100
AcDbLine
 10
49.03408655169731
 20
13.69383550966054
 30
0.0
 11
49.35605770113155
 21
13.37186436022631
 31
0.0
  0
LINE
  5
A69
330
1F
100
AcDbEntity
  8
SK2
  6
CONTINUOUS
370
25
 62
7
100
AcDbLine
 10
49.56441663758723
 20
13.58776949248255
 30
0.0
 11
49.70961109172482
 21
13.44257503834496
 31
0.0
  0
TEXT
  5
A6A
330
1F
100
AcDbEntity
  8
SK2
  6
CONTINUOUS
370
25
 62
7
100
AcDbText
 10
22.375
 20
15.00065282
 30
0.0
 40
3.5
  1
50
 72
     1
 11
25.0
 21
15.00065282
 31
0.0
100
AcDbText
  0
LINE
  5
A6B
330
1F
100
AcDbEntity
  8
2
  6
CONTINUOUS
370
25
 62
7
100
AcDbLine
 10
119.45404465
 20
-1.5
 30
0.0
 11
153.0
 21
-1.500000000000004
 31
0.0
  0
LINE
  5
A6C
330
1F
100
AcDbEntity
  8
2
  6
CONTINUOUS
370
25
 62
7
100
AcDbLine
 10
153.0
 20
1.499999999999996
 30
0.0
 11
119.45404465
 21
1.5
 31
0.0
  0
LINE
  5
A6D
330
1F
100
AcDbEntity
  8
2
  6
CONTINUOUS
370
25
 62
7
100
AcDbLine
 10
152.0
 20
-8.500000000000004
 30
0.0
 11
152.0
 21
14.975
 31
0.0
  0
LINE
  5
A6E
330
1F
100
AcDbEntity
  8
2
  6
CONTINUOUS
370
25
 62
7
100
AcDbLine
 10
152.0
 20
-1.500000000000004
 30
0.0
 11
153.0
 21
-6.500000000000004
 31
0.0
  0
LINE
  5
A6F
330
1F
100
AcDbEntity
  8
2
  6
CONTINUOUS
370
25
 62
7
100
AcDbLine
 10
153.0
 20
-6.500000000000004
 30
0.0
 11
151.0
 21
-6.500000000000004
 31
0.0
  0
LINE
  5
A70
330
1F
100
AcDbEntity
  8
2
  6
CONTINUOUS
370
25
 62
7
100
AcDbLine
 10
151.0
 20
-6.500000000000004
 30
0.0
 11
152.0
 21
-1.500000000000004
 31
0.0
  0
LINE
  5
A71
330
1F
100
AcDbEntity
  8
2
  6
CONTINUOUS
370
25
 62
7
100
AcDbLine
 10
152.7201684581629
 20
-6.5
 30
0.0
 11
152.9533614096938
 21
-6.266807048469119
 31
0.0
  0
LINE
  5
A72
330
1F
100
AcDbEntity
  8
2
  6
CONTINUOUS
370
25
 62
7
100
AcDbLine
 10
152.295904389451
 20
-6.5
 30
0.0
 11
152.8826507315752
 21
-5.913253657875828
 31
0.0
  0
LINE
  5
A73
330
1F
100
AcDbEntity
  8
2
  6
CONTINUOUS
370
25
 62
7
100
AcDbLine
 10
151.8716403207391
 20
-6.5
 30
0.0
 11
152.8119400534565
 21
-5.559700267282565
 31
0.0
  0
LINE
  5
A74
330
1F
100
AcDbEntity
  8
2
  6
CONTINUOUS
370
25
 62
7
100
AcDbLine
 10
151.4473762520271
 20
-6.5
 30
0.0
 11
152.7412293753379
 21
-5.206146876689289
 31
0.0
  0
LINE
  5
A75
330
1F
100
AcDbEntity
  8
2
  6
CONTINUOUS
370
25
 62
7
100
AcDbLine
 10
151.0231121833152
 20
-6.5
 30
0.0
 11
152.6705186972192
 21
-4.852593486096012
 31
0.0
  0
LINE
  5
A76
330
1F
100
AcDbEntity
  8
2
  6
CONTINUOUS
370
25
 62
7
100
AcDbLine
 10
151.1002879713492
 20
-5.998560143254124
 30
0.0
 11
152.5998080191006
 21
-4.499040095502735
 31
0.0
  0
LINE
  5
A77
330
1F
100
AcDbEntity
  8
2
  6
CONTINUOUS
370
25
 62
7
100
AcDbLine
 10
151.2063539885272
 20
-5.468230057364224
 30
0.0
 11
152.5290973409819
 21
-4.145486704909487
 31
0.0
  0
LINE
  5
A78
330
1F
100
AcDbEntity
  8
2
  6
CONTINUOUS
370
25
 62
7
100
AcDbLine
 10
151.3124200057051
 20
-4.937899971474323
 30
0.0
 11
152.4583866628632
 21
-3.791933314316211
 31
0.0
  0
LINE
  5
A79
330
1F
100
AcDbEntity
  8
2
  6
CONTINUOUS
370
25
 62
7
100
AcDbLine
 10
151.4184860228831
 20
-4.407569885584394
 30
0.0
 11
152.3876759847446
 21
-3.438379923722934
 31
0.0
  0
LINE
  5
A7A
330
1F
100
AcDbEntity
  8
2
  6
CONTINUOUS
370
25
 62
7
100
AcDbLine
 10
151.5245520400611
 20
-3.877239799694493
 30
0.0
 11
152.3169653066259
 21
-3.084826533129672
 31
0.0
  0
LINE
  5
A7B
330
1F
100
AcDbEntity
  8
2
  6
CONTINUOUS
370
25
 62
7
100
AcDbLine
 10
151.6306180572391
 20
-3.346909713804592
 30
0.0
 11
152.2462546285073
 21
-2.731273142536409
 31
0.0
  0
LINE
  5
A7C
330
1F
100
AcDbEntity
  8
2
  6
CONTINUOUS
370
25
 62
7
100
AcDbLine
 10
151.7366840744171
 20
-2.816579627914692
 30
0.0
 11
152.1755439503886
 21
-2.377719751943133
 31
0.0
  0
LINE
  5
A7D
330
1F
100
AcDbEntity
  8
2
  6
CONTINUOUS
370
25
 62
7
100
AcDbLine
 10
151.8427500915951
 20
-2.286249542024791
 30
0.0
 11
152.10483327227
 21
-2.024166361349856
 31
0.0
  0
LINE
  5
A7E
330
1F
100
AcDbEntity
  8
2
  6
CONTINUOUS
370
25
 62
7
100
AcDbLine
 10
151.948816108773
 20
-1.755919456134876
 30
0.0
 11
152.0341225941513
 21
-1.670612970756594
 31
0.0
  0
LINE
  5
A7F
330
1F
100
AcDbEntity
  8
2
  6
CONTINUOUS
370
25
 62
7
100
AcDbLine
 10
151.0184812204601
 20
-6.407593897699584
 30
0.0
 11
151.1108873227605
 21
-6.5
 31
0.0
  0
LINE
  5
A80
330
1F
100
AcDbEntity
  8
2
  6
CONTINUOUS
370
25
 62
7
100
AcDbLine
 10
151.0891918985787
 20
-6.054040507106293
 30
0.0
 11
151.5351513914725
 21
-6.5
 31
0.0
  0
LINE
  5
A81
330
1F
100
AcDbEntity
  8
2
  6
CONTINUOUS
370
25
 62
7
100
AcDbLine
 10
151.1599025766974
 20
-5.700487116513031
 30
0.0
 11
151.9594154601843
 21
-6.5
 31
0.0
  0
LINE
  5
A82
330
1F
100
AcDbEntity
  8
2
  6
CONTINUOUS
370
25
 62
7
100
AcDbLine
 10
151.230613254816
 20
-5.346933725919754
 30
0.0
 11
152.3836795288963
 21
-6.5
 31
0.0
  0
LINE
  5
A83
330
1F
100
AcDbEntity
  8
2
  6
CONTINUOUS
370
25
 62
7
100
AcDbLine
 10
151.3013239329347
 20
-4.993380335326492
 30
0.0
 11
152.8079435976082
 21
-6.5
 31
0.0
  0
LINE
  5
A84
330
1F
100
AcDbEntity
  8
2
  6
CONTINUOUS
370
25
 62
7
100
AcDbLine
 10
151.3720346110534
 20
-4.63982694473323
 30
0.0
 11
152.94194808342
 21
-6.209740417099823
 31
0.0
  0
LINE
  5
A85
330
1F
100
AcDbEntity
  8
2
  6
CONTINUOUS
370
25
 62
7
100
AcDbLine
 10
151.442745289172
 20
-4.286273554139953
 30
0.0
 11
152.835882066242
 21
-5.679410331209937
 31
0.0
  0
LINE
  5
A86
330
1F
100
AcDbEntity
  8
2
  6
CONTINUOUS
370
25
 62
7
100
AcDbLine
 10
151.5134559672907
 20
-3.932720163546691
 30
0.0
 11
152.729816049064
 21
-5.149080245320022
 31
0.0
  0
LINE
  5
A87
330
1F
100
AcDbEntity
  8
2
  6
CONTINUOUS
370
25
 62
7
100
AcDbLine
 10
151.5841666454093
 20
-3.579166772953414
 30
0.0
 11
152.623750031886
 21
-4.618750159430107
 31
0.0
  0
LINE
  5
A88
330
1F
100
AcDbEntity
  8
2
  6
CONTINUOUS
370
25
 62
7
100
AcDbLine
 10
151.654877323528
 20
-3.225613382360137
 30
0.0
 11
152.517684014708
 21
-4.088420073540206
 31
0.0
  0
LINE
  5
A89
330
1F
100
AcDbEntity
  8
2
  6
CONTINUOUS
370
25
 62
7
100
AcDbLine
 10
151.7255880016467
 20
-2.872059991766889
 30
0.0
 11
152.4116179975301
 21
-3.558089987650305
 31
0.0
  0
LINE
  5
A8A
330
1F
100
AcDbEntity
  8
2
  6
CONTINUOUS
370
25
 62
7
100
AcDbLine
 10
151.7962986797653
 20
-2.518506601173613
 30
0.0
 11
152.3055519803521
 21
-3.027759901760405
 31
0.0
  0
LINE
  5
A8B
330
1F
100
AcDbEntity
  8
2
  6
CONTINUOUS
370
25
 62
7
100
AcDbLine
 10
151.8670093578839
 20
-2.164953210580336
 30
0.0
 11
152.1994859631741
 21
-2.497429815870476
 31
0.0
  0
LINE
  5
A8C
330
1F
100
AcDbEntity
  8
2
  6
CONTINUOUS
370
25
 62
7
100
AcDbLine
 10
151.9377200360026
 20
-1.811399819987059
 30
0.0
 11
152.0934199459961
 21
-1.967099729980589
 31
0.0
  0
LINE
  5
A8D
330
1F
100
AcDbEntity
  8
2
  6
CONTINUOUS
370
25
 62
7
100
AcDbLine
 10
152.0
 20
1.499999999999996
 30
0.0
 11
151.0
 21
6.499999999999996
 31
0.0
  0
LINE
  5
A8E
330
1F
100
AcDbEntity
  8
2
  6
CONTINUOUS
370
25
 62
7
100
AcDbLine
 10
151.0
 20
6.499999999999996
 30
0.0
 11
153.0
 21
6.499999999999996
 31
0.0
  0
LINE
  5
A8F
330
1F
100
AcDbEntity
  8
2
  6
CONTINUOUS
370
25
 62
7
100
AcDbLine
 10
153.0
 20
6.499999999999996
 30
0.0
 11
152.0
 21
1.499999999999996
 31
0.0
  0
LINE
  5
A90
330
1F
100
AcDbEntity
  8
2
  6
CONTINUOUS
370
25
 62
7
100
AcDbLine
 10
151.9887762710443
 20
1.556118644778579
 30
0.0
 11
152.0168355934336
 21
1.584177967167875
 31
0.0
  0
LINE
  5
A91
330
1F
100
AcDbEntity
  8
2
  6
CONTINUOUS
370
25
 62
7
100
AcDbLine
 10
151.9180655929256
 20
1.909672035371841
 30
0.0
 11
152.1229016106116
 21
2.114508053057776
 31
0.0
  0
LINE
  5
A92
330
1F
100
AcDbEntity
  8
2
  6
CONTINUOUS
370
25
 62
7
100
AcDbLine
 10
151.847354914807
 20
2.263225425965132
 30
0.0
 11
152.2289676277895
 21
2.644838138947691
 31
0.0
  0
LINE
  5
A93
330
1F
100
AcDbEntity
  8
2
  6
CONTINUOUS
370
25
 62
7
100
AcDbLine
 10
151.7766442366883
 20
2.61677881655838
 30
0.0
 11
152.3350336449675
 21
3.175168224837591
 31
0.0
  0
LINE
  5
A94
330
1F
100
AcDbEntity
  8
2
  6
CONTINUOUS
370
25
 62
7
100
AcDbLine
 10
151.7059335585697
 20
2.970332207151642
 30
0.0
 11
152.4410996621455
 21
3.705498310727492
 31
0.0
  0
LINE
  5
A95
330
1F
100
AcDbEntity
  8
2
  6
CONTINUOUS
370
25
 62
7
100
AcDbLine
 10
151.635222880451
 20
3.323885597744919
 30
0.0
 11
152.5471656793235
 21
4.235828396617393
 31
0.0
  0
LINE
  5
A96
330
1F
100
AcDbEntity
  8
2
  6
CONTINUOUS
370
25
 62
7
100
AcDbLine
 10
151.5645122023324
 20
3.677438988338196
 30
0.0
 11
152.6532316965015
 21
4.766158482507308
 31
0.0
  0
LINE
  5
A97
330
1F
100
AcDbEntity
  8
2
  6
CONTINUOUS
370
25
 62
7
100
AcDbLine
 10
151.4938015242137
 20
4.030992378931487
 30
0.0
 11
152.7592977136794
 21
5.296488568397194
 31
0.0
  0
LINE
  5
A98
330
1F
100
AcDbEntity
  8
2
  6
CONTINUOUS
370
25
 62
7
100
AcDbLine
 10
151.4230908460951
 20
4.384545769524735
 30
0.0
 11
152.8653637308574
 21
5.826818654287095
 31
0.0
  0
LINE
  5
A99
330
1F
100
AcDbEntity
  8
2
  6
CONTINUOUS
370
25
 62
7
100
AcDbLine
 10
151.3523801679764
 20
4.738099160118026
 30
0.0
 11
152.9714297480354
 21
6.35714874017701
 31
0.0
  0
LINE
  5
A9A
330
1F
100
AcDbEntity
  8
2
  6
CONTINUOUS
370
25
 62
7
100
AcDbLine
 10
151.2816694898577
 20
5.091652550711288
 30
0.0
 11
152.6900169391465
 21
6.5
 31
0.0
  0
LINE
  5
A9B
330
1F
100
AcDbEntity
  8
2
  6
CONTINUOUS
370
25
 62
7
100
AcDbLine
 10
151.2109588117391
 20
5.445205941304536
 30
0.0
 11
152.2657528704345
 21
6.5
 31
0.0
  0
LINE
  5
A9C
330
1F
100
AcDbEntity
  8
2
  6
CONTINUOUS
370
25
 62
7
100
AcDbLine
 10
151.1402481336204
 20
5.798759331897813
 30
0.0
 11
151.8414888017226
 21
6.5
 31
0.0
  0
LINE
  5
A9D
330
1F
100
AcDbEntity
  8
2
  6
CONTINUOUS
370
25
 62
7
100
AcDbLine
 10
151.0695374555018
 20
6.152312722491075
 30
0.0
 11
151.4172247330107
 21
6.5
 31
0.0
  0
LINE
  5
A9E
330
1F
100
AcDbEntity
  8
2
  6
CONTINUOUS
370
25
 62
7
100
AcDbLine
 10
151.9948918085723
 20
1.525540957138702
 30
0.0
 11
152.0034054609519
 21
1.517027304759125
 31
0.0
  0
LINE
  5
A9F
330
1F
100
AcDbEntity
  8
2
  6
CONTINUOUS
370
25
 62
7
100
AcDbLine
 10
151.8888257913943
 20
2.055871043028603
 30
0.0
 11
152.0741161390705
 21
1.870580695352402
 31
0.0
  0
LINE
  5
AA0
330
1F
100
AcDbEntity
  8
2
  6
CONTINUOUS
370
25
 62
7
100
AcDbLine
 10
151.7827597742163
 20
2.586201128918503
 30
0.0
 11
152.1448268171891
 21
2.224134085945664
 31
0.0
  0
LINE
  5
AA1
330
1F
100
AcDbEntity
  8
2
  6
CONTINUOUS
370
25
 62
7
100
AcDbLine
 10
151.6766937570383
 20
3.116531214808418
 30
0.0
 11
152.2155374953078
 21
2.577687476538955
 31
0.0
  0
LINE
  5
AA2
330
1F
100
AcDbEntity
  8
2
  6
CONTINUOUS
370
25
 62
7
100
AcDbLine
 10
151.5706277398603
 20
3.646861300698333
 30
0.0
 11
152.2862481734264
 21
2.931240867132217
 31
0.0
  0
LINE
  5
AA3
330
1F
100
AcDbEntity
  8
2
  6
CONTINUOUS
370
25
 62
7
100
AcDbLine
 10
151.4645617226824
 20
4.17719138658822
 30
0.0
 11
152.3569588515451
 21
3.284794257725494
 31
0.0
  0
LINE
  5
AA4
330
1F
100
AcDbEntity
  8
2
  6
CONTINUOUS
370
25
 62
7
100
AcDbLine
 10
151.3584957055044
 20
4.70752147247812
 30
0.0
 11
152.4276695296638
 21
3.638347648318742
 31
0.0
  0
LINE
  5
AA5
330
1F
100
AcDbEntity
  8
2
  6
CONTINUOUS
370
25
 62
7
100
AcDbLine
 10
151.2524296883264
 20
5.237851558368035
 30
0.0
 11
152.4983802077824
 21
3.991901038912033
 31
0.0
  0
LINE
  5
AA6
330
1F
100
AcDbEntity
  8
2
  6
CONTINUOUS
370
25
 62
7
100
AcDbLine
 10
151.1463636711484
 20
5.768181644257936
 30
0.0
 11
152.5690908859011
 21
4.345454429505295
 31
0.0
  0
LINE
  5
AA7
330
1F
100
AcDbEntity
  8
2
  6
CONTINUOUS
370
25
 62
7
100
AcDbLine
 10
151.0402976539704
 20
6.298511730147837
 30
0.0
 11
152.6398015640197
 21
4.699007820098572
 31
0.0
  0
LINE
  5
AA8
330
1F
100
AcDbEntity
  8
2
  6
CONTINUOUS
370
25
 62
7
100
AcDbLine
 10
151.2630734528302
 20
6.5
 30
0.0
 11
152.7105122421383
 21
5.052561210691835
 31
0.0
  0
LINE
  5
AA9
330
1F
100
AcDbEntity
  8
2
  6
CONTINUOUS
370
25
 62
7
100
AcDbLine
 10
151.6873375215421
 20
6.5
 30
0.0
 11
152.781222920257
 21
5.406114601285111
 31
0.0
  0
LINE
  5
AAA
330
1F
100
AcDbEntity
  8
2
  6
CONTINUOUS
370
25
 62
7
100
AcDbLine
 10
152.1116015902541
 20
6.5
 30
0.0
 11
152.8519335983757
 21
5.759667991878388
 31
0.0
  0
LINE
  5
AAB
330
1F
100
AcDbEntity
  8
2
  6
CONTINUOUS
370
25
 62
7
100
AcDbLine
 10
152.535865658966
 20
6.5
 30
0.0
 11
152.9226442764943
 21
6.113221382471636
 31
0.0
  0
LINE
  5
AAC
330
1F
100
AcDbEntity
  8
2
  6
CONTINUOUS
370
25
 62
7
100
AcDbLine
 10
152.9601297276779
 20
6.5
 30
0.0
 11
152.993354954613
 21
6.466774773064927
 31
0.0
  0
TEXT
  5
AAD
330
1F
100
AcDbEntity
  8
2
  6
CONTINUOUS
370
25
 62
7
100
AcDbText
 10
150.5
 20
11.84583333333333
 30
0.0
 40
3.5
  1
3
 50
90.00000000000001
 72
     1
 11
150.5
 21
13.0125
 31
0.0
100
AcDbText
  0
CIRCLE
  5
AAE
330
1F
100
AcDbEntity
  8
2
  6
CONTINUOUS
370
25
 62
7
100
AcDbCircle
 10
148.75
 20
9.687499999999996
 30
0.0
 40
1.4
  0
LINE
  5
AAF
330
1F
100
AcDbEntity
  8
2
  6
CONTINUOUS
370
25
 62
7
100
AcDbLine
 10
150.15
 20
8.287499999999998
 30
0.0
 11
147.35
 21
11.0875
 31
0.0
  0
LINE
  5
AB0
330
1F
100
AcDbEntity
  8
2
  6
CONTINUOUS
370
25
 62
7
100
AcDbLine
 10
50.0
 20
1.5
 30
0.0
 11
50.0
 21
24.5
 31
0.0
  0
LINE
  5
AB1
330
1F
100
AcDbEntity
  8
2
  6
CONTINUOUS
370
25
 62
7
100
AcDbLine
 10
120.0
 20
24.5
 30
0.0
 11
120.0
 21
0.0
 31
0.0
  0
LINE
  5
AB2
330
1F
100
AcDbEntity
  8
2
  6
CONTINUOUS
370
25
 62
7
100
AcDbLine
 10
50.0
 20
23.5
 30
0.0
 11
120.0
 21
23.5
 31
0.0
  0
LINE
  5
AB3
330
1F
100
AcDbEntity
  8
2
  6
CONTINUOUS
370
25
 62
7
100
AcDbLine
 10
50.0
 20
23.5
 30
0.0
 11
55.0
 21
24.5
 31
0.0
  0
LINE
  5
AB4
330
1F
100
AcDbEntity
  8
2
  6
CONTINUOUS
370
25
 62
7
100
AcDbLine
 10
55.0
 20
24.5
 30
0.0
 11
55.0
 21
22.5
 31
0.0
  0
LINE
  5
AB5
330
1F
100
AcDbEntity
  8
2
  6
CONTINUOUS
370
25
 62
7
100
AcDbLine
 10
55.0
 20
22.5
 30
0.0
 11
50.0
 21
23.5
 31
0.0
  0
LINE
  5
AB6
330
1F
100
AcDbEntity
  8
2
  6
CONTINUOUS
370
25
 62
7
100
AcDbLine
 10
54.73409092841587
 20
22.55318181431683
 30
0.0
 11
55.0
 21
22.81909088590096
 31
0.0
  0
LINE
  5
AB7
330
1F
100
AcDbEntity
  8
2
  6
CONTINUOUS
370
25
 62
7
100
AcDbLine
 10
54.38053753782259
 20
22.62389249243548
 30
0.0
 11
55.0
 21
23.24335495461289
 31
0.0
  0
LINE
  5
AB8
330
1F
100
AcDbEntity
  8
2
  6
CONTINUOUS
370
25
 62
7
100
AcDbLine
 10
54.02698414722932
 20
22.69460317055414
 30
0.0
 11
55.0
 21
23.66761902332482
 31
0.0
  0
LINE
  5
AB9
330
1F
100
AcDbEntity
  8
2
  6
CONTINUOUS
370
25
 62
7
100
AcDbLine
 10
53.67343075663604
 20
22.76531384867279
 30
0.0
 11
55.0
 21
24.09188309203675
 31
0.0
  0
LINE
  5
ABA
330
1F
100
AcDbEntity
  8
2
  6
CONTINUOUS
370
25
 62
7
100
AcDbLine
 10
53.31987736604277
 20
22.83602452679144
 30
0.0
 11
54.97981604906416
 21
24.49596320981283
 31
0.0
  0
LINE
  5
ABB
330
1F
100
AcDbEntity
  8
2
  6
CONTINUOUS
370
25
 62
7
100
AcDbLine
 10
52.9663239754495
 20
22.9067352049101
 30
0.0
 11
54.44948596317425
 21
24.38989719263485
 31
0.0
  0
LINE
  5
ABC
330
1F
100
AcDbEntity
  8
2
  6
CONTINUOUS
370
25
 62
7
100
AcDbLine
 10
52.61277058485623
 20
22.97744588302875
 30
0.0
 11
53.91915587728434
 21
24.28383117545687
 31
0.0
  0
LINE
  5
ABD
330
1F
100
AcDbEntity
  8
2
  6
CONTINUOUS
370
25
 62
7
100
AcDbLine
 10
52.25921719426295
 20
23.04815656114741
 30
0.0
 11
53.38882579139443
 21
24.17776515827889
 31
0.0
  0
LINE
  5
ABE
330
1F
100
AcDbEntity
  8
2
  6
CONTINUOUS
370
25
 62
7
100
AcDbLine
 10
51.90566380366968
 20
23.11886723926606
 30
0.0
 11
52.85849570550452
 21
24.0716991411009
 31
0.0
  0
LINE
  5
ABF
330
1F
100
AcDbEntity
  8
2
  6
CONTINUOUS
370
25
 62
7
100
AcDbLine
 10
51.55211041307641
 20
23.18957791738472
 30
0.0
 11
52.32816561961461
 21
23.96563312392292
 31
0.0
  0
LINE
  5
AC0
330
1F
100
AcDbEntity
  8
2
  6
CONTINUOUS
370
25
 62
7
100
AcDbLine
 10
51.19855702248314
 20
23.26028859550337
 30
0.0
 11
51.7978355337247
 21
23.85956710674494
 31
0.0
  0
LINE
  5
AC1
330
1F
100
AcDbEntity
  8
2
  6
CONTINUOUS
370
25
 62
7
100
AcDbLine
 10
50.84500363188986
 20
23.33099927362203
 30
0.0
 11
51.26750544783479
 21
23.75350108956696
 31
0.0
  0
LINE
  5
AC2
330
1F
100
AcDbEntity
  8
2
  6
CONTINUOUS
370
25
 62
7
100
AcDbLine
 10
50.49145024129659
 20
23.40170995174068
 30
0.0
 11
50.73717536194489
 21
23.64743507238898
 31
0.0
  0
LINE
  5
AC3
330
1F
100
AcDbEntity
  8
2
  6
CONTINUOUS
370
25
 62
7
100
AcDbLine
 10
50.13789685070331
 20
23.47242062985934
 30
0.0
 11
50.20684527605497
 21
23.541369055211
 31
0.0
  0
LINE
  5
AC4
330
1F
100
AcDbEntity
  8
2
  6
CONTINUOUS
370
25
 62
7
100
AcDbLine
 10
50.21565653988997
 20
23.54313130797799
 30
0.0
 11
50.32348480983495
 21
23.43530303803301
 31
0.0
  0
LINE
  5
AC5
330
1F
100
AcDbEntity
  8
2
  6
CONTINUOUS
370
25
 62
7
100
AcDbLine
 10
50.56920993048324
 20
23.61384198609665
 30
0.0
 11
50.85381489572486
 21
23.32923702085503
 31
0.0
  0
LINE
  5
AC6
330
1F
100
AcDbEntity
  8
2
  6
CONTINUOUS
370
25
 62
7
100
AcDbLine
 10
50.92276332107652
 20
23.6845526642153
 30
0.0
 11
51.38414498161477
 21
23.22317100367705
 31
0.0
  0
LINE
  5
AC7
330
1F
100
AcDbEntity
  8
2
  6
CONTINUOUS
370
25
 62
7
100
AcDbLine
 10
51.27631671166979
 20
23.75526334233396
 30
0.0
 11
51.91447506750468
 21
23.11710498649906
 31
0.0
  0
LINE
  5
AC8
330
1F
100
AcDbEntity
  8
2
  6
CONTINUOUS
370
25
 62
7
100
AcDbLine
 10
51.62987010226306
 20
23.82597402045261
 30
0.0
 11
52.44480515339459
 21
23.01103896932108
 31
0.0
  0
LINE
  5
AC9
330
1F
100
AcDbEntity
  8
2
  6
CONTINUOUS
370
25
 62
7
100
AcDbLine
 10
51.98342349285633
 20
23.89668469857127
 30
0.0
 11
52.9751352392845
 21
22.9049729521431
 31
0.0
  0
LINE
  5
ACA
330
1F
100
AcDbEntity
  8
2
  6
CONTINUOUS
370
25
 62
7
100
AcDbLine
 10
52.33697688344961
 20
23.96739537668992
 30
0.0
 11
53.50546532517441
 21
22.79890693496512
 31
0.0
  0
LINE
  5
ACB
330
1F
100
AcDbEntity
  8
2
  6
CONTINUOUS
370
25
 62
7
100
AcDbLine
 10
52.69053027404288
 20
24.03810605480858
 30
0.0
 11
54.03579541106432
 21
22.69284091778714
 31
0.0
  0
LINE
  5
ACC
330
1F
100
AcDbEntity
  8
2
  6
CONTINUOUS
370
25
 62
7
100
AcDbLine
 10
53.04408366463615
 20
24.10881673292723
 30
0.0
 11
54.56612549695424
 21
22.58677490060915
 31
0.0
  0
LINE
  5
ACD
330
1F
100
AcDbEntity
  8
2
  6
CONTINUOUS
370
25
 62
7
100
AcDbLine
 10
53.39763705522942
 20
24.17952741104589
 30
0.0
 11
55.0
 21
22.57716446627531
 31
0.0
  0
LINE
  5
ACE
330
1F
100
AcDbEntity
  8
2
  6
CONTINUOUS
370
25
 62
7
100
AcDbLine
 10
53.7511904458227
 20
24.25023808916454
 30
0.0
 11
55.0
 21
23.00142853498724
 31
0.0
  0
LINE
  5
ACF
330
1F
100
AcDbEntity
  8
2
  6
CONTINUOUS
370
25
 62
7
100
AcDbLine
 10
54.10474383641598
 20
24.32094876728319
 30
0.0
 11
55.0
 21
23.42569260369917
 31
0.0
  0
LINE
  5
AD0
330
1F
100
AcDbEntity
  8
2
  6
CONTINUOUS
370
25
 62
7
100
AcDbLine
 10
54.45829722700925
 20
24.39165944540185
 30
0.0
 11
55.0
 21
23.8499566724111
 31
0.0
  0
LINE
  5
AD1
330
1F
100
AcDbEntity
  8
2
  6
CONTINUOUS
370
25
 62
7
100
AcDbLine
 10
54.81185061760252
 20
24.4623701235205
 30
0.0
 11
55.0
 21
24.27422074112302
 31
0.0
  0
LINE
  5
AD2
330
1F
100
AcDbEntity
  8
2
  6
CONTINUOUS
370
25
 62
7
100
AcDbLine
 10
120.0
 20
23.5
 30
0.0
 11
115.0
 21
22.5
 31
0.0
  0
LINE
  5
AD3
330
1F
100
AcDbEntity
  8
2
  6
CONTINUOUS
370
25
 62
7
100
AcDbLine
 10
115.0
 20
22.5
 30
0.0
 11
115.0
 21
24.5
 31
0.0
  0
LINE
  5
AD4
330
1F
100
AcDbEntity
  8
2
  6
CONTINUOUS
370
25
 62
7
100
AcDbLine
 10
115.0
 20
24.5
 30
0.0
 11
120.0
 21
23.5
 31
0.0
  0
LINE
  5
AD5
330
1F
100
AcDbEntity
  8
2
  6
CONTINUOUS
370
25
 62
7
100
AcDbLine
 10
119.7677429408507
 20
23.45354858817014
 30
0.0
 11
119.8451619605672
 21
23.53096760788657
 31
0.0
  0
LINE
  5
AD6
330
1F
100
AcDbEntity
  8
2
  6
CONTINUOUS
370
25
 62
7
100
AcDbLine
 10
119.2374128549608
 20
23.34748257099217
 30
0.0
 11
119.4916085699739
 21
23.60167828600521
 31
0.0
  0
LINE
  5
AD7
330
1F
100
AcDbEntity
  8
2
  6
CONTINUOUS
370
25
 62
7
100
AcDbLine
 10
118.7070827690709
 20
23.24141655381417
 30
0.0
 11
119.1380551793806
 21
23.67238896412386
 31
0.0
  0
LINE
  5
AD8
330
1F
100
AcDbEntity
  8
2
  6
CONTINUOUS
370
25
 62
7
100
AcDbLine
 10
118.176752683181
 20
23.13535053663621
 30
0.0
 11
118.7845017887873
 21
23.74309964224253
 31
0.0
  0
LINE
  5
AD9
330
1F
100
AcDbEntity
  8
2
  6
CONTINUOUS
370
25
 62
7
100
AcDbLine
 10
117.6464225972911
 20
23.02928451945822
 30
0.0
 11
118.4309483981941
 21
23.81381032036118
 31
0.0
  0
LINE
  5
ADA
330
1F
100
AcDbEntity
  8
2
  6
CONTINUOUS
370
25
 62
7
100
AcDbLine
 10
117.1160925114012
 20
22.92321850228025
 30
0.0
 11
118.0773950076008
 21
23.88452099847983
 31
0.0
  0
LINE
  5
ADB
330
1F
100
AcDbEntity
  8
2
  6
CONTINUOUS
370
25
 62
7
100
AcDbLine
 10
116.5857624255113
 20
22.81715248510226
 30
0.0
 11
117.7238416170075
 21
23.9552316765985
 31
0.0
  0
LINE
  5
ADC
330
1F
100
AcDbEntity
  8
2
  6
CONTINUOUS
370
25
 62
7
100
AcDbLine
 10
116.0554323396214
 20
22.71108646792428
 30
0.0
 11
117.3702882264142
 21
24.02594235471715
 31
0.0
  0
LINE
  5
ADD
330
1F
100
AcDbEntity
  8
2
  6
CONTINUOUS
370
25
 62
7
100
AcDbLine
 10
115.5251022537314
 20
22.6050204507463
 30
0.0
 11
117.016734835821
 21
24.0966530328358
 31
0.0
  0
LINE
  5
ADE
330
1F
100
AcDbEntity
  8
2
  6
CONTINUOUS
370
25
 62
7
100
AcDbLine
 10
115.0
 20
22.50418226572678
 30
0.0
 11
116.6631814452277
 21
24.16736371095446
 31
0.0
  0
LINE
  5
ADF
330
1F
100
AcDbEntity
  8
2
  6
CONTINUOUS
370
25
 62
7
100
AcDbLine
 10
115.0
 20
22.9284463344387
 30
0.0
 11
116.3096280546344
 21
24.23807438907311
 31
0.0
  0
LINE
  5
AE0
330
1F
100
AcDbEntity
  8
2
  6
CONTINUOUS
370
25
 62
7
100
AcDbLine
 10
115.0
 20
23.35271040315062
 30
0.0
 11
115.9560746640412
 21
24.30878506719178
 31
0.0
  0
LINE
  5
AE1
330
1F
100
AcDbEntity
  8
2
  6
CONTINUOUS
370
25
 62
7
100
AcDbLine
 10
115.0
 20
23.77697447186256
 30
0.0
 11
115.6025212734479
 21
24.37949574531042
 31
0.0
  0
LINE
  5
AE2
330
1F
100
AcDbEntity
  8
2
  6
CONTINUOUS
370
25
 62
7
100
AcDbLine
 10
115.0
 20
24.20123854057448
 30
0.0
 11
115.2489678828546
 21
24.45020642342908
 31
0.0
  0
LINE
  5
AE3
330
1F
100
AcDbEntity
  8
2
  6
CONTINUOUS
370
25
 62
7
100
AcDbLine
 10
115.0
 20
22.82266222336941
 30
0.0
 11
115.2688851861412
 21
22.55377703722823
 31
0.0
  0
LINE
  5
AE4
330
1F
100
AcDbEntity
  8
2
  6
CONTINUOUS
370
25
 62
7
100
AcDbLine
 10
115.0
 20
23.24692629208134
 30
0.0
 11
115.6224385767345
 21
22.62448771534689
 31
0.0
  0
LINE
  5
AE5
330
1F
100
AcDbEntity
  8
2
  6
CONTINUOUS
370
25
 62
7
100
AcDbLine
 10
115.0
 20
23.67119036079326
 30
0.0
 11
115.9759919673277
 21
22.69519839346553
 31
0.0
  0
LINE
  5
AE6
330
1F
100
AcDbEntity
  8
2
  6
CONTINUOUS
370
25
 62
7
100
AcDbLine
 10
115.0
 20
24.0954544295052
 30
0.0
 11
116.329545357921
 21
22.76590907158419
 31
0.0
  0
LINE
  5
AE7
330
1F
100
AcDbEntity
  8
2
  6
CONTINUOUS
370
25
 62
7
100
AcDbLine
 10
115.0246481227714
 20
24.49507037544572
 30
0.0
 11
116.6830987485143
 21
22.83661974970285
 31
0.0
  0
LINE
  5
AE8
330
1F
100
AcDbEntity
  8
2
  6
CONTINUOUS
370
25
 62
7
100
AcDbLine
 10
115.5549782086613
 20
24.38900435826774
 30
0.0
 11
117.0366521391075
 21
22.90733042782151
 31
0.0
  0
LINE
  5
AE9
330
1F
100
AcDbEntity
  8
2
  6
CONTINUOUS
370
25
 62
7
100
AcDbLine
 10
116.0853082945512
 20
24.28293834108976
 30
0.0
 11
117.3902055297008
 21
22.97804110594015
 31
0.0
  0
LINE
  5
AEA
330
1F
100
AcDbEntity
  8
2
  6
CONTINUOUS
370
25
 62
7
100
AcDbLine
 10
116.6156383804411
 20
24.17687232391178
 30
0.0
 11
117.7437589202941
 21
23.04875178405881
 31
0.0
  0
LINE
  5
AEB
330
1F
100
AcDbEntity
  8
2
  6
CONTINUOUS
370
25
 62
7
100
AcDbLine
 10
117.145968466331
 20
24.0708063067338
 30
0.0
 11
118.0973123108873
 21
23.11946246217748
 31
0.0
  0
LINE
  5
AEC
330
1F
100
AcDbEntity
  8
2
  6
CONTINUOUS
370
25
 62
7
100
AcDbLine
 10
117.6762985522209
 20
23.96474028955582
 30
0.0
 11
118.4508657014806
 21
23.19017314029612
 31
0.0
  0
LINE
  5
AED
330
1F
100
AcDbEntity
  8
2
  6
CONTINUOUS
370
25
 62
7
100
AcDbLine
 10
118.2066286381108
 20
23.85867427237784
 30
0.0
 11
118.8044190920739
 21
23.26088381841478
 31
0.0
  0
LINE
  5
AEE
330
1F
100
AcDbEntity
  8
2
  6
CONTINUOUS
370
25
 62
7
100
AcDbLine
 10
118.7369587240007
 20
23.75260825519985
 30
0.0
 11
119.1579724826672
 21
23.33159449653343
 31
0.0
  0
LINE
  5
AEF
330
1F
100
AcDbEntity
  8
2
  6
CONTINUOUS
370
25
 62
7
100
AcDbLine
 10
119.2672888098907
 20
23.64654223802188
 30
0.0
 11
119.5115258732604
 21
23.4023051746521
 31
0.0
  0
LINE
  5
AF0
330
1F
100
AcDbEntity
  8
2
  6
CONTINUOUS
370
25
 62
7
100
AcDbLine
 10
119.7976188957806
 20
23.54047622084389
 30
0.0
 11
119.8650792638537
 21
23.47301585277073
 31
0.0
  0
TEXT
  5
AF1
330
1F
100
AcDbEntity
  8
2
  6
CONTINUOUS
370
25
 62
7
100
AcDbText
 10
82.375
 20
25.0
 30
0.0
 40
3.5
  1
70
 72
     1
 11
85.0
 21
25.0
 31
0.0
100
AcDbText
  0
LINE
  5
AF2
330
1F
100
AcDbEntity
  8
2
  6
CONTINUOUS
370
25
 62
7
100
AcDbLine
 10
56.0
 20
-1.5
 30
0.0
 11
56.0
 21
-34.5
 31
0.0
  0
LINE
  5
AF3
330
1F
100
AcDbEntity
  8
2
  6
CONTINUOUS
370
25
 62
7
100
AcDbLine
 10
120.0
 20
-34.5
 30
0.0
 11
120.0
 21
0.0
 31
0.0
  0
LINE
  5
AF4
330
1F
100
AcDbEntity
  8
2
  6
CONTINUOUS
370
25
 62
7
100
AcDbLine
 10
56.0
 20
-33.5
 30
0.0
 11
120.0
 21
-33.5
 31
0.0
  0
LINE
  5
AF5
330
1F
100
AcDbEntity
  8
2
  6
CONTINUOUS
370
25
 62
7
100
AcDbLine
 10
56.0
 20
-33.5
 30
0.0
 11
61.0
 21
-32.5
 31
0.0
  0
LINE
  5
AF6
330
1F
100
AcDbEntity
  8
2
  6
CONTINUOUS
370
25
 62
7
100
AcDbLine
 10
61.0
 20
-32.5
 30
0.0
 11
61.0
 21
-34.5
 31
0.0
  0
LINE
  5
AF7
330
1F
100
AcDbEntity
  8
2
  6
CONTINUOUS
370
25
 62
7
100
AcDbLine
 10
61.0
 20
-34.5
 30
0.0
 11
56.0
 21
-33.5
 31
0.0
  0
LINE
  5
AF8
330
1F
100
AcDbEntity
  8
2
  6
CONTINUOUS
370
25
 62
7
100
AcDbLine
 10
60.82003569472048
 20
-34.4640071389441
 30
0.0
 11
61.0
 21
-34.28404283366458
 31
0.0
  0
LINE
  5
AF9
330
1F
100
AcDbEntity
  8
2
  6
CONTINUOUS
370
25
 62
7
100
AcDbLine
 10
60.46648230412721
 20
-34.39329646082544
 30
0.0
 11
61.0
 21
-33.85977876495265
 31
0.0
  0
LINE
  5
AFA
330
1F
100
AcDbEntity
  8
2
  6
CONTINUOUS
370
25
 62
7
100
AcDbLine
 10
60.11292891353393
 20
-34.32258578270678
 30
0.0
 11
61.0
 21
-33.43551469624072
 31
0.0
  0
LINE
  5
AFB
330
1F
100
AcDbEntity
  8
2
  6
CONTINUOUS
370
25
 62
7
100
AcDbLine
 10
59.75937552294066
 20
-34.25187510458813
 30
0.0
 11
61.0
 21
-33.01125062752879
 31
0.0
  0
LINE
  5
AFC
330
1F
100
AcDbEntity
  8
2
  6
CONTINUOUS
370
25
 62
7
100
AcDbLine
 10
59.40582213234738
 20
-34.18116442646947
 30
0.0
 11
61.0
 21
-32.58698655881686
 31
0.0
  0
LINE
  5
AFD
330
1F
100
AcDbEntity
  8
2
  6
CONTINUOUS
370
25
 62
7
100
AcDbLine
 10
59.05226874175411
 20
-34.11045374835082
 30
0.0
 11
60.57840311263116
 21
-32.58431937747377
 31
0.0
  0
LINE
  5
AFE
330
1F
100
AcDbEntity
  8
2
  6
CONTINUOUS
370
25
 62
7
100
AcDbLine
 10
58.69871535116084
 20
-34.03974307023216
 30
0.0
 11
60.04807302674125
 21
-32.69038539465176
 31
0.0
  0
LINE
  5
AFF
330
1F
100
AcDbEntity
  8
2
  6
CONTINUOUS
370
25
 62
7
100
AcDbLine
 10
58.34516196056756
 20
-33.9690323921135
 30
0.0
 11
59.51774294085133
 21
-32.79645141182974
 31
0.0
  0
LINE
  5
B00
330
1F
100
AcDbEntity
  8
2
  6
CONTINUOUS
370
25
 62
7
100
AcDbLine
 10
57.99160856997428
 20
-33.89832171399485
 30
0.0
 11
58.98741285496142
 21
-32.90251742900772
 31
0.0
  0
LINE
  5
B01
330
1F
100
AcDbEntity
  8
2
  6
CONTINUOUS
370
25
 62
7
100
AcDbLine
 10
57.63805517938101
 20
-33.8276110358762
 30
0.0
 11
58.45708276907151
 21
-33.0085834461857
 31
0.0
  0
LINE
  5
B02
330
1F
100
AcDbEntity
  8
2
  6
CONTINUOUS
370
25
 62
7
100
AcDbLine
 10
57.28450178878773
 20
-33.75690035775754
 30
0.0
 11
57.92675268318159
 21
-33.11464946336368
 31
0.0
  0
LINE
  5
B03
330
1F
100
AcDbEntity
  8
2
  6
CONTINUOUS
370
25
 62
7
100
AcDbLine
 10
56.93094839819446
 20
-33.68618967963889
 30
0.0
 11
57.39642259729168
 21
-33.22071548054166
 31
0.0
  0
LINE
  5
B04
330
1F
100
AcDbEntity
  8
2
  6
CONTINUOUS
370
25
 62
7
100
AcDbLine
 10
56.57739500760118
 20
-33.61547900152024
 30
0.0
 11
56.86609251140177
 21
-33.32678149771965
 31
0.0
  0
LINE
  5
B05
330
1F
100
AcDbEntity
  8
2
  6
CONTINUOUS
370
25
 62
7
100
AcDbLine
 10
56.2238416170079
 20
-33.54476832340158
 30
0.0
 11
56.33576242551185
 21
-33.43284751489763
 31
0.0
  0
LINE
  5
B06
330
1F
100
AcDbEntity
  8
2
  6
CONTINUOUS
370
25
 62
7
100
AcDbLine
 10
56.07826879606843
 20
-33.48434624078632
 30
0.0
 11
56.11740319410264
 21
-33.52348063882052
 31
0.0
  0
LINE
  5
B07
330
1F
100
AcDbEntity
  8
2
  6
CONTINUOUS
370
25
 62
7
100
AcDbLine
 10
56.43182218666171
 20
-33.41363556266766
 30
0.0
 11
56.64773327999256
 21
-33.62954665599851
 31
0.0
  0
LINE
  5
B08
330
1F
100
AcDbEntity
  8
2
  6
CONTINUOUS
370
25
 62
7
100
AcDbLine
 10
56.78537557725498
 20
-33.34292488454901
 30
0.0
 11
57.17806336588247
 21
-33.73561267317649
 31
0.0
  0
LINE
  5
B09
330
1F
100
AcDbEntity
  8
2
  6
CONTINUOUS
370
25
 62
7
100
AcDbLine
 10
57.13892896784826
 20
-33.27221420643035
 30
0.0
 11
57.70839345177238
 21
-33.84167869035447
 31
0.0
  0
LINE
  5
B0A
330
1F
100
AcDbEntity
  8
2
  6
CONTINUOUS
370
25
 62
7
100
AcDbLine
 10
57.49248235844153
 20
-33.2015035283117
 30
0.0
 11
58.2387235376623
 21
-33.94774470753245
 31
0.0
  0
LINE
  5
B0B
330
1F
100
AcDbEntity
  8
2
  6
CONTINUOUS
370
25
 62
7
100
AcDbLine
 10
57.8460357490348
 20
-33.13079285019304
 30
0.0
 11
58.76905362355221
 21
-34.05381072471044
 31
0.0
  0
LINE
  5
B0C
330
1F
100
AcDbEntity
  8
2
  6
CONTINUOUS
370
25
 62
7
100
AcDbLine
 10
58.19958913962808
 20
-33.06008217207439
 30
0.0
 11
59.29938370944213
 21
-34.15987674188843
 31
0.0
  0
LINE
  5
B0D
330
1F
100
AcDbEntity
  8
2
  6
CONTINUOUS
370
25
 62
7
100
AcDbLine
 10
58.55314253022136
 20
-32.98937149395573
 30
0.0
 11
59.82971379533204
 21
-34.26594275906641
 31
0.0
  0
LINE
  5
B0E
330
1F
100
AcDbEntity
  8
2
  6
CONTINUOUS
370
25
 62
7
100
AcDbLine
 10
58.90669592081463
 20
-32.91866081583708
 30
0.0
 11
60.36004388122195
 21
-34.37200877624439
 31
0.0
  0
LINE
  5
B0F
330
1F
100
AcDbEntity
  8
2
  6
CONTINUOUS
370
25
 62
7
100
AcDbLine
 10
59.26024931140791
 20
-32.84795013771842
 30
0.0
 11
60.89037396711187
 21
-34.47807479342237
 31
0.0
  0
LINE
  5
B10
330
1F
100
AcDbEntity
  8
2
  6
CONTINUOUS
370
25
 62
7
100
AcDbLine
 10
59.61380270200118
 20
-32.77723945959977
 30
0.0
 11
61.0
 21
-34.16343675759857
 31
0.0
  0
LINE
  5
B11
330
1F
100
AcDbEntity
  8
2
  6
CONTINUOUS
370
25
 62
7
100
AcDbLine
 10
59.96735609259446
 20
-32.70652878148111
 30
0.0
 11
61.0
 21
-33.73917268888664
 31
0.0
  0
LINE
  5
B12
330
1F
100
AcDbEntity
  8
2
  6
CONTINUOUS
370
25
 62
7
100
AcDbLine
 10
60.32090948318773
 20
-32.63581810336245
 30
0.0
 11
61.0
 21
-33.31490862017472
 31
0.0
  0
LINE
  5
B13
330
1F
100
AcDbEntity
  8
2
  6
CONTINUOUS
370
25
 62
7
100
AcDbLine
 10
60.67446287378101
 20
-32.5651074252438
 30
0.0
 11
61.0
 21
-32.89064455146278
 31
0.0
  0
LINE
  5
B14
330
1F
100
AcDbEntity
  8
2
  6
CONTINUOUS
370
25
 62
7
100
AcDbLine
 10
120.0
 20
-33.5
 30
0.0
 11
115.0
 21
-34.5
 31
0.0
  0
LINE
  5
B15
330
1F
100
AcDbEntity
  8
2
  6
CONTINUOUS
370
25
 62
7
100
AcDbLine
 10
115.0
 20
-34.5
 30
0.0
 11
115.0
 21
-32.5
 31
0.0
  0
LINE
  5
B16
330
1F
100
AcDbEntity
  8
2
  6
CONTINUOUS
370
25
 62
7
100
AcDbLine
 10
115.0
 20
-32.5
 30
0.0
 11
120.0
 21
-33.5
 31
0.0
  0
LINE
  5
B17
330
1F
100
AcDbEntity
  8
2
  6
CONTINUOUS
370
25
 62
7
100
AcDbLine
 10
119.9535114316031
 20
-33.50929771367939
 30
0.0
 11
119.9690076210687
 21
-33.49380152421374
 31
0.0
  0
LINE
  5
B18
330
1F
100
AcDbEntity
  8
2
  6
CONTINUOUS
370
25
 62
7
100
AcDbLine
 10
119.4231813457131
 20
-33.61536373085737
 30
0.0
 11
119.6154542304754
 21
-33.42309084609509
 31
0.0
  0
LINE
  5
B19
330
1F
100
AcDbEntity
  8
2
  6
CONTINUOUS
370
25
 62
7
100
AcDbLine
 10
118.8928512598232
 20
-33.72142974803535
 30
0.0
 11
119.2619008398821
 21
-33.35238016797643
 31
0.0
  0
LINE
  5
B1A
330
1F
100
AcDbEntity
  8
2
  6
CONTINUOUS
370
25
 62
7
100
AcDbLine
 10
118.3625211739333
 20
-33.82749576521333
 30
0.0
 11
118.9083474492889
 21
-33.28166948985779
 31
0.0
  0
LINE
  5
B1B
330
1F
100
AcDbEntity
  8
2
  6
CONTINUOUS
370
25
 62
7
100
AcDbLine
 10
117.8321910880434
 20
-33.93356178239132
 30
0.0
 11
118.5547940586956
 21
-33.21095881173912
 31
0.0
  0
LINE
  5
B1C
330
1F
100
AcDbEntity
  8
2
  6
CONTINUOUS
370
25
 62
7
100
AcDbLine
 10
117.3018610021535
 20
-34.0396277995693
 30
0.0
 11
118.2012406681023
 21
-33.14024813362046
 31
0.0
  0
LINE
  5
B1D
330
1F
100
AcDbEntity
  8
2
  6
CONTINUOUS
370
25
 62
7
100
AcDbLine
 10
116.7715309162636
 20
-34.14569381674727
 30
0.0
 11
117.8476872775091
 21
-33.06953745550182
 31
0.0
  0
LINE
  5
B1E
330
1F
100
AcDbEntity
  8
2
  6
CONTINUOUS
370
25
 62
7
100
AcDbLine
 10
116.2412008303737
 20
-34.25175983392526
 30
0.0
 11
117.4941338869158
 21
-32.99882677738316
 31
0.0
  0
LINE
  5
B1F
330
1F
100
AcDbEntity
  8
2
  6
CONTINUOUS
370
25
 62
7
100
AcDbLine
 10
115.7108707444837
 20
-34.35782585110324
 30
0.0
 11
117.1405804963225
 21
-32.9281160992645
 31
0.0
  0
LINE
  5
B20
330
1F
100
AcDbEntity
  8
2
  6
CONTINUOUS
370
25
 62
7
100
AcDbLine
 10
115.1805406585938
 20
-34.46389186828124
 30
0.0
 11
116.7870271057292
 21
-32.85740542114586
 31
0.0
  0
LINE
  5
B21
330
1F
100
AcDbEntity
  8
2
  6
CONTINUOUS
370
25
 62
7
100
AcDbLine
 10
115.0
 20
-34.22016845816313
 30
0.0
 11
116.433473715136
 21
-32.78669474302718
 31
0.0
  0
LINE
  5
B22
330
1F
100
AcDbEntity
  8
2
  6
CONTINUOUS
370
25
 62
7
100
AcDbLine
 10
115.0
 20
-33.79590438945121
 30
0.0
 11
116.0799203245427
 21
-32.71598406490854
 31
0.0
  0
LINE
  5
B23
330
1F
100
AcDbEntity
  8
2
  6
CONTINUOUS
370
25
 62
7
100
AcDbLine
 10
115.0
 20
-33.37164032073929
 30
0.0
 11
115.7263669339494
 21
-32.6452733867899
 31
0.0
  0
LINE
  5
B24
330
1F
100
AcDbEntity
  8
2
  6
CONTINUOUS
370
25
 62
7
100
AcDbLine
 10
115.0
 20
-32.94737625202735
 30
0.0
 11
115.3728135433561
 21
-32.57456270867122
 31
0.0
  0
LINE
  5
B25
330
1F
100
AcDbEntity
  8
2
  6
CONTINUOUS
370
25
 62
7
100
AcDbLine
 10
115.0
 20
-32.52311218331542
 30
0.0
 11
115.0192601527629
 21
-32.50385203055257
 31
0.0
  0
LINE
  5
B26
330
1F
100
AcDbEntity
  8
2
  6
CONTINUOUS
370
25
 62
7
100
AcDbLine
 10
115.0
 20
-34.45298705274064
 30
0.0
 11
115.0391774560495
 21
-34.4921645087901
 31
0.0
  0
LINE
  5
B27
330
1F
100
AcDbEntity
  8
2
  6
CONTINUOUS
370
25
 62
7
100
AcDbLine
 10
115.0
 20
-34.02872298402872
 30
0.0
 11
115.3927308466427
 21
-34.42145383067145
 31
0.0
  0
LINE
  5
B28
330
1F
100
AcDbEntity
  8
2
  6
CONTINUOUS
370
25
 62
7
100
AcDbLine
 10
115.0
 20
-33.60445891531678
 30
0.0
 11
115.746284237236
 21
-34.35074315255279
 31
0.0
  0
LINE
  5
B29
330
1F
100
AcDbEntity
  8
2
  6
CONTINUOUS
370
25
 62
7
100
AcDbLine
 10
115.0
 20
-33.18019484660486
 30
0.0
 11
116.0998376278293
 21
-34.28003247443414
 31
0.0
  0
LINE
  5
B2A
330
1F
100
AcDbEntity
  8
2
  6
CONTINUOUS
370
25
 62
7
100
AcDbLine
 10
115.0
 20
-32.75593077789293
 30
0.0
 11
116.4533910184226
 21
-34.20932179631549
 31
0.0
  0
LINE
  5
B2B
330
1F
100
AcDbEntity
  8
2
  6
CONTINUOUS
370
25
 62
7
100
AcDbLine
 10
115.2104166135237
 20
-32.54208332270474
 30
0.0
 11
116.8069444090158
 21
-34.13861111819683
 31
0.0
  0
LINE
  5
B2C
330
1F
100
AcDbEntity
  8
2
  6
CONTINUOUS
370
25
 62
7
100
AcDbLine
 10
115.7407466994137
 20
-32.64814933988272
 30
0.0
 11
117.1604977996091
 21
-34.06790044007818
 31
0.0
  0
LINE
  5
B2D
330
1F
100
AcDbEntity
  8
2
  6
CONTINUOUS
370
25
 62
7
100
AcDbLine
 10
116.2710767853036
 20
-32.75421535706071
 30
0.0
 11
117.5140511902024
 21
-33.99718976195953
 31
0.0
  0
LINE
  5
B2E
330
1F
100
AcDbEntity
  8
2
  6
CONTINUOUS
370
25
 62
7
100
AcDbLine
 10
116.8014068711935
 20
-32.8602813742387
 30
0.0
 11
117.8676045807957
 21
-33.92647908384087
 31
0.0
  0
LINE
  5
B2F
330
1F
100
AcDbEntity
  8
2
  6
CONTINUOUS
370
25
 62
7
100
AcDbLine
 10
117.3317369570834
 20
-32.96634739141668
 30
0.0
 11
118.2211579713889
 21
-33.85576840572222
 31
0.0
  0
LINE
  5
B30
330
1F
100
AcDbEntity
  8
2
  6
CONTINUOUS
370
25
 62
7
100
AcDbLine
 10
117.8620670429733
 20
-33.07241340859466
 30
0.0
 11
118.5747113619822
 21
-33.78505772760356
 31
0.0
  0
LINE
  5
B31
330
1F
100
AcDbEntity
  8
2
  6
CONTINUOUS
370
25
 62
7
100
AcDbLine
 10
118.3923971288632
 20
-33.17847942577264
 30
0.0
 11
118.9282647525755
 21
-33.71434704948489
 31
0.0
  0
LINE
  5
B32
330
1F
100
AcDbEntity
  8
2
  6
CONTINUOUS
370
25
 62
7
100
AcDbLine
 10
118.9227272147531
 20
-33.28454544295062
 30
0.0
 11
119.2818181431687
 21
-33.64363637136626
 31
0.0
  0
LINE
  5
B33
330
1F
100
AcDbEntity
  8
2
  6
CONTINUOUS
370
25
 62
7
100
AcDbLine
 10
119.453057300643
 20
-33.39061146012861
 30
0.0
 11
119.635371533762
 21
-33.5729256932476
 31
0.0
  0
LINE
  5
B34
330
1F
100
AcDbEntity
  8
2
  6
CONTINUOUS
370
25
 62
7
100
AcDbLine
 10
119.9833873865329
 20
-33.49667747730659
 30
0.0
 11
119.9889249243553
 21
-33.50221501512895
 31
0.0
  0
TEXT
  5
B35
330
1F
100
AcDbEntity
  8
2
  6
CONTINUOUS
370
25
 62
7
100
AcDbText
 10
85.08333333333333
 20
-32.0
 30
0.0
 40
3.5
  1
64
 72
     1
 11
88.0
 21
-32.0
 31
0.0
100
AcDbText
  0
LINE
  5
B36
330
1F
100
AcDbEntity
  8
SK2
  6
CONTINUOUS
370
25
 62
7
100
AcDbLine
 10
0.0
 20
3.0
 30
0.0
 11
0.0
 21
34.5
 31
0.0
  0
LINE
  5
B37
330
1F
100
AcDbEntity
  8
SK2
  6
CONTINUOUS
370
25
 62
7
100
AcDbLine
 10
120.0
 20
34.5
 30
0.0
 11
120.0
 21
0.0
 31
0.0
  0
LINE
  5
B38
330
1F
100
AcDbEntity
  8
SK2
  6
CONTINUOUS
370
25
 62
7
100
AcDbLine
 10
0.0
 20
33.5
 30
0.0
 11
120.0
 21
33.5
 31
0.0
  0
LINE
  5
B39
330
1F
100
AcDbEntity
  8
SK2
  6
CONTINUOUS
370
25
 62
7
100
AcDbLine
 10
0.0
 20
33.5
 30
0.0
 11
5.0
 21
34.5
 31
0.0
  0
LINE
  5
B3A
330
1F
100
AcDbEntity
  8
SK2
  6
CONTINUOUS
370
25
 62
7
100
AcDbLine
 10
5.0
 20
34.5
 30
0.0
 11
5.0
 21
32.5
 31
0.0
  0
LINE
  5
B3B
330
1F
100
AcDbEntity
  8
SK2
  6
CONTINUOUS
370
25
 62
7
100
AcDbLine
 10
5.0
 20
32.5
 30
0.0
 11
0.0
 21
33.5
 31
0.0
  0
LINE
  5
B3C
330
1F
100
AcDbEntity
  8
SK2
  6
CONTINUOUS
370
25
 62
7
100
AcDbLine
 10
4.883062854764226
 20
32.52338742904715
 30
0.0
 11
5.0
 21
32.64032457428293
 31
0.0
  0
LINE
  5
B3D
330
1F
100
AcDbEntity
  8
SK2
  6
CONTINUOUS
370
25
 62
7
100
AcDbLine
 10
4.52950946417095
 20
32.59409810716581
 30
0.0
 11
5.0
 21
33.06458864299486
 31
0.0
  0
LINE
  5
B3E
330
1F
100
AcDbEntity
  8
SK2
  6
CONTINUOUS
370
25
 62
7
100
AcDbLine
 10
4.175956073577666
 20
32.66480878528446
 30
0.0
 11
5.0
 21
33.4888527117068
 31
0.0
  0
LINE
  5
B3F
330
1F
100
AcDbEntity
  8
SK2
  6
CONTINUOUS
370
25
 62
7
100
AcDbLine
 10
3.822402682984396
 20
32.73551946340312
 30
0.0
 11
5.0
 21
33.91311678041873
 31
0.0
  0
LINE
  5
B40
330
1F
100
AcDbEntity
  8
SK2
  6
CONTINUOUS
370
25
 62
7
100
AcDbLine
 10
3.468849292391113
 20
32.80623014152177
 30
0.0
 11
5.0
 21
34.33738084913067
 31
0.0
  0
LINE
  5
B41
330
1F
100
AcDbEntity
  8
SK2
  6
CONTINUOUS
370
25
 62
7
100
AcDbLine
 10
3.115295901797836
 20
32.87694081964042
 30
0.0
 11
4.672943852696761
 21
34.43458877053936
 31
0.0
  0
LINE
  5
B42
330
1F
100
AcDbEntity
  8
SK2
  6
CONTINUOUS
370
25
 62
7
100
AcDbLine
 10
2.761742511204567
 20
32.94765149775908
 30
0.0
 11
4.142613766806846
 21
34.32852275336137
 31
0.0
  0
LINE
  5
B43
330
1F
100
AcDbEntity
  8
SK2
  6
CONTINUOUS
370
25
 62
7
100
AcDbLine
 10
2.408189120611283
 20
33.01836217587774
 30
0.0
 11
3.612283680916924
 21
34.22245673618339
 31
0.0
  0
LINE
  5
B44
330
1F
100
AcDbEntity
  8
SK2
  6
CONTINUOUS
370
25
 62
7
100
AcDbLine
 10
2.054635730018013
 20
33.0890728539964
 30
0.0
 11
3.081953595027024
 21
34.11639071900541
 31
0.0
  0
LINE
  5
B45
330
1F
100
AcDbEntity
  8
SK2
  6
CONTINUOUS
370
25
 62
7
100
AcDbLine
 10
1.70108233942473
 20
33.15978353211505
 30
0.0
 11
2.551623509137094
 21
34.01032470182742
 31
0.0
  0
LINE
  5
B46
330
1F
100
AcDbEntity
  8
SK2
  6
CONTINUOUS
370
25
 62
7
100
AcDbLine
 10
1.34752894883146
 20
33.23049421023371
 30
0.0
 11
2.021293423247187
 21
33.90425868464944
 31
0.0
  0
LINE
  5
B47
330
1F
100
AcDbEntity
  8
SK2
  6
CONTINUOUS
370
25
 62
7
100
AcDbLine
 10
0.9939755582381764
 20
33.30120488835237
 30
0.0
 11
1.490963337357265
 21
33.79819266747145
 31
0.0
  0
LINE
  5
B48
330
1F
100
AcDbEntity
  8
SK2
  6
CONTINUOUS
370
25
 62
7
100
AcDbLine
 10
0.6404221676448927
 20
33.37191556647102
 30
0.0
 11
0.9606332514673426
 21
33.69212665029347
 31
0.0
  0
LINE
  5
B49
330
1F
100
AcDbEntity
  8
SK2
  6
CONTINUOUS
370
25
 62
7
100
AcDbLine
 10
0.2868687770516232
 20
33.44262624458968
 30
0.0
 11
0.4303031655774419
 21
33.58606063311549
 31
0.0
  0
LINE
  5
B4A
330
1F
100
AcDbEntity
  8
SK2
  6
CONTINUOUS
370
25
 62
7
100
AcDbLine
 10
0.05254730731005
 20
33.51050946146201
 30
0.0
 11
0.0788209609650821
 21
33.48423580780698
 31
0.0
  0
LINE
  5
B4B
330
1F
100
AcDbEntity
  8
SK2
  6
CONTINUOUS
370
25
 62
7
100
AcDbLine
 10
0.4061006979033266
 20
33.58122013958067
 30
0.0
 11
0.609151046854997
 21
33.378169790629
 31
0.0
  0
LINE
  5
B4C
330
1F
100
AcDbEntity
  8
SK2
  6
CONTINUOUS
370
25
 62
7
100
AcDbLine
 10
0.7596540884966032
 20
33.65193081769932
 30
0.0
 11
1.139481132744905
 21
33.27210377345102
 31
0.0
  0
LINE
  5
B4D
330
1F
100
AcDbEntity
  8
SK2
  6
CONTINUOUS
370
25
 62
7
100
AcDbLine
 10
1.11320747908988
 20
33.72264149581798
 30
0.0
 11
1.669811218634827
 21
33.16603775627303
 31
0.0
  0
LINE
  5
B4E
330
1F
100
AcDbEntity
  8
SK2
  6
CONTINUOUS
370
25
 62
7
100
AcDbLine
 10
1.466760869683164
 20
33.79335217393663
 30
0.0
 11
2.200141304524749
 21
33.05997173909505
 31
0.0
  0
LINE
  5
B4F
330
1F
100
AcDbEntity
  8
SK2
  6
CONTINUOUS
370
25
 62
7
100
AcDbLine
 10
1.820314260276433
 20
33.86406285205529
 30
0.0
 11
2.730471390414657
 21
32.95390572191707
 31
0.0
  0
LINE
  5
B50
330
1F
100
AcDbEntity
  8
SK2
  6
CONTINUOUS
370
25
 62
7
100
AcDbLine
 10
2.173867650869717
 20
33.93477353017394
 30
0.0
 11
3.260801476304572
 21
32.84783970473908
 31
0.0
  0
LINE
  5
B51
330
1F
100
AcDbEntity
  8
SK2
  6
CONTINUOUS
370
25
 62
7
100
AcDbLine
 10
2.527421041462993
 20
34.0054842082926
 30
0.0
 11
3.791131562194487
 21
32.7417736875611
 31
0.0
  0
LINE
  5
B52
330
1F
100
AcDbEntity
  8
SK2
  6
CONTINUOUS
370
25
 62
7
100
AcDbLine
 10
2.88097443205627
 20
34.07619488641126
 30
0.0
 11
4.321461648084409
 21
32.63570767038311
 31
0.0
  0
LINE
  5
B53
330
1F
100
AcDbEntity
  8
SK2
  6
CONTINUOUS
370
25
 62
7
100
AcDbLine
 10
3.234527822649547
 20
34.14690556452991
 30
0.0
 11
4.851791733974309
 21
32.52964165320514
 31
0.0
  0
LINE
  5
B54
330
1F
100
AcDbEntity
  8
SK2
  6
CONTINUOUS
370
25
 62
7
100
AcDbLine
 10
3.588081213242823
 20
34.21761624264856
 30
0.0
 11
5.0
 21
32.80569745589138
 31
0.0
  0
LINE
  5
B55
330
1F
100
AcDbEntity
  8
SK2
  6
CONTINUOUS
370
25
 62
7
100
AcDbLine
 10
3.9416346038361
 20
34.28832692076722
 30
0.0
 11
5.0
 21
33.22996152460331
 31
0.0
  0
LINE
  5
B56
330
1F
100
AcDbEntity
  8
SK2
  6
CONTINUOUS
370
25
 62
7
100
AcDbLine
 10
4.295187994429376
 20
34.35903759888588
 30
0.0
 11
5.0
 21
33.65422559331525
 31
0.0
  0
LINE
  5
B57
330
1F
100
AcDbEntity
  8
SK2
  6
CONTINUOUS
370
25
 62
7
100
AcDbLine
 10
4.648741385022653
 20
34.42974827700453
 30
0.0
 11
5.0
 21
34.07848966202719
 31
0.0
  0
LINE
  5
B58
330
1F
100
AcDbEntity
  8
SK2
  6
CONTINUOUS
370
25
 62
7
100
AcDbLine
 10
120.0
 20
33.5
 30
0.0
 11
115.0
 21
32.5
 31
0.0
  0
LINE
  5
B59
330
1F
100
AcDbEntity
  8
SK2
  6
CONTINUOUS
370
25
 62
7
100
AcDbLine
 10
115.0
 20
32.5
 30
0.0
 11
115.0
 21
34.5
 31
0.0
  0
LINE
  5
B5A
330
1F
100
AcDbEntity
  8
SK2
  6
CONTINUOUS
370
25
 62
7
100
AcDbLine
 10
115.0
 20
34.5
 30
0.0
 11
120.0
 21
33.5
 31
0.0
  0
LINE
  5
B5B
330
1F
100
AcDbEntity
  8
SK2
  6
CONTINUOUS
370
25
 62
7
100
AcDbLine
 10
119.9956650022085
 20
33.49913300044169
 30
0.0
 11
119.9971100014724
 21
33.50057799970553
 31
0.0
  0
LINE
  5
B5C
330
1F
100
AcDbEntity
  8
SK2
  6
CONTINUOUS
370
25
 62
7
100
AcDbLine
 10
119.4653349163186
 20
33.39306698326371
 30
0.0
 11
119.6435566108791
 21
33.57128867782419
 31
0.0
  0
LINE
  5
B5D
330
1F
100
AcDbEntity
  8
SK2
  6
CONTINUOUS
370
25
 62
7
100
AcDbLine
 10
118.9350048304287
 20
33.28700096608573
 30
0.0
 11
119.2900032202858
 21
33.64199935594284
 31
0.0
  0
LINE
  5
B5E
330
1F
100
AcDbEntity
  8
SK2
  6
CONTINUOUS
370
25
 62
7
100
AcDbLine
 10
118.4046747445388
 20
33.18093494890775
 30
0.0
 11
118.9364498296925
 21
33.71271003406149
 31
0.0
  0
LINE
  5
B5F
330
1F
100
AcDbEntity
  8
SK2
  6
CONTINUOUS
370
25
 62
7
100
AcDbLine
 10
117.8743446586489
 20
33.07486893172977
 30
0.0
 11
118.5828964390992
 21
33.78342071218015
 31
0.0
  0
LINE
  5
B60
330
1F
100
AcDbEntity
  8
SK2
  6
CONTINUOUS
370
25
 62
7
100
AcDbLine
 10
117.344014572759
 20
32.96880291455179
 30
0.0
 11
118.229343048506
 21
33.85413139029881
 31
0.0
  0
LINE
  5
B61
330
1F
100
AcDbEntity
  8
SK2
  6
CONTINUOUS
370
25
 62
7
100
AcDbLine
 10
116.813684486869
 20
32.86273689737381
 30
0.0
 11
117.8757896579127
 21
33.92484206841746
 31
0.0
  0
LINE
  5
B62
330
1F
100
AcDbEntity
  8
SK2
  6
CONTINUOUS
370
25
 62
7
100
AcDbLine
 10
116.2833544009791
 20
32.75667088019582
 30
0.0
 11
117.5222362673194
 21
33.99555274653611
 31
0.0
  0
LINE
  5
B63
330
1F
100
AcDbEntity
  8
SK2
  6
CONTINUOUS
370
25
 62
7
100
AcDbLine
 10
115.7530243150892
 20
32.65060486301785
 30
0.0
 11
117.1686828767261
 21
34.06626342465476
 31
0.0
  0
LINE
  5
B64
330
1F
100
AcDbEntity
  8
SK2
  6
CONTINUOUS
370
25
 62
7
100
AcDbLine
 10
115.2226942291993
 20
32.54453884583987
 30
0.0
 11
116.8151294861329
 21
34.13697410277342
 31
0.0
  0
LINE
  5
B65
330
1F
100
AcDbEntity
  8
SK2
  6
CONTINUOUS
370
25
 62
7
100
AcDbLine
 10
115.0
 20
32.74610868535248
 30
0.0
 11
116.4615760955396
 21
34.20768478089209
 31
0.0
  0
LINE
  5
B66
330
1F
100
AcDbEntity
  8
SK2
  6
CONTINUOUS
370
25
 62
7
100
AcDbLine
 10
115.0
 20
33.17037275406442
 30
0.0
 11
116.1080227049463
 21
34.27839545901074
 31
0.0
  0
LINE
  5
B67
330
1F
100
AcDbEntity
  8
SK2
  6
CONTINUOUS
370
25
 62
7
100
AcDbLine
 10
115.0
 20
33.59463682277634
 30
0.0
 11
115.754469314353
 21
34.34910613712938
 31
0.0
  0
LINE
  5
B68
330
1F
100
AcDbEntity
  8
SK2
  6
CONTINUOUS
370
25
 62
7
100
AcDbLine
 10
115.0
 20
34.01890089148827
 30
0.0
 11
115.4009159237598
 21
34.41981681524804
 31
0.0
  0
LINE
  5
B69
330
1F
100
AcDbEntity
  8
SK2
  6
CONTINUOUS
370
25
 62
7
100
AcDbLine
 10
115.0
 20
34.44316496020021
 30
0.0
 11
115.0473625331665
 21
34.49052749336671
 31
0.0
  0
LINE
  5
B6A
330
1F
100
AcDbEntity
  8
SK2
  6
CONTINUOUS
370
25
 62
7
100
AcDbLine
 10
115.0
 20
32.58073580374371
 30
0.0
 11
115.0672798364531
 21
32.51345596729061
 31
0.0
  0
LINE
  5
B6B
330
1F
100
AcDbEntity
  8
SK2
  6
CONTINUOUS
370
25
 62
7
100
AcDbLine
 10
115.0
 20
33.00499987245564
 30
0.0
 11
115.4208332270464
 21
32.58416664540927
 31
0.0
  0
LINE
  5
B6C
330
1F
100
AcDbEntity
  8
SK2
  6
CONTINUOUS
370
25
 62
7
100
AcDbLine
 10
115.0
 20
33.42926394116758
 30
0.0
 11
115.7743866176396
 21
32.65487732352791
 31
0.0
  0
LINE
  5
B6D
330
1F
100
AcDbEntity
  8
SK2
  6
CONTINUOUS
370
25
 62
7
100
AcDbLine
 10
115.0
 20
33.85352800987951
 30
0.0
 11
116.1279400082329
 21
32.72558800164657
 31
0.0
  0
LINE
  5
B6E
330
1F
100
AcDbEntity
  8
SK2
  6
CONTINUOUS
370
25
 62
7
100
AcDbLine
 10
115.0
 20
34.27779207859145
 30
0.0
 11
116.4814933988262
 21
32.79629867976524
 31
0.0
  0
LINE
  5
B6F
330
1F
100
AcDbEntity
  8
SK2
  6
CONTINUOUS
370
25
 62
7
100
AcDbLine
 10
115.2525701841292
 20
34.44948596317415
 30
0.0
 11
116.8350467894195
 21
32.86700935788389
 31
0.0
  0
LINE
  5
B70
330
1F
100
AcDbEntity
  8
SK2
  6
CONTINUOUS
370
25
 62
7
100
AcDbLine
 10
115.7829002700191
 20
34.34341994599617
 30
0.0
 11
117.1886001800127
 21
32.93772003600255
 31
0.0
  0
LINE
  5
B71
330
1F
100
AcDbEntity
  8
SK2
  6
CONTINUOUS
370
25
 62
7
100
AcDbLine
 10
116.313230355909
 20
34.23735392881819
 30
0.0
 11
117.542153570606
 21
33.0084307141212
 31
0.0
  0
LINE
  5
B72
330
1F
100
AcDbEntity
  8
SK2
  6
CONTINUOUS
370
25
 62
7
100
AcDbLine
 10
116.8435604417989
 20
34.13128791164021
 30
0.0
 11
117.8957069611993
 21
33.07914139223986
 31
0.0
  0
LINE
  5
B73
330
1F
100
AcDbEntity
  8
SK2
  6
CONTINUOUS
370
25
 62
7
100
AcDbLine
 10
117.3738905276888
 20
34.02522189446223
 30
0.0
 11
118.2492603517926
 21
33.14985207035851
 31
0.0
  0
LINE
  5
B74
330
1F
100
AcDbEntity
  8
SK2
  6
CONTINUOUS
370
25
 62
7
100
AcDbLine
 10
117.9042206135787
 20
33.91915587728425
 30
0.0
 11
118.6028137423858
 21
33.22056274847716
 31
0.0
  0
LINE
  5
B75
330
1F
100
AcDbEntity
  8
SK2
  6
CONTINUOUS
370
25
 62
7
100
AcDbLine
 10
118.4345506994687
 20
33.81308986010626
 30
0.0
 11
118.9563671329791
 21
33.29127342659582
 31
0.0
  0
LINE
  5
B76
330
1F
100
AcDbEntity
  8
SK2
  6
CONTINUOUS
370
25
 62
7
100
AcDbLine
 10
118.9648807853586
 20
33.70702384292828
 30
0.0
 11
119.3099205235724
 21
33.36198410471447
 31
0.0
  0
LINE
  5
B77
330
1F
100
AcDbEntity
  8
SK2
  6
CONTINUOUS
370
25
 62
7
100
AcDbLine
 10
119.4952108712485
 20
33.6009578257503
 30
0.0
 11
119.6634739141656
 21
33.43269478283312
 31
0.0
  0
TEXT
  5
B78
330
1F
100
AcDbEntity
  8
SK2
  6
CONTINUOUS
370
25
 62
7
100
AcDbText
 10
56.20833333333334
 20
35.0
 30
0.0
 40
3.5
  1
120
 72
     1
 11
60.0
 21
35.0
 31
0.0
100
AcDbText
  0
LINE
  5
B79
330
1F
100
AcDbEntity
  8
4
  6
LONGDASH_DASH
370
25
 62
2
100
AcDbLine
 10
50.0
 20
0.0
 30
0.0
 11
120.0
 21
0.0
 31
0.0
  0
LINE
  5
B7A
330
1F
100
AcDbEntity
  8
SK4
  6
LONGDASH_DASH
370
25
 62
2
100
AcDbLine
 10
-6.0
 20
0.0
 30
0.0
 11
126.0
 21
0.0
 31
0.0
  0
LINE
  5
B7B
330
1F
100
AcDbEntity
  8
2
  6
CONTINUOUS
370
25
 62
7
100
AcDbLine
 10
120.0
 20
0.0
 30
0.0
 11
127.182423009839
 21
19.73354503650408
 31
0.0
  0
LINE
  5
B7C
330
1F
100
AcDbEntity
  8
2
  6
CONTINUOUS
370
25
 62
7
100
AcDbLine
 10
120.0
 20
0.0
 30
0.0
 11
127.1824230098391
 21
-19.73354503650408
 31
0.0
  0
ARC
  5
B7D
330
1F
100
AcDbEntity
  8
2
  6
CONTINUOUS
370
25
 62
7
100
AcDbCircle
 10
120.0
 20
0.0000000000000005
 30
0.0
 40
20.0
100
AcDbArc
 50
290.0000000000001
 51
70.00000000000001
  0
LINE
  5
B7E
330
1F
100
AcDbEntity
  8
2
  6
CONTINUOUS
370
25
 62
7
100
AcDbLine
 10
126.8404028665134
 20
18.79385241571817
 30
0.0
 11
131.7450512894673
 21
17.39942642370005
 31
0.0
  0
LINE
  5
B7F
330
1F
100
AcDbEntity
  8
2
  6
CONTINUOUS
370
25
 62
7
100
AcDbLine
 10
131.7450512894673
 20
17.39942642370005
 30
0.0
 11
130.83145295231
 21
15.62028672194994
 31
0.0
  0
LINE
  5
B80
330
1F
100
AcDbEntity
  8
2
  6
CONTINUOUS
370
25
 62
7
100
AcDbLine
 10
130.83145295231
 20
15.62028672194994
 30
0.0
 11
126.8404028665134
 21
18.79385241571817
 31
0.0
  0
LINE
  5
B81
330
1F
100
AcDbEntity
  8
2
  6
CONTINUOUS
370
25
 62
7
100
AcDbLine
 10
130.6874044838881
 20
15.73482982910126
 30
0.0
 11
131.1044021643419
 21
16.15182750955505
 31
0.0
  0
LINE
  5
B82
330
1F
100
AcDbEntity
  8
2
  6
CONTINUOUS
370
25
 62
7
100
AcDbLine
 10
130.451068133143
 20
15.92275754706809
 30
0.0
 11
131.5522224113536
 21
17.02391182527869
 31
0.0
  0
LINE
  5
B83
330
1F
100
AcDbEntity
  8
2
  6
CONTINUOUS
370
25
 62
7
100
AcDbLine
 10
130.2147317823978
 20
16.1106852650349
 30
0.0
 11
131.5569511357837
 21
17.4529046184207
 31
0.0
  0
LINE
  5
B84
330
1F
100
AcDbEntity
  8
2
  6
CONTINUOUS
370
25
 62
7
100
AcDbLine
 10
129.9783954316528
 20
16.29861298300172
 30
0.0
 11
131.2266063964712
 21
17.54682394782013
 31
0.0
  0
LINE
  5
B85
330
1F
100
AcDbEntity
  8
2
  6
CONTINUOUS
370
25
 62
7
100
AcDbLine
 10
129.7420590809077
 20
16.48654070096854
 30
0.0
 11
130.8962616571587
 21
17.64074327721956
 31
0.0
  0
LINE
  5
B86
330
1F
100
AcDbEntity
  8
2
  6
CONTINUOUS
370
25
 62
7
100
AcDbLine
 10
129.5057227301626
 20
16.67446841893538
 30
0.0
 11
130.5659169178462
 21
17.73466260661898
 31
0.0
  0
LINE
  5
B87
330
1F
100
AcDbEntity
  8
2
  6
CONTINUOUS
370
25
 62
7
100
AcDbLine
 10
129.2693863794175
 20
16.86239613690219
 30
0.0
 11
130.2355721785337
 21
17.82858193601841
 31
0.0
  0
LINE
  5
B88
330
1F
100
AcDbEntity
  8
2
  6
CONTINUOUS
370
25
 62
7
100
AcDbLine
 10
129.0330500286723
 20
17.05032385486901
 30
0.0
 11
129.9052274392212
 21
17.92250126541784
 31
0.0
  0
LINE
  5
B89
330
1F
100
AcDbEntity
  8
2
  6
CONTINUOUS
370
25
 62
7
100
AcDbLine
 10
128.7967136779272
 20
17.23825157283581
 30
0.0
 11
129.5748826999087
 21
18.01642059481726
 31
0.0
  0
LINE
  5
B8A
330
1F
100
AcDbEntity
  8
2
  6
CONTINUOUS
370
25
 62
7
100
AcDbLine
 10
128.5603773271821
 20
17.42617929080264
 30
0.0
 11
129.2445379605962
 21
18.11033992421669
 31
0.0
  0
LINE
  5
B8B
330
1F
100
AcDbEntity
  8
2
  6
CONTINUOUS
370
25
 62
7
100
AcDbLine
 10
128.324040976437
 20
17.61410700876945
 30
0.0
 11
128.9141932212837
 21
18.20425925361612
 31
0.0
  0
LINE
  5
B8C
330
1F
100
AcDbEntity
  8
2
  6
CONTINUOUS
370
25
 62
7
100
AcDbLine
 10
128.0877046256919
 20
17.80203472673628
 30
0.0
 11
128.5838484819712
 21
18.29817858301554
 31
0.0
  0
LINE
  5
B8D
330
1F
100
AcDbEntity
  8
2
  6
CONTINUOUS
370
25
 62
7
100
AcDbLine
 10
127.8513682749468
 20
17.9899624447031
 30
0.0
 11
128.2535037426587
 21
18.39209791241498
 31
0.0
  0
LINE
  5
B8E
330
1F
100
AcDbEntity
  8
2
  6
CONTINUOUS
370
25
 62
7
100
AcDbLine
 10
127.6150319242017
 20
18.17789016266991
 30
0.0
 11
127.9231590033462
 21
18.48601724181441
 31
0.0
  0
LINE
  5
B8F
330
1F
100
AcDbEntity
  8
2
  6
CONTINUOUS
370
25
 62
7
100
AcDbLine
 10
127.3786955734566
 20
18.36581788063673
 30
0.0
 11
127.5928142640337
 21
18.57993657121384
 31
0.0
  0
LINE
  5
B90
330
1F
100
AcDbEntity
  8
2
  6
CONTINUOUS
370
25
 62
7
100
AcDbLine
 10
127.1423592227115
 20
18.55374559860354
 30
0.0
 11
127.2624695247212
 21
18.67385590061326
 31
0.0
  0
LINE
  5
B91
330
1F
100
AcDbEntity
  8
2
  6
CONTINUOUS
370
25
 62
7
100
AcDbLine
 10
126.9060228719664
 20
18.74167331657036
 30
0.0
 11
126.9321247854087
 21
18.76777523001268
 31
0.0
  0
LINE
  5
B92
330
1F
100
AcDbEntity
  8
2
  6
CONTINUOUS
370
25
 62
7
100
AcDbLine
 10
127.1889101939317
 20
18.69476933496429
 30
0.0
 11
128.0581198905411
 21
17.82555963835485
 31
0.0
  0
LINE
  5
B93
330
1F
100
AcDbEntity
  8
2
  6
CONTINUOUS
370
25
 62
7
100
AcDbLine
 10
127.7817119711596
 20
18.52623162644834
 30
0.0
 11
130.1294244491906
 21
16.17851914841732
 31
0.0
  0
LINE
  5
B94
330
1F
100
AcDbEntity
  8
2
  6
CONTINUOUS
370
25
 62
7
100
AcDbLine
 10
128.3745137483875
 20
18.35769391793237
 30
0.0
 11
130.9266107758597
 21
15.80559689046021
 31
0.0
  0
LINE
  5
B95
330
1F
100
AcDbEntity
  8
2
  6
CONTINUOUS
370
25
 62
7
100
AcDbLine
 10
128.9673155256154
 20
18.1891562094164
 30
0.0
 11
131.0705560620666
 21
16.0859156729652
 31
0.0
  0
LINE
  5
B96
330
1F
100
AcDbEntity
  8
2
  6
CONTINUOUS
370
25
 62
7
100
AcDbLine
 10
129.5601173028433
 20
18.02061850090043
 30
0.0
 11
131.2145013482735
 21
16.36623445547021
 31
0.0
  0
LINE
  5
B97
330
1F
100
AcDbEntity
  8
2
  6
CONTINUOUS
370
25
 62
7
100
AcDbLine
 10
130.1529190800712
 20
17.85208079238447
 30
0.0
 11
131.3584466344804
 21
16.6465532379752
 31
0.0
  0
LINE
  5
B98
330
1F
100
AcDbEntity
  8
2
  6
CONTINUOUS
370
25
 62
7
100
AcDbLine
 10
130.7457208572991
 20
17.68354308386849
 30
0.0
 11
131.5023919206874
 21
16.9268720204802
 31
0.0
  0
LINE
  5
B99
330
1F
100
AcDbEntity
  8
2
  6
CONTINUOUS
370
25
 62
7
100
AcDbLine
 10
131.338522634527
 20
17.51500537535253
 30
0.0
 11
131.6463372068943
 21
17.2071908029852
 31
0.0
  0
LINE
  5
B9A
330
1F
100
AcDbEntity
  8
2
  6
CONTINUOUS
370
25
 62
7
100
AcDbLine
 10
126.8404028665134
 20
-18.79385241571817
 30
0.0
 11
130.83145295231
 21
-15.62028672194994
 31
0.0
  0
LINE
  5
B9B
330
1F
100
AcDbEntity
  8
2
  6
CONTINUOUS
370
25
 62
7
100
AcDbLine
 10
130.83145295231
 20
-15.62028672194994
 30
0.0
 11
131.7450512894673
 21
-17.39942642370005
 31
0.0
  0
LINE
  5
B9C
330
1F
100
AcDbEntity
  8
2
  6
CONTINUOUS
370
25
 62
7
100
AcDbLine
 10
131.7450512894673
 20
-17.39942642370005
 30
0.0
 11
126.8404028665134
 21
-18.79385241571817
 31
0.0
  0
LINE
  5
B9D
330
1F
100
AcDbEntity
  8
2
  6
CONTINUOUS
370
25
 62
7
100
AcDbLine
 10
131.5308834516523
 20
-17.46031584409276
 30
0.0
 11
131.6930466364874
 21
-17.29815265925761
 31
0.0
  0
LINE
  5
B9E
330
1F
100
AcDbEntity
  8
2
  6
CONTINUOUS
370
25
 62
7
100
AcDbLine
 10
130.9380816744244
 20
-17.62885355260872
 30
0.0
 11
131.5491013502805
 21
-17.01783387675262
 31
0.0
  0
LINE
  5
B9F
330
1F
100
AcDbEntity
  8
2
  6
CONTINUOUS
370
25
 62
7
100
AcDbLine
 10
130.3452798971965
 20
-17.79739126112469
 30
0.0
 11
131.4051560640736
 21
-16.73751509424761
 31
0.0
  0
LINE
  5
BA0
330
1F
100
AcDbEntity
  8
2
  6
CONTINUOUS
370
25
 62
7
100
AcDbLine
 10
129.7524781199686
 20
-17.96592896964066
 30
0.0
 11
131.2612107778667
 21
-16.45719631174261
 31
0.0
  0
LINE
  5
BA1
330
1F
100
AcDbEntity
  8
2
  6
CONTINUOUS
370
25
 62
7
100
AcDbLine
 10
129.1596763427407
 20
-18.13446667815661
 30
0.0
 11
131.1172654916597
 21
-16.1768775292376
 31
0.0
  0
LINE
  5
BA2
330
1F
100
AcDbEntity
  8
2
  6
CONTINUOUS
370
25
 62
7
100
AcDbLine
 10
128.5668745655128
 20
-18.30300438667258
 30
0.0
 11
130.9733202054528
 21
-15.89655874673261
 31
0.0
  0
LINE
  5
BA3
330
1F
100
AcDbEntity
  8
2
  6
CONTINUOUS
370
25
 62
7
100
AcDbLine
 10
127.9740727882849
 20
-18.47154209518855
 30
0.0
 11
130.8015510397692
 21
-15.64406384370429
 31
0.0
  0
LINE
  5
BA4
330
1F
100
AcDbEntity
  8
2
  6
CONTINUOUS
370
25
 62
7
100
AcDbLine
 10
127.381271011057
 20
-18.64007980370452
 30
0.0
 11
128.7302464811199
 21
-17.2911043336417
 31
0.0
  0
LINE
  5
BA5
330
1F
100
AcDbEntity
  8
2
  6
CONTINUOUS
370
25
 62
7
100
AcDbLine
 10
126.883644975488
 20
-18.75946756195336
 30
0.0
 11
126.9008455498819
 21
-18.77666813634721
 31
0.0
  0
LINE
  5
BA6
330
1F
100
AcDbEntity
  8
2
  6
CONTINUOUS
370
25
 62
7
100
AcDbLine
 10
127.1199813262331
 20
-18.57153984398654
 30
0.0
 11
127.2311902891944
 21
-18.68274880694779
 31
0.0
  0
LINE
  5
BA7
330
1F
100
AcDbEntity
  8
2
  6
CONTINUOUS
370
25
 62
7
100
AcDbLine
 10
127.3563176769783
 20
-18.38361212601973
 30
0.0
 11
127.5615350285069
 21
-18.58882947754836
 31
0.0
  0
LINE
  5
BA8
330
1F
100
AcDbEntity
  8
2
  6
CONTINUOUS
370
25
 62
7
100
AcDbLine
 10
127.5926540277234
 20
-18.19568440805291
 30
0.0
 11
127.8918797678194
 21
-18.49491014814893
 31
0.0
  0
LINE
  5
BA9
330
1F
100
AcDbEntity
  8
2
  6
CONTINUOUS
370
25
 62
7
100
AcDbLine
 10
127.8289903784685
 20
-18.0077566900861
 30
0.0
 11
128.2222245071319
 21
-18.40099081874949
 31
0.0
  0
LINE
  5
BAA
330
1F
100
AcDbEntity
  8
2
  6
CONTINUOUS
370
25
 62
7
100
AcDbLine
 10
128.0653267292136
 20
-17.81982897211928
 30
0.0
 11
128.5525692464444
 21
-18.30707148935007
 31
0.0
  0
LINE
  5
BAB
330
1F
100
AcDbEntity
  8
2
  6
CONTINUOUS
370
25
 62
7
100
AcDbLine
 10
128.3016630799587
 20
-17.63190125415247
 30
0.0
 11
128.8829139857569
 21
-18.21315215995064
 31
0.0
  0
LINE
  5
BAC
330
1F
100
AcDbEntity
  8
2
  6
CONTINUOUS
370
25
 62
7
100
AcDbLine
 10
128.5379994307038
 20
-17.44397353618563
 30
0.0
 11
129.2132587250694
 21
-18.1192328305512
 31
0.0
  0
LINE
  5
BAD
330
1F
100
AcDbEntity
  8
2
  6
CONTINUOUS
370
25
 62
7
100
AcDbLine
 10
128.7743357814489
 20
-17.25604581821881
 30
0.0
 11
129.5436034643819
 21
-18.02531350115179
 31
0.0
  0
LINE
  5
BAE
330
1F
100
AcDbEntity
  8
2
  6
CONTINUOUS
370
25
 62
7
100
AcDbLine
 10
129.010672132194
 20
-17.06811810025199
 30
0.0
 11
129.8739482036943
 21
-17.93139417175236
 31
0.0
  0
LINE
  5
BAF
330
1F
100
AcDbEntity
  8
2
  6
CONTINUOUS
370
25
 62
7
100
AcDbLine
 10
129.2470084829391
 20
-16.88019038228518
 30
0.0
 11
130.2042929430069
 21
-17.83747484235293
 31
0.0
  0
LINE
  5
BB0
330
1F
100
AcDbEntity
  8
2
  6
CONTINUOUS
370
25
 62
7
100
AcDbLine
 10
129.4833448336842
 20
-16.69226266431836
 30
0.0
 11
130.5346376823194
 21
-17.74355551295351
 31
0.0
  0
LINE
  5
BB1
330
1F
100
AcDbEntity
  8
2
  6
CONTINUOUS
370
25
 62
7
100
AcDbLine
 10
129.7196811844293
 20
-16.50433494635153
 30
0.0
 11
130.8649824216319
 21
-17.64963618355408
 31
0.0
  0
LINE
  5
BB2
330
1F
100
AcDbEntity
  8
2
  6
CONTINUOUS
370
25
 62
7
100
AcDbLine
 10
129.9560175351744
 20
-16.3164072283847
 30
0.0
 11
131.1953271609443
 21
-17.55571685415465
 31
0.0
  0
LINE
  5
BB3
330
1F
100
AcDbEntity
  8
2
  6
CONTINUOUS
370
25
 62
7
100
AcDbLine
 10
130.1923538859195
 20
-16.12847951041789
 30
0.0
 11
131.5256719002568
 21
-17.46179752475523
 31
0.0
  0
LINE
  5
BB4
330
1F
100
AcDbEntity
  8
2
  6
CONTINUOUS
370
25
 62
7
100
AcDbLine
 10
130.4286902366646
 20
-15.94055179245107
 30
0.0
 11
131.5946250087405
 21
-17.106486564527
 31
0.0
  0
LINE
  5
BB5
330
1F
100
AcDbEntity
  8
2
  6
CONTINUOUS
370
25
 62
7
100
AcDbLine
 10
130.6650265874097
 20
-15.75262407448426
 30
0.0
 11
131.1468047617289
 21
-16.23440224880341
 31
0.0
  0
TEXT
  5
BB6
330
1F
100
AcDbEntity
  8
2
  6
CONTINUOUS
370
25
 62
7
100
AcDbText
 10
137.5
 20
-4.958333333333333
 30
0.0
 40
3.5
  1
140°
 50
90.0
 72
     1
 11
137.5
 21
0.0
 31
0.0
100
AcDbText
  0
LINE
  5
BB7
330
1F
100
AcDbEntity
  8
SK1
  6
CONTINUOUS
370
50
 62
4
100
AcDbLine
 10
50.0
 20
0.0
 30
0.0
 11
52.625
 21
0.0
 31
0.0
  0
LINE
  5
BB8
330
1F
100
AcDbEntity
  8
SK1
  6
CONTINUOUS
370
50
 62
4
100
AcDbLine
 10
50.0
 20
0.0
 30
0.0
 11
50.0
 21
2.625
 31
0.0
  0
ARC
  5
BB9
330
1F
100
AcDbEntity
  8
SK1
  6
CONTINUOUS
370
50
 62
4
100
AcDbCircle
 10
50.0
 20
0.0
 30
0.0
 40
2.625
100
AcDbArc
 50
0.0
 51
90.0
  0
LINE
  5
BBA
330
1F
100
AcDbEntity
  8
SK1
  6
CONTINUOUS
370
50
 62
4
100
AcDbLine
 10
50.0
 20
0.0
 30
0.0
 11
47.375
 21
0.0
 31
0.0
  0
ARC
  5
BBB
330
1F
100
AcDbEntity
  8
SK1
  6
CONTINUOUS
370
50
 62
4
100
AcDbCircle
 10
50.0
 20
0.0
 30
0.0
 40
2.625
100
AcDbArc
 50
180.0
 51
270.0
  0
LINE
  5
BBC
330
1F
100
AcDbEntity
  8
SK1
  6
CONTINUOUS
370
50
 62
4
100
AcDbLine
 10
50.0
 20
-2.625
 30
0.0
 11
50.0
 21
0.0
 31
0.0
  0
ARC
  5
BBD
330
1F
100
AcDbEntity
  8
SK1
  6
CONTINUOUS
370
50
 62
4
100
AcDbCircle
 10
50.0
 20
0.0
 30
0.0
 40
2.625
100
AcDbArc
 50
270.0
 51
0.0
  0
ARC
  5
BBE
330
1F
100
AcDbEntity
  8
SK1
  6
CONTINUOUS
370
50
 62
4
100
AcDbCircle
 10
50.0
 20
0.0
 30
0.0
 40
2.625
100
AcDbArc
 50
90.0
 51
180.0
  0
LINE
  5
BBF
330
1F
100
AcDbEntity
  8
SK1
  6
CONTINUOUS
370
50
 62
4
100
AcDbLine
 10
49.66575722192682
 20
-2.60347067499975
 30
0.0
 11
50.0
 21
-2.269227896926564
 31
0.0
  0
LINE
  5
BC0
330
1F
100
AcDbEntity
  8
SK1
  6
CONTINUOUS
370
50
 62
4
100
AcDbLine
 10
52.26922789692657
 20
0.0
 30
0.0
 11
52.60347067499975
 21
0.3342427780731851
 31
0.0
  0
LINE
  5
BC1
330
1F
100
AcDbEntity
  8
SK1
  6
CONTINUOUS
370
50
 62
4
100
AcDbLine
 10
49.35395391214686
 20
-2.544042924656761
 30
0.0
 11
50.0
 21
-1.897996836803626
 31
0.0
  0
LINE
  5
BC2
330
1F
100
AcDbEntity
  8
SK1
  6
CONTINUOUS
370
50
 62
4
100
AcDbLine
 10
51.89799683680363
 20
0.0
 30
0.0
 11
52.54404292465676
 21
0.6460460878531347
 31
0.0
  0
LINE
  5
BC3
330
1F
100
AcDbEntity
  8
SK1
  6
CONTINUOUS
370
50
 62
4
100
AcDbLine
 10
49.07222348891575
 20
-2.454542287764935
 30
0.0
 11
50.0
 21
-1.526765776680689
 31
0.0
  0
LINE
  5
BC4
330
1F
100
AcDbEntity
  8
SK1
  6
CONTINUOUS
370
50
 62
4
100
AcDbLine
 10
51.52676577668069
 20
0.0
 30
0.0
 11
52.45454228776494
 21
0.9277765110842457
 31
0.0
  0
LINE
  5
BC5
330
1F
100
AcDbEntity
  8
SK1
  6
CONTINUOUS
370
50
 62
4
100
AcDbLine
 10
48.81478120678253
 20
-2.340753509775221
 30
0.0
 11
50.0
 21
-1.155534716557751
 31
0.0
  0
LINE
  5
BC6
330
1F
100
AcDbEntity
  8
SK1
  6
CONTINUOUS
370
50
 62
4
100
AcDbLine
 10
51.15553471655775
 20
0.0
 30
0.0
 11
52.34075350977522
 21
1.185218793217471
 31
0.0
  0
LINE
  5
BC7
330
1F
100
AcDbEntity
  8
SK1
  6
CONTINUOUS
370
50
 62
4
100
AcDbLine
 10
48.57826543845547
 20
-2.206038217979337
 30
0.0
 11
50.0
 21
-0.7843036564348136
 31
0.0
  0
LINE
  5
BC8
330
1F
100
AcDbEntity
  8
SK1
  6
CONTINUOUS
370
50
 62
4
100
AcDbLine
 10
50.78430365643482
 20
0.0
 30
0.0
 11
52.20603821797934
 21
1.421734561544524
 31
0.0
  0
LINE
  5
BC9
330
1F
100
AcDbEntity
  8
SK1
  6
CONTINUOUS
370
50
 62
4
100
AcDbLine
 10
48.3626431117109
 20
-2.050429484600978
 30
0.0
 11
50.0
 21
-0.413072596311876
 31
0.0
  0
LINE
  5
BCA
330
1F
100
AcDbEntity
  8
SK1
  6
CONTINUOUS
370
50
 62
4
100
AcDbLine
 10
50.41307259631188
 20
0.0
 30
0.0
 11
52.05042948460098
 21
1.637356888289101
 31
0.0
  0
LINE
  5
BCB
330
1F
100
AcDbEntity
  8
SK1
  6
CONTINUOUS
370
50
 62
4
100
AcDbLine
 10
48.16568136807246
 20
-1.876160168116476
 30
0.0
 11
50.0
 21
-0.0418415361889384
 31
0.0
  0
LINE
  5
BCC
330
1F
100
AcDbEntity
  8
SK1
  6
CONTINUOUS
370
50
 62
4
100
AcDbLine
 10
50.04184153618894
 20
0.0
 30
0.0
 11
51.87616016811648
 21
1.834318631927537
 31
0.0
  0
LINE
  5
BCD
330
1F
100
AcDbEntity
  8
SK1
  6
CONTINUOUS
370
50
 62
4
100
AcDbLine
 10
47.98675942477632
 20
-1.683851051289679
 30
0.0
 11
49.670610476066
 21
0.0
 31
0.0
  0
LINE
  5
BCE
330
1F
100
AcDbEntity
  8
SK1
  6
CONTINUOUS
370
50
 62
4
100
AcDbLine
 10
50.0
 20
0.3293895239339992
 30
0.0
 11
51.68385105128968
 21
2.013240575223679
 31
0.0
  0
LINE
  5
BCF
330
1F
100
AcDbEntity
  8
SK1
  6
CONTINUOUS
370
50
 62
4
100
AcDbLine
 10
47.82782161830507
 20
-1.471557797638
 30
0.0
 11
49.29937941594306
 21
0.0
 31
0.0
  0
LINE
  5
BD0
330
1F
100
AcDbEntity
  8
SK1
  6
CONTINUOUS
370
50
 62
4
100
AcDbLine
 10
50.0
 20
0.7006205840569368
 30
0.0
 11
51.471557797638
 21
2.172178381694937
 31
0.0
  0
LINE
  5
BD1
330
1F
100
AcDbEntity
  8
SK1
  6
CONTINUOUS
370
50
 62
4
100
AcDbLine
 10
47.68749288718529
 20
-1.240655468634837
 30
0.0
 11
48.92814835582013
 21
0.0
 31
0.0
  0
LINE
  5
BD2
330
1F
100
AcDbEntity
  8
SK1
  6
CONTINUOUS
370
50
 62
4
100
AcDbLine
 10
50.0
 20
1.071851644179874
 30
0.0
 11
51.24065546863483
 21
2.312507112814711
 31
0.0
  0
LINE
  5
BD3
330
1F
100
AcDbEntity
  8
SK1
  6
CONTINUOUS
370
50
 62
4
100
AcDbLine
 10
47.56877644288387
 20
-0.9881408528133115
 30
0.0
 11
48.55691729569719
 21
0.0
 31
0.0
  0
LINE
  5
BD4
330
1F
100
AcDbEntity
  8
SK1
  6
CONTINUOUS
370
50
 62
4
100
AcDbLine
 10
50.0
 20
1.443082704302812
 30
0.0
 11
50.98814085281331
 21
2.431223557116124
 31
0.0
  0
LINE
  5
BD5
330
1F
100
AcDbEntity
  8
SK1
  6
CONTINUOUS
370
50
 62
4
100
AcDbLine
 10
47.47444482033456
 20
-0.7112414152396886
 30
0.0
 11
48.18568623557425
 21
0.0
 31
0.0
  0
LINE
  5
BD6
330
1F
100
AcDbEntity
  8
SK1
  6
CONTINUOUS
370
50
 62
4
100
AcDbLine
 10
50.0
 20
1.81431376442575
 30
0.0
 11
50.71124141523969
 21
2.525555179665439
 31
0.0
  0
LINE
  5
BD7
330
1F
100
AcDbEntity
  8
SK1
  6
CONTINUOUS
370
50
 62
4
100
AcDbLine
 10
47.40797120571085
 20
-0.4064839697404632
 30
0.0
 11
47.81445517545131
 21
0.0
 31
0.0
  0
LINE
  5
BD8
330
1F
100
AcDbEntity
  8
SK1
  6
CONTINUOUS
370
50
 62
4
100
AcDbLine
 10
50.0
 20
2.185544824548687
 30
0.0
 11
50.40648396974046
 21
2.59202879428915
 31
0.0
  0
LINE
  5
BD9
330
1F
100
AcDbEntity
  8
SK1
  6
CONTINUOUS
370
50
 62
4
100
AcDbLine
 10
47.37707870331546
 20
-0.0661454120129097
 30
0.0
 11
47.44322411532838
 21
0.0
 31
0.0
  0
LINE
  5
BDA
330
1F
100
AcDbEntity
  8
SK1
  6
CONTINUOUS
370
50
 62
4
100
AcDbLine
 10
50.0
 20
2.556775884671625
 30
0.0
 11
50.06614541201291
 21
2.622921296684535
 31
0.0
  0
LINE
  5
BDB
330
1F
100
AcDbEntity
  8
SK1
  6
CONTINUOUS
370
50
 62
4
100
AcDbLine
 10
47.54579652643623
 20
-0.9287176037316112
 30
0.0
 11
49.07128239626839
 21
-2.454203473563768
 31
0.0
  0
LINE
  5
BDC
330
1F
100
AcDbEntity
  8
SK1
  6
CONTINUOUS
370
50
 62
4
100
AcDbLine
 10
47.41045104563307
 20
-0.4221410628055069
 30
0.0
 11
49.5778589371945
 21
-2.589548954366935
 31
0.0
  0
LINE
  5
BDD
330
1F
100
AcDbEntity
  8
SK1
  6
CONTINUOUS
370
50
 62
4
100
AcDbLine
 10
47.37550158008622
 20
-0.0159605371357268
 30
0.0
 11
49.98403946286427
 21
-2.624498419913778
 31
0.0
  0
LINE
  5
BDE
330
1F
100
AcDbEntity
  8
SK1
  6
CONTINUOUS
370
50
 62
4
100
AcDbLine
 10
47.73077210307343
 20
0.0
 30
0.0
 11
50.0
 21
-2.269227896926564
 31
0.0
  0
LINE
  5
BDF
330
1F
100
AcDbEntity
  8
SK1
  6
CONTINUOUS
370
50
 62
4
100
AcDbLine
 10
48.10200316319637
 20
0.0
 30
0.0
 11
50.0
 21
-1.897996836803626
 31
0.0
  0
LINE
  5
BE0
330
1F
100
AcDbEntity
  8
SK1
  6
CONTINUOUS
370
50
 62
4
100
AcDbLine
 10
48.47323422331931
 20
0.0
 30
0.0
 11
50.0
 21
-1.526765776680689
 31
0.0
  0
LINE
  5
BE1
330
1F
100
AcDbEntity
  8
SK1
  6
CONTINUOUS
370
50
 62
4
100
AcDbLine
 10
48.84446528344225
 20
0.0
 30
0.0
 11
50.0
 21
-1.155534716557752
 31
0.0
  0
LINE
  5
BE2
330
1F
100
AcDbEntity
  8
SK1
  6
CONTINUOUS
370
50
 62
4
100
AcDbLine
 10
49.21569634356518
 20
0.0
 30
0.0
 11
50.0
 21
-0.7843036564348145
 31
0.0
  0
LINE
  5
BE3
330
1F
100
AcDbEntity
  8
SK1
  6
CONTINUOUS
370
50
 62
4
100
AcDbLine
 10
49.58692740368812
 20
0.0
 30
0.0
 11
50.0
 21
-0.4130725963118769
 31
0.0
  0
LINE
  5
BE4
330
1F
100
AcDbEntity
  8
SK1
  6
CONTINUOUS
370
50
 62
4
100
AcDbLine
 10
49.95815846381106
 20
0.0
 30
0.0
 11
50.0
 21
-0.0418415361889393
 31
0.0
  0
LINE
  5
BE5
330
1F
100
AcDbEntity
  8
SK1
  6
CONTINUOUS
370
50
 62
4
100
AcDbLine
 10
50.0
 20
0.3293895239339975
 30
0.0
 11
50.329389523934
 21
0.0
 31
0.0
  0
LINE
  5
BE6
330
1F
100
AcDbEntity
  8
SK1
  6
CONTINUOUS
370
50
 62
4
100
AcDbLine
 10
50.0
 20
0.7006205840569351
 30
0.0
 11
50.70062058405694
 21
0.0
 31
0.0
  0
LINE
  5
BE7
330
1F
100
AcDbEntity
  8
SK1
  6
CONTINUOUS
370
50
 62
4
100
AcDbLine
 10
50.0
 20
1.071851644179873
 30
0.0
 11
51.07185164417987
 21
0.0
 31
0.0
  0
LINE
  5
BE8
330
1F
100
AcDbEntity
  8
SK1
  6
CONTINUOUS
370
50
 62
4
100
AcDbLine
 10
50.0
 20
1.44308270430281
 30
0.0
 11
51.44308270430281
 21
0.0
 31
0.0
  0
LINE
  5
BE9
330
1F
100
AcDbEntity
  8
SK1
  6
CONTINUOUS
370
50
 62
4
100
AcDbLine
 10
50.0
 20
1.814313764425748
 30
0.0
 11
51.81431376442575
 21
0.0
 31
0.0
  0
LINE
  5
BEA
330
1F
100
AcDbEntity
  8
SK1
  6
CONTINUOUS
370
50
 62
4
100
AcDbLine
 10
50.0
 20
2.185544824548685
 30
0.0
 11
52.18554482454869
 21
0.0
 31
0.0
  0
LINE
  5
BEB
330
1F
100
AcDbEntity
  8
SK1
  6
CONTINUOUS
370
50
 62
4
100
AcDbLine
 10
50.0
 20
2.556775884671622
 30
0.0
 11
52.55677588467162
 21
0.0
 31
0.0
  0
LINE
  5
BEC
330
1F
100
AcDbEntity
  8
SK1
  6
CONTINUOUS
370
50
 62
4
100
AcDbLine
 10
50.3231531925751
 20
2.604853752219459
 30
0.0
 11
52.60485375221946
 21
0.3231531925751043
 31
0.0
  0
LINE
  5
BED
330
1F
100
AcDbEntity
  8
SK1
  6
CONTINUOUS
370
50
 62
4
100
AcDbLine
 10
50.79925237182748
 20
2.499985633090018
 30
0.0
 11
52.49998563309002
 21
0.7992523718274818
 31
0.0
  0
LINE
  5
BEE
330
1F
100
AcDbEntity
  8
SK1
  6
CONTINUOUS
370
50
 62
4
100
AcDbLine
 10
51.56015793098176
 20
2.11031113405868
 30
0.0
 11
52.11031113405868
 21
1.560157930981759
 31
0.0
  0
ARC
  5
BEF
330
1F
100
AcDbEntity
  8
SK6
  6
CONTINUOUS
370
25
 62
5
100
AcDbCircle
 10
151.4613820083765
 20
-26.19588155338786
 30
0.0
 40
2.76048912849221
100
AcDbArc
 50
338.9379403434233
 51
90.44457437511392
  0
LINE
  5
BF0
330
1F
100
AcDbEntity
  8
SK6
  6
CONTINUOUS
370
25
 62
5
100
AcDbLine
 10
151.4399627969598
 20
-23.43547552421281
 30
0.0
 11
151.4399627969598
 21
-24.53853415613463
 31
0.0
  0
ARC
  5
BF1
330
1F
100
AcDbEntity
  8
SK6
  6
CONTINUOUS
370
25
 62
5
100
AcDbCircle
 10
151.4505090293692
 20
-26.21587504566821
 30
0.0
 40
1.677374043771792
100
AcDbArc
 50
243.421470601786
 51
90.3602408122618
  0
ARC
  5
BF2
330
1F
100
AcDbEntity
  8
SK6
  6
CONTINUOUS
370
25
 62
5
100
AcDbCircle
 10
153.9727598968496
 20
-25.78446779215561
 30
0.0
 40
3.80021703002276
100
AcDbArc
 50
210.5483731288539
 51
236.9780169366802
  0
LINE
  5
BF3
330
1F
100
AcDbEntity
  8
SK6
  6
CONTINUOUS
370
25
 62
5
100
AcDbLine
 10
151.9017906851249
 20
-28.97080361867535
 30
0.0
 11
156.0437309674267
 21
-28.97080361867535
 31
0.0
  0
ARC
  5
BF4
330
1F
100
AcDbEntity
  8
SK6
  6
CONTINUOUS
370
25
 62
5
100
AcDbCircle
 10
153.9727618387726
 20
-25.7844678937346
 30
0.0
 40
3.80021689958248
100
AcDbArc
 50
303.021982847796
 51
326.3732153033476
  0
LINE
  5
BF5
330
1F
100
AcDbEntity
  8
SK6
  6
CONTINUOUS
370
25
 62
5
100
AcDbLine
 10
157.1370597513572
 20
-27.8889552907709
 30
0.0
 11
153.7797617057546
 21
-27.8889552907709
 31
0.0
  0
LINE
  5
BF6
330
1F
100
AcDbEntity
  8
SK6
  6
CONTINUOUS
370
25
 62
5
100
AcDbLine
 10
153.7797617057546
 20
-27.8889552907709
 30
0.0
 11
157.6996210977199
 21
-26.52755409641694
 31
0.0
  0
ARC
  5
BF7
330
1F
100
AcDbEntity
  8
SK6
  6
CONTINUOUS
370
25
 62
5
100
AcDbCircle
 10
153.9727625615721
 20
-25.7844684048594
 30
0.0
 40
3.800217216614737
100
AcDbArc
 50
348.7238644184696
 51
53.4691051260886
  0
LINE
  5
BF8
330
1F
100
AcDbEntity
  8
SK6
  6
CONTINUOUS
370
25
 62
5
100
AcDbLine
 10
156.2348652453854
 20
-22.73085704429967
 30
0.0
 11
154.0374504788273
 21
-27.18794553507058
 31
0.0
  0
ENDSEC
  0
SECTION
  2
OBJECTS
  0
DICTIONARY
  5
C
330
0
100
AcDbDictionary
281
     1
  3
ACAD_GROUP
350
D
  3
ACAD_LAYOUT
350
1A
  3
ACAD_MATERIAL
350
3B
  3
ACAD_MLEADERSTYLE
350
BFB
  3
ACAD_MLINESTYLE
350
17
  3
ACAD_PLOTSETTINGS
350
19
  3
ACAD_PLOTSTYLENAME
350
E
  3
ACAD_SCALELIST
350
43C
  3
ACAD_VISUALSTYLE
350
2A
  3
AcDbVariableDictionary
350
BF9
  0
DICTIONARY
  5
D
102
{ACAD_REACTORS
330
C
102
}
330
C
100
AcDbDictionary
281
     1
  0
DICTIONARY
  5
1A
102
{ACAD_REACTORS
330
C
102
}
330
C
100
AcDbDictionary
281
     1
  3
Layout1
350
1E
  3
Layout2
350
26
  3
Model
350
22
  0
DICTIONARY
  5
3B
102
{ACAD_REACTORS
330
C
102
}
330
C
100
AcDbDictionary
281
     1
  3
ByBlock
350
3D
  3
ByLayer
350
3C
  3
Global
350
3E
  0
DICTIONARY
  5
BFB
102
{ACAD_REACTORS
330
C
102
}
330
C
100
AcDbDictionary
281
     1
  0
DICTIONARY
  5
17
102
{ACAD_REACTORS
330
C
102
}
330
C
100
AcDbDictionary
281
     1
  3
Standard
350
18
  0
DICTIONARY
  5
19
102
{ACAD_REACTORS
330
C
102
}
330
C
100
AcDbDictionary
281
     1
  0
ACDBDICTIONARYWDFLT
  5
E
102
{ACAD_REACTORS
330
C
102
}
330
C
100
AcDbDictionary
281
     1
  3
Normal
350
F
100
AcDbDictionaryWithDefault
340
F
  0
DICTIONARY
  5
43C
102
{ACAD_REACTORS
330
C
102
}
330
C
100
AcDbDictionary
281
     1
  3
A0
350
43D
  3
A1
350
43E
  3
A2
350
43F
  3
A3
350
440
  3
A4
350
441
  3
A5
350
442
  3
A6
350
443
  3
A7
350
444
  3
A8
350
445
  3
A9
350
446
  3
B0
350
447
  3
B1
350
448
  3
B2
350
449
  3
B3
350
44A
  3
B4
350
44B
  3
B5
350
44C
  3
B6
350
44D
  3
B7
350
44E
  3
B8
350
44F
  3
B9
350
450
  3
C0
350
451
  3
C1
350
452
  3
C2
350
453
  3
C3
350
454
  3
C4
350
455
  3
C5
350
456
  3
C6
350
457
  3
C7
350
458
  3
C8
350
459
  3
C9
350
45A
  3
D0
350
45B
  3
D1
350
45C
  3
D2
350
45D
  0
DICTIONARY
  5
2A
102
{ACAD_REACTORS
330
C
102
}
330
C
100
AcDbDictionary
281
     1
  3
2dWireframe
350
2F
  3
3D Hidden
350
31
  3
3dWireframe
350
30
  3
Basic
350
32
  3
Brighten
350
36
  3
ColorChange
350
3A
  3
Conceptual
350
34
  3
Dim
350
35
  3
Facepattern
350
39
  3
Flat
350
2B
  3
FlatWithEdges
350
2C
  3
Gouraud
350
2D
  3
GouraudWithEdges
350
2E
  3
Linepattern
350
38
  3
Realistic
350
33
  3
Thicken
350
37
  0
DICTIONARY
  5
BF9
102
{ACAD_REACTORS
330
C
102
}
330
C
100
AcDbDictionary
281
     1
  3
CANNOSCALE
350
BFE
  3
DIMASSOC
350
BFF
  3
HIDETEXT
350
C00
  3
PSOLHEIGHT
350
BFD
  3
PSOLWIDTH
350
BFC
  0
LAYOUT
  5
1E
102
{ACAD_REACTORS
330
1A
102
}
330
1A
100
AcDbPlotSettings
  1

  2
none_device
  4

  6

 40
0.0
 41
0.0
 42
0.0
 43
0.0
 44
0.0
 45
0.0
 46
0.0
 47
0.0
 48
0.0
 49
0.0
140
0.0
141
0.0
142
1.0
143
1.0
 70
   688
 72
     0
 73
     0
 74
     5
  7

 75
    16
147
1.0
148
0.0
149
0.0
100
AcDbLayout
  1
Layout1
 70
     1
 71
     1
 10
0.0
 20
0.0
 11
420.0
 21
297.0
 12
0.0
 22
0.0
 32
0.0
 14
1.000000000000000E+20
 24
1.000000000000000E+20
 34
1.000000000000000E+20
 15
-1.000000000000000E+20
 25
-1.000000000000000E+20
 35
-1.000000000000000E+20
146
0.0
 13
0.0
 23
0.0
 33
0.0
 16
1.0
 26
0.0
 36
0.0
 17
0.0
 27
1.0
 37
0.0
 76
     0
330
1B
  0
LAYOUT
  5
26
102
{ACAD_REACTORS
330
1A
102
}
330
1A
100
AcDbPlotSettings
  1

  2
none_device
  4

  6

 40
0.0
 41
0.0
 42
0.0
 43
0.0
 44
0.0
 45
0.0
 46
0.0
 47
0.0
 48
0.0
 49
0.0
140
0.0
141
0.0
142
1.0
143
1.0
 70
   688
 72
     0
 73
     0
 74
     5
  7

 75
    16
147
1.0
148
0.0
149
0.0
100
AcDbLayout
  1
Layout2
 70
     1
 71
     2
 10
0.0
 20
0.0
 11
0.0
 21
0.0
 12
0.0
 22
0.0
 32
0.0
 14
0.0
 24
0.0
 34
0.0
 15
0.0
 25
0.0
 35
0.0
146
0.0
 13
0.0
 23
0.0
 33
0.0
 16
1.0
 26
0.0
 36
0.0
 17
0.0
 27
1.0
 37
0.0
 76
     0
330
23
  0
LAYOUT
  5
22
102
{ACAD_REACTORS
330
1A
102
}
330
1A
100
AcDbPlotSettings
  1

  2
none_device
  4

  6

 40
0.0
 41
0.0
 42
0.0
 43
0.0
 44
0.0
 45
0.0
 46
0.0
 47
0.0
 48
0.0
 49
0.0
140
0.0
141
0.0
142
1.0
143
1.0
 70
  1712
 72
     0
 73
     0
 74
     0
  7

 75
     0
147
1.0
148
0.0
149
0.0
100
AcDbLayout
  1
Model
 70
     1
 71
     0
 10
0.0
 20
0.0
 11
420.0
 21
297.0
 12
0.0
 22
0.0
 32
0.0
 14
0.0
 24
0.0
 34
0.0
 15
25.0
 25
35.0
 35
0.0
146
0.0
 13
0.0
 23
0.0
 33
0.0
 16
1.0
 26
0.0
 36
0.0
 17
0.0
 27
1.0
 37
0.0
 76
     0
330
1F
331
29
  0
MATERIAL
  5
3D
102
{ACAD_REACTORS
330
3B
102
}
102
{ACAD_XDICTIONARY
360
C23
102
}
330
3B
100
AcDbMaterial
  1
ByBlock
  0
MATERIAL
  5
3C
102
{ACAD_REACTORS
330
3B
102
}
102
{ACAD_XDICTIONARY
360
C21
102
}
330
3B
100
AcDbMaterial
  1
ByLayer
  0
MATERIAL
  5
3E
102
{ACAD_REACTORS
330
3B
102
}
102
{ACAD_XDICTIONARY
360
C25
102
}
330
3B
100
AcDbMaterial
  1
Global
  0
MLINESTYLE
  5
18
102
{ACAD_REACTORS
330
17
102
}
330
17
100
AcDbMlineStyle
  2
Standard
 70
     0
  3

 62
   256
 51
90.0
 52
90.0
 71
     2
 49
0.5
 62
   256
  6
BYLAYER
 49
-0.5
 62
   256
  6
BYLAYER
  0
ACDBPLACEHOLDER
  5
F
102
{ACAD_REACTORS
330
E
102
}
330
E
  0
SCALE
  5
43D
102
{ACAD_REACTORS
330
43C
102
}
330
43C
100
AcDbScale
 70
     0
300
1:1
140
1.0
141
1.0
290
     1
  0
SCALE
  5
43E
102
{ACAD_REACTORS
330
43C
102
}
330
43C
100
AcDbScale
 70
     0
300
1:2
140
1.0
141
2.0
290
     0
  0
SCALE
  5
43F
102
{ACAD_REACTORS
330
43C
102
}
330
43C
100
AcDbScale
 70
     0
300
1:4
140
1.0
141
4.0
290
     0
  0
SCALE
  5
440
102
{ACAD_REACTORS
330
43C
102
}
330
43C
100
AcDbScale
 70
     0
300
1:5
140
1.0
141
5.0
290
     0
  0
SCALE
  5
441
102
{ACAD_REACTORS
330
43C
102
}
330
43C
100
AcDbScale
 70
     0
300
1:8
140
1.0
141
8.0
290
     0
  0
SCALE
  5
442
102
{ACAD_REACTORS
330
43C
102
}
330
43C
100
AcDbScale
 70
     0
300
1:10
140
1.0
141
10.0
290
     0
  0
SCALE
  5
443
102
{ACAD_REACTORS
330
43C
102
}
330
43C
100
AcDbScale
 70
     0
300
1:16
140
1.0
141
16.0
290
     0
  0
SCALE
  5
444
102
{ACAD_REACTORS
330
43C
102
}
330
43C
100
AcDbScale
 70
     0
300
1:20
140
1.0
141
20.0
290
     0
  0
SCALE
  5
445
102
{ACAD_REACTORS
330
43C
102
}
330
43C
100
AcDbScale
 70
     0
300
1:30
140
1.0
141
30.0
290
     0
  0
SCALE
  5
446
102
{ACAD_REACTORS
330
43C
102
}
330
43C
100
AcDbScale
 70
     0
300
1:40
140
1.0
141
40.0
290
     0
  0
SCALE
  5
447
102
{ACAD_REACTORS
330
43C
102
}
330
43C
100
AcDbScale
 70
     0
300
1:50
140
1.0
141
50.0
290
     0
  0
SCALE
  5
448
102
{ACAD_REACTORS
330
43C
102
}
330
43C
100
AcDbScale
 70
     0
300
1:100
140
1.0
141
100.0
290
     0
  0
SCALE
  5
449
102
{ACAD_REACTORS
330
43C
102
}
330
43C
100
AcDbScale
 70
     0
300
2:1
140
2.0
141
1.0
290
     0
  0
SCALE
  5
44A
102
{ACAD_REACTORS
330
43C
102
}
330
43C
100
AcDbScale
 70
     0
300
4:1
140
4.0
141
1.0
290
     0
  0
SCALE
  5
44B
102
{ACAD_REACTORS
330
43C
102
}
330
43C
100
AcDbScale
 70
     0
300
8:1
140
8.0
141
1.0
290
     0
  0
SCALE
  5
44C
102
{ACAD_REACTORS
330
43C
102
}
330
43C
100
AcDbScale
 70
     0
300
10:1
140
10.0
141
1.0
290
     0
  0
SCALE
  5
44D
102
{ACAD_REACTORS
330
43C
102
}
330
43C
100
AcDbScale
 70
     0
300
100:1
140
100.0
141
1.0
290
     0
  0
SCALE
  5
44E
102
{ACAD_REACTORS
330
43C
102
}
330
43C
100
AcDbScale
 70
     0
300
1/128" = 1'-0"
140
0.0078125
141
12.0
290
     0
  0
SCALE
  5
44F
102
{ACAD_REACTORS
330
43C
102
}
330
43C
100
AcDbScale
 70
     0
300
1/64" = 1'-0"
140
0.015625
141
12.0
290
     0
  0
SCALE
  5
450
102
{ACAD_REACTORS
330
43C
102
}
330
43C
100
AcDbScale
 70
     0
300
1/32" = 1'-0"
140
0.03125
141
12.0
290
     0
  0
SCALE
  5
451
102
{ACAD_REACTORS
330
43C
102
}
330
43C
100
AcDbScale
 70
     0
300
1/16" = 1'-0"
140
0.0625
141
12.0
290
     0
  0
SCALE
  5
452
102
{ACAD_REACTORS
330
43C
102
}
330
43C
100
AcDbScale
 70
     0
300
3/32" = 1'-0"
140
0.09375
141
12.0
290
     0
  0
SCALE
  5
453
102
{ACAD_REACTORS
330
43C
102
}
330
43C
100
AcDbScale
 70
     0
300
1/8" = 1'-0"
140
0.125
141
12.0
290
     0
  0
SCALE
  5
454
102
{ACAD_REACTORS
330
43C
102
}
330
43C
100
AcDbScale
 70
     0
300
3/16" = 1'-0"
140
0.1875
141
12.0
290
     0
  0
SCALE
  5
455
102
{ACAD_REACTORS
330
43C
102
}
330
43C
100
AcDbScale
 70
     0
300
1/4" = 1'-0"
140
0.25
141
12.0
290
     0
  0
SCALE
  5
456
102
{ACAD_REACTORS
330
43C
102
}
330
43C
100
AcDbScale
 70
     0
300
3/8" = 1'-0"
140
0.375
141
12.0
290
     0
  0
SCALE
  5
457
102
{ACAD_REACTORS
330
43C
102
}
330
43C
100
AcDbScale
 70
     0
300
1/2" = 1'-0"
140
0.5
141
12.0
290
     0
  0
SCALE
  5
458
102
{ACAD_REACTORS
330
43C
102
}
330
43C
100
AcDbScale
 70
     0
300
3/4" = 1'-0"
140
0.75
141
12.0
290
     0
  0
SCALE
  5
459
102
{ACAD_REACTORS
330
43C
102
}
330
43C
100
AcDbScale
 70
     0
300
1" = 1'-0"
140
1.0
141
12.0
290
     0
  0
SCALE
  5
45A
102
{ACAD_REACTORS
330
43C
102
}
330
43C
100
AcDbScale
 70
     0
300
1-1/2" = 1'-0"
140
1.5
141
12.0
290
     0
  0
SCALE
  5
45B
102
{ACAD_REACTORS
330
43C
102
}
330
43C
100
AcDbScale
 70
     0
300
3" = 1'-0"
140
3.0
141
12.0
290
     0
  0
SCALE
  5
45C
102
{ACAD_REACTORS
330
43C
102
}
330
43C
100
AcDbScale
 70
     0
300
6" = 1'-0"
140
6.0
141
12.0
290
     0
  0
SCALE
  5
45D
102
{ACAD_REACTORS
330
43C
102
}
330
43C
100
AcDbScale
 70
     0
300
1'-0" = 1'-0"
140
12.0
141
12.0
290
     0
  0
VISUALSTYLE
  5
2F
102
{ACAD_REACTORS
330
2A
102
}
102
{ACAD_XDICTIONARY
360
C09
102
}
330
2A
100
AcDbVisualStyle
  2
2dWireframe
 70
     4
 71
     0
 72
     2
 73
     0
 90
        0
 40
-0.6
 41
-30.0
 62
     5
 63
     7
 74
     1
 91
        4
 64
     7
 65
   257
 75
     1
175
     1
 42
1.0
 92
        0
 66
   257
 43
1.0
 76
     1
 77
     6
 78
     2
 67
     7
 79
     5
170
     0
171
     0
290
     0
174
     0
 93
        1
 44
0.0
173
     0
291
     0
 45
0.0
1001
ACAD
1000
AcDbSavedByObjectVersion
1070
     0
  0
VISUALSTYLE
  5
31
102
{ACAD_REACTORS
330
2A
102
}
102
{ACAD_XDICTIONARY
360
C0D
102
}
330
2A
100
AcDbVisualStyle
  2
3D Hidden
 70
     6
 71
     1
 72
     2
 73
     2
 90
        0
 40
-0.6
 41
-30.0
 62
     5
 63
     7
 74
     2
 91
        2
 64
     7
 65
   257
 75
     2
175
     1
 42
40.0
 92
        0
 66
   257
 43
1.0
 76
     1
 77
     6
 78
     2
 67
     7
 79
     3
170
     0
171
     0
290
     0
174
     0
 93
        1
 44
0.0
173
     0
291
     0
 45
0.0
1001
ACAD
1000
AcDbSavedByObjectVersion
1070
     0
  0
VISUALSTYLE
  5
30
102
{ACAD_REACTORS
330
2A
102
}
102
{ACAD_XDICTIONARY
360
C0B
102
}
330
2A
100
AcDbVisualStyle
  2
3dWireframe
 70
     5
 71
     0
 72
     2
 73
     0
 90
        0
 40
-0.6
 41
-30.0
 62
     5
 63
     7
 74
     1
 91
        4
 64
     7
 65
   257
 75
     1
175
     1
 42
1.0
 92
        0
 66
   257
 43
1.0
 76
     1
 77
     6
 78
     2
 67
     7
 79
     5
170
     0
171
     0
290
     0
174
     0
 93
        1
 44
0.0
173
     0
291
     0
 45
0.0
1001
ACAD
1000
AcDbSavedByObjectVersion
1070
     0
  0
VISUALSTYLE
  5
32
102
{ACAD_REACTORS
330
2A
102
}
102
{ACAD_XDICTIONARY
360
C0F
102
}
330
2A
100
AcDbVisualStyle
  2
Basic
 70
     7
 71
     1
 72
     0
 73
     1
 90
        0
 40
-0.6
 41
-30.0
 62
     5
 63
     7
 74
     0
 91
        4
 64
     7
 65
   257
 75
     1
175
     1
 42
1.0
 92
        8
 66
     7
 43
1.0
 76
     1
 77
     6
 78
     2
 67
     7
 79
     5
170
     0
171
     0
290
     0
174
     0
 93
        1
 44
0.0
173
     0
291
     1
 45
0.0
1001
ACAD
1000
AcDbSavedByObjectVersion
1070
     0
  0
VISUALSTYLE
  5
36
102
{ACAD_REACTORS
330
2A
102
}
102
{ACAD_XDICTIONARY
360
C17
102
}
330
2A
100
AcDbVisualStyle
  2
Brighten
 70
    12
 71
     2
 72
     2
 73
     0
 90
        0
 40
-0.6
 41
-30.0
 62
     5
 63
     7
 74
     1
 91
        4
 64
     7
 65
   257
 75
     1
175
     1
 42
1.0
 92
        8
 66
     7
 43
1.0
 76
     1
 77
     6
 78
     2
 67
     7
 79
     5
170
     0
171
     0
290
     0
174
     0
 93
        1
 44
50.0
173
     0
291
     1
 45
0.0
1001
ACAD
1000
AcDbSavedByObjectVersion
1070
     0
  0
VISUALSTYLE
  5
3A
102
{ACAD_REACTORS
330
2A
102
}
102
{ACAD_XDICTIONARY
360
C1F
102
}
330
2A
100
AcDbVisualStyle
  2
ColorChange
 70
    16
 71
     2
 72
     2
 73
     3
 90
        0
 40
-0.6
 41
-30.0
 62
     5
 63
     8
 74
     1
 91
        4
 64
     7
 65
   257
 75
     1
175
     1
 42
1.0
 92
        8
 66
     8
 43
1.0
 76
     1
 77
     6
 78
     2
 67
     7
 79
     5
170
     0
171
     0
290
     0
174
     0
 93
        1
 44
0.0
173
     0
291
     1
 45
0.0
1001
ACAD
1000
AcDbSavedByObjectVersion
1070
     0
  0
VISUALSTYLE
  5
34
102
{ACAD_REACTORS
330
2A
102
}
102
{ACAD_XDICTIONARY
360
C13
102
}
330
2A
100
AcDbVisualStyle
  2
Conceptual
 70
     9
 71
     3
 72
     2
 73
     0
 90
        0
 40
-0.6
 41
-30.0
 62
     5
 63
     7
 74
     2
 91
        2
 64
     7
 65
   257
 75
     1
175
     1
 42
40.0
 92
        8
 66
     7
 43
1.0
 76
     1
 77
     6
 78
     2
 67
     7
 79
     3
170
     0
171
     0
290
     0
174
     0
 93
        1
 44
0.0
173
     0
291
     0
 45
0.0
1001
ACAD
1000
AcDbSavedByObjectVersion
1070
     0
  0
VISUALSTYLE
  5
35
102
{ACAD_REACTORS
330
2A
102
}
102
{ACAD_XDICTIONARY
360
C15
102
}
330
2A
100
AcDbVisualStyle
  2
Dim
 70
    11
 71
     2
 72
     2
 73
     0
 90
        0
 40
-0.6
 41
-30.0
 62
     5
 63
     7
 74
     1
 91
        4
 64
     7
 65
   257
 75
     1
175
     1
 42
1.0
 92
        8
 66
     7
 43
1.0
 76
     1
 77
     6
 78
     2
 67
     7
 79
     5
170
     0
171
     0
290
     0
174
     0
 93
        1
 44
-50.0
173
     0
291
     1
 45
0.0
1001
ACAD
1000
AcDbSavedByObjectVersion
1070
     0
  0
VISUALSTYLE
  5
39
102
{ACAD_REACTORS
330
2A
102
}
102
{ACAD_XDICTIONARY
360
C1D
102
}
330
2A
100
AcDbVisualStyle
  2
Facepattern
 70
    15
 71
     2
 72
     2
 73
     0
 90
        0
 40
-0.6
 41
-30.0
 62
     5
 63
     7
 74
     1
 91
        4
 64
     7
 65
   257
 75
     1
175
     1
 42
1.0
 92
        8
 66
     7
 43
1.0
 76
     1
 77
     6
 78
     2
 67
     7
 79
     5
170
     0
171
     0
290
     0
174
     0
 93
        1
 44
0.0
173
     0
291
     1
 45
0.0
1001
ACAD
1000
AcDbSavedByObjectVersion
1070
     0
  0
VISUALSTYLE
  5
2B
102
{ACAD_REACTORS
330
2A
102
}
102
{ACAD_XDICTIONARY
360
C01
102
}
330
2A
100
AcDbVisualStyle
  2
Flat
 70
     0
 71
     2
 72
     1
 73
     1
 90
        2
 40
-0.6
 41
30.0
 62
     5
 63
     7
 74
     0
 91
        4
 64
     7
 65
   257
 75
     1
175
     1
 42
1.0
 92
        8
 66
     7
 43
1.0
 76
     1
 77
     6
 78
     2
 67
     7
 79
     5
170
     0
171
     0
290
     0
174
     0
 93
       13
 44
0.0
173
     0
291
     1
 45
0.0
1001
ACAD
1000
AcDbSavedByObjectVersion
1070
     0
  0
VISUALSTYLE
  5
2C
102
{ACAD_REACTORS
330
2A
102
}
102
{ACAD_XDICTIONARY
360
C03
102
}
330
2A
100
AcDbVisualStyle
  2
FlatWithEdges
 70
     1
 71
     2
 72
     1
 73
     1
 90
        2
 40
-0.6
 41
30.0
 62
     5
 63
     7
 74
     1
 91
        4
 64
     7
 65
   257
 75
     1
175
     1
 42
1.0
 92
        0
 66
   257
 43
1.0
 76
     1
 77
     6
 78
     2
 67
     7
 79
     5
170
     0
171
     0
290
     0
174
     0
 93
       13
 44
0.0
173
     0
291
     1
 45
0.0
1001
ACAD
1000
AcDbSavedByObjectVersion
1070
     0
  0
VISUALSTYLE
  5
2D
102
{ACAD_REACTORS
330
2A
102
}
102
{ACAD_XDICTIONARY
360
C05
102
}
330
2A
100
AcDbVisualStyle
  2
Gouraud
 70
     2
 71
     2
 72
     2
 73
     1
 90
        2
 40
-0.6
 41
30.0
 62
     5
 63
     7
 74
     0
 91
        4
 64
     7
 65
   257
 75
     1
175
     1
 42
1.0
 92
        0
 66
     7
 43
1.0
 76
     1
 77
     6
 78
     2
 67
     7
 79
     5
170
     0
171
     0
290
     0
174
     0
 93
       13
 44
0.0
173
     0
291
     1
 45
0.0
1001
ACAD
1000
AcDbSavedByObjectVersion
1070
     0
  0
VISUALSTYLE
  5
2E
102
{ACAD_REACTORS
330
2A
102
}
102
{ACAD_XDICTIONARY
360
C07
102
}
330
2A
100
AcDbVisualStyle
  2
GouraudWithEdges
 70
     3
 71
     2
 72
     2
 73
     1
 90
        2
 40
-0.6
 41
30.0
 62
     5
 63
     7
 74
     1
 91
        4
 64
     7
 65
   257
 75
     1
175
     1
 42
1.0
 92
        0
 66
   257
 43
1.0
 76
     1
 77
     6
 78
     2
 67
     7
 79
     5
170
     0
171
     0
290
     0
174
     0
 93
       13
 44
0.0
173
     0
291
     1
 45
0.0
1001
ACAD
1000
AcDbSavedByObjectVersion
1070
     0
  0
VISUALSTYLE
  5
38
102
{ACAD_REACTORS
330
2A
102
}
102
{ACAD_XDICTIONARY
360
C1B
102
}
330
2A
100
AcDbVisualStyle
  2
Linepattern
 70
    14
 71
     2
 72
     2
 73
     0
 90
        0
 40
-0.6
 41
-30.0
 62
     5
 63
     7
 74
     1
 91
        4
 64
     7
 65
   257
 75
     7
175
     7
 42
1.0
 92
        8
 66
     7
 43
1.0
 76
     1
 77
     6
 78
     2
 67
     7
 79
     5
170
     0
171
     0
290
     0
174
     0
 93
        1
 44
0.0
173
     0
291
     1
 45
0.0
1001
ACAD
1000
AcDbSavedByObjectVersion
1070
     0
  0
VISUALSTYLE
  5
33
102
{ACAD_REACTORS
330
2A
102
}
102
{ACAD_XDICTIONARY
360
C11
102
}
330
2A
100
AcDbVisualStyle
  2
Realistic
 70
     8
 71
     2
 72
     2
 73
     0
 90
        0
 40
-0.6
 41
-30.0
 62
     5
 63
     7
 74
     1
 91
        0
 64
     7
 65
   257
 75
     1
175
     1
 42
1.0
 92
        8
 66
     8
 43
1.0
 76
     1
 77
     6
 78
     2
 67
     7
 79
     5
170
     0
171
     0
290
     0
174
     0
 93
       13
 44
0.0
173
     0
291
     0
 45
0.0
1001
ACAD
1000
AcDbSavedByObjectVersion
1070
     0
  0
VISUALSTYLE
  5
37
102
{ACAD_REACTORS
330
2A
102
}
102
{ACAD_XDICTIONARY
360
C19
102
}
330
2A
100
AcDbVisualStyle
  2
Thicken
 70
    13
 71
     2
 72
     2
 73
     0
 90
        0
 40
-0.6
 41
-30.0
 62
     5
 63
     7
 74
     1
 91
        4
 64
     7
 65
   257
 75
     1
175
     1
 42
1.0
 92
       12
 66
     7
 43
1.0
 76
     1
 77
     6
 78
     2
 67
     7
 79
     5
170
     0
171
     0
290
     0
174
     0
 93
        1
 44
0.0
173
     0
291
     1
 45
0.0
1001
ACAD
1000
AcDbSavedByObjectVersion
1070
     0
  0
DICTIONARYVAR
  5
BFE
102
{ACAD_REACTORS
330
BF9
102
}
330
BF9
100
DictionaryVariables
280
     0
  1
1:1
  0
DICTIONARYVAR
  5
BFF
102
{ACAD_REACTORS
330
BF9
102
}
330
BF9
100
DictionaryVariables
280
     0
  1
2
  0
DICTIONARYVAR
  5
C00
102
{ACAD_REACTORS
330
BF9
102
}
330
BF9
100
DictionaryVariables
280
     0
  1
1
  0
DICTIONARYVAR
  5
BFD
102
{ACAD_REACTORS
330
BF9
102
}
330
BF9
100
DictionaryVariables
280
     0
  1
80.000000
  0
DICTIONARYVAR
  5
BFC
102
{ACAD_REACTORS
330
BF9
102
}
330
BF9
100
DictionaryVariables
280
     0
  1
5.000000
  0
DICTIONARY
  5
C23
330
3D
100
AcDbDictionary
280
     1
281
     1
  3
ACAD_XREC_ROUNDTRIP
360
C24
  0
DICTIONARY
  5
C21
330
3C
100
AcDbDictionary
280
     1
281
     1
  3
ACAD_XREC_ROUNDTRIP
360
C22
  0
DICTIONARY
  5
C25
330
3E
100
AcDbDictionary
280
     1
281
     1
  3
ACAD_XREC_ROUNDTRIP
360
C26
  0
DICTIONARY
  5
C09
330
2F
100
AcDbDictionary
280
     1
281
     1
  3
ACAD_XREC_ROUNDTRIP
360
C0A
  0
DICTIONARY
  5
C0D
330
31
100
AcDbDictionary
280
     1
281
     1
  3
ACAD_XREC_ROUNDTRIP
360
C0E
  0
DICTIONARY
  5
C0B
330
30
100
AcDbDictionary
280
     1
281
     1
  3
ACAD_XREC_ROUNDTRIP
360
C0C
  0
DICTIONARY
  5
C0F
330
32
100
AcDbDictionary
280
     1
281
     1
  3
ACAD_XREC_ROUNDTRIP
360
C10
  0
DICTIONARY
  5
C17
330
36
100
AcDbDictionary
280
     1
281
     1
  3
ACAD_XREC_ROUNDTRIP
360
C18
  0
DICTIONARY
  5
C1F
330
3A
100
AcDbDictionary
280
     1
281
     1
  3
ACAD_XREC_ROUNDTRIP
360
C20
  0
DICTIONARY
  5
C13
330
34
100
AcDbDictionary
280
     1
281
     1
  3
ACAD_XREC_ROUNDTRIP
360
C14
  0
DICTIONARY
  5
C15
330
35
100
AcDbDictionary
280
     1
281
     1
  3
ACAD_XREC_ROUNDTRIP
360
C16
  0
DICTIONARY
  5
C1D
330
39
100
AcDbDictionary
280
     1
281
     1
  3
ACAD_XREC_ROUNDTRIP
360
C1E
  0
DICTIONARY
  5
C01
330
2B
100
AcDbDictionary
280
     1
281
     1
  3
ACAD_XREC_ROUNDTRIP
360
C02
  0
DICTIONARY
  5
C03
330
2C
100
AcDbDictionary
280
     1
281
     1
  3
ACAD_XREC_ROUNDTRIP
360
C04
  0
DICTIONARY
  5
C05
330
2D
100
AcDbDictionary
280
     1
281
     1
  3
ACAD_XREC_ROUNDTRIP
360
C06
  0
DICTIONARY
  5
C07
330
2E
100
AcDbDictionary
280
     1
281
     1
  3
ACAD_XREC_ROUNDTRIP
360
C08
  0
DICTIONARY
  5
C1B
330
38
100
AcDbDictionary
280
     1
281
     1
  3
ACAD_XREC_ROUNDTRIP
360
C1C
  0
DICTIONARY
  5
C11
330
33
100
AcDbDictionary
280
     1
281
     1
  3
ACAD_XREC_ROUNDTRIP
360
C12
  0
DICTIONARY
  5
C19
330
37
100
AcDbDictionary
280
     1
281
     1
  3
ACAD_XREC_ROUNDTRIP
360
C1A
  0
XRECORD
  5
C24
102
{ACAD_REACTORS
330
C23
102
}
330
C23
100
AcDbXrecord
280
     1
102
MATERIAL
148
0.0
149
0.0
149
0.0
 93
        0
 94
      127
282
     0
 72
     1
 77
     1
171
     1
175
     1
179
     1
273
     0
  0
XRECORD
  5
C22
102
{ACAD_REACTORS
330
C21
102
}
330
C21
100
AcDbXrecord
280
     1
102
MATERIAL
148
0.0
149
0.0
149
0.0
 93
        0
 94
      127
282
     0
 72
     1
 77
     1
171
     1
175
     1
179
     1
273
     0
  0
XRECORD
  5
C26
102
{ACAD_REACTORS
330
C25
102
}
330
C25
100
AcDbXrecord
280
     1
102
MATERIAL
148
0.0
149
0.0
149
0.0
 93
        0
 94
      127
282
     0
 72
     1
 77
     1
171
     1
175
     1
179
     1
273
     0
  0
XRECORD
  5
C0A
102
{ACAD_REACTORS
330
C09
102
}
330
C09
100
AcDbXrecord
280
     1
102
RTVSPropertyOp0
 70
     1
102
RTVSPropertyOp1
 70
     1
102
RTVSPropertyOp2
 70
     1
102
RTVSPropertyOp3
 70
     1
102
RTVSPropertyOp4
 70
     1
102
RTVSPropertyOp5
 70
     1
102
RTVSPropertyOp6
 70
     1
102
RTVSPropertyOp7
 70
     1
102
RTVSPropertyOp8
 70
     1
102
RTVSPropertyOp9
 70
     1
102
RTVSPropertyOp10
 70
     1
102
RTVSPropertyOp11
 70
     1
102
RTVSPropertyOp12
 70
     1
102
RTVSPropertyOp13
 70
     1
102
RTVSPropertyOp14
 70
     1
102
RTVSPropertyOp15
 70
     1
102
RTVSPropertyOp16
 70
     1
102
RTVSPropertyOp17
 70
     1
102
RTVSPropertyOp18
 70
     1
102
RTVSPropertyOp19
 70
     1
102
RTVSPropertyOp20
 70
     1
102
RTVSPropertyOp21
 70
     1
102
RTVSPropertyOp22
 70
     1
102
RTVSPropertyOp23
 70
     1
102
RTVSPropertyOp24
 70
     1
102
RTVSPropertyOp25
 70
     1
102
RTVSPropertyOp26
 70
     1
102
RTVSPropertyOp27
 70
     1
  0
XRECORD
  5
C0E
102
{ACAD_REACTORS
330
C0D
102
}
330
C0D
100
AcDbXrecord
280
     1
102
RTVSPropertyOp0
 70
     1
102
RTVSPropertyOp1
 70
     1
102
RTVSPropertyOp2
 70
     1
102
RTVSPropertyOp3
 70
     1
102
RTVSPropertyOp4
 70
     1
102
RTVSPropertyOp5
 70
     1
102
RTVSPropertyOp6
 70
     1
102
RTVSPropertyOp7
 70
     1
102
RTVSPropertyOp8
 70
     1
102
RTVSPropertyOp9
 70
     1
102
RTVSPropertyOp10
 70
     1
102
RTVSPropertyOp11
 70
     1
102
RTVSPropertyOp12
 70
     1
102
RTVSPropertyOp13
 70
     1
102
RTVSPropertyOp14
 70
     1
102
RTVSPropertyOp15
 70
     1
102
RTVSPropertyOp16
 70
     1
102
RTVSPropertyOp17
 70
     1
102
RTVSPropertyOp18
 70
     1
102
RTVSPropertyOp19
 70
     1
102
RTVSPropertyOp20
 70
     1
102
RTVSPropertyOp21
 70
     1
102
RTVSPropertyOp22
 70
     1
102
RTVSPropertyOp23
 70
     1
102
RTVSPropertyOp24
 70
     1
102
RTVSPropertyOp25
 70
     1
102
RTVSPropertyOp26
 70
     1
102
RTVSPropertyOp27
 70
     1
  0
XRECORD
  5
C0C
102
{ACAD_REACTORS
330
C0B
102
}
330
C0B
100
AcDbXrecord
280
     1
102
RTVSPropertyOp0
 70
     1
102
RTVSPropertyOp1
 70
     1
102
RTVSPropertyOp2
 70
     1
102
RTVSPropertyOp3
 70
     1
102
RTVSPropertyOp4
 70
     1
102
RTVSPropertyOp5
 70
     1
102
RTVSPropertyOp6
 70
     1
102
RTVSPropertyOp7
 70
     1
102
RTVSPropertyOp8
 70
     1
102
RTVSPropertyOp9
 70
     1
102
RTVSPropertyOp10
 70
     1
102
RTVSPropertyOp11
 70
     1
102
RTVSPropertyOp12
 70
     1
102
RTVSPropertyOp13
 70
     1
102
RTVSPropertyOp14
 70
     1
102
RTVSPropertyOp15
 70
     1
102
RTVSPropertyOp16
 70
     1
102
RTVSPropertyOp17
 70
     1
102
RTVSPropertyOp18
 70
     1
102
RTVSPropertyOp19
 70
     1
102
RTVSPropertyOp20
 70
     1
102
RTVSPropertyOp21
 70
     1
102
RTVSPropertyOp22
 70
     1
102
RTVSPropertyOp23
 70
     1
102
RTVSPropertyOp24
 70
     1
102
RTVSPropertyOp25
 70
     1
102
RTVSPropertyOp26
 70
     1
102
RTVSPropertyOp27
 70
     1
  0
XRECORD
  5
C10
102
{ACAD_REACTORS
330
C0F
102
}
330
C0F
100
AcDbXrecord
280
     1
102
RTVSPropertyOp0
 70
     1
102
RTVSPropertyOp1
 70
     1
102
RTVSPropertyOp2
 70
     1
102
RTVSPropertyOp3
 70
     1
102
RTVSPropertyOp4
 70
     1
102
RTVSPropertyOp5
 70
     1
102
RTVSPropertyOp6
 70
     1
102
RTVSPropertyOp7
 70
     1
102
RTVSPropertyOp8
 70
     1
102
RTVSPropertyOp9
 70
     1
102
RTVSPropertyOp10
 70
     1
102
RTVSPropertyOp11
 70
     1
102
RTVSPropertyOp12
 70
     1
102
RTVSPropertyOp13
 70
     1
102
RTVSPropertyOp14
 70
     1
102
RTVSPropertyOp15
 70
     1
102
RTVSPropertyOp16
 70
     1
102
RTVSPropertyOp17
 70
     1
102
RTVSPropertyOp18
 70
     1
102
RTVSPropertyOp19
 70
     1
102
RTVSPropertyOp20
 70
     1
102
RTVSPropertyOp21
 70
     1
102
RTVSPropertyOp22
 70
     1
102
RTVSPropertyOp23
 70
     1
102
RTVSPropertyOp24
 70
     1
102
RTVSPropertyOp25
 70
     1
102
RTVSPropertyOp26
 70
     1
102
RTVSPropertyOp27
 70
     1
  0
XRECORD
  5
C18
102
{ACAD_REACTORS
330
C17
102
}
330
C17
100
AcDbXrecord
280
     1
102
RTVSPropertyOp0
 70
     1
102
RTVSPropertyOp1
 70
     1
102
RTVSPropertyOp2
 70
     1
102
RTVSPropertyOp3
 70
     1
102
RTVSPropertyOp4
 70
     1
102
RTVSPropertyOp5
 70
     1
102
RTVSPropertyOp6
 70
     1
102
RTVSPropertyOp7
 70
     1
102
RTVSPropertyOp8
 70
     1
102
RTVSPropertyOp9
 70
     1
102
RTVSPropertyOp10
 70
     1
102
RTVSPropertyOp11
 70
     1
102
RTVSPropertyOp12
 70
     1
102
RTVSPropertyOp13
 70
     1
102
RTVSPropertyOp14
 70
     1
102
RTVSPropertyOp15
 70
     1
102
RTVSPropertyOp16
 70
     1
102
RTVSPropertyOp17
 70
     1
102
RTVSPropertyOp18
 70
     1
102
RTVSPropertyOp19
 70
     1
102
RTVSPropertyOp20
 70
     1
102
RTVSPropertyOp21
 70
     1
102
RTVSPropertyOp22
 70
     1
102
RTVSPropertyOp23
 70
     1
102
RTVSPropertyOp24
 70
     1
102
RTVSPropertyOp25
 70
     1
102
RTVSPropertyOp26
 70
     1
102
RTVSPropertyOp27
 70
     1
  0
XRECORD
  5
C20
102
{ACAD_REACTORS
330
C1F
102
}
330
C1F
100
AcDbXrecord
280
     1
102
RTVSPropertyOp0
 70
     1
102
RTVSPropertyOp1
 70
     1
102
RTVSPropertyOp2
 70
     1
102
RTVSPropertyOp3
 70
     1
102
RTVSPropertyOp4
 70
     1
102
RTVSPropertyOp5
 70
     1
102
RTVSPropertyOp6
 70
     1
102
RTVSPropertyOp7
 70
     1
102
RTVSPropertyOp8
 70
     1
102
RTVSPropertyOp9
 70
     1
102
RTVSPropertyOp10
 70
     1
102
RTVSPropertyOp11
 70
     1
102
RTVSPropertyOp12
 70
     1
102
RTVSPropertyOp13
 70
     1
102
RTVSPropertyOp14
 70
     1
102
RTVSPropertyOp15
 70
     1
102
RTVSPropertyOp16
 70
     1
102
RTVSPropertyOp17
 70
     1
102
RTVSPropertyOp18
 70
     1
102
RTVSPropertyOp19
 70
     1
102
RTVSPropertyOp20
 70
     1
102
RTVSPropertyOp21
 70
     1
102
RTVSPropertyOp22
 70
     1
102
RTVSPropertyOp23
 70
     1
102
RTVSPropertyOp24
 70
     1
102
RTVSPropertyOp25
 70
     1
102
RTVSPropertyOp26
 70
     1
102
RTVSPropertyOp27
 70
     1
  0
XRECORD
  5
C14
102
{ACAD_REACTORS
330
C13
102
}
330
C13
100
AcDbXrecord
280
     1
102
RTVSPropertyOp0
 70
     1
102
RTVSPropertyOp1
 70
     1
102
RTVSPropertyOp2
 70
     1
102
RTVSPropertyOp3
 70
     1
102
RTVSPropertyOp4
 70
     1
102
RTVSPropertyOp5
 70
     1
102
RTVSPropertyOp6
 70
     1
102
RTVSPropertyOp7
 70
     1
102
RTVSPropertyOp8
 70
     1
102
RTVSPropertyOp9
 70
     1
102
RTVSPropertyOp10
 70
     1
102
RTVSPropertyOp11
 70
     1
102
RTVSPropertyOp12
 70
     1
102
RTVSPropertyOp13
 70
     1
102
RTVSPropertyOp14
 70
     1
102
RTVSPropertyOp15
 70
     1
102
RTVSPropertyOp16
 70
     1
102
RTVSPropertyOp17
 70
     1
102
RTVSPropertyOp18
 70
     1
102
RTVSPropertyOp19
 70
     1
102
RTVSPropertyOp20
 70
     1
102
RTVSPropertyOp21
 70
     1
102
RTVSPropertyOp22
 70
     1
102
RTVSPropertyOp23
 70
     1
102
RTVSPropertyOp24
 70
     1
102
RTVSPropertyOp25
 70
     1
102
RTVSPropertyOp26
 70
     1
102
RTVSPropertyOp27
 70
     1
  0
XRECORD
  5
C16
102
{ACAD_REACTORS
330
C15
102
}
330
C15
100
AcDbXrecord
280
     1
102
RTVSPropertyOp0
 70
     1
102
RTVSPropertyOp1
 70
     1
102
RTVSPropertyOp2
 70
     1
102
RTVSPropertyOp3
 70
     1
102
RTVSPropertyOp4
 70
     1
102
RTVSPropertyOp5
 70
     1
102
RTVSPropertyOp6
 70
     1
102
RTVSPropertyOp7
 70
     1
102
RTVSPropertyOp8
 70
     1
102
RTVSPropertyOp9
 70
     1
102
RTVSPropertyOp10
 70
     1
102
RTVSPropertyOp11
 70
     1
102
RTVSPropertyOp12
 70
     1
102
RTVSPropertyOp13
 70
     1
102
RTVSPropertyOp14
 70
     1
102
RTVSPropertyOp15
 70
     1
102
RTVSPropertyOp16
 70
     1
102
RTVSPropertyOp17
 70
     1
102
RTVSPropertyOp18
 70
     1
102
RTVSPropertyOp19
 70
     1
102
RTVSPropertyOp20
 70
     1
102
RTVSPropertyOp21
 70
     1
102
RTVSPropertyOp22
 70
     1
102
RTVSPropertyOp23
 70
     1
102
RTVSPropertyOp24
 70
     1
102
RTVSPropertyOp25
 70
     1
102
RTVSPropertyOp26
 70
     1
102
RTVSPropertyOp27
 70
     1
  0
XRECORD
  5
C1E
102
{ACAD_REACTORS
330
C1D
102
}
330
C1D
100
AcDbXrecord
280
     1
102
RTVSPropertyOp0
 70
     1
102
RTVSPropertyOp1
 70
     1
102
RTVSPropertyOp2
 70
     1
102
RTVSPropertyOp3
 70
     1
102
RTVSPropertyOp4
 70
     1
102
RTVSPropertyOp5
 70
     1
102
RTVSPropertyOp6
 70
     1
102
RTVSPropertyOp7
 70
     1
102
RTVSPropertyOp8
 70
     1
102
RTVSPropertyOp9
 70
     1
102
RTVSPropertyOp10
 70
     1
102
RTVSPropertyOp11
 70
     1
102
RTVSPropertyOp12
 70
     1
102
RTVSPropertyOp13
 70
     1
102
RTVSPropertyOp14
 70
     1
102
RTVSPropertyOp15
 70
     1
102
RTVSPropertyOp16
 70
     1
102
RTVSPropertyOp17
 70
     1
102
RTVSPropertyOp18
 70
     1
102
RTVSPropertyOp19
 70
     1
102
RTVSPropertyOp20
 70
     1
102
RTVSPropertyOp21
 70
     1
102
RTVSPropertyOp22
 70
     1
102
RTVSPropertyOp23
 70
     1
102
RTVSPropertyOp24
 70
     1
102
RTVSPropertyOp25
 70
     1
102
RTVSPropertyOp26
 70
     1
102
RTVSPropertyOp27
 70
     1
  0
XRECORD
  5
C02
102
{ACAD_REACTORS
330
C01
102
}
330
C01
100
AcDbXrecord
280
     1
102
RTVSPropertyOp0
 70
     1
102
RTVSPropertyOp1
 70
     1
102
RTVSPropertyOp2
 70
     1
102
RTVSPropertyOp3
 70
     1
102
RTVSPropertyOp4
 70
     1
102
RTVSPropertyOp5
 70
     1
102
RTVSPropertyOp6
 70
     1
102
RTVSPropertyOp7
 70
     1
102
RTVSPropertyOp8
 70
     1
102
RTVSPropertyOp9
 70
     1
102
RTVSPropertyOp10
 70
     1
102
RTVSPropertyOp11
 70
     1
102
RTVSPropertyOp12
 70
     1
102
RTVSPropertyOp13
 70
     1
102
RTVSPropertyOp14
 70
     1
102
RTVSPropertyOp15
 70
     1
102
RTVSPropertyOp16
 70
     1
102
RTVSPropertyOp17
 70
     1
102
RTVSPropertyOp18
 70
     1
102
RTVSPropertyOp19
 70
     1
102
RTVSPropertyOp20
 70
     1
102
RTVSPropertyOp21
 70
     1
102
RTVSPropertyOp22
 70
     1
102
RTVSPropertyOp23
 70
     1
102
RTVSPropertyOp24
 70
     1
102
RTVSPropertyOp25
 70
     1
102
RTVSPropertyOp26
 70
     1
102
RTVSPropertyOp27
 70
     1
  0
XRECORD
  5
C04
102
{ACAD_REACTORS
330
C03
102
}
330
C03
100
AcDbXrecord
280
     1
102
RTVSPropertyOp0
 70
     1
102
RTVSPropertyOp1
 70
     1
102
RTVSPropertyOp2
 70
     1
102
RTVSPropertyOp3
 70
     1
102
RTVSPropertyOp4
 70
     1
102
RTVSPropertyOp5
 70
     1
102
RTVSPropertyOp6
 70
     1
102
RTVSPropertyOp7
 70
     1
102
RTVSPropertyOp8
 70
     1
102
RTVSPropertyOp9
 70
     1
102
RTVSPropertyOp10
 70
     1
102
RTVSPropertyOp11
 70
     1
102
RTVSPropertyOp12
 70
     1
102
RTVSPropertyOp13
 70
     1
102
RTVSPropertyOp14
 70
     1
102
RTVSPropertyOp15
 70
     1
102
RTVSPropertyOp16
 70
     1
102
RTVSPropertyOp17
 70
     1
102
RTVSPropertyOp18
 70
     1
102
RTVSPropertyOp19
 70
     1
102
RTVSPropertyOp20
 70
     1
102
RTVSPropertyOp21
 70
     1
102
RTVSPropertyOp22
 70
     1
102
RTVSPropertyOp23
 70
     1
102
RTVSPropertyOp24
 70
     1
102
RTVSPropertyOp25
 70
     1
102
RTVSPropertyOp26
 70
     1
102
RTVSPropertyOp27
 70
     1
  0
XRECORD
  5
C06
102
{ACAD_REACTORS
330
C05
102
}
330
C05
100
AcDbXrecord
280
     1
102
RTVSPropertyOp0
 70
     1
102
RTVSPropertyOp1
 70
     1
102
RTVSPropertyOp2
 70
     1
102
RTVSPropertyOp3
 70
     1
102
RTVSPropertyOp4
 70
     1
102
RTVSPropertyOp5
 70
     1
102
RTVSPropertyOp6
 70
     1
102
RTVSPropertyOp7
 70
     1
102
RTVSPropertyOp8
 70
     1
102
RTVSPropertyOp9
 70
     1
102
RTVSPropertyOp10
 70
     1
102
RTVSPropertyOp11
 70
     1
102
RTVSPropertyOp12
 70
     1
102
RTVSPropertyOp13
 70
     1
102
RTVSPropertyOp14
 70
     1
102
RTVSPropertyOp15
 70
     1
102
RTVSPropertyOp16
 70
     1
102
RTVSPropertyOp17
 70
     1
102
RTVSPropertyOp18
 70
     1
102
RTVSPropertyOp19
 70
     1
102
RTVSPropertyOp20
 70
     1
102
RTVSPropertyOp21
 70
     1
102
RTVSPropertyOp22
 70
     1
102
RTVSPropertyOp23
 70
     1
102
RTVSPropertyOp24
 70
     1
102
RTVSPropertyOp25
 70
     1
102
RTVSPropertyOp26
 70
     1
102
RTVSPropertyOp27
 70
     1
  0
XRECORD
  5
C08
102
{ACAD_REACTORS
330
C07
102
}
330
C07
100
AcDbXrecord
280
     1
102
RTVSPropertyOp0
 70
     1
102
RTVSPropertyOp1
 70
     1
102
RTVSPropertyOp2
 70
     1
102
RTVSPropertyOp3
 70
     1
102
RTVSPropertyOp4
 70
     1
102
RTVSPropertyOp5
 70
     1
102
RTVSPropertyOp6
 70
     1
102
RTVSPropertyOp7
 70
     1
102
RTVSPropertyOp8
 70
     1
102
RTVSPropertyOp9
 70
     1
102
RTVSPropertyOp10
 70
     1
102
RTVSPropertyOp11
 70
     1
102
RTVSPropertyOp12
 70
     1
102
RTVSPropertyOp13
 70
     1
102
RTVSPropertyOp14
 70
     1
102
RTVSPropertyOp15
 70
     1
102
RTVSPropertyOp16
 70
     1
102
RTVSPropertyOp17
 70
     1
102
RTVSPropertyOp18
 70
     1
102
RTVSPropertyOp19
 70
     1
102
RTVSPropertyOp20
 70
     1
102
RTVSPropertyOp21
 70
     1
102
RTVSPropertyOp22
 70
     1
102
RTVSPropertyOp23
 70
     1
102
RTVSPropertyOp24
 70
     1
102
RTVSPropertyOp25
 70
     1
102
RTVSPropertyOp26
 70
     1
102
RTVSPropertyOp27
 70
     1
  0
XRECORD
  5
C1C
102
{ACAD_REACTORS
330
C1B
102
}
330
C1B
100
AcDbXrecord
280
     1
102
RTVSPropertyOp0
 70
     1
102
RTVSPropertyOp1
 70
     1
102
RTVSPropertyOp2
 70
     1
102
RTVSPropertyOp3
 70
     1
102
RTVSPropertyOp4
 70
     1
102
RTVSPropertyOp5
 70
     1
102
RTVSPropertyOp6
 70
     1
102
RTVSPropertyOp7
 70
     1
102
RTVSPropertyOp8
 70
     1
102
RTVSPropertyOp9
 70
     1
102
RTVSPropertyOp10
 70
     1
102
RTVSPropertyOp11
 70
     1
102
RTVSPropertyOp12
 70
     1
102
RTVSPropertyOp13
 70
     1
102
RTVSPropertyOp14
 70
     1
102
RTVSPropertyOp15
 70
     1
102
RTVSPropertyOp16
 70
     1
102
RTVSPropertyOp17
 70
     1
102
RTVSPropertyOp18
 70
     1
102
RTVSPropertyOp19
 70
     1
102
RTVSPropertyOp20
 70
     1
102
RTVSPropertyOp21
 70
     1
102
RTVSPropertyOp22
 70
     1
102
RTVSPropertyOp23
 70
     1
102
RTVSPropertyOp24
 70
     1
102
RTVSPropertyOp25
 70
     1
102
RTVSPropertyOp26
 70
     1
102
RTVSPropertyOp27
 70
     1
  0
XRECORD
  5
C12
102
{ACAD_REACTORS
330
C11
102
}
330
C11
100
AcDbXrecord
280
     1
102
RTVSPropertyOp0
 70
     1
102
RTVSPropertyOp1
 70
     1
102
RTVSPropertyOp2
 70
     1
102
RTVSPropertyOp3
 70
     1
102
RTVSPropertyOp4
 70
     1
102
RTVSPropertyOp5
 70
     1
102
RTVSPropertyOp6
 70
     1
102
RTVSPropertyOp7
 70
     1
102
RTVSPropertyOp8
 70
     1
102
RTVSPropertyOp9
 70
     1
102
RTVSPropertyOp10
 70
     1
102
RTVSPropertyOp11
 70
     1
102
RTVSPropertyOp12
 70
     1
102
RTVSPropertyOp13
 70
     1
102
RTVSPropertyOp14
 70
     1
102
RTVSPropertyOp15
 70
     1
102
RTVSPropertyOp16
 70
     1
102
RTVSPropertyOp17
 70
     1
102
RTVSPropertyOp18
 70
     1
102
RTVSPropertyOp19
 70
     1
102
RTVSPropertyOp20
 70
     1
102
RTVSPropertyOp21
 70
     1
102
RTVSPropertyOp22
 70
     1
102
RTVSPropertyOp23
 70
     1
102
RTVSPropertyOp24
 70
     1
102
RTVSPropertyOp25
 70
     1
102
RTVSPropertyOp26
 70
     1
102
RTVSPropertyOp27
 70
     1
  0
XRECORD
  5
C1A
102
{ACAD_REACTORS
330
C19
102
}
330
C19
100
AcDbXrecord
280
     1
102
RTVSPropertyOp0
 70
     1
102
RTVSPropertyOp1
 70
     1
102
RTVSPropertyOp2
 70
     1
102
RTVSPropertyOp3
 70
     1
102
RTVSPropertyOp4
 70
     1
102
RTVSPropertyOp5
 70
     1
102
RTVSPropertyOp6
 70
     1
102
RTVSPropertyOp7
 70
     1
102
RTVSPropertyOp8
 70
     1
102
RTVSPropertyOp9
 70
     1
102
RTVSPropertyOp10
 70
     1
102
RTVSPropertyOp11
 70
     1
102
RTVSPropertyOp12
 70
     1
102
RTVSPropertyOp13
 70
     1
102
RTVSPropertyOp14
 70
     1
102
RTVSPropertyOp15
 70
     1
102
RTVSPropertyOp16
 70
     1
102
RTVSPropertyOp17
 70
     1
102
RTVSPropertyOp18
 70
     1
102
RTVSPropertyOp19
 70
     1
102
RTVSPropertyOp20
 70
     1
102
RTVSPropertyOp21
 70
     1
102
RTVSPropertyOp22
 70
     1
102
RTVSPropertyOp23
 70
     1
102
RTVSPropertyOp24
 70
     1
102
RTVSPropertyOp25
 70
     1
102
RTVSPropertyOp26
 70
     1
102
RTVSPropertyOp27
 70
     1
  0
ENDSEC
  0
EOF
