  0
SECTION
  2
HEADER
  9
$ACADVER
  1
AC1015
  9
$ACADMAINTVER
 70
     6
  9
$DWGCODEPAGE
  3
ANSI_1252
  9
$INSBASE
 10
0.0
 20
0.0
 30
0.0
  9
$EXTMIN
 10
0.0
 20
0.0
 30
0.0
  9
$EXTMAX
 10
25.0
 20
35.0
 30
0.0
  9
$LIMMIN
 10
0.0
 20
0.0
  9
$LIMMAX
 10
420.0
 20
297.0
  9
$ORTHOMODE
 70
     0
  9
$REGENMODE
 70
     1
  9
$FILLMODE
 70
     1
  9
$QTEXTMODE
 70
     0
  9
$MIRRTEXT
 70
     1
  9
$LTSCALE
 40
5.1
  9
$ATTMODE
 70
     1
  9
$TEXTSIZE
 40
2.5
  9
$TRACEWID
 40
1.0
  9
$TEXTSTYLE
  7
Standard
  9
$CLAYER
  8
0
  9
$CELTYPE
  6
ByLayer
  9
$CECOLOR
 62
   256
  9
$CELTSCALE
 40
1.0
  9
$DISPSILH
 70
     0
  9
$DIMSCALE
 40
1.0
  9
$DIMASZ
 40
2.5
  9
$DIMEXO
 40
0.625
  9
$DIMDLI
 40
3.75
  9
$DIMRND
 40
0.0
  9
$DIMDLE
 40
0.0
  9
$DIMEXE
 40
1.25
  9
$DIMTP
 40
0.0
  9
$DIMTM
 40
0.0
  9
$DIMTXT
 40
2.5
  9
$DIMCEN
 40
2.5
  9
$DIMTSZ
 40
0.0
  9
$DIMTOL
 70
     0
  9
$DIMLIM
 70
     0
  9
$DIMTIH
 70
     0
  9
$DIMTOH
 70
     0
  9
$DIMSE1
 70
     0
  9
$DIMSE2
 70
     0
  9
$DIMTAD
 70
     1
  9
$DIMZIN
 70
     8
  9
$DIMBLK
  1

  9
$DIMASO
 70
     1
  9
$DIMSHO
 70
     1
  9
$DIMPOST
  1

  9
$DIMAPOST
  1

  9
$DIMALT
 70
     0
  9
$DIMALTD
 70
     3
  9
$DIMALTF
 40
0.03937007874016
  9
$DIMLFAC
 40
1.0
  9
$DIMTOFL
 70
     1
  9
$DIMTVP
 40
0.0
  9
$DIMTIX
 70
     0
  9
$DIMSOXD
 70
     0
  9
$DIMSAH
 70
     0
  9
$DIMBLK1
  1

  9
$DIMBLK2
  1

  9
$DIMSTYLE
  2
ISO-25
  9
$DIMCLRD
 70
     0
  9
$DIMCLRE
 70
     0
  9
$DIMCLRT
 70
     0
  9
$DIMTFAC
 40
1.0
  9
$DIMGAP
 40
0.625
  9
$DIMJUST
 70
     0
  9
$DIMSD1
 70
     0
  9
$DIMSD2
 70
     0
  9
$DIMTOLJ
 70
     0
  9
$DIMTZIN
 70
     8
  9
$DIMALTZ
 70
     0
  9
$DIMALTTZ
 70
     0
  9
$DIMUPT
 70
     0
  9
$DIMDEC
 70
     2
  9
$DIMTDEC
 70
     2
  9
$DIMALTU
 70
     2
  9
$DIMALTTD
 70
     3
  9
$DIMTXSTY
  7
Standard
  9
$DIMAUNIT
 70
     0
  9
$DIMADEC
 70
     0
  9
$DIMALTRND
 40
0.0
  9
$DIMAZIN
 70
     0
  9
$DIMDSEP
 70
    44
  9
$DIMATFIT
 70
     3
  9
$DIMFRAC
 70
     0
  9
$DIMLDRBLK
  1

  9
$DIMLUNIT
 70
     2
  9
$DIMLWD
 70
    -2
  9
$DIMLWE
 70
    -2
  9
$DIMTMOVE
 70
     0
  9
$LUNITS
 70
     2
  9
$LUPREC
 70
     4
  9
$SKETCHINC
 40
1.0
  9
$FILLETRAD
 40
10.0
  9
$AUNITS
 70
     0
  9
$AUPREC
 70
     0
  9
$MENU
  1
.
  9
$ELEVATION
 40
0.0
  9
$PELEVATION
 40
0.0
  9
$THICKNESS
 40
0.0
  9
$LIMCHECK
 70
     0
  9
$CHAMFERA
 40
10.0
  9
$CHAMFERB
 40
10.0
  9
$CHAMFERC
 40
20.0
  9
$CHAMFERD
 40
0.0
  9
$SKPOLY
 70
     0
  9
$TDCREATE
 40
2458578.529861111
  9
$TDUCREATE
 40
2458578.446527778
  9
$TDUPDATE
 40
2458578.533333333
  9
$TDUUPDATE
 40
2458578.45
  9
$TDINDWG
 40
0.0000000116
  9
$TDUSRTIMER
 40
0.0000000116
  9
$USRTIMER
 70
     1
  9
$ANGBASE
 50
0.0
  9
$ANGDIR
 70
     0
  9
$PDMODE
 70
     0
  9
$PDSIZE
 40
0.0
  9
$PLINEWID
 40
0.0
  9
$SPLFRAME
 70
     0
  9
$SPLINETYPE
 70
     6
  9
$SPLINESEGS
 70
     8
  9
$HANDSEED
  5
93D
  9
$SURFTAB1
 70
     6
  9
$SURFTAB2
 70
     6
  9
$SURFTYPE
 70
     6
  9
$SURFU
 70
     6
  9
$SURFV
 70
     6
  9
$UCSBASE
  2

  9
$UCSNAME
  2

  9
$UCSORG
 10
0.0
 20
0.0
 30
0.0
  9
$UCSXDIR
 10
1.0
 20
0.0
 30
0.0
  9
$UCSYDIR
 10
0.0
 20
1.0
 30
0.0
  9
$UCSORTHOREF
  2

  9
$UCSORTHOVIEW
 70
     0
  9
$UCSORGTOP
 10
0.0
 20
0.0
 30
0.0
  9
$UCSORGBOTTOM
 10
0.0
 20
0.0
 30
0.0
  9
$UCSORGLEFT
 10
0.0
 20
0.0
 30
0.0
  9
$UCSORGRIGHT
 10
0.0
 20
0.0
 30
0.0
  9
$UCSORGFRONT
 10
0.0
 20
0.0
 30
0.0
  9
$UCSORGBACK
 10
0.0
 20
0.0
 30
0.0
  9
$PUCSBASE
  2

  9
$PUCSNAME
  2

  9
$PUCSORG
 10
0.0
 20
0.0
 30
0.0
  9
$PUCSXDIR
 10
1.0
 20
0.0
 30
0.0
  9
$PUCSYDIR
 10
0.0
 20
1.0
 30
0.0
  9
$PUCSORTHOREF
  2

  9
$PUCSORTHOVIEW
 70
     0
  9
$PUCSORGTOP
 10
0.0
 20
0.0
 30
0.0
  9
$PUCSORGBOTTOM
 10
0.0
 20
0.0
 30
0.0
  9
$PUCSORGLEFT
 10
0.0
 20
0.0
 30
0.0
  9
$PUCSORGRIGHT
 10
0.0
 20
0.0
 30
0.0
  9
$PUCSORGFRONT
 10
0.0
 20
0.0
 30
0.0
  9
$PUCSORGBACK
 10
0.0
 20
0.0
 30
0.0
  9
$USERI1
 70
     0
  9
$USERI2
 70
     0
  9
$USERI3
 70
     0
  9
$USERI4
 70
     0
  9
$USERI5
 70
     0
  9
$USERR1
 40
0.0
  9
$USERR2
 40
0.0
  9
$USERR3
 40
0.0
  9
$USERR4
 40
0.0
  9
$USERR5
 40
0.0
  9
$WORLDVIEW
 70
     1
  9
$SHADEDGE
 70
     3
  9
$SHADEDIF
 70
    70
  9
$TILEMODE
 70
     1
  9
$MAXACTVP
 70
    64
  9
$PINSBASE
 10
0.0
 20
0.0
 30
0.0
  9
$PLIMCHECK
 70
     0
  9
$PEXTMIN
 10
1.000000000000000E+20
 20
1.000000000000000E+20
 30
1.000000000000000E+20
  9
$PEXTMAX
 10
-1.000000000000000E+20
 20
-1.000000000000000E+20
 30
-1.000000000000000E+20
  9
$PLIMMIN
 10
0.0
 20
0.0
  9
$PLIMMAX
 10
420.0
 20
297.0
  9
$UNITMODE
 70
     0
  9
$VISRETAIN
 70
     1
  9
$PLINEGEN
 70
     0
  9
$PSLTSCALE
 70
     1
  9
$TREEDEPTH
 70
  3020
  9
$CMLSTYLE
  2
Standard
  9
$CMLJUST
 70
     0
  9
$CMLSCALE
 40
20.0
  9
$PROXYGRAPHICS
 70
     1
  9
$MEASUREMENT
 70
     1
  9
$CELWEIGHT
370
    -1
  9
$ENDCAPS
280
     0
  9
$JOINSTYLE
280
     0
  9
$LWDISPLAY
290
     0
  9
$INSUNITS
 70
     4
  9
$HYPERLINKBASE
  1

  9
$STYLESHEET
  1

  9
$XEDIT
290
     1
  9
$CEPSNTYPE
380
     0
  9
$PSTYLEMODE
290
     1
  9
$FINGERPRINTGUID
  2
{569DD99D-EE85-4C9F-A217-9724B808FF89}
  9
$VERSIONGUID
  2
{FAEB1C32-E019-11D5-929B-00C0DF256EC4}
  9
$EXTNAMES
290
     1
  9
$PSVPSCALE
 40
0.0
  9
$OLESTARTUP
290
     0
  0
ENDSEC
  0
SECTION
  2
CLASSES
  0
CLASS
  1
ACDBDICTIONARYWDFLT
  2
AcDbDictionaryWithDefault
  3
ObjectDBX Classes
 90
        0
280
     0
281
     0
  0
CLASS
  1
VISUALSTYLE
  2
AcDbVisualStyle
  3
ObjectDBX Classes
 90
     4095
280
     0
281
     0
  0
CLASS
  1
MATERIAL
  2
AcDbMaterial
  3
ObjectDBX Classes
 90
     1153
280
     0
281
     0
  0
CLASS
  1
SCALE
  2
AcDbScale
  3
ObjectDBX Classes
 90
     1153
280
     0
281
     0
  0
CLASS
  1
DICTIONARYVAR
  2
AcDbDictionaryVar
  3
ObjectDBX Classes
 90
        0
280
     0
281
     0
  0
CLASS
  1
ACDBPLACEHOLDER
  2
AcDbPlaceHolder
  3
ObjectDBX Classes
 90
        0
280
     0
281
     0
  0
CLASS
  1
LAYOUT
  2
AcDbLayout
  3
ObjectDBX Classes
 90
        0
280
     0
281
     0
  0
ENDSEC
  0
SECTION
  2
TABLES
  0
TABLE
  2
VPORT
  5
8
330
0
100
AcDbSymbolTable
 70
     1
  0
VPORT
  5
29
330
8
100
AcDbSymbolTableRecord
100
AcDbViewportTableRecord
  2
*Active
 70
     0
 10
0.0
 20
0.0
 11
1.0
 21
1.0
 12
11.26
 22
4.5
 13
0.0
 23
0.0
 14
10.0
 24
10.0
 15
10.0
 25
10.0
 16
0.0
 26
0.0
 36
1.0
 17
0.0
 27
0.0
 37
0.0
 40
9.0
 41
2.503333333333333
 42
50.0
 43
0.0
 44
0.0
 50
0.0
 51
0.0
 71
     0
 72
   100
 73
     1
 74
     3
 75
     0
 76
     0
 77
     0
 78
     0
281
     0
 65
     1
110
0.0
120
0.0
130
0.0
111
1.0
121
0.0
131
0.0
112
0.0
122
1.0
132
0.0
 79
     0
146
0.0
  0
ENDTAB
  0
TABLE
  2
LTYPE
  5
5
330
0
100
AcDbSymbolTable
 70
    10
  0
LTYPE
  5
14
330
5
100
AcDbSymbolTableRecord
100
AcDbLinetypeTableRecord
  2
ByBlock
 70
     0
  3

 72
    65
 73
     0
 40
0.0
  0
LTYPE
  5
15
330
5
100
AcDbSymbolTableRecord
100
AcDbLinetypeTableRecord
  2
ByLayer
 70
     0
  3

 72
    65
 73
     0
 40
0.0
  0
LTYPE
  5
16
330
5
100
AcDbSymbolTableRecord
100
AcDbLinetypeTableRecord
  2
Continuous
 70
     0
  3
Solid line
 72
    65
 73
     0
 40
0.0
  0
LTYPE
  5
45
330
5
100
AcDbSymbolTableRecord
100
AcDbLinetypeTableRecord
  2
phl_thick
 70
     0
  3
THICK
 72
    65
 73
     0
 40
0.0
  0
LTYPE
  5
1E5
330
5
100
AcDbSymbolTableRecord
100
AcDbLinetypeTableRecord
  2
ls_CUT
 70
     0
  3
THICK
 72
    65
 73
     0
 40
0.0
  0
LTYPE
  5
1EB
330
5
100
AcDbSymbolTableRecord
100
AcDbLinetypeTableRecord
  2
ls1
 70
     0
  3
THICK
 72
    65
 73
     0
 40
0.0
  0
LTYPE
  5
1F2
330
5
100
AcDbSymbolTableRecord
100
AcDbLinetypeTableRecord
  2
NOCUT
 70
     0
  3
THICK
 72
    65
 73
     0
 40
0.0
  0
LTYPE
  5
1F6
330
5
100
AcDbSymbolTableRecord
100
AcDbLinetypeTableRecord
  2
SK1
 70
     0
  3
THICK
 72
    65
 73
     0
 40
0.0
  0
LTYPE
  5
201
330
5
100
AcDbSymbolTableRecord
100
AcDbLinetypeTableRecord
  2
ls_SK2
 70
     0
  3
THIN
 72
    65
 73
     0
 40
0.0
  0
LTYPE
  5
2AD
330
5
100
AcDbSymbolTableRecord
100
AcDbLinetypeTableRecord
  2
ls_2
 70
     0
  3
THIN
 72
    65
 73
     0
 40
0.0
  0
LTYPE
  5
441
330
5
100
AcDbSymbolTableRecord
100
AcDbLinetypeTableRecord
  2
LONGDASH_DASH
 70
     0
  3
THIN_DASHDOT
 72
    65
 73
     4
 40
0.85
 49
0.4
 74
     0
 49
-0.2
 74
     0
 49
0.05
 74
     0
 49
-0.2
 74
     0
  0
LTYPE
  5
480
330
5
100
AcDbSymbolTableRecord
100
AcDbLinetypeTableRecord
  2
ls_SK1
 70
     0
  3
THICK
 72
    65
 73
     0
 40
0.0
  0
ENDTAB
  0
TABLE
  2
LAYER
  5
2
330
0
100
AcDbSymbolTable
 70
    10
  0
LAYER
  5
10
330
2
100
AcDbSymbolTableRecord
100
AcDbLayerTableRecord
  2
0
 70
     0
 62
     7
  6
Continuous
370
    -3
390
F
  0
LAYER
  5
44
330
2
100
AcDbSymbolTableRecord
100
AcDbLayerTableRecord
  2
1
 70
     0
 62
4
  6
CONTINUOUS
370
50
370
    -3
390
F
  0
LAYER
  5
1E4
330
2
100
AcDbSymbolTableRecord
100
AcDbLayerTableRecord
  2
CUT
 70
     0
 62
1
  6
CONTINUOUS
370
25
370
    -3
390
F
  0
LAYER
  5
1EA
330
2
100
AcDbSymbolTableRecord
100
AcDbLayerTableRecord
  2
NOCUT
 70
     0
 62
7
  6
CONTINUOUS
370
25
370
    -3
390
F
  0
LAYER
  5
1F5
330
2
100
AcDbSymbolTableRecord
100
AcDbLayerTableRecord
  2
SK1
 70
     0
 62
4
  6
CONTINUOUS
370
50
370
    -3
390
F
  0
LAYER
  5
200
330
2
100
AcDbSymbolTableRecord
100
AcDbLayerTableRecord
  2
SK2
 70
     0
 62
7
  6
CONTINUOUS
370
25
370
    -3
390
F
  0
LAYER
  5
2AC
330
2
100
AcDbSymbolTableRecord
100
AcDbLayerTableRecord
  2
2
 70
     0
 62
7
  6
CONTINUOUS
370
25
370
    -3
390
F
  0
LAYER
  5
440
330
2
100
AcDbSymbolTableRecord
100
AcDbLayerTableRecord
  2
4
 70
     0
 62
2
  6
LONGDASH_DASH
370
25
370
    -3
390
F
  0
LAYER
  5
443
330
2
100
AcDbSymbolTableRecord
100
AcDbLayerTableRecord
  2
SK4
 70
     0
 62
2
  6
LONGDASH_DASH
370
25
370
    -3
390
F
  0
LAYER
  5
4B9
330
2
100
AcDbSymbolTableRecord
100
AcDbLayerTableRecord
  2
SK6
 70
     0
 62
5
  6
CONTINUOUS
370
25
370
    -3
390
F
  0
ENDTAB
  0
TABLE
  2
STYLE
  5
3
330
0
100
AcDbSymbolTable
 70
     1
  0
STYLE
  5
11
330
3
100
AcDbSymbolTableRecord
100
AcDbTextStyleTableRecord
  2
Standard
 70
     0
 40
0.0
 41
1.0
 50
0.0
 71
     0
 42
2.5
  3
Monospac821 BT
  4

  0
ENDTAB
  0
TABLE
  2
VIEW
  5
6
330
0
100
AcDbSymbolTable
 70
     0
  0
ENDTAB
  0
TABLE
  2
UCS
  5
7
330
0
100
AcDbSymbolTable
 70
     0
  0
ENDTAB
  0
TABLE
  2
APPID
  5
9
330
0
100
AcDbSymbolTable
 70
     2
  0
APPID
  5
12
330
9
100
AcDbSymbolTableRecord
100
AcDbRegAppTableRecord
  2
ACAD
 70
     0
  0
APPID
  5
3F
330
9
100
AcDbSymbolTableRecord
100
AcDbRegAppTableRecord
  2
ccLab
 70
     0
  0
ENDTAB
  0
TABLE
  2
DIMSTYLE
  5
A
330
0
100
AcDbSymbolTable
 70
     1
100
AcDbDimStyleTable
  0
DIMSTYLE
105
27
330
A
100
AcDbSymbolTableRecord
100
AcDbDimStyleTableRecord
  2
ISO-25
 70
     0
 41
2.5
 42
0.625
 43
3.75
 44
1.25
 73
     0
 74
     0
 77
     1
 78
     8
140
2.5
141
2.5
143
0.03937007874016
147
0.625
171
     3
172
     1
271
     2
272
     2
274
     3
278
    44
283
     0
284
     8
340
11
  0
ENDTAB
  0
TABLE
  2
BLOCK_RECORD
  5
1
330
0
100
AcDbSymbolTable
 70
     2
  0
BLOCK_RECORD
  5
1F
330
1
100
AcDbSymbolTableRecord
100
AcDbBlockTableRecord
  2
*Model_Space
340
22
  0
BLOCK_RECORD
  5
1B
330
1
100
AcDbSymbolTableRecord
100
AcDbBlockTableRecord
  2
*Paper_Space
340
1E
  0
BLOCK_RECORD
  5
23
330
1
100
AcDbSymbolTableRecord
100
AcDbBlockTableRecord
  2
*Paper_Space0
340
26
  0
ENDTAB
  0
ENDSEC
  0
SECTION
  2
BLOCKS
  0
BLOCK
  5
20
330
1F
100
AcDbEntity
  8
0
100
AcDbBlockBegin
  2
*Model_Space
 70
     0
 10
0.0
 20
0.0
 30
0.0
  3
*Model_Space
  1

  0
ENDBLK
  5
21
330
1F
100
AcDbEntity
  8
0
100
AcDbBlockEnd
  0
BLOCK
  5
1C
330
1B
100
AcDbEntity
 67
     1
  8
0
100
AcDbBlockBegin
  2
*Paper_Space
 70
     0
 10
0.0
 20
0.0
 30
0.0
  3
*Paper_Space
  1

  0
ENDBLK
  5
1D
330
1B
100
AcDbEntity
 67
     1
  8
0
100
AcDbBlockEnd
  0
BLOCK
  5
24
330
23
100
AcDbEntity
  8
0
100
AcDbBlockBegin
  2
*Paper_Space0
 70
     0
 10
0.0
 20
0.0
 30
0.0
  3
*Paper_Space0
  1

  0
ENDBLK
  5
25
330
23
100
AcDbEntity
  8
0
100
AcDbBlockEnd
  0
ENDSEC
  0
SECTION
  2
ENTITIES
  0
LINE
  5
4C3
330
1F
100
AcDbEntity
  8
1
  6
CONTINUOUS
370
50
 62
4
100
AcDbLine
 10
79.213264
 20
-1.112637
 30
0.0
 11
79.21309699999999
 21
-0.9984919999999999
 31
0.0
  0
LINE
  5
4C4
330
1F
100
AcDbEntity
  8
1
  6
CONTINUOUS
370
50
 62
4
100
AcDbLine
 10
79.213608
 20
-1.223791
 30
0.0
 11
79.213264
 21
-1.112637
 31
0.0
  0
LINE
  5
4C5
330
1F
100
AcDbEntity
  8
1
  6
CONTINUOUS
370
50
 62
4
100
AcDbLine
 10
79.214134
 20
-1.330778
 30
0.0
 11
79.213608
 21
-1.223791
 31
0.0
  0
LINE
  5
4C6
330
1F
100
AcDbEntity
  8
1
  6
CONTINUOUS
370
50
 62
4
100
AcDbLine
 10
79.214844
 20
-1.432579
 30
0.0
 11
79.214134
 21
-1.330778
 31
0.0
  0
LINE
  5
4C7
330
1F
100
AcDbEntity
  8
1
  6
CONTINUOUS
370
50
 62
4
100
AcDbLine
 10
79.21573599999999
 20
-1.528323
 30
0.0
 11
79.214844
 21
-1.432579
 31
0.0
  0
LINE
  5
4C8
330
1F
100
AcDbEntity
  8
1
  6
CONTINUOUS
370
50
 62
4
100
AcDbLine
 10
79.216805
 20
-1.617167
 30
0.0
 11
79.21573599999999
 21
-1.528323
 31
0.0
  0
LINE
  5
4C9
330
1F
100
AcDbEntity
  8
1
  6
CONTINUOUS
370
50
 62
4
100
AcDbLine
 10
79.21803299999999
 20
-1.698501
 30
0.0
 11
79.216805
 21
-1.617167
 31
0.0
  0
LINE
  5
4CA
330
1F
100
AcDbEntity
  8
1
  6
CONTINUOUS
370
50
 62
4
100
AcDbLine
 10
79.21942899999999
 20
-1.771817
 30
0.0
 11
79.21803299999999
 21
-1.698501
 31
0.0
  0
LINE
  5
4CB
330
1F
100
AcDbEntity
  8
1
  6
CONTINUOUS
370
50
 62
4
100
AcDbLine
 10
79.22095499999999
 20
-1.836612
 30
0.0
 11
79.21942899999999
 21
-1.771817
 31
0.0
  0
LINE
  5
4CC
330
1F
100
AcDbEntity
  8
1
  6
CONTINUOUS
370
50
 62
4
100
AcDbLine
 10
79.222618
 20
-1.892612
 30
0.0
 11
79.22095499999999
 21
-1.836612
 31
0.0
  0
LINE
  5
4CD
330
1F
100
AcDbEntity
  8
1
  6
CONTINUOUS
370
50
 62
4
100
AcDbLine
 10
79.22438
 20
-1.939744
 30
0.0
 11
79.222618
 21
-1.892612
 31
0.0
  0
LINE
  5
4CE
330
1F
100
AcDbEntity
  8
1
  6
CONTINUOUS
370
50
 62
4
100
AcDbLine
 10
79.25386
 20
1.817049
 30
0.0
 11
79.251984
 21
1.859117
 31
0.0
  0
LINE
  5
4CF
330
1F
100
AcDbEntity
  8
1
  6
CONTINUOUS
370
50
 62
4
100
AcDbLine
 10
54.975594
 20
1.526742
 30
0.0
 11
54.973206
 21
1.58029
 31
0.0
  0
LINE
  5
4D0
330
1F
100
AcDbEntity
  8
1
  6
CONTINUOUS
370
50
 62
4
100
AcDbLine
 10
79.226242
 20
-1.978224
 30
0.0
 11
79.22438
 21
-1.939744
 31
0.0
  0
LINE
  5
4D1
330
1F
100
AcDbEntity
  8
1
  6
CONTINUOUS
370
50
 62
4
100
AcDbLine
 10
79.251984
 20
1.859117
 30
0.0
 11
79.25007599999999
 21
1.897684
 31
0.0
  0
LINE
  5
4D2
330
1F
100
AcDbEntity
  8
1
  6
CONTINUOUS
370
50
 62
4
100
AcDbLine
 10
79.25007599999999
 20
1.897684
 30
0.0
 11
79.248161
 21
1.932441
 31
0.0
  0
LINE
  5
4D3
330
1F
100
AcDbEntity
  8
1
  6
CONTINUOUS
370
50
 62
4
100
AcDbLine
 10
79.248161
 20
1.932441
 30
0.0
 11
79.246239
 21
1.963079
 31
0.0
  0
LINE
  5
4D4
330
1F
100
AcDbEntity
  8
1
  6
CONTINUOUS
370
50
 62
4
100
AcDbLine
 10
79.299545
 20
1.404816
 30
0.0
 11
79.29618099999999
 21
1.456714
 31
0.0
  0
LINE
  5
4D5
330
1F
100
AcDbEntity
  8
1
  6
CONTINUOUS
370
50
 62
4
100
AcDbLine
 10
79.22824899999999
 20
-2.008993
 30
0.0
 11
79.226242
 21
-1.978224
 31
0.0
  0
LINE
  5
4D6
330
1F
100
AcDbEntity
  8
1
  6
CONTINUOUS
370
50
 62
4
100
AcDbLine
 10
79.246239
 20
1.963079
 30
0.0
 11
79.244316
 21
1.98932
 31
0.0
  0
LINE
  5
4D7
330
1F
100
AcDbEntity
  8
1
  6
CONTINUOUS
370
50
 62
4
100
AcDbLine
 10
79.244316
 20
1.98932
 30
0.0
 11
79.242409
 21
2.011009
 31
0.0
  0
LINE
  5
4D8
330
1F
100
AcDbEntity
  8
1
  6
CONTINUOUS
370
50
 62
4
100
AcDbLine
 10
79.230392
 20
-2.031571
 30
0.0
 11
79.22824899999999
 21
-2.008993
 31
0.0
  0
LINE
  5
4D9
330
1F
100
AcDbEntity
  8
1
  6
CONTINUOUS
370
50
 62
4
100
AcDbLine
 10
79.894363
 20
-0.084944
 30
0.0
 11
79.89254
 21
-0.068454
 31
0.0
  0
LINE
  5
4DA
330
1F
100
AcDbEntity
  8
1
  6
CONTINUOUS
370
50
 62
4
100
AcDbLine
 10
79.242409
 20
2.011009
 30
0.0
 11
79.240524
 21
2.028022
 31
0.0
  0
LINE
  5
4DB
330
1F
100
AcDbEntity
  8
1
  6
CONTINUOUS
370
50
 62
4
100
AcDbLine
 10
79.34496299999999
 20
-0.473626
 30
0.0
 11
79.341095
 21
-0.444587
 31
0.0
  0
LINE
  5
4DC
330
1F
100
AcDbEntity
  8
1
  6
CONTINUOUS
370
50
 62
4
100
AcDbLine
 10
79.89254
 20
-0.068454
 30
0.0
 11
79.890205
 21
-0.051452
 31
0.0
  0
LINE
  5
4DD
330
1F
100
AcDbEntity
  8
1
  6
CONTINUOUS
370
50
 62
4
100
AcDbLine
 10
79.240524
 20
2.028022
 30
0.0
 11
79.238663
 21
2.040235
 31
0.0
  0
LINE
  5
4DE
330
1F
100
AcDbEntity
  8
1
  6
CONTINUOUS
370
50
 62
4
100
AcDbLine
 10
79.890205
 20
-0.051452
 30
0.0
 11
79.887329
 21
-0.0338
 31
0.0
  0
LINE
  5
4DF
330
1F
100
AcDbEntity
  8
1
  6
CONTINUOUS
370
50
 62
4
100
AcDbLine
 10
79.232674
 20
-2.045342
 30
0.0
 11
79.230392
 21
-2.031571
 31
0.0
  0
LINE
  5
4E0
330
1F
100
AcDbEntity
  8
1
  6
CONTINUOUS
370
50
 62
4
100
AcDbLine
 10
79.29618099999999
 20
1.456714
 30
0.0
 11
79.287605
 21
1.508414
 31
0.0
  0
LINE
  5
4E1
330
1F
100
AcDbEntity
  8
1
  6
CONTINUOUS
370
50
 62
4
100
AcDbLine
 10
79.887329
 20
-0.0338
 30
0.0
 11
79.883865
 21
-0.015346
 31
0.0
  0
LINE
  5
4E2
330
1F
100
AcDbEntity
  8
1
  6
CONTINUOUS
370
50
 62
4
100
AcDbLine
 10
79.883865
 20
-0.015346
 30
0.0
 11
79.87977599999999
 21
0.004085
 31
0.0
  0
LINE
  5
4E3
330
1F
100
AcDbEntity
  8
1
  6
CONTINUOUS
370
50
 62
4
100
AcDbLine
 10
79.87977599999999
 20
0.004085
 30
0.0
 11
79.874969
 21
0.024694
 31
0.0
  0
LINE
  5
4E4
330
1F
100
AcDbEntity
  8
1
  6
CONTINUOUS
370
50
 62
4
100
AcDbLine
 10
79.238663
 20
2.040235
 30
0.0
 11
79.236839
 21
2.047547
 31
0.0
  0
LINE
  5
4E5
330
1F
100
AcDbEntity
  8
1
  6
CONTINUOUS
370
50
 62
4
100
AcDbLine
 10
79.874969
 20
0.024694
 30
0.0
 11
79.869377
 21
0.046718
 31
0.0
  0
LINE
  5
4E6
330
1F
100
AcDbEntity
  8
1
  6
CONTINUOUS
370
50
 62
4
100
AcDbLine
 10
79.287605
 20
1.508414
 30
0.0
 11
79.274452
 21
1.560008
 31
0.0
  0
LINE
  5
4E7
330
1F
100
AcDbEntity
  8
1
  6
CONTINUOUS
370
50
 62
4
100
AcDbLine
 10
54.990696
 20
1.471067
 30
0.0
 11
54.975594
 21
1.526742
 31
0.0
  0
LINE
  5
4E8
330
1F
100
AcDbEntity
  8
1
  6
CONTINUOUS
370
50
 62
4
100
AcDbLine
 10
79.87483999999999
 20
0.046709
 30
0.0
 11
79.858826
 21
0.103087
 31
0.0
  0
LINE
  5
4E9
330
1F
100
AcDbEntity
  8
1
  6
CONTINUOUS
370
50
 62
4
100
AcDbLine
 10
79.341095
 20
-0.444587
 30
0.0
 11
79.332047
 21
-0.412892
 31
0.0
  0
LINE
  5
4EA
330
1F
100
AcDbEntity
  8
1
  6
CONTINUOUS
370
50
 62
4
100
AcDbLine
 10
79.858826
 20
0.103087
 30
0.0
 11
79.836456
 21
0.172733
 31
0.0
  0
LINE
  5
4EB
330
1F
100
AcDbEntity
  8
1
  6
CONTINUOUS
370
50
 62
4
100
AcDbLine
 10
79.274452
 20
1.560008
 30
0.0
 11
79.256912
 21
1.612331
 31
0.0
  0
LINE
  5
4EC
330
1F
100
AcDbEntity
  8
1
  6
CONTINUOUS
370
50
 62
4
100
AcDbLine
 10
79.255386
 20
1.616035
 30
0.0
 11
79.25495099999999
 21
1.617291
 31
0.0
  0
LINE
  5
4ED
330
1F
100
AcDbEntity
  8
1
  6
CONTINUOUS
370
50
 62
4
100
AcDbLine
 10
79.836456
 20
0.172733
 30
0.0
 11
79.804626
 21
0.263274
 31
0.0
  0
LINE
  5
4EE
330
1F
100
AcDbEntity
  8
1
  6
CONTINUOUS
370
50
 62
4
100
AcDbLine
 10
80.0
 20
0.0
 30
0.0
 11
79.23681599999999
 21
2.047627
 31
0.0
  0
LINE
  5
4EF
330
1F
100
AcDbEntity
  8
1
  6
CONTINUOUS
370
50
 62
4
100
AcDbLine
 10
79.804626
 20
0.263274
 30
0.0
 11
79.757538
 21
0.38872
 31
0.0
  0
LINE
  5
4F0
330
1F
100
AcDbEntity
  8
1
  6
CONTINUOUS
370
50
 62
4
100
AcDbLine
 10
79.332047
 20
-0.412892
 30
0.0
 11
79.318077
 21
-0.377344
 31
0.0
  0
LINE
  5
4F1
330
1F
100
AcDbEntity
  8
1
  6
CONTINUOUS
370
50
 62
4
100
AcDbLine
 10
79.757538
 20
0.38872
 30
0.0
 11
79.682999
 21
0.578199
 31
0.0
  0
LINE
  5
4F2
330
1F
100
AcDbEntity
  8
1
  6
CONTINUOUS
370
50
 62
4
100
AcDbLine
 10
79.236839
 20
2.047547
 30
0.0
 11
79.236542
 21
2.048288
 31
0.0
  0
LINE
  5
4F3
330
1F
100
AcDbEntity
  8
1
  6
CONTINUOUS
370
50
 62
4
100
AcDbLine
 10
79.682999
 20
0.578199
 30
0.0
 11
79.550545
 21
0.904238
 31
0.0
  0
LINE
  5
4F4
330
1F
100
AcDbEntity
  8
1
  6
CONTINUOUS
370
50
 62
4
100
AcDbLine
 10
79.256401
 20
1.613566
 30
0.0
 11
79.255898
 21
1.6148
 31
0.0
  0
LINE
  5
4F5
330
1F
100
AcDbEntity
  8
1
  6
CONTINUOUS
370
50
 62
4
100
AcDbLine
 10
80.0
 20
0.0
 30
0.0
 11
79.25386
 21
1.817049
 31
0.0
  0
LINE
  5
4F6
330
1F
100
AcDbEntity
  8
1
  6
CONTINUOUS
370
50
 62
4
100
AcDbLine
 10
79.256912
 20
1.612331
 30
0.0
 11
79.256401
 21
1.613566
 31
0.0
  0
LINE
  5
4F7
330
1F
100
AcDbEntity
  8
1
  6
CONTINUOUS
370
50
 62
4
100
AcDbLine
 10
79.255898
 20
1.6148
 30
0.0
 11
79.255386
 21
1.616035
 31
0.0
  0
LINE
  5
4F8
330
1F
100
AcDbEntity
  8
1
  6
CONTINUOUS
370
50
 62
4
100
AcDbLine
 10
79.550545
 20
0.904238
 30
0.0
 11
79.256912
 21
1.612331
 31
0.0
  0
LINE
  5
4F9
330
1F
100
AcDbEntity
  8
1
  6
CONTINUOUS
370
50
 62
4
100
AcDbLine
 10
79.25437199999999
 20
1.618502
 30
0.0
 11
79.25386
 21
1.619735
 31
0.0
  0
LINE
  5
4FA
330
1F
100
AcDbEntity
  8
1
  6
CONTINUOUS
370
50
 62
4
100
AcDbLine
 10
55.01618999999999
 20
1.41423
 30
0.0
 11
54.990696
 21
1.471067
 31
0.0
  0
LINE
  5
4FB
330
1F
100
AcDbEntity
  8
1
  6
CONTINUOUS
370
50
 62
4
100
AcDbLine
 10
79.318077
 20
-0.377344
 30
0.0
 11
79.299187
 21
-0.337536
 31
0.0
  0
LINE
  5
4FC
330
1F
100
AcDbEntity
  8
1
  6
CONTINUOUS
370
50
 62
4
100
AcDbLine
 10
79.25495099999999
 20
1.617291
 30
0.0
 11
79.25437199999999
 21
1.618502
 31
0.0
  0
LINE
  5
4FD
330
1F
100
AcDbEntity
  8
1
  6
CONTINUOUS
370
50
 62
4
100
AcDbLine
 10
79.236542
 20
2.048288
 30
0.0
 11
79.236237
 21
2.048894
 31
0.0
  0
LINE
  5
4FE
330
1F
100
AcDbEntity
  8
1
  6
CONTINUOUS
370
50
 62
4
100
AcDbLine
 10
79.23505399999999
 20
-2.050001
 30
0.0
 11
79.232674
 21
-2.045342
 31
0.0
  0
LINE
  5
4FF
330
1F
100
AcDbEntity
  8
1
  6
CONTINUOUS
370
50
 62
4
100
AcDbLine
 10
79.299187
 20
-0.337536
 30
0.0
 11
79.275452
 21
-0.293492
 31
0.0
  0
LINE
  5
500
330
1F
100
AcDbEntity
  8
1
  6
CONTINUOUS
370
50
 62
4
100
AcDbLine
 10
55.049847
 20
1.357094
 30
0.0
 11
55.01618999999999
 21
1.41423
 31
0.0
  0
LINE
  5
501
330
1F
100
AcDbEntity
  8
1
  6
CONTINUOUS
370
50
 62
4
100
AcDbLine
 10
79.275452
 20
-0.293492
 30
0.0
 11
79.246948
 21
-0.245232
 31
0.0
  0
LINE
  5
502
330
1F
100
AcDbEntity
  8
1
  6
CONTINUOUS
370
50
 62
4
100
AcDbLine
 10
79.246948
 20
-0.245232
 30
0.0
 11
79.213791
 21
-0.192819
 31
0.0
  0
LINE
  5
503
330
1F
100
AcDbEntity
  8
1
  6
CONTINUOUS
370
50
 62
4
100
AcDbLine
 10
79.236237
 20
2.048894
 30
0.0
 11
79.235939
 21
2.049365
 31
0.0
  0
LINE
  5
504
330
1F
100
AcDbEntity
  8
1
  6
CONTINUOUS
370
50
 62
4
100
AcDbLine
 10
79.213791
 20
-0.192819
 30
0.0
 11
79.176636
 21
-0.137109
 31
0.0
  0
LINE
  5
505
330
1F
100
AcDbEntity
  8
1
  6
CONTINUOUS
370
50
 62
4
100
AcDbLine
 10
79.176636
 20
-0.137109
 30
0.0
 11
79.136093
 21
-0.078783
 31
0.0
  0
LINE
  5
506
330
1F
100
AcDbEntity
  8
1
  6
CONTINUOUS
370
50
 62
4
100
AcDbLine
 10
55.089458
 20
1.300486
 30
0.0
 11
55.049847
 21
1.357094
 31
0.0
  0
LINE
  5
507
330
1F
100
AcDbEntity
  8
1
  6
CONTINUOUS
370
50
 62
4
100
AcDbLine
 10
79.136093
 20
-0.078783
 30
0.0
 11
79.09264399999999
 21
-0.018299
 31
0.0
  0
LINE
  5
508
330
1F
100
AcDbEntity
  8
1
  6
CONTINUOUS
370
50
 62
4
100
AcDbLine
 10
79.09264399999999
 20
-0.018299
 30
0.0
 11
79.046745
 21
0.043886
 31
0.0
  0
LINE
  5
509
330
1F
100
AcDbEntity
  8
1
  6
CONTINUOUS
370
50
 62
4
100
AcDbLine
 10
79.046745
 20
0.043886
 30
0.0
 11
78.998886
 21
0.107313
 31
0.0
  0
LINE
  5
50A
330
1F
100
AcDbEntity
  8
1
  6
CONTINUOUS
370
50
 62
4
100
AcDbLine
 10
78.998886
 20
0.107313
 30
0.0
 11
78.949524
 21
0.171525
 31
0.0
  0
LINE
  5
50B
330
1F
100
AcDbEntity
  8
1
  6
CONTINUOUS
370
50
 62
4
100
AcDbLine
 10
78.949524
 20
0.171525
 30
0.0
 11
78.899147
 21
0.236065
 31
0.0
  0
LINE
  5
50C
330
1F
100
AcDbEntity
  8
1
  6
CONTINUOUS
370
50
 62
4
100
AcDbLine
 10
55.13388399999999
 20
1.244007
 30
0.0
 11
55.089458
 21
1.300486
 31
0.0
  0
LINE
  5
50D
330
1F
100
AcDbEntity
  8
1
  6
CONTINUOUS
370
50
 62
4
100
AcDbLine
 10
78.899147
 20
0.236065
 30
0.0
 11
78.848213
 21
0.300474
 31
0.0
  0
LINE
  5
50E
330
1F
100
AcDbEntity
  8
1
  6
CONTINUOUS
370
50
 62
4
100
AcDbLine
 10
78.848213
 20
0.300474
 30
0.0
 11
78.796814
 21
0.364783
 31
0.0
  0
LINE
  5
50F
330
1F
100
AcDbEntity
  8
1
  6
CONTINUOUS
370
50
 62
4
100
AcDbLine
 10
78.796814
 20
0.364783
 30
0.0
 11
78.743591
 21
0.43078
 31
0.0
  0
LINE
  5
510
330
1F
100
AcDbEntity
  8
1
  6
CONTINUOUS
370
50
 62
4
100
AcDbLine
 10
78.743591
 20
0.43078
 30
0.0
 11
78.68854499999999
 21
0.498479
 31
0.0
  0
LINE
  5
511
330
1F
100
AcDbEntity
  8
1
  6
CONTINUOUS
370
50
 62
4
100
AcDbLine
 10
78.68854499999999
 20
0.498479
 30
0.0
 11
78.631897
 21
0.5676399999999999
 31
0.0
  0
LINE
  5
512
330
1F
100
AcDbEntity
  8
1
  6
CONTINUOUS
370
50
 62
4
100
AcDbLine
 10
78.631897
 20
0.5676399999999999
 30
0.0
 11
78.573853
 21
0.638026
 31
0.0
  0
LINE
  5
513
330
1F
100
AcDbEntity
  8
1
  6
CONTINUOUS
370
50
 62
4
100
AcDbLine
 10
78.573853
 20
0.638026
 30
0.0
 11
78.51462599999999
 21
0.709398
 31
0.0
  0
LINE
  5
514
330
1F
100
AcDbEntity
  8
1
  6
CONTINUOUS
370
50
 62
4
100
AcDbLine
 10
78.51462599999999
 20
0.709398
 30
0.0
 11
78.45443
 21
0.781519
 31
0.0
  0
LINE
  5
515
330
1F
100
AcDbEntity
  8
1
  6
CONTINUOUS
370
50
 62
4
100
AcDbLine
 10
78.45443
 20
0.781519
 30
0.0
 11
78.39334099999999
 21
0.854128
 31
0.0
  0
LINE
  5
516
330
1F
100
AcDbEntity
  8
1
  6
CONTINUOUS
370
50
 62
4
100
AcDbLine
 10
55.184212
 20
1.185337
 30
0.0
 11
55.13388399999999
 21
1.244007
 31
0.0
  0
LINE
  5
517
330
1F
100
AcDbEntity
  8
1
  6
CONTINUOUS
370
50
 62
4
100
AcDbLine
 10
79.235939
 20
2.049365
 30
0.0
 11
79.235649
 21
2.049701
 31
0.0
  0
LINE
  5
518
330
1F
100
AcDbEntity
  8
1
  6
CONTINUOUS
370
50
 62
4
100
AcDbLine
 10
55.240089
 20
1.124408
 30
0.0
 11
55.184212
 21
1.185337
 31
0.0
  0
LINE
  5
519
330
1F
100
AcDbEntity
  8
1
  6
CONTINUOUS
370
50
 62
4
100
AcDbLine
 10
55.30108999999999
 20
1.061245
 30
0.0
 11
55.240089
 21
1.124408
 31
0.0
  0
LINE
  5
51A
330
1F
100
AcDbEntity
  8
1
  6
CONTINUOUS
370
50
 62
4
100
AcDbLine
 10
55.36677899999999
 20
0.995871
 30
0.0
 11
55.30108999999999
 21
1.061245
 31
0.0
  0
LINE
  5
51B
330
1F
100
AcDbEntity
  8
1
  6
CONTINUOUS
370
50
 62
4
100
AcDbLine
 10
55.436733
 20
0.92831
 30
0.0
 11
55.36677899999999
 21
0.995871
 31
0.0
  0
LINE
  5
51C
330
1F
100
AcDbEntity
  8
1
  6
CONTINUOUS
370
50
 62
4
100
AcDbLine
 10
56.560955
 20
-0.120633
 30
0.0
 11
56.434673
 21
0.0
 31
0.0
  0
LINE
  5
51D
330
1F
100
AcDbEntity
  8
1
  6
CONTINUOUS
370
50
 62
4
100
AcDbLine
 10
56.686905
 20
-0.240894
 30
0.0
 11
56.560955
 21
-0.120633
 31
0.0
  0
LINE
  5
51E
330
1F
100
AcDbEntity
  8
1
  6
CONTINUOUS
370
50
 62
4
100
AcDbLine
 10
56.434673
 20
0.0
 30
0.0
 11
56.357464
 21
0.073444
 31
0.0
  0
LINE
  5
51F
330
1F
100
AcDbEntity
  8
1
  6
CONTINUOUS
370
50
 62
4
100
AcDbLine
 10
56.8097
 20
-0.357249
 30
0.0
 11
56.686905
 21
-0.240894
 31
0.0
  0
LINE
  5
520
330
1F
100
AcDbEntity
  8
1
  6
CONTINUOUS
370
50
 62
4
100
AcDbLine
 10
56.357464
 20
0.073444
 30
0.0
 11
56.280022
 21
0.146761
 31
0.0
  0
LINE
  5
521
330
1F
100
AcDbEntity
  8
1
  6
CONTINUOUS
370
50
 62
4
100
AcDbLine
 10
55.509899
 20
0.859157
 30
0.0
 11
55.436733
 21
0.92831
 31
0.0
  0
LINE
  5
522
330
1F
100
AcDbEntity
  8
1
  6
CONTINUOUS
370
50
 62
4
100
AcDbLine
 10
56.280022
 20
0.146761
 30
0.0
 11
56.20241499999999
 21
0.219791
 31
0.0
  0
LINE
  5
523
330
1F
100
AcDbEntity
  8
1
  6
CONTINUOUS
370
50
 62
4
100
AcDbLine
 10
56.20241499999999
 20
0.219791
 30
0.0
 11
56.124733
 21
0.292445
 31
0.0
  0
LINE
  5
524
330
1F
100
AcDbEntity
  8
1
  6
CONTINUOUS
370
50
 62
4
100
AcDbLine
 10
56.92927599999999
 20
-0.468596
 30
0.0
 11
56.8097
 21
-0.357249
 31
0.0
  0
LINE
  5
525
330
1F
100
AcDbEntity
  8
1
  6
CONTINUOUS
370
50
 62
4
100
AcDbLine
 10
55.584763
 20
0.789457
 30
0.0
 11
55.509899
 21
0.859157
 31
0.0
  0
LINE
  5
526
330
1F
100
AcDbEntity
  8
1
  6
CONTINUOUS
370
50
 62
4
100
AcDbLine
 10
56.124733
 20
0.292445
 30
0.0
 11
56.047043
 21
0.364655
 31
0.0
  0
LINE
  5
527
330
1F
100
AcDbEntity
  8
1
  6
CONTINUOUS
370
50
 62
4
100
AcDbLine
 10
56.047043
 20
0.364655
 30
0.0
 11
55.969334
 21
0.436441
 31
0.0
  0
LINE
  5
528
330
1F
100
AcDbEntity
  8
1
  6
CONTINUOUS
370
50
 62
4
100
AcDbLine
 10
55.660793
 20
0.7193879999999999
 30
0.0
 11
55.584763
 21
0.789457
 31
0.0
  0
LINE
  5
529
330
1F
100
AcDbEntity
  8
1
  6
CONTINUOUS
370
50
 62
4
100
AcDbLine
 10
55.969334
 20
0.436441
 30
0.0
 11
55.89170499999999
 21
0.507819
 31
0.0
  0
LINE
  5
52A
330
1F
100
AcDbEntity
  8
1
  6
CONTINUOUS
370
50
 62
4
100
AcDbLine
 10
55.89170499999999
 20
0.507819
 30
0.0
 11
55.814369
 21
0.5787129999999999
 31
0.0
  0
LINE
  5
52B
330
1F
100
AcDbEntity
  8
1
  6
CONTINUOUS
370
50
 62
4
100
AcDbLine
 10
55.737465
 20
0.6491159999999999
 30
0.0
 11
55.660793
 21
0.7193879999999999
 31
0.0
  0
LINE
  5
52C
330
1F
100
AcDbEntity
  8
1
  6
CONTINUOUS
370
50
 62
4
100
AcDbLine
 10
55.814369
 20
0.5787129999999999
 30
0.0
 11
55.737465
 21
0.6491159999999999
 31
0.0
  0
LINE
  5
52D
330
1F
100
AcDbEntity
  8
1
  6
CONTINUOUS
370
50
 62
4
100
AcDbLine
 10
57.046547
 20
-0.574753
 30
0.0
 11
56.92927599999999
 21
-0.468596
 31
0.0
  0
LINE
  5
52E
330
1F
100
AcDbEntity
  8
1
  6
CONTINUOUS
370
50
 62
4
100
AcDbLine
 10
57.162411
 20
-0.6755369999999999
 30
0.0
 11
57.046547
 21
-0.574753
 31
0.0
  0
LINE
  5
52F
330
1F
100
AcDbEntity
  8
1
  6
CONTINUOUS
370
50
 62
4
100
AcDbLine
 10
63.19942099999999
 20
-1.552843
 30
0.0
 11
63.19927999999999
 21
-1.552722
 31
0.0
  0
LINE
  5
530
330
1F
100
AcDbEntity
  8
1
  6
CONTINUOUS
370
50
 62
4
100
AcDbLine
 10
57.27876999999999
 20
0.074835
 30
0.0
 11
57.278439
 21
0.075113
 31
0.0
  0
LINE
  5
531
330
1F
100
AcDbEntity
  8
1
  6
CONTINUOUS
370
50
 62
4
100
AcDbLine
 10
57.278439
 20
0.075113
 30
0.0
 11
57.277775
 21
0.075669
 31
0.0
  0
LINE
  5
532
330
1F
100
AcDbEntity
  8
1
  6
CONTINUOUS
370
50
 62
4
100
AcDbLine
 10
63.200001
 20
-1.553327
 30
0.0
 11
63.19942099999999
 21
-1.552843
 31
0.0
  0
LINE
  5
533
330
1F
100
AcDbEntity
  8
1
  6
CONTINUOUS
370
50
 62
4
100
AcDbLine
 10
63.19927999999999
 20
-1.552722
 30
0.0
 11
63.199135
 21
-1.552601
 31
0.0
  0
LINE
  5
534
330
1F
100
AcDbEntity
  8
1
  6
CONTINUOUS
370
50
 62
4
100
AcDbLine
 10
57.279438
 20
0.074282
 30
0.0
 11
57.279106
 21
0.074558
 31
0.0
  0
LINE
  5
535
330
1F
100
AcDbEntity
  8
1
  6
CONTINUOUS
370
50
 62
4
100
AcDbLine
 10
57.277775
 20
-0.770763
 30
0.0
 11
57.162411
 21
-0.6755369999999999
 31
0.0
  0
LINE
  5
536
330
1F
100
AcDbEntity
  8
1
  6
CONTINUOUS
370
50
 62
4
100
AcDbLine
 10
57.279106
 20
0.074558
 30
0.0
 11
57.27876999999999
 21
0.074835
 31
0.0
  0
LINE
  5
537
330
1F
100
AcDbEntity
  8
1
  6
CONTINUOUS
370
50
 62
4
100
AcDbLine
 10
57.279774
 20
0.074007
 30
0.0
 11
57.279438
 21
0.074282
 31
0.0
  0
LINE
  5
538
330
1F
100
AcDbEntity
  8
1
  6
CONTINUOUS
370
50
 62
4
100
AcDbLine
 10
79.235649
 20
2.049701
 30
0.0
 11
79.23535199999999
 21
2.049902
 31
0.0
  0
LINE
  5
539
330
1F
100
AcDbEntity
  8
1
  6
CONTINUOUS
370
50
 62
4
100
AcDbLine
 10
79.894363
 20
-0.084944
 30
0.0
 11
78.39334099999999
 21
0.854128
 31
0.0
  0
LINE
  5
53A
330
1F
100
AcDbEntity
  8
1
  6
CONTINUOUS
370
50
 62
4
100
AcDbLine
 10
78.39705699999999
 20
-0.121659
 30
0.0
 11
78.057129
 21
0.075845
 31
0.0
  0
LINE
  5
53B
330
1F
100
AcDbEntity
  8
1
  6
CONTINUOUS
370
50
 62
4
100
AcDbLine
 10
60.036369
 20
0.060019
 30
0.0
 11
60.00182
 21
0.080046
 31
0.0
  0
LINE
  5
53C
330
1F
100
AcDbEntity
  8
1
  6
CONTINUOUS
370
50
 62
4
100
AcDbLine
 10
60.00182
 20
0.080046
 30
0.0
 11
59.967285
 21
0.100064
 31
0.0
  0
LINE
  5
53D
330
1F
100
AcDbEntity
  8
1
  6
CONTINUOUS
370
50
 62
4
100
AcDbLine
 10
59.967285
 20
0.100064
 30
0.0
 11
59.932785
 21
0.120058
 31
0.0
  0
LINE
  5
53E
330
1F
100
AcDbEntity
  8
1
  6
CONTINUOUS
370
50
 62
4
100
AcDbLine
 10
60.070919
 20
0.040002
 30
0.0
 11
60.036369
 21
0.060019
 31
0.0
  0
LINE
  5
53F
330
1F
100
AcDbEntity
  8
1
  6
CONTINUOUS
370
50
 62
4
100
AcDbLine
 10
60.105465
 20
0.019995
 30
0.0
 11
60.070919
 21
0.040002
 31
0.0
  0
LINE
  5
540
330
1F
100
AcDbEntity
  8
1
  6
CONTINUOUS
370
50
 62
4
100
AcDbLine
 10
78.480614
 20
-0.17005
 30
0.0
 11
78.39705699999999
 21
-0.121659
 31
0.0
  0
LINE
  5
541
330
1F
100
AcDbEntity
  8
1
  6
CONTINUOUS
370
50
 62
4
100
AcDbLine
 10
60.140015
 20
0.0
 30
0.0
 11
60.105465
 21
0.019995
 31
0.0
  0
LINE
  5
542
330
1F
100
AcDbEntity
  8
1
  6
CONTINUOUS
370
50
 62
4
100
AcDbLine
 10
59.932785
 20
0.120058
 30
0.0
 11
59.666916
 21
0.273728
 31
0.0
  0
LINE
  5
543
330
1F
100
AcDbEntity
  8
1
  6
CONTINUOUS
370
50
 62
4
100
AcDbLine
 10
71.792091
 20
-0.272537
 30
0.0
 11
71.451218
 21
-0.075547
 31
0.0
  0
LINE
  5
544
330
1F
100
AcDbEntity
  8
1
  6
CONTINUOUS
370
50
 62
4
100
AcDbLine
 10
71.451218
 20
-0.075547
 30
0.0
 11
71.10907
 21
0.122145
 31
0.0
  0
LINE
  5
545
330
1F
100
AcDbEntity
  8
1
  6
CONTINUOUS
370
50
 62
4
100
AcDbLine
 10
78.56429299999999
 20
-0.218347
 30
0.0
 11
78.480614
 21
-0.17005
 31
0.0
  0
LINE
  5
546
330
1F
100
AcDbEntity
  8
1
  6
CONTINUOUS
370
50
 62
4
100
AcDbLine
 10
78.057129
 20
0.075845
 30
0.0
 11
77.71507299999999
 21
0.273052
 31
0.0
  0
LINE
  5
547
330
1F
100
AcDbEntity
  8
1
  6
CONTINUOUS
370
50
 62
4
100
AcDbLine
 10
66.934395
 20
0.043405
 30
0.0
 11
66.645851
 21
0.209631
 31
0.0
  0
LINE
  5
548
330
1F
100
AcDbEntity
  8
1
  6
CONTINUOUS
370
50
 62
4
100
AcDbLine
 10
60.42192499999999
 20
-0.162086
 30
0.0
 11
60.140015
 21
0.0
 31
0.0
  0
LINE
  5
549
330
1F
100
AcDbEntity
  8
1
  6
CONTINUOUS
370
50
 62
4
100
AcDbLine
 10
78.64814
 20
-0.266531
 30
0.0
 11
78.56429299999999
 21
-0.218347
 31
0.0
  0
LINE
  5
54A
330
1F
100
AcDbEntity
  8
1
  6
CONTINUOUS
370
50
 62
4
100
AcDbLine
 10
66.645851
 20
0.209631
 30
0.0
 11
66.35940599999999
 21
0.37424
 31
0.0
  0
LINE
  5
54B
330
1F
100
AcDbEntity
  8
1
  6
CONTINUOUS
370
50
 62
4
100
AcDbLine
 10
67.22429699999999
 20
-0.122675
 30
0.0
 11
66.934395
 21
0.043405
 31
0.0
  0
LINE
  5
54C
330
1F
100
AcDbEntity
  8
1
  6
CONTINUOUS
370
50
 62
4
100
AcDbLine
 10
78.732208
 20
-0.314581
 30
0.0
 11
78.64814
 21
-0.266531
 31
0.0
  0
LINE
  5
54D
330
1F
100
AcDbEntity
  8
1
  6
CONTINUOUS
370
50
 62
4
100
AcDbLine
 10
59.666916
 20
0.273728
 30
0.0
 11
59.401669
 21
0.425316
 31
0.0
  0
LINE
  5
54E
330
1F
100
AcDbEntity
  8
1
  6
CONTINUOUS
370
50
 62
4
100
AcDbLine
 10
71.10907
 20
0.122145
 30
0.0
 11
70.771278
 21
0.314808
 31
0.0
  0
LINE
  5
54F
330
1F
100
AcDbEntity
  8
1
  6
CONTINUOUS
370
50
 62
4
100
AcDbLine
 10
67.508545
 20
-0.284572
 30
0.0
 11
67.22429699999999
 21
-0.122675
 31
0.0
  0
LINE
  5
550
330
1F
100
AcDbEntity
  8
1
  6
CONTINUOUS
370
50
 62
4
100
AcDbLine
 10
78.816521
 20
-0.362451
 30
0.0
 11
78.732208
 21
-0.314581
 31
0.0
  0
LINE
  5
551
330
1F
100
AcDbEntity
  8
1
  6
CONTINUOUS
370
50
 62
4
100
AcDbLine
 10
72.134552
 20
-0.466637
 30
0.0
 11
71.792091
 21
-0.272537
 31
0.0
  0
LINE
  5
552
330
1F
100
AcDbEntity
  8
1
  6
CONTINUOUS
370
50
 62
4
100
AcDbLine
 10
60.703793
 20
-0.321668
 30
0.0
 11
60.42192499999999
 21
-0.162086
 31
0.0
  0
LINE
  5
553
330
1F
100
AcDbEntity
  8
1
  6
CONTINUOUS
370
50
 62
4
100
AcDbLine
 10
67.791924
 20
-0.445004
 30
0.0
 11
67.508545
 21
-0.284572
 31
0.0
  0
LINE
  5
554
330
1F
100
AcDbEntity
  8
1
  6
CONTINUOUS
370
50
 62
4
100
AcDbLine
 10
66.35940599999999
 20
0.37424
 30
0.0
 11
66.073486
 21
0.535913
 31
0.0
  0
LINE
  5
555
330
1F
100
AcDbEntity
  8
1
  6
CONTINUOUS
370
50
 62
4
100
AcDbLine
 10
78.90096299999999
 20
-0.410085
 30
0.0
 11
78.816521
 21
-0.362451
 31
0.0
  0
LINE
  5
556
330
1F
100
AcDbEntity
  8
1
  6
CONTINUOUS
370
50
 62
4
100
AcDbLine
 10
77.71507299999999
 20
0.273052
 30
0.0
 11
77.370674
 21
0.467186
 31
0.0
  0
LINE
  5
557
330
1F
100
AcDbEntity
  8
1
  6
CONTINUOUS
370
50
 62
4
100
AcDbLine
 10
60.98218199999999
 20
-0.478172
 30
0.0
 11
60.703793
 21
-0.321668
 31
0.0
  0
LINE
  5
558
330
1F
100
AcDbEntity
  8
1
  6
CONTINUOUS
370
50
 62
4
100
AcDbLine
 10
70.771278
 20
0.314808
 30
0.0
 11
70.433311
 21
0.504598
 31
0.0
  0
LINE
  5
559
330
1F
100
AcDbEntity
  8
1
  6
CONTINUOUS
370
50
 62
4
100
AcDbLine
 10
68.073471
 20
-0.602862
 30
0.0
 11
67.791924
 21
-0.445004
 31
0.0
  0
LINE
  5
55A
330
1F
100
AcDbEntity
  8
1
  6
CONTINUOUS
370
50
 62
4
100
AcDbLine
 10
59.401669
 20
0.425316
 30
0.0
 11
59.13567399999999
 21
0.574247
 31
0.0
  0
LINE
  5
55B
330
1F
100
AcDbEntity
  8
1
  6
CONTINUOUS
370
50
 62
4
100
AcDbLine
 10
61.258011
 20
-0.631545
 30
0.0
 11
60.98218199999999
 21
-0.478172
 31
0.0
  0
LINE
  5
55C
330
1F
100
AcDbEntity
  8
1
  6
CONTINUOUS
370
50
 62
4
100
AcDbLine
 10
70.433311
 20
0.504598
 30
0.0
 11
70.09646599999999
 21
0.690348
 31
0.0
  0
LINE
  5
55D
330
1F
100
AcDbEntity
  8
1
  6
CONTINUOUS
370
50
 62
4
100
AcDbLine
 10
77.370674
 20
0.467186
 30
0.0
 11
77.025848
 21
0.65684
 31
0.0
  0
LINE
  5
55E
330
1F
100
AcDbEntity
  8
1
  6
CONTINUOUS
370
50
 62
4
100
AcDbLine
 10
72.47831699999999
 20
-0.6556679999999999
 30
0.0
 11
72.134552
 21
-0.466637
 31
0.0
  0
LINE
  5
55F
330
1F
100
AcDbEntity
  8
1
  6
CONTINUOUS
370
50
 62
4
100
AcDbLine
 10
66.073486
 20
0.535913
 30
0.0
 11
65.78598
 21
0.6938369999999999
 31
0.0
  0
LINE
  5
560
330
1F
100
AcDbEntity
  8
1
  6
CONTINUOUS
370
50
 62
4
100
AcDbLine
 10
68.35387399999999
 20
-0.7563759999999999
 30
0.0
 11
68.073471
 21
-0.602862
 31
0.0
  0
LINE
  5
561
330
1F
100
AcDbEntity
  8
1
  6
CONTINUOUS
370
50
 62
4
100
AcDbLine
 10
61.53297
 20
-0.781141
 30
0.0
 11
61.258011
 21
-0.631545
 31
0.0
  0
LINE
  5
562
330
1F
100
AcDbEntity
  8
1
  6
CONTINUOUS
370
50
 62
4
100
AcDbLine
 10
59.13567399999999
 20
0.574247
 30
0.0
 11
58.868427
 21
0.719509
 31
0.0
  0
LINE
  5
563
330
1F
100
AcDbEntity
  8
1
  6
CONTINUOUS
370
50
 62
4
100
AcDbLine
 10
70.09646599999999
 20
0.690348
 30
0.0
 11
69.761391
 21
0.8700669999999999
 31
0.0
  0
LINE
  5
564
330
1F
100
AcDbEntity
  8
1
  6
CONTINUOUS
370
50
 62
4
100
AcDbLine
 10
77.025848
 20
0.65684
 30
0.0
 11
76.682495
 21
0.8409059999999999
 31
0.0
  0
LINE
  5
565
330
1F
100
AcDbEntity
  8
1
  6
CONTINUOUS
370
50
 62
4
100
AcDbLine
 10
72.820404
 20
-0.838587
 30
0.0
 11
72.47831699999999
 21
-0.6556679999999999
 31
0.0
  0
LINE
  5
566
330
1F
100
AcDbEntity
  8
1
  6
CONTINUOUS
370
50
 62
4
100
AcDbLine
 10
65.78598
 20
0.6938369999999999
 30
0.0
 11
65.496445
 21
0.8468629999999999
 31
0.0
  0
LINE
  5
567
330
1F
100
AcDbEntity
  8
1
  6
CONTINUOUS
370
50
 62
4
100
AcDbLine
 10
68.63501
 20
-0.904856
 30
0.0
 11
68.35387399999999
 21
-0.7563759999999999
 31
0.0
  0
LINE
  5
568
330
1F
100
AcDbEntity
  8
1
  6
CONTINUOUS
370
50
 62
4
100
AcDbLine
 10
57.618095
 20
-0.984416
 30
0.0
 11
57.277775
 21
-0.8047869999999999
 31
0.0
  0
LINE
  5
569
330
1F
100
AcDbEntity
  8
1
  6
CONTINUOUS
370
50
 62
4
100
AcDbLine
 10
58.868427
 20
0.719509
 30
0.0
 11
58.603359
 21
0.859352
 31
0.0
  0
LINE
  5
56A
330
1F
100
AcDbEntity
  8
1
  6
CONTINUOUS
370
50
 62
4
100
AcDbLine
 10
61.808739
 20
-0.92631
 30
0.0
 11
61.53297
 21
-0.781141
 31
0.0
  0
LINE
  5
56B
330
1F
100
AcDbEntity
  8
1
  6
CONTINUOUS
370
50
 62
4
100
AcDbLine
 10
76.682495
 20
0.8409059999999999
 30
0.0
 11
76.341927
 21
1.017044
 31
0.0
  0
LINE
  5
56C
330
1F
100
AcDbEntity
  8
1
  6
CONTINUOUS
370
50
 62
4
100
AcDbLine
 10
73.159691
 20
-1.013768
 30
0.0
 11
72.820404
 21
-0.838587
 31
0.0
  0
LINE
  5
56D
330
1F
100
AcDbEntity
  8
1
  6
CONTINUOUS
370
50
 62
4
100
AcDbLine
 10
65.496445
 20
0.8468629999999999
 30
0.0
 11
65.207489
 21
0.9949479999999999
 31
0.0
  0
LINE
  5
56E
330
1F
100
AcDbEntity
  8
1
  6
CONTINUOUS
370
50
 62
4
100
AcDbLine
 10
69.761391
 20
0.8700669999999999
 30
0.0
 11
69.425827
 21
1.041779
 31
0.0
  0
LINE
  5
56F
330
1F
100
AcDbEntity
  8
1
  6
CONTINUOUS
370
50
 62
4
100
AcDbLine
 10
58.603359
 20
0.859352
 30
0.0
 11
58.338421
 21
0.994811
 31
0.0
  0
LINE
  5
570
330
1F
100
AcDbEntity
  8
1
  6
CONTINUOUS
370
50
 62
4
100
AcDbLine
 10
68.91848
 20
-1.047512
 30
0.0
 11
68.63501
 21
-0.904856
 31
0.0
  0
LINE
  5
571
330
1F
100
AcDbEntity
  8
1
  6
CONTINUOUS
370
50
 62
4
100
AcDbLine
 10
62.086845
 20
-1.066247
 30
0.0
 11
61.808739
 21
-0.92631
 31
0.0
  0
LINE
  5
572
330
1F
100
AcDbEntity
  8
1
  6
CONTINUOUS
370
50
 62
4
100
AcDbLine
 10
65.207489
 20
0.9949479999999999
 30
0.0
 11
64.921204
 21
1.136501
 31
0.0
  0
LINE
  5
573
330
1F
100
AcDbEntity
  8
1
  6
CONTINUOUS
370
50
 62
4
100
AcDbLine
 10
57.95987299999999
 20
-1.153407
 30
0.0
 11
57.618095
 21
-0.984416
 31
0.0
  0
LINE
  5
574
330
1F
100
AcDbEntity
  8
1
  6
CONTINUOUS
370
50
 62
4
100
AcDbLine
 10
58.338421
 20
0.994811
 30
0.0
 11
58.073608
 21
1.125216
 31
0.0
  0
LINE
  5
575
330
1F
100
AcDbEntity
  8
1
  6
CONTINUOUS
370
50
 62
4
100
AcDbLine
 10
73.498886
 20
-1.179854
 30
0.0
 11
73.159691
 21
-1.013768
 31
0.0
  0
LINE
  5
576
330
1F
100
AcDbEntity
  8
1
  6
CONTINUOUS
370
50
 62
4
100
AcDbLine
 10
76.341927
 20
1.017044
 30
0.0
 11
76.001701
 21
1.183019
 31
0.0
  0
LINE
  5
577
330
1F
100
AcDbEntity
  8
1
  6
CONTINUOUS
370
50
 62
4
100
AcDbLine
 10
78.988205
 20
-0.452467
 30
0.0
 11
78.90096299999999
 21
-0.410085
 31
0.0
  0
LINE
  5
578
330
1F
100
AcDbEntity
  8
1
  6
CONTINUOUS
370
50
 62
4
100
AcDbLine
 10
57.279774
 20
1.508541
 30
0.0
 11
57.182529
 21
1.555249
 31
0.0
  0
LINE
  5
579
330
1F
100
AcDbEntity
  8
1
  6
CONTINUOUS
370
50
 62
4
100
AcDbLine
 10
69.425827
 20
1.041779
 30
0.0
 11
69.08798999999999
 21
1.203715
 31
0.0
  0
LINE
  5
57A
330
1F
100
AcDbEntity
  8
1
  6
CONTINUOUS
370
50
 62
4
100
AcDbLine
 10
69.202888
 20
-1.183653
 30
0.0
 11
68.91848
 21
-1.047512
 31
0.0
  0
LINE
  5
57B
330
1F
100
AcDbEntity
  8
1
  6
CONTINUOUS
370
50
 62
4
100
AcDbLine
 10
62.366425
 20
-1.199311
 30
0.0
 11
62.086845
 21
-1.066247
 31
0.0
  0
LINE
  5
57C
330
1F
100
AcDbEntity
  8
1
  6
CONTINUOUS
370
50
 62
4
100
AcDbLine
 10
58.073608
 20
1.125216
 30
0.0
 11
57.808907
 21
1.249899
 31
0.0
  0
LINE
  5
57D
330
1F
100
AcDbEntity
  8
1
  6
CONTINUOUS
370
50
 62
4
100
AcDbLine
 10
64.921204
 20
1.136501
 30
0.0
 11
64.635971
 21
1.270566
 31
0.0
  0
LINE
  5
57E
330
1F
100
AcDbEntity
  8
1
  6
CONTINUOUS
370
50
 62
4
100
AcDbLine
 10
58.302544
 20
-1.310824
 30
0.0
 11
57.95987299999999
 21
-1.153407
 31
0.0
  0
LINE
  5
57F
330
1F
100
AcDbEntity
  8
1
  6
CONTINUOUS
370
50
 62
4
100
AcDbLine
 10
69.485184
 20
-1.312752
 30
0.0
 11
69.202888
 21
-1.183653
 31
0.0
  0
LINE
  5
580
330
1F
100
AcDbEntity
  8
1
  6
CONTINUOUS
370
50
 62
4
100
AcDbLine
 10
73.840431
 20
-1.335187
 30
0.0
 11
73.498886
 21
-1.179854
 31
0.0
  0
LINE
  5
581
330
1F
100
AcDbEntity
  8
1
  6
CONTINUOUS
370
50
 62
4
100
AcDbLine
 10
62.645134
 20
-1.325098
 30
0.0
 11
62.366425
 21
-1.199311
 31
0.0
  0
LINE
  5
582
330
1F
100
AcDbEntity
  8
1
  6
CONTINUOUS
370
50
 62
4
100
AcDbLine
 10
76.001701
 20
1.183019
 30
0.0
 11
75.658592
 21
1.337684
 31
0.0
  0
LINE
  5
583
330
1F
100
AcDbEntity
  8
1
  6
CONTINUOUS
370
50
 62
4
100
AcDbLine
 10
57.808907
 20
1.249899
 30
0.0
 11
57.544296
 21
1.36819
 31
0.0
  0
LINE
  5
584
330
1F
100
AcDbEntity
  8
1
  6
CONTINUOUS
370
50
 62
4
100
AcDbLine
 10
69.08798999999999
 20
1.203715
 30
0.0
 11
68.750038
 21
1.35476
 31
0.0
  0
LINE
  5
585
330
1F
100
AcDbEntity
  8
1
  6
CONTINUOUS
370
50
 62
4
100
AcDbLine
 10
64.635971
 20
1.270566
 30
0.0
 11
64.34973099999999
 21
1.396507
 31
0.0
  0
LINE
  5
586
330
1F
100
AcDbEntity
  8
1
  6
CONTINUOUS
370
50
 62
4
100
AcDbLine
 10
79.058189
 20
-0.483117
 30
0.0
 11
78.988205
 21
-0.452467
 31
0.0
  0
LINE
  5
587
330
1F
100
AcDbEntity
  8
1
  6
CONTINUOUS
370
50
 62
4
100
AcDbLine
 10
57.182529
 20
1.555249
 30
0.0
 11
57.085278
 21
1.597806
 31
0.0
  0
LINE
  5
588
330
1F
100
AcDbEntity
  8
1
  6
CONTINUOUS
370
50
 62
4
100
AcDbLine
 10
69.765335
 20
-1.433369
 30
0.0
 11
69.485184
 21
-1.312752
 31
0.0
  0
LINE
  5
589
330
1F
100
AcDbEntity
  8
1
  6
CONTINUOUS
370
50
 62
4
100
AcDbLine
 10
62.92221799999999
 20
-1.44308
 30
0.0
 11
62.645134
 21
-1.325098
 31
0.0
  0
LINE
  5
58A
330
1F
100
AcDbEntity
  8
1
  6
CONTINUOUS
370
50
 62
4
100
AcDbLine
 10
58.645546
 20
-1.45573
 30
0.0
 11
58.302544
 21
-1.310824
 31
0.0
  0
LINE
  5
58B
330
1F
100
AcDbEntity
  8
1
  6
CONTINUOUS
370
50
 62
4
100
AcDbLine
 10
57.544296
 20
1.36819
 30
0.0
 11
57.279774
 21
1.47942
 31
0.0
  0
LINE
  5
58C
330
1F
100
AcDbEntity
  8
1
  6
CONTINUOUS
370
50
 62
4
100
AcDbLine
 10
74.18337199999999
 20
-1.477887
 30
0.0
 11
73.840431
 21
-1.335187
 31
0.0
  0
LINE
  5
58D
330
1F
100
AcDbEntity
  8
1
  6
CONTINUOUS
370
50
 62
4
100
AcDbLine
 10
75.658592
 20
1.337684
 30
0.0
 11
75.314278
 21
1.480667
 31
0.0
  0
LINE
  5
58E
330
1F
100
AcDbEntity
  8
1
  6
CONTINUOUS
370
50
 62
4
100
AcDbLine
 10
68.750038
 20
1.35476
 30
0.0
 11
68.414566
 21
1.493978
 31
0.0
  0
LINE
  5
58F
330
1F
100
AcDbEntity
  8
1
  6
CONTINUOUS
370
50
 62
4
100
AcDbLine
 10
64.34973099999999
 20
1.396507
 30
0.0
 11
64.060966
 21
1.513299
 31
0.0
  0
LINE
  5
590
330
1F
100
AcDbEntity
  8
1
  6
CONTINUOUS
370
50
 62
4
100
AcDbLine
 10
70.04531899999999
 20
-1.54497
 30
0.0
 11
69.765335
 21
-1.433369
 31
0.0
  0
LINE
  5
591
330
1F
100
AcDbEntity
  8
1
  6
CONTINUOUS
370
50
 62
4
100
AcDbLine
 10
57.085278
 20
1.597806
 30
0.0
 11
56.987934
 21
1.636386
 31
0.0
  0
LINE
  5
592
330
1F
100
AcDbEntity
  8
1
  6
CONTINUOUS
370
50
 62
4
100
AcDbLine
 10
63.199135
 20
-1.552601
 30
0.0
 11
62.92221799999999
 21
-1.44308
 31
0.0
  0
LINE
  5
593
330
1F
100
AcDbEntity
  8
1
  6
CONTINUOUS
370
50
 62
4
100
AcDbLine
 10
79.11288499999999
 20
-0.504297
 30
0.0
 11
79.058189
 21
-0.483117
 31
0.0
  0
LINE
  5
594
330
1F
100
AcDbEntity
  8
1
  6
CONTINUOUS
370
50
 62
4
100
AcDbLine
 10
58.988312
 20
-1.587192
 30
0.0
 11
58.645546
 21
-1.45573
 31
0.0
  0
LINE
  5
595
330
1F
100
AcDbEntity
  8
1
  6
CONTINUOUS
370
50
 62
4
100
AcDbLine
 10
75.314278
 20
1.480667
 30
0.0
 11
74.97377
 21
1.609964
 31
0.0
  0
LINE
  5
596
330
1F
100
AcDbEntity
  8
1
  6
CONTINUOUS
370
50
 62
4
100
AcDbLine
 10
74.525879
 20
-1.607123
 30
0.0
 11
74.18337199999999
 21
-1.477887
 31
0.0
  0
LINE
  5
597
330
1F
100
AcDbEntity
  8
1
  6
CONTINUOUS
370
50
 62
4
100
AcDbLine
 10
68.414566
 20
1.493978
 30
0.0
 11
68.080742
 21
1.619837
 31
0.0
  0
LINE
  5
598
330
1F
100
AcDbEntity
  8
1
  6
CONTINUOUS
370
50
 62
4
100
AcDbLine
 10
80.0
 20
0.0
 30
0.0
 11
79.87483999999999
 21
0.046709
 31
0.0
  0
LINE
  5
599
330
1F
100
AcDbEntity
  8
1
  6
CONTINUOUS
370
50
 62
4
100
AcDbLine
 10
64.060966
 20
1.513299
 30
0.0
 11
63.772129
 21
1.61955
 31
0.0
  0
LINE
  5
59A
330
1F
100
AcDbEntity
  8
1
  6
CONTINUOUS
370
50
 62
4
100
AcDbLine
 10
63.430176
 20
-1.636959
 30
0.0
 11
63.200001
 21
-1.553333
 31
0.0
  0
LINE
  5
59B
330
1F
100
AcDbEntity
  8
1
  6
CONTINUOUS
370
50
 62
4
100
AcDbLine
 10
70.327103
 20
-1.647028
 30
0.0
 11
70.04531899999999
 21
-1.54497
 31
0.0
  0
LINE
  5
59C
330
1F
100
AcDbEntity
  8
1
  6
CONTINUOUS
370
50
 62
4
100
AcDbLine
 10
80.0
 20
0.0
 30
0.0
 11
79.869377
 21
0.046718
 31
0.0
  0
LINE
  5
59D
330
1F
100
AcDbEntity
  8
1
  6
CONTINUOUS
370
50
 62
4
100
AcDbLine
 10
56.987934
 20
1.636386
 30
0.0
 11
56.890415
 21
1.671158
 31
0.0
  0
LINE
  5
59E
330
1F
100
AcDbEntity
  8
1
  6
CONTINUOUS
370
50
 62
4
100
AcDbLine
 10
59.330284
 20
-1.704274
 30
0.0
 11
58.988312
 21
-1.587192
 31
0.0
  0
LINE
  5
59F
330
1F
100
AcDbEntity
  8
1
  6
CONTINUOUS
370
50
 62
4
100
AcDbLine
 10
79.15441899999999
 20
-0.518315
 30
0.0
 11
79.11288499999999
 21
-0.504297
 31
0.0
  0
LINE
  5
5A0
330
1F
100
AcDbEntity
  8
1
  6
CONTINUOUS
370
50
 62
4
100
AcDbLine
 10
79.25386
 20
1.619735
 30
0.0
 11
79.03971899999999
 21
1.691975
 31
0.0
  0
LINE
  5
5A1
330
1F
100
AcDbEntity
  8
1
  6
CONTINUOUS
370
50
 62
4
100
AcDbLine
 10
74.97377
 20
1.609964
 30
0.0
 11
74.635094
 21
1.724158
 31
0.0
  0
LINE
  5
5A2
330
1F
100
AcDbEntity
  8
1
  6
CONTINUOUS
370
50
 62
4
100
AcDbLine
 10
74.866035
 20
-1.721799
 30
0.0
 11
74.525879
 21
-1.607123
 31
0.0
  0
LINE
  5
5A3
330
1F
100
AcDbEntity
  8
1
  6
CONTINUOUS
370
50
 62
4
100
AcDbLine
 10
63.772129
 20
1.61955
 30
0.0
 11
63.485718
 21
1.715277
 31
0.0
  0
LINE
  5
5A4
330
1F
100
AcDbEntity
  8
1
  6
CONTINUOUS
370
50
 62
4
100
AcDbLine
 10
68.080742
 20
1.619837
 30
0.0
 11
67.745476
 21
1.731422
 31
0.0
  0
LINE
  5
5A5
330
1F
100
AcDbEntity
  8
1
  6
CONTINUOUS
370
50
 62
4
100
AcDbLine
 10
63.660973
 20
-1.713504
 30
0.0
 11
63.430176
 21
-1.636959
 31
0.0
  0
LINE
  5
5A6
330
1F
100
AcDbEntity
  8
1
  6
CONTINUOUS
370
50
 62
4
100
AcDbLine
 10
70.611862
 20
-1.738776
 30
0.0
 11
70.327103
 21
-1.647028
 31
0.0
  0
LINE
  5
5A7
330
1F
100
AcDbEntity
  8
1
  6
CONTINUOUS
370
50
 62
4
100
AcDbLine
 10
56.890415
 20
1.671158
 30
0.0
 11
56.792637
 21
1.702294
 31
0.0
  0
LINE
  5
5A8
330
1F
100
AcDbEntity
  8
1
  6
CONTINUOUS
370
50
 62
4
100
AcDbLine
 10
79.03971899999999
 20
1.691975
 30
0.0
 11
78.82524099999999
 21
1.758399
 31
0.0
  0
LINE
  5
5A9
330
1F
100
AcDbEntity
  8
1
  6
CONTINUOUS
370
50
 62
4
100
AcDbLine
 10
63.892117
 20
-1.782774
 30
0.0
 11
63.660973
 21
-1.713504
 31
0.0
  0
LINE
  5
5AA
330
1F
100
AcDbEntity
  8
1
  6
CONTINUOUS
370
50
 62
4
100
AcDbLine
 10
59.670868
 20
-1.805988
 30
0.0
 11
59.330284
 21
-1.704274
 31
0.0
  0
LINE
  5
5AB
330
1F
100
AcDbEntity
  8
1
  6
CONTINUOUS
370
50
 62
4
100
AcDbLine
 10
63.485718
 20
1.715277
 30
0.0
 11
63.200001
 21
1.800345
 31
0.0
  0
LINE
  5
5AC
330
1F
100
AcDbEntity
  8
1
  6
CONTINUOUS
370
50
 62
4
100
AcDbLine
 10
75.203873
 20
-1.820151
 30
0.0
 11
74.866035
 21
-1.721799
 31
0.0
  0
LINE
  5
5AD
330
1F
100
AcDbEntity
  8
1
  6
CONTINUOUS
370
50
 62
4
100
AcDbLine
 10
74.635094
 20
1.724158
 30
0.0
 11
74.294724
 21
1.822532
 31
0.0
  0
LINE
  5
5AE
330
1F
100
AcDbEntity
  8
1
  6
CONTINUOUS
370
50
 62
4
100
AcDbLine
 10
79.191605
 20
-0.528878
 30
0.0
 11
79.15441899999999
 21
-0.518315
 31
0.0
  0
LINE
  5
5AF
330
1F
100
AcDbEntity
  8
1
  6
CONTINUOUS
370
50
 62
4
100
AcDbLine
 10
67.745476
 20
1.731422
 30
0.0
 11
67.407654
 21
1.827346
 31
0.0
  0
LINE
  5
5B0
330
1F
100
AcDbEntity
  8
1
  6
CONTINUOUS
370
50
 62
4
100
AcDbLine
 10
70.897156
 20
-1.81954
 30
0.0
 11
70.611862
 21
-1.738776
 31
0.0
  0
LINE
  5
5B1
330
1F
100
AcDbEntity
  8
1
  6
CONTINUOUS
370
50
 62
4
100
AcDbLine
 10
78.82524099999999
 20
1.758399
 30
0.0
 11
78.611504
 21
1.818713
 31
0.0
  0
LINE
  5
5B2
330
1F
100
AcDbEntity
  8
1
  6
CONTINUOUS
370
50
 62
4
100
AcDbLine
 10
56.792637
 20
1.702294
 30
0.0
 11
56.694515
 21
1.729966
 31
0.0
  0
LINE
  5
5B3
330
1F
100
AcDbEntity
  8
1
  6
CONTINUOUS
370
50
 62
4
100
AcDbLine
 10
54.0
 20
2.05
 30
0.0
 11
50.5
 21
3.0
 31
0.0
  0
LINE
  5
5B4
330
1F
100
AcDbEntity
  8
1
  6
CONTINUOUS
370
50
 62
4
100
AcDbLine
 10
64.123329
 20
-1.844575
 30
0.0
 11
63.892117
 21
-1.782774
 31
0.0
  0
LINE
  5
5B5
330
1F
100
AcDbEntity
  8
1
  6
CONTINUOUS
370
50
 62
4
100
AcDbLine
 10
63.199135
 20
1.799888
 30
0.0
 11
62.894817
 21
1.877677
 31
0.0
  0
LINE
  5
5B6
330
1F
100
AcDbEntity
  8
1
  6
CONTINUOUS
370
50
 62
4
100
AcDbLine
 10
63.19942099999999
 20
-1.799959
 30
0.0
 11
63.19927999999999
 21
-1.799923
 31
0.0
  0
LINE
  5
5B7
330
1F
100
AcDbEntity
  8
1
  6
CONTINUOUS
370
50
 62
4
100
AcDbLine
 10
78.611504
 20
1.818713
 30
0.0
 11
78.398071
 21
1.872536
 31
0.0
  0
LINE
  5
5B8
330
1F
100
AcDbEntity
  8
1
  6
CONTINUOUS
370
50
 62
4
100
AcDbLine
 10
60.010025
 20
-1.890679
 30
0.0
 11
59.670868
 21
-1.805988
 31
0.0
  0
LINE
  5
5B9
330
1F
100
AcDbEntity
  8
1
  6
CONTINUOUS
370
50
 62
4
100
AcDbLine
 10
63.199856
 20
-1.800065
 30
0.0
 11
63.199711
 21
-1.800029
 31
0.0
  0
LINE
  5
5BA
330
1F
100
AcDbEntity
  8
1
  6
CONTINUOUS
370
50
 62
4
100
AcDbLine
 10
56.694515
 20
1.729966
 30
0.0
 11
56.595966
 21
1.754344
 31
0.0
  0
LINE
  5
5BB
330
1F
100
AcDbEntity
  8
1
  6
CONTINUOUS
370
50
 62
4
100
AcDbLine
 10
71.18047299999999
 20
-1.889063
 30
0.0
 11
70.897156
 21
-1.81954
 31
0.0
  0
LINE
  5
5BC
330
1F
100
AcDbEntity
  8
1
  6
CONTINUOUS
370
50
 62
4
100
AcDbLine
 10
63.200001
 20
-1.8001
 30
0.0
 11
63.199856
 21
-1.800065
 31
0.0
  0
LINE
  5
5BD
330
1F
100
AcDbEntity
  8
1
  6
CONTINUOUS
370
50
 62
4
100
AcDbLine
 10
63.199711
 20
-1.800029
 30
0.0
 11
63.19942099999999
 21
-1.799959
 31
0.0
  0
LINE
  5
5BE
330
1F
100
AcDbEntity
  8
1
  6
CONTINUOUS
370
50
 62
4
100
AcDbLine
 10
63.19927999999999
 20
-1.799923
 30
0.0
 11
63.199135
 21
-1.799888
 31
0.0
  0
LINE
  5
5BF
330
1F
100
AcDbEntity
  8
1
  6
CONTINUOUS
370
50
 62
4
100
AcDbLine
 10
75.54257199999999
 20
-1.901612
 30
0.0
 11
75.203873
 21
-1.820151
 31
0.0
  0
LINE
  5
5C0
330
1F
100
AcDbEntity
  8
1
  6
CONTINUOUS
370
50
 62
4
100
AcDbLine
 10
74.294724
 20
1.822532
 30
0.0
 11
73.951149
 21
1.903967
 31
0.0
  0
LINE
  5
5C1
330
1F
100
AcDbEntity
  8
1
  6
CONTINUOUS
370
50
 62
4
100
AcDbLine
 10
67.407654
 20
1.827346
 30
0.0
 11
67.069817
 21
1.906888
 31
0.0
  0
LINE
  5
5C2
330
1F
100
AcDbEntity
  8
1
  6
CONTINUOUS
370
50
 62
4
100
AcDbLine
 10
64.354347
 20
-1.898712
 30
0.0
 11
64.123329
 21
-1.844575
 31
0.0
  0
LINE
  5
5C3
330
1F
100
AcDbEntity
  8
1
  6
CONTINUOUS
370
50
 62
4
100
AcDbLine
 10
79.23535199999999
 20
2.049902
 30
0.0
 11
79.23505399999999
 21
2.049968
 31
0.0
  0
LINE
  5
5C4
330
1F
100
AcDbEntity
  8
1
  6
CONTINUOUS
370
50
 62
4
100
AcDbLine
 10
78.398071
 20
1.872536
 30
0.0
 11
78.184654
 21
1.919544
 31
0.0
  0
LINE
  5
5C5
330
1F
100
AcDbEntity
  8
1
  6
CONTINUOUS
370
50
 62
4
100
AcDbLine
 10
56.595966
 20
1.754344
 30
0.0
 11
56.496906
 21
1.775601
 31
0.0
  0
LINE
  5
5C6
330
1F
100
AcDbEntity
  8
1
  6
CONTINUOUS
370
50
 62
4
100
AcDbLine
 10
79.227463
 20
-0.536524
 30
0.0
 11
79.191605
 21
-0.528878
 31
0.0
  0
LINE
  5
5C7
330
1F
100
AcDbEntity
  8
1
  6
CONTINUOUS
370
50
 62
4
100
AcDbLine
 10
62.894817
 20
1.877677
 30
0.0
 11
62.591179
 21
1.941209
 31
0.0
  0
LINE
  5
5C8
330
1F
100
AcDbEntity
  8
1
  6
CONTINUOUS
370
50
 62
4
100
AcDbLine
 10
71.462563
 20
-1.946639
 30
0.0
 11
71.18047299999999
 21
-1.889063
 31
0.0
  0
LINE
  5
5C9
330
1F
100
AcDbEntity
  8
1
  6
CONTINUOUS
370
50
 62
4
100
AcDbLine
 10
64.58487699999999
 20
-1.944991
 30
0.0
 11
64.354347
 21
-1.898712
 31
0.0
  0
LINE
  5
5CA
330
1F
100
AcDbEntity
  8
1
  6
CONTINUOUS
370
50
 62
4
100
AcDbLine
 10
60.350376
 20
-1.957697
 30
0.0
 11
60.010025
 21
-1.890679
 31
0.0
  0
LINE
  5
5CB
330
1F
100
AcDbEntity
  8
1
  6
CONTINUOUS
370
50
 62
4
100
AcDbLine
 10
75.88449899999999
 20
-1.965834
 30
0.0
 11
75.54257199999999
 21
-1.901612
 31
0.0
  0
LINE
  5
5CC
330
1F
100
AcDbEntity
  8
1
  6
CONTINUOUS
370
50
 62
4
100
AcDbLine
 10
73.951149
 20
1.903967
 30
0.0
 11
73.611778
 21
1.967534
 31
0.0
  0
LINE
  5
5CD
330
1F
100
AcDbEntity
  8
1
  6
CONTINUOUS
370
50
 62
4
100
AcDbLine
 10
78.184654
 20
1.919544
 30
0.0
 11
77.97174799999999
 21
1.959377
 31
0.0
  0
LINE
  5
5CE
330
1F
100
AcDbEntity
  8
1
  6
CONTINUOUS
370
50
 62
4
100
AcDbLine
 10
67.069817
 20
1.906888
 30
0.0
 11
66.734741
 21
1.969529
 31
0.0
  0
LINE
  5
5CF
330
1F
100
AcDbEntity
  8
1
  6
CONTINUOUS
370
50
 62
4
100
AcDbLine
 10
56.496906
 20
1.775601
 30
0.0
 11
56.397247
 21
1.793907
 31
0.0
  0
LINE
  5
5D0
330
1F
100
AcDbEntity
  8
1
  6
CONTINUOUS
370
50
 62
4
100
AcDbLine
 10
64.814278
 20
-1.983068
 30
0.0
 11
64.58487699999999
 21
-1.944991
 31
0.0
  0
LINE
  5
5D1
330
1F
100
AcDbEntity
  8
1
  6
CONTINUOUS
370
50
 62
4
100
AcDbLine
 10
62.591179
 20
1.941209
 30
0.0
 11
62.285629
 21
1.990323
 31
0.0
  0
LINE
  5
5D2
330
1F
100
AcDbEntity
  8
1
  6
CONTINUOUS
370
50
 62
4
100
AcDbLine
 10
71.745438
 20
-1.991914
 30
0.0
 11
71.462563
 21
-1.946639
 31
0.0
  0
LINE
  5
5D3
330
1F
100
AcDbEntity
  8
1
  6
CONTINUOUS
370
50
 62
4
100
AcDbLine
 10
56.397247
 20
1.793907
 30
0.0
 11
56.296909
 21
1.809433
 31
0.0
  0
LINE
  5
5D4
330
1F
100
AcDbEntity
  8
1
  6
CONTINUOUS
370
50
 62
4
100
AcDbLine
 10
77.97174799999999
 20
1.959377
 30
0.0
 11
77.75872799999999
 21
1.99201
 31
0.0
  0
LINE
  5
5D5
330
1F
100
AcDbEntity
  8
1
  6
CONTINUOUS
370
50
 62
4
100
AcDbLine
 10
60.692814
 20
-2.006628
 30
0.0
 11
60.350376
 21
-1.957697
 31
0.0
  0
LINE
  5
5D6
330
1F
100
AcDbEntity
  8
1
  6
CONTINUOUS
370
50
 62
4
100
AcDbLine
 10
76.225021
 20
-2.012407
 30
0.0
 11
75.88449899999999
 21
-1.965834
 31
0.0
  0
LINE
  5
5D7
330
1F
100
AcDbEntity
  8
1
  6
CONTINUOUS
370
50
 62
4
100
AcDbLine
 10
73.611778
 20
1.967534
 30
0.0
 11
73.27597
 21
2.013345
 31
0.0
  0
LINE
  5
5D8
330
1F
100
AcDbEntity
  8
1
  6
CONTINUOUS
370
50
 62
4
100
AcDbLine
 10
66.734741
 20
1.969529
 30
0.0
 11
66.40207699999999
 21
2.01455
 31
0.0
  0
LINE
  5
5D9
330
1F
100
AcDbEntity
  8
1
  6
CONTINUOUS
370
50
 62
4
100
AcDbLine
 10
65.04274699999999
 20
-2.01271
 30
0.0
 11
64.814278
 21
-1.983068
 31
0.0
  0
LINE
  5
5DA
330
1F
100
AcDbEntity
  8
1
  6
CONTINUOUS
370
50
 62
4
100
AcDbLine
 10
56.296909
 20
1.809433
 30
0.0
 11
56.195652
 21
1.82235
 31
0.0
  0
LINE
  5
5DB
330
1F
100
AcDbEntity
  8
1
  6
CONTINUOUS
370
50
 62
4
100
AcDbLine
 10
77.75872799999999
 20
1.99201
 30
0.0
 11
77.54496
 21
2.017427
 31
0.0
  0
LINE
  5
5DC
330
1F
100
AcDbEntity
  8
1
  6
CONTINUOUS
370
50
 62
4
100
AcDbLine
 10
72.03044899999999
 20
-2.024428
 30
0.0
 11
71.745438
 21
-1.991914
 31
0.0
  0
LINE
  5
5DD
330
1F
100
AcDbEntity
  8
1
  6
CONTINUOUS
370
50
 62
4
100
AcDbLine
 10
79.260712
 20
-0.5402859999999999
 30
0.0
 11
79.227463
 21
-0.536524
 31
0.0
  0
LINE
  5
5DE
330
1F
100
AcDbEntity
  8
1
  6
CONTINUOUS
370
50
 62
4
100
AcDbLine
 10
62.285629
 20
1.990323
 30
0.0
 11
61.97866399999999
 21
2.025001
 31
0.0
  0
LINE
  5
5DF
330
1F
100
AcDbEntity
  8
1
  6
CONTINUOUS
370
50
 62
4
100
AcDbLine
 10
56.195652
 20
1.82235
 30
0.0
 11
56.093048
 21
1.832699
 31
0.0
  0
LINE
  5
5E0
330
1F
100
AcDbEntity
  8
1
  6
CONTINUOUS
370
50
 62
4
100
AcDbLine
 10
65.271309
 20
-2.033897
 30
0.0
 11
65.04274699999999
 21
-2.01271
 31
0.0
  0
LINE
  5
5E1
330
1F
100
AcDbEntity
  8
1
  6
CONTINUOUS
370
50
 62
4
100
AcDbLine
 10
61.03294
 20
-2.03744
 30
0.0
 11
60.692814
 21
-2.006628
 31
0.0
  0
LINE
  5
5E2
330
1F
100
AcDbEntity
  8
1
  6
CONTINUOUS
370
50
 62
4
100
AcDbLine
 10
77.54496
 20
2.017427
 30
0.0
 11
77.330322
 21
2.035586
 31
0.0
  0
LINE
  5
5E3
330
1F
100
AcDbEntity
  8
1
  6
CONTINUOUS
370
50
 62
4
100
AcDbLine
 10
76.564583
 20
-2.04066
 30
0.0
 11
76.225021
 21
-2.012407
 31
0.0
  0
LINE
  5
5E4
330
1F
100
AcDbEntity
  8
1
  6
CONTINUOUS
370
50
 62
4
100
AcDbLine
 10
73.27597
 20
2.013345
 30
0.0
 11
72.940445
 21
2.04108
 31
0.0
  0
LINE
  5
5E5
330
1F
100
AcDbEntity
  8
1
  6
CONTINUOUS
370
50
 62
4
100
AcDbLine
 10
66.40207699999999
 20
2.01455
 30
0.0
 11
66.068901
 21
2.041722
 31
0.0
  0
LINE
  5
5E6
330
1F
100
AcDbEntity
  8
1
  6
CONTINUOUS
370
50
 62
4
100
AcDbLine
 10
56.093048
 20
1.832699
 30
0.0
 11
55.989437
 21
1.840382
 31
0.0
  0
LINE
  5
5E7
330
1F
100
AcDbEntity
  8
1
  6
CONTINUOUS
370
50
 62
4
100
AcDbLine
 10
72.31650499999999
 20
-2.043933
 30
0.0
 11
72.03044899999999
 21
-2.024428
 31
0.0
  0
LINE
  5
5E8
330
1F
100
AcDbEntity
  8
1
  6
CONTINUOUS
370
50
 62
4
100
AcDbLine
 10
61.97866399999999
 20
2.025001
 30
0.0
 11
61.674755
 21
2.044885
 31
0.0
  0
LINE
  5
5E9
330
1F
100
AcDbEntity
  8
1
  6
CONTINUOUS
370
50
 62
4
100
AcDbLine
 10
65.501007
 20
-2.046613
 30
0.0
 11
65.271309
 21
-2.033897
 31
0.0
  0
LINE
  5
5EA
330
1F
100
AcDbEntity
  8
1
  6
CONTINUOUS
370
50
 62
4
100
AcDbLine
 10
77.330322
 20
2.035586
 30
0.0
 11
77.11685899999999
 21
2.046503
 31
0.0
  0
LINE
  5
5EB
330
1F
100
AcDbEntity
  8
1
  6
CONTINUOUS
370
50
 62
4
100
AcDbLine
 10
55.989437
 20
1.840382
 30
0.0
 11
55.88523499999999
 21
1.845293
 31
0.0
  0
LINE
  5
5EC
330
1F
100
AcDbEntity
  8
1
  6
CONTINUOUS
370
50
 62
4
100
AcDbLine
 10
61.369808
 20
-2.049759
 30
0.0
 11
61.03294
 21
-2.03744
 31
0.0
  0
LINE
  5
5ED
330
1F
100
AcDbEntity
  8
1
  6
CONTINUOUS
370
50
 62
4
100
AcDbLine
 10
76.90534199999999
 20
-2.050146
 30
0.0
 11
76.564583
 21
-2.04066
 31
0.0
  0
LINE
  5
5EE
330
1F
100
AcDbEntity
  8
1
  6
CONTINUOUS
370
50
 62
4
100
AcDbLine
 10
72.940445
 20
2.04108
 30
0.0
 11
72.60199
 21
2.050414
 31
0.0
  0
LINE
  5
5EF
330
1F
100
AcDbEntity
  8
1
  6
CONTINUOUS
370
50
 62
4
100
AcDbLine
 10
66.068901
 20
2.041722
 30
0.0
 11
65.732338
 21
2.050842
 31
0.0
  0
LINE
  5
5F0
330
1F
100
AcDbEntity
  8
1
  6
CONTINUOUS
370
50
 62
4
100
AcDbLine
 10
72.60199
 20
-2.050414
 30
0.0
 11
72.31650499999999
 21
-2.043933
 31
0.0
  0
LINE
  5
5F1
330
1F
100
AcDbEntity
  8
1
  6
CONTINUOUS
370
50
 62
4
100
AcDbLine
 10
55.88523499999999
 20
1.845293
 30
0.0
 11
55.780846
 21
1.847327
 31
0.0
  0
LINE
  5
5F2
330
1F
100
AcDbEntity
  8
1
  6
CONTINUOUS
370
50
 62
4
100
AcDbLine
 10
65.732338
 20
-2.050842
 30
0.0
 11
65.501007
 21
-2.046613
 31
0.0
  0
LINE
  5
5F3
330
1F
100
AcDbEntity
  8
1
  6
CONTINUOUS
370
50
 62
4
100
AcDbLine
 10
77.11685899999999
 20
2.046503
 30
0.0
 11
76.90534199999999
 21
2.050146
 31
0.0
  0
LINE
  5
5F4
330
1F
100
AcDbEntity
  8
1
  6
CONTINUOUS
370
50
 62
4
100
AcDbLine
 10
61.674755
 20
2.044885
 30
0.0
 11
61.37211199999999
 21
2.049787
 31
0.0
  0
LINE
  5
5F5
330
1F
100
AcDbEntity
  8
1
  6
CONTINUOUS
370
50
 62
4
100
AcDbLine
 10
79.87483999999999
 20
0.046709
 30
0.0
 11
79.869377
 21
0.046718
 31
0.0
  0
LINE
  5
5F6
330
1F
100
AcDbEntity
  8
1
  6
CONTINUOUS
370
50
 62
4
100
AcDbLine
 10
79.23505399999999
 20
2.050001
 30
0.0
 11
76.90534199999999
 21
2.050146
 31
0.0
  0
LINE
  5
5F7
330
1F
100
AcDbEntity
  8
1
  6
CONTINUOUS
370
50
 62
4
100
AcDbLine
 10
72.60199
 20
2.050414
 30
0.0
 11
65.732338
 21
2.050842
 31
0.0
  0
LINE
  5
5F8
330
1F
100
AcDbEntity
  8
1
  6
CONTINUOUS
370
50
 62
4
100
AcDbLine
 10
50.0
 20
-3.0
 30
0.0
 11
50.5
 21
-3.0
 31
0.0
  0
LINE
  5
5F9
330
1F
100
AcDbEntity
  8
1
  6
CONTINUOUS
370
50
 62
4
100
AcDbLine
 10
54.0
 20
-2.05
 30
0.0
 11
61.424721
 21
-2.05
 31
0.0
  0
LINE
  5
5FA
330
1F
100
AcDbEntity
  8
1
  6
CONTINUOUS
370
50
 62
4
100
AcDbLine
 10
54.0
 20
2.05
 30
0.0
 11
61.424702
 21
2.05
 31
0.0
  0
LINE
  5
5FB
330
1F
100
AcDbEntity
  8
1
  6
CONTINUOUS
370
50
 62
4
100
AcDbLine
 10
50.0
 20
3.0
 30
0.0
 11
50.5
 21
3.0
 31
0.0
  0
LINE
  5
5FC
330
1F
100
AcDbEntity
  8
1
  6
CONTINUOUS
370
50
 62
4
100
AcDbLine
 10
65.732338
 20
-2.050842
 30
0.0
 11
72.60199
 21
-2.050414
 31
0.0
  0
LINE
  5
5FD
330
1F
100
AcDbEntity
  8
1
  6
CONTINUOUS
370
50
 62
4
100
AcDbLine
 10
76.90534199999999
 20
-2.050146
 30
0.0
 11
79.23505399999999
 21
-2.050001
 31
0.0
  0
LINE
  5
5FE
330
1F
100
AcDbEntity
  8
1
  6
CONTINUOUS
370
50
 62
4
100
AcDbLine
 10
55.677853
 20
1.846386
 30
0.0
 11
55.780846
 21
1.847327
 31
0.0
  0
LINE
  5
5FF
330
1F
100
AcDbEntity
  8
1
  6
CONTINUOUS
370
50
 62
4
100
AcDbLine
 10
61.369808
 20
-2.049759
 30
0.0
 11
61.672619
 21
-2.044952
 31
0.0
  0
LINE
  5
600
330
1F
100
AcDbEntity
  8
1
  6
CONTINUOUS
370
50
 62
4
100
AcDbLine
 10
65.491928
 20
2.046268
 30
0.0
 11
65.732338
 21
2.050842
 31
0.0
  0
LINE
  5
601
330
1F
100
AcDbEntity
  8
1
  6
CONTINUOUS
370
50
 62
4
100
AcDbLine
 10
76.55066699999999
 20
2.039905
 30
0.0
 11
76.90534199999999
 21
2.050146
 31
0.0
  0
LINE
  5
602
330
1F
100
AcDbEntity
  8
1
  6
CONTINUOUS
370
50
 62
4
100
AcDbLine
 10
72.60199
 20
-2.050414
 30
0.0
 11
72.961601
 21
-2.039867
 31
0.0
  0
LINE
  5
603
330
1F
100
AcDbEntity
  8
1
  6
CONTINUOUS
370
50
 62
4
100
AcDbLine
 10
79.260712
 20
-0.5402859999999999
 30
0.0
 11
79.290115
 21
-0.539195
 31
0.0
  0
LINE
  5
604
330
1F
100
AcDbEntity
  8
1
  6
CONTINUOUS
370
50
 62
4
100
AcDbLine
 10
55.580196
 20
1.842456
 30
0.0
 11
55.677853
 21
1.846386
 31
0.0
  0
LINE
  5
605
330
1F
100
AcDbEntity
  8
1
  6
CONTINUOUS
370
50
 62
4
100
AcDbLine
 10
65.25200699999999
 20
2.032437
 30
0.0
 11
65.491928
 21
2.046268
 31
0.0
  0
LINE
  5
606
330
1F
100
AcDbEntity
  8
1
  6
CONTINUOUS
370
50
 62
4
100
AcDbLine
 10
61.672619
 20
-2.044952
 30
0.0
 11
61.97810399999999
 21
-2.025041
 31
0.0
  0
LINE
  5
607
330
1F
100
AcDbEntity
  8
1
  6
CONTINUOUS
370
50
 62
4
100
AcDbLine
 10
55.488495
 20
1.835588
 30
0.0
 11
55.580196
 21
1.842456
 31
0.0
  0
LINE
  5
608
330
1F
100
AcDbEntity
  8
1
  6
CONTINUOUS
370
50
 62
4
100
AcDbLine
 10
76.195351
 20
2.009073
 30
0.0
 11
76.55066699999999
 21
2.039905
 31
0.0
  0
LINE
  5
609
330
1F
100
AcDbEntity
  8
1
  6
CONTINUOUS
370
50
 62
4
100
AcDbLine
 10
72.961601
 20
-2.039867
 30
0.0
 11
73.318657
 21
-2.008484
 31
0.0
  0
LINE
  5
60A
330
1F
100
AcDbEntity
  8
1
  6
CONTINUOUS
370
50
 62
4
100
AcDbLine
 10
65.013634
 20
2.009405
 30
0.0
 11
65.25200699999999
 21
2.032437
 31
0.0
  0
LINE
  5
60B
330
1F
100
AcDbEntity
  8
1
  6
CONTINUOUS
370
50
 62
4
100
AcDbLine
 10
61.97810399999999
 20
-2.025041
 30
0.0
 11
62.285221
 21
-1.990403
 31
0.0
  0
LINE
  5
60C
330
1F
100
AcDbEntity
  8
1
  6
CONTINUOUS
370
50
 62
4
100
AcDbLine
 10
55.40310299999999
 20
1.825832
 30
0.0
 11
55.488495
 21
1.835588
 31
0.0
  0
LINE
  5
60D
330
1F
100
AcDbEntity
  8
1
  6
CONTINUOUS
370
50
 62
4
100
AcDbLine
 10
78.39334099999999
 20
0.854128
 30
0.0
 11
78.440353
 21
0.8603759999999999
 31
0.0
  0
LINE
  5
60E
330
1F
100
AcDbEntity
  8
1
  6
CONTINUOUS
370
50
 62
4
100
AcDbLine
 10
64.77593999999999
 20
1.977286
 30
0.0
 11
65.013634
 21
2.009405
 31
0.0
  0
LINE
  5
60F
330
1F
100
AcDbEntity
  8
1
  6
CONTINUOUS
370
50
 62
4
100
AcDbLine
 10
75.835548
 20
1.957701
 30
0.0
 11
76.195351
 21
2.009073
 31
0.0
  0
LINE
  5
610
330
1F
100
AcDbEntity
  8
1
  6
CONTINUOUS
370
50
 62
4
100
AcDbLine
 10
73.318657
 20
-2.008484
 30
0.0
 11
73.67712399999999
 21
-1.956578
 31
0.0
  0
LINE
  5
611
330
1F
100
AcDbEntity
  8
1
  6
CONTINUOUS
370
50
 62
4
100
AcDbLine
 10
78.440353
 20
0.8603759999999999
 30
0.0
 11
78.486778
 21
0.867158
 31
0.0
  0
LINE
  5
612
330
1F
100
AcDbEntity
  8
1
  6
CONTINUOUS
370
50
 62
4
100
AcDbLine
 10
78.486778
 20
0.867158
 30
0.0
 11
78.532547
 21
0.8744649999999999
 31
0.0
  0
LINE
  5
613
330
1F
100
AcDbEntity
  8
1
  6
CONTINUOUS
370
50
 62
4
100
AcDbLine
 10
55.32375
 20
1.813119
 30
0.0
 11
55.40310299999999
 21
1.825832
 31
0.0
  0
LINE
  5
614
330
1F
100
AcDbEntity
  8
1
  6
CONTINUOUS
370
50
 62
4
100
AcDbLine
 10
62.285221
 20
-1.990403
 30
0.0
 11
62.590717
 21
-1.941293
 31
0.0
  0
LINE
  5
615
330
1F
100
AcDbEntity
  8
1
  6
CONTINUOUS
370
50
 62
4
100
AcDbLine
 10
64.537796
 20
1.936177
 30
0.0
 11
64.77593999999999
 21
1.977286
 31
0.0
  0
LINE
  5
616
330
1F
100
AcDbEntity
  8
1
  6
CONTINUOUS
370
50
 62
4
100
AcDbLine
 10
78.532547
 20
0.8744649999999999
 30
0.0
 11
78.577606
 21
0.882315
 31
0.0
  0
LINE
  5
617
330
1F
100
AcDbEntity
  8
1
  6
CONTINUOUS
370
50
 62
4
100
AcDbLine
 10
78.577606
 20
0.882315
 30
0.0
 11
78.62187999999999
 21
0.890724
 31
0.0
  0
LINE
  5
618
330
1F
100
AcDbEntity
  8
1
  6
CONTINUOUS
370
50
 62
4
100
AcDbLine
 10
75.47277799999999
 20
1.88628
 30
0.0
 11
75.835548
 21
1.957701
 31
0.0
  0
LINE
  5
619
330
1F
100
AcDbEntity
  8
1
  6
CONTINUOUS
370
50
 62
4
100
AcDbLine
 10
73.67712399999999
 20
-1.956578
 30
0.0
 11
74.038933
 21
-1.8849
 31
0.0
  0
LINE
  5
61A
330
1F
100
AcDbEntity
  8
1
  6
CONTINUOUS
370
50
 62
4
100
AcDbLine
 10
78.62187999999999
 20
0.890724
 30
0.0
 11
78.665306
 21
0.899712
 31
0.0
  0
LINE
  5
61B
330
1F
100
AcDbEntity
  8
1
  6
CONTINUOUS
370
50
 62
4
100
AcDbLine
 10
64.29821
 20
1.886204
 30
0.0
 11
64.537796
 21
1.936177
 31
0.0
  0
LINE
  5
61C
330
1F
100
AcDbEntity
  8
1
  6
CONTINUOUS
370
50
 62
4
100
AcDbLine
 10
62.590717
 20
-1.941293
 30
0.0
 11
62.895126
 21
-1.877603
 31
0.0
  0
LINE
  5
61D
330
1F
100
AcDbEntity
  8
1
  6
CONTINUOUS
370
50
 62
4
100
AcDbLine
 10
55.247746
 20
1.796511
 30
0.0
 11
55.32375
 21
1.813119
 31
0.0
  0
LINE
  5
61E
330
1F
100
AcDbEntity
  8
1
  6
CONTINUOUS
370
50
 62
4
100
AcDbLine
 10
78.665306
 20
0.899712
 30
0.0
 11
78.707832
 21
0.909296
 31
0.0
  0
LINE
  5
61F
330
1F
100
AcDbEntity
  8
1
  6
CONTINUOUS
370
50
 62
4
100
AcDbLine
 10
63.199135
 20
1.799888
 30
0.0
 11
63.19927999999999
 21
1.799923
 31
0.0
  0
LINE
  5
620
330
1F
100
AcDbEntity
  8
1
  6
CONTINUOUS
370
50
 62
4
100
AcDbLine
 10
63.19942099999999
 20
1.799959
 30
0.0
 11
63.199711
 21
1.800029
 31
0.0
  0
LINE
  5
621
330
1F
100
AcDbEntity
  8
1
  6
CONTINUOUS
370
50
 62
4
100
AcDbLine
 10
63.199856
 20
1.800065
 30
0.0
 11
63.200001
 21
1.8001
 31
0.0
  0
LINE
  5
622
330
1F
100
AcDbEntity
  8
1
  6
CONTINUOUS
370
50
 62
4
100
AcDbLine
 10
64.057724
 20
1.827713
 30
0.0
 11
64.29821
 21
1.886204
 31
0.0
  0
LINE
  5
623
330
1F
100
AcDbEntity
  8
1
  6
CONTINUOUS
370
50
 62
4
100
AcDbLine
 10
78.707832
 20
0.909296
 30
0.0
 11
78.749382
 21
0.9194939999999999
 31
0.0
  0
LINE
  5
624
330
1F
100
AcDbEntity
  8
1
  6
CONTINUOUS
370
50
 62
4
100
AcDbLine
 10
63.199711
 20
1.800029
 30
0.0
 11
63.199856
 21
1.800065
 31
0.0
  0
LINE
  5
625
330
1F
100
AcDbEntity
  8
1
  6
CONTINUOUS
370
50
 62
4
100
AcDbLine
 10
74.038933
 20
-1.8849
 30
0.0
 11
74.398682
 21
-1.794317
 31
0.0
  0
LINE
  5
626
330
1F
100
AcDbEntity
  8
1
  6
CONTINUOUS
370
50
 62
4
100
AcDbLine
 10
75.11312099999999
 20
1.795361
 30
0.0
 11
75.47277799999999
 21
1.88628
 31
0.0
  0
LINE
  5
627
330
1F
100
AcDbEntity
  8
1
  6
CONTINUOUS
370
50
 62
4
100
AcDbLine
 10
63.19927999999999
 20
1.799923
 30
0.0
 11
63.19942099999999
 21
1.799959
 31
0.0
  0
LINE
  5
628
330
1F
100
AcDbEntity
  8
1
  6
CONTINUOUS
370
50
 62
4
100
AcDbLine
 10
62.895126
 20
-1.877603
 30
0.0
 11
63.199135
 21
-1.799888
 31
0.0
  0
LINE
  5
629
330
1F
100
AcDbEntity
  8
1
  6
CONTINUOUS
370
50
 62
4
100
AcDbLine
 10
78.749382
 20
0.9194939999999999
 30
0.0
 11
78.791237
 21
0.9306979999999999
 31
0.0
  0
LINE
  5
62A
330
1F
100
AcDbEntity
  8
1
  6
CONTINUOUS
370
50
 62
4
100
AcDbLine
 10
50.5
 20
-3.0
 30
0.0
 11
54.0
 21
-2.05
 31
0.0
  0
LINE
  5
62B
330
1F
100
AcDbEntity
  8
1
  6
CONTINUOUS
370
50
 62
4
100
AcDbLine
 10
63.816872
 20
1.760956
 30
0.0
 11
64.057724
 21
1.827713
 31
0.0
  0
LINE
  5
62C
330
1F
100
AcDbEntity
  8
1
  6
CONTINUOUS
370
50
 62
4
100
AcDbLine
 10
63.200001
 20
-1.800345
 30
0.0
 11
63.262665
 21
-1.782638
 31
0.0
  0
LINE
  5
62D
330
1F
100
AcDbEntity
  8
1
  6
CONTINUOUS
370
50
 62
4
100
AcDbLine
 10
79.290115
 20
-0.539195
 30
0.0
 11
79.31449099999999
 21
-0.532237
 31
0.0
  0
LINE
  5
62E
330
1F
100
AcDbEntity
  8
1
  6
CONTINUOUS
370
50
 62
4
100
AcDbLine
 10
63.262665
 20
-1.782638
 30
0.0
 11
63.325302
 21
-1.764394
 31
0.0
  0
LINE
  5
62F
330
1F
100
AcDbEntity
  8
1
  6
CONTINUOUS
370
50
 62
4
100
AcDbLine
 10
78.791237
 20
0.9306979999999999
 30
0.0
 11
78.837372
 21
0.944282
 31
0.0
  0
LINE
  5
630
330
1F
100
AcDbEntity
  8
1
  6
CONTINUOUS
370
50
 62
4
100
AcDbLine
 10
55.176476
 20
1.775229
 30
0.0
 11
55.247746
 21
1.796511
 31
0.0
  0
LINE
  5
631
330
1F
100
AcDbEntity
  8
1
  6
CONTINUOUS
370
50
 62
4
100
AcDbLine
 10
63.325302
 20
-1.764394
 30
0.0
 11
63.387936
 21
-1.74562
 31
0.0
  0
LINE
  5
632
330
1F
100
AcDbEntity
  8
1
  6
CONTINUOUS
370
50
 62
4
100
AcDbLine
 10
74.398682
 20
-1.794317
 30
0.0
 11
74.75426499999999
 21
-1.685748
 31
0.0
  0
LINE
  5
633
330
1F
100
AcDbEntity
  8
1
  6
CONTINUOUS
370
50
 62
4
100
AcDbLine
 10
74.75426499999999
 20
1.68575
 30
0.0
 11
75.11312099999999
 21
1.795361
 31
0.0
  0
LINE
  5
634
330
1F
100
AcDbEntity
  8
1
  6
CONTINUOUS
370
50
 62
4
100
AcDbLine
 10
63.387936
 20
-1.74562
 30
0.0
 11
63.450581
 21
-1.726322
 31
0.0
  0
LINE
  5
635
330
1F
100
AcDbEntity
  8
1
  6
CONTINUOUS
370
50
 62
4
100
AcDbLine
 10
63.57607299999999
 20
1.686151
 30
0.0
 11
63.816872
 21
1.760956
 31
0.0
  0
LINE
  5
636
330
1F
100
AcDbEntity
  8
1
  6
CONTINUOUS
370
50
 62
4
100
AcDbLine
 10
63.450581
 20
-1.726322
 30
0.0
 11
63.51326
 21
-1.706504
 31
0.0
  0
LINE
  5
637
330
1F
100
AcDbEntity
  8
1
  6
CONTINUOUS
370
50
 62
4
100
AcDbLine
 10
63.51326
 20
-1.706504
 30
0.0
 11
63.575989
 21
-1.686174
 31
0.0
  0
LINE
  5
638
330
1F
100
AcDbEntity
  8
1
  6
CONTINUOUS
370
50
 62
4
100
AcDbLine
 10
78.837372
 20
0.944282
 30
0.0
 11
78.886871
 21
0.960529
 31
0.0
  0
LINE
  5
639
330
1F
100
AcDbEntity
  8
1
  6
CONTINUOUS
370
50
 62
4
100
AcDbLine
 10
79.23505399999999
 20
-2.050001
 30
0.0
 11
79.23535199999999
 21
-2.049902
 31
0.0
  0
LINE
  5
63A
330
1F
100
AcDbEntity
  8
1
  6
CONTINUOUS
370
50
 62
4
100
AcDbLine
 10
78.886871
 20
0.960529
 30
0.0
 11
78.938385
 21
0.979613
 31
0.0
  0
LINE
  5
63B
330
1F
100
AcDbEntity
  8
1
  6
CONTINUOUS
370
50
 62
4
100
AcDbLine
 10
55.11203399999999
 20
1.748574
 30
0.0
 11
55.176476
 21
1.775229
 31
0.0
  0
LINE
  5
63C
330
1F
100
AcDbEntity
  8
1
  6
CONTINUOUS
370
50
 62
4
100
AcDbLine
 10
78.938385
 20
0.979613
 30
0.0
 11
78.990578
 21
1.001711
 31
0.0
  0
LINE
  5
63D
330
1F
100
AcDbEntity
  8
1
  6
CONTINUOUS
370
50
 62
4
100
AcDbLine
 10
78.990578
 20
1.001711
 30
0.0
 11
79.042114
 21
1.027
 31
0.0
  0
LINE
  5
63E
330
1F
100
AcDbEntity
  8
1
  6
CONTINUOUS
370
50
 62
4
100
AcDbLine
 10
79.042114
 20
1.027
 30
0.0
 11
79.091644
 21
1.055647
 31
0.0
  0
LINE
  5
63F
330
1F
100
AcDbEntity
  8
1
  6
CONTINUOUS
370
50
 62
4
100
AcDbLine
 10
55.0569
 20
1.715769
 30
0.0
 11
55.11203399999999
 21
1.748574
 31
0.0
  0
LINE
  5
640
330
1F
100
AcDbEntity
  8
1
  6
CONTINUOUS
370
50
 62
4
100
AcDbLine
 10
79.23535199999999
 20
-2.049902
 30
0.0
 11
79.235649
 21
-2.049701
 31
0.0
  0
LINE
  5
641
330
1F
100
AcDbEntity
  8
1
  6
CONTINUOUS
370
50
 62
4
100
AcDbLine
 10
79.091644
 20
1.055647
 30
0.0
 11
79.137863
 21
1.087778
 31
0.0
  0
LINE
  5
642
330
1F
100
AcDbEntity
  8
1
  6
CONTINUOUS
370
50
 62
4
100
AcDbLine
 10
79.31449099999999
 20
-0.532237
 30
0.0
 11
79.33225999999999
 21
-0.5186959999999999
 31
0.0
  0
LINE
  5
643
330
1F
100
AcDbEntity
  8
1
  6
CONTINUOUS
370
50
 62
4
100
AcDbLine
 10
79.21363099999999
 20
-0.632351
 30
0.0
 11
79.894363
 21
-0.084944
 31
0.0
  0
LINE
  5
644
330
1F
100
AcDbEntity
  8
1
  6
CONTINUOUS
370
50
 62
4
100
AcDbLine
 10
79.137863
 20
1.087778
 30
0.0
 11
79.17987099999999
 21
1.123649
 31
0.0
  0
LINE
  5
645
330
1F
100
AcDbEntity
  8
1
  6
CONTINUOUS
370
50
 62
4
100
AcDbLine
 10
55.013855
 20
1.676301
 30
0.0
 11
55.0569
 21
1.715769
 31
0.0
  0
LINE
  5
646
330
1F
100
AcDbEntity
  8
1
  6
CONTINUOUS
370
50
 62
4
100
AcDbLine
 10
79.17987099999999
 20
1.123649
 30
0.0
 11
79.21685
 21
1.163545
 31
0.0
  0
LINE
  5
647
330
1F
100
AcDbEntity
  8
1
  6
CONTINUOUS
370
50
 62
4
100
AcDbLine
 10
79.235649
 20
-2.049701
 30
0.0
 11
79.235939
 21
-2.049365
 31
0.0
  0
LINE
  5
648
330
1F
100
AcDbEntity
  8
1
  6
CONTINUOUS
370
50
 62
4
100
AcDbLine
 10
79.21685
 20
1.163545
 30
0.0
 11
79.24756599999999
 21
1.207064
 31
0.0
  0
LINE
  5
649
330
1F
100
AcDbEntity
  8
1
  6
CONTINUOUS
370
50
 62
4
100
AcDbLine
 10
79.235939
 20
-2.049365
 30
0.0
 11
79.236237
 21
-2.048894
 31
0.0
  0
LINE
  5
64A
330
1F
100
AcDbEntity
  8
1
  6
CONTINUOUS
370
50
 62
4
100
AcDbLine
 10
54.985722
 20
1.630919
 30
0.0
 11
55.013855
 21
1.676301
 31
0.0
  0
LINE
  5
64B
330
1F
100
AcDbEntity
  8
1
  6
CONTINUOUS
370
50
 62
4
100
AcDbLine
 10
79.24756599999999
 20
1.207064
 30
0.0
 11
79.271103
 21
1.253268
 31
0.0
  0
LINE
  5
64C
330
1F
100
AcDbEntity
  8
1
  6
CONTINUOUS
370
50
 62
4
100
AcDbLine
 10
79.33225999999999
 20
-0.5186959999999999
 30
0.0
 11
79.342331
 21
-0.498919
 31
0.0
  0
LINE
  5
64D
330
1F
100
AcDbEntity
  8
1
  6
CONTINUOUS
370
50
 62
4
100
AcDbLine
 10
79.236237
 20
-2.048894
 30
0.0
 11
79.236542
 21
-2.048288
 31
0.0
  0
LINE
  5
64E
330
1F
100
AcDbEntity
  8
1
  6
CONTINUOUS
370
50
 62
4
100
AcDbLine
 10
79.236542
 20
-2.048288
 30
0.0
 11
79.236839
 21
-2.047547
 31
0.0
  0
LINE
  5
64F
330
1F
100
AcDbEntity
  8
1
  6
CONTINUOUS
370
50
 62
4
100
AcDbLine
 10
79.23681599999999
 20
-2.047627
 30
0.0
 11
80.0
 21
0.0
 31
0.0
  0
LINE
  5
650
330
1F
100
AcDbEntity
  8
1
  6
CONTINUOUS
370
50
 62
4
100
AcDbLine
 10
79.271103
 20
1.253268
 30
0.0
 11
79.28755199999999
 21
1.302144
 31
0.0
  0
LINE
  5
651
330
1F
100
AcDbEntity
  8
1
  6
CONTINUOUS
370
50
 62
4
100
AcDbLine
 10
54.973206
 20
1.58029
 30
0.0
 11
54.985722
 21
1.630919
 31
0.0
  0
LINE
  5
652
330
1F
100
AcDbEntity
  8
1
  6
CONTINUOUS
370
50
 62
4
100
AcDbLine
 10
79.28755199999999
 20
1.302144
 30
0.0
 11
79.296928
 21
1.353139
 31
0.0
  0
LINE
  5
653
330
1F
100
AcDbEntity
  8
1
  6
CONTINUOUS
370
50
 62
4
100
AcDbLine
 10
79.342331
 20
-0.498919
 30
0.0
 11
79.34496299999999
 21
-0.473626
 31
0.0
  0
LINE
  5
654
330
1F
100
AcDbEntity
  8
1
  6
CONTINUOUS
370
50
 62
4
100
AcDbLine
 10
79.296928
 20
1.353139
 30
0.0
 11
79.299545
 21
1.404816
 31
0.0
  0
LINE
  5
655
330
1F
100
AcDbEntity
  8
1
  6
CONTINUOUS
370
50
 62
4
100
AcDbLine
 10
79.21328
 20
-0.7596569999999999
 30
0.0
 11
79.21363099999999
 21
-0.632348
 31
0.0
  0
LINE
  5
656
330
1F
100
AcDbEntity
  8
1
  6
CONTINUOUS
370
50
 62
4
100
AcDbLine
 10
79.213104
 20
-0.8818079999999999
 30
0.0
 11
79.21328
 21
-0.7596569999999999
 31
0.0
  0
LINE
  5
657
330
1F
100
AcDbEntity
  8
1
  6
CONTINUOUS
370
50
 62
4
100
AcDbLine
 10
79.21309699999999
 20
-0.9984919999999999
 30
0.0
 11
79.213104
 21
-0.8818079999999999
 31
0.0
  0
LINE
  5
658
330
1F
100
AcDbEntity
  8
1
  6
CONTINUOUS
370
50
 62
4
100
AcDbLine
 10
50.0
 20
-3.0
 30
0.0
 11
50.0
 21
3.0
 31
0.0
  0
LINE
  5
659
330
1F
100
AcDbEntity
  8
1
  6
CONTINUOUS
370
50
 62
4
100
AcDbLine
 10
50.5
 20
-3.0
 30
0.0
 11
50.5
 21
3.0
 31
0.0
  0
LINE
  5
65A
330
1F
100
AcDbEntity
  8
1
  6
CONTINUOUS
370
50
 62
4
100
AcDbLine
 10
54.0
 20
-2.05
 30
0.0
 11
54.0
 21
2.05
 31
0.0
  0
LINE
  5
65B
330
1F
100
AcDbEntity
  8
1
  6
CONTINUOUS
370
50
 62
4
100
AcDbLine
 10
57.277775
 20
-0.8047869999999999
 30
0.0
 11
57.277775
 21
0.075669
 31
0.0
  0
LINE
  5
65C
330
1F
100
AcDbEntity
  8
1
  6
CONTINUOUS
370
50
 62
4
100
AcDbLine
 10
57.279774
 20
0.074007
 30
0.0
 11
57.279774
 21
1.508541
 31
0.0
  0
LINE
  5
65D
330
1F
100
AcDbEntity
  8
1
  6
CONTINUOUS
370
50
 62
4
100
AcDbLine
 10
63.199135
 20
-1.552601
 30
0.0
 11
63.199135
 21
1.799888
 31
0.0
  0
LINE
  5
65E
330
1F
100
AcDbEntity
  8
1
  6
CONTINUOUS
370
50
 62
4
100
AcDbLine
 10
63.200001
 20
-1.800345
 30
0.0
 11
63.200001
 21
1.800345
 31
0.0
  0
LINE
  5
65F
330
1F
100
AcDbEntity
  8
1
  6
CONTINUOUS
370
50
 62
4
100
AcDbLine
 10
79.25386
 20
1.619735
 30
0.0
 11
79.25386
 21
1.817049
 31
0.0
  0
ELLIPSE
  5
660
330
1F
100
AcDbEntity
  8
1
  6
CONTINUOUS
370
50
 62
4
100
AcDbEllipse
 10
79.999737
 20
0.000153
 30
0.0
 11
-2.896852054649798
 21
1.884383915987197
 31
0.0
210
0.0
220
0.0
230
0.9999999999999999
 40
0.27861206641953
 41
1.367607755457166
 42
1.4797900565519
  0
LINE
  5
661
330
1F
100
AcDbEntity
  8
CUT
  6
CONTINUOUS
370
25
 62
1
100
AcDbLine
 10
63.2
 20
0.0
 30
0.0
 11
80.0
 21
0.0
 31
0.0
  0
LINE
  5
662
330
1F
100
AcDbEntity
  8
CUT
  6
CONTINUOUS
370
25
 62
1
100
AcDbLine
 10
80.0
 20
0.0
 30
0.0
 11
79.25386102
 21
2.05
 31
0.0
  0
LINE
  5
663
330
1F
100
AcDbEntity
  8
CUT
  6
CONTINUOUS
370
25
 62
1
100
AcDbLine
 10
79.25386102
 20
2.05
 30
0.0
 11
63.2
 21
2.05
 31
0.0
  0
LINE
  5
664
330
1F
100
AcDbEntity
  8
CUT
  6
CONTINUOUS
370
25
 62
1
100
AcDbLine
 10
63.2
 20
2.05
 30
0.0
 11
63.2
 21
0.0
 31
0.0
  0
LINE
  5
665
330
1F
100
AcDbEntity
  8
NOCUT
  6
CONTINUOUS
370
25
 62
7
100
AcDbLine
 10
50.5
 20
0.0
 30
0.0
 11
63.2
 21
0.0
 31
0.0
  0
LINE
  5
666
330
1F
100
AcDbEntity
  8
NOCUT
  6
CONTINUOUS
370
25
 62
7
100
AcDbLine
 10
63.2
 20
0.0
 30
0.0
 11
63.2
 21
2.0505
 31
0.0
  0
LINE
  5
667
330
1F
100
AcDbEntity
  8
NOCUT
  6
CONTINUOUS
370
25
 62
7
100
AcDbLine
 10
63.2
 20
2.0505
 30
0.0
 11
63.19913397459622
 21
2.05
 31
0.0
  0
LINE
  5
668
330
1F
100
AcDbEntity
  8
NOCUT
  6
CONTINUOUS
370
25
 62
7
100
AcDbLine
 10
63.19913397459622
 20
2.05
 30
0.0
 11
54.0
 21
2.05
 31
0.0
  0
LINE
  5
669
330
1F
100
AcDbEntity
  8
NOCUT
  6
CONTINUOUS
370
25
 62
7
100
AcDbLine
 10
54.0
 20
2.05
 30
0.0
 11
50.5
 21
3.0
 31
0.0
  0
LINE
  5
66A
330
1F
100
AcDbEntity
  8
NOCUT
  6
CONTINUOUS
370
25
 62
7
100
AcDbLine
 10
50.5
 20
3.0
 30
0.0
 11
50.5
 21
0.0
 31
0.0
  0
LINE
  5
66B
330
1F
100
AcDbEntity
  8
NOCUT
  6
CONTINUOUS
370
25
 62
7
100
AcDbLine
 10
63.2
 20
2.05
 30
0.0
 11
63.2
 21
0.0
 31
0.0
  0
LINE
  5
66C
330
1F
100
AcDbEntity
  8
NOCUT
  6
CONTINUOUS
370
25
 62
7
100
AcDbLine
 10
63.2
 20
2.05
 30
0.0
 11
63.2
 21
0.0
 31
0.0
  0
LINE
  5
66D
330
1F
100
AcDbEntity
  8
SK1
  6
CONTINUOUS
370
50
 62
4
100
AcDbLine
 10
50.0
 20
3.0
 30
0.0
 11
0.3999999999999986
 21
3.0
 31
0.0
  0
LINE
  5
66E
330
1F
100
AcDbEntity
  8
SK1
  6
CONTINUOUS
370
50
 62
4
100
AcDbLine
 10
0.3999999999999986
 20
3.0
 30
0.0
 11
0.0
 21
2.6
 31
0.0
  0
LINE
  5
66F
330
1F
100
AcDbEntity
  8
SK1
  6
CONTINUOUS
370
50
 62
4
100
AcDbLine
 10
0.0
 20
2.6
 30
0.0
 11
0.0
 21
-2.6
 31
0.0
  0
LINE
  5
670
330
1F
100
AcDbEntity
  8
SK1
  6
CONTINUOUS
370
50
 62
4
100
AcDbLine
 10
0.0
 20
-2.6
 30
0.0
 11
0.3999999999999986
 21
-3.0
 31
0.0
  0
LINE
  5
671
330
1F
100
AcDbEntity
  8
SK1
  6
CONTINUOUS
370
50
 62
4
100
AcDbLine
 10
0.3999999999999986
 20
-3.0
 30
0.0
 11
50.0
 21
-3.0
 31
0.0
  0
LINE
  5
672
330
1F
100
AcDbEntity
  8
SK1
  6
CONTINUOUS
370
50
 62
4
100
AcDbLine
 10
0.3999999999999986
 20
3.0
 30
0.0
 11
0.3999999999999986
 21
-3.0
 31
0.0
  0
LINE
  5
673
330
1F
100
AcDbEntity
  8
NOCUT
  6
CONTINUOUS
370
25
 62
7
100
AcDbLine
 10
50.0
 20
0.0
 30
0.0
 11
50.0
 21
3.0
 31
0.0
  0
LINE
  5
674
330
1F
100
AcDbEntity
  8
NOCUT
  6
CONTINUOUS
370
25
 62
7
100
AcDbLine
 10
50.0
 20
3.0
 30
0.0
 11
50.5
 21
3.0
 31
0.0
  0
LINE
  5
675
330
1F
100
AcDbEntity
  8
NOCUT
  6
CONTINUOUS
370
25
 62
7
100
AcDbLine
 10
50.5
 20
0.0
 30
0.0
 11
50.0
 21
0.0
 31
0.0
  0
LINE
  5
676
330
1F
100
AcDbEntity
  8
SK2
  6
CONTINUOUS
370
25
 62
7
100
AcDbLine
 10
-12.0000002
 20
-3.000001
 30
0.0
 11
-13.00000000000008
 21
-3.000001
 31
0.0
  0
LINE
  5
677
330
1F
100
AcDbEntity
  8
SK2
  6
CONTINUOUS
370
25
 62
7
100
AcDbLine
 10
0.0
 20
-3.000001
 30
0.0
 11
-11.9999998
 21
-3.000001
 31
0.0
  0
LINE
  5
678
330
1F
100
AcDbEntity
  8
SK2
  6
CONTINUOUS
370
25
 62
7
100
AcDbLine
 10
-13.0
 20
3.0
 30
0.0
 11
0.0
 21
3.0
 31
0.0
  0
LINE
  5
679
330
1F
100
AcDbEntity
  8
SK2
  6
CONTINUOUS
370
25
 62
7
100
AcDbLine
 10
-12.0
 20
-10.0
 30
0.0
 11
-12.0
 21
16.475
 31
0.0
  0
LINE
  5
67A
330
1F
100
AcDbEntity
  8
SK2
  6
CONTINUOUS
370
25
 62
7
100
AcDbLine
 10
-12.0
 20
-3.0
 30
0.0
 11
-11.0
 21
-8.0
 31
0.0
  0
LINE
  5
67B
330
1F
100
AcDbEntity
  8
SK2
  6
CONTINUOUS
370
25
 62
7
100
AcDbLine
 10
-11.0
 20
-8.0
 30
0.0
 11
-13.0
 21
-8.0
 31
0.0
  0
LINE
  5
67C
330
1F
100
AcDbEntity
  8
SK2
  6
CONTINUOUS
370
25
 62
7
100
AcDbLine
 10
-13.0
 20
-8.0
 30
0.0
 11
-12.0
 21
-3.0
 31
0.0
  0
LINE
  5
67D
330
1F
100
AcDbEntity
  8
SK2
  6
CONTINUOUS
370
25
 62
7
100
AcDbLine
 10
-11.03300858899102
 20
-8.0
 30
0.0
 11
-11.00550143149851
 21
-7.972492842507492
 31
0.0
  0
LINE
  5
67E
330
1F
100
AcDbEntity
  8
SK2
  6
CONTINUOUS
370
25
 62
7
100
AcDbLine
 10
-11.45727265770294
 20
-8.0
 30
0.0
 11
-11.07621210961716
 21
-7.618939451914223
 31
0.0
  0
LINE
  5
67F
330
1F
100
AcDbEntity
  8
SK2
  6
CONTINUOUS
370
25
 62
7
100
AcDbLine
 10
-11.88153672641486
 20
-8.0
 30
0.0
 11
-11.14692278773582
 21
-7.265386061320953
 31
0.0
  0
LINE
  5
680
330
1F
100
AcDbEntity
  8
SK2
  6
CONTINUOUS
370
25
 62
7
100
AcDbLine
 10
-12.30580079512679
 20
-8.0
 30
0.0
 11
-11.21763346585447
 21
-6.911832670727669
 31
0.0
  0
LINE
  5
681
330
1F
100
AcDbEntity
  8
SK2
  6
CONTINUOUS
370
25
 62
7
100
AcDbLine
 10
-12.73006486383873
 20
-8.0
 30
0.0
 11
-11.28834414397312
 21
-6.558279280134386
 31
0.0
  0
LINE
  5
682
330
1F
100
AcDbEntity
  8
SK2
  6
CONTINUOUS
370
25
 62
7
100
AcDbLine
 10
-12.96141776686234
 20
-7.807088834311692
 30
0.0
 11
-11.35905482209179
 21
-6.20472588954113
 31
0.0
  0
LINE
  5
683
330
1F
100
AcDbEntity
  8
SK2
  6
CONTINUOUS
370
25
 62
7
100
AcDbLine
 10
-12.85535174968436
 20
-7.276758748421784
 30
0.0
 11
-11.42976550021043
 21
-5.851172498947847
 31
0.0
  0
LINE
  5
684
330
1F
100
AcDbEntity
  8
SK2
  6
CONTINUOUS
370
25
 62
7
100
AcDbLine
 10
-12.74928573250637
 20
-6.746428662531869
 30
0.0
 11
-11.50047617832909
 21
-5.497619108354577
 31
0.0
  0
LINE
  5
685
330
1F
100
AcDbEntity
  8
SK2
  6
CONTINUOUS
370
25
 62
7
100
AcDbLine
 10
-12.64321971532839
 20
-6.216098576641961
 30
0.0
 11
-11.57118685644775
 21
-5.144065717761308
 31
0.0
  0
LINE
  5
686
330
1F
100
AcDbEntity
  8
SK2
  6
CONTINUOUS
370
25
 62
7
100
AcDbLine
 10
-12.53715369815041
 20
-5.685768490752046
 30
0.0
 11
-11.6418975345664
 21
-4.790512327168024
 31
0.0
  0
LINE
  5
687
330
1F
100
AcDbEntity
  8
SK2
  6
CONTINUOUS
370
25
 62
7
100
AcDbLine
 10
-12.43108768097242
 20
-5.155438404862124
 30
0.0
 11
-11.71260821268505
 21
-4.436958936574754
 31
0.0
  0
LINE
  5
688
330
1F
100
AcDbEntity
  8
SK2
  6
CONTINUOUS
370
25
 62
7
100
AcDbLine
 10
-12.32502166379444
 20
-4.62510831897221
 30
0.0
 11
-11.78331889080371
 21
-4.083405545981478
 31
0.0
  0
LINE
  5
689
330
1F
100
AcDbEntity
  8
SK2
  6
CONTINUOUS
370
25
 62
7
100
AcDbLine
 10
-12.21895564661646
 20
-4.094778233082295
 30
0.0
 11
-11.85402956892236
 21
-3.729852155388201
 31
0.0
  0
LINE
  5
68A
330
1F
100
AcDbEntity
  8
SK2
  6
CONTINUOUS
370
25
 62
7
100
AcDbLine
 10
-12.11288962943848
 20
-3.564448147192394
 30
0.0
 11
-11.92474024704102
 21
-3.376298764794925
 31
0.0
  0
LINE
  5
68B
330
1F
100
AcDbEntity
  8
SK2
  6
CONTINUOUS
370
25
 62
7
100
AcDbLine
 10
-12.00682361226049
 20
-3.034118061302458
 30
0.0
 11
-11.99545092515967
 21
-3.022745374201634
 31
0.0
  0
LINE
  5
68C
330
1F
100
AcDbEntity
  8
SK2
  6
CONTINUOUS
370
25
 62
7
100
AcDbLine
 10
-12.97136645182481
 20
-7.856832259124076
 30
0.0
 11
-12.82819871094888
 21
-8.0
 31
0.0
  0
LINE
  5
68D
330
1F
100
AcDbEntity
  8
SK2
  6
CONTINUOUS
370
25
 62
7
100
AcDbLine
 10
-12.90065577370617
 20
-7.503278868530799
 30
0.0
 11
-12.40393464223697
 21
-8.0
 31
0.0
  0
LINE
  5
68E
330
1F
100
AcDbEntity
  8
SK2
  6
CONTINUOUS
370
25
 62
7
100
AcDbLine
 10
-12.82994509558751
 20
-7.14972547793753
 30
0.0
 11
-11.97967057352504
 21
-8.0
 31
0.0
  0
LINE
  5
68F
330
1F
100
AcDbEntity
  8
SK2
  6
CONTINUOUS
370
25
 62
7
100
AcDbLine
 10
-12.75923441746885
 20
-6.796172087344274
 30
0.0
 11
-11.55540650481312
 21
-8.0
 31
0.0
  0
LINE
  5
690
330
1F
100
AcDbEntity
  8
SK2
  6
CONTINUOUS
370
25
 62
7
100
AcDbLine
 10
-12.6885237393502
 20
-6.442618696750991
 30
0.0
 11
-11.13114243610117
 21
-8.0
 31
0.0
  0
LINE
  5
691
330
1F
100
AcDbEntity
  8
SK2
  6
CONTINUOUS
370
25
 62
7
100
AcDbLine
 10
-12.61781306123154
 20
-6.089065306157714
 30
0.0
 11
-11.07328040815269
 21
-7.633597959236553
 31
0.0
  0
LINE
  5
692
330
1F
100
AcDbEntity
  8
SK2
  6
CONTINUOUS
370
25
 62
7
100
AcDbLine
 10
-12.5471023831129
 20
-5.735511915564437
 30
0.0
 11
-11.17934642533066
 21
-7.103267873346667
 31
0.0
  0
LINE
  5
693
330
1F
100
AcDbEntity
  8
SK2
  6
CONTINUOUS
370
25
 62
7
100
AcDbLine
 10
-12.47639170499424
 20
-5.381958524971168
 30
0.0
 11
-11.28541244250864
 21
-6.572937787456759
 31
0.0
  0
LINE
  5
694
330
1F
100
AcDbEntity
  8
SK2
  6
CONTINUOUS
370
25
 62
7
100
AcDbLine
 10
-12.40568102687558
 20
-5.028405134377898
 30
0.0
 11
-11.39147845968664
 21
-6.042607701566837
 31
0.0
  0
LINE
  5
695
330
1F
100
AcDbEntity
  8
SK2
  6
CONTINUOUS
370
25
 62
7
100
AcDbLine
 10
-12.33497034875693
 20
-4.674851743784629
 30
0.0
 11
-11.49754447686462
 21
-5.512277615676922
 31
0.0
  0
LINE
  5
696
330
1F
100
AcDbEntity
  8
SK2
  6
CONTINUOUS
370
25
 62
7
100
AcDbLine
 10
-12.26425967063827
 20
-4.321298353191359
 30
0.0
 11
-11.60361049404259
 21
-4.981947529787035
 31
0.0
  0
LINE
  5
697
330
1F
100
AcDbEntity
  8
SK2
  6
CONTINUOUS
370
25
 62
7
100
AcDbLine
 10
-12.19354899251962
 20
-3.967744962598069
 30
0.0
 11
-11.70967651122057
 21
-4.451617443897113
 31
0.0
  0
LINE
  5
698
330
1F
100
AcDbEntity
  8
SK2
  6
CONTINUOUS
370
25
 62
7
100
AcDbLine
 10
-12.12283831440097
 20
-3.614191572004813
 30
0.0
 11
-11.81574252839855
 21
-3.92128735800722
 31
0.0
  0
LINE
  5
699
330
1F
100
AcDbEntity
  8
SK2
  6
CONTINUOUS
370
25
 62
7
100
AcDbLine
 10
-12.0521276362823
 20
-3.260638181411565
 30
0.0
 11
-11.92180854557654
 21
-3.390957272117319
 31
0.0
  0
LINE
  5
69A
330
1F
100
AcDbEntity
  8
SK2
  6
CONTINUOUS
370
25
 62
7
100
AcDbLine
 10
-12.0
 20
3.0
 30
0.0
 11
-13.0
 21
8.0
 31
0.0
  0
LINE
  5
69B
330
1F
100
AcDbEntity
  8
SK2
  6
CONTINUOUS
370
25
 62
7
100
AcDbLine
 10
-13.0
 20
8.0
 30
0.0
 11
-11.0
 21
8.0
 31
0.0
  0
LINE
  5
69C
330
1F
100
AcDbEntity
  8
SK2
  6
CONTINUOUS
370
25
 62
7
100
AcDbLine
 10
-11.0
 20
8.0
 30
0.0
 11
-12.0
 21
3.0
 31
0.0
  0
LINE
  5
69D
330
1F
100
AcDbEntity
  8
SK2
  6
CONTINUOUS
370
25
 62
7
100
AcDbLine
 10
-12.05611109693948
 20
3.280555484697445
 30
0.0
 11
-11.91583335459077
 21
3.420833227046153
 31
0.0
  0
LINE
  5
69E
330
1F
100
AcDbEntity
  8
SK2
  6
CONTINUOUS
370
25
 62
7
100
AcDbLine
 10
-12.12682177505815
 20
3.634108875290728
 30
0.0
 11
-11.80976733741278
 21
3.951163312936096
 31
0.0
  0
LINE
  5
69F
330
1F
100
AcDbEntity
  8
SK2
  6
CONTINUOUS
370
25
 62
7
100
AcDbLine
 10
-12.19753245317679
 20
3.987662265884005
 30
0.0
 11
-11.70370132023481
 21
4.481493398825997
 31
0.0
  0
LINE
  5
6A0
330
1F
100
AcDbEntity
  8
SK2
  6
CONTINUOUS
370
25
 62
7
100
AcDbLine
 10
-12.26824313129546
 20
4.34121565647726
 30
0.0
 11
-11.59763530305683
 21
5.011823484715897
 31
0.0
  0
LINE
  5
6A1
330
1F
100
AcDbEntity
  8
SK2
  6
CONTINUOUS
370
25
 62
7
100
AcDbLine
 10
-12.33895380941411
 20
4.694769047070537
 30
0.0
 11
-11.49156928587883
 21
5.542153570605812
 31
0.0
  0
LINE
  5
6A2
330
1F
100
AcDbEntity
  8
SK2
  6
CONTINUOUS
370
25
 62
7
100
AcDbLine
 10
-12.40966448753277
 20
5.048322437663813
 30
0.0
 11
-11.38550326870085
 21
6.072483656495734
 31
0.0
  0
LINE
  5
6A3
330
1F
100
AcDbEntity
  8
SK2
  6
CONTINUOUS
370
25
 62
7
100
AcDbLine
 10
-12.48037516565142
 20
5.401875828257097
 30
0.0
 11
-11.27943725152287
 21
6.602813742385649
 31
0.0
  0
LINE
  5
6A4
330
1F
100
AcDbEntity
  8
SK2
  6
CONTINUOUS
370
25
 62
7
100
AcDbLine
 10
-12.55108584377007
 20
5.755429218850367
 30
0.0
 11
-11.17337123434489
 21
7.13314382827555
 31
0.0
  0
LINE
  5
6A5
330
1F
100
AcDbEntity
  8
SK2
  6
CONTINUOUS
370
25
 62
7
100
AcDbLine
 10
-12.62179652188873
 20
6.108982609443636
 30
0.0
 11
-11.0673052171669
 21
7.663473914165479
 31
0.0
  0
LINE
  5
6A6
330
1F
100
AcDbEntity
  8
SK2
  6
CONTINUOUS
370
25
 62
7
100
AcDbLine
 10
-12.69250720000738
 20
6.462536000036913
 30
0.0
 11
-11.1550432000443
 21
8.0
 31
0.0
  0
LINE
  5
6A7
330
1F
100
AcDbEntity
  8
SK2
  6
CONTINUOUS
370
25
 62
7
100
AcDbLine
 10
-12.76321787812604
 20
6.816089390630182
 30
0.0
 11
-11.57930726875624
 21
8.0
 31
0.0
  0
LINE
  5
6A8
330
1F
100
AcDbEntity
  8
SK2
  6
CONTINUOUS
370
25
 62
7
100
AcDbLine
 10
-12.83392855624469
 20
7.169642781223452
 30
0.0
 11
-12.00357133746815
 21
8.0
 31
0.0
  0
LINE
  5
6A9
330
1F
100
AcDbEntity
  8
SK2
  6
CONTINUOUS
370
25
 62
7
100
AcDbLine
 10
-12.90463923436334
 20
7.52319617181675
 30
0.0
 11
-12.4278354061801
 21
8.0
 31
0.0
  0
LINE
  5
6AA
330
1F
100
AcDbEntity
  8
SK2
  6
CONTINUOUS
370
25
 62
7
100
AcDbLine
 10
-12.975349912482
 20
7.876749562410012
 30
0.0
 11
-12.85209947489201
 21
8.0
 31
0.0
  0
LINE
  5
6AB
330
1F
100
AcDbEntity
  8
SK2
  6
CONTINUOUS
370
25
 62
7
100
AcDbLine
 10
-12.1034319271692
 20
3.517159635845971
 30
0.0
 11
-11.9310453818872
 21
3.344773090563983
 31
0.0
  0
LINE
  5
6AC
330
1F
100
AcDbEntity
  8
SK2
  6
CONTINUOUS
370
25
 62
7
100
AcDbLine
 10
-12.20949794434718
 20
4.047489721735879
 30
0.0
 11
-11.86033470376854
 21
3.698326481157245
 31
0.0
  0
LINE
  5
6AD
330
1F
100
AcDbEntity
  8
SK2
  6
CONTINUOUS
370
25
 62
7
100
AcDbLine
 10
-12.31556396152516
 20
4.577819807625794
 30
0.0
 11
-11.78962402564989
 21
4.051879871750529
 31
0.0
  0
LINE
  5
6AE
330
1F
100
AcDbEntity
  8
SK2
  6
CONTINUOUS
370
25
 62
7
100
AcDbLine
 10
-12.42162997870314
 20
5.108149893515694
 30
0.0
 11
-11.71891334753124
 21
4.405433262343806
 31
0.0
  0
LINE
  5
6AF
330
1F
100
AcDbEntity
  8
SK2
  6
CONTINUOUS
370
25
 62
7
100
AcDbLine
 10
-12.52769599588112
 20
5.638479979405602
 30
0.0
 11
-11.64820266941258
 21
4.758986652937075
 31
0.0
  0
LINE
  5
6B0
330
1F
100
AcDbEntity
  8
SK2
  6
CONTINUOUS
370
25
 62
7
100
AcDbLine
 10
-12.6337620130591
 20
6.168810065295496
 30
0.0
 11
-11.57749199129393
 21
5.112540043530338
 31
0.0
  0
LINE
  5
6B1
330
1F
100
AcDbEntity
  8
SK2
  6
CONTINUOUS
370
25
 62
7
100
AcDbLine
 10
-12.73982803023708
 20
6.699140151185411
 30
0.0
 11
-11.50678131317527
 21
5.466093434123621
 31
0.0
  0
LINE
  5
6B2
330
1F
100
AcDbEntity
  8
SK2
  6
CONTINUOUS
370
25
 62
7
100
AcDbLine
 10
-12.84589404741506
 20
7.229470237075311
 30
0.0
 11
-11.43607063505662
 21
5.819646824716891
 31
0.0
  0
LINE
  5
6B3
330
1F
100
AcDbEntity
  8
SK2
  6
CONTINUOUS
370
25
 62
7
100
AcDbLine
 10
-12.95196006459304
 20
7.759800322965219
 30
0.0
 11
-11.36535995693797
 21
6.173200215310167
 31
0.0
  0
LINE
  5
6B4
330
1F
100
AcDbEntity
  8
SK2
  6
CONTINUOUS
370
25
 62
7
100
AcDbLine
 10
-12.7678956729159
 20
8.0
 30
0.0
 11
-11.29464927881931
 21
6.52675360590343
 31
0.0
  0
LINE
  5
6B5
330
1F
100
AcDbEntity
  8
SK2
  6
CONTINUOUS
370
25
 62
7
100
AcDbLine
 10
-12.34363160420397
 20
8.0
 30
0.0
 11
-11.22393860070065
 21
6.880306996496692
 31
0.0
  0
LINE
  5
6B6
330
1F
100
AcDbEntity
  8
SK2
  6
CONTINUOUS
370
25
 62
7
100
AcDbLine
 10
-11.91936753549204
 20
8.0
 30
0.0
 11
-11.153227922582
 21
7.233860387089969
 31
0.0
  0
LINE
  5
6B7
330
1F
100
AcDbEntity
  8
SK2
  6
CONTINUOUS
370
25
 62
7
100
AcDbLine
 10
-11.49510346678011
 20
8.0
 30
0.0
 11
-11.08251724446335
 21
7.587413777683246
 31
0.0
  0
LINE
  5
6B8
330
1F
100
AcDbEntity
  8
SK2
  6
CONTINUOUS
370
25
 62
7
100
AcDbLine
 10
-11.07083939806818
 20
8.0
 30
0.0
 11
-11.01180656634469
 21
7.940967168276508
 31
0.0
  0
TEXT
  5
6B9
330
1F
100
AcDbEntity
  8
SK2
  6
CONTINUOUS
370
25
 62
7
100
AcDbText
 10
-13.5
 20
13.34583333333333
 30
0.0
 40
3.5
  1
6
 50
90.00000000000001
 72
     1
 11
-13.5
 21
14.5125
 31
0.0
100
AcDbText
  0
CIRCLE
  5
6BA
330
1F
100
AcDbEntity
  8
SK2
  6
CONTINUOUS
370
25
 62
7
100
AcDbCircle
 10
-15.25
 20
11.1875
 30
0.0
 40
1.4
  0
LINE
  5
6BB
330
1F
100
AcDbEntity
  8
SK2
  6
CONTINUOUS
370
25
 62
7
100
AcDbLine
 10
-13.85
 20
9.787500000000001
 30
0.0
 11
-16.65000000000001
 21
12.5875
 31
0.0
  0
LINE
  5
6BC
330
1F
100
AcDbEntity
  8
SK2
  6
CONTINUOUS
370
25
 62
7
100
AcDbLine
 10
0.0
 20
3.0
 30
0.0
 11
0.0
 21
16.00001
 31
0.0
  0
LINE
  5
6BD
330
1F
100
AcDbEntity
  8
SK2
  6
CONTINUOUS
370
25
 62
7
100
AcDbLine
 10
50.0
 20
16.00001
 30
0.0
 11
50.0
 21
3.0
 31
0.0
  0
LINE
  5
6BE
330
1F
100
AcDbEntity
  8
SK2
  6
CONTINUOUS
370
25
 62
7
100
AcDbLine
 10
0.0
 20
15.00001
 30
0.0
 11
50.0
 21
15.00001
 31
0.0
  0
LINE
  5
6BF
330
1F
100
AcDbEntity
  8
SK2
  6
CONTINUOUS
370
25
 62
7
100
AcDbLine
 10
0.0
 20
15.00001
 30
0.0
 11
5.0
 21
16.00001
 31
0.0
  0
LINE
  5
6C0
330
1F
100
AcDbEntity
  8
SK2
  6
CONTINUOUS
370
25
 62
7
100
AcDbLine
 10
5.0
 20
16.00001
 30
0.0
 11
5.0
 21
14.00001
 31
0.0
  0
LINE
  5
6C1
330
1F
100
AcDbEntity
  8
SK2
  6
CONTINUOUS
370
25
 62
7
100
AcDbLine
 10
5.0
 20
14.00001
 30
0.0
 11
0.0
 21
15.00001
 31
0.0
  0
LINE
  5
6C2
330
1F
100
AcDbEntity
  8
SK2
  6
CONTINUOUS
370
25
 62
7
100
AcDbLine
 10
4.669200316941705
 20
14.06616993661167
 30
0.0
 11
5.0
 21
14.39696961966996
 31
0.0
  0
LINE
  5
6C3
330
1F
100
AcDbEntity
  8
SK2
  6
CONTINUOUS
370
25
 62
7
100
AcDbLine
 10
4.315646926348428
 20
14.13688061473032
 30
0.0
 11
5.0
 21
14.82123368838189
 31
0.0
  0
LINE
  5
6C4
330
1F
100
AcDbEntity
  8
SK2
  6
CONTINUOUS
370
25
 62
7
100
AcDbLine
 10
3.962093535755159
 20
14.20759129284897
 30
0.0
 11
5.0
 21
15.24549775709382
 31
0.0
  0
LINE
  5
6C5
330
1F
100
AcDbEntity
  8
SK2
  6
CONTINUOUS
370
25
 62
7
100
AcDbLine
 10
3.608540145161882
 20
14.27830197096763
 30
0.0
 11
5.0
 21
15.66976182580575
 31
0.0
  0
LINE
  5
6C6
330
1F
100
AcDbEntity
  8
SK2
  6
CONTINUOUS
370
25
 62
7
100
AcDbLine
 10
3.254986754568598
 20
14.34901264908628
 30
0.0
 11
4.882480131852894
 21
15.97650602637058
 31
0.0
  0
LINE
  5
6C7
330
1F
100
AcDbEntity
  8
SK2
  6
CONTINUOUS
370
25
 62
7
100
AcDbLine
 10
2.901433363975322
 20
14.41972332720493
 30
0.0
 11
4.352150045962972
 21
15.87044000919258
 31
0.0
  0
LINE
  5
6C8
330
1F
100
AcDbEntity
  8
SK2
  6
CONTINUOUS
370
25
 62
7
100
AcDbLine
 10
2.547879973382052
 20
14.49043400532359
 30
0.0
 11
3.821819960073071
 21
15.76437399201461
 31
0.0
  0
LINE
  5
6C9
330
1F
100
AcDbEntity
  8
SK2
  6
CONTINUOUS
370
25
 62
7
100
AcDbLine
 10
2.194326582788776
 20
14.56114468344225
 30
0.0
 11
3.291489874183156
 21
15.65830797483663
 31
0.0
  0
LINE
  5
6CA
330
1F
100
AcDbEntity
  8
SK2
  6
CONTINUOUS
370
25
 62
7
100
AcDbLine
 10
1.840773192195492
 20
14.6318553615609
 30
0.0
 11
2.761159788293234
 21
15.55224195765864
 31
0.0
  0
LINE
  5
6CB
330
1F
100
AcDbEntity
  8
SK2
  6
CONTINUOUS
370
25
 62
7
100
AcDbLine
 10
1.487219801602215
 20
14.70256603967955
 30
0.0
 11
2.230829702403319
 21
15.44617594048066
 31
0.0
  0
LINE
  5
6CC
330
1F
100
AcDbEntity
  8
SK2
  6
CONTINUOUS
370
25
 62
7
100
AcDbLine
 10
1.133666411008946
 20
14.77327671779821
 30
0.0
 11
1.700499616513419
 21
15.34010992330268
 31
0.0
  0
LINE
  5
6CD
330
1F
100
AcDbEntity
  8
SK2
  6
CONTINUOUS
370
25
 62
7
100
AcDbLine
 10
0.7801130204156692
 20
14.84398739591687
 30
0.0
 11
1.170169530623497
 21
15.2340439061247
 31
0.0
  0
LINE
  5
6CE
330
1F
100
AcDbEntity
  8
SK2
  6
CONTINUOUS
370
25
 62
7
100
AcDbLine
 10
0.4265596298223926
 20
14.91469807403553
 30
0.0
 11
0.6398394447335818
 21
15.12797788894672
 31
0.0
  0
LINE
  5
6CF
330
1F
100
AcDbEntity
  8
SK2
  6
CONTINUOUS
370
25
 62
7
100
AcDbLine
 10
0.0730062392291231
 20
14.98540875215418
 30
0.0
 11
0.109509358843674
 21
15.02191187176873
 31
0.0
  0
LINE
  5
6D0
330
1F
100
AcDbEntity
  8
SK2
  6
CONTINUOUS
370
25
 62
7
100
AcDbLine
 10
0.1922381600807412
 20
15.03845763201615
 30
0.0
 11
0.2883572401211225
 21
14.94233855197577
 31
0.0
  0
LINE
  5
6D1
330
1F
100
AcDbEntity
  8
SK2
  6
CONTINUOUS
370
25
 62
7
100
AcDbLine
 10
0.545791550674025
 20
15.10916831013481
 30
0.0
 11
0.8186873260110374
 21
14.83627253479779
 31
0.0
  0
LINE
  5
6D2
330
1F
100
AcDbEntity
  8
SK2
  6
CONTINUOUS
370
25
 62
7
100
AcDbLine
 10
0.8993449412673016
 20
15.17987898825346
 30
0.0
 11
1.349017411900959
 21
14.7302065176198
 31
0.0
  0
LINE
  5
6D3
330
1F
100
AcDbEntity
  8
SK2
  6
CONTINUOUS
370
25
 62
7
100
AcDbLine
 10
1.252898331860571
 20
15.25058966637211
 30
0.0
 11
1.87934749779086
 21
14.62414050044183
 31
0.0
  0
LINE
  5
6D4
330
1F
100
AcDbEntity
  8
SK2
  6
CONTINUOUS
370
25
 62
7
100
AcDbLine
 10
1.606451722453848
 20
15.32130034449077
 30
0.0
 11
2.409677583680782
 21
14.51807448326385
 31
0.0
  0
LINE
  5
6D5
330
1F
100
AcDbEntity
  8
SK2
  6
CONTINUOUS
370
25
 62
7
100
AcDbLine
 10
1.960005113047124
 20
15.39201102260943
 30
0.0
 11
2.940007669570697
 21
14.41200846608587
 31
0.0
  0
LINE
  5
6D6
330
1F
100
AcDbEntity
  8
SK2
  6
CONTINUOUS
370
25
 62
7
100
AcDbLine
 10
2.313558503640408
 20
15.46272170072808
 30
0.0
 11
3.470337755460619
 21
14.30594244890787
 31
0.0
  0
LINE
  5
6D7
330
1F
100
AcDbEntity
  8
SK2
  6
CONTINUOUS
370
25
 62
7
100
AcDbLine
 10
2.667111894233678
 20
15.53343237884674
 30
0.0
 11
4.000667841350527
 21
14.19987643172989
 31
0.0
  0
LINE
  5
6D8
330
1F
100
AcDbEntity
  8
SK2
  6
CONTINUOUS
370
25
 62
7
100
AcDbLine
 10
3.020665284826954
 20
15.6041430569654
 30
0.0
 11
4.530997927240435
 21
14.09381041455192
 31
0.0
  0
LINE
  5
6D9
330
1F
100
AcDbEntity
  8
SK2
  6
CONTINUOUS
370
25
 62
7
100
AcDbLine
 10
3.374218675420231
 20
15.67485373508405
 30
0.0
 11
5.0
 21
14.04907241050428
 31
0.0
  0
LINE
  5
6DA
330
1F
100
AcDbEntity
  8
SK2
  6
CONTINUOUS
370
25
 62
7
100
AcDbLine
 10
3.727772066013515
 20
15.7455644132027
 30
0.0
 11
5.0
 21
14.47333647921621
 31
0.0
  0
LINE
  5
6DB
330
1F
100
AcDbEntity
  8
SK2
  6
CONTINUOUS
370
25
 62
7
100
AcDbLine
 10
4.081325456606784
 20
15.81627509132136
 30
0.0
 11
5.0
 21
14.89760054792815
 31
0.0
  0
LINE
  5
6DC
330
1F
100
AcDbEntity
  8
SK2
  6
CONTINUOUS
370
25
 62
7
100
AcDbLine
 10
4.434878847200061
 20
15.88698576944002
 30
0.0
 11
5.0
 21
15.32186461664008
 31
0.0
  0
LINE
  5
6DD
330
1F
100
AcDbEntity
  8
SK2
  6
CONTINUOUS
370
25
 62
7
100
AcDbLine
 10
4.788432237793337
 20
15.95769644755867
 30
0.0
 11
5.0
 21
15.74612868535201
 31
0.0
  0
LINE
  5
6DE
330
1F
100
AcDbEntity
  8
SK2
  6
CONTINUOUS
370
25
 62
7
100
AcDbLine
 10
50.0
 20
15.00001
 30
0.0
 11
45.0
 21
14.00001
 31
0.0
  0
LINE
  5
6DF
330
1F
100
AcDbEntity
  8
SK2
  6
CONTINUOUS
370
25
 62
7
100
AcDbLine
 10
45.0
 20
14.00001
 30
0.0
 11
45.0
 21
16.00001
 31
0.0
  0
LINE
  5
6E0
330
1F
100
AcDbEntity
  8
SK2
  6
CONTINUOUS
370
25
 62
7
100
AcDbLine
 10
45.0
 20
16.00001
 30
0.0
 11
50.0
 21
15.00001
 31
0.0
  0
LINE
  5
6E1
330
1F
100
AcDbEntity
  8
SK2
  6
CONTINUOUS
370
25
 62
7
100
AcDbLine
 10
49.65812940796322
 20
14.93163588159264
 30
0.0
 11
49.77208627197548
 21
15.0455927456049
 31
0.0
  0
LINE
  5
6E2
330
1F
100
AcDbEntity
  8
SK2
  6
CONTINUOUS
370
25
 62
7
100
AcDbLine
 10
49.12779932207331
 20
14.82556986441466
 30
0.0
 11
49.41853288138221
 21
15.11630342372356
 31
0.0
  0
LINE
  5
6E3
330
1F
100
AcDbEntity
  8
SK2
  6
CONTINUOUS
370
25
 62
7
100
AcDbLine
 10
48.5974692361834
 20
14.71950384723668
 30
0.0
 11
49.06497949078894
 21
15.18701410184221
 31
0.0
  0
LINE
  5
6E4
330
1F
100
AcDbEntity
  8
SK2
  6
CONTINUOUS
370
25
 62
7
100
AcDbLine
 10
48.06713915029349
 20
14.6134378300587
 30
0.0
 11
48.71142610019566
 21
15.25772477996087
 31
0.0
  0
LINE
  5
6E5
330
1F
100
AcDbEntity
  8
SK2
  6
CONTINUOUS
370
25
 62
7
100
AcDbLine
 10
47.53680906440358
 20
14.50737181288072
 30
0.0
 11
48.35787270960239
 21
15.32843545807952
 31
0.0
  0
LINE
  5
6E6
330
1F
100
AcDbEntity
  8
SK2
  6
CONTINUOUS
370
25
 62
7
100
AcDbLine
 10
47.00647897851367
 20
14.40130579570273
 30
0.0
 11
48.00431931900911
 21
15.39914613619818
 31
0.0
  0
LINE
  5
6E7
330
1F
100
AcDbEntity
  8
SK2
  6
CONTINUOUS
370
25
 62
7
100
AcDbLine
 10
46.47614889262376
 20
14.29523977852475
 30
0.0
 11
47.65076592841584
 21
15.46985681431683
 31
0.0
  0
LINE
  5
6E8
330
1F
100
AcDbEntity
  8
SK2
  6
CONTINUOUS
370
25
 62
7
100
AcDbLine
 10
45.94581880673385
 20
14.18917376134677
 30
0.0
 11
47.29721253782257
 21
15.54056749243549
 31
0.0
  0
LINE
  5
6E9
330
1F
100
AcDbEntity
  8
SK2
  6
CONTINUOUS
370
25
 62
7
100
AcDbLine
 10
45.41548872084394
 20
14.08310774416879
 30
0.0
 11
46.94365914722929
 21
15.61127817055414
 31
0.0
  0
LINE
  5
6EA
330
1F
100
AcDbEntity
  8
SK2
  6
CONTINUOUS
370
25
 62
7
100
AcDbLine
 10
45.0
 20
14.09188309203677
 30
0.0
 11
46.59010575663602
 21
15.68198884867279
 31
0.0
  0
LINE
  5
6EB
330
1F
100
AcDbEntity
  8
SK2
  6
CONTINUOUS
370
25
 62
7
100
AcDbLine
 10
45.0
 20
14.5161471607487
 30
0.0
 11
46.23655236604274
 21
15.75269952679145
 31
0.0
  0
LINE
  5
6EC
330
1F
100
AcDbEntity
  8
SK2
  6
CONTINUOUS
370
25
 62
7
100
AcDbLine
 10
45.0
 20
14.94041122946063
 30
0.0
 11
45.88299897544947
 21
15.8234102049101
 31
0.0
  0
LINE
  5
6ED
330
1F
100
AcDbEntity
  8
SK2
  6
CONTINUOUS
370
25
 62
7
100
AcDbLine
 10
45.0
 20
15.36467529817256
 30
0.0
 11
45.52944558485621
 21
15.89412088302876
 31
0.0
  0
LINE
  5
6EE
330
1F
100
AcDbEntity
  8
SK2
  6
CONTINUOUS
370
25
 62
7
100
AcDbLine
 10
45.0
 20
15.78893936688448
 30
0.0
 11
45.17589219426293
 21
15.96483156114741
 31
0.0
  0
LINE
  5
6EF
330
1F
100
AcDbEntity
  8
SK2
  6
CONTINUOUS
370
25
 62
7
100
AcDbLine
 10
45.0
 20
14.3338095116624
 30
0.0
 11
45.27816625971867
 21
14.05564325194373
 31
0.0
  0
LINE
  5
6F0
330
1F
100
AcDbEntity
  8
SK2
  6
CONTINUOUS
370
25
 62
7
100
AcDbLine
 10
45.0
 20
14.75807358037433
 30
0.0
 11
45.63171965031194
 21
14.12635393006239
 31
0.0
  0
LINE
  5
6F1
330
1F
100
AcDbEntity
  8
SK2
  6
CONTINUOUS
370
25
 62
7
100
AcDbLine
 10
45.0
 20
15.18233764908626
 30
0.0
 11
45.98527304090521
 21
14.19706460818104
 31
0.0
  0
LINE
  5
6F2
330
1F
100
AcDbEntity
  8
SK2
  6
CONTINUOUS
370
25
 62
7
100
AcDbLine
 10
45.0
 20
15.60660171779818
 30
0.0
 11
46.33882643149849
 21
14.2677752862997
 31
0.0
  0
LINE
  5
6F3
330
1F
100
AcDbEntity
  8
SK2
  6
CONTINUOUS
370
25
 62
7
100
AcDbLine
 10
45.03856973313764
 20
15.99229605337247
 30
0.0
 11
46.69237982209176
 21
14.33848596441835
 31
0.0
  0
LINE
  5
6F4
330
1F
100
AcDbEntity
  8
SK2
  6
CONTINUOUS
370
25
 62
7
100
AcDbLine
 10
45.56889981902755
 20
15.88623003619449
 30
0.0
 11
47.04593321268504
 21
14.40919664253701
 31
0.0
  0
LINE
  5
6F5
330
1F
100
AcDbEntity
  8
SK2
  6
CONTINUOUS
370
25
 62
7
100
AcDbLine
 10
46.09922990491746
 20
15.78016401901651
 30
0.0
 11
47.39948660327831
 21
14.47990732065566
 31
0.0
  0
LINE
  5
6F6
330
1F
100
AcDbEntity
  8
SK2
  6
CONTINUOUS
370
25
 62
7
100
AcDbLine
 10
46.62955999080737
 20
15.67409800183852
 30
0.0
 11
47.75303999387158
 21
14.55061799877432
 31
0.0
  0
LINE
  5
6F7
330
1F
100
AcDbEntity
  8
SK2
  6
CONTINUOUS
370
25
 62
7
100
AcDbLine
 10
47.15989007669728
 20
15.56803198466054
 30
0.0
 11
48.10659338446486
 21
14.62132867689297
 31
0.0
  0
LINE
  5
6F8
330
1F
100
AcDbEntity
  8
SK2
  6
CONTINUOUS
370
25
 62
7
100
AcDbLine
 10
47.69022016258719
 20
15.46196596748256
 30
0.0
 11
48.46014677505813
 21
14.69203935501162
 31
0.0
  0
LINE
  5
6F9
330
1F
100
AcDbEntity
  8
SK2
  6
CONTINUOUS
370
25
 62
7
100
AcDbLine
 10
48.2205502484771
 20
15.35589995030458
 30
0.0
 11
48.8137001656514
 21
14.76275003313028
 31
0.0
  0
LINE
  5
6FA
330
1F
100
AcDbEntity
  8
SK2
  6
CONTINUOUS
370
25
 62
7
100
AcDbLine
 10
48.75088033436701
 20
15.2498339331266
 30
0.0
 11
49.16725355624467
 21
14.83346071124894
 31
0.0
  0
LINE
  5
6FB
330
1F
100
AcDbEntity
  8
SK2
  6
CONTINUOUS
370
25
 62
7
100
AcDbLine
 10
49.28121042025693
 20
15.14376791594862
 30
0.0
 11
49.52080694683795
 21
14.90417138936759
 31
0.0
  0
LINE
  5
6FC
330
1F
100
AcDbEntity
  8
SK2
  6
CONTINUOUS
370
25
 62
7
100
AcDbLine
 10
49.81154050614683
 20
15.03770189877063
 30
0.0
 11
49.87436033743123
 21
14.97488206748625
 31
0.0
  0
TEXT
  5
6FD
330
1F
100
AcDbEntity
  8
SK2
  6
CONTINUOUS
370
25
 62
7
100
AcDbText
 10
22.375
 20
16.50001
 30
0.0
 40
3.5
  1
50
 72
     1
 11
25.0
 21
16.50001
 31
0.0
100
AcDbText
  0
LINE
  5
6FE
330
1F
100
AcDbEntity
  8
2
  6
CONTINUOUS
370
25
 62
7
100
AcDbLine
 10
50.0
 20
-3.00001
 30
0.0
 11
50.0
 21
-16.00001
 31
0.0
  0
LINE
  5
6FF
330
1F
100
AcDbEntity
  8
2
  6
CONTINUOUS
370
25
 62
7
100
AcDbLine
 10
50.5
 20
-16.00001
 30
0.0
 11
50.5
 21
-3.00001
 31
0.0
  0
LINE
  5
700
330
1F
100
AcDbEntity
  8
2
  6
CONTINUOUS
370
25
 62
7
100
AcDbLine
 10
34.075
 20
-15.00001
 30
0.0
 11
57.5
 21
-15.00001
 31
0.0
  0
LINE
  5
701
330
1F
100
AcDbEntity
  8
2
  6
CONTINUOUS
370
25
 62
7
100
AcDbLine
 10
50.0
 20
-15.00001
 30
0.0
 11
45.0
 21
-16.00001
 31
0.0
  0
LINE
  5
702
330
1F
100
AcDbEntity
  8
2
  6
CONTINUOUS
370
25
 62
7
100
AcDbLine
 10
45.0
 20
-16.00001
 30
0.0
 11
45.0
 21
-14.00001
 31
0.0
  0
LINE
  5
703
330
1F
100
AcDbEntity
  8
2
  6
CONTINUOUS
370
25
 62
7
100
AcDbLine
 10
45.0
 20
-14.00001
 30
0.0
 11
50.0
 21
-15.00001
 31
0.0
  0
LINE
  5
704
330
1F
100
AcDbEntity
  8
2
  6
CONTINUOUS
370
25
 62
7
100
AcDbLine
 10
49.63718179670472
 20
-15.07257364065905
 30
0.0
 11
49.75812119780315
 21
-14.95163423956063
 31
0.0
  0
LINE
  5
705
330
1F
100
AcDbEntity
  8
2
  6
CONTINUOUS
370
25
 62
7
100
AcDbLine
 10
49.10685171081482
 20
-15.17863965783704
 30
0.0
 11
49.40456780720988
 21
-14.88092356144197
 31
0.0
  0
LINE
  5
706
330
1F
100
AcDbEntity
  8
2
  6
CONTINUOUS
370
25
 62
7
100
AcDbLine
 10
48.57652162492491
 20
-15.28470567501502
 30
0.0
 11
49.0510144166166
 21
-14.81021288332332
 31
0.0
  0
LINE
  5
707
330
1F
100
AcDbEntity
  8
2
  6
CONTINUOUS
370
25
 62
7
100
AcDbLine
 10
48.046191539035
 20
-15.390771692193
 30
0.0
 11
48.69746102602333
 21
-14.73950220520467
 31
0.0
  0
LINE
  5
708
330
1F
100
AcDbEntity
  8
2
  6
CONTINUOUS
370
25
 62
7
100
AcDbLine
 10
47.51586145314509
 20
-15.49683770937098
 30
0.0
 11
48.34390763543006
 21
-14.66879152708601
 31
0.0
  0
LINE
  5
709
330
1F
100
AcDbEntity
  8
2
  6
CONTINUOUS
370
25
 62
7
100
AcDbLine
 10
46.98553136725518
 20
-15.60290372654896
 30
0.0
 11
47.99035424483679
 21
-14.59808084896736
 31
0.0
  0
LINE
  5
70A
330
1F
100
AcDbEntity
  8
2
  6
CONTINUOUS
370
25
 62
7
100
AcDbLine
 10
46.45520128136527
 20
-15.70896974372695
 30
0.0
 11
47.63680085424351
 21
-14.5273701708487
 31
0.0
  0
LINE
  5
70B
330
1F
100
AcDbEntity
  8
2
  6
CONTINUOUS
370
25
 62
7
100
AcDbLine
 10
45.92487119547536
 20
-15.81503576090493
 30
0.0
 11
47.28324746365024
 21
-14.45665949273005
 31
0.0
  0
LINE
  5
70C
330
1F
100
AcDbEntity
  8
2
  6
CONTINUOUS
370
25
 62
7
100
AcDbLine
 10
45.39454110958545
 20
-15.92110177808291
 30
0.0
 11
46.92969407305696
 21
-14.38594881461139
 31
0.0
  0
LINE
  5
70D
330
1F
100
AcDbEntity
  8
2
  6
CONTINUOUS
370
25
 62
7
100
AcDbLine
 10
45.0
 20
-15.89137881895643
 30
0.0
 11
46.57614068246369
 21
-14.31523813649274
 31
0.0
  0
LINE
  5
70E
330
1F
100
AcDbEntity
  8
2
  6
CONTINUOUS
370
25
 62
7
100
AcDbLine
 10
45.0
 20
-15.4671147502445
 30
0.0
 11
46.22258729187042
 21
-14.24452745837408
 31
0.0
  0
LINE
  5
70F
330
1F
100
AcDbEntity
  8
2
  6
CONTINUOUS
370
25
 62
7
100
AcDbLine
 10
45.0
 20
-15.04285068153258
 30
0.0
 11
45.86903390127715
 21
-14.17381678025543
 31
0.0
  0
LINE
  5
710
330
1F
100
AcDbEntity
  8
2
  6
CONTINUOUS
370
25
 62
7
100
AcDbLine
 10
45.0
 20
-14.61858661282065
 30
0.0
 11
45.51548051068387
 21
-14.10310610213677
 31
0.0
  0
LINE
  5
711
330
1F
100
AcDbEntity
  8
2
  6
CONTINUOUS
370
25
 62
7
100
AcDbLine
 10
45.0
 20
-14.19432254410872
 30
0.0
 11
45.1619271200906
 21
-14.03239542401812
 31
0.0
  0
LINE
  5
712
330
1F
100
AcDbEntity
  8
2
  6
CONTINUOUS
370
25
 62
7
100
AcDbLine
 10
45.0
 20
-15.89137881895642
 30
0.0
 11
45.09052598420298
 21
-15.9819048031594
 31
0.0
  0
LINE
  5
713
330
1F
100
AcDbEntity
  8
2
  6
CONTINUOUS
370
25
 62
7
100
AcDbLine
 10
45.0
 20
-15.46711475024449
 30
0.0
 11
45.44407937479626
 21
-15.91119412504075
 31
0.0
  0
LINE
  5
714
330
1F
100
AcDbEntity
  8
2
  6
CONTINUOUS
370
25
 62
7
100
AcDbLine
 10
45.0
 20
-15.04285068153256
 30
0.0
 11
45.79763276538953
 21
-15.84048344692209
 31
0.0
  0
LINE
  5
715
330
1F
100
AcDbEntity
  8
2
  6
CONTINUOUS
370
25
 62
7
100
AcDbLine
 10
45.0
 20
-14.61858661282064
 30
0.0
 11
46.15118615598281
 21
-15.76977276880344
 31
0.0
  0
LINE
  5
716
330
1F
100
AcDbEntity
  8
2
  6
CONTINUOUS
370
25
 62
7
100
AcDbLine
 10
45.0
 20
-14.19432254410871
 30
0.0
 11
46.50473954657608
 21
-15.69906209068478
 31
0.0
  0
LINE
  5
717
330
1F
100
AcDbEntity
  8
2
  6
CONTINUOUS
370
25
 62
7
100
AcDbLine
 10
45.28743940575403
 20
-14.05749788115081
 30
0.0
 11
46.85829293716935
 21
-15.62835141256613
 31
0.0
  0
LINE
  5
718
330
1F
100
AcDbEntity
  8
2
  6
CONTINUOUS
370
25
 62
7
100
AcDbLine
 10
45.81776949164394
 20
-14.16356389832879
 30
0.0
 11
47.21184632776262
 21
-15.55764073444747
 31
0.0
  0
LINE
  5
719
330
1F
100
AcDbEntity
  8
2
  6
CONTINUOUS
370
25
 62
7
100
AcDbLine
 10
46.34809957753384
 20
-14.26962991550677
 30
0.0
 11
47.5653997183559
 21
-15.48693005632882
 31
0.0
  0
LINE
  5
71A
330
1F
100
AcDbEntity
  8
2
  6
CONTINUOUS
370
25
 62
7
100
AcDbLine
 10
46.87842966342376
 20
-14.37569593268475
 30
0.0
 11
47.91895310894917
 21
-15.41621937821017
 31
0.0
  0
LINE
  5
71B
330
1F
100
AcDbEntity
  8
2
  6
CONTINUOUS
370
25
 62
7
100
AcDbLine
 10
47.40875974931367
 20
-14.48176194986273
 30
0.0
 11
48.27250649954244
 21
-15.34550870009151
 31
0.0
  0
LINE
  5
71C
330
1F
100
AcDbEntity
  8
2
  6
CONTINUOUS
370
25
 62
7
100
AcDbLine
 10
47.93908983520357
 20
-14.58782796704071
 30
0.0
 11
48.62605989013572
 21
-15.27479802197286
 31
0.0
  0
LINE
  5
71D
330
1F
100
AcDbEntity
  8
2
  6
CONTINUOUS
370
25
 62
7
100
AcDbLine
 10
48.46941992109349
 20
-14.6938939842187
 30
0.0
 11
48.97961328072899
 21
-15.2040873438542
 31
0.0
  0
LINE
  5
71E
330
1F
100
AcDbEntity
  8
2
  6
CONTINUOUS
370
25
 62
7
100
AcDbLine
 10
48.9997500069834
 20
-14.79996000139668
 30
0.0
 11
49.33316667132227
 21
-15.13337666573555
 31
0.0
  0
LINE
  5
71F
330
1F
100
AcDbEntity
  8
2
  6
CONTINUOUS
370
25
 62
7
100
AcDbLine
 10
49.53008009287331
 20
-14.90602601857466
 30
0.0
 11
49.68672006191554
 21
-15.06266598761689
 31
0.0
  0
LINE
  5
720
330
1F
100
AcDbEntity
  8
2
  6
CONTINUOUS
370
25
 62
7
100
AcDbLine
 10
50.5
 20
-15.00001
 30
0.0
 11
55.5
 21
-14.00001
 31
0.0
  0
LINE
  5
721
330
1F
100
AcDbEntity
  8
2
  6
CONTINUOUS
370
25
 62
7
100
AcDbLine
 10
55.5
 20
-14.00001
 30
0.0
 11
55.5
 21
-16.00001
 31
0.0
  0
LINE
  5
722
330
1F
100
AcDbEntity
  8
2
  6
CONTINUOUS
370
25
 62
7
100
AcDbLine
 10
55.5
 20
-16.00001
 30
0.0
 11
50.5
 21
-15.00001
 31
0.0
  0
LINE
  5
723
330
1F
100
AcDbEntity
  8
2
  6
CONTINUOUS
370
25
 62
7
100
AcDbLine
 10
55.47258729187041
 20
-15.99452745837408
 30
0.0
 11
55.5
 21
-15.96711475024449
 31
0.0
  0
LINE
  5
724
330
1F
100
AcDbEntity
  8
2
  6
CONTINUOUS
370
25
 62
7
100
AcDbLine
 10
55.11903390127713
 20
-15.92381678025543
 30
0.0
 11
55.5
 21
-15.54285068153257
 31
0.0
  0
LINE
  5
725
330
1F
100
AcDbEntity
  8
2
  6
CONTINUOUS
370
25
 62
7
100
AcDbLine
 10
54.76548051068386
 20
-15.85310610213677
 30
0.0
 11
55.5
 21
-15.11858661282063
 31
0.0
  0
LINE
  5
726
330
1F
100
AcDbEntity
  8
2
  6
CONTINUOUS
370
25
 62
7
100
AcDbLine
 10
54.41192712009059
 20
-15.78239542401812
 30
0.0
 11
55.5
 21
-14.69432254410871
 31
0.0
  0
LINE
  5
727
330
1F
100
AcDbEntity
  8
2
  6
CONTINUOUS
370
25
 62
7
100
AcDbLine
 10
54.05837372949731
 20
-15.71168474589946
 30
0.0
 11
55.5
 21
-14.27005847539678
 31
0.0
  0
LINE
  5
728
330
1F
100
AcDbEntity
  8
2
  6
CONTINUOUS
370
25
 62
7
100
AcDbLine
 10
53.70482033890404
 20
-15.64097406778081
 30
0.0
 11
55.30723050835606
 21
-14.03856389832879
 31
0.0
  0
LINE
  5
729
330
1F
100
AcDbEntity
  8
2
  6
CONTINUOUS
370
25
 62
7
100
AcDbLine
 10
53.35126694831077
 20
-15.57026338966215
 30
0.0
 11
54.77690042246616
 21
-14.14462991550677
 31
0.0
  0
LINE
  5
72A
330
1F
100
AcDbEntity
  8
2
  6
CONTINUOUS
370
25
 62
7
100
AcDbLine
 10
52.9977135577175
 20
-15.4995527115435
 30
0.0
 11
54.24657033657625
 21
-14.25069593268475
 31
0.0
  0
LINE
  5
72B
330
1F
100
AcDbEntity
  8
2
  6
CONTINUOUS
370
25
 62
7
100
AcDbLine
 10
52.64416016712422
 20
-15.42884203342484
 30
0.0
 11
53.71624025068634
 21
-14.35676194986273
 31
0.0
  0
LINE
  5
72C
330
1F
100
AcDbEntity
  8
2
  6
CONTINUOUS
370
25
 62
7
100
AcDbLine
 10
52.29060677653095
 20
-15.35813135530619
 30
0.0
 11
53.18591016479643
 21
-14.46282796704071
 31
0.0
  0
LINE
  5
72D
330
1F
100
AcDbEntity
  8
2
  6
CONTINUOUS
370
25
 62
7
100
AcDbLine
 10
51.93705338593767
 20
-15.28742067718754
 30
0.0
 11
52.65558007890652
 21
-14.5688939842187
 31
0.0
  0
LINE
  5
72E
330
1F
100
AcDbEntity
  8
2
  6
CONTINUOUS
370
25
 62
7
100
AcDbLine
 10
51.5834999953444
 20
-15.21670999906888
 30
0.0
 11
52.12524999301661
 21
-14.67496000139668
 31
0.0
  0
LINE
  5
72F
330
1F
100
AcDbEntity
  8
2
  6
CONTINUOUS
370
25
 62
7
100
AcDbLine
 10
51.22994660475113
 20
-15.14599932095023
 30
0.0
 11
51.59491990712669
 21
-14.78102601857466
 31
0.0
  0
LINE
  5
730
330
1F
100
AcDbEntity
  8
2
  6
CONTINUOUS
370
25
 62
7
100
AcDbLine
 10
50.87639321415786
 20
-15.07528864283157
 30
0.0
 11
51.06458982123679
 21
-14.88709203575264
 31
0.0
  0
LINE
  5
731
330
1F
100
AcDbEntity
  8
2
  6
CONTINUOUS
370
25
 62
7
100
AcDbLine
 10
50.52283982356458
 20
-15.00457796471292
 30
0.0
 11
50.53425973534687
 21
-14.99315805293062
 31
0.0
  0
LINE
  5
732
330
1F
100
AcDbEntity
  8
2
  6
CONTINUOUS
370
25
 62
7
100
AcDbLine
 10
50.80499207827024
 20
-14.93901158434595
 30
0.0
 11
50.95748811740535
 21
-15.09150762348107
 31
0.0
  0
LINE
  5
733
330
1F
100
AcDbEntity
  8
2
  6
CONTINUOUS
370
25
 62
7
100
AcDbLine
 10
51.15854546886351
 20
-14.8683009062273
 30
0.0
 11
51.48781820329526
 21
-15.19757364065905
 31
0.0
  0
LINE
  5
734
330
1F
100
AcDbEntity
  8
2
  6
CONTINUOUS
370
25
 62
7
100
AcDbLine
 10
51.51209885945678
 20
-14.79759022810864
 30
0.0
 11
52.01814828918518
 21
-15.30363965783704
 31
0.0
  0
LINE
  5
735
330
1F
100
AcDbEntity
  8
2
  6
CONTINUOUS
370
25
 62
7
100
AcDbLine
 10
51.86565225005005
 20
-14.72687954998999
 30
0.0
 11
52.54847837507509
 21
-15.40970567501502
 31
0.0
  0
LINE
  5
736
330
1F
100
AcDbEntity
  8
2
  6
CONTINUOUS
370
25
 62
7
100
AcDbLine
 10
52.21920564064333
 20
-14.65616887187133
 30
0.0
 11
53.07880846096499
 21
-15.515771692193
 31
0.0
  0
LINE
  5
737
330
1F
100
AcDbEntity
  8
2
  6
CONTINUOUS
370
25
 62
7
100
AcDbLine
 10
52.5727590312366
 20
-14.58545819375268
 30
0.0
 11
53.60913854685491
 21
-15.62183770937098
 31
0.0
  0
LINE
  5
738
330
1F
100
AcDbEntity
  8
2
  6
CONTINUOUS
370
25
 62
7
100
AcDbLine
 10
52.92631242182988
 20
-14.51474751563402
 30
0.0
 11
54.13946863274482
 21
-15.72790372654896
 31
0.0
  0
LINE
  5
739
330
1F
100
AcDbEntity
  8
2
  6
CONTINUOUS
370
25
 62
7
100
AcDbLine
 10
53.27986581242315
 20
-14.44403683751537
 30
0.0
 11
54.66979871863472
 21
-15.83396974372695
 31
0.0
  0
LINE
  5
73A
330
1F
100
AcDbEntity
  8
2
  6
CONTINUOUS
370
25
 62
7
100
AcDbLine
 10
53.63341920301642
 20
-14.37332615939671
 30
0.0
 11
55.20012880452464
 21
-15.94003576090493
 31
0.0
  0
LINE
  5
73B
330
1F
100
AcDbEntity
  8
2
  6
CONTINUOUS
370
25
 62
7
100
AcDbLine
 10
53.98697259360969
 20
-14.30261548127806
 30
0.0
 11
55.5
 21
-15.81564288766836
 31
0.0
  0
LINE
  5
73C
330
1F
100
AcDbEntity
  8
2
  6
CONTINUOUS
370
25
 62
7
100
AcDbLine
 10
54.34052598420297
 20
-14.23190480315941
 30
0.0
 11
55.5
 21
-15.39137881895644
 31
0.0
  0
LINE
  5
73D
330
1F
100
AcDbEntity
  8
2
  6
CONTINUOUS
370
25
 62
7
100
AcDbLine
 10
54.69407937479624
 20
-14.16119412504075
 30
0.0
 11
55.5
 21
-14.96711475024451
 31
0.0
  0
LINE
  5
73E
330
1F
100
AcDbEntity
  8
2
  6
CONTINUOUS
370
25
 62
7
100
AcDbLine
 10
55.04763276538952
 20
-14.0904834469221
 30
0.0
 11
55.5
 21
-14.54285068153258
 31
0.0
  0
LINE
  5
73F
330
1F
100
AcDbEntity
  8
2
  6
CONTINUOUS
370
25
 62
7
100
AcDbLine
 10
55.40118615598278
 20
-14.01977276880344
 30
0.0
 11
55.5
 21
-14.11858661282065
 31
0.0
  0
TEXT
  5
740
330
1F
100
AcDbEntity
  8
2
  6
CONTINUOUS
370
25
 62
7
100
AcDbText
 10
36.32916666666667
 20
-13.50001
 30
0.0
 40
3.5
  1
0.5
 72
     1
 11
39.5375
 21
-13.50001
 31
0.0
100
AcDbText
  0
LINE
  5
741
330
1F
100
AcDbEntity
  8
2
  6
CONTINUOUS
370
25
 62
7
100
AcDbLine
 10
79.25386102
 20
-2.05
 30
0.0
 11
113.0
 21
-2.050000000000004
 31
0.0
  0
LINE
  5
742
330
1F
100
AcDbEntity
  8
2
  6
CONTINUOUS
370
25
 62
7
100
AcDbLine
 10
113.0
 20
2.049999999999996
 30
0.0
 11
79.25386102
 21
2.05
 31
0.0
  0
LINE
  5
743
330
1F
100
AcDbEntity
  8
2
  6
CONTINUOUS
370
25
 62
7
100
AcDbLine
 10
112.0
 20
-9.050000000000004
 30
0.0
 11
112.0
 21
21.47499999999999
 31
0.0
  0
LINE
  5
744
330
1F
100
AcDbEntity
  8
2
  6
CONTINUOUS
370
25
 62
7
100
AcDbLine
 10
112.0
 20
-2.050000000000004
 30
0.0
 11
113.0
 21
-7.050000000000004
 31
0.0
  0
LINE
  5
745
330
1F
100
AcDbEntity
  8
2
  6
CONTINUOUS
370
25
 62
7
100
AcDbLine
 10
113.0
 20
-7.050000000000004
 30
0.0
 11
111.0
 21
-7.050000000000004
 31
0.0
  0
LINE
  5
746
330
1F
100
AcDbEntity
  8
2
  6
CONTINUOUS
370
25
 62
7
100
AcDbLine
 10
111.0
 20
-7.050000000000004
 30
0.0
 11
112.0
 21
-2.050000000000004
 31
0.0
  0
LINE
  5
747
330
1F
100
AcDbEntity
  8
2
  6
CONTINUOUS
370
25
 62
7
100
AcDbLine
 10
112.7267268483724
 20
-7.050000000000004
 30
0.0
 11
112.9544544747287
 21
-6.822272373643692
 31
0.0
  0
LINE
  5
748
330
1F
100
AcDbEntity
  8
2
  6
CONTINUOUS
370
25
 62
7
100
AcDbLine
 10
112.3024627796605
 20
-7.050000000000004
 30
0.0
 11
112.8837437966101
 21
-6.468718983050415
 31
0.0
  0
LINE
  5
749
330
1F
100
AcDbEntity
  8
2
  6
CONTINUOUS
370
25
 62
7
100
AcDbLine
 10
111.8781987109486
 20
-7.050000000000004
 30
0.0
 11
112.8130331184914
 21
-6.115165592457132
 31
0.0
  0
LINE
  5
74A
330
1F
100
AcDbEntity
  8
2
  6
CONTINUOUS
370
25
 62
7
100
AcDbLine
 10
111.4539346422366
 20
-7.050000000000004
 30
0.0
 11
112.7423224403728
 21
-5.761612201863862
 31
0.0
  0
LINE
  5
74B
330
1F
100
AcDbEntity
  8
2
  6
CONTINUOUS
370
25
 62
7
100
AcDbLine
 10
111.0296705735247
 20
-7.050000000000004
 30
0.0
 11
112.6716117622541
 21
-5.4080588112706
 31
0.0
  0
LINE
  5
74C
330
1F
100
AcDbEntity
  8
2
  6
CONTINUOUS
370
25
 62
7
100
AcDbLine
 10
111.0986483737968
 20
-6.556758131015961
 30
0.0
 11
112.6009010841355
 21
-5.05450542067733
 31
0.0
  0
LINE
  5
74D
330
1F
100
AcDbEntity
  8
2
  6
CONTINUOUS
370
25
 62
7
100
AcDbLine
 10
111.2047143909748
 20
-6.026428045126053
 30
0.0
 11
112.5301904060168
 21
-4.700952030084053
 31
0.0
  0
LINE
  5
74E
330
1F
100
AcDbEntity
  8
2
  6
CONTINUOUS
370
25
 62
7
100
AcDbLine
 10
111.3107804081528
 20
-5.496097959236145
 30
0.0
 11
112.4594797278982
 21
-4.34739863949077
 31
0.0
  0
LINE
  5
74F
330
1F
100
AcDbEntity
  8
2
  6
CONTINUOUS
370
25
 62
7
100
AcDbLine
 10
111.4168464253308
 20
-4.965767873346238
 30
0.0
 11
112.3887690497795
 21
-3.9938452488975
 31
0.0
  0
LINE
  5
750
330
1F
100
AcDbEntity
  8
2
  6
CONTINUOUS
370
25
 62
7
100
AcDbLine
 10
111.5229124425087
 20
-4.435437787456337
 30
0.0
 11
112.3180583716608
 21
-3.640291858304238
 31
0.0
  0
LINE
  5
751
330
1F
100
AcDbEntity
  8
2
  6
CONTINUOUS
370
25
 62
7
100
AcDbLine
 10
111.6289784596867
 20
-3.905107701566429
 30
0.0
 11
112.2473476935422
 21
-3.286738467710961
 31
0.0
  0
LINE
  5
752
330
1F
100
AcDbEntity
  8
2
  6
CONTINUOUS
370
25
 62
7
100
AcDbLine
 10
111.7350444768647
 20
-3.374777615676521
 30
0.0
 11
112.1766370154235
 21
-2.933185077117685
 31
0.0
  0
LINE
  5
753
330
1F
100
AcDbEntity
  8
2
  6
CONTINUOUS
370
25
 62
7
100
AcDbLine
 10
111.8411104940427
 20
-2.844447529786606
 30
0.0
 11
112.1059263373049
 21
-2.579631686524408
 31
0.0
  0
LINE
  5
754
330
1F
100
AcDbEntity
  8
2
  6
CONTINUOUS
370
25
 62
7
100
AcDbLine
 10
111.9471765112206
 20
-2.314117443896727
 30
0.0
 11
112.0352156591862
 21
-2.226078295931153
 31
0.0
  0
LINE
  5
755
330
1F
100
AcDbEntity
  8
2
  6
CONTINUOUS
370
25
 62
7
100
AcDbLine
 10
111.0593001325211
 20
-6.753499337394345
 30
0.0
 11
111.3558007951268
 21
-7.050000000000004
 31
0.0
  0
LINE
  5
756
330
1F
100
AcDbEntity
  8
2
  6
CONTINUOUS
370
25
 62
7
100
AcDbLine
 10
111.1300108106398
 20
-6.399945946801068
 30
0.0
 11
111.7800648638387
 21
-7.050000000000004
 31
0.0
  0
LINE
  5
757
330
1F
100
AcDbEntity
  8
2
  6
CONTINUOUS
370
25
 62
7
100
AcDbLine
 10
111.2007214887584
 20
-6.046392556207799
 30
0.0
 11
112.2043289325507
 21
-7.050000000000004
 31
0.0
  0
LINE
  5
758
330
1F
100
AcDbEntity
  8
2
  6
CONTINUOUS
370
25
 62
7
100
AcDbLine
 10
111.2714321668771
 20
-5.692839165614522
 30
0.0
 11
112.6285930012626
 21
-7.050000000000004
 31
0.0
  0
LINE
  5
759
330
1F
100
AcDbEntity
  8
2
  6
CONTINUOUS
370
25
 62
7
100
AcDbLine
 10
111.3421428449957
 20
-5.339285775021246
 30
0.0
 11
112.9867857325064
 21
-6.983928662531873
 31
0.0
  0
LINE
  5
75A
330
1F
100
AcDbEntity
  8
2
  6
CONTINUOUS
370
25
 62
7
100
AcDbLine
 10
111.4128535231144
 20
-4.985732384427969
 30
0.0
 11
112.8807197153284
 21
-6.453598576641959
 31
0.0
  0
LINE
  5
75B
330
1F
100
AcDbEntity
  8
2
  6
CONTINUOUS
370
25
 62
7
100
AcDbLine
 10
111.4835642012331
 20
-4.6321789938347
 30
0.0
 11
112.7746536981504
 21
-5.923268490752051
 31
0.0
  0
LINE
  5
75C
330
1F
100
AcDbEntity
  8
2
  6
CONTINUOUS
370
25
 62
7
100
AcDbLine
 10
111.5542748793517
 20
-4.278625603241437
 30
0.0
 11
112.6685876809724
 21
-5.39293840486215
 31
0.0
  0
LINE
  5
75D
330
1F
100
AcDbEntity
  8
2
  6
CONTINUOUS
370
25
 62
7
100
AcDbLine
 10
111.6249855574704
 20
-3.925072212648146
 30
0.0
 11
112.5625216637944
 21
-4.862608318972221
 31
0.0
  0
LINE
  5
75E
330
1F
100
AcDbEntity
  8
2
  6
CONTINUOUS
370
25
 62
7
100
AcDbLine
 10
111.695696235589
 20
-3.571518822054877
 30
0.0
 11
112.4564556466165
 21
-4.332278233082327
 31
0.0
  0
LINE
  5
75F
330
1F
100
AcDbEntity
  8
2
  6
CONTINUOUS
370
25
 62
7
100
AcDbLine
 10
111.7664069137077
 20
-3.217965431461607
 30
0.0
 11
112.3503896294385
 21
-3.801948147192398
 31
0.0
  0
LINE
  5
760
330
1F
100
AcDbEntity
  8
2
  6
CONTINUOUS
370
25
 62
7
100
AcDbLine
 10
111.8371175918263
 20
-2.864412040868331
 30
0.0
 11
112.2443236122605
 21
-3.27161806130249
 31
0.0
  0
LINE
  5
761
330
1F
100
AcDbEntity
  8
2
  6
CONTINUOUS
370
25
 62
7
100
AcDbLine
 10
111.907828269945
 20
-2.510858650275061
 30
0.0
 11
112.1382575950825
 21
-2.741287975412568
 31
0.0
  0
LINE
  5
762
330
1F
100
AcDbEntity
  8
2
  6
CONTINUOUS
370
25
 62
7
100
AcDbLine
 10
111.9785389480636
 20
-2.15730525968177
 30
0.0
 11
112.0321915779045
 21
-2.210957889522653
 31
0.0
  0
LINE
  5
763
330
1F
100
AcDbEntity
  8
2
  6
CONTINUOUS
370
25
 62
7
100
AcDbLine
 10
112.0
 20
2.049999999999996
 30
0.0
 11
111.0
 21
7.049999999999995
 31
0.0
  0
LINE
  5
764
330
1F
100
AcDbEntity
  8
2
  6
CONTINUOUS
370
25
 62
7
100
AcDbLine
 10
111.0
 20
7.049999999999995
 30
0.0
 11
113.0
 21
7.049999999999995
 31
0.0
  0
LINE
  5
765
330
1F
100
AcDbEntity
  8
2
  6
CONTINUOUS
370
25
 62
7
100
AcDbLine
 10
113.0
 20
7.049999999999995
 30
0.0
 11
112.0
 21
2.049999999999996
 31
0.0
  0
LINE
  5
766
330
1F
100
AcDbEntity
  8
2
  6
CONTINUOUS
370
25
 62
7
100
AcDbLine
 10
111.9479573589832
 20
2.310213205084111
 30
0.0
 11
112.0780639615252
 21
2.440319807626167
 31
0.0
  0
LINE
  5
767
330
1F
100
AcDbEntity
  8
2
  6
CONTINUOUS
370
25
 62
7
100
AcDbLine
 10
111.8772466808645
 20
2.663766595677401
 30
0.0
 11
112.1841299787032
 21
2.970649893516089
 31
0.0
  0
LINE
  5
768
330
1F
100
AcDbEntity
  8
2
  6
CONTINUOUS
370
25
 62
7
100
AcDbLine
 10
111.8065360027459
 20
3.017319986270657
 30
0.0
 11
112.2901959958812
 21
3.500979979405997
 31
0.0
  0
LINE
  5
769
330
1F
100
AcDbEntity
  8
2
  6
CONTINUOUS
370
25
 62
7
100
AcDbLine
 10
111.7358253246272
 20
3.370873376863933
 30
0.0
 11
112.3962620130592
 21
4.031310065295905
 31
0.0
  0
LINE
  5
76A
330
1F
100
AcDbEntity
  8
2
  6
CONTINUOUS
370
25
 62
7
100
AcDbLine
 10
111.6651146465086
 20
3.724426767457217
 30
0.0
 11
112.5023280302372
 21
4.561640151185806
 31
0.0
  0
LINE
  5
76B
330
1F
100
AcDbEntity
  8
2
  6
CONTINUOUS
370
25
 62
7
100
AcDbLine
 10
111.5944039683899
 20
4.077980158050487
 30
0.0
 11
112.6083940474151
 21
5.091970237075714
 31
0.0
  0
LINE
  5
76C
330
1F
100
AcDbEntity
  8
2
  6
CONTINUOUS
370
25
 62
7
100
AcDbLine
 10
111.5236932902713
 20
4.431533548643756
 30
0.0
 11
112.7144600645931
 21
5.622300322965607
 31
0.0
  0
LINE
  5
76D
330
1F
100
AcDbEntity
  8
2
  6
CONTINUOUS
370
25
 62
7
100
AcDbLine
 10
111.4529826121526
 20
4.78508693923704
 30
0.0
 11
112.8205260817711
 21
6.152630408855522
 31
0.0
  0
LINE
  5
76E
330
1F
100
AcDbEntity
  8
2
  6
CONTINUOUS
370
25
 62
7
100
AcDbLine
 10
111.382271934034
 20
5.138640329830295
 30
0.0
 11
112.9265920989491
 21
6.682960494745409
 31
0.0
  0
LINE
  5
76F
330
1F
100
AcDbEntity
  8
2
  6
CONTINUOUS
370
25
 62
7
100
AcDbLine
 10
111.3115612559153
 20
5.492193720423579
 30
0.0
 11
112.8693675354917
 21
7.049999999999997
 31
0.0
  0
LINE
  5
770
330
1F
100
AcDbEntity
  8
2
  6
CONTINUOUS
370
25
 62
7
100
AcDbLine
 10
111.2408505777966
 20
5.845747111016841
 30
0.0
 11
112.4451034667798
 21
7.049999999999997
 31
0.0
  0
LINE
  5
771
330
1F
100
AcDbEntity
  8
2
  6
CONTINUOUS
370
25
 62
7
100
AcDbLine
 10
111.170139899678
 20
6.199300501610125
 30
0.0
 11
112.0208393980679
 21
7.049999999999997
 31
0.0
  0
LINE
  5
772
330
1F
100
AcDbEntity
  8
2
  6
CONTINUOUS
370
25
 62
7
100
AcDbLine
 10
111.0994292215593
 20
6.55285389220338
 30
0.0
 11
111.5965753293559
 21
7.049999999999997
 31
0.0
  0
LINE
  5
773
330
1F
100
AcDbEntity
  8
2
  6
CONTINUOUS
370
25
 62
7
100
AcDbLine
 10
111.0287185434407
 20
6.90640728279665
 30
0.0
 11
111.172311260644
 21
7.049999999999997
 31
0.0
  0
LINE
  5
774
330
1F
100
AcDbEntity
  8
2
  6
CONTINUOUS
370
25
 62
7
100
AcDbLine
 10
111.9965314061247
 20
2.067342969376455
 30
0.0
 11
112.0023123959169
 21
2.061561979584297
 31
0.0
  0
LINE
  5
775
330
1F
100
AcDbEntity
  8
2
  6
CONTINUOUS
370
25
 62
7
100
AcDbLine
 10
111.8904653889467
 20
2.59767305526637
 30
0.0
 11
112.0730230740355
 21
2.415115370177588
 31
0.0
  0
LINE
  5
776
330
1F
100
AcDbEntity
  8
2
  6
CONTINUOUS
370
25
 62
7
100
AcDbLine
 10
111.7843993717688
 20
3.12800314115627
 30
0.0
 11
112.1437337521542
 21
2.768668760770865
 31
0.0
  0
LINE
  5
777
330
1F
100
AcDbEntity
  8
2
  6
CONTINUOUS
370
25
 62
7
100
AcDbLine
 10
111.6783333545908
 20
3.658333227046185
 30
0.0
 11
112.2144444302728
 21
3.122222151364127
 31
0.0
  0
LINE
  5
778
330
1F
100
AcDbEntity
  8
2
  6
CONTINUOUS
370
25
 62
7
100
AcDbLine
 10
111.5722673374128
 20
4.188663312936114
 30
0.0
 11
112.2851551083915
 21
3.475775541957404
 31
0.0
  0
LINE
  5
779
330
1F
100
AcDbEntity
  8
2
  6
CONTINUOUS
370
25
 62
7
100
AcDbLine
 10
111.4662013202348
 20
4.718993398826015
 30
0.0
 11
112.3558657865101
 21
3.829328932550666
 31
0.0
  0
LINE
  5
77A
330
1F
100
AcDbEntity
  8
2
  6
CONTINUOUS
370
25
 62
7
100
AcDbLine
 10
111.3601353030568
 20
5.24932348471593
 30
0.0
 11
112.4265764646288
 21
4.18288232314395
 31
0.0
  0
LINE
  5
77B
330
1F
100
AcDbEntity
  8
2
  6
CONTINUOUS
370
25
 62
7
100
AcDbLine
 10
111.2540692858788
 20
5.779653570605859
 30
0.0
 11
112.4972871427475
 21
4.53643571373722
 31
0.0
  0
LINE
  5
77C
330
1F
100
AcDbEntity
  8
2
  6
CONTINUOUS
370
25
 62
7
100
AcDbLine
 10
111.1480032687008
 20
6.30998365649576
 30
0.0
 11
112.5679978208661
 21
4.889989104330496
 31
0.0
  0
LINE
  5
77D
330
1F
100
AcDbEntity
  8
2
  6
CONTINUOUS
370
25
 62
7
100
AcDbLine
 10
111.0419372515229
 20
6.840313742385689
 30
0.0
 11
112.6387084989848
 21
5.243542494923773
 31
0.0
  0
LINE
  5
77E
330
1F
100
AcDbEntity
  8
2
  6
CONTINUOUS
370
25
 62
7
100
AcDbLine
 10
111.2565150626205
 20
7.049999999999997
 30
0.0
 11
112.7094191771034
 21
5.597095885517049
 31
0.0
  0
LINE
  5
77F
330
1F
100
AcDbEntity
  8
2
  6
CONTINUOUS
370
25
 62
7
100
AcDbLine
 10
111.6807791313324
 20
7.049999999999997
 30
0.0
 11
112.7801298552221
 21
5.950649276110326
 31
0.0
  0
LINE
  5
780
330
1F
100
AcDbEntity
  8
2
  6
CONTINUOUS
370
25
 62
7
100
AcDbLine
 10
112.1050432000443
 20
7.049999999999997
 30
0.0
 11
112.8508405333407
 21
6.304202666703603
 31
0.0
  0
LINE
  5
781
330
1F
100
AcDbEntity
  8
2
  6
CONTINUOUS
370
25
 62
7
100
AcDbLine
 10
112.5293072687562
 20
7.049999999999997
 30
0.0
 11
112.9215512114594
 21
6.657756057296879
 31
0.0
  0
LINE
  5
782
330
1F
100
AcDbEntity
  8
2
  6
CONTINUOUS
370
25
 62
7
100
AcDbLine
 10
112.9535713374682
 20
7.049999999999997
 30
0.0
 11
112.992261889578
 21
7.011309447890142
 31
0.0
  0
TEXT
  5
783
330
1F
100
AcDbEntity
  8
2
  6
CONTINUOUS
370
25
 62
7
100
AcDbText
 10
110.5
 20
13.62083333333333
 30
0.0
 40
3.5
  1
4.1
 50
90.00000000000001
 72
     1
 11
110.5
 21
16.53749999999999
 31
0.0
100
AcDbText
  0
CIRCLE
  5
784
330
1F
100
AcDbEntity
  8
2
  6
CONTINUOUS
370
25
 62
7
100
AcDbCircle
 10
108.75
 20
10.06249999999999
 30
0.0
 40
1.4
  0
LINE
  5
785
330
1F
100
AcDbEntity
  8
2
  6
CONTINUOUS
370
25
 62
7
100
AcDbLine
 10
110.15
 20
8.662499999999994
 30
0.0
 11
107.35
 21
11.4625
 31
0.0
  0
LINE
  5
786
330
1F
100
AcDbEntity
  8
2
  6
CONTINUOUS
370
25
 62
7
100
AcDbLine
 10
50.0
 20
3.0
 30
0.0
 11
50.0
 21
26.0
 31
0.0
  0
LINE
  5
787
330
1F
100
AcDbEntity
  8
2
  6
CONTINUOUS
370
25
 62
7
100
AcDbLine
 10
80.0
 20
26.0
 30
0.0
 11
80.0
 21
0.0
 31
0.0
  0
LINE
  5
788
330
1F
100
AcDbEntity
  8
2
  6
CONTINUOUS
370
25
 62
7
100
AcDbLine
 10
50.0
 20
25.0
 30
0.0
 11
80.0
 21
25.0
 31
0.0
  0
LINE
  5
789
330
1F
100
AcDbEntity
  8
2
  6
CONTINUOUS
370
25
 62
7
100
AcDbLine
 10
50.0
 20
25.0
 30
0.0
 11
55.0
 21
26.0
 31
0.0
  0
LINE
  5
78A
330
1F
100
AcDbEntity
  8
2
  6
CONTINUOUS
370
25
 62
7
100
AcDbLine
 10
55.0
 20
26.0
 30
0.0
 11
55.0
 21
24.0
 31
0.0
  0
LINE
  5
78B
330
1F
100
AcDbEntity
  8
2
  6
CONTINUOUS
370
25
 62
7
100
AcDbLine
 10
55.0
 20
24.0
 30
0.0
 11
50.0
 21
25.0
 31
0.0
  0
LINE
  5
78C
330
1F
100
AcDbEntity
  8
2
  6
CONTINUOUS
370
25
 62
7
100
AcDbLine
 10
54.92343075663604
 20
24.01531384867279
 30
0.0
 11
55.0
 21
24.09188309203675
 31
0.0
  0
LINE
  5
78D
330
1F
100
AcDbEntity
  8
2
  6
CONTINUOUS
370
25
 62
7
100
AcDbLine
 10
54.56987736604277
 20
24.08602452679144
 30
0.0
 11
55.0
 21
24.51614716074867
 31
0.0
  0
LINE
  5
78E
330
1F
100
AcDbEntity
  8
2
  6
CONTINUOUS
370
25
 62
7
100
AcDbLine
 10
54.2163239754495
 20
24.1567352049101
 30
0.0
 11
55.0
 21
24.9404112294606
 31
0.0
  0
LINE
  5
78F
330
1F
100
AcDbEntity
  8
2
  6
CONTINUOUS
370
25
 62
7
100
AcDbLine
 10
53.86277058485623
 20
24.22744588302875
 30
0.0
 11
55.0
 21
25.36467529817253
 31
0.0
  0
LINE
  5
790
330
1F
100
AcDbEntity
  8
2
  6
CONTINUOUS
370
25
 62
7
100
AcDbLine
 10
53.50921719426295
 20
24.29815656114741
 30
0.0
 11
55.0
 21
25.78893936688446
 31
0.0
  0
LINE
  5
791
330
1F
100
AcDbEntity
  8
2
  6
CONTINUOUS
370
25
 62
7
100
AcDbLine
 10
53.15566380366968
 20
24.36886723926606
 30
0.0
 11
54.73349570550452
 21
25.9466991411009
 31
0.0
  0
LINE
  5
792
330
1F
100
AcDbEntity
  8
2
  6
CONTINUOUS
370
25
 62
7
100
AcDbLine
 10
52.80211041307641
 20
24.43957791738472
 30
0.0
 11
54.20316561961462
 21
25.84063312392292
 31
0.0
  0
LINE
  5
793
330
1F
100
AcDbEntity
  8
2
  6
CONTINUOUS
370
25
 62
7
100
AcDbLine
 10
52.44855702248314
 20
24.51028859550337
 30
0.0
 11
53.6728355337247
 21
25.73456710674494
 31
0.0
  0
LINE
  5
794
330
1F
100
AcDbEntity
  8
2
  6
CONTINUOUS
370
25
 62
7
100
AcDbLine
 10
52.09500363188986
 20
24.58099927362203
 30
0.0
 11
53.14250544783479
 21
25.62850108956696
 31
0.0
  0
LINE
  5
795
330
1F
100
AcDbEntity
  8
2
  6
CONTINUOUS
370
25
 62
7
100
AcDbLine
 10
51.74145024129659
 20
24.65170995174068
 30
0.0
 11
52.61217536194489
 21
25.52243507238898
 31
0.0
  0
LINE
  5
796
330
1F
100
AcDbEntity
  8
2
  6
CONTINUOUS
370
25
 62
7
100
AcDbLine
 10
51.38789685070331
 20
24.72242062985934
 30
0.0
 11
52.08184527605498
 21
25.416369055211
 31
0.0
  0
LINE
  5
797
330
1F
100
AcDbEntity
  8
2
  6
CONTINUOUS
370
25
 62
7
100
AcDbLine
 10
51.03434346011004
 20
24.79313130797799
 30
0.0
 11
51.55151519016506
 21
25.31030303803301
 31
0.0
  0
LINE
  5
798
330
1F
100
AcDbEntity
  8
2
  6
CONTINUOUS
370
25
 62
7
100
AcDbLine
 10
50.68079006951677
 20
24.86384198609665
 30
0.0
 11
51.02118510427515
 21
25.20423702085503
 31
0.0
  0
LINE
  5
799
330
1F
100
AcDbEntity
  8
2
  6
CONTINUOUS
370
25
 62
7
100
AcDbLine
 10
50.3272366789235
 20
24.9345526642153
 30
0.0
 11
50.49085501838525
 21
25.09817100367705
 31
0.0
  0
LINE
  5
79A
330
1F
100
AcDbEntity
  8
2
  6
CONTINUOUS
370
25
 62
7
100
AcDbLine
 10
50.02631671166979
 20
25.00526334233396
 30
0.0
 11
50.03947506750468
 21
24.99210498649906
 31
0.0
  0
LINE
  5
79B
330
1F
100
AcDbEntity
  8
2
  6
CONTINUOUS
370
25
 62
7
100
AcDbLine
 10
50.37987010226306
 20
25.07597402045261
 30
0.0
 11
50.56980515339459
 21
24.88603896932108
 31
0.0
  0
LINE
  5
79C
330
1F
100
AcDbEntity
  8
2
  6
CONTINUOUS
370
25
 62
7
100
AcDbLine
 10
50.73342349285633
 20
25.14668469857127
 30
0.0
 11
51.1001352392845
 21
24.7799729521431
 31
0.0
  0
LINE
  5
79D
330
1F
100
AcDbEntity
  8
2
  6
CONTINUOUS
370
25
 62
7
100
AcDbLine
 10
51.08697688344961
 20
25.21739537668992
 30
0.0
 11
51.63046532517441
 21
24.67390693496512
 31
0.0
  0
LINE
  5
79E
330
1F
100
AcDbEntity
  8
2
  6
CONTINUOUS
370
25
 62
7
100
AcDbLine
 10
51.44053027404288
 20
25.28810605480858
 30
0.0
 11
52.16079541106432
 21
24.56784091778714
 31
0.0
  0
LINE
  5
79F
330
1F
100
AcDbEntity
  8
2
  6
CONTINUOUS
370
25
 62
7
100
AcDbLine
 10
51.79408366463615
 20
25.35881673292723
 30
0.0
 11
52.69112549695423
 21
24.46177490060915
 31
0.0
  0
LINE
  5
7A0
330
1F
100
AcDbEntity
  8
2
  6
CONTINUOUS
370
25
 62
7
100
AcDbLine
 10
52.14763705522942
 20
25.42952741104589
 30
0.0
 11
53.22145558284414
 21
24.35570888343117
 31
0.0
  0
LINE
  5
7A1
330
1F
100
AcDbEntity
  8
2
  6
CONTINUOUS
370
25
 62
7
100
AcDbLine
 10
52.5011904458227
 20
25.50023808916454
 30
0.0
 11
53.75178566873405
 21
24.24964286625319
 31
0.0
  0
LINE
  5
7A2
330
1F
100
AcDbEntity
  8
2
  6
CONTINUOUS
370
25
 62
7
100
AcDbLine
 10
52.85474383641597
 20
25.57094876728319
 30
0.0
 11
54.28211575462396
 21
24.14357684907521
 31
0.0
  0
LINE
  5
7A3
330
1F
100
AcDbEntity
  8
2
  6
CONTINUOUS
370
25
 62
7
100
AcDbLine
 10
53.20829722700925
 20
25.64165944540185
 30
0.0
 11
54.81244584051387
 21
24.03751083189723
 31
0.0
  0
LINE
  5
7A4
330
1F
100
AcDbEntity
  8
2
  6
CONTINUOUS
370
25
 62
7
100
AcDbLine
 10
53.56185061760252
 20
25.7123701235205
 30
0.0
 11
55.0
 21
24.27422074112302
 31
0.0
  0
LINE
  5
7A5
330
1F
100
AcDbEntity
  8
2
  6
CONTINUOUS
370
25
 62
7
100
AcDbLine
 10
53.91540400819579
 20
25.78308080163916
 30
0.0
 11
55.0
 21
24.69848480983495
 31
0.0
  0
LINE
  5
7A6
330
1F
100
AcDbEntity
  8
2
  6
CONTINUOUS
370
25
 62
7
100
AcDbLine
 10
54.26895739878907
 20
25.85379147975781
 30
0.0
 11
55.0
 21
25.12274887854688
 31
0.0
  0
LINE
  5
7A7
330
1F
100
AcDbEntity
  8
2
  6
CONTINUOUS
370
25
 62
7
100
AcDbLine
 10
54.62251078938234
 20
25.92450215787647
 30
0.0
 11
55.0
 21
25.54701294725881
 31
0.0
  0
LINE
  5
7A8
330
1F
100
AcDbEntity
  8
2
  6
CONTINUOUS
370
25
 62
7
100
AcDbLine
 10
54.97606417997561
 20
25.99521283599512
 30
0.0
 11
55.0
 21
25.97127701597073
 31
0.0
  0
LINE
  5
7A9
330
1F
100
AcDbEntity
  8
2
  6
CONTINUOUS
370
25
 62
7
100
AcDbLine
 10
80.0
 20
25.0
 30
0.0
 11
75.0
 21
24.0
 31
0.0
  0
LINE
  5
7AA
330
1F
100
AcDbEntity
  8
2
  6
CONTINUOUS
370
25
 62
7
100
AcDbLine
 10
75.0
 20
24.0
 30
0.0
 11
75.0
 21
26.0
 31
0.0
  0
LINE
  5
7AB
330
1F
100
AcDbEntity
  8
2
  6
CONTINUOUS
370
25
 62
7
100
AcDbLine
 10
75.0
 20
26.0
 30
0.0
 11
80.0
 21
25.0
 31
0.0
  0
LINE
  5
7AC
330
1F
100
AcDbEntity
  8
2
  6
CONTINUOUS
370
25
 62
7
100
AcDbLine
 10
79.86509135806254
 20
24.97301827161251
 30
0.0
 11
79.91006090537503
 21
25.017987818925
 31
0.0
  0
LINE
  5
7AD
330
1F
100
AcDbEntity
  8
2
  6
CONTINUOUS
370
25
 62
7
100
AcDbLine
 10
79.33476127217264
 20
24.86695225443453
 30
0.0
 11
79.55650751478176
 21
25.08869849704365
 31
0.0
  0
LINE
  5
7AE
330
1F
100
AcDbEntity
  8
2
  6
CONTINUOUS
370
25
 62
7
100
AcDbLine
 10
78.80443118628273
 20
24.76088623725654
 30
0.0
 11
79.20295412418848
 21
25.15940917516231
 31
0.0
  0
LINE
  5
7AF
330
1F
100
AcDbEntity
  8
2
  6
CONTINUOUS
370
25
 62
7
100
AcDbLine
 10
78.27410110039281
 20
24.65482022007856
 30
0.0
 11
78.8494007335952
 21
25.23011985328096
 31
0.0
  0
LINE
  5
7B0
330
1F
100
AcDbEntity
  8
2
  6
CONTINUOUS
370
25
 62
7
100
AcDbLine
 10
77.7437710145029
 20
24.54875420290058
 30
0.0
 11
78.49584734300194
 21
25.30083053139961
 31
0.0
  0
LINE
  5
7B1
330
1F
100
AcDbEntity
  8
2
  6
CONTINUOUS
370
25
 62
7
100
AcDbLine
 10
77.21344092861298
 20
24.4426881857226
 30
0.0
 11
78.14229395240866
 21
25.37154120951827
 31
0.0
  0
LINE
  5
7B2
330
1F
100
AcDbEntity
  8
2
  6
CONTINUOUS
370
25
 62
7
100
AcDbLine
 10
76.68311084272308
 20
24.33662216854461
 30
0.0
 11
77.78874056181539
 21
25.44225188763692
 31
0.0
  0
LINE
  5
7B3
330
1F
100
AcDbEntity
  8
2
  6
CONTINUOUS
370
25
 62
7
100
AcDbLine
 10
76.15278075683318
 20
24.23055615136663
 30
0.0
 11
77.43518717122211
 21
25.51296256575558
 31
0.0
  0
LINE
  5
7B4
330
1F
100
AcDbEntity
  8
2
  6
CONTINUOUS
370
25
 62
7
100
AcDbLine
 10
75.62245067094327
 20
24.12449013418865
 30
0.0
 11
77.08163378062883
 21
25.58367324387423
 31
0.0
  0
LINE
  5
7B5
330
1F
100
AcDbEntity
  8
2
  6
CONTINUOUS
370
25
 62
7
100
AcDbLine
 10
75.09212058505335
 20
24.01842411701067
 30
0.0
 11
76.72808039003557
 21
25.65438392199289
 31
0.0
  0
LINE
  5
7B6
330
1F
100
AcDbEntity
  8
2
  6
CONTINUOUS
370
25
 62
7
100
AcDbLine
 10
75.0
 20
24.35056760066924
 30
0.0
 11
76.3745269994423
 21
25.72509460011154
 31
0.0
  0
LINE
  5
7B7
330
1F
100
AcDbEntity
  8
2
  6
CONTINUOUS
370
25
 62
7
100
AcDbLine
 10
75.0
 20
24.77483166938117
 30
0.0
 11
76.02097360884902
 21
25.79580527823019
 31
0.0
  0
LINE
  5
7B8
330
1F
100
AcDbEntity
  8
2
  6
CONTINUOUS
370
25
 62
7
100
AcDbLine
 10
75.0
 20
25.1990957380931
 30
0.0
 11
75.66742021825576
 21
25.86651595634885
 31
0.0
  0
LINE
  5
7B9
330
1F
100
AcDbEntity
  8
2
  6
CONTINUOUS
370
25
 62
7
100
AcDbLine
 10
75.0
 20
25.62335980680503
 30
0.0
 11
75.31386682766248
 21
25.9372266344675
 31
0.0
  0
LINE
  5
7BA
330
1F
100
AcDbEntity
  8
2
  6
CONTINUOUS
370
25
 62
7
100
AcDbLine
 10
75.0
 20
24.2146319705837
 30
0.0
 11
75.17885997548642
 21
24.03577199509729
 31
0.0
  0
LINE
  5
7BB
330
1F
100
AcDbEntity
  8
2
  6
CONTINUOUS
370
25
 62
7
100
AcDbLine
 10
75.0
 20
24.63889603929563
 30
0.0
 11
75.5324133660797
 21
24.10648267321594
 31
0.0
  0
LINE
  5
7BC
330
1F
100
AcDbEntity
  8
2
  6
CONTINUOUS
370
25
 62
7
100
AcDbLine
 10
75.0
 20
25.06316010800755
 30
0.0
 11
75.88596675667296
 21
24.17719335133459
 31
0.0
  0
LINE
  5
7BD
330
1F
100
AcDbEntity
  8
2
  6
CONTINUOUS
370
25
 62
7
100
AcDbLine
 10
75.0
 20
25.48742417671949
 30
0.0
 11
76.23952014726623
 21
24.24790402945325
 31
0.0
  0
LINE
  5
7BE
330
1F
100
AcDbEntity
  8
2
  6
CONTINUOUS
370
25
 62
7
100
AcDbLine
 10
75.0
 20
25.91168824543141
 30
0.0
 11
76.59307353785951
 21
24.3186147075719
 31
0.0
  0
LINE
  5
7BF
330
1F
100
AcDbEntity
  8
2
  6
CONTINUOUS
370
25
 62
7
100
AcDbLine
 10
75.4199403926792
 20
25.91601192146416
 30
0.0
 11
76.94662692845279
 21
24.38932538569056
 31
0.0
  0
LINE
  5
7C0
330
1F
100
AcDbEntity
  8
2
  6
CONTINUOUS
370
25
 62
7
100
AcDbLine
 10
75.95027047856908
 20
25.80994590428618
 30
0.0
 11
77.30018031904606
 21
24.46003606380921
 31
0.0
  0
LINE
  5
7C1
330
1F
100
AcDbEntity
  8
2
  6
CONTINUOUS
370
25
 62
7
100
AcDbLine
 10
76.48060056445901
 20
25.7038798871082
 30
0.0
 11
77.65373370963934
 21
24.53074674192787
 31
0.0
  0
LINE
  5
7C2
330
1F
100
AcDbEntity
  8
2
  6
CONTINUOUS
370
25
 62
7
100
AcDbLine
 10
77.01093065034891
 20
25.59781386993022
 30
0.0
 11
78.0072871002326
 21
24.60145742004652
 31
0.0
  0
LINE
  5
7C3
330
1F
100
AcDbEntity
  8
2
  6
CONTINUOUS
370
25
 62
7
100
AcDbLine
 10
77.54126073623881
 20
25.49174785275224
 30
0.0
 11
78.36084049082588
 21
24.67216809816518
 31
0.0
  0
LINE
  5
7C4
330
1F
100
AcDbEntity
  8
2
  6
CONTINUOUS
370
25
 62
7
100
AcDbLine
 10
78.07159082212874
 20
25.38568183557425
 30
0.0
 11
78.71439388141916
 21
24.74287877628383
 31
0.0
  0
LINE
  5
7C5
330
1F
100
AcDbEntity
  8
2
  6
CONTINUOUS
370
25
 62
7
100
AcDbLine
 10
78.60192090801866
 20
25.27961581839627
 30
0.0
 11
79.06794727201243
 21
24.81358945440249
 31
0.0
  0
LINE
  5
7C6
330
1F
100
AcDbEntity
  8
2
  6
CONTINUOUS
370
25
 62
7
100
AcDbLine
 10
79.13225099390856
 20
25.17354980121829
 30
0.0
 11
79.42150066260571
 21
24.88430013252114
 31
0.0
  0
LINE
  5
7C7
330
1F
100
AcDbEntity
  8
2
  6
CONTINUOUS
370
25
 62
7
100
AcDbLine
 10
79.66258107979847
 20
25.06748378404031
 30
0.0
 11
79.77505405319899
 21
24.95501081063979
 31
0.0
  0
TEXT
  5
7C8
330
1F
100
AcDbEntity
  8
2
  6
CONTINUOUS
370
25
 62
7
100
AcDbText
 10
62.375
 20
26.5
 30
0.0
 40
3.5
  1
30
 72
     1
 11
65.0
 21
26.5
 31
0.0
100
AcDbText
  0
LINE
  5
7C9
330
1F
100
AcDbEntity
  8
2
  6
CONTINUOUS
370
25
 62
7
100
AcDbLine
 10
63.2
 20
-2.05
 30
0.0
 11
63.2
 21
-36.0
 31
0.0
  0
LINE
  5
7CA
330
1F
100
AcDbEntity
  8
2
  6
CONTINUOUS
370
25
 62
7
100
AcDbLine
 10
80.0
 20
-36.0
 30
0.0
 11
80.0
 21
0.0
 31
0.0
  0
LINE
  5
7CB
330
1F
100
AcDbEntity
  8
2
  6
CONTINUOUS
370
25
 62
7
100
AcDbLine
 10
56.2
 20
-35.0
 30
0.0
 11
87.0
 21
-35.0
 31
0.0
  0
LINE
  5
7CC
330
1F
100
AcDbEntity
  8
2
  6
CONTINUOUS
370
25
 62
7
100
AcDbLine
 10
63.2
 20
-35.0
 30
0.0
 11
58.2
 21
-36.0
 31
0.0
  0
LINE
  5
7CD
330
1F
100
AcDbEntity
  8
2
  6
CONTINUOUS
370
25
 62
7
100
AcDbLine
 10
58.2
 20
-36.0
 30
0.0
 11
58.2
 21
-34.0
 31
0.0
  0
LINE
  5
7CE
330
1F
100
AcDbEntity
  8
2
  6
CONTINUOUS
370
25
 62
7
100
AcDbLine
 10
58.2
 20
-34.0
 30
0.0
 11
63.2
 21
-35.0
 31
0.0
  0
LINE
  5
7CF
330
1F
100
AcDbEntity
  8
2
  6
CONTINUOUS
370
25
 62
7
100
AcDbLine
 10
62.97142259729168
 20
-35.04571548054167
 30
0.0
 11
63.04761506486112
 21
-34.96952301297222
 31
0.0
  0
LINE
  5
7D0
330
1F
100
AcDbEntity
  8
2
  6
CONTINUOUS
370
25
 62
7
100
AcDbLine
 10
62.44109251140176
 20
-35.15178149771965
 30
0.0
 11
62.69406167426784
 21
-34.89881233485357
 31
0.0
  0
LINE
  5
7D1
330
1F
100
AcDbEntity
  8
2
  6
CONTINUOUS
370
25
 62
7
100
AcDbLine
 10
61.91076242551185
 20
-35.25784751489763
 30
0.0
 11
62.34050828367457
 21
-34.82810165673492
 31
0.0
  0
LINE
  5
7D2
330
1F
100
AcDbEntity
  8
2
  6
CONTINUOUS
370
25
 62
7
100
AcDbLine
 10
61.38043233962193
 20
-35.36391353207561
 30
0.0
 11
61.98695489308129
 21
-34.75739097861626
 31
0.0
  0
LINE
  5
7D3
330
1F
100
AcDbEntity
  8
2
  6
CONTINUOUS
370
25
 62
7
100
AcDbLine
 10
60.85010225373203
 20
-35.46997954925359
 30
0.0
 11
61.63340150248803
 21
-34.6866803004976
 31
0.0
  0
LINE
  5
7D4
330
1F
100
AcDbEntity
  8
2
  6
CONTINUOUS
370
25
 62
7
100
AcDbLine
 10
60.31977216784212
 20
-35.57604556643157
 30
0.0
 11
61.27984811189474
 21
-34.61596962237895
 31
0.0
  0
LINE
  5
7D5
330
1F
100
AcDbEntity
  8
2
  6
CONTINUOUS
370
25
 62
7
100
AcDbLine
 10
59.7894420819522
 20
-35.68211158360956
 30
0.0
 11
60.92629472130147
 21
-34.5452589442603
 31
0.0
  0
LINE
  5
7D6
330
1F
100
AcDbEntity
  8
2
  6
CONTINUOUS
370
25
 62
7
100
AcDbLine
 10
59.25911199606229
 20
-35.78817760078754
 30
0.0
 11
60.5727413307082
 21
-34.47454826614164
 31
0.0
  0
LINE
  5
7D7
330
1F
100
AcDbEntity
  8
2
  6
CONTINUOUS
370
25
 62
7
100
AcDbLine
 10
58.72878191017237
 20
-35.89424361796553
 30
0.0
 11
60.21918794011492
 21
-34.40383758802298
 31
0.0
  0
LINE
  5
7D8
330
1F
100
AcDbEntity
  8
2
  6
CONTINUOUS
370
25
 62
7
100
AcDbLine
 10
58.2
 20
-35.99876145942596
 30
0.0
 11
59.86563454952164
 21
-34.33312690990433
 31
0.0
  0
LINE
  5
7D9
330
1F
100
AcDbEntity
  8
2
  6
CONTINUOUS
370
25
 62
7
100
AcDbLine
 10
58.2
 20
-35.57449739071404
 30
0.0
 11
59.51208115892837
 21
-34.26241623178568
 31
0.0
  0
LINE
  5
7DA
330
1F
100
AcDbEntity
  8
2
  6
CONTINUOUS
370
25
 62
7
100
AcDbLine
 10
58.2
 20
-35.15023332200211
 30
0.0
 11
59.1585277683351
 21
-34.19170555366702
 31
0.0
  0
LINE
  5
7DB
330
1F
100
AcDbEntity
  8
2
  6
CONTINUOUS
370
25
 62
7
100
AcDbLine
 10
58.2
 20
-34.72596925329019
 30
0.0
 11
58.80497437774182
 21
-34.12099487554836
 31
0.0
  0
LINE
  5
7DC
330
1F
100
AcDbEntity
  8
2
  6
CONTINUOUS
370
25
 62
7
100
AcDbLine
 10
58.2
 20
-34.30170518457825
 30
0.0
 11
58.45142098714854
 21
-34.05028419742971
 31
0.0
  0
LINE
  5
7DD
330
1F
100
AcDbEntity
  8
2
  6
CONTINUOUS
370
25
 62
7
100
AcDbLine
 10
58.2
 20
-35.90313371956558
 30
0.0
 11
58.28072190036201
 21
-35.9838556199276
 31
0.0
  0
LINE
  5
7DE
330
1F
100
AcDbEntity
  8
2
  6
CONTINUOUS
370
25
 62
7
100
AcDbLine
 10
58.2
 20
-35.47886965085365
 30
0.0
 11
58.63427529095529
 21
-35.91314494180894
 31
0.0
  0
LINE
  5
7DF
330
1F
100
AcDbEntity
  8
2
  6
CONTINUOUS
370
25
 62
7
100
AcDbLine
 10
58.2
 20
-35.05460558214173
 30
0.0
 11
58.98782868154856
 21
-35.84243426369029
 31
0.0
  0
LINE
  5
7E0
330
1F
100
AcDbEntity
  8
2
  6
CONTINUOUS
370
25
 62
7
100
AcDbLine
 10
58.2
 20
-34.6303415134298
 30
0.0
 11
59.34138207214184
 21
-35.77172358557164
 31
0.0
  0
LINE
  5
7E1
330
1F
100
AcDbEntity
  8
2
  6
CONTINUOUS
370
25
 62
7
100
AcDbLine
 10
58.2
 20
-34.20607744471787
 30
0.0
 11
59.69493546273511
 21
-35.70101290745298
 31
0.0
  0
LINE
  5
7E2
330
1F
100
AcDbEntity
  8
2
  6
CONTINUOUS
370
25
 62
7
100
AcDbLine
 10
58.47273327999257
 20
-34.05454665599851
 30
0.0
 11
60.04848885332839
 21
-35.63030222933432
 31
0.0
  0
LINE
  5
7E3
330
1F
100
AcDbEntity
  8
2
  6
CONTINUOUS
370
25
 62
7
100
AcDbLine
 10
59.00306336588248
 20
-34.16061267317649
 30
0.0
 11
60.40204224392166
 21
-35.55959155121567
 31
0.0
  0
LINE
  5
7E4
330
1F
100
AcDbEntity
  8
2
  6
CONTINUOUS
370
25
 62
7
100
AcDbLine
 10
59.5333934517724
 20
-34.26667869035448
 30
0.0
 11
60.75559563451493
 21
-35.48888087309702
 31
0.0
  0
LINE
  5
7E5
330
1F
100
AcDbEntity
  8
2
  6
CONTINUOUS
370
25
 62
7
100
AcDbLine
 10
60.06372353766231
 20
-34.37274470753246
 30
0.0
 11
61.10914902510821
 21
-35.41817019497836
 31
0.0
  0
LINE
  5
7E6
330
1F
100
AcDbEntity
  8
2
  6
CONTINUOUS
370
25
 62
7
100
AcDbLine
 10
60.59405362355223
 20
-34.47881072471044
 30
0.0
 11
61.46270241570149
 21
-35.3474595168597
 31
0.0
  0
LINE
  5
7E7
330
1F
100
AcDbEntity
  8
2
  6
CONTINUOUS
370
25
 62
7
100
AcDbLine
 10
61.12438370944214
 20
-34.58487674188843
 30
0.0
 11
61.81625580629476
 21
-35.27674883874105
 31
0.0
  0
LINE
  5
7E8
330
1F
100
AcDbEntity
  8
2
  6
CONTINUOUS
370
25
 62
7
100
AcDbLine
 10
61.65471379533205
 20
-34.69094275906641
 30
0.0
 11
62.16980919688804
 21
-35.20603816062239
 31
0.0
  0
LINE
  5
7E9
330
1F
100
AcDbEntity
  8
2
  6
CONTINUOUS
370
25
 62
7
100
AcDbLine
 10
62.18504388122197
 20
-34.7970087762444
 30
0.0
 11
62.52336258748132
 21
-35.13532748250374
 31
0.0
  0
LINE
  5
7EA
330
1F
100
AcDbEntity
  8
2
  6
CONTINUOUS
370
25
 62
7
100
AcDbLine
 10
62.71537396711188
 20
-34.90307479342238
 30
0.0
 11
62.87691597807459
 21
-35.06461680438508
 31
0.0
  0
LINE
  5
7EB
330
1F
100
AcDbEntity
  8
2
  6
CONTINUOUS
370
25
 62
7
100
AcDbLine
 10
80.0
 20
-35.0
 30
0.0
 11
85.0
 21
-34.0
 31
0.0
  0
LINE
  5
7EC
330
1F
100
AcDbEntity
  8
2
  6
CONTINUOUS
370
25
 62
7
100
AcDbLine
 10
85.0
 20
-34.0
 30
0.0
 11
85.0
 21
-36.0
 31
0.0
  0
LINE
  5
7ED
330
1F
100
AcDbEntity
  8
2
  6
CONTINUOUS
370
25
 62
7
100
AcDbLine
 10
85.0
 20
-36.0
 30
0.0
 11
80.0
 21
-35.0
 31
0.0
  0
LINE
  5
7EE
330
1F
100
AcDbEntity
  8
2
  6
CONTINUOUS
370
25
 62
7
100
AcDbLine
 10
84.85683225912402
 20
-35.9713664518248
 30
0.0
 11
85.0
 21
-35.82819871094881
 31
0.0
  0
LINE
  5
7EF
330
1F
100
AcDbEntity
  8
2
  6
CONTINUOUS
370
25
 62
7
100
AcDbLine
 10
84.50327886853074
 20
-35.90065577370614
 30
0.0
 11
85.0
 21
-35.40393464223689
 31
0.0
  0
LINE
  5
7F0
330
1F
100
AcDbEntity
  8
2
  6
CONTINUOUS
370
25
 62
7
100
AcDbLine
 10
84.14972547793747
 20
-35.8299450955875
 30
0.0
 11
85.0
 21
-34.97967057352496
 31
0.0
  0
LINE
  5
7F1
330
1F
100
AcDbEntity
  8
2
  6
CONTINUOUS
370
25
 62
7
100
AcDbLine
 10
83.79617208734419
 20
-35.75923441746884
 30
0.0
 11
85.0
 21
-34.55540650481302
 31
0.0
  0
LINE
  5
7F2
330
1F
100
AcDbEntity
  8
2
  6
CONTINUOUS
370
25
 62
7
100
AcDbLine
 10
83.44261869675091
 20
-35.68852373935018
 30
0.0
 11
85.0
 21
-34.13114243610109
 31
0.0
  0
LINE
  5
7F3
330
1F
100
AcDbEntity
  8
2
  6
CONTINUOUS
370
25
 62
7
100
AcDbLine
 10
83.08906530615764
 20
-35.61781306123153
 30
0.0
 11
84.63359795923644
 21
-34.07328040815271
 31
0.0
  0
LINE
  5
7F4
330
1F
100
AcDbEntity
  8
2
  6
CONTINUOUS
370
25
 62
7
100
AcDbLine
 10
82.73551191556436
 20
-35.54710238311287
 30
0.0
 11
84.10326787334654
 21
-34.1793464253307
 31
0.0
  0
LINE
  5
7F5
330
1F
100
AcDbEntity
  8
2
  6
CONTINUOUS
370
25
 62
7
100
AcDbLine
 10
82.38195852497108
 20
-35.47639170499421
 30
0.0
 11
83.57293778745662
 21
-34.28541244250868
 31
0.0
  0
LINE
  5
7F6
330
1F
100
AcDbEntity
  8
2
  6
CONTINUOUS
370
25
 62
7
100
AcDbLine
 10
82.0284051343778
 20
-35.40568102687556
 30
0.0
 11
83.04260770156671
 21
-34.39147845968666
 31
0.0
  0
LINE
  5
7F7
330
1F
100
AcDbEntity
  8
2
  6
CONTINUOUS
370
25
 62
7
100
AcDbLine
 10
81.67485174378453
 20
-35.3349703487569
 30
0.0
 11
82.5122776156768
 21
-34.49754447686465
 31
0.0
  0
LINE
  5
7F8
330
1F
100
AcDbEntity
  8
2
  6
CONTINUOUS
370
25
 62
7
100
AcDbLine
 10
81.32129835319125
 20
-35.26425967063825
 30
0.0
 11
81.98194752978688
 21
-34.60361049404263
 31
0.0
  0
LINE
  5
7F9
330
1F
100
AcDbEntity
  8
2
  6
CONTINUOUS
370
25
 62
7
100
AcDbLine
 10
80.96774496259798
 20
-35.1935489925196
 30
0.0
 11
81.45161744389696
 21
-34.70967651122061
 31
0.0
  0
LINE
  5
7FA
330
1F
100
AcDbEntity
  8
2
  6
CONTINUOUS
370
25
 62
7
100
AcDbLine
 10
80.6141915720047
 20
-35.12283831440094
 30
0.0
 11
80.92128735800705
 21
-34.81574252839859
 31
0.0
  0
LINE
  5
7FB
330
1F
100
AcDbEntity
  8
2
  6
CONTINUOUS
370
25
 62
7
100
AcDbLine
 10
80.26063818141142
 20
-35.05212763628229
 30
0.0
 11
80.39095727211713
 21
-34.92180854557657
 31
0.0
  0
LINE
  5
7FC
330
1F
100
AcDbEntity
  8
2
  6
CONTINUOUS
370
25
 62
7
100
AcDbLine
 10
80.08993909462485
 20
-34.98201218107504
 30
0.0
 11
80.13490864193727
 21
-35.02698172838745
 31
0.0
  0
LINE
  5
7FD
330
1F
100
AcDbEntity
  8
2
  6
CONTINUOUS
370
25
 62
7
100
AcDbLine
 10
80.44349248521812
 20
-34.91130150295638
 30
0.0
 11
80.66523872782719
 21
-35.13304774556543
 31
0.0
  0
LINE
  5
7FE
330
1F
100
AcDbEntity
  8
2
  6
CONTINUOUS
370
25
 62
7
100
AcDbLine
 10
80.7970458758114
 20
-34.84059082483773
 30
0.0
 11
81.1955688137171
 21
-35.23911376274341
 31
0.0
  0
LINE
  5
7FF
330
1F
100
AcDbEntity
  8
2
  6
CONTINUOUS
370
25
 62
7
100
AcDbLine
 10
81.15059926640467
 20
-34.76988014671907
 30
0.0
 11
81.72589889960702
 21
-35.34517977992141
 31
0.0
  0
LINE
  5
800
330
1F
100
AcDbEntity
  8
2
  6
CONTINUOUS
370
25
 62
7
100
AcDbLine
 10
81.50415265699795
 20
-34.69916946860041
 30
0.0
 11
82.25622898549693
 21
-35.45124579709939
 31
0.0
  0
LINE
  5
801
330
1F
100
AcDbEntity
  8
2
  6
CONTINUOUS
370
25
 62
7
100
AcDbLine
 10
81.85770604759122
 20
-34.62845879048175
 30
0.0
 11
82.78655907138685
 21
-35.55731181427738
 31
0.0
  0
LINE
  5
802
330
1F
100
AcDbEntity
  8
2
  6
CONTINUOUS
370
25
 62
7
100
AcDbLine
 10
82.2112594381845
 20
-34.5577481123631
 30
0.0
 11
83.31688915727676
 21
-35.66337783145535
 31
0.0
  0
LINE
  5
803
330
1F
100
AcDbEntity
  8
2
  6
CONTINUOUS
370
25
 62
7
100
AcDbLine
 10
82.56481282877778
 20
-34.48703743424444
 30
0.0
 11
83.84721924316668
 21
-35.76944384863334
 31
0.0
  0
LINE
  5
804
330
1F
100
AcDbEntity
  8
2
  6
CONTINUOUS
370
25
 62
7
100
AcDbLine
 10
82.91836621937105
 20
-34.41632675612579
 30
0.0
 11
84.3775493290566
 21
-35.87550986581132
 31
0.0
  0
LINE
  5
805
330
1F
100
AcDbEntity
  8
2
  6
CONTINUOUS
370
25
 62
7
100
AcDbLine
 10
83.27191960996433
 20
-34.34561607800713
 30
0.0
 11
84.90787941494654
 21
-35.9815758829893
 31
0.0
  0
LINE
  5
806
330
1F
100
AcDbEntity
  8
2
  6
CONTINUOUS
370
25
 62
7
100
AcDbLine
 10
83.6254730005576
 20
-34.27490539988847
 30
0.0
 11
85.0
 21
-35.64943239933085
 31
0.0
  0
LINE
  5
807
330
1F
100
AcDbEntity
  8
2
  6
CONTINUOUS
370
25
 62
7
100
AcDbLine
 10
83.97902639115088
 20
-34.20419472176982
 30
0.0
 11
85.0
 21
-35.22516833061892
 31
0.0
  0
LINE
  5
808
330
1F
100
AcDbEntity
  8
2
  6
CONTINUOUS
370
25
 62
7
100
AcDbLine
 10
84.33257978174416
 20
-34.13348404365117
 30
0.0
 11
85.0
 21
-34.80090426190699
 31
0.0
  0
LINE
  5
809
330
1F
100
AcDbEntity
  8
2
  6
CONTINUOUS
370
25
 62
7
100
AcDbLine
 10
84.68613317233745
 20
-34.06277336553252
 30
0.0
 11
85.0
 21
-34.37664019319506
 31
0.0
  0
TEXT
  5
80A
330
1F
100
AcDbEntity
  8
2
  6
CONTINUOUS
370
25
 62
7
100
AcDbText
 10
66.93333333333332
 20
-33.5
 30
0.0
 40
3.5
  1
16.8
 72
     1
 11
71.6
 21
-33.5
 31
0.0
100
AcDbText
  0
LINE
  5
80B
330
1F
100
AcDbEntity
  8
SK2
  6
CONTINUOUS
370
25
 62
7
100
AcDbLine
 10
0.0
 20
6.0
 30
0.0
 11
0.0
 21
36.0
 31
0.0
  0
LINE
  5
80C
330
1F
100
AcDbEntity
  8
SK2
  6
CONTINUOUS
370
25
 62
7
100
AcDbLine
 10
80.0
 20
36.0
 30
0.0
 11
80.0
 21
0.0
 31
0.0
  0
LINE
  5
80D
330
1F
100
AcDbEntity
  8
SK2
  6
CONTINUOUS
370
25
 62
7
100
AcDbLine
 10
0.0
 20
35.0
 30
0.0
 11
80.0
 21
35.0
 31
0.0
  0
LINE
  5
80E
330
1F
100
AcDbEntity
  8
SK2
  6
CONTINUOUS
370
25
 62
7
100
AcDbLine
 10
0.0
 20
35.0
 30
0.0
 11
5.0
 21
36.0
 31
0.0
  0
LINE
  5
80F
330
1F
100
AcDbEntity
  8
SK2
  6
CONTINUOUS
370
25
 62
7
100
AcDbLine
 10
5.0
 20
36.0
 30
0.0
 11
5.0
 21
34.0
 31
0.0
  0
LINE
  5
810
330
1F
100
AcDbEntity
  8
SK2
  6
CONTINUOUS
370
25
 62
7
100
AcDbLine
 10
5.0
 20
34.0
 30
0.0
 11
0.0
 21
35.0
 31
0.0
  0
LINE
  5
811
330
1F
100
AcDbEntity
  8
SK2
  6
CONTINUOUS
370
25
 62
7
100
AcDbLine
 10
4.718849292391127
 20
34.05623014152177
 30
0.0
 11
5.0
 21
34.33738084913065
 31
0.0
  0
LINE
  5
812
330
1F
100
AcDbEntity
  8
SK2
  6
CONTINUOUS
370
25
 62
7
100
AcDbLine
 10
4.365295901797843
 20
34.12694081964043
 30
0.0
 11
5.0
 21
34.76164491784259
 31
0.0
  0
LINE
  5
813
330
1F
100
AcDbEntity
  8
SK2
  6
CONTINUOUS
370
25
 62
7
100
AcDbLine
 10
4.011742511204567
 20
34.19765149775908
 30
0.0
 11
5.0
 21
35.18590898655452
 31
0.0
  0
LINE
  5
814
330
1F
100
AcDbEntity
  8
SK2
  6
CONTINUOUS
370
25
 62
7
100
AcDbLine
 10
3.658189120611283
 20
34.26836217587774
 30
0.0
 11
5.0
 21
35.61017305526646
 31
0.0
  0
LINE
  5
815
330
1F
100
AcDbEntity
  8
SK2
  6
CONTINUOUS
370
25
 62
7
100
AcDbLine
 10
3.304635730018013
 20
34.33907285399639
 30
0.0
 11
4.956953595027016
 21
35.9913907190054
 31
0.0
  0
LINE
  5
816
330
1F
100
AcDbEntity
  8
SK2
  6
CONTINUOUS
370
25
 62
7
100
AcDbLine
 10
2.951082339424744
 20
34.40978353211505
 30
0.0
 11
4.426623509137109
 21
35.88532470182742
 31
0.0
  0
LINE
  5
817
330
1F
100
AcDbEntity
  8
SK2
  6
CONTINUOUS
370
25
 62
7
100
AcDbLine
 10
2.59752894883146
 20
34.48049421023371
 30
0.0
 11
3.896293423247187
 21
35.77925868464944
 31
0.0
  0
LINE
  5
818
330
1F
100
AcDbEntity
  8
SK2
  6
CONTINUOUS
370
25
 62
7
100
AcDbLine
 10
2.243975558238191
 20
34.55120488835237
 30
0.0
 11
3.365963337357279
 21
35.67319266747145
 31
0.0
  0
LINE
  5
819
330
1F
100
AcDbEntity
  8
SK2
  6
CONTINUOUS
370
25
 62
7
100
AcDbLine
 10
1.890422167644907
 20
34.62191556647102
 30
0.0
 11
2.835633251467357
 21
35.56712665029347
 31
0.0
  0
LINE
  5
81A
330
1F
100
AcDbEntity
  8
SK2
  6
CONTINUOUS
370
25
 62
7
100
AcDbLine
 10
1.53686877705163
 20
34.69262624458967
 30
0.0
 11
2.305303165577449
 21
35.46106063311549
 31
0.0
  0
LINE
  5
81B
330
1F
100
AcDbEntity
  8
SK2
  6
CONTINUOUS
370
25
 62
7
100
AcDbLine
 10
1.183315386458347
 20
34.76333692270833
 30
0.0
 11
1.774973079687527
 21
35.35499461593751
 31
0.0
  0
LINE
  5
81C
330
1F
100
AcDbEntity
  8
SK2
  6
CONTINUOUS
370
25
 62
7
100
AcDbLine
 10
0.8297619958650699
 20
34.83404760082698
 30
0.0
 11
1.244642993797605
 21
35.24892859875952
 31
0.0
  0
LINE
  5
81D
330
1F
100
AcDbEntity
  8
SK2
  6
CONTINUOUS
370
25
 62
7
100
AcDbLine
 10
0.4762086052718004
 20
34.90475827894564
 30
0.0
 11
0.7143129079076971
 21
35.14286258158154
 31
0.0
  0
LINE
  5
81E
330
1F
100
AcDbEntity
  8
SK2
  6
CONTINUOUS
370
25
 62
7
100
AcDbLine
 10
0.1226552146785238
 20
34.97546895706429
 30
0.0
 11
0.1839828220177964
 21
35.03679656440356
 31
0.0
  0
LINE
  5
81F
330
1F
100
AcDbEntity
  8
SK2
  6
CONTINUOUS
370
25
 62
7
100
AcDbLine
 10
0.2418871355302272
 20
35.04837742710605
 30
0.0
 11
0.3628307032953444
 21
34.92743385934093
 31
0.0
  0
LINE
  5
820
330
1F
100
AcDbEntity
  8
SK2
  6
CONTINUOUS
370
25
 62
7
100
AcDbLine
 10
0.5954405261235038
 20
35.11908810522471
 30
0.0
 11
0.8931607891852593
 21
34.82136784216295
 31
0.0
  0
LINE
  5
821
330
1F
100
AcDbEntity
  8
SK2
  6
CONTINUOUS
370
25
 62
7
100
AcDbLine
 10
0.9489939167167805
 20
35.18979878334336
 30
0.0
 11
1.423490875075167
 21
34.71530182498497
 31
0.0
  0
LINE
  5
822
330
1F
100
AcDbEntity
  8
SK2
  6
CONTINUOUS
370
25
 62
7
100
AcDbLine
 10
1.302547307310057
 20
35.26050946146201
 30
0.0
 11
1.953820960965089
 21
34.60923580780698
 31
0.0
  0
LINE
  5
823
330
1F
100
AcDbEntity
  8
SK2
  6
CONTINUOUS
370
25
 62
7
100
AcDbLine
 10
1.656100697903341
 20
35.33122013958067
 30
0.0
 11
2.484151046855011
 21
34.50316979062899
 31
0.0
  0
LINE
  5
824
330
1F
100
AcDbEntity
  8
SK2
  6
CONTINUOUS
370
25
 62
7
100
AcDbLine
 10
2.00965408849661
 20
35.40193081769932
 30
0.0
 11
3.014481132744919
 21
34.39710377345101
 31
0.0
  0
LINE
  5
825
330
1F
100
AcDbEntity
  8
SK2
  6
CONTINUOUS
370
25
 62
7
100
AcDbLine
 10
2.363207479089887
 20
35.47264149581798
 30
0.0
 11
3.544811218634834
 21
34.29103775627303
 31
0.0
  0
LINE
  5
826
330
1F
100
AcDbEntity
  8
SK2
  6
CONTINUOUS
370
25
 62
7
100
AcDbLine
 10
2.716760869683164
 20
35.54335217393664
 30
0.0
 11
4.075141304524749
 21
34.18497173909505
 31
0.0
  0
LINE
  5
827
330
1F
100
AcDbEntity
  8
SK2
  6
CONTINUOUS
370
25
 62
7
100
AcDbLine
 10
3.070314260276447
 20
35.61406285205529
 30
0.0
 11
4.605471390414664
 21
34.07890572191707
 31
0.0
  0
LINE
  5
828
330
1F
100
AcDbEntity
  8
SK2
  6
CONTINUOUS
370
25
 62
7
100
AcDbLine
 10
3.423867650869724
 20
35.68477353017395
 30
0.0
 11
5.0
 21
34.10864118104367
 31
0.0
  0
LINE
  5
829
330
1F
100
AcDbEntity
  8
SK2
  6
CONTINUOUS
370
25
 62
7
100
AcDbLine
 10
3.777421041462993
 20
35.7554842082926
 30
0.0
 11
5.0
 21
34.53290524975559
 31
0.0
  0
LINE
  5
82A
330
1F
100
AcDbEntity
  8
SK2
  6
CONTINUOUS
370
25
 62
7
100
AcDbLine
 10
4.13097443205627
 20
35.82619488641126
 30
0.0
 11
5.0
 21
34.95716931846752
 31
0.0
  0
LINE
  5
82B
330
1F
100
AcDbEntity
  8
SK2
  6
CONTINUOUS
370
25
 62
7
100
AcDbLine
 10
4.484527822649554
 20
35.89690556452991
 30
0.0
 11
5.0
 21
35.38143338717946
 31
0.0
  0
LINE
  5
82C
330
1F
100
AcDbEntity
  8
SK2
  6
CONTINUOUS
370
25
 62
7
100
AcDbLine
 10
4.83808121324283
 20
35.96761624264857
 30
0.0
 11
5.0
 21
35.8056974558914
 31
0.0
  0
LINE
  5
82D
330
1F
100
AcDbEntity
  8
SK2
  6
CONTINUOUS
370
25
 62
7
100
AcDbLine
 10
80.0
 20
35.0
 30
0.0
 11
75.0
 21
34.0
 31
0.0
  0
LINE
  5
82E
330
1F
100
AcDbEntity
  8
SK2
  6
CONTINUOUS
370
25
 62
7
100
AcDbLine
 10
75.0
 20
34.0
 30
0.0
 11
75.0
 21
36.0
 31
0.0
  0
LINE
  5
82F
330
1F
100
AcDbEntity
  8
SK2
  6
CONTINUOUS
370
25
 62
7
100
AcDbLine
 10
75.0
 20
36.0
 30
0.0
 11
80.0
 21
35.0
 31
0.0
  0
LINE
  5
830
330
1F
100
AcDbEntity
  8
SK2
  6
CONTINUOUS
370
25
 62
7
100
AcDbLine
 10
79.88603896932105
 20
34.97720779386421
 30
0.0
 11
79.92402597954737
 21
35.01519480409053
 31
0.0
  0
LINE
  5
831
330
1F
100
AcDbEntity
  8
SK2
  6
CONTINUOUS
370
25
 62
7
100
AcDbLine
 10
79.35570888343113
 20
34.87114177668623
 30
0.0
 11
79.57047258895409
 21
35.08590548220918
 31
0.0
  0
LINE
  5
832
330
1F
100
AcDbEntity
  8
SK2
  6
CONTINUOUS
370
25
 62
7
100
AcDbLine
 10
78.82537879754122
 20
34.76507575950824
 30
0.0
 11
79.21691919836081
 21
35.15661616032783
 31
0.0
  0
LINE
  5
833
330
1F
100
AcDbEntity
  8
SK2
  6
CONTINUOUS
370
25
 62
7
100
AcDbLine
 10
78.2950487116513
 20
34.65900974233026
 30
0.0
 11
78.86336580776754
 21
35.22732683844649
 31
0.0
  0
LINE
  5
834
330
1F
100
AcDbEntity
  8
SK2
  6
CONTINUOUS
370
25
 62
7
100
AcDbLine
 10
77.7647186257614
 20
34.55294372515228
 30
0.0
 11
78.50981241717426
 21
35.29803751656515
 31
0.0
  0
LINE
  5
835
330
1F
100
AcDbEntity
  8
SK2
  6
CONTINUOUS
370
25
 62
7
100
AcDbLine
 10
77.23438853987149
 20
34.44687770797429
 30
0.0
 11
78.15625902658098
 21
35.3687481946838
 31
0.0
  0
LINE
  5
836
330
1F
100
AcDbEntity
  8
SK2
  6
CONTINUOUS
370
25
 62
7
100
AcDbLine
 10
76.70405845398157
 20
34.34081169079631
 30
0.0
 11
77.8027056359877
 21
35.43945887280246
 31
0.0
  0
LINE
  5
837
330
1F
100
AcDbEntity
  8
SK2
  6
CONTINUOUS
370
25
 62
7
100
AcDbLine
 10
76.17372836809167
 20
34.23474567361833
 30
0.0
 11
77.44915224539443
 21
35.51016955092111
 31
0.0
  0
LINE
  5
838
330
1F
100
AcDbEntity
  8
SK2
  6
CONTINUOUS
370
25
 62
7
100
AcDbLine
 10
75.64339828220176
 20
34.12867965644035
 30
0.0
 11
77.09559885480117
 21
35.58088022903977
 31
0.0
  0
LINE
  5
839
330
1F
100
AcDbEntity
  8
SK2
  6
CONTINUOUS
370
25
 62
7
100
AcDbLine
 10
75.11306819631186
 20
34.02261363926237
 30
0.0
 11
76.74204546420789
 21
35.65159090715842
 31
0.0
  0
LINE
  5
83A
330
1F
100
AcDbEntity
  8
SK2
  6
CONTINUOUS
370
25
 62
7
100
AcDbLine
 10
75.0
 20
34.33380951166244
 30
0.0
 11
76.38849207361463
 21
35.72230158527708
 31
0.0
  0
LINE
  5
83B
330
1F
100
AcDbEntity
  8
SK2
  6
CONTINUOUS
370
25
 62
7
100
AcDbLine
 10
75.0
 20
34.75807358037437
 30
0.0
 11
76.03493868302135
 21
35.79301226339573
 31
0.0
  0
LINE
  5
83C
330
1F
100
AcDbEntity
  8
SK2
  6
CONTINUOUS
370
25
 62
7
100
AcDbLine
 10
75.0
 20
35.18233764908631
 30
0.0
 11
75.68138529242808
 21
35.86372294151438
 31
0.0
  0
LINE
  5
83D
330
1F
100
AcDbEntity
  8
SK2
  6
CONTINUOUS
370
25
 62
7
100
AcDbLine
 10
75.0
 20
35.60660171779824
 30
0.0
 11
75.3278319018348
 21
35.93443361963304
 31
0.0
  0
LINE
  5
83E
330
1F
100
AcDbEntity
  8
SK2
  6
CONTINUOUS
370
25
 62
7
100
AcDbLine
 10
75.0
 20
34.39696961966998
 30
0.0
 11
75.33080801639166
 21
34.06616160327833
 31
0.0
  0
LINE
  5
83F
330
1F
100
AcDbEntity
  8
SK2
  6
CONTINUOUS
370
25
 62
7
100
AcDbLine
 10
75.0
 20
34.82123368838191
 30
0.0
 11
75.68436140698492
 21
34.13687228139699
 31
0.0
  0
LINE
  5
840
330
1F
100
AcDbEntity
  8
SK2
  6
CONTINUOUS
370
25
 62
7
100
AcDbLine
 10
75.0
 20
35.24549775709384
 30
0.0
 11
76.0379147975782
 21
34.20758295951563
 31
0.0
  0
LINE
  5
841
330
1F
100
AcDbEntity
  8
SK2
  6
CONTINUOUS
370
25
 62
7
100
AcDbLine
 10
75.0
 20
35.66976182580577
 30
0.0
 11
76.39146818817147
 21
34.27829363763429
 31
0.0
  0
LINE
  5
842
330
1F
100
AcDbEntity
  8
SK2
  6
CONTINUOUS
370
25
 62
7
100
AcDbLine
 10
75.11753236814712
 20
35.97649352637058
 30
0.0
 11
76.74502157876475
 21
34.34900431575295
 31
0.0
  0
LINE
  5
843
330
1F
100
AcDbEntity
  8
SK2
  6
CONTINUOUS
370
25
 62
7
100
AcDbLine
 10
75.64786245403704
 20
35.8704275091926
 30
0.0
 11
77.09857496935803
 21
34.41971499387161
 31
0.0
  0
LINE
  5
844
330
1F
100
AcDbEntity
  8
SK2
  6
CONTINUOUS
370
25
 62
7
100
AcDbLine
 10
76.17819253992695
 20
35.76436149201461
 30
0.0
 11
77.4521283599513
 21
34.49042567199026
 31
0.0
  0
LINE
  5
845
330
1F
100
AcDbEntity
  8
SK2
  6
CONTINUOUS
370
25
 62
7
100
AcDbLine
 10
76.70852262581685
 20
35.65829547483663
 30
0.0
 11
77.80568175054458
 21
34.56113635010891
 31
0.0
  0
LINE
  5
846
330
1F
100
AcDbEntity
  8
SK2
  6
CONTINUOUS
370
25
 62
7
100
AcDbLine
 10
77.23885271170677
 20
35.55222945765865
 30
0.0
 11
78.15923514113786
 21
34.63184702822757
 31
0.0
  0
LINE
  5
847
330
1F
100
AcDbEntity
  8
SK2
  6
CONTINUOUS
370
25
 62
7
100
AcDbLine
 10
77.7691827975967
 20
35.44616344048066
 30
0.0
 11
78.51278853173113
 21
34.70255770634623
 31
0.0
  0
LINE
  5
848
330
1F
100
AcDbEntity
  8
SK2
  6
CONTINUOUS
370
25
 62
7
100
AcDbLine
 10
78.29951288348661
 20
35.34009742330268
 30
0.0
 11
78.86634192232441
 21
34.77326838446488
 31
0.0
  0
LINE
  5
849
330
1F
100
AcDbEntity
  8
SK2
  6
CONTINUOUS
370
25
 62
7
100
AcDbLine
 10
78.82984296937653
 20
35.2340314061247
 30
0.0
 11
79.21989531291769
 21
34.84397906258354
 31
0.0
  0
LINE
  5
84A
330
1F
100
AcDbEntity
  8
SK2
  6
CONTINUOUS
370
25
 62
7
100
AcDbLine
 10
79.36017305526643
 20
35.12796538894672
 30
0.0
 11
79.57344870351095
 21
34.91468974070219
 31
0.0
  0
LINE
  5
84B
330
1F
100
AcDbEntity
  8
SK2
  6
CONTINUOUS
370
25
 62
7
100
AcDbLine
 10
79.89050314115634
 20
35.02189937176873
 30
0.0
 11
79.92700209410422
 21
34.98540041882084
 31
0.0
  0
TEXT
  5
84C
330
1F
100
AcDbEntity
  8
SK2
  6
CONTINUOUS
370
25
 62
7
100
AcDbText
 10
37.375
 20
36.5
 30
0.0
 40
3.5
  1
80
 72
     1
 11
40.0
 21
36.5
 31
0.0
100
AcDbText
  0
LINE
  5
84D
330
1F
100
AcDbEntity
  8
2
  6
CONTINUOUS
370
25
 62
7
100
AcDbLine
 10
54.0
 20
-2.05
 30
0.0
 11
54.0
 21
-46.0
 31
0.0
  0
LINE
  5
84E
330
1F
100
AcDbEntity
  8
2
  6
CONTINUOUS
370
25
 62
7
100
AcDbLine
 10
80.0
 20
-46.0
 30
0.0
 11
80.0
 21
0.0
 31
0.0
  0
LINE
  5
84F
330
1F
100
AcDbEntity
  8
2
  6
CONTINUOUS
370
25
 62
7
100
AcDbLine
 10
54.0
 20
-45.0
 30
0.0
 11
80.0
 21
-45.0
 31
0.0
  0
LINE
  5
850
330
1F
100
AcDbEntity
  8
2
  6
CONTINUOUS
370
25
 62
7
100
AcDbLine
 10
54.0
 20
-45.0
 30
0.0
 11
59.0
 21
-44.0
 31
0.0
  0
LINE
  5
851
330
1F
100
AcDbEntity
  8
2
  6
CONTINUOUS
370
25
 62
7
100
AcDbLine
 10
59.0
 20
-44.0
 30
0.0
 11
59.0
 21
-46.0
 31
0.0
  0
LINE
  5
852
330
1F
100
AcDbEntity
  8
2
  6
CONTINUOUS
370
25
 62
7
100
AcDbLine
 10
59.0
 20
-46.0
 30
0.0
 11
54.0
 21
-45.0
 31
0.0
  0
LINE
  5
853
330
1F
100
AcDbEntity
  8
2
  6
CONTINUOUS
370
25
 62
7
100
AcDbLine
 10
58.95852776833512
 20
-45.99170555366702
 30
0.0
 11
59.0
 21
-45.95023332200215
 31
0.0
  0
LINE
  5
854
330
1F
100
AcDbEntity
  8
2
  6
CONTINUOUS
370
25
 62
7
100
AcDbLine
 10
58.60497437774184
 20
-45.92099487554837
 30
0.0
 11
59.0
 21
-45.52596925329021
 31
0.0
  0
LINE
  5
855
330
1F
100
AcDbEntity
  8
2
  6
CONTINUOUS
370
25
 62
7
100
AcDbLine
 10
58.25142098714856
 20
-45.85028419742972
 30
0.0
 11
59.0
 21
-45.10170518457829
 31
0.0
  0
LINE
  5
856
330
1F
100
AcDbEntity
  8
2
  6
CONTINUOUS
370
25
 62
7
100
AcDbLine
 10
57.89786759655529
 20
-45.77957351931106
 30
0.0
 11
59.0
 21
-44.67744111586635
 31
0.0
  0
LINE
  5
857
330
1F
100
AcDbEntity
  8
2
  6
CONTINUOUS
370
25
 62
7
100
AcDbLine
 10
57.54431420596201
 20
-45.70886284119241
 30
0.0
 11
59.0
 21
-44.25317704715442
 31
0.0
  0
LINE
  5
858
330
1F
100
AcDbEntity
  8
2
  6
CONTINUOUS
370
25
 62
7
100
AcDbLine
 10
57.19076081536873
 20
-45.63815216307375
 30
0.0
 11
58.78614122305311
 21
-44.04277175538937
 31
0.0
  0
LINE
  5
859
330
1F
100
AcDbEntity
  8
2
  6
CONTINUOUS
370
25
 62
7
100
AcDbLine
 10
56.83720742477546
 20
-45.5674414849551
 30
0.0
 11
58.2558111371632
 21
-44.14883777256736
 31
0.0
  0
LINE
  5
85A
330
1F
100
AcDbEntity
  8
2
  6
CONTINUOUS
370
25
 62
7
100
AcDbLine
 10
56.48365403418218
 20
-45.49673080683644
 30
0.0
 11
57.72548105127328
 21
-44.25490378974534
 31
0.0
  0
LINE
  5
85B
330
1F
100
AcDbEntity
  8
2
  6
CONTINUOUS
370
25
 62
7
100
AcDbLine
 10
56.1301006435889
 20
-45.42602012871778
 30
0.0
 11
57.19515096538336
 21
-44.36096980692332
 31
0.0
  0
LINE
  5
85C
330
1F
100
AcDbEntity
  8
2
  6
CONTINUOUS
370
25
 62
7
100
AcDbLine
 10
55.77654725299563
 20
-45.35530945059913
 30
0.0
 11
56.66482087949345
 21
-44.4670358241013
 31
0.0
  0
LINE
  5
85D
330
1F
100
AcDbEntity
  8
2
  6
CONTINUOUS
370
25
 62
7
100
AcDbLine
 10
55.42299386240235
 20
-45.28459877248047
 30
0.0
 11
56.13449079360354
 21
-44.57310184127929
 31
0.0
  0
LINE
  5
85E
330
1F
100
AcDbEntity
  8
2
  6
CONTINUOUS
370
25
 62
7
100
AcDbLine
 10
55.06944047180908
 20
-45.21388809436182
 30
0.0
 11
55.60416070771362
 21
-44.67916785845727
 31
0.0
  0
LINE
  5
85F
330
1F
100
AcDbEntity
  8
2
  6
CONTINUOUS
370
25
 62
7
100
AcDbLine
 10
54.7158870812158
 20
-45.14317741624316
 30
0.0
 11
55.07383062182371
 21
-44.78523387563526
 31
0.0
  0
LINE
  5
860
330
1F
100
AcDbEntity
  8
2
  6
CONTINUOUS
370
25
 62
7
100
AcDbLine
 10
54.36233369062253
 20
-45.07246673812451
 30
0.0
 11
54.54350053593379
 21
-44.89129989281324
 31
0.0
  0
LINE
  5
861
330
1F
100
AcDbEntity
  8
2
  6
CONTINUOUS
370
25
 62
7
100
AcDbLine
 10
54.00878030002924
 20
-45.00175606000585
 30
0.0
 11
54.01317045004388
 21
-44.99736590999122
 31
0.0
  0
LINE
  5
862
330
1F
100
AcDbEntity
  8
2
  6
CONTINUOUS
370
25
 62
7
100
AcDbLine
 10
54.1419772950532
 20
-44.97160454098936
 30
0.0
 11
54.2129659425798
 21
-45.04259318851597
 31
0.0
  0
LINE
  5
863
330
1F
100
AcDbEntity
  8
2
  6
CONTINUOUS
370
25
 62
7
100
AcDbLine
 10
54.49553068564647
 20
-44.9008938628707
 30
0.0
 11
54.74329602846971
 21
-45.14865920569395
 31
0.0
  0
LINE
  5
864
330
1F
100
AcDbEntity
  8
2
  6
CONTINUOUS
370
25
 62
7
100
AcDbLine
 10
54.84908407623975
 20
-44.83018318475204
 30
0.0
 11
55.27362611435963
 21
-45.25472522287193
 31
0.0
  0
LINE
  5
865
330
1F
100
AcDbEntity
  8
2
  6
CONTINUOUS
370
25
 62
7
100
AcDbLine
 10
55.20263746683302
 20
-44.75947250663339
 30
0.0
 11
55.80395620024954
 21
-45.36079124004991
 31
0.0
  0
LINE
  5
866
330
1F
100
AcDbEntity
  8
2
  6
CONTINUOUS
370
25
 62
7
100
AcDbLine
 10
55.5561908574263
 20
-44.68876182851474
 30
0.0
 11
56.33428628613946
 21
-45.46685725722789
 31
0.0
  0
LINE
  5
867
330
1F
100
AcDbEntity
  8
2
  6
CONTINUOUS
370
25
 62
7
100
AcDbLine
 10
55.90974424801958
 20
-44.61805115039608
 30
0.0
 11
56.86461637202937
 21
-45.57292327440588
 31
0.0
  0
LINE
  5
868
330
1F
100
AcDbEntity
  8
2
  6
CONTINUOUS
370
25
 62
7
100
AcDbLine
 10
56.26329763861285
 20
-44.54734047227743
 30
0.0
 11
57.39494645791928
 21
-45.67898929158386
 31
0.0
  0
LINE
  5
869
330
1F
100
AcDbEntity
  8
2
  6
CONTINUOUS
370
25
 62
7
100
AcDbLine
 10
56.61685102920613
 20
-44.47662979415877
 30
0.0
 11
57.9252765438092
 21
-45.78505530876184
 31
0.0
  0
LINE
  5
86A
330
1F
100
AcDbEntity
  8
2
  6
CONTINUOUS
370
25
 62
7
100
AcDbLine
 10
56.9704044197994
 20
-44.40591911604012
 30
0.0
 11
58.45560662969911
 21
-45.89112132593983
 31
0.0
  0
LINE
  5
86B
330
1F
100
AcDbEntity
  8
2
  6
CONTINUOUS
370
25
 62
7
100
AcDbLine
 10
57.32395781039268
 20
-44.33520843792146
 30
0.0
 11
58.98593671558903
 21
-45.99718734311781
 31
0.0
  0
LINE
  5
86C
330
1F
100
AcDbEntity
  8
2
  6
CONTINUOUS
370
25
 62
7
100
AcDbLine
 10
57.67751120098596
 20
-44.26449775980281
 30
0.0
 11
59.0
 21
-45.58698655881685
 31
0.0
  0
LINE
  5
86D
330
1F
100
AcDbEntity
  8
2
  6
CONTINUOUS
370
25
 62
7
100
AcDbLine
 10
58.03106459157923
 20
-44.19378708168415
 30
0.0
 11
59.0
 21
-45.16272249010491
 31
0.0
  0
LINE
  5
86E
330
1F
100
AcDbEntity
  8
2
  6
CONTINUOUS
370
25
 62
7
100
AcDbLine
 10
58.38461798217251
 20
-44.12307640356549
 30
0.0
 11
59.0
 21
-44.73845842139298
 31
0.0
  0
LINE
  5
86F
330
1F
100
AcDbEntity
  8
2
  6
CONTINUOUS
370
25
 62
7
100
AcDbLine
 10
58.73817137276578
 20
-44.05236572544684
 30
0.0
 11
59.0
 21
-44.31419435268106
 31
0.0
  0
LINE
  5
870
330
1F
100
AcDbEntity
  8
2
  6
CONTINUOUS
370
25
 62
7
100
AcDbLine
 10
80.0
 20
-45.0
 30
0.0
 11
75.0
 21
-46.0
 31
0.0
  0
LINE
  5
871
330
1F
100
AcDbEntity
  8
2
  6
CONTINUOUS
370
25
 62
7
100
AcDbLine
 10
75.0
 20
-46.0
 30
0.0
 11
75.0
 21
-44.0
 31
0.0
  0
LINE
  5
872
330
1F
100
AcDbEntity
  8
2
  6
CONTINUOUS
370
25
 62
7
100
AcDbLine
 10
75.0
 20
-44.0
 30
0.0
 11
80.0
 21
-45.0
 31
0.0
  0
LINE
  5
873
330
1F
100
AcDbEntity
  8
2
  6
CONTINUOUS
370
25
 62
7
100
AcDbLine
 10
79.86062718622725
 20
-45.02787456275455
 30
0.0
 11
79.90708479081817
 21
-44.98141695816363
 31
0.0
  0
LINE
  5
874
330
1F
100
AcDbEntity
  8
2
  6
CONTINUOUS
370
25
 62
7
100
AcDbLine
 10
79.33029710033732
 20
-45.13394057993254
 30
0.0
 11
79.55353140022488
 21
-44.91070628004498
 31
0.0
  0
LINE
  5
875
330
1F
100
AcDbEntity
  8
2
  6
CONTINUOUS
370
25
 62
7
100
AcDbLine
 10
78.79996701444742
 20
-45.24000659711052
 30
0.0
 11
79.19997800963161
 21
-44.83999560192632
 31
0.0
  0
LINE
  5
876
330
1F
100
AcDbEntity
  8
2
  6
CONTINUOUS
370
25
 62
7
100
AcDbLine
 10
78.2696369285575
 20
-45.3460726142885
 30
0.0
 11
78.84642461903833
 21
-44.76928492380766
 31
0.0
  0
LINE
  5
877
330
1F
100
AcDbEntity
  8
2
  6
CONTINUOUS
370
25
 62
7
100
AcDbLine
 10
77.73930684266759
 20
-45.45213863146648
 30
0.0
 11
78.49287122844505
 21
-44.69857424568901
 31
0.0
  0
LINE
  5
878
330
1F
100
AcDbEntity
  8
2
  6
CONTINUOUS
370
25
 62
7
100
AcDbLine
 10
77.20897675677767
 20
-45.55820464864446
 30
0.0
 11
78.13931783785178
 21
-44.62786356757036
 31
0.0
  0
LINE
  5
879
330
1F
100
AcDbEntity
  8
2
  6
CONTINUOUS
370
25
 62
7
100
AcDbLine
 10
76.67864667088776
 20
-45.66427066582245
 30
0.0
 11
77.78576444725852
 21
-44.5571528894517
 31
0.0
  0
LINE
  5
87A
330
1F
100
AcDbEntity
  8
2
  6
CONTINUOUS
370
25
 62
7
100
AcDbLine
 10
76.14831658499784
 20
-45.77033668300043
 30
0.0
 11
77.43221105666524
 21
-44.48644221133304
 31
0.0
  0
LINE
  5
87B
330
1F
100
AcDbEntity
  8
2
  6
CONTINUOUS
370
25
 62
7
100
AcDbLine
 10
75.61798649910793
 20
-45.87640270017842
 30
0.0
 11
77.07865766607196
 21
-44.41573153321438
 31
0.0
  0
LINE
  5
87C
330
1F
100
AcDbEntity
  8
2
  6
CONTINUOUS
370
25
 62
7
100
AcDbLine
 10
75.08765641321801
 20
-45.9824687173564
 30
0.0
 11
76.72510427547867
 21
-44.34502085509574
 31
0.0
  0
LINE
  5
87D
330
1F
100
AcDbEntity
  8
2
  6
CONTINUOUS
370
25
 62
7
100
AcDbLine
 10
75.0
 20
-45.64586106186248
 30
0.0
 11
76.3715508848854
 21
-44.27431017697708
 31
0.0
  0
LINE
  5
87E
330
1F
100
AcDbEntity
  8
2
  6
CONTINUOUS
370
25
 62
7
100
AcDbLine
 10
75.0
 20
-45.22159699315056
 30
0.0
 11
76.01799749429213
 21
-44.20359949885842
 31
0.0
  0
LINE
  5
87F
330
1F
100
AcDbEntity
  8
2
  6
CONTINUOUS
370
25
 62
7
100
AcDbLine
 10
75.0
 20
-44.79733292443863
 30
0.0
 11
75.66444410369886
 21
-44.13288882073977
 31
0.0
  0
LINE
  5
880
330
1F
100
AcDbEntity
  8
2
  6
CONTINUOUS
370
25
 62
7
100
AcDbLine
 10
75.0
 20
-44.37306885572669
 30
0.0
 11
75.31089071310558
 21
-44.06217814262111
 31
0.0
  0
LINE
  5
881
330
1F
100
AcDbEntity
  8
2
  6
CONTINUOUS
370
25
 62
7
100
AcDbLine
 10
75.0
 20
-45.89135881895658
 30
0.0
 11
75.09053431753618
 21
-45.98189313649276
 31
0.0
  0
LINE
  5
882
330
1F
100
AcDbEntity
  8
2
  6
CONTINUOUS
370
25
 62
7
100
AcDbLine
 10
75.0
 20
-45.46709475024464
 30
0.0
 11
75.44408770812946
 21
-45.91118245837411
 31
0.0
  0
LINE
  5
883
330
1F
100
AcDbEntity
  8
2
  6
CONTINUOUS
370
25
 62
7
100
AcDbLine
 10
75.0
 20
-45.04283068153271
 30
0.0
 11
75.79764109872274
 21
-45.84047178025546
 31
0.0
  0
LINE
  5
884
330
1F
100
AcDbEntity
  8
2
  6
CONTINUOUS
370
25
 62
7
100
AcDbLine
 10
75.0
 20
-44.61856661282078
 30
0.0
 11
76.15119448931601
 21
-45.7697611021368
 31
0.0
  0
LINE
  5
885
330
1F
100
AcDbEntity
  8
2
  6
CONTINUOUS
370
25
 62
7
100
AcDbLine
 10
75.0
 20
-44.19430254410885
 30
0.0
 11
76.50474787990929
 21
-45.69905042401814
 31
0.0
  0
LINE
  5
886
330
1F
100
AcDbEntity
  8
2
  6
CONTINUOUS
370
25
 62
7
100
AcDbLine
 10
75.28745190575384
 20
-44.05749038115077
 30
0.0
 11
76.85830127050258
 21
-45.6283397458995
 31
0.0
  0
LINE
  5
887
330
1F
100
AcDbEntity
  8
2
  6
CONTINUOUS
370
25
 62
7
100
AcDbLine
 10
75.81778199164376
 20
-44.16355639832875
 30
0.0
 11
77.21185466109584
 21
-45.55762906778083
 31
0.0
  0
LINE
  5
888
330
1F
100
AcDbEntity
  8
2
  6
CONTINUOUS
370
25
 62
7
100
AcDbLine
 10
76.34811207753367
 20
-44.26962241550673
 30
0.0
 11
77.56540805168912
 21
-45.48691838966217
 31
0.0
  0
LINE
  5
889
330
1F
100
AcDbEntity
  8
2
  6
CONTINUOUS
370
25
 62
7
100
AcDbLine
 10
76.87844216342359
 20
-44.37568843268472
 30
0.0
 11
77.9189614422824
 21
-45.41620771154352
 31
0.0
  0
LINE
  5
88A
330
1F
100
AcDbEntity
  8
2
  6
CONTINUOUS
370
25
 62
7
100
AcDbLine
 10
77.40877224931351
 20
-44.48175444986271
 30
0.0
 11
78.27251483287567
 21
-45.34549703342486
 31
0.0
  0
LINE
  5
88B
330
1F
100
AcDbEntity
  8
2
  6
CONTINUOUS
370
25
 62
7
100
AcDbLine
 10
77.93910233520343
 20
-44.58782046704069
 30
0.0
 11
78.62606822346895
 21
-45.2747863553062
 31
0.0
  0
LINE
  5
88C
330
1F
100
AcDbEntity
  8
2
  6
CONTINUOUS
370
25
 62
7
100
AcDbLine
 10
78.46943242109334
 20
-44.69388648421867
 30
0.0
 11
78.97962161406222
 21
-45.20407567718755
 31
0.0
  0
LINE
  5
88D
330
1F
100
AcDbEntity
  8
2
  6
CONTINUOUS
370
25
 62
7
100
AcDbLine
 10
78.99976250698326
 20
-44.79995250139665
 30
0.0
 11
79.3331750046555
 21
-45.1333649990689
 31
0.0
  0
LINE
  5
88E
330
1F
100
AcDbEntity
  8
2
  6
CONTINUOUS
370
25
 62
7
100
AcDbLine
 10
79.53009259287317
 20
-44.90601851857463
 30
0.0
 11
79.68672839524879
 21
-45.06265432095024
 31
0.0
  0
TEXT
  5
88F
330
1F
100
AcDbEntity
  8
2
  6
CONTINUOUS
370
25
 62
7
100
AcDbText
 10
64.08333333333333
 20
-43.5
 30
0.0
 40
3.5
  1
26
 72
     1
 11
67.0
 21
-43.5
 31
0.0
100
AcDbText
  0
LINE
  5
890
330
1F
100
AcDbEntity
  8
4
  6
LONGDASH_DASH
370
25
 62
2
100
AcDbLine
 10
50.0
 20
0.0
 30
0.0
 11
80.0
 21
0.0
 31
0.0
  0
LINE
  5
891
330
1F
100
AcDbEntity
  8
SK4
  6
LONGDASH_DASH
370
25
 62
2
100
AcDbLine
 10
-6.0
 20
0.0
 30
0.0
 11
86.0
 21
0.0
 31
0.0
  0
LINE
  5
892
330
1F
100
AcDbEntity
  8
2
  6
CONTINUOUS
370
25
 62
7
100
AcDbLine
 10
80.0
 20
0.0
 30
0.0
 11
87.18242300983904
 21
19.73354503650408
 31
0.0
  0
LINE
  5
893
330
1F
100
AcDbEntity
  8
2
  6
CONTINUOUS
370
25
 62
7
100
AcDbLine
 10
80.0
 20
0.0
 30
0.0
 11
87.18242300983906
 21
-19.73354503650408
 31
0.0
  0
ARC
  5
894
330
1F
100
AcDbEntity
  8
2
  6
CONTINUOUS
370
25
 62
7
100
AcDbCircle
 10
80.0
 20
0.000000000000002
 30
0.0
 40
20.0
100
AcDbArc
 50
290.0
 51
70.00000000000001
  0
LINE
  5
895
330
1F
100
AcDbEntity
  8
2
  6
CONTINUOUS
370
25
 62
7
100
AcDbLine
 10
86.84040286651337
 20
18.79385241571817
 30
0.0
 11
91.74505128946728
 21
17.39942642370005
 31
0.0
  0
LINE
  5
896
330
1F
100
AcDbEntity
  8
2
  6
CONTINUOUS
370
25
 62
7
100
AcDbLine
 10
91.74505128946728
 20
17.39942642370005
 30
0.0
 11
90.83145295231002
 21
15.62028672194994
 31
0.0
  0
LINE
  5
897
330
1F
100
AcDbEntity
  8
2
  6
CONTINUOUS
370
25
 62
7
100
AcDbLine
 10
90.83145295231002
 20
15.62028672194994
 30
0.0
 11
86.84040286651337
 21
18.79385241571817
 31
0.0
  0
LINE
  5
898
330
1F
100
AcDbEntity
  8
2
  6
CONTINUOUS
370
25
 62
7
100
AcDbLine
 10
90.6210166202287
 20
15.7876195065202
 30
0.0
 11
91.23019673385602
 21
16.39679962014752
 31
0.0
  0
LINE
  5
899
330
1F
100
AcDbEntity
  8
2
  6
CONTINUOUS
370
25
 62
7
100
AcDbLine
 10
90.3846802694836
 20
15.97554722448702
 30
0.0
 11
91.67801698086771
 21
17.26888393587114
 31
0.0
  0
LINE
  5
89A
330
1F
100
AcDbEntity
  8
2
  6
CONTINUOUS
370
25
 62
7
100
AcDbLine
 10
90.14834391873848
 20
16.16347494245383
 30
0.0
 11
91.46415592486952
 21
17.47928694858487
 31
0.0
  0
LINE
  5
89B
330
1F
100
AcDbEntity
  8
2
  6
CONTINUOUS
370
25
 62
7
100
AcDbLine
 10
89.91200756799338
 20
16.35140266042066
 30
0.0
 11
91.13381118555701
 21
17.5732062779843
 31
0.0
  0
LINE
  5
89C
330
1F
100
AcDbEntity
  8
2
  6
CONTINUOUS
370
25
 62
7
100
AcDbLine
 10
89.67567121724827
 20
16.53933037838748
 30
0.0
 11
90.8034664462445
 21
17.66712560738373
 31
0.0
  0
LINE
  5
89D
330
1F
100
AcDbEntity
  8
2
  6
CONTINUOUS
370
25
 62
7
100
AcDbLine
 10
89.43933486650315
 20
16.7272580963543
 30
0.0
 11
90.473121706932
 21
17.76104493678316
 31
0.0
  0
LINE
  5
89E
330
1F
100
AcDbEntity
  8
2
  6
CONTINUOUS
370
25
 62
7
100
AcDbLine
 10
89.20299851575804
 20
16.91518581432112
 30
0.0
 11
90.14277696761951
 21
17.85496426618259
 31
0.0
  0
LINE
  5
89F
330
1F
100
AcDbEntity
  8
2
  6
CONTINUOUS
370
25
 62
7
100
AcDbLine
 10
88.96666216501293
 20
17.10311353228794
 30
0.0
 11
89.812432228307
 21
17.94888359558201
 31
0.0
  0
LINE
  5
8A0
330
1F
100
AcDbEntity
  8
2
  6
CONTINUOUS
370
25
 62
7
100
AcDbLine
 10
88.73032581426783
 20
17.29104125025477
 30
0.0
 11
89.4820874889945
 21
18.04280292498143
 31
0.0
  0
LINE
  5
8A1
330
1F
100
AcDbEntity
  8
2
  6
CONTINUOUS
370
25
 62
7
100
AcDbLine
 10
88.49398946352272
 20
17.47896896822159
 30
0.0
 11
89.151742749682
 21
18.13672225438087
 31
0.0
  0
LINE
  5
8A2
330
1F
100
AcDbEntity
  8
2
  6
CONTINUOUS
370
25
 62
7
100
AcDbLine
 10
88.2576531127776
 20
17.66689668618841
 30
0.0
 11
88.8213980103695
 21
18.2306415837803
 31
0.0
  0
LINE
  5
8A3
330
1F
100
AcDbEntity
  8
2
  6
CONTINUOUS
370
25
 62
7
100
AcDbLine
 10
88.02131676203251
 20
17.85482440415524
 30
0.0
 11
88.491053271057
 21
18.32456091317973
 31
0.0
  0
LINE
  5
8A4
330
1F
100
AcDbEntity
  8
2
  6
CONTINUOUS
370
25
 62
7
100
AcDbLine
 10
87.78498041128739
 20
18.04275212212206
 30
0.0
 11
88.16070853174449
 21
18.41848024257915
 31
0.0
  0
LINE
  5
8A5
330
1F
100
AcDbEntity
  8
2
  6
CONTINUOUS
370
25
 62
7
100
AcDbLine
 10
87.54864406054227
 20
18.23067984008888
 30
0.0
 11
87.830363792432
 21
18.51239957197859
 31
0.0
  0
LINE
  5
8A6
330
1F
100
AcDbEntity
  8
2
  6
CONTINUOUS
370
25
 62
7
100
AcDbLine
 10
87.31230770979718
 20
18.4186075580557
 30
0.0
 11
87.5000190531195
 21
18.60631890137802
 31
0.0
  0
LINE
  5
8A7
330
1F
100
AcDbEntity
  8
2
  6
CONTINUOUS
370
25
 62
7
100
AcDbLine
 10
87.07597135905206
 20
18.60653527602252
 30
0.0
 11
87.16967431380698
 21
18.70023823077744
 31
0.0
  0
LINE
  5
8A8
330
1F
100
AcDbEntity
  8
2
  6
CONTINUOUS
370
25
 62
7
100
AcDbLine
 10
87.35543067814689
 20
18.64742639182766
 30
0.0
 11
88.63995795397662
 21
17.36289911599793
 31
0.0
  0
LINE
  5
8A9
330
1F
100
AcDbEntity
  8
2
  6
CONTINUOUS
370
25
 62
7
100
AcDbLine
 10
87.9482324553748
 20
18.47888868331169
 30
0.0
 11
90.71126251262606
 21
15.71585862606042
 31
0.0
  0
LINE
  5
8AA
330
1F
100
AcDbEntity
  8
2
  6
CONTINUOUS
370
25
 62
7
100
AcDbLine
 10
88.5410342326027
 20
18.31035097479572
 30
0.0
 11
90.96704560530934
 21
15.88433960208909
 31
0.0
  0
LINE
  5
8AB
330
1F
100
AcDbEntity
  8
2
  6
CONTINUOUS
370
25
 62
7
100
AcDbLine
 10
89.13383600983059
 20
18.14181326627975
 30
0.0
 11
91.11099089151625
 21
16.16465838459409
 31
0.0
  0
LINE
  5
8AC
330
1F
100
AcDbEntity
  8
2
  6
CONTINUOUS
370
25
 62
7
100
AcDbLine
 10
89.7266377870585
 20
17.97327555776378
 30
0.0
 11
91.25493617772318
 21
16.4449771670991
 31
0.0
  0
LINE
  5
8AD
330
1F
100
AcDbEntity
  8
2
  6
CONTINUOUS
370
25
 62
7
100
AcDbLine
 10
90.3194395642864
 20
17.80473784924781
 30
0.0
 11
91.39888146393011
 21
16.7252959496041
 31
0.0
  0
LINE
  5
8AE
330
1F
100
AcDbEntity
  8
2
  6
CONTINUOUS
370
25
 62
7
100
AcDbLine
 10
90.91224134151432
 20
17.63620014073184
 30
0.0
 11
91.54282675013704
 21
17.00561473210911
 31
0.0
  0
LINE
  5
8AF
330
1F
100
AcDbEntity
  8
2
  6
CONTINUOUS
370
25
 62
7
100
AcDbLine
 10
91.50504311874221
 20
17.46766243221587
 30
0.0
 11
91.68677203634397
 21
17.28593351461411
 31
0.0
  0
LINE
  5
8B0
330
1F
100
AcDbEntity
  8
2
  6
CONTINUOUS
370
25
 62
7
100
AcDbLine
 10
86.84040286651339
 20
-18.79385241571817
 30
0.0
 11
90.83145295231003
 21
-15.62028672194994
 31
0.0
  0
LINE
  5
8B1
330
1F
100
AcDbEntity
  8
2
  6
CONTINUOUS
370
25
 62
7
100
AcDbLine
 10
90.83145295231003
 20
-15.62028672194994
 30
0.0
 11
91.74505128946728
 21
-17.39942642370005
 31
0.0
  0
LINE
  5
8B2
330
1F
100
AcDbEntity
  8
2
  6
CONTINUOUS
370
25
 62
7
100
AcDbLine
 10
91.74505128946728
 20
-17.39942642370005
 30
0.0
 11
86.84040286651339
 21
-18.79385241571817
 31
0.0
  0
LINE
  5
8B3
330
1F
100
AcDbEntity
  8
2
  6
CONTINUOUS
370
25
 62
7
100
AcDbLine
 10
91.36436296743719
 20
-17.50765878722935
 30
0.0
 11
91.65261180703774
 21
-17.21940994762878
 31
0.0
  0
LINE
  5
8B4
330
1F
100
AcDbEntity
  8
2
  6
CONTINUOUS
370
25
 62
7
100
AcDbLine
 10
90.77156119020927
 20
-17.67619649574532
 30
0.0
 11
91.50866652083083
 21
-16.93909116512377
 31
0.0
  0
LINE
  5
8B5
330
1F
100
AcDbEntity
  8
2
  6
CONTINUOUS
370
25
 62
7
100
AcDbLine
 10
90.17875941298138
 20
-17.84473420426129
 30
0.0
 11
91.3647212346239
 21
-16.65877238261876
 31
0.0
  0
LINE
  5
8B6
330
1F
100
AcDbEntity
  8
2
  6
CONTINUOUS
370
25
 62
7
100
AcDbLine
 10
89.58595763575347
 20
-18.01327191277726
 30
0.0
 11
91.22077594841699
 21
-16.37845360011376
 31
0.0
  0
LINE
  5
8B7
330
1F
100
AcDbEntity
  8
2
  6
CONTINUOUS
370
25
 62
7
100
AcDbLine
 10
88.99315585852557
 20
-18.18180962129323
 30
0.0
 11
91.07683066221006
 21
-16.09813481760876
 31
0.0
  0
LINE
  5
8B8
330
1F
100
AcDbEntity
  8
2
  6
CONTINUOUS
370
25
 62
7
100
AcDbLine
 10
88.40035408129768
 20
-18.3503473298092
 30
0.0
 11
90.93288537600313
 21
-15.81781603510375
 31
0.0
  0
LINE
  5
8B9
330
1F
100
AcDbEntity
  8
2
  6
CONTINUOUS
370
25
 62
7
100
AcDbLine
 10
87.80755230406976
 20
-18.51888503832517
 30
0.0
 11
90.21971297633377
 21
-16.10672436606117
 31
0.0
  0
LINE
  5
8BA
330
1F
100
AcDbEntity
  8
2
  6
CONTINUOUS
370
25
 62
7
100
AcDbLine
 10
87.21475052684187
 20
-18.68742274684114
 30
0.0
 11
88.14840841768441
 21
-17.75376485599861
 31
0.0
  0
LINE
  5
8BB
330
1F
100
AcDbEntity
  8
2
  6
CONTINUOUS
370
25
 62
7
100
AcDbLine
 10
86.95003283914738
 20
-18.70667788453445
 30
0.0
 11
86.99364076079598
 21
-18.75028580618306
 31
0.0
  0
LINE
  5
8BC
330
1F
100
AcDbEntity
  8
2
  6
CONTINUOUS
370
25
 62
7
100
AcDbLine
 10
87.18636918989249
 20
-18.51875016656763
 30
0.0
 11
87.32398550010849
 21
-18.65636647678363
 31
0.0
  0
LINE
  5
8BD
330
1F
100
AcDbEntity
  8
2
  6
CONTINUOUS
370
25
 62
7
100
AcDbLine
 10
87.4227055406376
 20
-18.33082244860081
 30
0.0
 11
87.65433023942099
 21
-18.56244714738419
 31
0.0
  0
LINE
  5
8BE
330
1F
100
AcDbEntity
  8
2
  6
CONTINUOUS
370
25
 62
7
100
AcDbLine
 10
87.65904189138271
 20
-18.14289473063399
 30
0.0
 11
87.9846749787335
 21
-18.46852781798477
 31
0.0
  0
LINE
  5
8BF
330
1F
100
AcDbEntity
  8
2
  6
CONTINUOUS
370
25
 62
7
100
AcDbLine
 10
87.89537824212782
 20
-17.95496701266716
 30
0.0
 11
88.31501971804599
 21
-18.37460848858534
 31
0.0
  0
LINE
  5
8C0
330
1F
100
AcDbEntity
  8
2
  6
CONTINUOUS
370
25
 62
7
100
AcDbLine
 10
88.13171459287292
 20
-17.76703929470035
 30
0.0
 11
88.6453644573585
 21
-18.28068915918591
 31
0.0
  0
LINE
  5
8C1
330
1F
100
AcDbEntity
  8
2
  6
CONTINUOUS
370
25
 62
7
100
AcDbLine
 10
88.36805094361804
 20
-17.57911157673352
 30
0.0
 11
88.975709196671
 21
-18.18676982978648
 31
0.0
  0
LINE
  5
8C2
330
1F
100
AcDbEntity
  8
2
  6
CONTINUOUS
370
25
 62
7
100
AcDbLine
 10
88.60438729436314
 20
-17.39118385876669
 30
0.0
 11
89.3060539359835
 21
-18.09285050038705
 31
0.0
  0
LINE
  5
8C3
330
1F
100
AcDbEntity
  8
2
  6
CONTINUOUS
370
25
 62
7
100
AcDbLine
 10
88.84072364510826
 20
-17.20325614079988
 30
0.0
 11
89.63639867529601
 21
-17.99893117098763
 31
0.0
  0
LINE
  5
8C4
330
1F
100
AcDbEntity
  8
2
  6
CONTINUOUS
370
25
 62
7
100
AcDbLine
 10
89.07705999585338
 20
-17.01532842283306
 30
0.0
 11
89.96674341460852
 21
-17.9050118415882
 31
0.0
  0
LINE
  5
8C5
330
1F
100
AcDbEntity
  8
2
  6
CONTINUOUS
370
25
 62
7
100
AcDbLine
 10
89.31339634659848
 20
-16.82740070486624
 30
0.0
 11
90.29708815392101
 21
-17.81109251218877
 31
0.0
  0
LINE
  5
8C6
330
1F
100
AcDbEntity
  8
2
  6
CONTINUOUS
370
25
 62
7
100
AcDbLine
 10
89.54973269734359
 20
-16.63947298689941
 30
0.0
 11
90.6274328932335
 21
-17.71717318278934
 31
0.0
  0
LINE
  5
8C7
330
1F
100
AcDbEntity
  8
2
  6
CONTINUOUS
370
25
 62
7
100
AcDbLine
 10
89.78606904808869
 20
-16.45154526893259
 30
0.0
 11
90.95777763254603
 21
-17.62325385338992
 31
0.0
  0
LINE
  5
8C8
330
1F
100
AcDbEntity
  8
2
  6
CONTINUOUS
370
25
 62
7
100
AcDbLine
 10
90.0224053988338
 20
-16.26361755096577
 30
0.0
 11
91.28812237185852
 21
-17.52933452399048
 31
0.0
  0
LINE
  5
8C9
330
1F
100
AcDbEntity
  8
2
  6
CONTINUOUS
370
25
 62
7
100
AcDbLine
 10
90.25874174957892
 20
-16.07568983299895
 30
0.0
 11
91.61846711117101
 21
-17.43541519459105
 31
0.0
  0
LINE
  5
8CA
330
1F
100
AcDbEntity
  8
2
  6
CONTINUOUS
370
25
 62
7
100
AcDbLine
 10
90.49507810032401
 20
-15.88776211503212
 30
0.0
 11
91.46883043922634
 21
-16.86151445393444
 31
0.0
  0
LINE
  5
8CB
330
1F
100
AcDbEntity
  8
2
  6
CONTINUOUS
370
25
 62
7
100
AcDbLine
 10
90.73141445106913
 20
-15.6998343970653
 30
0.0
 11
91.02101019221465
 21
-15.98943013821082
 31
0.0
  0
TEXT
  5
8CC
330
1F
100
AcDbEntity
  8
2
  6
CONTINUOUS
370
25
 62
7
100
AcDbText
 10
97.5
 20
-4.958333333333333
 30
0.0
 40
3.5
  1
140°
 50
90.0
 72
     1
 11
97.5
 21
0.0
 31
0.0
100
AcDbText
  0
LINE
  5
8CD
330
1F
100
AcDbEntity
  8
SK1
  6
CONTINUOUS
370
50
 62
4
100
AcDbLine
 10
50.0
 20
0.0
 30
0.0
 11
52.625
 21
0.0
 31
0.0
  0
LINE
  5
8CE
330
1F
100
AcDbEntity
  8
SK1
  6
CONTINUOUS
370
50
 62
4
100
AcDbLine
 10
50.0
 20
0.0
 30
0.0
 11
50.0
 21
2.625
 31
0.0
  0
ARC
  5
8CF
330
1F
100
AcDbEntity
  8
SK1
  6
CONTINUOUS
370
50
 62
4
100
AcDbCircle
 10
50.0
 20
0.0
 30
0.0
 40
2.625
100
AcDbArc
 50
0.0
 51
90.0
  0
LINE
  5
8D0
330
1F
100
AcDbEntity
  8
SK1
  6
CONTINUOUS
370
50
 62
4
100
AcDbLine
 10
50.0
 20
0.0
 30
0.0
 11
47.375
 21
0.0
 31
0.0
  0
ARC
  5
8D1
330
1F
100
AcDbEntity
  8
SK1
  6
CONTINUOUS
370
50
 62
4
100
AcDbCircle
 10
50.0
 20
0.0
 30
0.0
 40
2.625
100
AcDbArc
 50
180.0
 51
270.0
  0
LINE
  5
8D2
330
1F
100
AcDbEntity
  8
SK1
  6
CONTINUOUS
370
50
 62
4
100
AcDbLine
 10
50.0
 20
-2.625
 30
0.0
 11
50.0
 21
0.0
 31
0.0
  0
ARC
  5
8D3
330
1F
100
AcDbEntity
  8
SK1
  6
CONTINUOUS
370
50
 62
4
100
AcDbCircle
 10
50.0
 20
0.0
 30
0.0
 40
2.625
100
AcDbArc
 50
270.0
 51
0.0
  0
ARC
  5
8D4
330
1F
100
AcDbEntity
  8
SK1
  6
CONTINUOUS
370
50
 62
4
100
AcDbCircle
 10
50.0
 20
0.0
 30
0.0
 40
2.625
100
AcDbArc
 50
90.0
 51
180.0
  0
LINE
  5
8D5
330
1F
100
AcDbEntity
  8
SK1
  6
CONTINUOUS
370
50
 62
4
100
AcDbLine
 10
49.66575722192682
 20
-2.60347067499975
 30
0.0
 11
50.0
 21
-2.269227896926564
 31
0.0
  0
LINE
  5
8D6
330
1F
100
AcDbEntity
  8
SK1
  6
CONTINUOUS
370
50
 62
4
100
AcDbLine
 10
52.26922789692657
 20
0.0
 30
0.0
 11
52.60347067499975
 21
0.3342427780731851
 31
0.0
  0
LINE
  5
8D7
330
1F
100
AcDbEntity
  8
SK1
  6
CONTINUOUS
370
50
 62
4
100
AcDbLine
 10
49.35395391214686
 20
-2.544042924656761
 30
0.0
 11
50.0
 21
-1.897996836803626
 31
0.0
  0
LINE
  5
8D8
330
1F
100
AcDbEntity
  8
SK1
  6
CONTINUOUS
370
50
 62
4
100
AcDbLine
 10
51.89799683680363
 20
0.0
 30
0.0
 11
52.54404292465676
 21
0.6460460878531347
 31
0.0
  0
LINE
  5
8D9
330
1F
100
AcDbEntity
  8
SK1
  6
CONTINUOUS
370
50
 62
4
100
AcDbLine
 10
49.07222348891575
 20
-2.454542287764935
 30
0.0
 11
50.0
 21
-1.526765776680689
 31
0.0
  0
LINE
  5
8DA
330
1F
100
AcDbEntity
  8
SK1
  6
CONTINUOUS
370
50
 62
4
100
AcDbLine
 10
51.52676577668069
 20
0.0
 30
0.0
 11
52.45454228776494
 21
0.9277765110842457
 31
0.0
  0
LINE
  5
8DB
330
1F
100
AcDbEntity
  8
SK1
  6
CONTINUOUS
370
50
 62
4
100
AcDbLine
 10
48.81478120678253
 20
-2.340753509775221
 30
0.0
 11
50.0
 21
-1.155534716557751
 31
0.0
  0
LINE
  5
8DC
330
1F
100
AcDbEntity
  8
SK1
  6
CONTINUOUS
370
50
 62
4
100
AcDbLine
 10
51.15553471655775
 20
0.0
 30
0.0
 11
52.34075350977522
 21
1.185218793217471
 31
0.0
  0
LINE
  5
8DD
330
1F
100
AcDbEntity
  8
SK1
  6
CONTINUOUS
370
50
 62
4
100
AcDbLine
 10
48.57826543845547
 20
-2.206038217979337
 30
0.0
 11
50.0
 21
-0.7843036564348136
 31
0.0
  0
LINE
  5
8DE
330
1F
100
AcDbEntity
  8
SK1
  6
CONTINUOUS
370
50
 62
4
100
AcDbLine
 10
50.78430365643482
 20
0.0
 30
0.0
 11
52.20603821797934
 21
1.421734561544524
 31
0.0
  0
LINE
  5
8DF
330
1F
100
AcDbEntity
  8
SK1
  6
CONTINUOUS
370
50
 62
4
100
AcDbLine
 10
48.3626431117109
 20
-2.050429484600978
 30
0.0
 11
50.0
 21
-0.413072596311876
 31
0.0
  0
LINE
  5
8E0
330
1F
100
AcDbEntity
  8
SK1
  6
CONTINUOUS
370
50
 62
4
100
AcDbLine
 10
50.41307259631188
 20
0.0
 30
0.0
 11
52.05042948460098
 21
1.637356888289101
 31
0.0
  0
LINE
  5
8E1
330
1F
100
AcDbEntity
  8
SK1
  6
CONTINUOUS
370
50
 62
4
100
AcDbLine
 10
48.16568136807246
 20
-1.876160168116476
 30
0.0
 11
50.0
 21
-0.0418415361889384
 31
0.0
  0
LINE
  5
8E2
330
1F
100
AcDbEntity
  8
SK1
  6
CONTINUOUS
370
50
 62
4
100
AcDbLine
 10
50.04184153618894
 20
0.0
 30
0.0
 11
51.87616016811648
 21
1.834318631927537
 31
0.0
  0
LINE
  5
8E3
330
1F
100
AcDbEntity
  8
SK1
  6
CONTINUOUS
370
50
 62
4
100
AcDbLine
 10
47.98675942477632
 20
-1.683851051289679
 30
0.0
 11
49.670610476066
 21
0.0
 31
0.0
  0
LINE
  5
8E4
330
1F
100
AcDbEntity
  8
SK1
  6
CONTINUOUS
370
50
 62
4
100
AcDbLine
 10
50.0
 20
0.3293895239339992
 30
0.0
 11
51.68385105128968
 21
2.013240575223679
 31
0.0
  0
LINE
  5
8E5
330
1F
100
AcDbEntity
  8
SK1
  6
CONTINUOUS
370
50
 62
4
100
AcDbLine
 10
47.82782161830507
 20
-1.471557797638
 30
0.0
 11
49.29937941594306
 21
0.0
 31
0.0
  0
LINE
  5
8E6
330
1F
100
AcDbEntity
  8
SK1
  6
CONTINUOUS
370
50
 62
4
100
AcDbLine
 10
50.0
 20
0.7006205840569368
 30
0.0
 11
51.471557797638
 21
2.172178381694937
 31
0.0
  0
LINE
  5
8E7
330
1F
100
AcDbEntity
  8
SK1
  6
CONTINUOUS
370
50
 62
4
100
AcDbLine
 10
47.68749288718529
 20
-1.240655468634837
 30
0.0
 11
48.92814835582013
 21
0.0
 31
0.0
  0
LINE
  5
8E8
330
1F
100
AcDbEntity
  8
SK1
  6
CONTINUOUS
370
50
 62
4
100
AcDbLine
 10
50.0
 20
1.071851644179874
 30
0.0
 11
51.24065546863483
 21
2.312507112814711
 31
0.0
  0
LINE
  5
8E9
330
1F
100
AcDbEntity
  8
SK1
  6
CONTINUOUS
370
50
 62
4
100
AcDbLine
 10
47.56877644288387
 20
-0.9881408528133115
 30
0.0
 11
48.55691729569719
 21
0.0
 31
0.0
  0
LINE
  5
8EA
330
1F
100
AcDbEntity
  8
SK1
  6
CONTINUOUS
370
50
 62
4
100
AcDbLine
 10
50.0
 20
1.443082704302812
 30
0.0
 11
50.98814085281331
 21
2.431223557116124
 31
0.0
  0
LINE
  5
8EB
330
1F
100
AcDbEntity
  8
SK1
  6
CONTINUOUS
370
50
 62
4
100
AcDbLine
 10
47.47444482033456
 20
-0.7112414152396886
 30
0.0
 11
48.18568623557425
 21
0.0
 31
0.0
  0
LINE
  5
8EC
330
1F
100
AcDbEntity
  8
SK1
  6
CONTINUOUS
370
50
 62
4
100
AcDbLine
 10
50.0
 20
1.81431376442575
 30
0.0
 11
50.71124141523969
 21
2.525555179665439
 31
0.0
  0
LINE
  5
8ED
330
1F
100
AcDbEntity
  8
SK1
  6
CONTINUOUS
370
50
 62
4
100
AcDbLine
 10
47.40797120571085
 20
-0.4064839697404632
 30
0.0
 11
47.81445517545131
 21
0.0
 31
0.0
  0
LINE
  5
8EE
330
1F
100
AcDbEntity
  8
SK1
  6
CONTINUOUS
370
50
 62
4
100
AcDbLine
 10
50.0
 20
2.185544824548687
 30
0.0
 11
50.40648396974046
 21
2.59202879428915
 31
0.0
  0
LINE
  5
8EF
330
1F
100
AcDbEntity
  8
SK1
  6
CONTINUOUS
370
50
 62
4
100
AcDbLine
 10
47.37707870331546
 20
-0.0661454120129097
 30
0.0
 11
47.44322411532838
 21
0.0
 31
0.0
  0
LINE
  5
8F0
330
1F
100
AcDbEntity
  8
SK1
  6
CONTINUOUS
370
50
 62
4
100
AcDbLine
 10
50.0
 20
2.556775884671625
 30
0.0
 11
50.06614541201291
 21
2.622921296684535
 31
0.0
  0
LINE
  5
8F1
330
1F
100
AcDbEntity
  8
SK1
  6
CONTINUOUS
370
50
 62
4
100
AcDbLine
 10
47.54579652643623
 20
-0.9287176037316112
 30
0.0
 11
49.07128239626839
 21
-2.454203473563768
 31
0.0
  0
LINE
  5
8F2
330
1F
100
AcDbEntity
  8
SK1
  6
CONTINUOUS
370
50
 62
4
100
AcDbLine
 10
47.41045104563307
 20
-0.4221410628055069
 30
0.0
 11
49.5778589371945
 21
-2.589548954366935
 31
0.0
  0
LINE
  5
8F3
330
1F
100
AcDbEntity
  8
SK1
  6
CONTINUOUS
370
50
 62
4
100
AcDbLine
 10
47.37550158008622
 20
-0.0159605371357268
 30
0.0
 11
49.98403946286427
 21
-2.624498419913778
 31
0.0
  0
LINE
  5
8F4
330
1F
100
AcDbEntity
  8
SK1
  6
CONTINUOUS
370
50
 62
4
100
AcDbLine
 10
47.73077210307343
 20
0.0
 30
0.0
 11
50.0
 21
-2.269227896926564
 31
0.0
  0
LINE
  5
8F5
330
1F
100
AcDbEntity
  8
SK1
  6
CONTINUOUS
370
50
 62
4
100
AcDbLine
 10
48.10200316319637
 20
0.0
 30
0.0
 11
50.0
 21
-1.897996836803626
 31
0.0
  0
LINE
  5
8F6
330
1F
100
AcDbEntity
  8
SK1
  6
CONTINUOUS
370
50
 62
4
100
AcDbLine
 10
48.47323422331931
 20
0.0
 30
0.0
 11
50.0
 21
-1.526765776680689
 31
0.0
  0
LINE
  5
8F7
330
1F
100
AcDbEntity
  8
SK1
  6
CONTINUOUS
370
50
 62
4
100
AcDbLine
 10
48.84446528344225
 20
0.0
 30
0.0
 11
50.0
 21
-1.155534716557752
 31
0.0
  0
LINE
  5
8F8
330
1F
100
AcDbEntity
  8
SK1
  6
CONTINUOUS
370
50
 62
4
100
AcDbLine
 10
49.21569634356518
 20
0.0
 30
0.0
 11
50.0
 21
-0.7843036564348145
 31
0.0
  0
LINE
  5
8F9
330
1F
100
AcDbEntity
  8
SK1
  6
CONTINUOUS
370
50
 62
4
100
AcDbLine
 10
49.58692740368812
 20
0.0
 30
0.0
 11
50.0
 21
-0.4130725963118769
 31
0.0
  0
LINE
  5
8FA
330
1F
100
AcDbEntity
  8
SK1
  6
CONTINUOUS
370
50
 62
4
100
AcDbLine
 10
49.95815846381106
 20
0.0
 30
0.0
 11
50.0
 21
-0.0418415361889393
 31
0.0
  0
LINE
  5
8FB
330
1F
100
AcDbEntity
  8
SK1
  6
CONTINUOUS
370
50
 62
4
100
AcDbLine
 10
50.0
 20
0.3293895239339975
 30
0.0
 11
50.329389523934
 21
0.0
 31
0.0
  0
LINE
  5
8FC
330
1F
100
AcDbEntity
  8
SK1
  6
CONTINUOUS
370
50
 62
4
100
AcDbLine
 10
50.0
 20
0.7006205840569351
 30
0.0
 11
50.70062058405694
 21
0.0
 31
0.0
  0
LINE
  5
8FD
330
1F
100
AcDbEntity
  8
SK1
  6
CONTINUOUS
370
50
 62
4
100
AcDbLine
 10
50.0
 20
1.071851644179873
 30
0.0
 11
51.07185164417987
 21
0.0
 31
0.0
  0
LINE
  5
8FE
330
1F
100
AcDbEntity
  8
SK1
  6
CONTINUOUS
370
50
 62
4
100
AcDbLine
 10
50.0
 20
1.44308270430281
 30
0.0
 11
51.44308270430281
 21
0.0
 31
0.0
  0
LINE
  5
8FF
330
1F
100
AcDbEntity
  8
SK1
  6
CONTINUOUS
370
50
 62
4
100
AcDbLine
 10
50.0
 20
1.814313764425748
 30
0.0
 11
51.81431376442575
 21
0.0
 31
0.0
  0
LINE
  5
900
330
1F
100
AcDbEntity
  8
SK1
  6
CONTINUOUS
370
50
 62
4
100
AcDbLine
 10
50.0
 20
2.185544824548685
 30
0.0
 11
52.18554482454869
 21
0.0
 31
0.0
  0
LINE
  5
901
330
1F
100
AcDbEntity
  8
SK1
  6
CONTINUOUS
370
50
 62
4
100
AcDbLine
 10
50.0
 20
2.556775884671622
 30
0.0
 11
52.55677588467162
 21
0.0
 31
0.0
  0
LINE
  5
902
330
1F
100
AcDbEntity
  8
SK1
  6
CONTINUOUS
370
50
 62
4
100
AcDbLine
 10
50.3231531925751
 20
2.604853752219459
 30
0.0
 11
52.60485375221946
 21
0.3231531925751043
 31
0.0
  0
LINE
  5
903
330
1F
100
AcDbEntity
  8
SK1
  6
CONTINUOUS
370
50
 62
4
100
AcDbLine
 10
50.79925237182748
 20
2.499985633090018
 30
0.0
 11
52.49998563309002
 21
0.7992523718274818
 31
0.0
  0
LINE
  5
904
330
1F
100
AcDbEntity
  8
SK1
  6
CONTINUOUS
370
50
 62
4
100
AcDbLine
 10
51.56015793098176
 20
2.11031113405868
 30
0.0
 11
52.11031113405868
 21
1.560157930981759
 31
0.0
  0
ARC
  5
905
330
1F
100
AcDbEntity
  8
SK6
  6
CONTINUOUS
370
25
 62
5
100
AcDbCircle
 10
107.4613820083765
 20
-27.84524575338786
 30
0.0
 40
2.76048912849221
100
AcDbArc
 50
338.9379403434233
 51
90.44457437511365
  0
LINE
  5
906
330
1F
100
AcDbEntity
  8
SK6
  6
CONTINUOUS
370
25
 62
5
100
AcDbLine
 10
107.4399627969598
 20
-25.08483972421281
 30
0.0
 11
107.4399627969598
 21
-26.18789835613464
 31
0.0
  0
ARC
  5
907
330
1F
100
AcDbEntity
  8
SK6
  6
CONTINUOUS
370
25
 62
5
100
AcDbCircle
 10
107.4505090293692
 20
-27.86523924566821
 30
0.0
 40
1.677374043771779
100
AcDbArc
 50
243.4214706017868
 51
90.36024081226083
  0
ARC
  5
908
330
1F
100
AcDbEntity
  8
SK6
  6
CONTINUOUS
370
25
 62
5
100
AcDbCircle
 10
109.9727598968496
 20
-27.43383199215561
 30
0.0
 40
3.80021703002276
100
AcDbArc
 50
210.5483731288539
 51
236.97801693668
  0
LINE
  5
909
330
1F
100
AcDbEntity
  8
SK6
  6
CONTINUOUS
370
25
 62
5
100
AcDbLine
 10
107.9017906851249
 20
-30.62016781867535
 30
0.0
 11
112.0437309674267
 21
-30.62016781867535
 31
0.0
  0
ARC
  5
90A
330
1F
100
AcDbEntity
  8
SK6
  6
CONTINUOUS
370
25
 62
5
100
AcDbCircle
 10
109.9727618387726
 20
-27.4338320937346
 30
0.0
 40
3.800216899582472
100
AcDbArc
 50
303.0219828477959
 51
326.3732153033476
  0
LINE
  5
90B
330
1F
100
AcDbEntity
  8
SK6
  6
CONTINUOUS
370
25
 62
5
100
AcDbLine
 10
113.1370597513572
 20
-29.5383194907709
 30
0.0
 11
109.7797617057546
 21
-29.5383194907709
 31
0.0
  0
LINE
  5
90C
330
1F
100
AcDbEntity
  8
SK6
  6
CONTINUOUS
370
25
 62
5
100
AcDbLine
 10
109.7797617057546
 20
-29.5383194907709
 30
0.0
 11
113.6996210977199
 21
-28.17691829641694
 31
0.0
  0
ARC
  5
90D
330
1F
100
AcDbEntity
  8
SK6
  6
CONTINUOUS
370
25
 62
5
100
AcDbCircle
 10
109.9727625615721
 20
-27.4338326048594
 30
0.0
 40
3.800217216614723
100
AcDbArc
 50
348.7238644184696
 51
53.4691051260885
  0
LINE
  5
90E
330
1F
100
AcDbEntity
  8
SK6
  6
CONTINUOUS
370
25
 62
5
100
AcDbLine
 10
112.2348652453854
 20
-24.38022124429967
 30
0.0
 11
110.0374504788274
 21
-28.83730973507058
 31
0.0
  0
ENDSEC
  0
SECTION
  2
OBJECTS
  0
DICTIONARY
  5
C
330
0
100
AcDbDictionary
281
     1
  3
ACAD_GROUP
350
D
  3
ACAD_LAYOUT
350
1A
  3
ACAD_MATERIAL
350
3B
  3
ACAD_MLEADERSTYLE
350
911
  3
ACAD_MLINESTYLE
350
17
  3
ACAD_PLOTSETTINGS
350
19
  3
ACAD_PLOTSTYLENAME
350
E
  3
ACAD_SCALELIST
350
245
  3
ACAD_VISUALSTYLE
350
2A
  3
AcDbVariableDictionary
350
90F
  0
DICTIONARY
  5
D
102
{ACAD_REACTORS
330
C
102
}
330
C
100
AcDbDictionary
281
     1
  0
DICTIONARY
  5
1A
102
{ACAD_REACTORS
330
C
102
}
330
C
100
AcDbDictionary
281
     1
  3
Layout1
350
1E
  3
Layout2
350
26
  3
Model
350
22
  0
DICTIONARY
  5
3B
102
{ACAD_REACTORS
330
C
102
}
330
C
100
AcDbDictionary
281
     1
  3
ByBlock
350
3D
  3
ByLayer
350
3C
  3
Global
350
3E
  0
DICTIONARY
  5
911
102
{ACAD_REACTORS
330
C
102
}
330
C
100
AcDbDictionary
281
     1
  0
DICTIONARY
  5
17
102
{ACAD_REACTORS
330
C
102
}
330
C
100
AcDbDictionary
281
     1
  3
Standard
350
18
  0
DICTIONARY
  5
19
102
{ACAD_REACTORS
330
C
102
}
330
C
100
AcDbDictionary
281
     1
  0
ACDBDICTIONARYWDFLT
  5
E
102
{ACAD_REACTORS
330
C
102
}
330
C
100
AcDbDictionary
281
     1
  3
Normal
350
F
100
AcDbDictionaryWithDefault
340
F
  0
DICTIONARY
  5
245
102
{ACAD_REACTORS
330
C
102
}
330
C
100
AcDbDictionary
281
     1
  3
A0
350
246
  3
A1
350
247
  3
A2
350
248
  3
A3
350
249
  3
A4
350
24A
  3
A5
350
24B
  3
A6
350
24C
  3
A7
350
24D
  3
A8
350
24E
  3
A9
350
24F
  3
B0
350
250
  3
B1
350
251
  3
B2
350
252
  3
B3
350
253
  3
B4
350
254
  3
B5
350
255
  3
B6
350
256
  3
B7
350
257
  3
B8
350
258
  3
B9
350
259
  3
C0
350
25A
  3
C1
350
25B
  3
C2
350
25C
  3
C3
350
25D
  3
C4
350
25E
  3
C5
350
25F
  3
C6
350
260
  3
C7
350
261
  3
C8
350
262
  3
C9
350
263
  3
D0
350
264
  3
D1
350
265
  3
D2
350
266
  0
DICTIONARY
  5
2A
102
{ACAD_REACTORS
330
C
102
}
330
C
100
AcDbDictionary
281
     1
  3
2dWireframe
350
2F
  3
3D Hidden
350
31
  3
3dWireframe
350
30
  3
Basic
350
32
  3
Brighten
350
36
  3
ColorChange
350
3A
  3
Conceptual
350
34
  3
Dim
350
35
  3
Facepattern
350
39
  3
Flat
350
2B
  3
FlatWithEdges
350
2C
  3
Gouraud
350
2D
  3
GouraudWithEdges
350
2E
  3
Linepattern
350
38
  3
Realistic
350
33
  3
Thicken
350
37
  0
DICTIONARY
  5
90F
102
{ACAD_REACTORS
330
C
102
}
330
C
100
AcDbDictionary
281
     1
  3
CANNOSCALE
350
914
  3
DIMASSOC
350
915
  3
HIDETEXT
350
916
  3
PSOLHEIGHT
350
913
  3
PSOLWIDTH
350
912
  0
LAYOUT
  5
1E
102
{ACAD_REACTORS
330
1A
102
}
330
1A
100
AcDbPlotSettings
  1

  2
none_device
  4

  6

 40
0.0
 41
0.0
 42
0.0
 43
0.0
 44
0.0
 45
0.0
 46
0.0
 47
0.0
 48
0.0
 49
0.0
140
0.0
141
0.0
142
1.0
143
1.0
 70
   688
 72
     0
 73
     0
 74
     5
  7

 75
    16
147
1.0
148
0.0
149
0.0
100
AcDbLayout
  1
Layout1
 70
     1
 71
     1
 10
0.0
 20
0.0
 11
420.0
 21
297.0
 12
0.0
 22
0.0
 32
0.0
 14
1.000000000000000E+20
 24
1.000000000000000E+20
 34
1.000000000000000E+20
 15
-1.000000000000000E+20
 25
-1.000000000000000E+20
 35
-1.000000000000000E+20
146
0.0
 13
0.0
 23
0.0
 33
0.0
 16
1.0
 26
0.0
 36
0.0
 17
0.0
 27
1.0
 37
0.0
 76
     0
330
1B
  0
LAYOUT
  5
26
102
{ACAD_REACTORS
330
1A
102
}
330
1A
100
AcDbPlotSettings
  1

  2
none_device
  4

  6

 40
0.0
 41
0.0
 42
0.0
 43
0.0
 44
0.0
 45
0.0
 46
0.0
 47
0.0
 48
0.0
 49
0.0
140
0.0
141
0.0
142
1.0
143
1.0
 70
   688
 72
     0
 73
     0
 74
     5
  7

 75
    16
147
1.0
148
0.0
149
0.0
100
AcDbLayout
  1
Layout2
 70
     1
 71
     2
 10
0.0
 20
0.0
 11
0.0
 21
0.0
 12
0.0
 22
0.0
 32
0.0
 14
0.0
 24
0.0
 34
0.0
 15
0.0
 25
0.0
 35
0.0
146
0.0
 13
0.0
 23
0.0
 33
0.0
 16
1.0
 26
0.0
 36
0.0
 17
0.0
 27
1.0
 37
0.0
 76
     0
330
23
  0
LAYOUT
  5
22
102
{ACAD_REACTORS
330
1A
102
}
330
1A
100
AcDbPlotSettings
  1

  2
none_device
  4

  6

 40
0.0
 41
0.0
 42
0.0
 43
0.0
 44
0.0
 45
0.0
 46
0.0
 47
0.0
 48
0.0
 49
0.0
140
0.0
141
0.0
142
1.0
143
1.0
 70
  1712
 72
     0
 73
     0
 74
     0
  7

 75
     0
147
1.0
148
0.0
149
0.0
100
AcDbLayout
  1
Model
 70
     1
 71
     0
 10
0.0
 20
0.0
 11
420.0
 21
297.0
 12
0.0
 22
0.0
 32
0.0
 14
0.0
 24
0.0
 34
0.0
 15
25.0
 25
35.0
 35
0.0
146
0.0
 13
0.0
 23
0.0
 33
0.0
 16
1.0
 26
0.0
 36
0.0
 17
0.0
 27
1.0
 37
0.0
 76
     0
330
1F
331
29
  0
MATERIAL
  5
3D
102
{ACAD_REACTORS
330
3B
102
}
102
{ACAD_XDICTIONARY
360
939
102
}
330
3B
100
AcDbMaterial
  1
ByBlock
  0
MATERIAL
  5
3C
102
{ACAD_REACTORS
330
3B
102
}
102
{ACAD_XDICTIONARY
360
937
102
}
330
3B
100
AcDbMaterial
  1
ByLayer
  0
MATERIAL
  5
3E
102
{ACAD_REACTORS
330
3B
102
}
102
{ACAD_XDICTIONARY
360
93B
102
}
330
3B
100
AcDbMaterial
  1
Global
  0
MLINESTYLE
  5
18
102
{ACAD_REACTORS
330
17
102
}
330
17
100
AcDbMlineStyle
  2
Standard
 70
     0
  3

 62
   256
 51
90.0
 52
90.0
 71
     2
 49
0.5
 62
   256
  6
BYLAYER
 49
-0.5
 62
   256
  6
BYLAYER
  0
ACDBPLACEHOLDER
  5
F
102
{ACAD_REACTORS
330
E
102
}
330
E
  0
SCALE
  5
246
102
{ACAD_REACTORS
330
245
102
}
330
245
100
AcDbScale
 70
     0
300
1:1
140
1.0
141
1.0
290
     1
  0
SCALE
  5
247
102
{ACAD_REACTORS
330
245
102
}
330
245
100
AcDbScale
 70
     0
300
1:2
140
1.0
141
2.0
290
     0
  0
SCALE
  5
248
102
{ACAD_REACTORS
330
245
102
}
330
245
100
AcDbScale
 70
     0
300
1:4
140
1.0
141
4.0
290
     0
  0
SCALE
  5
249
102
{ACAD_REACTORS
330
245
102
}
330
245
100
AcDbScale
 70
     0
300
1:5
140
1.0
141
5.0
290
     0
  0
SCALE
  5
24A
102
{ACAD_REACTORS
330
245
102
}
330
245
100
AcDbScale
 70
     0
300
1:8
140
1.0
141
8.0
290
     0
  0
SCALE
  5
24B
102
{ACAD_REACTORS
330
245
102
}
330
245
100
AcDbScale
 70
     0
300
1:10
140
1.0
141
10.0
290
     0
  0
SCALE
  5
24C
102
{ACAD_REACTORS
330
245
102
}
330
245
100
AcDbScale
 70
     0
300
1:16
140
1.0
141
16.0
290
     0
  0
SCALE
  5
24D
102
{ACAD_REACTORS
330
245
102
}
330
245
100
AcDbScale
 70
     0
300
1:20
140
1.0
141
20.0
290
     0
  0
SCALE
  5
24E
102
{ACAD_REACTORS
330
245
102
}
330
245
100
AcDbScale
 70
     0
300
1:30
140
1.0
141
30.0
290
     0
  0
SCALE
  5
24F
102
{ACAD_REACTORS
330
245
102
}
330
245
100
AcDbScale
 70
     0
300
1:40
140
1.0
141
40.0
290
     0
  0
SCALE
  5
250
102
{ACAD_REACTORS
330
245
102
}
330
245
100
AcDbScale
 70
     0
300
1:50
140
1.0
141
50.0
290
     0
  0
SCALE
  5
251
102
{ACAD_REACTORS
330
245
102
}
330
245
100
AcDbScale
 70
     0
300
1:100
140
1.0
141
100.0
290
     0
  0
SCALE
  5
252
102
{ACAD_REACTORS
330
245
102
}
330
245
100
AcDbScale
 70
     0
300
2:1
140
2.0
141
1.0
290
     0
  0
SCALE
  5
253
102
{ACAD_REACTORS
330
245
102
}
330
245
100
AcDbScale
 70
     0
300
4:1
140
4.0
141
1.0
290
     0
  0
SCALE
  5
254
102
{ACAD_REACTORS
330
245
102
}
330
245
100
AcDbScale
 70
     0
300
8:1
140
8.0
141
1.0
290
     0
  0
SCALE
  5
255
102
{ACAD_REACTORS
330
245
102
}
330
245
100
AcDbScale
 70
     0
300
10:1
140
10.0
141
1.0
290
     0
  0
SCALE
  5
256
102
{ACAD_REACTORS
330
245
102
}
330
245
100
AcDbScale
 70
     0
300
100:1
140
100.0
141
1.0
290
     0
  0
SCALE
  5
257
102
{ACAD_REACTORS
330
245
102
}
330
245
100
AcDbScale
 70
     0
300
1/128" = 1'-0"
140
0.0078125
141
12.0
290
     0
  0
SCALE
  5
258
102
{ACAD_REACTORS
330
245
102
}
330
245
100
AcDbScale
 70
     0
300
1/64" = 1'-0"
140
0.015625
141
12.0
290
     0
  0
SCALE
  5
259
102
{ACAD_REACTORS
330
245
102
}
330
245
100
AcDbScale
 70
     0
300
1/32" = 1'-0"
140
0.03125
141
12.0
290
     0
  0
SCALE
  5
25A
102
{ACAD_REACTORS
330
245
102
}
330
245
100
AcDbScale
 70
     0
300
1/16" = 1'-0"
140
0.0625
141
12.0
290
     0
  0
SCALE
  5
25B
102
{ACAD_REACTORS
330
245
102
}
330
245
100
AcDbScale
 70
     0
300
3/32" = 1'-0"
140
0.09375
141
12.0
290
     0
  0
SCALE
  5
25C
102
{ACAD_REACTORS
330
245
102
}
330
245
100
AcDbScale
 70
     0
300
1/8" = 1'-0"
140
0.125
141
12.0
290
     0
  0
SCALE
  5
25D
102
{ACAD_REACTORS
330
245
102
}
330
245
100
AcDbScale
 70
     0
300
3/16" = 1'-0"
140
0.1875
141
12.0
290
     0
  0
SCALE
  5
25E
102
{ACAD_REACTORS
330
245
102
}
330
245
100
AcDbScale
 70
     0
300
1/4" = 1'-0"
140
0.25
141
12.0
290
     0
  0
SCALE
  5
25F
102
{ACAD_REACTORS
330
245
102
}
330
245
100
AcDbScale
 70
     0
300
3/8" = 1'-0"
140
0.375
141
12.0
290
     0
  0
SCALE
  5
260
102
{ACAD_REACTORS
330
245
102
}
330
245
100
AcDbScale
 70
     0
300
1/2" = 1'-0"
140
0.5
141
12.0
290
     0
  0
SCALE
  5
261
102
{ACAD_REACTORS
330
245
102
}
330
245
100
AcDbScale
 70
     0
300
3/4" = 1'-0"
140
0.75
141
12.0
290
     0
  0
SCALE
  5
262
102
{ACAD_REACTORS
330
245
102
}
330
245
100
AcDbScale
 70
     0
300
1" = 1'-0"
140
1.0
141
12.0
290
     0
  0
SCALE
  5
263
102
{ACAD_REACTORS
330
245
102
}
330
245
100
AcDbScale
 70
     0
300
1-1/2" = 1'-0"
140
1.5
141
12.0
290
     0
  0
SCALE
  5
264
102
{ACAD_REACTORS
330
245
102
}
330
245
100
AcDbScale
 70
     0
300
3" = 1'-0"
140
3.0
141
12.0
290
     0
  0
SCALE
  5
265
102
{ACAD_REACTORS
330
245
102
}
330
245
100
AcDbScale
 70
     0
300
6" = 1'-0"
140
6.0
141
12.0
290
     0
  0
SCALE
  5
266
102
{ACAD_REACTORS
330
245
102
}
330
245
100
AcDbScale
 70
     0
300
1'-0" = 1'-0"
140
12.0
141
12.0
290
     0
  0
VISUALSTYLE
  5
2F
102
{ACAD_REACTORS
330
2A
102
}
102
{ACAD_XDICTIONARY
360
91F
102
}
330
2A
100
AcDbVisualStyle
  2
2dWireframe
 70
     4
 71
     0
 72
     2
 73
     0
 90
        0
 40
-0.6
 41
-30.0
 62
     5
 63
     7
 74
     1
 91
        4
 64
     7
 65
   257
 75
     1
175
     1
 42
1.0
 92
        0
 66
   257
 43
1.0
 76
     1
 77
     6
 78
     2
 67
     7
 79
     5
170
     0
171
     0
290
     0
174
     0
 93
        1
 44
0.0
173
     0
291
     0
 45
0.0
1001
ACAD
1000
AcDbSavedByObjectVersion
1070
     0
  0
VISUALSTYLE
  5
31
102
{ACAD_REACTORS
330
2A
102
}
102
{ACAD_XDICTIONARY
360
923
102
}
330
2A
100
AcDbVisualStyle
  2
3D Hidden
 70
     6
 71
     1
 72
     2
 73
     2
 90
        0
 40
-0.6
 41
-30.0
 62
     5
 63
     7
 74
     2
 91
        2
 64
     7
 65
   257
 75
     2
175
     1
 42
40.0
 92
        0
 66
   257
 43
1.0
 76
     1
 77
     6
 78
     2
 67
     7
 79
     3
170
     0
171
     0
290
     0
174
     0
 93
        1
 44
0.0
173
     0
291
     0
 45
0.0
1001
ACAD
1000
AcDbSavedByObjectVersion
1070
     0
  0
VISUALSTYLE
  5
30
102
{ACAD_REACTORS
330
2A
102
}
102
{ACAD_XDICTIONARY
360
921
102
}
330
2A
100
AcDbVisualStyle
  2
3dWireframe
 70
     5
 71
     0
 72
     2
 73
     0
 90
        0
 40
-0.6
 41
-30.0
 62
     5
 63
     7
 74
     1
 91
        4
 64
     7
 65
   257
 75
     1
175
     1
 42
1.0
 92
        0
 66
   257
 43
1.0
 76
     1
 77
     6
 78
     2
 67
     7
 79
     5
170
     0
171
     0
290
     0
174
     0
 93
        1
 44
0.0
173
     0
291
     0
 45
0.0
1001
ACAD
1000
AcDbSavedByObjectVersion
1070
     0
  0
VISUALSTYLE
  5
32
102
{ACAD_REACTORS
330
2A
102
}
102
{ACAD_XDICTIONARY
360
925
102
}
330
2A
100
AcDbVisualStyle
  2
Basic
 70
     7
 71
     1
 72
     0
 73
     1
 90
        0
 40
-0.6
 41
-30.0
 62
     5
 63
     7
 74
     0
 91
        4
 64
     7
 65
   257
 75
     1
175
     1
 42
1.0
 92
        8
 66
     7
 43
1.0
 76
     1
 77
     6
 78
     2
 67
     7
 79
     5
170
     0
171
     0
290
     0
174
     0
 93
        1
 44
0.0
173
     0
291
     1
 45
0.0
1001
ACAD
1000
AcDbSavedByObjectVersion
1070
     0
  0
VISUALSTYLE
  5
36
102
{ACAD_REACTORS
330
2A
102
}
102
{ACAD_XDICTIONARY
360
92D
102
}
330
2A
100
AcDbVisualStyle
  2
Brighten
 70
    12
 71
     2
 72
     2
 73
     0
 90
        0
 40
-0.6
 41
-30.0
 62
     5
 63
     7
 74
     1
 91
        4
 64
     7
 65
   257
 75
     1
175
     1
 42
1.0
 92
        8
 66
     7
 43
1.0
 76
     1
 77
     6
 78
     2
 67
     7
 79
     5
170
     0
171
     0
290
     0
174
     0
 93
        1
 44
50.0
173
     0
291
     1
 45
0.0
1001
ACAD
1000
AcDbSavedByObjectVersion
1070
     0
  0
VISUALSTYLE
  5
3A
102
{ACAD_REACTORS
330
2A
102
}
102
{ACAD_XDICTIONARY
360
935
102
}
330
2A
100
AcDbVisualStyle
  2
ColorChange
 70
    16
 71
     2
 72
     2
 73
     3
 90
        0
 40
-0.6
 41
-30.0
 62
     5
 63
     8
 74
     1
 91
        4
 64
     7
 65
   257
 75
     1
175
     1
 42
1.0
 92
        8
 66
     8
 43
1.0
 76
     1
 77
     6
 78
     2
 67
     7
 79
     5
170
     0
171
     0
290
     0
174
     0
 93
        1
 44
0.0
173
     0
291
     1
 45
0.0
1001
ACAD
1000
AcDbSavedByObjectVersion
1070
     0
  0
VISUALSTYLE
  5
34
102
{ACAD_REACTORS
330
2A
102
}
102
{ACAD_XDICTIONARY
360
929
102
}
330
2A
100
AcDbVisualStyle
  2
Conceptual
 70
     9
 71
     3
 72
     2
 73
     0
 90
        0
 40
-0.6
 41
-30.0
 62
     5
 63
     7
 74
     2
 91
        2
 64
     7
 65
   257
 75
     1
175
     1
 42
40.0
 92
        8
 66
     7
 43
1.0
 76
     1
 77
     6
 78
     2
 67
     7
 79
     3
170
     0
171
     0
290
     0
174
     0
 93
        1
 44
0.0
173
     0
291
     0
 45
0.0
1001
ACAD
1000
AcDbSavedByObjectVersion
1070
     0
  0
VISUALSTYLE
  5
35
102
{ACAD_REACTORS
330
2A
102
}
102
{ACAD_XDICTIONARY
360
92B
102
}
330
2A
100
AcDbVisualStyle
  2
Dim
 70
    11
 71
     2
 72
     2
 73
     0
 90
        0
 40
-0.6
 41
-30.0
 62
     5
 63
     7
 74
     1
 91
        4
 64
     7
 65
   257
 75
     1
175
     1
 42
1.0
 92
        8
 66
     7
 43
1.0
 76
     1
 77
     6
 78
     2
 67
     7
 79
     5
170
     0
171
     0
290
     0
174
     0
 93
        1
 44
-50.0
173
     0
291
     1
 45
0.0
1001
ACAD
1000
AcDbSavedByObjectVersion
1070
     0
  0
VISUALSTYLE
  5
39
102
{ACAD_REACTORS
330
2A
102
}
102
{ACAD_XDICTIONARY
360
933
102
}
330
2A
100
AcDbVisualStyle
  2
Facepattern
 70
    15
 71
     2
 72
     2
 73
     0
 90
        0
 40
-0.6
 41
-30.0
 62
     5
 63
     7
 74
     1
 91
        4
 64
     7
 65
   257
 75
     1
175
     1
 42
1.0
 92
        8
 66
     7
 43
1.0
 76
     1
 77
     6
 78
     2
 67
     7
 79
     5
170
     0
171
     0
290
     0
174
     0
 93
        1
 44
0.0
173
     0
291
     1
 45
0.0
1001
ACAD
1000
AcDbSavedByObjectVersion
1070
     0
  0
VISUALSTYLE
  5
2B
102
{ACAD_REACTORS
330
2A
102
}
102
{ACAD_XDICTIONARY
360
917
102
}
330
2A
100
AcDbVisualStyle
  2
Flat
 70
     0
 71
     2
 72
     1
 73
     1
 90
        2
 40
-0.6
 41
30.0
 62
     5
 63
     7
 74
     0
 91
        4
 64
     7
 65
   257
 75
     1
175
     1
 42
1.0
 92
        8
 66
     7
 43
1.0
 76
     1
 77
     6
 78
     2
 67
     7
 79
     5
170
     0
171
     0
290
     0
174
     0
 93
       13
 44
0.0
173
     0
291
     1
 45
0.0
1001
ACAD
1000
AcDbSavedByObjectVersion
1070
     0
  0
VISUALSTYLE
  5
2C
102
{ACAD_REACTORS
330
2A
102
}
102
{ACAD_XDICTIONARY
360
919
102
}
330
2A
100
AcDbVisualStyle
  2
FlatWithEdges
 70
     1
 71
     2
 72
     1
 73
     1
 90
        2
 40
-0.6
 41
30.0
 62
     5
 63
     7
 74
     1
 91
        4
 64
     7
 65
   257
 75
     1
175
     1
 42
1.0
 92
        0
 66
   257
 43
1.0
 76
     1
 77
     6
 78
     2
 67
     7
 79
     5
170
     0
171
     0
290
     0
174
     0
 93
       13
 44
0.0
173
     0
291
     1
 45
0.0
1001
ACAD
1000
AcDbSavedByObjectVersion
1070
     0
  0
VISUALSTYLE
  5
2D
102
{ACAD_REACTORS
330
2A
102
}
102
{ACAD_XDICTIONARY
360
91B
102
}
330
2A
100
AcDbVisualStyle
  2
Gouraud
 70
     2
 71
     2
 72
     2
 73
     1
 90
        2
 40
-0.6
 41
30.0
 62
     5
 63
     7
 74
     0
 91
        4
 64
     7
 65
   257
 75
     1
175
     1
 42
1.0
 92
        0
 66
     7
 43
1.0
 76
     1
 77
     6
 78
     2
 67
     7
 79
     5
170
     0
171
     0
290
     0
174
     0
 93
       13
 44
0.0
173
     0
291
     1
 45
0.0
1001
ACAD
1000
AcDbSavedByObjectVersion
1070
     0
  0
VISUALSTYLE
  5
2E
102
{ACAD_REACTORS
330
2A
102
}
102
{ACAD_XDICTIONARY
360
91D
102
}
330
2A
100
AcDbVisualStyle
  2
GouraudWithEdges
 70
     3
 71
     2
 72
     2
 73
     1
 90
        2
 40
-0.6
 41
30.0
 62
     5
 63
     7
 74
     1
 91
        4
 64
     7
 65
   257
 75
     1
175
     1
 42
1.0
 92
        0
 66
   257
 43
1.0
 76
     1
 77
     6
 78
     2
 67
     7
 79
     5
170
     0
171
     0
290
     0
174
     0
 93
       13
 44
0.0
173
     0
291
     1
 45
0.0
1001
ACAD
1000
AcDbSavedByObjectVersion
1070
     0
  0
VISUALSTYLE
  5
38
102
{ACAD_REACTORS
330
2A
102
}
102
{ACAD_XDICTIONARY
360
931
102
}
330
2A
100
AcDbVisualStyle
  2
Linepattern
 70
    14
 71
     2
 72
     2
 73
     0
 90
        0
 40
-0.6
 41
-30.0
 62
     5
 63
     7
 74
     1
 91
        4
 64
     7
 65
   257
 75
     7
175
     7
 42
1.0
 92
        8
 66
     7
 43
1.0
 76
     1
 77
     6
 78
     2
 67
     7
 79
     5
170
     0
171
     0
290
     0
174
     0
 93
        1
 44
0.0
173
     0
291
     1
 45
0.0
1001
ACAD
1000
AcDbSavedByObjectVersion
1070
     0
  0
VISUALSTYLE
  5
33
102
{ACAD_REACTORS
330
2A
102
}
102
{ACAD_XDICTIONARY
360
927
102
}
330
2A
100
AcDbVisualStyle
  2
Realistic
 70
     8
 71
     2
 72
     2
 73
     0
 90
        0
 40
-0.6
 41
-30.0
 62
     5
 63
     7
 74
     1
 91
        0
 64
     7
 65
   257
 75
     1
175
     1
 42
1.0
 92
        8
 66
     8
 43
1.0
 76
     1
 77
     6
 78
     2
 67
     7
 79
     5
170
     0
171
     0
290
     0
174
     0
 93
       13
 44
0.0
173
     0
291
     0
 45
0.0
1001
ACAD
1000
AcDbSavedByObjectVersion
1070
     0
  0
VISUALSTYLE
  5
37
102
{ACAD_REACTORS
330
2A
102
}
102
{ACAD_XDICTIONARY
360
92F
102
}
330
2A
100
AcDbVisualStyle
  2
Thicken
 70
    13
 71
     2
 72
     2
 73
     0
 90
        0
 40
-0.6
 41
-30.0
 62
     5
 63
     7
 74
     1
 91
        4
 64
     7
 65
   257
 75
     1
175
     1
 42
1.0
 92
       12
 66
     7
 43
1.0
 76
     1
 77
     6
 78
     2
 67
     7
 79
     5
170
     0
171
     0
290
     0
174
     0
 93
        1
 44
0.0
173
     0
291
     1
 45
0.0
1001
ACAD
1000
AcDbSavedByObjectVersion
1070
     0
  0
DICTIONARYVAR
  5
914
102
{ACAD_REACTORS
330
90F
102
}
330
90F
100
DictionaryVariables
280
     0
  1
1:1
  0
DICTIONARYVAR
  5
915
102
{ACAD_REACTORS
330
90F
102
}
330
90F
100
DictionaryVariables
280
     0
  1
2
  0
DICTIONARYVAR
  5
916
102
{ACAD_REACTORS
330
90F
102
}
330
90F
100
DictionaryVariables
280
     0
  1
1
  0
DICTIONARYVAR
  5
913
102
{ACAD_REACTORS
330
90F
102
}
330
90F
100
DictionaryVariables
280
     0
  1
80.000000
  0
DICTIONARYVAR
  5
912
102
{ACAD_REACTORS
330
90F
102
}
330
90F
100
DictionaryVariables
280
     0
  1
5.000000
  0
DICTIONARY
  5
939
330
3D
100
AcDbDictionary
280
     1
281
     1
  3
ACAD_XREC_ROUNDTRIP
360
93A
  0
DICTIONARY
  5
937
330
3C
100
AcDbDictionary
280
     1
281
     1
  3
ACAD_XREC_ROUNDTRIP
360
938
  0
DICTIONARY
  5
93B
330
3E
100
AcDbDictionary
280
     1
281
     1
  3
ACAD_XREC_ROUNDTRIP
360
93C
  0
DICTIONARY
  5
91F
330
2F
100
AcDbDictionary
280
     1
281
     1
  3
ACAD_XREC_ROUNDTRIP
360
920
  0
DICTIONARY
  5
923
330
31
100
AcDbDictionary
280
     1
281
     1
  3
ACAD_XREC_ROUNDTRIP
360
924
  0
DICTIONARY
  5
921
330
30
100
AcDbDictionary
280
     1
281
     1
  3
ACAD_XREC_ROUNDTRIP
360
922
  0
DICTIONARY
  5
925
330
32
100
AcDbDictionary
280
     1
281
     1
  3
ACAD_XREC_ROUNDTRIP
360
926
  0
DICTIONARY
  5
92D
330
36
100
AcDbDictionary
280
     1
281
     1
  3
ACAD_XREC_ROUNDTRIP
360
92E
  0
DICTIONARY
  5
935
330
3A
100
AcDbDictionary
280
     1
281
     1
  3
ACAD_XREC_ROUNDTRIP
360
936
  0
DICTIONARY
  5
929
330
34
100
AcDbDictionary
280
     1
281
     1
  3
ACAD_XREC_ROUNDTRIP
360
92A
  0
DICTIONARY
  5
92B
330
35
100
AcDbDictionary
280
     1
281
     1
  3
ACAD_XREC_ROUNDTRIP
360
92C
  0
DICTIONARY
  5
933
330
39
100
AcDbDictionary
280
     1
281
     1
  3
ACAD_XREC_ROUNDTRIP
360
934
  0
DICTIONARY
  5
917
330
2B
100
AcDbDictionary
280
     1
281
     1
  3
ACAD_XREC_ROUNDTRIP
360
918
  0
DICTIONARY
  5
919
330
2C
100
AcDbDictionary
280
     1
281
     1
  3
ACAD_XREC_ROUNDTRIP
360
91A
  0
DICTIONARY
  5
91B
330
2D
100
AcDbDictionary
280
     1
281
     1
  3
ACAD_XREC_ROUNDTRIP
360
91C
  0
DICTIONARY
  5
91D
330
2E
100
AcDbDictionary
280
     1
281
     1
  3
ACAD_XREC_ROUNDTRIP
360
91E
  0
DICTIONARY
  5
931
330
38
100
AcDbDictionary
280
     1
281
     1
  3
ACAD_XREC_ROUNDTRIP
360
932
  0
DICTIONARY
  5
927
330
33
100
AcDbDictionary
280
     1
281
     1
  3
ACAD_XREC_ROUNDTRIP
360
928
  0
DICTIONARY
  5
92F
330
37
100
AcDbDictionary
280
     1
281
     1
  3
ACAD_XREC_ROUNDTRIP
360
930
  0
XRECORD
  5
93A
102
{ACAD_REACTORS
330
939
102
}
330
939
100
AcDbXrecord
280
     1
102
MATERIAL
148
0.0
149
0.0
149
0.0
 93
        0
 94
      127
282
     0
 72
     1
 77
     1
171
     1
175
     1
179
     1
273
     0
  0
XRECORD
  5
938
102
{ACAD_REACTORS
330
937
102
}
330
937
100
AcDbXrecord
280
     1
102
MATERIAL
148
0.0
149
0.0
149
0.0
 93
        0
 94
      127
282
     0
 72
     1
 77
     1
171
     1
175
     1
179
     1
273
     0
  0
XRECORD
  5
93C
102
{ACAD_REACTORS
330
93B
102
}
330
93B
100
AcDbXrecord
280
     1
102
MATERIAL
148
0.0
149
0.0
149
0.0
 93
        0
 94
      127
282
     0
 72
     1
 77
     1
171
     1
175
     1
179
     1
273
     0
  0
XRECORD
  5
920
102
{ACAD_REACTORS
330
91F
102
}
330
91F
100
AcDbXrecord
280
     1
102
RTVSPropertyOp0
 70
     1
102
RTVSPropertyOp1
 70
     1
102
RTVSPropertyOp2
 70
     1
102
RTVSPropertyOp3
 70
     1
102
RTVSPropertyOp4
 70
     1
102
RTVSPropertyOp5
 70
     1
102
RTVSPropertyOp6
 70
     1
102
RTVSPropertyOp7
 70
     1
102
RTVSPropertyOp8
 70
     1
102
RTVSPropertyOp9
 70
     1
102
RTVSPropertyOp10
 70
     1
102
RTVSPropertyOp11
 70
     1
102
RTVSPropertyOp12
 70
     1
102
RTVSPropertyOp13
 70
     1
102
RTVSPropertyOp14
 70
     1
102
RTVSPropertyOp15
 70
     1
102
RTVSPropertyOp16
 70
     1
102
RTVSPropertyOp17
 70
     1
102
RTVSPropertyOp18
 70
     1
102
RTVSPropertyOp19
 70
     1
102
RTVSPropertyOp20
 70
     1
102
RTVSPropertyOp21
 70
     1
102
RTVSPropertyOp22
 70
     1
102
RTVSPropertyOp23
 70
     1
102
RTVSPropertyOp24
 70
     1
102
RTVSPropertyOp25
 70
     1
102
RTVSPropertyOp26
 70
     1
102
RTVSPropertyOp27
 70
     1
  0
XRECORD
  5
924
102
{ACAD_REACTORS
330
923
102
}
330
923
100
AcDbXrecord
280
     1
102
RTVSPropertyOp0
 70
     1
102
RTVSPropertyOp1
 70
     1
102
RTVSPropertyOp2
 70
     1
102
RTVSPropertyOp3
 70
     1
102
RTVSPropertyOp4
 70
     1
102
RTVSPropertyOp5
 70
     1
102
RTVSPropertyOp6
 70
     1
102
RTVSPropertyOp7
 70
     1
102
RTVSPropertyOp8
 70
     1
102
RTVSPropertyOp9
 70
     1
102
RTVSPropertyOp10
 70
     1
102
RTVSPropertyOp11
 70
     1
102
RTVSPropertyOp12
 70
     1
102
RTVSPropertyOp13
 70
     1
102
RTVSPropertyOp14
 70
     1
102
RTVSPropertyOp15
 70
     1
102
RTVSPropertyOp16
 70
     1
102
RTVSPropertyOp17
 70
     1
102
RTVSPropertyOp18
 70
     1
102
RTVSPropertyOp19
 70
     1
102
RTVSPropertyOp20
 70
     1
102
RTVSPropertyOp21
 70
     1
102
RTVSPropertyOp22
 70
     1
102
RTVSPropertyOp23
 70
     1
102
RTVSPropertyOp24
 70
     1
102
RTVSPropertyOp25
 70
     1
102
RTVSPropertyOp26
 70
     1
102
RTVSPropertyOp27
 70
     1
  0
XRECORD
  5
922
102
{ACAD_REACTORS
330
921
102
}
330
921
100
AcDbXrecord
280
     1
102
RTVSPropertyOp0
 70
     1
102
RTVSPropertyOp1
 70
     1
102
RTVSPropertyOp2
 70
     1
102
RTVSPropertyOp3
 70
     1
102
RTVSPropertyOp4
 70
     1
102
RTVSPropertyOp5
 70
     1
102
RTVSPropertyOp6
 70
     1
102
RTVSPropertyOp7
 70
     1
102
RTVSPropertyOp8
 70
     1
102
RTVSPropertyOp9
 70
     1
102
RTVSPropertyOp10
 70
     1
102
RTVSPropertyOp11
 70
     1
102
RTVSPropertyOp12
 70
     1
102
RTVSPropertyOp13
 70
     1
102
RTVSPropertyOp14
 70
     1
102
RTVSPropertyOp15
 70
     1
102
RTVSPropertyOp16
 70
     1
102
RTVSPropertyOp17
 70
     1
102
RTVSPropertyOp18
 70
     1
102
RTVSPropertyOp19
 70
     1
102
RTVSPropertyOp20
 70
     1
102
RTVSPropertyOp21
 70
     1
102
RTVSPropertyOp22
 70
     1
102
RTVSPropertyOp23
 70
     1
102
RTVSPropertyOp24
 70
     1
102
RTVSPropertyOp25
 70
     1
102
RTVSPropertyOp26
 70
     1
102
RTVSPropertyOp27
 70
     1
  0
XRECORD
  5
926
102
{ACAD_REACTORS
330
925
102
}
330
925
100
AcDbXrecord
280
     1
102
RTVSPropertyOp0
 70
     1
102
RTVSPropertyOp1
 70
     1
102
RTVSPropertyOp2
 70
     1
102
RTVSPropertyOp3
 70
     1
102
RTVSPropertyOp4
 70
     1
102
RTVSPropertyOp5
 70
     1
102
RTVSPropertyOp6
 70
     1
102
RTVSPropertyOp7
 70
     1
102
RTVSPropertyOp8
 70
     1
102
RTVSPropertyOp9
 70
     1
102
RTVSPropertyOp10
 70
     1
102
RTVSPropertyOp11
 70
     1
102
RTVSPropertyOp12
 70
     1
102
RTVSPropertyOp13
 70
     1
102
RTVSPropertyOp14
 70
     1
102
RTVSPropertyOp15
 70
     1
102
RTVSPropertyOp16
 70
     1
102
RTVSPropertyOp17
 70
     1
102
RTVSPropertyOp18
 70
     1
102
RTVSPropertyOp19
 70
     1
102
RTVSPropertyOp20
 70
     1
102
RTVSPropertyOp21
 70
     1
102
RTVSPropertyOp22
 70
     1
102
RTVSPropertyOp23
 70
     1
102
RTVSPropertyOp24
 70
     1
102
RTVSPropertyOp25
 70
     1
102
RTVSPropertyOp26
 70
     1
102
RTVSPropertyOp27
 70
     1
  0
XRECORD
  5
92E
102
{ACAD_REACTORS
330
92D
102
}
330
92D
100
AcDbXrecord
280
     1
102
RTVSPropertyOp0
 70
     1
102
RTVSPropertyOp1
 70
     1
102
RTVSPropertyOp2
 70
     1
102
RTVSPropertyOp3
 70
     1
102
RTVSPropertyOp4
 70
     1
102
RTVSPropertyOp5
 70
     1
102
RTVSPropertyOp6
 70
     1
102
RTVSPropertyOp7
 70
     1
102
RTVSPropertyOp8
 70
     1
102
RTVSPropertyOp9
 70
     1
102
RTVSPropertyOp10
 70
     1
102
RTVSPropertyOp11
 70
     1
102
RTVSPropertyOp12
 70
     1
102
RTVSPropertyOp13
 70
     1
102
RTVSPropertyOp14
 70
     1
102
RTVSPropertyOp15
 70
     1
102
RTVSPropertyOp16
 70
     1
102
RTVSPropertyOp17
 70
     1
102
RTVSPropertyOp18
 70
     1
102
RTVSPropertyOp19
 70
     1
102
RTVSPropertyOp20
 70
     1
102
RTVSPropertyOp21
 70
     1
102
RTVSPropertyOp22
 70
     1
102
RTVSPropertyOp23
 70
     1
102
RTVSPropertyOp24
 70
     1
102
RTVSPropertyOp25
 70
     1
102
RTVSPropertyOp26
 70
     1
102
RTVSPropertyOp27
 70
     1
  0
XRECORD
  5
936
102
{ACAD_REACTORS
330
935
102
}
330
935
100
AcDbXrecord
280
     1
102
RTVSPropertyOp0
 70
     1
102
RTVSPropertyOp1
 70
     1
102
RTVSPropertyOp2
 70
     1
102
RTVSPropertyOp3
 70
     1
102
RTVSPropertyOp4
 70
     1
102
RTVSPropertyOp5
 70
     1
102
RTVSPropertyOp6
 70
     1
102
RTVSPropertyOp7
 70
     1
102
RTVSPropertyOp8
 70
     1
102
RTVSPropertyOp9
 70
     1
102
RTVSPropertyOp10
 70
     1
102
RTVSPropertyOp11
 70
     1
102
RTVSPropertyOp12
 70
     1
102
RTVSPropertyOp13
 70
     1
102
RTVSPropertyOp14
 70
     1
102
RTVSPropertyOp15
 70
     1
102
RTVSPropertyOp16
 70
     1
102
RTVSPropertyOp17
 70
     1
102
RTVSPropertyOp18
 70
     1
102
RTVSPropertyOp19
 70
     1
102
RTVSPropertyOp20
 70
     1
102
RTVSPropertyOp21
 70
     1
102
RTVSPropertyOp22
 70
     1
102
RTVSPropertyOp23
 70
     1
102
RTVSPropertyOp24
 70
     1
102
RTVSPropertyOp25
 70
     1
102
RTVSPropertyOp26
 70
     1
102
RTVSPropertyOp27
 70
     1
  0
XRECORD
  5
92A
102
{ACAD_REACTORS
330
929
102
}
330
929
100
AcDbXrecord
280
     1
102
RTVSPropertyOp0
 70
     1
102
RTVSPropertyOp1
 70
     1
102
RTVSPropertyOp2
 70
     1
102
RTVSPropertyOp3
 70
     1
102
RTVSPropertyOp4
 70
     1
102
RTVSPropertyOp5
 70
     1
102
RTVSPropertyOp6
 70
     1
102
RTVSPropertyOp7
 70
     1
102
RTVSPropertyOp8
 70
     1
102
RTVSPropertyOp9
 70
     1
102
RTVSPropertyOp10
 70
     1
102
RTVSPropertyOp11
 70
     1
102
RTVSPropertyOp12
 70
     1
102
RTVSPropertyOp13
 70
     1
102
RTVSPropertyOp14
 70
     1
102
RTVSPropertyOp15
 70
     1
102
RTVSPropertyOp16
 70
     1
102
RTVSPropertyOp17
 70
     1
102
RTVSPropertyOp18
 70
     1
102
RTVSPropertyOp19
 70
     1
102
RTVSPropertyOp20
 70
     1
102
RTVSPropertyOp21
 70
     1
102
RTVSPropertyOp22
 70
     1
102
RTVSPropertyOp23
 70
     1
102
RTVSPropertyOp24
 70
     1
102
RTVSPropertyOp25
 70
     1
102
RTVSPropertyOp26
 70
     1
102
RTVSPropertyOp27
 70
     1
  0
XRECORD
  5
92C
102
{ACAD_REACTORS
330
92B
102
}
330
92B
100
AcDbXrecord
280
     1
102
RTVSPropertyOp0
 70
     1
102
RTVSPropertyOp1
 70
     1
102
RTVSPropertyOp2
 70
     1
102
RTVSPropertyOp3
 70
     1
102
RTVSPropertyOp4
 70
     1
102
RTVSPropertyOp5
 70
     1
102
RTVSPropertyOp6
 70
     1
102
RTVSPropertyOp7
 70
     1
102
RTVSPropertyOp8
 70
     1
102
RTVSPropertyOp9
 70
     1
102
RTVSPropertyOp10
 70
     1
102
RTVSPropertyOp11
 70
     1
102
RTVSPropertyOp12
 70
     1
102
RTVSPropertyOp13
 70
     1
102
RTVSPropertyOp14
 70
     1
102
RTVSPropertyOp15
 70
     1
102
RTVSPropertyOp16
 70
     1
102
RTVSPropertyOp17
 70
     1
102
RTVSPropertyOp18
 70
     1
102
RTVSPropertyOp19
 70
     1
102
RTVSPropertyOp20
 70
     1
102
RTVSPropertyOp21
 70
     1
102
RTVSPropertyOp22
 70
     1
102
RTVSPropertyOp23
 70
     1
102
RTVSPropertyOp24
 70
     1
102
RTVSPropertyOp25
 70
     1
102
RTVSPropertyOp26
 70
     1
102
RTVSPropertyOp27
 70
     1
  0
XRECORD
  5
934
102
{ACAD_REACTORS
330
933
102
}
330
933
100
AcDbXrecord
280
     1
102
RTVSPropertyOp0
 70
     1
102
RTVSPropertyOp1
 70
     1
102
RTVSPropertyOp2
 70
     1
102
RTVSPropertyOp3
 70
     1
102
RTVSPropertyOp4
 70
     1
102
RTVSPropertyOp5
 70
     1
102
RTVSPropertyOp6
 70
     1
102
RTVSPropertyOp7
 70
     1
102
RTVSPropertyOp8
 70
     1
102
RTVSPropertyOp9
 70
     1
102
RTVSPropertyOp10
 70
     1
102
RTVSPropertyOp11
 70
     1
102
RTVSPropertyOp12
 70
     1
102
RTVSPropertyOp13
 70
     1
102
RTVSPropertyOp14
 70
     1
102
RTVSPropertyOp15
 70
     1
102
RTVSPropertyOp16
 70
     1
102
RTVSPropertyOp17
 70
     1
102
RTVSPropertyOp18
 70
     1
102
RTVSPropertyOp19
 70
     1
102
RTVSPropertyOp20
 70
     1
102
RTVSPropertyOp21
 70
     1
102
RTVSPropertyOp22
 70
     1
102
RTVSPropertyOp23
 70
     1
102
RTVSPropertyOp24
 70
     1
102
RTVSPropertyOp25
 70
     1
102
RTVSPropertyOp26
 70
     1
102
RTVSPropertyOp27
 70
     1
  0
XRECORD
  5
918
102
{ACAD_REACTORS
330
917
102
}
330
917
100
AcDbXrecord
280
     1
102
RTVSPropertyOp0
 70
     1
102
RTVSPropertyOp1
 70
     1
102
RTVSPropertyOp2
 70
     1
102
RTVSPropertyOp3
 70
     1
102
RTVSPropertyOp4
 70
     1
102
RTVSPropertyOp5
 70
     1
102
RTVSPropertyOp6
 70
     1
102
RTVSPropertyOp7
 70
     1
102
RTVSPropertyOp8
 70
     1
102
RTVSPropertyOp9
 70
     1
102
RTVSPropertyOp10
 70
     1
102
RTVSPropertyOp11
 70
     1
102
RTVSPropertyOp12
 70
     1
102
RTVSPropertyOp13
 70
     1
102
RTVSPropertyOp14
 70
     1
102
RTVSPropertyOp15
 70
     1
102
RTVSPropertyOp16
 70
     1
102
RTVSPropertyOp17
 70
     1
102
RTVSPropertyOp18
 70
     1
102
RTVSPropertyOp19
 70
     1
102
RTVSPropertyOp20
 70
     1
102
RTVSPropertyOp21
 70
     1
102
RTVSPropertyOp22
 70
     1
102
RTVSPropertyOp23
 70
     1
102
RTVSPropertyOp24
 70
     1
102
RTVSPropertyOp25
 70
     1
102
RTVSPropertyOp26
 70
     1
102
RTVSPropertyOp27
 70
     1
  0
XRECORD
  5
91A
102
{ACAD_REACTORS
330
919
102
}
330
919
100
AcDbXrecord
280
     1
102
RTVSPropertyOp0
 70
     1
102
RTVSPropertyOp1
 70
     1
102
RTVSPropertyOp2
 70
     1
102
RTVSPropertyOp3
 70
     1
102
RTVSPropertyOp4
 70
     1
102
RTVSPropertyOp5
 70
     1
102
RTVSPropertyOp6
 70
     1
102
RTVSPropertyOp7
 70
     1
102
RTVSPropertyOp8
 70
     1
102
RTVSPropertyOp9
 70
     1
102
RTVSPropertyOp10
 70
     1
102
RTVSPropertyOp11
 70
     1
102
RTVSPropertyOp12
 70
     1
102
RTVSPropertyOp13
 70
     1
102
RTVSPropertyOp14
 70
     1
102
RTVSPropertyOp15
 70
     1
102
RTVSPropertyOp16
 70
     1
102
RTVSPropertyOp17
 70
     1
102
RTVSPropertyOp18
 70
     1
102
RTVSPropertyOp19
 70
     1
102
RTVSPropertyOp20
 70
     1
102
RTVSPropertyOp21
 70
     1
102
RTVSPropertyOp22
 70
     1
102
RTVSPropertyOp23
 70
     1
102
RTVSPropertyOp24
 70
     1
102
RTVSPropertyOp25
 70
     1
102
RTVSPropertyOp26
 70
     1
102
RTVSPropertyOp27
 70
     1
  0
XRECORD
  5
91C
102
{ACAD_REACTORS
330
91B
102
}
330
91B
100
AcDbXrecord
280
     1
102
RTVSPropertyOp0
 70
     1
102
RTVSPropertyOp1
 70
     1
102
RTVSPropertyOp2
 70
     1
102
RTVSPropertyOp3
 70
     1
102
RTVSPropertyOp4
 70
     1
102
RTVSPropertyOp5
 70
     1
102
RTVSPropertyOp6
 70
     1
102
RTVSPropertyOp7
 70
     1
102
RTVSPropertyOp8
 70
     1
102
RTVSPropertyOp9
 70
     1
102
RTVSPropertyOp10
 70
     1
102
RTVSPropertyOp11
 70
     1
102
RTVSPropertyOp12
 70
     1
102
RTVSPropertyOp13
 70
     1
102
RTVSPropertyOp14
 70
     1
102
RTVSPropertyOp15
 70
     1
102
RTVSPropertyOp16
 70
     1
102
RTVSPropertyOp17
 70
     1
102
RTVSPropertyOp18
 70
     1
102
RTVSPropertyOp19
 70
     1
102
RTVSPropertyOp20
 70
     1
102
RTVSPropertyOp21
 70
     1
102
RTVSPropertyOp22
 70
     1
102
RTVSPropertyOp23
 70
     1
102
RTVSPropertyOp24
 70
     1
102
RTVSPropertyOp25
 70
     1
102
RTVSPropertyOp26
 70
     1
102
RTVSPropertyOp27
 70
     1
  0
XRECORD
  5
91E
102
{ACAD_REACTORS
330
91D
102
}
330
91D
100
AcDbXrecord
280
     1
102
RTVSPropertyOp0
 70
     1
102
RTVSPropertyOp1
 70
     1
102
RTVSPropertyOp2
 70
     1
102
RTVSPropertyOp3
 70
     1
102
RTVSPropertyOp4
 70
     1
102
RTVSPropertyOp5
 70
     1
102
RTVSPropertyOp6
 70
     1
102
RTVSPropertyOp7
 70
     1
102
RTVSPropertyOp8
 70
     1
102
RTVSPropertyOp9
 70
     1
102
RTVSPropertyOp10
 70
     1
102
RTVSPropertyOp11
 70
     1
102
RTVSPropertyOp12
 70
     1
102
RTVSPropertyOp13
 70
     1
102
RTVSPropertyOp14
 70
     1
102
RTVSPropertyOp15
 70
     1
102
RTVSPropertyOp16
 70
     1
102
RTVSPropertyOp17
 70
     1
102
RTVSPropertyOp18
 70
     1
102
RTVSPropertyOp19
 70
     1
102
RTVSPropertyOp20
 70
     1
102
RTVSPropertyOp21
 70
     1
102
RTVSPropertyOp22
 70
     1
102
RTVSPropertyOp23
 70
     1
102
RTVSPropertyOp24
 70
     1
102
RTVSPropertyOp25
 70
     1
102
RTVSPropertyOp26
 70
     1
102
RTVSPropertyOp27
 70
     1
  0
XRECORD
  5
932
102
{ACAD_REACTORS
330
931
102
}
330
931
100
AcDbXrecord
280
     1
102
RTVSPropertyOp0
 70
     1
102
RTVSPropertyOp1
 70
     1
102
RTVSPropertyOp2
 70
     1
102
RTVSPropertyOp3
 70
     1
102
RTVSPropertyOp4
 70
     1
102
RTVSPropertyOp5
 70
     1
102
RTVSPropertyOp6
 70
     1
102
RTVSPropertyOp7
 70
     1
102
RTVSPropertyOp8
 70
     1
102
RTVSPropertyOp9
 70
     1
102
RTVSPropertyOp10
 70
     1
102
RTVSPropertyOp11
 70
     1
102
RTVSPropertyOp12
 70
     1
102
RTVSPropertyOp13
 70
     1
102
RTVSPropertyOp14
 70
     1
102
RTVSPropertyOp15
 70
     1
102
RTVSPropertyOp16
 70
     1
102
RTVSPropertyOp17
 70
     1
102
RTVSPropertyOp18
 70
     1
102
RTVSPropertyOp19
 70
     1
102
RTVSPropertyOp20
 70
     1
102
RTVSPropertyOp21
 70
     1
102
RTVSPropertyOp22
 70
     1
102
RTVSPropertyOp23
 70
     1
102
RTVSPropertyOp24
 70
     1
102
RTVSPropertyOp25
 70
     1
102
RTVSPropertyOp26
 70
     1
102
RTVSPropertyOp27
 70
     1
  0
XRECORD
  5
928
102
{ACAD_REACTORS
330
927
102
}
330
927
100
AcDbXrecord
280
     1
102
RTVSPropertyOp0
 70
     1
102
RTVSPropertyOp1
 70
     1
102
RTVSPropertyOp2
 70
     1
102
RTVSPropertyOp3
 70
     1
102
RTVSPropertyOp4
 70
     1
102
RTVSPropertyOp5
 70
     1
102
RTVSPropertyOp6
 70
     1
102
RTVSPropertyOp7
 70
     1
102
RTVSPropertyOp8
 70
     1
102
RTVSPropertyOp9
 70
     1
102
RTVSPropertyOp10
 70
     1
102
RTVSPropertyOp11
 70
     1
102
RTVSPropertyOp12
 70
     1
102
RTVSPropertyOp13
 70
     1
102
RTVSPropertyOp14
 70
     1
102
RTVSPropertyOp15
 70
     1
102
RTVSPropertyOp16
 70
     1
102
RTVSPropertyOp17
 70
     1
102
RTVSPropertyOp18
 70
     1
102
RTVSPropertyOp19
 70
     1
102
RTVSPropertyOp20
 70
     1
102
RTVSPropertyOp21
 70
     1
102
RTVSPropertyOp22
 70
     1
102
RTVSPropertyOp23
 70
     1
102
RTVSPropertyOp24
 70
     1
102
RTVSPropertyOp25
 70
     1
102
RTVSPropertyOp26
 70
     1
102
RTVSPropertyOp27
 70
     1
  0
XRECORD
  5
930
102
{ACAD_REACTORS
330
92F
102
}
330
92F
100
AcDbXrecord
280
     1
102
RTVSPropertyOp0
 70
     1
102
RTVSPropertyOp1
 70
     1
102
RTVSPropertyOp2
 70
     1
102
RTVSPropertyOp3
 70
     1
102
RTVSPropertyOp4
 70
     1
102
RTVSPropertyOp5
 70
     1
102
RTVSPropertyOp6
 70
     1
102
RTVSPropertyOp7
 70
     1
102
RTVSPropertyOp8
 70
     1
102
RTVSPropertyOp9
 70
     1
102
RTVSPropertyOp10
 70
     1
102
RTVSPropertyOp11
 70
     1
102
RTVSPropertyOp12
 70
     1
102
RTVSPropertyOp13
 70
     1
102
RTVSPropertyOp14
 70
     1
102
RTVSPropertyOp15
 70
     1
102
RTVSPropertyOp16
 70
     1
102
RTVSPropertyOp17
 70
     1
102
RTVSPropertyOp18
 70
     1
102
RTVSPropertyOp19
 70
     1
102
RTVSPropertyOp20
 70
     1
102
RTVSPropertyOp21
 70
     1
102
RTVSPropertyOp22
 70
     1
102
RTVSPropertyOp23
 70
     1
102
RTVSPropertyOp24
 70
     1
102
RTVSPropertyOp25
 70
     1
102
RTVSPropertyOp26
 70
     1
102
RTVSPropertyOp27
 70
     1
  0
ENDSEC
  0
EOF
