  0
SECTION
  2
HEADER
  9
$ACADVER
  1
AC1015
  9
$ACADMAINTVER
 70
     6
  9
$DWGCODEPAGE
  3
ANSI_1252
  9
$INSBASE
 10
0.0
 20
0.0
 30
0.0
  9
$EXTMIN
 10
0.0
 20
0.0
 30
0.0
  9
$EXTMAX
 10
25.0
 20
35.0
 30
0.0
  9
$LIMMIN
 10
0.0
 20
0.0
  9
$LIMMAX
 10
420.0
 20
297.0
  9
$ORTHOMODE
 70
     0
  9
$REGENMODE
 70
     1
  9
$FILLMODE
 70
     1
  9
$QTEXTMODE
 70
     0
  9
$MIRRTEXT
 70
     1
  9
$LTSCALE
 40
4.9
  9
$ATTMODE
 70
     1
  9
$TEXTSIZE
 40
2.5
  9
$TRACEWID
 40
1.0
  9
$TEXTSTYLE
  7
Standard
  9
$CLAYER
  8
0
  9
$CELTYPE
  6
ByLayer
  9
$CECOLOR
 62
   256
  9
$CELTSCALE
 40
1.0
  9
$DISPSILH
 70
     0
  9
$DIMSCALE
 40
1.0
  9
$DIMASZ
 40
2.5
  9
$DIMEXO
 40
0.625
  9
$DIMDLI
 40
3.75
  9
$DIMRND
 40
0.0
  9
$DIMDLE
 40
0.0
  9
$DIMEXE
 40
1.25
  9
$DIMTP
 40
0.0
  9
$DIMTM
 40
0.0
  9
$DIMTXT
 40
2.5
  9
$DIMCEN
 40
2.5
  9
$DIMTSZ
 40
0.0
  9
$DIMTOL
 70
     0
  9
$DIMLIM
 70
     0
  9
$DIMTIH
 70
     0
  9
$DIMTOH
 70
     0
  9
$DIMSE1
 70
     0
  9
$DIMSE2
 70
     0
  9
$DIMTAD
 70
     1
  9
$DIMZIN
 70
     8
  9
$DIMBLK
  1

  9
$DIMASO
 70
     1
  9
$DIMSHO
 70
     1
  9
$DIMPOST
  1

  9
$DIMAPOST
  1

  9
$DIMALT
 70
     0
  9
$DIMALTD
 70
     3
  9
$DIMALTF
 40
0.03937007874016
  9
$DIMLFAC
 40
1.0
  9
$DIMTOFL
 70
     1
  9
$DIMTVP
 40
0.0
  9
$DIMTIX
 70
     0
  9
$DIMSOXD
 70
     0
  9
$DIMSAH
 70
     0
  9
$DIMBLK1
  1

  9
$DIMBLK2
  1

  9
$DIMSTYLE
  2
ISO-25
  9
$DIMCLRD
 70
     0
  9
$DIMCLRE
 70
     0
  9
$DIMCLRT
 70
     0
  9
$DIMTFAC
 40
1.0
  9
$DIMGAP
 40
0.625
  9
$DIMJUST
 70
     0
  9
$DIMSD1
 70
     0
  9
$DIMSD2
 70
     0
  9
$DIMTOLJ
 70
     0
  9
$DIMTZIN
 70
     8
  9
$DIMALTZ
 70
     0
  9
$DIMALTTZ
 70
     0
  9
$DIMUPT
 70
     0
  9
$DIMDEC
 70
     2
  9
$DIMTDEC
 70
     2
  9
$DIMALTU
 70
     2
  9
$DIMALTTD
 70
     3
  9
$DIMTXSTY
  7
Standard
  9
$DIMAUNIT
 70
     0
  9
$DIMADEC
 70
     0
  9
$DIMALTRND
 40
0.0
  9
$DIMAZIN
 70
     0
  9
$DIMDSEP
 70
    44
  9
$DIMATFIT
 70
     3
  9
$DIMFRAC
 70
     0
  9
$DIMLDRBLK
  1

  9
$DIMLUNIT
 70
     2
  9
$DIMLWD
 70
    -2
  9
$DIMLWE
 70
    -2
  9
$DIMTMOVE
 70
     0
  9
$LUNITS
 70
     2
  9
$LUPREC
 70
     4
  9
$SKETCHINC
 40
1.0
  9
$FILLETRAD
 40
10.0
  9
$AUNITS
 70
     0
  9
$AUPREC
 70
     0
  9
$MENU
  1
.
  9
$ELEVATION
 40
0.0
  9
$PELEVATION
 40
0.0
  9
$THICKNESS
 40
0.0
  9
$LIMCHECK
 70
     0
  9
$CHAMFERA
 40
10.0
  9
$CHAMFERB
 40
10.0
  9
$CHAMFERC
 40
20.0
  9
$CHAMFERD
 40
0.0
  9
$SKPOLY
 70
     0
  9
$TDCREATE
 40
2458577.577083333
  9
$TDUCREATE
 40
2458577.49375
  9
$TDUPDATE
 40
2458577.580555555
  9
$TDUUPDATE
 40
2458577.497222222
  9
$TDINDWG
 40
0.0000000116
  9
$TDUSRTIMER
 40
0.0000000116
  9
$USRTIMER
 70
     1
  9
$ANGBASE
 50
0.0
  9
$ANGDIR
 70
     0
  9
$PDMODE
 70
     0
  9
$PDSIZE
 40
0.0
  9
$PLINEWID
 40
0.0
  9
$SPLFRAME
 70
     0
  9
$SPLINETYPE
 70
     6
  9
$SPLINESEGS
 70
     8
  9
$HANDSEED
  5
8EB
  9
$SURFTAB1
 70
     6
  9
$SURFTAB2
 70
     6
  9
$SURFTYPE
 70
     6
  9
$SURFU
 70
     6
  9
$SURFV
 70
     6
  9
$UCSBASE
  2

  9
$UCSNAME
  2

  9
$UCSORG
 10
0.0
 20
0.0
 30
0.0
  9
$UCSXDIR
 10
1.0
 20
0.0
 30
0.0
  9
$UCSYDIR
 10
0.0
 20
1.0
 30
0.0
  9
$UCSORTHOREF
  2

  9
$UCSORTHOVIEW
 70
     0
  9
$UCSORGTOP
 10
0.0
 20
0.0
 30
0.0
  9
$UCSORGBOTTOM
 10
0.0
 20
0.0
 30
0.0
  9
$UCSORGLEFT
 10
0.0
 20
0.0
 30
0.0
  9
$UCSORGRIGHT
 10
0.0
 20
0.0
 30
0.0
  9
$UCSORGFRONT
 10
0.0
 20
0.0
 30
0.0
  9
$UCSORGBACK
 10
0.0
 20
0.0
 30
0.0
  9
$PUCSBASE
  2

  9
$PUCSNAME
  2

  9
$PUCSORG
 10
0.0
 20
0.0
 30
0.0
  9
$PUCSXDIR
 10
1.0
 20
0.0
 30
0.0
  9
$PUCSYDIR
 10
0.0
 20
1.0
 30
0.0
  9
$PUCSORTHOREF
  2

  9
$PUCSORTHOVIEW
 70
     0
  9
$PUCSORGTOP
 10
0.0
 20
0.0
 30
0.0
  9
$PUCSORGBOTTOM
 10
0.0
 20
0.0
 30
0.0
  9
$PUCSORGLEFT
 10
0.0
 20
0.0
 30
0.0
  9
$PUCSORGRIGHT
 10
0.0
 20
0.0
 30
0.0
  9
$PUCSORGFRONT
 10
0.0
 20
0.0
 30
0.0
  9
$PUCSORGBACK
 10
0.0
 20
0.0
 30
0.0
  9
$USERI1
 70
     0
  9
$USERI2
 70
     0
  9
$USERI3
 70
     0
  9
$USERI4
 70
     0
  9
$USERI5
 70
     0
  9
$USERR1
 40
0.0
  9
$USERR2
 40
0.0
  9
$USERR3
 40
0.0
  9
$USERR4
 40
0.0
  9
$USERR5
 40
0.0
  9
$WORLDVIEW
 70
     1
  9
$SHADEDGE
 70
     3
  9
$SHADEDIF
 70
    70
  9
$TILEMODE
 70
     1
  9
$MAXACTVP
 70
    64
  9
$PINSBASE
 10
0.0
 20
0.0
 30
0.0
  9
$PLIMCHECK
 70
     0
  9
$PEXTMIN
 10
1.000000000000000E+20
 20
1.000000000000000E+20
 30
1.000000000000000E+20
  9
$PEXTMAX
 10
-1.000000000000000E+20
 20
-1.000000000000000E+20
 30
-1.000000000000000E+20
  9
$PLIMMIN
 10
0.0
 20
0.0
  9
$PLIMMAX
 10
420.0
 20
297.0
  9
$UNITMODE
 70
     0
  9
$VISRETAIN
 70
     1
  9
$PLINEGEN
 70
     0
  9
$PSLTSCALE
 70
     1
  9
$TREEDEPTH
 70
  3020
  9
$CMLSTYLE
  2
Standard
  9
$CMLJUST
 70
     0
  9
$CMLSCALE
 40
20.0
  9
$PROXYGRAPHICS
 70
     1
  9
$MEASUREMENT
 70
     1
  9
$CELWEIGHT
370
    -1
  9
$ENDCAPS
280
     0
  9
$JOINSTYLE
280
     0
  9
$LWDISPLAY
290
     0
  9
$INSUNITS
 70
     4
  9
$HYPERLINKBASE
  1

  9
$STYLESHEET
  1

  9
$XEDIT
290
     1
  9
$CEPSNTYPE
380
     0
  9
$PSTYLEMODE
290
     1
  9
$FINGERPRINTGUID
  2
{FCD9EA5B-98F3-40CF-BC56-CA5BBE4D4D47}
  9
$VERSIONGUID
  2
{FAEB1C32-E019-11D5-929B-00C0DF256EC4}
  9
$EXTNAMES
290
     1
  9
$PSVPSCALE
 40
0.0
  9
$OLESTARTUP
290
     0
  0
ENDSEC
  0
SECTION
  2
CLASSES
  0
CLASS
  1
ACDBDICTIONARYWDFLT
  2
AcDbDictionaryWithDefault
  3
ObjectDBX Classes
 90
        0
280
     0
281
     0
  0
CLASS
  1
VISUALSTYLE
  2
AcDbVisualStyle
  3
ObjectDBX Classes
 90
     4095
280
     0
281
     0
  0
CLASS
  1
MATERIAL
  2
AcDbMaterial
  3
ObjectDBX Classes
 90
     1153
280
     0
281
     0
  0
CLASS
  1
SCALE
  2
AcDbScale
  3
ObjectDBX Classes
 90
     1153
280
     0
281
     0
  0
CLASS
  1
DICTIONARYVAR
  2
AcDbDictionaryVar
  3
ObjectDBX Classes
 90
        0
280
     0
281
     0
  0
CLASS
  1
ACDBPLACEHOLDER
  2
AcDbPlaceHolder
  3
ObjectDBX Classes
 90
        0
280
     0
281
     0
  0
CLASS
  1
LAYOUT
  2
AcDbLayout
  3
ObjectDBX Classes
 90
        0
280
     0
281
     0
  0
ENDSEC
  0
SECTION
  2
TABLES
  0
TABLE
  2
VPORT
  5
8
330
0
100
AcDbSymbolTable
 70
     1
  0
VPORT
  5
29
330
8
100
AcDbSymbolTableRecord
100
AcDbViewportTableRecord
  2
*Active
 70
     0
 10
0.0
 20
0.0
 11
1.0
 21
1.0
 12
11.26
 22
4.5
 13
0.0
 23
0.0
 14
10.0
 24
10.0
 15
10.0
 25
10.0
 16
0.0
 26
0.0
 36
1.0
 17
0.0
 27
0.0
 37
0.0
 40
9.0
 41
2.503333333333333
 42
50.0
 43
0.0
 44
0.0
 50
0.0
 51
0.0
 71
     0
 72
   100
 73
     1
 74
     3
 75
     0
 76
     0
 77
     0
 78
     0
281
     0
 65
     1
110
0.0
120
0.0
130
0.0
111
1.0
121
0.0
131
0.0
112
0.0
122
1.0
132
0.0
 79
     0
146
0.0
  0
ENDTAB
  0
TABLE
  2
LTYPE
  5
5
330
0
100
AcDbSymbolTable
 70
    10
  0
LTYPE
  5
14
330
5
100
AcDbSymbolTableRecord
100
AcDbLinetypeTableRecord
  2
ByBlock
 70
     0
  3

 72
    65
 73
     0
 40
0.0
  0
LTYPE
  5
15
330
5
100
AcDbSymbolTableRecord
100
AcDbLinetypeTableRecord
  2
ByLayer
 70
     0
  3

 72
    65
 73
     0
 40
0.0
  0
LTYPE
  5
16
330
5
100
AcDbSymbolTableRecord
100
AcDbLinetypeTableRecord
  2
Continuous
 70
     0
  3
Solid line
 72
    65
 73
     0
 40
0.0
  0
LTYPE
  5
45
330
5
100
AcDbSymbolTableRecord
100
AcDbLinetypeTableRecord
  2
phl_thick
 70
     0
  3
THICK
 72
    65
 73
     0
 40
0.0
  0
LTYPE
  5
1BD
330
5
100
AcDbSymbolTableRecord
100
AcDbLinetypeTableRecord
  2
ls_CUT
 70
     0
  3
THICK
 72
    65
 73
     0
 40
0.0
  0
LTYPE
  5
1C3
330
5
100
AcDbSymbolTableRecord
100
AcDbLinetypeTableRecord
  2
ls1
 70
     0
  3
THICK
 72
    65
 73
     0
 40
0.0
  0
LTYPE
  5
1CA
330
5
100
AcDbSymbolTableRecord
100
AcDbLinetypeTableRecord
  2
NOCUT
 70
     0
  3
THICK
 72
    65
 73
     0
 40
0.0
  0
LTYPE
  5
1CE
330
5
100
AcDbSymbolTableRecord
100
AcDbLinetypeTableRecord
  2
SK1
 70
     0
  3
THICK
 72
    65
 73
     0
 40
0.0
  0
LTYPE
  5
1D9
330
5
100
AcDbSymbolTableRecord
100
AcDbLinetypeTableRecord
  2
ls_SK2
 70
     0
  3
THIN
 72
    65
 73
     0
 40
0.0
  0
LTYPE
  5
285
330
5
100
AcDbSymbolTableRecord
100
AcDbLinetypeTableRecord
  2
ls_2
 70
     0
  3
THIN
 72
    65
 73
     0
 40
0.0
  0
LTYPE
  5
418
330
5
100
AcDbSymbolTableRecord
100
AcDbLinetypeTableRecord
  2
LONGDASH_DASH
 70
     0
  3
THIN_DASHDOT
 72
    65
 73
     4
 40
0.85
 49
0.4
 74
     0
 49
-0.2
 74
     0
 49
0.05
 74
     0
 49
-0.2
 74
     0
  0
LTYPE
  5
457
330
5
100
AcDbSymbolTableRecord
100
AcDbLinetypeTableRecord
  2
ls_SK1
 70
     0
  3
THICK
 72
    65
 73
     0
 40
0.0
  0
ENDTAB
  0
TABLE
  2
LAYER
  5
2
330
0
100
AcDbSymbolTable
 70
    10
  0
LAYER
  5
10
330
2
100
AcDbSymbolTableRecord
100
AcDbLayerTableRecord
  2
0
 70
     0
 62
     7
  6
Continuous
370
    -3
390
F
  0
LAYER
  5
44
330
2
100
AcDbSymbolTableRecord
100
AcDbLayerTableRecord
  2
1
 70
     0
 62
4
  6
CONTINUOUS
370
50
370
    -3
390
F
  0
LAYER
  5
1BC
330
2
100
AcDbSymbolTableRecord
100
AcDbLayerTableRecord
  2
CUT
 70
     0
 62
1
  6
CONTINUOUS
370
25
370
    -3
390
F
  0
LAYER
  5
1C2
330
2
100
AcDbSymbolTableRecord
100
AcDbLayerTableRecord
  2
NOCUT
 70
     0
 62
7
  6
CONTINUOUS
370
25
370
    -3
390
F
  0
LAYER
  5
1CD
330
2
100
AcDbSymbolTableRecord
100
AcDbLayerTableRecord
  2
SK1
 70
     0
 62
4
  6
CONTINUOUS
370
50
370
    -3
390
F
  0
LAYER
  5
1D8
330
2
100
AcDbSymbolTableRecord
100
AcDbLayerTableRecord
  2
SK2
 70
     0
 62
7
  6
CONTINUOUS
370
25
370
    -3
390
F
  0
LAYER
  5
284
330
2
100
AcDbSymbolTableRecord
100
AcDbLayerTableRecord
  2
2
 70
     0
 62
7
  6
CONTINUOUS
370
25
370
    -3
390
F
  0
LAYER
  5
417
330
2
100
AcDbSymbolTableRecord
100
AcDbLayerTableRecord
  2
4
 70
     0
 62
2
  6
LONGDASH_DASH
370
25
370
    -3
390
F
  0
LAYER
  5
41A
330
2
100
AcDbSymbolTableRecord
100
AcDbLayerTableRecord
  2
SK4
 70
     0
 62
2
  6
LONGDASH_DASH
370
25
370
    -3
390
F
  0
LAYER
  5
490
330
2
100
AcDbSymbolTableRecord
100
AcDbLayerTableRecord
  2
SK6
 70
     0
 62
5
  6
CONTINUOUS
370
25
370
    -3
390
F
  0
ENDTAB
  0
TABLE
  2
STYLE
  5
3
330
0
100
AcDbSymbolTable
 70
     1
  0
STYLE
  5
11
330
3
100
AcDbSymbolTableRecord
100
AcDbTextStyleTableRecord
  2
Standard
 70
     0
 40
0.0
 41
1.0
 50
0.0
 71
     0
 42
2.5
  3
Monospac821 BT
  4

  0
ENDTAB
  0
TABLE
  2
VIEW
  5
6
330
0
100
AcDbSymbolTable
 70
     0
  0
ENDTAB
  0
TABLE
  2
UCS
  5
7
330
0
100
AcDbSymbolTable
 70
     0
  0
ENDTAB
  0
TABLE
  2
APPID
  5
9
330
0
100
AcDbSymbolTable
 70
     2
  0
APPID
  5
12
330
9
100
AcDbSymbolTableRecord
100
AcDbRegAppTableRecord
  2
ACAD
 70
     0
  0
APPID
  5
3F
330
9
100
AcDbSymbolTableRecord
100
AcDbRegAppTableRecord
  2
ccLab
 70
     0
  0
ENDTAB
  0
TABLE
  2
DIMSTYLE
  5
A
330
0
100
AcDbSymbolTable
 70
     1
100
AcDbDimStyleTable
  0
DIMSTYLE
105
27
330
A
100
AcDbSymbolTableRecord
100
AcDbDimStyleTableRecord
  2
ISO-25
 70
     0
 41
2.5
 42
0.625
 43
3.75
 44
1.25
 73
     0
 74
     0
 77
     1
 78
     8
140
2.5
141
2.5
143
0.03937007874016
147
0.625
171
     3
172
     1
271
     2
272
     2
274
     3
278
    44
283
     0
284
     8
340
11
  0
ENDTAB
  0
TABLE
  2
BLOCK_RECORD
  5
1
330
0
100
AcDbSymbolTable
 70
     2
  0
BLOCK_RECORD
  5
1F
330
1
100
AcDbSymbolTableRecord
100
AcDbBlockTableRecord
  2
*Model_Space
340
22
  0
BLOCK_RECORD
  5
1B
330
1
100
AcDbSymbolTableRecord
100
AcDbBlockTableRecord
  2
*Paper_Space
340
1E
  0
BLOCK_RECORD
  5
23
330
1
100
AcDbSymbolTableRecord
100
AcDbBlockTableRecord
  2
*Paper_Space0
340
26
  0
ENDTAB
  0
ENDSEC
  0
SECTION
  2
BLOCKS
  0
BLOCK
  5
20
330
1F
100
AcDbEntity
  8
0
100
AcDbBlockBegin
  2
*Model_Space
 70
     0
 10
0.0
 20
0.0
 30
0.0
  3
*Model_Space
  1

  0
ENDBLK
  5
21
330
1F
100
AcDbEntity
  8
0
100
AcDbBlockEnd
  0
BLOCK
  5
1C
330
1B
100
AcDbEntity
 67
     1
  8
0
100
AcDbBlockBegin
  2
*Paper_Space
 70
     0
 10
0.0
 20
0.0
 30
0.0
  3
*Paper_Space
  1

  0
ENDBLK
  5
1D
330
1B
100
AcDbEntity
 67
     1
  8
0
100
AcDbBlockEnd
  0
BLOCK
  5
24
330
23
100
AcDbEntity
  8
0
100
AcDbBlockBegin
  2
*Paper_Space0
 70
     0
 10
0.0
 20
0.0
 30
0.0
  3
*Paper_Space0
  1

  0
ENDBLK
  5
25
330
23
100
AcDbEntity
  8
0
100
AcDbBlockEnd
  0
ENDSEC
  0
SECTION
  2
ENTITIES
  0
LINE
  5
49A
330
1F
100
AcDbEntity
  8
1
  6
CONTINUOUS
370
50
 62
4
100
AcDbLine
 10
65.616203
 20
-0.531864
 30
0.0
 11
65.616142
 21
-0.47886
 31
0.0
  0
LINE
  5
49B
330
1F
100
AcDbEntity
  8
1
  6
CONTINUOUS
370
50
 62
4
100
AcDbLine
 10
65.616348
 20
-0.5836399999999999
 30
0.0
 11
65.616203
 21
-0.531864
 31
0.0
  0
LINE
  5
49C
330
1F
100
AcDbEntity
  8
1
  6
CONTINUOUS
370
50
 62
4
100
AcDbLine
 10
65.61657
 20
-0.633761
 30
0.0
 11
65.616348
 21
-0.5836399999999999
 31
0.0
  0
LINE
  5
49D
330
1F
100
AcDbEntity
  8
1
  6
CONTINUOUS
370
50
 62
4
100
AcDbLine
 10
65.616875
 20
-0.681798
 30
0.0
 11
65.61657
 21
-0.633761
 31
0.0
  0
LINE
  5
49E
330
1F
100
AcDbEntity
  8
1
  6
CONTINUOUS
370
50
 62
4
100
AcDbLine
 10
65.617249
 20
-0.727325
 30
0.0
 11
65.616875
 21
-0.681798
 31
0.0
  0
LINE
  5
49F
330
1F
100
AcDbEntity
  8
1
  6
CONTINUOUS
370
50
 62
4
100
AcDbLine
 10
65.617706
 20
-0.769914
 30
0.0
 11
65.617249
 21
-0.727325
 31
0.0
  0
LINE
  5
4A0
330
1F
100
AcDbEntity
  8
1
  6
CONTINUOUS
370
50
 62
4
100
AcDbLine
 10
65.618248
 20
-0.809203
 30
0.0
 11
65.617706
 21
-0.769914
 31
0.0
  0
LINE
  5
4A1
330
1F
100
AcDbEntity
  8
1
  6
CONTINUOUS
370
50
 62
4
100
AcDbLine
 10
65.618858
 20
-0.845031
 30
0.0
 11
65.618248
 21
-0.809203
 31
0.0
  0
LINE
  5
4A2
330
1F
100
AcDbEntity
  8
1
  6
CONTINUOUS
370
50
 62
4
100
AcDbLine
 10
65.61953
 20
-0.877277
 30
0.0
 11
65.618858
 21
-0.845031
 31
0.0
  0
LINE
  5
4A3
330
1F
100
AcDbEntity
  8
1
  6
CONTINUOUS
370
50
 62
4
100
AcDbLine
 10
65.620262
 20
-0.9058189999999999
 30
0.0
 11
65.61953
 21
-0.877277
 31
0.0
  0
LINE
  5
4A4
330
1F
100
AcDbEntity
  8
1
  6
CONTINUOUS
370
50
 62
4
100
AcDbLine
 10
65.62104
 20
-0.9305359999999999
 30
0.0
 11
65.620262
 21
-0.9058189999999999
 31
0.0
  0
LINE
  5
4A5
330
1F
100
AcDbEntity
  8
1
  6
CONTINUOUS
370
50
 62
4
100
AcDbLine
 10
65.621872
 20
-0.951305
 30
0.0
 11
65.62104
 21
-0.9305359999999999
 31
0.0
  0
LINE
  5
4A6
330
1F
100
AcDbEntity
  8
1
  6
CONTINUOUS
370
50
 62
4
100
AcDbLine
 10
65.636032
 20
0.886365
 30
0.0
 11
65.635109
 21
0.906843
 31
0.0
  0
LINE
  5
4A7
330
1F
100
AcDbEntity
  8
1
  6
CONTINUOUS
370
50
 62
4
100
AcDbLine
 10
65.635109
 20
0.906843
 30
0.0
 11
65.634186
 21
0.925568
 31
0.0
  0
LINE
  5
4A8
330
1F
100
AcDbEntity
  8
1
  6
CONTINUOUS
370
50
 62
4
100
AcDbLine
 10
65.622749
 20
-0.968262
 30
0.0
 11
65.621872
 21
-0.951305
 31
0.0
  0
LINE
  5
4A9
330
1F
100
AcDbEntity
  8
1
  6
CONTINUOUS
370
50
 62
4
100
AcDbLine
 10
65.634186
 20
0.925568
 30
0.0
 11
65.633247
 21
0.9424359999999999
 31
0.0
  0
LINE
  5
4AA
330
1F
100
AcDbEntity
  8
1
  6
CONTINUOUS
370
50
 62
4
100
AcDbLine
 10
65.633247
 20
0.9424359999999999
 30
0.0
 11
65.63230899999999
 21
0.957341
 31
0.0
  0
LINE
  5
4AB
330
1F
100
AcDbEntity
  8
1
  6
CONTINUOUS
370
50
 62
4
100
AcDbLine
 10
65.623688
 20
-0.9817499999999999
 30
0.0
 11
65.622749
 21
-0.968262
 31
0.0
  0
LINE
  5
4AC
330
1F
100
AcDbEntity
  8
1
  6
CONTINUOUS
370
50
 62
4
100
AcDbLine
 10
65.63230899999999
 20
0.957341
 30
0.0
 11
65.631378
 21
0.9701789999999999
 31
0.0
  0
LINE
  5
4AD
330
1F
100
AcDbEntity
  8
1
  6
CONTINUOUS
370
50
 62
4
100
AcDbLine
 10
65.631378
 20
0.9701789999999999
 30
0.0
 11
65.630447
 21
0.9808439999999999
 31
0.0
  0
LINE
  5
4AE
330
1F
100
AcDbEntity
  8
1
  6
CONTINUOUS
370
50
 62
4
100
AcDbLine
 10
65.624695
 20
-0.991621
 30
0.0
 11
65.623688
 21
-0.9817499999999999
 31
0.0
  0
LINE
  5
4AF
330
1F
100
AcDbEntity
  8
1
  6
CONTINUOUS
370
50
 62
4
100
AcDbLine
 10
65.630447
 20
0.9808439999999999
 30
0.0
 11
65.629524
 21
0.989232
 31
0.0
  0
LINE
  5
4B0
330
1F
100
AcDbEntity
  8
1
  6
CONTINUOUS
370
50
 62
4
100
AcDbLine
 10
65.946861
 20
-0.050934
 30
0.0
 11
65.94577799999999
 21
-0.041757
 31
0.0
  0
LINE
  5
4B1
330
1F
100
AcDbEntity
  8
1
  6
CONTINUOUS
370
50
 62
4
100
AcDbLine
 10
65.673965
 20
-0.301659
 30
0.0
 11
65.671776
 21
-0.286953
 31
0.0
  0
LINE
  5
4B2
330
1F
100
AcDbEntity
  8
1
  6
CONTINUOUS
370
50
 62
4
100
AcDbLine
 10
65.94577799999999
 20
-0.041757
 30
0.0
 11
65.944344
 21
-0.032244
 31
0.0
  0
LINE
  5
4B3
330
1F
100
AcDbEntity
  8
1
  6
CONTINUOUS
370
50
 62
4
100
AcDbLine
 10
65.629524
 20
0.989232
 30
0.0
 11
65.628616
 21
0.9952369999999999
 31
0.0
  0
LINE
  5
4B4
330
1F
100
AcDbEntity
  8
1
  6
CONTINUOUS
370
50
 62
4
100
AcDbLine
 10
65.625755
 20
-0.997714
 30
0.0
 11
65.624695
 21
-0.991621
 31
0.0
  0
LINE
  5
4B5
330
1F
100
AcDbEntity
  8
1
  6
CONTINUOUS
370
50
 62
4
100
AcDbLine
 10
65.944344
 20
-0.032244
 30
0.0
 11
65.942528
 21
-0.022287
 31
0.0
  0
LINE
  5
4B6
330
1F
100
AcDbEntity
  8
1
  6
CONTINUOUS
370
50
 62
4
100
AcDbLine
 10
65.942528
 20
-0.022287
 30
0.0
 11
65.9403
 21
-0.011761
 31
0.0
  0
LINE
  5
4B7
330
1F
100
AcDbEntity
  8
1
  6
CONTINUOUS
370
50
 62
4
100
AcDbLine
 10
65.9403
 20
-0.011761
 30
0.0
 11
65.937592
 21
-0.000519
 31
0.0
  0
LINE
  5
4B8
330
1F
100
AcDbEntity
  8
1
  6
CONTINUOUS
370
50
 62
4
100
AcDbLine
 10
65.628616
 20
0.9952369999999999
 30
0.0
 11
65.627724
 21
0.9987739999999999
 31
0.0
  0
LINE
  5
4B9
330
1F
100
AcDbEntity
  8
1
  6
CONTINUOUS
370
50
 62
4
100
AcDbLine
 10
65.937592
 20
-0.000519
 30
0.0
 11
65.93435699999999
 21
0.011615
 31
0.0
  0
LINE
  5
4BA
330
1F
100
AcDbEntity
  8
1
  6
CONTINUOUS
370
50
 62
4
100
AcDbLine
 10
65.93435699999999
 20
0.011615
 30
0.0
 11
65.930504
 21
0.024857
 31
0.0
  0
LINE
  5
4BB
330
1F
100
AcDbEntity
  8
1
  6
CONTINUOUS
370
50
 62
4
100
AcDbLine
 10
65.933525
 20
0.024807
 30
0.0
 11
65.925545
 21
0.049932
 31
0.0
  0
LINE
  5
4BC
330
1F
100
AcDbEntity
  8
1
  6
CONTINUOUS
370
50
 62
4
100
AcDbLine
 10
65.925545
 20
0.049932
 30
0.0
 11
65.91481
 21
0.080628
 31
0.0
  0
LINE
  5
4BD
330
1F
100
AcDbEntity
  8
1
  6
CONTINUOUS
370
50
 62
4
100
AcDbLine
 10
65.671776
 20
-0.286953
 30
0.0
 11
65.666145
 21
-0.271059
 31
0.0
  0
LINE
  5
4BE
330
1F
100
AcDbEntity
  8
1
  6
CONTINUOUS
370
50
 62
4
100
AcDbLine
 10
66.0
 20
0.0
 30
0.0
 11
65.62771599999999
 21
0.9988429999999999
 31
0.0
  0
LINE
  5
4BF
330
1F
100
AcDbEntity
  8
1
  6
CONTINUOUS
370
50
 62
4
100
AcDbLine
 10
65.91481
 20
0.080628
 30
0.0
 11
65.900108
 21
0.119725
 31
0.0
  0
LINE
  5
4C0
330
1F
100
AcDbEntity
  8
1
  6
CONTINUOUS
370
50
 62
4
100
AcDbLine
 10
65.702209
 20
0.5850759999999999
 30
0.0
 11
65.693016
 21
0.6090679999999999
 31
0.0
  0
LINE
  5
4C1
330
1F
100
AcDbEntity
  8
1
  6
CONTINUOUS
370
50
 62
4
100
AcDbLine
 10
65.693016
 20
0.6090679999999999
 30
0.0
 11
65.683708
 21
0.632695
 31
0.0
  0
LINE
  5
4C2
330
1F
100
AcDbEntity
  8
1
  6
CONTINUOUS
370
50
 62
4
100
AcDbLine
 10
65.900108
 20
0.119725
 30
0.0
 11
65.87928
 21
0.172148
 31
0.0
  0
LINE
  5
4C3
330
1F
100
AcDbEntity
  8
1
  6
CONTINUOUS
370
50
 62
4
100
AcDbLine
 10
65.683708
 20
0.632695
 30
0.0
 11
65.67431599999999
 21
0.655932
 31
0.0
  0
LINE
  5
4C4
330
1F
100
AcDbEntity
  8
1
  6
CONTINUOUS
370
50
 62
4
100
AcDbLine
 10
66.0
 20
0.0
 30
0.0
 11
65.636032
 21
0.886365
 31
0.0
  0
LINE
  5
4C5
330
1F
100
AcDbEntity
  8
1
  6
CONTINUOUS
370
50
 62
4
100
AcDbLine
 10
65.87928
 20
0.172148
 30
0.0
 11
65.848145
 21
0.247345
 31
0.0
  0
LINE
  5
4C6
330
1F
100
AcDbEntity
  8
1
  6
CONTINUOUS
370
50
 62
4
100
AcDbLine
 10
65.627724
 20
0.9987739999999999
 30
0.0
 11
65.627579
 21
0.9991239999999999
 31
0.0
  0
LINE
  5
4C7
330
1F
100
AcDbEntity
  8
1
  6
CONTINUOUS
370
50
 62
4
100
AcDbLine
 10
65.67431599999999
 20
0.655932
 30
0.0
 11
65.664841
 21
0.678748
 31
0.0
  0
LINE
  5
4C8
330
1F
100
AcDbEntity
  8
1
  6
CONTINUOUS
370
50
 62
4
100
AcDbLine
 10
65.664841
 20
0.678748
 30
0.0
 11
65.655304
 21
0.701114
 31
0.0
  0
LINE
  5
4C9
330
1F
100
AcDbEntity
  8
1
  6
CONTINUOUS
370
50
 62
4
100
AcDbLine
 10
65.848145
 20
0.247345
 30
0.0
 11
65.797501
 21
0.366114
 31
0.0
  0
LINE
  5
4CA
330
1F
100
AcDbEntity
  8
1
  6
CONTINUOUS
370
50
 62
4
100
AcDbLine
 10
65.797501
 20
0.366114
 30
0.0
 11
65.702209
 21
0.5850759999999999
 31
0.0
  0
LINE
  5
4CB
330
1F
100
AcDbEntity
  8
1
  6
CONTINUOUS
370
50
 62
4
100
AcDbLine
 10
65.655304
 20
0.701114
 30
0.0
 11
65.645706
 21
0.723003
 31
0.0
  0
LINE
  5
4CC
330
1F
100
AcDbEntity
  8
1
  6
CONTINUOUS
370
50
 62
4
100
AcDbLine
 10
65.645706
 20
0.723003
 30
0.0
 11
65.636032
 21
0.744377
 31
0.0
  0
LINE
  5
4CD
330
1F
100
AcDbEntity
  8
1
  6
CONTINUOUS
370
50
 62
4
100
AcDbLine
 10
65.626854
 20
-1.000001
 30
0.0
 11
65.625755
 21
-0.997714
 31
0.0
  0
LINE
  5
4CE
330
1F
100
AcDbEntity
  8
1
  6
CONTINUOUS
370
50
 62
4
100
AcDbLine
 10
65.666145
 20
-0.271059
 30
0.0
 11
65.657806
 21
-0.254352
 31
0.0
  0
LINE
  5
4CF
330
1F
100
AcDbEntity
  8
1
  6
CONTINUOUS
370
50
 62
4
100
AcDbLine
 10
65.627579
 20
0.9991239999999999
 30
0.0
 11
65.627434
 21
0.9994059999999999
 31
0.0
  0
LINE
  5
4D0
330
1F
100
AcDbEntity
  8
1
  6
CONTINUOUS
370
50
 62
4
100
AcDbLine
 10
65.657806
 20
-0.254352
 30
0.0
 11
65.647369
 21
-0.23712
 31
0.0
  0
LINE
  5
4D1
330
1F
100
AcDbEntity
  8
1
  6
CONTINUOUS
370
50
 62
4
100
AcDbLine
 10
65.627434
 20
0.9994059999999999
 30
0.0
 11
65.62728899999999
 21
0.9996219999999999
 31
0.0
  0
LINE
  5
4D2
330
1F
100
AcDbEntity
  8
1
  6
CONTINUOUS
370
50
 62
4
100
AcDbLine
 10
65.647369
 20
-0.23712
 30
0.0
 11
65.63548999999999
 21
-0.21983
 31
0.0
  0
LINE
  5
4D3
330
1F
100
AcDbEntity
  8
1
  6
CONTINUOUS
370
50
 62
4
100
AcDbLine
 10
65.63548999999999
 20
-0.21983
 30
0.0
 11
65.62249
 21
-0.202504
 31
0.0
  0
LINE
  5
4D4
330
1F
100
AcDbEntity
  8
1
  6
CONTINUOUS
370
50
 62
4
100
AcDbLine
 10
65.62249
 20
-0.202504
 30
0.0
 11
65.60749799999999
 21
-0.183844
 31
0.0
  0
LINE
  5
4D5
330
1F
100
AcDbEntity
  8
1
  6
CONTINUOUS
370
50
 62
4
100
AcDbLine
 10
65.60749799999999
 20
-0.183844
 30
0.0
 11
65.590332
 21
-0.163652
 31
0.0
  0
LINE
  5
4D6
330
1F
100
AcDbEntity
  8
1
  6
CONTINUOUS
370
50
 62
4
100
AcDbLine
 10
65.590332
 20
-0.163652
 30
0.0
 11
65.570877
 21
-0.141841
 31
0.0
  0
LINE
  5
4D7
330
1F
100
AcDbEntity
  8
1
  6
CONTINUOUS
370
50
 62
4
100
AcDbLine
 10
65.570877
 20
-0.141841
 30
0.0
 11
65.549019
 21
-0.118325
 31
0.0
  0
LINE
  5
4D8
330
1F
100
AcDbEntity
  8
1
  6
CONTINUOUS
370
50
 62
4
100
AcDbLine
 10
65.549019
 20
-0.118325
 30
0.0
 11
65.524658
 21
-0.09302
 31
0.0
  0
LINE
  5
4D9
330
1F
100
AcDbEntity
  8
1
  6
CONTINUOUS
370
50
 62
4
100
AcDbLine
 10
65.62728899999999
 20
0.9996219999999999
 30
0.0
 11
65.627144
 21
0.999771
 31
0.0
  0
LINE
  5
4DA
330
1F
100
AcDbEntity
  8
1
  6
CONTINUOUS
370
50
 62
4
100
AcDbLine
 10
65.524658
 20
-0.09302
 30
0.0
 11
65.497681
 21
-0.065839
 31
0.0
  0
LINE
  5
4DB
330
1F
100
AcDbEntity
  8
1
  6
CONTINUOUS
370
50
 62
4
100
AcDbLine
 10
65.497681
 20
-0.065839
 30
0.0
 11
65.467979
 21
-0.036697
 31
0.0
  0
LINE
  5
4DC
330
1F
100
AcDbEntity
  8
1
  6
CONTINUOUS
370
50
 62
4
100
AcDbLine
 10
65.467979
 20
-0.036697
 30
0.0
 11
65.43543199999999
 21
-0.005509
 31
0.0
  0
LINE
  5
4DD
330
1F
100
AcDbEntity
  8
1
  6
CONTINUOUS
370
50
 62
4
100
AcDbLine
 10
65.43543199999999
 20
-0.005509
 30
0.0
 11
65.39994
 21
0.027813
 31
0.0
  0
LINE
  5
4DE
330
1F
100
AcDbEntity
  8
1
  6
CONTINUOUS
370
50
 62
4
100
AcDbLine
 10
65.39994
 20
0.027813
 30
0.0
 11
65.361389
 21
0.063352
 31
0.0
  0
LINE
  5
4DF
330
1F
100
AcDbEntity
  8
1
  6
CONTINUOUS
370
50
 62
4
100
AcDbLine
 10
53.809692
 20
-0.999602
 30
0.0
 11
53.80932199999999
 21
-0.999262
 31
0.0
  0
LINE
  5
4E0
330
1F
100
AcDbEntity
  8
1
  6
CONTINUOUS
370
50
 62
4
100
AcDbLine
 10
65.361389
 20
0.063352
 30
0.0
 11
65.319672
 21
0.101195
 31
0.0
  0
LINE
  5
4E1
330
1F
100
AcDbEntity
  8
1
  6
CONTINUOUS
370
50
 62
4
100
AcDbLine
 10
65.319672
 20
0.101195
 30
0.0
 11
65.274734
 21
0.14138
 31
0.0
  0
LINE
  5
4E2
330
1F
100
AcDbEntity
  8
1
  6
CONTINUOUS
370
50
 62
4
100
AcDbLine
 10
65.274734
 20
0.14138
 30
0.0
 11
65.22715
 21
0.18338
 31
0.0
  0
LINE
  5
4E3
330
1F
100
AcDbEntity
  8
1
  6
CONTINUOUS
370
50
 62
4
100
AcDbLine
 10
65.22715
 20
0.18338
 30
0.0
 11
65.177284
 21
0.226891
 31
0.0
  0
LINE
  5
4E4
330
1F
100
AcDbEntity
  8
1
  6
CONTINUOUS
370
50
 62
4
100
AcDbLine
 10
65.177284
 20
0.226891
 30
0.0
 11
65.125351
 21
0.27174
 31
0.0
  0
LINE
  5
4E5
330
1F
100
AcDbEntity
  8
1
  6
CONTINUOUS
370
50
 62
4
100
AcDbLine
 10
65.125351
 20
0.27174
 30
0.0
 11
65.071556
 21
0.317752
 31
0.0
  0
LINE
  5
4E6
330
1F
100
AcDbEntity
  8
1
  6
CONTINUOUS
370
50
 62
4
100
AcDbLine
 10
57.999565
 20
-0.558603
 30
0.0
 11
57.999424
 21
-0.558515
 31
0.0
  0
LINE
  5
4E7
330
1F
100
AcDbEntity
  8
1
  6
CONTINUOUS
370
50
 62
4
100
AcDbLine
 10
58.0
 20
-0.558869
 30
0.0
 11
57.999855
 21
-0.5587799999999999
 31
0.0
  0
LINE
  5
4E8
330
1F
100
AcDbEntity
  8
1
  6
CONTINUOUS
370
50
 62
4
100
AcDbLine
 10
57.99971
 20
-0.558692
 30
0.0
 11
57.999565
 21
-0.558603
 31
0.0
  0
LINE
  5
4E9
330
1F
100
AcDbEntity
  8
1
  6
CONTINUOUS
370
50
 62
4
100
AcDbLine
 10
57.999424
 20
-0.558515
 30
0.0
 11
57.99927899999999
 21
-0.558426
 31
0.0
  0
LINE
  5
4EA
330
1F
100
AcDbEntity
  8
1
  6
CONTINUOUS
370
50
 62
4
100
AcDbLine
 10
57.999855
 20
-0.5587799999999999
 30
0.0
 11
57.99971
 21
-0.558692
 31
0.0
  0
LINE
  5
4EB
330
1F
100
AcDbEntity
  8
1
  6
CONTINUOUS
370
50
 62
4
100
AcDbLine
 10
57.99927899999999
 20
-0.558426
 30
0.0
 11
57.999134
 21
-0.558338
 31
0.0
  0
LINE
  5
4EC
330
1F
100
AcDbEntity
  8
1
  6
CONTINUOUS
370
50
 62
4
100
AcDbLine
 10
58.0
 20
-1.0005
 30
0.0
 11
57.999134
 21
-1.0
 31
0.0
  0
LINE
  5
4ED
330
1F
100
AcDbEntity
  8
1
  6
CONTINUOUS
370
50
 62
4
100
AcDbLine
 10
65.627144
 20
0.999771
 30
0.0
 11
65.626999
 21
0.999853
 31
0.0
  0
LINE
  5
4EE
330
1F
100
AcDbEntity
  8
1
  6
CONTINUOUS
370
50
 62
4
100
AcDbLine
 10
55.236538
 20
0.485674
 30
0.0
 11
55.197689
 21
0.506958
 31
0.0
  0
LINE
  5
4EF
330
1F
100
AcDbEntity
  8
1
  6
CONTINUOUS
370
50
 62
4
100
AcDbLine
 10
55.275616
 20
0.4643
 30
0.0
 11
55.236538
 21
0.485674
 31
0.0
  0
LINE
  5
4F0
330
1F
100
AcDbEntity
  8
1
  6
CONTINUOUS
370
50
 62
4
100
AcDbLine
 10
55.197689
 20
0.506958
 30
0.0
 11
55.15897
 21
0.528134
 31
0.0
  0
LINE
  5
4F1
330
1F
100
AcDbEntity
  8
1
  6
CONTINUOUS
370
50
 62
4
100
AcDbLine
 10
55.315029
 20
0.442858
 30
0.0
 11
55.275616
 21
0.4643
 31
0.0
  0
LINE
  5
4F2
330
1F
100
AcDbEntity
  8
1
  6
CONTINUOUS
370
50
 62
4
100
AcDbLine
 10
55.15897
 20
0.528134
 30
0.0
 11
55.120281
 21
0.549181
 31
0.0
  0
LINE
  5
4F3
330
1F
100
AcDbEntity
  8
1
  6
CONTINUOUS
370
50
 62
4
100
AcDbLine
 10
55.120281
 20
0.549181
 30
0.0
 11
55.081516
 21
0.570081
 31
0.0
  0
LINE
  5
4F4
330
1F
100
AcDbEntity
  8
1
  6
CONTINUOUS
370
50
 62
4
100
AcDbLine
 10
55.081516
 20
0.570081
 30
0.0
 11
55.042576
 21
0.5908129999999999
 31
0.0
  0
LINE
  5
4F5
330
1F
100
AcDbEntity
  8
1
  6
CONTINUOUS
370
50
 62
4
100
AcDbLine
 10
55.042576
 20
0.5908129999999999
 30
0.0
 11
55.00335699999999
 21
0.611358
 31
0.0
  0
LINE
  5
4F6
330
1F
100
AcDbEntity
  8
1
  6
CONTINUOUS
370
50
 62
4
100
AcDbLine
 10
55.00335699999999
 20
0.611358
 30
0.0
 11
54.96376
 21
0.631695
 31
0.0
  0
LINE
  5
4F7
330
1F
100
AcDbEntity
  8
1
  6
CONTINUOUS
370
50
 62
4
100
AcDbLine
 10
54.96376
 20
0.631695
 30
0.0
 11
54.923717
 21
0.65179
 31
0.0
  0
LINE
  5
4F8
330
1F
100
AcDbEntity
  8
1
  6
CONTINUOUS
370
50
 62
4
100
AcDbLine
 10
54.923717
 20
0.65179
 30
0.0
 11
54.883587
 21
0.6714209999999999
 31
0.0
  0
LINE
  5
4F9
330
1F
100
AcDbEntity
  8
1
  6
CONTINUOUS
370
50
 62
4
100
AcDbLine
 10
54.883587
 20
0.6714209999999999
 30
0.0
 11
54.84346
 21
0.690527
 31
0.0
  0
LINE
  5
4FA
330
1F
100
AcDbEntity
  8
1
  6
CONTINUOUS
370
50
 62
4
100
AcDbLine
 10
54.84346
 20
0.690527
 30
0.0
 11
54.80328799999999
 21
0.709108
 31
0.0
  0
LINE
  5
4FB
330
1F
100
AcDbEntity
  8
1
  6
CONTINUOUS
370
50
 62
4
100
AcDbLine
 10
54.80328799999999
 20
0.709108
 30
0.0
 11
54.763035
 21
0.727165
 31
0.0
  0
LINE
  5
4FC
330
1F
100
AcDbEntity
  8
1
  6
CONTINUOUS
370
50
 62
4
100
AcDbLine
 10
54.763035
 20
0.727165
 30
0.0
 11
54.72266
 21
0.744699
 31
0.0
  0
LINE
  5
4FD
330
1F
100
AcDbEntity
  8
1
  6
CONTINUOUS
370
50
 62
4
100
AcDbLine
 10
65.946861
 20
-0.050934
 30
0.0
 11
65.071541
 21
0.317744
 31
0.0
  0
LINE
  5
4FE
330
1F
100
AcDbEntity
  8
1
  6
CONTINUOUS
370
50
 62
4
100
AcDbLine
 10
54.72266
 20
0.744699
 30
0.0
 11
54.682137
 21
0.761705
 31
0.0
  0
LINE
  5
4FF
330
1F
100
AcDbEntity
  8
1
  6
CONTINUOUS
370
50
 62
4
100
AcDbLine
 10
54.682137
 20
0.761705
 30
0.0
 11
54.641521
 21
0.778157
 31
0.0
  0
LINE
  5
500
330
1F
100
AcDbEntity
  8
1
  6
CONTINUOUS
370
50
 62
4
100
AcDbLine
 10
54.641521
 20
0.778157
 30
0.0
 11
54.60086099999999
 21
0.794049
 31
0.0
  0
LINE
  5
501
330
1F
100
AcDbEntity
  8
1
  6
CONTINUOUS
370
50
 62
4
100
AcDbLine
 10
59.783493
 20
-0.064249
 30
0.0
 11
59.459553
 21
0.05988
 31
0.0
  0
LINE
  5
502
330
1F
100
AcDbEntity
  8
1
  6
CONTINUOUS
370
50
 62
4
100
AcDbLine
 10
56.47485
 20
-0.00948
 30
0.0
 11
56.450092
 21
0.0
 31
0.0
  0
LINE
  5
503
330
1F
100
AcDbEntity
  8
1
  6
CONTINUOUS
370
50
 62
4
100
AcDbLine
 10
56.524334
 20
-0.028427
 30
0.0
 11
56.499596
 21
-0.018955
 31
0.0
  0
LINE
  5
504
330
1F
100
AcDbEntity
  8
1
  6
CONTINUOUS
370
50
 62
4
100
AcDbLine
 10
56.499596
 20
-0.018955
 30
0.0
 11
56.47485
 21
-0.00948
 31
0.0
  0
LINE
  5
505
330
1F
100
AcDbEntity
  8
1
  6
CONTINUOUS
370
50
 62
4
100
AcDbLine
 10
56.54906099999999
 20
-0.037893
 30
0.0
 11
56.524334
 21
-0.028427
 31
0.0
  0
LINE
  5
506
330
1F
100
AcDbEntity
  8
1
  6
CONTINUOUS
370
50
 62
4
100
AcDbLine
 10
56.57378
 20
-0.047354
 30
0.0
 11
56.54906099999999
 21
-0.037893
 31
0.0
  0
LINE
  5
507
330
1F
100
AcDbEntity
  8
1
  6
CONTINUOUS
370
50
 62
4
100
AcDbLine
 10
56.598499
 20
-0.056809
 30
0.0
 11
56.57378
 21
-0.047354
 31
0.0
  0
LINE
  5
508
330
1F
100
AcDbEntity
  8
1
  6
CONTINUOUS
370
50
 62
4
100
AcDbLine
 10
64.550613
 20
0.04356
 30
0.0
 11
64.283897
 21
0.145325
 31
0.0
  0
LINE
  5
509
330
1F
100
AcDbEntity
  8
1
  6
CONTINUOUS
370
50
 62
4
100
AcDbLine
 10
64.818855
 20
-0.058769
 30
0.0
 11
64.550613
 21
0.04356
 31
0.0
  0
LINE
  5
50A
330
1F
100
AcDbEntity
  8
1
  6
CONTINUOUS
370
50
 62
4
100
AcDbLine
 10
56.450092
 20
0.0
 30
0.0
 11
56.286911
 21
0.062199
 31
0.0
  0
LINE
  5
50B
330
1F
100
AcDbEntity
  8
1
  6
CONTINUOUS
370
50
 62
4
100
AcDbLine
 10
56.831951
 20
-0.145557
 30
0.0
 11
56.598499
 21
-0.056809
 31
0.0
  0
LINE
  5
50C
330
1F
100
AcDbEntity
  8
1
  6
CONTINUOUS
370
50
 62
4
100
AcDbLine
 10
64.939232
 20
-0.104481
 30
0.0
 11
64.818855
 21
-0.058769
 31
0.0
  0
LINE
  5
50D
330
1F
100
AcDbEntity
  8
1
  6
CONTINUOUS
370
50
 62
4
100
AcDbLine
 10
59.459553
 20
0.05988
 30
0.0
 11
59.215954
 21
0.152331
 31
0.0
  0
LINE
  5
50E
330
1F
100
AcDbEntity
  8
1
  6
CONTINUOUS
370
50
 62
4
100
AcDbLine
 10
65.059448
 20
-0.150029
 30
0.0
 11
64.939232
 21
-0.104481
 31
0.0
  0
LINE
  5
50F
330
1F
100
AcDbEntity
  8
1
  6
CONTINUOUS
370
50
 62
4
100
AcDbLine
 10
60.108177
 20
-0.187216
 30
0.0
 11
59.783493
 21
-0.064249
 31
0.0
  0
LINE
  5
510
330
1F
100
AcDbEntity
  8
1
  6
CONTINUOUS
370
50
 62
4
100
AcDbLine
 10
65.179329
 20
-0.195298
 30
0.0
 11
65.059448
 21
-0.150029
 31
0.0
  0
LINE
  5
511
330
1F
100
AcDbEntity
  8
1
  6
CONTINUOUS
370
50
 62
4
100
AcDbLine
 10
56.286911
 20
0.062199
 30
0.0
 11
56.123444
 21
0.123924
 31
0.0
  0
LINE
  5
512
330
1F
100
AcDbEntity
  8
1
  6
CONTINUOUS
370
50
 62
4
100
AcDbLine
 10
54.60086099999999
 20
0.794049
 30
0.0
 11
54.560181
 21
0.809376
 31
0.0
  0
LINE
  5
513
330
1F
100
AcDbEntity
  8
1
  6
CONTINUOUS
370
50
 62
4
100
AcDbLine
 10
57.065151
 20
-0.232997
 30
0.0
 11
56.831951
 21
-0.145557
 31
0.0
  0
LINE
  5
514
330
1F
100
AcDbEntity
  8
1
  6
CONTINUOUS
370
50
 62
4
100
AcDbLine
 10
56.123444
 20
0.123924
 30
0.0
 11
55.960327
 21
0.18507
 31
0.0
  0
LINE
  5
515
330
1F
100
AcDbEntity
  8
1
  6
CONTINUOUS
370
50
 62
4
100
AcDbLine
 10
59.215954
 20
0.152331
 30
0.0
 11
58.972618
 21
0.243528
 31
0.0
  0
LINE
  5
516
330
1F
100
AcDbEntity
  8
1
  6
CONTINUOUS
370
50
 62
4
100
AcDbLine
 10
65.298943
 20
-0.240099
 30
0.0
 11
65.179329
 21
-0.195298
 31
0.0
  0
LINE
  5
517
330
1F
100
AcDbEntity
  8
1
  6
CONTINUOUS
370
50
 62
4
100
AcDbLine
 10
64.283897
 20
0.145325
 30
0.0
 11
64.016747
 21
0.245371
 31
0.0
  0
LINE
  5
518
330
1F
100
AcDbEntity
  8
1
  6
CONTINUOUS
370
50
 62
4
100
AcDbLine
 10
66.0
 20
0.0
 30
0.0
 11
65.933525
 21
0.024807
 31
0.0
  0
LINE
  5
519
330
1F
100
AcDbEntity
  8
1
  6
CONTINUOUS
370
50
 62
4
100
AcDbLine
 10
55.960327
 20
0.18507
 30
0.0
 11
55.798157
 21
0.245548
 31
0.0
  0
LINE
  5
51A
330
1F
100
AcDbEntity
  8
1
  6
CONTINUOUS
370
50
 62
4
100
AcDbLine
 10
55.798157
 20
0.245548
 30
0.0
 11
55.636944
 21
0.305319
 31
0.0
  0
LINE
  5
51B
330
1F
100
AcDbEntity
  8
1
  6
CONTINUOUS
370
50
 62
4
100
AcDbLine
 10
60.436516
 20
-0.308898
 30
0.0
 11
60.108177
 21
-0.187216
 31
0.0
  0
LINE
  5
51C
330
1F
100
AcDbEntity
  8
1
  6
CONTINUOUS
370
50
 62
4
100
AcDbLine
 10
65.41851799999999
 20
-0.284365
 30
0.0
 11
65.298943
 21
-0.240099
 31
0.0
  0
LINE
  5
51D
330
1F
100
AcDbEntity
  8
1
  6
CONTINUOUS
370
50
 62
4
100
AcDbLine
 10
57.29763
 20
-0.318662
 30
0.0
 11
57.065151
 21
-0.232997
 31
0.0
  0
LINE
  5
51E
330
1F
100
AcDbEntity
  8
1
  6
CONTINUOUS
370
50
 62
4
100
AcDbLine
 10
58.972618
 20
0.243528
 30
0.0
 11
58.729736
 21
0.332723
 31
0.0
  0
LINE
  5
51F
330
1F
100
AcDbEntity
  8
1
  6
CONTINUOUS
370
50
 62
4
100
AcDbLine
 10
55.636944
 20
0.305319
 30
0.0
 11
55.476101
 21
0.364235
 31
0.0
  0
LINE
  5
520
330
1F
100
AcDbEntity
  8
1
  6
CONTINUOUS
370
50
 62
4
100
AcDbLine
 10
64.016747
 20
0.245371
 30
0.0
 11
63.750477
 21
0.342543
 31
0.0
  0
LINE
  5
521
330
1F
100
AcDbEntity
  8
1
  6
CONTINUOUS
370
50
 62
4
100
AcDbLine
 10
65.538292
 20
-0.328028
 30
0.0
 11
65.41851799999999
 21
-0.284365
 31
0.0
  0
LINE
  5
522
330
1F
100
AcDbEntity
  8
1
  6
CONTINUOUS
370
50
 62
4
100
AcDbLine
 10
54.560181
 20
0.809376
 30
0.0
 11
54.519524
 21
0.824135
 31
0.0
  0
LINE
  5
523
330
1F
100
AcDbEntity
  8
1
  6
CONTINUOUS
370
50
 62
4
100
AcDbLine
 10
55.476101
 20
0.364235
 30
0.0
 11
55.315029
 21
0.422123
 31
0.0
  0
LINE
  5
524
330
1F
100
AcDbEntity
  8
1
  6
CONTINUOUS
370
50
 62
4
100
AcDbLine
 10
66.0
 20
0.0
 30
0.0
 11
65.930504
 21
0.024857
 31
0.0
  0
LINE
  5
525
330
1F
100
AcDbEntity
  8
1
  6
CONTINUOUS
370
50
 62
4
100
AcDbLine
 10
57.531029
 20
-0.401952
 30
0.0
 11
57.29763
 21
-0.318662
 31
0.0
  0
LINE
  5
526
330
1F
100
AcDbEntity
  8
1
  6
CONTINUOUS
370
50
 62
4
100
AcDbLine
 10
60.765369
 20
-0.425917
 30
0.0
 11
60.436516
 21
-0.308898
 31
0.0
  0
LINE
  5
527
330
1F
100
AcDbEntity
  8
1
  6
CONTINUOUS
370
50
 62
4
100
AcDbLine
 10
58.729736
 20
0.332723
 30
0.0
 11
58.48622899999999
 21
0.418945
 31
0.0
  0
LINE
  5
528
330
1F
100
AcDbEntity
  8
1
  6
CONTINUOUS
370
50
 62
4
100
AcDbLine
 10
63.750477
 20
0.342543
 30
0.0
 11
63.485149
 21
0.436214
 31
0.0
  0
LINE
  5
529
330
1F
100
AcDbEntity
  8
1
  6
CONTINUOUS
370
50
 62
4
100
AcDbLine
 10
54.519524
 20
0.824135
 30
0.0
 11
54.478897
 21
0.838329
 31
0.0
  0
LINE
  5
52A
330
1F
100
AcDbEntity
  8
1
  6
CONTINUOUS
370
50
 62
4
100
AcDbLine
 10
57.76519
 20
-0.482019
 30
0.0
 11
57.531029
 21
-0.401952
 31
0.0
  0
LINE
  5
52B
330
1F
100
AcDbEntity
  8
1
  6
CONTINUOUS
370
50
 62
4
100
AcDbLine
 10
58.48622899999999
 20
0.418945
 30
0.0
 11
58.242825
 21
0.501527
 31
0.0
  0
LINE
  5
52C
330
1F
100
AcDbEntity
  8
1
  6
CONTINUOUS
370
50
 62
4
100
AcDbLine
 10
54.478897
 20
0.838329
 30
0.0
 11
54.438206
 21
0.852004
 31
0.0
  0
LINE
  5
52D
330
1F
100
AcDbEntity
  8
1
  6
CONTINUOUS
370
50
 62
4
100
AcDbLine
 10
63.485149
 20
0.436214
 30
0.0
 11
63.218548
 21
0.525457
 31
0.0
  0
LINE
  5
52E
330
1F
100
AcDbEntity
  8
1
  6
CONTINUOUS
370
50
 62
4
100
AcDbLine
 10
61.094852
 20
-0.536063
 30
0.0
 11
60.765369
 21
-0.425917
 31
0.0
  0
LINE
  5
52F
330
1F
100
AcDbEntity
  8
1
  6
CONTINUOUS
370
50
 62
4
100
AcDbLine
 10
57.999134
 20
-0.558338
 30
0.0
 11
57.76519
 21
-0.482019
 31
0.0
  0
LINE
  5
530
330
1F
100
AcDbEntity
  8
1
  6
CONTINUOUS
370
50
 62
4
100
AcDbLine
 10
54.438206
 20
0.852004
 30
0.0
 11
54.397526
 21
0.865159
 31
0.0
  0
LINE
  5
531
330
1F
100
AcDbEntity
  8
1
  6
CONTINUOUS
370
50
 62
4
100
AcDbLine
 10
58.242825
 20
0.501527
 30
0.0
 11
58.0
 21
0.579873
 31
0.0
  0
LINE
  5
532
330
1F
100
AcDbEntity
  8
1
  6
CONTINUOUS
370
50
 62
4
100
AcDbLine
 10
63.218548
 20
0.525457
 30
0.0
 11
62.952526
 21
0.6090909999999999
 31
0.0
  0
LINE
  5
533
330
1F
100
AcDbEntity
  8
1
  6
CONTINUOUS
370
50
 62
4
100
AcDbLine
 10
54.397526
 20
0.865159
 30
0.0
 11
54.356949
 21
0.877783
 31
0.0
  0
LINE
  5
534
330
1F
100
AcDbEntity
  8
1
  6
CONTINUOUS
370
50
 62
4
100
AcDbLine
 10
61.423073
 20
-0.637786
 30
0.0
 11
61.094852
 21
-0.536063
 31
0.0
  0
LINE
  5
535
330
1F
100
AcDbEntity
  8
1
  6
CONTINUOUS
370
50
 62
4
100
AcDbLine
 10
58.232224
 20
-0.631039
 30
0.0
 11
58.0
 21
-0.559484
 31
0.0
  0
LINE
  5
536
330
1F
100
AcDbEntity
  8
1
  6
CONTINUOUS
370
50
 62
4
100
AcDbLine
 10
54.356949
 20
0.877783
 30
0.0
 11
54.316582
 21
0.889864
 31
0.0
  0
LINE
  5
537
330
1F
100
AcDbEntity
  8
1
  6
CONTINUOUS
370
50
 62
4
100
AcDbLine
 10
57.999134
 20
0.579122
 30
0.0
 11
57.575615
 21
0.7028289999999999
 31
0.0
  0
LINE
  5
538
330
1F
100
AcDbEntity
  8
1
  6
CONTINUOUS
370
50
 62
4
100
AcDbLine
 10
62.952526
 20
0.6090909999999999
 30
0.0
 11
62.687614
 21
0.686434
 31
0.0
  0
LINE
  5
539
330
1F
100
AcDbEntity
  8
1
  6
CONTINUOUS
370
50
 62
4
100
AcDbLine
 10
54.316582
 20
0.889864
 30
0.0
 11
54.276531
 21
0.901389
 31
0.0
  0
LINE
  5
53A
330
1F
100
AcDbEntity
  8
1
  6
CONTINUOUS
370
50
 62
4
100
AcDbLine
 10
58.464962
 20
-0.6974349999999999
 30
0.0
 11
58.232224
 21
-0.631039
 31
0.0
  0
LINE
  5
53B
330
1F
100
AcDbEntity
  8
1
  6
CONTINUOUS
370
50
 62
4
100
AcDbLine
 10
61.75250999999999
 20
-0.729385
 30
0.0
 11
61.423073
 21
-0.637786
 31
0.0
  0
LINE
  5
53C
330
1F
100
AcDbEntity
  8
1
  6
CONTINUOUS
370
50
 62
4
100
AcDbLine
 10
53.0
 20
1.0
 30
0.0
 11
51.200001
 21
1.5
 31
0.0
  0
LINE
  5
53D
330
1F
100
AcDbEntity
  8
1
  6
CONTINUOUS
370
50
 62
4
100
AcDbLine
 10
54.276531
 20
0.901389
 30
0.0
 11
54.236542
 21
0.9124359999999999
 31
0.0
  0
LINE
  5
53E
330
1F
100
AcDbEntity
  8
1
  6
CONTINUOUS
370
50
 62
4
100
AcDbLine
 10
54.236542
 20
0.9124359999999999
 30
0.0
 11
54.196262
 21
0.923117
 31
0.0
  0
LINE
  5
53F
330
1F
100
AcDbEntity
  8
1
  6
CONTINUOUS
370
50
 62
4
100
AcDbLine
 10
62.687614
 20
0.686434
 30
0.0
 11
62.421295
 21
0.756794
 31
0.0
  0
LINE
  5
540
330
1F
100
AcDbEntity
  8
1
  6
CONTINUOUS
370
50
 62
4
100
AcDbLine
 10
58.69733
 20
-0.7583059999999999
 30
0.0
 11
58.464962
 21
-0.6974349999999999
 31
0.0
  0
LINE
  5
541
330
1F
100
AcDbEntity
  8
1
  6
CONTINUOUS
370
50
 62
4
100
AcDbLine
 10
54.196262
 20
0.923117
 30
0.0
 11
54.156036
 21
0.9333629999999999
 31
0.0
  0
LINE
  5
542
330
1F
100
AcDbEntity
  8
1
  6
CONTINUOUS
370
50
 62
4
100
AcDbLine
 10
53.810631
 20
-0.999838
 30
0.0
 11
53.809692
 21
-0.999602
 31
0.0
  0
LINE
  5
543
330
1F
100
AcDbEntity
  8
1
  6
CONTINUOUS
370
50
 62
4
100
AcDbLine
 10
57.575615
 20
0.7028289999999999
 30
0.0
 11
57.15229
 21
0.808422
 31
0.0
  0
LINE
  5
544
330
1F
100
AcDbEntity
  8
1
  6
CONTINUOUS
370
50
 62
4
100
AcDbLine
 10
54.156036
 20
0.9333629999999999
 30
0.0
 11
54.116222
 21
0.943101
 31
0.0
  0
LINE
  5
545
330
1F
100
AcDbEntity
  8
1
  6
CONTINUOUS
370
50
 62
4
100
AcDbLine
 10
62.08114999999999
 20
-0.8095169999999999
 30
0.0
 11
61.75250999999999
 21
-0.729385
 31
0.0
  0
LINE
  5
546
330
1F
100
AcDbEntity
  8
1
  6
CONTINUOUS
370
50
 62
4
100
AcDbLine
 10
65.636032
 20
0.744377
 30
0.0
 11
65.362976
 21
0.809989
 31
0.0
  0
LINE
  5
547
330
1F
100
AcDbEntity
  8
1
  6
CONTINUOUS
370
50
 62
4
100
AcDbLine
 10
58.928551
 20
-0.81314
 30
0.0
 11
58.69733
 21
-0.7583059999999999
 31
0.0
  0
LINE
  5
548
330
1F
100
AcDbEntity
  8
1
  6
CONTINUOUS
370
50
 62
4
100
AcDbLine
 10
62.421295
 20
0.756794
 30
0.0
 11
62.154678
 21
0.819391
 31
0.0
  0
LINE
  5
549
330
1F
100
AcDbEntity
  8
1
  6
CONTINUOUS
370
50
 62
4
100
AcDbLine
 10
54.116222
 20
0.943101
 30
0.0
 11
54.077183
 21
0.95226
 31
0.0
  0
LINE
  5
54A
330
1F
100
AcDbEntity
  8
1
  6
CONTINUOUS
370
50
 62
4
100
AcDbLine
 10
54.077183
 20
0.95226
 30
0.0
 11
54.039276
 21
0.960768
 31
0.0
  0
LINE
  5
54B
330
1F
100
AcDbEntity
  8
1
  6
CONTINUOUS
370
50
 62
4
100
AcDbLine
 10
54.039276
 20
0.960768
 30
0.0
 11
54.002544
 21
0.968619
 31
0.0
  0
LINE
  5
54C
330
1F
100
AcDbEntity
  8
1
  6
CONTINUOUS
370
50
 62
4
100
AcDbLine
 10
65.54641
 20
-0.329736
 30
0.0
 11
65.538292
 21
-0.328028
 31
0.0
  0
LINE
  5
54D
330
1F
100
AcDbEntity
  8
1
  6
CONTINUOUS
370
50
 62
4
100
AcDbLine
 10
59.16032
 20
-0.861584
 30
0.0
 11
58.928551
 21
-0.81314
 31
0.0
  0
LINE
  5
54E
330
1F
100
AcDbEntity
  8
1
  6
CONTINUOUS
370
50
 62
4
100
AcDbLine
 10
65.362976
 20
0.809989
 30
0.0
 11
65.089989
 21
0.866849
 31
0.0
  0
LINE
  5
54F
330
1F
100
AcDbEntity
  8
1
  6
CONTINUOUS
370
50
 62
4
100
AcDbLine
 10
62.41
 20
-0.876819
 30
0.0
 11
62.08114999999999
 21
-0.8095169999999999
 31
0.0
  0
LINE
  5
550
330
1F
100
AcDbEntity
  8
1
  6
CONTINUOUS
370
50
 62
4
100
AcDbLine
 10
62.154678
 20
0.819391
 30
0.0
 11
61.889378
 21
0.8734729999999999
 31
0.0
  0
LINE
  5
551
330
1F
100
AcDbEntity
  8
1
  6
CONTINUOUS
370
50
 62
4
100
AcDbLine
 10
54.002544
 20
0.968619
 30
0.0
 11
53.966503
 21
0.9759239999999999
 31
0.0
  0
LINE
  5
552
330
1F
100
AcDbEntity
  8
1
  6
CONTINUOUS
370
50
 62
4
100
AcDbLine
 10
57.15229
 20
0.808422
 30
0.0
 11
56.727749
 21
0.89289
 31
0.0
  0
LINE
  5
553
330
1F
100
AcDbEntity
  8
1
  6
CONTINUOUS
370
50
 62
4
100
AcDbLine
 10
65.554405
 20
-0.331311
 30
0.0
 11
65.54641
 21
-0.329736
 31
0.0
  0
LINE
  5
554
330
1F
100
AcDbEntity
  8
1
  6
CONTINUOUS
370
50
 62
4
100
AcDbLine
 10
53.966503
 20
0.9759239999999999
 30
0.0
 11
53.931995
 21
0.982544
 31
0.0
  0
LINE
  5
555
330
1F
100
AcDbEntity
  8
1
  6
CONTINUOUS
370
50
 62
4
100
AcDbLine
 10
65.562271
 20
-0.332744
 30
0.0
 11
65.554405
 21
-0.331311
 31
0.0
  0
LINE
  5
556
330
1F
100
AcDbEntity
  8
1
  6
CONTINUOUS
370
50
 62
4
100
AcDbLine
 10
53.931995
 20
0.982544
 30
0.0
 11
53.899944
 21
0.988321
 31
0.0
  0
LINE
  5
557
330
1F
100
AcDbEntity
  8
1
  6
CONTINUOUS
370
50
 62
4
100
AcDbLine
 10
59.393124
 20
-0.9032819999999999
 30
0.0
 11
59.16032
 21
-0.861584
 31
0.0
  0
LINE
  5
558
330
1F
100
AcDbEntity
  8
1
  6
CONTINUOUS
370
50
 62
4
100
AcDbLine
 10
65.089989
 20
0.866849
 30
0.0
 11
64.816238
 21
0.914145
 31
0.0
  0
LINE
  5
559
330
1F
100
AcDbEntity
  8
1
  6
CONTINUOUS
370
50
 62
4
100
AcDbLine
 10
61.889378
 20
0.8734729999999999
 30
0.0
 11
61.62310799999999
 21
0.91852
 31
0.0
  0
LINE
  5
55A
330
1F
100
AcDbEntity
  8
1
  6
CONTINUOUS
370
50
 62
4
100
AcDbLine
 10
53.899944
 20
0.988321
 30
0.0
 11
53.871284
 21
0.9930939999999999
 31
0.0
  0
LINE
  5
55B
330
1F
100
AcDbEntity
  8
1
  6
CONTINUOUS
370
50
 62
4
100
AcDbLine
 10
65.569992
 20
-0.334027
 30
0.0
 11
65.562271
 21
-0.332744
 31
0.0
  0
LINE
  5
55C
330
1F
100
AcDbEntity
  8
1
  6
CONTINUOUS
370
50
 62
4
100
AcDbLine
 10
62.739338
 20
-0.9302729999999999
 30
0.0
 11
62.41
 21
-0.876819
 31
0.0
  0
LINE
  5
55D
330
1F
100
AcDbEntity
  8
1
  6
CONTINUOUS
370
50
 62
4
100
AcDbLine
 10
59.625153
 20
-0.937943
 30
0.0
 11
59.393124
 21
-0.9032819999999999
 31
0.0
  0
LINE
  5
55E
330
1F
100
AcDbEntity
  8
1
  6
CONTINUOUS
370
50
 62
4
100
AcDbLine
 10
65.577553
 20
-0.335153
 30
0.0
 11
65.569992
 21
-0.334027
 31
0.0
  0
LINE
  5
55F
330
1F
100
AcDbEntity
  8
1
  6
CONTINUOUS
370
50
 62
4
100
AcDbLine
 10
53.871284
 20
0.9930939999999999
 30
0.0
 11
53.846951
 21
0.9967039999999999
 31
0.0
  0
LINE
  5
560
330
1F
100
AcDbEntity
  8
1
  6
CONTINUOUS
370
50
 62
4
100
AcDbLine
 10
56.727749
 20
0.89289
 30
0.0
 11
56.303299
 21
0.9538939999999999
 31
0.0
  0
LINE
  5
561
330
1F
100
AcDbEntity
  8
1
  6
CONTINUOUS
370
50
 62
4
100
AcDbLine
 10
64.816238
 20
0.914145
 30
0.0
 11
64.542992
 21
0.9514739999999999
 31
0.0
  0
LINE
  5
562
330
1F
100
AcDbEntity
  8
1
  6
CONTINUOUS
370
50
 62
4
100
AcDbLine
 10
61.62310799999999
 20
0.91852
 30
0.0
 11
61.356342
 21
0.9541339999999999
 31
0.0
  0
LINE
  5
563
330
1F
100
AcDbEntity
  8
1
  6
CONTINUOUS
370
50
 62
4
100
AcDbLine
 10
65.585236
 20
-0.336147
 30
0.0
 11
65.577553
 21
-0.335153
 31
0.0
  0
LINE
  5
564
330
1F
100
AcDbEntity
  8
1
  6
CONTINUOUS
370
50
 62
4
100
AcDbLine
 10
53.846951
 20
0.9967039999999999
 30
0.0
 11
53.82743499999999
 21
0.9990699999999999
 31
0.0
  0
LINE
  5
565
330
1F
100
AcDbEntity
  8
1
  6
CONTINUOUS
370
50
 62
4
100
AcDbLine
 10
63.067783
 20
-0.9690479999999999
 30
0.0
 11
62.739338
 21
-0.9302729999999999
 31
0.0
  0
LINE
  5
566
330
1F
100
AcDbEntity
  8
1
  6
CONTINUOUS
370
50
 62
4
100
AcDbLine
 10
59.857681
 20
-0.9652499999999999
 30
0.0
 11
59.625153
 21
-0.937943
 31
0.0
  0
LINE
  5
567
330
1F
100
AcDbEntity
  8
1
  6
CONTINUOUS
370
50
 62
4
100
AcDbLine
 10
65.626999
 20
0.999853
 30
0.0
 11
65.626854
 21
0.999869
 31
0.0
  0
LINE
  5
568
330
1F
100
AcDbEntity
  8
1
  6
CONTINUOUS
370
50
 62
4
100
AcDbLine
 10
65.59317
 20
-0.336995
 30
0.0
 11
65.585236
 21
-0.336147
 31
0.0
  0
LINE
  5
569
330
1F
100
AcDbEntity
  8
1
  6
CONTINUOUS
370
50
 62
4
100
AcDbLine
 10
64.542992
 20
0.9514739999999999
 30
0.0
 11
64.270325
 21
0.978466
 31
0.0
  0
LINE
  5
56A
330
1F
100
AcDbEntity
  8
1
  6
CONTINUOUS
370
50
 62
4
100
AcDbLine
 10
54.087807
 20
0.956517
 30
0.0
 11
54.033176
 21
0.9618869999999999
 31
0.0
  0
LINE
  5
56B
330
1F
100
AcDbEntity
  8
1
  6
CONTINUOUS
370
50
 62
4
100
AcDbLine
 10
61.356342
 20
0.9541339999999999
 30
0.0
 11
61.090069
 21
0.9799
 31
0.0
  0
LINE
  5
56C
330
1F
100
AcDbEntity
  8
1
  6
CONTINUOUS
370
50
 62
4
100
AcDbLine
 10
53.81213
 20
-0.9999699999999999
 30
0.0
 11
53.810631
 21
-0.999838
 31
0.0
  0
LINE
  5
56D
330
1F
100
AcDbEntity
  8
1
  6
CONTINUOUS
370
50
 62
4
100
AcDbLine
 10
56.303299
 20
0.9538939999999999
 30
0.0
 11
55.87953899999999
 21
0.989821
 31
0.0
  0
LINE
  5
56E
330
1F
100
AcDbEntity
  8
1
  6
CONTINUOUS
370
50
 62
4
100
AcDbLine
 10
60.090923
 20
-0.984888
 30
0.0
 11
59.857681
 21
-0.9652499999999999
 31
0.0
  0
LINE
  5
56F
330
1F
100
AcDbEntity
  8
1
  6
CONTINUOUS
370
50
 62
4
100
AcDbLine
 10
55.053497
 20
-0.976235
 30
0.0
 11
54.963203
 21
-0.9687479999999999
 31
0.0
  0
LINE
  5
570
330
1F
100
AcDbEntity
  8
1
  6
CONTINUOUS
370
50
 62
4
100
AcDbLine
 10
54.147469
 20
0.951691
 30
0.0
 11
54.087807
 21
0.956517
 31
0.0
  0
LINE
  5
571
330
1F
100
AcDbEntity
  8
1
  6
CONTINUOUS
370
50
 62
4
100
AcDbLine
 10
55.142429
 20
-0.9834179999999999
 30
0.0
 11
55.053497
 21
-0.976235
 31
0.0
  0
LINE
  5
572
330
1F
100
AcDbEntity
  8
1
  6
CONTINUOUS
370
50
 62
4
100
AcDbLine
 10
65.60125
 20
-0.337644
 30
0.0
 11
65.59317
 21
-0.336995
 31
0.0
  0
LINE
  5
573
330
1F
100
AcDbEntity
  8
1
  6
CONTINUOUS
370
50
 62
4
100
AcDbLine
 10
54.963203
 20
-0.9687479999999999
 30
0.0
 11
54.87133799999999
 21
-0.9614109999999999
 31
0.0
  0
LINE
  5
574
330
1F
100
AcDbEntity
  8
1
  6
CONTINUOUS
370
50
 62
4
100
AcDbLine
 10
55.230206
 20
-0.9898429999999999
 30
0.0
 11
55.142429
 21
-0.9834179999999999
 31
0.0
  0
LINE
  5
575
330
1F
100
AcDbEntity
  8
1
  6
CONTINUOUS
370
50
 62
4
100
AcDbLine
 10
54.87133799999999
 20
-0.9614109999999999
 30
0.0
 11
54.777775
 21
-0.9546859999999999
 31
0.0
  0
LINE
  5
576
330
1F
100
AcDbEntity
  8
1
  6
CONTINUOUS
370
50
 62
4
100
AcDbLine
 10
63.396904
 20
-0.99246
 30
0.0
 11
63.067783
 21
-0.9690479999999999
 31
0.0
  0
LINE
  5
577
330
1F
100
AcDbEntity
  8
1
  6
CONTINUOUS
370
50
 62
4
100
AcDbLine
 10
53.82743499999999
 20
0.9990699999999999
 30
0.0
 11
53.814163
 21
0.999996
 31
0.0
  0
LINE
  5
578
330
1F
100
AcDbEntity
  8
1
  6
CONTINUOUS
370
50
 62
4
100
AcDbLine
 10
54.211823
 20
0.947618
 30
0.0
 11
54.147469
 21
0.951691
 31
0.0
  0
LINE
  5
579
330
1F
100
AcDbEntity
  8
1
  6
CONTINUOUS
370
50
 62
4
100
AcDbLine
 10
55.317032
 20
-0.995054
 30
0.0
 11
55.230206
 21
-0.9898429999999999
 31
0.0
  0
LINE
  5
57A
330
1F
100
AcDbEntity
  8
1
  6
CONTINUOUS
370
50
 62
4
100
AcDbLine
 10
64.270325
 20
0.978466
 30
0.0
 11
63.99677999999999
 21
0.9947739999999999
 31
0.0
  0
LINE
  5
57B
330
1F
100
AcDbEntity
  8
1
  6
CONTINUOUS
370
50
 62
4
100
AcDbLine
 10
54.777775
 20
-0.9546859999999999
 30
0.0
 11
54.685795
 21
-0.9492659999999999
 31
0.0
  0
LINE
  5
57C
330
1F
100
AcDbEntity
  8
1
  6
CONTINUOUS
370
50
 62
4
100
AcDbLine
 10
61.090069
 20
0.9799
 30
0.0
 11
60.822815
 21
0.995455
 31
0.0
  0
LINE
  5
57D
330
1F
100
AcDbEntity
  8
1
  6
CONTINUOUS
370
50
 62
4
100
AcDbLine
 10
60.324051
 20
-0.996726
 30
0.0
 11
60.090923
 21
-0.984888
 31
0.0
  0
LINE
  5
57E
330
1F
100
AcDbEntity
  8
1
  6
CONTINUOUS
370
50
 62
4
100
AcDbLine
 10
65.609383
 20
-0.338043
 30
0.0
 11
65.60125
 21
-0.337644
 31
0.0
  0
LINE
  5
57F
330
1F
100
AcDbEntity
  8
1
  6
CONTINUOUS
370
50
 62
4
100
AcDbLine
 10
54.280537
 20
0.9445049999999999
 30
0.0
 11
54.211823
 21
0.947618
 31
0.0
  0
LINE
  5
580
330
1F
100
AcDbEntity
  8
1
  6
CONTINUOUS
370
50
 62
4
100
AcDbLine
 10
54.685795
 20
-0.9492659999999999
 30
0.0
 11
54.597328
 21
-0.945365
 31
0.0
  0
LINE
  5
581
330
1F
100
AcDbEntity
  8
1
  6
CONTINUOUS
370
50
 62
4
100
AcDbLine
 10
54.597328
 20
-0.945365
 30
0.0
 11
54.51255
 21
-0.9429599999999999
 31
0.0
  0
LINE
  5
582
330
1F
100
AcDbEntity
  8
1
  6
CONTINUOUS
370
50
 62
4
100
AcDbLine
 10
55.34023999999999
 20
-0.997883
 30
0.0
 11
55.317032
 21
-0.997257
 31
0.0
  0
LINE
  5
583
330
1F
100
AcDbEntity
  8
1
  6
CONTINUOUS
370
50
 62
4
100
AcDbLine
 10
54.35331
 20
0.942565
 30
0.0
 11
54.280537
 21
0.9445049999999999
 31
0.0
  0
LINE
  5
584
330
1F
100
AcDbEntity
  8
1
  6
CONTINUOUS
370
50
 62
4
100
AcDbLine
 10
63.723812
 20
-1.00025
 30
0.0
 11
63.396904
 21
-0.99246
 31
0.0
  0
LINE
  5
585
330
1F
100
AcDbEntity
  8
1
  6
CONTINUOUS
370
50
 62
4
100
AcDbLine
 10
55.87953899999999
 20
0.989821
 30
0.0
 11
55.456303
 21
0.9997969999999999
 31
0.0
  0
LINE
  5
586
330
1F
100
AcDbEntity
  8
1
  6
CONTINUOUS
370
50
 62
4
100
AcDbLine
 10
55.363449
 20
-0.9984289999999999
 30
0.0
 11
55.34023999999999
 21
-0.997883
 31
0.0
  0
LINE
  5
587
330
1F
100
AcDbEntity
  8
1
  6
CONTINUOUS
370
50
 62
4
100
AcDbLine
 10
63.99677999999999
 20
0.9947739999999999
 30
0.0
 11
63.723812
 21
1.00025
 31
0.0
  0
LINE
  5
588
330
1F
100
AcDbEntity
  8
1
  6
CONTINUOUS
370
50
 62
4
100
AcDbLine
 10
55.38666199999999
 20
-0.998892
 30
0.0
 11
55.363449
 21
-0.9984289999999999
 31
0.0
  0
LINE
  5
589
330
1F
100
AcDbEntity
  8
1
  6
CONTINUOUS
370
50
 62
4
100
AcDbLine
 10
60.822815
 20
0.995455
 30
0.0
 11
60.556461
 21
1.000665
 31
0.0
  0
LINE
  5
58A
330
1F
100
AcDbEntity
  8
1
  6
CONTINUOUS
370
50
 62
4
100
AcDbLine
 10
60.556461
 20
-1.000665
 30
0.0
 11
60.324051
 21
-0.996726
 31
0.0
  0
LINE
  5
58B
330
1F
100
AcDbEntity
  8
1
  6
CONTINUOUS
370
50
 62
4
100
AcDbLine
 10
65.933525
 20
0.024807
 30
0.0
 11
65.930504
 21
0.024857
 31
0.0
  0
LINE
  5
58C
330
1F
100
AcDbEntity
  8
1
  6
CONTINUOUS
370
50
 62
4
100
AcDbLine
 10
55.40987399999999
 20
-0.9992749999999999
 30
0.0
 11
55.38666199999999
 21
-0.998892
 31
0.0
  0
LINE
  5
58D
330
1F
100
AcDbEntity
  8
1
  6
CONTINUOUS
370
50
 62
4
100
AcDbLine
 10
55.433086
 20
-0.9995769999999999
 30
0.0
 11
55.40987399999999
 21
-0.9992749999999999
 31
0.0
  0
LINE
  5
58E
330
1F
100
AcDbEntity
  8
1
  6
CONTINUOUS
370
50
 62
4
100
AcDbLine
 10
53.814163
 20
-0.999996
 30
0.0
 11
53.81213
 21
-0.9999699999999999
 31
0.0
  0
LINE
  5
58F
330
1F
100
AcDbEntity
  8
1
  6
CONTINUOUS
370
50
 62
4
100
AcDbLine
 10
65.617462
 20
-0.338138
 30
0.0
 11
65.609383
 21
-0.338043
 31
0.0
  0
LINE
  5
590
330
1F
100
AcDbEntity
  8
1
  6
CONTINUOUS
370
50
 62
4
100
AcDbLine
 10
54.51255
 20
-0.9429599999999999
 30
0.0
 11
54.431644
 21
-0.9420259999999999
 31
0.0
  0
LINE
  5
591
330
1F
100
AcDbEntity
  8
1
  6
CONTINUOUS
370
50
 62
4
100
AcDbLine
 10
55.456303
 20
-0.9997969999999999
 30
0.0
 11
55.433086
 21
-0.9995769999999999
 31
0.0
  0
LINE
  5
592
330
1F
100
AcDbEntity
  8
1
  6
CONTINUOUS
370
50
 62
4
100
AcDbLine
 10
54.430229
 20
0.9420229999999999
 30
0.0
 11
54.35331
 21
0.942565
 31
0.0
  0
LINE
  5
593
330
1F
100
AcDbEntity
  8
1
  6
CONTINUOUS
370
50
 62
4
100
AcDbLine
 10
57.99971
 20
0.5791189999999999
 30
0.0
 11
57.999565
 21
0.57912
 31
0.0
  0
LINE
  5
594
330
1F
100
AcDbEntity
  8
1
  6
CONTINUOUS
370
50
 62
4
100
AcDbLine
 10
50.0
 20
-1.5
 30
0.0
 11
51.200001
 21
-1.5
 31
0.0
  0
LINE
  5
595
330
1F
100
AcDbEntity
  8
1
  6
CONTINUOUS
370
50
 62
4
100
AcDbLine
 10
55.507923
 20
-1.0
 30
0.0
 11
57.999134
 21
-1.0
 31
0.0
  0
LINE
  5
596
330
1F
100
AcDbEntity
  8
1
  6
CONTINUOUS
370
50
 62
4
100
AcDbLine
 10
53.0
 20
-1.0
 30
0.0
 11
53.813618
 21
-1.0
 31
0.0
  0
LINE
  5
597
330
1F
100
AcDbEntity
  8
1
  6
CONTINUOUS
370
50
 62
4
100
AcDbLine
 10
57.999855
 20
0.579118
 30
0.0
 11
57.99971
 21
0.5791189999999999
 31
0.0
  0
LINE
  5
598
330
1F
100
AcDbEntity
  8
1
  6
CONTINUOUS
370
50
 62
4
100
AcDbLine
 10
58.0
 20
0.579117
 30
0.0
 11
57.999855
 21
0.579118
 31
0.0
  0
LINE
  5
599
330
1F
100
AcDbEntity
  8
1
  6
CONTINUOUS
370
50
 62
4
100
AcDbLine
 10
57.999424
 20
0.57912
 30
0.0
 11
57.999134
 21
0.579122
 31
0.0
  0
LINE
  5
59A
330
1F
100
AcDbEntity
  8
1
  6
CONTINUOUS
370
50
 62
4
100
AcDbLine
 10
65.626854
 20
1.000001
 30
0.0
 11
63.723812
 21
1.00025
 31
0.0
  0
LINE
  5
59B
330
1F
100
AcDbEntity
  8
1
  6
CONTINUOUS
370
50
 62
4
100
AcDbLine
 10
60.556461
 20
1.000665
 30
0.0
 11
58.0
 21
1.001
 31
0.0
  0
LINE
  5
59C
330
1F
100
AcDbEntity
  8
1
  6
CONTINUOUS
370
50
 62
4
100
AcDbLine
 10
57.999424
 20
0.57912
 30
0.0
 11
57.999565
 21
0.57912
 31
0.0
  0
LINE
  5
59D
330
1F
100
AcDbEntity
  8
1
  6
CONTINUOUS
370
50
 62
4
100
AcDbLine
 10
55.507923
 20
1.0
 30
0.0
 11
57.999134
 21
1.0
 31
0.0
  0
LINE
  5
59E
330
1F
100
AcDbEntity
  8
1
  6
CONTINUOUS
370
50
 62
4
100
AcDbLine
 10
53.0
 20
1.0
 30
0.0
 11
53.813618
 21
1.0
 31
0.0
  0
LINE
  5
59F
330
1F
100
AcDbEntity
  8
1
  6
CONTINUOUS
370
50
 62
4
100
AcDbLine
 10
50.0
 20
1.5
 30
0.0
 11
51.200001
 21
1.5
 31
0.0
  0
LINE
  5
5A0
330
1F
100
AcDbEntity
  8
1
  6
CONTINUOUS
370
50
 62
4
100
AcDbLine
 10
58.0
 20
-1.001
 30
0.0
 11
60.556461
 21
-1.000665
 31
0.0
  0
LINE
  5
5A1
330
1F
100
AcDbEntity
  8
1
  6
CONTINUOUS
370
50
 62
4
100
AcDbLine
 10
63.723812
 20
-1.00025
 30
0.0
 11
65.626854
 21
-1.000001
 31
0.0
  0
LINE
  5
5A2
330
1F
100
AcDbEntity
  8
1
  6
CONTINUOUS
370
50
 62
4
100
AcDbLine
 10
54.354786
 20
-0.942541
 30
0.0
 11
54.431644
 21
-0.9420259999999999
 31
0.0
  0
LINE
  5
5A3
330
1F
100
AcDbEntity
  8
1
  6
CONTINUOUS
370
50
 62
4
100
AcDbLine
 10
55.433086
 20
0.9995769999999999
 30
0.0
 11
55.456303
 21
0.9997969999999999
 31
0.0
  0
LINE
  5
5A4
330
1F
100
AcDbEntity
  8
1
  6
CONTINUOUS
370
50
 62
4
100
AcDbLine
 10
54.430229
 20
0.9420229999999999
 30
0.0
 11
54.511215
 21
0.9429329999999999
 31
0.0
  0
LINE
  5
5A5
330
1F
100
AcDbEntity
  8
1
  6
CONTINUOUS
370
50
 62
4
100
AcDbLine
 10
55.40987399999999
 20
0.9992749999999999
 30
0.0
 11
55.433086
 21
0.9995769999999999
 31
0.0
  0
LINE
  5
5A6
330
1F
100
AcDbEntity
  8
1
  6
CONTINUOUS
370
50
 62
4
100
AcDbLine
 10
55.38666199999999
 20
0.998892
 30
0.0
 11
55.40987399999999
 21
0.9992749999999999
 31
0.0
  0
LINE
  5
5A7
330
1F
100
AcDbEntity
  8
1
  6
CONTINUOUS
370
50
 62
4
100
AcDbLine
 10
63.45996899999999
 20
0.9951829999999999
 30
0.0
 11
63.723812
 21
1.00025
 31
0.0
  0
LINE
  5
5A8
330
1F
100
AcDbEntity
  8
1
  6
CONTINUOUS
370
50
 62
4
100
AcDbLine
 10
60.556461
 20
-1.000665
 30
0.0
 11
60.820362
 21
-0.9955499999999999
 31
0.0
  0
LINE
  5
5A9
330
1F
100
AcDbEntity
  8
1
  6
CONTINUOUS
370
50
 62
4
100
AcDbLine
 10
55.363449
 20
0.9984289999999999
 30
0.0
 11
55.38666199999999
 21
0.998892
 31
0.0
  0
LINE
  5
5AA
330
1F
100
AcDbEntity
  8
1
  6
CONTINUOUS
370
50
 62
4
100
AcDbLine
 10
55.34023999999999
 20
0.997883
 30
0.0
 11
55.363449
 21
0.9984289999999999
 31
0.0
  0
LINE
  5
5AB
330
1F
100
AcDbEntity
  8
1
  6
CONTINUOUS
370
50
 62
4
100
AcDbLine
 10
54.282059
 20
-0.94445
 30
0.0
 11
54.354786
 21
-0.942541
 31
0.0
  0
LINE
  5
5AC
330
1F
100
AcDbEntity
  8
1
  6
CONTINUOUS
370
50
 62
4
100
AcDbLine
 10
55.317032
 20
0.997257
 30
0.0
 11
55.34023999999999
 21
0.997883
 31
0.0
  0
LINE
  5
5AD
330
1F
100
AcDbEntity
  8
1
  6
CONTINUOUS
370
50
 62
4
100
AcDbLine
 10
54.511215
 20
0.9429329999999999
 30
0.0
 11
54.596081
 21
0.9453199999999999
 31
0.0
  0
LINE
  5
5AE
330
1F
100
AcDbEntity
  8
1
  6
CONTINUOUS
370
50
 62
4
100
AcDbLine
 10
65.617462
 20
-0.338138
 30
0.0
 11
65.62538099999999
 21
-0.337877
 31
0.0
  0
LINE
  5
5AF
330
1F
100
AcDbEntity
  8
1
  6
CONTINUOUS
370
50
 62
4
100
AcDbLine
 10
54.596081
 20
0.9453199999999999
 30
0.0
 11
54.684658
 21
0.9492069999999999
 31
0.0
  0
LINE
  5
5B0
330
1F
100
AcDbEntity
  8
1
  6
CONTINUOUS
370
50
 62
4
100
AcDbLine
 10
54.213375
 20
-0.947534
 30
0.0
 11
54.282059
 21
-0.94445
 31
0.0
  0
LINE
  5
5B1
330
1F
100
AcDbEntity
  8
1
  6
CONTINUOUS
370
50
 62
4
100
AcDbLine
 10
63.195637
 20
0.979988
 30
0.0
 11
63.45996899999999
 21
0.9951829999999999
 31
0.0
  0
LINE
  5
5B2
330
1F
100
AcDbEntity
  8
1
  6
CONTINUOUS
370
50
 62
4
100
AcDbLine
 10
60.820362
 20
-0.9955499999999999
 30
0.0
 11
61.08516299999999
 21
-0.9802789999999999
 31
0.0
  0
LINE
  5
5B3
330
1F
100
AcDbEntity
  8
1
  6
CONTINUOUS
370
50
 62
4
100
AcDbLine
 10
54.684658
 20
0.9492069999999999
 30
0.0
 11
54.776768
 21
0.9546199999999999
 31
0.0
  0
LINE
  5
5B4
330
1F
100
AcDbEntity
  8
1
  6
CONTINUOUS
370
50
 62
4
100
AcDbLine
 10
55.23004899999999
 20
0.9898319999999999
 30
0.0
 11
55.317032
 21
0.995054
 31
0.0
  0
LINE
  5
5B5
330
1F
100
AcDbEntity
  8
1
  6
CONTINUOUS
370
50
 62
4
100
AcDbLine
 10
54.149029
 20
-0.951579
 30
0.0
 11
54.213375
 21
-0.947534
 31
0.0
  0
LINE
  5
5B6
330
1F
100
AcDbEntity
  8
1
  6
CONTINUOUS
370
50
 62
4
100
AcDbLine
 10
54.776768
 20
0.9546199999999999
 30
0.0
 11
54.870506
 21
0.961347
 31
0.0
  0
LINE
  5
5B7
330
1F
100
AcDbEntity
  8
1
  6
CONTINUOUS
370
50
 62
4
100
AcDbLine
 10
55.14211299999999
 20
0.983393
 30
0.0
 11
55.23004899999999
 21
0.9898319999999999
 31
0.0
  0
LINE
  5
5B8
330
1F
100
AcDbEntity
  8
1
  6
CONTINUOUS
370
50
 62
4
100
AcDbLine
 10
53.814163
 20
-0.999996
 30
0.0
 11
53.829525
 21
-0.998852
 31
0.0
  0
LINE
  5
5B9
330
1F
100
AcDbEntity
  8
1
  6
CONTINUOUS
370
50
 62
4
100
AcDbLine
 10
54.870506
 20
0.961347
 30
0.0
 11
54.962547
 21
0.968695
 31
0.0
  0
LINE
  5
5BA
330
1F
100
AcDbEntity
  8
1
  6
CONTINUOUS
370
50
 62
4
100
AcDbLine
 10
54.089348
 20
-0.956379
 30
0.0
 11
54.149029
 21
-0.951579
 31
0.0
  0
LINE
  5
5BB
330
1F
100
AcDbEntity
  8
1
  6
CONTINUOUS
370
50
 62
4
100
AcDbLine
 10
55.053017
 20
0.976196
 30
0.0
 11
55.14211299999999
 21
0.983393
 31
0.0
  0
LINE
  5
5BC
330
1F
100
AcDbEntity
  8
1
  6
CONTINUOUS
370
50
 62
4
100
AcDbLine
 10
54.962547
 20
0.968695
 30
0.0
 11
55.053017
 21
0.976196
 31
0.0
  0
LINE
  5
5BD
330
1F
100
AcDbEntity
  8
1
  6
CONTINUOUS
370
50
 62
4
100
AcDbLine
 10
65.62538099999999
 20
-0.337877
 30
0.0
 11
65.63304099999999
 21
-0.337207
 31
0.0
  0
LINE
  5
5BE
330
1F
100
AcDbEntity
  8
1
  6
CONTINUOUS
370
50
 62
4
100
AcDbLine
 10
62.931438
 20
0.9547939999999999
 30
0.0
 11
63.195637
 21
0.979988
 31
0.0
  0
LINE
  5
5BF
330
1F
100
AcDbEntity
  8
1
  6
CONTINUOUS
370
50
 62
4
100
AcDbLine
 10
61.08516299999999
 20
-0.9802789999999999
 30
0.0
 11
61.349003
 21
-0.954978
 31
0.0
  0
LINE
  5
5C0
330
1F
100
AcDbEntity
  8
1
  6
CONTINUOUS
370
50
 62
4
100
AcDbLine
 10
54.034668
 20
-0.9617279999999999
 30
0.0
 11
54.089348
 21
-0.956379
 31
0.0
  0
LINE
  5
5C1
330
1F
100
AcDbEntity
  8
1
  6
CONTINUOUS
370
50
 62
4
100
AcDbLine
 10
53.985195
 20
-0.96742
 30
0.0
 11
54.034668
 21
-0.9617279999999999
 31
0.0
  0
LINE
  5
5C2
330
1F
100
AcDbEntity
  8
1
  6
CONTINUOUS
370
50
 62
4
100
AcDbLine
 10
65.071541
 20
0.317744
 30
0.0
 11
65.10726199999999
 21
0.322018
 31
0.0
  0
LINE
  5
5C3
330
1F
100
AcDbEntity
  8
1
  6
CONTINUOUS
370
50
 62
4
100
AcDbLine
 10
53.829525
 20
-0.998852
 30
0.0
 11
53.852444
 21
-0.9959389999999999
 31
0.0
  0
LINE
  5
5C4
330
1F
100
AcDbEntity
  8
1
  6
CONTINUOUS
370
50
 62
4
100
AcDbLine
 10
65.10726199999999
 20
0.322018
 30
0.0
 11
65.14220399999999
 21
0.326588
 31
0.0
  0
LINE
  5
5C5
330
1F
100
AcDbEntity
  8
1
  6
CONTINUOUS
370
50
 62
4
100
AcDbLine
 10
53.94109
 20
-0.97325
 30
0.0
 11
53.985195
 21
-0.96742
 31
0.0
  0
LINE
  5
5C6
330
1F
100
AcDbEntity
  8
1
  6
CONTINUOUS
370
50
 62
4
100
AcDbLine
 10
61.349003
 20
-0.954978
 30
0.0
 11
61.61328899999999
 21
-0.919997
 31
0.0
  0
LINE
  5
5C7
330
1F
100
AcDbEntity
  8
1
  6
CONTINUOUS
370
50
 62
4
100
AcDbLine
 10
62.667953
 20
0.919878
 30
0.0
 11
62.931438
 21
0.9547939999999999
 31
0.0
  0
LINE
  5
5C8
330
1F
100
AcDbEntity
  8
1
  6
CONTINUOUS
370
50
 62
4
100
AcDbLine
 10
65.14220399999999
 20
0.326588
 30
0.0
 11
65.176453
 21
0.331468
 31
0.0
  0
LINE
  5
5C9
330
1F
100
AcDbEntity
  8
1
  6
CONTINUOUS
370
50
 62
4
100
AcDbLine
 10
53.902679
 20
-0.979004
 30
0.0
 11
53.94109
 21
-0.97325
 31
0.0
  0
LINE
  5
5CA
330
1F
100
AcDbEntity
  8
1
  6
CONTINUOUS
370
50
 62
4
100
AcDbLine
 10
53.852444
 20
-0.9959389999999999
 30
0.0
 11
53.881325
 21
-0.9914729999999999
 31
0.0
  0
LINE
  5
5CB
330
1F
100
AcDbEntity
  8
1
  6
CONTINUOUS
370
50
 62
4
100
AcDbLine
 10
65.63304099999999
 20
-0.337207
 30
0.0
 11
65.640335
 21
-0.336078
 31
0.0
  0
LINE
  5
5CC
330
1F
100
AcDbEntity
  8
1
  6
CONTINUOUS
370
50
 62
4
100
AcDbLine
 10
65.176453
 20
0.331468
 30
0.0
 11
65.210602
 21
0.336768
 31
0.0
  0
LINE
  5
5CD
330
1F
100
AcDbEntity
  8
1
  6
CONTINUOUS
370
50
 62
4
100
AcDbLine
 10
62.403923
 20
0.875699
 30
0.0
 11
62.667953
 21
0.919878
 31
0.0
  0
LINE
  5
5CE
330
1F
100
AcDbEntity
  8
1
  6
CONTINUOUS
370
50
 62
4
100
AcDbLine
 10
61.61328899999999
 20
-0.919997
 30
0.0
 11
61.877182
 21
-0.875744
 31
0.0
  0
LINE
  5
5CF
330
1F
100
AcDbEntity
  8
1
  6
CONTINUOUS
370
50
 62
4
100
AcDbLine
 10
65.210602
 20
0.336768
 30
0.0
 11
65.244644
 21
0.342527
 31
0.0
  0
LINE
  5
5D0
330
1F
100
AcDbEntity
  8
1
  6
CONTINUOUS
370
50
 62
4
100
AcDbLine
 10
53.869331
 20
-0.9846509999999999
 30
0.0
 11
53.902679
 21
-0.979004
 31
0.0
  0
LINE
  5
5D1
330
1F
100
AcDbEntity
  8
1
  6
CONTINUOUS
370
50
 62
4
100
AcDbLine
 10
53.881325
 20
-0.9914729999999999
 30
0.0
 11
53.915222
 21
-0.9856159999999999
 31
0.0
  0
LINE
  5
5D2
330
1F
100
AcDbEntity
  8
1
  6
CONTINUOUS
370
50
 62
4
100
AcDbLine
 10
65.244644
 20
0.342527
 30
0.0
 11
65.278442
 21
0.348768
 31
0.0
  0
LINE
  5
5D3
330
1F
100
AcDbEntity
  8
1
  6
CONTINUOUS
370
50
 62
4
100
AcDbLine
 10
53.915222
 20
-0.9856159999999999
 30
0.0
 11
53.95282
 21
-0.978595
 31
0.0
  0
LINE
  5
5D4
330
1F
100
AcDbEntity
  8
1
  6
CONTINUOUS
370
50
 62
4
100
AcDbLine
 10
53.841183
 20
-0.990101
 30
0.0
 11
53.869331
 21
-0.9846509999999999
 31
0.0
  0
LINE
  5
5D5
330
1F
100
AcDbEntity
  8
1
  6
CONTINUOUS
370
50
 62
4
100
AcDbLine
 10
53.95282
 20
-0.978595
 30
0.0
 11
53.992798
 21
-0.970633
 31
0.0
  0
LINE
  5
5D6
330
1F
100
AcDbEntity
  8
1
  6
CONTINUOUS
370
50
 62
4
100
AcDbLine
 10
62.14019
 20
0.822607
 30
0.0
 11
62.403923
 21
0.875699
 31
0.0
  0
LINE
  5
5D7
330
1F
100
AcDbEntity
  8
1
  6
CONTINUOUS
370
50
 62
4
100
AcDbLine
 10
65.278442
 20
0.348768
 30
0.0
 11
65.311874
 21
0.355514
 31
0.0
  0
LINE
  5
5D8
330
1F
100
AcDbEntity
  8
1
  6
CONTINUOUS
370
50
 62
4
100
AcDbLine
 10
61.877182
 20
-0.875744
 30
0.0
 11
62.140026
 21
-0.8226019999999999
 31
0.0
  0
LINE
  5
5D9
330
1F
100
AcDbEntity
  8
1
  6
CONTINUOUS
370
50
 62
4
100
AcDbLine
 10
53.992798
 20
-0.970633
 30
0.0
 11
54.033871
 21
-0.9619489999999999
 31
0.0
  0
LINE
  5
5DA
330
1F
100
AcDbEntity
  8
1
  6
CONTINUOUS
370
50
 62
4
100
AcDbLine
 10
65.311874
 20
0.355514
 30
0.0
 11
65.344803
 21
0.36279
 31
0.0
  0
LINE
  5
5DB
330
1F
100
AcDbEntity
  8
1
  6
CONTINUOUS
370
50
 62
4
100
AcDbLine
 10
53.820774
 20
-0.9948389999999999
 30
0.0
 11
53.841183
 21
-0.990101
 31
0.0
  0
LINE
  5
5DC
330
1F
100
AcDbEntity
  8
1
  6
CONTINUOUS
370
50
 62
4
100
AcDbLine
 10
65.640335
 20
-0.336078
 30
0.0
 11
65.647125
 21
-0.334446
 31
0.0
  0
LINE
  5
5DD
330
1F
100
AcDbEntity
  8
1
  6
CONTINUOUS
370
50
 62
4
100
AcDbLine
 10
65.344803
 20
0.36279
 30
0.0
 11
65.377106
 21
0.370619
 31
0.0
  0
LINE
  5
5DE
330
1F
100
AcDbEntity
  8
1
  6
CONTINUOUS
370
50
 62
4
100
AcDbLine
 10
65.377106
 20
0.370619
 30
0.0
 11
65.408653
 21
0.379023
 31
0.0
  0
LINE
  5
5DF
330
1F
100
AcDbEntity
  8
1
  6
CONTINUOUS
370
50
 62
4
100
AcDbLine
 10
51.200001
 20
-1.5
 30
0.0
 11
53.0
 21
-1.0
 31
0.0
  0
LINE
  5
5E0
330
1F
100
AcDbEntity
  8
1
  6
CONTINUOUS
370
50
 62
4
100
AcDbLine
 10
65.408653
 20
0.379023
 30
0.0
 11
65.43931599999999
 21
0.388028
 31
0.0
  0
LINE
  5
5E1
330
1F
100
AcDbEntity
  8
1
  6
CONTINUOUS
370
50
 62
4
100
AcDbLine
 10
65.43931599999999
 20
0.388028
 30
0.0
 11
65.46895599999999
 21
0.397655
 31
0.0
  0
LINE
  5
5E2
330
1F
100
AcDbEntity
  8
1
  6
CONTINUOUS
370
50
 62
4
100
AcDbLine
 10
53.810356
 20
-0.998274
 30
0.0
 11
53.820774
 21
-0.9948389999999999
 31
0.0
  0
LINE
  5
5E3
330
1F
100
AcDbEntity
  8
1
  6
CONTINUOUS
370
50
 62
4
100
AcDbLine
 10
65.647125
 20
-0.334446
 30
0.0
 11
65.653336
 21
-0.33227
 31
0.0
  0
LINE
  5
5E4
330
1F
100
AcDbEntity
  8
1
  6
CONTINUOUS
370
50
 62
4
100
AcDbLine
 10
65.46895599999999
 20
0.397655
 30
0.0
 11
65.49745899999999
 21
0.407931
 31
0.0
  0
LINE
  5
5E5
330
1F
100
AcDbEntity
  8
1
  6
CONTINUOUS
370
50
 62
4
100
AcDbLine
 10
65.49745899999999
 20
0.407931
 30
0.0
 11
65.525429
 21
0.419194
 31
0.0
  0
LINE
  5
5E6
330
1F
100
AcDbEntity
  8
1
  6
CONTINUOUS
370
50
 62
4
100
AcDbLine
 10
65.525429
 20
0.419194
 30
0.0
 11
65.552979
 21
0.431712
 31
0.0
  0
LINE
  5
5E7
330
1F
100
AcDbEntity
  8
1
  6
CONTINUOUS
370
50
 62
4
100
AcDbLine
 10
65.552979
 20
0.431712
 30
0.0
 11
65.579636
 21
0.445547
 31
0.0
  0
LINE
  5
5E8
330
1F
100
AcDbEntity
  8
1
  6
CONTINUOUS
370
50
 62
4
100
AcDbLine
 10
65.626999
 20
-0.999853
 30
0.0
 11
65.627144
 21
-0.999771
 31
0.0
  0
LINE
  5
5E9
330
1F
100
AcDbEntity
  8
1
  6
CONTINUOUS
370
50
 62
4
100
AcDbLine
 10
57.999134
 20
1.0
 30
0.0
 11
58.0
 21
1.0005
 31
0.0
  0
LINE
  5
5EA
330
1F
100
AcDbEntity
  8
1
  6
CONTINUOUS
370
50
 62
4
100
AcDbLine
 10
65.579636
 20
0.445547
 30
0.0
 11
65.604919
 21
0.460764
 31
0.0
  0
LINE
  5
5EB
330
1F
100
AcDbEntity
  8
1
  6
CONTINUOUS
370
50
 62
4
100
AcDbLine
 10
53.80954
 20
-0.9988189999999999
 30
0.0
 11
53.810356
 21
-0.998274
 31
0.0
  0
LINE
  5
5EC
330
1F
100
AcDbEntity
  8
1
  6
CONTINUOUS
370
50
 62
4
100
AcDbLine
 10
65.604919
 20
0.460764
 30
0.0
 11
65.628357
 21
0.477432
 31
0.0
  0
LINE
  5
5ED
330
1F
100
AcDbEntity
  8
1
  6
CONTINUOUS
370
50
 62
4
100
AcDbLine
 10
65.628357
 20
0.477432
 30
0.0
 11
65.649605
 21
0.495739
 31
0.0
  0
LINE
  5
5EE
330
1F
100
AcDbEntity
  8
1
  6
CONTINUOUS
370
50
 62
4
100
AcDbLine
 10
65.653336
 20
-0.33227
 30
0.0
 11
65.65600599999999
 21
-0.329969
 31
0.0
  0
LINE
  5
5EF
330
1F
100
AcDbEntity
  8
1
  6
CONTINUOUS
370
50
 62
4
100
AcDbLine
 10
65.65600599999999
 20
-0.329969
 30
0.0
 11
65.658669
 21
-0.327584
 31
0.0
  0
LINE
  5
5F0
330
1F
100
AcDbEntity
  8
1
  6
CONTINUOUS
370
50
 62
4
100
AcDbLine
 10
65.658669
 20
-0.327584
 30
0.0
 11
65.661324
 21
-0.325119
 31
0.0
  0
LINE
  5
5F1
330
1F
100
AcDbEntity
  8
1
  6
CONTINUOUS
370
50
 62
4
100
AcDbLine
 10
65.661324
 20
-0.325119
 30
0.0
 11
65.663986
 21
-0.322572
 31
0.0
  0
LINE
  5
5F2
330
1F
100
AcDbEntity
  8
1
  6
CONTINUOUS
370
50
 62
4
100
AcDbLine
 10
65.61623399999999
 20
-0.367824
 30
0.0
 11
65.653336
 21
-0.33227
 31
0.0
  0
LINE
  5
5F3
330
1F
100
AcDbEntity
  8
1
  6
CONTINUOUS
370
50
 62
4
100
AcDbLine
 10
65.671936
 20
-0.314439
 30
0.0
 11
65.946861
 21
-0.050934
 31
0.0
  0
LINE
  5
5F4
330
1F
100
AcDbEntity
  8
1
  6
CONTINUOUS
370
50
 62
4
100
AcDbLine
 10
65.663986
 20
-0.322572
 30
0.0
 11
65.66664899999999
 21
-0.319944
 31
0.0
  0
LINE
  5
5F5
330
1F
100
AcDbEntity
  8
1
  6
CONTINUOUS
370
50
 62
4
100
AcDbLine
 10
65.66664899999999
 20
-0.319944
 30
0.0
 11
65.669304
 21
-0.317236
 31
0.0
  0
LINE
  5
5F6
330
1F
100
AcDbEntity
  8
1
  6
CONTINUOUS
370
50
 62
4
100
AcDbLine
 10
65.626854
 20
-1.000001
 30
0.0
 11
65.626999
 21
-0.999853
 31
0.0
  0
LINE
  5
5F7
330
1F
100
AcDbEntity
  8
1
  6
CONTINUOUS
370
50
 62
4
100
AcDbLine
 10
65.627144
 20
-0.999771
 30
0.0
 11
65.62728899999999
 21
-0.9996219999999999
 31
0.0
  0
LINE
  5
5F8
330
1F
100
AcDbEntity
  8
1
  6
CONTINUOUS
370
50
 62
4
100
AcDbLine
 10
65.669304
 20
-0.317236
 30
0.0
 11
65.671936
 21
-0.314439
 31
0.0
  0
LINE
  5
5F9
330
1F
100
AcDbEntity
  8
1
  6
CONTINUOUS
370
50
 62
4
100
AcDbLine
 10
65.649605
 20
0.495739
 30
0.0
 11
65.668198
 21
0.515819
 31
0.0
  0
LINE
  5
5FA
330
1F
100
AcDbEntity
  8
1
  6
CONTINUOUS
370
50
 62
4
100
AcDbLine
 10
65.668198
 20
0.515819
 30
0.0
 11
65.68358599999999
 21
0.537737
 31
0.0
  0
LINE
  5
5FB
330
1F
100
AcDbEntity
  8
1
  6
CONTINUOUS
370
50
 62
4
100
AcDbLine
 10
65.62728899999999
 20
-0.9996219999999999
 30
0.0
 11
65.627434
 21
-0.9994059999999999
 31
0.0
  0
LINE
  5
5FC
330
1F
100
AcDbEntity
  8
1
  6
CONTINUOUS
370
50
 62
4
100
AcDbLine
 10
65.627434
 20
-0.9994059999999999
 30
0.0
 11
65.627579
 21
-0.9991239999999999
 31
0.0
  0
LINE
  5
5FD
330
1F
100
AcDbEntity
  8
1
  6
CONTINUOUS
370
50
 62
4
100
AcDbLine
 10
53.80932199999999
 20
-0.999262
 30
0.0
 11
53.80954
 21
-0.9988189999999999
 31
0.0
  0
LINE
  5
5FE
330
1F
100
AcDbEntity
  8
1
  6
CONTINUOUS
370
50
 62
4
100
AcDbLine
 10
65.68358599999999
 20
0.537737
 30
0.0
 11
65.69498399999999
 21
0.560914
 31
0.0
  0
LINE
  5
5FF
330
1F
100
AcDbEntity
  8
1
  6
CONTINUOUS
370
50
 62
4
100
AcDbLine
 10
65.627579
 20
-0.9991239999999999
 30
0.0
 11
65.627724
 21
-0.9987739999999999
 31
0.0
  0
LINE
  5
600
330
1F
100
AcDbEntity
  8
1
  6
CONTINUOUS
370
50
 62
4
100
AcDbLine
 10
65.62771599999999
 20
-0.9988429999999999
 30
0.0
 11
66.0
 21
0.0
 31
0.0
  0
LINE
  5
601
330
1F
100
AcDbEntity
  8
1
  6
CONTINUOUS
370
50
 62
4
100
AcDbLine
 10
65.69498399999999
 20
0.560914
 30
0.0
 11
65.702209
 21
0.5850759999999999
 31
0.0
  0
LINE
  5
602
330
1F
100
AcDbEntity
  8
1
  6
CONTINUOUS
370
50
 62
4
100
AcDbLine
 10
65.671936
 20
-0.314439
 30
0.0
 11
65.673965
 21
-0.301659
 31
0.0
  0
LINE
  5
603
330
1F
100
AcDbEntity
  8
1
  6
CONTINUOUS
370
50
 62
4
100
AcDbLine
 10
65.61614999999999
 20
-0.424571
 30
0.0
 11
65.616241
 21
-0.367763
 31
0.0
  0
LINE
  5
604
330
1F
100
AcDbEntity
  8
1
  6
CONTINUOUS
370
50
 62
4
100
AcDbLine
 10
65.616142
 20
-0.47886
 30
0.0
 11
65.61614999999999
 21
-0.424571
 31
0.0
  0
LINE
  5
605
330
1F
100
AcDbEntity
  8
1
  6
CONTINUOUS
370
50
 62
4
100
AcDbLine
 10
50.0
 20
-1.5
 30
0.0
 11
50.0
 21
1.5
 31
0.0
  0
LINE
  5
606
330
1F
100
AcDbEntity
  8
1
  6
CONTINUOUS
370
50
 62
4
100
AcDbLine
 10
51.200001
 20
-1.5
 30
0.0
 11
51.200001
 21
1.5
 31
0.0
  0
LINE
  5
607
330
1F
100
AcDbEntity
  8
1
  6
CONTINUOUS
370
50
 62
4
100
AcDbLine
 10
53.0
 20
-1.0
 30
0.0
 11
53.0
 21
1.0
 31
0.0
  0
LINE
  5
608
330
1F
100
AcDbEntity
  8
1
  6
CONTINUOUS
370
50
 62
4
100
AcDbLine
 10
55.315029
 20
0.422123
 30
0.0
 11
55.315029
 21
0.442858
 31
0.0
  0
LINE
  5
609
330
1F
100
AcDbEntity
  8
1
  6
CONTINUOUS
370
50
 62
4
100
AcDbLine
 10
55.317032
 20
0.421413
 30
0.0
 11
55.317032
 21
0.997257
 31
0.0
  0
LINE
  5
60A
330
1F
100
AcDbEntity
  8
1
  6
CONTINUOUS
370
50
 62
4
100
AcDbLine
 10
55.317032
 20
-0.997257
 30
0.0
 11
55.317032
 21
-0.995054
 31
0.0
  0
LINE
  5
60B
330
1F
100
AcDbEntity
  8
1
  6
CONTINUOUS
370
50
 62
4
100
AcDbLine
 10
57.999134
 20
0.579122
 30
0.0
 11
57.999134
 21
1.0
 31
0.0
  0
LINE
  5
60C
330
1F
100
AcDbEntity
  8
1
  6
CONTINUOUS
370
50
 62
4
100
AcDbLine
 10
57.999134
 20
-1.0
 30
0.0
 11
57.999134
 21
-0.558338
 31
0.0
  0
LINE
  5
60D
330
1F
100
AcDbEntity
  8
1
  6
CONTINUOUS
370
50
 62
4
100
AcDbLine
 10
58.0
 20
-1.001
 30
0.0
 11
58.0
 21
1.001
 31
0.0
  0
LINE
  5
60E
330
1F
100
AcDbEntity
  8
1
  6
CONTINUOUS
370
50
 62
4
100
AcDbLine
 10
65.636032
 20
0.744377
 30
0.0
 11
65.636032
 21
0.886365
 31
0.0
  0
ELLIPSE
  5
60F
330
1F
100
AcDbEntity
  8
1
  6
CONTINUOUS
370
50
 62
4
100
AcDbEllipse
 10
65.999535
 20
0.000206
 30
0.0
 11
-1.871584087259365
 21
0.8926698170508156
 31
0.0
210
0.0
220
0.0
230
1.0
 40
0.2407614280619967
 41
1.437778822567085
 42
1.480236968284064
  0
LINE
  5
610
330
1F
100
AcDbEntity
  8
CUT
  6
CONTINUOUS
370
25
 62
1
100
AcDbLine
 10
58.0
 20
0.0
 30
0.0
 11
66.0
 21
0.0
 31
0.0
  0
LINE
  5
611
330
1F
100
AcDbEntity
  8
CUT
  6
CONTINUOUS
370
25
 62
1
100
AcDbLine
 10
66.0
 20
0.0
 30
0.0
 11
65.63602977
 21
1.0
 31
0.0
  0
LINE
  5
612
330
1F
100
AcDbEntity
  8
CUT
  6
CONTINUOUS
370
25
 62
1
100
AcDbLine
 10
65.63602977
 20
1.0
 30
0.0
 11
58.0
 21
1.0
 31
0.0
  0
LINE
  5
613
330
1F
100
AcDbEntity
  8
CUT
  6
CONTINUOUS
370
25
 62
1
100
AcDbLine
 10
58.0
 20
1.0
 30
0.0
 11
58.0
 21
0.0
 31
0.0
  0
LINE
  5
614
330
1F
100
AcDbEntity
  8
NOCUT
  6
CONTINUOUS
370
25
 62
7
100
AcDbLine
 10
51.2
 20
0.0
 30
0.0
 11
58.0
 21
0.0
 31
0.0
  0
LINE
  5
615
330
1F
100
AcDbEntity
  8
NOCUT
  6
CONTINUOUS
370
25
 62
7
100
AcDbLine
 10
58.0
 20
0.0
 30
0.0
 11
58.0
 21
1.0005
 31
0.0
  0
LINE
  5
616
330
1F
100
AcDbEntity
  8
NOCUT
  6
CONTINUOUS
370
25
 62
7
100
AcDbLine
 10
58.0
 20
1.0005
 30
0.0
 11
57.99913397459622
 21
1.0
 31
0.0
  0
LINE
  5
617
330
1F
100
AcDbEntity
  8
NOCUT
  6
CONTINUOUS
370
25
 62
7
100
AcDbLine
 10
57.99913397459622
 20
1.0
 30
0.0
 11
53.0
 21
1.0
 31
0.0
  0
LINE
  5
618
330
1F
100
AcDbEntity
  8
NOCUT
  6
CONTINUOUS
370
25
 62
7
100
AcDbLine
 10
53.0
 20
1.0
 30
0.0
 11
51.2
 21
1.5
 31
0.0
  0
LINE
  5
619
330
1F
100
AcDbEntity
  8
NOCUT
  6
CONTINUOUS
370
25
 62
7
100
AcDbLine
 10
51.2
 20
1.5
 30
0.0
 11
51.2
 21
0.0
 31
0.0
  0
LINE
  5
61A
330
1F
100
AcDbEntity
  8
NOCUT
  6
CONTINUOUS
370
25
 62
7
100
AcDbLine
 10
58.0
 20
1.0
 30
0.0
 11
58.0
 21
0.0
 31
0.0
  0
LINE
  5
61B
330
1F
100
AcDbEntity
  8
NOCUT
  6
CONTINUOUS
370
25
 62
7
100
AcDbLine
 10
58.0
 20
1.0
 30
0.0
 11
58.0
 21
0.0
 31
0.0
  0
LINE
  5
61C
330
1F
100
AcDbEntity
  8
SK1
  6
CONTINUOUS
370
50
 62
4
100
AcDbLine
 10
50.0
 20
1.5
 30
0.0
 11
0.2999999999999972
 21
1.5
 31
0.0
  0
LINE
  5
61D
330
1F
100
AcDbEntity
  8
SK1
  6
CONTINUOUS
370
50
 62
4
100
AcDbLine
 10
0.2999999999999972
 20
1.5
 30
0.0
 11
0.0
 21
1.2
 31
0.0
  0
LINE
  5
61E
330
1F
100
AcDbEntity
  8
SK1
  6
CONTINUOUS
370
50
 62
4
100
AcDbLine
 10
0.0
 20
1.2
 30
0.0
 11
0.0
 21
-1.2
 31
0.0
  0
LINE
  5
61F
330
1F
100
AcDbEntity
  8
SK1
  6
CONTINUOUS
370
50
 62
4
100
AcDbLine
 10
0.0
 20
-1.2
 30
0.0
 11
0.2999999999999972
 21
-1.5
 31
0.0
  0
LINE
  5
620
330
1F
100
AcDbEntity
  8
SK1
  6
CONTINUOUS
370
50
 62
4
100
AcDbLine
 10
0.2999999999999972
 20
-1.5
 30
0.0
 11
50.0
 21
-1.5
 31
0.0
  0
LINE
  5
621
330
1F
100
AcDbEntity
  8
SK1
  6
CONTINUOUS
370
50
 62
4
100
AcDbLine
 10
0.2999999999999972
 20
1.5
 30
0.0
 11
0.2999999999999972
 21
-1.5
 31
0.0
  0
LINE
  5
622
330
1F
100
AcDbEntity
  8
NOCUT
  6
CONTINUOUS
370
25
 62
7
100
AcDbLine
 10
50.0
 20
0.0
 30
0.0
 11
50.0
 21
1.5
 31
0.0
  0
LINE
  5
623
330
1F
100
AcDbEntity
  8
NOCUT
  6
CONTINUOUS
370
25
 62
7
100
AcDbLine
 10
50.0
 20
1.5
 30
0.0
 11
51.2
 21
1.5
 31
0.0
  0
LINE
  5
624
330
1F
100
AcDbEntity
  8
NOCUT
  6
CONTINUOUS
370
25
 62
7
100
AcDbLine
 10
51.2
 20
0.0
 30
0.0
 11
50.0
 21
0.0
 31
0.0
  0
LINE
  5
625
330
1F
100
AcDbEntity
  8
SK2
  6
CONTINUOUS
370
25
 62
7
100
AcDbLine
 10
-12.0000002
 20
-1.500001
 30
0.0
 11
-13.00000000000008
 21
-1.500001
 31
0.0
  0
LINE
  5
626
330
1F
100
AcDbEntity
  8
SK2
  6
CONTINUOUS
370
25
 62
7
100
AcDbLine
 10
0.0
 20
-1.500001
 30
0.0
 11
-11.9999998
 21
-1.500001
 31
0.0
  0
LINE
  5
627
330
1F
100
AcDbEntity
  8
SK2
  6
CONTINUOUS
370
25
 62
7
100
AcDbLine
 10
-13.0
 20
1.5
 30
0.0
 11
0.0
 21
1.5
 31
0.0
  0
LINE
  5
628
330
1F
100
AcDbEntity
  8
SK2
  6
CONTINUOUS
370
25
 62
7
100
AcDbLine
 10
-12.0
 20
-8.5
 30
0.0
 11
-12.0
 21
14.975
 31
0.0
  0
LINE
  5
629
330
1F
100
AcDbEntity
  8
SK2
  6
CONTINUOUS
370
25
 62
7
100
AcDbLine
 10
-12.0
 20
-1.5
 30
0.0
 11
-11.0
 21
-6.5
 31
0.0
  0
LINE
  5
62A
330
1F
100
AcDbEntity
  8
SK2
  6
CONTINUOUS
370
25
 62
7
100
AcDbLine
 10
-11.0
 20
-6.5
 30
0.0
 11
-13.0
 21
-6.5
 31
0.0
  0
LINE
  5
62B
330
1F
100
AcDbEntity
  8
SK2
  6
CONTINUOUS
370
25
 62
7
100
AcDbLine
 10
-13.0
 20
-6.5
 30
0.0
 11
-12.0
 21
-1.5
 31
0.0
  0
LINE
  5
62C
330
1F
100
AcDbEntity
  8
SK2
  6
CONTINUOUS
370
25
 62
7
100
AcDbLine
 10
-11.23006486383871
 20
-6.5
 30
0.0
 11
-11.03834414397312
 21
-6.308279280134407
 31
0.0
  0
LINE
  5
62D
330
1F
100
AcDbEntity
  8
SK2
  6
CONTINUOUS
370
25
 62
7
100
AcDbLine
 10
-11.65432893255063
 20
-6.5
 30
0.0
 11
-11.10905482209178
 21
-5.954725889541137
 31
0.0
  0
LINE
  5
62E
330
1F
100
AcDbEntity
  8
SK2
  6
CONTINUOUS
370
25
 62
7
100
AcDbLine
 10
-12.07859300126258
 20
-6.5
 30
0.0
 11
-11.17976550021043
 21
-5.601172498947847
 31
0.0
  0
LINE
  5
62F
330
1F
100
AcDbEntity
  8
SK2
  6
CONTINUOUS
370
25
 62
7
100
AcDbLine
 10
-12.5028570699745
 20
-6.5
 30
0.0
 11
-11.25047617832908
 21
-5.24761910835457
 31
0.0
  0
LINE
  5
630
330
1F
100
AcDbEntity
  8
SK2
  6
CONTINUOUS
370
25
 62
7
100
AcDbLine
 10
-12.92712113868642
 20
-6.5
 30
0.0
 11
-11.32118685644774
 21
-4.894065717761301
 31
0.0
  0
LINE
  5
631
330
1F
100
AcDbEntity
  8
SK2
  6
CONTINUOUS
370
25
 62
7
100
AcDbLine
 10
-12.91215369815041
 20
-6.060768490752068
 30
0.0
 11
-11.3918975345664
 21
-4.540512327168038
 31
0.0
  0
LINE
  5
632
330
1F
100
AcDbEntity
  8
SK2
  6
CONTINUOUS
370
25
 62
7
100
AcDbLine
 10
-12.80608768097243
 20
-5.53043840486216
 30
0.0
 11
-11.46260821268505
 21
-4.186958936574769
 31
0.0
  0
LINE
  5
633
330
1F
100
AcDbEntity
  8
SK2
  6
CONTINUOUS
370
25
 62
7
100
AcDbLine
 10
-12.70002166379445
 20
-5.000108318972231
 30
0.0
 11
-11.53331889080371
 21
-3.833405545981478
 31
0.0
  0
LINE
  5
634
330
1F
100
AcDbEntity
  8
SK2
  6
CONTINUOUS
370
25
 62
7
100
AcDbLine
 10
-12.59395564661646
 20
-4.469778233082323
 30
0.0
 11
-11.60402956892236
 21
-3.479852155388215
 31
0.0
  0
LINE
  5
635
330
1F
100
AcDbEntity
  8
SK2
  6
CONTINUOUS
370
25
 62
7
100
AcDbLine
 10
-12.48788962943848
 20
-3.939448147192415
 30
0.0
 11
-11.67474024704102
 21
-3.126298764794939
 31
0.0
  0
LINE
  5
636
330
1F
100
AcDbEntity
  8
SK2
  6
CONTINUOUS
370
25
 62
7
100
AcDbLine
 10
-12.3818236122605
 20
-3.409118061302486
 30
0.0
 11
-11.74545092515967
 21
-2.772745374201648
 31
0.0
  0
LINE
  5
637
330
1F
100
AcDbEntity
  8
SK2
  6
CONTINUOUS
370
25
 62
7
100
AcDbLine
 10
-12.27575759508252
 20
-2.878787975412578
 30
0.0
 11
-11.81616160327832
 21
-2.419191983608378
 31
0.0
  0
LINE
  5
638
330
1F
100
AcDbEntity
  8
SK2
  6
CONTINUOUS
370
25
 62
7
100
AcDbLine
 10
-12.16969157790454
 20
-2.348457889522678
 30
0.0
 11
-11.88687228139698
 21
-2.065638593015109
 31
0.0
  0
LINE
  5
639
330
1F
100
AcDbEntity
  8
SK2
  6
CONTINUOUS
370
25
 62
7
100
AcDbLine
 10
-12.06362556072656
 20
-1.818127803632756
 30
0.0
 11
-11.95758295951563
 21
-1.712085202421825
 31
0.0
  0
LINE
  5
63A
330
1F
100
AcDbEntity
  8
SK2
  6
CONTINUOUS
370
25
 62
7
100
AcDbLine
 10
-12.93349848618077
 20
-6.167492430903877
 30
0.0
 11
-12.60099091708465
 21
-6.5
 31
0.0
  0
LINE
  5
63B
330
1F
100
AcDbEntity
  8
SK2
  6
CONTINUOUS
370
25
 62
7
100
AcDbLine
 10
-12.86278780806212
 20
-5.813939040310608
 30
0.0
 11
-12.17672684837272
 21
-6.5
 31
0.0
  0
LINE
  5
63C
330
1F
100
AcDbEntity
  8
SK2
  6
CONTINUOUS
370
25
 62
7
100
AcDbLine
 10
-12.79207712994346
 20
-5.460385649717338
 30
0.0
 11
-11.7524627796608
 21
-6.5
 31
0.0
  0
LINE
  5
63D
330
1F
100
AcDbEntity
  8
SK2
  6
CONTINUOUS
370
25
 62
7
100
AcDbLine
 10
-12.72136645182481
 20
-5.106832259124062
 30
0.0
 11
-11.32819871094886
 21
-6.5
 31
0.0
  0
LINE
  5
63E
330
1F
100
AcDbEntity
  8
SK2
  6
CONTINUOUS
370
25
 62
7
100
AcDbLine
 10
-12.65065577370616
 20
-4.753278868530785
 30
0.0
 11
-11.02401633944077
 21
-6.379918302796156
 31
0.0
  0
LINE
  5
63F
330
1F
100
AcDbEntity
  8
SK2
  6
CONTINUOUS
370
25
 62
7
100
AcDbLine
 10
-12.5799450955875
 20
-4.399725477937508
 30
0.0
 11
-11.13008235661876
 21
-5.849588216906248
 31
0.0
  0
LINE
  5
640
330
1F
100
AcDbEntity
  8
SK2
  6
CONTINUOUS
370
25
 62
7
100
AcDbLine
 10
-12.50923441746885
 20
-4.046172087344239
 30
0.0
 11
-11.23614837379674
 21
-5.31925813101634
 31
0.0
  0
LINE
  5
641
330
1F
100
AcDbEntity
  8
SK2
  6
CONTINUOUS
370
25
 62
7
100
AcDbLine
 10
-12.4385237393502
 20
-3.692618696750962
 30
0.0
 11
-11.34221439097472
 21
-4.788928045126433
 31
0.0
  0
LINE
  5
642
330
1F
100
AcDbEntity
  8
SK2
  6
CONTINUOUS
370
25
 62
7
100
AcDbLine
 10
-12.36781306123154
 20
-3.3390653061577
 30
0.0
 11
-11.44828040815269
 21
-4.258597959236546
 31
0.0
  0
LINE
  5
643
330
1F
100
AcDbEntity
  8
SK2
  6
CONTINUOUS
370
25
 62
7
100
AcDbLine
 10
-12.29710238311289
 20
-2.985511915564423
 30
0.0
 11
-11.55434642533067
 21
-3.728267873346631
 31
0.0
  0
LINE
  5
644
330
1F
100
AcDbEntity
  8
SK2
  6
CONTINUOUS
370
25
 62
7
100
AcDbLine
 10
-12.22639170499423
 20
-2.631958524971147
 30
0.0
 11
-11.66041244250865
 21
-3.197937787456723
 31
0.0
  0
LINE
  5
645
330
1F
100
AcDbEntity
  8
SK2
  6
CONTINUOUS
370
25
 62
7
100
AcDbLine
 10
-12.15568102687558
 20
-2.278405134377877
 30
0.0
 11
-11.76647845968663
 21
-2.667607701566816
 31
0.0
  0
LINE
  5
646
330
1F
100
AcDbEntity
  8
SK2
  6
CONTINUOUS
370
25
 62
7
100
AcDbLine
 10
-12.08497034875692
 20
-1.924851743784629
 30
0.0
 11
-11.87254447686462
 21
-2.137277615676922
 31
0.0
  0
LINE
  5
647
330
1F
100
AcDbEntity
  8
SK2
  6
CONTINUOUS
370
25
 62
7
100
AcDbLine
 10
-12.01425967063826
 20
-1.571298353191345
 30
0.0
 11
-11.97861049404261
 21
-1.606947529787
 31
0.0
  0
LINE
  5
648
330
1F
100
AcDbEntity
  8
SK2
  6
CONTINUOUS
370
25
 62
7
100
AcDbLine
 10
-12.0
 20
1.5
 30
0.0
 11
-13.0
 21
6.5
 31
0.0
  0
LINE
  5
649
330
1F
100
AcDbEntity
  8
SK2
  6
CONTINUOUS
370
25
 62
7
100
AcDbLine
 10
-13.0
 20
6.5
 30
0.0
 11
-11.0
 21
6.5
 31
0.0
  0
LINE
  5
64A
330
1F
100
AcDbEntity
  8
SK2
  6
CONTINUOUS
370
25
 62
7
100
AcDbLine
 10
-11.0
 20
6.5
 30
0.0
 11
-12.0
 21
1.5
 31
0.0
  0
LINE
  5
64B
330
1F
100
AcDbEntity
  8
SK2
  6
CONTINUOUS
370
25
 62
7
100
AcDbLine
 10
-12.02326838446487
 20
1.616341922324345
 30
0.0
 11
-11.96509742330269
 21
1.674512883486521
 31
0.0
  0
LINE
  5
64C
330
1F
100
AcDbEntity
  8
SK2
  6
CONTINUOUS
370
25
 62
7
100
AcDbLine
 10
-12.09397906258353
 20
1.969895312917622
 30
0.0
 11
-11.85903140612471
 21
2.204842969376436
 31
0.0
  0
LINE
  5
64D
330
1F
100
AcDbEntity
  8
SK2
  6
CONTINUOUS
370
25
 62
7
100
AcDbLine
 10
-12.16468974070218
 20
2.323448703510891
 30
0.0
 11
-11.75296538894673
 21
2.735173055266344
 31
0.0
  0
LINE
  5
64E
330
1F
100
AcDbEntity
  8
SK2
  6
CONTINUOUS
370
25
 62
7
100
AcDbLine
 10
-12.23540041882084
 20
2.677002094104161
 30
0.0
 11
-11.64689937176875
 21
3.265503141156266
 31
0.0
  0
LINE
  5
64F
330
1F
100
AcDbEntity
  8
SK2
  6
CONTINUOUS
370
25
 62
7
100
AcDbLine
 10
-12.3061110969395
 20
3.030555484697437
 30
0.0
 11
-11.54083335459076
 21
3.795833227046174
 31
0.0
  0
LINE
  5
650
330
1F
100
AcDbEntity
  8
SK2
  6
CONTINUOUS
370
25
 62
7
100
AcDbLine
 10
-12.37682177505815
 20
3.384108875290707
 30
0.0
 11
-11.43476733741278
 21
4.326163312936082
 31
0.0
  0
LINE
  5
651
330
1F
100
AcDbEntity
  8
SK2
  6
CONTINUOUS
370
25
 62
7
100
AcDbLine
 10
-12.44753245317681
 20
3.737662265883998
 30
0.0
 11
-11.32870132023479
 21
4.856493398826018
 31
0.0
  0
LINE
  5
652
330
1F
100
AcDbEntity
  8
SK2
  6
CONTINUOUS
370
25
 62
7
100
AcDbLine
 10
-12.51824313129546
 20
4.091215656477267
 30
0.0
 11
-11.22263530305682
 21
5.386823484715912
 31
0.0
  0
LINE
  5
653
330
1F
100
AcDbEntity
  8
SK2
  6
CONTINUOUS
370
25
 62
7
100
AcDbLine
 10
-12.58895380941411
 20
4.444769047070537
 30
0.0
 11
-11.11656928587884
 21
5.917153570605819
 31
0.0
  0
LINE
  5
654
330
1F
100
AcDbEntity
  8
SK2
  6
CONTINUOUS
370
25
 62
7
100
AcDbLine
 10
-12.65966448753275
 20
4.798322437663813
 30
0.0
 11
-11.01050326870086
 21
6.44748365649572
 31
0.0
  0
LINE
  5
655
330
1F
100
AcDbEntity
  8
SK2
  6
CONTINUOUS
370
25
 62
7
100
AcDbLine
 10
-12.73037516565142
 20
5.15187582825709
 30
0.0
 11
-11.38225099390853
 21
6.5
 31
0.0
  0
LINE
  5
656
330
1F
100
AcDbEntity
  8
SK2
  6
CONTINUOUS
370
25
 62
7
100
AcDbLine
 10
-12.80108584377007
 20
5.505429218850367
 30
0.0
 11
-11.80651506262045
 21
6.5
 31
0.0
  0
LINE
  5
657
330
1F
100
AcDbEntity
  8
SK2
  6
CONTINUOUS
370
25
 62
7
100
AcDbLine
 10
-12.87179652188873
 20
5.858982609443629
 30
0.0
 11
-12.23077913133236
 21
6.5
 31
0.0
  0
LINE
  5
658
330
1F
100
AcDbEntity
  8
SK2
  6
CONTINUOUS
370
25
 62
7
100
AcDbLine
 10
-12.94250720000738
 20
6.21253600003692
 30
0.0
 11
-12.6550432000443
 21
6.5
 31
0.0
  0
LINE
  5
659
330
1F
100
AcDbEntity
  8
SK2
  6
CONTINUOUS
370
25
 62
7
100
AcDbLine
 10
-12.04662997870314
 20
1.733149893515701
 30
0.0
 11
-11.96891334753124
 21
1.655433262343813
 31
0.0
  0
LINE
  5
65A
330
1F
100
AcDbEntity
  8
SK2
  6
CONTINUOUS
370
25
 62
7
100
AcDbLine
 10
-12.15269599588112
 20
2.263479979405616
 30
0.0
 11
-11.89820266941258
 21
2.008986652937082
 31
0.0
  0
LINE
  5
65B
330
1F
100
AcDbEntity
  8
SK2
  6
CONTINUOUS
370
25
 62
7
100
AcDbLine
 10
-12.2587620130591
 20
2.793810065295531
 30
0.0
 11
-11.82749199129393
 21
2.362540043530366
 31
0.0
  0
LINE
  5
65C
330
1F
100
AcDbEntity
  8
SK2
  6
CONTINUOUS
370
25
 62
7
100
AcDbLine
 10
-12.36482803023708
 20
3.324140151185425
 30
0.0
 11
-11.75678131317528
 21
2.716093434123628
 31
0.0
  0
LINE
  5
65D
330
1F
100
AcDbEntity
  8
SK2
  6
CONTINUOUS
370
25
 62
7
100
AcDbLine
 10
-12.47089404741506
 20
3.854470237075333
 30
0.0
 11
-11.68607063505662
 21
3.069646824716905
 31
0.0
  0
LINE
  5
65E
330
1F
100
AcDbEntity
  8
SK2
  6
CONTINUOUS
370
25
 62
7
100
AcDbLine
 10
-12.57696006459304
 20
4.384800322965233
 30
0.0
 11
-11.61535995693797
 21
3.423200215310175
 31
0.0
  0
LINE
  5
65F
330
1F
100
AcDbEntity
  8
SK2
  6
CONTINUOUS
370
25
 62
7
100
AcDbLine
 10
-12.68302608177102
 20
4.915130408855148
 30
0.0
 11
-11.54464927881931
 21
3.776753605903458
 31
0.0
  0
LINE
  5
660
330
1F
100
AcDbEntity
  8
SK2
  6
CONTINUOUS
370
25
 62
7
100
AcDbLine
 10
-12.789092098949
 20
5.445460494745042
 30
0.0
 11
-11.47393860070066
 21
4.130306996496721
 31
0.0
  0
LINE
  5
661
330
1F
100
AcDbEntity
  8
SK2
  6
CONTINUOUS
370
25
 62
7
100
AcDbLine
 10
-12.89515811612698
 20
5.97579058063495
 30
0.0
 11
-11.40322792258201
 21
4.483860387089997
 31
0.0
  0
LINE
  5
662
330
1F
100
AcDbEntity
  8
SK2
  6
CONTINUOUS
370
25
 62
7
100
AcDbLine
 10
-12.9951034667801
 20
6.5
 30
0.0
 11
-11.33251724446335
 21
4.837413777683267
 31
0.0
  0
LINE
  5
663
330
1F
100
AcDbEntity
  8
SK2
  6
CONTINUOUS
370
25
 62
7
100
AcDbLine
 10
-12.57083939806817
 20
6.5
 30
0.0
 11
-11.26180656634469
 21
5.190967168276529
 31
0.0
  0
LINE
  5
664
330
1F
100
AcDbEntity
  8
SK2
  6
CONTINUOUS
370
25
 62
7
100
AcDbLine
 10
-12.14657532935625
 20
6.5
 30
0.0
 11
-11.19109588822604
 21
5.544520558869799
 31
0.0
  0
LINE
  5
665
330
1F
100
AcDbEntity
  8
SK2
  6
CONTINUOUS
370
25
 62
7
100
AcDbLine
 10
-11.72231126064432
 20
6.5
 30
0.0
 11
-11.12038521010739
 21
5.898073949463075
 31
0.0
  0
LINE
  5
666
330
1F
100
AcDbEntity
  8
SK2
  6
CONTINUOUS
370
25
 62
7
100
AcDbLine
 10
-11.29804719193239
 20
6.5
 30
0.0
 11
-11.04967453198873
 21
6.251627340056345
 31
0.0
  0
TEXT
  5
667
330
1F
100
AcDbEntity
  8
SK2
  6
CONTINUOUS
370
25
 62
7
100
AcDbText
 10
-13.5
 20
11.84583333333333
 30
0.0
 40
3.5
  1
3
 50
90.00000000000001
 72
     1
 11
-13.5
 21
13.0125
 31
0.0
100
AcDbText
  0
CIRCLE
  5
668
330
1F
100
AcDbEntity
  8
SK2
  6
CONTINUOUS
370
25
 62
7
100
AcDbCircle
 10
-15.25
 20
9.6875
 30
0.0
 40
1.4
  0
LINE
  5
669
330
1F
100
AcDbEntity
  8
SK2
  6
CONTINUOUS
370
25
 62
7
100
AcDbLine
 10
-13.85
 20
8.287500000000001
 30
0.0
 11
-16.65000000000001
 21
11.0875
 31
0.0
  0
LINE
  5
66A
330
1F
100
AcDbEntity
  8
SK2
  6
CONTINUOUS
370
25
 62
7
100
AcDbLine
 10
0.0
 20
1.5
 30
0.0
 11
0.0
 21
14.50001
 31
0.0
  0
LINE
  5
66B
330
1F
100
AcDbEntity
  8
SK2
  6
CONTINUOUS
370
25
 62
7
100
AcDbLine
 10
50.0
 20
14.50001
 30
0.0
 11
50.0
 21
1.5
 31
0.0
  0
LINE
  5
66C
330
1F
100
AcDbEntity
  8
SK2
  6
CONTINUOUS
370
25
 62
7
100
AcDbLine
 10
0.0
 20
13.50001
 30
0.0
 11
50.0
 21
13.50001
 31
0.0
  0
LINE
  5
66D
330
1F
100
AcDbEntity
  8
SK2
  6
CONTINUOUS
370
25
 62
7
100
AcDbLine
 10
0.0
 20
13.50001
 30
0.0
 11
5.0
 21
14.50001
 31
0.0
  0
LINE
  5
66E
330
1F
100
AcDbEntity
  8
SK2
  6
CONTINUOUS
370
25
 62
7
100
AcDbLine
 10
5.0
 20
14.50001
 30
0.0
 11
5.0
 21
12.50001
 31
0.0
  0
LINE
  5
66F
330
1F
100
AcDbEntity
  8
SK2
  6
CONTINUOUS
370
25
 62
7
100
AcDbLine
 10
5.0
 20
12.50001
 30
0.0
 11
0.0
 21
13.50001
 31
0.0
  0
LINE
  5
670
330
1F
100
AcDbEntity
  8
SK2
  6
CONTINUOUS
370
25
 62
7
100
AcDbLine
 10
4.833413879314797
 20
12.53332722413705
 30
0.0
 11
5.0
 21
12.69991334482225
 31
0.0
  0
LINE
  5
671
330
1F
100
AcDbEntity
  8
SK2
  6
CONTINUOUS
370
25
 62
7
100
AcDbLine
 10
4.479860488721521
 20
12.6040379022557
 30
0.0
 11
5.0
 21
13.12417741353418
 31
0.0
  0
LINE
  5
672
330
1F
100
AcDbEntity
  8
SK2
  6
CONTINUOUS
370
25
 62
7
100
AcDbLine
 10
4.126307098128251
 20
12.67474858037436
 30
0.0
 11
5.0
 21
13.5484414822461
 31
0.0
  0
LINE
  5
673
330
1F
100
AcDbEntity
  8
SK2
  6
CONTINUOUS
370
25
 62
7
100
AcDbLine
 10
3.772753707534974
 20
12.74545925849301
 30
0.0
 11
5.0
 21
13.97270555095804
 31
0.0
  0
LINE
  5
674
330
1F
100
AcDbEntity
  8
SK2
  6
CONTINUOUS
370
25
 62
7
100
AcDbLine
 10
3.419200316941691
 20
12.81616993661167
 30
0.0
 11
5.0
 21
14.39696961966997
 31
0.0
  0
LINE
  5
675
330
1F
100
AcDbEntity
  8
SK2
  6
CONTINUOUS
370
25
 62
7
100
AcDbLine
 10
3.065646926348414
 20
12.88688061473032
 30
0.0
 11
4.59847038952261
 21
14.41970407790451
 31
0.0
  0
LINE
  5
676
330
1F
100
AcDbEntity
  8
SK2
  6
CONTINUOUS
370
25
 62
7
100
AcDbLine
 10
2.712093535755145
 20
12.95759129284897
 30
0.0
 11
4.06814030363271
 21
14.31363806072654
 31
0.0
  0
LINE
  5
677
330
1F
100
AcDbEntity
  8
SK2
  6
CONTINUOUS
370
25
 62
7
100
AcDbLine
 10
2.358540145161868
 20
13.02830197096763
 30
0.0
 11
3.537810217742795
 21
14.20757204354856
 31
0.0
  0
LINE
  5
678
330
1F
100
AcDbEntity
  8
SK2
  6
CONTINUOUS
370
25
 62
7
100
AcDbLine
 10
2.004986754568591
 20
13.09901264908629
 30
0.0
 11
3.007480131852873
 21
14.10150602637057
 31
0.0
  0
LINE
  5
679
330
1F
100
AcDbEntity
  8
SK2
  6
CONTINUOUS
370
25
 62
7
100
AcDbLine
 10
1.651433363975308
 20
13.16972332720493
 30
0.0
 11
2.477150045962958
 21
13.99544000919258
 31
0.0
  0
LINE
  5
67A
330
1F
100
AcDbEntity
  8
SK2
  6
CONTINUOUS
370
25
 62
7
100
AcDbLine
 10
1.297879973382038
 20
13.24043400532359
 30
0.0
 11
1.946819960073057
 21
13.88937399201461
 31
0.0
  0
LINE
  5
67B
330
1F
100
AcDbEntity
  8
SK2
  6
CONTINUOUS
370
25
 62
7
100
AcDbLine
 10
0.9443265827887615
 20
13.31114468344225
 30
0.0
 11
1.416489874183135
 21
13.78330797483662
 31
0.0
  0
LINE
  5
67C
330
1F
100
AcDbEntity
  8
SK2
  6
CONTINUOUS
370
25
 62
7
100
AcDbLine
 10
0.5907731921954849
 20
13.38185536156091
 30
0.0
 11
0.8861597882932202
 21
13.67724195765864
 31
0.0
  0
LINE
  5
67D
330
1F
100
AcDbEntity
  8
SK2
  6
CONTINUOUS
370
25
 62
7
100
AcDbLine
 10
0.2372198016022011
 20
13.45256603967955
 30
0.0
 11
0.3558297024032981
 21
13.57117594048065
 31
0.0
  0
LINE
  5
67E
330
1F
100
AcDbEntity
  8
SK2
  6
CONTINUOUS
370
25
 62
7
100
AcDbLine
 10
0.0028983318605711
 20
13.50058966637212
 30
0.0
 11
0.0043474977908673
 21
13.49914050044183
 31
0.0
  0
LINE
  5
67F
330
1F
100
AcDbEntity
  8
SK2
  6
CONTINUOUS
370
25
 62
7
100
AcDbLine
 10
0.3564517224538548
 20
13.57130034449077
 30
0.0
 11
0.5346775836807822
 21
13.39307448326385
 31
0.0
  0
LINE
  5
680
330
1F
100
AcDbEntity
  8
SK2
  6
CONTINUOUS
370
25
 62
7
100
AcDbLine
 10
0.7100051130471243
 20
13.64201102260943
 30
0.0
 11
1.06500766957069
 21
13.28700846608587
 31
0.0
  0
LINE
  5
681
330
1F
100
AcDbEntity
  8
SK2
  6
CONTINUOUS
370
25
 62
7
100
AcDbLine
 10
1.063558503640401
 20
13.71272170072809
 30
0.0
 11
1.595337755460612
 21
13.18094244890788
 31
0.0
  0
LINE
  5
682
330
1F
100
AcDbEntity
  8
SK2
  6
CONTINUOUS
370
25
 62
7
100
AcDbLine
 10
1.417111894233685
 20
13.78343237884673
 30
0.0
 11
2.125667841350527
 21
13.07487643172989
 31
0.0
  0
LINE
  5
683
330
1F
100
AcDbEntity
  8
SK2
  6
CONTINUOUS
370
25
 62
7
100
AcDbLine
 10
1.770665284826947
 20
13.8541430569654
 30
0.0
 11
2.655997927240435
 21
12.96881041455191
 31
0.0
  0
LINE
  5
684
330
1F
100
AcDbEntity
  8
SK2
  6
CONTINUOUS
370
25
 62
7
100
AcDbLine
 10
2.124218675420231
 20
13.92485373508405
 30
0.0
 11
3.18632801313035
 21
12.86274439737393
 31
0.0
  0
LINE
  5
685
330
1F
100
AcDbEntity
  8
SK2
  6
CONTINUOUS
370
25
 62
7
100
AcDbLine
 10
2.477772066013507
 20
13.99556441320271
 30
0.0
 11
3.716658099020272
 21
12.75667838019594
 31
0.0
  0
LINE
  5
686
330
1F
100
AcDbEntity
  8
SK2
  6
CONTINUOUS
370
25
 62
7
100
AcDbLine
 10
2.831325456606791
 20
14.06627509132135
 30
0.0
 11
4.246988184910194
 21
12.65061236301796
 31
0.0
  0
LINE
  5
687
330
1F
100
AcDbEntity
  8
SK2
  6
CONTINUOUS
370
25
 62
7
100
AcDbLine
 10
3.184878847200054
 20
14.13698576944002
 30
0.0
 11
4.777318270800095
 21
12.54454634583998
 31
0.0
  0
LINE
  5
688
330
1F
100
AcDbEntity
  8
SK2
  6
CONTINUOUS
370
25
 62
7
100
AcDbLine
 10
3.538432237793337
 20
14.20769644755867
 30
0.0
 11
5.0
 21
12.74612868535201
 31
0.0
  0
LINE
  5
689
330
1F
100
AcDbEntity
  8
SK2
  6
CONTINUOUS
370
25
 62
7
100
AcDbLine
 10
3.891985628386614
 20
14.27840712567732
 30
0.0
 11
5.0
 21
13.17039275406394
 31
0.0
  0
LINE
  5
68A
330
1F
100
AcDbEntity
  8
SK2
  6
CONTINUOUS
370
25
 62
7
100
AcDbLine
 10
4.245539018979898
 20
14.34911780379598
 30
0.0
 11
5.0
 21
13.59465682277587
 31
0.0
  0
LINE
  5
68B
330
1F
100
AcDbEntity
  8
SK2
  6
CONTINUOUS
370
25
 62
7
100
AcDbLine
 10
4.599092409573167
 20
14.41982848191464
 30
0.0
 11
5.0
 21
14.01892089148781
 31
0.0
  0
LINE
  5
68C
330
1F
100
AcDbEntity
  8
SK2
  6
CONTINUOUS
370
25
 62
7
100
AcDbLine
 10
4.952645800166444
 20
14.49053916003329
 30
0.0
 11
5.0
 21
14.44318496019974
 31
0.0
  0
LINE
  5
68D
330
1F
100
AcDbEntity
  8
SK2
  6
CONTINUOUS
370
25
 62
7
100
AcDbLine
 10
50.0
 20
13.50001
 30
0.0
 11
45.0
 21
12.50001
 31
0.0
  0
LINE
  5
68E
330
1F
100
AcDbEntity
  8
SK2
  6
CONTINUOUS
370
25
 62
7
100
AcDbLine
 10
45.0
 20
12.50001
 30
0.0
 11
45.0
 21
14.50001
 31
0.0
  0
LINE
  5
68F
330
1F
100
AcDbEntity
  8
SK2
  6
CONTINUOUS
370
25
 62
7
100
AcDbLine
 10
45.0
 20
14.50001
 30
0.0
 11
50.0
 21
13.50001
 31
0.0
  0
LINE
  5
690
330
1F
100
AcDbEntity
  8
SK2
  6
CONTINUOUS
370
25
 62
7
100
AcDbLine
 10
49.90444975152286
 20
13.48089995030457
 30
0.0
 11
49.93629983434857
 21
13.51275003313028
 31
0.0
  0
LINE
  5
691
330
1F
100
AcDbEntity
  8
SK2
  6
CONTINUOUS
370
25
 62
7
100
AcDbLine
 10
49.37411966563295
 20
13.37483393312659
 30
0.0
 11
49.5827464437553
 21
13.58346071124894
 31
0.0
  0
LINE
  5
692
330
1F
100
AcDbEntity
  8
SK2
  6
CONTINUOUS
370
25
 62
7
100
AcDbLine
 10
48.84378957974305
 20
13.26876791594861
 30
0.0
 11
49.22919305316203
 21
13.65417138936759
 31
0.0
  0
LINE
  5
693
330
1F
100
AcDbEntity
  8
SK2
  6
CONTINUOUS
370
25
 62
7
100
AcDbLine
 10
48.31345949385313
 20
13.16270189877063
 30
0.0
 11
48.87563966256876
 21
13.72488206748625
 31
0.0
  0
LINE
  5
694
330
1F
100
AcDbEntity
  8
SK2
  6
CONTINUOUS
370
25
 62
7
100
AcDbLine
 10
47.78312940796322
 20
13.05663588159264
 30
0.0
 11
48.52208627197548
 21
13.7955927456049
 31
0.0
  0
LINE
  5
695
330
1F
100
AcDbEntity
  8
SK2
  6
CONTINUOUS
370
25
 62
7
100
AcDbLine
 10
47.25279932207332
 20
12.95056986441466
 30
0.0
 11
48.16853288138221
 21
13.86630342372356
 31
0.0
  0
LINE
  5
696
330
1F
100
AcDbEntity
  8
SK2
  6
CONTINUOUS
370
25
 62
7
100
AcDbLine
 10
46.7224692361834
 20
12.84450384723668
 30
0.0
 11
47.81497949078894
 21
13.93701410184221
 31
0.0
  0
LINE
  5
697
330
1F
100
AcDbEntity
  8
SK2
  6
CONTINUOUS
370
25
 62
7
100
AcDbLine
 10
46.19213915029349
 20
12.7384378300587
 30
0.0
 11
47.46142610019566
 21
14.00772477996087
 31
0.0
  0
LINE
  5
698
330
1F
100
AcDbEntity
  8
SK2
  6
CONTINUOUS
370
25
 62
7
100
AcDbLine
 10
45.66180906440358
 20
12.63237181288072
 30
0.0
 11
47.10787270960239
 21
14.07843545807952
 31
0.0
  0
LINE
  5
699
330
1F
100
AcDbEntity
  8
SK2
  6
CONTINUOUS
370
25
 62
7
100
AcDbLine
 10
45.13147897851367
 20
12.52630579570273
 30
0.0
 11
46.75431931900911
 21
14.14914613619818
 31
0.0
  0
LINE
  5
69A
330
1F
100
AcDbEntity
  8
SK2
  6
CONTINUOUS
370
25
 62
7
100
AcDbLine
 10
45.0
 20
12.81909088590099
 30
0.0
 11
46.40076592841584
 21
14.21985681431683
 31
0.0
  0
LINE
  5
69B
330
1F
100
AcDbEntity
  8
SK2
  6
CONTINUOUS
370
25
 62
7
100
AcDbLine
 10
45.0
 20
13.24335495461292
 30
0.0
 11
46.04721253782257
 21
14.29056749243549
 31
0.0
  0
LINE
  5
69C
330
1F
100
AcDbEntity
  8
SK2
  6
CONTINUOUS
370
25
 62
7
100
AcDbLine
 10
45.0
 20
13.66761902332484
 30
0.0
 11
45.6936591472293
 21
14.36127817055414
 31
0.0
  0
LINE
  5
69D
330
1F
100
AcDbEntity
  8
SK2
  6
CONTINUOUS
370
25
 62
7
100
AcDbLine
 10
45.0
 20
14.09188309203677
 30
0.0
 11
45.34010575663602
 21
14.43198884867279
 31
0.0
  0
LINE
  5
69E
330
1F
100
AcDbEntity
  8
SK2
  6
CONTINUOUS
370
25
 62
7
100
AcDbLine
 10
45.0
 20
12.63675323681471
 30
0.0
 11
45.1139526973456
 21
12.52280053946912
 31
0.0
  0
LINE
  5
69F
330
1F
100
AcDbEntity
  8
SK2
  6
CONTINUOUS
370
25
 62
7
100
AcDbLine
 10
45.0
 20
13.06101730552664
 30
0.0
 11
45.46750608793887
 21
12.59351121758777
 31
0.0
  0
LINE
  5
6A0
330
1F
100
AcDbEntity
  8
SK2
  6
CONTINUOUS
370
25
 62
7
100
AcDbLine
 10
45.0
 20
13.48528137423857
 30
0.0
 11
45.82105947853214
 21
12.66422189570643
 31
0.0
  0
LINE
  5
6A1
330
1F
100
AcDbEntity
  8
SK2
  6
CONTINUOUS
370
25
 62
7
100
AcDbLine
 10
45.0
 20
13.9095454429505
 30
0.0
 11
46.17461286912542
 21
12.73493257382508
 31
0.0
  0
LINE
  5
6A2
330
1F
100
AcDbEntity
  8
SK2
  6
CONTINUOUS
370
25
 62
7
100
AcDbLine
 10
45.0
 20
14.33380951166242
 30
0.0
 11
46.52816625971869
 21
12.80564325194374
 31
0.0
  0
LINE
  5
6A3
330
1F
100
AcDbEntity
  8
SK2
  6
CONTINUOUS
370
25
 62
7
100
AcDbLine
 10
45.32257947546794
 20
14.43549410490641
 30
0.0
 11
46.88171965031196
 21
12.87635393006239
 31
0.0
  0
LINE
  5
6A4
330
1F
100
AcDbEntity
  8
SK2
  6
CONTINUOUS
370
25
 62
7
100
AcDbLine
 10
45.85290956135785
 20
14.32942808772843
 30
0.0
 11
47.23527304090523
 21
12.94706460818105
 31
0.0
  0
LINE
  5
6A5
330
1F
100
AcDbEntity
  8
SK2
  6
CONTINUOUS
370
25
 62
7
100
AcDbLine
 10
46.38323964724776
 20
14.22336207055045
 30
0.0
 11
47.5888264314985
 21
13.0177752862997
 31
0.0
  0
LINE
  5
6A6
330
1F
100
AcDbEntity
  8
SK2
  6
CONTINUOUS
370
25
 62
7
100
AcDbLine
 10
46.91356973313767
 20
14.11729605337247
 30
0.0
 11
47.94237982209178
 21
13.08848596441836
 31
0.0
  0
LINE
  5
6A7
330
1F
100
AcDbEntity
  8
SK2
  6
CONTINUOUS
370
25
 62
7
100
AcDbLine
 10
47.44389981902758
 20
14.01123003619448
 30
0.0
 11
48.29593321268506
 21
13.15919664253701
 31
0.0
  0
LINE
  5
6A8
330
1F
100
AcDbEntity
  8
SK2
  6
CONTINUOUS
370
25
 62
7
100
AcDbLine
 10
47.97422990491749
 20
13.9051640190165
 30
0.0
 11
48.64948660327833
 21
13.22990732065567
 31
0.0
  0
LINE
  5
6A9
330
1F
100
AcDbEntity
  8
SK2
  6
CONTINUOUS
370
25
 62
7
100
AcDbLine
 10
48.5045599908074
 20
13.79909800183852
 30
0.0
 11
49.0030399938716
 21
13.30061799877432
 31
0.0
  0
LINE
  5
6AA
330
1F
100
AcDbEntity
  8
SK2
  6
CONTINUOUS
370
25
 62
7
100
AcDbLine
 10
49.03489007669731
 20
13.69303198466054
 30
0.0
 11
49.35659338446487
 21
13.37132867689298
 31
0.0
  0
LINE
  5
6AB
330
1F
100
AcDbEntity
  8
SK2
  6
CONTINUOUS
370
25
 62
7
100
AcDbLine
 10
49.56522016258722
 20
13.58696596748256
 30
0.0
 11
49.71014677505815
 21
13.44203935501163
 31
0.0
  0
TEXT
  5
6AC
330
1F
100
AcDbEntity
  8
SK2
  6
CONTINUOUS
370
25
 62
7
100
AcDbText
 10
22.375
 20
15.00001
 30
0.0
 40
3.5
  1
50
 72
     1
 11
25.0
 21
15.00001
 31
0.0
100
AcDbText
  0
LINE
  5
6AD
330
1F
100
AcDbEntity
  8
2
  6
CONTINUOUS
370
25
 62
7
100
AcDbLine
 10
50.0
 20
-1.50001
 30
0.0
 11
50.0
 21
-14.50001
 31
0.0
  0
LINE
  5
6AE
330
1F
100
AcDbEntity
  8
2
  6
CONTINUOUS
370
25
 62
7
100
AcDbLine
 10
51.2
 20
-14.50001
 30
0.0
 11
51.2
 21
-1.50001
 31
0.0
  0
LINE
  5
6AF
330
1F
100
AcDbEntity
  8
2
  6
CONTINUOUS
370
25
 62
7
100
AcDbLine
 10
34.075
 20
-13.50001
 30
0.0
 11
58.2
 21
-13.50001
 31
0.0
  0
LINE
  5
6B0
330
1F
100
AcDbEntity
  8
2
  6
CONTINUOUS
370
25
 62
7
100
AcDbLine
 10
50.0
 20
-13.50001
 30
0.0
 11
45.0
 21
-14.50001
 31
0.0
  0
LINE
  5
6B1
330
1F
100
AcDbEntity
  8
2
  6
CONTINUOUS
370
25
 62
7
100
AcDbLine
 10
45.0
 20
-14.50001
 30
0.0
 11
45.0
 21
-12.50001
 31
0.0
  0
LINE
  5
6B2
330
1F
100
AcDbEntity
  8
2
  6
CONTINUOUS
370
25
 62
7
100
AcDbLine
 10
45.0
 20
-12.50001
 30
0.0
 11
50.0
 21
-13.50001
 31
0.0
  0
LINE
  5
6B3
330
1F
100
AcDbEntity
  8
2
  6
CONTINUOUS
370
25
 62
7
100
AcDbLine
 10
49.88350214026433
 20
-13.52330957194713
 30
0.0
 11
49.92233476017622
 21
-13.48447695203524
 31
0.0
  0
LINE
  5
6B4
330
1F
100
AcDbEntity
  8
2
  6
CONTINUOUS
370
25
 62
7
100
AcDbLine
 10
49.35317205437443
 20
-13.62937558912511
 30
0.0
 11
49.56878136958295
 21
-13.41376627391659
 31
0.0
  0
LINE
  5
6B5
330
1F
100
AcDbEntity
  8
2
  6
CONTINUOUS
370
25
 62
7
100
AcDbLine
 10
48.82284196848452
 20
-13.7354416063031
 30
0.0
 11
49.21522797898967
 21
-13.34305559579794
 31
0.0
  0
LINE
  5
6B6
330
1F
100
AcDbEntity
  8
2
  6
CONTINUOUS
370
25
 62
7
100
AcDbLine
 10
48.29251188259461
 20
-13.84150762348108
 30
0.0
 11
48.8616745883964
 21
-13.27234491767928
 31
0.0
  0
LINE
  5
6B7
330
1F
100
AcDbEntity
  8
2
  6
CONTINUOUS
370
25
 62
7
100
AcDbLine
 10
47.7621817967047
 20
-13.94757364065906
 30
0.0
 11
48.50812119780313
 21
-13.20163423956063
 31
0.0
  0
LINE
  5
6B8
330
1F
100
AcDbEntity
  8
2
  6
CONTINUOUS
370
25
 62
7
100
AcDbLine
 10
47.23185171081479
 20
-14.05363965783704
 30
0.0
 11
48.15456780720986
 21
-13.13092356144197
 31
0.0
  0
LINE
  5
6B9
330
1F
100
AcDbEntity
  8
2
  6
CONTINUOUS
370
25
 62
7
100
AcDbLine
 10
46.70152162492487
 20
-14.15970567501502
 30
0.0
 11
47.80101441661658
 21
-13.06021288332332
 31
0.0
  0
LINE
  5
6BA
330
1F
100
AcDbEntity
  8
2
  6
CONTINUOUS
370
25
 62
7
100
AcDbLine
 10
46.17119153903496
 20
-14.26577169219301
 30
0.0
 11
47.44746102602331
 21
-12.98950220520466
 31
0.0
  0
LINE
  5
6BB
330
1F
100
AcDbEntity
  8
2
  6
CONTINUOUS
370
25
 62
7
100
AcDbLine
 10
45.64086145314506
 20
-14.37183770937099
 30
0.0
 11
47.09390763543004
 21
-12.91879152708601
 31
0.0
  0
LINE
  5
6BC
330
1F
100
AcDbEntity
  8
2
  6
CONTINUOUS
370
25
 62
7
100
AcDbLine
 10
45.11053136725515
 20
-14.47790372654897
 30
0.0
 11
46.74035424483677
 21
-12.84808084896735
 31
0.0
  0
LINE
  5
6BD
330
1F
100
AcDbEntity
  8
2
  6
CONTINUOUS
370
25
 62
7
100
AcDbLine
 10
45.0
 20
-14.16417102509219
 30
0.0
 11
46.38680085424349
 21
-12.7773701708487
 31
0.0
  0
LINE
  5
6BE
330
1F
100
AcDbEntity
  8
2
  6
CONTINUOUS
370
25
 62
7
100
AcDbLine
 10
45.0
 20
-13.73990695638026
 30
0.0
 11
46.03324746365022
 21
-12.70665949273004
 31
0.0
  0
LINE
  5
6BF
330
1F
100
AcDbEntity
  8
2
  6
CONTINUOUS
370
25
 62
7
100
AcDbLine
 10
45.0
 20
-13.31564288766833
 30
0.0
 11
45.67969407305694
 21
-12.63594881461139
 31
0.0
  0
LINE
  5
6C0
330
1F
100
AcDbEntity
  8
2
  6
CONTINUOUS
370
25
 62
7
100
AcDbLine
 10
45.0
 20
-12.89137881895641
 30
0.0
 11
45.32614068246367
 21
-12.56523813649273
 31
0.0
  0
LINE
  5
6C1
330
1F
100
AcDbEntity
  8
2
  6
CONTINUOUS
370
25
 62
7
100
AcDbLine
 10
45.0
 20
-14.16417102509219
 30
0.0
 11
45.27986581242317
 21
-14.44403683751536
 31
0.0
  0
LINE
  5
6C2
330
1F
100
AcDbEntity
  8
2
  6
CONTINUOUS
370
25
 62
7
100
AcDbLine
 10
45.0
 20
-13.73990695638026
 30
0.0
 11
45.63341920301644
 21
-14.37332615939671
 31
0.0
  0
LINE
  5
6C3
330
1F
100
AcDbEntity
  8
2
  6
CONTINUOUS
370
25
 62
7
100
AcDbLine
 10
45.0
 20
-13.31564288766834
 30
0.0
 11
45.98697259360972
 21
-14.30261548127806
 31
0.0
  0
LINE
  5
6C4
330
1F
100
AcDbEntity
  8
2
  6
CONTINUOUS
370
25
 62
7
100
AcDbLine
 10
45.0
 20
-12.89137881895641
 30
0.0
 11
46.340525984203
 21
-14.2319048031594
 31
0.0
  0
LINE
  5
6C5
330
1F
100
AcDbEntity
  8
2
  6
CONTINUOUS
370
25
 62
7
100
AcDbLine
 10
45.0411190621944
 20
-12.50823381243888
 30
0.0
 11
46.69407937479627
 21
-14.16119412504075
 31
0.0
  0
LINE
  5
6C6
330
1F
100
AcDbEntity
  8
2
  6
CONTINUOUS
370
25
 62
7
100
AcDbLine
 10
45.57144914808431
 20
-12.61429982961686
 30
0.0
 11
47.04763276538954
 21
-14.09048344692209
 31
0.0
  0
LINE
  5
6C7
330
1F
100
AcDbEntity
  8
2
  6
CONTINUOUS
370
25
 62
7
100
AcDbLine
 10
46.10177923397422
 20
-12.72036584679485
 30
0.0
 11
47.40118615598281
 21
-14.01977276880344
 31
0.0
  0
LINE
  5
6C8
330
1F
100
AcDbEntity
  8
2
  6
CONTINUOUS
370
25
 62
7
100
AcDbLine
 10
46.63210931986413
 20
-12.82643186397283
 30
0.0
 11
47.75473954657609
 21
-13.94906209068478
 31
0.0
  0
LINE
  5
6C9
330
1F
100
AcDbEntity
  8
2
  6
CONTINUOUS
370
25
 62
7
100
AcDbLine
 10
47.16243940575404
 20
-12.93249788115081
 30
0.0
 11
48.10829293716936
 21
-13.87835141256613
 31
0.0
  0
LINE
  5
6CA
330
1F
100
AcDbEntity
  8
2
  6
CONTINUOUS
370
25
 62
7
100
AcDbLine
 10
47.69276949164395
 20
-13.03856389832879
 30
0.0
 11
48.46184632776264
 21
-13.80764073444747
 31
0.0
  0
LINE
  5
6CB
330
1F
100
AcDbEntity
  8
2
  6
CONTINUOUS
370
25
 62
7
100
AcDbLine
 10
48.22309957753387
 20
-13.14462991550677
 30
0.0
 11
48.81539971835591
 21
-13.73693005632882
 31
0.0
  0
LINE
  5
6CC
330
1F
100
AcDbEntity
  8
2
  6
CONTINUOUS
370
25
 62
7
100
AcDbLine
 10
48.75342966342377
 20
-13.25069593268475
 30
0.0
 11
49.16895310894918
 21
-13.66621937821016
 31
0.0
  0
LINE
  5
6CD
330
1F
100
AcDbEntity
  8
2
  6
CONTINUOUS
370
25
 62
7
100
AcDbLine
 10
49.28375974931368
 20
-13.35676194986274
 30
0.0
 11
49.52250649954246
 21
-13.59550870009151
 31
0.0
  0
LINE
  5
6CE
330
1F
100
AcDbEntity
  8
2
  6
CONTINUOUS
370
25
 62
7
100
AcDbLine
 10
49.8140898352036
 20
-13.46282796704072
 30
0.0
 11
49.87605989013573
 21
-13.52479802197285
 31
0.0
  0
LINE
  5
6CF
330
1F
100
AcDbEntity
  8
2
  6
CONTINUOUS
370
25
 62
7
100
AcDbLine
 10
51.2
 20
-13.50001
 30
0.0
 11
56.2
 21
-12.50001
 31
0.0
  0
LINE
  5
6D0
330
1F
100
AcDbEntity
  8
2
  6
CONTINUOUS
370
25
 62
7
100
AcDbLine
 10
56.2
 20
-12.50001
 30
0.0
 11
56.2
 21
-14.50001
 31
0.0
  0
LINE
  5
6D1
330
1F
100
AcDbEntity
  8
2
  6
CONTINUOUS
370
25
 62
7
100
AcDbLine
 10
56.2
 20
-14.50001
 30
0.0
 11
51.2
 21
-13.50001
 31
0.0
  0
LINE
  5
6D2
330
1F
100
AcDbEntity
  8
2
  6
CONTINUOUS
370
25
 62
7
100
AcDbLine
 10
55.859474015797
 20
-14.4319048031594
 30
0.0
 11
56.2
 21
-14.0913788189564
 31
0.0
  0
LINE
  5
6D3
330
1F
100
AcDbEntity
  8
2
  6
CONTINUOUS
370
25
 62
7
100
AcDbLine
 10
55.50592062520373
 20
-14.36119412504075
 30
0.0
 11
56.2
 21
-13.66711475024447
 31
0.0
  0
LINE
  5
6D4
330
1F
100
AcDbEntity
  8
2
  6
CONTINUOUS
370
25
 62
7
100
AcDbLine
 10
55.15236723461045
 20
-14.29048344692209
 30
0.0
 11
56.2
 21
-13.24285068153254
 31
0.0
  0
LINE
  5
6D5
330
1F
100
AcDbEntity
  8
2
  6
CONTINUOUS
370
25
 62
7
100
AcDbLine
 10
54.79881384401718
 20
-14.21977276880344
 30
0.0
 11
56.2
 21
-12.81858661282062
 31
0.0
  0
LINE
  5
6D6
330
1F
100
AcDbEntity
  8
2
  6
CONTINUOUS
370
25
 62
7
100
AcDbLine
 10
54.44526045342391
 20
-14.14906209068478
 30
0.0
 11
56.06789068013586
 21
-12.52643186397283
 31
0.0
  0
LINE
  5
6D7
330
1F
100
AcDbEntity
  8
2
  6
CONTINUOUS
370
25
 62
7
100
AcDbLine
 10
54.09170706283064
 20
-14.07835141256613
 30
0.0
 11
55.53756059424595
 21
-12.63249788115081
 31
0.0
  0
LINE
  5
6D8
330
1F
100
AcDbEntity
  8
2
  6
CONTINUOUS
370
25
 62
7
100
AcDbLine
 10
53.73815367223736
 20
-14.00764073444747
 30
0.0
 11
55.00723050835604
 21
-12.73856389832879
 31
0.0
  0
LINE
  5
6D9
330
1F
100
AcDbEntity
  8
2
  6
CONTINUOUS
370
25
 62
7
100
AcDbLine
 10
53.38460028164408
 20
-13.93693005632882
 30
0.0
 11
54.47690042246613
 21
-12.84462991550677
 31
0.0
  0
LINE
  5
6DA
330
1F
100
AcDbEntity
  8
2
  6
CONTINUOUS
370
25
 62
7
100
AcDbLine
 10
53.03104689105081
 20
-13.86621937821016
 30
0.0
 11
53.94657033657622
 21
-12.95069593268476
 31
0.0
  0
LINE
  5
6DB
330
1F
100
AcDbEntity
  8
2
  6
CONTINUOUS
370
25
 62
7
100
AcDbLine
 10
52.67749350045754
 20
-13.79550870009151
 30
0.0
 11
53.41624025068631
 21
-13.05676194986274
 31
0.0
  0
LINE
  5
6DC
330
1F
100
AcDbEntity
  8
2
  6
CONTINUOUS
370
25
 62
7
100
AcDbLine
 10
52.32394010986427
 20
-13.72479802197285
 30
0.0
 11
52.8859101647964
 21
-13.16282796704072
 31
0.0
  0
LINE
  5
6DD
330
1F
100
AcDbEntity
  8
2
  6
CONTINUOUS
370
25
 62
7
100
AcDbLine
 10
51.97038671927099
 20
-13.6540873438542
 30
0.0
 11
52.35558007890648
 21
-13.2688939842187
 31
0.0
  0
LINE
  5
6DE
330
1F
100
AcDbEntity
  8
2
  6
CONTINUOUS
370
25
 62
7
100
AcDbLine
 10
51.61683332867772
 20
-13.58337666573554
 30
0.0
 11
51.82524999301658
 21
-13.37496000139668
 31
0.0
  0
LINE
  5
6DF
330
1F
100
AcDbEntity
  8
2
  6
CONTINUOUS
370
25
 62
7
100
AcDbLine
 10
51.26327993808444
 20
-13.51266598761689
 30
0.0
 11
51.29491990712667
 21
-13.48102601857467
 31
0.0
  0
LINE
  5
6E0
330
1F
100
AcDbEntity
  8
2
  6
CONTINUOUS
370
25
 62
7
100
AcDbLine
 10
51.21700506804395
 20
-13.49660898639121
 30
0.0
 11
51.22550760206592
 21
-13.50511152041318
 31
0.0
  0
LINE
  5
6E1
330
1F
100
AcDbEntity
  8
2
  6
CONTINUOUS
370
25
 62
7
100
AcDbLine
 10
51.57055845863722
 20
-13.42589830827255
 30
0.0
 11
51.75583768795584
 21
-13.61117753759117
 31
0.0
  0
LINE
  5
6E2
330
1F
100
AcDbEntity
  8
2
  6
CONTINUOUS
370
25
 62
7
100
AcDbLine
 10
51.9241118492305
 20
-13.3551876301539
 30
0.0
 11
52.28616777384575
 21
-13.71724355476915
 31
0.0
  0
LINE
  5
6E3
330
1F
100
AcDbEntity
  8
2
  6
CONTINUOUS
370
25
 62
7
100
AcDbLine
 10
52.27766523982377
 20
-13.28447695203525
 30
0.0
 11
52.81649785973566
 21
-13.82330957194713
 31
0.0
  0
LINE
  5
6E4
330
1F
100
AcDbEntity
  8
2
  6
CONTINUOUS
370
25
 62
7
100
AcDbLine
 10
52.63121863041705
 20
-13.21376627391659
 30
0.0
 11
53.34682794562557
 21
-13.92937558912511
 31
0.0
  0
LINE
  5
6E5
330
1F
100
AcDbEntity
  8
2
  6
CONTINUOUS
370
25
 62
7
100
AcDbLine
 10
52.98477202101031
 20
-13.14305559579794
 30
0.0
 11
53.87715803151548
 21
-14.0354416063031
 31
0.0
  0
LINE
  5
6E6
330
1F
100
AcDbEntity
  8
2
  6
CONTINUOUS
370
25
 62
7
100
AcDbLine
 10
53.33832541160359
 20
-13.07234491767928
 30
0.0
 11
54.40748811740539
 21
-14.14150762348108
 31
0.0
  0
LINE
  5
6E7
330
1F
100
AcDbEntity
  8
2
  6
CONTINUOUS
370
25
 62
7
100
AcDbLine
 10
53.69187880219686
 20
-13.00163423956063
 30
0.0
 11
54.93781820329529
 21
-14.24757364065906
 31
0.0
  0
LINE
  5
6E8
330
1F
100
AcDbEntity
  8
2
  6
CONTINUOUS
370
25
 62
7
100
AcDbLine
 10
54.04543219279014
 20
-12.93092356144197
 30
0.0
 11
55.46814828918521
 21
-14.35363965783704
 31
0.0
  0
LINE
  5
6E9
330
1F
100
AcDbEntity
  8
2
  6
CONTINUOUS
370
25
 62
7
100
AcDbLine
 10
54.39898558338341
 20
-12.86021288332332
 30
0.0
 11
55.99847837507512
 21
-14.45970567501502
 31
0.0
  0
LINE
  5
6EA
330
1F
100
AcDbEntity
  8
2
  6
CONTINUOUS
370
25
 62
7
100
AcDbLine
 10
54.75253897397668
 20
-12.78950220520466
 30
0.0
 11
56.2
 21
-14.23696323122798
 31
0.0
  0
LINE
  5
6EB
330
1F
100
AcDbEntity
  8
2
  6
CONTINUOUS
370
25
 62
7
100
AcDbLine
 10
55.10609236456996
 20
-12.71879152708601
 30
0.0
 11
56.2
 21
-13.81269916251605
 31
0.0
  0
LINE
  5
6EC
330
1F
100
AcDbEntity
  8
2
  6
CONTINUOUS
370
25
 62
7
100
AcDbLine
 10
55.45964575516323
 20
-12.64808084896735
 30
0.0
 11
56.2
 21
-13.38843509380412
 31
0.0
  0
LINE
  5
6ED
330
1F
100
AcDbEntity
  8
2
  6
CONTINUOUS
370
25
 62
7
100
AcDbLine
 10
55.81319914575651
 20
-12.5773701708487
 30
0.0
 11
56.2
 21
-12.96417102509219
 31
0.0
  0
LINE
  5
6EE
330
1F
100
AcDbEntity
  8
2
  6
CONTINUOUS
370
25
 62
7
100
AcDbLine
 10
56.16675253634978
 20
-12.50665949273004
 30
0.0
 11
56.2
 21
-12.53990695638027
 31
0.0
  0
TEXT
  5
6EF
330
1F
100
AcDbEntity
  8
2
  6
CONTINUOUS
370
25
 62
7
100
AcDbText
 10
36.62083333333334
 20
-12.00001
 30
0.0
 40
3.5
  1
1.2
 72
     1
 11
39.5375
 21
-12.00001
 31
0.0
100
AcDbText
  0
LINE
  5
6F0
330
1F
100
AcDbEntity
  8
2
  6
CONTINUOUS
370
25
 62
7
100
AcDbLine
 10
65.63602977
 20
-1.0
 30
0.0
 11
99.0
 21
-1.000000000000004
 31
0.0
  0
LINE
  5
6F1
330
1F
100
AcDbEntity
  8
2
  6
CONTINUOUS
370
25
 62
7
100
AcDbLine
 10
99.0
 20
0.9999999999999961
 30
0.0
 11
65.63602977
 21
1.0
 31
0.0
  0
LINE
  5
6F2
330
1F
100
AcDbEntity
  8
2
  6
CONTINUOUS
370
25
 62
7
100
AcDbLine
 10
98.0
 20
-8.000000000000004
 30
0.0
 11
98.0
 21
14.475
 31
0.0
  0
LINE
  5
6F3
330
1F
100
AcDbEntity
  8
2
  6
CONTINUOUS
370
25
 62
7
100
AcDbLine
 10
98.0
 20
-1.000000000000004
 30
0.0
 11
99.0
 21
-6.000000000000004
 31
0.0
  0
LINE
  5
6F4
330
1F
100
AcDbEntity
  8
2
  6
CONTINUOUS
370
25
 62
7
100
AcDbLine
 10
99.0
 20
-6.000000000000004
 30
0.0
 11
97.0
 21
-6.000000000000004
 31
0.0
  0
LINE
  5
6F5
330
1F
100
AcDbEntity
  8
2
  6
CONTINUOUS
370
25
 62
7
100
AcDbLine
 10
97.0
 20
-6.000000000000004
 30
0.0
 11
98.0
 21
-1.000000000000004
 31
0.0
  0
LINE
  5
6F6
330
1F
100
AcDbEntity
  8
2
  6
CONTINUOUS
370
25
 62
7
100
AcDbLine
 10
98.95023332200213
 20
-6.0
 30
0.0
 11
98.99170555366703
 21
-5.958527768335109
 31
0.0
  0
LINE
  5
6F7
330
1F
100
AcDbEntity
  8
2
  6
CONTINUOUS
370
25
 62
7
100
AcDbLine
 10
98.5259692532902
 20
-6.000000000000007
 30
0.0
 11
98.92099487554836
 21
-5.60497437774184
 31
0.0
  0
LINE
  5
6F8
330
1F
100
AcDbEntity
  8
2
  6
CONTINUOUS
370
25
 62
7
100
AcDbLine
 10
98.10170518457828
 20
-6.0
 30
0.0
 11
98.85028419742972
 21
-5.251420987148563
 31
0.0
  0
LINE
  5
6F9
330
1F
100
AcDbEntity
  8
2
  6
CONTINUOUS
370
25
 62
7
100
AcDbLine
 10
97.67744111586634
 20
-6.0
 30
0.0
 11
98.77957351931107
 21
-4.89786759655528
 31
0.0
  0
LINE
  5
6FA
330
1F
100
AcDbEntity
  8
2
  6
CONTINUOUS
370
25
 62
7
100
AcDbLine
 10
97.25317704715442
 20
-6.0
 30
0.0
 11
98.7088628411924
 21
-4.54431420596201
 31
0.0
  0
LINE
  5
6FB
330
1F
100
AcDbEntity
  8
2
  6
CONTINUOUS
370
25
 62
7
100
AcDbLine
 10
97.04277175538938
 20
-5.786141223053107
 30
0.0
 11
98.63815216307376
 21
-4.190760815368733
 31
0.0
  0
LINE
  5
6FC
330
1F
100
AcDbEntity
  8
2
  6
CONTINUOUS
370
25
 62
7
100
AcDbLine
 10
97.14883777256736
 20
-5.255811137163199
 30
0.0
 11
98.56744148495508
 21
-3.837207424775471
 31
0.0
  0
LINE
  5
6FD
330
1F
100
AcDbEntity
  8
2
  6
CONTINUOUS
370
25
 62
7
100
AcDbLine
 10
97.25490378974536
 20
-4.725481051273277
 30
0.0
 11
98.49673080683644
 21
-3.483654034182187
 31
0.0
  0
LINE
  5
6FE
330
1F
100
AcDbEntity
  8
2
  6
CONTINUOUS
370
25
 62
7
100
AcDbLine
 10
97.36096980692332
 20
-4.19515096538337
 30
0.0
 11
98.42602012871778
 21
-3.130100643588911
 31
0.0
  0
LINE
  5
6FF
330
1F
100
AcDbEntity
  8
2
  6
CONTINUOUS
370
25
 62
7
100
AcDbLine
 10
97.46703582410132
 20
-3.664820879493455
 30
0.0
 11
98.35530945059912
 21
-2.776547252995634
 31
0.0
  0
LINE
  5
700
330
1F
100
AcDbEntity
  8
2
  6
CONTINUOUS
370
25
 62
7
100
AcDbLine
 10
97.57310184127928
 20
-3.13449079360354
 30
0.0
 11
98.28459877248048
 21
-2.42299386240235
 31
0.0
  0
LINE
  5
701
330
1F
100
AcDbEntity
  8
2
  6
CONTINUOUS
370
25
 62
7
100
AcDbLine
 10
97.67916785845728
 20
-2.604160707713625
 30
0.0
 11
98.21388809436182
 21
-2.069440471809074
 31
0.0
  0
LINE
  5
702
330
1F
100
AcDbEntity
  8
2
  6
CONTINUOUS
370
25
 62
7
100
AcDbLine
 10
97.78523387563526
 20
-2.073830621823717
 30
0.0
 11
98.14317741624316
 21
-1.715887081215804
 31
0.0
  0
LINE
  5
703
330
1F
100
AcDbEntity
  8
2
  6
CONTINUOUS
370
25
 62
7
100
AcDbLine
 10
97.89129989281324
 20
-1.543500535933795
 30
0.0
 11
98.0724667381245
 21
-1.362333690622528
 31
0.0
  0
LINE
  5
704
330
1F
100
AcDbEntity
  8
2
  6
CONTINUOUS
370
25
 62
7
100
AcDbLine
 10
97.99736590999123
 20
-1.01317045004388
 30
0.0
 11
98.00175606000585
 21
-1.008780300029251
 31
0.0
  0
LINE
  5
705
330
1F
100
AcDbEntity
  8
2
  6
CONTINUOUS
370
25
 62
7
100
AcDbLine
 10
97.02560244417617
 20
-5.871987779119131
 30
0.0
 11
97.15361466505703
 21
-6.0
 31
0.0
  0
LINE
  5
706
330
1F
100
AcDbEntity
  8
2
  6
CONTINUOUS
370
25
 62
7
100
AcDbLine
 10
97.09631312229482
 20
-5.518434388525847
 30
0.0
 11
97.57787873376898
 21
-6.0
 31
0.0
  0
LINE
  5
707
330
1F
100
AcDbEntity
  8
2
  6
CONTINUOUS
370
25
 62
7
100
AcDbLine
 10
97.16702380041349
 20
-5.164880997932592
 30
0.0
 11
98.0021428024809
 21
-6.0
 31
0.0
  0
LINE
  5
708
330
1F
100
AcDbEntity
  8
2
  6
CONTINUOUS
370
25
 62
7
100
AcDbLine
 10
97.23773447853213
 20
-4.811327607339308
 30
0.0
 11
98.42640687119282
 21
-6.0
 31
0.0
  0
LINE
  5
709
330
1F
100
AcDbEntity
  8
2
  6
CONTINUOUS
370
25
 62
7
100
AcDbLine
 10
97.30844515665079
 20
-4.457774216746031
 30
0.0
 11
98.85067093990477
 21
-6.000000000000007
 31
0.0
  0
LINE
  5
70A
330
1F
100
AcDbEntity
  8
2
  6
CONTINUOUS
370
25
 62
7
100
AcDbLine
 10
97.37915583476945
 20
-4.104220826152755
 30
0.0
 11
98.93126624784583
 21
-5.656331239229125
 31
0.0
  0
LINE
  5
70B
330
1F
100
AcDbEntity
  8
2
  6
CONTINUOUS
370
25
 62
7
100
AcDbLine
 10
97.44986651288811
 20
-3.750667435559478
 30
0.0
 11
98.82520023066783
 21
-5.126001153339203
 31
0.0
  0
LINE
  5
70C
330
1F
100
AcDbEntity
  8
2
  6
CONTINUOUS
370
25
 62
7
100
AcDbLine
 10
97.52057719100677
 20
-3.397114044966202
 30
0.0
 11
98.71913421348985
 21
-4.595671067449288
 31
0.0
  0
LINE
  5
70D
330
1F
100
AcDbEntity
  8
2
  6
CONTINUOUS
370
25
 62
7
100
AcDbLine
 10
97.59128786912541
 20
-3.043560654372918
 30
0.0
 11
98.61306819631187
 21
-4.065340981559373
 31
0.0
  0
LINE
  5
70E
330
1F
100
AcDbEntity
  8
2
  6
CONTINUOUS
370
25
 62
7
100
AcDbLine
 10
97.66199854724407
 20
-2.690007263779641
 30
0.0
 11
98.50700217913388
 21
-3.535010895669458
 31
0.0
  0
LINE
  5
70F
330
1F
100
AcDbEntity
  8
2
  6
CONTINUOUS
370
25
 62
7
100
AcDbLine
 10
97.73270922536273
 20
-2.336453873186372
 30
0.0
 11
98.40093616195591
 21
-3.004680809779543
 31
0.0
  0
LINE
  5
710
330
1F
100
AcDbEntity
  8
2
  6
CONTINUOUS
370
25
 62
7
100
AcDbLine
 10
97.80341990348138
 20
-1.982900482593095
 30
0.0
 11
98.29487014477792
 21
-2.474350723889629
 31
0.0
  0
LINE
  5
711
330
1F
100
AcDbEntity
  8
2
  6
CONTINUOUS
370
25
 62
7
100
AcDbLine
 10
97.87413058160004
 20
-1.629347091999826
 30
0.0
 11
98.18880412759994
 21
-1.944020637999721
 31
0.0
  0
LINE
  5
712
330
1F
100
AcDbEntity
  8
2
  6
CONTINUOUS
370
25
 62
7
100
AcDbLine
 10
97.94484125971869
 20
-1.275793701406549
 30
0.0
 11
98.08273811042196
 21
-1.413690552109813
 31
0.0
  0
LINE
  5
713
330
1F
100
AcDbEntity
  8
2
  6
CONTINUOUS
370
25
 62
7
100
AcDbLine
 10
98.0
 20
0.9999999999999962
 30
0.0
 11
97.0
 21
5.999999999999996
 31
0.0
  0
LINE
  5
714
330
1F
100
AcDbEntity
  8
2
  6
CONTINUOUS
370
25
 62
7
100
AcDbLine
 10
97.0
 20
5.999999999999996
 30
0.0
 11
99.0
 21
5.999999999999996
 31
0.0
  0
LINE
  5
715
330
1F
100
AcDbEntity
  8
2
  6
CONTINUOUS
370
25
 62
7
100
AcDbLine
 10
99.0
 20
5.999999999999996
 30
0.0
 11
98.0
 21
0.9999999999999962
 31
0.0
  0
LINE
  5
716
330
1F
100
AcDbEntity
  8
2
  6
CONTINUOUS
370
25
 62
7
100
AcDbLine
 10
97.98165504732819
 20
1.091724763359032
 30
0.0
 11
98.02751742900772
 21
1.137587145038552
 31
0.0
  0
LINE
  5
717
330
1F
100
AcDbEntity
  8
2
  6
CONTINUOUS
370
25
 62
7
100
AcDbLine
 10
97.91094436920955
 20
1.445278153952316
 30
0.0
 11
98.1335834461857
 21
1.667917230928474
 31
0.0
  0
LINE
  5
718
330
1F
100
AcDbEntity
  8
2
  6
CONTINUOUS
370
25
 62
7
100
AcDbLine
 10
97.84023369109087
 20
1.798831544545585
 30
0.0
 11
98.23964946336368
 21
2.198247316818382
 31
0.0
  0
LINE
  5
719
330
1F
100
AcDbEntity
  8
2
  6
CONTINUOUS
370
25
 62
7
100
AcDbLine
 10
97.76952301297223
 20
2.152384935138869
 30
0.0
 11
98.34571548054166
 21
2.728577402708304
 31
0.0
  0
LINE
  5
71A
330
1F
100
AcDbEntity
  8
2
  6
CONTINUOUS
370
25
 62
7
100
AcDbLine
 10
97.69881233485356
 20
2.505938325732131
 30
0.0
 11
98.45178149771965
 21
3.258907488598211
 31
0.0
  0
LINE
  5
71B
330
1F
100
AcDbEntity
  8
2
  6
CONTINUOUS
370
25
 62
7
100
AcDbLine
 10
97.62810165673491
 20
2.859491716325415
 30
0.0
 11
98.55784751489763
 21
3.789237574488133
 31
0.0
  0
LINE
  5
71C
330
1F
100
AcDbEntity
  8
2
  6
CONTINUOUS
370
25
 62
7
100
AcDbLine
 10
97.55739097861627
 20
3.213045106918692
 30
0.0
 11
98.6639135320756
 21
4.31956766037802
 31
0.0
  0
LINE
  5
71D
330
1F
100
AcDbEntity
  8
2
  6
CONTINUOUS
370
25
 62
7
100
AcDbLine
 10
97.48668030049761
 20
3.566598497511968
 30
0.0
 11
98.76997954925358
 21
4.849897746267942
 31
0.0
  0
LINE
  5
71E
330
1F
100
AcDbEntity
  8
2
  6
CONTINUOUS
370
25
 62
7
100
AcDbLine
 10
97.41596962237895
 20
3.920151888105245
 30
0.0
 11
98.87604556643157
 21
5.380227832157857
 31
0.0
  0
LINE
  5
71F
330
1F
100
AcDbEntity
  8
2
  6
CONTINUOUS
370
25
 62
7
100
AcDbLine
 10
97.3452589442603
 20
4.273705278698522
 30
0.0
 11
98.98211158360955
 21
5.910557918047779
 31
0.0
  0
LINE
  5
720
330
1F
100
AcDbEntity
  8
2
  6
CONTINUOUS
370
25
 62
7
100
AcDbLine
 10
97.27454826614164
 20
4.627258669291805
 30
0.0
 11
98.64728959684984
 21
6.0
 31
0.0
  0
LINE
  5
721
330
1F
100
AcDbEntity
  8
2
  6
CONTINUOUS
370
25
 62
7
100
AcDbLine
 10
97.20383758802299
 20
4.980812059885082
 30
0.0
 11
98.2230255281379
 21
5.999999999999993
 31
0.0
  0
LINE
  5
722
330
1F
100
AcDbEntity
  8
2
  6
CONTINUOUS
370
25
 62
7
100
AcDbLine
 10
97.13312690990432
 20
5.334365450478352
 30
0.0
 11
97.79876145942598
 21
5.999999999999993
 31
0.0
  0
LINE
  5
723
330
1F
100
AcDbEntity
  8
2
  6
CONTINUOUS
370
25
 62
7
100
AcDbLine
 10
97.06241623178568
 20
5.687918841071628
 30
0.0
 11
97.37449739071405
 21
6.0
 31
0.0
  0
LINE
  5
724
330
1F
100
AcDbEntity
  8
2
  6
CONTINUOUS
370
25
 62
7
100
AcDbLine
 10
97.94634200735408
 20
1.268289963229613
 30
0.0
 11
98.03577199509729
 21
1.178859975486411
 31
0.0
  0
LINE
  5
725
330
1F
100
AcDbEntity
  8
2
  6
CONTINUOUS
370
25
 62
7
100
AcDbLine
 10
97.84027599017608
 20
1.798620049119535
 30
0.0
 11
98.10648267321594
 21
1.532413366079687
 31
0.0
  0
LINE
  5
726
330
1F
100
AcDbEntity
  8
2
  6
CONTINUOUS
370
25
 62
7
100
AcDbLine
 10
97.73420997299812
 20
2.328950135009443
 30
0.0
 11
98.1771933513346
 21
1.885966756672964
 31
0.0
  0
LINE
  5
727
330
1F
100
AcDbEntity
  8
2
  6
CONTINUOUS
370
25
 62
7
100
AcDbLine
 10
97.62814395582012
 20
2.859280220899358
 30
0.0
 11
98.24790402945325
 21
2.239520147266248
 31
0.0
  0
LINE
  5
728
330
1F
100
AcDbEntity
  8
2
  6
CONTINUOUS
370
25
 62
7
100
AcDbLine
 10
97.52207793864214
 20
3.38961030678928
 30
0.0
 11
98.31861470757191
 21
2.59307353785951
 31
0.0
  0
LINE
  5
729
330
1F
100
AcDbEntity
  8
2
  6
CONTINUOUS
370
25
 62
7
100
AcDbLine
 10
97.41601192146416
 20
3.919940392679187
 30
0.0
 11
98.38932538569057
 21
2.946626928452794
 31
0.0
  0
LINE
  5
72A
330
1F
100
AcDbEntity
  8
2
  6
CONTINUOUS
370
25
 62
7
100
AcDbLine
 10
97.30994590428617
 20
4.450270478569102
 30
0.0
 11
98.46003606380921
 21
3.300180319046063
 31
0.0
  0
LINE
  5
72B
330
1F
100
AcDbEntity
  8
2
  6
CONTINUOUS
370
25
 62
7
100
AcDbLine
 10
97.2038798871082
 20
4.98060056445901
 30
0.0
 11
98.53074674192787
 21
3.65373370963934
 31
0.0
  0
LINE
  5
72C
330
1F
100
AcDbEntity
  8
2
  6
CONTINUOUS
370
25
 62
7
100
AcDbLine
 10
97.0978138699302
 20
5.510930650348925
 30
0.0
 11
98.60145742004653
 21
4.007287100232624
 31
0.0
  0
LINE
  5
72D
330
1F
100
AcDbEntity
  8
2
  6
CONTINUOUS
370
25
 62
7
100
AcDbLine
 10
97.03300858899108
 20
5.999999999999993
 30
0.0
 11
98.67216809816517
 21
4.360840490825893
 31
0.0
  0
LINE
  5
72E
330
1F
100
AcDbEntity
  8
2
  6
CONTINUOUS
370
25
 62
7
100
AcDbLine
 10
97.45727265770302
 20
5.999999999999993
 30
0.0
 11
98.74287877628383
 21
4.714393881419177
 31
0.0
  0
LINE
  5
72F
330
1F
100
AcDbEntity
  8
2
  6
CONTINUOUS
370
25
 62
7
100
AcDbLine
 10
97.88153672641494
 20
6.0
 30
0.0
 11
98.81358945440249
 21
5.067947272012439
 31
0.0
  0
LINE
  5
730
330
1F
100
AcDbEntity
  8
2
  6
CONTINUOUS
370
25
 62
7
100
AcDbLine
 10
98.30580079512688
 20
5.999999999999993
 30
0.0
 11
98.88430013252115
 21
5.421500662605723
 31
0.0
  0
LINE
  5
731
330
1F
100
AcDbEntity
  8
2
  6
CONTINUOUS
370
25
 62
7
100
AcDbLine
 10
98.7300648638388
 20
6.0
 30
0.0
 11
98.9550108106398
 21
5.775054053199
 31
0.0
  0
TEXT
  5
732
330
1F
100
AcDbEntity
  8
2
  6
CONTINUOUS
370
25
 62
7
100
AcDbText
 10
96.5
 20
11.34583333333333
 30
0.0
 40
3.5
  1
2
 50
90.00000000000001
 72
     1
 11
96.5
 21
12.5125
 31
0.0
100
AcDbText
  0
CIRCLE
  5
733
330
1F
100
AcDbEntity
  8
2
  6
CONTINUOUS
370
25
 62
7
100
AcDbCircle
 10
94.75
 20
9.187499999999996
 30
0.0
 40
1.4
  0
LINE
  5
734
330
1F
100
AcDbEntity
  8
2
  6
CONTINUOUS
370
25
 62
7
100
AcDbLine
 10
96.15
 20
7.787499999999998
 30
0.0
 11
93.35
 21
10.5875
 31
0.0
  0
LINE
  5
735
330
1F
100
AcDbEntity
  8
2
  6
CONTINUOUS
370
25
 62
7
100
AcDbLine
 10
50.0
 20
1.5
 30
0.0
 11
50.0
 21
24.5
 31
0.0
  0
LINE
  5
736
330
1F
100
AcDbEntity
  8
2
  6
CONTINUOUS
370
25
 62
7
100
AcDbLine
 10
66.0
 20
24.5
 30
0.0
 11
66.0
 21
0.0
 31
0.0
  0
LINE
  5
737
330
1F
100
AcDbEntity
  8
2
  6
CONTINUOUS
370
25
 62
7
100
AcDbLine
 10
50.0
 20
23.5
 30
0.0
 11
66.0
 21
23.5
 31
0.0
  0
LINE
  5
738
330
1F
100
AcDbEntity
  8
2
  6
CONTINUOUS
370
25
 62
7
100
AcDbLine
 10
50.0
 20
23.5
 30
0.0
 11
55.0
 21
24.5
 31
0.0
  0
LINE
  5
739
330
1F
100
AcDbEntity
  8
2
  6
CONTINUOUS
370
25
 62
7
100
AcDbLine
 10
55.0
 20
24.5
 30
0.0
 11
55.0
 21
22.5
 31
0.0
  0
LINE
  5
73A
330
1F
100
AcDbEntity
  8
2
  6
CONTINUOUS
370
25
 62
7
100
AcDbLine
 10
55.0
 20
22.5
 30
0.0
 11
50.0
 21
23.5
 31
0.0
  0
LINE
  5
73B
330
1F
100
AcDbEntity
  8
2
  6
CONTINUOUS
370
25
 62
7
100
AcDbLine
 10
54.73409092841587
 20
22.55318181431683
 30
0.0
 11
55.0
 21
22.81909088590096
 31
0.0
  0
LINE
  5
73C
330
1F
100
AcDbEntity
  8
2
  6
CONTINUOUS
370
25
 62
7
100
AcDbLine
 10
54.38053753782259
 20
22.62389249243548
 30
0.0
 11
55.0
 21
23.24335495461289
 31
0.0
  0
LINE
  5
73D
330
1F
100
AcDbEntity
  8
2
  6
CONTINUOUS
370
25
 62
7
100
AcDbLine
 10
54.02698414722932
 20
22.69460317055414
 30
0.0
 11
55.0
 21
23.66761902332482
 31
0.0
  0
LINE
  5
73E
330
1F
100
AcDbEntity
  8
2
  6
CONTINUOUS
370
25
 62
7
100
AcDbLine
 10
53.67343075663604
 20
22.76531384867279
 30
0.0
 11
55.0
 21
24.09188309203675
 31
0.0
  0
LINE
  5
73F
330
1F
100
AcDbEntity
  8
2
  6
CONTINUOUS
370
25
 62
7
100
AcDbLine
 10
53.31987736604277
 20
22.83602452679144
 30
0.0
 11
54.97981604906416
 21
24.49596320981283
 31
0.0
  0
LINE
  5
740
330
1F
100
AcDbEntity
  8
2
  6
CONTINUOUS
370
25
 62
7
100
AcDbLine
 10
52.9663239754495
 20
22.9067352049101
 30
0.0
 11
54.44948596317425
 21
24.38989719263485
 31
0.0
  0
LINE
  5
741
330
1F
100
AcDbEntity
  8
2
  6
CONTINUOUS
370
25
 62
7
100
AcDbLine
 10
52.61277058485623
 20
22.97744588302875
 30
0.0
 11
53.91915587728434
 21
24.28383117545687
 31
0.0
  0
LINE
  5
742
330
1F
100
AcDbEntity
  8
2
  6
CONTINUOUS
370
25
 62
7
100
AcDbLine
 10
52.25921719426295
 20
23.04815656114741
 30
0.0
 11
53.38882579139443
 21
24.17776515827889
 31
0.0
  0
LINE
  5
743
330
1F
100
AcDbEntity
  8
2
  6
CONTINUOUS
370
25
 62
7
100
AcDbLine
 10
51.90566380366968
 20
23.11886723926606
 30
0.0
 11
52.85849570550452
 21
24.0716991411009
 31
0.0
  0
LINE
  5
744
330
1F
100
AcDbEntity
  8
2
  6
CONTINUOUS
370
25
 62
7
100
AcDbLine
 10
51.55211041307641
 20
23.18957791738472
 30
0.0
 11
52.32816561961461
 21
23.96563312392292
 31
0.0
  0
LINE
  5
745
330
1F
100
AcDbEntity
  8
2
  6
CONTINUOUS
370
25
 62
7
100
AcDbLine
 10
51.19855702248314
 20
23.26028859550337
 30
0.0
 11
51.7978355337247
 21
23.85956710674494
 31
0.0
  0
LINE
  5
746
330
1F
100
AcDbEntity
  8
2
  6
CONTINUOUS
370
25
 62
7
100
AcDbLine
 10
50.84500363188986
 20
23.33099927362203
 30
0.0
 11
51.26750544783479
 21
23.75350108956696
 31
0.0
  0
LINE
  5
747
330
1F
100
AcDbEntity
  8
2
  6
CONTINUOUS
370
25
 62
7
100
AcDbLine
 10
50.49145024129659
 20
23.40170995174068
 30
0.0
 11
50.73717536194489
 21
23.64743507238898
 31
0.0
  0
LINE
  5
748
330
1F
100
AcDbEntity
  8
2
  6
CONTINUOUS
370
25
 62
7
100
AcDbLine
 10
50.13789685070331
 20
23.47242062985934
 30
0.0
 11
50.20684527605497
 21
23.541369055211
 31
0.0
  0
LINE
  5
749
330
1F
100
AcDbEntity
  8
2
  6
CONTINUOUS
370
25
 62
7
100
AcDbLine
 10
50.21565653988997
 20
23.54313130797799
 30
0.0
 11
50.32348480983495
 21
23.43530303803301
 31
0.0
  0
LINE
  5
74A
330
1F
100
AcDbEntity
  8
2
  6
CONTINUOUS
370
25
 62
7
100
AcDbLine
 10
50.56920993048324
 20
23.61384198609665
 30
0.0
 11
50.85381489572486
 21
23.32923702085503
 31
0.0
  0
LINE
  5
74B
330
1F
100
AcDbEntity
  8
2
  6
CONTINUOUS
370
25
 62
7
100
AcDbLine
 10
50.92276332107652
 20
23.6845526642153
 30
0.0
 11
51.38414498161477
 21
23.22317100367705
 31
0.0
  0
LINE
  5
74C
330
1F
100
AcDbEntity
  8
2
  6
CONTINUOUS
370
25
 62
7
100
AcDbLine
 10
51.27631671166979
 20
23.75526334233396
 30
0.0
 11
51.91447506750468
 21
23.11710498649906
 31
0.0
  0
LINE
  5
74D
330
1F
100
AcDbEntity
  8
2
  6
CONTINUOUS
370
25
 62
7
100
AcDbLine
 10
51.62987010226306
 20
23.82597402045261
 30
0.0
 11
52.44480515339459
 21
23.01103896932108
 31
0.0
  0
LINE
  5
74E
330
1F
100
AcDbEntity
  8
2
  6
CONTINUOUS
370
25
 62
7
100
AcDbLine
 10
51.98342349285633
 20
23.89668469857127
 30
0.0
 11
52.9751352392845
 21
22.9049729521431
 31
0.0
  0
LINE
  5
74F
330
1F
100
AcDbEntity
  8
2
  6
CONTINUOUS
370
25
 62
7
100
AcDbLine
 10
52.33697688344961
 20
23.96739537668992
 30
0.0
 11
53.50546532517441
 21
22.79890693496512
 31
0.0
  0
LINE
  5
750
330
1F
100
AcDbEntity
  8
2
  6
CONTINUOUS
370
25
 62
7
100
AcDbLine
 10
52.69053027404288
 20
24.03810605480858
 30
0.0
 11
54.03579541106432
 21
22.69284091778714
 31
0.0
  0
LINE
  5
751
330
1F
100
AcDbEntity
  8
2
  6
CONTINUOUS
370
25
 62
7
100
AcDbLine
 10
53.04408366463615
 20
24.10881673292723
 30
0.0
 11
54.56612549695424
 21
22.58677490060915
 31
0.0
  0
LINE
  5
752
330
1F
100
AcDbEntity
  8
2
  6
CONTINUOUS
370
25
 62
7
100
AcDbLine
 10
53.39763705522942
 20
24.17952741104589
 30
0.0
 11
55.0
 21
22.57716446627531
 31
0.0
  0
LINE
  5
753
330
1F
100
AcDbEntity
  8
2
  6
CONTINUOUS
370
25
 62
7
100
AcDbLine
 10
53.7511904458227
 20
24.25023808916454
 30
0.0
 11
55.0
 21
23.00142853498724
 31
0.0
  0
LINE
  5
754
330
1F
100
AcDbEntity
  8
2
  6
CONTINUOUS
370
25
 62
7
100
AcDbLine
 10
54.10474383641598
 20
24.32094876728319
 30
0.0
 11
55.0
 21
23.42569260369917
 31
0.0
  0
LINE
  5
755
330
1F
100
AcDbEntity
  8
2
  6
CONTINUOUS
370
25
 62
7
100
AcDbLine
 10
54.45829722700925
 20
24.39165944540185
 30
0.0
 11
55.0
 21
23.8499566724111
 31
0.0
  0
LINE
  5
756
330
1F
100
AcDbEntity
  8
2
  6
CONTINUOUS
370
25
 62
7
100
AcDbLine
 10
54.81185061760252
 20
24.4623701235205
 30
0.0
 11
55.0
 21
24.27422074112302
 31
0.0
  0
LINE
  5
757
330
1F
100
AcDbEntity
  8
2
  6
CONTINUOUS
370
25
 62
7
100
AcDbLine
 10
66.0
 20
23.5
 30
0.0
 11
61.0
 21
22.5
 31
0.0
  0
LINE
  5
758
330
1F
100
AcDbEntity
  8
2
  6
CONTINUOUS
370
25
 62
7
100
AcDbLine
 10
61.0
 20
22.5
 30
0.0
 11
61.0
 21
24.5
 31
0.0
  0
LINE
  5
759
330
1F
100
AcDbEntity
  8
2
  6
CONTINUOUS
370
25
 62
7
100
AcDbLine
 10
61.0
 20
24.5
 30
0.0
 11
66.0
 21
23.5
 31
0.0
  0
LINE
  5
75A
330
1F
100
AcDbEntity
  8
2
  6
CONTINUOUS
370
25
 62
7
100
AcDbLine
 10
65.82905845398167
 20
23.46581169079634
 30
0.0
 11
65.88603896932112
 21
23.52279220613578
 31
0.0
  0
LINE
  5
75B
330
1F
100
AcDbEntity
  8
2
  6
CONTINUOUS
370
25
 62
7
100
AcDbLine
 10
65.29872836809177
 20
23.35974567361836
 30
0.0
 11
65.53248557872784
 21
23.59350288425443
 31
0.0
  0
LINE
  5
75C
330
1F
100
AcDbEntity
  8
2
  6
CONTINUOUS
370
25
 62
7
100
AcDbLine
 10
64.76839828220186
 20
23.25367965644037
 30
0.0
 11
65.17893218813457
 21
23.66421356237309
 31
0.0
  0
LINE
  5
75D
330
1F
100
AcDbEntity
  8
2
  6
CONTINUOUS
370
25
 62
7
100
AcDbLine
 10
64.23806819631194
 20
23.14761363926239
 30
0.0
 11
64.8253787975413
 21
23.73492424049174
 31
0.0
  0
LINE
  5
75E
330
1F
100
AcDbEntity
  8
2
  6
CONTINUOUS
370
25
 62
7
100
AcDbLine
 10
63.70773811042204
 20
23.04154762208441
 30
0.0
 11
64.47182540694803
 21
23.80563491861039
 31
0.0
  0
LINE
  5
75F
330
1F
100
AcDbEntity
  8
2
  6
CONTINUOUS
370
25
 62
7
100
AcDbLine
 10
63.17740802453213
 20
22.93548160490643
 30
0.0
 11
64.11827201635475
 21
23.87634559672905
 31
0.0
  0
LINE
  5
760
330
1F
100
AcDbEntity
  8
2
  6
CONTINUOUS
370
25
 62
7
100
AcDbLine
 10
62.64707793864222
 20
22.82941558772844
 30
0.0
 11
63.76471862576147
 21
23.9470562748477
 31
0.0
  0
LINE
  5
761
330
1F
100
AcDbEntity
  8
2
  6
CONTINUOUS
370
25
 62
7
100
AcDbLine
 10
62.11674785275231
 20
22.72334957055046
 30
0.0
 11
63.41116523516821
 21
24.01776695296636
 31
0.0
  0
LINE
  5
762
330
1F
100
AcDbEntity
  8
2
  6
CONTINUOUS
370
25
 62
7
100
AcDbLine
 10
61.5864177668624
 20
22.61728355337248
 30
0.0
 11
63.05761184457494
 21
24.08847763108501
 31
0.0
  0
LINE
  5
763
330
1F
100
AcDbEntity
  8
2
  6
CONTINUOUS
370
25
 62
7
100
AcDbLine
 10
61.05608768097249
 20
22.5112175361945
 30
0.0
 11
62.70405845398166
 21
24.15918830920367
 31
0.0
  0
LINE
  5
764
330
1F
100
AcDbEntity
  8
2
  6
CONTINUOUS
370
25
 62
7
100
AcDbLine
 10
61.0
 20
22.87939392393394
 30
0.0
 11
62.35050506338838
 21
24.22989898732232
 31
0.0
  0
LINE
  5
765
330
1F
100
AcDbEntity
  8
2
  6
CONTINUOUS
370
25
 62
7
100
AcDbLine
 10
61.0
 20
23.30365799264586
 30
0.0
 11
61.99695167279511
 21
24.30060966544098
 31
0.0
  0
LINE
  5
766
330
1F
100
AcDbEntity
  8
2
  6
CONTINUOUS
370
25
 62
7
100
AcDbLine
 10
61.0
 20
23.72792206135779
 30
0.0
 11
61.64339828220184
 21
24.37132034355963
 31
0.0
  0
LINE
  5
767
330
1F
100
AcDbEntity
  8
2
  6
CONTINUOUS
370
25
 62
7
100
AcDbLine
 10
61.0
 20
24.15218613006972
 30
0.0
 11
61.28984489160857
 21
24.44203102167829
 31
0.0
  0
LINE
  5
768
330
1F
100
AcDbEntity
  8
2
  6
CONTINUOUS
370
25
 62
7
100
AcDbLine
 10
61.0
 20
22.51686142824233
 30
0.0
 11
61.01405119020194
 21
22.50281023804039
 31
0.0
  0
LINE
  5
769
330
1F
100
AcDbEntity
  8
2
  6
CONTINUOUS
370
25
 62
7
100
AcDbLine
 10
61.0
 20
22.94112549695426
 30
0.0
 11
61.36760458079522
 21
22.57352091615904
 31
0.0
  0
LINE
  5
76A
330
1F
100
AcDbEntity
  8
2
  6
CONTINUOUS
370
25
 62
7
100
AcDbLine
 10
61.0
 20
23.36538956566619
 30
0.0
 11
61.72115797138849
 21
22.6442315942777
 31
0.0
  0
LINE
  5
76B
330
1F
100
AcDbEntity
  8
2
  6
CONTINUOUS
370
25
 62
7
100
AcDbLine
 10
61.0
 20
23.78965363437812
 30
0.0
 11
62.07471136198176
 21
22.71494227239635
 31
0.0
  0
LINE
  5
76C
330
1F
100
AcDbEntity
  8
2
  6
CONTINUOUS
370
25
 62
7
100
AcDbLine
 10
61.0
 20
24.21391770309004
 30
0.0
 11
62.42826475257504
 21
22.78565295051501
 31
0.0
  0
LINE
  5
76D
330
1F
100
AcDbEntity
  8
2
  6
CONTINUOUS
370
25
 62
7
100
AcDbLine
 10
61.17272721475246
 20
24.46545455704951
 30
0.0
 11
62.78181814316831
 21
22.85636362863366
 31
0.0
  0
LINE
  5
76E
330
1F
100
AcDbEntity
  8
2
  6
CONTINUOUS
370
25
 62
7
100
AcDbLine
 10
61.70305730064237
 20
24.35938853987152
 30
0.0
 11
63.13537153376159
 21
22.92707430675232
 31
0.0
  0
LINE
  5
76F
330
1F
100
AcDbEntity
  8
2
  6
CONTINUOUS
370
25
 62
7
100
AcDbLine
 10
62.23338738653229
 20
24.25332252269354
 30
0.0
 11
63.48892492435486
 21
22.99778498487097
 31
0.0
  0
LINE
  5
770
330
1F
100
AcDbEntity
  8
2
  6
CONTINUOUS
370
25
 62
7
100
AcDbLine
 10
62.76371747242219
 20
24.14725650551556
 30
0.0
 11
63.84247831494812
 21
23.06849566298963
 31
0.0
  0
LINE
  5
771
330
1F
100
AcDbEntity
  8
2
  6
CONTINUOUS
370
25
 62
7
100
AcDbLine
 10
63.29404755831211
 20
24.04119048833758
 30
0.0
 11
64.1960317055414
 21
23.13920634110828
 31
0.0
  0
LINE
  5
772
330
1F
100
AcDbEntity
  8
2
  6
CONTINUOUS
370
25
 62
7
100
AcDbLine
 10
63.82437764420201
 20
23.9351244711596
 30
0.0
 11
64.54958509613468
 21
23.20991701922694
 31
0.0
  0
LINE
  5
773
330
1F
100
AcDbEntity
  8
2
  6
CONTINUOUS
370
25
 62
7
100
AcDbLine
 10
64.35470773009193
 20
23.82905845398162
 30
0.0
 11
64.90313848672795
 21
23.28062769734559
 31
0.0
  0
LINE
  5
774
330
1F
100
AcDbEntity
  8
2
  6
CONTINUOUS
370
25
 62
7
100
AcDbLine
 10
64.88503781598183
 20
23.72299243680364
 30
0.0
 11
65.25669187732122
 21
23.35133837546424
 31
0.0
  0
LINE
  5
775
330
1F
100
AcDbEntity
  8
2
  6
CONTINUOUS
370
25
 62
7
100
AcDbLine
 10
65.41536790187175
 20
23.61692641962565
 30
0.0
 11
65.6102452679145
 21
23.4220490535829
 31
0.0
  0
LINE
  5
776
330
1F
100
AcDbEntity
  8
2
  6
CONTINUOUS
370
25
 62
7
100
AcDbLine
 10
65.94569798776165
 20
23.51086040244767
 30
0.0
 11
65.96379865850777
 21
23.49275973170155
 31
0.0
  0
TEXT
  5
777
330
1F
100
AcDbEntity
  8
2
  6
CONTINUOUS
370
25
 62
7
100
AcDbText
 10
55.66666666666666
 20
25.0
 30
0.0
 40
3.5
  1
16
 72
     1
 11
58.0
 21
25.0
 31
0.0
100
AcDbText
  0
LINE
  5
778
330
1F
100
AcDbEntity
  8
2
  6
CONTINUOUS
370
25
 62
7
100
AcDbLine
 10
58.0
 20
-1.0
 30
0.0
 11
58.0
 21
-34.5
 31
0.0
  0
LINE
  5
779
330
1F
100
AcDbEntity
  8
2
  6
CONTINUOUS
370
25
 62
7
100
AcDbLine
 10
66.0
 20
-34.5
 30
0.0
 11
66.0
 21
0.0
 31
0.0
  0
LINE
  5
77A
330
1F
100
AcDbEntity
  8
2
  6
CONTINUOUS
370
25
 62
7
100
AcDbLine
 10
51.0
 20
-33.5
 30
0.0
 11
73.0
 21
-33.5
 31
0.0
  0
LINE
  5
77B
330
1F
100
AcDbEntity
  8
2
  6
CONTINUOUS
370
25
 62
7
100
AcDbLine
 10
58.0
 20
-33.5
 30
0.0
 11
53.0
 21
-34.5
 31
0.0
  0
LINE
  5
77C
330
1F
100
AcDbEntity
  8
2
  6
CONTINUOUS
370
25
 62
7
100
AcDbLine
 10
53.0
 20
-34.5
 30
0.0
 11
53.0
 21
-32.5
 31
0.0
  0
LINE
  5
77D
330
1F
100
AcDbEntity
  8
2
  6
CONTINUOUS
370
25
 62
7
100
AcDbLine
 10
53.0
 20
-32.5
 30
0.0
 11
58.0
 21
-33.5
 31
0.0
  0
LINE
  5
77E
330
1F
100
AcDbEntity
  8
2
  6
CONTINUOUS
370
25
 62
7
100
AcDbLine
 10
57.88170397153027
 20
-33.52365920569395
 30
0.0
 11
57.92113598102019
 21
-33.48422719620403
 31
0.0
  0
LINE
  5
77F
330
1F
100
AcDbEntity
  8
2
  6
CONTINUOUS
370
25
 62
7
100
AcDbLine
 10
57.35137388564036
 20
-33.62972522287193
 30
0.0
 11
57.56758259042691
 21
-33.41351651808538
 31
0.0
  0
LINE
  5
780
330
1F
100
AcDbEntity
  8
2
  6
CONTINUOUS
370
25
 62
7
100
AcDbLine
 10
56.82104379975045
 20
-33.73579124004991
 30
0.0
 11
57.21402919983363
 21
-33.34280583996673
 31
0.0
  0
LINE
  5
781
330
1F
100
AcDbEntity
  8
2
  6
CONTINUOUS
370
25
 62
7
100
AcDbLine
 10
56.29071371386053
 20
-33.84185725722789
 30
0.0
 11
56.86047580924036
 21
-33.27209516184807
 31
0.0
  0
LINE
  5
782
330
1F
100
AcDbEntity
  8
2
  6
CONTINUOUS
370
25
 62
7
100
AcDbLine
 10
55.76038362797062
 20
-33.94792327440588
 30
0.0
 11
56.50692241864709
 21
-33.20138448372941
 31
0.0
  0
LINE
  5
783
330
1F
100
AcDbEntity
  8
2
  6
CONTINUOUS
370
25
 62
7
100
AcDbLine
 10
55.2300535420807
 20
-34.05398929158386
 30
0.0
 11
56.1533690280538
 21
-33.13067380561076
 31
0.0
  0
LINE
  5
784
330
1F
100
AcDbEntity
  8
2
  6
CONTINUOUS
370
25
 62
7
100
AcDbLine
 10
54.69972345619079
 20
-34.16005530876184
 30
0.0
 11
55.79981563746053
 21
-33.0599631274921
 31
0.0
  0
LINE
  5
785
330
1F
100
AcDbEntity
  8
2
  6
CONTINUOUS
370
25
 62
7
100
AcDbLine
 10
54.16939337030087
 20
-34.26612132593983
 30
0.0
 11
55.44626224686726
 21
-32.98925244937345
 31
0.0
  0
LINE
  5
786
330
1F
100
AcDbEntity
  8
2
  6
CONTINUOUS
370
25
 62
7
100
AcDbLine
 10
53.63906328441096
 20
-34.37218734311781
 30
0.0
 11
55.09270885627398
 21
-32.91854177125479
 31
0.0
  0
LINE
  5
787
330
1F
100
AcDbEntity
  8
2
  6
CONTINUOUS
370
25
 62
7
100
AcDbLine
 10
53.10873319852105
 20
-34.47825336029579
 30
0.0
 11
54.73915546568071
 21
-32.84783109313614
 31
0.0
  0
LINE
  5
788
330
1F
100
AcDbEntity
  8
2
  6
CONTINUOUS
370
25
 62
7
100
AcDbLine
 10
53.0
 20
-34.1627224901049
 30
0.0
 11
54.38560207508743
 21
-32.77712041501749
 31
0.0
  0
LINE
  5
789
330
1F
100
AcDbEntity
  8
2
  6
CONTINUOUS
370
25
 62
7
100
AcDbLine
 10
53.0
 20
-33.73845842139298
 30
0.0
 11
54.03204868449416
 21
-32.70640973689883
 31
0.0
  0
LINE
  5
78A
330
1F
100
AcDbEntity
  8
2
  6
CONTINUOUS
370
25
 62
7
100
AcDbLine
 10
53.0
 20
-33.31419435268106
 30
0.0
 11
53.67849529390088
 21
-32.63569905878018
 31
0.0
  0
LINE
  5
78B
330
1F
100
AcDbEntity
  8
2
  6
CONTINUOUS
370
25
 62
7
100
AcDbLine
 10
53.0
 20
-32.88993028396912
 30
0.0
 11
53.3249419033076
 21
-32.56498838066152
 31
0.0
  0
LINE
  5
78C
330
1F
100
AcDbEntity
  8
2
  6
CONTINUOUS
370
25
 62
7
100
AcDbLine
 10
53.0
 20
-34.28475710115823
 30
0.0
 11
53.17936908236815
 21
-34.46412618352637
 31
0.0
  0
LINE
  5
78D
330
1F
100
AcDbEntity
  8
2
  6
CONTINUOUS
370
25
 62
7
100
AcDbLine
 10
53.0
 20
-33.8604930324463
 30
0.0
 11
53.53292247296142
 21
-34.39341550540772
 31
0.0
  0
LINE
  5
78E
330
1F
100
AcDbEntity
  8
2
  6
CONTINUOUS
370
25
 62
7
100
AcDbLine
 10
53.0
 20
-33.43622896373437
 30
0.0
 11
53.88647586355469
 21
-34.32270482728907
 31
0.0
  0
LINE
  5
78F
330
1F
100
AcDbEntity
  8
2
  6
CONTINUOUS
370
25
 62
7
100
AcDbLine
 10
53.0
 20
-33.01196489502244
 30
0.0
 11
54.24002925414797
 21
-34.25199414917041
 31
0.0
  0
LINE
  5
790
330
1F
100
AcDbEntity
  8
2
  6
CONTINUOUS
370
25
 62
7
100
AcDbLine
 10
53.0
 20
-32.58770082631051
 30
0.0
 11
54.59358264474125
 21
-34.18128347105175
 31
0.0
  0
LINE
  5
791
330
1F
100
AcDbEntity
  8
2
  6
CONTINUOUS
370
25
 62
7
100
AcDbLine
 10
53.42070405300177
 20
-32.58414081060035
 30
0.0
 11
54.94713603533452
 21
-34.1105727929331
 31
0.0
  0
LINE
  5
792
330
1F
100
AcDbEntity
  8
2
  6
CONTINUOUS
370
25
 62
7
100
AcDbLine
 10
53.95103413889168
 20
-32.69020682777833
 30
0.0
 11
55.30068942592779
 21
-34.03986211481444
 31
0.0
  0
LINE
  5
793
330
1F
100
AcDbEntity
  8
2
  6
CONTINUOUS
370
25
 62
7
100
AcDbLine
 10
54.48136422478159
 20
-32.79627284495632
 30
0.0
 11
55.65424281652107
 21
-33.96915143669579
 31
0.0
  0
LINE
  5
794
330
1F
100
AcDbEntity
  8
2
  6
CONTINUOUS
370
25
 62
7
100
AcDbLine
 10
55.01169431067151
 20
-32.9023388621343
 30
0.0
 11
56.00779620711435
 21
-33.89844075857713
 31
0.0
  0
LINE
  5
795
330
1F
100
AcDbEntity
  8
2
  6
CONTINUOUS
370
25
 62
7
100
AcDbLine
 10
55.54202439656142
 20
-33.00840487931228
 30
0.0
 11
56.36134959770762
 21
-33.82773008045848
 31
0.0
  0
LINE
  5
796
330
1F
100
AcDbEntity
  8
2
  6
CONTINUOUS
370
25
 62
7
100
AcDbLine
 10
56.07235448245134
 20
-33.11447089649027
 30
0.0
 11
56.7149029883009
 21
-33.75701940233982
 31
0.0
  0
LINE
  5
797
330
1F
100
AcDbEntity
  8
2
  6
CONTINUOUS
370
25
 62
7
100
AcDbLine
 10
56.60268456834125
 20
-33.22053691366825
 30
0.0
 11
57.06845637889417
 21
-33.68630872422116
 31
0.0
  0
LINE
  5
798
330
1F
100
AcDbEntity
  8
2
  6
CONTINUOUS
370
25
 62
7
100
AcDbLine
 10
57.13301465423116
 20
-33.32660293084624
 30
0.0
 11
57.42200976948745
 21
-33.61559804610251
 31
0.0
  0
LINE
  5
799
330
1F
100
AcDbEntity
  8
2
  6
CONTINUOUS
370
25
 62
7
100
AcDbLine
 10
57.66334474012108
 20
-33.43266894802422
 30
0.0
 11
57.77556316008072
 21
-33.54488736798385
 31
0.0
  0
LINE
  5
79A
330
1F
100
AcDbEntity
  8
2
  6
CONTINUOUS
370
25
 62
7
100
AcDbLine
 10
66.0
 20
-33.5
 30
0.0
 11
71.0
 21
-32.5
 31
0.0
  0
LINE
  5
79B
330
1F
100
AcDbEntity
  8
2
  6
CONTINUOUS
370
25
 62
7
100
AcDbLine
 10
71.0
 20
-32.5
 30
0.0
 11
71.0
 21
-34.5
 31
0.0
  0
LINE
  5
79C
330
1F
100
AcDbEntity
  8
2
  6
CONTINUOUS
370
25
 62
7
100
AcDbLine
 10
71.0
 20
-34.5
 30
0.0
 11
66.0
 21
-33.5
 31
0.0
  0
LINE
  5
79D
330
1F
100
AcDbEntity
  8
2
  6
CONTINUOUS
370
25
 62
7
100
AcDbLine
 10
70.66808765381522
 20
-34.43361753076304
 30
0.0
 11
71.0
 21
-34.10170518457826
 31
0.0
  0
LINE
  5
79E
330
1F
100
AcDbEntity
  8
2
  6
CONTINUOUS
370
25
 62
7
100
AcDbLine
 10
70.31453426322194
 20
-34.36290685264439
 30
0.0
 11
71.0
 21
-33.67744111586633
 31
0.0
  0
LINE
  5
79F
330
1F
100
AcDbEntity
  8
2
  6
CONTINUOUS
370
25
 62
7
100
AcDbLine
 10
69.96098087262867
 20
-34.29219617452573
 30
0.0
 11
71.0
 21
-33.2531770471544
 31
0.0
  0
LINE
  5
7A0
330
1F
100
AcDbEntity
  8
2
  6
CONTINUOUS
370
25
 62
7
100
AcDbLine
 10
69.60742748203539
 20
-34.22148549640708
 30
0.0
 11
71.0
 21
-32.82891297844247
 31
0.0
  0
LINE
  5
7A1
330
1F
100
AcDbEntity
  8
2
  6
CONTINUOUS
370
25
 62
7
100
AcDbLine
 10
69.25387409144211
 20
-34.15077481828843
 30
0.0
 11
70.88081113716318
 21
-32.52383777256736
 31
0.0
  0
LINE
  5
7A2
330
1F
100
AcDbEntity
  8
2
  6
CONTINUOUS
370
25
 62
7
100
AcDbLine
 10
68.90032070084884
 20
-34.08006414016977
 30
0.0
 11
70.35048105127328
 21
-32.62990378974534
 31
0.0
  0
LINE
  5
7A3
330
1F
100
AcDbEntity
  8
2
  6
CONTINUOUS
370
25
 62
7
100
AcDbLine
 10
68.54676731025556
 20
-34.00935346205111
 30
0.0
 11
69.82015096538336
 21
-32.73596980692332
 31
0.0
  0
LINE
  5
7A4
330
1F
100
AcDbEntity
  8
2
  6
CONTINUOUS
370
25
 62
7
100
AcDbLine
 10
68.1932139196623
 20
-33.93864278393246
 30
0.0
 11
69.28982087949345
 21
-32.8420358241013
 31
0.0
  0
LINE
  5
7A5
330
1F
100
AcDbEntity
  8
2
  6
CONTINUOUS
370
25
 62
7
100
AcDbLine
 10
67.83966052906902
 20
-33.8679321058138
 30
0.0
 11
68.75949079360353
 21
-32.94810184127929
 31
0.0
  0
LINE
  5
7A6
330
1F
100
AcDbEntity
  8
2
  6
CONTINUOUS
370
25
 62
7
100
AcDbLine
 10
67.48610713847575
 20
-33.79722142769515
 30
0.0
 11
68.22916070771362
 21
-33.05416785845728
 31
0.0
  0
LINE
  5
7A7
330
1F
100
AcDbEntity
  8
2
  6
CONTINUOUS
370
25
 62
7
100
AcDbLine
 10
67.13255374788247
 20
-33.72651074957649
 30
0.0
 11
67.6988306218237
 21
-33.16023387563526
 31
0.0
  0
LINE
  5
7A8
330
1F
100
AcDbEntity
  8
2
  6
CONTINUOUS
370
25
 62
7
100
AcDbLine
 10
66.77900035728919
 20
-33.65580007145783
 30
0.0
 11
67.16850053593379
 21
-33.26629989281324
 31
0.0
  0
LINE
  5
7A9
330
1F
100
AcDbEntity
  8
2
  6
CONTINUOUS
370
25
 62
7
100
AcDbLine
 10
66.42544696669592
 20
-33.58508939333918
 30
0.0
 11
66.63817045004387
 21
-33.37236590999122
 31
0.0
  0
LINE
  5
7AA
330
1F
100
AcDbEntity
  8
2
  6
CONTINUOUS
370
25
 62
7
100
AcDbLine
 10
66.07189357610264
 20
-33.51437871522053
 30
0.0
 11
66.10784036415396
 21
-33.4784319271692
 31
0.0
  0
LINE
  5
7AB
330
1F
100
AcDbEntity
  8
2
  6
CONTINUOUS
370
25
 62
7
100
AcDbLine
 10
66.27987414575641
 20
-33.44402517084872
 30
0.0
 11
66.4198112186346
 21
-33.58396224372692
 31
0.0
  0
LINE
  5
7AC
330
1F
100
AcDbEntity
  8
2
  6
CONTINUOUS
370
25
 62
7
100
AcDbLine
 10
66.63342753634967
 20
-33.37331449273006
 30
0.0
 11
66.95014130452452
 21
-33.69002826090491
 31
0.0
  0
LINE
  5
7AD
330
1F
100
AcDbEntity
  8
2
  6
CONTINUOUS
370
25
 62
7
100
AcDbLine
 10
66.98698092694295
 20
-33.3026038146114
 30
0.0
 11
67.48047139041444
 21
-33.79609427808289
 31
0.0
  0
LINE
  5
7AE
330
1F
100
AcDbEntity
  8
2
  6
CONTINUOUS
370
25
 62
7
100
AcDbLine
 10
67.34053431753622
 20
-33.23189313649276
 30
0.0
 11
68.01080147630435
 21
-33.90216029526087
 31
0.0
  0
LINE
  5
7AF
330
1F
100
AcDbEntity
  8
2
  6
CONTINUOUS
370
25
 62
7
100
AcDbLine
 10
67.6940877081295
 20
-33.1611824583741
 30
0.0
 11
68.54113156219427
 21
-34.00822631243885
 31
0.0
  0
LINE
  5
7B0
330
1F
100
AcDbEntity
  8
2
  6
CONTINUOUS
370
25
 62
7
100
AcDbLine
 10
68.04764109872278
 20
-33.09047178025544
 30
0.0
 11
69.07146164808418
 21
-34.11429232961683
 31
0.0
  0
LINE
  5
7B1
330
1F
100
AcDbEntity
  8
2
  6
CONTINUOUS
370
25
 62
7
100
AcDbLine
 10
68.40119448931605
 20
-33.01976110213679
 30
0.0
 11
69.6017917339741
 21
-34.22035834679482
 31
0.0
  0
LINE
  5
7B2
330
1F
100
AcDbEntity
  8
2
  6
CONTINUOUS
370
25
 62
7
100
AcDbLine
 10
68.75474787990933
 20
-32.94905042401814
 30
0.0
 11
70.13212181986401
 21
-34.32642436397281
 31
0.0
  0
LINE
  5
7B3
330
1F
100
AcDbEntity
  8
2
  6
CONTINUOUS
370
25
 62
7
100
AcDbLine
 10
69.10830127050261
 20
-32.87833974589948
 30
0.0
 11
70.66245190575393
 21
-34.43249038115079
 31
0.0
  0
LINE
  5
7B4
330
1F
100
AcDbEntity
  8
2
  6
CONTINUOUS
370
25
 62
7
100
AcDbLine
 10
69.46185466109588
 20
-32.80762906778082
 30
0.0
 11
71.0
 21
-34.34577440668493
 31
0.0
  0
LINE
  5
7B5
330
1F
100
AcDbEntity
  8
2
  6
CONTINUOUS
370
25
 62
7
100
AcDbLine
 10
69.81540805168916
 20
-32.73691838966216
 30
0.0
 11
71.0
 21
-33.921510337973
 31
0.0
  0
LINE
  5
7B6
330
1F
100
AcDbEntity
  8
2
  6
CONTINUOUS
370
25
 62
7
100
AcDbLine
 10
70.16896144228244
 20
-32.66620771154351
 30
0.0
 11
71.0
 21
-33.49724626926107
 31
0.0
  0
LINE
  5
7B7
330
1F
100
AcDbEntity
  8
2
  6
CONTINUOUS
370
25
 62
7
100
AcDbLine
 10
70.52251483287571
 20
-32.59549703342486
 30
0.0
 11
71.0
 21
-33.07298220054915
 31
0.0
  0
LINE
  5
7B8
330
1F
100
AcDbEntity
  8
2
  6
CONTINUOUS
370
25
 62
7
100
AcDbLine
 10
70.87606822346899
 20
-32.5247863553062
 30
0.0
 11
71.0
 21
-32.64871813183722
 31
0.0
  0
TEXT
  5
7B9
330
1F
100
AcDbEntity
  8
2
  6
CONTINUOUS
370
25
 62
7
100
AcDbText
 10
60.83333333333334
 20
-32.0
 30
0.0
 40
3.5
  1
8
 72
     1
 11
62.0
 21
-32.0
 31
0.0
100
AcDbText
  0
LINE
  5
7BA
330
1F
100
AcDbEntity
  8
SK2
  6
CONTINUOUS
370
25
 62
7
100
AcDbLine
 10
0.0
 20
3.0
 30
0.0
 11
0.0
 21
34.5
 31
0.0
  0
LINE
  5
7BB
330
1F
100
AcDbEntity
  8
SK2
  6
CONTINUOUS
370
25
 62
7
100
AcDbLine
 10
66.0
 20
34.5
 30
0.0
 11
66.0
 21
0.0
 31
0.0
  0
LINE
  5
7BC
330
1F
100
AcDbEntity
  8
SK2
  6
CONTINUOUS
370
25
 62
7
100
AcDbLine
 10
0.0
 20
33.5
 30
0.0
 11
66.0
 21
33.5
 31
0.0
  0
LINE
  5
7BD
330
1F
100
AcDbEntity
  8
SK2
  6
CONTINUOUS
370
25
 62
7
100
AcDbLine
 10
0.0
 20
33.5
 30
0.0
 11
5.0
 21
34.5
 31
0.0
  0
LINE
  5
7BE
330
1F
100
AcDbEntity
  8
SK2
  6
CONTINUOUS
370
25
 62
7
100
AcDbLine
 10
5.0
 20
34.5
 30
0.0
 11
5.0
 21
32.5
 31
0.0
  0
LINE
  5
7BF
330
1F
100
AcDbEntity
  8
SK2
  6
CONTINUOUS
370
25
 62
7
100
AcDbLine
 10
5.0
 20
32.5
 30
0.0
 11
0.0
 21
33.5
 31
0.0
  0
LINE
  5
7C0
330
1F
100
AcDbEntity
  8
SK2
  6
CONTINUOUS
370
25
 62
7
100
AcDbLine
 10
4.883062854764226
 20
32.52338742904715
 30
0.0
 11
5.0
 21
32.64032457428293
 31
0.0
  0
LINE
  5
7C1
330
1F
100
AcDbEntity
  8
SK2
  6
CONTINUOUS
370
25
 62
7
100
AcDbLine
 10
4.52950946417095
 20
32.59409810716581
 30
0.0
 11
5.0
 21
33.06458864299486
 31
0.0
  0
LINE
  5
7C2
330
1F
100
AcDbEntity
  8
SK2
  6
CONTINUOUS
370
25
 62
7
100
AcDbLine
 10
4.175956073577666
 20
32.66480878528446
 30
0.0
 11
5.0
 21
33.4888527117068
 31
0.0
  0
LINE
  5
7C3
330
1F
100
AcDbEntity
  8
SK2
  6
CONTINUOUS
370
25
 62
7
100
AcDbLine
 10
3.822402682984396
 20
32.73551946340312
 30
0.0
 11
5.0
 21
33.91311678041873
 31
0.0
  0
LINE
  5
7C4
330
1F
100
AcDbEntity
  8
SK2
  6
CONTINUOUS
370
25
 62
7
100
AcDbLine
 10
3.468849292391113
 20
32.80623014152177
 30
0.0
 11
5.0
 21
34.33738084913067
 31
0.0
  0
LINE
  5
7C5
330
1F
100
AcDbEntity
  8
SK2
  6
CONTINUOUS
370
25
 62
7
100
AcDbLine
 10
3.115295901797836
 20
32.87694081964042
 30
0.0
 11
4.672943852696761
 21
34.43458877053936
 31
0.0
  0
LINE
  5
7C6
330
1F
100
AcDbEntity
  8
SK2
  6
CONTINUOUS
370
25
 62
7
100
AcDbLine
 10
2.761742511204567
 20
32.94765149775908
 30
0.0
 11
4.142613766806846
 21
34.32852275336137
 31
0.0
  0
LINE
  5
7C7
330
1F
100
AcDbEntity
  8
SK2
  6
CONTINUOUS
370
25
 62
7
100
AcDbLine
 10
2.408189120611283
 20
33.01836217587774
 30
0.0
 11
3.612283680916924
 21
34.22245673618339
 31
0.0
  0
LINE
  5
7C8
330
1F
100
AcDbEntity
  8
SK2
  6
CONTINUOUS
370
25
 62
7
100
AcDbLine
 10
2.054635730018013
 20
33.0890728539964
 30
0.0
 11
3.081953595027024
 21
34.11639071900541
 31
0.0
  0
LINE
  5
7C9
330
1F
100
AcDbEntity
  8
SK2
  6
CONTINUOUS
370
25
 62
7
100
AcDbLine
 10
1.70108233942473
 20
33.15978353211505
 30
0.0
 11
2.551623509137094
 21
34.01032470182742
 31
0.0
  0
LINE
  5
7CA
330
1F
100
AcDbEntity
  8
SK2
  6
CONTINUOUS
370
25
 62
7
100
AcDbLine
 10
1.34752894883146
 20
33.23049421023371
 30
0.0
 11
2.021293423247187
 21
33.90425868464944
 31
0.0
  0
LINE
  5
7CB
330
1F
100
AcDbEntity
  8
SK2
  6
CONTINUOUS
370
25
 62
7
100
AcDbLine
 10
0.9939755582381764
 20
33.30120488835237
 30
0.0
 11
1.490963337357265
 21
33.79819266747145
 31
0.0
  0
LINE
  5
7CC
330
1F
100
AcDbEntity
  8
SK2
  6
CONTINUOUS
370
25
 62
7
100
AcDbLine
 10
0.6404221676448927
 20
33.37191556647102
 30
0.0
 11
0.9606332514673426
 21
33.69212665029347
 31
0.0
  0
LINE
  5
7CD
330
1F
100
AcDbEntity
  8
SK2
  6
CONTINUOUS
370
25
 62
7
100
AcDbLine
 10
0.2868687770516232
 20
33.44262624458968
 30
0.0
 11
0.4303031655774419
 21
33.58606063311549
 31
0.0
  0
LINE
  5
7CE
330
1F
100
AcDbEntity
  8
SK2
  6
CONTINUOUS
370
25
 62
7
100
AcDbLine
 10
0.05254730731005
 20
33.51050946146201
 30
0.0
 11
0.0788209609650821
 21
33.48423580780698
 31
0.0
  0
LINE
  5
7CF
330
1F
100
AcDbEntity
  8
SK2
  6
CONTINUOUS
370
25
 62
7
100
AcDbLine
 10
0.4061006979033266
 20
33.58122013958067
 30
0.0
 11
0.609151046854997
 21
33.378169790629
 31
0.0
  0
LINE
  5
7D0
330
1F
100
AcDbEntity
  8
SK2
  6
CONTINUOUS
370
25
 62
7
100
AcDbLine
 10
0.7596540884966032
 20
33.65193081769932
 30
0.0
 11
1.139481132744905
 21
33.27210377345102
 31
0.0
  0
LINE
  5
7D1
330
1F
100
AcDbEntity
  8
SK2
  6
CONTINUOUS
370
25
 62
7
100
AcDbLine
 10
1.11320747908988
 20
33.72264149581798
 30
0.0
 11
1.669811218634827
 21
33.16603775627303
 31
0.0
  0
LINE
  5
7D2
330
1F
100
AcDbEntity
  8
SK2
  6
CONTINUOUS
370
25
 62
7
100
AcDbLine
 10
1.466760869683164
 20
33.79335217393663
 30
0.0
 11
2.200141304524749
 21
33.05997173909505
 31
0.0
  0
LINE
  5
7D3
330
1F
100
AcDbEntity
  8
SK2
  6
CONTINUOUS
370
25
 62
7
100
AcDbLine
 10
1.820314260276433
 20
33.86406285205529
 30
0.0
 11
2.730471390414657
 21
32.95390572191707
 31
0.0
  0
LINE
  5
7D4
330
1F
100
AcDbEntity
  8
SK2
  6
CONTINUOUS
370
25
 62
7
100
AcDbLine
 10
2.173867650869717
 20
33.93477353017394
 30
0.0
 11
3.260801476304572
 21
32.84783970473908
 31
0.0
  0
LINE
  5
7D5
330
1F
100
AcDbEntity
  8
SK2
  6
CONTINUOUS
370
25
 62
7
100
AcDbLine
 10
2.527421041462993
 20
34.0054842082926
 30
0.0
 11
3.791131562194487
 21
32.7417736875611
 31
0.0
  0
LINE
  5
7D6
330
1F
100
AcDbEntity
  8
SK2
  6
CONTINUOUS
370
25
 62
7
100
AcDbLine
 10
2.88097443205627
 20
34.07619488641126
 30
0.0
 11
4.321461648084409
 21
32.63570767038311
 31
0.0
  0
LINE
  5
7D7
330
1F
100
AcDbEntity
  8
SK2
  6
CONTINUOUS
370
25
 62
7
100
AcDbLine
 10
3.234527822649547
 20
34.14690556452991
 30
0.0
 11
4.851791733974309
 21
32.52964165320514
 31
0.0
  0
LINE
  5
7D8
330
1F
100
AcDbEntity
  8
SK2
  6
CONTINUOUS
370
25
 62
7
100
AcDbLine
 10
3.588081213242823
 20
34.21761624264856
 30
0.0
 11
5.0
 21
32.80569745589138
 31
0.0
  0
LINE
  5
7D9
330
1F
100
AcDbEntity
  8
SK2
  6
CONTINUOUS
370
25
 62
7
100
AcDbLine
 10
3.9416346038361
 20
34.28832692076722
 30
0.0
 11
5.0
 21
33.22996152460331
 31
0.0
  0
LINE
  5
7DA
330
1F
100
AcDbEntity
  8
SK2
  6
CONTINUOUS
370
25
 62
7
100
AcDbLine
 10
4.295187994429376
 20
34.35903759888588
 30
0.0
 11
5.0
 21
33.65422559331525
 31
0.0
  0
LINE
  5
7DB
330
1F
100
AcDbEntity
  8
SK2
  6
CONTINUOUS
370
25
 62
7
100
AcDbLine
 10
4.648741385022653
 20
34.42974827700453
 30
0.0
 11
5.0
 21
34.07848966202719
 31
0.0
  0
LINE
  5
7DC
330
1F
100
AcDbEntity
  8
SK2
  6
CONTINUOUS
370
25
 62
7
100
AcDbLine
 10
66.0
 20
33.5
 30
0.0
 11
61.0
 21
32.5
 31
0.0
  0
LINE
  5
7DD
330
1F
100
AcDbEntity
  8
SK2
  6
CONTINUOUS
370
25
 62
7
100
AcDbLine
 10
61.0
 20
32.5
 30
0.0
 11
61.0
 21
34.5
 31
0.0
  0
LINE
  5
7DE
330
1F
100
AcDbEntity
  8
SK2
  6
CONTINUOUS
370
25
 62
7
100
AcDbLine
 10
61.0
 20
34.5
 30
0.0
 11
66.0
 21
33.5
 31
0.0
  0
LINE
  5
7DF
330
1F
100
AcDbEntity
  8
SK2
  6
CONTINUOUS
370
25
 62
7
100
AcDbLine
 10
65.60113639262374
 20
33.42022727852475
 30
0.0
 11
65.73409092841584
 21
33.55318181431684
 31
0.0
  0
LINE
  5
7E0
330
1F
100
AcDbEntity
  8
SK2
  6
CONTINUOUS
370
25
 62
7
100
AcDbLine
 10
65.07080630673383
 20
33.31416126134677
 30
0.0
 11
65.38053753782256
 21
33.62389249243549
 31
0.0
  0
LINE
  5
7E1
330
1F
100
AcDbEntity
  8
SK2
  6
CONTINUOUS
370
25
 62
7
100
AcDbLine
 10
64.54047622084393
 20
33.20809524416879
 30
0.0
 11
65.02698414722929
 21
33.69460317055415
 31
0.0
  0
LINE
  5
7E2
330
1F
100
AcDbEntity
  8
SK2
  6
CONTINUOUS
370
25
 62
7
100
AcDbLine
 10
64.01014613495401
 20
33.1020292269908
 30
0.0
 11
64.67343075663601
 21
33.7653138486728
 31
0.0
  0
LINE
  5
7E3
330
1F
100
AcDbEntity
  8
SK2
  6
CONTINUOUS
370
25
 62
7
100
AcDbLine
 10
63.4798160490641
 20
32.99596320981282
 30
0.0
 11
64.31987736604273
 21
33.83602452679146
 31
0.0
  0
LINE
  5
7E4
330
1F
100
AcDbEntity
  8
SK2
  6
CONTINUOUS
370
25
 62
7
100
AcDbLine
 10
62.9494859631742
 20
32.88989719263484
 30
0.0
 11
63.96632397544946
 21
33.90673520491011
 31
0.0
  0
LINE
  5
7E5
330
1F
100
AcDbEntity
  8
SK2
  6
CONTINUOUS
370
25
 62
7
100
AcDbLine
 10
62.41915587728428
 20
32.78383117545685
 30
0.0
 11
63.61277058485619
 21
33.97744588302876
 31
0.0
  0
LINE
  5
7E6
330
1F
100
AcDbEntity
  8
SK2
  6
CONTINUOUS
370
25
 62
7
100
AcDbLine
 10
61.88882579139437
 20
32.67776515827887
 30
0.0
 11
63.25921719426291
 21
34.04815656114742
 31
0.0
  0
LINE
  5
7E7
330
1F
100
AcDbEntity
  8
SK2
  6
CONTINUOUS
370
25
 62
7
100
AcDbLine
 10
61.35849570550447
 20
32.57169914110089
 30
0.0
 11
62.90566380366964
 21
34.11886723926607
 31
0.0
  0
LINE
  5
7E8
330
1F
100
AcDbEntity
  8
SK2
  6
CONTINUOUS
370
25
 62
7
100
AcDbLine
 10
61.0
 20
32.63746750430836
 30
0.0
 11
62.55211041307636
 21
34.18957791738473
 31
0.0
  0
LINE
  5
7E9
330
1F
100
AcDbEntity
  8
SK2
  6
CONTINUOUS
370
25
 62
7
100
AcDbLine
 10
61.0
 20
33.06173157302029
 30
0.0
 11
62.19855702248309
 21
34.26028859550338
 31
0.0
  0
LINE
  5
7EA
330
1F
100
AcDbEntity
  8
SK2
  6
CONTINUOUS
370
25
 62
7
100
AcDbLine
 10
61.0
 20
33.48599564173222
 30
0.0
 11
61.84500363188982
 21
34.33099927362204
 31
0.0
  0
LINE
  5
7EB
330
1F
100
AcDbEntity
  8
SK2
  6
CONTINUOUS
370
25
 62
7
100
AcDbLine
 10
61.0
 20
33.91025971044414
 30
0.0
 11
61.49145024129655
 21
34.40170995174069
 31
0.0
  0
LINE
  5
7EC
330
1F
100
AcDbEntity
  8
SK2
  6
CONTINUOUS
370
25
 62
7
100
AcDbLine
 10
61.0
 20
34.33452377915608
 30
0.0
 11
61.13789685070327
 21
34.47242062985935
 31
0.0
  0
LINE
  5
7ED
330
1F
100
AcDbEntity
  8
SK2
  6
CONTINUOUS
370
25
 62
7
100
AcDbLine
 10
61.0
 20
32.69919907732861
 30
0.0
 11
61.16599923110718
 21
32.53319984622144
 31
0.0
  0
LINE
  5
7EE
330
1F
100
AcDbEntity
  8
SK2
  6
CONTINUOUS
370
25
 62
7
100
AcDbLine
 10
61.0
 20
33.12346314604054
 30
0.0
 11
61.51955262170046
 21
32.60391052434009
 31
0.0
  0
LINE
  5
7EF
330
1F
100
AcDbEntity
  8
SK2
  6
CONTINUOUS
370
25
 62
7
100
AcDbLine
 10
61.0
 20
33.54772721475248
 30
0.0
 11
61.87310601229373
 21
32.67462120245875
 31
0.0
  0
LINE
  5
7F0
330
1F
100
AcDbEntity
  8
SK2
  6
CONTINUOUS
370
25
 62
7
100
AcDbLine
 10
61.0
 20
33.9719912834644
 30
0.0
 11
62.22665940288701
 21
32.7453318805774
 31
0.0
  0
LINE
  5
7F1
330
1F
100
AcDbEntity
  8
SK2
  6
CONTINUOUS
370
25
 62
7
100
AcDbLine
 10
61.0
 20
34.39625535217634
 30
0.0
 11
62.58021279348028
 21
32.81604255869605
 31
0.0
  0
LINE
  5
7F2
330
1F
100
AcDbEntity
  8
SK2
  6
CONTINUOUS
370
25
 62
7
100
AcDbLine
 10
61.40064927611033
 20
34.41987014477794
 30
0.0
 11
62.93376618407355
 21
32.88675323681471
 31
0.0
  0
LINE
  5
7F3
330
1F
100
AcDbEntity
  8
SK2
  6
CONTINUOUS
370
25
 62
7
100
AcDbLine
 10
61.93097936200024
 20
34.31380412759995
 30
0.0
 11
63.28731957466682
 21
32.95746391493336
 31
0.0
  0
LINE
  5
7F4
330
1F
100
AcDbEntity
  8
SK2
  6
CONTINUOUS
370
25
 62
7
100
AcDbLine
 10
62.46130944789015
 20
34.20773811042197
 30
0.0
 11
63.6408729652601
 21
33.02817459305202
 31
0.0
  0
LINE
  5
7F5
330
1F
100
AcDbEntity
  8
SK2
  6
CONTINUOUS
370
25
 62
7
100
AcDbLine
 10
62.99163953378006
 20
34.10167209324399
 30
0.0
 11
63.99442635585338
 21
33.09888527117067
 31
0.0
  0
LINE
  5
7F6
330
1F
100
AcDbEntity
  8
SK2
  6
CONTINUOUS
370
25
 62
7
100
AcDbLine
 10
63.52196961966997
 20
33.99560607606601
 30
0.0
 11
64.34797974644664
 21
33.16959594928933
 31
0.0
  0
LINE
  5
7F7
330
1F
100
AcDbEntity
  8
SK2
  6
CONTINUOUS
370
25
 62
7
100
AcDbLine
 10
64.05229970555988
 20
33.88954005888803
 30
0.0
 11
64.70153313703992
 21
33.24030662740799
 31
0.0
  0
LINE
  5
7F8
330
1F
100
AcDbEntity
  8
SK2
  6
CONTINUOUS
370
25
 62
7
100
AcDbLine
 10
64.58262979144979
 20
33.78347404171004
 30
0.0
 11
65.0550865276332
 21
33.31101730552664
 31
0.0
  0
LINE
  5
7F9
330
1F
100
AcDbEntity
  8
SK2
  6
CONTINUOUS
370
25
 62
7
100
AcDbLine
 10
65.1129598773397
 20
33.67740802453206
 30
0.0
 11
65.40863991822647
 21
33.38172798364529
 31
0.0
  0
LINE
  5
7FA
330
1F
100
AcDbEntity
  8
SK2
  6
CONTINUOUS
370
25
 62
7
100
AcDbLine
 10
65.64328996322962
 20
33.57134200735408
 30
0.0
 11
65.76219330881975
 21
33.45243866176395
 31
0.0
  0
TEXT
  5
7FB
330
1F
100
AcDbEntity
  8
SK2
  6
CONTINUOUS
370
25
 62
7
100
AcDbText
 10
30.08333333333333
 20
35.0
 30
0.0
 40
3.5
  1
66
 72
     1
 11
33.0
 21
35.0
 31
0.0
100
AcDbText
  0
LINE
  5
7FC
330
1F
100
AcDbEntity
  8
2
  6
CONTINUOUS
370
25
 62
7
100
AcDbLine
 10
53.0
 20
-1.0
 30
0.0
 11
53.0
 21
-44.5
 31
0.0
  0
LINE
  5
7FD
330
1F
100
AcDbEntity
  8
2
  6
CONTINUOUS
370
25
 62
7
100
AcDbLine
 10
66.0
 20
-44.5
 30
0.0
 11
66.0
 21
0.0
 31
0.0
  0
LINE
  5
7FE
330
1F
100
AcDbEntity
  8
2
  6
CONTINUOUS
370
25
 62
7
100
AcDbLine
 10
46.0
 20
-43.5
 30
0.0
 11
73.0
 21
-43.5
 31
0.0
  0
LINE
  5
7FF
330
1F
100
AcDbEntity
  8
2
  6
CONTINUOUS
370
25
 62
7
100
AcDbLine
 10
53.0
 20
-43.5
 30
0.0
 11
48.0
 21
-44.5
 31
0.0
  0
LINE
  5
800
330
1F
100
AcDbEntity
  8
2
  6
CONTINUOUS
370
25
 62
7
100
AcDbLine
 10
48.0
 20
-44.5
 30
0.0
 11
48.0
 21
-42.5
 31
0.0
  0
LINE
  5
801
330
1F
100
AcDbEntity
  8
2
  6
CONTINUOUS
370
25
 62
7
100
AcDbLine
 10
48.0
 20
-42.5
 30
0.0
 11
53.0
 21
-43.5
 31
0.0
  0
LINE
  5
802
330
1F
100
AcDbEntity
  8
2
  6
CONTINUOUS
370
25
 62
7
100
AcDbLine
 10
52.76774294085132
 20
-43.54645141182974
 30
0.0
 11
52.84516196056755
 21
-43.46903239211351
 31
0.0
  0
LINE
  5
803
330
1F
100
AcDbEntity
  8
2
  6
CONTINUOUS
370
25
 62
7
100
AcDbLine
 10
52.23741285496141
 20
-43.65251742900772
 30
0.0
 11
52.49160856997428
 21
-43.39832171399485
 31
0.0
  0
LINE
  5
804
330
1F
100
AcDbEntity
  8
2
  6
CONTINUOUS
370
25
 62
7
100
AcDbLine
 10
51.7070827690715
 20
-43.7585834461857
 30
0.0
 11
52.13805517938101
 21
-43.3276110358762
 31
0.0
  0
LINE
  5
805
330
1F
100
AcDbEntity
  8
2
  6
CONTINUOUS
370
25
 62
7
100
AcDbLine
 10
51.17675268318158
 20
-43.86464946336368
 30
0.0
 11
51.78450178878772
 21
-43.25690035775754
 31
0.0
  0
LINE
  5
806
330
1F
100
AcDbEntity
  8
2
  6
CONTINUOUS
370
25
 62
7
100
AcDbLine
 10
50.64642259729166
 20
-43.97071548054167
 30
0.0
 11
51.43094839819445
 21
-43.18618967963889
 31
0.0
  0
LINE
  5
807
330
1F
100
AcDbEntity
  8
2
  6
CONTINUOUS
370
25
 62
7
100
AcDbLine
 10
50.11609251140175
 20
-44.07678149771965
 30
0.0
 11
51.07739500760117
 21
-43.11547900152024
 31
0.0
  0
LINE
  5
808
330
1F
100
AcDbEntity
  8
2
  6
CONTINUOUS
370
25
 62
7
100
AcDbLine
 10
49.58576242551185
 20
-44.18284751489763
 30
0.0
 11
50.7238416170079
 21
-43.04476832340158
 31
0.0
  0
LINE
  5
809
330
1F
100
AcDbEntity
  8
2
  6
CONTINUOUS
370
25
 62
7
100
AcDbLine
 10
49.05543233962192
 20
-44.28891353207562
 30
0.0
 11
50.37028822641462
 21
-42.97405764528293
 31
0.0
  0
LINE
  5
80A
330
1F
100
AcDbEntity
  8
2
  6
CONTINUOUS
370
25
 62
7
100
AcDbLine
 10
48.52510225373201
 20
-44.3949795492536
 30
0.0
 11
50.01673483582134
 21
-42.90334696716427
 31
0.0
  0
LINE
  5
80B
330
1F
100
AcDbEntity
  8
2
  6
CONTINUOUS
370
25
 62
7
100
AcDbLine
 10
48.0
 20
-44.49581773427368
 30
0.0
 11
49.66318144522807
 21
-42.83263628904561
 31
0.0
  0
LINE
  5
80C
330
1F
100
AcDbEntity
  8
2
  6
CONTINUOUS
370
25
 62
7
100
AcDbLine
 10
48.0
 20
-44.07155366556175
 30
0.0
 11
49.30962805463479
 21
-42.76192561092696
 31
0.0
  0
LINE
  5
80D
330
1F
100
AcDbEntity
  8
2
  6
CONTINUOUS
370
25
 62
7
100
AcDbLine
 10
48.0
 20
-43.64728959684982
 30
0.0
 11
48.95607466404152
 21
-42.6912149328083
 31
0.0
  0
LINE
  5
80E
330
1F
100
AcDbEntity
  8
2
  6
CONTINUOUS
370
25
 62
7
100
AcDbLine
 10
48.0
 20
-43.22302552813789
 30
0.0
 11
48.60252127344824
 21
-42.62050425468965
 31
0.0
  0
LINE
  5
80F
330
1F
100
AcDbEntity
  8
2
  6
CONTINUOUS
370
25
 62
7
100
AcDbLine
 10
48.0
 20
-42.79876145942595
 30
0.0
 11
48.24896788285496
 21
-42.54979357657099
 31
0.0
  0
LINE
  5
810
330
1F
100
AcDbEntity
  8
2
  6
CONTINUOUS
370
25
 62
7
100
AcDbLine
 10
48.0
 20
-44.43551469624074
 30
0.0
 11
48.05373775313272
 21
-44.48925244937346
 31
0.0
  0
LINE
  5
811
330
1F
100
AcDbEntity
  8
2
  6
CONTINUOUS
370
25
 62
7
100
AcDbLine
 10
48.0
 20
-44.01125062752881
 30
0.0
 11
48.40729114372599
 21
-44.4185417712548
 31
0.0
  0
LINE
  5
812
330
1F
100
AcDbEntity
  8
2
  6
CONTINUOUS
370
25
 62
7
100
AcDbLine
 10
48.0
 20
-43.58698655881688
 30
0.0
 11
48.76084453431927
 21
-44.34783109313615
 31
0.0
  0
LINE
  5
813
330
1F
100
AcDbEntity
  8
2
  6
CONTINUOUS
370
25
 62
7
100
AcDbLine
 10
48.0
 20
-43.16272249010495
 30
0.0
 11
49.11439792491255
 21
-44.27712041501749
 31
0.0
  0
LINE
  5
814
330
1F
100
AcDbEntity
  8
2
  6
CONTINUOUS
370
25
 62
7
100
AcDbLine
 10
48.0
 20
-42.73845842139302
 30
0.0
 11
49.46795131550581
 21
-44.20640973689883
 31
0.0
  0
LINE
  5
815
330
1F
100
AcDbEntity
  8
2
  6
CONTINUOUS
370
25
 62
7
100
AcDbLine
 10
48.23225705914864
 20
-42.54645141182973
 30
0.0
 11
49.8215047060991
 21
-44.13569905878018
 31
0.0
  0
LINE
  5
816
330
1F
100
AcDbEntity
  8
2
  6
CONTINUOUS
370
25
 62
7
100
AcDbLine
 10
48.76258714503856
 20
-42.65251742900771
 30
0.0
 11
50.17505809669237
 21
-44.06498838066153
 31
0.0
  0
LINE
  5
817
330
1F
100
AcDbEntity
  8
2
  6
CONTINUOUS
370
25
 62
7
100
AcDbLine
 10
49.29291723092847
 20
-42.75858344618569
 30
0.0
 11
50.52861148728565
 21
-43.99427770254287
 31
0.0
  0
LINE
  5
818
330
1F
100
AcDbEntity
  8
2
  6
CONTINUOUS
370
25
 62
7
100
AcDbLine
 10
49.82324731681838
 20
-42.86464946336368
 30
0.0
 11
50.88216487787892
 21
-43.92356702442422
 31
0.0
  0
LINE
  5
819
330
1F
100
AcDbEntity
  8
2
  6
CONTINUOUS
370
25
 62
7
100
AcDbLine
 10
50.3535774027083
 20
-42.97071548054166
 30
0.0
 11
51.2357182684722
 21
-43.85285634630556
 31
0.0
  0
LINE
  5
81A
330
1F
100
AcDbEntity
  8
2
  6
CONTINUOUS
370
25
 62
7
100
AcDbLine
 10
50.88390748859821
 20
-43.07678149771964
 30
0.0
 11
51.58927165906547
 21
-43.78214566818691
 31
0.0
  0
LINE
  5
81B
330
1F
100
AcDbEntity
  8
2
  6
CONTINUOUS
370
25
 62
7
100
AcDbLine
 10
51.41423757448813
 20
-43.18284751489762
 30
0.0
 11
51.94282504965876
 21
-43.71143499006825
 31
0.0
  0
LINE
  5
81C
330
1F
100
AcDbEntity
  8
2
  6
CONTINUOUS
370
25
 62
7
100
AcDbLine
 10
51.94456766037804
 20
-43.2889135320756
 30
0.0
 11
52.29637844025203
 21
-43.6407243119496
 31
0.0
  0
LINE
  5
81D
330
1F
100
AcDbEntity
  8
2
  6
CONTINUOUS
370
25
 62
7
100
AcDbLine
 10
52.47489774626796
 20
-43.39497954925359
 30
0.0
 11
52.6499318308453
 21
-43.57001363383094
 31
0.0
  0
LINE
  5
81E
330
1F
100
AcDbEntity
  8
2
  6
CONTINUOUS
370
25
 62
7
100
AcDbLine
 10
66.0
 20
-43.5
 30
0.0
 11
71.0
 21
-42.5
 31
0.0
  0
LINE
  5
81F
330
1F
100
AcDbEntity
  8
2
  6
CONTINUOUS
370
25
 62
7
100
AcDbLine
 10
71.0
 20
-42.5
 30
0.0
 11
71.0
 21
-44.5
 31
0.0
  0
LINE
  5
820
330
1F
100
AcDbEntity
  8
2
  6
CONTINUOUS
370
25
 62
7
100
AcDbLine
 10
71.0
 20
-44.5
 30
0.0
 11
66.0
 21
-43.5
 31
0.0
  0
LINE
  5
821
330
1F
100
AcDbEntity
  8
2
  6
CONTINUOUS
370
25
 62
7
100
AcDbLine
 10
70.86969300350324
 20
-44.47393860070065
 30
0.0
 11
71.0
 21
-44.34363160420389
 31
0.0
  0
LINE
  5
822
330
1F
100
AcDbEntity
  8
2
  6
CONTINUOUS
370
25
 62
7
100
AcDbLine
 10
70.51613961290997
 20
-44.40322792258199
 30
0.0
 11
71.0
 21
-43.91936753549196
 31
0.0
  0
LINE
  5
823
330
1F
100
AcDbEntity
  8
2
  6
CONTINUOUS
370
25
 62
7
100
AcDbLine
 10
70.16258622231668
 20
-44.33251724446333
 30
0.0
 11
71.0
 21
-43.49510346678002
 31
0.0
  0
LINE
  5
824
330
1F
100
AcDbEntity
  8
2
  6
CONTINUOUS
370
25
 62
7
100
AcDbLine
 10
69.80903283172341
 20
-44.26180656634468
 30
0.0
 11
71.0
 21
-43.0708393980681
 31
0.0
  0
LINE
  5
825
330
1F
100
AcDbEntity
  8
2
  6
CONTINUOUS
370
25
 62
7
100
AcDbLine
 10
69.45547944113014
 20
-44.19109588822603
 30
0.0
 11
71.0
 21
-42.64657532935617
 31
0.0
  0
LINE
  5
826
330
1F
100
AcDbEntity
  8
2
  6
CONTINUOUS
370
25
 62
7
100
AcDbLine
 10
69.10192605053686
 20
-44.12038521010737
 30
0.0
 11
70.65288907580528
 21
-42.56942218483894
 31
0.0
  0
LINE
  5
827
330
1F
100
AcDbEntity
  8
2
  6
CONTINUOUS
370
25
 62
7
100
AcDbLine
 10
68.74837265994358
 20
-44.04967453198871
 30
0.0
 11
70.12255898991538
 21
-42.67548820201693
 31
0.0
  0
LINE
  5
828
330
1F
100
AcDbEntity
  8
2
  6
CONTINUOUS
370
25
 62
7
100
AcDbLine
 10
68.39481926935031
 20
-43.97896385387006
 30
0.0
 11
69.59222890402545
 21
-42.78155421919492
 31
0.0
  0
LINE
  5
829
330
1F
100
AcDbEntity
  8
2
  6
CONTINUOUS
370
25
 62
7
100
AcDbLine
 10
68.04126587875703
 20
-43.9082531757514
 30
0.0
 11
69.06189881813555
 21
-42.8876202363729
 31
0.0
  0
LINE
  5
82A
330
1F
100
AcDbEntity
  8
2
  6
CONTINUOUS
370
25
 62
7
100
AcDbLine
 10
67.68771248816375
 20
-43.83754249763275
 30
0.0
 11
68.53156873224563
 21
-42.99368625355088
 31
0.0
  0
LINE
  5
82B
330
1F
100
AcDbEntity
  8
2
  6
CONTINUOUS
370
25
 62
7
100
AcDbLine
 10
67.33415909757048
 20
-43.7668318195141
 30
0.0
 11
68.00123864635572
 21
-43.09975227072886
 31
0.0
  0
LINE
  5
82C
330
1F
100
AcDbEntity
  8
2
  6
CONTINUOUS
370
25
 62
7
100
AcDbLine
 10
66.9806057069772
 20
-43.69612114139544
 30
0.0
 11
67.4709085604658
 21
-43.20581828790684
 31
0.0
  0
LINE
  5
82D
330
1F
100
AcDbEntity
  8
2
  6
CONTINUOUS
370
25
 62
7
100
AcDbLine
 10
66.62705231638392
 20
-43.62541046327679
 30
0.0
 11
66.94057847457589
 21
-43.31188430508483
 31
0.0
  0
LINE
  5
82E
330
1F
100
AcDbEntity
  8
2
  6
CONTINUOUS
370
25
 62
7
100
AcDbLine
 10
66.27349892579065
 20
-43.55469978515813
 30
0.0
 11
66.41024838868597
 21
-43.41795032226281
 31
0.0
  0
LINE
  5
82F
330
1F
100
AcDbEntity
  8
2
  6
CONTINUOUS
370
25
 62
7
100
AcDbLine
 10
66.07826879606836
 20
-43.48434624078633
 30
0.0
 11
66.11740319410254
 21
-43.5234806388205
 31
0.0
  0
LINE
  5
830
330
1F
100
AcDbEntity
  8
2
  6
CONTINUOUS
370
25
 62
7
100
AcDbLine
 10
66.43182218666163
 20
-43.41363556266768
 30
0.0
 11
66.64773327999245
 21
-43.62954665599848
 31
0.0
  0
LINE
  5
831
330
1F
100
AcDbEntity
  8
2
  6
CONTINUOUS
370
25
 62
7
100
AcDbLine
 10
66.78537557725491
 20
-43.34292488454902
 30
0.0
 11
67.17806336588237
 21
-43.73561267317647
 31
0.0
  0
LINE
  5
832
330
1F
100
AcDbEntity
  8
2
  6
CONTINUOUS
370
25
 62
7
100
AcDbLine
 10
67.13892896784819
 20
-43.27221420643036
 30
0.0
 11
67.70839345177228
 21
-43.84167869035446
 31
0.0
  0
LINE
  5
833
330
1F
100
AcDbEntity
  8
2
  6
CONTINUOUS
370
25
 62
7
100
AcDbLine
 10
67.49248235844146
 20
-43.2015035283117
 30
0.0
 11
68.2387235376622
 21
-43.94774470753244
 31
0.0
  0
LINE
  5
834
330
1F
100
AcDbEntity
  8
2
  6
CONTINUOUS
370
25
 62
7
100
AcDbLine
 10
67.84603574903474
 20
-43.13079285019305
 30
0.0
 11
68.76905362355211
 21
-44.05381072471042
 31
0.0
  0
LINE
  5
835
330
1F
100
AcDbEntity
  8
2
  6
CONTINUOUS
370
25
 62
7
100
AcDbLine
 10
68.19958913962802
 20
-43.0600821720744
 30
0.0
 11
69.29938370944203
 21
-44.1598767418884
 31
0.0
  0
LINE
  5
836
330
1F
100
AcDbEntity
  8
2
  6
CONTINUOUS
370
25
 62
7
100
AcDbLine
 10
68.5531425302213
 20
-42.98937149395574
 30
0.0
 11
69.82971379533194
 21
-44.26594275906639
 31
0.0
  0
LINE
  5
837
330
1F
100
AcDbEntity
  8
2
  6
CONTINUOUS
370
25
 62
7
100
AcDbLine
 10
68.90669592081457
 20
-42.91866081583709
 30
0.0
 11
70.36004388122186
 21
-44.37200877624437
 31
0.0
  0
LINE
  5
838
330
1F
100
AcDbEntity
  8
2
  6
CONTINUOUS
370
25
 62
7
100
AcDbLine
 10
69.26024931140785
 20
-42.84795013771843
 30
0.0
 11
70.89037396711176
 21
-44.47807479342235
 31
0.0
  0
LINE
  5
839
330
1F
100
AcDbEntity
  8
2
  6
CONTINUOUS
370
25
 62
7
100
AcDbLine
 10
69.61380270200112
 20
-42.77723945959978
 30
0.0
 11
71.0
 21
-44.16343675759865
 31
0.0
  0
LINE
  5
83A
330
1F
100
AcDbEntity
  8
2
  6
CONTINUOUS
370
25
 62
7
100
AcDbLine
 10
69.9673560925944
 20
-42.70652878148113
 30
0.0
 11
71.0
 21
-43.73917268888673
 31
0.0
  0
LINE
  5
83B
330
1F
100
AcDbEntity
  8
2
  6
CONTINUOUS
370
25
 62
7
100
AcDbLine
 10
70.32090948318768
 20
-42.63581810336247
 30
0.0
 11
71.0
 21
-43.31490862017479
 31
0.0
  0
LINE
  5
83C
330
1F
100
AcDbEntity
  8
2
  6
CONTINUOUS
370
25
 62
7
100
AcDbLine
 10
70.67446287378094
 20
-42.56510742524381
 30
0.0
 11
71.0
 21
-42.89064455146286
 31
0.0
  0
TEXT
  5
83D
330
1F
100
AcDbEntity
  8
2
  6
CONTINUOUS
370
25
 62
7
100
AcDbText
 10
57.16666666666666
 20
-42.0
 30
0.0
 40
3.5
  1
13
 72
     1
 11
59.5
 21
-42.0
 31
0.0
100
AcDbText
  0
LINE
  5
83E
330
1F
100
AcDbEntity
  8
4
  6
LONGDASH_DASH
370
25
 62
2
100
AcDbLine
 10
50.0
 20
0.0
 30
0.0
 11
66.0
 21
0.0
 31
0.0
  0
LINE
  5
83F
330
1F
100
AcDbEntity
  8
SK4
  6
LONGDASH_DASH
370
25
 62
2
100
AcDbLine
 10
-6.0
 20
0.0
 30
0.0
 11
72.0
 21
0.0
 31
0.0
  0
LINE
  5
840
330
1F
100
AcDbEntity
  8
2
  6
CONTINUOUS
370
25
 62
7
100
AcDbLine
 10
66.0
 20
0.0
 30
0.0
 11
73.18242300983904
 21
19.73354503650408
 31
0.0
  0
LINE
  5
841
330
1F
100
AcDbEntity
  8
2
  6
CONTINUOUS
370
25
 62
7
100
AcDbLine
 10
66.0
 20
0.0
 30
0.0
 11
73.18242300983906
 21
-19.73354503650408
 31
0.0
  0
ARC
  5
842
330
1F
100
AcDbEntity
  8
2
  6
CONTINUOUS
370
25
 62
7
100
AcDbCircle
 10
66.0
 20
0.000000000000002
 30
0.0
 40
20.0
100
AcDbArc
 50
290.0
 51
70.00000000000001
  0
LINE
  5
843
330
1F
100
AcDbEntity
  8
2
  6
CONTINUOUS
370
25
 62
7
100
AcDbLine
 10
72.84040286651337
 20
18.79385241571817
 30
0.0
 11
77.74505128946728
 21
17.39942642370005
 31
0.0
  0
LINE
  5
844
330
1F
100
AcDbEntity
  8
2
  6
CONTINUOUS
370
25
 62
7
100
AcDbLine
 10
77.74505128946728
 20
17.39942642370005
 30
0.0
 11
76.83145295231002
 21
15.62028672194994
 31
0.0
  0
LINE
  5
845
330
1F
100
AcDbEntity
  8
2
  6
CONTINUOUS
370
25
 62
7
100
AcDbLine
 10
76.83145295231002
 20
15.62028672194994
 30
0.0
 11
72.84040286651337
 21
18.79385241571817
 31
0.0
  0
LINE
  5
846
330
1F
100
AcDbEntity
  8
2
  6
CONTINUOUS
370
25
 62
7
100
AcDbLine
 10
76.62141450302235
 20
15.7873031218202
 30
0.0
 11
77.22944280848495
 21
16.39533142728279
 31
0.0
  0
LINE
  5
847
330
1F
100
AcDbEntity
  8
2
  6
CONTINUOUS
370
25
 62
7
100
AcDbLine
 10
76.38507815227723
 20
15.97523083978701
 30
0.0
 11
77.67726305549662
 21
17.2674157430064
 31
0.0
  0
LINE
  5
848
330
1F
100
AcDbEntity
  8
2
  6
CONTINUOUS
370
25
 62
7
100
AcDbLine
 10
76.14874180153214
 20
16.16315855775384
 30
0.0
 11
77.4647120749807
 21
17.47912883120241
 31
0.0
  0
LINE
  5
849
330
1F
100
AcDbEntity
  8
2
  6
CONTINUOUS
370
25
 62
7
100
AcDbLine
 10
75.91240545078702
 20
16.35108627572065
 30
0.0
 11
77.1343673356682
 21
17.57304816060184
 31
0.0
  0
LINE
  5
84A
330
1F
100
AcDbEntity
  8
2
  6
CONTINUOUS
370
25
 62
7
100
AcDbLine
 10
75.67606910004193
 20
16.53901399368748
 30
0.0
 11
76.80402259635571
 21
17.66696749000127
 31
0.0
  0
LINE
  5
84B
330
1F
100
AcDbEntity
  8
2
  6
CONTINUOUS
370
25
 62
7
100
AcDbLine
 10
75.43973274929681
 20
16.7269417116543
 30
0.0
 11
76.47367785704321
 21
17.76088681940069
 31
0.0
  0
LINE
  5
84C
330
1F
100
AcDbEntity
  8
2
  6
CONTINUOUS
370
25
 62
7
100
AcDbLine
 10
75.2033963985517
 20
16.91486942962112
 30
0.0
 11
76.1433331177307
 21
17.85480614880012
 31
0.0
  0
LINE
  5
84D
330
1F
100
AcDbEntity
  8
2
  6
CONTINUOUS
370
25
 62
7
100
AcDbLine
 10
74.9670600478066
 20
17.10279714758794
 30
0.0
 11
75.81298837841821
 21
17.94872547819955
 31
0.0
  0
LINE
  5
84E
330
1F
100
AcDbEntity
  8
2
  6
CONTINUOUS
370
25
 62
7
100
AcDbLine
 10
74.73072369706149
 20
17.29072486555476
 30
0.0
 11
75.48264363910572
 21
18.04264480759898
 31
0.0
  0
LINE
  5
84F
330
1F
100
AcDbEntity
  8
2
  6
CONTINUOUS
370
25
 62
7
100
AcDbLine
 10
74.49438734631639
 20
17.47865258352158
 30
0.0
 11
75.15229889979321
 21
18.13656413699841
 31
0.0
  0
LINE
  5
850
330
1F
100
AcDbEntity
  8
2
  6
CONTINUOUS
370
25
 62
7
100
AcDbLine
 10
74.25805099557128
 20
17.6665803014884
 30
0.0
 11
74.82195416048071
 21
18.23048346639784
 31
0.0
  0
LINE
  5
851
330
1F
100
AcDbEntity
  8
2
  6
CONTINUOUS
370
25
 62
7
100
AcDbLine
 10
74.02171464482618
 20
17.85450801945522
 30
0.0
 11
74.49160942116822
 21
18.32440279579727
 31
0.0
  0
LINE
  5
852
330
1F
100
AcDbEntity
  8
2
  6
CONTINUOUS
370
25
 62
7
100
AcDbLine
 10
73.78537829408106
 20
18.04243573742204
 30
0.0
 11
74.16126468185571
 21
18.4183221251967
 31
0.0
  0
LINE
  5
853
330
1F
100
AcDbEntity
  8
2
  6
CONTINUOUS
370
25
 62
7
100
AcDbLine
 10
73.54904194333596
 20
18.23036345538886
 30
0.0
 11
73.83091994254322
 21
18.51224145459613
 31
0.0
  0
LINE
  5
854
330
1F
100
AcDbEntity
  8
2
  6
CONTINUOUS
370
25
 62
7
100
AcDbLine
 10
73.31270559259085
 20
18.41829117335568
 30
0.0
 11
73.50057520323071
 21
18.60616078399555
 31
0.0
  0
LINE
  5
855
330
1F
100
AcDbEntity
  8
2
  6
CONTINUOUS
370
25
 62
7
100
AcDbLine
 10
73.07636924184574
 20
18.60621889132251
 30
0.0
 11
73.17023046391822
 21
18.70008011339498
 31
0.0
  0
LINE
  5
856
330
1F
100
AcDbEntity
  8
2
  6
CONTINUOUS
370
25
 62
7
100
AcDbLine
 10
73.35443266989952
 20
18.64771013258141
 30
0.0
 11
74.63647082031454
 21
17.3656719821664
 31
0.0
  0
LINE
  5
857
330
1F
100
AcDbEntity
  8
2
  6
CONTINUOUS
370
25
 62
7
100
AcDbLine
 10
73.94723444712743
 20
18.47917242406544
 30
0.0
 11
76.70777537896393
 21
15.71863149222894
 31
0.0
  0
LINE
  5
858
330
1F
100
AcDbEntity
  8
2
  6
CONTINUOUS
370
25
 62
7
100
AcDbLine
 10
74.54003622435532
 20
18.31063471554947
 30
0.0
 11
76.96680326699605
 21
15.88386767290874
 31
0.0
  0
LINE
  5
859
330
1F
100
AcDbEntity
  8
2
  6
CONTINUOUS
370
25
 62
7
100
AcDbLine
 10
75.13283800158322
 20
18.1420970070335
 30
0.0
 11
77.11074855320297
 21
16.16418645541374
 31
0.0
  0
LINE
  5
85A
330
1F
100
AcDbEntity
  8
2
  6
CONTINUOUS
370
25
 62
7
100
AcDbLine
 10
75.72563977881111
 20
17.97355929851753
 30
0.0
 11
77.2546938394099
 21
16.44450523791875
 31
0.0
  0
LINE
  5
85B
330
1F
100
AcDbEntity
  8
2
  6
CONTINUOUS
370
25
 62
7
100
AcDbLine
 10
76.318441556039
 20
17.80502159000156
 30
0.0
 11
77.39863912561682
 21
16.72482402042376
 31
0.0
  0
LINE
  5
85C
330
1F
100
AcDbEntity
  8
2
  6
CONTINUOUS
370
25
 62
7
100
AcDbLine
 10
76.91124333326691
 20
17.63648388148559
 30
0.0
 11
77.54258441182375
 21
17.00514280292876
 31
0.0
  0
LINE
  5
85D
330
1F
100
AcDbEntity
  8
2
  6
CONTINUOUS
370
25
 62
7
100
AcDbLine
 10
77.50404511049481
 20
17.46794617296962
 30
0.0
 11
77.68652969803067
 21
17.28546158543376
 31
0.0
  0
LINE
  5
85E
330
1F
100
AcDbEntity
  8
2
  6
CONTINUOUS
370
25
 62
7
100
AcDbLine
 10
72.84040286651339
 20
-18.79385241571817
 30
0.0
 11
76.83145295231003
 21
-15.62028672194994
 31
0.0
  0
LINE
  5
85F
330
1F
100
AcDbEntity
  8
2
  6
CONTINUOUS
370
25
 62
7
100
AcDbLine
 10
76.83145295231003
 20
-15.62028672194994
 30
0.0
 11
77.74505128946728
 21
-17.39942642370005
 31
0.0
  0
LINE
  5
860
330
1F
100
AcDbEntity
  8
2
  6
CONTINUOUS
370
25
 62
7
100
AcDbLine
 10
77.74505128946728
 20
-17.39942642370005
 30
0.0
 11
72.84040286651339
 21
-18.79385241571817
 31
0.0
  0
LINE
  5
861
330
1F
100
AcDbEntity
  8
2
  6
CONTINUOUS
370
25
 62
7
100
AcDbLine
 10
77.36536097568464
 20
-17.50737504647559
 30
0.0
 11
77.65285414535106
 21
-17.21988187680916
 31
0.0
  0
LINE
  5
862
330
1F
100
AcDbEntity
  8
2
  6
CONTINUOUS
370
25
 62
7
100
AcDbLine
 10
76.77255919845672
 20
-17.67591275499156
 30
0.0
 11
77.50890885914413
 21
-16.93956309430416
 31
0.0
  0
LINE
  5
863
330
1F
100
AcDbEntity
  8
2
  6
CONTINUOUS
370
25
 62
7
100
AcDbLine
 10
76.17975742122884
 20
-17.84445046350752
 30
0.0
 11
77.3649635729372
 21
-16.65924431179916
 31
0.0
  0
LINE
  5
864
330
1F
100
AcDbEntity
  8
2
  6
CONTINUOUS
370
25
 62
7
100
AcDbLine
 10
75.58695564400094
 20
-18.01298817202349
 30
0.0
 11
77.22101828673027
 21
-16.37892552929415
 31
0.0
  0
LINE
  5
865
330
1F
100
AcDbEntity
  8
2
  6
CONTINUOUS
370
25
 62
7
100
AcDbLine
 10
74.99415386677305
 20
-18.18152588053946
 30
0.0
 11
77.07707300052336
 21
-16.09860674678915
 31
0.0
  0
LINE
  5
866
330
1F
100
AcDbEntity
  8
2
  6
CONTINUOUS
370
25
 62
7
100
AcDbLine
 10
74.40135208954514
 20
-18.35006358905543
 30
0.0
 11
76.93312771431643
 21
-15.81828796428414
 31
0.0
  0
LINE
  5
867
330
1F
100
AcDbEntity
  8
2
  6
CONTINUOUS
370
25
 62
7
100
AcDbLine
 10
73.80855031231727
 20
-18.51860129757139
 30
0.0
 11
76.22320010999633
 21
-16.10395149989232
 31
0.0
  0
LINE
  5
868
330
1F
100
AcDbEntity
  8
2
  6
CONTINUOUS
370
25
 62
7
100
AcDbLine
 10
73.21574853508936
 20
-18.68713900608736
 30
0.0
 11
74.15189555134694
 21
-17.75099198982978
 31
0.0
  0
LINE
  5
869
330
1F
100
AcDbEntity
  8
2
  6
CONTINUOUS
370
25
 62
7
100
AcDbLine
 10
72.9496349563538
 20
-18.70699426923441
 30
0.0
 11
72.99308461068489
 21
-18.7504439235655
 31
0.0
  0
LINE
  5
86A
330
1F
100
AcDbEntity
  8
2
  6
CONTINUOUS
370
25
 62
7
100
AcDbLine
 10
73.1859713070989
 20
-18.51906655126758
 30
0.0
 11
73.32342934999738
 21
-18.65652459416607
 31
0.0
  0
LINE
  5
86B
330
1F
100
AcDbEntity
  8
2
  6
CONTINUOUS
370
25
 62
7
100
AcDbLine
 10
73.42230765784402
 20
-18.33113883330077
 30
0.0
 11
73.65377408930988
 21
-18.56260526476664
 31
0.0
  0
LINE
  5
86C
330
1F
100
AcDbEntity
  8
2
  6
CONTINUOUS
370
25
 62
7
100
AcDbLine
 10
73.65864400858912
 20
-18.14321111533395
 30
0.0
 11
73.98411882862239
 21
-18.46868593536721
 31
0.0
  0
LINE
  5
86D
330
1F
100
AcDbEntity
  8
2
  6
CONTINUOUS
370
25
 62
7
100
AcDbLine
 10
73.89498035933423
 20
-17.95528339736713
 30
0.0
 11
74.31446356793488
 21
-18.37476660596779
 31
0.0
  0
LINE
  5
86E
330
1F
100
AcDbEntity
  8
2
  6
CONTINUOUS
370
25
 62
7
100
AcDbLine
 10
74.13131671007933
 20
-17.7673556794003
 30
0.0
 11
74.64480830724739
 21
-18.28084727656836
 31
0.0
  0
LINE
  5
86F
330
1F
100
AcDbEntity
  8
2
  6
CONTINUOUS
370
25
 62
7
100
AcDbLine
 10
74.36765306082444
 20
-17.57942796143349
 30
0.0
 11
74.97515304655988
 21
-18.18692794716893
 31
0.0
  0
LINE
  5
870
330
1F
100
AcDbEntity
  8
2
  6
CONTINUOUS
370
25
 62
7
100
AcDbLine
 10
74.60398941156954
 20
-17.39150024346667
 30
0.0
 11
75.30549778587238
 21
-18.0930086177695
 31
0.0
  0
LINE
  5
871
330
1F
100
AcDbEntity
  8
2
  6
CONTINUOUS
370
25
 62
7
100
AcDbLine
 10
74.84032576231465
 20
-17.20357252549984
 30
0.0
 11
75.63584252518488
 21
-17.99908928837007
 31
0.0
  0
LINE
  5
872
330
1F
100
AcDbEntity
  8
2
  6
CONTINUOUS
370
25
 62
7
100
AcDbLine
 10
75.07666211305977
 20
-17.01564480753302
 30
0.0
 11
75.96618726449738
 21
-17.90516995897065
 31
0.0
  0
LINE
  5
873
330
1F
100
AcDbEntity
  8
2
  6
CONTINUOUS
370
25
 62
7
100
AcDbLine
 10
75.31299846380487
 20
-16.82771708956621
 30
0.0
 11
76.29653200380989
 21
-17.81125062957121
 31
0.0
  0
LINE
  5
874
330
1F
100
AcDbEntity
  8
2
  6
CONTINUOUS
370
25
 62
7
100
AcDbLine
 10
75.54933481454998
 20
-16.63978937159938
 30
0.0
 11
76.62687674312238
 21
-17.71733130017178
 31
0.0
  0
LINE
  5
875
330
1F
100
AcDbEntity
  8
2
  6
CONTINUOUS
370
25
 62
7
100
AcDbLine
 10
75.78567116529508
 20
-16.45186165363256
 30
0.0
 11
76.95722148243487
 21
-17.62341197077235
 31
0.0
  0
LINE
  5
876
330
1F
100
AcDbEntity
  8
2
  6
CONTINUOUS
370
25
 62
7
100
AcDbLine
 10
76.02200751604019
 20
-16.26393393566574
 30
0.0
 11
77.28756622174737
 21
-17.52949264137293
 31
0.0
  0
LINE
  5
877
330
1F
100
AcDbEntity
  8
2
  6
CONTINUOUS
370
25
 62
7
100
AcDbLine
 10
76.2583438667853
 20
-16.07600621769892
 30
0.0
 11
77.61791096105988
 21
-17.4355733119735
 31
0.0
  0
LINE
  5
878
330
1F
100
AcDbEntity
  8
2
  6
CONTINUOUS
370
25
 62
7
100
AcDbLine
 10
76.4946802175304
 20
-15.8880784997321
 30
0.0
 11
77.46958436459735
 21
-16.86298264679904
 31
0.0
  0
LINE
  5
879
330
1F
100
AcDbEntity
  8
2
  6
CONTINUOUS
370
25
 62
7
100
AcDbLine
 10
76.73101656827552
 20
-15.70015078176528
 30
0.0
 11
77.02176411758566
 21
-15.99089833107543
 31
0.0
  0
TEXT
  5
87A
330
1F
100
AcDbEntity
  8
2
  6
CONTINUOUS
370
25
 62
7
100
AcDbText
 10
83.5
 20
-4.958333333333333
 30
0.0
 40
3.5
  1
140°
 50
90.0
 72
     1
 11
83.5
 21
0.0
 31
0.0
100
AcDbText
  0
LINE
  5
87B
330
1F
100
AcDbEntity
  8
SK1
  6
CONTINUOUS
370
50
 62
4
100
AcDbLine
 10
50.0
 20
0.0
 30
0.0
 11
52.625
 21
0.0
 31
0.0
  0
LINE
  5
87C
330
1F
100
AcDbEntity
  8
SK1
  6
CONTINUOUS
370
50
 62
4
100
AcDbLine
 10
50.0
 20
0.0
 30
0.0
 11
50.0
 21
2.625
 31
0.0
  0
ARC
  5
87D
330
1F
100
AcDbEntity
  8
SK1
  6
CONTINUOUS
370
50
 62
4
100
AcDbCircle
 10
50.0
 20
0.0
 30
0.0
 40
2.625
100
AcDbArc
 50
0.0
 51
90.0
  0
LINE
  5
87E
330
1F
100
AcDbEntity
  8
SK1
  6
CONTINUOUS
370
50
 62
4
100
AcDbLine
 10
50.0
 20
0.0
 30
0.0
 11
47.375
 21
0.0
 31
0.0
  0
ARC
  5
87F
330
1F
100
AcDbEntity
  8
SK1
  6
CONTINUOUS
370
50
 62
4
100
AcDbCircle
 10
50.0
 20
0.0
 30
0.0
 40
2.625
100
AcDbArc
 50
180.0
 51
270.0
  0
LINE
  5
880
330
1F
100
AcDbEntity
  8
SK1
  6
CONTINUOUS
370
50
 62
4
100
AcDbLine
 10
50.0
 20
-2.625
 30
0.0
 11
50.0
 21
0.0
 31
0.0
  0
ARC
  5
881
330
1F
100
AcDbEntity
  8
SK1
  6
CONTINUOUS
370
50
 62
4
100
AcDbCircle
 10
50.0
 20
0.0
 30
0.0
 40
2.625
100
AcDbArc
 50
270.0
 51
0.0
  0
ARC
  5
882
330
1F
100
AcDbEntity
  8
SK1
  6
CONTINUOUS
370
50
 62
4
100
AcDbCircle
 10
50.0
 20
0.0
 30
0.0
 40
2.625
100
AcDbArc
 50
90.0
 51
180.0
  0
LINE
  5
883
330
1F
100
AcDbEntity
  8
SK1
  6
CONTINUOUS
370
50
 62
4
100
AcDbLine
 10
49.66575722192682
 20
-2.60347067499975
 30
0.0
 11
50.0
 21
-2.269227896926564
 31
0.0
  0
LINE
  5
884
330
1F
100
AcDbEntity
  8
SK1
  6
CONTINUOUS
370
50
 62
4
100
AcDbLine
 10
52.26922789692657
 20
0.0
 30
0.0
 11
52.60347067499975
 21
0.3342427780731851
 31
0.0
  0
LINE
  5
885
330
1F
100
AcDbEntity
  8
SK1
  6
CONTINUOUS
370
50
 62
4
100
AcDbLine
 10
49.35395391214686
 20
-2.544042924656761
 30
0.0
 11
50.0
 21
-1.897996836803626
 31
0.0
  0
LINE
  5
886
330
1F
100
AcDbEntity
  8
SK1
  6
CONTINUOUS
370
50
 62
4
100
AcDbLine
 10
51.89799683680363
 20
0.0
 30
0.0
 11
52.54404292465676
 21
0.6460460878531347
 31
0.0
  0
LINE
  5
887
330
1F
100
AcDbEntity
  8
SK1
  6
CONTINUOUS
370
50
 62
4
100
AcDbLine
 10
49.07222348891575
 20
-2.454542287764935
 30
0.0
 11
50.0
 21
-1.526765776680689
 31
0.0
  0
LINE
  5
888
330
1F
100
AcDbEntity
  8
SK1
  6
CONTINUOUS
370
50
 62
4
100
AcDbLine
 10
51.52676577668069
 20
0.0
 30
0.0
 11
52.45454228776494
 21
0.9277765110842457
 31
0.0
  0
LINE
  5
889
330
1F
100
AcDbEntity
  8
SK1
  6
CONTINUOUS
370
50
 62
4
100
AcDbLine
 10
48.81478120678253
 20
-2.340753509775221
 30
0.0
 11
50.0
 21
-1.155534716557751
 31
0.0
  0
LINE
  5
88A
330
1F
100
AcDbEntity
  8
SK1
  6
CONTINUOUS
370
50
 62
4
100
AcDbLine
 10
51.15553471655775
 20
0.0
 30
0.0
 11
52.34075350977522
 21
1.185218793217471
 31
0.0
  0
LINE
  5
88B
330
1F
100
AcDbEntity
  8
SK1
  6
CONTINUOUS
370
50
 62
4
100
AcDbLine
 10
48.57826543845547
 20
-2.206038217979337
 30
0.0
 11
50.0
 21
-0.7843036564348136
 31
0.0
  0
LINE
  5
88C
330
1F
100
AcDbEntity
  8
SK1
  6
CONTINUOUS
370
50
 62
4
100
AcDbLine
 10
50.78430365643482
 20
0.0
 30
0.0
 11
52.20603821797934
 21
1.421734561544524
 31
0.0
  0
LINE
  5
88D
330
1F
100
AcDbEntity
  8
SK1
  6
CONTINUOUS
370
50
 62
4
100
AcDbLine
 10
48.3626431117109
 20
-2.050429484600978
 30
0.0
 11
50.0
 21
-0.413072596311876
 31
0.0
  0
LINE
  5
88E
330
1F
100
AcDbEntity
  8
SK1
  6
CONTINUOUS
370
50
 62
4
100
AcDbLine
 10
50.41307259631188
 20
0.0
 30
0.0
 11
52.05042948460098
 21
1.637356888289101
 31
0.0
  0
LINE
  5
88F
330
1F
100
AcDbEntity
  8
SK1
  6
CONTINUOUS
370
50
 62
4
100
AcDbLine
 10
48.16568136807246
 20
-1.876160168116476
 30
0.0
 11
50.0
 21
-0.0418415361889384
 31
0.0
  0
LINE
  5
890
330
1F
100
AcDbEntity
  8
SK1
  6
CONTINUOUS
370
50
 62
4
100
AcDbLine
 10
50.04184153618894
 20
0.0
 30
0.0
 11
51.87616016811648
 21
1.834318631927537
 31
0.0
  0
LINE
  5
891
330
1F
100
AcDbEntity
  8
SK1
  6
CONTINUOUS
370
50
 62
4
100
AcDbLine
 10
47.98675942477632
 20
-1.683851051289679
 30
0.0
 11
49.670610476066
 21
0.0
 31
0.0
  0
LINE
  5
892
330
1F
100
AcDbEntity
  8
SK1
  6
CONTINUOUS
370
50
 62
4
100
AcDbLine
 10
50.0
 20
0.3293895239339992
 30
0.0
 11
51.68385105128968
 21
2.013240575223679
 31
0.0
  0
LINE
  5
893
330
1F
100
AcDbEntity
  8
SK1
  6
CONTINUOUS
370
50
 62
4
100
AcDbLine
 10
47.82782161830507
 20
-1.471557797638
 30
0.0
 11
49.29937941594306
 21
0.0
 31
0.0
  0
LINE
  5
894
330
1F
100
AcDbEntity
  8
SK1
  6
CONTINUOUS
370
50
 62
4
100
AcDbLine
 10
50.0
 20
0.7006205840569368
 30
0.0
 11
51.471557797638
 21
2.172178381694937
 31
0.0
  0
LINE
  5
895
330
1F
100
AcDbEntity
  8
SK1
  6
CONTINUOUS
370
50
 62
4
100
AcDbLine
 10
47.68749288718529
 20
-1.240655468634837
 30
0.0
 11
48.92814835582013
 21
0.0
 31
0.0
  0
LINE
  5
896
330
1F
100
AcDbEntity
  8
SK1
  6
CONTINUOUS
370
50
 62
4
100
AcDbLine
 10
50.0
 20
1.071851644179874
 30
0.0
 11
51.24065546863483
 21
2.312507112814711
 31
0.0
  0
LINE
  5
897
330
1F
100
AcDbEntity
  8
SK1
  6
CONTINUOUS
370
50
 62
4
100
AcDbLine
 10
47.56877644288387
 20
-0.9881408528133115
 30
0.0
 11
48.55691729569719
 21
0.0
 31
0.0
  0
LINE
  5
898
330
1F
100
AcDbEntity
  8
SK1
  6
CONTINUOUS
370
50
 62
4
100
AcDbLine
 10
50.0
 20
1.443082704302812
 30
0.0
 11
50.98814085281331
 21
2.431223557116124
 31
0.0
  0
LINE
  5
899
330
1F
100
AcDbEntity
  8
SK1
  6
CONTINUOUS
370
50
 62
4
100
AcDbLine
 10
47.47444482033456
 20
-0.7112414152396886
 30
0.0
 11
48.18568623557425
 21
0.0
 31
0.0
  0
LINE
  5
89A
330
1F
100
AcDbEntity
  8
SK1
  6
CONTINUOUS
370
50
 62
4
100
AcDbLine
 10
50.0
 20
1.81431376442575
 30
0.0
 11
50.71124141523969
 21
2.525555179665439
 31
0.0
  0
LINE
  5
89B
330
1F
100
AcDbEntity
  8
SK1
  6
CONTINUOUS
370
50
 62
4
100
AcDbLine
 10
47.40797120571085
 20
-0.4064839697404632
 30
0.0
 11
47.81445517545131
 21
0.0
 31
0.0
  0
LINE
  5
89C
330
1F
100
AcDbEntity
  8
SK1
  6
CONTINUOUS
370
50
 62
4
100
AcDbLine
 10
50.0
 20
2.185544824548687
 30
0.0
 11
50.40648396974046
 21
2.59202879428915
 31
0.0
  0
LINE
  5
89D
330
1F
100
AcDbEntity
  8
SK1
  6
CONTINUOUS
370
50
 62
4
100
AcDbLine
 10
47.37707870331546
 20
-0.0661454120129097
 30
0.0
 11
47.44322411532838
 21
0.0
 31
0.0
  0
LINE
  5
89E
330
1F
100
AcDbEntity
  8
SK1
  6
CONTINUOUS
370
50
 62
4
100
AcDbLine
 10
50.0
 20
2.556775884671625
 30
0.0
 11
50.06614541201291
 21
2.622921296684535
 31
0.0
  0
LINE
  5
89F
330
1F
100
AcDbEntity
  8
SK1
  6
CONTINUOUS
370
50
 62
4
100
AcDbLine
 10
47.54579652643623
 20
-0.9287176037316112
 30
0.0
 11
49.07128239626839
 21
-2.454203473563768
 31
0.0
  0
LINE
  5
8A0
330
1F
100
AcDbEntity
  8
SK1
  6
CONTINUOUS
370
50
 62
4
100
AcDbLine
 10
47.41045104563307
 20
-0.4221410628055069
 30
0.0
 11
49.5778589371945
 21
-2.589548954366935
 31
0.0
  0
LINE
  5
8A1
330
1F
100
AcDbEntity
  8
SK1
  6
CONTINUOUS
370
50
 62
4
100
AcDbLine
 10
47.37550158008622
 20
-0.0159605371357268
 30
0.0
 11
49.98403946286427
 21
-2.624498419913778
 31
0.0
  0
LINE
  5
8A2
330
1F
100
AcDbEntity
  8
SK1
  6
CONTINUOUS
370
50
 62
4
100
AcDbLine
 10
47.73077210307343
 20
0.0
 30
0.0
 11
50.0
 21
-2.269227896926564
 31
0.0
  0
LINE
  5
8A3
330
1F
100
AcDbEntity
  8
SK1
  6
CONTINUOUS
370
50
 62
4
100
AcDbLine
 10
48.10200316319637
 20
0.0
 30
0.0
 11
50.0
 21
-1.897996836803626
 31
0.0
  0
LINE
  5
8A4
330
1F
100
AcDbEntity
  8
SK1
  6
CONTINUOUS
370
50
 62
4
100
AcDbLine
 10
48.47323422331931
 20
0.0
 30
0.0
 11
50.0
 21
-1.526765776680689
 31
0.0
  0
LINE
  5
8A5
330
1F
100
AcDbEntity
  8
SK1
  6
CONTINUOUS
370
50
 62
4
100
AcDbLine
 10
48.84446528344225
 20
0.0
 30
0.0
 11
50.0
 21
-1.155534716557752
 31
0.0
  0
LINE
  5
8A6
330
1F
100
AcDbEntity
  8
SK1
  6
CONTINUOUS
370
50
 62
4
100
AcDbLine
 10
49.21569634356518
 20
0.0
 30
0.0
 11
50.0
 21
-0.7843036564348145
 31
0.0
  0
LINE
  5
8A7
330
1F
100
AcDbEntity
  8
SK1
  6
CONTINUOUS
370
50
 62
4
100
AcDbLine
 10
49.58692740368812
 20
0.0
 30
0.0
 11
50.0
 21
-0.4130725963118769
 31
0.0
  0
LINE
  5
8A8
330
1F
100
AcDbEntity
  8
SK1
  6
CONTINUOUS
370
50
 62
4
100
AcDbLine
 10
49.95815846381106
 20
0.0
 30
0.0
 11
50.0
 21
-0.0418415361889393
 31
0.0
  0
LINE
  5
8A9
330
1F
100
AcDbEntity
  8
SK1
  6
CONTINUOUS
370
50
 62
4
100
AcDbLine
 10
50.0
 20
0.3293895239339975
 30
0.0
 11
50.329389523934
 21
0.0
 31
0.0
  0
LINE
  5
8AA
330
1F
100
AcDbEntity
  8
SK1
  6
CONTINUOUS
370
50
 62
4
100
AcDbLine
 10
50.0
 20
0.7006205840569351
 30
0.0
 11
50.70062058405694
 21
0.0
 31
0.0
  0
LINE
  5
8AB
330
1F
100
AcDbEntity
  8
SK1
  6
CONTINUOUS
370
50
 62
4
100
AcDbLine
 10
50.0
 20
1.071851644179873
 30
0.0
 11
51.07185164417987
 21
0.0
 31
0.0
  0
LINE
  5
8AC
330
1F
100
AcDbEntity
  8
SK1
  6
CONTINUOUS
370
50
 62
4
100
AcDbLine
 10
50.0
 20
1.44308270430281
 30
0.0
 11
51.44308270430281
 21
0.0
 31
0.0
  0
LINE
  5
8AD
330
1F
100
AcDbEntity
  8
SK1
  6
CONTINUOUS
370
50
 62
4
100
AcDbLine
 10
50.0
 20
1.814313764425748
 30
0.0
 11
51.81431376442575
 21
0.0
 31
0.0
  0
LINE
  5
8AE
330
1F
100
AcDbEntity
  8
SK1
  6
CONTINUOUS
370
50
 62
4
100
AcDbLine
 10
50.0
 20
2.185544824548685
 30
0.0
 11
52.18554482454869
 21
0.0
 31
0.0
  0
LINE
  5
8AF
330
1F
100
AcDbEntity
  8
SK1
  6
CONTINUOUS
370
50
 62
4
100
AcDbLine
 10
50.0
 20
2.556775884671622
 30
0.0
 11
52.55677588467162
 21
0.0
 31
0.0
  0
LINE
  5
8B0
330
1F
100
AcDbEntity
  8
SK1
  6
CONTINUOUS
370
50
 62
4
100
AcDbLine
 10
50.3231531925751
 20
2.604853752219459
 30
0.0
 11
52.60485375221946
 21
0.3231531925751043
 31
0.0
  0
LINE
  5
8B1
330
1F
100
AcDbEntity
  8
SK1
  6
CONTINUOUS
370
50
 62
4
100
AcDbLine
 10
50.79925237182748
 20
2.499985633090018
 30
0.0
 11
52.49998563309002
 21
0.7992523718274818
 31
0.0
  0
LINE
  5
8B2
330
1F
100
AcDbEntity
  8
SK1
  6
CONTINUOUS
370
50
 62
4
100
AcDbLine
 10
51.56015793098176
 20
2.11031113405868
 30
0.0
 11
52.11031113405868
 21
1.560157930981759
 31
0.0
  0
ARC
  5
8B3
330
1F
100
AcDbEntity
  8
SK6
  6
CONTINUOUS
370
25
 62
5
100
AcDbCircle
 10
92.0613820083765
 20
-26.19524575338786
 30
0.0
 40
2.76048912849221
100
AcDbArc
 50
338.9379403434233
 51
90.44457437511365
  0
LINE
  5
8B4
330
1F
100
AcDbEntity
  8
SK6
  6
CONTINUOUS
370
25
 62
5
100
AcDbLine
 10
92.03996279695983
 20
-23.43483972421281
 30
0.0
 11
92.03996279695983
 21
-24.53789835613463
 31
0.0
  0
ARC
  5
8B5
330
1F
100
AcDbEntity
  8
SK6
  6
CONTINUOUS
370
25
 62
5
100
AcDbCircle
 10
92.05050902936915
 20
-26.2152392456682
 30
0.0
 40
1.677374043771779
100
AcDbArc
 50
243.4214706017868
 51
90.36024081226083
  0
ARC
  5
8B6
330
1F
100
AcDbEntity
  8
SK6
  6
CONTINUOUS
370
25
 62
5
100
AcDbCircle
 10
94.57275989684958
 20
-25.7838319921556
 30
0.0
 40
3.80021703002276
100
AcDbArc
 50
210.5483731288539
 51
236.97801693668
  0
LINE
  5
8B7
330
1F
100
AcDbEntity
  8
SK6
  6
CONTINUOUS
370
25
 62
5
100
AcDbLine
 10
92.50179068512486
 20
-28.97016781867535
 30
0.0
 11
96.6437309674267
 21
-28.97016781867535
 31
0.0
  0
ARC
  5
8B8
330
1F
100
AcDbEntity
  8
SK6
  6
CONTINUOUS
370
25
 62
5
100
AcDbCircle
 10
94.57276183877256
 20
-25.7838320937346
 30
0.0
 40
3.800216899582472
100
AcDbArc
 50
303.0219828477959
 51
326.3732153033476
  0
LINE
  5
8B9
330
1F
100
AcDbEntity
  8
SK6
  6
CONTINUOUS
370
25
 62
5
100
AcDbLine
 10
97.73705975135722
 20
-27.8883194907709
 30
0.0
 11
94.37976170575462
 21
-27.8883194907709
 31
0.0
  0
LINE
  5
8BA
330
1F
100
AcDbEntity
  8
SK6
  6
CONTINUOUS
370
25
 62
5
100
AcDbLine
 10
94.37976170575462
 20
-27.8883194907709
 30
0.0
 11
98.29962109771986
 21
-26.52691829641694
 31
0.0
  0
ARC
  5
8BB
330
1F
100
AcDbEntity
  8
SK6
  6
CONTINUOUS
370
25
 62
5
100
AcDbCircle
 10
94.5727625615721
 20
-25.7838326048594
 30
0.0
 40
3.800217216614723
100
AcDbArc
 50
348.7238644184696
 51
53.4691051260885
  0
LINE
  5
8BC
330
1F
100
AcDbEntity
  8
SK6
  6
CONTINUOUS
370
25
 62
5
100
AcDbLine
 10
96.83486524538544
 20
-22.73022124429967
 30
0.0
 11
94.63745047882736
 21
-27.18730973507057
 31
0.0
  0
ENDSEC
  0
SECTION
  2
OBJECTS
  0
DICTIONARY
  5
C
330
0
100
AcDbDictionary
281
     1
  3
ACAD_GROUP
350
D
  3
ACAD_LAYOUT
350
1A
  3
ACAD_MATERIAL
350
3B
  3
ACAD_MLEADERSTYLE
350
8BF
  3
ACAD_MLINESTYLE
350
17
  3
ACAD_PLOTSETTINGS
350
19
  3
ACAD_PLOTSTYLENAME
350
E
  3
ACAD_SCALELIST
350
21C
  3
ACAD_VISUALSTYLE
350
2A
  3
AcDbVariableDictionary
350
8BD
  0
DICTIONARY
  5
D
102
{ACAD_REACTORS
330
C
102
}
330
C
100
AcDbDictionary
281
     1
  0
DICTIONARY
  5
1A
102
{ACAD_REACTORS
330
C
102
}
330
C
100
AcDbDictionary
281
     1
  3
Layout1
350
1E
  3
Layout2
350
26
  3
Model
350
22
  0
DICTIONARY
  5
3B
102
{ACAD_REACTORS
330
C
102
}
330
C
100
AcDbDictionary
281
     1
  3
ByBlock
350
3D
  3
ByLayer
350
3C
  3
Global
350
3E
  0
DICTIONARY
  5
8BF
102
{ACAD_REACTORS
330
C
102
}
330
C
100
AcDbDictionary
281
     1
  0
DICTIONARY
  5
17
102
{ACAD_REACTORS
330
C
102
}
330
C
100
AcDbDictionary
281
     1
  3
Standard
350
18
  0
DICTIONARY
  5
19
102
{ACAD_REACTORS
330
C
102
}
330
C
100
AcDbDictionary
281
     1
  0
ACDBDICTIONARYWDFLT
  5
E
102
{ACAD_REACTORS
330
C
102
}
330
C
100
AcDbDictionary
281
     1
  3
Normal
350
F
100
AcDbDictionaryWithDefault
340
F
  0
DICTIONARY
  5
21C
102
{ACAD_REACTORS
330
C
102
}
330
C
100
AcDbDictionary
281
     1
  3
A0
350
21D
  3
A1
350
21E
  3
A2
350
21F
  3
A3
350
220
  3
A4
350
221
  3
A5
350
222
  3
A6
350
223
  3
A7
350
224
  3
A8
350
225
  3
A9
350
226
  3
B0
350
227
  3
B1
350
228
  3
B2
350
229
  3
B3
350
22A
  3
B4
350
22B
  3
B5
350
22C
  3
B6
350
22D
  3
B7
350
22E
  3
B8
350
22F
  3
B9
350
230
  3
C0
350
231
  3
C1
350
232
  3
C2
350
233
  3
C3
350
234
  3
C4
350
235
  3
C5
350
236
  3
C6
350
237
  3
C7
350
238
  3
C8
350
239
  3
C9
350
23A
  3
D0
350
23B
  3
D1
350
23C
  3
D2
350
23D
  0
DICTIONARY
  5
2A
102
{ACAD_REACTORS
330
C
102
}
330
C
100
AcDbDictionary
281
     1
  3
2dWireframe
350
2F
  3
3D Hidden
350
31
  3
3dWireframe
350
30
  3
Basic
350
32
  3
Brighten
350
36
  3
ColorChange
350
3A
  3
Conceptual
350
34
  3
Dim
350
35
  3
Facepattern
350
39
  3
Flat
350
2B
  3
FlatWithEdges
350
2C
  3
Gouraud
350
2D
  3
GouraudWithEdges
350
2E
  3
Linepattern
350
38
  3
Realistic
350
33
  3
Thicken
350
37
  0
DICTIONARY
  5
8BD
102
{ACAD_REACTORS
330
C
102
}
330
C
100
AcDbDictionary
281
     1
  3
CANNOSCALE
350
8C2
  3
DIMASSOC
350
8C3
  3
HIDETEXT
350
8C4
  3
PSOLHEIGHT
350
8C1
  3
PSOLWIDTH
350
8C0
  0
LAYOUT
  5
1E
102
{ACAD_REACTORS
330
1A
102
}
330
1A
100
AcDbPlotSettings
  1

  2
none_device
  4

  6

 40
0.0
 41
0.0
 42
0.0
 43
0.0
 44
0.0
 45
0.0
 46
0.0
 47
0.0
 48
0.0
 49
0.0
140
0.0
141
0.0
142
1.0
143
1.0
 70
   688
 72
     0
 73
     0
 74
     5
  7

 75
    16
147
1.0
148
0.0
149
0.0
100
AcDbLayout
  1
Layout1
 70
     1
 71
     1
 10
0.0
 20
0.0
 11
420.0
 21
297.0
 12
0.0
 22
0.0
 32
0.0
 14
1.000000000000000E+20
 24
1.000000000000000E+20
 34
1.000000000000000E+20
 15
-1.000000000000000E+20
 25
-1.000000000000000E+20
 35
-1.000000000000000E+20
146
0.0
 13
0.0
 23
0.0
 33
0.0
 16
1.0
 26
0.0
 36
0.0
 17
0.0
 27
1.0
 37
0.0
 76
     0
330
1B
  0
LAYOUT
  5
26
102
{ACAD_REACTORS
330
1A
102
}
330
1A
100
AcDbPlotSettings
  1

  2
none_device
  4

  6

 40
0.0
 41
0.0
 42
0.0
 43
0.0
 44
0.0
 45
0.0
 46
0.0
 47
0.0
 48
0.0
 49
0.0
140
0.0
141
0.0
142
1.0
143
1.0
 70
   688
 72
     0
 73
     0
 74
     5
  7

 75
    16
147
1.0
148
0.0
149
0.0
100
AcDbLayout
  1
Layout2
 70
     1
 71
     2
 10
0.0
 20
0.0
 11
0.0
 21
0.0
 12
0.0
 22
0.0
 32
0.0
 14
0.0
 24
0.0
 34
0.0
 15
0.0
 25
0.0
 35
0.0
146
0.0
 13
0.0
 23
0.0
 33
0.0
 16
1.0
 26
0.0
 36
0.0
 17
0.0
 27
1.0
 37
0.0
 76
     0
330
23
  0
LAYOUT
  5
22
102
{ACAD_REACTORS
330
1A
102
}
330
1A
100
AcDbPlotSettings
  1

  2
none_device
  4

  6

 40
0.0
 41
0.0
 42
0.0
 43
0.0
 44
0.0
 45
0.0
 46
0.0
 47
0.0
 48
0.0
 49
0.0
140
0.0
141
0.0
142
1.0
143
1.0
 70
  1712
 72
     0
 73
     0
 74
     0
  7

 75
     0
147
1.0
148
0.0
149
0.0
100
AcDbLayout
  1
Model
 70
     1
 71
     0
 10
0.0
 20
0.0
 11
420.0
 21
297.0
 12
0.0
 22
0.0
 32
0.0
 14
0.0
 24
0.0
 34
0.0
 15
25.0
 25
35.0
 35
0.0
146
0.0
 13
0.0
 23
0.0
 33
0.0
 16
1.0
 26
0.0
 36
0.0
 17
0.0
 27
1.0
 37
0.0
 76
     0
330
1F
331
29
  0
MATERIAL
  5
3D
102
{ACAD_REACTORS
330
3B
102
}
102
{ACAD_XDICTIONARY
360
8E7
102
}
330
3B
100
AcDbMaterial
  1
ByBlock
  0
MATERIAL
  5
3C
102
{ACAD_REACTORS
330
3B
102
}
102
{ACAD_XDICTIONARY
360
8E5
102
}
330
3B
100
AcDbMaterial
  1
ByLayer
  0
MATERIAL
  5
3E
102
{ACAD_REACTORS
330
3B
102
}
102
{ACAD_XDICTIONARY
360
8E9
102
}
330
3B
100
AcDbMaterial
  1
Global
  0
MLINESTYLE
  5
18
102
{ACAD_REACTORS
330
17
102
}
330
17
100
AcDbMlineStyle
  2
Standard
 70
     0
  3

 62
   256
 51
90.0
 52
90.0
 71
     2
 49
0.5
 62
   256
  6
BYLAYER
 49
-0.5
 62
   256
  6
BYLAYER
  0
ACDBPLACEHOLDER
  5
F
102
{ACAD_REACTORS
330
E
102
}
330
E
  0
SCALE
  5
21D
102
{ACAD_REACTORS
330
21C
102
}
330
21C
100
AcDbScale
 70
     0
300
1:1
140
1.0
141
1.0
290
     1
  0
SCALE
  5
21E
102
{ACAD_REACTORS
330
21C
102
}
330
21C
100
AcDbScale
 70
     0
300
1:2
140
1.0
141
2.0
290
     0
  0
SCALE
  5
21F
102
{ACAD_REACTORS
330
21C
102
}
330
21C
100
AcDbScale
 70
     0
300
1:4
140
1.0
141
4.0
290
     0
  0
SCALE
  5
220
102
{ACAD_REACTORS
330
21C
102
}
330
21C
100
AcDbScale
 70
     0
300
1:5
140
1.0
141
5.0
290
     0
  0
SCALE
  5
221
102
{ACAD_REACTORS
330
21C
102
}
330
21C
100
AcDbScale
 70
     0
300
1:8
140
1.0
141
8.0
290
     0
  0
SCALE
  5
222
102
{ACAD_REACTORS
330
21C
102
}
330
21C
100
AcDbScale
 70
     0
300
1:10
140
1.0
141
10.0
290
     0
  0
SCALE
  5
223
102
{ACAD_REACTORS
330
21C
102
}
330
21C
100
AcDbScale
 70
     0
300
1:16
140
1.0
141
16.0
290
     0
  0
SCALE
  5
224
102
{ACAD_REACTORS
330
21C
102
}
330
21C
100
AcDbScale
 70
     0
300
1:20
140
1.0
141
20.0
290
     0
  0
SCALE
  5
225
102
{ACAD_REACTORS
330
21C
102
}
330
21C
100
AcDbScale
 70
     0
300
1:30
140
1.0
141
30.0
290
     0
  0
SCALE
  5
226
102
{ACAD_REACTORS
330
21C
102
}
330
21C
100
AcDbScale
 70
     0
300
1:40
140
1.0
141
40.0
290
     0
  0
SCALE
  5
227
102
{ACAD_REACTORS
330
21C
102
}
330
21C
100
AcDbScale
 70
     0
300
1:50
140
1.0
141
50.0
290
     0
  0
SCALE
  5
228
102
{ACAD_REACTORS
330
21C
102
}
330
21C
100
AcDbScale
 70
     0
300
1:100
140
1.0
141
100.0
290
     0
  0
SCALE
  5
229
102
{ACAD_REACTORS
330
21C
102
}
330
21C
100
AcDbScale
 70
     0
300
2:1
140
2.0
141
1.0
290
     0
  0
SCALE
  5
22A
102
{ACAD_REACTORS
330
21C
102
}
330
21C
100
AcDbScale
 70
     0
300
4:1
140
4.0
141
1.0
290
     0
  0
SCALE
  5
22B
102
{ACAD_REACTORS
330
21C
102
}
330
21C
100
AcDbScale
 70
     0
300
8:1
140
8.0
141
1.0
290
     0
  0
SCALE
  5
22C
102
{ACAD_REACTORS
330
21C
102
}
330
21C
100
AcDbScale
 70
     0
300
10:1
140
10.0
141
1.0
290
     0
  0
SCALE
  5
22D
102
{ACAD_REACTORS
330
21C
102
}
330
21C
100
AcDbScale
 70
     0
300
100:1
140
100.0
141
1.0
290
     0
  0
SCALE
  5
22E
102
{ACAD_REACTORS
330
21C
102
}
330
21C
100
AcDbScale
 70
     0
300
1/128" = 1'-0"
140
0.0078125
141
12.0
290
     0
  0
SCALE
  5
22F
102
{ACAD_REACTORS
330
21C
102
}
330
21C
100
AcDbScale
 70
     0
300
1/64" = 1'-0"
140
0.015625
141
12.0
290
     0
  0
SCALE
  5
230
102
{ACAD_REACTORS
330
21C
102
}
330
21C
100
AcDbScale
 70
     0
300
1/32" = 1'-0"
140
0.03125
141
12.0
290
     0
  0
SCALE
  5
231
102
{ACAD_REACTORS
330
21C
102
}
330
21C
100
AcDbScale
 70
     0
300
1/16" = 1'-0"
140
0.0625
141
12.0
290
     0
  0
SCALE
  5
232
102
{ACAD_REACTORS
330
21C
102
}
330
21C
100
AcDbScale
 70
     0
300
3/32" = 1'-0"
140
0.09375
141
12.0
290
     0
  0
SCALE
  5
233
102
{ACAD_REACTORS
330
21C
102
}
330
21C
100
AcDbScale
 70
     0
300
1/8" = 1'-0"
140
0.125
141
12.0
290
     0
  0
SCALE
  5
234
102
{ACAD_REACTORS
330
21C
102
}
330
21C
100
AcDbScale
 70
     0
300
3/16" = 1'-0"
140
0.1875
141
12.0
290
     0
  0
SCALE
  5
235
102
{ACAD_REACTORS
330
21C
102
}
330
21C
100
AcDbScale
 70
     0
300
1/4" = 1'-0"
140
0.25
141
12.0
290
     0
  0
SCALE
  5
236
102
{ACAD_REACTORS
330
21C
102
}
330
21C
100
AcDbScale
 70
     0
300
3/8" = 1'-0"
140
0.375
141
12.0
290
     0
  0
SCALE
  5
237
102
{ACAD_REACTORS
330
21C
102
}
330
21C
100
AcDbScale
 70
     0
300
1/2" = 1'-0"
140
0.5
141
12.0
290
     0
  0
SCALE
  5
238
102
{ACAD_REACTORS
330
21C
102
}
330
21C
100
AcDbScale
 70
     0
300
3/4" = 1'-0"
140
0.75
141
12.0
290
     0
  0
SCALE
  5
239
102
{ACAD_REACTORS
330
21C
102
}
330
21C
100
AcDbScale
 70
     0
300
1" = 1'-0"
140
1.0
141
12.0
290
     0
  0
SCALE
  5
23A
102
{ACAD_REACTORS
330
21C
102
}
330
21C
100
AcDbScale
 70
     0
300
1-1/2" = 1'-0"
140
1.5
141
12.0
290
     0
  0
SCALE
  5
23B
102
{ACAD_REACTORS
330
21C
102
}
330
21C
100
AcDbScale
 70
     0
300
3" = 1'-0"
140
3.0
141
12.0
290
     0
  0
SCALE
  5
23C
102
{ACAD_REACTORS
330
21C
102
}
330
21C
100
AcDbScale
 70
     0
300
6" = 1'-0"
140
6.0
141
12.0
290
     0
  0
SCALE
  5
23D
102
{ACAD_REACTORS
330
21C
102
}
330
21C
100
AcDbScale
 70
     0
300
1'-0" = 1'-0"
140
12.0
141
12.0
290
     0
  0
VISUALSTYLE
  5
2F
102
{ACAD_REACTORS
330
2A
102
}
102
{ACAD_XDICTIONARY
360
8CD
102
}
330
2A
100
AcDbVisualStyle
  2
2dWireframe
 70
     4
 71
     0
 72
     2
 73
     0
 90
        0
 40
-0.6
 41
-30.0
 62
     5
 63
     7
 74
     1
 91
        4
 64
     7
 65
   257
 75
     1
175
     1
 42
1.0
 92
        0
 66
   257
 43
1.0
 76
     1
 77
     6
 78
     2
 67
     7
 79
     5
170
     0
171
     0
290
     0
174
     0
 93
        1
 44
0.0
173
     0
291
     0
 45
0.0
1001
ACAD
1000
AcDbSavedByObjectVersion
1070
     0
  0
VISUALSTYLE
  5
31
102
{ACAD_REACTORS
330
2A
102
}
102
{ACAD_XDICTIONARY
360
8D1
102
}
330
2A
100
AcDbVisualStyle
  2
3D Hidden
 70
     6
 71
     1
 72
     2
 73
     2
 90
        0
 40
-0.6
 41
-30.0
 62
     5
 63
     7
 74
     2
 91
        2
 64
     7
 65
   257
 75
     2
175
     1
 42
40.0
 92
        0
 66
   257
 43
1.0
 76
     1
 77
     6
 78
     2
 67
     7
 79
     3
170
     0
171
     0
290
     0
174
     0
 93
        1
 44
0.0
173
     0
291
     0
 45
0.0
1001
ACAD
1000
AcDbSavedByObjectVersion
1070
     0
  0
VISUALSTYLE
  5
30
102
{ACAD_REACTORS
330
2A
102
}
102
{ACAD_XDICTIONARY
360
8CF
102
}
330
2A
100
AcDbVisualStyle
  2
3dWireframe
 70
     5
 71
     0
 72
     2
 73
     0
 90
        0
 40
-0.6
 41
-30.0
 62
     5
 63
     7
 74
     1
 91
        4
 64
     7
 65
   257
 75
     1
175
     1
 42
1.0
 92
        0
 66
   257
 43
1.0
 76
     1
 77
     6
 78
     2
 67
     7
 79
     5
170
     0
171
     0
290
     0
174
     0
 93
        1
 44
0.0
173
     0
291
     0
 45
0.0
1001
ACAD
1000
AcDbSavedByObjectVersion
1070
     0
  0
VISUALSTYLE
  5
32
102
{ACAD_REACTORS
330
2A
102
}
102
{ACAD_XDICTIONARY
360
8D3
102
}
330
2A
100
AcDbVisualStyle
  2
Basic
 70
     7
 71
     1
 72
     0
 73
     1
 90
        0
 40
-0.6
 41
-30.0
 62
     5
 63
     7
 74
     0
 91
        4
 64
     7
 65
   257
 75
     1
175
     1
 42
1.0
 92
        8
 66
     7
 43
1.0
 76
     1
 77
     6
 78
     2
 67
     7
 79
     5
170
     0
171
     0
290
     0
174
     0
 93
        1
 44
0.0
173
     0
291
     1
 45
0.0
1001
ACAD
1000
AcDbSavedByObjectVersion
1070
     0
  0
VISUALSTYLE
  5
36
102
{ACAD_REACTORS
330
2A
102
}
102
{ACAD_XDICTIONARY
360
8DB
102
}
330
2A
100
AcDbVisualStyle
  2
Brighten
 70
    12
 71
     2
 72
     2
 73
     0
 90
        0
 40
-0.6
 41
-30.0
 62
     5
 63
     7
 74
     1
 91
        4
 64
     7
 65
   257
 75
     1
175
     1
 42
1.0
 92
        8
 66
     7
 43
1.0
 76
     1
 77
     6
 78
     2
 67
     7
 79
     5
170
     0
171
     0
290
     0
174
     0
 93
        1
 44
50.0
173
     0
291
     1
 45
0.0
1001
ACAD
1000
AcDbSavedByObjectVersion
1070
     0
  0
VISUALSTYLE
  5
3A
102
{ACAD_REACTORS
330
2A
102
}
102
{ACAD_XDICTIONARY
360
8E3
102
}
330
2A
100
AcDbVisualStyle
  2
ColorChange
 70
    16
 71
     2
 72
     2
 73
     3
 90
        0
 40
-0.6
 41
-30.0
 62
     5
 63
     8
 74
     1
 91
        4
 64
     7
 65
   257
 75
     1
175
     1
 42
1.0
 92
        8
 66
     8
 43
1.0
 76
     1
 77
     6
 78
     2
 67
     7
 79
     5
170
     0
171
     0
290
     0
174
     0
 93
        1
 44
0.0
173
     0
291
     1
 45
0.0
1001
ACAD
1000
AcDbSavedByObjectVersion
1070
     0
  0
VISUALSTYLE
  5
34
102
{ACAD_REACTORS
330
2A
102
}
102
{ACAD_XDICTIONARY
360
8D7
102
}
330
2A
100
AcDbVisualStyle
  2
Conceptual
 70
     9
 71
     3
 72
     2
 73
     0
 90
        0
 40
-0.6
 41
-30.0
 62
     5
 63
     7
 74
     2
 91
        2
 64
     7
 65
   257
 75
     1
175
     1
 42
40.0
 92
        8
 66
     7
 43
1.0
 76
     1
 77
     6
 78
     2
 67
     7
 79
     3
170
     0
171
     0
290
     0
174
     0
 93
        1
 44
0.0
173
     0
291
     0
 45
0.0
1001
ACAD
1000
AcDbSavedByObjectVersion
1070
     0
  0
VISUALSTYLE
  5
35
102
{ACAD_REACTORS
330
2A
102
}
102
{ACAD_XDICTIONARY
360
8D9
102
}
330
2A
100
AcDbVisualStyle
  2
Dim
 70
    11
 71
     2
 72
     2
 73
     0
 90
        0
 40
-0.6
 41
-30.0
 62
     5
 63
     7
 74
     1
 91
        4
 64
     7
 65
   257
 75
     1
175
     1
 42
1.0
 92
        8
 66
     7
 43
1.0
 76
     1
 77
     6
 78
     2
 67
     7
 79
     5
170
     0
171
     0
290
     0
174
     0
 93
        1
 44
-50.0
173
     0
291
     1
 45
0.0
1001
ACAD
1000
AcDbSavedByObjectVersion
1070
     0
  0
VISUALSTYLE
  5
39
102
{ACAD_REACTORS
330
2A
102
}
102
{ACAD_XDICTIONARY
360
8E1
102
}
330
2A
100
AcDbVisualStyle
  2
Facepattern
 70
    15
 71
     2
 72
     2
 73
     0
 90
        0
 40
-0.6
 41
-30.0
 62
     5
 63
     7
 74
     1
 91
        4
 64
     7
 65
   257
 75
     1
175
     1
 42
1.0
 92
        8
 66
     7
 43
1.0
 76
     1
 77
     6
 78
     2
 67
     7
 79
     5
170
     0
171
     0
290
     0
174
     0
 93
        1
 44
0.0
173
     0
291
     1
 45
0.0
1001
ACAD
1000
AcDbSavedByObjectVersion
1070
     0
  0
VISUALSTYLE
  5
2B
102
{ACAD_REACTORS
330
2A
102
}
102
{ACAD_XDICTIONARY
360
8C5
102
}
330
2A
100
AcDbVisualStyle
  2
Flat
 70
     0
 71
     2
 72
     1
 73
     1
 90
        2
 40
-0.6
 41
30.0
 62
     5
 63
     7
 74
     0
 91
        4
 64
     7
 65
   257
 75
     1
175
     1
 42
1.0
 92
        8
 66
     7
 43
1.0
 76
     1
 77
     6
 78
     2
 67
     7
 79
     5
170
     0
171
     0
290
     0
174
     0
 93
       13
 44
0.0
173
     0
291
     1
 45
0.0
1001
ACAD
1000
AcDbSavedByObjectVersion
1070
     0
  0
VISUALSTYLE
  5
2C
102
{ACAD_REACTORS
330
2A
102
}
102
{ACAD_XDICTIONARY
360
8C7
102
}
330
2A
100
AcDbVisualStyle
  2
FlatWithEdges
 70
     1
 71
     2
 72
     1
 73
     1
 90
        2
 40
-0.6
 41
30.0
 62
     5
 63
     7
 74
     1
 91
        4
 64
     7
 65
   257
 75
     1
175
     1
 42
1.0
 92
        0
 66
   257
 43
1.0
 76
     1
 77
     6
 78
     2
 67
     7
 79
     5
170
     0
171
     0
290
     0
174
     0
 93
       13
 44
0.0
173
     0
291
     1
 45
0.0
1001
ACAD
1000
AcDbSavedByObjectVersion
1070
     0
  0
VISUALSTYLE
  5
2D
102
{ACAD_REACTORS
330
2A
102
}
102
{ACAD_XDICTIONARY
360
8C9
102
}
330
2A
100
AcDbVisualStyle
  2
Gouraud
 70
     2
 71
     2
 72
     2
 73
     1
 90
        2
 40
-0.6
 41
30.0
 62
     5
 63
     7
 74
     0
 91
        4
 64
     7
 65
   257
 75
     1
175
     1
 42
1.0
 92
        0
 66
     7
 43
1.0
 76
     1
 77
     6
 78
     2
 67
     7
 79
     5
170
     0
171
     0
290
     0
174
     0
 93
       13
 44
0.0
173
     0
291
     1
 45
0.0
1001
ACAD
1000
AcDbSavedByObjectVersion
1070
     0
  0
VISUALSTYLE
  5
2E
102
{ACAD_REACTORS
330
2A
102
}
102
{ACAD_XDICTIONARY
360
8CB
102
}
330
2A
100
AcDbVisualStyle
  2
GouraudWithEdges
 70
     3
 71
     2
 72
     2
 73
     1
 90
        2
 40
-0.6
 41
30.0
 62
     5
 63
     7
 74
     1
 91
        4
 64
     7
 65
   257
 75
     1
175
     1
 42
1.0
 92
        0
 66
   257
 43
1.0
 76
     1
 77
     6
 78
     2
 67
     7
 79
     5
170
     0
171
     0
290
     0
174
     0
 93
       13
 44
0.0
173
     0
291
     1
 45
0.0
1001
ACAD
1000
AcDbSavedByObjectVersion
1070
     0
  0
VISUALSTYLE
  5
38
102
{ACAD_REACTORS
330
2A
102
}
102
{ACAD_XDICTIONARY
360
8DF
102
}
330
2A
100
AcDbVisualStyle
  2
Linepattern
 70
    14
 71
     2
 72
     2
 73
     0
 90
        0
 40
-0.6
 41
-30.0
 62
     5
 63
     7
 74
     1
 91
        4
 64
     7
 65
   257
 75
     7
175
     7
 42
1.0
 92
        8
 66
     7
 43
1.0
 76
     1
 77
     6
 78
     2
 67
     7
 79
     5
170
     0
171
     0
290
     0
174
     0
 93
        1
 44
0.0
173
     0
291
     1
 45
0.0
1001
ACAD
1000
AcDbSavedByObjectVersion
1070
     0
  0
VISUALSTYLE
  5
33
102
{ACAD_REACTORS
330
2A
102
}
102
{ACAD_XDICTIONARY
360
8D5
102
}
330
2A
100
AcDbVisualStyle
  2
Realistic
 70
     8
 71
     2
 72
     2
 73
     0
 90
        0
 40
-0.6
 41
-30.0
 62
     5
 63
     7
 74
     1
 91
        0
 64
     7
 65
   257
 75
     1
175
     1
 42
1.0
 92
        8
 66
     8
 43
1.0
 76
     1
 77
     6
 78
     2
 67
     7
 79
     5
170
     0
171
     0
290
     0
174
     0
 93
       13
 44
0.0
173
     0
291
     0
 45
0.0
1001
ACAD
1000
AcDbSavedByObjectVersion
1070
     0
  0
VISUALSTYLE
  5
37
102
{ACAD_REACTORS
330
2A
102
}
102
{ACAD_XDICTIONARY
360
8DD
102
}
330
2A
100
AcDbVisualStyle
  2
Thicken
 70
    13
 71
     2
 72
     2
 73
     0
 90
        0
 40
-0.6
 41
-30.0
 62
     5
 63
     7
 74
     1
 91
        4
 64
     7
 65
   257
 75
     1
175
     1
 42
1.0
 92
       12
 66
     7
 43
1.0
 76
     1
 77
     6
 78
     2
 67
     7
 79
     5
170
     0
171
     0
290
     0
174
     0
 93
        1
 44
0.0
173
     0
291
     1
 45
0.0
1001
ACAD
1000
AcDbSavedByObjectVersion
1070
     0
  0
DICTIONARYVAR
  5
8C2
102
{ACAD_REACTORS
330
8BD
102
}
330
8BD
100
DictionaryVariables
280
     0
  1
1:1
  0
DICTIONARYVAR
  5
8C3
102
{ACAD_REACTORS
330
8BD
102
}
330
8BD
100
DictionaryVariables
280
     0
  1
2
  0
DICTIONARYVAR
  5
8C4
102
{ACAD_REACTORS
330
8BD
102
}
330
8BD
100
DictionaryVariables
280
     0
  1
1
  0
DICTIONARYVAR
  5
8C1
102
{ACAD_REACTORS
330
8BD
102
}
330
8BD
100
DictionaryVariables
280
     0
  1
80.000000
  0
DICTIONARYVAR
  5
8C0
102
{ACAD_REACTORS
330
8BD
102
}
330
8BD
100
DictionaryVariables
280
     0
  1
5.000000
  0
DICTIONARY
  5
8E7
330
3D
100
AcDbDictionary
280
     1
281
     1
  3
ACAD_XREC_ROUNDTRIP
360
8E8
  0
DICTIONARY
  5
8E5
330
3C
100
AcDbDictionary
280
     1
281
     1
  3
ACAD_XREC_ROUNDTRIP
360
8E6
  0
DICTIONARY
  5
8E9
330
3E
100
AcDbDictionary
280
     1
281
     1
  3
ACAD_XREC_ROUNDTRIP
360
8EA
  0
DICTIONARY
  5
8CD
330
2F
100
AcDbDictionary
280
     1
281
     1
  3
ACAD_XREC_ROUNDTRIP
360
8CE
  0
DICTIONARY
  5
8D1
330
31
100
AcDbDictionary
280
     1
281
     1
  3
ACAD_XREC_ROUNDTRIP
360
8D2
  0
DICTIONARY
  5
8CF
330
30
100
AcDbDictionary
280
     1
281
     1
  3
ACAD_XREC_ROUNDTRIP
360
8D0
  0
DICTIONARY
  5
8D3
330
32
100
AcDbDictionary
280
     1
281
     1
  3
ACAD_XREC_ROUNDTRIP
360
8D4
  0
DICTIONARY
  5
8DB
330
36
100
AcDbDictionary
280
     1
281
     1
  3
ACAD_XREC_ROUNDTRIP
360
8DC
  0
DICTIONARY
  5
8E3
330
3A
100
AcDbDictionary
280
     1
281
     1
  3
ACAD_XREC_ROUNDTRIP
360
8E4
  0
DICTIONARY
  5
8D7
330
34
100
AcDbDictionary
280
     1
281
     1
  3
ACAD_XREC_ROUNDTRIP
360
8D8
  0
DICTIONARY
  5
8D9
330
35
100
AcDbDictionary
280
     1
281
     1
  3
ACAD_XREC_ROUNDTRIP
360
8DA
  0
DICTIONARY
  5
8E1
330
39
100
AcDbDictionary
280
     1
281
     1
  3
ACAD_XREC_ROUNDTRIP
360
8E2
  0
DICTIONARY
  5
8C5
330
2B
100
AcDbDictionary
280
     1
281
     1
  3
ACAD_XREC_ROUNDTRIP
360
8C6
  0
DICTIONARY
  5
8C7
330
2C
100
AcDbDictionary
280
     1
281
     1
  3
ACAD_XREC_ROUNDTRIP
360
8C8
  0
DICTIONARY
  5
8C9
330
2D
100
AcDbDictionary
280
     1
281
     1
  3
ACAD_XREC_ROUNDTRIP
360
8CA
  0
DICTIONARY
  5
8CB
330
2E
100
AcDbDictionary
280
     1
281
     1
  3
ACAD_XREC_ROUNDTRIP
360
8CC
  0
DICTIONARY
  5
8DF
330
38
100
AcDbDictionary
280
     1
281
     1
  3
ACAD_XREC_ROUNDTRIP
360
8E0
  0
DICTIONARY
  5
8D5
330
33
100
AcDbDictionary
280
     1
281
     1
  3
ACAD_XREC_ROUNDTRIP
360
8D6
  0
DICTIONARY
  5
8DD
330
37
100
AcDbDictionary
280
     1
281
     1
  3
ACAD_XREC_ROUNDTRIP
360
8DE
  0
XRECORD
  5
8E8
102
{ACAD_REACTORS
330
8E7
102
}
330
8E7
100
AcDbXrecord
280
     1
102
MATERIAL
148
0.0
149
0.0
149
0.0
 93
        0
 94
      127
282
     0
 72
     1
 77
     1
171
     1
175
     1
179
     1
273
     0
  0
XRECORD
  5
8E6
102
{ACAD_REACTORS
330
8E5
102
}
330
8E5
100
AcDbXrecord
280
     1
102
MATERIAL
148
0.0
149
0.0
149
0.0
 93
        0
 94
      127
282
     0
 72
     1
 77
     1
171
     1
175
     1
179
     1
273
     0
  0
XRECORD
  5
8EA
102
{ACAD_REACTORS
330
8E9
102
}
330
8E9
100
AcDbXrecord
280
     1
102
MATERIAL
148
0.0
149
0.0
149
0.0
 93
        0
 94
      127
282
     0
 72
     1
 77
     1
171
     1
175
     1
179
     1
273
     0
  0
XRECORD
  5
8CE
102
{ACAD_REACTORS
330
8CD
102
}
330
8CD
100
AcDbXrecord
280
     1
102
RTVSPropertyOp0
 70
     1
102
RTVSPropertyOp1
 70
     1
102
RTVSPropertyOp2
 70
     1
102
RTVSPropertyOp3
 70
     1
102
RTVSPropertyOp4
 70
     1
102
RTVSPropertyOp5
 70
     1
102
RTVSPropertyOp6
 70
     1
102
RTVSPropertyOp7
 70
     1
102
RTVSPropertyOp8
 70
     1
102
RTVSPropertyOp9
 70
     1
102
RTVSPropertyOp10
 70
     1
102
RTVSPropertyOp11
 70
     1
102
RTVSPropertyOp12
 70
     1
102
RTVSPropertyOp13
 70
     1
102
RTVSPropertyOp14
 70
     1
102
RTVSPropertyOp15
 70
     1
102
RTVSPropertyOp16
 70
     1
102
RTVSPropertyOp17
 70
     1
102
RTVSPropertyOp18
 70
     1
102
RTVSPropertyOp19
 70
     1
102
RTVSPropertyOp20
 70
     1
102
RTVSPropertyOp21
 70
     1
102
RTVSPropertyOp22
 70
     1
102
RTVSPropertyOp23
 70
     1
102
RTVSPropertyOp24
 70
     1
102
RTVSPropertyOp25
 70
     1
102
RTVSPropertyOp26
 70
     1
102
RTVSPropertyOp27
 70
     1
  0
XRECORD
  5
8D2
102
{ACAD_REACTORS
330
8D1
102
}
330
8D1
100
AcDbXrecord
280
     1
102
RTVSPropertyOp0
 70
     1
102
RTVSPropertyOp1
 70
     1
102
RTVSPropertyOp2
 70
     1
102
RTVSPropertyOp3
 70
     1
102
RTVSPropertyOp4
 70
     1
102
RTVSPropertyOp5
 70
     1
102
RTVSPropertyOp6
 70
     1
102
RTVSPropertyOp7
 70
     1
102
RTVSPropertyOp8
 70
     1
102
RTVSPropertyOp9
 70
     1
102
RTVSPropertyOp10
 70
     1
102
RTVSPropertyOp11
 70
     1
102
RTVSPropertyOp12
 70
     1
102
RTVSPropertyOp13
 70
     1
102
RTVSPropertyOp14
 70
     1
102
RTVSPropertyOp15
 70
     1
102
RTVSPropertyOp16
 70
     1
102
RTVSPropertyOp17
 70
     1
102
RTVSPropertyOp18
 70
     1
102
RTVSPropertyOp19
 70
     1
102
RTVSPropertyOp20
 70
     1
102
RTVSPropertyOp21
 70
     1
102
RTVSPropertyOp22
 70
     1
102
RTVSPropertyOp23
 70
     1
102
RTVSPropertyOp24
 70
     1
102
RTVSPropertyOp25
 70
     1
102
RTVSPropertyOp26
 70
     1
102
RTVSPropertyOp27
 70
     1
  0
XRECORD
  5
8D0
102
{ACAD_REACTORS
330
8CF
102
}
330
8CF
100
AcDbXrecord
280
     1
102
RTVSPropertyOp0
 70
     1
102
RTVSPropertyOp1
 70
     1
102
RTVSPropertyOp2
 70
     1
102
RTVSPropertyOp3
 70
     1
102
RTVSPropertyOp4
 70
     1
102
RTVSPropertyOp5
 70
     1
102
RTVSPropertyOp6
 70
     1
102
RTVSPropertyOp7
 70
     1
102
RTVSPropertyOp8
 70
     1
102
RTVSPropertyOp9
 70
     1
102
RTVSPropertyOp10
 70
     1
102
RTVSPropertyOp11
 70
     1
102
RTVSPropertyOp12
 70
     1
102
RTVSPropertyOp13
 70
     1
102
RTVSPropertyOp14
 70
     1
102
RTVSPropertyOp15
 70
     1
102
RTVSPropertyOp16
 70
     1
102
RTVSPropertyOp17
 70
     1
102
RTVSPropertyOp18
 70
     1
102
RTVSPropertyOp19
 70
     1
102
RTVSPropertyOp20
 70
     1
102
RTVSPropertyOp21
 70
     1
102
RTVSPropertyOp22
 70
     1
102
RTVSPropertyOp23
 70
     1
102
RTVSPropertyOp24
 70
     1
102
RTVSPropertyOp25
 70
     1
102
RTVSPropertyOp26
 70
     1
102
RTVSPropertyOp27
 70
     1
  0
XRECORD
  5
8D4
102
{ACAD_REACTORS
330
8D3
102
}
330
8D3
100
AcDbXrecord
280
     1
102
RTVSPropertyOp0
 70
     1
102
RTVSPropertyOp1
 70
     1
102
RTVSPropertyOp2
 70
     1
102
RTVSPropertyOp3
 70
     1
102
RTVSPropertyOp4
 70
     1
102
RTVSPropertyOp5
 70
     1
102
RTVSPropertyOp6
 70
     1
102
RTVSPropertyOp7
 70
     1
102
RTVSPropertyOp8
 70
     1
102
RTVSPropertyOp9
 70
     1
102
RTVSPropertyOp10
 70
     1
102
RTVSPropertyOp11
 70
     1
102
RTVSPropertyOp12
 70
     1
102
RTVSPropertyOp13
 70
     1
102
RTVSPropertyOp14
 70
     1
102
RTVSPropertyOp15
 70
     1
102
RTVSPropertyOp16
 70
     1
102
RTVSPropertyOp17
 70
     1
102
RTVSPropertyOp18
 70
     1
102
RTVSPropertyOp19
 70
     1
102
RTVSPropertyOp20
 70
     1
102
RTVSPropertyOp21
 70
     1
102
RTVSPropertyOp22
 70
     1
102
RTVSPropertyOp23
 70
     1
102
RTVSPropertyOp24
 70
     1
102
RTVSPropertyOp25
 70
     1
102
RTVSPropertyOp26
 70
     1
102
RTVSPropertyOp27
 70
     1
  0
XRECORD
  5
8DC
102
{ACAD_REACTORS
330
8DB
102
}
330
8DB
100
AcDbXrecord
280
     1
102
RTVSPropertyOp0
 70
     1
102
RTVSPropertyOp1
 70
     1
102
RTVSPropertyOp2
 70
     1
102
RTVSPropertyOp3
 70
     1
102
RTVSPropertyOp4
 70
     1
102
RTVSPropertyOp5
 70
     1
102
RTVSPropertyOp6
 70
     1
102
RTVSPropertyOp7
 70
     1
102
RTVSPropertyOp8
 70
     1
102
RTVSPropertyOp9
 70
     1
102
RTVSPropertyOp10
 70
     1
102
RTVSPropertyOp11
 70
     1
102
RTVSPropertyOp12
 70
     1
102
RTVSPropertyOp13
 70
     1
102
RTVSPropertyOp14
 70
     1
102
RTVSPropertyOp15
 70
     1
102
RTVSPropertyOp16
 70
     1
102
RTVSPropertyOp17
 70
     1
102
RTVSPropertyOp18
 70
     1
102
RTVSPropertyOp19
 70
     1
102
RTVSPropertyOp20
 70
     1
102
RTVSPropertyOp21
 70
     1
102
RTVSPropertyOp22
 70
     1
102
RTVSPropertyOp23
 70
     1
102
RTVSPropertyOp24
 70
     1
102
RTVSPropertyOp25
 70
     1
102
RTVSPropertyOp26
 70
     1
102
RTVSPropertyOp27
 70
     1
  0
XRECORD
  5
8E4
102
{ACAD_REACTORS
330
8E3
102
}
330
8E3
100
AcDbXrecord
280
     1
102
RTVSPropertyOp0
 70
     1
102
RTVSPropertyOp1
 70
     1
102
RTVSPropertyOp2
 70
     1
102
RTVSPropertyOp3
 70
     1
102
RTVSPropertyOp4
 70
     1
102
RTVSPropertyOp5
 70
     1
102
RTVSPropertyOp6
 70
     1
102
RTVSPropertyOp7
 70
     1
102
RTVSPropertyOp8
 70
     1
102
RTVSPropertyOp9
 70
     1
102
RTVSPropertyOp10
 70
     1
102
RTVSPropertyOp11
 70
     1
102
RTVSPropertyOp12
 70
     1
102
RTVSPropertyOp13
 70
     1
102
RTVSPropertyOp14
 70
     1
102
RTVSPropertyOp15
 70
     1
102
RTVSPropertyOp16
 70
     1
102
RTVSPropertyOp17
 70
     1
102
RTVSPropertyOp18
 70
     1
102
RTVSPropertyOp19
 70
     1
102
RTVSPropertyOp20
 70
     1
102
RTVSPropertyOp21
 70
     1
102
RTVSPropertyOp22
 70
     1
102
RTVSPropertyOp23
 70
     1
102
RTVSPropertyOp24
 70
     1
102
RTVSPropertyOp25
 70
     1
102
RTVSPropertyOp26
 70
     1
102
RTVSPropertyOp27
 70
     1
  0
XRECORD
  5
8D8
102
{ACAD_REACTORS
330
8D7
102
}
330
8D7
100
AcDbXrecord
280
     1
102
RTVSPropertyOp0
 70
     1
102
RTVSPropertyOp1
 70
     1
102
RTVSPropertyOp2
 70
     1
102
RTVSPropertyOp3
 70
     1
102
RTVSPropertyOp4
 70
     1
102
RTVSPropertyOp5
 70
     1
102
RTVSPropertyOp6
 70
     1
102
RTVSPropertyOp7
 70
     1
102
RTVSPropertyOp8
 70
     1
102
RTVSPropertyOp9
 70
     1
102
RTVSPropertyOp10
 70
     1
102
RTVSPropertyOp11
 70
     1
102
RTVSPropertyOp12
 70
     1
102
RTVSPropertyOp13
 70
     1
102
RTVSPropertyOp14
 70
     1
102
RTVSPropertyOp15
 70
     1
102
RTVSPropertyOp16
 70
     1
102
RTVSPropertyOp17
 70
     1
102
RTVSPropertyOp18
 70
     1
102
RTVSPropertyOp19
 70
     1
102
RTVSPropertyOp20
 70
     1
102
RTVSPropertyOp21
 70
     1
102
RTVSPropertyOp22
 70
     1
102
RTVSPropertyOp23
 70
     1
102
RTVSPropertyOp24
 70
     1
102
RTVSPropertyOp25
 70
     1
102
RTVSPropertyOp26
 70
     1
102
RTVSPropertyOp27
 70
     1
  0
XRECORD
  5
8DA
102
{ACAD_REACTORS
330
8D9
102
}
330
8D9
100
AcDbXrecord
280
     1
102
RTVSPropertyOp0
 70
     1
102
RTVSPropertyOp1
 70
     1
102
RTVSPropertyOp2
 70
     1
102
RTVSPropertyOp3
 70
     1
102
RTVSPropertyOp4
 70
     1
102
RTVSPropertyOp5
 70
     1
102
RTVSPropertyOp6
 70
     1
102
RTVSPropertyOp7
 70
     1
102
RTVSPropertyOp8
 70
     1
102
RTVSPropertyOp9
 70
     1
102
RTVSPropertyOp10
 70
     1
102
RTVSPropertyOp11
 70
     1
102
RTVSPropertyOp12
 70
     1
102
RTVSPropertyOp13
 70
     1
102
RTVSPropertyOp14
 70
     1
102
RTVSPropertyOp15
 70
     1
102
RTVSPropertyOp16
 70
     1
102
RTVSPropertyOp17
 70
     1
102
RTVSPropertyOp18
 70
     1
102
RTVSPropertyOp19
 70
     1
102
RTVSPropertyOp20
 70
     1
102
RTVSPropertyOp21
 70
     1
102
RTVSPropertyOp22
 70
     1
102
RTVSPropertyOp23
 70
     1
102
RTVSPropertyOp24
 70
     1
102
RTVSPropertyOp25
 70
     1
102
RTVSPropertyOp26
 70
     1
102
RTVSPropertyOp27
 70
     1
  0
XRECORD
  5
8E2
102
{ACAD_REACTORS
330
8E1
102
}
330
8E1
100
AcDbXrecord
280
     1
102
RTVSPropertyOp0
 70
     1
102
RTVSPropertyOp1
 70
     1
102
RTVSPropertyOp2
 70
     1
102
RTVSPropertyOp3
 70
     1
102
RTVSPropertyOp4
 70
     1
102
RTVSPropertyOp5
 70
     1
102
RTVSPropertyOp6
 70
     1
102
RTVSPropertyOp7
 70
     1
102
RTVSPropertyOp8
 70
     1
102
RTVSPropertyOp9
 70
     1
102
RTVSPropertyOp10
 70
     1
102
RTVSPropertyOp11
 70
     1
102
RTVSPropertyOp12
 70
     1
102
RTVSPropertyOp13
 70
     1
102
RTVSPropertyOp14
 70
     1
102
RTVSPropertyOp15
 70
     1
102
RTVSPropertyOp16
 70
     1
102
RTVSPropertyOp17
 70
     1
102
RTVSPropertyOp18
 70
     1
102
RTVSPropertyOp19
 70
     1
102
RTVSPropertyOp20
 70
     1
102
RTVSPropertyOp21
 70
     1
102
RTVSPropertyOp22
 70
     1
102
RTVSPropertyOp23
 70
     1
102
RTVSPropertyOp24
 70
     1
102
RTVSPropertyOp25
 70
     1
102
RTVSPropertyOp26
 70
     1
102
RTVSPropertyOp27
 70
     1
  0
XRECORD
  5
8C6
102
{ACAD_REACTORS
330
8C5
102
}
330
8C5
100
AcDbXrecord
280
     1
102
RTVSPropertyOp0
 70
     1
102
RTVSPropertyOp1
 70
     1
102
RTVSPropertyOp2
 70
     1
102
RTVSPropertyOp3
 70
     1
102
RTVSPropertyOp4
 70
     1
102
RTVSPropertyOp5
 70
     1
102
RTVSPropertyOp6
 70
     1
102
RTVSPropertyOp7
 70
     1
102
RTVSPropertyOp8
 70
     1
102
RTVSPropertyOp9
 70
     1
102
RTVSPropertyOp10
 70
     1
102
RTVSPropertyOp11
 70
     1
102
RTVSPropertyOp12
 70
     1
102
RTVSPropertyOp13
 70
     1
102
RTVSPropertyOp14
 70
     1
102
RTVSPropertyOp15
 70
     1
102
RTVSPropertyOp16
 70
     1
102
RTVSPropertyOp17
 70
     1
102
RTVSPropertyOp18
 70
     1
102
RTVSPropertyOp19
 70
     1
102
RTVSPropertyOp20
 70
     1
102
RTVSPropertyOp21
 70
     1
102
RTVSPropertyOp22
 70
     1
102
RTVSPropertyOp23
 70
     1
102
RTVSPropertyOp24
 70
     1
102
RTVSPropertyOp25
 70
     1
102
RTVSPropertyOp26
 70
     1
102
RTVSPropertyOp27
 70
     1
  0
XRECORD
  5
8C8
102
{ACAD_REACTORS
330
8C7
102
}
330
8C7
100
AcDbXrecord
280
     1
102
RTVSPropertyOp0
 70
     1
102
RTVSPropertyOp1
 70
     1
102
RTVSPropertyOp2
 70
     1
102
RTVSPropertyOp3
 70
     1
102
RTVSPropertyOp4
 70
     1
102
RTVSPropertyOp5
 70
     1
102
RTVSPropertyOp6
 70
     1
102
RTVSPropertyOp7
 70
     1
102
RTVSPropertyOp8
 70
     1
102
RTVSPropertyOp9
 70
     1
102
RTVSPropertyOp10
 70
     1
102
RTVSPropertyOp11
 70
     1
102
RTVSPropertyOp12
 70
     1
102
RTVSPropertyOp13
 70
     1
102
RTVSPropertyOp14
 70
     1
102
RTVSPropertyOp15
 70
     1
102
RTVSPropertyOp16
 70
     1
102
RTVSPropertyOp17
 70
     1
102
RTVSPropertyOp18
 70
     1
102
RTVSPropertyOp19
 70
     1
102
RTVSPropertyOp20
 70
     1
102
RTVSPropertyOp21
 70
     1
102
RTVSPropertyOp22
 70
     1
102
RTVSPropertyOp23
 70
     1
102
RTVSPropertyOp24
 70
     1
102
RTVSPropertyOp25
 70
     1
102
RTVSPropertyOp26
 70
     1
102
RTVSPropertyOp27
 70
     1
  0
XRECORD
  5
8CA
102
{ACAD_REACTORS
330
8C9
102
}
330
8C9
100
AcDbXrecord
280
     1
102
RTVSPropertyOp0
 70
     1
102
RTVSPropertyOp1
 70
     1
102
RTVSPropertyOp2
 70
     1
102
RTVSPropertyOp3
 70
     1
102
RTVSPropertyOp4
 70
     1
102
RTVSPropertyOp5
 70
     1
102
RTVSPropertyOp6
 70
     1
102
RTVSPropertyOp7
 70
     1
102
RTVSPropertyOp8
 70
     1
102
RTVSPropertyOp9
 70
     1
102
RTVSPropertyOp10
 70
     1
102
RTVSPropertyOp11
 70
     1
102
RTVSPropertyOp12
 70
     1
102
RTVSPropertyOp13
 70
     1
102
RTVSPropertyOp14
 70
     1
102
RTVSPropertyOp15
 70
     1
102
RTVSPropertyOp16
 70
     1
102
RTVSPropertyOp17
 70
     1
102
RTVSPropertyOp18
 70
     1
102
RTVSPropertyOp19
 70
     1
102
RTVSPropertyOp20
 70
     1
102
RTVSPropertyOp21
 70
     1
102
RTVSPropertyOp22
 70
     1
102
RTVSPropertyOp23
 70
     1
102
RTVSPropertyOp24
 70
     1
102
RTVSPropertyOp25
 70
     1
102
RTVSPropertyOp26
 70
     1
102
RTVSPropertyOp27
 70
     1
  0
XRECORD
  5
8CC
102
{ACAD_REACTORS
330
8CB
102
}
330
8CB
100
AcDbXrecord
280
     1
102
RTVSPropertyOp0
 70
     1
102
RTVSPropertyOp1
 70
     1
102
RTVSPropertyOp2
 70
     1
102
RTVSPropertyOp3
 70
     1
102
RTVSPropertyOp4
 70
     1
102
RTVSPropertyOp5
 70
     1
102
RTVSPropertyOp6
 70
     1
102
RTVSPropertyOp7
 70
     1
102
RTVSPropertyOp8
 70
     1
102
RTVSPropertyOp9
 70
     1
102
RTVSPropertyOp10
 70
     1
102
RTVSPropertyOp11
 70
     1
102
RTVSPropertyOp12
 70
     1
102
RTVSPropertyOp13
 70
     1
102
RTVSPropertyOp14
 70
     1
102
RTVSPropertyOp15
 70
     1
102
RTVSPropertyOp16
 70
     1
102
RTVSPropertyOp17
 70
     1
102
RTVSPropertyOp18
 70
     1
102
RTVSPropertyOp19
 70
     1
102
RTVSPropertyOp20
 70
     1
102
RTVSPropertyOp21
 70
     1
102
RTVSPropertyOp22
 70
     1
102
RTVSPropertyOp23
 70
     1
102
RTVSPropertyOp24
 70
     1
102
RTVSPropertyOp25
 70
     1
102
RTVSPropertyOp26
 70
     1
102
RTVSPropertyOp27
 70
     1
  0
XRECORD
  5
8E0
102
{ACAD_REACTORS
330
8DF
102
}
330
8DF
100
AcDbXrecord
280
     1
102
RTVSPropertyOp0
 70
     1
102
RTVSPropertyOp1
 70
     1
102
RTVSPropertyOp2
 70
     1
102
RTVSPropertyOp3
 70
     1
102
RTVSPropertyOp4
 70
     1
102
RTVSPropertyOp5
 70
     1
102
RTVSPropertyOp6
 70
     1
102
RTVSPropertyOp7
 70
     1
102
RTVSPropertyOp8
 70
     1
102
RTVSPropertyOp9
 70
     1
102
RTVSPropertyOp10
 70
     1
102
RTVSPropertyOp11
 70
     1
102
RTVSPropertyOp12
 70
     1
102
RTVSPropertyOp13
 70
     1
102
RTVSPropertyOp14
 70
     1
102
RTVSPropertyOp15
 70
     1
102
RTVSPropertyOp16
 70
     1
102
RTVSPropertyOp17
 70
     1
102
RTVSPropertyOp18
 70
     1
102
RTVSPropertyOp19
 70
     1
102
RTVSPropertyOp20
 70
     1
102
RTVSPropertyOp21
 70
     1
102
RTVSPropertyOp22
 70
     1
102
RTVSPropertyOp23
 70
     1
102
RTVSPropertyOp24
 70
     1
102
RTVSPropertyOp25
 70
     1
102
RTVSPropertyOp26
 70
     1
102
RTVSPropertyOp27
 70
     1
  0
XRECORD
  5
8D6
102
{ACAD_REACTORS
330
8D5
102
}
330
8D5
100
AcDbXrecord
280
     1
102
RTVSPropertyOp0
 70
     1
102
RTVSPropertyOp1
 70
     1
102
RTVSPropertyOp2
 70
     1
102
RTVSPropertyOp3
 70
     1
102
RTVSPropertyOp4
 70
     1
102
RTVSPropertyOp5
 70
     1
102
RTVSPropertyOp6
 70
     1
102
RTVSPropertyOp7
 70
     1
102
RTVSPropertyOp8
 70
     1
102
RTVSPropertyOp9
 70
     1
102
RTVSPropertyOp10
 70
     1
102
RTVSPropertyOp11
 70
     1
102
RTVSPropertyOp12
 70
     1
102
RTVSPropertyOp13
 70
     1
102
RTVSPropertyOp14
 70
     1
102
RTVSPropertyOp15
 70
     1
102
RTVSPropertyOp16
 70
     1
102
RTVSPropertyOp17
 70
     1
102
RTVSPropertyOp18
 70
     1
102
RTVSPropertyOp19
 70
     1
102
RTVSPropertyOp20
 70
     1
102
RTVSPropertyOp21
 70
     1
102
RTVSPropertyOp22
 70
     1
102
RTVSPropertyOp23
 70
     1
102
RTVSPropertyOp24
 70
     1
102
RTVSPropertyOp25
 70
     1
102
RTVSPropertyOp26
 70
     1
102
RTVSPropertyOp27
 70
     1
  0
XRECORD
  5
8DE
102
{ACAD_REACTORS
330
8DD
102
}
330
8DD
100
AcDbXrecord
280
     1
102
RTVSPropertyOp0
 70
     1
102
RTVSPropertyOp1
 70
     1
102
RTVSPropertyOp2
 70
     1
102
RTVSPropertyOp3
 70
     1
102
RTVSPropertyOp4
 70
     1
102
RTVSPropertyOp5
 70
     1
102
RTVSPropertyOp6
 70
     1
102
RTVSPropertyOp7
 70
     1
102
RTVSPropertyOp8
 70
     1
102
RTVSPropertyOp9
 70
     1
102
RTVSPropertyOp10
 70
     1
102
RTVSPropertyOp11
 70
     1
102
RTVSPropertyOp12
 70
     1
102
RTVSPropertyOp13
 70
     1
102
RTVSPropertyOp14
 70
     1
102
RTVSPropertyOp15
 70
     1
102
RTVSPropertyOp16
 70
     1
102
RTVSPropertyOp17
 70
     1
102
RTVSPropertyOp18
 70
     1
102
RTVSPropertyOp19
 70
     1
102
RTVSPropertyOp20
 70
     1
102
RTVSPropertyOp21
 70
     1
102
RTVSPropertyOp22
 70
     1
102
RTVSPropertyOp23
 70
     1
102
RTVSPropertyOp24
 70
     1
102
RTVSPropertyOp25
 70
     1
102
RTVSPropertyOp26
 70
     1
102
RTVSPropertyOp27
 70
     1
  0
ENDSEC
  0
EOF
