  0
SECTION
  2
HEADER
  9
$ACADVER
  1
AC1015
  9
$ACADMAINTVER
 70
     6
  9
$DWGCODEPAGE
  3
ANSI_1252
  9
$INSBASE
 10
0.0
 20
0.0
 30
0.0
  9
$EXTMIN
 10
0.0
 20
0.0
 30
0.0
  9
$EXTMAX
 10
25.0
 20
35.0
 30
0.0
  9
$LIMMIN
 10
0.0
 20
0.0
  9
$LIMMAX
 10
420.0
 20
297.0
  9
$ORTHOMODE
 70
     0
  9
$REGENMODE
 70
     1
  9
$FILLMODE
 70
     1
  9
$QTEXTMODE
 70
     0
  9
$MIRRTEXT
 70
     1
  9
$LTSCALE
 40
4.9
  9
$ATTMODE
 70
     1
  9
$TEXTSIZE
 40
2.5
  9
$TRACEWID
 40
1.0
  9
$TEXTSTYLE
  7
Standard
  9
$CLAYER
  8
0
  9
$CELTYPE
  6
ByLayer
  9
$CECOLOR
 62
   256
  9
$CELTSCALE
 40
1.0
  9
$DISPSILH
 70
     0
  9
$DIMSCALE
 40
1.0
  9
$DIMASZ
 40
2.5
  9
$DIMEXO
 40
0.625
  9
$DIMDLI
 40
3.75
  9
$DIMRND
 40
0.0
  9
$DIMDLE
 40
0.0
  9
$DIMEXE
 40
1.25
  9
$DIMTP
 40
0.0
  9
$DIMTM
 40
0.0
  9
$DIMTXT
 40
2.5
  9
$DIMCEN
 40
2.5
  9
$DIMTSZ
 40
0.0
  9
$DIMTOL
 70
     0
  9
$DIMLIM
 70
     0
  9
$DIMTIH
 70
     0
  9
$DIMTOH
 70
     0
  9
$DIMSE1
 70
     0
  9
$DIMSE2
 70
     0
  9
$DIMTAD
 70
     1
  9
$DIMZIN
 70
     8
  9
$DIMBLK
  1

  9
$DIMASO
 70
     1
  9
$DIMSHO
 70
     1
  9
$DIMPOST
  1

  9
$DIMAPOST
  1

  9
$DIMALT
 70
     0
  9
$DIMALTD
 70
     3
  9
$DIMALTF
 40
0.03937007874016
  9
$DIMLFAC
 40
1.0
  9
$DIMTOFL
 70
     1
  9
$DIMTVP
 40
0.0
  9
$DIMTIX
 70
     0
  9
$DIMSOXD
 70
     0
  9
$DIMSAH
 70
     0
  9
$DIMBLK1
  1

  9
$DIMBLK2
  1

  9
$DIMSTYLE
  2
ISO-25
  9
$DIMCLRD
 70
     0
  9
$DIMCLRE
 70
     0
  9
$DIMCLRT
 70
     0
  9
$DIMTFAC
 40
1.0
  9
$DIMGAP
 40
0.625
  9
$DIMJUST
 70
     0
  9
$DIMSD1
 70
     0
  9
$DIMSD2
 70
     0
  9
$DIMTOLJ
 70
     0
  9
$DIMTZIN
 70
     8
  9
$DIMALTZ
 70
     0
  9
$DIMALTTZ
 70
     0
  9
$DIMUPT
 70
     0
  9
$DIMDEC
 70
     2
  9
$DIMTDEC
 70
     2
  9
$DIMALTU
 70
     2
  9
$DIMALTTD
 70
     3
  9
$DIMTXSTY
  7
Standard
  9
$DIMAUNIT
 70
     0
  9
$DIMADEC
 70
     0
  9
$DIMALTRND
 40
0.0
  9
$DIMAZIN
 70
     0
  9
$DIMDSEP
 70
    44
  9
$DIMATFIT
 70
     3
  9
$DIMFRAC
 70
     0
  9
$DIMLDRBLK
  1

  9
$DIMLUNIT
 70
     2
  9
$DIMLWD
 70
    -2
  9
$DIMLWE
 70
    -2
  9
$DIMTMOVE
 70
     0
  9
$LUNITS
 70
     2
  9
$LUPREC
 70
     4
  9
$SKETCHINC
 40
1.0
  9
$FILLETRAD
 40
10.0
  9
$AUNITS
 70
     0
  9
$AUPREC
 70
     0
  9
$MENU
  1
.
  9
$ELEVATION
 40
0.0
  9
$PELEVATION
 40
0.0
  9
$THICKNESS
 40
0.0
  9
$LIMCHECK
 70
     0
  9
$CHAMFERA
 40
10.0
  9
$CHAMFERB
 40
10.0
  9
$CHAMFERC
 40
20.0
  9
$CHAMFERD
 40
0.0
  9
$SKPOLY
 70
     0
  9
$TDCREATE
 40
2458621.427777778
  9
$TDUCREATE
 40
2458621.344444444
  9
$TDUPDATE
 40
2458621.43125
  9
$TDUUPDATE
 40
2458621.347916667
  9
$TDINDWG
 40
0.0000000116
  9
$TDUSRTIMER
 40
0.0000000116
  9
$USRTIMER
 70
     1
  9
$ANGBASE
 50
0.0
  9
$ANGDIR
 70
     0
  9
$PDMODE
 70
     0
  9
$PDSIZE
 40
0.0
  9
$PLINEWID
 40
0.0
  9
$SPLFRAME
 70
     0
  9
$SPLINETYPE
 70
     6
  9
$SPLINESEGS
 70
     8
  9
$HANDSEED
  5
795
  9
$SURFTAB1
 70
     6
  9
$SURFTAB2
 70
     6
  9
$SURFTYPE
 70
     6
  9
$SURFU
 70
     6
  9
$SURFV
 70
     6
  9
$UCSBASE
  2

  9
$UCSNAME
  2

  9
$UCSORG
 10
0.0
 20
0.0
 30
0.0
  9
$UCSXDIR
 10
1.0
 20
0.0
 30
0.0
  9
$UCSYDIR
 10
0.0
 20
1.0
 30
0.0
  9
$UCSORTHOREF
  2

  9
$UCSORTHOVIEW
 70
     0
  9
$UCSORGTOP
 10
0.0
 20
0.0
 30
0.0
  9
$UCSORGBOTTOM
 10
0.0
 20
0.0
 30
0.0
  9
$UCSORGLEFT
 10
0.0
 20
0.0
 30
0.0
  9
$UCSORGRIGHT
 10
0.0
 20
0.0
 30
0.0
  9
$UCSORGFRONT
 10
0.0
 20
0.0
 30
0.0
  9
$UCSORGBACK
 10
0.0
 20
0.0
 30
0.0
  9
$PUCSBASE
  2

  9
$PUCSNAME
  2

  9
$PUCSORG
 10
0.0
 20
0.0
 30
0.0
  9
$PUCSXDIR
 10
1.0
 20
0.0
 30
0.0
  9
$PUCSYDIR
 10
0.0
 20
1.0
 30
0.0
  9
$PUCSORTHOREF
  2

  9
$PUCSORTHOVIEW
 70
     0
  9
$PUCSORGTOP
 10
0.0
 20
0.0
 30
0.0
  9
$PUCSORGBOTTOM
 10
0.0
 20
0.0
 30
0.0
  9
$PUCSORGLEFT
 10
0.0
 20
0.0
 30
0.0
  9
$PUCSORGRIGHT
 10
0.0
 20
0.0
 30
0.0
  9
$PUCSORGFRONT
 10
0.0
 20
0.0
 30
0.0
  9
$PUCSORGBACK
 10
0.0
 20
0.0
 30
0.0
  9
$USERI1
 70
     0
  9
$USERI2
 70
     0
  9
$USERI3
 70
     0
  9
$USERI4
 70
     0
  9
$USERI5
 70
     0
  9
$USERR1
 40
0.0
  9
$USERR2
 40
0.0
  9
$USERR3
 40
0.0
  9
$USERR4
 40
0.0
  9
$USERR5
 40
0.0
  9
$WORLDVIEW
 70
     1
  9
$SHADEDGE
 70
     3
  9
$SHADEDIF
 70
    70
  9
$TILEMODE
 70
     1
  9
$MAXACTVP
 70
    64
  9
$PINSBASE
 10
0.0
 20
0.0
 30
0.0
  9
$PLIMCHECK
 70
     0
  9
$PEXTMIN
 10
1.000000000000000E+20
 20
1.000000000000000E+20
 30
1.000000000000000E+20
  9
$PEXTMAX
 10
-1.000000000000000E+20
 20
-1.000000000000000E+20
 30
-1.000000000000000E+20
  9
$PLIMMIN
 10
0.0
 20
0.0
  9
$PLIMMAX
 10
420.0
 20
297.0
  9
$UNITMODE
 70
     0
  9
$VISRETAIN
 70
     1
  9
$PLINEGEN
 70
     0
  9
$PSLTSCALE
 70
     1
  9
$TREEDEPTH
 70
  3020
  9
$CMLSTYLE
  2
Standard
  9
$CMLJUST
 70
     0
  9
$CMLSCALE
 40
20.0
  9
$PROXYGRAPHICS
 70
     1
  9
$MEASUREMENT
 70
     1
  9
$CELWEIGHT
370
    -1
  9
$ENDCAPS
280
     0
  9
$JOINSTYLE
280
     0
  9
$LWDISPLAY
290
     0
  9
$INSUNITS
 70
     4
  9
$HYPERLINKBASE
  1

  9
$STYLESHEET
  1

  9
$XEDIT
290
     1
  9
$CEPSNTYPE
380
     0
  9
$PSTYLEMODE
290
     1
  9
$FINGERPRINTGUID
  2
{B0B8EC2A-7303-4F99-A163-6D0053F32CCF}
  9
$VERSIONGUID
  2
{FAEB1C32-E019-11D5-929B-00C0DF256EC4}
  9
$EXTNAMES
290
     1
  9
$PSVPSCALE
 40
0.0
  9
$OLESTARTUP
290
     0
  0
ENDSEC
  0
SECTION
  2
CLASSES
  0
CLASS
  1
ACDBDICTIONARYWDFLT
  2
AcDbDictionaryWithDefault
  3
ObjectDBX Classes
 90
        0
280
     0
281
     0
  0
CLASS
  1
VISUALSTYLE
  2
AcDbVisualStyle
  3
ObjectDBX Classes
 90
     4095
280
     0
281
     0
  0
CLASS
  1
MATERIAL
  2
AcDbMaterial
  3
ObjectDBX Classes
 90
     1153
280
     0
281
     0
  0
CLASS
  1
SCALE
  2
AcDbScale
  3
ObjectDBX Classes
 90
     1153
280
     0
281
     0
  0
CLASS
  1
DICTIONARYVAR
  2
AcDbDictionaryVar
  3
ObjectDBX Classes
 90
        0
280
     0
281
     0
  0
CLASS
  1
ACDBPLACEHOLDER
  2
AcDbPlaceHolder
  3
ObjectDBX Classes
 90
        0
280
     0
281
     0
  0
CLASS
  1
LAYOUT
  2
AcDbLayout
  3
ObjectDBX Classes
 90
        0
280
     0
281
     0
  0
ENDSEC
  0
SECTION
  2
TABLES
  0
TABLE
  2
VPORT
  5
8
330
0
100
AcDbSymbolTable
 70
     1
  0
VPORT
  5
29
330
8
100
AcDbSymbolTableRecord
100
AcDbViewportTableRecord
  2
*Active
 70
     0
 10
0.0
 20
0.0
 11
1.0
 21
1.0
 12
11.26
 22
4.5
 13
0.0
 23
0.0
 14
10.0
 24
10.0
 15
10.0
 25
10.0
 16
0.0
 26
0.0
 36
1.0
 17
0.0
 27
0.0
 37
0.0
 40
9.0
 41
2.503333333333333
 42
50.0
 43
0.0
 44
0.0
 50
0.0
 51
0.0
 71
     0
 72
   100
 73
     1
 74
     3
 75
     0
 76
     0
 77
     0
 78
     0
281
     0
 65
     1
110
0.0
120
0.0
130
0.0
111
1.0
121
0.0
131
0.0
112
0.0
122
1.0
132
0.0
 79
     0
146
0.0
  0
ENDTAB
  0
TABLE
  2
LTYPE
  5
5
330
0
100
AcDbSymbolTable
 70
    10
  0
LTYPE
  5
14
330
5
100
AcDbSymbolTableRecord
100
AcDbLinetypeTableRecord
  2
ByBlock
 70
     0
  3

 72
    65
 73
     0
 40
0.0
  0
LTYPE
  5
15
330
5
100
AcDbSymbolTableRecord
100
AcDbLinetypeTableRecord
  2
ByLayer
 70
     0
  3

 72
    65
 73
     0
 40
0.0
  0
LTYPE
  5
16
330
5
100
AcDbSymbolTableRecord
100
AcDbLinetypeTableRecord
  2
Continuous
 70
     0
  3
Solid line
 72
    65
 73
     0
 40
0.0
  0
LTYPE
  5
45
330
5
100
AcDbSymbolTableRecord
100
AcDbLinetypeTableRecord
  2
phl_thick
 70
     0
  3
THICK
 72
    65
 73
     0
 40
0.0
  0
LTYPE
  5
15D
330
5
100
AcDbSymbolTableRecord
100
AcDbLinetypeTableRecord
  2
ls_CUT
 70
     0
  3
THICK
 72
    65
 73
     0
 40
0.0
  0
LTYPE
  5
162
330
5
100
AcDbSymbolTableRecord
100
AcDbLinetypeTableRecord
  2
ls1
 70
     0
  3
THICK
 72
    65
 73
     0
 40
0.0
  0
LTYPE
  5
169
330
5
100
AcDbSymbolTableRecord
100
AcDbLinetypeTableRecord
  2
NOCUT
 70
     0
  3
THICK
 72
    65
 73
     0
 40
0.0
  0
LTYPE
  5
16D
330
5
100
AcDbSymbolTableRecord
100
AcDbLinetypeTableRecord
  2
SK1
 70
     0
  3
THICK
 72
    65
 73
     0
 40
0.0
  0
LTYPE
  5
175
330
5
100
AcDbSymbolTableRecord
100
AcDbLinetypeTableRecord
  2
ls_SK2
 70
     0
  3
THIN
 72
    65
 73
     0
 40
0.0
  0
LTYPE
  5
220
330
5
100
AcDbSymbolTableRecord
100
AcDbLinetypeTableRecord
  2
ls_2
 70
     0
  3
THIN
 72
    65
 73
     0
 40
0.0
  0
LTYPE
  5
36F
330
5
100
AcDbSymbolTableRecord
100
AcDbLinetypeTableRecord
  2
LONGDASH_DASH
 70
     0
  3
THIN_DASHDOT
 72
    65
 73
     4
 40
0.85
 49
0.4
 74
     0
 49
-0.2
 74
     0
 49
0.05
 74
     0
 49
-0.2
 74
     0
  0
LTYPE
  5
3AC
330
5
100
AcDbSymbolTableRecord
100
AcDbLinetypeTableRecord
  2
ls_SK1
 70
     0
  3
THICK
 72
    65
 73
     0
 40
0.0
  0
ENDTAB
  0
TABLE
  2
LAYER
  5
2
330
0
100
AcDbSymbolTable
 70
    10
  0
LAYER
  5
10
330
2
100
AcDbSymbolTableRecord
100
AcDbLayerTableRecord
  2
0
 70
     0
 62
     7
  6
Continuous
370
    -3
390
F
  0
LAYER
  5
44
330
2
100
AcDbSymbolTableRecord
100
AcDbLayerTableRecord
  2
1
 70
     0
 62
4
  6
CONTINUOUS
370
50
370
    -3
390
F
  0
LAYER
  5
15C
330
2
100
AcDbSymbolTableRecord
100
AcDbLayerTableRecord
  2
CUT
 70
     0
 62
1
  6
CONTINUOUS
370
25
370
    -3
390
F
  0
LAYER
  5
161
330
2
100
AcDbSymbolTableRecord
100
AcDbLayerTableRecord
  2
NOCUT
 70
     0
 62
7
  6
CONTINUOUS
370
25
370
    -3
390
F
  0
LAYER
  5
16C
330
2
100
AcDbSymbolTableRecord
100
AcDbLayerTableRecord
  2
SK1
 70
     0
 62
4
  6
CONTINUOUS
370
50
370
    -3
390
F
  0
LAYER
  5
174
330
2
100
AcDbSymbolTableRecord
100
AcDbLayerTableRecord
  2
SK2
 70
     0
 62
7
  6
CONTINUOUS
370
25
370
    -3
390
F
  0
LAYER
  5
21F
330
2
100
AcDbSymbolTableRecord
100
AcDbLayerTableRecord
  2
2
 70
     0
 62
7
  6
CONTINUOUS
370
25
370
    -3
390
F
  0
LAYER
  5
36E
330
2
100
AcDbSymbolTableRecord
100
AcDbLayerTableRecord
  2
4
 70
     0
 62
2
  6
LONGDASH_DASH
370
25
370
    -3
390
F
  0
LAYER
  5
371
330
2
100
AcDbSymbolTableRecord
100
AcDbLayerTableRecord
  2
SK4
 70
     0
 62
2
  6
LONGDASH_DASH
370
25
370
    -3
390
F
  0
LAYER
  5
3E5
330
2
100
AcDbSymbolTableRecord
100
AcDbLayerTableRecord
  2
SK6
 70
     0
 62
5
  6
CONTINUOUS
370
25
370
    -3
390
F
  0
ENDTAB
  0
TABLE
  2
STYLE
  5
3
330
0
100
AcDbSymbolTable
 70
     1
  0
STYLE
  5
11
330
3
100
AcDbSymbolTableRecord
100
AcDbTextStyleTableRecord
  2
Standard
 70
     0
 40
0.0
 41
1.0
 50
0.0
 71
     0
 42
2.5
  3
Monospac821 BT
  4

  0
ENDTAB
  0
TABLE
  2
VIEW
  5
6
330
0
100
AcDbSymbolTable
 70
     0
  0
ENDTAB
  0
TABLE
  2
UCS
  5
7
330
0
100
AcDbSymbolTable
 70
     0
  0
ENDTAB
  0
TABLE
  2
APPID
  5
9
330
0
100
AcDbSymbolTable
 70
     2
  0
APPID
  5
12
330
9
100
AcDbSymbolTableRecord
100
AcDbRegAppTableRecord
  2
ACAD
 70
     0
  0
APPID
  5
3F
330
9
100
AcDbSymbolTableRecord
100
AcDbRegAppTableRecord
  2
ccLab
 70
     0
  0
ENDTAB
  0
TABLE
  2
DIMSTYLE
  5
A
330
0
100
AcDbSymbolTable
 70
     1
100
AcDbDimStyleTable
  0
DIMSTYLE
105
27
330
A
100
AcDbSymbolTableRecord
100
AcDbDimStyleTableRecord
  2
ISO-25
 70
     0
 41
2.5
 42
0.625
 43
3.75
 44
1.25
 73
     0
 74
     0
 77
     1
 78
     8
140
2.5
141
2.5
143
0.03937007874016
147
0.625
171
     3
172
     1
271
     2
272
     2
274
     3
278
    44
283
     0
284
     8
340
11
  0
ENDTAB
  0
TABLE
  2
BLOCK_RECORD
  5
1
330
0
100
AcDbSymbolTable
 70
     2
  0
BLOCK_RECORD
  5
1F
330
1
100
AcDbSymbolTableRecord
100
AcDbBlockTableRecord
  2
*Model_Space
340
22
  0
BLOCK_RECORD
  5
1B
330
1
100
AcDbSymbolTableRecord
100
AcDbBlockTableRecord
  2
*Paper_Space
340
1E
  0
BLOCK_RECORD
  5
23
330
1
100
AcDbSymbolTableRecord
100
AcDbBlockTableRecord
  2
*Paper_Space0
340
26
  0
ENDTAB
  0
ENDSEC
  0
SECTION
  2
BLOCKS
  0
BLOCK
  5
20
330
1F
100
AcDbEntity
  8
0
100
AcDbBlockBegin
  2
*Model_Space
 70
     0
 10
0.0
 20
0.0
 30
0.0
  3
*Model_Space
  1

  0
ENDBLK
  5
21
330
1F
100
AcDbEntity
  8
0
100
AcDbBlockEnd
  0
BLOCK
  5
1C
330
1B
100
AcDbEntity
 67
     1
  8
0
100
AcDbBlockBegin
  2
*Paper_Space
 70
     0
 10
0.0
 20
0.0
 30
0.0
  3
*Paper_Space
  1

  0
ENDBLK
  5
1D
330
1B
100
AcDbEntity
 67
     1
  8
0
100
AcDbBlockEnd
  0
BLOCK
  5
24
330
23
100
AcDbEntity
  8
0
100
AcDbBlockBegin
  2
*Paper_Space0
 70
     0
 10
0.0
 20
0.0
 30
0.0
  3
*Paper_Space0
  1

  0
ENDBLK
  5
25
330
23
100
AcDbEntity
  8
0
100
AcDbBlockEnd
  0
ENDSEC
  0
SECTION
  2
ENTITIES
  0
LINE
  5
3EF
330
1F
100
AcDbEntity
  8
1
  6
CONTINUOUS
370
50
 62
4
100
AcDbLine
 10
37.800415
 20
0.141236
 30
0.0
 11
37.800411
 21
0.144094
 31
0.0
  0
LINE
  5
3F0
330
1F
100
AcDbEntity
  8
1
  6
CONTINUOUS
370
50
 62
4
100
AcDbLine
 10
37.740139
 20
-0.08666
 30
0.0
 11
37.74012
 21
-0.07629
 31
0.0
  0
LINE
  5
3F1
330
1F
100
AcDbEntity
  8
1
  6
CONTINUOUS
370
50
 62
4
100
AcDbLine
 10
37.740177
 20
-0.09698
 30
0.0
 11
37.740139
 21
-0.08666
 31
0.0
  0
LINE
  5
3F2
330
1F
100
AcDbEntity
  8
1
  6
CONTINUOUS
370
50
 62
4
100
AcDbLine
 10
37.740231
 20
-0.107209
 30
0.0
 11
37.740177
 21
-0.09698
 31
0.0
  0
LINE
  5
3F3
330
1F
100
AcDbEntity
  8
1
  6
CONTINUOUS
370
50
 62
4
100
AcDbLine
 10
37.740303
 20
-0.117304
 30
0.0
 11
37.740231
 21
-0.107209
 31
0.0
  0
LINE
  5
3F4
330
1F
100
AcDbEntity
  8
1
  6
CONTINUOUS
370
50
 62
4
100
AcDbLine
 10
37.740391
 20
-0.127226
 30
0.0
 11
37.740303
 21
-0.117304
 31
0.0
  0
LINE
  5
3F5
330
1F
100
AcDbEntity
  8
1
  6
CONTINUOUS
370
50
 62
4
100
AcDbLine
 10
37.74050099999999
 20
-0.136931
 30
0.0
 11
37.740391
 21
-0.127226
 31
0.0
  0
LINE
  5
3F6
330
1F
100
AcDbEntity
  8
1
  6
CONTINUOUS
370
50
 62
4
100
AcDbLine
 10
37.740627
 20
-0.146381
 30
0.0
 11
37.74050099999999
 21
-0.136931
 31
0.0
  0
LINE
  5
3F7
330
1F
100
AcDbEntity
  8
1
  6
CONTINUOUS
370
50
 62
4
100
AcDbLine
 10
37.740768
 20
-0.155532
 30
0.0
 11
37.740627
 21
-0.146381
 31
0.0
  0
LINE
  5
3F8
330
1F
100
AcDbEntity
  8
1
  6
CONTINUOUS
370
50
 62
4
100
AcDbLine
 10
37.740932
 20
-0.164346
 30
0.0
 11
37.740768
 21
-0.155532
 31
0.0
  0
LINE
  5
3F9
330
1F
100
AcDbEntity
  8
1
  6
CONTINUOUS
370
50
 62
4
100
AcDbLine
 10
37.741112
 20
-0.172796
 30
0.0
 11
37.740932
 21
-0.164346
 31
0.0
  0
LINE
  5
3FA
330
1F
100
AcDbEntity
  8
1
  6
CONTINUOUS
370
50
 62
4
100
AcDbLine
 10
37.741306
 20
-0.180864
 30
0.0
 11
37.741112
 21
-0.172796
 31
0.0
  0
LINE
  5
3FB
330
1F
100
AcDbEntity
  8
1
  6
CONTINUOUS
370
50
 62
4
100
AcDbLine
 10
37.741516
 20
-0.188531
 30
0.0
 11
37.741306
 21
-0.180864
 31
0.0
  0
LINE
  5
3FC
330
1F
100
AcDbEntity
  8
1
  6
CONTINUOUS
370
50
 62
4
100
AcDbLine
 10
37.741741
 20
-0.195778
 30
0.0
 11
37.741516
 21
-0.188531
 31
0.0
  0
LINE
  5
3FD
330
1F
100
AcDbEntity
  8
1
  6
CONTINUOUS
370
50
 62
4
100
AcDbLine
 10
37.741978
 20
-0.202589
 30
0.0
 11
37.741741
 21
-0.195778
 31
0.0
  0
LINE
  5
3FE
330
1F
100
AcDbEntity
  8
1
  6
CONTINUOUS
370
50
 62
4
100
AcDbLine
 10
37.742226
 20
-0.208943
 30
0.0
 11
37.741978
 21
-0.202589
 31
0.0
  0
LINE
  5
3FF
330
1F
100
AcDbEntity
  8
1
  6
CONTINUOUS
370
50
 62
4
100
AcDbLine
 10
36.724148
 20
0.242793
 30
0.0
 11
36.723988
 21
0.246669
 31
0.0
  0
LINE
  5
400
330
1F
100
AcDbEntity
  8
1
  6
CONTINUOUS
370
50
 62
4
100
AcDbLine
 10
37.74248499999999
 20
-0.214822
 30
0.0
 11
37.742226
 21
-0.208943
 31
0.0
  0
LINE
  5
401
330
1F
100
AcDbEntity
  8
1
  6
CONTINUOUS
370
50
 62
4
100
AcDbLine
 10
37.742756
 20
-0.220209
 30
0.0
 11
37.74248499999999
 21
-0.214822
 31
0.0
  0
LINE
  5
402
330
1F
100
AcDbEntity
  8
1
  6
CONTINUOUS
370
50
 62
4
100
AcDbLine
 10
37.743034
 20
-0.225141
 30
0.0
 11
37.742756
 21
-0.220209
 31
0.0
  0
LINE
  5
403
330
1F
100
AcDbEntity
  8
1
  6
CONTINUOUS
370
50
 62
4
100
AcDbLine
 10
37.743328
 20
-0.22969
 30
0.0
 11
37.743034
 21
-0.225141
 31
0.0
  0
LINE
  5
404
330
1F
100
AcDbEntity
  8
1
  6
CONTINUOUS
370
50
 62
4
100
AcDbLine
 10
37.743637
 20
-0.233837
 30
0.0
 11
37.743328
 21
-0.22969
 31
0.0
  0
LINE
  5
405
330
1F
100
AcDbEntity
  8
1
  6
CONTINUOUS
370
50
 62
4
100
AcDbLine
 10
37.800411
 20
0.144094
 30
0.0
 11
37.800194
 21
0.146937
 31
0.0
  0
LINE
  5
406
330
1F
100
AcDbEntity
  8
1
  6
CONTINUOUS
370
50
 62
4
100
AcDbLine
 10
37.743961
 20
-0.237559
 30
0.0
 11
37.743637
 21
-0.233837
 31
0.0
  0
LINE
  5
407
330
1F
100
AcDbEntity
  8
1
  6
CONTINUOUS
370
50
 62
4
100
AcDbLine
 10
37.744293
 20
-0.240835
 30
0.0
 11
37.743961
 21
-0.237559
 31
0.0
  0
LINE
  5
408
330
1F
100
AcDbEntity
  8
1
  6
CONTINUOUS
370
50
 62
4
100
AcDbLine
 10
37.74464
 20
-0.243643
 30
0.0
 11
37.744293
 21
-0.240835
 31
0.0
  0
LINE
  5
409
330
1F
100
AcDbEntity
  8
1
  6
CONTINUOUS
370
50
 62
4
100
AcDbLine
 10
37.749077
 20
0.238609
 30
0.0
 11
37.748695
 21
0.241618
 31
0.0
  0
LINE
  5
40A
330
1F
100
AcDbEntity
  8
1
  6
CONTINUOUS
370
50
 62
4
100
AcDbLine
 10
37.748695
 20
0.241618
 30
0.0
 11
37.74831
 21
0.244189
 31
0.0
  0
LINE
  5
40B
330
1F
100
AcDbEntity
  8
1
  6
CONTINUOUS
370
50
 62
4
100
AcDbLine
 10
37.744995
 20
-0.245961
 30
0.0
 11
37.74464
 21
-0.243643
 31
0.0
  0
LINE
  5
40C
330
1F
100
AcDbEntity
  8
1
  6
CONTINUOUS
370
50
 62
4
100
AcDbLine
 10
37.74831
 20
0.244189
 30
0.0
 11
37.747925
 21
0.246307
 31
0.0
  0
LINE
  5
40D
330
1F
100
AcDbEntity
  8
1
  6
CONTINUOUS
370
50
 62
4
100
AcDbLine
 10
37.745358
 20
-0.247768
 30
0.0
 11
37.744995
 21
-0.245961
 31
0.0
  0
LINE
  5
40E
330
1F
100
AcDbEntity
  8
1
  6
CONTINUOUS
370
50
 62
4
100
AcDbLine
 10
37.747925
 20
0.246307
 30
0.0
 11
37.747532
 21
0.247958
 31
0.0
  0
LINE
  5
40F
330
1F
100
AcDbEntity
  8
1
  6
CONTINUOUS
370
50
 62
4
100
AcDbLine
 10
37.745731
 20
-0.249043
 30
0.0
 11
37.745358
 21
-0.247768
 31
0.0
  0
LINE
  5
410
330
1F
100
AcDbEntity
  8
1
  6
CONTINUOUS
370
50
 62
4
100
AcDbLine
 10
37.747532
 20
0.247958
 30
0.0
 11
37.747143
 21
0.249126
 31
0.0
  0
LINE
  5
411
330
1F
100
AcDbEntity
  8
1
  6
CONTINUOUS
370
50
 62
4
100
AcDbLine
 10
36.726257
 20
0.238585
 30
0.0
 11
36.724148
 21
0.242793
 31
0.0
  0
LINE
  5
412
330
1F
100
AcDbEntity
  8
1
  6
CONTINUOUS
370
50
 62
4
100
AcDbLine
 10
37.746109
 20
-0.249771
 30
0.0
 11
37.745731
 21
-0.249043
 31
0.0
  0
LINE
  5
413
330
1F
100
AcDbEntity
  8
1
  6
CONTINUOUS
370
50
 62
4
100
AcDbLine
 10
37.747143
 20
0.249126
 30
0.0
 11
37.746754
 21
0.249797
 31
0.0
  0
LINE
  5
414
330
1F
100
AcDbEntity
  8
1
  6
CONTINUOUS
370
50
 62
4
100
AcDbLine
 10
37.954819
 20
0.000434
 30
0.0
 11
37.953487
 21
0.002628
 31
0.0
  0
LINE
  5
415
330
1F
100
AcDbEntity
  8
1
  6
CONTINUOUS
370
50
 62
4
100
AcDbLine
 10
37.953487
 20
0.002628
 30
0.0
 11
37.951958
 21
0.004937
 31
0.0
  0
LINE
  5
416
330
1F
100
AcDbEntity
  8
1
  6
CONTINUOUS
370
50
 62
4
100
AcDbLine
 10
37.951958
 20
0.004937
 30
0.0
 11
37.950218
 21
0.007379
 31
0.0
  0
LINE
  5
417
330
1F
100
AcDbEntity
  8
1
  6
CONTINUOUS
370
50
 62
4
100
AcDbLine
 10
37.950218
 20
0.007379
 30
0.0
 11
37.948235
 21
0.00998
 31
0.0
  0
LINE
  5
418
330
1F
100
AcDbEntity
  8
1
  6
CONTINUOUS
370
50
 62
4
100
AcDbLine
 10
37.948235
 20
0.00998
 30
0.0
 11
37.94598
 21
0.012767
 31
0.0
  0
LINE
  5
419
330
1F
100
AcDbEntity
  8
1
  6
CONTINUOUS
370
50
 62
4
100
AcDbLine
 10
36.729885
 20
0.234329
 30
0.0
 11
36.726257
 21
0.238585
 31
0.0
  0
LINE
  5
41A
330
1F
100
AcDbEntity
  8
1
  6
CONTINUOUS
370
50
 62
4
100
AcDbLine
 10
37.94598
 20
0.012767
 30
0.0
 11
37.943413
 21
0.015774
 31
0.0
  0
LINE
  5
41B
330
1F
100
AcDbEntity
  8
1
  6
CONTINUOUS
370
50
 62
4
100
AcDbLine
 10
37.943413
 20
0.015774
 30
0.0
 11
37.940495
 21
0.019041
 31
0.0
  0
LINE
  5
41C
330
1F
100
AcDbEntity
  8
1
  6
CONTINUOUS
370
50
 62
4
100
AcDbLine
 10
37.942543
 20
0.018902
 30
0.0
 11
37.936268
 21
0.025622
 31
0.0
  0
LINE
  5
41D
330
1F
100
AcDbEntity
  8
1
  6
CONTINUOUS
370
50
 62
4
100
AcDbLine
 10
37.746754
 20
0.249797
 30
0.0
 11
37.746712
 21
0.249841
 31
0.0
  0
LINE
  5
41E
330
1F
100
AcDbEntity
  8
1
  6
CONTINUOUS
370
50
 62
4
100
AcDbLine
 10
37.800194
 20
0.146937
 30
0.0
 11
37.79340699999999
 21
0.153874
 31
0.0
  0
LINE
  5
41F
330
1F
100
AcDbEntity
  8
1
  6
CONTINUOUS
370
50
 62
4
100
AcDbLine
 10
37.936268
 20
0.025622
 30
0.0
 11
37.928185
 21
0.033769
 31
0.0
  0
LINE
  5
420
330
1F
100
AcDbEntity
  8
1
  6
CONTINUOUS
370
50
 62
4
100
AcDbLine
 10
37.79340699999999
 20
0.153874
 30
0.0
 11
37.786434
 21
0.16081
 31
0.0
  0
LINE
  5
421
330
1F
100
AcDbEntity
  8
1
  6
CONTINUOUS
370
50
 62
4
100
AcDbLine
 10
38.0
 20
0.0
 30
0.0
 11
37.75
 21
0.247623
 31
0.0
  0
LINE
  5
422
330
1F
100
AcDbEntity
  8
1
  6
CONTINUOUS
370
50
 62
4
100
AcDbLine
 10
37.75
 20
0.246632
 30
0.0
 11
37.746742
 21
0.249859
 31
0.0
  0
LINE
  5
423
330
1F
100
AcDbEntity
  8
1
  6
CONTINUOUS
370
50
 62
4
100
AcDbLine
 10
37.786434
 20
0.16081
 30
0.0
 11
37.779293
 21
0.167736
 31
0.0
  0
LINE
  5
424
330
1F
100
AcDbEntity
  8
1
  6
CONTINUOUS
370
50
 62
4
100
AcDbLine
 10
37.928185
 20
0.033769
 30
0.0
 11
37.917542
 21
0.043976
 31
0.0
  0
LINE
  5
425
330
1F
100
AcDbEntity
  8
1
  6
CONTINUOUS
370
50
 62
4
100
AcDbLine
 10
38.0
 20
0.0
 30
0.0
 11
37.75
 21
0.23925
 31
0.0
  0
LINE
  5
426
330
1F
100
AcDbEntity
  8
1
  6
CONTINUOUS
370
50
 62
4
100
AcDbLine
 10
37.779293
 20
0.167736
 30
0.0
 11
37.772026
 21
0.174618
 31
0.0
  0
LINE
  5
427
330
1F
100
AcDbEntity
  8
1
  6
CONTINUOUS
370
50
 62
4
100
AcDbLine
 10
37.772026
 20
0.174618
 30
0.0
 11
37.764713
 21
0.181376
 31
0.0
  0
LINE
  5
428
330
1F
100
AcDbEntity
  8
1
  6
CONTINUOUS
370
50
 62
4
100
AcDbLine
 10
37.917542
 20
0.043976
 30
0.0
 11
37.903103
 21
0.057295
 31
0.0
  0
LINE
  5
429
330
1F
100
AcDbEntity
  8
1
  6
CONTINUOUS
370
50
 62
4
100
AcDbLine
 10
37.764713
 20
0.181376
 30
0.0
 11
37.75737
 21
0.188004
 31
0.0
  0
LINE
  5
42A
330
1F
100
AcDbEntity
  8
1
  6
CONTINUOUS
370
50
 62
4
100
AcDbLine
 10
37.903103
 20
0.057295
 30
0.0
 11
37.882648
 21
0.075599
 31
0.0
  0
LINE
  5
42B
330
1F
100
AcDbEntity
  8
1
  6
CONTINUOUS
370
50
 62
4
100
AcDbLine
 10
36.734478
 20
0.230241
 30
0.0
 11
36.729885
 21
0.234329
 31
0.0
  0
LINE
  5
42C
330
1F
100
AcDbEntity
  8
1
  6
CONTINUOUS
370
50
 62
4
100
AcDbLine
 10
37.75737
 20
0.188004
 30
0.0
 11
37.75
 21
0.1945
 31
0.0
  0
LINE
  5
42D
330
1F
100
AcDbEntity
  8
1
  6
CONTINUOUS
370
50
 62
4
100
AcDbLine
 10
37.882648
 20
0.075599
 30
0.0
 11
37.851753
 21
0.102613
 31
0.0
  0
LINE
  5
42E
330
1F
100
AcDbEntity
  8
1
  6
CONTINUOUS
370
50
 62
4
100
AcDbLine
 10
37.851753
 20
0.102613
 30
0.0
 11
37.800194
 21
0.146937
 31
0.0
  0
LINE
  5
42F
330
1F
100
AcDbEntity
  8
1
  6
CONTINUOUS
370
50
 62
4
100
AcDbLine
 10
37.746712
 20
0.249841
 30
0.0
 11
37.746666
 21
0.249878
 31
0.0
  0
LINE
  5
430
330
1F
100
AcDbEntity
  8
1
  6
CONTINUOUS
370
50
 62
4
100
AcDbLine
 10
36.739677
 20
0.226357
 30
0.0
 11
36.734478
 21
0.230241
 31
0.0
  0
LINE
  5
431
330
1F
100
AcDbEntity
  8
1
  6
CONTINUOUS
370
50
 62
4
100
AcDbLine
 10
37.746666
 20
0.249878
 30
0.0
 11
37.746624
 21
0.249909
 31
0.0
  0
LINE
  5
432
330
1F
100
AcDbEntity
  8
1
  6
CONTINUOUS
370
50
 62
4
100
AcDbLine
 10
36.745407
 20
0.222575
 30
0.0
 11
36.739677
 21
0.226357
 31
0.0
  0
LINE
  5
433
330
1F
100
AcDbEntity
  8
1
  6
CONTINUOUS
370
50
 62
4
100
AcDbLine
 10
36.751431
 20
0.218955
 30
0.0
 11
36.745407
 21
0.222575
 31
0.0
  0
LINE
  5
434
330
1F
100
AcDbEntity
  8
1
  6
CONTINUOUS
370
50
 62
4
100
AcDbLine
 10
37.746624
 20
0.249909
 30
0.0
 11
37.746582
 21
0.249933
 31
0.0
  0
LINE
  5
435
330
1F
100
AcDbEntity
  8
1
  6
CONTINUOUS
370
50
 62
4
100
AcDbLine
 10
36.757504
 20
0.215565
 30
0.0
 11
36.751431
 21
0.218955
 31
0.0
  0
LINE
  5
436
330
1F
100
AcDbEntity
  8
1
  6
CONTINUOUS
370
50
 62
4
100
AcDbLine
 10
36.76358
 20
0.212366
 30
0.0
 11
36.757504
 21
0.215565
 31
0.0
  0
LINE
  5
437
330
1F
100
AcDbEntity
  8
1
  6
CONTINUOUS
370
50
 62
4
100
AcDbLine
 10
36.76997
 20
0.209165
 30
0.0
 11
36.76358
 21
0.212366
 31
0.0
  0
LINE
  5
438
330
1F
100
AcDbEntity
  8
1
  6
CONTINUOUS
370
50
 62
4
100
AcDbLine
 10
37.746494
 20
-0.249962
 30
0.0
 11
37.746109
 21
-0.249771
 31
0.0
  0
LINE
  5
439
330
1F
100
AcDbEntity
  8
1
  6
CONTINUOUS
370
50
 62
4
100
AcDbLine
 10
36.776646
 20
0.205962
 30
0.0
 11
36.76997
 21
0.209165
 31
0.0
  0
LINE
  5
43A
330
1F
100
AcDbEntity
  8
1
  6
CONTINUOUS
370
50
 62
4
100
AcDbLine
 10
37.866615
 20
0.001281
 30
0.0
 11
37.850067
 21
0.009058
 31
0.0
  0
LINE
  5
43B
330
1F
100
AcDbEntity
  8
1
  6
CONTINUOUS
370
50
 62
4
100
AcDbLine
 10
37.850067
 20
0.009058
 30
0.0
 11
37.833435
 21
0.016856
 31
0.0
  0
LINE
  5
43C
330
1F
100
AcDbEntity
  8
1
  6
CONTINUOUS
370
50
 62
4
100
AcDbLine
 10
37.833435
 20
0.016856
 30
0.0
 11
37.81674599999999
 21
0.024662
 31
0.0
  0
LINE
  5
43D
330
1F
100
AcDbEntity
  8
1
  6
CONTINUOUS
370
50
 62
4
100
AcDbLine
 10
37.81674599999999
 20
0.024662
 30
0.0
 11
37.80003
 21
0.032464
 31
0.0
  0
LINE
  5
43E
330
1F
100
AcDbEntity
  8
1
  6
CONTINUOUS
370
50
 62
4
100
AcDbLine
 10
37.80003
 20
0.032464
 30
0.0
 11
37.783314
 21
0.040248
 31
0.0
  0
LINE
  5
43F
330
1F
100
AcDbEntity
  8
1
  6
CONTINUOUS
370
50
 62
4
100
AcDbLine
 10
37.783314
 20
0.040248
 30
0.0
 11
37.766628
 21
0.048001
 31
0.0
  0
LINE
  5
440
330
1F
100
AcDbEntity
  8
1
  6
CONTINUOUS
370
50
 62
4
100
AcDbLine
 10
37.766628
 20
0.048001
 30
0.0
 11
37.75
 21
0.05571
 31
0.0
  0
LINE
  5
441
330
1F
100
AcDbEntity
  8
1
  6
CONTINUOUS
370
50
 62
4
100
AcDbLine
 10
37.75
 20
0.05525
 30
0.0
 11
37.744263
 21
0.057908
 31
0.0
  0
LINE
  5
442
330
1F
100
AcDbEntity
  8
1
  6
CONTINUOUS
370
50
 62
4
100
AcDbLine
 10
37.744263
 20
0.057908
 30
0.0
 11
37.738514
 21
0.060569
 31
0.0
  0
LINE
  5
443
330
1F
100
AcDbEntity
  8
1
  6
CONTINUOUS
370
50
 62
4
100
AcDbLine
 10
37.738514
 20
0.060569
 30
0.0
 11
37.732758
 21
0.063232
 31
0.0
  0
LINE
  5
444
330
1F
100
AcDbEntity
  8
1
  6
CONTINUOUS
370
50
 62
4
100
AcDbLine
 10
37.732758
 20
0.063232
 30
0.0
 11
37.726994
 21
0.065897
 31
0.0
  0
LINE
  5
445
330
1F
100
AcDbEntity
  8
1
  6
CONTINUOUS
370
50
 62
4
100
AcDbLine
 10
36.783573
 20
0.202763
 30
0.0
 11
36.776646
 21
0.205962
 31
0.0
  0
LINE
  5
446
330
1F
100
AcDbEntity
  8
1
  6
CONTINUOUS
370
50
 62
4
100
AcDbLine
 10
37.726994
 20
0.065897
 30
0.0
 11
37.721222
 21
0.068562
 31
0.0
  0
LINE
  5
447
330
1F
100
AcDbEntity
  8
1
  6
CONTINUOUS
370
50
 62
4
100
AcDbLine
 10
37.721222
 20
0.068562
 30
0.0
 11
37.715443
 21
0.071229
 31
0.0
  0
LINE
  5
448
330
1F
100
AcDbEntity
  8
1
  6
CONTINUOUS
370
50
 62
4
100
AcDbLine
 10
37.715443
 20
0.071229
 30
0.0
 11
37.70966
 21
0.073897
 31
0.0
  0
LINE
  5
449
330
1F
100
AcDbEntity
  8
1
  6
CONTINUOUS
370
50
 62
4
100
AcDbLine
 10
36.790714
 20
0.199576
 30
0.0
 11
36.783573
 21
0.202763
 31
0.0
  0
LINE
  5
44A
330
1F
100
AcDbEntity
  8
1
  6
CONTINUOUS
370
50
 62
4
100
AcDbLine
 10
36.798031
 20
0.196407
 30
0.0
 11
36.790714
 21
0.199576
 31
0.0
  0
LINE
  5
44B
330
1F
100
AcDbEntity
  8
1
  6
CONTINUOUS
370
50
 62
4
100
AcDbLine
 10
36.805489
 20
0.193264
 30
0.0
 11
36.798031
 21
0.196407
 31
0.0
  0
LINE
  5
44C
330
1F
100
AcDbEntity
  8
1
  6
CONTINUOUS
370
50
 62
4
100
AcDbLine
 10
36.813046
 20
0.190154
 30
0.0
 11
36.805489
 21
0.193264
 31
0.0
  0
LINE
  5
44D
330
1F
100
AcDbEntity
  8
1
  6
CONTINUOUS
370
50
 62
4
100
AcDbLine
 10
36.820671
 20
0.187083
 30
0.0
 11
36.813046
 21
0.190154
 31
0.0
  0
LINE
  5
44E
330
1F
100
AcDbEntity
  8
1
  6
CONTINUOUS
370
50
 62
4
100
AcDbLine
 10
36.828396
 20
0.18403
 30
0.0
 11
36.820671
 21
0.187083
 31
0.0
  0
LINE
  5
44F
330
1F
100
AcDbEntity
  8
1
  6
CONTINUOUS
370
50
 62
4
100
AcDbLine
 10
37.746582
 20
0.249933
 30
0.0
 11
37.746536
 21
0.249951
 31
0.0
  0
LINE
  5
450
330
1F
100
AcDbEntity
  8
1
  6
CONTINUOUS
370
50
 62
4
100
AcDbLine
 10
36.836262
 20
0.180974
 30
0.0
 11
36.828396
 21
0.18403
 31
0.0
  0
LINE
  5
451
330
1F
100
AcDbEntity
  8
1
  6
CONTINUOUS
370
50
 62
4
100
AcDbLine
 10
36.844231
 20
0.177925
 30
0.0
 11
36.836262
 21
0.180974
 31
0.0
  0
LINE
  5
452
330
1F
100
AcDbEntity
  8
1
  6
CONTINUOUS
370
50
 62
4
100
AcDbLine
 10
36.852268
 20
0.174892
 30
0.0
 11
36.844231
 21
0.177925
 31
0.0
  0
LINE
  5
453
330
1F
100
AcDbEntity
  8
1
  6
CONTINUOUS
370
50
 62
4
100
AcDbLine
 10
36.860344
 20
0.171883
 30
0.0
 11
36.852268
 21
0.174892
 31
0.0
  0
LINE
  5
454
330
1F
100
AcDbEntity
  8
1
  6
CONTINUOUS
370
50
 62
4
100
AcDbLine
 10
36.902981
 20
0.156408
 30
0.0
 11
36.900002
 21
0.157516
 31
0.0
  0
LINE
  5
455
330
1F
100
AcDbEntity
  8
1
  6
CONTINUOUS
370
50
 62
4
100
AcDbLine
 10
36.868416
 20
0.168907
 30
0.0
 11
36.860344
 21
0.171883
 31
0.0
  0
LINE
  5
456
330
1F
100
AcDbEntity
  8
1
  6
CONTINUOUS
370
50
 62
4
100
AcDbLine
 10
36.905987
 20
0.155305
 30
0.0
 11
36.902981
 21
0.156408
 31
0.0
  0
LINE
  5
457
330
1F
100
AcDbEntity
  8
1
  6
CONTINUOUS
370
50
 62
4
100
AcDbLine
 10
36.876453
 20
0.165974
 30
0.0
 11
36.868416
 21
0.168907
 31
0.0
  0
LINE
  5
458
330
1F
100
AcDbEntity
  8
1
  6
CONTINUOUS
370
50
 62
4
100
AcDbLine
 10
36.884418
 20
0.163092
 30
0.0
 11
36.876453
 21
0.165974
 31
0.0
  0
LINE
  5
459
330
1F
100
AcDbEntity
  8
1
  6
CONTINUOUS
370
50
 62
4
100
AcDbLine
 10
36.909019
 20
0.154208
 30
0.0
 11
36.905987
 21
0.155305
 31
0.0
  0
LINE
  5
45A
330
1F
100
AcDbEntity
  8
1
  6
CONTINUOUS
370
50
 62
4
100
AcDbLine
 10
36.892281
 20
0.16027
 30
0.0
 11
36.884418
 21
0.163092
 31
0.0
  0
LINE
  5
45B
330
1F
100
AcDbEntity
  8
1
  6
CONTINUOUS
370
50
 62
4
100
AcDbLine
 10
36.912075
 20
0.153115
 30
0.0
 11
36.909019
 21
0.154208
 31
0.0
  0
LINE
  5
45C
330
1F
100
AcDbEntity
  8
1
  6
CONTINUOUS
370
50
 62
4
100
AcDbLine
 10
36.900002
 20
0.157516
 30
0.0
 11
36.892281
 21
0.16027
 31
0.0
  0
LINE
  5
45D
330
1F
100
AcDbEntity
  8
1
  6
CONTINUOUS
370
50
 62
4
100
AcDbLine
 10
36.91515
 20
0.152029
 30
0.0
 11
36.912075
 21
0.153115
 31
0.0
  0
LINE
  5
45E
330
1F
100
AcDbEntity
  8
1
  6
CONTINUOUS
370
50
 62
4
100
AcDbLine
 10
37.327202
 20
0.018238
 30
0.0
 11
37.261597
 21
0.041239
 31
0.0
  0
LINE
  5
45F
330
1F
100
AcDbEntity
  8
1
  6
CONTINUOUS
370
50
 62
4
100
AcDbLine
 10
36.91824
 20
0.150949
 30
0.0
 11
36.91515
 21
0.152029
 31
0.0
  0
LINE
  5
460
330
1F
100
AcDbEntity
  8
1
  6
CONTINUOUS
370
50
 62
4
100
AcDbLine
 10
37.261597
 20
0.041239
 30
0.0
 11
37.193306
 21
0.064922
 31
0.0
  0
LINE
  5
461
330
1F
100
AcDbEntity
  8
1
  6
CONTINUOUS
370
50
 62
4
100
AcDbLine
 10
38.0
 20
0.0
 30
0.0
 11
37.942543
 21
0.018902
 31
0.0
  0
LINE
  5
462
330
1F
100
AcDbEntity
  8
1
  6
CONTINUOUS
370
50
 62
4
100
AcDbLine
 10
37.193306
 20
0.064922
 30
0.0
 11
37.123745
 21
0.087627
 31
0.0
  0
LINE
  5
463
330
1F
100
AcDbEntity
  8
1
  6
CONTINUOUS
370
50
 62
4
100
AcDbLine
 10
36.986031
 20
0.129243
 30
0.0
 11
36.91824
 21
0.150949
 31
0.0
  0
LINE
  5
464
330
1F
100
AcDbEntity
  8
1
  6
CONTINUOUS
370
50
 62
4
100
AcDbLine
 10
38.0
 20
0.0
 30
0.0
 11
37.940495
 21
0.019041
 31
0.0
  0
LINE
  5
465
330
1F
100
AcDbEntity
  8
1
  6
CONTINUOUS
370
50
 62
4
100
AcDbLine
 10
37.123745
 20
0.087627
 30
0.0
 11
37.054298
 21
0.108853
 31
0.0
  0
LINE
  5
466
330
1F
100
AcDbEntity
  8
1
  6
CONTINUOUS
370
50
 62
4
100
AcDbLine
 10
37.75
 20
0.061808
 30
0.0
 11
37.70966
 21
0.073897
 31
0.0
  0
LINE
  5
467
330
1F
100
AcDbEntity
  8
1
  6
CONTINUOUS
370
50
 62
4
100
AcDbLine
 10
37.954819
 20
0.000434
 30
0.0
 11
37.75
 21
0.061808
 31
0.0
  0
LINE
  5
468
330
1F
100
AcDbEntity
  8
1
  6
CONTINUOUS
370
50
 62
4
100
AcDbLine
 10
37.054298
 20
0.108853
 30
0.0
 11
36.986031
 21
0.129243
 31
0.0
  0
LINE
  5
469
330
1F
100
AcDbEntity
  8
1
  6
CONTINUOUS
370
50
 62
4
100
AcDbLine
 10
36.900002
 20
0.25
 30
0.0
 11
32.200001
 21
1.5
 31
0.0
  0
LINE
  5
46A
330
1F
100
AcDbEntity
  8
1
  6
CONTINUOUS
370
50
 62
4
100
AcDbLine
 10
37.746536
 20
0.249951
 30
0.0
 11
37.746494
 21
0.249962
 31
0.0
  0
LINE
  5
46B
330
1F
100
AcDbEntity
  8
1
  6
CONTINUOUS
370
50
 62
4
100
AcDbLine
 10
37.331665
 20
0.005553
 30
0.0
 11
37.327202
 21
0.006481
 31
0.0
  0
LINE
  5
46C
330
1F
100
AcDbEntity
  8
1
  6
CONTINUOUS
370
50
 62
4
100
AcDbLine
 10
37.345043
 20
0.002773
 30
0.0
 11
37.340588
 21
0.003699
 31
0.0
  0
LINE
  5
46D
330
1F
100
AcDbEntity
  8
1
  6
CONTINUOUS
370
50
 62
4
100
AcDbLine
 10
37.340588
 20
0.003699
 30
0.0
 11
37.336128
 21
0.004626
 31
0.0
  0
LINE
  5
46E
330
1F
100
AcDbEntity
  8
1
  6
CONTINUOUS
370
50
 62
4
100
AcDbLine
 10
37.336128
 20
0.004626
 30
0.0
 11
37.331665
 21
0.005553
 31
0.0
  0
LINE
  5
46F
330
1F
100
AcDbEntity
  8
1
  6
CONTINUOUS
370
50
 62
4
100
AcDbLine
 10
37.35841
 20
0.0
 30
0.0
 11
37.353958
 21
0.000924
 31
0.0
  0
LINE
  5
470
330
1F
100
AcDbEntity
  8
1
  6
CONTINUOUS
370
50
 62
4
100
AcDbLine
 10
37.353958
 20
0.000924
 30
0.0
 11
37.349503
 21
0.001848
 31
0.0
  0
LINE
  5
471
330
1F
100
AcDbEntity
  8
1
  6
CONTINUOUS
370
50
 62
4
100
AcDbLine
 10
37.349503
 20
0.001848
 30
0.0
 11
37.345043
 21
0.002773
 31
0.0
  0
LINE
  5
472
330
1F
100
AcDbEntity
  8
1
  6
CONTINUOUS
370
50
 62
4
100
AcDbLine
 10
37.368874
 20
-0.002166
 30
0.0
 11
37.35841
 21
0.0
 31
0.0
  0
LINE
  5
473
330
1F
100
AcDbEntity
  8
1
  6
CONTINUOUS
370
50
 62
4
100
AcDbLine
 10
37.37933
 20
-0.004329
 30
0.0
 11
37.368874
 21
-0.002166
 31
0.0
  0
LINE
  5
474
330
1F
100
AcDbEntity
  8
1
  6
CONTINUOUS
370
50
 62
4
100
AcDbLine
 10
37.389782
 20
-0.006487
 30
0.0
 11
37.37933
 21
-0.004329
 31
0.0
  0
LINE
  5
475
330
1F
100
AcDbEntity
  8
1
  6
CONTINUOUS
370
50
 62
4
100
AcDbLine
 10
37.40023
 20
-0.00864
 30
0.0
 11
37.389782
 21
-0.006487
 31
0.0
  0
LINE
  5
476
330
1F
100
AcDbEntity
  8
1
  6
CONTINUOUS
370
50
 62
4
100
AcDbLine
 10
37.410679
 20
-0.010789
 30
0.0
 11
37.40023
 21
-0.00864
 31
0.0
  0
LINE
  5
477
330
1F
100
AcDbEntity
  8
1
  6
CONTINUOUS
370
50
 62
4
100
AcDbLine
 10
37.421124
 20
-0.012934
 30
0.0
 11
37.410679
 21
-0.010789
 31
0.0
  0
LINE
  5
478
330
1F
100
AcDbEntity
  8
1
  6
CONTINUOUS
370
50
 62
4
100
AcDbLine
 10
37.472878
 20
-0.023482
 30
0.0
 11
37.421124
 21
-0.012934
 31
0.0
  0
LINE
  5
479
330
1F
100
AcDbEntity
  8
1
  6
CONTINUOUS
370
50
 62
4
100
AcDbLine
 10
37.524776
 20
-0.033907
 30
0.0
 11
37.472878
 21
-0.023482
 31
0.0
  0
LINE
  5
47A
330
1F
100
AcDbEntity
  8
1
  6
CONTINUOUS
370
50
 62
4
100
AcDbLine
 10
36.900002
 20
0.239281
 30
0.0
 11
36.885571
 21
0.242142
 31
0.0
  0
LINE
  5
47B
330
1F
100
AcDbEntity
  8
1
  6
CONTINUOUS
370
50
 62
4
100
AcDbLine
 10
37.57708
 20
-0.044253
 30
0.0
 11
37.524776
 21
-0.033907
 31
0.0
  0
LINE
  5
47C
330
1F
100
AcDbEntity
  8
1
  6
CONTINUOUS
370
50
 62
4
100
AcDbLine
 10
37.74012
 20
-0.07629
 30
0.0
 11
37.684528
 21
-0.065341
 31
0.0
  0
LINE
  5
47D
330
1F
100
AcDbEntity
  8
1
  6
CONTINUOUS
370
50
 62
4
100
AcDbLine
 10
37.630253
 20
-0.054695
 30
0.0
 11
37.57708
 21
-0.044253
 31
0.0
  0
LINE
  5
47E
330
1F
100
AcDbEntity
  8
1
  6
CONTINUOUS
370
50
 62
4
100
AcDbLine
 10
37.684528
 20
-0.065341
 30
0.0
 11
37.630253
 21
-0.054695
 31
0.0
  0
LINE
  5
47F
330
1F
100
AcDbEntity
  8
1
  6
CONTINUOUS
370
50
 62
4
100
AcDbLine
 10
36.885571
 20
0.242142
 30
0.0
 11
36.871639
 21
0.244773
 31
0.0
  0
LINE
  5
480
330
1F
100
AcDbEntity
  8
1
  6
CONTINUOUS
370
50
 62
4
100
AcDbLine
 10
36.871639
 20
0.244773
 30
0.0
 11
36.858227
 21
0.247172
 31
0.0
  0
LINE
  5
481
330
1F
100
AcDbEntity
  8
1
  6
CONTINUOUS
370
50
 62
4
100
AcDbLine
 10
36.858227
 20
0.247172
 30
0.0
 11
36.845345
 21
0.249333
 31
0.0
  0
LINE
  5
482
330
1F
100
AcDbEntity
  8
1
  6
CONTINUOUS
370
50
 62
4
100
AcDbLine
 10
37.327534
 20
0.071588
 30
0.0
 11
37.327202
 21
0.071642
 31
0.0
  0
LINE
  5
483
330
1F
100
AcDbEntity
  8
1
  6
CONTINUOUS
370
50
 62
4
100
AcDbLine
 10
37.327869
 20
0.071535
 30
0.0
 11
37.327534
 21
0.071588
 31
0.0
  0
LINE
  5
484
330
1F
100
AcDbEntity
  8
1
  6
CONTINUOUS
370
50
 62
4
100
AcDbLine
 10
36.845345
 20
0.249333
 30
0.0
 11
36.833004
 21
0.251253
 31
0.0
  0
LINE
  5
485
330
1F
100
AcDbEntity
  8
1
  6
CONTINUOUS
370
50
 62
4
100
AcDbLine
 10
37.328201
 20
0.071484
 30
0.0
 11
37.327869
 21
0.071535
 31
0.0
  0
LINE
  5
486
330
1F
100
AcDbEntity
  8
1
  6
CONTINUOUS
370
50
 62
4
100
AcDbLine
 10
37.328533
 20
0.071434
 30
0.0
 11
37.328201
 21
0.071484
 31
0.0
  0
LINE
  5
487
330
1F
100
AcDbEntity
  8
1
  6
CONTINUOUS
370
50
 62
4
100
AcDbLine
 10
37.328869
 20
0.071385
 30
0.0
 11
37.328533
 21
0.071434
 31
0.0
  0
LINE
  5
488
330
1F
100
AcDbEntity
  8
1
  6
CONTINUOUS
370
50
 62
4
100
AcDbLine
 10
37.329201
 20
0.071337
 30
0.0
 11
37.328869
 21
0.071385
 31
0.0
  0
LINE
  5
489
330
1F
100
AcDbEntity
  8
1
  6
CONTINUOUS
370
50
 62
4
100
AcDbLine
 10
36.833004
 20
0.251253
 30
0.0
 11
36.821228
 21
0.252928
 31
0.0
  0
LINE
  5
48A
330
1F
100
AcDbEntity
  8
1
  6
CONTINUOUS
370
50
 62
4
100
AcDbLine
 10
36.821228
 20
0.252928
 30
0.0
 11
36.810024
 21
0.254355
 31
0.0
  0
LINE
  5
48B
330
1F
100
AcDbEntity
  8
1
  6
CONTINUOUS
370
50
 62
4
100
AcDbLine
 10
37.749134
 20
0.194232
 30
0.0
 11
37.688778
 21
0.20179
 31
0.0
  0
LINE
  5
48C
330
1F
100
AcDbEntity
  8
1
  6
CONTINUOUS
370
50
 62
4
100
AcDbLine
 10
37.688778
 20
0.20179
 30
0.0
 11
37.628422
 21
0.208744
 31
0.0
  0
LINE
  5
48D
330
1F
100
AcDbEntity
  8
1
  6
CONTINUOUS
370
50
 62
4
100
AcDbLine
 10
36.810024
 20
0.254355
 30
0.0
 11
36.799412
 21
0.255529
 31
0.0
  0
LINE
  5
48E
330
1F
100
AcDbEntity
  8
1
  6
CONTINUOUS
370
50
 62
4
100
AcDbLine
 10
37.628422
 20
0.208744
 30
0.0
 11
37.568523
 21
0.21508
 31
0.0
  0
LINE
  5
48F
330
1F
100
AcDbEntity
  8
1
  6
CONTINUOUS
370
50
 62
4
100
AcDbLine
 10
37.568523
 20
0.21508
 30
0.0
 11
37.508533
 21
0.220972
 31
0.0
  0
LINE
  5
490
330
1F
100
AcDbEntity
  8
1
  6
CONTINUOUS
370
50
 62
4
100
AcDbLine
 10
36.799412
 20
0.255529
 30
0.0
 11
36.789398
 21
0.256447
 31
0.0
  0
LINE
  5
491
330
1F
100
AcDbEntity
  8
1
  6
CONTINUOUS
370
50
 62
4
100
AcDbLine
 10
37.508533
 20
0.220972
 30
0.0
 11
37.448746
 21
0.226403
 31
0.0
  0
LINE
  5
492
330
1F
100
AcDbEntity
  8
1
  6
CONTINUOUS
370
50
 62
4
100
AcDbLine
 10
37.448746
 20
0.226403
 30
0.0
 11
37.38905
 21
0.231332
 31
0.0
  0
LINE
  5
493
330
1F
100
AcDbEntity
  8
1
  6
CONTINUOUS
370
50
 62
4
100
AcDbLine
 10
37.329201
 20
0.239492
 30
0.0
 11
37.295429
 21
0.242066
 31
0.0
  0
LINE
  5
494
330
1F
100
AcDbEntity
  8
1
  6
CONTINUOUS
370
50
 62
4
100
AcDbLine
 10
37.38905
 20
0.231332
 30
0.0
 11
37.329201
 21
0.235739
 31
0.0
  0
LINE
  5
495
330
1F
100
AcDbEntity
  8
1
  6
CONTINUOUS
370
50
 62
4
100
AcDbLine
 10
36.789398
 20
0.256447
 30
0.0
 11
36.780006
 21
0.257104
 31
0.0
  0
LINE
  5
496
330
1F
100
AcDbEntity
  8
1
  6
CONTINUOUS
370
50
 62
4
100
AcDbLine
 10
37.942543
 20
0.018902
 30
0.0
 11
37.940495
 21
0.019041
 31
0.0
  0
LINE
  5
497
330
1F
100
AcDbEntity
  8
1
  6
CONTINUOUS
370
50
 62
4
100
AcDbLine
 10
37.295429
 20
0.242066
 30
0.0
 11
37.26215699999999
 21
0.244055
 31
0.0
  0
LINE
  5
498
330
1F
100
AcDbEntity
  8
1
  6
CONTINUOUS
370
50
 62
4
100
AcDbLine
 10
36.780006
 20
0.257104
 30
0.0
 11
36.771252
 21
0.257498
 31
0.0
  0
LINE
  5
499
330
1F
100
AcDbEntity
  8
1
  6
CONTINUOUS
370
50
 62
4
100
AcDbLine
 10
37.26215699999999
 20
0.244055
 30
0.0
 11
37.229412
 21
0.24552
 31
0.0
  0
LINE
  5
49A
330
1F
100
AcDbEntity
  8
1
  6
CONTINUOUS
370
50
 62
4
100
AcDbLine
 10
37.229412
 20
0.24552
 30
0.0
 11
37.197231
 21
0.246522
 31
0.0
  0
LINE
  5
49B
330
1F
100
AcDbEntity
  8
1
  6
CONTINUOUS
370
50
 62
4
100
AcDbLine
 10
37.165646
 20
0.24664
 30
0.0
 11
37.134655
 21
0.24738
 31
0.0
  0
LINE
  5
49C
330
1F
100
AcDbEntity
  8
1
  6
CONTINUOUS
370
50
 62
4
100
AcDbLine
 10
36.771252
 20
0.257498
 30
0.0
 11
36.76318
 21
0.257625
 31
0.0
  0
LINE
  5
49D
330
1F
100
AcDbEntity
  8
1
  6
CONTINUOUS
370
50
 62
4
100
AcDbLine
 10
37.954819
 20
0.000434
 30
0.0
 11
37.866615
 21
0.001281
 31
0.0
  0
LINE
  5
49E
330
1F
100
AcDbEntity
  8
1
  6
CONTINUOUS
370
50
 62
4
100
AcDbLine
 10
37.197231
 20
0.246522
 30
0.0
 11
37.165646
 21
0.24664
 31
0.0
  0
LINE
  5
49F
330
1F
100
AcDbEntity
  8
1
  6
CONTINUOUS
370
50
 62
4
100
AcDbLine
 10
36.900002
 20
-0.25
 30
0.0
 11
37.74646
 21
-0.25
 31
0.0
  0
LINE
  5
4A0
330
1F
100
AcDbEntity
  8
1
  6
CONTINUOUS
370
50
 62
4
100
AcDbLine
 10
36.900002
 20
0.25
 30
0.0
 11
37.74646
 21
0.25
 31
0.0
  0
LINE
  5
4A1
330
1F
100
AcDbEntity
  8
1
  6
CONTINUOUS
370
50
 62
4
100
AcDbLine
 10
37.104321
 20
0.247358
 30
0.0
 11
37.134655
 21
0.24738
 31
0.0
  0
LINE
  5
4A2
330
1F
100
AcDbEntity
  8
1
  6
CONTINUOUS
370
50
 62
4
100
AcDbLine
 10
37.074661
 20
0.247115
 30
0.0
 11
37.104321
 21
0.247358
 31
0.0
  0
LINE
  5
4A3
330
1F
100
AcDbEntity
  8
1
  6
CONTINUOUS
370
50
 62
4
100
AcDbLine
 10
37.045704
 20
0.246712
 30
0.0
 11
37.074661
 21
0.247115
 31
0.0
  0
LINE
  5
4A4
330
1F
100
AcDbEntity
  8
1
  6
CONTINUOUS
370
50
 62
4
100
AcDbLine
 10
36.755817
 20
0.257489
 30
0.0
 11
36.76318
 21
0.257625
 31
0.0
  0
LINE
  5
4A5
330
1F
100
AcDbEntity
  8
1
  6
CONTINUOUS
370
50
 62
4
100
AcDbLine
 10
37.017563
 20
0.246185
 30
0.0
 11
37.045704
 21
0.246712
 31
0.0
  0
LINE
  5
4A6
330
1F
100
AcDbEntity
  8
1
  6
CONTINUOUS
370
50
 62
4
100
AcDbLine
 10
36.990761
 20
0.245433
 30
0.0
 11
37.017563
 21
0.246185
 31
0.0
  0
LINE
  5
4A7
330
1F
100
AcDbEntity
  8
1
  6
CONTINUOUS
370
50
 62
4
100
AcDbLine
 10
36.965477
 20
0.244402
 30
0.0
 11
36.990761
 21
0.245433
 31
0.0
  0
LINE
  5
4A8
330
1F
100
AcDbEntity
  8
1
  6
CONTINUOUS
370
50
 62
4
100
AcDbLine
 10
37.74012
 20
-0.07629
 30
0.0
 11
37.741528
 21
-0.076214
 31
0.0
  0
LINE
  5
4A9
330
1F
100
AcDbEntity
  8
1
  6
CONTINUOUS
370
50
 62
4
100
AcDbLine
 10
36.941841
 20
0.243057
 30
0.0
 11
36.965477
 21
0.244402
 31
0.0
  0
LINE
  5
4AA
330
1F
100
AcDbEntity
  8
1
  6
CONTINUOUS
370
50
 62
4
100
AcDbLine
 10
36.749176
 20
0.257091
 30
0.0
 11
36.755817
 21
0.257489
 31
0.0
  0
LINE
  5
4AB
330
1F
100
AcDbEntity
  8
1
  6
CONTINUOUS
370
50
 62
4
100
AcDbLine
 10
37.741528
 20
-0.076214
 30
0.0
 11
37.742935
 21
-0.076125
 31
0.0
  0
LINE
  5
4AC
330
1F
100
AcDbEntity
  8
1
  6
CONTINUOUS
370
50
 62
4
100
AcDbLine
 10
37.742935
 20
-0.076125
 30
0.0
 11
37.744347
 21
-0.076023
 31
0.0
  0
LINE
  5
4AD
330
1F
100
AcDbEntity
  8
1
  6
CONTINUOUS
370
50
 62
4
100
AcDbLine
 10
36.919971
 20
0.241362
 30
0.0
 11
36.941841
 21
0.243057
 31
0.0
  0
LINE
  5
4AE
330
1F
100
AcDbEntity
  8
1
  6
CONTINUOUS
370
50
 62
4
100
AcDbLine
 10
37.744347
 20
-0.076023
 30
0.0
 11
37.745758
 21
-0.075906
 31
0.0
  0
LINE
  5
4AF
330
1F
100
AcDbEntity
  8
1
  6
CONTINUOUS
370
50
 62
4
100
AcDbLine
 10
37.745758
 20
-0.075906
 30
0.0
 11
37.747169
 21
-0.075776
 31
0.0
  0
LINE
  5
4B0
330
1F
100
AcDbEntity
  8
1
  6
CONTINUOUS
370
50
 62
4
100
AcDbLine
 10
37.747169
 20
-0.075776
 30
0.0
 11
37.748585
 21
-0.075632
 31
0.0
  0
LINE
  5
4B1
330
1F
100
AcDbEntity
  8
1
  6
CONTINUOUS
370
50
 62
4
100
AcDbLine
 10
36.900002
 20
0.239281
 30
0.0
 11
36.919971
 21
0.241362
 31
0.0
  0
LINE
  5
4B2
330
1F
100
AcDbEntity
  8
1
  6
CONTINUOUS
370
50
 62
4
100
AcDbLine
 10
36.743275
 20
0.256433
 30
0.0
 11
36.749176
 21
0.257091
 31
0.0
  0
LINE
  5
4B3
330
1F
100
AcDbEntity
  8
1
  6
CONTINUOUS
370
50
 62
4
100
AcDbLine
 10
37.748585
 20
-0.075632
 30
0.0
 11
37.75
 21
-0.075474
 31
0.0
  0
LINE
  5
4B4
330
1F
100
AcDbEntity
  8
1
  6
CONTINUOUS
370
50
 62
4
100
AcDbLine
 10
37.75
 20
-0.076234
 30
0.0
 11
37.756855
 21
-0.075352
 31
0.0
  0
LINE
  5
4B5
330
1F
100
AcDbEntity
  8
1
  6
CONTINUOUS
370
50
 62
4
100
AcDbLine
 10
37.756855
 20
-0.075352
 30
0.0
 11
37.763622
 21
-0.074168
 31
0.0
  0
LINE
  5
4B6
330
1F
100
AcDbEntity
  8
1
  6
CONTINUOUS
370
50
 62
4
100
AcDbLine
 10
36.738049
 20
0.255502
 30
0.0
 11
36.743275
 21
0.256433
 31
0.0
  0
LINE
  5
4B7
330
1F
100
AcDbEntity
  8
1
  6
CONTINUOUS
370
50
 62
4
100
AcDbLine
 10
37.763622
 20
-0.074168
 30
0.0
 11
37.77029
 21
-0.072695
 31
0.0
  0
LINE
  5
4B8
330
1F
100
AcDbEntity
  8
1
  6
CONTINUOUS
370
50
 62
4
100
AcDbLine
 10
37.746494
 20
-0.249962
 30
0.0
 11
37.746536
 21
-0.249951
 31
0.0
  0
LINE
  5
4B9
330
1F
100
AcDbEntity
  8
1
  6
CONTINUOUS
370
50
 62
4
100
AcDbLine
 10
32.200001
 20
-1.5
 30
0.0
 11
36.900002
 21
-0.25
 31
0.0
  0
LINE
  5
4BA
330
1F
100
AcDbEntity
  8
1
  6
CONTINUOUS
370
50
 62
4
100
AcDbLine
 10
37.77029
 20
-0.072695
 30
0.0
 11
37.776852
 21
-0.070947
 31
0.0
  0
LINE
  5
4BB
330
1F
100
AcDbEntity
  8
1
  6
CONTINUOUS
370
50
 62
4
100
AcDbLine
 10
36.733189
 20
0.254167
 30
0.0
 11
36.738049
 21
0.255502
 31
0.0
  0
LINE
  5
4BC
330
1F
100
AcDbEntity
  8
1
  6
CONTINUOUS
370
50
 62
4
100
AcDbLine
 10
37.749279
 20
0.194276
 30
0.0
 11
37.749424
 21
0.194319
 31
0.0
  0
LINE
  5
4BD
330
1F
100
AcDbEntity
  8
1
  6
CONTINUOUS
370
50
 62
4
100
AcDbLine
 10
37.749565
 20
0.194362
 30
0.0
 11
37.75
 21
0.194491
 31
0.0
  0
LINE
  5
4BE
330
1F
100
AcDbEntity
  8
1
  6
CONTINUOUS
370
50
 62
4
100
AcDbLine
 10
37.749134
 20
0.194232
 30
0.0
 11
37.749279
 21
0.194276
 31
0.0
  0
LINE
  5
4BF
330
1F
100
AcDbEntity
  8
1
  6
CONTINUOUS
370
50
 62
4
100
AcDbLine
 10
37.749424
 20
0.194319
 30
0.0
 11
37.749565
 21
0.194362
 31
0.0
  0
LINE
  5
4C0
330
1F
100
AcDbEntity
  8
1
  6
CONTINUOUS
370
50
 62
4
100
AcDbLine
 10
37.776852
 20
-0.070947
 30
0.0
 11
37.78329799999999
 21
-0.068936
 31
0.0
  0
LINE
  5
4C1
330
1F
100
AcDbEntity
  8
1
  6
CONTINUOUS
370
50
 62
4
100
AcDbLine
 10
37.70966
 20
0.073897
 30
0.0
 11
37.715633
 21
0.075847
 31
0.0
  0
LINE
  5
4C2
330
1F
100
AcDbEntity
  8
1
  6
CONTINUOUS
370
50
 62
4
100
AcDbLine
 10
37.715633
 20
0.075847
 30
0.0
 11
37.721577
 21
0.077897
 31
0.0
  0
LINE
  5
4C3
330
1F
100
AcDbEntity
  8
1
  6
CONTINUOUS
370
50
 62
4
100
AcDbLine
 10
37.78329799999999
 20
-0.068936
 30
0.0
 11
37.789616
 21
-0.066676
 31
0.0
  0
LINE
  5
4C4
330
1F
100
AcDbEntity
  8
1
  6
CONTINUOUS
370
50
 62
4
100
AcDbLine
 10
37.721577
 20
0.077897
 30
0.0
 11
37.727467
 21
0.080048
 31
0.0
  0
LINE
  5
4C5
330
1F
100
AcDbEntity
  8
1
  6
CONTINUOUS
370
50
 62
4
100
AcDbLine
 10
37.727467
 20
0.080048
 30
0.0
 11
37.733276
 21
0.082303
 31
0.0
  0
LINE
  5
4C6
330
1F
100
AcDbEntity
  8
1
  6
CONTINUOUS
370
50
 62
4
100
AcDbLine
 10
37.746536
 20
-0.249951
 30
0.0
 11
37.746582
 21
-0.249933
 31
0.0
  0
LINE
  5
4C7
330
1F
100
AcDbEntity
  8
1
  6
CONTINUOUS
370
50
 62
4
100
AcDbLine
 10
37.789616
 20
-0.066676
 30
0.0
 11
37.795799
 21
-0.064179
 31
0.0
  0
LINE
  5
4C8
330
1F
100
AcDbEntity
  8
1
  6
CONTINUOUS
370
50
 62
4
100
AcDbLine
 10
37.733276
 20
0.082303
 30
0.0
 11
37.738987
 21
0.084663
 31
0.0
  0
LINE
  5
4C9
330
1F
100
AcDbEntity
  8
1
  6
CONTINUOUS
370
50
 62
4
100
AcDbLine
 10
36.728981
 20
0.252334
 30
0.0
 11
36.733189
 21
0.254167
 31
0.0
  0
LINE
  5
4CA
330
1F
100
AcDbEntity
  8
1
  6
CONTINUOUS
370
50
 62
4
100
AcDbLine
 10
37.738987
 20
0.084663
 30
0.0
 11
37.744568
 21
0.08713
 31
0.0
  0
LINE
  5
4CB
330
1F
100
AcDbEntity
  8
1
  6
CONTINUOUS
370
50
 62
4
100
AcDbLine
 10
37.795799
 20
-0.064179
 30
0.0
 11
37.801834
 21
-0.061458
 31
0.0
  0
LINE
  5
4CC
330
1F
100
AcDbEntity
  8
1
  6
CONTINUOUS
370
50
 62
4
100
AcDbLine
 10
37.744568
 20
0.08713
 30
0.0
 11
37.75
 21
0.089706
 31
0.0
  0
LINE
  5
4CD
330
1F
100
AcDbEntity
  8
1
  6
CONTINUOUS
370
50
 62
4
100
AcDbLine
 10
37.75
 20
0.087505
 30
0.0
 11
37.752869
 21
0.088886
 31
0.0
  0
LINE
  5
4CE
330
1F
100
AcDbEntity
  8
1
  6
CONTINUOUS
370
50
 62
4
100
AcDbLine
 10
37.801834
 20
-0.061458
 30
0.0
 11
37.807713
 21
-0.058526
 31
0.0
  0
LINE
  5
4CF
330
1F
100
AcDbEntity
  8
1
  6
CONTINUOUS
370
50
 62
4
100
AcDbLine
 10
37.752869
 20
0.088886
 30
0.0
 11
37.755741
 21
0.090326
 31
0.0
  0
LINE
  5
4D0
330
1F
100
AcDbEntity
  8
1
  6
CONTINUOUS
370
50
 62
4
100
AcDbLine
 10
37.755741
 20
0.090326
 30
0.0
 11
37.75861
 21
0.091824
 31
0.0
  0
LINE
  5
4D1
330
1F
100
AcDbEntity
  8
1
  6
CONTINUOUS
370
50
 62
4
100
AcDbLine
 10
37.75861
 20
0.091824
 30
0.0
 11
37.761463
 21
0.093381
 31
0.0
  0
LINE
  5
4D2
330
1F
100
AcDbEntity
  8
1
  6
CONTINUOUS
370
50
 62
4
100
AcDbLine
 10
37.807713
 20
-0.058526
 30
0.0
 11
37.813423
 21
-0.055397
 31
0.0
  0
LINE
  5
4D3
330
1F
100
AcDbEntity
  8
1
  6
CONTINUOUS
370
50
 62
4
100
AcDbLine
 10
37.749134
 20
0.238609
 30
0.0
 11
37.75
 21
0.239093
 31
0.0
  0
LINE
  5
4D4
330
1F
100
AcDbEntity
  8
1
  6
CONTINUOUS
370
50
 62
4
100
AcDbLine
 10
37.746582
 20
-0.249933
 30
0.0
 11
37.746624
 21
-0.249909
 31
0.0
  0
LINE
  5
4D5
330
1F
100
AcDbEntity
  8
1
  6
CONTINUOUS
370
50
 62
4
100
AcDbLine
 10
37.761463
 20
0.093381
 30
0.0
 11
37.764286
 21
0.094999
 31
0.0
  0
LINE
  5
4D6
330
1F
100
AcDbEntity
  8
1
  6
CONTINUOUS
370
50
 62
4
100
AcDbLine
 10
37.813423
 20
-0.055397
 30
0.0
 11
37.818943
 21
-0.052087
 31
0.0
  0
LINE
  5
4D7
330
1F
100
AcDbEntity
  8
1
  6
CONTINUOUS
370
50
 62
4
100
AcDbLine
 10
37.764286
 20
0.094999
 30
0.0
 11
37.767078
 21
0.096676
 31
0.0
  0
LINE
  5
4D8
330
1F
100
AcDbEntity
  8
1
  6
CONTINUOUS
370
50
 62
4
100
AcDbLine
 10
37.767078
 20
0.096676
 30
0.0
 11
37.769821
 21
0.098414
 31
0.0
  0
LINE
  5
4D9
330
1F
100
AcDbEntity
  8
1
  6
CONTINUOUS
370
50
 62
4
100
AcDbLine
 10
37.818943
 20
-0.052087
 30
0.0
 11
37.824257
 21
-0.048608
 31
0.0
  0
LINE
  5
4DA
330
1F
100
AcDbEntity
  8
1
  6
CONTINUOUS
370
50
 62
4
100
AcDbLine
 10
37.769821
 20
0.098414
 30
0.0
 11
37.772514
 21
0.100213
 31
0.0
  0
LINE
  5
4DB
330
1F
100
AcDbEntity
  8
1
  6
CONTINUOUS
370
50
 62
4
100
AcDbLine
 10
37.772514
 20
0.100213
 30
0.0
 11
37.775139
 21
0.102074
 31
0.0
  0
LINE
  5
4DC
330
1F
100
AcDbEntity
  8
1
  6
CONTINUOUS
370
50
 62
4
100
AcDbLine
 10
37.824257
 20
-0.048608
 30
0.0
 11
37.82935
 21
-0.044973
 31
0.0
  0
LINE
  5
4DD
330
1F
100
AcDbEntity
  8
1
  6
CONTINUOUS
370
50
 62
4
100
AcDbLine
 10
37.746624
 20
-0.249909
 30
0.0
 11
37.746666
 21
-0.249878
 31
0.0
  0
LINE
  5
4DE
330
1F
100
AcDbEntity
  8
1
  6
CONTINUOUS
370
50
 62
4
100
AcDbLine
 10
37.775139
 20
0.102074
 30
0.0
 11
37.777687
 21
0.103997
 31
0.0
  0
LINE
  5
4DF
330
1F
100
AcDbEntity
  8
1
  6
CONTINUOUS
370
50
 62
4
100
AcDbLine
 10
36.725761
 20
0.249876
 30
0.0
 11
36.728981
 21
0.252334
 31
0.0
  0
LINE
  5
4E0
330
1F
100
AcDbEntity
  8
1
  6
CONTINUOUS
370
50
 62
4
100
AcDbLine
 10
37.82935
 20
-0.044973
 30
0.0
 11
37.834213
 21
-0.041194
 31
0.0
  0
LINE
  5
4E1
330
1F
100
AcDbEntity
  8
1
  6
CONTINUOUS
370
50
 62
4
100
AcDbLine
 10
37.746666
 20
-0.249878
 30
0.0
 11
37.746712
 21
-0.249841
 31
0.0
  0
LINE
  5
4E2
330
1F
100
AcDbEntity
  8
1
  6
CONTINUOUS
370
50
 62
4
100
AcDbLine
 10
37.777687
 20
0.103997
 30
0.0
 11
37.780151
 21
0.105982
 31
0.0
  0
LINE
  5
4E3
330
1F
100
AcDbEntity
  8
1
  6
CONTINUOUS
370
50
 62
4
100
AcDbLine
 10
37.834213
 20
-0.041194
 30
0.0
 11
37.838821
 21
-0.037282
 31
0.0
  0
LINE
  5
4E4
330
1F
100
AcDbEntity
  8
1
  6
CONTINUOUS
370
50
 62
4
100
AcDbLine
 10
37.780151
 20
0.105982
 30
0.0
 11
37.782524
 21
0.10803
 31
0.0
  0
LINE
  5
4E5
330
1F
100
AcDbEntity
  8
1
  6
CONTINUOUS
370
50
 62
4
100
AcDbLine
 10
37.838821
 20
-0.037282
 30
0.0
 11
37.84317
 21
-0.03325
 31
0.0
  0
LINE
  5
4E6
330
1F
100
AcDbEntity
  8
1
  6
CONTINUOUS
370
50
 62
4
100
AcDbLine
 10
37.782524
 20
0.10803
 30
0.0
 11
37.784794
 21
0.110145
 31
0.0
  0
LINE
  5
4E7
330
1F
100
AcDbEntity
  8
1
  6
CONTINUOUS
370
50
 62
4
100
AcDbLine
 10
37.746742
 20
-0.249859
 30
0.0
 11
37.75
 21
-0.246632
 31
0.0
  0
LINE
  5
4E8
330
1F
100
AcDbEntity
  8
1
  6
CONTINUOUS
370
50
 62
4
100
AcDbLine
 10
37.75
 20
-0.247623
 30
0.0
 11
38.0
 21
0.0
 31
0.0
  0
LINE
  5
4E9
330
1F
100
AcDbEntity
  8
1
  6
CONTINUOUS
370
50
 62
4
100
AcDbLine
 10
37.784794
 20
0.110145
 30
0.0
 11
37.786964
 21
0.112337
 31
0.0
  0
LINE
  5
4EA
330
1F
100
AcDbEntity
  8
1
  6
CONTINUOUS
370
50
 62
4
100
AcDbLine
 10
37.84317
 20
-0.03325
 30
0.0
 11
37.84726
 21
-0.029093
 31
0.0
  0
LINE
  5
4EB
330
1F
100
AcDbEntity
  8
1
  6
CONTINUOUS
370
50
 62
4
100
AcDbLine
 10
37.746712
 20
-0.249841
 30
0.0
 11
37.746754
 21
-0.249797
 31
0.0
  0
LINE
  5
4EC
330
1F
100
AcDbEntity
  8
1
  6
CONTINUOUS
370
50
 62
4
100
AcDbLine
 10
37.786964
 20
0.112337
 30
0.0
 11
37.789021
 21
0.11461
 31
0.0
  0
LINE
  5
4ED
330
1F
100
AcDbEntity
  8
1
  6
CONTINUOUS
370
50
 62
4
100
AcDbLine
 10
37.84726
 20
-0.029093
 30
0.0
 11
37.851177
 21
-0.024692
 31
0.0
  0
LINE
  5
4EE
330
1F
100
AcDbEntity
  8
1
  6
CONTINUOUS
370
50
 62
4
100
AcDbLine
 10
37.789021
 20
0.11461
 30
0.0
 11
37.790947
 21
0.116963
 31
0.0
  0
LINE
  5
4EF
330
1F
100
AcDbEntity
  8
1
  6
CONTINUOUS
370
50
 62
4
100
AcDbLine
 10
37.851177
 20
-0.024692
 30
0.0
 11
37.854893
 21
-0.020023
 31
0.0
  0
LINE
  5
4F0
330
1F
100
AcDbEntity
  8
1
  6
CONTINUOUS
370
50
 62
4
100
AcDbLine
 10
37.790947
 20
0.116963
 30
0.0
 11
37.79273999999999
 21
0.119396
 31
0.0
  0
LINE
  5
4F1
330
1F
100
AcDbEntity
  8
1
  6
CONTINUOUS
370
50
 62
4
100
AcDbLine
 10
37.854893
 20
-0.020023
 30
0.0
 11
37.858353
 21
-0.015087
 31
0.0
  0
LINE
  5
4F2
330
1F
100
AcDbEntity
  8
1
  6
CONTINUOUS
370
50
 62
4
100
AcDbLine
 10
37.79273999999999
 20
0.119396
 30
0.0
 11
37.794376
 21
0.121912
 31
0.0
  0
LINE
  5
4F3
330
1F
100
AcDbEntity
  8
1
  6
CONTINUOUS
370
50
 62
4
100
AcDbLine
 10
37.858353
 20
-0.015087
 30
0.0
 11
37.8615
 21
-0.009886
 31
0.0
  0
LINE
  5
4F4
330
1F
100
AcDbEntity
  8
1
  6
CONTINUOUS
370
50
 62
4
100
AcDbLine
 10
37.794376
 20
0.121912
 30
0.0
 11
37.795849
 21
0.124509
 31
0.0
  0
LINE
  5
4F5
330
1F
100
AcDbEntity
  8
1
  6
CONTINUOUS
370
50
 62
4
100
AcDbLine
 10
36.723988
 20
0.246669
 30
0.0
 11
36.725761
 21
0.249876
 31
0.0
  0
LINE
  5
4F6
330
1F
100
AcDbEntity
  8
1
  6
CONTINUOUS
370
50
 62
4
100
AcDbLine
 10
37.8615
 20
-0.009886
 30
0.0
 11
37.864277
 21
-0.004426
 31
0.0
  0
LINE
  5
4F7
330
1F
100
AcDbEntity
  8
1
  6
CONTINUOUS
370
50
 62
4
100
AcDbLine
 10
37.795849
 20
0.124509
 30
0.0
 11
37.797138
 21
0.127188
 31
0.0
  0
LINE
  5
4F8
330
1F
100
AcDbEntity
  8
1
  6
CONTINUOUS
370
50
 62
4
100
AcDbLine
 10
37.864277
 20
-0.004426
 30
0.0
 11
37.866615
 21
0.001281
 31
0.0
  0
LINE
  5
4F9
330
1F
100
AcDbEntity
  8
1
  6
CONTINUOUS
370
50
 62
4
100
AcDbLine
 10
37.797138
 20
0.127188
 30
0.0
 11
37.798225
 21
0.129921
 31
0.0
  0
LINE
  5
4FA
330
1F
100
AcDbEntity
  8
1
  6
CONTINUOUS
370
50
 62
4
100
AcDbLine
 10
37.798225
 20
0.129921
 30
0.0
 11
37.799103
 21
0.132699
 31
0.0
  0
LINE
  5
4FB
330
1F
100
AcDbEntity
  8
1
  6
CONTINUOUS
370
50
 62
4
100
AcDbLine
 10
37.799103
 20
0.132699
 30
0.0
 11
37.799763
 21
0.135523
 31
0.0
  0
LINE
  5
4FC
330
1F
100
AcDbEntity
  8
1
  6
CONTINUOUS
370
50
 62
4
100
AcDbLine
 10
37.799763
 20
0.135523
 30
0.0
 11
37.800198
 21
0.138378
 31
0.0
  0
LINE
  5
4FD
330
1F
100
AcDbEntity
  8
1
  6
CONTINUOUS
370
50
 62
4
100
AcDbLine
 10
37.800198
 20
0.138378
 30
0.0
 11
37.800415
 21
0.141236
 31
0.0
  0
LINE
  5
4FE
330
1F
100
AcDbEntity
  8
1
  6
CONTINUOUS
370
50
 62
4
100
AcDbLine
 10
32.200001
 20
-1.5
 30
0.0
 11
32.200001
 21
1.5
 31
0.0
  0
LINE
  5
4FF
330
1F
100
AcDbEntity
  8
1
  6
CONTINUOUS
370
50
 62
4
100
AcDbLine
 10
36.900002
 20
-0.25
 30
0.0
 11
36.900002
 21
0.157516
 31
0.0
  0
LINE
  5
500
330
1F
100
AcDbEntity
  8
1
  6
CONTINUOUS
370
50
 62
4
100
AcDbLine
 10
36.900002
 20
0.239281
 30
0.0
 11
36.900002
 21
0.25
 31
0.0
  0
LINE
  5
501
330
1F
100
AcDbEntity
  8
1
  6
CONTINUOUS
370
50
 62
4
100
AcDbLine
 10
37.327202
 20
0.006481
 30
0.0
 11
37.327202
 21
0.071642
 31
0.0
  0
LINE
  5
502
330
1F
100
AcDbEntity
  8
1
  6
CONTINUOUS
370
50
 62
4
100
AcDbLine
 10
37.329201
 20
0.071337
 30
0.0
 11
37.329201
 21
0.239492
 31
0.0
  0
LINE
  5
503
330
1F
100
AcDbEntity
  8
1
  6
CONTINUOUS
370
50
 62
4
100
AcDbLine
 10
37.749134
 20
0.194232
 30
0.0
 11
37.749134
 21
0.238609
 31
0.0
  0
LINE
  5
504
330
1F
100
AcDbEntity
  8
1
  6
CONTINUOUS
370
50
 62
4
100
AcDbLine
 10
37.75
 20
-0.247623
 30
0.0
 11
37.75
 21
0.247623
 31
0.0
  0
LINE
  5
505
330
1F
100
AcDbEntity
  8
CUT
  6
CONTINUOUS
370
25
 62
1
100
AcDbLine
 10
37.75
 20
0.0
 30
0.0
 11
38.0
 21
0.0
 31
0.0
  0
LINE
  5
506
330
1F
100
AcDbEntity
  8
CUT
  6
CONTINUOUS
370
25
 62
1
100
AcDbLine
 10
38.0
 20
0.0
 30
0.0
 11
37.75
 21
0.25
 31
0.0
  0
LINE
  5
507
330
1F
100
AcDbEntity
  8
CUT
  6
CONTINUOUS
370
25
 62
1
100
AcDbLine
 10
37.75
 20
0.25
 30
0.0
 11
37.75
 21
0.0
 31
0.0
  0
LINE
  5
508
330
1F
100
AcDbEntity
  8
NOCUT
  6
CONTINUOUS
370
25
 62
7
100
AcDbLine
 10
32.2
 20
0.0
 30
0.0
 11
37.75
 21
0.0
 31
0.0
  0
LINE
  5
509
330
1F
100
AcDbEntity
  8
NOCUT
  6
CONTINUOUS
370
25
 62
7
100
AcDbLine
 10
37.75
 20
0.0
 30
0.0
 11
37.75
 21
0.2505
 31
0.0
  0
LINE
  5
50A
330
1F
100
AcDbEntity
  8
NOCUT
  6
CONTINUOUS
370
25
 62
7
100
AcDbLine
 10
37.75
 20
0.2505
 30
0.0
 11
37.74913397459622
 21
0.25
 31
0.0
  0
LINE
  5
50B
330
1F
100
AcDbEntity
  8
NOCUT
  6
CONTINUOUS
370
25
 62
7
100
AcDbLine
 10
37.74913397459622
 20
0.25
 30
0.0
 11
36.90000000000001
 21
0.25
 31
0.0
  0
LINE
  5
50C
330
1F
100
AcDbEntity
  8
NOCUT
  6
CONTINUOUS
370
25
 62
7
100
AcDbLine
 10
36.90000000000001
 20
0.25
 30
0.0
 11
32.2
 21
1.5
 31
0.0
  0
LINE
  5
50D
330
1F
100
AcDbEntity
  8
NOCUT
  6
CONTINUOUS
370
25
 62
7
100
AcDbLine
 10
32.2
 20
1.5
 30
0.0
 11
32.2
 21
0.0
 31
0.0
  0
LINE
  5
50E
330
1F
100
AcDbEntity
  8
NOCUT
  6
CONTINUOUS
370
25
 62
7
100
AcDbLine
 10
37.75
 20
0.25
 30
0.0
 11
37.75
 21
0.0
 31
0.0
  0
LINE
  5
50F
330
1F
100
AcDbEntity
  8
NOCUT
  6
CONTINUOUS
370
25
 62
7
100
AcDbLine
 10
37.75
 20
0.25
 30
0.0
 11
37.75
 21
0.0
 31
0.0
  0
LINE
  5
510
330
1F
100
AcDbEntity
  8
SK1
  6
CONTINUOUS
370
50
 62
4
100
AcDbLine
 10
32.2
 20
1.5
 30
0.0
 11
0.3000000000000007
 21
1.5
 31
0.0
  0
LINE
  5
511
330
1F
100
AcDbEntity
  8
SK1
  6
CONTINUOUS
370
50
 62
4
100
AcDbLine
 10
0.3000000000000007
 20
1.5
 30
0.0
 11
0.0
 21
1.2
 31
0.0
  0
LINE
  5
512
330
1F
100
AcDbEntity
  8
SK1
  6
CONTINUOUS
370
50
 62
4
100
AcDbLine
 10
0.0
 20
1.2
 30
0.0
 11
0.0
 21
-1.2
 31
0.0
  0
LINE
  5
513
330
1F
100
AcDbEntity
  8
SK1
  6
CONTINUOUS
370
50
 62
4
100
AcDbLine
 10
0.0
 20
-1.2
 30
0.0
 11
0.3000000000000007
 21
-1.5
 31
0.0
  0
LINE
  5
514
330
1F
100
AcDbEntity
  8
SK1
  6
CONTINUOUS
370
50
 62
4
100
AcDbLine
 10
0.3000000000000007
 20
-1.5
 30
0.0
 11
32.2
 21
-1.5
 31
0.0
  0
LINE
  5
515
330
1F
100
AcDbEntity
  8
SK1
  6
CONTINUOUS
370
50
 62
4
100
AcDbLine
 10
0.3000000000000007
 20
1.5
 30
0.0
 11
0.3000000000000007
 21
-1.5
 31
0.0
  0
LINE
  5
516
330
1F
100
AcDbEntity
  8
SK2
  6
CONTINUOUS
370
25
 62
7
100
AcDbLine
 10
-12.0000002
 20
-1.500001
 30
0.0
 11
-13.00000000000008
 21
-1.500001
 31
0.0
  0
LINE
  5
517
330
1F
100
AcDbEntity
  8
SK2
  6
CONTINUOUS
370
25
 62
7
100
AcDbLine
 10
0.0
 20
-1.500001
 30
0.0
 11
-11.9999998
 21
-1.500001
 31
0.0
  0
LINE
  5
518
330
1F
100
AcDbEntity
  8
SK2
  6
CONTINUOUS
370
25
 62
7
100
AcDbLine
 10
-13.0
 20
1.5
 30
0.0
 11
0.0
 21
1.5
 31
0.0
  0
LINE
  5
519
330
1F
100
AcDbEntity
  8
SK2
  6
CONTINUOUS
370
25
 62
7
100
AcDbLine
 10
-12.0
 20
-8.5
 30
0.0
 11
-12.0
 21
14.975
 31
0.0
  0
LINE
  5
51A
330
1F
100
AcDbEntity
  8
SK2
  6
CONTINUOUS
370
25
 62
7
100
AcDbLine
 10
-12.0
 20
-1.5
 30
0.0
 11
-11.0
 21
-6.5
 31
0.0
  0
LINE
  5
51B
330
1F
100
AcDbEntity
  8
SK2
  6
CONTINUOUS
370
25
 62
7
100
AcDbLine
 10
-11.0
 20
-6.5
 30
0.0
 11
-13.0
 21
-6.5
 31
0.0
  0
LINE
  5
51C
330
1F
100
AcDbEntity
  8
SK2
  6
CONTINUOUS
370
25
 62
7
100
AcDbLine
 10
-13.0
 20
-6.5
 30
0.0
 11
-12.0
 21
-1.5
 31
0.0
  0
LINE
  5
51D
330
1F
100
AcDbEntity
  8
SK2
  6
CONTINUOUS
370
25
 62
7
100
AcDbLine
 10
-11.21097397793775
 20
-6.5
 30
0.0
 11
-11.03516232965629
 21
-6.32418835171854
 31
0.0
  0
LINE
  5
51E
330
1F
100
AcDbEntity
  8
SK2
  6
CONTINUOUS
370
25
 62
7
100
AcDbLine
 10
-11.63523804664968
 20
-6.5
 30
0.0
 11
-11.10587300777495
 21
-5.970634961125263
 31
0.0
  0
LINE
  5
51F
330
1F
100
AcDbEntity
  8
SK2
  6
CONTINUOUS
370
25
 62
7
100
AcDbLine
 10
-12.05950211536162
 20
-6.5
 30
0.0
 11
-11.17658368589361
 21
-5.617081570531994
 31
0.0
  0
LINE
  5
520
330
1F
100
AcDbEntity
  8
SK2
  6
CONTINUOUS
370
25
 62
7
100
AcDbLine
 10
-12.48376618407355
 20
-6.5
 30
0.0
 11
-11.24729436401226
 21
-5.26352817993871
 31
0.0
  0
LINE
  5
521
330
1F
100
AcDbEntity
  8
SK2
  6
CONTINUOUS
370
25
 62
7
100
AcDbLine
 10
-12.90803025278548
 20
-6.5
 30
0.0
 11
-11.31800504213091
 21
-4.909974789345434
 31
0.0
  0
LINE
  5
522
330
1F
100
AcDbEntity
  8
SK2
  6
CONTINUOUS
370
25
 62
7
100
AcDbLine
 10
-12.91692641962565
 20
-6.084632098128239
 30
0.0
 11
-11.38871572024957
 21
-4.556421398752164
 31
0.0
  0
LINE
  5
523
330
1F
100
AcDbEntity
  8
SK2
  6
CONTINUOUS
370
25
 62
7
100
AcDbLine
 10
-12.81086040244767
 20
-5.554302012238324
 30
0.0
 11
-11.45942639836822
 21
-4.20286800815888
 31
0.0
  0
LINE
  5
524
330
1F
100
AcDbEntity
  8
SK2
  6
CONTINUOUS
370
25
 62
7
100
AcDbLine
 10
-12.70479438526967
 20
-5.023971926348388
 30
0.0
 11
-11.53013707648688
 21
-3.849314617565597
 31
0.0
  0
LINE
  5
525
330
1F
100
AcDbEntity
  8
SK2
  6
CONTINUOUS
370
25
 62
7
100
AcDbLine
 10
-12.59872836809169
 20
-4.49364184045848
 30
0.0
 11
-11.60084775460553
 21
-3.49576122697232
 31
0.0
  0
LINE
  5
526
330
1F
100
AcDbEntity
  8
SK2
  6
CONTINUOUS
370
25
 62
7
100
AcDbLine
 10
-12.49266235091371
 20
-3.963311754568572
 30
0.0
 11
-11.67155843272418
 21
-3.142207836379043
 31
0.0
  0
LINE
  5
527
330
1F
100
AcDbEntity
  8
SK2
  6
CONTINUOUS
370
25
 62
7
100
AcDbLine
 10
-12.38659633373573
 20
-3.432981668678657
 30
0.0
 11
-11.74226911084284
 21
-2.788654445785767
 31
0.0
  0
LINE
  5
528
330
1F
100
AcDbEntity
  8
SK2
  6
CONTINUOUS
370
25
 62
7
100
AcDbLine
 10
-12.28053031655774
 20
-2.902651582788735
 30
0.0
 11
-11.81297978896149
 21
-2.435101055192483
 31
0.0
  0
LINE
  5
529
330
1F
100
AcDbEntity
  8
SK2
  6
CONTINUOUS
370
25
 62
7
100
AcDbLine
 10
-12.17446429937976
 20
-2.372321496898827
 30
0.0
 11
-11.88369046708016
 21
-2.081547664599221
 31
0.0
  0
LINE
  5
52A
330
1F
100
AcDbEntity
  8
SK2
  6
CONTINUOUS
370
25
 62
7
100
AcDbLine
 10
-12.06839828220178
 20
-1.841991411008912
 30
0.0
 11
-11.95440114519881
 21
-1.727994274005944
 31
0.0
  0
LINE
  5
52B
330
1F
100
AcDbEntity
  8
SK2
  6
CONTINUOUS
370
25
 62
7
100
AcDbLine
 10
-12.93668030049761
 20
-6.183401502488024
 30
0.0
 11
-12.62008180298563
 21
-6.5
 31
0.0
  0
LINE
  5
52C
330
1F
100
AcDbEntity
  8
SK2
  6
CONTINUOUS
370
25
 62
7
100
AcDbLine
 10
-12.86596962237896
 20
-5.829848111894755
 30
0.0
 11
-12.19581773427371
 21
-6.5
 31
0.0
  0
LINE
  5
52D
330
1F
100
AcDbEntity
  8
SK2
  6
CONTINUOUS
370
25
 62
7
100
AcDbLine
 10
-12.79525894426029
 20
-5.476294721301485
 30
0.0
 11
-11.77155366556178
 21
-6.5
 31
0.0
  0
LINE
  5
52E
330
1F
100
AcDbEntity
  8
SK2
  6
CONTINUOUS
370
25
 62
7
100
AcDbLine
 10
-12.72454826614164
 20
-5.122741330708202
 30
0.0
 11
-11.34728959684984
 21
-6.5
 31
0.0
  0
LINE
  5
52F
330
1F
100
AcDbEntity
  8
SK2
  6
CONTINUOUS
370
25
 62
7
100
AcDbLine
 10
-12.65383758802298
 20
-4.769187940114932
 30
0.0
 11
-11.01924361796552
 21
-6.403781910172384
 31
0.0
  0
LINE
  5
530
330
1F
100
AcDbEntity
  8
SK2
  6
CONTINUOUS
370
25
 62
7
100
AcDbLine
 10
-12.58312690990433
 20
-4.415634549521641
 30
0.0
 11
-11.1253096351435
 21
-5.873451824282469
 31
0.0
  0
LINE
  5
531
330
1F
100
AcDbEntity
  8
SK2
  6
CONTINUOUS
370
25
 62
7
100
AcDbLine
 10
-12.51241623178568
 20
-4.062081158928365
 30
0.0
 11
-11.23137565232148
 21
-5.343121738392561
 31
0.0
  0
LINE
  5
532
330
1F
100
AcDbEntity
  8
SK2
  6
CONTINUOUS
370
25
 62
7
100
AcDbLine
 10
-12.44170555366701
 20
-3.708527768335102
 30
0.0
 11
-11.33744166949947
 21
-4.812791652502646
 31
0.0
  0
LINE
  5
533
330
1F
100
AcDbEntity
  8
SK2
  6
CONTINUOUS
370
25
 62
7
100
AcDbLine
 10
-12.37099487554836
 20
-3.354974377741826
 30
0.0
 11
-11.44350768667745
 21
-4.282461566612739
 31
0.0
  0
LINE
  5
534
330
1F
100
AcDbEntity
  8
SK2
  6
CONTINUOUS
370
25
 62
7
100
AcDbLine
 10
-12.3002841974297
 20
-3.001420987148556
 30
0.0
 11
-11.54957370385544
 21
-3.752131480722817
 31
0.0
  0
LINE
  5
535
330
1F
100
AcDbEntity
  8
SK2
  6
CONTINUOUS
370
25
 62
7
100
AcDbLine
 10
-12.22957351931105
 20
-2.647867596555265
 30
0.0
 11
-11.65563972103342
 21
-3.221801394832887
 31
0.0
  0
LINE
  5
536
330
1F
100
AcDbEntity
  8
SK2
  6
CONTINUOUS
370
25
 62
7
100
AcDbLine
 10
-12.15886284119239
 20
-2.294314205961996
 30
0.0
 11
-11.7617057382114
 21
-2.691471308942987
 31
0.0
  0
LINE
  5
537
330
1F
100
AcDbEntity
  8
SK2
  6
CONTINUOUS
370
25
 62
7
100
AcDbLine
 10
-12.08815216307374
 20
-1.940760815368719
 30
0.0
 11
-11.86777175538938
 21
-2.161141223053072
 31
0.0
  0
LINE
  5
538
330
1F
100
AcDbEntity
  8
SK2
  6
CONTINUOUS
370
25
 62
7
100
AcDbLine
 10
-12.01744148495509
 20
-1.587207424775443
 30
0.0
 11
-11.97383777256736
 21
-1.630811137163164
 31
0.0
  0
LINE
  5
539
330
1F
100
AcDbEntity
  8
SK2
  6
CONTINUOUS
370
25
 62
7
100
AcDbLine
 10
-12.0
 20
1.5
 30
0.0
 11
-13.0
 21
6.5
 31
0.0
  0
LINE
  5
53A
330
1F
100
AcDbEntity
  8
SK2
  6
CONTINUOUS
370
25
 62
7
100
AcDbLine
 10
-13.0
 20
6.5
 30
0.0
 11
-11.0
 21
6.5
 31
0.0
  0
LINE
  5
53B
330
1F
100
AcDbEntity
  8
SK2
  6
CONTINUOUS
370
25
 62
7
100
AcDbLine
 10
-11.0
 20
6.5
 30
0.0
 11
-12.0
 21
1.5
 31
0.0
  0
LINE
  5
53C
330
1F
100
AcDbEntity
  8
SK2
  6
CONTINUOUS
370
25
 62
7
100
AcDbLine
 10
-12.02008657014805
 20
1.600432850740219
 30
0.0
 11
-11.96987014477793
 21
1.650649276110336
 31
0.0
  0
LINE
  5
53D
330
1F
100
AcDbEntity
  8
SK2
  6
CONTINUOUS
370
25
 62
7
100
AcDbLine
 10
-12.0907972482667
 20
1.953986241333503
 30
0.0
 11
-11.86380412759995
 21
2.180979362000251
 31
0.0
  0
LINE
  5
53E
330
1F
100
AcDbEntity
  8
SK2
  6
CONTINUOUS
370
25
 62
7
100
AcDbLine
 10
-12.16150792638535
 20
2.30753963192678
 30
0.0
 11
-11.75773811042197
 21
2.711309447890159
 31
0.0
  0
LINE
  5
53F
330
1F
100
AcDbEntity
  8
SK2
  6
CONTINUOUS
370
25
 62
7
100
AcDbLine
 10
-12.23221860450401
 20
2.661093022520056
 30
0.0
 11
-11.65167209324399
 21
3.241639533780074
 31
0.0
  0
LINE
  5
540
330
1F
100
AcDbEntity
  8
SK2
  6
CONTINUOUS
370
25
 62
7
100
AcDbLine
 10
-12.30292928262266
 20
3.014646413113333
 30
0.0
 11
-11.545606076066
 21
3.771969619669989
 31
0.0
  0
LINE
  5
541
330
1F
100
AcDbEntity
  8
SK2
  6
CONTINUOUS
370
25
 62
7
100
AcDbLine
 10
-12.37363996074132
 20
3.368199803706602
 30
0.0
 11
-11.43954005888802
 21
4.302299705559903
 31
0.0
  0
LINE
  5
542
330
1F
100
AcDbEntity
  8
SK2
  6
CONTINUOUS
370
25
 62
7
100
AcDbLine
 10
-12.44435063885997
 20
3.721753194299879
 30
0.0
 11
-11.33347404171003
 21
4.832629791449818
 31
0.0
  0
LINE
  5
543
330
1F
100
AcDbEntity
  8
SK2
  6
CONTINUOUS
370
25
 62
7
100
AcDbLine
 10
-12.51506131697863
 20
4.075306584893148
 30
0.0
 11
-11.22740802453205
 21
5.362959877339733
 31
0.0
  0
LINE
  5
544
330
1F
100
AcDbEntity
  8
SK2
  6
CONTINUOUS
370
25
 62
7
100
AcDbLine
 10
-12.58577199509729
 20
4.428859975486418
 30
0.0
 11
-11.12134200735407
 21
5.893289963229641
 31
0.0
  0
LINE
  5
545
330
1F
100
AcDbEntity
  8
SK2
  6
CONTINUOUS
370
25
 62
7
100
AcDbLine
 10
-12.65648267321594
 20
4.782413366079709
 30
0.0
 11
-11.01527599017609
 21
6.423620049119556
 31
0.0
  0
LINE
  5
546
330
1F
100
AcDbEntity
  8
SK2
  6
CONTINUOUS
370
25
 62
7
100
AcDbLine
 10
-12.72719335133459
 20
5.135966756672993
 30
0.0
 11
-11.36316010800758
 21
6.5
 31
0.0
  0
LINE
  5
547
330
1F
100
AcDbEntity
  8
SK2
  6
CONTINUOUS
370
25
 62
7
100
AcDbLine
 10
-12.79790402945325
 20
5.489520147266262
 30
0.0
 11
-11.78742417671951
 21
6.5
 31
0.0
  0
LINE
  5
548
330
1F
100
AcDbEntity
  8
SK2
  6
CONTINUOUS
370
25
 62
7
100
AcDbLine
 10
-12.86861470757191
 20
5.843073537859539
 30
0.0
 11
-12.21168824543145
 21
6.5
 31
0.0
  0
LINE
  5
549
330
1F
100
AcDbEntity
  8
SK2
  6
CONTINUOUS
370
25
 62
7
100
AcDbLine
 10
-12.93932538569057
 20
6.196626928452801
 30
0.0
 11
-12.63595231414337
 21
6.5
 31
0.0
  0
LINE
  5
54A
330
1F
100
AcDbEntity
  8
SK2
  6
CONTINUOUS
370
25
 62
7
100
AcDbLine
 10
-12.04185725722789
 20
1.709286286139466
 30
0.0
 11
-11.97209516184807
 21
1.639524190759651
 31
0.0
  0
LINE
  5
54B
330
1F
100
AcDbEntity
  8
SK2
  6
CONTINUOUS
370
25
 62
7
100
AcDbLine
 10
-12.14792327440587
 20
2.239616372029381
 30
0.0
 11
-11.90138448372941
 21
1.993077581352921
 31
0.0
  0
LINE
  5
54C
330
1F
100
AcDbEntity
  8
SK2
  6
CONTINUOUS
370
25
 62
7
100
AcDbLine
 10
-12.25398929158386
 20
2.769946457919303
 30
0.0
 11
-11.83067380561076
 21
2.346630971946205
 31
0.0
  0
LINE
  5
54D
330
1F
100
AcDbEntity
  8
SK2
  6
CONTINUOUS
370
25
 62
7
100
AcDbLine
 10
-12.36005530876184
 20
3.300276543809211
 30
0.0
 11
-11.7599631274921
 21
2.700184362539474
 31
0.0
  0
LINE
  5
54E
330
1F
100
AcDbEntity
  8
SK2
  6
CONTINUOUS
370
25
 62
7
100
AcDbLine
 10
-12.46612132593982
 20
3.830606629699126
 30
0.0
 11
-11.68925244937345
 21
3.053737753132758
 31
0.0
  0
LINE
  5
54F
330
1F
100
AcDbEntity
  8
SK2
  6
CONTINUOUS
370
25
 62
7
100
AcDbLine
 10
-12.5721873431178
 20
4.360936715589041
 30
0.0
 11
-11.6185417712548
 21
3.407291143726034
 31
0.0
  0
LINE
  5
550
330
1F
100
AcDbEntity
  8
SK2
  6
CONTINUOUS
370
25
 62
7
100
AcDbLine
 10
-12.67825336029579
 20
4.891266801478963
 30
0.0
 11
-11.54783109313613
 21
3.760844534319304
 31
0.0
  0
LINE
  5
551
330
1F
100
AcDbEntity
  8
SK2
  6
CONTINUOUS
370
25
 62
7
100
AcDbLine
 10
-12.78431937747377
 20
5.421596887368871
 30
0.0
 11
-11.47712041501748
 21
4.114397924912581
 31
0.0
  0
LINE
  5
552
330
1F
100
AcDbEntity
  8
SK2
  6
CONTINUOUS
370
25
 62
7
100
AcDbLine
 10
-12.89038539465175
 20
5.951926973258786
 30
0.0
 11
-11.40640973689882
 21
4.467951315505857
 31
0.0
  0
LINE
  5
553
330
1F
100
AcDbEntity
  8
SK2
  6
CONTINUOUS
370
25
 62
7
100
AcDbLine
 10
-12.99645141182974
 20
6.482257059148701
 30
0.0
 11
-11.33569905878017
 21
4.821504706099134
 31
0.0
  0
LINE
  5
554
330
1F
100
AcDbEntity
  8
SK2
  6
CONTINUOUS
370
25
 62
7
100
AcDbLine
 10
-12.5899302839691
 20
6.5
 30
0.0
 11
-11.26498838066151
 21
5.175058096692403
 31
0.0
  0
LINE
  5
555
330
1F
100
AcDbEntity
  8
SK2
  6
CONTINUOUS
370
25
 62
7
100
AcDbLine
 10
-12.16566621525718
 20
6.5
 30
0.0
 11
-11.19427770254286
 21
5.52861148728568
 31
0.0
  0
LINE
  5
556
330
1F
100
AcDbEntity
  8
SK2
  6
CONTINUOUS
370
25
 62
7
100
AcDbLine
 10
-11.74140214654524
 20
6.5
 30
0.0
 11
-11.1235670244242
 21
5.882164877878964
 31
0.0
  0
LINE
  5
557
330
1F
100
AcDbEntity
  8
SK2
  6
CONTINUOUS
370
25
 62
7
100
AcDbLine
 10
-11.31713807783331
 20
6.5
 30
0.0
 11
-11.05285634630555
 21
6.235718268472233
 31
0.0
  0
TEXT
  5
558
330
1F
100
AcDbEntity
  8
SK2
  6
CONTINUOUS
370
25
 62
7
100
AcDbText
 10
-13.5
 20
11.84583333333333
 30
0.0
 40
3.5
  1
3
 50
90.00000000000001
 72
     1
 11
-13.5
 21
13.0125
 31
0.0
100
AcDbText
  0
CIRCLE
  5
559
330
1F
100
AcDbEntity
  8
SK2
  6
CONTINUOUS
370
25
 62
7
100
AcDbCircle
 10
-15.25
 20
9.6875
 30
0.0
 40
1.4
  0
LINE
  5
55A
330
1F
100
AcDbEntity
  8
SK2
  6
CONTINUOUS
370
25
 62
7
100
AcDbLine
 10
-13.85
 20
8.287500000000001
 30
0.0
 11
-16.65
 21
11.0875
 31
0.0
  0
LINE
  5
55B
330
1F
100
AcDbEntity
  8
SK2
  6
CONTINUOUS
370
25
 62
7
100
AcDbLine
 10
0.0
 20
1.5
 30
0.0
 11
0.0
 21
14.50001
 31
0.0
  0
LINE
  5
55C
330
1F
100
AcDbEntity
  8
SK2
  6
CONTINUOUS
370
25
 62
7
100
AcDbLine
 10
32.2
 20
14.50001
 30
0.0
 11
32.2
 21
1.5
 31
0.0
  0
LINE
  5
55D
330
1F
100
AcDbEntity
  8
SK2
  6
CONTINUOUS
370
25
 62
7
100
AcDbLine
 10
0.0
 20
13.50001
 30
0.0
 11
32.2
 21
13.50001
 31
0.0
  0
LINE
  5
55E
330
1F
100
AcDbEntity
  8
SK2
  6
CONTINUOUS
370
25
 62
7
100
AcDbLine
 10
0.0
 20
13.50001
 30
0.0
 11
5.0
 21
14.50001
 31
0.0
  0
LINE
  5
55F
330
1F
100
AcDbEntity
  8
SK2
  6
CONTINUOUS
370
25
 62
7
100
AcDbLine
 10
5.0
 20
14.50001
 30
0.0
 11
5.0
 21
12.50001
 31
0.0
  0
LINE
  5
560
330
1F
100
AcDbEntity
  8
SK2
  6
CONTINUOUS
370
25
 62
7
100
AcDbLine
 10
5.0
 20
12.50001
 30
0.0
 11
0.0
 21
13.50001
 31
0.0
  0
LINE
  5
561
330
1F
100
AcDbEntity
  8
SK2
  6
CONTINUOUS
370
25
 62
7
100
AcDbLine
 10
4.849322950898951
 20
12.53014540982021
 30
0.0
 11
5.0
 21
12.68082245892126
 31
0.0
  0
LINE
  5
562
330
1F
100
AcDbEntity
  8
SK2
  6
CONTINUOUS
370
25
 62
7
100
AcDbLine
 10
4.495769560305675
 20
12.60085608793887
 30
0.0
 11
5.0
 21
13.10508652763319
 31
0.0
  0
LINE
  5
563
330
1F
100
AcDbEntity
  8
SK2
  6
CONTINUOUS
370
25
 62
7
100
AcDbLine
 10
4.142216169712405
 20
12.67156676605752
 30
0.0
 11
5.0
 21
13.52935059634511
 31
0.0
  0
LINE
  5
564
330
1F
100
AcDbEntity
  8
SK2
  6
CONTINUOUS
370
25
 62
7
100
AcDbLine
 10
3.788662779119129
 20
12.74227744417617
 30
0.0
 11
5.0
 21
13.95361466505705
 31
0.0
  0
LINE
  5
565
330
1F
100
AcDbEntity
  8
SK2
  6
CONTINUOUS
370
25
 62
7
100
AcDbLine
 10
3.435109388525856
 20
12.81298812229483
 30
0.0
 11
5.0
 21
14.37787873376897
 31
0.0
  0
LINE
  5
566
330
1F
100
AcDbEntity
  8
SK2
  6
CONTINUOUS
370
25
 62
7
100
AcDbLine
 10
3.081555997932576
 20
12.88369880041348
 30
0.0
 11
4.622333996898867
 21
14.42447679937977
 31
0.0
  0
LINE
  5
567
330
1F
100
AcDbEntity
  8
SK2
  6
CONTINUOUS
370
25
 62
7
100
AcDbLine
 10
2.728002607339302
 20
12.95440947853214
 30
0.0
 11
4.092003911008959
 21
14.31841078220179
 31
0.0
  0
LINE
  5
568
330
1F
100
AcDbEntity
  8
SK2
  6
CONTINUOUS
370
25
 62
7
100
AcDbLine
 10
2.374449216746022
 20
13.02512015665079
 30
0.0
 11
3.561673825119048
 21
14.21234476502381
 31
0.0
  0
LINE
  5
569
330
1F
100
AcDbEntity
  8
SK2
  6
CONTINUOUS
370
25
 62
7
100
AcDbLine
 10
2.020895826152749
 20
13.09583083476945
 30
0.0
 11
3.031343739229136
 21
14.10627874784583
 31
0.0
  0
LINE
  5
56A
330
1F
100
AcDbEntity
  8
SK2
  6
CONTINUOUS
370
25
 62
7
100
AcDbLine
 10
1.667342435559476
 20
13.16654151288811
 30
0.0
 11
2.501013653339214
 21
14.00021273066784
 31
0.0
  0
LINE
  5
56B
330
1F
100
AcDbEntity
  8
SK2
  6
CONTINUOUS
370
25
 62
7
100
AcDbLine
 10
1.313789044966207
 20
13.23725219100676
 30
0.0
 11
1.970683567449314
 21
13.89414671348986
 31
0.0
  0
LINE
  5
56C
330
1F
100
AcDbEntity
  8
SK2
  6
CONTINUOUS
370
25
 62
7
100
AcDbLine
 10
0.9602356543729229
 20
13.30796286912542
 30
0.0
 11
1.440353481559391
 21
13.78808069631188
 31
0.0
  0
LINE
  5
56D
330
1F
100
AcDbEntity
  8
SK2
  6
CONTINUOUS
370
25
 62
7
100
AcDbLine
 10
0.6066822637796534
 20
13.37867354724407
 30
0.0
 11
0.9100233956694872
 21
13.6820146791339
 31
0.0
  0
LINE
  5
56E
330
1F
100
AcDbEntity
  8
SK2
  6
CONTINUOUS
370
25
 62
7
100
AcDbLine
 10
0.2531288731863768
 20
13.44938422536272
 30
0.0
 11
0.3796933097795652
 21
13.57594866195591
 31
0.0
  0
LINE
  5
56F
330
1F
100
AcDbEntity
  8
SK2
  6
CONTINUOUS
370
25
 62
7
100
AcDbLine
 10
0.3405426508697218
 20
13.56811853017395
 30
0.0
 11
0.5108139763045898
 21
13.39784720473908
 31
0.0
  0
LINE
  5
570
330
1F
100
AcDbEntity
  8
SK2
  6
CONTINUOUS
370
25
 62
7
100
AcDbLine
 10
0.6940960414629949
 20
13.63882920829261
 30
0.0
 11
1.041144062194501
 21
13.2917811875611
 31
0.0
  0
LINE
  5
571
330
1F
100
AcDbEntity
  8
SK2
  6
CONTINUOUS
370
25
 62
7
100
AcDbLine
 10
1.047649432056268
 20
13.70953988641126
 30
0.0
 11
1.571474148084405
 21
13.18571517038312
 31
0.0
  0
LINE
  5
572
330
1F
100
AcDbEntity
  8
SK2
  6
CONTINUOUS
370
25
 62
7
100
AcDbLine
 10
1.401202822649541
 20
13.78025056452991
 30
0.0
 11
2.101804233974317
 21
13.07964915320514
 31
0.0
  0
LINE
  5
573
330
1F
100
AcDbEntity
  8
SK2
  6
CONTINUOUS
370
25
 62
7
100
AcDbLine
 10
1.754756213242818
 20
13.85096124264857
 30
0.0
 11
2.632134319864232
 21
12.97358313602715
 31
0.0
  0
LINE
  5
574
330
1F
100
AcDbEntity
  8
SK2
  6
CONTINUOUS
370
25
 62
7
100
AcDbLine
 10
2.108309603836091
 20
13.92167192076722
 30
0.0
 11
3.16246440575414
 21
12.86751711884917
 31
0.0
  0
LINE
  5
575
330
1F
100
AcDbEntity
  8
SK2
  6
CONTINUOUS
370
25
 62
7
100
AcDbLine
 10
2.461862994429367
 20
13.99238259888588
 30
0.0
 11
3.692794491644051
 21
12.76145110167119
 31
0.0
  0
LINE
  5
576
330
1F
100
AcDbEntity
  8
SK2
  6
CONTINUOUS
370
25
 62
7
100
AcDbLine
 10
2.815416385022644
 20
14.06309327700453
 30
0.0
 11
4.223124577533962
 21
12.6553850844932
 31
0.0
  0
LINE
  5
577
330
1F
100
AcDbEntity
  8
SK2
  6
CONTINUOUS
370
25
 62
7
100
AcDbLine
 10
3.168969775615917
 20
14.13380395512318
 30
0.0
 11
4.75345466342387
 21
12.54931906731522
 31
0.0
  0
LINE
  5
578
330
1F
100
AcDbEntity
  8
SK2
  6
CONTINUOUS
370
25
 62
7
100
AcDbLine
 10
3.522523166209194
 20
14.20451463324184
 30
0.0
 11
5.0
 21
12.72703779945102
 31
0.0
  0
LINE
  5
579
330
1F
100
AcDbEntity
  8
SK2
  6
CONTINUOUS
370
25
 62
7
100
AcDbLine
 10
3.876076556802463
 20
14.27522531136049
 30
0.0
 11
5.0
 21
13.15130186816295
 31
0.0
  0
LINE
  5
57A
330
1F
100
AcDbEntity
  8
SK2
  6
CONTINUOUS
370
25
 62
7
100
AcDbLine
 10
4.229629947395733
 20
14.34593598947915
 30
0.0
 11
5.0
 21
13.57556593687488
 31
0.0
  0
LINE
  5
57B
330
1F
100
AcDbEntity
  8
SK2
  6
CONTINUOUS
370
25
 62
7
100
AcDbLine
 10
4.583183337989009
 20
14.4166466675978
 30
0.0
 11
5.0
 21
13.99983000558681
 31
0.0
  0
LINE
  5
57C
330
1F
100
AcDbEntity
  8
SK2
  6
CONTINUOUS
370
25
 62
7
100
AcDbLine
 10
4.936736728582293
 20
14.48735734571645
 30
0.0
 11
5.0
 21
14.42409407429875
 31
0.0
  0
LINE
  5
57D
330
1F
100
AcDbEntity
  8
SK2
  6
CONTINUOUS
370
25
 62
7
100
AcDbLine
 10
32.2
 20
13.50001
 30
0.0
 11
27.2
 21
12.50001
 31
0.0
  0
LINE
  5
57E
330
1F
100
AcDbEntity
  8
SK2
  6
CONTINUOUS
370
25
 62
7
100
AcDbLine
 10
27.2
 20
12.50001
 30
0.0
 11
27.2
 21
14.50001
 31
0.0
  0
LINE
  5
57F
330
1F
100
AcDbEntity
  8
SK2
  6
CONTINUOUS
370
25
 62
7
100
AcDbLine
 10
27.2
 20
14.50001
 30
0.0
 11
32.2
 21
13.50001
 31
0.0
  0
LINE
  5
580
330
1F
100
AcDbEntity
  8
SK2
  6
CONTINUOUS
370
25
 62
7
100
AcDbLine
 10
32.10444975152286
 20
13.48089995030457
 30
0.0
 11
32.13629983434858
 21
13.51275003313028
 31
0.0
  0
LINE
  5
581
330
1F
100
AcDbEntity
  8
SK2
  6
CONTINUOUS
370
25
 62
7
100
AcDbLine
 10
31.57411966563296
 20
13.37483393312659
 30
0.0
 11
31.7827464437553
 21
13.58346071124894
 31
0.0
  0
LINE
  5
582
330
1F
100
AcDbEntity
  8
SK2
  6
CONTINUOUS
370
25
 62
7
100
AcDbLine
 10
31.04378957974304
 20
13.26876791594861
 30
0.0
 11
31.42919305316203
 21
13.65417138936759
 31
0.0
  0
LINE
  5
583
330
1F
100
AcDbEntity
  8
SK2
  6
CONTINUOUS
370
25
 62
7
100
AcDbLine
 10
30.51345949385314
 20
13.16270189877063
 30
0.0
 11
31.07563966256876
 21
13.72488206748625
 31
0.0
  0
LINE
  5
584
330
1F
100
AcDbEntity
  8
SK2
  6
CONTINUOUS
370
25
 62
7
100
AcDbLine
 10
29.98312940796323
 20
13.05663588159264
 30
0.0
 11
30.72208627197548
 21
13.7955927456049
 31
0.0
  0
LINE
  5
585
330
1F
100
AcDbEntity
  8
SK2
  6
CONTINUOUS
370
25
 62
7
100
AcDbLine
 10
29.45279932207332
 20
12.95056986441466
 30
0.0
 11
30.36853288138221
 21
13.86630342372356
 31
0.0
  0
LINE
  5
586
330
1F
100
AcDbEntity
  8
SK2
  6
CONTINUOUS
370
25
 62
7
100
AcDbLine
 10
28.9224692361834
 20
12.84450384723668
 30
0.0
 11
30.01497949078894
 21
13.93701410184221
 31
0.0
  0
LINE
  5
587
330
1F
100
AcDbEntity
  8
SK2
  6
CONTINUOUS
370
25
 62
7
100
AcDbLine
 10
28.3921391502935
 20
12.7384378300587
 30
0.0
 11
29.66142610019566
 21
14.00772477996087
 31
0.0
  0
LINE
  5
588
330
1F
100
AcDbEntity
  8
SK2
  6
CONTINUOUS
370
25
 62
7
100
AcDbLine
 10
27.86180906440359
 20
12.63237181288072
 30
0.0
 11
29.30787270960239
 21
14.07843545807952
 31
0.0
  0
LINE
  5
589
330
1F
100
AcDbEntity
  8
SK2
  6
CONTINUOUS
370
25
 62
7
100
AcDbLine
 10
27.33147897851368
 20
12.52630579570273
 30
0.0
 11
28.95431931900912
 21
14.14914613619818
 31
0.0
  0
LINE
  5
58A
330
1F
100
AcDbEntity
  8
SK2
  6
CONTINUOUS
370
25
 62
7
100
AcDbLine
 10
27.2
 20
12.81909088590099
 30
0.0
 11
28.60076592841585
 21
14.21985681431683
 31
0.0
  0
LINE
  5
58B
330
1F
100
AcDbEntity
  8
SK2
  6
CONTINUOUS
370
25
 62
7
100
AcDbLine
 10
27.2
 20
13.24335495461292
 30
0.0
 11
28.24721253782257
 21
14.29056749243549
 31
0.0
  0
LINE
  5
58C
330
1F
100
AcDbEntity
  8
SK2
  6
CONTINUOUS
370
25
 62
7
100
AcDbLine
 10
27.2
 20
13.66761902332484
 30
0.0
 11
27.8936591472293
 21
14.36127817055414
 31
0.0
  0
LINE
  5
58D
330
1F
100
AcDbEntity
  8
SK2
  6
CONTINUOUS
370
25
 62
7
100
AcDbLine
 10
27.2
 20
14.09188309203677
 30
0.0
 11
27.54010575663603
 21
14.43198884867279
 31
0.0
  0
LINE
  5
58E
330
1F
100
AcDbEntity
  8
SK2
  6
CONTINUOUS
370
25
 62
7
100
AcDbLine
 10
27.2
 20
12.63675323681471
 30
0.0
 11
27.3139526973456
 21
12.52280053946912
 31
0.0
  0
LINE
  5
58F
330
1F
100
AcDbEntity
  8
SK2
  6
CONTINUOUS
370
25
 62
7
100
AcDbLine
 10
27.2
 20
13.06101730552664
 30
0.0
 11
27.66750608793887
 21
12.59351121758777
 31
0.0
  0
LINE
  5
590
330
1F
100
AcDbEntity
  8
SK2
  6
CONTINUOUS
370
25
 62
7
100
AcDbLine
 10
27.2
 20
13.48528137423857
 30
0.0
 11
28.02105947853214
 21
12.66422189570643
 31
0.0
  0
LINE
  5
591
330
1F
100
AcDbEntity
  8
SK2
  6
CONTINUOUS
370
25
 62
7
100
AcDbLine
 10
27.2
 20
13.9095454429505
 30
0.0
 11
28.37461286912542
 21
12.73493257382508
 31
0.0
  0
LINE
  5
592
330
1F
100
AcDbEntity
  8
SK2
  6
CONTINUOUS
370
25
 62
7
100
AcDbLine
 10
27.2
 20
14.33380951166242
 30
0.0
 11
28.72816625971869
 21
12.80564325194374
 31
0.0
  0
LINE
  5
593
330
1F
100
AcDbEntity
  8
SK2
  6
CONTINUOUS
370
25
 62
7
100
AcDbLine
 10
27.52257947546794
 20
14.43549410490641
 30
0.0
 11
29.08171965031196
 21
12.87635393006239
 31
0.0
  0
LINE
  5
594
330
1F
100
AcDbEntity
  8
SK2
  6
CONTINUOUS
370
25
 62
7
100
AcDbLine
 10
28.05290956135785
 20
14.32942808772843
 30
0.0
 11
29.43527304090524
 21
12.94706460818105
 31
0.0
  0
LINE
  5
595
330
1F
100
AcDbEntity
  8
SK2
  6
CONTINUOUS
370
25
 62
7
100
AcDbLine
 10
28.58323964724776
 20
14.22336207055045
 30
0.0
 11
29.78882643149851
 21
13.0177752862997
 31
0.0
  0
LINE
  5
596
330
1F
100
AcDbEntity
  8
SK2
  6
CONTINUOUS
370
25
 62
7
100
AcDbLine
 10
29.11356973313767
 20
14.11729605337247
 30
0.0
 11
30.14237982209179
 21
13.08848596441836
 31
0.0
  0
LINE
  5
597
330
1F
100
AcDbEntity
  8
SK2
  6
CONTINUOUS
370
25
 62
7
100
AcDbLine
 10
29.64389981902758
 20
14.01123003619448
 30
0.0
 11
30.49593321268506
 21
13.15919664253701
 31
0.0
  0
LINE
  5
598
330
1F
100
AcDbEntity
  8
SK2
  6
CONTINUOUS
370
25
 62
7
100
AcDbLine
 10
30.1742299049175
 20
13.9051640190165
 30
0.0
 11
30.84948660327833
 21
13.22990732065567
 31
0.0
  0
LINE
  5
599
330
1F
100
AcDbEntity
  8
SK2
  6
CONTINUOUS
370
25
 62
7
100
AcDbLine
 10
30.7045599908074
 20
13.79909800183852
 30
0.0
 11
31.20303999387161
 21
13.30061799877432
 31
0.0
  0
LINE
  5
59A
330
1F
100
AcDbEntity
  8
SK2
  6
CONTINUOUS
370
25
 62
7
100
AcDbLine
 10
31.23489007669732
 20
13.69303198466054
 30
0.0
 11
31.55659338446488
 21
13.37132867689298
 31
0.0
  0
LINE
  5
59B
330
1F
100
AcDbEntity
  8
SK2
  6
CONTINUOUS
370
25
 62
7
100
AcDbLine
 10
31.76522016258723
 20
13.58696596748256
 30
0.0
 11
31.91014677505815
 21
13.44203935501163
 31
0.0
  0
TEXT
  5
59C
330
1F
100
AcDbEntity
  8
SK2
  6
CONTINUOUS
370
25
 62
7
100
AcDbText
 10
10.85
 20
15.00001
 30
0.0
 40
3.5
  1
32.2
 72
     1
 11
16.1
 21
15.00001
 31
0.0
100
AcDbText
  0
LINE
  5
59D
330
1F
100
AcDbEntity
  8
2
  6
CONTINUOUS
370
25
 62
7
100
AcDbLine
 10
37.75
 20
-0.25
 30
0.0
 11
71.0
 21
-0.2500000000000041
 31
0.0
  0
LINE
  5
59E
330
1F
100
AcDbEntity
  8
2
  6
CONTINUOUS
370
25
 62
7
100
AcDbLine
 10
71.0
 20
0.249999999999996
 30
0.0
 11
37.75
 21
0.25
 31
0.0
  0
LINE
  5
59F
330
1F
100
AcDbEntity
  8
2
  6
CONTINUOUS
370
25
 62
7
100
AcDbLine
 10
70.0
 20
-7.250000000000004
 30
0.0
 11
70.0
 21
19.67499999999999
 31
0.0
  0
LINE
  5
5A0
330
1F
100
AcDbEntity
  8
2
  6
CONTINUOUS
370
25
 62
7
100
AcDbLine
 10
70.0
 20
-0.2500000000000039
 30
0.0
 11
71.0
 21
-5.250000000000004
 31
0.0
  0
LINE
  5
5A1
330
1F
100
AcDbEntity
  8
2
  6
CONTINUOUS
370
25
 62
7
100
AcDbLine
 10
71.0
 20
-5.250000000000004
 30
0.0
 11
69.0
 21
-5.250000000000004
 31
0.0
  0
LINE
  5
5A2
330
1F
100
AcDbEntity
  8
2
  6
CONTINUOUS
370
25
 62
7
100
AcDbLine
 10
69.0
 20
-5.250000000000004
 30
0.0
 11
70.0
 21
-0.2500000000000039
 31
0.0
  0
LINE
  5
5A3
330
1F
100
AcDbEntity
  8
2
  6
CONTINUOUS
370
25
 62
7
100
AcDbLine
 10
70.60683503980036
 20
-5.25
 30
0.0
 11
70.9344725066334
 21
-4.922362533166968
 31
0.0
  0
LINE
  5
5A4
330
1F
100
AcDbEntity
  8
2
  6
CONTINUOUS
370
25
 62
7
100
AcDbLine
 10
70.18257097108844
 20
-5.25
 30
0.0
 11
70.86376182851474
 21
-4.568809142573691
 31
0.0
  0
LINE
  5
5A5
330
1F
100
AcDbEntity
  8
2
  6
CONTINUOUS
370
25
 62
7
100
AcDbLine
 10
69.75830690237649
 20
-5.250000000000007
 30
0.0
 11
70.79305115039608
 21
-4.215255751980415
 31
0.0
  0
LINE
  5
5A6
330
1F
100
AcDbEntity
  8
2
  6
CONTINUOUS
370
25
 62
7
100
AcDbLine
 10
69.33404283366457
 20
-5.25
 30
0.0
 11
70.72234047227744
 21
-3.861702361387138
 31
0.0
  0
LINE
  5
5A7
330
1F
100
AcDbEntity
  8
2
  6
CONTINUOUS
370
25
 62
7
100
AcDbLine
 10
69.02255530876184
 20
-5.137223456190796
 30
0.0
 11
70.65162979415878
 21
-3.508148970793862
 31
0.0
  0
LINE
  5
5A8
330
1F
100
AcDbEntity
  8
2
  6
CONTINUOUS
370
25
 62
7
100
AcDbLine
 10
69.12862132593983
 20
-4.606893370300888
 30
0.0
 11
70.58091911604012
 21
-3.154595580200585
 31
0.0
  0
LINE
  5
5A9
330
1F
100
AcDbEntity
  8
2
  6
CONTINUOUS
370
25
 62
7
100
AcDbLine
 10
69.23468734311781
 20
-4.076563284410966
 30
0.0
 11
70.51020843792148
 21
-2.801042189607308
 31
0.0
  0
LINE
  5
5AA
330
1F
100
AcDbEntity
  8
2
  6
CONTINUOUS
370
25
 62
7
100
AcDbLine
 10
69.34075336029579
 20
-3.546233198521058
 30
0.0
 11
70.4394977598028
 21
-2.447488799014032
 31
0.0
  0
LINE
  5
5AB
330
1F
100
AcDbEntity
  8
2
  6
CONTINUOUS
370
25
 62
7
100
AcDbLine
 10
69.44681937747379
 20
-3.015903112631136
 30
0.0
 11
70.36878708168416
 21
-2.093935408420755
 31
0.0
  0
LINE
  5
5AC
330
1F
100
AcDbEntity
  8
2
  6
CONTINUOUS
370
25
 62
7
100
AcDbLine
 10
69.55288539465175
 20
-2.485573026741214
 30
0.0
 11
70.29807640356549
 21
-1.740382017827478
 31
0.0
  0
LINE
  5
5AD
330
1F
100
AcDbEntity
  8
2
  6
CONTINUOUS
370
25
 62
7
100
AcDbLine
 10
69.65895141182975
 20
-1.955242940851306
 30
0.0
 11
70.22736572544684
 21
-1.386828627234202
 31
0.0
  0
LINE
  5
5AE
330
1F
100
AcDbEntity
  8
2
  6
CONTINUOUS
370
25
 62
7
100
AcDbLine
 10
69.76501742900771
 20
-1.424912854961399
 30
0.0
 11
70.1566550473282
 21
-1.033275236640925
 31
0.0
  0
LINE
  5
5AF
330
1F
100
AcDbEntity
  8
2
  6
CONTINUOUS
370
25
 62
7
100
AcDbLine
 10
69.87108344618571
 20
-0.8945827690714765
 30
0.0
 11
70.08594436920953
 21
-0.6797218460476486
 31
0.0
  0
LINE
  5
5B0
330
1F
100
AcDbEntity
  8
2
  6
CONTINUOUS
370
25
 62
7
100
AcDbLine
 10
69.97714946336369
 20
-0.3642526831815687
 30
0.0
 11
70.01523369109088
 21
-0.3261684554543791
 31
0.0
  0
LINE
  5
5B1
330
1F
100
AcDbEntity
  8
2
  6
CONTINUOUS
370
25
 62
7
100
AcDbLine
 10
69.04496752556577
 20
-5.025162372171149
 30
0.0
 11
69.26980515339463
 21
-5.250000000000004
 31
0.0
  0
LINE
  5
5B2
330
1F
100
AcDbEntity
  8
2
  6
CONTINUOUS
370
25
 62
7
100
AcDbLine
 10
69.11567820368442
 20
-4.671608981577876
 30
0.0
 11
69.69406922210655
 21
-5.250000000000007
 31
0.0
  0
LINE
  5
5B3
330
1F
100
AcDbEntity
  8
2
  6
CONTINUOUS
370
25
 62
7
100
AcDbLine
 10
69.18638888180308
 20
-4.318055590984606
 30
0.0
 11
70.11833329081848
 21
-5.25
 31
0.0
  0
LINE
  5
5B4
330
1F
100
AcDbEntity
  8
2
  6
CONTINUOUS
370
25
 62
7
100
AcDbLine
 10
69.25709955992173
 20
-3.96450220039133
 30
0.0
 11
70.54259735953042
 21
-5.25
 31
0.0
  0
LINE
  5
5B5
330
1F
100
AcDbEntity
  8
2
  6
CONTINUOUS
370
25
 62
7
100
AcDbLine
 10
69.32781023804039
 20
-3.610948809798053
 30
0.0
 11
70.96686142824234
 21
-5.250000000000007
 31
0.0
  0
LINE
  5
5B6
330
1F
100
AcDbEntity
  8
2
  6
CONTINUOUS
370
25
 62
7
100
AcDbLine
 10
69.39852091615904
 20
-3.257395419204776
 30
0.0
 11
70.90221862576144
 21
-4.761093128807161
 31
0.0
  0
LINE
  5
5B7
330
1F
100
AcDbEntity
  8
2
  6
CONTINUOUS
370
25
 62
7
100
AcDbLine
 10
69.4692315942777
 20
-2.903842028611493
 30
0.0
 11
70.79615260858345
 21
-4.230763042917239
 31
0.0
  0
LINE
  5
5B8
330
1F
100
AcDbEntity
  8
2
  6
CONTINUOUS
370
25
 62
7
100
AcDbLine
 10
69.53994227239636
 20
-2.550288638018223
 30
0.0
 11
70.69008659140547
 21
-3.700432957027338
 31
0.0
  0
LINE
  5
5B9
330
1F
100
AcDbEntity
  8
2
  6
CONTINUOUS
370
25
 62
7
100
AcDbLine
 10
69.610652950515
 20
-2.196735247424947
 30
0.0
 11
70.58402057422748
 21
-3.170102871137416
 31
0.0
  0
LINE
  5
5BA
330
1F
100
AcDbEntity
  8
2
  6
CONTINUOUS
370
25
 62
7
100
AcDbLine
 10
69.68136362863366
 20
-1.84318185683167
 30
0.0
 11
70.47795455704951
 21
-2.639772785247509
 31
0.0
  0
LINE
  5
5BB
330
1F
100
AcDbEntity
  8
2
  6
CONTINUOUS
370
25
 62
7
100
AcDbLine
 10
69.75207430675232
 20
-1.489628466238401
 30
0.0
 11
70.37188853987152
 21
-2.109442699357587
 31
0.0
  0
LINE
  5
5BC
330
1F
100
AcDbEntity
  8
2
  6
CONTINUOUS
370
25
 62
7
100
AcDbLine
 10
69.82278498487098
 20
-1.136075075645124
 30
0.0
 11
70.26582252269354
 21
-1.579112613467679
 31
0.0
  0
LINE
  5
5BD
330
1F
100
AcDbEntity
  8
2
  6
CONTINUOUS
370
25
 62
7
100
AcDbLine
 10
69.89349566298964
 20
-0.7825216850518473
 30
0.0
 11
70.15975650551556
 21
-1.048782527577757
 31
0.0
  0
LINE
  5
5BE
330
1F
100
AcDbEntity
  8
2
  6
CONTINUOUS
370
25
 62
7
100
AcDbLine
 10
69.9642063411083
 20
-0.4289682944585707
 30
0.0
 11
70.05369048833757
 21
-0.5184524416878418
 31
0.0
  0
LINE
  5
5BF
330
1F
100
AcDbEntity
  8
2
  6
CONTINUOUS
370
25
 62
7
100
AcDbLine
 10
70.0
 20
0.2499999999999961
 30
0.0
 11
69.0
 21
5.249999999999996
 31
0.0
  0
LINE
  5
5C0
330
1F
100
AcDbEntity
  8
2
  6
CONTINUOUS
370
25
 62
7
100
AcDbLine
 10
69.0
 20
5.249999999999996
 30
0.0
 11
71.0
 21
5.249999999999996
 31
0.0
  0
LINE
  5
5C1
330
1F
100
AcDbEntity
  8
2
  6
CONTINUOUS
370
25
 62
7
100
AcDbLine
 10
71.0
 20
5.249999999999996
 30
0.0
 11
70.0
 21
0.2499999999999961
 31
0.0
  0
LINE
  5
5C2
330
1F
100
AcDbEntity
  8
2
  6
CONTINUOUS
370
25
 62
7
100
AcDbLine
 10
69.9622899659386
 20
0.4385501703070318
 30
0.0
 11
70.05656505109212
 21
0.5328252554605513
 31
0.0
  0
LINE
  5
5C3
330
1F
100
AcDbEntity
  8
2
  6
CONTINUOUS
370
25
 62
7
100
AcDbLine
 10
69.89157928781995
 20
0.7921035609003084
 30
0.0
 11
70.16263106827009
 21
1.063155341350459
 31
0.0
  0
LINE
  5
5C4
330
1F
100
AcDbEntity
  8
2
  6
CONTINUOUS
370
25
 62
7
100
AcDbLine
 10
69.82086860970128
 20
1.145656951493585
 30
0.0
 11
70.26869708544808
 21
1.593485427240381
 31
0.0
  0
LINE
  5
5C5
330
1F
100
AcDbEntity
  8
2
  6
CONTINUOUS
370
25
 62
7
100
AcDbLine
 10
69.75015793158263
 20
1.499210342086855
 30
0.0
 11
70.37476310262606
 21
2.123815513130289
 31
0.0
  0
LINE
  5
5C6
330
1F
100
AcDbEntity
  8
2
  6
CONTINUOUS
370
25
 62
7
100
AcDbLine
 10
69.67944725346396
 20
1.852763732680131
 30
0.0
 11
70.48082911980404
 21
2.654145599020211
 31
0.0
  0
LINE
  5
5C7
330
1F
100
AcDbEntity
  8
2
  6
CONTINUOUS
370
25
 62
7
100
AcDbLine
 10
69.60873657534532
 20
2.206317123273408
 30
0.0
 11
70.58689513698204
 21
3.184475684910119
 31
0.0
  0
LINE
  5
5C8
330
1F
100
AcDbEntity
  8
2
  6
CONTINUOUS
370
25
 62
7
100
AcDbLine
 10
69.53802589722666
 20
2.559870513866684
 30
0.0
 11
70.69296115416002
 21
3.714805770800041
 31
0.0
  0
LINE
  5
5C9
330
1F
100
AcDbEntity
  8
2
  6
CONTINUOUS
370
25
 62
7
100
AcDbLine
 10
69.467315219108
 20
2.913423904459968
 30
0.0
 11
70.799027171338
 21
4.245135856689956
 31
0.0
  0
LINE
  5
5CA
330
1F
100
AcDbEntity
  8
2
  6
CONTINUOUS
370
25
 62
7
100
AcDbLine
 10
69.39660454098936
 20
3.266977295053245
 30
0.0
 11
70.90509318851596
 21
4.775465942579856
 31
0.0
  0
LINE
  5
5CB
330
1F
100
AcDbEntity
  8
2
  6
CONTINUOUS
370
25
 62
7
100
AcDbLine
 10
69.32589386287069
 20
3.620530685646514
 30
0.0
 11
70.95536317722417
 21
5.249999999999993
 31
0.0
  0
LINE
  5
5CC
330
1F
100
AcDbEntity
  8
2
  6
CONTINUOUS
370
25
 62
7
100
AcDbLine
 10
69.25518318475204
 20
3.974084076239798
 30
0.0
 11
70.53109910851225
 21
5.249999999999993
 31
0.0
  0
LINE
  5
5CD
330
1F
100
AcDbEntity
  8
2
  6
CONTINUOUS
370
25
 62
7
100
AcDbLine
 10
69.1844725066334
 20
4.327637466833067
 30
0.0
 11
70.10683503980033
 21
5.25
 31
0.0
  0
LINE
  5
5CE
330
1F
100
AcDbEntity
  8
2
  6
CONTINUOUS
370
25
 62
7
100
AcDbLine
 10
69.11376182851473
 20
4.681190857426337
 30
0.0
 11
69.68257097108838
 21
5.249999999999993
 31
0.0
  0
LINE
  5
5CF
330
1F
100
AcDbEntity
  8
2
  6
CONTINUOUS
370
25
 62
7
100
AcDbLine
 10
69.04305115039608
 20
5.03474424801961
 30
0.0
 11
69.25830690237646
 21
5.249999999999996
 31
0.0
  0
LINE
  5
5D0
330
1F
100
AcDbEntity
  8
2
  6
CONTINUOUS
370
25
 62
7
100
AcDbLine
 10
69.9665584539816
 20
0.4172077300919455
 30
0.0
 11
70.02229436401225
 21
0.361471820061297
 31
0.0
  0
LINE
  5
5D1
330
1F
100
AcDbEntity
  8
2
  6
CONTINUOUS
370
25
 62
7
100
AcDbLine
 10
69.86049243680363
 20
0.9475378159818675
 30
0.0
 11
70.09300504213093
 21
0.7150252106545807
 31
0.0
  0
LINE
  5
5D2
330
1F
100
AcDbEntity
  8
2
  6
CONTINUOUS
370
25
 62
7
100
AcDbLine
 10
69.75442641962564
 20
1.477867901871782
 30
0.0
 11
70.16371572024957
 21
1.06857860124785
 31
0.0
  0
LINE
  5
5D3
330
1F
100
AcDbEntity
  8
2
  6
CONTINUOUS
370
25
 62
7
100
AcDbLine
 10
69.64836040244765
 20
2.008197987761697
 30
0.0
 11
70.23442639836824
 21
1.422131991841127
 31
0.0
  0
LINE
  5
5D4
330
1F
100
AcDbEntity
  8
2
  6
CONTINUOUS
370
25
 62
7
100
AcDbLine
 10
69.54229438526968
 20
2.538528073651612
 30
0.0
 11
70.30513707648689
 21
1.775685382434411
 31
0.0
  0
LINE
  5
5D5
330
1F
100
AcDbEntity
  8
2
  6
CONTINUOUS
370
25
 62
7
100
AcDbLine
 10
69.43622836809169
 20
3.068858159541527
 30
0.0
 11
70.37584775460554
 21
2.12923877302768
 31
0.0
  0
LINE
  5
5D6
330
1F
100
AcDbEntity
  8
2
  6
CONTINUOUS
370
25
 62
7
100
AcDbLine
 10
69.33016235091372
 20
3.599188245431421
 30
0.0
 11
70.44655843272419
 21
2.482792163620964
 31
0.0
  0
LINE
  5
5D7
330
1F
100
AcDbEntity
  8
2
  6
CONTINUOUS
370
25
 62
7
100
AcDbLine
 10
69.22409633373573
 20
4.129518331321343
 30
0.0
 11
70.51726911084285
 21
2.83634555421424
 31
0.0
  0
LINE
  5
5D8
330
1F
100
AcDbEntity
  8
2
  6
CONTINUOUS
370
25
 62
7
100
AcDbLine
 10
69.11803031655776
 20
4.659848417211251
 30
0.0
 11
70.5879797889615
 21
3.18989894480751
 31
0.0
  0
LINE
  5
5D9
330
1F
100
AcDbEntity
  8
2
  6
CONTINUOUS
370
25
 62
7
100
AcDbLine
 10
69.01196429937977
 20
5.190178503101166
 30
0.0
 11
70.65869046708016
 21
3.543452335400794
 31
0.0
  0
LINE
  5
5DA
330
1F
100
AcDbEntity
  8
2
  6
CONTINUOUS
370
25
 62
7
100
AcDbLine
 10
69.37640687119287
 20
5.249999999999993
 30
0.0
 11
70.7294011451988
 21
3.897005725994063
 31
0.0
  0
LINE
  5
5DB
330
1F
100
AcDbEntity
  8
2
  6
CONTINUOUS
370
25
 62
7
100
AcDbLine
 10
69.8006709399048
 20
5.25
 30
0.0
 11
70.80011182331748
 21
4.25055911658734
 31
0.0
  0
LINE
  5
5DC
330
1F
100
AcDbEntity
  8
2
  6
CONTINUOUS
370
25
 62
7
100
AcDbLine
 10
70.22493500861674
 20
5.249999999999993
 30
0.0
 11
70.87082250143612
 21
4.604112507180609
 31
0.0
  0
LINE
  5
5DD
330
1F
100
AcDbEntity
  8
2
  6
CONTINUOUS
370
25
 62
7
100
AcDbLine
 10
70.64919907732869
 20
5.249999999999993
 30
0.0
 11
70.9415331795548
 21
4.957665897773886
 31
0.0
  0
TEXT
  5
5DE
330
1F
100
AcDbEntity
  8
2
  6
CONTINUOUS
370
25
 62
7
100
AcDbText
 10
68.5
 20
11.52916666666666
 30
0.0
 40
3.5
  1
0.5
 50
90.00000000000001
 72
     1
 11
68.5
 21
14.7375
 31
0.0
100
AcDbText
  0
CIRCLE
  5
5DF
330
1F
100
AcDbEntity
  8
2
  6
CONTINUOUS
370
25
 62
7
100
AcDbCircle
 10
66.75
 20
8.262499999999994
 30
0.0
 40
1.4
  0
LINE
  5
5E0
330
1F
100
AcDbEntity
  8
2
  6
CONTINUOUS
370
25
 62
7
100
AcDbLine
 10
68.15
 20
6.862499999999994
 30
0.0
 11
65.35
 21
9.662499999999994
 31
0.0
  0
LINE
  5
5E1
330
1F
100
AcDbEntity
  8
2
  6
CONTINUOUS
370
25
 62
7
100
AcDbLine
 10
32.2
 20
1.5
 30
0.0
 11
32.2
 21
24.5
 31
0.0
  0
LINE
  5
5E2
330
1F
100
AcDbEntity
  8
2
  6
CONTINUOUS
370
25
 62
7
100
AcDbLine
 10
38.00000000000001
 20
24.5
 30
0.0
 11
38.0
 21
0.0
 31
0.0
  0
LINE
  5
5E3
330
1F
100
AcDbEntity
  8
2
  6
CONTINUOUS
370
25
 62
7
100
AcDbLine
 10
25.2
 20
23.5
 30
0.0
 11
53.925
 21
23.5
 31
0.0
  0
LINE
  5
5E4
330
1F
100
AcDbEntity
  8
2
  6
CONTINUOUS
370
25
 62
7
100
AcDbLine
 10
32.2
 20
23.5
 30
0.0
 11
27.2
 21
22.5
 31
0.0
  0
LINE
  5
5E5
330
1F
100
AcDbEntity
  8
2
  6
CONTINUOUS
370
25
 62
7
100
AcDbLine
 10
27.2
 20
22.5
 30
0.0
 11
27.2
 21
24.5
 31
0.0
  0
LINE
  5
5E6
330
1F
100
AcDbEntity
  8
2
  6
CONTINUOUS
370
25
 62
7
100
AcDbLine
 10
27.2
 20
24.5
 30
0.0
 11
32.2
 21
23.5
 31
0.0
  0
LINE
  5
5E7
330
1F
100
AcDbEntity
  8
2
  6
CONTINUOUS
370
25
 62
7
100
AcDbLine
 10
31.87651519016504
 20
23.43530303803301
 30
0.0
 11
31.98434346011003
 21
23.54313130797799
 31
0.0
  0
LINE
  5
5E8
330
1F
100
AcDbEntity
  8
2
  6
CONTINUOUS
370
25
 62
7
100
AcDbLine
 10
31.34618510427513
 20
23.32923702085503
 30
0.0
 11
31.63079006951675
 21
23.61384198609665
 31
0.0
  0
LINE
  5
5E9
330
1F
100
AcDbEntity
  8
2
  6
CONTINUOUS
370
25
 62
7
100
AcDbLine
 10
30.81585501838522
 20
23.22317100367705
 30
0.0
 11
31.27723667892348
 21
23.6845526642153
 31
0.0
  0
LINE
  5
5EA
330
1F
100
AcDbEntity
  8
2
  6
CONTINUOUS
370
25
 62
7
100
AcDbLine
 10
30.28552493249531
 20
23.11710498649906
 30
0.0
 11
30.92368328833021
 21
23.75526334233396
 31
0.0
  0
LINE
  5
5EB
330
1F
100
AcDbEntity
  8
2
  6
CONTINUOUS
370
25
 62
7
100
AcDbLine
 10
29.7551948466054
 20
23.01103896932108
 30
0.0
 11
30.57012989773693
 21
23.82597402045261
 31
0.0
  0
LINE
  5
5EC
330
1F
100
AcDbEntity
  8
2
  6
CONTINUOUS
370
25
 62
7
100
AcDbLine
 10
29.22486476071549
 20
22.9049729521431
 30
0.0
 11
30.21657650714366
 21
23.89668469857127
 31
0.0
  0
LINE
  5
5ED
330
1F
100
AcDbEntity
  8
2
  6
CONTINUOUS
370
25
 62
7
100
AcDbLine
 10
28.69453467482558
 20
22.79890693496512
 30
0.0
 11
29.86302311655039
 21
23.96739537668992
 31
0.0
  0
LINE
  5
5EE
330
1F
100
AcDbEntity
  8
2
  6
CONTINUOUS
370
25
 62
7
100
AcDbLine
 10
28.16420458893568
 20
22.69284091778713
 30
0.0
 11
29.50946972595712
 21
24.03810605480858
 31
0.0
  0
LINE
  5
5EF
330
1F
100
AcDbEntity
  8
2
  6
CONTINUOUS
370
25
 62
7
100
AcDbLine
 10
27.63387450304576
 20
22.58677490060915
 30
0.0
 11
29.15591633536384
 21
24.10881673292723
 31
0.0
  0
LINE
  5
5F0
330
1F
100
AcDbEntity
  8
2
  6
CONTINUOUS
370
25
 62
7
100
AcDbLine
 10
27.2
 20
22.57716446627532
 30
0.0
 11
28.80236294477057
 21
24.17952741104589
 31
0.0
  0
LINE
  5
5F1
330
1F
100
AcDbEntity
  8
2
  6
CONTINUOUS
370
25
 62
7
100
AcDbLine
 10
27.2
 20
23.00142853498725
 30
0.0
 11
28.4488095541773
 21
24.25023808916454
 31
0.0
  0
LINE
  5
5F2
330
1F
100
AcDbEntity
  8
2
  6
CONTINUOUS
370
25
 62
7
100
AcDbLine
 10
27.2
 20
23.42569260369918
 30
0.0
 11
28.09525616358402
 21
24.32094876728319
 31
0.0
  0
LINE
  5
5F3
330
1F
100
AcDbEntity
  8
2
  6
CONTINUOUS
370
25
 62
7
100
AcDbLine
 10
27.2
 20
23.8499566724111
 30
0.0
 11
27.74170277299075
 21
24.39165944540185
 31
0.0
  0
LINE
  5
5F4
330
1F
100
AcDbEntity
  8
2
  6
CONTINUOUS
370
25
 62
7
100
AcDbLine
 10
27.2
 20
24.27422074112303
 30
0.0
 11
27.38814938239748
 21
24.4623701235205
 31
0.0
  0
LINE
  5
5F5
330
1F
100
AcDbEntity
  8
2
  6
CONTINUOUS
370
25
 62
7
100
AcDbLine
 10
27.2
 20
22.81909088590096
 30
0.0
 11
27.46590907158414
 21
22.55318181431683
 31
0.0
  0
LINE
  5
5F6
330
1F
100
AcDbEntity
  8
2
  6
CONTINUOUS
370
25
 62
7
100
AcDbLine
 10
27.2
 20
23.24335495461289
 30
0.0
 11
27.81946246217741
 21
22.62389249243548
 31
0.0
  0
LINE
  5
5F7
330
1F
100
AcDbEntity
  8
2
  6
CONTINUOUS
370
25
 62
7
100
AcDbLine
 10
27.2
 20
23.66761902332481
 30
0.0
 11
28.17301585277068
 21
22.69460317055414
 31
0.0
  0
LINE
  5
5F8
330
1F
100
AcDbEntity
  8
2
  6
CONTINUOUS
370
25
 62
7
100
AcDbLine
 10
27.2
 20
24.09188309203674
 30
0.0
 11
28.52656924336396
 21
22.76531384867279
 31
0.0
  0
LINE
  5
5F9
330
1F
100
AcDbEntity
  8
2
  6
CONTINUOUS
370
25
 62
7
100
AcDbLine
 10
27.22018395093584
 20
24.49596320981283
 30
0.0
 11
28.88012263395723
 21
22.83602452679145
 31
0.0
  0
LINE
  5
5FA
330
1F
100
AcDbEntity
  8
2
  6
CONTINUOUS
370
25
 62
7
100
AcDbLine
 10
27.75051403682575
 20
24.38989719263485
 30
0.0
 11
29.2336760245505
 21
22.9067352049101
 31
0.0
  0
LINE
  5
5FB
330
1F
100
AcDbEntity
  8
2
  6
CONTINUOUS
370
25
 62
7
100
AcDbLine
 10
28.28084412271566
 20
24.28383117545687
 30
0.0
 11
29.58722941514377
 21
22.97744588302875
 31
0.0
  0
LINE
  5
5FC
330
1F
100
AcDbEntity
  8
2
  6
CONTINUOUS
370
25
 62
7
100
AcDbLine
 10
28.81117420860557
 20
24.17776515827889
 30
0.0
 11
29.94078280573705
 21
23.04815656114741
 31
0.0
  0
LINE
  5
5FD
330
1F
100
AcDbEntity
  8
2
  6
CONTINUOUS
370
25
 62
7
100
AcDbLine
 10
29.34150429449548
 20
24.0716991411009
 30
0.0
 11
30.29433619633032
 21
23.11886723926606
 31
0.0
  0
LINE
  5
5FE
330
1F
100
AcDbEntity
  8
2
  6
CONTINUOUS
370
25
 62
7
100
AcDbLine
 10
29.87183438038539
 20
23.96563312392292
 30
0.0
 11
30.6478895869236
 21
23.18957791738472
 31
0.0
  0
LINE
  5
5FF
330
1F
100
AcDbEntity
  8
2
  6
CONTINUOUS
370
25
 62
7
100
AcDbLine
 10
30.4021644662753
 20
23.85956710674494
 30
0.0
 11
31.00144297751687
 21
23.26028859550337
 31
0.0
  0
LINE
  5
600
330
1F
100
AcDbEntity
  8
2
  6
CONTINUOUS
370
25
 62
7
100
AcDbLine
 10
30.93249455216521
 20
23.75350108956696
 30
0.0
 11
31.35499636811014
 21
23.33099927362203
 31
0.0
  0
LINE
  5
601
330
1F
100
AcDbEntity
  8
2
  6
CONTINUOUS
370
25
 62
7
100
AcDbLine
 10
31.46282463805512
 20
23.64743507238898
 30
0.0
 11
31.70854975870342
 21
23.40170995174068
 31
0.0
  0
LINE
  5
602
330
1F
100
AcDbEntity
  8
2
  6
CONTINUOUS
370
25
 62
7
100
AcDbLine
 10
31.99315472394504
 20
23.54136905521099
 30
0.0
 11
32.06210314929669
 21
23.47242062985934
 31
0.0
  0
LINE
  5
603
330
1F
100
AcDbEntity
  8
2
  6
CONTINUOUS
370
25
 62
7
100
AcDbLine
 10
38.00000000000001
 20
23.5
 30
0.0
 11
43.0
 21
24.5
 31
0.0
  0
LINE
  5
604
330
1F
100
AcDbEntity
  8
2
  6
CONTINUOUS
370
25
 62
7
100
AcDbLine
 10
43.0
 20
24.5
 30
0.0
 11
43.0
 21
22.5
 31
0.0
  0
LINE
  5
605
330
1F
100
AcDbEntity
  8
2
  6
CONTINUOUS
370
25
 62
7
100
AcDbLine
 10
43.0
 20
22.5
 30
0.0
 11
38.00000000000001
 21
23.5
 31
0.0
  0
LINE
  5
606
330
1F
100
AcDbEntity
  8
2
  6
CONTINUOUS
370
25
 62
7
100
AcDbLine
 10
42.85050506338837
 20
22.52989898732233
 30
0.0
 11
43.0
 21
22.67939392393396
 31
0.0
  0
LINE
  5
607
330
1F
100
AcDbEntity
  8
2
  6
CONTINUOUS
370
25
 62
7
100
AcDbLine
 10
42.4969516727951
 20
22.60060966544098
 30
0.0
 11
43.0
 21
23.10365799264589
 31
0.0
  0
LINE
  5
608
330
1F
100
AcDbEntity
  8
2
  6
CONTINUOUS
370
25
 62
7
100
AcDbLine
 10
42.14339828220183
 20
22.67132034355964
 30
0.0
 11
43.0
 21
23.52792206135781
 31
0.0
  0
LINE
  5
609
330
1F
100
AcDbEntity
  8
2
  6
CONTINUOUS
370
25
 62
7
100
AcDbLine
 10
41.78984489160855
 20
22.74203102167829
 30
0.0
 11
43.0
 21
23.95218613006974
 31
0.0
  0
LINE
  5
60A
330
1F
100
AcDbEntity
  8
2
  6
CONTINUOUS
370
25
 62
7
100
AcDbLine
 10
41.43629150101528
 20
22.81274169979694
 30
0.0
 11
43.0
 21
24.37645019878167
 31
0.0
  0
LINE
  5
60B
330
1F
100
AcDbEntity
  8
2
  6
CONTINUOUS
370
25
 62
7
100
AcDbLine
 10
41.08273811042201
 20
22.8834523779156
 30
0.0
 11
42.62410716563301
 21
24.4248214331266
 31
0.0
  0
LINE
  5
60C
330
1F
100
AcDbEntity
  8
2
  6
CONTINUOUS
370
25
 62
7
100
AcDbLine
 10
40.72918471982873
 20
22.95416305603425
 30
0.0
 11
42.0937770797431
 21
24.31875541594862
 31
0.0
  0
LINE
  5
60D
330
1F
100
AcDbEntity
  8
2
  6
CONTINUOUS
370
25
 62
7
100
AcDbLine
 10
40.37563132923546
 20
23.02487373415291
 30
0.0
 11
41.56344699385319
 21
24.21268939877064
 31
0.0
  0
LINE
  5
60E
330
1F
100
AcDbEntity
  8
2
  6
CONTINUOUS
370
25
 62
7
100
AcDbLine
 10
40.02207793864218
 20
23.09558441227156
 30
0.0
 11
41.03311690796328
 21
24.10662338159266
 31
0.0
  0
LINE
  5
60F
330
1F
100
AcDbEntity
  8
2
  6
CONTINUOUS
370
25
 62
7
100
AcDbLine
 10
39.66852454804891
 20
23.16629509039022
 30
0.0
 11
40.50278682207338
 21
24.00055736441468
 31
0.0
  0
LINE
  5
610
330
1F
100
AcDbEntity
  8
2
  6
CONTINUOUS
370
25
 62
7
100
AcDbLine
 10
39.31497115745564
 20
23.23700576850887
 30
0.0
 11
39.97245673618346
 21
23.89449134723669
 31
0.0
  0
LINE
  5
611
330
1F
100
AcDbEntity
  8
2
  6
CONTINUOUS
370
25
 62
7
100
AcDbLine
 10
38.96141776686237
 20
23.30771644662753
 30
0.0
 11
39.44212665029355
 21
23.78842533005871
 31
0.0
  0
LINE
  5
612
330
1F
100
AcDbEntity
  8
2
  6
CONTINUOUS
370
25
 62
7
100
AcDbLine
 10
38.60786437626909
 20
23.37842712474618
 30
0.0
 11
38.91179656440364
 21
23.68235931288073
 31
0.0
  0
LINE
  5
613
330
1F
100
AcDbEntity
  8
2
  6
CONTINUOUS
370
25
 62
7
100
AcDbLine
 10
38.25431098567582
 20
23.44913780286484
 30
0.0
 11
38.38146647851373
 21
23.57629329570275
 31
0.0
  0
LINE
  5
614
330
1F
100
AcDbEntity
  8
2
  6
CONTINUOUS
370
25
 62
7
100
AcDbLine
 10
38.33207067486248
 20
23.56641413497249
 30
0.0
 11
38.49810601229371
 21
23.40037879754126
 31
0.0
  0
LINE
  5
615
330
1F
100
AcDbEntity
  8
2
  6
CONTINUOUS
370
25
 62
7
100
AcDbLine
 10
38.68562406545575
 20
23.63712481309115
 30
0.0
 11
39.02843609818362
 21
23.29431278036328
 31
0.0
  0
LINE
  5
616
330
1F
100
AcDbEntity
  8
2
  6
CONTINUOUS
370
25
 62
7
100
AcDbLine
 10
39.03917745604902
 20
23.7078354912098
 30
0.0
 11
39.55876618407353
 21
23.18824676318529
 31
0.0
  0
LINE
  5
617
330
1F
100
AcDbEntity
  8
2
  6
CONTINUOUS
370
25
 62
7
100
AcDbLine
 10
39.39273084664229
 20
23.77854616932846
 30
0.0
 11
40.08909626996344
 21
23.08218074600731
 31
0.0
  0
LINE
  5
618
330
1F
100
AcDbEntity
  8
2
  6
CONTINUOUS
370
25
 62
7
100
AcDbLine
 10
39.74628423723557
 20
23.84925684744712
 30
0.0
 11
40.61942635585335
 21
22.97611472882933
 31
0.0
  0
LINE
  5
619
330
1F
100
AcDbEntity
  8
2
  6
CONTINUOUS
370
25
 62
7
100
AcDbLine
 10
40.09983762782884
 20
23.91996752556577
 30
0.0
 11
41.14975644174326
 21
22.87004871165135
 31
0.0
  0
LINE
  5
61A
330
1F
100
AcDbEntity
  8
2
  6
CONTINUOUS
370
25
 62
7
100
AcDbLine
 10
40.45339101842212
 20
23.99067820368442
 30
0.0
 11
41.68008652763318
 21
22.76398269447336
 31
0.0
  0
LINE
  5
61B
330
1F
100
AcDbEntity
  8
2
  6
CONTINUOUS
370
25
 62
7
100
AcDbLine
 10
40.80694440901539
 20
24.06138888180308
 30
0.0
 11
42.21041661352309
 21
22.65791667729538
 31
0.0
  0
LINE
  5
61C
330
1F
100
AcDbEntity
  8
2
  6
CONTINUOUS
370
25
 62
7
100
AcDbLine
 10
41.16049779960866
 20
24.13209955992173
 30
0.0
 11
42.74074669941299
 21
22.5518506601174
 31
0.0
  0
LINE
  5
61D
330
1F
100
AcDbEntity
  8
2
  6
CONTINUOUS
370
25
 62
7
100
AcDbLine
 10
41.51405119020194
 20
24.20281023804039
 30
0.0
 11
43.0
 21
22.71686142824232
 31
0.0
  0
LINE
  5
61E
330
1F
100
AcDbEntity
  8
2
  6
CONTINUOUS
370
25
 62
7
100
AcDbLine
 10
41.86760458079521
 20
24.27352091615904
 30
0.0
 11
43.0
 21
23.14112549695425
 31
0.0
  0
LINE
  5
61F
330
1F
100
AcDbEntity
  8
2
  6
CONTINUOUS
370
25
 62
7
100
AcDbLine
 10
42.22115797138848
 20
24.34423159427769
 30
0.0
 11
43.0
 21
23.56538956566617
 31
0.0
  0
LINE
  5
620
330
1F
100
AcDbEntity
  8
2
  6
CONTINUOUS
370
25
 62
7
100
AcDbLine
 10
42.57471136198176
 20
24.41494227239635
 30
0.0
 11
43.0
 21
23.9896536343781
 31
0.0
  0
LINE
  5
621
330
1F
100
AcDbEntity
  8
2
  6
CONTINUOUS
370
25
 62
7
100
AcDbLine
 10
42.92826475257503
 20
24.485652950515
 30
0.0
 11
43.0
 21
24.41391770309003
 31
0.0
  0
TEXT
  5
622
330
1F
100
AcDbEntity
  8
2
  6
CONTINUOUS
370
25
 62
7
100
AcDbText
 10
44.96250000000001
 20
25.0
 30
0.0
 40
3.5
  1
5.8
 72
     1
 11
48.46250000000001
 21
25.0
 31
0.0
100
AcDbText
  0
LINE
  5
623
330
1F
100
AcDbEntity
  8
2
  6
CONTINUOUS
370
25
 62
7
100
AcDbLine
 10
37.75
 20
-0.25
 30
0.0
 11
37.75
 21
-34.5
 31
0.0
  0
LINE
  5
624
330
1F
100
AcDbEntity
  8
2
  6
CONTINUOUS
370
25
 62
7
100
AcDbLine
 10
38.0
 20
-34.5
 30
0.0
 11
38.0
 21
0.0
 31
0.0
  0
LINE
  5
625
330
1F
100
AcDbEntity
  8
2
  6
CONTINUOUS
370
25
 62
7
100
AcDbLine
 10
18.85
 20
-33.5
 30
0.0
 11
45.0
 21
-33.5
 31
0.0
  0
LINE
  5
626
330
1F
100
AcDbEntity
  8
2
  6
CONTINUOUS
370
25
 62
7
100
AcDbLine
 10
37.75
 20
-33.5
 30
0.0
 11
32.75
 21
-34.5
 31
0.0
  0
LINE
  5
627
330
1F
100
AcDbEntity
  8
2
  6
CONTINUOUS
370
25
 62
7
100
AcDbLine
 10
32.75
 20
-34.5
 30
0.0
 11
32.75
 21
-32.5
 31
0.0
  0
LINE
  5
628
330
1F
100
AcDbEntity
  8
2
  6
CONTINUOUS
370
25
 62
7
100
AcDbLine
 10
32.75
 20
-32.5
 30
0.0
 11
37.75
 21
-33.5
 31
0.0
  0
LINE
  5
629
330
1F
100
AcDbEntity
  8
2
  6
CONTINUOUS
370
25
 62
7
100
AcDbLine
 10
37.22085440097982
 20
-33.60582911980404
 30
0.0
 11
37.39723626731988
 21
-33.42944725346398
 31
0.0
  0
LINE
  5
62A
330
1F
100
AcDbEntity
  8
2
  6
CONTINUOUS
370
25
 62
7
100
AcDbLine
 10
36.69052431508992
 20
-33.71189513698202
 30
0.0
 11
37.04368287672661
 21
-33.35873657534533
 31
0.0
  0
LINE
  5
62B
330
1F
100
AcDbEntity
  8
2
  6
CONTINUOUS
370
25
 62
7
100
AcDbLine
 10
36.16019422920001
 20
-33.81796115416
 30
0.0
 11
36.69012948613334
 21
-33.28802589722667
 31
0.0
  0
LINE
  5
62C
330
1F
100
AcDbEntity
  8
2
  6
CONTINUOUS
370
25
 62
7
100
AcDbLine
 10
35.62986414331009
 20
-33.92402717133798
 30
0.0
 11
36.33657609554006
 21
-33.21731521910801
 31
0.0
  0
LINE
  5
62D
330
1F
100
AcDbEntity
  8
2
  6
CONTINUOUS
370
25
 62
7
100
AcDbLine
 10
35.09953405742018
 20
-34.03009318851596
 30
0.0
 11
35.98302270494679
 21
-33.14660454098936
 31
0.0
  0
LINE
  5
62E
330
1F
100
AcDbEntity
  8
2
  6
CONTINUOUS
370
25
 62
7
100
AcDbLine
 10
34.56920397153026
 20
-34.13615920569395
 30
0.0
 11
35.62946931435351
 21
-33.0758938628707
 31
0.0
  0
LINE
  5
62F
330
1F
100
AcDbEntity
  8
2
  6
CONTINUOUS
370
25
 62
7
100
AcDbLine
 10
34.03887388564034
 20
-34.24222522287193
 30
0.0
 11
35.27591592376024
 21
-33.00518318475205
 31
0.0
  0
LINE
  5
630
330
1F
100
AcDbEntity
  8
2
  6
CONTINUOUS
370
25
 62
7
100
AcDbLine
 10
33.50854379975043
 20
-34.34829124004992
 30
0.0
 11
34.92236253316696
 21
-32.93447250663339
 31
0.0
  0
LINE
  5
631
330
1F
100
AcDbEntity
  8
2
  6
CONTINUOUS
370
25
 62
7
100
AcDbLine
 10
32.97821371386052
 20
-34.4543572572279
 30
0.0
 11
34.56880914257368
 21
-32.86376182851474
 31
0.0
  0
LINE
  5
632
330
1F
100
AcDbEntity
  8
2
  6
CONTINUOUS
370
25
 62
7
100
AcDbLine
 10
32.75
 20
-34.25830690237648
 30
0.0
 11
34.21525575198041
 21
-32.79305115039608
 31
0.0
  0
LINE
  5
633
330
1F
100
AcDbEntity
  8
2
  6
CONTINUOUS
370
25
 62
7
100
AcDbLine
 10
32.75
 20
-33.83404283366455
 30
0.0
 11
33.86170236138713
 21
-32.72234047227742
 31
0.0
  0
LINE
  5
634
330
1F
100
AcDbEntity
  8
2
  6
CONTINUOUS
370
25
 62
7
100
AcDbLine
 10
32.75
 20
-33.40977876495262
 30
0.0
 11
33.50814897079385
 21
-32.65162979415877
 31
0.0
  0
LINE
  5
635
330
1F
100
AcDbEntity
  8
2
  6
CONTINUOUS
370
25
 62
7
100
AcDbLine
 10
32.75
 20
-32.9855146962407
 30
0.0
 11
33.15459558020058
 21
-32.58091911604011
 31
0.0
  0
LINE
  5
636
330
1F
100
AcDbEntity
  8
2
  6
CONTINUOUS
370
25
 62
7
100
AcDbLine
 10
32.75
 20
-32.56125062752877
 30
0.0
 11
32.80104218960731
 21
-32.51020843792146
 31
0.0
  0
LINE
  5
637
330
1F
100
AcDbEntity
  8
2
  6
CONTINUOUS
370
25
 62
7
100
AcDbLine
 10
32.75
 20
-34.18917268888665
 30
0.0
 11
33.00902275926113
 21
-34.44819544814777
 31
0.0
  0
LINE
  5
638
330
1F
100
AcDbEntity
  8
2
  6
CONTINUOUS
370
25
 62
7
100
AcDbLine
 10
32.75
 20
-33.76490862017472
 30
0.0
 11
33.3625761498544
 21
-34.37748477002912
 31
0.0
  0
LINE
  5
639
330
1F
100
AcDbEntity
  8
2
  6
CONTINUOUS
370
25
 62
7
100
AcDbLine
 10
32.75
 20
-33.34064455146279
 30
0.0
 11
33.71612954044767
 21
-34.30677409191046
 31
0.0
  0
LINE
  5
63A
330
1F
100
AcDbEntity
  8
2
  6
CONTINUOUS
370
25
 62
7
100
AcDbLine
 10
32.75
 20
-32.91638048275087
 30
0.0
 11
34.06968293104095
 21
-34.23606341379181
 31
0.0
  0
LINE
  5
63B
330
1F
100
AcDbEntity
  8
2
  6
CONTINUOUS
370
25
 62
7
100
AcDbLine
 10
32.75985448245133
 20
-32.50197089649026
 30
0.0
 11
34.42323632163422
 21
-34.16535273567315
 31
0.0
  0
LINE
  5
63C
330
1F
100
AcDbEntity
  8
2
  6
CONTINUOUS
370
25
 62
7
100
AcDbLine
 10
33.29018456834124
 20
-32.60803691366825
 30
0.0
 11
34.7767897122275
 21
-34.0946420575545
 31
0.0
  0
LINE
  5
63D
330
1F
100
AcDbEntity
  8
2
  6
CONTINUOUS
370
25
 62
7
100
AcDbLine
 10
33.82051465423115
 20
-32.71410293084623
 30
0.0
 11
35.13034310282077
 21
-34.02393137943584
 31
0.0
  0
LINE
  5
63E
330
1F
100
AcDbEntity
  8
2
  6
CONTINUOUS
370
25
 62
7
100
AcDbLine
 10
34.35084474012107
 20
-32.82016894802421
 30
0.0
 11
35.48389649341405
 21
-33.95322070131719
 31
0.0
  0
LINE
  5
63F
330
1F
100
AcDbEntity
  8
2
  6
CONTINUOUS
370
25
 62
7
100
AcDbLine
 10
34.88117482601098
 20
-32.9262349652022
 30
0.0
 11
35.83744988400733
 21
-33.88251002319853
 31
0.0
  0
LINE
  5
640
330
1F
100
AcDbEntity
  8
2
  6
CONTINUOUS
370
25
 62
7
100
AcDbLine
 10
35.4115049119009
 20
-33.03230098238018
 30
0.0
 11
36.1910032746006
 21
-33.81179934507988
 31
0.0
  0
LINE
  5
641
330
1F
100
AcDbEntity
  8
2
  6
CONTINUOUS
370
25
 62
7
100
AcDbLine
 10
35.94183499779081
 20
-33.13836699955816
 30
0.0
 11
36.54455666519388
 21
-33.74108866696123
 31
0.0
  0
LINE
  5
642
330
1F
100
AcDbEntity
  8
2
  6
CONTINUOUS
370
25
 62
7
100
AcDbLine
 10
36.47216508368073
 20
-33.24443301673615
 30
0.0
 11
36.89811005578715
 21
-33.67037798884257
 31
0.0
  0
LINE
  5
643
330
1F
100
AcDbEntity
  8
2
  6
CONTINUOUS
370
25
 62
7
100
AcDbLine
 10
37.00249516957064
 20
-33.35049903391413
 30
0.0
 11
37.25166344638043
 21
-33.59966731072392
 31
0.0
  0
LINE
  5
644
330
1F
100
AcDbEntity
  8
2
  6
CONTINUOUS
370
25
 62
7
100
AcDbLine
 10
37.53282525546055
 20
-33.45656505109211
 30
0.0
 11
37.6052168369737
 21
-33.52895663260526
 31
0.0
  0
LINE
  5
645
330
1F
100
AcDbEntity
  8
2
  6
CONTINUOUS
370
25
 62
7
100
AcDbLine
 10
38.0
 20
-33.5
 30
0.0
 11
43.0
 21
-32.5
 31
0.0
  0
LINE
  5
646
330
1F
100
AcDbEntity
  8
2
  6
CONTINUOUS
370
25
 62
7
100
AcDbLine
 10
43.0
 20
-32.5
 30
0.0
 11
43.0
 21
-34.5
 31
0.0
  0
LINE
  5
647
330
1F
100
AcDbEntity
  8
2
  6
CONTINUOUS
370
25
 62
7
100
AcDbLine
 10
43.0
 20
-34.5
 30
0.0
 11
38.0
 21
-33.5
 31
0.0
  0
LINE
  5
648
330
1F
100
AcDbEntity
  8
2
  6
CONTINUOUS
370
25
 62
7
100
AcDbLine
 10
42.6533690280538
 20
-34.43067380561077
 30
0.0
 11
43.0
 21
-34.08404283366456
 31
0.0
  0
LINE
  5
649
330
1F
100
AcDbEntity
  8
2
  6
CONTINUOUS
370
25
 62
7
100
AcDbLine
 10
42.29981563746053
 20
-34.35996312749211
 30
0.0
 11
43.0
 21
-33.65977876495263
 31
0.0
  0
LINE
  5
64A
330
1F
100
AcDbEntity
  8
2
  6
CONTINUOUS
370
25
 62
7
100
AcDbLine
 10
41.94626224686725
 20
-34.28925244937346
 30
0.0
 11
43.0
 21
-33.23551469624071
 31
0.0
  0
LINE
  5
64B
330
1F
100
AcDbEntity
  8
2
  6
CONTINUOUS
370
25
 62
7
100
AcDbLine
 10
41.59270885627398
 20
-34.2185417712548
 30
0.0
 11
43.0
 21
-32.81125062752878
 31
0.0
  0
LINE
  5
64C
330
1F
100
AcDbEntity
  8
2
  6
CONTINUOUS
370
25
 62
7
100
AcDbLine
 10
41.2391554656807
 20
-34.14783109313614
 30
0.0
 11
42.85873319852107
 21
-32.52825336029579
 31
0.0
  0
LINE
  5
64D
330
1F
100
AcDbEntity
  8
2
  6
CONTINUOUS
370
25
 62
7
100
AcDbLine
 10
40.88560207508743
 20
-34.07712041501749
 30
0.0
 11
42.32840311263116
 21
-32.63431937747377
 31
0.0
  0
LINE
  5
64E
330
1F
100
AcDbEntity
  8
2
  6
CONTINUOUS
370
25
 62
7
100
AcDbLine
 10
40.53204868449416
 20
-34.00640973689883
 30
0.0
 11
41.79807302674124
 21
-32.74038539465175
 31
0.0
  0
LINE
  5
64F
330
1F
100
AcDbEntity
  8
2
  6
CONTINUOUS
370
25
 62
7
100
AcDbLine
 10
40.17849529390087
 20
-33.93569905878018
 30
0.0
 11
41.26774294085133
 21
-32.84645141182973
 31
0.0
  0
LINE
  5
650
330
1F
100
AcDbEntity
  8
2
  6
CONTINUOUS
370
25
 62
7
100
AcDbLine
 10
39.8249419033076
 20
-33.86498838066152
 30
0.0
 11
40.73741285496142
 21
-32.95251742900771
 31
0.0
  0
LINE
  5
651
330
1F
100
AcDbEntity
  8
2
  6
CONTINUOUS
370
25
 62
7
100
AcDbLine
 10
39.47138851271433
 20
-33.79427770254287
 30
0.0
 11
40.2070827690715
 21
-33.05858344618569
 31
0.0
  0
LINE
  5
652
330
1F
100
AcDbEntity
  8
2
  6
CONTINUOUS
370
25
 62
7
100
AcDbLine
 10
39.11783512212105
 20
-33.72356702442421
 30
0.0
 11
39.67675268318158
 21
-33.16464946336368
 31
0.0
  0
LINE
  5
653
330
1F
100
AcDbEntity
  8
2
  6
CONTINUOUS
370
25
 62
7
100
AcDbLine
 10
38.76428173152777
 20
-33.65285634630555
 30
0.0
 11
39.14642259729168
 21
-33.27071548054166
 31
0.0
  0
LINE
  5
654
330
1F
100
AcDbEntity
  8
2
  6
CONTINUOUS
370
25
 62
7
100
AcDbLine
 10
38.4107283409345
 20
-33.5821456681869
 30
0.0
 11
38.61609251140175
 21
-33.37678149771965
 31
0.0
  0
LINE
  5
655
330
1F
100
AcDbEntity
  8
2
  6
CONTINUOUS
370
25
 62
7
100
AcDbLine
 10
38.05717495034122
 20
-33.51143499006825
 30
0.0
 11
38.08576242551185
 21
-33.48284751489763
 31
0.0
  0
LINE
  5
656
330
1F
100
AcDbEntity
  8
2
  6
CONTINUOUS
370
25
 62
7
100
AcDbLine
 10
38.26515551999505
 20
-33.44696889600099
 30
0.0
 11
38.39773327999258
 21
-33.57954665599852
 31
0.0
  0
LINE
  5
657
330
1F
100
AcDbEntity
  8
2
  6
CONTINUOUS
370
25
 62
7
100
AcDbLine
 10
38.61870891058832
 20
-33.37625821788233
 30
0.0
 11
38.92806336588249
 21
-33.6856126731765
 31
0.0
  0
LINE
  5
658
330
1F
100
AcDbEntity
  8
2
  6
CONTINUOUS
370
25
 62
7
100
AcDbLine
 10
38.9722623011816
 20
-33.30554753976368
 30
0.0
 11
39.45839345177241
 21
-33.79167869035449
 31
0.0
  0
LINE
  5
659
330
1F
100
AcDbEntity
  8
2
  6
CONTINUOUS
370
25
 62
7
100
AcDbLine
 10
39.32581569177487
 20
-33.23483686164502
 30
0.0
 11
39.98872353766232
 21
-33.89774470753247
 31
0.0
  0
LINE
  5
65A
330
1F
100
AcDbEntity
  8
2
  6
CONTINUOUS
370
25
 62
7
100
AcDbLine
 10
39.67936908236815
 20
-33.16412618352637
 30
0.0
 11
40.51905362355223
 21
-34.00381072471045
 31
0.0
  0
LINE
  5
65B
330
1F
100
AcDbEntity
  8
2
  6
CONTINUOUS
370
25
 62
7
100
AcDbLine
 10
40.03292247296142
 20
-33.09341550540771
 30
0.0
 11
41.04938370944215
 21
-34.10987674188843
 31
0.0
  0
LINE
  5
65C
330
1F
100
AcDbEntity
  8
2
  6
CONTINUOUS
370
25
 62
7
100
AcDbLine
 10
40.3864758635547
 20
-33.02270482728906
 30
0.0
 11
41.57971379533206
 21
-34.21594275906642
 31
0.0
  0
LINE
  5
65D
330
1F
100
AcDbEntity
  8
2
  6
CONTINUOUS
370
25
 62
7
100
AcDbLine
 10
40.74002925414797
 20
-32.9519941491704
 30
0.0
 11
42.11004388122198
 21
-34.3220087762444
 31
0.0
  0
LINE
  5
65E
330
1F
100
AcDbEntity
  8
2
  6
CONTINUOUS
370
25
 62
7
100
AcDbLine
 10
41.09358264474125
 20
-32.88128347105174
 30
0.0
 11
42.64037396711189
 21
-34.42807479342238
 31
0.0
  0
LINE
  5
65F
330
1F
100
AcDbEntity
  8
2
  6
CONTINUOUS
370
25
 62
7
100
AcDbLine
 10
41.44713603533452
 20
-32.81057279293309
 30
0.0
 11
43.0
 21
-34.36343675759856
 31
0.0
  0
LINE
  5
660
330
1F
100
AcDbEntity
  8
2
  6
CONTINUOUS
370
25
 62
7
100
AcDbLine
 10
41.8006894259278
 20
-32.73986211481444
 30
0.0
 11
43.0
 21
-33.93917268888663
 31
0.0
  0
LINE
  5
661
330
1F
100
AcDbEntity
  8
2
  6
CONTINUOUS
370
25
 62
7
100
AcDbLine
 10
42.15424281652107
 20
-32.66915143669578
 30
0.0
 11
43.0
 21
-33.5149086201747
 31
0.0
  0
LINE
  5
662
330
1F
100
AcDbEntity
  8
2
  6
CONTINUOUS
370
25
 62
7
100
AcDbLine
 10
42.50779620711435
 20
-32.59844075857713
 30
0.0
 11
43.0
 21
-33.09064455146277
 31
0.0
  0
LINE
  5
663
330
1F
100
AcDbEntity
  8
2
  6
CONTINUOUS
370
25
 62
7
100
AcDbLine
 10
42.86134959770762
 20
-32.52773008045847
 30
0.0
 11
43.0
 21
-32.66638048275085
 31
0.0
  0
TEXT
  5
664
330
1F
100
AcDbEntity
  8
2
  6
CONTINUOUS
370
25
 62
7
100
AcDbText
 10
20.84166666666667
 20
-32.0
 30
0.0
 40
3.5
  1
0.25
 72
     1
 11
25.8
 21
-32.0
 31
0.0
100
AcDbText
  0
LINE
  5
665
330
1F
100
AcDbEntity
  8
SK2
  6
CONTINUOUS
370
25
 62
7
100
AcDbLine
 10
0.0
 20
3.0
 30
0.0
 11
0.0
 21
34.5
 31
0.0
  0
LINE
  5
666
330
1F
100
AcDbEntity
  8
SK2
  6
CONTINUOUS
370
25
 62
7
100
AcDbLine
 10
38.0
 20
34.5
 30
0.0
 11
38.0
 21
0.0
 31
0.0
  0
LINE
  5
667
330
1F
100
AcDbEntity
  8
SK2
  6
CONTINUOUS
370
25
 62
7
100
AcDbLine
 10
0.0
 20
33.5
 30
0.0
 11
38.0
 21
33.5
 31
0.0
  0
LINE
  5
668
330
1F
100
AcDbEntity
  8
SK2
  6
CONTINUOUS
370
25
 62
7
100
AcDbLine
 10
0.0
 20
33.5
 30
0.0
 11
5.0
 21
34.5
 31
0.0
  0
LINE
  5
669
330
1F
100
AcDbEntity
  8
SK2
  6
CONTINUOUS
370
25
 62
7
100
AcDbLine
 10
5.0
 20
34.5
 30
0.0
 11
5.0
 21
32.5
 31
0.0
  0
LINE
  5
66A
330
1F
100
AcDbEntity
  8
SK2
  6
CONTINUOUS
370
25
 62
7
100
AcDbLine
 10
5.0
 20
32.5
 30
0.0
 11
0.0
 21
33.5
 31
0.0
  0
LINE
  5
66B
330
1F
100
AcDbEntity
  8
SK2
  6
CONTINUOUS
370
25
 62
7
100
AcDbLine
 10
4.898971926348402
 20
32.52020561473032
 30
0.0
 11
5.0
 21
32.62123368838192
 31
0.0
  0
LINE
  5
66C
330
1F
100
AcDbEntity
  8
SK2
  6
CONTINUOUS
370
25
 62
7
100
AcDbLine
 10
4.545418535755122
 20
32.59091629284897
 30
0.0
 11
5.0
 21
33.04549775709386
 31
0.0
  0
LINE
  5
66D
330
1F
100
AcDbEntity
  8
SK2
  6
CONTINUOUS
370
25
 62
7
100
AcDbLine
 10
4.191865145161842
 20
32.66162697096763
 30
0.0
 11
5.0
 21
33.46976182580579
 31
0.0
  0
LINE
  5
66E
330
1F
100
AcDbEntity
  8
SK2
  6
CONTINUOUS
370
25
 62
7
100
AcDbLine
 10
3.838311754568565
 20
32.73233764908628
 30
0.0
 11
5.0
 21
33.89402589451772
 31
0.0
  0
LINE
  5
66F
330
1F
100
AcDbEntity
  8
SK2
  6
CONTINUOUS
370
25
 62
7
100
AcDbLine
 10
3.484758363975295
 20
32.80304832720494
 30
0.0
 11
5.0
 21
34.31828996322965
 31
0.0
  0
LINE
  5
670
330
1F
100
AcDbEntity
  8
SK2
  6
CONTINUOUS
370
25
 62
7
100
AcDbLine
 10
3.131204973382019
 20
32.8737590053236
 30
0.0
 11
4.696807460073021
 21
34.4393614920146
 31
0.0
  0
LINE
  5
671
330
1F
100
AcDbEntity
  8
SK2
  6
CONTINUOUS
370
25
 62
7
100
AcDbLine
 10
2.777651582788739
 20
32.94446968344225
 30
0.0
 11
4.166477374183103
 21
34.33329547483662
 31
0.0
  0
LINE
  5
672
330
1F
100
AcDbEntity
  8
SK2
  6
CONTINUOUS
370
25
 62
7
100
AcDbLine
 10
2.424098192195459
 20
33.0151803615609
 30
0.0
 11
3.636147288293195
 21
34.22722945765864
 31
0.0
  0
LINE
  5
673
330
1F
100
AcDbEntity
  8
SK2
  6
CONTINUOUS
370
25
 62
7
100
AcDbLine
 10
2.070544801602193
 20
33.08589103967957
 30
0.0
 11
3.105817202403284
 21
34.12116344048066
 31
0.0
  0
LINE
  5
674
330
1F
100
AcDbEntity
  8
SK2
  6
CONTINUOUS
370
25
 62
7
100
AcDbLine
 10
1.716991411008912
 20
33.15660171779822
 30
0.0
 11
2.575487116513365
 21
34.01509742330267
 31
0.0
  0
LINE
  5
675
330
1F
100
AcDbEntity
  8
SK2
  6
CONTINUOUS
370
25
 62
7
100
AcDbLine
 10
1.363438020415636
 20
33.22731239591688
 30
0.0
 11
2.045157030623447
 21
33.90903140612468
 31
0.0
  0
LINE
  5
676
330
1F
100
AcDbEntity
  8
SK2
  6
CONTINUOUS
370
25
 62
7
100
AcDbLine
 10
1.009884629822356
 20
33.29802307403553
 30
0.0
 11
1.514826944733528
 21
33.8029653889467
 31
0.0
  0
LINE
  5
677
330
1F
100
AcDbEntity
  8
SK2
  6
CONTINUOUS
370
25
 62
7
100
AcDbLine
 10
0.6563312392290896
 20
33.36873375215418
 30
0.0
 11
0.9844968588436274
 21
33.69689937176872
 31
0.0
  0
LINE
  5
678
330
1F
100
AcDbEntity
  8
SK2
  6
CONTINUOUS
370
25
 62
7
100
AcDbLine
 10
0.3027778486358095
 20
33.43944443027284
 30
0.0
 11
0.4541667729537089
 21
33.59083335459074
 31
0.0
  0
LINE
  5
679
330
1F
100
AcDbEntity
  8
SK2
  6
CONTINUOUS
370
25
 62
7
100
AcDbLine
 10
0.0366382357260164
 20
33.5073276471452
 30
0.0
 11
0.0549573535890246
 21
33.4890085292822
 31
0.0
  0
LINE
  5
67A
330
1F
100
AcDbEntity
  8
SK2
  6
CONTINUOUS
370
25
 62
7
100
AcDbLine
 10
0.3901916263192966
 20
33.57803832526386
 30
0.0
 11
0.5852874394789431
 21
33.38294251210421
 31
0.0
  0
LINE
  5
67B
330
1F
100
AcDbEntity
  8
SK2
  6
CONTINUOUS
370
25
 62
7
100
AcDbLine
 10
0.7437450169125732
 20
33.64874900338251
 30
0.0
 11
1.115617525368858
 21
33.27687649492623
 31
0.0
  0
LINE
  5
67C
330
1F
100
AcDbEntity
  8
SK2
  6
CONTINUOUS
370
25
 62
7
100
AcDbLine
 10
1.097298407505843
 20
33.71945968150116
 30
0.0
 11
1.645947611258762
 21
33.17081047774825
 31
0.0
  0
LINE
  5
67D
330
1F
100
AcDbEntity
  8
SK2
  6
CONTINUOUS
370
25
 62
7
100
AcDbLine
 10
1.450851798099119
 20
33.79017035961982
 30
0.0
 11
2.176277697148674
 21
33.06474446057027
 31
0.0
  0
LINE
  5
67E
330
1F
100
AcDbEntity
  8
SK2
  6
CONTINUOUS
370
25
 62
7
100
AcDbLine
 10
1.804405188692396
 20
33.86088103773848
 30
0.0
 11
2.706607783038585
 21
32.95867844339229
 31
0.0
  0
LINE
  5
67F
330
1F
100
AcDbEntity
  8
SK2
  6
CONTINUOUS
370
25
 62
7
100
AcDbLine
 10
2.157958579285673
 20
33.93159171585713
 30
0.0
 11
3.236937868928496
 21
32.8526124262143
 31
0.0
  0
LINE
  5
680
330
1F
100
AcDbEntity
  8
SK2
  6
CONTINUOUS
370
25
 62
7
100
AcDbLine
 10
2.511511969878946
 20
34.00230239397579
 30
0.0
 11
3.767267954818404
 21
32.74654640903632
 31
0.0
  0
LINE
  5
681
330
1F
100
AcDbEntity
  8
SK2
  6
CONTINUOUS
370
25
 62
7
100
AcDbLine
 10
2.865065360472222
 20
34.07301307209444
 30
0.0
 11
4.297598040708316
 21
32.64048039185833
 31
0.0
  0
LINE
  5
682
330
1F
100
AcDbEntity
  8
SK2
  6
CONTINUOUS
370
25
 62
7
100
AcDbLine
 10
3.218618751065502
 20
34.1437237502131
 30
0.0
 11
4.827928126598231
 21
32.53441437468035
 31
0.0
  0
LINE
  5
683
330
1F
100
AcDbEntity
  8
SK2
  6
CONTINUOUS
370
25
 62
7
100
AcDbLine
 10
3.572172141658776
 20
34.21443442833176
 30
0.0
 11
5.0
 21
32.78660656999051
 31
0.0
  0
LINE
  5
684
330
1F
100
AcDbEntity
  8
SK2
  6
CONTINUOUS
370
25
 62
7
100
AcDbLine
 10
3.925725532252049
 20
34.28514510645041
 30
0.0
 11
5.0
 21
33.21087063870245
 31
0.0
  0
LINE
  5
685
330
1F
100
AcDbEntity
  8
SK2
  6
CONTINUOUS
370
25
 62
7
100
AcDbLine
 10
4.279278922845322
 20
34.35585578456906
 30
0.0
 11
5.0
 21
33.63513470741437
 31
0.0
  0
LINE
  5
686
330
1F
100
AcDbEntity
  8
SK2
  6
CONTINUOUS
370
25
 62
7
100
AcDbLine
 10
4.632832313438595
 20
34.42656646268772
 30
0.0
 11
5.0
 21
34.0593987761263
 31
0.0
  0
LINE
  5
687
330
1F
100
AcDbEntity
  8
SK2
  6
CONTINUOUS
370
25
 62
7
100
AcDbLine
 10
4.986385704031871
 20
34.49727714080637
 30
0.0
 11
5.0
 21
34.48366284483824
 31
0.0
  0
LINE
  5
688
330
1F
100
AcDbEntity
  8
SK2
  6
CONTINUOUS
370
25
 62
7
100
AcDbLine
 10
38.0
 20
33.5
 30
0.0
 11
33.0
 21
32.5
 31
0.0
  0
LINE
  5
689
330
1F
100
AcDbEntity
  8
SK2
  6
CONTINUOUS
370
25
 62
7
100
AcDbLine
 10
33.0
 20
32.5
 30
0.0
 11
33.0
 21
34.5
 31
0.0
  0
LINE
  5
68A
330
1F
100
AcDbEntity
  8
SK2
  6
CONTINUOUS
370
25
 62
7
100
AcDbLine
 10
33.0
 20
34.5
 30
0.0
 11
38.0
 21
33.5
 31
0.0
  0
LINE
  5
68B
330
1F
100
AcDbEntity
  8
SK2
  6
CONTINUOUS
370
25
 62
7
100
AcDbLine
 10
37.62321433126596
 20
33.42464286625319
 30
0.0
 11
37.7488095541773
 21
33.55023808916454
 31
0.0
  0
LINE
  5
68C
330
1F
100
AcDbEntity
  8
SK2
  6
CONTINUOUS
370
25
 62
7
100
AcDbLine
 10
37.09288424537604
 20
33.31857684907521
 30
0.0
 11
37.39525616358402
 21
33.6209487672832
 31
0.0
  0
LINE
  5
68D
330
1F
100
AcDbEntity
  8
SK2
  6
CONTINUOUS
370
25
 62
7
100
AcDbLine
 10
36.56255415948613
 20
33.21251083189723
 30
0.0
 11
37.04170277299075
 21
33.69165944540185
 31
0.0
  0
LINE
  5
68E
330
1F
100
AcDbEntity
  8
SK2
  6
CONTINUOUS
370
25
 62
7
100
AcDbLine
 10
36.03222407359622
 20
33.10644481471925
 30
0.0
 11
36.68814938239747
 21
33.7623701235205
 31
0.0
  0
LINE
  5
68F
330
1F
100
AcDbEntity
  8
SK2
  6
CONTINUOUS
370
25
 62
7
100
AcDbLine
 10
35.50189398770631
 20
33.00037879754127
 30
0.0
 11
36.3345959918042
 21
33.83308080163916
 31
0.0
  0
LINE
  5
690
330
1F
100
AcDbEntity
  8
SK2
  6
CONTINUOUS
370
25
 62
7
100
AcDbLine
 10
34.9715639018164
 20
32.89431278036328
 30
0.0
 11
35.98104260121092
 21
33.90379147975781
 31
0.0
  0
LINE
  5
691
330
1F
100
AcDbEntity
  8
SK2
  6
CONTINUOUS
370
25
 62
7
100
AcDbLine
 10
34.44123381592649
 20
32.7882467631853
 30
0.0
 11
35.62748921061765
 21
33.97450215787646
 31
0.0
  0
LINE
  5
692
330
1F
100
AcDbEntity
  8
SK2
  6
CONTINUOUS
370
25
 62
7
100
AcDbLine
 10
33.91090373003658
 20
32.68218074600732
 30
0.0
 11
35.27393582002438
 21
34.04521283599512
 31
0.0
  0
LINE
  5
693
330
1F
100
AcDbEntity
  8
SK2
  6
CONTINUOUS
370
25
 62
7
100
AcDbLine
 10
33.38057364414666
 20
32.57611472882934
 30
0.0
 11
34.9203824294311
 21
34.11592351411377
 31
0.0
  0
LINE
  5
694
330
1F
100
AcDbEntity
  8
SK2
  6
CONTINUOUS
370
25
 62
7
100
AcDbLine
 10
33.0
 20
32.6198051533946
 30
0.0
 11
34.56682903883782
 21
34.18663419223243
 31
0.0
  0
LINE
  5
695
330
1F
100
AcDbEntity
  8
SK2
  6
CONTINUOUS
370
25
 62
7
100
AcDbLine
 10
33.0
 20
33.04406922210653
 30
0.0
 11
34.21327564824455
 21
34.25734487035108
 31
0.0
  0
LINE
  5
696
330
1F
100
AcDbEntity
  8
SK2
  6
CONTINUOUS
370
25
 62
7
100
AcDbLine
 10
33.0
 20
33.46833329081846
 30
0.0
 11
33.85972225765128
 21
34.32805554846974
 31
0.0
  0
LINE
  5
697
330
1F
100
AcDbEntity
  8
SK2
  6
CONTINUOUS
370
25
 62
7
100
AcDbLine
 10
33.0
 20
33.89259735953039
 30
0.0
 11
33.506168867058
 21
34.3987662265884
 31
0.0
  0
LINE
  5
698
330
1F
100
AcDbEntity
  8
SK2
  6
CONTINUOUS
370
25
 62
7
100
AcDbLine
 10
33.0
 20
34.31686142824232
 30
0.0
 11
33.15261547646473
 21
34.46947690470705
 31
0.0
  0
LINE
  5
699
330
1F
100
AcDbEntity
  8
SK2
  6
CONTINUOUS
370
25
 62
7
100
AcDbLine
 10
33.0
 20
32.71686142824232
 30
0.0
 11
33.1807178568686
 21
32.53614357137372
 31
0.0
  0
LINE
  5
69A
330
1F
100
AcDbEntity
  8
SK2
  6
CONTINUOUS
370
25
 62
7
100
AcDbLine
 10
33.0
 20
33.14112549695425
 30
0.0
 11
33.53427124746187
 21
32.60685424949238
 31
0.0
  0
LINE
  5
69B
330
1F
100
AcDbEntity
  8
SK2
  6
CONTINUOUS
370
25
 62
7
100
AcDbLine
 10
33.0
 20
33.56538956566617
 30
0.0
 11
33.88782463805514
 21
32.67756492761103
 31
0.0
  0
LINE
  5
69C
330
1F
100
AcDbEntity
  8
SK2
  6
CONTINUOUS
370
25
 62
7
100
AcDbLine
 10
33.0
 20
33.98965363437811
 30
0.0
 11
34.24137802864842
 21
32.74827560572969
 31
0.0
  0
LINE
  5
69D
330
1F
100
AcDbEntity
  8
SK2
  6
CONTINUOUS
370
25
 62
7
100
AcDbLine
 10
33.0
 20
34.41391770309004
 30
0.0
 11
34.59493141924169
 21
32.81898628384834
 31
0.0
  0
LINE
  5
69E
330
1F
100
AcDbEntity
  8
SK2
  6
CONTINUOUS
370
25
 62
7
100
AcDbLine
 10
33.42272721475246
 20
34.41545455704951
 30
0.0
 11
34.94848480983497
 21
32.889696961967
 31
0.0
  0
LINE
  5
69F
330
1F
100
AcDbEntity
  8
SK2
  6
CONTINUOUS
370
25
 62
7
100
AcDbLine
 10
33.95305730064237
 20
34.30938853987152
 30
0.0
 11
35.30203820042824
 21
32.96040764008565
 31
0.0
  0
LINE
  5
6A0
330
1F
100
AcDbEntity
  8
SK2
  6
CONTINUOUS
370
25
 62
7
100
AcDbLine
 10
34.48338738653229
 20
34.20332252269354
 30
0.0
 11
35.65559159102152
 21
33.03111831820431
 31
0.0
  0
LINE
  5
6A1
330
1F
100
AcDbEntity
  8
SK2
  6
CONTINUOUS
370
25
 62
7
100
AcDbLine
 10
35.01371747242219
 20
34.09725650551556
 30
0.0
 11
36.00914498161479
 21
33.10182899632296
 31
0.0
  0
LINE
  5
6A2
330
1F
100
AcDbEntity
  8
SK2
  6
CONTINUOUS
370
25
 62
7
100
AcDbLine
 10
35.54404755831211
 20
33.99119048833758
 30
0.0
 11
36.36269837220807
 21
33.17253967444162
 31
0.0
  0
LINE
  5
6A3
330
1F
100
AcDbEntity
  8
SK2
  6
CONTINUOUS
370
25
 62
7
100
AcDbLine
 10
36.07437764420202
 20
33.88512447115959
 30
0.0
 11
36.71625176280134
 21
33.24325035256027
 31
0.0
  0
LINE
  5
6A4
330
1F
100
AcDbEntity
  8
SK2
  6
CONTINUOUS
370
25
 62
7
100
AcDbLine
 10
36.60470773009192
 20
33.77905845398161
 30
0.0
 11
37.06980515339461
 21
33.31396103067893
 31
0.0
  0
LINE
  5
6A5
330
1F
100
AcDbEntity
  8
SK2
  6
CONTINUOUS
370
25
 62
7
100
AcDbLine
 10
37.13503781598184
 20
33.67299243680363
 30
0.0
 11
37.42335854398789
 21
33.38467170879758
 31
0.0
  0
LINE
  5
6A6
330
1F
100
AcDbEntity
  8
SK2
  6
CONTINUOUS
370
25
 62
7
100
AcDbLine
 10
37.66536790187174
 20
33.56692641962564
 30
0.0
 11
37.77691193458116
 21
33.45538238691623
 31
0.0
  0
TEXT
  5
6A7
330
1F
100
AcDbEntity
  8
SK2
  6
CONTINUOUS
370
25
 62
7
100
AcDbText
 10
16.08333333333333
 20
35.0
 30
0.0
 40
3.5
  1
38
 72
     1
 11
19.0
 21
35.0
 31
0.0
100
AcDbText
  0
LINE
  5
6A8
330
1F
100
AcDbEntity
  8
2
  6
CONTINUOUS
370
25
 62
7
100
AcDbLine
 10
36.90000000000001
 20
-0.25
 30
0.0
 11
36.9
 21
-44.5
 31
0.0
  0
LINE
  5
6A9
330
1F
100
AcDbEntity
  8
2
  6
CONTINUOUS
370
25
 62
7
100
AcDbLine
 10
38.0
 20
-44.5
 30
0.0
 11
38.0
 21
0.0
 31
0.0
  0
LINE
  5
6AA
330
1F
100
AcDbEntity
  8
2
  6
CONTINUOUS
370
25
 62
7
100
AcDbLine
 10
20.975
 20
-43.5
 30
0.0
 11
45.0
 21
-43.5
 31
0.0
  0
LINE
  5
6AB
330
1F
100
AcDbEntity
  8
2
  6
CONTINUOUS
370
25
 62
7
100
AcDbLine
 10
36.9
 20
-43.5
 30
0.0
 11
31.9
 21
-44.5
 31
0.0
  0
LINE
  5
6AC
330
1F
100
AcDbEntity
  8
2
  6
CONTINUOUS
370
25
 62
7
100
AcDbLine
 10
31.9
 20
-44.5
 30
0.0
 11
31.9
 21
-42.5
 31
0.0
  0
LINE
  5
6AD
330
1F
100
AcDbEntity
  8
2
  6
CONTINUOUS
370
25
 62
7
100
AcDbLine
 10
31.9
 20
-42.5
 30
0.0
 11
36.9
 21
-43.5
 31
0.0
  0
LINE
  5
6AE
330
1F
100
AcDbEntity
  8
2
  6
CONTINUOUS
370
25
 62
7
100
AcDbLine
 10
36.67142259729171
 20
-43.54571548054166
 30
0.0
 11
36.74761506486114
 21
-43.46952301297223
 31
0.0
  0
LINE
  5
6AF
330
1F
100
AcDbEntity
  8
2
  6
CONTINUOUS
370
25
 62
7
100
AcDbLine
 10
36.14109251140179
 20
-43.65178149771964
 30
0.0
 11
36.39406167426786
 21
-43.39881233485357
 31
0.0
  0
LINE
  5
6B0
330
1F
100
AcDbEntity
  8
2
  6
CONTINUOUS
370
25
 62
7
100
AcDbLine
 10
35.61076242551188
 20
-43.75784751489762
 30
0.0
 11
36.04050828367458
 21
-43.32810165673492
 31
0.0
  0
LINE
  5
6B1
330
1F
100
AcDbEntity
  8
2
  6
CONTINUOUS
370
25
 62
7
100
AcDbLine
 10
35.08043233962197
 20
-43.86391353207561
 30
0.0
 11
35.68695489308131
 21
-43.25739097861626
 31
0.0
  0
LINE
  5
6B2
330
1F
100
AcDbEntity
  8
2
  6
CONTINUOUS
370
25
 62
7
100
AcDbLine
 10
34.55010225373205
 20
-43.96997954925359
 30
0.0
 11
35.33340150248803
 21
-43.18668030049761
 31
0.0
  0
LINE
  5
6B3
330
1F
100
AcDbEntity
  8
2
  6
CONTINUOUS
370
25
 62
7
100
AcDbLine
 10
34.01977216784214
 20
-44.07604556643157
 30
0.0
 11
34.97984811189476
 21
-43.11596962237896
 31
0.0
  0
LINE
  5
6B4
330
1F
100
AcDbEntity
  8
2
  6
CONTINUOUS
370
25
 62
7
100
AcDbLine
 10
33.48944208195222
 20
-44.18211158360955
 30
0.0
 11
34.62629472130148
 21
-43.0452589442603
 31
0.0
  0
LINE
  5
6B5
330
1F
100
AcDbEntity
  8
2
  6
CONTINUOUS
370
25
 62
7
100
AcDbLine
 10
32.95911199606231
 20
-44.28817760078753
 30
0.0
 11
34.27274133070821
 21
-42.97454826614165
 31
0.0
  0
LINE
  5
6B6
330
1F
100
AcDbEntity
  8
2
  6
CONTINUOUS
370
25
 62
7
100
AcDbLine
 10
32.42878191017239
 20
-44.39424361796552
 30
0.0
 11
33.91918794011492
 21
-42.90383758802299
 31
0.0
  0
LINE
  5
6B7
330
1F
100
AcDbEntity
  8
2
  6
CONTINUOUS
370
25
 62
7
100
AcDbLine
 10
31.9
 20
-44.49876145942599
 30
0.0
 11
33.56563454952165
 21
-42.83312690990433
 31
0.0
  0
LINE
  5
6B8
330
1F
100
AcDbEntity
  8
2
  6
CONTINUOUS
370
25
 62
7
100
AcDbLine
 10
31.9
 20
-44.07449739071405
 30
0.0
 11
33.21208115892837
 21
-42.76241623178568
 31
0.0
  0
LINE
  5
6B9
330
1F
100
AcDbEntity
  8
2
  6
CONTINUOUS
370
25
 62
7
100
AcDbLine
 10
31.9
 20
-43.65023332200212
 30
0.0
 11
32.8585277683351
 21
-42.69170555366702
 31
0.0
  0
LINE
  5
6BA
330
1F
100
AcDbEntity
  8
2
  6
CONTINUOUS
370
25
 62
7
100
AcDbLine
 10
31.9
 20
-43.22596925329019
 30
0.0
 11
32.50497437774182
 21
-42.62099487554837
 31
0.0
  0
LINE
  5
6BB
330
1F
100
AcDbEntity
  8
2
  6
CONTINUOUS
370
25
 62
7
100
AcDbLine
 10
31.9
 20
-42.80170518457826
 30
0.0
 11
32.15142098714855
 21
-42.55028419742971
 31
0.0
  0
LINE
  5
6BC
330
1F
100
AcDbEntity
  8
2
  6
CONTINUOUS
370
25
 62
7
100
AcDbLine
 10
31.9
 20
-44.43257097108845
 30
0.0
 11
31.95619085742629
 21
-44.48876182851474
 31
0.0
  0
LINE
  5
6BD
330
1F
100
AcDbEntity
  8
2
  6
CONTINUOUS
370
25
 62
7
100
AcDbLine
 10
31.9
 20
-44.00830690237652
 30
0.0
 11
32.30974424801957
 21
-44.41805115039608
 31
0.0
  0
LINE
  5
6BE
330
1F
100
AcDbEntity
  8
2
  6
CONTINUOUS
370
25
 62
7
100
AcDbLine
 10
31.9
 20
-43.58404283366458
 30
0.0
 11
32.66329763861285
 21
-44.34734047227743
 31
0.0
  0
LINE
  5
6BF
330
1F
100
AcDbEntity
  8
2
  6
CONTINUOUS
370
25
 62
7
100
AcDbLine
 10
31.9
 20
-43.15977876495266
 30
0.0
 11
33.01685102920612
 21
-44.27662979415877
 31
0.0
  0
LINE
  5
6C0
330
1F
100
AcDbEntity
  8
2
  6
CONTINUOUS
370
25
 62
7
100
AcDbLine
 10
31.9
 20
-42.73551469624072
 30
0.0
 11
33.3704044197994
 21
-44.20591911604012
 31
0.0
  0
LINE
  5
6C1
330
1F
100
AcDbEntity
  8
2
  6
CONTINUOUS
370
25
 62
7
100
AcDbLine
 10
32.13593671558901
 20
-42.54718734311781
 30
0.0
 11
33.72395781039267
 21
-44.13520843792146
 31
0.0
  0
LINE
  5
6C2
330
1F
100
AcDbEntity
  8
2
  6
CONTINUOUS
370
25
 62
7
100
AcDbLine
 10
32.66626680147893
 20
-42.65325336029579
 30
0.0
 11
34.07751120098595
 21
-44.0644977598028
 31
0.0
  0
LINE
  5
6C3
330
1F
100
AcDbEntity
  8
2
  6
CONTINUOUS
370
25
 62
7
100
AcDbLine
 10
33.19659688736884
 20
-42.75931937747377
 30
0.0
 11
34.43106459157922
 21
-43.99378708168415
 31
0.0
  0
LINE
  5
6C4
330
1F
100
AcDbEntity
  8
2
  6
CONTINUOUS
370
25
 62
7
100
AcDbLine
 10
33.72692697325876
 20
-42.86538539465175
 30
0.0
 11
34.7846179821725
 21
-43.9230764035655
 31
0.0
  0
LINE
  5
6C5
330
1F
100
AcDbEntity
  8
2
  6
CONTINUOUS
370
25
 62
7
100
AcDbLine
 10
34.25725705914866
 20
-42.97145141182973
 30
0.0
 11
35.13817137276578
 21
-43.85236572544684
 31
0.0
  0
LINE
  5
6C6
330
1F
100
AcDbEntity
  8
2
  6
CONTINUOUS
370
25
 62
7
100
AcDbLine
 10
34.78758714503859
 20
-43.07751742900772
 30
0.0
 11
35.49172476335905
 21
-43.78165504732819
 31
0.0
  0
LINE
  5
6C7
330
1F
100
AcDbEntity
  8
2
  6
CONTINUOUS
370
25
 62
7
100
AcDbLine
 10
35.31791723092849
 20
-43.1835834461857
 30
0.0
 11
35.84527815395233
 21
-43.71094436920954
 31
0.0
  0
LINE
  5
6C8
330
1F
100
AcDbEntity
  8
2
  6
CONTINUOUS
370
25
 62
7
100
AcDbLine
 10
35.84824731681842
 20
-43.28964946336369
 30
0.0
 11
36.19883154454561
 21
-43.64023369109088
 31
0.0
  0
LINE
  5
6C9
330
1F
100
AcDbEntity
  8
2
  6
CONTINUOUS
370
25
 62
7
100
AcDbLine
 10
36.37857740270832
 20
-43.39571548054167
 30
0.0
 11
36.55238493513888
 21
-43.56952301297222
 31
0.0
  0
LINE
  5
6CA
330
1F
100
AcDbEntity
  8
2
  6
CONTINUOUS
370
25
 62
7
100
AcDbLine
 10
38.0
 20
-43.5
 30
0.0
 11
43.0
 21
-42.5
 31
0.0
  0
LINE
  5
6CB
330
1F
100
AcDbEntity
  8
2
  6
CONTINUOUS
370
25
 62
7
100
AcDbLine
 10
43.0
 20
-42.5
 30
0.0
 11
43.0
 21
-44.5
 31
0.0
  0
LINE
  5
6CC
330
1F
100
AcDbEntity
  8
2
  6
CONTINUOUS
370
25
 62
7
100
AcDbLine
 10
43.0
 20
-44.5
 30
0.0
 11
38.0
 21
-43.5
 31
0.0
  0
LINE
  5
6CD
330
1F
100
AcDbEntity
  8
2
  6
CONTINUOUS
370
25
 62
7
100
AcDbLine
 10
42.85497437774184
 20
-44.47099487554837
 30
0.0
 11
43.0
 21
-44.32596925329021
 31
0.0
  0
LINE
  5
6CE
330
1F
100
AcDbEntity
  8
2
  6
CONTINUOUS
370
25
 62
7
100
AcDbLine
 10
42.50142098714856
 20
-44.40028419742971
 30
0.0
 11
43.0
 21
-43.90170518457828
 31
0.0
  0
LINE
  5
6CF
330
1F
100
AcDbEntity
  8
2
  6
CONTINUOUS
370
25
 62
7
100
AcDbLine
 10
42.14786759655529
 20
-44.32957351931106
 30
0.0
 11
43.0
 21
-43.47744111586635
 31
0.0
  0
LINE
  5
6D0
330
1F
100
AcDbEntity
  8
2
  6
CONTINUOUS
370
25
 62
7
100
AcDbLine
 10
41.79431420596201
 20
-44.2588628411924
 30
0.0
 11
43.0
 21
-43.05317704715441
 31
0.0
  0
LINE
  5
6D1
330
1F
100
AcDbEntity
  8
2
  6
CONTINUOUS
370
25
 62
7
100
AcDbLine
 10
41.44076081536873
 20
-44.18815216307375
 30
0.0
 11
43.0
 21
-42.62891297844249
 31
0.0
  0
LINE
  5
6D2
330
1F
100
AcDbEntity
  8
2
  6
CONTINUOUS
370
25
 62
7
100
AcDbLine
 10
41.08720742477546
 20
-44.11744148495509
 30
0.0
 11
42.63081113716319
 21
-42.57383777256736
 31
0.0
  0
LINE
  5
6D3
330
1F
100
AcDbEntity
  8
2
  6
CONTINUOUS
370
25
 62
7
100
AcDbLine
 10
40.73365403418218
 20
-44.04673080683644
 30
0.0
 11
42.10048105127328
 21
-42.67990378974534
 31
0.0
  0
LINE
  5
6D4
330
1F
100
AcDbEntity
  8
2
  6
CONTINUOUS
370
25
 62
7
100
AcDbLine
 10
40.3801006435889
 20
-43.97602012871778
 30
0.0
 11
41.57015096538336
 21
-42.78596980692333
 31
0.0
  0
LINE
  5
6D5
330
1F
100
AcDbEntity
  8
2
  6
CONTINUOUS
370
25
 62
7
100
AcDbLine
 10
40.02654725299563
 20
-43.90530945059913
 30
0.0
 11
41.03982087949345
 21
-42.89203582410131
 31
0.0
  0
LINE
  5
6D6
330
1F
100
AcDbEntity
  8
2
  6
CONTINUOUS
370
25
 62
7
100
AcDbLine
 10
39.67299386240236
 20
-43.83459877248048
 30
0.0
 11
40.50949079360354
 21
-42.99810184127929
 31
0.0
  0
LINE
  5
6D7
330
1F
100
AcDbEntity
  8
2
  6
CONTINUOUS
370
25
 62
7
100
AcDbLine
 10
39.31944047180907
 20
-43.76388809436182
 30
0.0
 11
39.97916070771362
 21
-43.10416785845727
 31
0.0
  0
LINE
  5
6D8
330
1F
100
AcDbEntity
  8
2
  6
CONTINUOUS
370
25
 62
7
100
AcDbLine
 10
38.9658870812158
 20
-43.69317741624317
 30
0.0
 11
39.44883062182371
 21
-43.21023387563525
 31
0.0
  0
LINE
  5
6D9
330
1F
100
AcDbEntity
  8
2
  6
CONTINUOUS
370
25
 62
7
100
AcDbLine
 10
38.61233369062252
 20
-43.62246673812451
 30
0.0
 11
38.91850053593379
 21
-43.31629989281324
 31
0.0
  0
LINE
  5
6DA
330
1F
100
AcDbEntity
  8
2
  6
CONTINUOUS
370
25
 62
7
100
AcDbLine
 10
38.25878030002925
 20
-43.55175606000585
 30
0.0
 11
38.38817045004388
 21
-43.42236590999122
 31
0.0
  0
LINE
  5
6DB
330
1F
100
AcDbEntity
  8
2
  6
CONTINUOUS
370
25
 62
7
100
AcDbLine
 10
38.063550170307
 20
-43.48728996593859
 30
0.0
 11
38.09532525546051
 21
-43.51906505109211
 31
0.0
  0
LINE
  5
6DC
330
1F
100
AcDbEntity
  8
2
  6
CONTINUOUS
370
25
 62
7
100
AcDbLine
 10
38.41710356090028
 20
-43.41657928781994
 30
0.0
 11
38.62565534135043
 21
-43.62513106827009
 31
0.0
  0
LINE
  5
6DD
330
1F
100
AcDbEntity
  8
2
  6
CONTINUOUS
370
25
 62
7
100
AcDbLine
 10
38.77065695149355
 20
-43.34586860970128
 30
0.0
 11
39.15598542724034
 21
-43.73119708544807
 31
0.0
  0
LINE
  5
6DE
330
1F
100
AcDbEntity
  8
2
  6
CONTINUOUS
370
25
 62
7
100
AcDbLine
 10
39.12421034208683
 20
-43.27515793158263
 30
0.0
 11
39.68631551313025
 21
-43.83726310262605
 31
0.0
  0
LINE
  5
6DF
330
1F
100
AcDbEntity
  8
2
  6
CONTINUOUS
370
25
 62
7
100
AcDbLine
 10
39.4777637326801
 20
-43.20444725346398
 30
0.0
 11
40.21664559902017
 21
-43.94332911980403
 31
0.0
  0
LINE
  5
6E0
330
1F
100
AcDbEntity
  8
2
  6
CONTINUOUS
370
25
 62
7
100
AcDbLine
 10
39.83131712327339
 20
-43.13373657534532
 30
0.0
 11
40.74697568491008
 21
-44.04939513698202
 31
0.0
  0
LINE
  5
6E1
330
1F
100
AcDbEntity
  8
2
  6
CONTINUOUS
370
25
 62
7
100
AcDbLine
 10
40.18487051386666
 20
-43.06302589722667
 30
0.0
 11
41.2773057708
 21
-44.15546115416
 31
0.0
  0
LINE
  5
6E2
330
1F
100
AcDbEntity
  8
2
  6
CONTINUOUS
370
25
 62
7
100
AcDbLine
 10
40.53842390445993
 20
-42.99231521910801
 30
0.0
 11
41.80763585668991
 21
-44.26152717133799
 31
0.0
  0
LINE
  5
6E3
330
1F
100
AcDbEntity
  8
2
  6
CONTINUOUS
370
25
 62
7
100
AcDbLine
 10
40.89197729505322
 20
-42.92160454098936
 30
0.0
 11
42.33796594257983
 21
-44.36759318851597
 31
0.0
  0
LINE
  5
6E4
330
1F
100
AcDbEntity
  8
2
  6
CONTINUOUS
370
25
 62
7
100
AcDbLine
 10
41.24553068564649
 20
-42.8508938628707
 30
0.0
 11
42.86829602846974
 21
-44.47365920569395
 31
0.0
  0
LINE
  5
6E5
330
1F
100
AcDbEntity
  8
2
  6
CONTINUOUS
370
25
 62
7
100
AcDbLine
 10
41.59908407623977
 20
-42.78018318475205
 30
0.0
 11
43.0
 21
-44.18109910851228
 31
0.0
  0
LINE
  5
6E6
330
1F
100
AcDbEntity
  8
2
  6
CONTINUOUS
370
25
 62
7
100
AcDbLine
 10
41.95263746683304
 20
-42.70947250663339
 30
0.0
 11
43.0
 21
-43.75683503980035
 31
0.0
  0
LINE
  5
6E7
330
1F
100
AcDbEntity
  8
2
  6
CONTINUOUS
370
25
 62
7
100
AcDbLine
 10
42.30619085742632
 20
-42.63876182851473
 30
0.0
 11
43.0
 21
-43.33257097108842
 31
0.0
  0
LINE
  5
6E8
330
1F
100
AcDbEntity
  8
2
  6
CONTINUOUS
370
25
 62
7
100
AcDbLine
 10
42.65974424801959
 20
-42.56805115039608
 30
0.0
 11
43.0
 21
-42.90830690237649
 31
0.0
  0
TEXT
  5
6E9
330
1F
100
AcDbEntity
  8
2
  6
CONTINUOUS
370
25
 62
7
100
AcDbText
 10
24.10416666666667
 20
-42.0
 30
0.0
 40
3.5
  1
1.1
 72
     1
 11
26.4375
 21
-42.0
 31
0.0
100
AcDbText
  0
LINE
  5
6EA
330
1F
100
AcDbEntity
  8
4
  6
LONGDASH_DASH
370
25
 62
2
100
AcDbLine
 10
32.2
 20
0.0
 30
0.0
 11
38.0
 21
0.0
 31
0.0
  0
LINE
  5
6EB
330
1F
100
AcDbEntity
  8
SK4
  6
LONGDASH_DASH
370
25
 62
2
100
AcDbLine
 10
-6.0
 20
0.0
 30
0.0
 11
44.0
 21
0.0
 31
0.0
  0
LINE
  5
6EC
330
1F
100
AcDbEntity
  8
2
  6
CONTINUOUS
370
25
 62
7
100
AcDbLine
 10
38.0
 20
0.0
 30
0.0
 11
52.8492424049175
 21
14.8492424049175
 31
0.0
  0
LINE
  5
6ED
330
1F
100
AcDbEntity
  8
2
  6
CONTINUOUS
370
25
 62
7
100
AcDbLine
 10
38.0
 20
0.0
 30
0.0
 11
52.84924240491751
 21
-14.84924240491749
 31
0.0
  0
ARC
  5
6EE
330
1F
100
AcDbEntity
  8
2
  6
CONTINUOUS
370
25
 62
7
100
AcDbCircle
 10
38.00000000000003
 20
0.0000000000000004
 30
0.0
 40
19.99999999999998
100
AcDbArc
 50
314.9999999999999
 51
45.0000000000001
  0
LINE
  5
6EF
330
1F
100
AcDbEntity
  8
2
  6
CONTINUOUS
370
25
 62
7
100
AcDbLine
 10
52.14213562373094
 20
14.14213562373096
 30
0.0
 11
55.99794679325835
 21
10.80556249776059
 31
0.0
  0
LINE
  5
6F0
330
1F
100
AcDbEntity
  8
2
  6
CONTINUOUS
370
25
 62
7
100
AcDbLine
 10
55.99794679325835
 20
10.80556249776059
 30
0.0
 11
54.41804857792148
 21
9.579217673017002
 31
0.0
  0
LINE
  5
6F1
330
1F
100
AcDbEntity
  8
2
  6
CONTINUOUS
370
25
 62
7
100
AcDbLine
 10
54.41804857792148
 20
9.579217673017002
 30
0.0
 11
52.14213562373094
 21
14.14213562373096
 31
0.0
  0
LINE
  5
6F2
330
1F
100
AcDbEntity
  8
2
  6
CONTINUOUS
370
25
 62
7
100
AcDbLine
 10
54.98473217529113
 20
10.0190874634599
 30
0.0
 11
55.87639252372041
 21
10.91074781188918
 31
0.0
  0
LINE
  5
6F3
330
1F
100
AcDbEntity
  8
2
  6
CONTINUOUS
370
25
 62
7
100
AcDbLine
 10
54.31905930425209
 20
9.7776786611328
 30
0.0
 11
55.6489460931963
 21
11.10756545007701
 31
0.0
  0
LINE
  5
6F4
330
1F
100
AcDbEntity
  8
2
  6
CONTINUOUS
370
25
 62
7
100
AcDbLine
 10
54.177867322259
 20
10.06075074785164
 30
0.0
 11
55.4214996626722
 21
11.30438308826483
 31
0.0
  0
LINE
  5
6F5
330
1F
100
AcDbEntity
  8
2
  6
CONTINUOUS
370
25
 62
7
100
AcDbLine
 10
54.03667534026592
 20
10.34382283457048
 30
0.0
 11
55.19405323214809
 21
11.50120072645266
 31
0.0
  0
LINE
  5
6F6
330
1F
100
AcDbEntity
  8
2
  6
CONTINUOUS
370
25
 62
7
100
AcDbLine
 10
53.89548335827283
 20
10.62689492128931
 30
0.0
 11
54.966606801624
 21
11.69801836464048
 31
0.0
  0
LINE
  5
6F7
330
1F
100
AcDbEntity
  8
2
  6
CONTINUOUS
370
25
 62
7
100
AcDbLine
 10
53.75429137627974
 20
10.90996700800815
 30
0.0
 11
54.73916037109989
 21
11.8948360028283
 31
0.0
  0
LINE
  5
6F8
330
1F
100
AcDbEntity
  8
2
  6
CONTINUOUS
370
25
 62
7
100
AcDbLine
 10
53.61309939428665
 20
11.19303909472699
 30
0.0
 11
54.51171394057579
 21
12.09165364101613
 31
0.0
  0
LINE
  5
6F9
330
1F
100
AcDbEntity
  8
2
  6
CONTINUOUS
370
25
 62
7
100
AcDbLine
 10
53.47190741229356
 20
11.47611118144583
 30
0.0
 11
54.28426751005168
 21
12.28847127920395
 31
0.0
  0
LINE
  5
6FA
330
1F
100
AcDbEntity
  8
2
  6
CONTINUOUS
370
25
 62
7
100
AcDbLine
 10
53.33071543030047
 20
11.75918326816467
 30
0.0
 11
54.05682107952757
 21
12.48528891739177
 31
0.0
  0
LINE
  5
6FB
330
1F
100
AcDbEntity
  8
2
  6
CONTINUOUS
370
25
 62
7
100
AcDbLine
 10
53.18952344830738
 20
12.0422553548835
 30
0.0
 11
53.82937464900347
 21
12.68210655557959
 31
0.0
  0
LINE
  5
6FC
330
1F
100
AcDbEntity
  8
2
  6
CONTINUOUS
370
25
 62
7
100
AcDbLine
 10
53.04833146631429
 20
12.32532744160234
 30
0.0
 11
53.60192821847937
 21
12.87892419376742
 31
0.0
  0
LINE
  5
6FD
330
1F
100
AcDbEntity
  8
2
  6
CONTINUOUS
370
25
 62
7
100
AcDbLine
 10
52.9071394843212
 20
12.60839952832118
 30
0.0
 11
53.37448178795526
 21
13.07574183195524
 31
0.0
  0
LINE
  5
6FE
330
1F
100
AcDbEntity
  8
2
  6
CONTINUOUS
370
25
 62
7
100
AcDbLine
 10
52.76594750232811
 20
12.89147161504002
 30
0.0
 11
53.14703535743116
 21
13.27255947014307
 31
0.0
  0
LINE
  5
6FF
330
1F
100
AcDbEntity
  8
2
  6
CONTINUOUS
370
25
 62
7
100
AcDbLine
 10
52.62475552033501
 20
13.17454370175885
 30
0.0
 11
52.91958892690705
 21
13.46937710833089
 31
0.0
  0
LINE
  5
700
330
1F
100
AcDbEntity
  8
2
  6
CONTINUOUS
370
25
 62
7
100
AcDbLine
 10
52.48356353834193
 20
13.45761578847769
 30
0.0
 11
52.69214249638294
 21
13.66619474651871
 31
0.0
  0
LINE
  5
701
330
1F
100
AcDbEntity
  8
2
  6
CONTINUOUS
370
25
 62
7
100
AcDbLine
 10
52.34237155634884
 20
13.74068787519653
 30
0.0
 11
52.46469606585885
 21
13.86301238470653
 31
0.0
  0
LINE
  5
702
330
1F
100
AcDbEntity
  8
2
  6
CONTINUOUS
370
25
 62
7
100
AcDbLine
 10
52.20117957435575
 20
14.02375996191537
 30
0.0
 11
52.23724963533473
 21
14.05983002289436
 31
0.0
  0
LINE
  5
703
330
1F
100
AcDbEntity
  8
2
  6
CONTINUOUS
370
25
 62
7
100
AcDbLine
 10
54.39561898981338
 20
9.624186163581268
 30
0.0
 11
54.43073784654774
 21
9.589067306846907
 31
0.0
  0
LINE
  5
704
330
1F
100
AcDbEntity
  8
2
  6
CONTINUOUS
370
25
 62
7
100
AcDbLine
 10
53.97341261446794
 20
10.47065660763863
 30
0.0
 11
54.66959600509495
 21
9.774473217011625
 31
0.0
  0
LINE
  5
705
330
1F
100
AcDbEntity
  8
2
  6
CONTINUOUS
370
25
 62
7
100
AcDbLine
 10
53.5512062391225
 20
11.317127051696
 30
0.0
 11
54.90845416364215
 21
9.95987912717635
 31
0.0
  0
LINE
  5
706
330
1F
100
AcDbEntity
  8
2
  6
CONTINUOUS
370
25
 62
7
100
AcDbLine
 10
53.12899986377707
 20
12.16359749575336
 30
0.0
 11
55.14731232218936
 21
10.14528503734107
 31
0.0
  0
LINE
  5
707
330
1F
100
AcDbEntity
  8
2
  6
CONTINUOUS
370
25
 62
7
100
AcDbLine
 10
52.70679348843161
 20
13.01006793981074
 30
0.0
 11
55.38617048073657
 21
10.3306909475058
 31
0.0
  0
LINE
  5
708
330
1F
100
AcDbEntity
  8
2
  6
CONTINUOUS
370
25
 62
7
100
AcDbLine
 10
52.28458711308619
 20
13.8565383838681
 30
0.0
 11
55.62502863928377
 21
10.51609685767052
 31
0.0
  0
LINE
  5
709
330
1F
100
AcDbEntity
  8
2
  6
CONTINUOUS
370
25
 62
7
100
AcDbLine
 10
54.22969289104015
 20
12.33569667462606
 30
0.0
 11
55.86388679783099
 21
10.70150276783523
 31
0.0
  0
LINE
  5
70A
330
1F
100
AcDbEntity
  8
2
  6
CONTINUOUS
370
25
 62
7
100
AcDbLine
 10
52.14213562373095
 20
-14.14213562373095
 30
0.0
 11
54.4180485779215
 21
-9.579217673016997
 31
0.0
  0
LINE
  5
70B
330
1F
100
AcDbEntity
  8
2
  6
CONTINUOUS
370
25
 62
7
100
AcDbLine
 10
54.4180485779215
 20
-9.579217673016997
 30
0.0
 11
55.99794679325836
 21
-10.80556249776059
 31
0.0
  0
LINE
  5
70C
330
1F
100
AcDbEntity
  8
2
  6
CONTINUOUS
370
25
 62
7
100
AcDbLine
 10
55.99794679325836
 20
-10.80556249776059
 30
0.0
 11
52.14213562373095
 21
-14.14213562373095
 31
0.0
  0
LINE
  5
70D
330
1F
100
AcDbEntity
  8
2
  6
CONTINUOUS
370
25
 62
7
100
AcDbLine
 10
53.95384695600569
 20
-12.5743961578938
 30
0.0
 11
55.84297356543659
 21
-10.68526954846289
 31
0.0
  0
LINE
  5
70E
330
1F
100
AcDbEntity
  8
2
  6
CONTINUOUS
370
25
 62
7
100
AcDbLine
 10
52.32155340345574
 20
-13.78242564173182
 30
0.0
 11
55.60411540688938
 21
-10.49986363829817
 31
0.0
  0
LINE
  5
70F
330
1F
100
AcDbEntity
  8
2
  6
CONTINUOUS
370
25
 62
7
100
AcDbLine
 10
52.74375977880118
 20
-12.93595519767445
 30
0.0
 11
55.36525724834217
 21
-10.31445772813345
 31
0.0
  0
LINE
  5
710
330
1F
100
AcDbEntity
  8
2
  6
CONTINUOUS
370
25
 62
7
100
AcDbLine
 10
53.16596615414662
 20
-12.08948475361709
 30
0.0
 11
55.12639908979497
 21
-10.12905181796873
 31
0.0
  0
LINE
  5
711
330
1F
100
AcDbEntity
  8
2
  6
CONTINUOUS
370
25
 62
7
100
AcDbLine
 10
53.58817252949206
 20
-11.24301430955972
 30
0.0
 11
54.88754093124776
 21
-9.943645907804012
 31
0.0
  0
LINE
  5
712
330
1F
100
AcDbEntity
  8
2
  6
CONTINUOUS
370
25
 62
7
100
AcDbLine
 10
54.01037890483749
 20
-10.39654386550235
 30
0.0
 11
54.64868277270055
 21
-9.75823999763929
 31
0.0
  0
LINE
  5
713
330
1F
100
AcDbEntity
  8
2
  6
CONTINUOUS
370
25
 62
7
100
AcDbLine
 10
52.18862575191556
 20
-14.04892878994852
 30
0.0
 11
52.2170266590499
 21
-14.07732969708286
 31
0.0
  0
LINE
  5
714
330
1F
100
AcDbEntity
  8
2
  6
CONTINUOUS
370
25
 62
7
100
AcDbLine
 10
52.32981773390864
 20
-13.76585670322967
 30
0.0
 11
52.444473089574
 21
-13.88051205889504
 31
0.0
  0
LINE
  5
715
330
1F
100
AcDbEntity
  8
2
  6
CONTINUOUS
370
25
 62
7
100
AcDbLine
 10
52.47100971590174
 20
-13.48278461651084
 30
0.0
 11
52.67191952009811
 21
-13.68369442070721
 31
0.0
  0
LINE
  5
716
330
1F
100
AcDbEntity
  8
2
  6
CONTINUOUS
370
25
 62
7
100
AcDbLine
 10
52.61220169789483
 20
-13.199712529792
 30
0.0
 11
52.89936595062221
 21
-13.48687678251939
 31
0.0
  0
LINE
  5
717
330
1F
100
AcDbEntity
  8
2
  6
CONTINUOUS
370
25
 62
7
100
AcDbLine
 10
52.75339367988791
 20
-12.91664044307316
 30
0.0
 11
53.12681238114632
 21
-13.29005914433156
 31
0.0
  0
LINE
  5
718
330
1F
100
AcDbEntity
  8
2
  6
CONTINUOUS
370
25
 62
7
100
AcDbLine
 10
52.89458566188101
 20
-12.63356835635432
 30
0.0
 11
53.35425881167043
 21
-13.09324150614374
 31
0.0
  0
LINE
  5
719
330
1F
100
AcDbEntity
  8
2
  6
CONTINUOUS
370
25
 62
7
100
AcDbLine
 10
53.0357776438741
 20
-12.35049626963549
 30
0.0
 11
53.58170524219453
 21
-12.89642386795592
 31
0.0
  0
LINE
  5
71A
330
1F
100
AcDbEntity
  8
2
  6
CONTINUOUS
370
25
 62
7
100
AcDbLine
 10
53.17696962586719
 20
-12.06742418291665
 30
0.0
 11
53.80915167271863
 21
-12.69960622976809
 31
0.0
  0
LINE
  5
71B
330
1F
100
AcDbEntity
  8
2
  6
CONTINUOUS
370
25
 62
7
100
AcDbLine
 10
53.31816160786028
 20
-11.78435209619781
 30
0.0
 11
54.03659810324274
 21
-12.50278859158027
 31
0.0
  0
LINE
  5
71C
330
1F
100
AcDbEntity
  8
2
  6
CONTINUOUS
370
25
 62
7
100
AcDbLine
 10
53.45935358985336
 20
-11.50128000947897
 30
0.0
 11
54.26404453376684
 21
-12.30597095339244
 31
0.0
  0
LINE
  5
71D
330
1F
100
AcDbEntity
  8
2
  6
CONTINUOUS
370
25
 62
7
100
AcDbLine
 10
53.60054557184645
 20
-11.21820792276013
 30
0.0
 11
54.49149096429095
 21
-12.10915331520463
 31
0.0
  0
LINE
  5
71E
330
1F
100
AcDbEntity
  8
2
  6
CONTINUOUS
370
25
 62
7
100
AcDbLine
 10
53.74173755383955
 20
-10.9351358360413
 30
0.0
 11
54.71893739481506
 21
-11.9123356770168
 31
0.0
  0
LINE
  5
71F
330
1F
100
AcDbEntity
  8
2
  6
CONTINUOUS
370
25
 62
7
100
AcDbLine
 10
53.88292953583264
 20
-10.65206374932246
 30
0.0
 11
54.94638382533915
 21
-11.71551803882898
 31
0.0
  0
LINE
  5
720
330
1F
100
AcDbEntity
  8
2
  6
CONTINUOUS
370
25
 62
7
100
AcDbLine
 10
54.02412151782573
 20
-10.36899166260362
 30
0.0
 11
55.17383025586327
 21
-11.51870040064115
 31
0.0
  0
LINE
  5
721
330
1F
100
AcDbEntity
  8
2
  6
CONTINUOUS
370
25
 62
7
100
AcDbLine
 10
54.16531349981882
 20
-10.08591957588478
 30
0.0
 11
55.40127668638737
 21
-11.32188276245333
 31
0.0
  0
LINE
  5
722
330
1F
100
AcDbEntity
  8
2
  6
CONTINUOUS
370
25
 62
7
100
AcDbLine
 10
54.30650548181191
 20
-9.802847489165945
 30
0.0
 11
55.62872311691147
 21
-11.12506512426551
 31
0.0
  0
LINE
  5
723
330
1F
100
AcDbEntity
  8
2
  6
CONTINUOUS
370
25
 62
7
100
AcDbLine
 10
54.81616372213442
 20
-9.888241660776533
 30
0.0
 11
55.85616954743558
 21
-10.92824748607769
 31
0.0
  0
TEXT
  5
724
330
1F
100
AcDbEntity
  8
2
  6
CONTINUOUS
370
25
 62
7
100
AcDbText
 10
55.5
 20
-3.791666666666667
 30
0.0
 40
3.5
  1
90°
 50
90.0
 72
     1
 11
55.5
 21
0.0
 31
0.0
100
AcDbText
  0
LINE
  5
725
330
1F
100
AcDbEntity
  8
SK1
  6
CONTINUOUS
370
50
 62
4
100
AcDbLine
 10
32.2
 20
0.0
 30
0.0
 11
34.825
 21
0.0
 31
0.0
  0
LINE
  5
726
330
1F
100
AcDbEntity
  8
SK1
  6
CONTINUOUS
370
50
 62
4
100
AcDbLine
 10
32.2
 20
0.0
 30
0.0
 11
32.2
 21
2.625
 31
0.0
  0
ARC
  5
727
330
1F
100
AcDbEntity
  8
SK1
  6
CONTINUOUS
370
50
 62
4
100
AcDbCircle
 10
32.2
 20
0.0
 30
0.0
 40
2.625
100
AcDbArc
 50
0.0
 51
90.0
  0
LINE
  5
728
330
1F
100
AcDbEntity
  8
SK1
  6
CONTINUOUS
370
50
 62
4
100
AcDbLine
 10
32.2
 20
0.0
 30
0.0
 11
29.575
 21
0.0
 31
0.0
  0
ARC
  5
729
330
1F
100
AcDbEntity
  8
SK1
  6
CONTINUOUS
370
50
 62
4
100
AcDbCircle
 10
32.2
 20
0.0
 30
0.0
 40
2.625
100
AcDbArc
 50
180.0
 51
270.0
  0
LINE
  5
72A
330
1F
100
AcDbEntity
  8
SK1
  6
CONTINUOUS
370
50
 62
4
100
AcDbLine
 10
32.2
 20
-2.625
 30
0.0
 11
32.2
 21
0.0
 31
0.0
  0
ARC
  5
72B
330
1F
100
AcDbEntity
  8
SK1
  6
CONTINUOUS
370
50
 62
4
100
AcDbCircle
 10
32.2
 20
0.0
 30
0.0
 40
2.625
100
AcDbArc
 50
270.0
 51
0.0
  0
ARC
  5
72C
330
1F
100
AcDbEntity
  8
SK1
  6
CONTINUOUS
370
50
 62
4
100
AcDbCircle
 10
32.2
 20
0.0
 30
0.0
 40
2.625
100
AcDbArc
 50
90.0
 51
180.0
  0
LINE
  5
72D
330
1F
100
AcDbEntity
  8
SK1
  6
CONTINUOUS
370
50
 62
4
100
AcDbLine
 10
31.86575722192682
 20
-2.60347067499975
 30
0.0
 11
32.2
 21
-2.269227896926564
 31
0.0
  0
LINE
  5
72E
330
1F
100
AcDbEntity
  8
SK1
  6
CONTINUOUS
370
50
 62
4
100
AcDbLine
 10
34.46922789692657
 20
0.0
 30
0.0
 11
34.80347067499975
 21
0.3342427780731851
 31
0.0
  0
LINE
  5
72F
330
1F
100
AcDbEntity
  8
SK1
  6
CONTINUOUS
370
50
 62
4
100
AcDbLine
 10
31.55395391214687
 20
-2.544042924656761
 30
0.0
 11
32.2
 21
-1.897996836803626
 31
0.0
  0
LINE
  5
730
330
1F
100
AcDbEntity
  8
SK1
  6
CONTINUOUS
370
50
 62
4
100
AcDbLine
 10
34.09799683680363
 20
0.0
 30
0.0
 11
34.74404292465677
 21
0.6460460878531347
 31
0.0
  0
LINE
  5
731
330
1F
100
AcDbEntity
  8
SK1
  6
CONTINUOUS
370
50
 62
4
100
AcDbLine
 10
31.27222348891576
 20
-2.454542287764935
 30
0.0
 11
32.2
 21
-1.526765776680689
 31
0.0
  0
LINE
  5
732
330
1F
100
AcDbEntity
  8
SK1
  6
CONTINUOUS
370
50
 62
4
100
AcDbLine
 10
33.72676577668069
 20
0.0
 30
0.0
 11
34.65454228776494
 21
0.9277765110842457
 31
0.0
  0
LINE
  5
733
330
1F
100
AcDbEntity
  8
SK1
  6
CONTINUOUS
370
50
 62
4
100
AcDbLine
 10
31.01478120678253
 20
-2.340753509775221
 30
0.0
 11
32.2
 21
-1.155534716557751
 31
0.0
  0
LINE
  5
734
330
1F
100
AcDbEntity
  8
SK1
  6
CONTINUOUS
370
50
 62
4
100
AcDbLine
 10
33.35553471655776
 20
0.0
 30
0.0
 11
34.54075350977522
 21
1.185218793217471
 31
0.0
  0
LINE
  5
735
330
1F
100
AcDbEntity
  8
SK1
  6
CONTINUOUS
370
50
 62
4
100
AcDbLine
 10
30.77826543845548
 20
-2.206038217979337
 30
0.0
 11
32.2
 21
-0.7843036564348136
 31
0.0
  0
LINE
  5
736
330
1F
100
AcDbEntity
  8
SK1
  6
CONTINUOUS
370
50
 62
4
100
AcDbLine
 10
32.98430365643482
 20
0.0
 30
0.0
 11
34.40603821797934
 21
1.421734561544524
 31
0.0
  0
LINE
  5
737
330
1F
100
AcDbEntity
  8
SK1
  6
CONTINUOUS
370
50
 62
4
100
AcDbLine
 10
30.5626431117109
 20
-2.050429484600978
 30
0.0
 11
32.2
 21
-0.413072596311876
 31
0.0
  0
LINE
  5
738
330
1F
100
AcDbEntity
  8
SK1
  6
CONTINUOUS
370
50
 62
4
100
AcDbLine
 10
32.61307259631188
 20
0.0
 30
0.0
 11
34.25042948460098
 21
1.637356888289101
 31
0.0
  0
LINE
  5
739
330
1F
100
AcDbEntity
  8
SK1
  6
CONTINUOUS
370
50
 62
4
100
AcDbLine
 10
30.36568136807247
 20
-1.876160168116476
 30
0.0
 11
32.2
 21
-0.0418415361889384
 31
0.0
  0
LINE
  5
73A
330
1F
100
AcDbEntity
  8
SK1
  6
CONTINUOUS
370
50
 62
4
100
AcDbLine
 10
32.24184153618894
 20
0.0
 30
0.0
 11
34.07616016811648
 21
1.834318631927537
 31
0.0
  0
LINE
  5
73B
330
1F
100
AcDbEntity
  8
SK1
  6
CONTINUOUS
370
50
 62
4
100
AcDbLine
 10
30.18675942477632
 20
-1.683851051289679
 30
0.0
 11
31.87061047606601
 21
0.0
 31
0.0
  0
LINE
  5
73C
330
1F
100
AcDbEntity
  8
SK1
  6
CONTINUOUS
370
50
 62
4
100
AcDbLine
 10
32.2
 20
0.3293895239339992
 30
0.0
 11
33.88385105128968
 21
2.013240575223679
 31
0.0
  0
LINE
  5
73D
330
1F
100
AcDbEntity
  8
SK1
  6
CONTINUOUS
370
50
 62
4
100
AcDbLine
 10
30.02782161830507
 20
-1.471557797638
 30
0.0
 11
31.49937941594307
 21
0.0
 31
0.0
  0
LINE
  5
73E
330
1F
100
AcDbEntity
  8
SK1
  6
CONTINUOUS
370
50
 62
4
100
AcDbLine
 10
32.2
 20
0.7006205840569368
 30
0.0
 11
33.671557797638
 21
2.172178381694937
 31
0.0
  0
LINE
  5
73F
330
1F
100
AcDbEntity
  8
SK1
  6
CONTINUOUS
370
50
 62
4
100
AcDbLine
 10
29.88749288718529
 20
-1.240655468634837
 30
0.0
 11
31.12814835582013
 21
0.0
 31
0.0
  0
LINE
  5
740
330
1F
100
AcDbEntity
  8
SK1
  6
CONTINUOUS
370
50
 62
4
100
AcDbLine
 10
32.2
 20
1.071851644179874
 30
0.0
 11
33.44065546863484
 21
2.312507112814711
 31
0.0
  0
LINE
  5
741
330
1F
100
AcDbEntity
  8
SK1
  6
CONTINUOUS
370
50
 62
4
100
AcDbLine
 10
29.76877644288388
 20
-0.9881408528133115
 30
0.0
 11
30.75691729569719
 21
0.0
 31
0.0
  0
LINE
  5
742
330
1F
100
AcDbEntity
  8
SK1
  6
CONTINUOUS
370
50
 62
4
100
AcDbLine
 10
32.2
 20
1.443082704302812
 30
0.0
 11
33.18814085281331
 21
2.431223557116124
 31
0.0
  0
LINE
  5
743
330
1F
100
AcDbEntity
  8
SK1
  6
CONTINUOUS
370
50
 62
4
100
AcDbLine
 10
29.67444482033456
 20
-0.7112414152396886
 30
0.0
 11
30.38568623557425
 21
0.0
 31
0.0
  0
LINE
  5
744
330
1F
100
AcDbEntity
  8
SK1
  6
CONTINUOUS
370
50
 62
4
100
AcDbLine
 10
32.2
 20
1.81431376442575
 30
0.0
 11
32.91124141523969
 21
2.525555179665439
 31
0.0
  0
LINE
  5
745
330
1F
100
AcDbEntity
  8
SK1
  6
CONTINUOUS
370
50
 62
4
100
AcDbLine
 10
29.60797120571085
 20
-0.4064839697404632
 30
0.0
 11
30.01445517545132
 21
0.0
 31
0.0
  0
LINE
  5
746
330
1F
100
AcDbEntity
  8
SK1
  6
CONTINUOUS
370
50
 62
4
100
AcDbLine
 10
32.2
 20
2.185544824548687
 30
0.0
 11
32.60648396974047
 21
2.59202879428915
 31
0.0
  0
LINE
  5
747
330
1F
100
AcDbEntity
  8
SK1
  6
CONTINUOUS
370
50
 62
4
100
AcDbLine
 10
29.57707870331547
 20
-0.0661454120129097
 30
0.0
 11
29.64322411532838
 21
0.0
 31
0.0
  0
LINE
  5
748
330
1F
100
AcDbEntity
  8
SK1
  6
CONTINUOUS
370
50
 62
4
100
AcDbLine
 10
32.2
 20
2.556775884671625
 30
0.0
 11
32.26614541201291
 21
2.622921296684535
 31
0.0
  0
LINE
  5
749
330
1F
100
AcDbEntity
  8
SK1
  6
CONTINUOUS
370
50
 62
4
100
AcDbLine
 10
29.74579652643624
 20
-0.9287176037316112
 30
0.0
 11
31.27128239626839
 21
-2.454203473563768
 31
0.0
  0
LINE
  5
74A
330
1F
100
AcDbEntity
  8
SK1
  6
CONTINUOUS
370
50
 62
4
100
AcDbLine
 10
29.61045104563307
 20
-0.4221410628055069
 30
0.0
 11
31.7778589371945
 21
-2.589548954366935
 31
0.0
  0
LINE
  5
74B
330
1F
100
AcDbEntity
  8
SK1
  6
CONTINUOUS
370
50
 62
4
100
AcDbLine
 10
29.57550158008623
 20
-0.0159605371357268
 30
0.0
 11
32.18403946286428
 21
-2.624498419913778
 31
0.0
  0
LINE
  5
74C
330
1F
100
AcDbEntity
  8
SK1
  6
CONTINUOUS
370
50
 62
4
100
AcDbLine
 10
29.93077210307344
 20
0.0
 30
0.0
 11
32.2
 21
-2.269227896926564
 31
0.0
  0
LINE
  5
74D
330
1F
100
AcDbEntity
  8
SK1
  6
CONTINUOUS
370
50
 62
4
100
AcDbLine
 10
30.30200316319637
 20
0.0
 30
0.0
 11
32.2
 21
-1.897996836803626
 31
0.0
  0
LINE
  5
74E
330
1F
100
AcDbEntity
  8
SK1
  6
CONTINUOUS
370
50
 62
4
100
AcDbLine
 10
30.67323422331931
 20
0.0
 30
0.0
 11
32.2
 21
-1.526765776680689
 31
0.0
  0
LINE
  5
74F
330
1F
100
AcDbEntity
  8
SK1
  6
CONTINUOUS
370
50
 62
4
100
AcDbLine
 10
31.04446528344225
 20
0.0
 30
0.0
 11
32.2
 21
-1.155534716557752
 31
0.0
  0
LINE
  5
750
330
1F
100
AcDbEntity
  8
SK1
  6
CONTINUOUS
370
50
 62
4
100
AcDbLine
 10
31.41569634356519
 20
0.0
 30
0.0
 11
32.2
 21
-0.7843036564348145
 31
0.0
  0
LINE
  5
751
330
1F
100
AcDbEntity
  8
SK1
  6
CONTINUOUS
370
50
 62
4
100
AcDbLine
 10
31.78692740368813
 20
0.0
 30
0.0
 11
32.2
 21
-0.4130725963118769
 31
0.0
  0
LINE
  5
752
330
1F
100
AcDbEntity
  8
SK1
  6
CONTINUOUS
370
50
 62
4
100
AcDbLine
 10
32.15815846381106
 20
0.0
 30
0.0
 11
32.2
 21
-0.0418415361889393
 31
0.0
  0
LINE
  5
753
330
1F
100
AcDbEntity
  8
SK1
  6
CONTINUOUS
370
50
 62
4
100
AcDbLine
 10
32.2
 20
0.3293895239339975
 30
0.0
 11
32.529389523934
 21
0.0
 31
0.0
  0
LINE
  5
754
330
1F
100
AcDbEntity
  8
SK1
  6
CONTINUOUS
370
50
 62
4
100
AcDbLine
 10
32.2
 20
0.7006205840569351
 30
0.0
 11
32.90062058405694
 21
0.0
 31
0.0
  0
LINE
  5
755
330
1F
100
AcDbEntity
  8
SK1
  6
CONTINUOUS
370
50
 62
4
100
AcDbLine
 10
32.2
 20
1.071851644179873
 30
0.0
 11
33.27185164417988
 21
0.0
 31
0.0
  0
LINE
  5
756
330
1F
100
AcDbEntity
  8
SK1
  6
CONTINUOUS
370
50
 62
4
100
AcDbLine
 10
32.2
 20
1.44308270430281
 30
0.0
 11
33.64308270430281
 21
0.0
 31
0.0
  0
LINE
  5
757
330
1F
100
AcDbEntity
  8
SK1
  6
CONTINUOUS
370
50
 62
4
100
AcDbLine
 10
32.2
 20
1.814313764425748
 30
0.0
 11
34.01431376442575
 21
0.0
 31
0.0
  0
LINE
  5
758
330
1F
100
AcDbEntity
  8
SK1
  6
CONTINUOUS
370
50
 62
4
100
AcDbLine
 10
32.2
 20
2.185544824548685
 30
0.0
 11
34.38554482454869
 21
0.0
 31
0.0
  0
LINE
  5
759
330
1F
100
AcDbEntity
  8
SK1
  6
CONTINUOUS
370
50
 62
4
100
AcDbLine
 10
32.2
 20
2.556775884671622
 30
0.0
 11
34.75677588467163
 21
0.0
 31
0.0
  0
LINE
  5
75A
330
1F
100
AcDbEntity
  8
SK1
  6
CONTINUOUS
370
50
 62
4
100
AcDbLine
 10
32.5231531925751
 20
2.604853752219459
 30
0.0
 11
34.80485375221946
 21
0.3231531925751043
 31
0.0
  0
LINE
  5
75B
330
1F
100
AcDbEntity
  8
SK1
  6
CONTINUOUS
370
50
 62
4
100
AcDbLine
 10
32.99925237182748
 20
2.499985633090018
 30
0.0
 11
34.69998563309002
 21
0.7992523718274818
 31
0.0
  0
LINE
  5
75C
330
1F
100
AcDbEntity
  8
SK1
  6
CONTINUOUS
370
50
 62
4
100
AcDbLine
 10
33.76015793098176
 20
2.11031113405868
 30
0.0
 11
34.31031113405868
 21
1.560157930981759
 31
0.0
  0
ARC
  5
75D
330
1F
100
AcDbEntity
  8
SK6
  6
CONTINUOUS
370
25
 62
5
100
AcDbCircle
 10
61.26138200837651
 20
-26.19524575338786
 30
0.0
 40
2.760489128492204
100
AcDbArc
 50
338.9379403434233
 51
90.44457437511392
  0
LINE
  5
75E
330
1F
100
AcDbEntity
  8
SK6
  6
CONTINUOUS
370
25
 62
5
100
AcDbLine
 10
61.23996279695983
 20
-23.43483972421281
 30
0.0
 11
61.23996279695983
 21
-24.53789835613463
 31
0.0
  0
ARC
  5
75F
330
1F
100
AcDbEntity
  8
SK6
  6
CONTINUOUS
370
25
 62
5
100
AcDbCircle
 10
61.25050902936916
 20
-26.2152392456682
 30
0.0
 40
1.677374043771785
100
AcDbArc
 50
243.4214706017864
 51
90.36024081226107
  0
ARC
  5
760
330
1F
100
AcDbEntity
  8
SK6
  6
CONTINUOUS
370
25
 62
5
100
AcDbCircle
 10
63.77275989684958
 20
-25.7838319921556
 30
0.0
 40
3.800217030022754
100
AcDbArc
 50
210.5483731288539
 51
236.97801693668
  0
LINE
  5
761
330
1F
100
AcDbEntity
  8
SK6
  6
CONTINUOUS
370
25
 62
5
100
AcDbLine
 10
61.70179068512486
 20
-28.97016781867535
 30
0.0
 11
65.84373096742671
 21
-28.97016781867535
 31
0.0
  0
ARC
  5
762
330
1F
100
AcDbEntity
  8
SK6
  6
CONTINUOUS
370
25
 62
5
100
AcDbCircle
 10
63.77276183877257
 20
-25.7838320937346
 30
0.0
 40
3.800216899582472
100
AcDbArc
 50
303.0219828477959
 51
326.3732153033476
  0
LINE
  5
763
330
1F
100
AcDbEntity
  8
SK6
  6
CONTINUOUS
370
25
 62
5
100
AcDbLine
 10
66.93705975135722
 20
-27.8883194907709
 30
0.0
 11
63.57976170575461
 21
-27.8883194907709
 31
0.0
  0
LINE
  5
764
330
1F
100
AcDbEntity
  8
SK6
  6
CONTINUOUS
370
25
 62
5
100
AcDbLine
 10
63.57976170575461
 20
-27.8883194907709
 30
0.0
 11
67.49962109771987
 21
-26.52691829641694
 31
0.0
  0
ARC
  5
765
330
1F
100
AcDbEntity
  8
SK6
  6
CONTINUOUS
370
25
 62
5
100
AcDbCircle
 10
63.7727625615721
 20
-25.7838326048594
 30
0.0
 40
3.80021721661473
100
AcDbArc
 50
348.7238644184695
 51
53.46910512608842
  0
LINE
  5
766
330
1F
100
AcDbEntity
  8
SK6
  6
CONTINUOUS
370
25
 62
5
100
AcDbLine
 10
66.03486524538545
 20
-22.73022124429967
 30
0.0
 11
63.83745047882736
 21
-27.18730973507057
 31
0.0
  0
ENDSEC
  0
SECTION
  2
OBJECTS
  0
DICTIONARY
  5
C
330
0
100
AcDbDictionary
281
     1
  3
ACAD_GROUP
350
D
  3
ACAD_LAYOUT
350
1A
  3
ACAD_MATERIAL
350
3B
  3
ACAD_MLEADERSTYLE
350
769
  3
ACAD_MLINESTYLE
350
17
  3
ACAD_PLOTSETTINGS
350
19
  3
ACAD_PLOTSTYLENAME
350
E
  3
ACAD_SCALELIST
350
1B8
  3
ACAD_VISUALSTYLE
350
2A
  3
AcDbVariableDictionary
350
767
  0
DICTIONARY
  5
D
102
{ACAD_REACTORS
330
C
102
}
330
C
100
AcDbDictionary
281
     1
  0
DICTIONARY
  5
1A
102
{ACAD_REACTORS
330
C
102
}
330
C
100
AcDbDictionary
281
     1
  3
Layout1
350
1E
  3
Layout2
350
26
  3
Model
350
22
  0
DICTIONARY
  5
3B
102
{ACAD_REACTORS
330
C
102
}
330
C
100
AcDbDictionary
281
     1
  3
ByBlock
350
3D
  3
ByLayer
350
3C
  3
Global
350
3E
  0
DICTIONARY
  5
769
102
{ACAD_REACTORS
330
C
102
}
330
C
100
AcDbDictionary
281
     1
  0
DICTIONARY
  5
17
102
{ACAD_REACTORS
330
C
102
}
330
C
100
AcDbDictionary
281
     1
  3
Standard
350
18
  0
DICTIONARY
  5
19
102
{ACAD_REACTORS
330
C
102
}
330
C
100
AcDbDictionary
281
     1
  0
ACDBDICTIONARYWDFLT
  5
E
102
{ACAD_REACTORS
330
C
102
}
330
C
100
AcDbDictionary
281
     1
  3
Normal
350
F
100
AcDbDictionaryWithDefault
340
F
  0
DICTIONARY
  5
1B8
102
{ACAD_REACTORS
330
C
102
}
330
C
100
AcDbDictionary
281
     1
  3
A0
350
1B9
  3
A1
350
1BA
  3
A2
350
1BB
  3
A3
350
1BC
  3
A4
350
1BD
  3
A5
350
1BE
  3
A6
350
1BF
  3
A7
350
1C0
  3
A8
350
1C1
  3
A9
350
1C2
  3
B0
350
1C3
  3
B1
350
1C4
  3
B2
350
1C5
  3
B3
350
1C6
  3
B4
350
1C7
  3
B5
350
1C8
  3
B6
350
1C9
  3
B7
350
1CA
  3
B8
350
1CB
  3
B9
350
1CC
  3
C0
350
1CD
  3
C1
350
1CE
  3
C2
350
1CF
  3
C3
350
1D0
  3
C4
350
1D1
  3
C5
350
1D2
  3
C6
350
1D3
  3
C7
350
1D4
  3
C8
350
1D5
  3
C9
350
1D6
  3
D0
350
1D7
  3
D1
350
1D8
  3
D2
350
1D9
  0
DICTIONARY
  5
2A
102
{ACAD_REACTORS
330
C
102
}
330
C
100
AcDbDictionary
281
     1
  3
2dWireframe
350
2F
  3
3D Hidden
350
31
  3
3dWireframe
350
30
  3
Basic
350
32
  3
Brighten
350
36
  3
ColorChange
350
3A
  3
Conceptual
350
34
  3
Dim
350
35
  3
Facepattern
350
39
  3
Flat
350
2B
  3
FlatWithEdges
350
2C
  3
Gouraud
350
2D
  3
GouraudWithEdges
350
2E
  3
Linepattern
350
38
  3
Realistic
350
33
  3
Thicken
350
37
  0
DICTIONARY
  5
767
102
{ACAD_REACTORS
330
C
102
}
330
C
100
AcDbDictionary
281
     1
  3
CANNOSCALE
350
76C
  3
DIMASSOC
350
76D
  3
HIDETEXT
350
76E
  3
PSOLHEIGHT
350
76B
  3
PSOLWIDTH
350
76A
  0
LAYOUT
  5
1E
102
{ACAD_REACTORS
330
1A
102
}
330
1A
100
AcDbPlotSettings
  1

  2
none_device
  4

  6

 40
0.0
 41
0.0
 42
0.0
 43
0.0
 44
0.0
 45
0.0
 46
0.0
 47
0.0
 48
0.0
 49
0.0
140
0.0
141
0.0
142
1.0
143
1.0
 70
   688
 72
     0
 73
     0
 74
     5
  7

 75
    16
147
1.0
148
0.0
149
0.0
100
AcDbLayout
  1
Layout1
 70
     1
 71
     1
 10
0.0
 20
0.0
 11
420.0
 21
297.0
 12
0.0
 22
0.0
 32
0.0
 14
1.000000000000000E+20
 24
1.000000000000000E+20
 34
1.000000000000000E+20
 15
-1.000000000000000E+20
 25
-1.000000000000000E+20
 35
-1.000000000000000E+20
146
0.0
 13
0.0
 23
0.0
 33
0.0
 16
1.0
 26
0.0
 36
0.0
 17
0.0
 27
1.0
 37
0.0
 76
     0
330
1B
  0
LAYOUT
  5
26
102
{ACAD_REACTORS
330
1A
102
}
330
1A
100
AcDbPlotSettings
  1

  2
none_device
  4

  6

 40
0.0
 41
0.0
 42
0.0
 43
0.0
 44
0.0
 45
0.0
 46
0.0
 47
0.0
 48
0.0
 49
0.0
140
0.0
141
0.0
142
1.0
143
1.0
 70
   688
 72
     0
 73
     0
 74
     5
  7

 75
    16
147
1.0
148
0.0
149
0.0
100
AcDbLayout
  1
Layout2
 70
     1
 71
     2
 10
0.0
 20
0.0
 11
0.0
 21
0.0
 12
0.0
 22
0.0
 32
0.0
 14
0.0
 24
0.0
 34
0.0
 15
0.0
 25
0.0
 35
0.0
146
0.0
 13
0.0
 23
0.0
 33
0.0
 16
1.0
 26
0.0
 36
0.0
 17
0.0
 27
1.0
 37
0.0
 76
     0
330
23
  0
LAYOUT
  5
22
102
{ACAD_REACTORS
330
1A
102
}
330
1A
100
AcDbPlotSettings
  1

  2
none_device
  4

  6

 40
0.0
 41
0.0
 42
0.0
 43
0.0
 44
0.0
 45
0.0
 46
0.0
 47
0.0
 48
0.0
 49
0.0
140
0.0
141
0.0
142
1.0
143
1.0
 70
  1712
 72
     0
 73
     0
 74
     0
  7

 75
     0
147
1.0
148
0.0
149
0.0
100
AcDbLayout
  1
Model
 70
     1
 71
     0
 10
0.0
 20
0.0
 11
420.0
 21
297.0
 12
0.0
 22
0.0
 32
0.0
 14
0.0
 24
0.0
 34
0.0
 15
25.0
 25
35.0
 35
0.0
146
0.0
 13
0.0
 23
0.0
 33
0.0
 16
1.0
 26
0.0
 36
0.0
 17
0.0
 27
1.0
 37
0.0
 76
     0
330
1F
331
29
  0
MATERIAL
  5
3D
102
{ACAD_REACTORS
330
3B
102
}
102
{ACAD_XDICTIONARY
360
791
102
}
330
3B
100
AcDbMaterial
  1
ByBlock
  0
MATERIAL
  5
3C
102
{ACAD_REACTORS
330
3B
102
}
102
{ACAD_XDICTIONARY
360
78F
102
}
330
3B
100
AcDbMaterial
  1
ByLayer
  0
MATERIAL
  5
3E
102
{ACAD_REACTORS
330
3B
102
}
102
{ACAD_XDICTIONARY
360
793
102
}
330
3B
100
AcDbMaterial
  1
Global
  0
MLINESTYLE
  5
18
102
{ACAD_REACTORS
330
17
102
}
330
17
100
AcDbMlineStyle
  2
Standard
 70
     0
  3

 62
   256
 51
90.0
 52
90.0
 71
     2
 49
0.5
 62
   256
  6
BYLAYER
 49
-0.5
 62
   256
  6
BYLAYER
  0
ACDBPLACEHOLDER
  5
F
102
{ACAD_REACTORS
330
E
102
}
330
E
  0
SCALE
  5
1B9
102
{ACAD_REACTORS
330
1B8
102
}
330
1B8
100
AcDbScale
 70
     0
300
1:1
140
1.0
141
1.0
290
     1
  0
SCALE
  5
1BA
102
{ACAD_REACTORS
330
1B8
102
}
330
1B8
100
AcDbScale
 70
     0
300
1:2
140
1.0
141
2.0
290
     0
  0
SCALE
  5
1BB
102
{ACAD_REACTORS
330
1B8
102
}
330
1B8
100
AcDbScale
 70
     0
300
1:4
140
1.0
141
4.0
290
     0
  0
SCALE
  5
1BC
102
{ACAD_REACTORS
330
1B8
102
}
330
1B8
100
AcDbScale
 70
     0
300
1:5
140
1.0
141
5.0
290
     0
  0
SCALE
  5
1BD
102
{ACAD_REACTORS
330
1B8
102
}
330
1B8
100
AcDbScale
 70
     0
300
1:8
140
1.0
141
8.0
290
     0
  0
SCALE
  5
1BE
102
{ACAD_REACTORS
330
1B8
102
}
330
1B8
100
AcDbScale
 70
     0
300
1:10
140
1.0
141
10.0
290
     0
  0
SCALE
  5
1BF
102
{ACAD_REACTORS
330
1B8
102
}
330
1B8
100
AcDbScale
 70
     0
300
1:16
140
1.0
141
16.0
290
     0
  0
SCALE
  5
1C0
102
{ACAD_REACTORS
330
1B8
102
}
330
1B8
100
AcDbScale
 70
     0
300
1:20
140
1.0
141
20.0
290
     0
  0
SCALE
  5
1C1
102
{ACAD_REACTORS
330
1B8
102
}
330
1B8
100
AcDbScale
 70
     0
300
1:30
140
1.0
141
30.0
290
     0
  0
SCALE
  5
1C2
102
{ACAD_REACTORS
330
1B8
102
}
330
1B8
100
AcDbScale
 70
     0
300
1:40
140
1.0
141
40.0
290
     0
  0
SCALE
  5
1C3
102
{ACAD_REACTORS
330
1B8
102
}
330
1B8
100
AcDbScale
 70
     0
300
1:50
140
1.0
141
50.0
290
     0
  0
SCALE
  5
1C4
102
{ACAD_REACTORS
330
1B8
102
}
330
1B8
100
AcDbScale
 70
     0
300
1:100
140
1.0
141
100.0
290
     0
  0
SCALE
  5
1C5
102
{ACAD_REACTORS
330
1B8
102
}
330
1B8
100
AcDbScale
 70
     0
300
2:1
140
2.0
141
1.0
290
     0
  0
SCALE
  5
1C6
102
{ACAD_REACTORS
330
1B8
102
}
330
1B8
100
AcDbScale
 70
     0
300
4:1
140
4.0
141
1.0
290
     0
  0
SCALE
  5
1C7
102
{ACAD_REACTORS
330
1B8
102
}
330
1B8
100
AcDbScale
 70
     0
300
8:1
140
8.0
141
1.0
290
     0
  0
SCALE
  5
1C8
102
{ACAD_REACTORS
330
1B8
102
}
330
1B8
100
AcDbScale
 70
     0
300
10:1
140
10.0
141
1.0
290
     0
  0
SCALE
  5
1C9
102
{ACAD_REACTORS
330
1B8
102
}
330
1B8
100
AcDbScale
 70
     0
300
100:1
140
100.0
141
1.0
290
     0
  0
SCALE
  5
1CA
102
{ACAD_REACTORS
330
1B8
102
}
330
1B8
100
AcDbScale
 70
     0
300
1/128" = 1'-0"
140
0.0078125
141
12.0
290
     0
  0
SCALE
  5
1CB
102
{ACAD_REACTORS
330
1B8
102
}
330
1B8
100
AcDbScale
 70
     0
300
1/64" = 1'-0"
140
0.015625
141
12.0
290
     0
  0
SCALE
  5
1CC
102
{ACAD_REACTORS
330
1B8
102
}
330
1B8
100
AcDbScale
 70
     0
300
1/32" = 1'-0"
140
0.03125
141
12.0
290
     0
  0
SCALE
  5
1CD
102
{ACAD_REACTORS
330
1B8
102
}
330
1B8
100
AcDbScale
 70
     0
300
1/16" = 1'-0"
140
0.0625
141
12.0
290
     0
  0
SCALE
  5
1CE
102
{ACAD_REACTORS
330
1B8
102
}
330
1B8
100
AcDbScale
 70
     0
300
3/32" = 1'-0"
140
0.09375
141
12.0
290
     0
  0
SCALE
  5
1CF
102
{ACAD_REACTORS
330
1B8
102
}
330
1B8
100
AcDbScale
 70
     0
300
1/8" = 1'-0"
140
0.125
141
12.0
290
     0
  0
SCALE
  5
1D0
102
{ACAD_REACTORS
330
1B8
102
}
330
1B8
100
AcDbScale
 70
     0
300
3/16" = 1'-0"
140
0.1875
141
12.0
290
     0
  0
SCALE
  5
1D1
102
{ACAD_REACTORS
330
1B8
102
}
330
1B8
100
AcDbScale
 70
     0
300
1/4" = 1'-0"
140
0.25
141
12.0
290
     0
  0
SCALE
  5
1D2
102
{ACAD_REACTORS
330
1B8
102
}
330
1B8
100
AcDbScale
 70
     0
300
3/8" = 1'-0"
140
0.375
141
12.0
290
     0
  0
SCALE
  5
1D3
102
{ACAD_REACTORS
330
1B8
102
}
330
1B8
100
AcDbScale
 70
     0
300
1/2" = 1'-0"
140
0.5
141
12.0
290
     0
  0
SCALE
  5
1D4
102
{ACAD_REACTORS
330
1B8
102
}
330
1B8
100
AcDbScale
 70
     0
300
3/4" = 1'-0"
140
0.75
141
12.0
290
     0
  0
SCALE
  5
1D5
102
{ACAD_REACTORS
330
1B8
102
}
330
1B8
100
AcDbScale
 70
     0
300
1" = 1'-0"
140
1.0
141
12.0
290
     0
  0
SCALE
  5
1D6
102
{ACAD_REACTORS
330
1B8
102
}
330
1B8
100
AcDbScale
 70
     0
300
1-1/2" = 1'-0"
140
1.5
141
12.0
290
     0
  0
SCALE
  5
1D7
102
{ACAD_REACTORS
330
1B8
102
}
330
1B8
100
AcDbScale
 70
     0
300
3" = 1'-0"
140
3.0
141
12.0
290
     0
  0
SCALE
  5
1D8
102
{ACAD_REACTORS
330
1B8
102
}
330
1B8
100
AcDbScale
 70
     0
300
6" = 1'-0"
140
6.0
141
12.0
290
     0
  0
SCALE
  5
1D9
102
{ACAD_REACTORS
330
1B8
102
}
330
1B8
100
AcDbScale
 70
     0
300
1'-0" = 1'-0"
140
12.0
141
12.0
290
     0
  0
VISUALSTYLE
  5
2F
102
{ACAD_REACTORS
330
2A
102
}
102
{ACAD_XDICTIONARY
360
777
102
}
330
2A
100
AcDbVisualStyle
  2
2dWireframe
 70
     4
 71
     0
 72
     2
 73
     0
 90
        0
 40
-0.6
 41
-30.0
 62
     5
 63
     7
 74
     1
 91
        4
 64
     7
 65
   257
 75
     1
175
     1
 42
1.0
 92
        0
 66
   257
 43
1.0
 76
     1
 77
     6
 78
     2
 67
     7
 79
     5
170
     0
171
     0
290
     0
174
     0
 93
        1
 44
0.0
173
     0
291
     0
 45
0.0
1001
ACAD
1000
AcDbSavedByObjectVersion
1070
     0
  0
VISUALSTYLE
  5
31
102
{ACAD_REACTORS
330
2A
102
}
102
{ACAD_XDICTIONARY
360
77B
102
}
330
2A
100
AcDbVisualStyle
  2
3D Hidden
 70
     6
 71
     1
 72
     2
 73
     2
 90
        0
 40
-0.6
 41
-30.0
 62
     5
 63
     7
 74
     2
 91
        2
 64
     7
 65
   257
 75
     2
175
     1
 42
40.0
 92
        0
 66
   257
 43
1.0
 76
     1
 77
     6
 78
     2
 67
     7
 79
     3
170
     0
171
     0
290
     0
174
     0
 93
        1
 44
0.0
173
     0
291
     0
 45
0.0
1001
ACAD
1000
AcDbSavedByObjectVersion
1070
     0
  0
VISUALSTYLE
  5
30
102
{ACAD_REACTORS
330
2A
102
}
102
{ACAD_XDICTIONARY
360
779
102
}
330
2A
100
AcDbVisualStyle
  2
3dWireframe
 70
     5
 71
     0
 72
     2
 73
     0
 90
        0
 40
-0.6
 41
-30.0
 62
     5
 63
     7
 74
     1
 91
        4
 64
     7
 65
   257
 75
     1
175
     1
 42
1.0
 92
        0
 66
   257
 43
1.0
 76
     1
 77
     6
 78
     2
 67
     7
 79
     5
170
     0
171
     0
290
     0
174
     0
 93
        1
 44
0.0
173
     0
291
     0
 45
0.0
1001
ACAD
1000
AcDbSavedByObjectVersion
1070
     0
  0
VISUALSTYLE
  5
32
102
{ACAD_REACTORS
330
2A
102
}
102
{ACAD_XDICTIONARY
360
77D
102
}
330
2A
100
AcDbVisualStyle
  2
Basic
 70
     7
 71
     1
 72
     0
 73
     1
 90
        0
 40
-0.6
 41
-30.0
 62
     5
 63
     7
 74
     0
 91
        4
 64
     7
 65
   257
 75
     1
175
     1
 42
1.0
 92
        8
 66
     7
 43
1.0
 76
     1
 77
     6
 78
     2
 67
     7
 79
     5
170
     0
171
     0
290
     0
174
     0
 93
        1
 44
0.0
173
     0
291
     1
 45
0.0
1001
ACAD
1000
AcDbSavedByObjectVersion
1070
     0
  0
VISUALSTYLE
  5
36
102
{ACAD_REACTORS
330
2A
102
}
102
{ACAD_XDICTIONARY
360
785
102
}
330
2A
100
AcDbVisualStyle
  2
Brighten
 70
    12
 71
     2
 72
     2
 73
     0
 90
        0
 40
-0.6
 41
-30.0
 62
     5
 63
     7
 74
     1
 91
        4
 64
     7
 65
   257
 75
     1
175
     1
 42
1.0
 92
        8
 66
     7
 43
1.0
 76
     1
 77
     6
 78
     2
 67
     7
 79
     5
170
     0
171
     0
290
     0
174
     0
 93
        1
 44
50.0
173
     0
291
     1
 45
0.0
1001
ACAD
1000
AcDbSavedByObjectVersion
1070
     0
  0
VISUALSTYLE
  5
3A
102
{ACAD_REACTORS
330
2A
102
}
102
{ACAD_XDICTIONARY
360
78D
102
}
330
2A
100
AcDbVisualStyle
  2
ColorChange
 70
    16
 71
     2
 72
     2
 73
     3
 90
        0
 40
-0.6
 41
-30.0
 62
     5
 63
     8
 74
     1
 91
        4
 64
     7
 65
   257
 75
     1
175
     1
 42
1.0
 92
        8
 66
     8
 43
1.0
 76
     1
 77
     6
 78
     2
 67
     7
 79
     5
170
     0
171
     0
290
     0
174
     0
 93
        1
 44
0.0
173
     0
291
     1
 45
0.0
1001
ACAD
1000
AcDbSavedByObjectVersion
1070
     0
  0
VISUALSTYLE
  5
34
102
{ACAD_REACTORS
330
2A
102
}
102
{ACAD_XDICTIONARY
360
781
102
}
330
2A
100
AcDbVisualStyle
  2
Conceptual
 70
     9
 71
     3
 72
     2
 73
     0
 90
        0
 40
-0.6
 41
-30.0
 62
     5
 63
     7
 74
     2
 91
        2
 64
     7
 65
   257
 75
     1
175
     1
 42
40.0
 92
        8
 66
     7
 43
1.0
 76
     1
 77
     6
 78
     2
 67
     7
 79
     3
170
     0
171
     0
290
     0
174
     0
 93
        1
 44
0.0
173
     0
291
     0
 45
0.0
1001
ACAD
1000
AcDbSavedByObjectVersion
1070
     0
  0
VISUALSTYLE
  5
35
102
{ACAD_REACTORS
330
2A
102
}
102
{ACAD_XDICTIONARY
360
783
102
}
330
2A
100
AcDbVisualStyle
  2
Dim
 70
    11
 71
     2
 72
     2
 73
     0
 90
        0
 40
-0.6
 41
-30.0
 62
     5
 63
     7
 74
     1
 91
        4
 64
     7
 65
   257
 75
     1
175
     1
 42
1.0
 92
        8
 66
     7
 43
1.0
 76
     1
 77
     6
 78
     2
 67
     7
 79
     5
170
     0
171
     0
290
     0
174
     0
 93
        1
 44
-50.0
173
     0
291
     1
 45
0.0
1001
ACAD
1000
AcDbSavedByObjectVersion
1070
     0
  0
VISUALSTYLE
  5
39
102
{ACAD_REACTORS
330
2A
102
}
102
{ACAD_XDICTIONARY
360
78B
102
}
330
2A
100
AcDbVisualStyle
  2
Facepattern
 70
    15
 71
     2
 72
     2
 73
     0
 90
        0
 40
-0.6
 41
-30.0
 62
     5
 63
     7
 74
     1
 91
        4
 64
     7
 65
   257
 75
     1
175
     1
 42
1.0
 92
        8
 66
     7
 43
1.0
 76
     1
 77
     6
 78
     2
 67
     7
 79
     5
170
     0
171
     0
290
     0
174
     0
 93
        1
 44
0.0
173
     0
291
     1
 45
0.0
1001
ACAD
1000
AcDbSavedByObjectVersion
1070
     0
  0
VISUALSTYLE
  5
2B
102
{ACAD_REACTORS
330
2A
102
}
102
{ACAD_XDICTIONARY
360
76F
102
}
330
2A
100
AcDbVisualStyle
  2
Flat
 70
     0
 71
     2
 72
     1
 73
     1
 90
        2
 40
-0.6
 41
30.0
 62
     5
 63
     7
 74
     0
 91
        4
 64
     7
 65
   257
 75
     1
175
     1
 42
1.0
 92
        8
 66
     7
 43
1.0
 76
     1
 77
     6
 78
     2
 67
     7
 79
     5
170
     0
171
     0
290
     0
174
     0
 93
       13
 44
0.0
173
     0
291
     1
 45
0.0
1001
ACAD
1000
AcDbSavedByObjectVersion
1070
     0
  0
VISUALSTYLE
  5
2C
102
{ACAD_REACTORS
330
2A
102
}
102
{ACAD_XDICTIONARY
360
771
102
}
330
2A
100
AcDbVisualStyle
  2
FlatWithEdges
 70
     1
 71
     2
 72
     1
 73
     1
 90
        2
 40
-0.6
 41
30.0
 62
     5
 63
     7
 74
     1
 91
        4
 64
     7
 65
   257
 75
     1
175
     1
 42
1.0
 92
        0
 66
   257
 43
1.0
 76
     1
 77
     6
 78
     2
 67
     7
 79
     5
170
     0
171
     0
290
     0
174
     0
 93
       13
 44
0.0
173
     0
291
     1
 45
0.0
1001
ACAD
1000
AcDbSavedByObjectVersion
1070
     0
  0
VISUALSTYLE
  5
2D
102
{ACAD_REACTORS
330
2A
102
}
102
{ACAD_XDICTIONARY
360
773
102
}
330
2A
100
AcDbVisualStyle
  2
Gouraud
 70
     2
 71
     2
 72
     2
 73
     1
 90
        2
 40
-0.6
 41
30.0
 62
     5
 63
     7
 74
     0
 91
        4
 64
     7
 65
   257
 75
     1
175
     1
 42
1.0
 92
        0
 66
     7
 43
1.0
 76
     1
 77
     6
 78
     2
 67
     7
 79
     5
170
     0
171
     0
290
     0
174
     0
 93
       13
 44
0.0
173
     0
291
     1
 45
0.0
1001
ACAD
1000
AcDbSavedByObjectVersion
1070
     0
  0
VISUALSTYLE
  5
2E
102
{ACAD_REACTORS
330
2A
102
}
102
{ACAD_XDICTIONARY
360
775
102
}
330
2A
100
AcDbVisualStyle
  2
GouraudWithEdges
 70
     3
 71
     2
 72
     2
 73
     1
 90
        2
 40
-0.6
 41
30.0
 62
     5
 63
     7
 74
     1
 91
        4
 64
     7
 65
   257
 75
     1
175
     1
 42
1.0
 92
        0
 66
   257
 43
1.0
 76
     1
 77
     6
 78
     2
 67
     7
 79
     5
170
     0
171
     0
290
     0
174
     0
 93
       13
 44
0.0
173
     0
291
     1
 45
0.0
1001
ACAD
1000
AcDbSavedByObjectVersion
1070
     0
  0
VISUALSTYLE
  5
38
102
{ACAD_REACTORS
330
2A
102
}
102
{ACAD_XDICTIONARY
360
789
102
}
330
2A
100
AcDbVisualStyle
  2
Linepattern
 70
    14
 71
     2
 72
     2
 73
     0
 90
        0
 40
-0.6
 41
-30.0
 62
     5
 63
     7
 74
     1
 91
        4
 64
     7
 65
   257
 75
     7
175
     7
 42
1.0
 92
        8
 66
     7
 43
1.0
 76
     1
 77
     6
 78
     2
 67
     7
 79
     5
170
     0
171
     0
290
     0
174
     0
 93
        1
 44
0.0
173
     0
291
     1
 45
0.0
1001
ACAD
1000
AcDbSavedByObjectVersion
1070
     0
  0
VISUALSTYLE
  5
33
102
{ACAD_REACTORS
330
2A
102
}
102
{ACAD_XDICTIONARY
360
77F
102
}
330
2A
100
AcDbVisualStyle
  2
Realistic
 70
     8
 71
     2
 72
     2
 73
     0
 90
        0
 40
-0.6
 41
-30.0
 62
     5
 63
     7
 74
     1
 91
        0
 64
     7
 65
   257
 75
     1
175
     1
 42
1.0
 92
        8
 66
     8
 43
1.0
 76
     1
 77
     6
 78
     2
 67
     7
 79
     5
170
     0
171
     0
290
     0
174
     0
 93
       13
 44
0.0
173
     0
291
     0
 45
0.0
1001
ACAD
1000
AcDbSavedByObjectVersion
1070
     0
  0
VISUALSTYLE
  5
37
102
{ACAD_REACTORS
330
2A
102
}
102
{ACAD_XDICTIONARY
360
787
102
}
330
2A
100
AcDbVisualStyle
  2
Thicken
 70
    13
 71
     2
 72
     2
 73
     0
 90
        0
 40
-0.6
 41
-30.0
 62
     5
 63
     7
 74
     1
 91
        4
 64
     7
 65
   257
 75
     1
175
     1
 42
1.0
 92
       12
 66
     7
 43
1.0
 76
     1
 77
     6
 78
     2
 67
     7
 79
     5
170
     0
171
     0
290
     0
174
     0
 93
        1
 44
0.0
173
     0
291
     1
 45
0.0
1001
ACAD
1000
AcDbSavedByObjectVersion
1070
     0
  0
DICTIONARYVAR
  5
76C
102
{ACAD_REACTORS
330
767
102
}
330
767
100
DictionaryVariables
280
     0
  1
1:1
  0
DICTIONARYVAR
  5
76D
102
{ACAD_REACTORS
330
767
102
}
330
767
100
DictionaryVariables
280
     0
  1
2
  0
DICTIONARYVAR
  5
76E
102
{ACAD_REACTORS
330
767
102
}
330
767
100
DictionaryVariables
280
     0
  1
1
  0
DICTIONARYVAR
  5
76B
102
{ACAD_REACTORS
330
767
102
}
330
767
100
DictionaryVariables
280
     0
  1
80.000000
  0
DICTIONARYVAR
  5
76A
102
{ACAD_REACTORS
330
767
102
}
330
767
100
DictionaryVariables
280
     0
  1
5.000000
  0
DICTIONARY
  5
791
330
3D
100
AcDbDictionary
280
     1
281
     1
  3
ACAD_XREC_ROUNDTRIP
360
792
  0
DICTIONARY
  5
78F
330
3C
100
AcDbDictionary
280
     1
281
     1
  3
ACAD_XREC_ROUNDTRIP
360
790
  0
DICTIONARY
  5
793
330
3E
100
AcDbDictionary
280
     1
281
     1
  3
ACAD_XREC_ROUNDTRIP
360
794
  0
DICTIONARY
  5
777
330
2F
100
AcDbDictionary
280
     1
281
     1
  3
ACAD_XREC_ROUNDTRIP
360
778
  0
DICTIONARY
  5
77B
330
31
100
AcDbDictionary
280
     1
281
     1
  3
ACAD_XREC_ROUNDTRIP
360
77C
  0
DICTIONARY
  5
779
330
30
100
AcDbDictionary
280
     1
281
     1
  3
ACAD_XREC_ROUNDTRIP
360
77A
  0
DICTIONARY
  5
77D
330
32
100
AcDbDictionary
280
     1
281
     1
  3
ACAD_XREC_ROUNDTRIP
360
77E
  0
DICTIONARY
  5
785
330
36
100
AcDbDictionary
280
     1
281
     1
  3
ACAD_XREC_ROUNDTRIP
360
786
  0
DICTIONARY
  5
78D
330
3A
100
AcDbDictionary
280
     1
281
     1
  3
ACAD_XREC_ROUNDTRIP
360
78E
  0
DICTIONARY
  5
781
330
34
100
AcDbDictionary
280
     1
281
     1
  3
ACAD_XREC_ROUNDTRIP
360
782
  0
DICTIONARY
  5
783
330
35
100
AcDbDictionary
280
     1
281
     1
  3
ACAD_XREC_ROUNDTRIP
360
784
  0
DICTIONARY
  5
78B
330
39
100
AcDbDictionary
280
     1
281
     1
  3
ACAD_XREC_ROUNDTRIP
360
78C
  0
DICTIONARY
  5
76F
330
2B
100
AcDbDictionary
280
     1
281
     1
  3
ACAD_XREC_ROUNDTRIP
360
770
  0
DICTIONARY
  5
771
330
2C
100
AcDbDictionary
280
     1
281
     1
  3
ACAD_XREC_ROUNDTRIP
360
772
  0
DICTIONARY
  5
773
330
2D
100
AcDbDictionary
280
     1
281
     1
  3
ACAD_XREC_ROUNDTRIP
360
774
  0
DICTIONARY
  5
775
330
2E
100
AcDbDictionary
280
     1
281
     1
  3
ACAD_XREC_ROUNDTRIP
360
776
  0
DICTIONARY
  5
789
330
38
100
AcDbDictionary
280
     1
281
     1
  3
ACAD_XREC_ROUNDTRIP
360
78A
  0
DICTIONARY
  5
77F
330
33
100
AcDbDictionary
280
     1
281
     1
  3
ACAD_XREC_ROUNDTRIP
360
780
  0
DICTIONARY
  5
787
330
37
100
AcDbDictionary
280
     1
281
     1
  3
ACAD_XREC_ROUNDTRIP
360
788
  0
XRECORD
  5
792
102
{ACAD_REACTORS
330
791
102
}
330
791
100
AcDbXrecord
280
     1
102
MATERIAL
148
0.0
149
0.0
149
0.0
 93
        0
 94
      127
282
     0
 72
     1
 77
     1
171
     1
175
     1
179
     1
273
     0
  0
XRECORD
  5
790
102
{ACAD_REACTORS
330
78F
102
}
330
78F
100
AcDbXrecord
280
     1
102
MATERIAL
148
0.0
149
0.0
149
0.0
 93
        0
 94
      127
282
     0
 72
     1
 77
     1
171
     1
175
     1
179
     1
273
     0
  0
XRECORD
  5
794
102
{ACAD_REACTORS
330
793
102
}
330
793
100
AcDbXrecord
280
     1
102
MATERIAL
148
0.0
149
0.0
149
0.0
 93
        0
 94
      127
282
     0
 72
     1
 77
     1
171
     1
175
     1
179
     1
273
     0
  0
XRECORD
  5
778
102
{ACAD_REACTORS
330
777
102
}
330
777
100
AcDbXrecord
280
     1
102
RTVSPropertyOp0
 70
     1
102
RTVSPropertyOp1
 70
     1
102
RTVSPropertyOp2
 70
     1
102
RTVSPropertyOp3
 70
     1
102
RTVSPropertyOp4
 70
     1
102
RTVSPropertyOp5
 70
     1
102
RTVSPropertyOp6
 70
     1
102
RTVSPropertyOp7
 70
     1
102
RTVSPropertyOp8
 70
     1
102
RTVSPropertyOp9
 70
     1
102
RTVSPropertyOp10
 70
     1
102
RTVSPropertyOp11
 70
     1
102
RTVSPropertyOp12
 70
     1
102
RTVSPropertyOp13
 70
     1
102
RTVSPropertyOp14
 70
     1
102
RTVSPropertyOp15
 70
     1
102
RTVSPropertyOp16
 70
     1
102
RTVSPropertyOp17
 70
     1
102
RTVSPropertyOp18
 70
     1
102
RTVSPropertyOp19
 70
     1
102
RTVSPropertyOp20
 70
     1
102
RTVSPropertyOp21
 70
     1
102
RTVSPropertyOp22
 70
     1
102
RTVSPropertyOp23
 70
     1
102
RTVSPropertyOp24
 70
     1
102
RTVSPropertyOp25
 70
     1
102
RTVSPropertyOp26
 70
     1
102
RTVSPropertyOp27
 70
     1
  0
XRECORD
  5
77C
102
{ACAD_REACTORS
330
77B
102
}
330
77B
100
AcDbXrecord
280
     1
102
RTVSPropertyOp0
 70
     1
102
RTVSPropertyOp1
 70
     1
102
RTVSPropertyOp2
 70
     1
102
RTVSPropertyOp3
 70
     1
102
RTVSPropertyOp4
 70
     1
102
RTVSPropertyOp5
 70
     1
102
RTVSPropertyOp6
 70
     1
102
RTVSPropertyOp7
 70
     1
102
RTVSPropertyOp8
 70
     1
102
RTVSPropertyOp9
 70
     1
102
RTVSPropertyOp10
 70
     1
102
RTVSPropertyOp11
 70
     1
102
RTVSPropertyOp12
 70
     1
102
RTVSPropertyOp13
 70
     1
102
RTVSPropertyOp14
 70
     1
102
RTVSPropertyOp15
 70
     1
102
RTVSPropertyOp16
 70
     1
102
RTVSPropertyOp17
 70
     1
102
RTVSPropertyOp18
 70
     1
102
RTVSPropertyOp19
 70
     1
102
RTVSPropertyOp20
 70
     1
102
RTVSPropertyOp21
 70
     1
102
RTVSPropertyOp22
 70
     1
102
RTVSPropertyOp23
 70
     1
102
RTVSPropertyOp24
 70
     1
102
RTVSPropertyOp25
 70
     1
102
RTVSPropertyOp26
 70
     1
102
RTVSPropertyOp27
 70
     1
  0
XRECORD
  5
77A
102
{ACAD_REACTORS
330
779
102
}
330
779
100
AcDbXrecord
280
     1
102
RTVSPropertyOp0
 70
     1
102
RTVSPropertyOp1
 70
     1
102
RTVSPropertyOp2
 70
     1
102
RTVSPropertyOp3
 70
     1
102
RTVSPropertyOp4
 70
     1
102
RTVSPropertyOp5
 70
     1
102
RTVSPropertyOp6
 70
     1
102
RTVSPropertyOp7
 70
     1
102
RTVSPropertyOp8
 70
     1
102
RTVSPropertyOp9
 70
     1
102
RTVSPropertyOp10
 70
     1
102
RTVSPropertyOp11
 70
     1
102
RTVSPropertyOp12
 70
     1
102
RTVSPropertyOp13
 70
     1
102
RTVSPropertyOp14
 70
     1
102
RTVSPropertyOp15
 70
     1
102
RTVSPropertyOp16
 70
     1
102
RTVSPropertyOp17
 70
     1
102
RTVSPropertyOp18
 70
     1
102
RTVSPropertyOp19
 70
     1
102
RTVSPropertyOp20
 70
     1
102
RTVSPropertyOp21
 70
     1
102
RTVSPropertyOp22
 70
     1
102
RTVSPropertyOp23
 70
     1
102
RTVSPropertyOp24
 70
     1
102
RTVSPropertyOp25
 70
     1
102
RTVSPropertyOp26
 70
     1
102
RTVSPropertyOp27
 70
     1
  0
XRECORD
  5
77E
102
{ACAD_REACTORS
330
77D
102
}
330
77D
100
AcDbXrecord
280
     1
102
RTVSPropertyOp0
 70
     1
102
RTVSPropertyOp1
 70
     1
102
RTVSPropertyOp2
 70
     1
102
RTVSPropertyOp3
 70
     1
102
RTVSPropertyOp4
 70
     1
102
RTVSPropertyOp5
 70
     1
102
RTVSPropertyOp6
 70
     1
102
RTVSPropertyOp7
 70
     1
102
RTVSPropertyOp8
 70
     1
102
RTVSPropertyOp9
 70
     1
102
RTVSPropertyOp10
 70
     1
102
RTVSPropertyOp11
 70
     1
102
RTVSPropertyOp12
 70
     1
102
RTVSPropertyOp13
 70
     1
102
RTVSPropertyOp14
 70
     1
102
RTVSPropertyOp15
 70
     1
102
RTVSPropertyOp16
 70
     1
102
RTVSPropertyOp17
 70
     1
102
RTVSPropertyOp18
 70
     1
102
RTVSPropertyOp19
 70
     1
102
RTVSPropertyOp20
 70
     1
102
RTVSPropertyOp21
 70
     1
102
RTVSPropertyOp22
 70
     1
102
RTVSPropertyOp23
 70
     1
102
RTVSPropertyOp24
 70
     1
102
RTVSPropertyOp25
 70
     1
102
RTVSPropertyOp26
 70
     1
102
RTVSPropertyOp27
 70
     1
  0
XRECORD
  5
786
102
{ACAD_REACTORS
330
785
102
}
330
785
100
AcDbXrecord
280
     1
102
RTVSPropertyOp0
 70
     1
102
RTVSPropertyOp1
 70
     1
102
RTVSPropertyOp2
 70
     1
102
RTVSPropertyOp3
 70
     1
102
RTVSPropertyOp4
 70
     1
102
RTVSPropertyOp5
 70
     1
102
RTVSPropertyOp6
 70
     1
102
RTVSPropertyOp7
 70
     1
102
RTVSPropertyOp8
 70
     1
102
RTVSPropertyOp9
 70
     1
102
RTVSPropertyOp10
 70
     1
102
RTVSPropertyOp11
 70
     1
102
RTVSPropertyOp12
 70
     1
102
RTVSPropertyOp13
 70
     1
102
RTVSPropertyOp14
 70
     1
102
RTVSPropertyOp15
 70
     1
102
RTVSPropertyOp16
 70
     1
102
RTVSPropertyOp17
 70
     1
102
RTVSPropertyOp18
 70
     1
102
RTVSPropertyOp19
 70
     1
102
RTVSPropertyOp20
 70
     1
102
RTVSPropertyOp21
 70
     1
102
RTVSPropertyOp22
 70
     1
102
RTVSPropertyOp23
 70
     1
102
RTVSPropertyOp24
 70
     1
102
RTVSPropertyOp25
 70
     1
102
RTVSPropertyOp26
 70
     1
102
RTVSPropertyOp27
 70
     1
  0
XRECORD
  5
78E
102
{ACAD_REACTORS
330
78D
102
}
330
78D
100
AcDbXrecord
280
     1
102
RTVSPropertyOp0
 70
     1
102
RTVSPropertyOp1
 70
     1
102
RTVSPropertyOp2
 70
     1
102
RTVSPropertyOp3
 70
     1
102
RTVSPropertyOp4
 70
     1
102
RTVSPropertyOp5
 70
     1
102
RTVSPropertyOp6
 70
     1
102
RTVSPropertyOp7
 70
     1
102
RTVSPropertyOp8
 70
     1
102
RTVSPropertyOp9
 70
     1
102
RTVSPropertyOp10
 70
     1
102
RTVSPropertyOp11
 70
     1
102
RTVSPropertyOp12
 70
     1
102
RTVSPropertyOp13
 70
     1
102
RTVSPropertyOp14
 70
     1
102
RTVSPropertyOp15
 70
     1
102
RTVSPropertyOp16
 70
     1
102
RTVSPropertyOp17
 70
     1
102
RTVSPropertyOp18
 70
     1
102
RTVSPropertyOp19
 70
     1
102
RTVSPropertyOp20
 70
     1
102
RTVSPropertyOp21
 70
     1
102
RTVSPropertyOp22
 70
     1
102
RTVSPropertyOp23
 70
     1
102
RTVSPropertyOp24
 70
     1
102
RTVSPropertyOp25
 70
     1
102
RTVSPropertyOp26
 70
     1
102
RTVSPropertyOp27
 70
     1
  0
XRECORD
  5
782
102
{ACAD_REACTORS
330
781
102
}
330
781
100
AcDbXrecord
280
     1
102
RTVSPropertyOp0
 70
     1
102
RTVSPropertyOp1
 70
     1
102
RTVSPropertyOp2
 70
     1
102
RTVSPropertyOp3
 70
     1
102
RTVSPropertyOp4
 70
     1
102
RTVSPropertyOp5
 70
     1
102
RTVSPropertyOp6
 70
     1
102
RTVSPropertyOp7
 70
     1
102
RTVSPropertyOp8
 70
     1
102
RTVSPropertyOp9
 70
     1
102
RTVSPropertyOp10
 70
     1
102
RTVSPropertyOp11
 70
     1
102
RTVSPropertyOp12
 70
     1
102
RTVSPropertyOp13
 70
     1
102
RTVSPropertyOp14
 70
     1
102
RTVSPropertyOp15
 70
     1
102
RTVSPropertyOp16
 70
     1
102
RTVSPropertyOp17
 70
     1
102
RTVSPropertyOp18
 70
     1
102
RTVSPropertyOp19
 70
     1
102
RTVSPropertyOp20
 70
     1
102
RTVSPropertyOp21
 70
     1
102
RTVSPropertyOp22
 70
     1
102
RTVSPropertyOp23
 70
     1
102
RTVSPropertyOp24
 70
     1
102
RTVSPropertyOp25
 70
     1
102
RTVSPropertyOp26
 70
     1
102
RTVSPropertyOp27
 70
     1
  0
XRECORD
  5
784
102
{ACAD_REACTORS
330
783
102
}
330
783
100
AcDbXrecord
280
     1
102
RTVSPropertyOp0
 70
     1
102
RTVSPropertyOp1
 70
     1
102
RTVSPropertyOp2
 70
     1
102
RTVSPropertyOp3
 70
     1
102
RTVSPropertyOp4
 70
     1
102
RTVSPropertyOp5
 70
     1
102
RTVSPropertyOp6
 70
     1
102
RTVSPropertyOp7
 70
     1
102
RTVSPropertyOp8
 70
     1
102
RTVSPropertyOp9
 70
     1
102
RTVSPropertyOp10
 70
     1
102
RTVSPropertyOp11
 70
     1
102
RTVSPropertyOp12
 70
     1
102
RTVSPropertyOp13
 70
     1
102
RTVSPropertyOp14
 70
     1
102
RTVSPropertyOp15
 70
     1
102
RTVSPropertyOp16
 70
     1
102
RTVSPropertyOp17
 70
     1
102
RTVSPropertyOp18
 70
     1
102
RTVSPropertyOp19
 70
     1
102
RTVSPropertyOp20
 70
     1
102
RTVSPropertyOp21
 70
     1
102
RTVSPropertyOp22
 70
     1
102
RTVSPropertyOp23
 70
     1
102
RTVSPropertyOp24
 70
     1
102
RTVSPropertyOp25
 70
     1
102
RTVSPropertyOp26
 70
     1
102
RTVSPropertyOp27
 70
     1
  0
XRECORD
  5
78C
102
{ACAD_REACTORS
330
78B
102
}
330
78B
100
AcDbXrecord
280
     1
102
RTVSPropertyOp0
 70
     1
102
RTVSPropertyOp1
 70
     1
102
RTVSPropertyOp2
 70
     1
102
RTVSPropertyOp3
 70
     1
102
RTVSPropertyOp4
 70
     1
102
RTVSPropertyOp5
 70
     1
102
RTVSPropertyOp6
 70
     1
102
RTVSPropertyOp7
 70
     1
102
RTVSPropertyOp8
 70
     1
102
RTVSPropertyOp9
 70
     1
102
RTVSPropertyOp10
 70
     1
102
RTVSPropertyOp11
 70
     1
102
RTVSPropertyOp12
 70
     1
102
RTVSPropertyOp13
 70
     1
102
RTVSPropertyOp14
 70
     1
102
RTVSPropertyOp15
 70
     1
102
RTVSPropertyOp16
 70
     1
102
RTVSPropertyOp17
 70
     1
102
RTVSPropertyOp18
 70
     1
102
RTVSPropertyOp19
 70
     1
102
RTVSPropertyOp20
 70
     1
102
RTVSPropertyOp21
 70
     1
102
RTVSPropertyOp22
 70
     1
102
RTVSPropertyOp23
 70
     1
102
RTVSPropertyOp24
 70
     1
102
RTVSPropertyOp25
 70
     1
102
RTVSPropertyOp26
 70
     1
102
RTVSPropertyOp27
 70
     1
  0
XRECORD
  5
770
102
{ACAD_REACTORS
330
76F
102
}
330
76F
100
AcDbXrecord
280
     1
102
RTVSPropertyOp0
 70
     1
102
RTVSPropertyOp1
 70
     1
102
RTVSPropertyOp2
 70
     1
102
RTVSPropertyOp3
 70
     1
102
RTVSPropertyOp4
 70
     1
102
RTVSPropertyOp5
 70
     1
102
RTVSPropertyOp6
 70
     1
102
RTVSPropertyOp7
 70
     1
102
RTVSPropertyOp8
 70
     1
102
RTVSPropertyOp9
 70
     1
102
RTVSPropertyOp10
 70
     1
102
RTVSPropertyOp11
 70
     1
102
RTVSPropertyOp12
 70
     1
102
RTVSPropertyOp13
 70
     1
102
RTVSPropertyOp14
 70
     1
102
RTVSPropertyOp15
 70
     1
102
RTVSPropertyOp16
 70
     1
102
RTVSPropertyOp17
 70
     1
102
RTVSPropertyOp18
 70
     1
102
RTVSPropertyOp19
 70
     1
102
RTVSPropertyOp20
 70
     1
102
RTVSPropertyOp21
 70
     1
102
RTVSPropertyOp22
 70
     1
102
RTVSPropertyOp23
 70
     1
102
RTVSPropertyOp24
 70
     1
102
RTVSPropertyOp25
 70
     1
102
RTVSPropertyOp26
 70
     1
102
RTVSPropertyOp27
 70
     1
  0
XRECORD
  5
772
102
{ACAD_REACTORS
330
771
102
}
330
771
100
AcDbXrecord
280
     1
102
RTVSPropertyOp0
 70
     1
102
RTVSPropertyOp1
 70
     1
102
RTVSPropertyOp2
 70
     1
102
RTVSPropertyOp3
 70
     1
102
RTVSPropertyOp4
 70
     1
102
RTVSPropertyOp5
 70
     1
102
RTVSPropertyOp6
 70
     1
102
RTVSPropertyOp7
 70
     1
102
RTVSPropertyOp8
 70
     1
102
RTVSPropertyOp9
 70
     1
102
RTVSPropertyOp10
 70
     1
102
RTVSPropertyOp11
 70
     1
102
RTVSPropertyOp12
 70
     1
102
RTVSPropertyOp13
 70
     1
102
RTVSPropertyOp14
 70
     1
102
RTVSPropertyOp15
 70
     1
102
RTVSPropertyOp16
 70
     1
102
RTVSPropertyOp17
 70
     1
102
RTVSPropertyOp18
 70
     1
102
RTVSPropertyOp19
 70
     1
102
RTVSPropertyOp20
 70
     1
102
RTVSPropertyOp21
 70
     1
102
RTVSPropertyOp22
 70
     1
102
RTVSPropertyOp23
 70
     1
102
RTVSPropertyOp24
 70
     1
102
RTVSPropertyOp25
 70
     1
102
RTVSPropertyOp26
 70
     1
102
RTVSPropertyOp27
 70
     1
  0
XRECORD
  5
774
102
{ACAD_REACTORS
330
773
102
}
330
773
100
AcDbXrecord
280
     1
102
RTVSPropertyOp0
 70
     1
102
RTVSPropertyOp1
 70
     1
102
RTVSPropertyOp2
 70
     1
102
RTVSPropertyOp3
 70
     1
102
RTVSPropertyOp4
 70
     1
102
RTVSPropertyOp5
 70
     1
102
RTVSPropertyOp6
 70
     1
102
RTVSPropertyOp7
 70
     1
102
RTVSPropertyOp8
 70
     1
102
RTVSPropertyOp9
 70
     1
102
RTVSPropertyOp10
 70
     1
102
RTVSPropertyOp11
 70
     1
102
RTVSPropertyOp12
 70
     1
102
RTVSPropertyOp13
 70
     1
102
RTVSPropertyOp14
 70
     1
102
RTVSPropertyOp15
 70
     1
102
RTVSPropertyOp16
 70
     1
102
RTVSPropertyOp17
 70
     1
102
RTVSPropertyOp18
 70
     1
102
RTVSPropertyOp19
 70
     1
102
RTVSPropertyOp20
 70
     1
102
RTVSPropertyOp21
 70
     1
102
RTVSPropertyOp22
 70
     1
102
RTVSPropertyOp23
 70
     1
102
RTVSPropertyOp24
 70
     1
102
RTVSPropertyOp25
 70
     1
102
RTVSPropertyOp26
 70
     1
102
RTVSPropertyOp27
 70
     1
  0
XRECORD
  5
776
102
{ACAD_REACTORS
330
775
102
}
330
775
100
AcDbXrecord
280
     1
102
RTVSPropertyOp0
 70
     1
102
RTVSPropertyOp1
 70
     1
102
RTVSPropertyOp2
 70
     1
102
RTVSPropertyOp3
 70
     1
102
RTVSPropertyOp4
 70
     1
102
RTVSPropertyOp5
 70
     1
102
RTVSPropertyOp6
 70
     1
102
RTVSPropertyOp7
 70
     1
102
RTVSPropertyOp8
 70
     1
102
RTVSPropertyOp9
 70
     1
102
RTVSPropertyOp10
 70
     1
102
RTVSPropertyOp11
 70
     1
102
RTVSPropertyOp12
 70
     1
102
RTVSPropertyOp13
 70
     1
102
RTVSPropertyOp14
 70
     1
102
RTVSPropertyOp15
 70
     1
102
RTVSPropertyOp16
 70
     1
102
RTVSPropertyOp17
 70
     1
102
RTVSPropertyOp18
 70
     1
102
RTVSPropertyOp19
 70
     1
102
RTVSPropertyOp20
 70
     1
102
RTVSPropertyOp21
 70
     1
102
RTVSPropertyOp22
 70
     1
102
RTVSPropertyOp23
 70
     1
102
RTVSPropertyOp24
 70
     1
102
RTVSPropertyOp25
 70
     1
102
RTVSPropertyOp26
 70
     1
102
RTVSPropertyOp27
 70
     1
  0
XRECORD
  5
78A
102
{ACAD_REACTORS
330
789
102
}
330
789
100
AcDbXrecord
280
     1
102
RTVSPropertyOp0
 70
     1
102
RTVSPropertyOp1
 70
     1
102
RTVSPropertyOp2
 70
     1
102
RTVSPropertyOp3
 70
     1
102
RTVSPropertyOp4
 70
     1
102
RTVSPropertyOp5
 70
     1
102
RTVSPropertyOp6
 70
     1
102
RTVSPropertyOp7
 70
     1
102
RTVSPropertyOp8
 70
     1
102
RTVSPropertyOp9
 70
     1
102
RTVSPropertyOp10
 70
     1
102
RTVSPropertyOp11
 70
     1
102
RTVSPropertyOp12
 70
     1
102
RTVSPropertyOp13
 70
     1
102
RTVSPropertyOp14
 70
     1
102
RTVSPropertyOp15
 70
     1
102
RTVSPropertyOp16
 70
     1
102
RTVSPropertyOp17
 70
     1
102
RTVSPropertyOp18
 70
     1
102
RTVSPropertyOp19
 70
     1
102
RTVSPropertyOp20
 70
     1
102
RTVSPropertyOp21
 70
     1
102
RTVSPropertyOp22
 70
     1
102
RTVSPropertyOp23
 70
     1
102
RTVSPropertyOp24
 70
     1
102
RTVSPropertyOp25
 70
     1
102
RTVSPropertyOp26
 70
     1
102
RTVSPropertyOp27
 70
     1
  0
XRECORD
  5
780
102
{ACAD_REACTORS
330
77F
102
}
330
77F
100
AcDbXrecord
280
     1
102
RTVSPropertyOp0
 70
     1
102
RTVSPropertyOp1
 70
     1
102
RTVSPropertyOp2
 70
     1
102
RTVSPropertyOp3
 70
     1
102
RTVSPropertyOp4
 70
     1
102
RTVSPropertyOp5
 70
     1
102
RTVSPropertyOp6
 70
     1
102
RTVSPropertyOp7
 70
     1
102
RTVSPropertyOp8
 70
     1
102
RTVSPropertyOp9
 70
     1
102
RTVSPropertyOp10
 70
     1
102
RTVSPropertyOp11
 70
     1
102
RTVSPropertyOp12
 70
     1
102
RTVSPropertyOp13
 70
     1
102
RTVSPropertyOp14
 70
     1
102
RTVSPropertyOp15
 70
     1
102
RTVSPropertyOp16
 70
     1
102
RTVSPropertyOp17
 70
     1
102
RTVSPropertyOp18
 70
     1
102
RTVSPropertyOp19
 70
     1
102
RTVSPropertyOp20
 70
     1
102
RTVSPropertyOp21
 70
     1
102
RTVSPropertyOp22
 70
     1
102
RTVSPropertyOp23
 70
     1
102
RTVSPropertyOp24
 70
     1
102
RTVSPropertyOp25
 70
     1
102
RTVSPropertyOp26
 70
     1
102
RTVSPropertyOp27
 70
     1
  0
XRECORD
  5
788
102
{ACAD_REACTORS
330
787
102
}
330
787
100
AcDbXrecord
280
     1
102
RTVSPropertyOp0
 70
     1
102
RTVSPropertyOp1
 70
     1
102
RTVSPropertyOp2
 70
     1
102
RTVSPropertyOp3
 70
     1
102
RTVSPropertyOp4
 70
     1
102
RTVSPropertyOp5
 70
     1
102
RTVSPropertyOp6
 70
     1
102
RTVSPropertyOp7
 70
     1
102
RTVSPropertyOp8
 70
     1
102
RTVSPropertyOp9
 70
     1
102
RTVSPropertyOp10
 70
     1
102
RTVSPropertyOp11
 70
     1
102
RTVSPropertyOp12
 70
     1
102
RTVSPropertyOp13
 70
     1
102
RTVSPropertyOp14
 70
     1
102
RTVSPropertyOp15
 70
     1
102
RTVSPropertyOp16
 70
     1
102
RTVSPropertyOp17
 70
     1
102
RTVSPropertyOp18
 70
     1
102
RTVSPropertyOp19
 70
     1
102
RTVSPropertyOp20
 70
     1
102
RTVSPropertyOp21
 70
     1
102
RTVSPropertyOp22
 70
     1
102
RTVSPropertyOp23
 70
     1
102
RTVSPropertyOp24
 70
     1
102
RTVSPropertyOp25
 70
     1
102
RTVSPropertyOp26
 70
     1
102
RTVSPropertyOp27
 70
     1
  0
ENDSEC
  0
EOF
