  0
SECTION
  2
HEADER
  9
$ACADVER
  1
AC1015
  9
$ACADMAINTVER
 70
     6
  9
$DWGCODEPAGE
  3
ANSI_1252
  9
$INSBASE
 10
0.0
 20
0.0
 30
0.0
  9
$EXTMIN
 10
0.0
 20
0.0
 30
0.0
  9
$EXTMAX
 10
25.0
 20
35.0
 30
0.0
  9
$LIMMIN
 10
0.0
 20
0.0
  9
$LIMMAX
 10
420.0
 20
297.0
  9
$ORTHOMODE
 70
     0
  9
$REGENMODE
 70
     1
  9
$FILLMODE
 70
     1
  9
$QTEXTMODE
 70
     0
  9
$MIRRTEXT
 70
     1
  9
$LTSCALE
 40
4.5
  9
$ATTMODE
 70
     1
  9
$TEXTSIZE
 40
2.5
  9
$TRACEWID
 40
1.0
  9
$TEXTSTYLE
  7
Standard
  9
$CLAYER
  8
0
  9
$CELTYPE
  6
ByLayer
  9
$CECOLOR
 62
   256
  9
$CELTSCALE
 40
1.0
  9
$DISPSILH
 70
     0
  9
$DIMSCALE
 40
1.0
  9
$DIMASZ
 40
2.5
  9
$DIMEXO
 40
0.625
  9
$DIMDLI
 40
3.75
  9
$DIMRND
 40
0.0
  9
$DIMDLE
 40
0.0
  9
$DIMEXE
 40
1.25
  9
$DIMTP
 40
0.0
  9
$DIMTM
 40
0.0
  9
$DIMTXT
 40
2.5
  9
$DIMCEN
 40
2.5
  9
$DIMTSZ
 40
0.0
  9
$DIMTOL
 70
     0
  9
$DIMLIM
 70
     0
  9
$DIMTIH
 70
     0
  9
$DIMTOH
 70
     0
  9
$DIMSE1
 70
     0
  9
$DIMSE2
 70
     0
  9
$DIMTAD
 70
     1
  9
$DIMZIN
 70
     8
  9
$DIMBLK
  1

  9
$DIMASO
 70
     1
  9
$DIMSHO
 70
     1
  9
$DIMPOST
  1

  9
$DIMAPOST
  1

  9
$DIMALT
 70
     0
  9
$DIMALTD
 70
     3
  9
$DIMALTF
 40
0.03937007874016
  9
$DIMLFAC
 40
1.0
  9
$DIMTOFL
 70
     1
  9
$DIMTVP
 40
0.0
  9
$DIMTIX
 70
     0
  9
$DIMSOXD
 70
     0
  9
$DIMSAH
 70
     0
  9
$DIMBLK1
  1

  9
$DIMBLK2
  1

  9
$DIMSTYLE
  2
ISO-25
  9
$DIMCLRD
 70
     0
  9
$DIMCLRE
 70
     0
  9
$DIMCLRT
 70
     0
  9
$DIMTFAC
 40
1.0
  9
$DIMGAP
 40
0.625
  9
$DIMJUST
 70
     0
  9
$DIMSD1
 70
     0
  9
$DIMSD2
 70
     0
  9
$DIMTOLJ
 70
     0
  9
$DIMTZIN
 70
     8
  9
$DIMALTZ
 70
     0
  9
$DIMALTTZ
 70
     0
  9
$DIMUPT
 70
     0
  9
$DIMDEC
 70
     2
  9
$DIMTDEC
 70
     2
  9
$DIMALTU
 70
     2
  9
$DIMALTTD
 70
     3
  9
$DIMTXSTY
  7
Standard
  9
$DIMAUNIT
 70
     0
  9
$DIMADEC
 70
     0
  9
$DIMALTRND
 40
0.0
  9
$DIMAZIN
 70
     0
  9
$DIMDSEP
 70
    44
  9
$DIMATFIT
 70
     3
  9
$DIMFRAC
 70
     0
  9
$DIMLDRBLK
  1

  9
$DIMLUNIT
 70
     2
  9
$DIMLWD
 70
    -2
  9
$DIMLWE
 70
    -2
  9
$DIMTMOVE
 70
     0
  9
$LUNITS
 70
     2
  9
$LUPREC
 70
     4
  9
$SKETCHINC
 40
1.0
  9
$FILLETRAD
 40
10.0
  9
$AUNITS
 70
     0
  9
$AUPREC
 70
     0
  9
$MENU
  1
.
  9
$ELEVATION
 40
0.0
  9
$PELEVATION
 40
0.0
  9
$THICKNESS
 40
0.0
  9
$LIMCHECK
 70
     0
  9
$CHAMFERA
 40
10.0
  9
$CHAMFERB
 40
10.0
  9
$CHAMFERC
 40
20.0
  9
$CHAMFERD
 40
0.0
  9
$SKPOLY
 70
     0
  9
$TDCREATE
 40
2458576.81875
  9
$TDUCREATE
 40
2458576.735416667
  9
$TDUPDATE
 40
2458576.822222222
  9
$TDUUPDATE
 40
2458576.738888889
  9
$TDINDWG
 40
0.0000000116
  9
$TDUSRTIMER
 40
0.0000000116
  9
$USRTIMER
 70
     1
  9
$ANGBASE
 50
0.0
  9
$ANGDIR
 70
     0
  9
$PDMODE
 70
     0
  9
$PDSIZE
 40
0.0
  9
$PLINEWID
 40
0.0
  9
$SPLFRAME
 70
     0
  9
$SPLINETYPE
 70
     6
  9
$SPLINESEGS
 70
     8
  9
$HANDSEED
  5
BC9
  9
$SURFTAB1
 70
     6
  9
$SURFTAB2
 70
     6
  9
$SURFTYPE
 70
     6
  9
$SURFU
 70
     6
  9
$SURFV
 70
     6
  9
$UCSBASE
  2

  9
$UCSNAME
  2

  9
$UCSORG
 10
0.0
 20
0.0
 30
0.0
  9
$UCSXDIR
 10
1.0
 20
0.0
 30
0.0
  9
$UCSYDIR
 10
0.0
 20
1.0
 30
0.0
  9
$UCSORTHOREF
  2

  9
$UCSORTHOVIEW
 70
     0
  9
$UCSORGTOP
 10
0.0
 20
0.0
 30
0.0
  9
$UCSORGBOTTOM
 10
0.0
 20
0.0
 30
0.0
  9
$UCSORGLEFT
 10
0.0
 20
0.0
 30
0.0
  9
$UCSORGRIGHT
 10
0.0
 20
0.0
 30
0.0
  9
$UCSORGFRONT
 10
0.0
 20
0.0
 30
0.0
  9
$UCSORGBACK
 10
0.0
 20
0.0
 30
0.0
  9
$PUCSBASE
  2

  9
$PUCSNAME
  2

  9
$PUCSORG
 10
0.0
 20
0.0
 30
0.0
  9
$PUCSXDIR
 10
1.0
 20
0.0
 30
0.0
  9
$PUCSYDIR
 10
0.0
 20
1.0
 30
0.0
  9
$PUCSORTHOREF
  2

  9
$PUCSORTHOVIEW
 70
     0
  9
$PUCSORGTOP
 10
0.0
 20
0.0
 30
0.0
  9
$PUCSORGBOTTOM
 10
0.0
 20
0.0
 30
0.0
  9
$PUCSORGLEFT
 10
0.0
 20
0.0
 30
0.0
  9
$PUCSORGRIGHT
 10
0.0
 20
0.0
 30
0.0
  9
$PUCSORGFRONT
 10
0.0
 20
0.0
 30
0.0
  9
$PUCSORGBACK
 10
0.0
 20
0.0
 30
0.0
  9
$USERI1
 70
     0
  9
$USERI2
 70
     0
  9
$USERI3
 70
     0
  9
$USERI4
 70
     0
  9
$USERI5
 70
     0
  9
$USERR1
 40
0.0
  9
$USERR2
 40
0.0
  9
$USERR3
 40
0.0
  9
$USERR4
 40
0.0
  9
$USERR5
 40
0.0
  9
$WORLDVIEW
 70
     1
  9
$SHADEDGE
 70
     3
  9
$SHADEDIF
 70
    70
  9
$TILEMODE
 70
     1
  9
$MAXACTVP
 70
    64
  9
$PINSBASE
 10
0.0
 20
0.0
 30
0.0
  9
$PLIMCHECK
 70
     0
  9
$PEXTMIN
 10
1.000000000000000E+20
 20
1.000000000000000E+20
 30
1.000000000000000E+20
  9
$PEXTMAX
 10
-1.000000000000000E+20
 20
-1.000000000000000E+20
 30
-1.000000000000000E+20
  9
$PLIMMIN
 10
0.0
 20
0.0
  9
$PLIMMAX
 10
420.0
 20
297.0
  9
$UNITMODE
 70
     0
  9
$VISRETAIN
 70
     1
  9
$PLINEGEN
 70
     0
  9
$PSLTSCALE
 70
     1
  9
$TREEDEPTH
 70
  3020
  9
$CMLSTYLE
  2
Standard
  9
$CMLJUST
 70
     0
  9
$CMLSCALE
 40
20.0
  9
$PROXYGRAPHICS
 70
     1
  9
$MEASUREMENT
 70
     1
  9
$CELWEIGHT
370
    -1
  9
$ENDCAPS
280
     0
  9
$JOINSTYLE
280
     0
  9
$LWDISPLAY
290
     0
  9
$INSUNITS
 70
     4
  9
$HYPERLINKBASE
  1

  9
$STYLESHEET
  1

  9
$XEDIT
290
     1
  9
$CEPSNTYPE
380
     0
  9
$PSTYLEMODE
290
     1
  9
$FINGERPRINTGUID
  2
{722B85ED-7E72-45B4-B4E9-5453520D88B1}
  9
$VERSIONGUID
  2
{FAEB1C32-E019-11D5-929B-00C0DF256EC4}
  9
$EXTNAMES
290
     1
  9
$PSVPSCALE
 40
0.0
  9
$OLESTARTUP
290
     0
  0
ENDSEC
  0
SECTION
  2
CLASSES
  0
CLASS
  1
ACDBDICTIONARYWDFLT
  2
AcDbDictionaryWithDefault
  3
ObjectDBX Classes
 90
        0
280
     0
281
     0
  0
CLASS
  1
VISUALSTYLE
  2
AcDbVisualStyle
  3
ObjectDBX Classes
 90
     4095
280
     0
281
     0
  0
CLASS
  1
MATERIAL
  2
AcDbMaterial
  3
ObjectDBX Classes
 90
     1153
280
     0
281
     0
  0
CLASS
  1
SCALE
  2
AcDbScale
  3
ObjectDBX Classes
 90
     1153
280
     0
281
     0
  0
CLASS
  1
DICTIONARYVAR
  2
AcDbDictionaryVar
  3
ObjectDBX Classes
 90
        0
280
     0
281
     0
  0
CLASS
  1
ACDBPLACEHOLDER
  2
AcDbPlaceHolder
  3
ObjectDBX Classes
 90
        0
280
     0
281
     0
  0
CLASS
  1
LAYOUT
  2
AcDbLayout
  3
ObjectDBX Classes
 90
        0
280
     0
281
     0
  0
ENDSEC
  0
SECTION
  2
TABLES
  0
TABLE
  2
VPORT
  5
8
330
0
100
AcDbSymbolTable
 70
     1
  0
VPORT
  5
29
330
8
100
AcDbSymbolTableRecord
100
AcDbViewportTableRecord
  2
*Active
 70
     0
 10
0.0
 20
0.0
 11
1.0
 21
1.0
 12
11.26
 22
4.5
 13
0.0
 23
0.0
 14
10.0
 24
10.0
 15
10.0
 25
10.0
 16
0.0
 26
0.0
 36
1.0
 17
0.0
 27
0.0
 37
0.0
 40
9.0
 41
2.503333333333333
 42
50.0
 43
0.0
 44
0.0
 50
0.0
 51
0.0
 71
     0
 72
   100
 73
     1
 74
     3
 75
     0
 76
     0
 77
     0
 78
     0
281
     0
 65
     1
110
0.0
120
0.0
130
0.0
111
1.0
121
0.0
131
0.0
112
0.0
122
1.0
132
0.0
 79
     0
146
0.0
  0
ENDTAB
  0
TABLE
  2
LTYPE
  5
5
330
0
100
AcDbSymbolTable
 70
    10
  0
LTYPE
  5
14
330
5
100
AcDbSymbolTableRecord
100
AcDbLinetypeTableRecord
  2
ByBlock
 70
     0
  3

 72
    65
 73
     0
 40
0.0
  0
LTYPE
  5
15
330
5
100
AcDbSymbolTableRecord
100
AcDbLinetypeTableRecord
  2
ByLayer
 70
     0
  3

 72
    65
 73
     0
 40
0.0
  0
LTYPE
  5
16
330
5
100
AcDbSymbolTableRecord
100
AcDbLinetypeTableRecord
  2
Continuous
 70
     0
  3
Solid line
 72
    65
 73
     0
 40
0.0
  0
LTYPE
  5
45
330
5
100
AcDbSymbolTableRecord
100
AcDbLinetypeTableRecord
  2
phl_thick
 70
     0
  3
THICK
 72
    65
 73
     0
 40
0.0
  0
LTYPE
  5
3B2
330
5
100
AcDbSymbolTableRecord
100
AcDbLinetypeTableRecord
  2
ls_CUT
 70
     0
  3
THICK
 72
    65
 73
     0
 40
0.0
  0
LTYPE
  5
3B8
330
5
100
AcDbSymbolTableRecord
100
AcDbLinetypeTableRecord
  2
ls1
 70
     0
  3
THICK
 72
    65
 73
     0
 40
0.0
  0
LTYPE
  5
3BE
330
5
100
AcDbSymbolTableRecord
100
AcDbLinetypeTableRecord
  2
NOCUT
 70
     0
  3
THICK
 72
    65
 73
     0
 40
0.0
  0
LTYPE
  5
3C2
330
5
100
AcDbSymbolTableRecord
100
AcDbLinetypeTableRecord
  2
SK1
 70
     0
  3
THICK
 72
    65
 73
     0
 40
0.0
  0
LTYPE
  5
3CA
330
5
100
AcDbSymbolTableRecord
100
AcDbLinetypeTableRecord
  2
ls_SK2
 70
     0
  3
THIN
 72
    65
 73
     0
 40
0.0
  0
LTYPE
  5
476
330
5
100
AcDbSymbolTableRecord
100
AcDbLinetypeTableRecord
  2
ls_2
 70
     0
  3
THIN
 72
    65
 73
     0
 40
0.0
  0
LTYPE
  5
585
330
5
100
AcDbSymbolTableRecord
100
AcDbLinetypeTableRecord
  2
LONGDASH_DASH
 70
     0
  3
THIN_DASHDOT
 72
    65
 73
     4
 40
0.85
 49
0.4
 74
     0
 49
-0.2
 74
     0
 49
0.05
 74
     0
 49
-0.2
 74
     0
  0
LTYPE
  5
5C6
330
5
100
AcDbSymbolTableRecord
100
AcDbLinetypeTableRecord
  2
ls_SK1
 70
     0
  3
THICK
 72
    65
 73
     0
 40
0.0
  0
ENDTAB
  0
TABLE
  2
LAYER
  5
2
330
0
100
AcDbSymbolTable
 70
    10
  0
LAYER
  5
10
330
2
100
AcDbSymbolTableRecord
100
AcDbLayerTableRecord
  2
0
 70
     0
 62
     7
  6
Continuous
370
    -3
390
F
  0
LAYER
  5
44
330
2
100
AcDbSymbolTableRecord
100
AcDbLayerTableRecord
  2
1
 70
     0
 62
4
  6
CONTINUOUS
370
50
370
    -3
390
F
  0
LAYER
  5
3B1
330
2
100
AcDbSymbolTableRecord
100
AcDbLayerTableRecord
  2
CUT
 70
     0
 62
1
  6
CONTINUOUS
370
25
370
    -3
390
F
  0
LAYER
  5
3B7
330
2
100
AcDbSymbolTableRecord
100
AcDbLayerTableRecord
  2
NOCUT
 70
     0
 62
7
  6
CONTINUOUS
370
25
370
    -3
390
F
  0
LAYER
  5
3C1
330
2
100
AcDbSymbolTableRecord
100
AcDbLayerTableRecord
  2
SK1
 70
     0
 62
4
  6
CONTINUOUS
370
50
370
    -3
390
F
  0
LAYER
  5
3C9
330
2
100
AcDbSymbolTableRecord
100
AcDbLayerTableRecord
  2
SK2
 70
     0
 62
7
  6
CONTINUOUS
370
25
370
    -3
390
F
  0
LAYER
  5
475
330
2
100
AcDbSymbolTableRecord
100
AcDbLayerTableRecord
  2
2
 70
     0
 62
7
  6
CONTINUOUS
370
25
370
    -3
390
F
  0
LAYER
  5
584
330
2
100
AcDbSymbolTableRecord
100
AcDbLayerTableRecord
  2
4
 70
     0
 62
2
  6
LONGDASH_DASH
370
25
370
    -3
390
F
  0
LAYER
  5
587
330
2
100
AcDbSymbolTableRecord
100
AcDbLayerTableRecord
  2
SK4
 70
     0
 62
2
  6
LONGDASH_DASH
370
25
370
    -3
390
F
  0
LAYER
  5
5FF
330
2
100
AcDbSymbolTableRecord
100
AcDbLayerTableRecord
  2
SK6
 70
     0
 62
5
  6
CONTINUOUS
370
25
370
    -3
390
F
  0
ENDTAB
  0
TABLE
  2
STYLE
  5
3
330
0
100
AcDbSymbolTable
 70
     1
  0
STYLE
  5
11
330
3
100
AcDbSymbolTableRecord
100
AcDbTextStyleTableRecord
  2
Standard
 70
     0
 40
0.0
 41
1.0
 50
0.0
 71
     0
 42
2.5
  3
Monospac821 BT
  4

  0
ENDTAB
  0
TABLE
  2
VIEW
  5
6
330
0
100
AcDbSymbolTable
 70
     0
  0
ENDTAB
  0
TABLE
  2
UCS
  5
7
330
0
100
AcDbSymbolTable
 70
     0
  0
ENDTAB
  0
TABLE
  2
APPID
  5
9
330
0
100
AcDbSymbolTable
 70
     2
  0
APPID
  5
12
330
9
100
AcDbSymbolTableRecord
100
AcDbRegAppTableRecord
  2
ACAD
 70
     0
  0
APPID
  5
3F
330
9
100
AcDbSymbolTableRecord
100
AcDbRegAppTableRecord
  2
ccLab
 70
     0
  0
ENDTAB
  0
TABLE
  2
DIMSTYLE
  5
A
330
0
100
AcDbSymbolTable
 70
     1
100
AcDbDimStyleTable
  0
DIMSTYLE
105
27
330
A
100
AcDbSymbolTableRecord
100
AcDbDimStyleTableRecord
  2
ISO-25
 70
     0
 41
2.5
 42
0.625
 43
3.75
 44
1.25
 73
     0
 74
     0
 77
     1
 78
     8
140
2.5
141
2.5
143
0.03937007874016
147
0.625
171
     3
172
     1
271
     2
272
     2
274
     3
278
    44
283
     0
284
     8
340
11
  0
ENDTAB
  0
TABLE
  2
BLOCK_RECORD
  5
1
330
0
100
AcDbSymbolTable
 70
     2
  0
BLOCK_RECORD
  5
1F
330
1
100
AcDbSymbolTableRecord
100
AcDbBlockTableRecord
  2
*Model_Space
340
22
  0
BLOCK_RECORD
  5
1B
330
1
100
AcDbSymbolTableRecord
100
AcDbBlockTableRecord
  2
*Paper_Space
340
1E
  0
BLOCK_RECORD
  5
23
330
1
100
AcDbSymbolTableRecord
100
AcDbBlockTableRecord
  2
*Paper_Space0
340
26
  0
ENDTAB
  0
ENDSEC
  0
SECTION
  2
BLOCKS
  0
BLOCK
  5
20
330
1F
100
AcDbEntity
  8
0
100
AcDbBlockBegin
  2
*Model_Space
 70
     0
 10
0.0
 20
0.0
 30
0.0
  3
*Model_Space
  1

  0
ENDBLK
  5
21
330
1F
100
AcDbEntity
  8
0
100
AcDbBlockEnd
  0
BLOCK
  5
1C
330
1B
100
AcDbEntity
 67
     1
  8
0
100
AcDbBlockBegin
  2
*Paper_Space
 70
     0
 10
0.0
 20
0.0
 30
0.0
  3
*Paper_Space
  1

  0
ENDBLK
  5
1D
330
1B
100
AcDbEntity
 67
     1
  8
0
100
AcDbBlockEnd
  0
BLOCK
  5
24
330
23
100
AcDbEntity
  8
0
100
AcDbBlockBegin
  2
*Paper_Space0
 70
     0
 10
0.0
 20
0.0
 30
0.0
  3
*Paper_Space0
  1

  0
ENDBLK
  5
25
330
23
100
AcDbEntity
  8
0
100
AcDbBlockEnd
  0
ENDSEC
  0
SECTION
  2
ENTITIES
  0
LINE
  5
609
330
1F
100
AcDbEntity
  8
1
  6
CONTINUOUS
370
50
 62
4
100
AcDbLine
 10
126.969345
 20
-1.141056
 30
0.0
 11
126.965103
 21
-0.896851
 31
0.0
  0
LINE
  5
60A
330
1F
100
AcDbEntity
  8
1
  6
CONTINUOUS
370
50
 62
4
100
AcDbLine
 10
127.094398
 20
1.817527
 30
0.0
 11
127.093369
 21
1.874454
 31
0.0
  0
LINE
  5
60B
330
1F
100
AcDbEntity
  8
1
  6
CONTINUOUS
370
50
 62
4
100
AcDbLine
 10
126.973915
 20
-1.377733
 30
0.0
 11
126.969345
 21
-1.141056
 31
0.0
  0
LINE
  5
60C
330
1F
100
AcDbEntity
  8
1
  6
CONTINUOUS
370
50
 62
4
100
AcDbLine
 10
126.978745
 20
-1.602726
 30
0.0
 11
126.973915
 21
-1.377733
 31
0.0
  0
LINE
  5
60D
330
1F
100
AcDbEntity
  8
1
  6
CONTINUOUS
370
50
 62
4
100
AcDbLine
 10
126.983757
 20
-1.812384
 30
0.0
 11
126.978745
 21
-1.602726
 31
0.0
  0
LINE
  5
60E
330
1F
100
AcDbEntity
  8
1
  6
CONTINUOUS
370
50
 62
4
100
AcDbLine
 10
126.988876
 20
-2.00371
 30
0.0
 11
126.983757
 21
-1.812384
 31
0.0
  0
LINE
  5
60F
330
1F
100
AcDbEntity
  8
1
  6
CONTINUOUS
370
50
 62
4
100
AcDbLine
 10
126.994019
 20
-2.17396
 30
0.0
 11
126.988876
 21
-2.00371
 31
0.0
  0
LINE
  5
610
330
1F
100
AcDbEntity
  8
1
  6
CONTINUOUS
370
50
 62
4
100
AcDbLine
 10
126.999084
 20
-2.321387
 30
0.0
 11
126.994019
 21
-2.17396
 31
0.0
  0
LINE
  5
611
330
1F
100
AcDbEntity
  8
1
  6
CONTINUOUS
370
50
 62
4
100
AcDbLine
 10
126.999084
 20
2.437504
 30
0.0
 11
126.996559
 21
2.493937
 31
0.0
  0
LINE
  5
612
330
1F
100
AcDbEntity
  8
1
  6
CONTINUOUS
370
50
 62
4
100
AcDbLine
 10
126.996559
 20
2.493937
 30
0.0
 11
126.994003
 21
2.545673
 31
0.0
  0
LINE
  5
613
330
1F
100
AcDbEntity
  8
1
  6
CONTINUOUS
370
50
 62
4
100
AcDbLine
 10
49.928352
 20
1.344727
 30
0.0
 11
49.92482
 21
1.414558
 31
0.0
  0
LINE
  5
614
330
1F
100
AcDbEntity
  8
1
  6
CONTINUOUS
370
50
 62
4
100
AcDbLine
 10
126.994003
 20
2.545673
 30
0.0
 11
126.991432
 21
2.592298
 31
0.0
  0
LINE
  5
615
330
1F
100
AcDbEntity
  8
1
  6
CONTINUOUS
370
50
 62
4
100
AcDbLine
 10
126.991432
 20
2.592298
 30
0.0
 11
126.988853
 21
2.633398
 31
0.0
  0
LINE
  5
616
330
1F
100
AcDbEntity
  8
1
  6
CONTINUOUS
370
50
 62
4
100
AcDbLine
 10
126.988853
 20
2.633398
 30
0.0
 11
126.986282
 21
2.6686
 31
0.0
  0
LINE
  5
617
330
1F
100
AcDbEntity
  8
1
  6
CONTINUOUS
370
50
 62
4
100
AcDbLine
 10
126.986282
 20
2.6686
 30
0.0
 11
126.983719
 21
2.697694
 31
0.0
  0
LINE
  5
618
330
1F
100
AcDbEntity
  8
1
  6
CONTINUOUS
370
50
 62
4
100
AcDbLine
 10
126.983719
 20
2.697694
 30
0.0
 11
126.981186
 21
2.720516
 31
0.0
  0
LINE
  5
619
330
1F
100
AcDbEntity
  8
1
  6
CONTINUOUS
370
50
 62
4
100
AcDbLine
 10
127.093369
 20
1.874454
 30
0.0
 11
127.086945
 21
1.93134
 31
0.0
  0
LINE
  5
61A
330
1F
100
AcDbEntity
  8
1
  6
CONTINUOUS
370
50
 62
4
100
AcDbLine
 10
127.860252
 20
-0.12111
 30
0.0
 11
127.853157
 21
-0.072369
 31
0.0
  0
LINE
  5
61B
330
1F
100
AcDbEntity
  8
1
  6
CONTINUOUS
370
50
 62
4
100
AcDbLine
 10
126.981186
 20
2.720516
 30
0.0
 11
126.978691
 21
2.7369
 31
0.0
  0
LINE
  5
61C
330
1F
100
AcDbEntity
  8
1
  6
CONTINUOUS
370
50
 62
4
100
AcDbLine
 10
127.107101
 20
-0.664551
 30
0.0
 11
127.099426
 21
-0.6199509999999999
 31
0.0
  0
LINE
  5
61D
330
1F
100
AcDbEntity
  8
1
  6
CONTINUOUS
370
50
 62
4
100
AcDbLine
 10
49.941772
 20
1.273966
 30
0.0
 11
49.928352
 21
1.344727
 31
0.0
  0
LINE
  5
61E
330
1F
100
AcDbEntity
  8
1
  6
CONTINUOUS
370
50
 62
4
100
AcDbLine
 10
127.853157
 20
-0.072369
 30
0.0
 11
127.842468
 21
-0.019363
 31
0.0
  0
LINE
  5
61F
330
1F
100
AcDbEntity
  8
1
  6
CONTINUOUS
370
50
 62
4
100
AcDbLine
 10
126.978691
 20
2.7369
 30
0.0
 11
126.97625
 21
2.746708
 31
0.0
  0
LINE
  5
620
330
1F
100
AcDbEntity
  8
1
  6
CONTINUOUS
370
50
 62
4
100
AcDbLine
 10
127.842468
 20
-0.019363
 30
0.0
 11
127.827393
 21
0.040281
 31
0.0
  0
LINE
  5
621
330
1F
100
AcDbEntity
  8
1
  6
CONTINUOUS
370
50
 62
4
100
AcDbLine
 10
127.827393
 20
0.040281
 30
0.0
 11
127.806671
 21
0.109881
 31
0.0
  0
LINE
  5
622
330
1F
100
AcDbEntity
  8
1
  6
CONTINUOUS
370
50
 62
4
100
AcDbLine
 10
49.96373
 20
1.203188
 30
0.0
 11
49.941772
 21
1.273966
 31
0.0
  0
LINE
  5
623
330
1F
100
AcDbEntity
  8
1
  6
CONTINUOUS
370
50
 62
4
100
AcDbLine
 10
127.806671
 20
0.109881
 30
0.0
 11
127.778267
 21
0.194413
 31
0.0
  0
LINE
  5
624
330
1F
100
AcDbEntity
  8
1
  6
CONTINUOUS
370
50
 62
4
100
AcDbLine
 10
127.099426
 20
-0.6199509999999999
 30
0.0
 11
127.082893
 21
-0.571182
 31
0.0
  0
LINE
  5
625
330
1F
100
AcDbEntity
  8
1
  6
CONTINUOUS
370
50
 62
4
100
AcDbLine
 10
127.778267
 20
0.194413
 30
0.0
 11
127.738716
 21
0.30193
 31
0.0
  0
LINE
  5
626
330
1F
100
AcDbEntity
  8
1
  6
CONTINUOUS
370
50
 62
4
100
AcDbLine
 10
128.0
 20
0.0
 30
0.0
 11
126.976212
 21
2.746816
 31
0.0
  0
LINE
  5
627
330
1F
100
AcDbEntity
  8
1
  6
CONTINUOUS
370
50
 62
4
100
AcDbLine
 10
127.69783
 20
0.447315
 30
0.0
 11
127.664009
 21
0.5346569999999999
 31
0.0
  0
LINE
  5
628
330
1F
100
AcDbEntity
  8
1
  6
CONTINUOUS
370
50
 62
4
100
AcDbLine
 10
127.086945
 20
1.93134
 30
0.0
 11
127.074562
 21
1.962968
 31
0.0
  0
LINE
  5
629
330
1F
100
AcDbEntity
  8
1
  6
CONTINUOUS
370
50
 62
4
100
AcDbLine
 10
127.738716
 20
0.30193
 30
0.0
 11
127.681831
 21
0.446592
 31
0.0
  0
LINE
  5
62A
330
1F
100
AcDbEntity
  8
1
  6
CONTINUOUS
370
50
 62
4
100
AcDbLine
 10
127.664009
 20
0.5346569999999999
 30
0.0
 11
127.622223
 21
0.640377
 31
0.0
  0
LINE
  5
62B
330
1F
100
AcDbEntity
  8
1
  6
CONTINUOUS
370
50
 62
4
100
AcDbLine
 10
127.074562
 20
1.962968
 30
0.0
 11
127.06208
 21
1.994372
 31
0.0
  0
LINE
  5
62C
330
1F
100
AcDbEntity
  8
1
  6
CONTINUOUS
370
50
 62
4
100
AcDbLine
 10
127.06208
 20
1.994372
 30
0.0
 11
127.049561
 21
2.025555
 31
0.0
  0
LINE
  5
62D
330
1F
100
AcDbEntity
  8
1
  6
CONTINUOUS
370
50
 62
4
100
AcDbLine
 10
127.622223
 20
0.640377
 30
0.0
 11
127.569527
 21
0.7714329999999999
 31
0.0
  0
LINE
  5
62E
330
1F
100
AcDbEntity
  8
1
  6
CONTINUOUS
370
50
 62
4
100
AcDbLine
 10
127.049561
 20
2.025555
 30
0.0
 11
127.036995
 21
2.056507
 31
0.0
  0
LINE
  5
62F
330
1F
100
AcDbEntity
  8
1
  6
CONTINUOUS
370
50
 62
4
100
AcDbLine
 10
126.97625
 20
2.746708
 30
0.0
 11
126.975845
 21
2.747703
 31
0.0
  0
LINE
  5
630
330
1F
100
AcDbEntity
  8
1
  6
CONTINUOUS
370
50
 62
4
100
AcDbLine
 10
127.569527
 20
0.7714329999999999
 30
0.0
 11
127.501266
 21
0.9387559999999999
 31
0.0
  0
LINE
  5
631
330
1F
100
AcDbEntity
  8
1
  6
CONTINUOUS
370
50
 62
4
100
AcDbLine
 10
127.036995
 20
2.056507
 30
0.0
 11
127.024406
 21
2.087219
 31
0.0
  0
LINE
  5
632
330
1F
100
AcDbEntity
  8
1
  6
CONTINUOUS
370
50
 62
4
100
AcDbLine
 10
128.0
 20
0.0
 30
0.0
 11
126.999084
 21
2.437505
 31
0.0
  0
LINE
  5
633
330
1F
100
AcDbEntity
  8
1
  6
CONTINUOUS
370
50
 62
4
100
AcDbLine
 10
127.501266
 20
0.9387559999999999
 30
0.0
 11
127.409698
 21
1.160551
 31
0.0
  0
LINE
  5
634
330
1F
100
AcDbEntity
  8
1
  6
CONTINUOUS
370
50
 62
4
100
AcDbLine
 10
127.024406
 20
2.087219
 30
0.0
 11
127.01178
 21
2.117681
 31
0.0
  0
LINE
  5
635
330
1F
100
AcDbEntity
  8
1
  6
CONTINUOUS
370
50
 62
4
100
AcDbLine
 10
49.992867
 20
1.13304
 30
0.0
 11
49.96373
 21
1.203188
 31
0.0
  0
LINE
  5
636
330
1F
100
AcDbEntity
  8
1
  6
CONTINUOUS
370
50
 62
4
100
AcDbLine
 10
127.409698
 20
1.160551
 30
0.0
 11
127.280891
 21
1.469578
 31
0.0
  0
LINE
  5
637
330
1F
100
AcDbEntity
  8
1
  6
CONTINUOUS
370
50
 62
4
100
AcDbLine
 10
127.280891
 20
1.469578
 30
0.0
 11
127.086945
 21
1.93134
 31
0.0
  0
LINE
  5
638
330
1F
100
AcDbEntity
  8
1
  6
CONTINUOUS
370
50
 62
4
100
AcDbLine
 10
127.01178
 20
2.117681
 30
0.0
 11
126.999084
 21
2.147874
 31
0.0
  0
LINE
  5
639
330
1F
100
AcDbEntity
  8
1
  6
CONTINUOUS
370
50
 62
4
100
AcDbLine
 10
127.082893
 20
-0.571182
 30
0.0
 11
127.059563
 21
-0.519481
 31
0.0
  0
LINE
  5
63A
330
1F
100
AcDbEntity
  8
1
  6
CONTINUOUS
370
50
 62
4
100
AcDbLine
 10
126.975845
 20
2.747703
 30
0.0
 11
126.975441
 21
2.748516
 31
0.0
  0
LINE
  5
63B
330
1F
100
AcDbEntity
  8
1
  6
CONTINUOUS
370
50
 62
4
100
AcDbLine
 10
50.027851
 20
1.064032
 30
0.0
 11
49.992867
 21
1.13304
 31
0.0
  0
LINE
  5
63C
330
1F
100
AcDbEntity
  8
1
  6
CONTINUOUS
370
50
 62
4
100
AcDbLine
 10
127.059563
 20
-0.519481
 30
0.0
 11
127.031563
 21
-0.466785
 31
0.0
  0
LINE
  5
63D
330
1F
100
AcDbEntity
  8
1
  6
CONTINUOUS
370
50
 62
4
100
AcDbLine
 10
50.067348
 20
0.9966729999999999
 30
0.0
 11
50.027851
 21
1.064032
 31
0.0
  0
LINE
  5
63E
330
1F
100
AcDbEntity
  8
1
  6
CONTINUOUS
370
50
 62
4
100
AcDbLine
 10
127.031563
 20
-0.466785
 30
0.0
 11
127.000076
 21
-0.413537
 31
0.0
  0
LINE
  5
63F
330
1F
100
AcDbEntity
  8
1
  6
CONTINUOUS
370
50
 62
4
100
AcDbLine
 10
126.975441
 20
2.748516
 30
0.0
 11
126.975044
 21
2.749147
 31
0.0
  0
LINE
  5
640
330
1F
100
AcDbEntity
  8
1
  6
CONTINUOUS
370
50
 62
4
100
AcDbLine
 10
127.000076
 20
-0.413537
 30
0.0
 11
126.963333
 21
-0.356131
 31
0.0
  0
LINE
  5
641
330
1F
100
AcDbEntity
  8
1
  6
CONTINUOUS
370
50
 62
4
100
AcDbLine
 10
50.110676
 20
0.9305509999999999
 30
0.0
 11
50.067348
 21
0.9966729999999999
 31
0.0
  0
LINE
  5
642
330
1F
100
AcDbEntity
  8
1
  6
CONTINUOUS
370
50
 62
4
100
AcDbLine
 10
128.0
 20
0.0
 30
0.0
 11
127.69783
 21
0.447315
 31
0.0
  0
LINE
  5
643
330
1F
100
AcDbEntity
  8
1
  6
CONTINUOUS
370
50
 62
4
100
AcDbLine
 10
126.963333
 20
-0.356131
 30
0.0
 11
126.921593
 21
-0.294682
 31
0.0
  0
LINE
  5
644
330
1F
100
AcDbEntity
  8
1
  6
CONTINUOUS
370
50
 62
4
100
AcDbLine
 10
126.921593
 20
-0.294682
 30
0.0
 11
126.875336
 21
-0.229642
 31
0.0
  0
LINE
  5
645
330
1F
100
AcDbEntity
  8
1
  6
CONTINUOUS
370
50
 62
4
100
AcDbLine
 10
128.0
 20
0.0
 30
0.0
 11
127.681831
 21
0.446592
 31
0.0
  0
LINE
  5
646
330
1F
100
AcDbEntity
  8
1
  6
CONTINUOUS
370
50
 62
4
100
AcDbLine
 10
50.158821
 20
0.863412
 30
0.0
 11
50.110676
 21
0.9305509999999999
 31
0.0
  0
LINE
  5
647
330
1F
100
AcDbEntity
  8
1
  6
CONTINUOUS
370
50
 62
4
100
AcDbLine
 10
126.875336
 20
-0.229642
 30
0.0
 11
126.825027
 21
-0.161466
 31
0.0
  0
LINE
  5
648
330
1F
100
AcDbEntity
  8
1
  6
CONTINUOUS
370
50
 62
4
100
AcDbLine
 10
126.825027
 20
-0.161466
 30
0.0
 11
126.771149
 21
-0.090609
 31
0.0
  0
LINE
  5
649
330
1F
100
AcDbEntity
  8
1
  6
CONTINUOUS
370
50
 62
4
100
AcDbLine
 10
50.211609
 20
0.7951499999999999
 30
0.0
 11
50.158821
 21
0.863412
 31
0.0
  0
LINE
  5
64A
330
1F
100
AcDbEntity
  8
1
  6
CONTINUOUS
370
50
 62
4
100
AcDbLine
 10
126.771149
 20
-0.090609
 30
0.0
 11
126.714165
 21
-0.017524
 31
0.0
  0
LINE
  5
64B
330
1F
100
AcDbEntity
  8
1
  6
CONTINUOUS
370
50
 62
4
100
AcDbLine
 10
126.714165
 20
-0.017524
 30
0.0
 11
126.654556
 21
0.057334
 31
0.0
  0
LINE
  5
64C
330
1F
100
AcDbEntity
  8
1
  6
CONTINUOUS
370
50
 62
4
100
AcDbLine
 10
126.654556
 20
0.057334
 30
0.0
 11
126.592796
 21
0.13351
 31
0.0
  0
LINE
  5
64D
330
1F
100
AcDbEntity
  8
1
  6
CONTINUOUS
370
50
 62
4
100
AcDbLine
 10
53.212395
 20
-0.389074
 30
0.0
 11
53.212063
 21
-0.388669
 31
0.0
  0
LINE
  5
64E
330
1F
100
AcDbEntity
  8
1
  6
CONTINUOUS
370
50
 62
4
100
AcDbLine
 10
53.213062
 20
-0.389882
 30
0.0
 11
53.21273
 21
-0.389478
 31
0.0
  0
LINE
  5
64F
330
1F
100
AcDbEntity
  8
1
  6
CONTINUOUS
370
50
 62
4
100
AcDbLine
 10
53.212063
 20
-0.388669
 30
0.0
 11
53.211731
 21
-0.388265
 31
0.0
  0
LINE
  5
650
330
1F
100
AcDbEntity
  8
1
  6
CONTINUOUS
370
50
 62
4
100
AcDbLine
 10
126.592796
 20
0.13351
 30
0.0
 11
126.52935
 21
0.210551
 31
0.0
  0
LINE
  5
651
330
1F
100
AcDbEntity
  8
1
  6
CONTINUOUS
370
50
 62
4
100
AcDbLine
 10
50.268787
 20
0.725803
 30
0.0
 11
50.211609
 21
0.7951499999999999
 31
0.0
  0
LINE
  5
652
330
1F
100
AcDbEntity
  8
1
  6
CONTINUOUS
370
50
 62
4
100
AcDbLine
 10
53.21273
 20
-0.389478
 30
0.0
 11
53.212395
 21
-0.389074
 31
0.0
  0
LINE
  5
653
330
1F
100
AcDbEntity
  8
1
  6
CONTINUOUS
370
50
 62
4
100
AcDbLine
 10
53.211731
 20
-0.388265
 30
0.0
 11
53.211395
 21
-0.38786
 31
0.0
  0
LINE
  5
654
330
1F
100
AcDbEntity
  8
1
  6
CONTINUOUS
370
50
 62
4
100
AcDbLine
 10
53.213398
 20
-0.390286
 30
0.0
 11
53.213062
 21
-0.389882
 31
0.0
  0
LINE
  5
655
330
1F
100
AcDbEntity
  8
1
  6
CONTINUOUS
370
50
 62
4
100
AcDbLine
 10
126.52935
 20
0.210551
 30
0.0
 11
126.464699
 21
0.288003
 31
0.0
  0
LINE
  5
656
330
1F
100
AcDbEntity
  8
1
  6
CONTINUOUS
370
50
 62
4
100
AcDbLine
 10
126.464699
 20
0.288003
 30
0.0
 11
126.399315
 21
0.36541
 31
0.0
  0
LINE
  5
657
330
1F
100
AcDbEntity
  8
1
  6
CONTINUOUS
370
50
 62
4
100
AcDbLine
 10
126.399315
 20
0.36541
 30
0.0
 11
126.333672
 21
0.442319
 31
0.0
  0
LINE
  5
658
330
1F
100
AcDbEntity
  8
1
  6
CONTINUOUS
370
50
 62
4
100
AcDbLine
 10
126.333672
 20
0.442319
 30
0.0
 11
126.268242
 21
0.518276
 31
0.0
  0
LINE
  5
659
330
1F
100
AcDbEntity
  8
1
  6
CONTINUOUS
370
50
 62
4
100
AcDbLine
 10
126.268242
 20
0.518276
 30
0.0
 11
126.203491
 21
0.592826
 31
0.0
  0
LINE
  5
65A
330
1F
100
AcDbEntity
  8
1
  6
CONTINUOUS
370
50
 62
4
100
AcDbLine
 10
50.330093
 20
0.655407
 30
0.0
 11
50.268787
 21
0.725803
 31
0.0
  0
LINE
  5
65B
330
1F
100
AcDbEntity
  8
1
  6
CONTINUOUS
370
50
 62
4
100
AcDbLine
 10
126.203491
 20
0.592826
 30
0.0
 11
126.1399
 21
0.665515
 31
0.0
  0
LINE
  5
65C
330
1F
100
AcDbEntity
  8
1
  6
CONTINUOUS
370
50
 62
4
100
AcDbLine
 10
126.975044
 20
2.749147
 30
0.0
 11
126.974648
 21
2.749598
 31
0.0
  0
LINE
  5
65D
330
1F
100
AcDbEntity
  8
1
  6
CONTINUOUS
370
50
 62
4
100
AcDbLine
 10
126.1399
 20
0.665515
 30
0.0
 11
126.077942
 21
0.735889
 31
0.0
  0
LINE
  5
65E
330
1F
100
AcDbEntity
  8
1
  6
CONTINUOUS
370
50
 62
4
100
AcDbLine
 10
126.077942
 20
0.735889
 30
0.0
 11
126.018089
 21
0.803493
 31
0.0
  0
LINE
  5
65F
330
1F
100
AcDbEntity
  8
1
  6
CONTINUOUS
370
50
 62
4
100
AcDbLine
 10
126.018089
 20
0.803493
 30
0.0
 11
125.960815
 21
0.867873
 31
0.0
  0
LINE
  5
660
330
1F
100
AcDbEntity
  8
1
  6
CONTINUOUS
370
50
 62
4
100
AcDbLine
 10
125.960815
 20
0.867873
 30
0.0
 11
125.906593
 21
0.928576
 31
0.0
  0
LINE
  5
661
330
1F
100
AcDbEntity
  8
1
  6
CONTINUOUS
370
50
 62
4
100
AcDbLine
 10
125.906593
 20
0.928576
 30
0.0
 11
125.855896
 21
0.985146
 31
0.0
  0
LINE
  5
662
330
1F
100
AcDbEntity
  8
1
  6
CONTINUOUS
370
50
 62
4
100
AcDbLine
 10
125.855896
 20
0.985146
 30
0.0
 11
125.808327
 21
1.038092
 31
0.0
  0
LINE
  5
663
330
1F
100
AcDbEntity
  8
1
  6
CONTINUOUS
370
50
 62
4
100
AcDbLine
 10
125.808327
 20
1.038092
 30
0.0
 11
125.760262
 21
1.091419
 31
0.0
  0
LINE
  5
664
330
1F
100
AcDbEntity
  8
1
  6
CONTINUOUS
370
50
 62
4
100
AcDbLine
 10
50.395267
 20
0.583997
 30
0.0
 11
50.330093
 21
0.655407
 31
0.0
  0
LINE
  5
665
330
1F
100
AcDbEntity
  8
1
  6
CONTINUOUS
370
50
 62
4
100
AcDbLine
 10
50.46405799999999
 20
0.511609
 30
0.0
 11
50.395267
 21
0.583997
 31
0.0
  0
LINE
  5
666
330
1F
100
AcDbEntity
  8
1
  6
CONTINUOUS
370
50
 62
4
100
AcDbLine
 10
50.536198
 20
0.438279
 30
0.0
 11
50.46405799999999
 21
0.511609
 31
0.0
  0
LINE
  5
667
330
1F
100
AcDbEntity
  8
1
  6
CONTINUOUS
370
50
 62
4
100
AcDbLine
 10
50.61119799999999
 20
0.364264
 30
0.0
 11
50.536198
 21
0.438279
 31
0.0
  0
LINE
  5
668
330
1F
100
AcDbEntity
  8
1
  6
CONTINUOUS
370
50
 62
4
100
AcDbLine
 10
50.687862
 20
0.290467
 30
0.0
 11
50.61119799999999
 21
0.364264
 31
0.0
  0
LINE
  5
669
330
1F
100
AcDbEntity
  8
1
  6
CONTINUOUS
370
50
 62
4
100
AcDbLine
 10
50.765781
 20
0.217057
 30
0.0
 11
50.687862
 21
0.290467
 31
0.0
  0
LINE
  5
66A
330
1F
100
AcDbEntity
  8
1
  6
CONTINUOUS
370
50
 62
4
100
AcDbLine
 10
49.924763
 20
-2.749901
 30
0.0
 11
49.924675
 21
-2.749819
 31
0.0
  0
LINE
  5
66B
330
1F
100
AcDbEntity
  8
1
  6
CONTINUOUS
370
50
 62
4
100
AcDbLine
 10
50.844635
 20
0.144118
 30
0.0
 11
50.765781
 21
0.217057
 31
0.0
  0
LINE
  5
66C
330
1F
100
AcDbEntity
  8
1
  6
CONTINUOUS
370
50
 62
4
100
AcDbLine
 10
50.924099
 20
0.071735
 30
0.0
 11
50.844635
 21
0.144118
 31
0.0
  0
LINE
  5
66D
330
1F
100
AcDbEntity
  8
1
  6
CONTINUOUS
370
50
 62
4
100
AcDbLine
 10
51.003857
 20
0.0
 30
0.0
 11
50.924099
 21
0.071735
 31
0.0
  0
LINE
  5
66E
330
1F
100
AcDbEntity
  8
1
  6
CONTINUOUS
370
50
 62
4
100
AcDbLine
 10
51.20968999999999
 20
-0.182163
 30
0.0
 11
51.003857
 21
0.0
 31
0.0
  0
LINE
  5
66F
330
1F
100
AcDbEntity
  8
1
  6
CONTINUOUS
370
50
 62
4
100
AcDbLine
 10
51.41708
 20
-0.362568
 30
0.0
 11
51.20968999999999
 21
-0.182163
 31
0.0
  0
LINE
  5
670
330
1F
100
AcDbEntity
  8
1
  6
CONTINUOUS
370
50
 62
4
100
AcDbLine
 10
51.624516
 20
-0.541045
 30
0.0
 11
51.41708
 21
-0.362568
 31
0.0
  0
LINE
  5
671
330
1F
100
AcDbEntity
  8
1
  6
CONTINUOUS
370
50
 62
4
100
AcDbLine
 10
51.831711
 20
-0.717645
 30
0.0
 11
51.624516
 21
-0.541045
 31
0.0
  0
LINE
  5
672
330
1F
100
AcDbEntity
  8
1
  6
CONTINUOUS
370
50
 62
4
100
AcDbLine
 10
52.037895
 20
-0.8915639999999999
 30
0.0
 11
51.831711
 21
-0.717645
 31
0.0
  0
LINE
  5
673
330
1F
100
AcDbEntity
  8
1
  6
CONTINUOUS
370
50
 62
4
100
AcDbLine
 10
52.243263
 20
-1.062012
 30
0.0
 11
52.037895
 21
-0.8915639999999999
 31
0.0
  0
LINE
  5
674
330
1F
100
AcDbEntity
  8
1
  6
CONTINUOUS
370
50
 62
4
100
AcDbLine
 10
52.446999
 20
-1.227082
 30
0.0
 11
52.243263
 21
-1.062012
 31
0.0
  0
LINE
  5
675
330
1F
100
AcDbEntity
  8
1
  6
CONTINUOUS
370
50
 62
4
100
AcDbLine
 10
60.999565
 20
-2.33075
 30
0.0
 11
60.999424
 21
-2.330636
 31
0.0
  0
LINE
  5
676
330
1F
100
AcDbEntity
  8
1
  6
CONTINUOUS
370
50
 62
4
100
AcDbLine
 10
60.999855
 20
-2.330977
 30
0.0
 11
60.99971
 21
-2.330863
 31
0.0
  0
LINE
  5
677
330
1F
100
AcDbEntity
  8
1
  6
CONTINUOUS
370
50
 62
4
100
AcDbLine
 10
60.999424
 20
-2.330636
 30
0.0
 11
60.99927899999999
 21
-2.330522
 31
0.0
  0
LINE
  5
678
330
1F
100
AcDbEntity
  8
1
  6
CONTINUOUS
370
50
 62
4
100
AcDbLine
 10
52.644119
 20
-1.381247
 30
0.0
 11
52.446999
 21
-1.227082
 31
0.0
  0
LINE
  5
679
330
1F
100
AcDbEntity
  8
1
  6
CONTINUOUS
370
50
 62
4
100
AcDbLine
 10
61.0
 20
-2.33109
 30
0.0
 11
60.999855
 21
-2.330977
 31
0.0
  0
LINE
  5
67A
330
1F
100
AcDbEntity
  8
1
  6
CONTINUOUS
370
50
 62
4
100
AcDbLine
 10
60.99971
 20
-2.330863
 30
0.0
 11
60.999565
 21
-2.33075
 31
0.0
  0
LINE
  5
67B
330
1F
100
AcDbEntity
  8
1
  6
CONTINUOUS
370
50
 62
4
100
AcDbLine
 10
60.99927899999999
 20
-2.330522
 30
0.0
 11
60.999134
 21
-2.330409
 31
0.0
  0
LINE
  5
67C
330
1F
100
AcDbEntity
  8
1
  6
CONTINUOUS
370
50
 62
4
100
AcDbLine
 10
52.835938
 20
-1.524105
 30
0.0
 11
52.644119
 21
-1.381247
 31
0.0
  0
LINE
  5
67D
330
1F
100
AcDbEntity
  8
1
  6
CONTINUOUS
370
50
 62
4
100
AcDbLine
 10
53.024387
 20
-1.655761
 30
0.0
 11
52.835938
 21
-1.524105
 31
0.0
  0
LINE
  5
67E
330
1F
100
AcDbEntity
  8
1
  6
CONTINUOUS
370
50
 62
4
100
AcDbLine
 10
126.974648
 20
2.749598
 30
0.0
 11
126.974251
 21
2.749867
 31
0.0
  0
LINE
  5
67F
330
1F
100
AcDbEntity
  8
1
  6
CONTINUOUS
370
50
 62
4
100
AcDbLine
 10
53.211395
 20
-1.776319
 30
0.0
 11
53.024387
 21
-1.655761
 31
0.0
  0
LINE
  5
680
330
1F
100
AcDbEntity
  8
1
  6
CONTINUOUS
370
50
 62
4
100
AcDbLine
 10
53.213398
 20
1.343814
 30
0.0
 11
53.091297
 21
1.415244
 31
0.0
  0
LINE
  5
681
330
1F
100
AcDbEntity
  8
1
  6
CONTINUOUS
370
50
 62
4
100
AcDbLine
 10
127.860252
 20
-0.12111
 30
0.0
 11
125.760262
 21
1.091419
 31
0.0
  0
LINE
  5
682
330
1F
100
AcDbEntity
  8
1
  6
CONTINUOUS
370
50
 62
4
100
AcDbLine
 10
60.999565
 20
-0.348984
 30
0.0
 11
60.999424
 21
-0.348903
 31
0.0
  0
LINE
  5
683
330
1F
100
AcDbEntity
  8
1
  6
CONTINUOUS
370
50
 62
4
100
AcDbLine
 10
61.0
 20
-0.349229
 30
0.0
 11
60.999855
 21
-0.349147
 31
0.0
  0
LINE
  5
684
330
1F
100
AcDbEntity
  8
1
  6
CONTINUOUS
370
50
 62
4
100
AcDbLine
 10
60.99971
 20
-0.349066
 30
0.0
 11
60.999565
 21
-0.348984
 31
0.0
  0
LINE
  5
685
330
1F
100
AcDbEntity
  8
1
  6
CONTINUOUS
370
50
 62
4
100
AcDbLine
 10
60.999424
 20
-0.348903
 30
0.0
 11
60.99927899999999
 21
-0.348821
 31
0.0
  0
LINE
  5
686
330
1F
100
AcDbEntity
  8
1
  6
CONTINUOUS
370
50
 62
4
100
AcDbLine
 10
60.999855
 20
-0.349147
 30
0.0
 11
60.99971
 21
-0.349066
 31
0.0
  0
LINE
  5
687
330
1F
100
AcDbEntity
  8
1
  6
CONTINUOUS
370
50
 62
4
100
AcDbLine
 10
60.99927899999999
 20
-0.348821
 30
0.0
 11
60.999134
 21
-0.34874
 31
0.0
  0
LINE
  5
688
330
1F
100
AcDbEntity
  8
1
  6
CONTINUOUS
370
50
 62
4
100
AcDbLine
 10
53.091297
 20
1.415244
 30
0.0
 11
52.969128
 21
1.482097
 31
0.0
  0
LINE
  5
689
330
1F
100
AcDbEntity
  8
1
  6
CONTINUOUS
370
50
 62
4
100
AcDbLine
 10
114.836533
 20
-0.162853
 30
0.0
 11
114.342041
 21
0.101876
 31
0.0
  0
LINE
  5
68A
330
1F
100
AcDbEntity
  8
1
  6
CONTINUOUS
370
50
 62
4
100
AcDbLine
 10
82.32036599999999
 20
-0.163651
 30
0.0
 11
81.825386
 21
0.101332
 31
0.0
  0
LINE
  5
68B
330
1F
100
AcDbEntity
  8
1
  6
CONTINUOUS
370
50
 62
4
100
AcDbLine
 10
110.149284
 20
-0.102167
 30
0.0
 11
109.653084
 21
0.163198
 31
0.0
  0
LINE
  5
68C
330
1F
100
AcDbEntity
  8
1
  6
CONTINUOUS
370
50
 62
4
100
AcDbLine
 10
77.629036
 20
-0.100691
 30
0.0
 11
77.13404799999999
 21
0.163883
 31
0.0
  0
LINE
  5
68D
330
1F
100
AcDbEntity
  8
1
  6
CONTINUOUS
370
50
 62
4
100
AcDbLine
 10
67.098854
 20
-0.26287
 30
0.0
 11
66.699524
 21
-0.04961
 31
0.0
  0
LINE
  5
68E
330
1F
100
AcDbEntity
  8
1
  6
CONTINUOUS
370
50
 62
4
100
AcDbLine
 10
125.173744
 20
0.102461
 30
0.0
 11
124.679192
 21
0.366456
 31
0.0
  0
LINE
  5
68F
330
1F
100
AcDbEntity
  8
1
  6
CONTINUOUS
370
50
 62
4
100
AcDbLine
 10
99.81431599999999
 20
-0.367963
 30
0.0
 11
99.316452
 21
-0.10264
 31
0.0
  0
LINE
  5
690
330
1F
100
AcDbEntity
  8
1
  6
CONTINUOUS
370
50
 62
4
100
AcDbLine
 10
66.699524
 20
-0.04961
 30
0.0
 11
66.300186
 21
0.163154
 31
0.0
  0
LINE
  5
691
330
1F
100
AcDbEntity
  8
1
  6
CONTINUOUS
370
50
 62
4
100
AcDbLine
 10
92.657951
 20
0.10202
 30
0.0
 11
92.162521
 21
0.365722
 31
0.0
  0
LINE
  5
692
330
1F
100
AcDbEntity
  8
1
  6
CONTINUOUS
370
50
 62
4
100
AcDbLine
 10
71.965919
 20
-0.418406
 30
0.0
 11
71.48597699999999
 21
-0.162966
 31
0.0
  0
LINE
  5
693
330
1F
100
AcDbEntity
  8
1
  6
CONTINUOUS
370
50
 62
4
100
AcDbLine
 10
81.825386
 20
0.101332
 30
0.0
 11
81.327705
 21
0.366172
 31
0.0
  0
LINE
  5
694
330
1F
100
AcDbEntity
  8
1
  6
CONTINUOUS
370
50
 62
4
100
AcDbLine
 10
99.316452
 20
-0.10264
 30
0.0
 11
98.81852699999999
 21
0.162259
 31
0.0
  0
LINE
  5
695
330
1F
100
AcDbEntity
  8
1
  6
CONTINUOUS
370
50
 62
4
100
AcDbLine
 10
77.13404799999999
 20
0.163883
 30
0.0
 11
76.64632399999999
 21
0.423234
 31
0.0
  0
LINE
  5
696
330
1F
100
AcDbEntity
  8
1
  6
CONTINUOUS
370
50
 62
4
100
AcDbLine
 10
125.672867
 20
-0.162834
 30
0.0
 11
125.173744
 21
0.102461
 31
0.0
  0
LINE
  5
697
330
1F
100
AcDbEntity
  8
1
  6
CONTINUOUS
370
50
 62
4
100
AcDbLine
 10
59.960938
 20
0.198197
 30
0.0
 11
59.590038
 21
0.395228
 31
0.0
  0
LINE
  5
698
330
1F
100
AcDbEntity
  8
1
  6
CONTINUOUS
370
50
 62
4
100
AcDbLine
 10
71.48597699999999
 20
-0.162966
 30
0.0
 11
70.993492
 21
0.098651
 31
0.0
  0
LINE
  5
699
330
1F
100
AcDbEntity
  8
1
  6
CONTINUOUS
370
50
 62
4
100
AcDbLine
 10
114.342041
 20
0.101876
 30
0.0
 11
113.844444
 21
0.366144
 31
0.0
  0
LINE
  5
69A
330
1F
100
AcDbEntity
  8
1
  6
CONTINUOUS
370
50
 62
4
100
AcDbLine
 10
109.653084
 20
0.163198
 30
0.0
 11
109.163109
 21
0.423381
 31
0.0
  0
LINE
  5
69B
330
1F
100
AcDbEntity
  8
1
  6
CONTINUOUS
370
50
 62
4
100
AcDbLine
 10
104.491592
 20
-0.422616
 30
0.0
 11
104.001114
 21
-0.162174
 31
0.0
  0
LINE
  5
69C
330
1F
100
AcDbEntity
  8
1
  6
CONTINUOUS
370
50
 62
4
100
AcDbLine
 10
60.33435799999999
 20
0.0
 30
0.0
 11
59.960938
 21
0.198197
 31
0.0
  0
LINE
  5
69D
330
1F
100
AcDbEntity
  8
1
  6
CONTINUOUS
370
50
 62
4
100
AcDbLine
 10
115.323143
 20
-0.421054
 30
0.0
 11
114.836533
 21
-0.162853
 31
0.0
  0
LINE
  5
69E
330
1F
100
AcDbEntity
  8
1
  6
CONTINUOUS
370
50
 62
4
100
AcDbLine
 10
120.489212
 20
0.162528
 30
0.0
 11
120.055916
 21
0.392378
 31
0.0
  0
LINE
  5
69F
330
1F
100
AcDbEntity
  8
1
  6
CONTINUOUS
370
50
 62
4
100
AcDbLine
 10
82.805641
 20
-0.420691
 30
0.0
 11
82.32036599999999
 21
-0.163651
 31
0.0
  0
LINE
  5
6A0
330
1F
100
AcDbEntity
  8
1
  6
CONTINUOUS
370
50
 62
4
100
AcDbLine
 10
110.648415
 20
-0.366415
 30
0.0
 11
110.149284
 21
-0.102167
 31
0.0
  0
LINE
  5
6A1
330
1F
100
AcDbEntity
  8
1
  6
CONTINUOUS
370
50
 62
4
100
AcDbLine
 10
56.241913
 20
-0.251398
 30
0.0
 11
55.767025
 21
0.0
 31
0.0
  0
LINE
  5
6A2
330
1F
100
AcDbEntity
  8
1
  6
CONTINUOUS
370
50
 62
4
100
AcDbLine
 10
87.971581
 20
0.163023
 30
0.0
 11
87.487633
 21
0.419169
 31
0.0
  0
LINE
  5
6A3
330
1F
100
AcDbEntity
  8
1
  6
CONTINUOUS
370
50
 62
4
100
AcDbLine
 10
67.500114
 20
-0.475204
 30
0.0
 11
67.098854
 21
-0.26287
 31
0.0
  0
LINE
  5
6A4
330
1F
100
AcDbEntity
  8
1
  6
CONTINUOUS
370
50
 62
4
100
AcDbLine
 10
56.714622
 20
-0.501433
 30
0.0
 11
56.241913
 21
-0.251398
 31
0.0
  0
LINE
  5
6A5
330
1F
100
AcDbEntity
  8
1
  6
CONTINUOUS
370
50
 62
4
100
AcDbLine
 10
93.158447
 20
-0.162699
 30
0.0
 11
92.657951
 21
0.10202
 31
0.0
  0
LINE
  5
6A6
330
1F
100
AcDbEntity
  8
1
  6
CONTINUOUS
370
50
 62
4
100
AcDbLine
 10
120.926025
 20
-0.068421
 30
0.0
 11
120.489212
 21
0.162528
 31
0.0
  0
LINE
  5
6A7
330
1F
100
AcDbEntity
  8
1
  6
CONTINUOUS
370
50
 62
4
100
AcDbLine
 10
104.001114
 20
-0.162174
 30
0.0
 11
103.496986
 21
0.104288
 31
0.0
  0
LINE
  5
6A8
330
1F
100
AcDbEntity
  8
1
  6
CONTINUOUS
370
50
 62
4
100
AcDbLine
 10
78.126717
 20
-0.363575
 30
0.0
 11
77.629036
 21
-0.100691
 31
0.0
  0
LINE
  5
6A9
330
1F
100
AcDbEntity
  8
1
  6
CONTINUOUS
370
50
 62
4
100
AcDbLine
 10
60.384739
 20
-0.026598
 30
0.0
 11
60.33435799999999
 21
0.0
 31
0.0
  0
LINE
  5
6AA
330
1F
100
AcDbEntity
  8
1
  6
CONTINUOUS
370
50
 62
4
100
AcDbLine
 10
60.43519999999999
 20
-0.053221
 30
0.0
 11
60.384739
 21
-0.026598
 31
0.0
  0
LINE
  5
6AB
330
1F
100
AcDbEntity
  8
1
  6
CONTINUOUS
370
50
 62
4
100
AcDbLine
 10
88.964592
 20
-0.360054
 30
0.0
 11
88.46953599999999
 21
-0.099033
 31
0.0
  0
LINE
  5
6AC
330
1F
100
AcDbEntity
  8
1
  6
CONTINUOUS
370
50
 62
4
100
AcDbLine
 10
55.565376
 20
0.106188
 30
0.0
 11
55.51490399999999
 21
0.132788
 31
0.0
  0
LINE
  5
6AD
330
1F
100
AcDbEntity
  8
1
  6
CONTINUOUS
370
50
 62
4
100
AcDbLine
 10
55.767025
 20
0.0
 30
0.0
 11
55.716629
 21
0.026555
 31
0.0
  0
LINE
  5
6AE
330
1F
100
AcDbEntity
  8
1
  6
CONTINUOUS
370
50
 62
4
100
AcDbLine
 10
55.51490399999999
 20
0.132788
 30
0.0
 11
55.464413
 21
0.159388
 31
0.0
  0
LINE
  5
6AF
330
1F
100
AcDbEntity
  8
1
  6
CONTINUOUS
370
50
 62
4
100
AcDbLine
 10
59.590038
 20
0.395228
 30
0.0
 11
59.219521
 21
0.590392
 31
0.0
  0
LINE
  5
6B0
330
1F
100
AcDbEntity
  8
1
  6
CONTINUOUS
370
50
 62
4
100
AcDbLine
 10
60.485752
 20
-0.079848
 30
0.0
 11
60.43519999999999
 21
-0.053221
 31
0.0
  0
LINE
  5
6B1
330
1F
100
AcDbEntity
  8
1
  6
CONTINUOUS
370
50
 62
4
100
AcDbLine
 10
125.818008
 20
-0.239276
 30
0.0
 11
125.672867
 21
-0.162834
 31
0.0
  0
LINE
  5
6B2
330
1F
100
AcDbEntity
  8
1
  6
CONTINUOUS
370
50
 62
4
100
AcDbLine
 10
55.615818
 20
0.079623
 30
0.0
 11
55.565376
 21
0.106188
 31
0.0
  0
LINE
  5
6B3
330
1F
100
AcDbEntity
  8
1
  6
CONTINUOUS
370
50
 62
4
100
AcDbLine
 10
124.679192
 20
0.366456
 30
0.0
 11
124.185013
 21
0.626694
 31
0.0
  0
LINE
  5
6B4
330
1F
100
AcDbEntity
  8
1
  6
CONTINUOUS
370
50
 62
4
100
AcDbLine
 10
92.162521
 20
0.365722
 30
0.0
 11
91.667671
 21
0.6262679999999999
 31
0.0
  0
LINE
  5
6B5
330
1F
100
AcDbEntity
  8
1
  6
CONTINUOUS
370
50
 62
4
100
AcDbLine
 10
55.716629
 20
0.026555
 30
0.0
 11
55.666233
 21
0.053087
 31
0.0
  0
LINE
  5
6B6
330
1F
100
AcDbEntity
  8
1
  6
CONTINUOUS
370
50
 62
4
100
AcDbLine
 10
55.666233
 20
0.053087
 30
0.0
 11
55.615818
 21
0.079623
 31
0.0
  0
LINE
  5
6B7
330
1F
100
AcDbEntity
  8
1
  6
CONTINUOUS
370
50
 62
4
100
AcDbLine
 10
88.46953599999999
 20
-0.099033
 30
0.0
 11
87.971581
 21
0.163023
 31
0.0
  0
LINE
  5
6B8
330
1F
100
AcDbEntity
  8
1
  6
CONTINUOUS
370
50
 62
4
100
AcDbLine
 10
66.300186
 20
0.163154
 30
0.0
 11
65.861969
 21
0.393663
 31
0.0
  0
LINE
  5
6B9
330
1F
100
AcDbEntity
  8
1
  6
CONTINUOUS
370
50
 62
4
100
AcDbLine
 10
121.364426
 20
-0.298997
 30
0.0
 11
120.926025
 21
-0.068421
 31
0.0
  0
LINE
  5
6BA
330
1F
100
AcDbEntity
  8
1
  6
CONTINUOUS
370
50
 62
4
100
AcDbLine
 10
120.055916
 20
0.392378
 30
0.0
 11
119.622849
 21
0.620112
 31
0.0
  0
LINE
  5
6BB
330
1F
100
AcDbEntity
  8
1
  6
CONTINUOUS
370
50
 62
4
100
AcDbLine
 10
60.53641099999999
 20
-0.106479
 30
0.0
 11
60.485752
 21
-0.079848
 31
0.0
  0
LINE
  5
6BC
330
1F
100
AcDbEntity
  8
1
  6
CONTINUOUS
370
50
 62
4
100
AcDbLine
 10
55.464413
 20
0.159388
 30
0.0
 11
55.08938999999999
 21
0.356496
 31
0.0
  0
LINE
  5
6BD
330
1F
100
AcDbEntity
  8
1
  6
CONTINUOUS
370
50
 62
4
100
AcDbLine
 10
103.496986
 20
0.104288
 30
0.0
 11
102.992424
 21
0.369363
 31
0.0
  0
LINE
  5
6BE
330
1F
100
AcDbEntity
  8
1
  6
CONTINUOUS
370
50
 62
4
100
AcDbLine
 10
100.311142
 20
-0.628872
 30
0.0
 11
99.81431599999999
 21
-0.367963
 31
0.0
  0
LINE
  5
6BF
330
1F
100
AcDbEntity
  8
1
  6
CONTINUOUS
370
50
 62
4
100
AcDbLine
 10
89.457832
 20
-0.618977
 30
0.0
 11
88.964592
 21
-0.360054
 31
0.0
  0
LINE
  5
6C0
330
1F
100
AcDbEntity
  8
1
  6
CONTINUOUS
370
50
 62
4
100
AcDbLine
 10
60.587185
 20
-0.133124
 30
0.0
 11
60.53641099999999
 21
-0.106479
 31
0.0
  0
LINE
  5
6C1
330
1F
100
AcDbEntity
  8
1
  6
CONTINUOUS
370
50
 62
4
100
AcDbLine
 10
125.963203
 20
-0.315457
 30
0.0
 11
125.818008
 21
-0.239276
 31
0.0
  0
LINE
  5
6C2
330
1F
100
AcDbEntity
  8
1
  6
CONTINUOUS
370
50
 62
4
100
AcDbLine
 10
87.487633
 20
0.419169
 30
0.0
 11
87.005005
 21
0.672273
 31
0.0
  0
LINE
  5
6C3
330
1F
100
AcDbEntity
  8
1
  6
CONTINUOUS
370
50
 62
4
100
AcDbLine
 10
72.447441
 20
-0.670913
 30
0.0
 11
71.965919
 21
-0.418406
 31
0.0
  0
LINE
  5
6C4
330
1F
100
AcDbEntity
  8
1
  6
CONTINUOUS
370
50
 62
4
100
AcDbLine
 10
104.978951
 20
-0.6780959999999999
 30
0.0
 11
104.491592
 21
-0.422616
 31
0.0
  0
LINE
  5
6C5
330
1F
100
AcDbEntity
  8
1
  6
CONTINUOUS
370
50
 62
4
100
AcDbLine
 10
60.999134
 20
-0.34874
 30
0.0
 11
60.938927
 21
-0.317183
 31
0.0
  0
LINE
  5
6C6
330
1F
100
AcDbEntity
  8
1
  6
CONTINUOUS
370
50
 62
4
100
AcDbLine
 10
61.394047
 20
-0.556213
 30
0.0
 11
61.0
 21
-0.349694
 31
0.0
  0
LINE
  5
6C7
330
1F
100
AcDbEntity
  8
1
  6
CONTINUOUS
370
50
 62
4
100
AcDbLine
 10
121.801689
 20
-0.52816
 30
0.0
 11
121.364426
 21
-0.298997
 31
0.0
  0
LINE
  5
6C8
330
1F
100
AcDbEntity
  8
1
  6
CONTINUOUS
370
50
 62
4
100
AcDbLine
 10
60.638062
 20
-0.159783
 30
0.0
 11
60.587185
 21
-0.133124
 31
0.0
  0
LINE
  5
6C9
330
1F
100
AcDbEntity
  8
1
  6
CONTINUOUS
370
50
 62
4
100
AcDbLine
 10
98.81852699999999
 20
0.162259
 30
0.0
 11
98.329346
 21
0.418542
 31
0.0
  0
LINE
  5
6CA
330
1F
100
AcDbEntity
  8
1
  6
CONTINUOUS
370
50
 62
4
100
AcDbLine
 10
60.938927
 20
-0.317183
 30
0.0
 11
60.878696
 21
-0.285654
 31
0.0
  0
LINE
  5
6CB
330
1F
100
AcDbEntity
  8
1
  6
CONTINUOUS
370
50
 62
4
100
AcDbLine
 10
60.698116
 20
-0.191216
 30
0.0
 11
60.638062
 21
-0.159783
 31
0.0
  0
LINE
  5
6CC
330
1F
100
AcDbEntity
  8
1
  6
CONTINUOUS
370
50
 62
4
100
AcDbLine
 10
70.993492
 20
0.098651
 30
0.0
 11
70.49458299999999
 21
0.359786
 31
0.0
  0
LINE
  5
6CD
330
1F
100
AcDbEntity
  8
1
  6
CONTINUOUS
370
50
 62
4
100
AcDbLine
 10
60.878696
 20
-0.285654
 30
0.0
 11
60.818462
 21
-0.25415
 31
0.0
  0
LINE
  5
6CE
330
1F
100
AcDbEntity
  8
1
  6
CONTINUOUS
370
50
 62
4
100
AcDbLine
 10
60.758259
 20
-0.222671
 30
0.0
 11
60.698116
 21
-0.191216
 31
0.0
  0
LINE
  5
6CF
330
1F
100
AcDbEntity
  8
1
  6
CONTINUOUS
370
50
 62
4
100
AcDbLine
 10
126.108337
 20
-0.391345
 30
0.0
 11
125.963203
 21
-0.315457
 31
0.0
  0
LINE
  5
6D0
330
1F
100
AcDbEntity
  8
1
  6
CONTINUOUS
370
50
 62
4
100
AcDbLine
 10
60.818462
 20
-0.25415
 30
0.0
 11
60.758259
 21
-0.222671
 31
0.0
  0
LINE
  5
6D1
330
1F
100
AcDbEntity
  8
1
  6
CONTINUOUS
370
50
 62
4
100
AcDbLine
 10
93.64956699999999
 20
-0.419442
 30
0.0
 11
93.158447
 21
-0.162699
 31
0.0
  0
LINE
  5
6D2
330
1F
100
AcDbEntity
  8
1
  6
CONTINUOUS
370
50
 62
4
100
AcDbLine
 10
102.992424
 20
0.369363
 30
0.0
 11
102.490738
 21
0.631412
 31
0.0
  0
LINE
  5
6D3
330
1F
100
AcDbEntity
  8
1
  6
CONTINUOUS
370
50
 62
4
100
AcDbLine
 10
55.08938999999999
 20
0.356496
 30
0.0
 11
54.71387499999999
 21
0.552437
 31
0.0
  0
LINE
  5
6D4
330
1F
100
AcDbEntity
  8
1
  6
CONTINUOUS
370
50
 62
4
100
AcDbLine
 10
70.49458299999999
 20
0.359786
 30
0.0
 11
69.996132
 21
0.6197929999999999
 31
0.0
  0
LINE
  5
6D5
330
1F
100
AcDbEntity
  8
1
  6
CONTINUOUS
370
50
 62
4
100
AcDbLine
 10
57.188465
 20
-0.748525
 30
0.0
 11
56.714622
 21
-0.501433
 31
0.0
  0
LINE
  5
6D6
330
1F
100
AcDbEntity
  8
1
  6
CONTINUOUS
370
50
 62
4
100
AcDbLine
 10
94.135216
 20
-0.672612
 30
0.0
 11
93.64956699999999
 21
-0.419442
 31
0.0
  0
LINE
  5
6D7
330
1F
100
AcDbEntity
  8
1
  6
CONTINUOUS
370
50
 62
4
100
AcDbLine
 10
126.253296
 20
-0.46691
 30
0.0
 11
126.108337
 21
-0.391345
 31
0.0
  0
LINE
  5
6D8
330
1F
100
AcDbEntity
  8
1
  6
CONTINUOUS
370
50
 62
4
100
AcDbLine
 10
126.397972
 20
-0.542123
 30
0.0
 11
126.253296
 21
-0.46691
 31
0.0
  0
LINE
  5
6D9
330
1F
100
AcDbEntity
  8
1
  6
CONTINUOUS
370
50
 62
4
100
AcDbLine
 10
122.235703
 20
-0.753748
 30
0.0
 11
121.801689
 21
-0.52816
 31
0.0
  0
LINE
  5
6DA
330
1F
100
AcDbEntity
  8
1
  6
CONTINUOUS
370
50
 62
4
100
AcDbLine
 10
76.64632399999999
 20
0.423234
 30
0.0
 11
76.15387
 21
0.679071
 31
0.0
  0
LINE
  5
6DB
330
1F
100
AcDbEntity
  8
1
  6
CONTINUOUS
370
50
 62
4
100
AcDbLine
 10
61.784538
 20
-0.758946
 30
0.0
 11
61.394047
 21
-0.556213
 31
0.0
  0
LINE
  5
6DC
330
1F
100
AcDbEntity
  8
1
  6
CONTINUOUS
370
50
 62
4
100
AcDbLine
 10
81.327705
 20
0.366172
 30
0.0
 11
80.825287
 21
0.62701
 31
0.0
  0
LINE
  5
6DD
330
1F
100
AcDbEntity
  8
1
  6
CONTINUOUS
370
50
 62
4
100
AcDbLine
 10
126.542297
 20
-0.6169439999999999
 30
0.0
 11
126.397972
 21
-0.542123
 31
0.0
  0
LINE
  5
6DE
330
1F
100
AcDbEntity
  8
1
  6
CONTINUOUS
370
50
 62
4
100
AcDbLine
 10
111.150734
 20
-0.6268079999999999
 30
0.0
 11
110.648415
 21
-0.366415
 31
0.0
  0
LINE
  5
6DF
330
1F
100
AcDbEntity
  8
1
  6
CONTINUOUS
370
50
 62
4
100
AcDbLine
 10
113.844444
 20
0.366144
 30
0.0
 11
113.341484
 21
0.626854
 31
0.0
  0
LINE
  5
6E0
330
1F
100
AcDbEntity
  8
1
  6
CONTINUOUS
370
50
 62
4
100
AcDbLine
 10
67.903122
 20
-0.684047
 30
0.0
 11
67.500114
 21
-0.475204
 31
0.0
  0
LINE
  5
6E1
330
1F
100
AcDbEntity
  8
1
  6
CONTINUOUS
370
50
 62
4
100
AcDbLine
 10
109.163109
 20
0.423381
 30
0.0
 11
108.669563
 21
0.67908
 31
0.0
  0
LINE
  5
6E2
330
1F
100
AcDbEntity
  8
1
  6
CONTINUOUS
370
50
 62
4
100
AcDbLine
 10
98.329346
 20
0.418542
 30
0.0
 11
97.842987
 21
0.67043
 31
0.0
  0
LINE
  5
6E3
330
1F
100
AcDbEntity
  8
1
  6
CONTINUOUS
370
50
 62
4
100
AcDbLine
 10
78.626373
 20
-0.6221519999999999
 30
0.0
 11
78.126717
 21
-0.363575
 31
0.0
  0
LINE
  5
6E4
330
1F
100
AcDbEntity
  8
1
  6
CONTINUOUS
370
50
 62
4
100
AcDbLine
 10
59.219521
 20
0.590392
 30
0.0
 11
58.847229
 21
0.782967
 31
0.0
  0
LINE
  5
6E5
330
1F
100
AcDbEntity
  8
1
  6
CONTINUOUS
370
50
 62
4
100
AcDbLine
 10
65.861969
 20
0.393663
 30
0.0
 11
65.41944099999999
 21
0.622544
 31
0.0
  0
LINE
  5
6E6
330
1F
100
AcDbEntity
  8
1
  6
CONTINUOUS
370
50
 62
4
100
AcDbLine
 10
115.814827
 20
-0.675349
 30
0.0
 11
115.323143
 21
-0.421054
 31
0.0
  0
LINE
  5
6E7
330
1F
100
AcDbEntity
  8
1
  6
CONTINUOUS
370
50
 62
4
100
AcDbLine
 10
83.295715
 20
-0.673568
 30
0.0
 11
82.805641
 21
-0.420691
 31
0.0
  0
LINE
  5
6E8
330
1F
100
AcDbEntity
  8
1
  6
CONTINUOUS
370
50
 62
4
100
AcDbLine
 10
54.71387499999999
 20
0.552437
 30
0.0
 11
54.338196
 21
0.7462019999999999
 31
0.0
  0
LINE
  5
6E9
330
1F
100
AcDbEntity
  8
1
  6
CONTINUOUS
370
50
 62
4
100
AcDbLine
 10
89.951668
 20
-0.8732679999999999
 30
0.0
 11
89.457832
 21
-0.618977
 31
0.0
  0
LINE
  5
6EA
330
1F
100
AcDbEntity
  8
1
  6
CONTINUOUS
370
50
 62
4
100
AcDbLine
 10
119.622849
 20
0.620112
 30
0.0
 11
119.19075
 21
0.842456
 31
0.0
  0
LINE
  5
6EB
330
1F
100
AcDbEntity
  8
1
  6
CONTINUOUS
370
50
 62
4
100
AcDbLine
 10
69.996132
 20
0.6197929999999999
 30
0.0
 11
69.500511
 21
0.874722
 31
0.0
  0
LINE
  5
6EC
330
1F
100
AcDbEntity
  8
1
  6
CONTINUOUS
370
50
 62
4
100
AcDbLine
 10
102.490738
 20
0.631412
 30
0.0
 11
101.993919
 21
0.886948
 31
0.0
  0
LINE
  5
6ED
330
1F
100
AcDbEntity
  8
1
  6
CONTINUOUS
370
50
 62
4
100
AcDbLine
 10
94.617561
 20
-0.919735
 30
0.0
 11
94.135216
 21
-0.672612
 31
0.0
  0
LINE
  5
6EE
330
1F
100
AcDbEntity
  8
1
  6
CONTINUOUS
370
50
 62
4
100
AcDbLine
 10
65.41944099999999
 20
0.622544
 30
0.0
 11
64.977715
 21
0.848818
 31
0.0
  0
LINE
  5
6EF
330
1F
100
AcDbEntity
  8
1
  6
CONTINUOUS
370
50
 62
4
100
AcDbLine
 10
91.667671
 20
0.6262679999999999
 30
0.0
 11
91.168533
 21
0.8816499999999999
 31
0.0
  0
LINE
  5
6F0
330
1F
100
AcDbEntity
  8
1
  6
CONTINUOUS
370
50
 62
4
100
AcDbLine
 10
79.123184
 20
-0.876038
 30
0.0
 11
78.626373
 21
-0.6221519999999999
 31
0.0
  0
LINE
  5
6F1
330
1F
100
AcDbEntity
  8
1
  6
CONTINUOUS
370
50
 62
4
100
AcDbLine
 10
87.005005
 20
0.672273
 30
0.0
 11
86.519211
 21
0.920499
 31
0.0
  0
LINE
  5
6F2
330
1F
100
AcDbEntity
  8
1
  6
CONTINUOUS
370
50
 62
4
100
AcDbLine
 10
97.842987
 20
0.67043
 30
0.0
 11
97.35767399999999
 21
0.918404
 31
0.0
  0
LINE
  5
6F3
330
1F
100
AcDbEntity
  8
1
  6
CONTINUOUS
370
50
 62
4
100
AcDbLine
 10
124.185013
 20
0.626694
 30
0.0
 11
123.686455
 21
0.881015
 31
0.0
  0
LINE
  5
6F4
330
1F
100
AcDbEntity
  8
1
  6
CONTINUOUS
370
50
 62
4
100
AcDbLine
 10
52.969128
 20
1.482097
 30
0.0
 11
52.84678599999999
 21
1.544436
 31
0.0
  0
LINE
  5
6F5
330
1F
100
AcDbEntity
  8
1
  6
CONTINUOUS
370
50
 62
4
100
AcDbLine
 10
62.173973
 20
-0.9570869999999999
 30
0.0
 11
61.784538
 21
-0.758946
 31
0.0
  0
LINE
  5
6F6
330
1F
100
AcDbEntity
  8
1
  6
CONTINUOUS
370
50
 62
4
100
AcDbLine
 10
105.467567
 20
-0.9266639999999999
 30
0.0
 11
104.978951
 21
-0.6780959999999999
 31
0.0
  0
LINE
  5
6F7
330
1F
100
AcDbEntity
  8
1
  6
CONTINUOUS
370
50
 62
4
100
AcDbLine
 10
111.652344
 20
-0.881852
 30
0.0
 11
111.150734
 21
-0.6268079999999999
 31
0.0
  0
LINE
  5
6F8
330
1F
100
AcDbEntity
  8
1
  6
CONTINUOUS
370
50
 62
4
100
AcDbLine
 10
100.811058
 20
-0.882995
 30
0.0
 11
100.311142
 21
-0.628872
 31
0.0
  0
LINE
  5
6F9
330
1F
100
AcDbEntity
  8
1
  6
CONTINUOUS
370
50
 62
4
100
AcDbLine
 10
72.935097
 20
-0.918674
 30
0.0
 11
72.447441
 21
-0.670913
 31
0.0
  0
LINE
  5
6FA
330
1F
100
AcDbEntity
  8
1
  6
CONTINUOUS
370
50
 62
4
100
AcDbLine
 10
122.668274
 20
-0.973363
 30
0.0
 11
122.235703
 21
-0.753748
 31
0.0
  0
LINE
  5
6FB
330
1F
100
AcDbEntity
  8
1
  6
CONTINUOUS
370
50
 62
4
100
AcDbLine
 10
54.338196
 20
0.7462019999999999
 30
0.0
 11
53.962669
 21
0.936784
 31
0.0
  0
LINE
  5
6FC
330
1F
100
AcDbEntity
  8
1
  6
CONTINUOUS
370
50
 62
4
100
AcDbLine
 10
113.341484
 20
0.626854
 30
0.0
 11
112.83812
 21
0.8819929999999999
 31
0.0
  0
LINE
  5
6FD
330
1F
100
AcDbEntity
  8
1
  6
CONTINUOUS
370
50
 62
4
100
AcDbLine
 10
80.825287
 20
0.62701
 30
0.0
 11
80.32354
 21
0.881137
 31
0.0
  0
LINE
  5
6FE
330
1F
100
AcDbEntity
  8
1
  6
CONTINUOUS
370
50
 62
4
100
AcDbLine
 10
57.663055
 20
-0.988861
 30
0.0
 11
57.188465
 21
-0.748525
 31
0.0
  0
LINE
  5
6FF
330
1F
100
AcDbEntity
  8
1
  6
CONTINUOUS
370
50
 62
4
100
AcDbLine
 10
68.30687
 20
-0.888438
 30
0.0
 11
67.903122
 21
-0.684047
 31
0.0
  0
LINE
  5
700
330
1F
100
AcDbEntity
  8
1
  6
CONTINUOUS
370
50
 62
4
100
AcDbLine
 10
83.78421
 20
-0.920275
 30
0.0
 11
83.295715
 21
-0.673568
 31
0.0
  0
LINE
  5
701
330
1F
100
AcDbEntity
  8
1
  6
CONTINUOUS
370
50
 62
4
100
AcDbLine
 10
108.669563
 20
0.67908
 30
0.0
 11
108.175674
 21
0.928064
 31
0.0
  0
LINE
  5
702
330
1F
100
AcDbEntity
  8
1
  6
CONTINUOUS
370
50
 62
4
100
AcDbLine
 10
76.15387
 20
0.679071
 30
0.0
 11
75.660011
 21
0.9279999999999999
 31
0.0
  0
LINE
  5
703
330
1F
100
AcDbEntity
  8
1
  6
CONTINUOUS
370
50
 62
4
100
AcDbLine
 10
116.305153
 20
-0.922248
 30
0.0
 11
115.814827
 21
-0.675349
 31
0.0
  0
LINE
  5
704
330
1F
100
AcDbEntity
  8
1
  6
CONTINUOUS
370
50
 62
4
100
AcDbLine
 10
58.847229
 20
0.782967
 30
0.0
 11
58.471329
 21
0.9720059999999999
 31
0.0
  0
LINE
  5
705
330
1F
100
AcDbEntity
  8
1
  6
CONTINUOUS
370
50
 62
4
100
AcDbLine
 10
64.977715
 20
0.848818
 30
0.0
 11
64.537003
 21
1.069734
 31
0.0
  0
LINE
  5
706
330
1F
100
AcDbEntity
  8
1
  6
CONTINUOUS
370
50
 62
4
100
AcDbLine
 10
69.500511
 20
0.874722
 30
0.0
 11
69.002907
 21
1.122793
 31
0.0
  0
LINE
  5
707
330
1F
100
AcDbEntity
  8
1
  6
CONTINUOUS
370
50
 62
4
100
AcDbLine
 10
79.620255
 20
-1.123528
 30
0.0
 11
79.123184
 21
-0.876038
 31
0.0
  0
LINE
  5
708
330
1F
100
AcDbEntity
  8
1
  6
CONTINUOUS
370
50
 62
4
100
AcDbLine
 10
119.19075
 20
0.842456
 30
0.0
 11
118.757744
 21
1.057976
 31
0.0
  0
LINE
  5
709
330
1F
100
AcDbEntity
  8
1
  6
CONTINUOUS
370
50
 62
4
100
AcDbLine
 10
101.993919
 20
0.886948
 30
0.0
 11
101.49791
 21
1.13356
 31
0.0
  0
LINE
  5
70A
330
1F
100
AcDbEntity
  8
1
  6
CONTINUOUS
370
50
 62
4
100
AcDbLine
 10
112.149483
 20
-1.128929
 30
0.0
 11
111.652344
 21
-0.881852
 31
0.0
  0
LINE
  5
70B
330
1F
100
AcDbEntity
  8
1
  6
CONTINUOUS
370
50
 62
4
100
AcDbLine
 10
53.962669
 20
0.936784
 30
0.0
 11
53.587803
 21
1.12304
 31
0.0
  0
LINE
  5
70C
330
1F
100
AcDbEntity
  8
1
  6
CONTINUOUS
370
50
 62
4
100
AcDbLine
 10
90.44427499999999
 20
-1.117855
 30
0.0
 11
89.951668
 21
-0.8732679999999999
 31
0.0
  0
LINE
  5
70D
330
1F
100
AcDbEntity
  8
1
  6
CONTINUOUS
370
50
 62
4
100
AcDbLine
 10
112.83812
 20
0.8819929999999999
 30
0.0
 11
112.338737
 21
1.129836
 31
0.0
  0
LINE
  5
70E
330
1F
100
AcDbEntity
  8
1
  6
CONTINUOUS
370
50
 62
4
100
AcDbLine
 10
80.32354
 20
0.881137
 30
0.0
 11
79.828171
 21
1.126647
 31
0.0
  0
LINE
  5
70F
330
1F
100
AcDbEntity
  8
1
  6
CONTINUOUS
370
50
 62
4
100
AcDbLine
 10
97.35767399999999
 20
0.918404
 30
0.0
 11
96.873154
 21
1.158349
 31
0.0
  0
LINE
  5
710
330
1F
100
AcDbEntity
  8
1
  6
CONTINUOUS
370
50
 62
4
100
AcDbLine
 10
95.101479
 20
-1.159204
 30
0.0
 11
94.617561
 21
-0.919735
 31
0.0
  0
LINE
  5
711
330
1F
100
AcDbEntity
  8
1
  6
CONTINUOUS
370
50
 62
4
100
AcDbLine
 10
84.267105
 20
-1.15881
 30
0.0
 11
83.78421
 21
-0.920275
 31
0.0
  0
LINE
  5
712
330
1F
100
AcDbEntity
  8
1
  6
CONTINUOUS
370
50
 62
4
100
AcDbLine
 10
68.71034999999999
 20
-1.08754
 30
0.0
 11
68.30687
 21
-0.888438
 31
0.0
  0
LINE
  5
713
330
1F
100
AcDbEntity
  8
1
  6
CONTINUOUS
370
50
 62
4
100
AcDbLine
 10
62.564842
 20
-1.149831
 30
0.0
 11
62.173973
 21
-0.9570869999999999
 31
0.0
  0
LINE
  5
714
330
1F
100
AcDbEntity
  8
1
  6
CONTINUOUS
370
50
 62
4
100
AcDbLine
 10
116.78952
 20
-1.160904
 30
0.0
 11
116.305153
 21
-0.922248
 31
0.0
  0
LINE
  5
715
330
1F
100
AcDbEntity
  8
1
  6
CONTINUOUS
370
50
 62
4
100
AcDbLine
 10
108.175674
 20
0.928064
 30
0.0
 11
107.685295
 21
1.16875
 31
0.0
  0
LINE
  5
716
330
1F
100
AcDbEntity
  8
1
  6
CONTINUOUS
370
50
 62
4
100
AcDbLine
 10
101.311447
 20
-1.128207
 30
0.0
 11
100.811058
 21
-0.882995
 31
0.0
  0
LINE
  5
717
330
1F
100
AcDbEntity
  8
1
  6
CONTINUOUS
370
50
 62
4
100
AcDbLine
 10
75.660011
 20
0.9279999999999999
 30
0.0
 11
75.16861
 21
1.168649
 31
0.0
  0
LINE
  5
718
330
1F
100
AcDbEntity
  8
1
  6
CONTINUOUS
370
50
 62
4
100
AcDbLine
 10
91.168533
 20
0.8816499999999999
 30
0.0
 11
90.665962
 21
1.127731
 31
0.0
  0
LINE
  5
719
330
1F
100
AcDbEntity
  8
1
  6
CONTINUOUS
370
50
 62
4
100
AcDbLine
 10
86.519211
 20
0.920499
 30
0.0
 11
86.029274
 21
1.16021
 31
0.0
  0
LINE
  5
71A
330
1F
100
AcDbEntity
  8
1
  6
CONTINUOUS
370
50
 62
4
100
AcDbLine
 10
123.102638
 20
-1.185827
 30
0.0
 11
122.668274
 21
-0.973363
 31
0.0
  0
LINE
  5
71B
330
1F
100
AcDbEntity
  8
1
  6
CONTINUOUS
370
50
 62
4
100
AcDbLine
 10
123.686455
 20
0.881015
 30
0.0
 11
123.185036
 21
1.126166
 31
0.0
  0
LINE
  5
71C
330
1F
100
AcDbEntity
  8
1
  6
CONTINUOUS
370
50
 62
4
100
AcDbLine
 10
73.427536
 20
-1.158662
 30
0.0
 11
72.935097
 21
-0.918674
 31
0.0
  0
LINE
  5
71D
330
1F
100
AcDbEntity
  8
1
  6
CONTINUOUS
370
50
 62
4
100
AcDbLine
 10
105.9589
 20
-1.165513
 30
0.0
 11
105.467567
 21
-0.9266639999999999
 31
0.0
  0
LINE
  5
71E
330
1F
100
AcDbEntity
  8
1
  6
CONTINUOUS
370
50
 62
4
100
AcDbLine
 10
58.471329
 20
0.9720059999999999
 30
0.0
 11
58.09277299999999
 21
1.155824
 31
0.0
  0
LINE
  5
71F
330
1F
100
AcDbEntity
  8
1
  6
CONTINUOUS
370
50
 62
4
100
AcDbLine
 10
58.140606
 20
-1.220002
 30
0.0
 11
57.663055
 21
-0.988861
 31
0.0
  0
LINE
  5
720
330
1F
100
AcDbEntity
  8
1
  6
CONTINUOUS
370
50
 62
4
100
AcDbLine
 10
64.537003
 20
1.069734
 30
0.0
 11
64.097191
 21
1.282318
 31
0.0
  0
LINE
  5
721
330
1F
100
AcDbEntity
  8
1
  6
CONTINUOUS
370
50
 62
4
100
AcDbLine
 10
53.587803
 20
1.12304
 30
0.0
 11
53.213398
 21
1.303661
 31
0.0
  0
LINE
  5
722
330
1F
100
AcDbEntity
  8
1
  6
CONTINUOUS
370
50
 62
4
100
AcDbLine
 10
69.11256399999999
 20
-1.280511
 30
0.0
 11
68.71034999999999
 21
-1.08754
 31
0.0
  0
LINE
  5
723
330
1F
100
AcDbEntity
  8
1
  6
CONTINUOUS
370
50
 62
4
100
AcDbLine
 10
79.828171
 20
1.126647
 30
0.0
 11
79.33732599999999
 21
1.361005
 31
0.0
  0
LINE
  5
724
330
1F
100
AcDbEntity
  8
1
  6
CONTINUOUS
370
50
 62
4
100
AcDbLine
 10
112.338737
 20
1.129836
 30
0.0
 11
111.840607
 21
1.36739
 31
0.0
  0
LINE
  5
725
330
1F
100
AcDbEntity
  8
1
  6
CONTINUOUS
370
50
 62
4
100
AcDbLine
 10
80.117813
 20
-1.360701
 30
0.0
 11
79.620255
 21
-1.123528
 31
0.0
  0
LINE
  5
726
330
1F
100
AcDbEntity
  8
1
  6
CONTINUOUS
370
50
 62
4
100
AcDbLine
 10
112.643845
 20
-1.364549
 30
0.0
 11
112.149483
 21
-1.128929
 31
0.0
  0
LINE
  5
727
330
1F
100
AcDbEntity
  8
1
  6
CONTINUOUS
370
50
 62
4
100
AcDbLine
 10
118.757744
 20
1.057976
 30
0.0
 11
118.322304
 21
1.265422
 31
0.0
  0
LINE
  5
728
330
1F
100
AcDbEntity
  8
1
  6
CONTINUOUS
370
50
 62
4
100
AcDbLine
 10
84.74842799999999
 20
-1.387242
 30
0.0
 11
84.267105
 21
-1.15881
 31
0.0
  0
LINE
  5
729
330
1F
100
AcDbEntity
  8
1
  6
CONTINUOUS
370
50
 62
4
100
AcDbLine
 10
117.271263
 20
-1.389354
 30
0.0
 11
116.78952
 21
-1.160904
 31
0.0
  0
LINE
  5
72A
330
1F
100
AcDbEntity
  8
1
  6
CONTINUOUS
370
50
 62
4
100
AcDbLine
 10
101.807098
 20
-1.363239
 30
0.0
 11
101.311447
 21
-1.128207
 31
0.0
  0
LINE
  5
72B
330
1F
100
AcDbEntity
  8
1
  6
CONTINUOUS
370
50
 62
4
100
AcDbLine
 10
69.002907
 20
1.122793
 30
0.0
 11
68.501282
 21
1.360029
 31
0.0
  0
LINE
  5
72C
330
1F
100
AcDbEntity
  8
1
  6
CONTINUOUS
370
50
 62
4
100
AcDbLine
 10
107.685295
 20
1.16875
 30
0.0
 11
107.199272
 21
1.398459
 31
0.0
  0
LINE
  5
72D
330
1F
100
AcDbEntity
  8
1
  6
CONTINUOUS
370
50
 62
4
100
AcDbLine
 10
62.95963699999999
 20
-1.336373
 30
0.0
 11
62.564842
 21
-1.149831
 31
0.0
  0
LINE
  5
72E
330
1F
100
AcDbEntity
  8
1
  6
CONTINUOUS
370
50
 62
4
100
AcDbLine
 10
75.16861
 20
1.168649
 30
0.0
 11
74.682007
 21
1.398457
 31
0.0
  0
LINE
  5
72F
330
1F
100
AcDbEntity
  8
1
  6
CONTINUOUS
370
50
 62
4
100
AcDbLine
 10
96.873154
 20
1.158349
 30
0.0
 11
96.38884
 21
1.387015
 31
0.0
  0
LINE
  5
730
330
1F
100
AcDbEntity
  8
1
  6
CONTINUOUS
370
50
 62
4
100
AcDbLine
 10
123.185036
 20
1.126166
 30
0.0
 11
122.687073
 21
1.361258
 31
0.0
  0
LINE
  5
731
330
1F
100
AcDbEntity
  8
1
  6
CONTINUOUS
370
50
 62
4
100
AcDbLine
 10
52.84678599999999
 20
1.544436
 30
0.0
 11
52.724159
 21
1.602322
 31
0.0
  0
LINE
  5
732
330
1F
100
AcDbEntity
  8
1
  6
CONTINUOUS
370
50
 62
4
100
AcDbLine
 10
101.49791
 20
1.13356
 30
0.0
 11
100.997871
 21
1.369276
 31
0.0
  0
LINE
  5
733
330
1F
100
AcDbEntity
  8
1
  6
CONTINUOUS
370
50
 62
4
100
AcDbLine
 10
90.665962
 20
1.127731
 30
0.0
 11
90.166512
 21
1.363096
 31
0.0
  0
LINE
  5
734
330
1F
100
AcDbEntity
  8
1
  6
CONTINUOUS
370
50
 62
4
100
AcDbLine
 10
90.940834
 20
-1.351435
 30
0.0
 11
90.44427499999999
 21
-1.117855
 31
0.0
  0
LINE
  5
735
330
1F
100
AcDbEntity
  8
1
  6
CONTINUOUS
370
50
 62
4
100
AcDbLine
 10
95.59146899999999
 20
-1.389233
 30
0.0
 11
95.101479
 21
-1.159204
 31
0.0
  0
LINE
  5
736
330
1F
100
AcDbEntity
  8
1
  6
CONTINUOUS
370
50
 62
4
100
AcDbLine
 10
58.09277299999999
 20
1.155824
 30
0.0
 11
57.713593
 21
1.333741
 31
0.0
  0
LINE
  5
737
330
1F
100
AcDbEntity
  8
1
  6
CONTINUOUS
370
50
 62
4
100
AcDbLine
 10
73.919365
 20
-1.389315
 30
0.0
 11
73.427536
 21
-1.158662
 31
0.0
  0
LINE
  5
738
330
1F
100
AcDbEntity
  8
1
  6
CONTINUOUS
370
50
 62
4
100
AcDbLine
 10
106.444847
 20
-1.39283
 30
0.0
 11
105.9589
 21
-1.165513
 31
0.0
  0
LINE
  5
739
330
1F
100
AcDbEntity
  8
1
  6
CONTINUOUS
370
50
 62
4
100
AcDbLine
 10
86.029274
 20
1.16021
 30
0.0
 11
85.53884099999999
 21
1.389235
 31
0.0
  0
LINE
  5
73A
330
1F
100
AcDbEntity
  8
1
  6
CONTINUOUS
370
50
 62
4
100
AcDbLine
 10
123.539749
 20
-1.388974
 30
0.0
 11
123.102638
 21
-1.185827
 31
0.0
  0
LINE
  5
73B
330
1F
100
AcDbEntity
  8
1
  6
CONTINUOUS
370
50
 62
4
100
AcDbLine
 10
69.512421
 20
-1.465738
 30
0.0
 11
69.11256399999999
 21
-1.280511
 31
0.0
  0
LINE
  5
73C
330
1F
100
AcDbEntity
  8
1
  6
CONTINUOUS
370
50
 62
4
100
AcDbLine
 10
58.61989999999999
 20
-1.440775
 30
0.0
 11
58.140606
 21
-1.220002
 31
0.0
  0
LINE
  5
73D
330
1F
100
AcDbEntity
  8
1
  6
CONTINUOUS
370
50
 62
4
100
AcDbLine
 10
64.097191
 20
1.282318
 30
0.0
 11
63.65542199999999
 21
1.485314
 31
0.0
  0
LINE
  5
73E
330
1F
100
AcDbEntity
  8
1
  6
CONTINUOUS
370
50
 62
4
100
AcDbLine
 10
118.322304
 20
1.265422
 30
0.0
 11
117.889122
 21
1.46438
 31
0.0
  0
LINE
  5
73F
330
1F
100
AcDbEntity
  8
1
  6
CONTINUOUS
370
50
 62
4
100
AcDbLine
 10
57.713593
 20
1.333741
 30
0.0
 11
57.33577
 21
1.505206
 31
0.0
  0
LINE
  5
740
330
1F
100
AcDbEntity
  8
1
  6
CONTINUOUS
370
50
 62
4
100
AcDbLine
 10
122.687073
 20
1.361258
 30
0.0
 11
122.195847
 21
1.582942
 31
0.0
  0
LINE
  5
741
330
1F
100
AcDbEntity
  8
1
  6
CONTINUOUS
370
50
 62
4
100
AcDbLine
 10
102.300941
 20
-1.586043
 30
0.0
 11
101.807098
 21
-1.363239
 31
0.0
  0
LINE
  5
742
330
1F
100
AcDbEntity
  8
1
  6
CONTINUOUS
370
50
 62
4
100
AcDbLine
 10
79.33732599999999
 20
1.361005
 30
0.0
 11
78.845863
 21
1.58273
 31
0.0
  0
LINE
  5
743
330
1F
100
AcDbEntity
  8
1
  6
CONTINUOUS
370
50
 62
4
100
AcDbLine
 10
90.166512
 20
1.363096
 30
0.0
 11
89.67366799999999
 21
1.585229
 31
0.0
  0
LINE
  5
744
330
1F
100
AcDbEntity
  8
1
  6
CONTINUOUS
370
50
 62
4
100
AcDbLine
 10
63.356068
 20
-1.514299
 30
0.0
 11
62.95963699999999
 21
-1.336373
 31
0.0
  0
LINE
  5
745
330
1F
100
AcDbEntity
  8
1
  6
CONTINUOUS
370
50
 62
4
100
AcDbLine
 10
111.840607
 20
1.36739
 30
0.0
 11
111.339157
 21
1.592216
 31
0.0
  0
LINE
  5
746
330
1F
100
AcDbEntity
  8
1
  6
CONTINUOUS
370
50
 62
4
100
AcDbLine
 10
113.140236
 20
-1.587105
 30
0.0
 11
112.643845
 21
-1.364549
 31
0.0
  0
LINE
  5
747
330
1F
100
AcDbEntity
  8
1
  6
CONTINUOUS
370
50
 62
4
100
AcDbLine
 10
74.40658599999999
 20
-1.607728
 30
0.0
 11
73.919365
 21
-1.389315
 31
0.0
  0
LINE
  5
748
330
1F
100
AcDbEntity
  8
1
  6
CONTINUOUS
370
50
 62
4
100
AcDbLine
 10
117.755264
 20
-1.60609
 30
0.0
 11
117.271263
 21
-1.389354
 31
0.0
  0
LINE
  5
749
330
1F
100
AcDbEntity
  8
1
  6
CONTINUOUS
370
50
 62
4
100
AcDbLine
 10
85.233009
 20
-1.604062
 30
0.0
 11
84.74842799999999
 21
-1.387242
 31
0.0
  0
LINE
  5
74A
330
1F
100
AcDbEntity
  8
1
  6
CONTINUOUS
370
50
 62
4
100
AcDbLine
 10
106.925713
 20
-1.607966
 30
0.0
 11
106.444847
 21
-1.39283
 31
0.0
  0
LINE
  5
74B
330
1F
100
AcDbEntity
  8
1
  6
CONTINUOUS
370
50
 62
4
100
AcDbLine
 10
91.440285
 20
-1.574874
 30
0.0
 11
90.940834
 21
-1.351435
 31
0.0
  0
LINE
  5
74C
330
1F
100
AcDbEntity
  8
1
  6
CONTINUOUS
370
50
 62
4
100
AcDbLine
 10
74.682007
 20
1.398457
 30
0.0
 11
74.19680799999999
 21
1.615502
 31
0.0
  0
LINE
  5
74D
330
1F
100
AcDbEntity
  8
1
  6
CONTINUOUS
370
50
 62
4
100
AcDbLine
 10
107.199272
 20
1.398459
 30
0.0
 11
106.713493
 21
1.61556
 31
0.0
  0
LINE
  5
74E
330
1F
100
AcDbEntity
  8
1
  6
CONTINUOUS
370
50
 62
4
100
AcDbLine
 10
80.618088
 20
-1.584168
 30
0.0
 11
80.117813
 21
-1.360701
 31
0.0
  0
LINE
  5
74F
330
1F
100
AcDbEntity
  8
1
  6
CONTINUOUS
370
50
 62
4
100
AcDbLine
 10
85.53884099999999
 20
1.389235
 30
0.0
 11
85.051315
 21
1.606439
 31
0.0
  0
LINE
  5
750
330
1F
100
AcDbEntity
  8
1
  6
CONTINUOUS
370
50
 62
4
100
AcDbLine
 10
68.501282
 20
1.360029
 30
0.0
 11
67.99826
 21
1.583998
 31
0.0
  0
LINE
  5
751
330
1F
100
AcDbEntity
  8
1
  6
CONTINUOUS
370
50
 62
4
100
AcDbLine
 10
123.974731
 20
-1.581886
 30
0.0
 11
123.539749
 21
-1.388974
 31
0.0
  0
LINE
  5
752
330
1F
100
AcDbEntity
  8
1
  6
CONTINUOUS
370
50
 62
4
100
AcDbLine
 10
96.38884
 20
1.387015
 30
0.0
 11
95.90065799999999
 21
1.603213
 31
0.0
  0
LINE
  5
753
330
1F
100
AcDbEntity
  8
1
  6
CONTINUOUS
370
50
 62
4
100
AcDbLine
 10
100.997871
 20
1.369276
 30
0.0
 11
100.497131
 21
1.59096
 31
0.0
  0
LINE
  5
754
330
1F
100
AcDbEntity
  8
1
  6
CONTINUOUS
370
50
 62
4
100
AcDbLine
 10
69.911316
 20
-1.641822
 30
0.0
 11
69.512421
 21
-1.465738
 31
0.0
  0
LINE
  5
755
330
1F
100
AcDbEntity
  8
1
  6
CONTINUOUS
370
50
 62
4
100
AcDbLine
 10
96.085785
 20
-1.607131
 30
0.0
 11
95.59146899999999
 21
-1.389233
 31
0.0
  0
LINE
  5
756
330
1F
100
AcDbEntity
  8
1
  6
CONTINUOUS
370
50
 62
4
100
AcDbLine
 10
126.607925
 20
-0.6458149999999999
 30
0.0
 11
126.542297
 21
-0.6169439999999999
 31
0.0
  0
LINE
  5
757
330
1F
100
AcDbEntity
  8
1
  6
CONTINUOUS
370
50
 62
4
100
AcDbLine
 10
117.889122
 20
1.46438
 30
0.0
 11
117.459709
 21
1.653113
 31
0.0
  0
LINE
  5
758
330
1F
100
AcDbEntity
  8
1
  6
CONTINUOUS
370
50
 62
4
100
AcDbLine
 10
59.097237
 20
-1.650081
 30
0.0
 11
58.61989999999999
 21
-1.440775
 31
0.0
  0
LINE
  5
759
330
1F
100
AcDbEntity
  8
1
  6
CONTINUOUS
370
50
 62
4
100
AcDbLine
 10
57.33577
 20
1.505206
 30
0.0
 11
56.960724
 21
1.668974
 31
0.0
  0
LINE
  5
75A
330
1F
100
AcDbEntity
  8
1
  6
CONTINUOUS
370
50
 62
4
100
AcDbLine
 10
52.724159
 20
1.602322
 30
0.0
 11
52.601128
 21
1.655817
 31
0.0
  0
LINE
  5
75B
330
1F
100
AcDbEntity
  8
1
  6
CONTINUOUS
370
50
 62
4
100
AcDbLine
 10
63.65542199999999
 20
1.485314
 30
0.0
 11
63.21090299999999
 21
1.67734
 31
0.0
  0
LINE
  5
75C
330
1F
100
AcDbEntity
  8
1
  6
CONTINUOUS
370
50
 62
4
100
AcDbLine
 10
63.74794
 20
-1.683028
 30
0.0
 11
63.356068
 21
-1.514299
 31
0.0
  0
LINE
  5
75D
330
1F
100
AcDbEntity
  8
1
  6
CONTINUOUS
370
50
 62
4
100
AcDbLine
 10
122.195847
 20
1.582942
 30
0.0
 11
121.706924
 21
1.789475
 31
0.0
  0
LINE
  5
75E
330
1F
100
AcDbEntity
  8
1
  6
CONTINUOUS
370
50
 62
4
100
AcDbLine
 10
89.67366799999999
 20
1.585229
 30
0.0
 11
89.183205
 21
1.792385
 31
0.0
  0
LINE
  5
75F
330
1F
100
AcDbEntity
  8
1
  6
CONTINUOUS
370
50
 62
4
100
AcDbLine
 10
124.406181
 20
-1.76402
 30
0.0
 11
123.974731
 21
-1.581886
 31
0.0
  0
LINE
  5
760
330
1F
100
AcDbEntity
  8
1
  6
CONTINUOUS
370
50
 62
4
100
AcDbLine
 10
91.939064
 20
-1.785291
 30
0.0
 11
91.440285
 21
-1.574874
 31
0.0
  0
LINE
  5
761
330
1F
100
AcDbEntity
  8
1
  6
CONTINUOUS
370
50
 62
4
100
AcDbLine
 10
102.797394
 20
-1.794935
 30
0.0
 11
102.300941
 21
-1.586043
 31
0.0
  0
LINE
  5
762
330
1F
100
AcDbEntity
  8
1
  6
CONTINUOUS
370
50
 62
4
100
AcDbLine
 10
107.406288
 20
-1.80947
 30
0.0
 11
106.925713
 21
-1.607966
 31
0.0
  0
LINE
  5
763
330
1F
100
AcDbEntity
  8
1
  6
CONTINUOUS
370
50
 62
4
100
AcDbLine
 10
85.051315
 20
1.606439
 30
0.0
 11
84.565231
 21
1.810079
 31
0.0
  0
LINE
  5
764
330
1F
100
AcDbEntity
  8
1
  6
CONTINUOUS
370
50
 62
4
100
AcDbLine
 10
74.89188399999999
 20
-1.811036
 30
0.0
 11
74.40658599999999
 21
-1.607728
 31
0.0
  0
LINE
  5
765
330
1F
100
AcDbEntity
  8
1
  6
CONTINUOUS
370
50
 62
4
100
AcDbLine
 10
100.497131
 20
1.59096
 30
0.0
 11
100.001846
 21
1.798146
 31
0.0
  0
LINE
  5
766
330
1F
100
AcDbEntity
  8
1
  6
CONTINUOUS
370
50
 62
4
100
AcDbLine
 10
67.99826
 20
1.583998
 30
0.0
 11
67.496918
 21
1.793441
 31
0.0
  0
LINE
  5
767
330
1F
100
AcDbEntity
  8
1
  6
CONTINUOUS
370
50
 62
4
100
AcDbLine
 10
78.845863
 20
1.58273
 30
0.0
 11
78.348953
 21
1.790218
 31
0.0
  0
LINE
  5
768
330
1F
100
AcDbEntity
  8
1
  6
CONTINUOUS
370
50
 62
4
100
AcDbLine
 10
81.118027
 20
-1.792186
 30
0.0
 11
80.618088
 21
-1.584168
 31
0.0
  0
LINE
  5
769
330
1F
100
AcDbEntity
  8
1
  6
CONTINUOUS
370
50
 62
4
100
AcDbLine
 10
74.19680799999999
 20
1.615502
 30
0.0
 11
73.708527
 21
1.818401
 31
0.0
  0
LINE
  5
76A
330
1F
100
AcDbEntity
  8
1
  6
CONTINUOUS
370
50
 62
4
100
AcDbLine
 10
96.578232
 20
-1.811638
 30
0.0
 11
96.085785
 21
-1.607131
 31
0.0
  0
LINE
  5
76B
330
1F
100
AcDbEntity
  8
1
  6
CONTINUOUS
370
50
 62
4
100
AcDbLine
 10
70.311745
 20
-1.807959
 30
0.0
 11
69.911316
 21
-1.641822
 31
0.0
  0
LINE
  5
76C
330
1F
100
AcDbEntity
  8
1
  6
CONTINUOUS
370
50
 62
4
100
AcDbLine
 10
111.339157
 20
1.592216
 30
0.0
 11
110.836617
 21
1.800551
 31
0.0
  0
LINE
  5
76D
330
1F
100
AcDbEntity
  8
1
  6
CONTINUOUS
370
50
 62
4
100
AcDbLine
 10
113.638855
 20
-1.793785
 30
0.0
 11
113.140236
 21
-1.587105
 31
0.0
  0
LINE
  5
76E
330
1F
100
AcDbEntity
  8
1
  6
CONTINUOUS
370
50
 62
4
100
AcDbLine
 10
118.245689
 20
-1.809344
 30
0.0
 11
117.755264
 21
-1.60609
 31
0.0
  0
LINE
  5
76F
330
1F
100
AcDbEntity
  8
1
  6
CONTINUOUS
370
50
 62
4
100
AcDbLine
 10
126.672729
 20
-0.672671
 30
0.0
 11
126.607925
 21
-0.6458149999999999
 31
0.0
  0
LINE
  5
770
330
1F
100
AcDbEntity
  8
1
  6
CONTINUOUS
370
50
 62
4
100
AcDbLine
 10
106.713493
 20
1.61556
 30
0.0
 11
106.223648
 21
1.818544
 31
0.0
  0
LINE
  5
771
330
1F
100
AcDbEntity
  8
1
  6
CONTINUOUS
370
50
 62
4
100
AcDbLine
 10
56.960724
 20
1.668974
 30
0.0
 11
56.587101
 21
1.823647
 31
0.0
  0
LINE
  5
772
330
1F
100
AcDbEntity
  8
1
  6
CONTINUOUS
370
50
 62
4
100
AcDbLine
 10
117.459709
 20
1.653113
 30
0.0
 11
117.030846
 21
1.830619
 31
0.0
  0
LINE
  5
773
330
1F
100
AcDbEntity
  8
1
  6
CONTINUOUS
370
50
 62
4
100
AcDbLine
 10
85.72399899999999
 20
-1.80717
 30
0.0
 11
85.233009
 21
-1.604062
 31
0.0
  0
LINE
  5
774
330
1F
100
AcDbEntity
  8
1
  6
CONTINUOUS
370
50
 62
4
100
AcDbLine
 10
95.90065799999999
 20
1.603213
 30
0.0
 11
95.40869099999999
 21
1.806568
 31
0.0
  0
LINE
  5
775
330
1F
100
AcDbEntity
  8
1
  6
CONTINUOUS
370
50
 62
4
100
AcDbLine
 10
59.571316
 20
-1.845604
 30
0.0
 11
59.097237
 21
-1.650081
 31
0.0
  0
LINE
  5
776
330
1F
100
AcDbEntity
  8
1
  6
CONTINUOUS
370
50
 62
4
100
AcDbLine
 10
64.13645199999999
 20
-1.842192
 30
0.0
 11
63.74794
 21
-1.683028
 31
0.0
  0
LINE
  5
777
330
1F
100
AcDbEntity
  8
1
  6
CONTINUOUS
370
50
 62
4
100
AcDbLine
 10
63.21090299999999
 20
1.67734
 30
0.0
 11
62.765736
 21
1.857341
 31
0.0
  0
LINE
  5
778
330
1F
100
AcDbEntity
  8
1
  6
CONTINUOUS
370
50
 62
4
100
AcDbLine
 10
52.601128
 20
1.655817
 30
0.0
 11
52.47759199999999
 21
1.704983
 31
0.0
  0
LINE
  5
779
330
1F
100
AcDbEntity
  8
1
  6
CONTINUOUS
370
50
 62
4
100
AcDbLine
 10
124.836761
 20
-1.934374
 30
0.0
 11
124.406181
 21
-1.76402
 31
0.0
  0
LINE
  5
77A
330
1F
100
AcDbEntity
  8
1
  6
CONTINUOUS
370
50
 62
4
100
AcDbLine
 10
53.64894899999999
 20
-1.976426
 30
0.0
 11
53.211395
 21
-1.805246
 31
0.0
  0
LINE
  5
77B
330
1F
100
AcDbEntity
  8
1
  6
CONTINUOUS
370
50
 62
4
100
AcDbLine
 10
92.4366
 20
-1.979209
 30
0.0
 11
91.939064
 21
-1.785291
 31
0.0
  0
LINE
  5
77C
330
1F
100
AcDbEntity
  8
1
  6
CONTINUOUS
370
50
 62
4
100
AcDbLine
 10
67.496918
 20
1.793441
 30
0.0
 11
67.000412
 21
1.986107
 31
0.0
  0
LINE
  5
77D
330
1F
100
AcDbEntity
  8
1
  6
CONTINUOUS
370
50
 62
4
100
AcDbLine
 10
100.001846
 20
1.798146
 30
0.0
 11
99.508545
 21
1.989326
 31
0.0
  0
LINE
  5
77E
330
1F
100
AcDbEntity
  8
1
  6
CONTINUOUS
370
50
 62
4
100
AcDbLine
 10
56.587101
 20
1.823647
 30
0.0
 11
56.212711
 21
1.968642
 31
0.0
  0
LINE
  5
77F
330
1F
100
AcDbEntity
  8
1
  6
CONTINUOUS
370
50
 62
4
100
AcDbLine
 10
89.183205
 20
1.792385
 30
0.0
 11
88.689995
 21
1.983239
 31
0.0
  0
LINE
  5
780
330
1F
100
AcDbEntity
  8
1
  6
CONTINUOUS
370
50
 62
4
100
AcDbLine
 10
121.706924
 20
1.789475
 30
0.0
 11
121.215126
 21
1.979589
 31
0.0
  0
LINE
  5
781
330
1F
100
AcDbEntity
  8
1
  6
CONTINUOUS
370
50
 62
4
100
AcDbLine
 10
81.61353299999999
 20
-1.983365
 30
0.0
 11
81.118027
 21
-1.792186
 31
0.0
  0
LINE
  5
782
330
1F
100
AcDbEntity
  8
1
  6
CONTINUOUS
370
50
 62
4
100
AcDbLine
 10
97.065872
 20
-1.999566
 30
0.0
 11
96.578232
 21
-1.811638
 31
0.0
  0
LINE
  5
783
330
1F
100
AcDbEntity
  8
1
  6
CONTINUOUS
370
50
 62
4
100
AcDbLine
 10
84.565231
 20
1.810079
 30
0.0
 11
84.08056599999999
 21
1.996813
 31
0.0
  0
LINE
  5
784
330
1F
100
AcDbEntity
  8
1
  6
CONTINUOUS
370
50
 62
4
100
AcDbLine
 10
95.40869099999999
 20
1.806568
 30
0.0
 11
94.92012799999999
 21
1.99465
 31
0.0
  0
LINE
  5
785
330
1F
100
AcDbEntity
  8
1
  6
CONTINUOUS
370
50
 62
4
100
AcDbLine
 10
70.715057
 20
-1.963109
 30
0.0
 11
70.311745
 21
-1.807959
 31
0.0
  0
LINE
  5
786
330
1F
100
AcDbEntity
  8
1
  6
CONTINUOUS
370
50
 62
4
100
AcDbLine
 10
114.132851
 20
-1.983789
 30
0.0
 11
113.638855
 21
-1.793785
 31
0.0
  0
LINE
  5
787
330
1F
100
AcDbEntity
  8
1
  6
CONTINUOUS
370
50
 62
4
100
AcDbLine
 10
107.891441
 20
-1.995914
 30
0.0
 11
107.406288
 21
-1.80947
 31
0.0
  0
LINE
  5
788
330
1F
100
AcDbEntity
  8
1
  6
CONTINUOUS
370
50
 62
4
100
AcDbLine
 10
64.524155
 20
-1.991093
 30
0.0
 11
64.13645199999999
 21
-1.842192
 31
0.0
  0
LINE
  5
789
330
1F
100
AcDbEntity
  8
1
  6
CONTINUOUS
370
50
 62
4
100
AcDbLine
 10
126.735947
 20
-0.6969449999999999
 30
0.0
 11
126.672729
 21
-0.672671
 31
0.0
  0
LINE
  5
78A
330
1F
100
AcDbEntity
  8
1
  6
CONTINUOUS
370
50
 62
4
100
AcDbLine
 10
103.297142
 20
-1.98649
 30
0.0
 11
102.797394
 21
-1.794935
 31
0.0
  0
LINE
  5
78B
330
1F
100
AcDbEntity
  8
1
  6
CONTINUOUS
370
50
 62
4
100
AcDbLine
 10
75.379982
 20
-1.998064
 30
0.0
 11
74.89188399999999
 21
-1.811036
 31
0.0
  0
LINE
  5
78C
330
1F
100
AcDbEntity
  8
1
  6
CONTINUOUS
370
50
 62
4
100
AcDbLine
 10
117.030846
 20
1.830619
 30
0.0
 11
116.599327
 21
1.995905
 31
0.0
  0
LINE
  5
78D
330
1F
100
AcDbEntity
  8
1
  6
CONTINUOUS
370
50
 62
4
100
AcDbLine
 10
78.348953
 20
1.790218
 30
0.0
 11
77.84852599999999
 21
1.981581
 31
0.0
  0
LINE
  5
78E
330
1F
100
AcDbEntity
  8
1
  6
CONTINUOUS
370
50
 62
4
100
AcDbLine
 10
110.836617
 20
1.800551
 30
0.0
 11
110.339233
 21
1.990709
 31
0.0
  0
LINE
  5
78F
330
1F
100
AcDbEntity
  8
1
  6
CONTINUOUS
370
50
 62
4
100
AcDbLine
 10
86.216644
 20
-1.994466
 30
0.0
 11
85.72399899999999
 21
-1.80717
 31
0.0
  0
LINE
  5
790
330
1F
100
AcDbEntity
  8
1
  6
CONTINUOUS
370
50
 62
4
100
AcDbLine
 10
118.739769
 20
-1.996746
 30
0.0
 11
118.245689
 21
-1.809344
 31
0.0
  0
LINE
  5
791
330
1F
100
AcDbEntity
  8
1
  6
CONTINUOUS
370
50
 62
4
100
AcDbLine
 10
60.045815
 20
-2.025538
 30
0.0
 11
59.571316
 21
-1.845604
 31
0.0
  0
LINE
  5
792
330
1F
100
AcDbEntity
  8
1
  6
CONTINUOUS
370
50
 62
4
100
AcDbLine
 10
73.708527
 20
1.818401
 30
0.0
 11
73.216774
 21
2.004459
 31
0.0
  0
LINE
  5
793
330
1F
100
AcDbEntity
  8
1
  6
CONTINUOUS
370
50
 62
4
100
AcDbLine
 10
106.223648
 20
1.818544
 30
0.0
 11
105.732071
 21
2.004248
 31
0.0
  0
LINE
  5
794
330
1F
100
AcDbEntity
  8
1
  6
CONTINUOUS
370
50
 62
4
100
AcDbLine
 10
62.765736
 20
1.857341
 30
0.0
 11
62.32217799999999
 21
2.024355
 31
0.0
  0
LINE
  5
795
330
1F
100
AcDbEntity
  8
1
  6
CONTINUOUS
370
50
 62
4
100
AcDbLine
 10
125.268845
 20
-2.09181
 30
0.0
 11
124.836761
 21
-1.934374
 31
0.0
  0
LINE
  5
796
330
1F
100
AcDbEntity
  8
1
  6
CONTINUOUS
370
50
 62
4
100
AcDbLine
 10
52.47759199999999
 20
1.704983
 30
0.0
 11
52.353432
 21
1.749881
 31
0.0
  0
LINE
  5
797
330
1F
100
AcDbEntity
  8
1
  6
CONTINUOUS
370
50
 62
4
100
AcDbLine
 10
56.212711
 20
1.968642
 30
0.0
 11
55.83604
 21
2.103007
 31
0.0
  0
LINE
  5
798
330
1F
100
AcDbEntity
  8
1
  6
CONTINUOUS
370
50
 62
4
100
AcDbLine
 10
54.087528
 20
-2.132193
 30
0.0
 11
53.64894899999999
 21
-1.976426
 31
0.0
  0
LINE
  5
799
330
1F
100
AcDbEntity
  8
1
  6
CONTINUOUS
370
50
 62
4
100
AcDbLine
 10
71.119629
 20
-2.106488
 30
0.0
 11
70.715057
 21
-1.963109
 31
0.0
  0
LINE
  5
79A
330
1F
100
AcDbEntity
  8
1
  6
CONTINUOUS
370
50
 62
4
100
AcDbLine
 10
64.913612
 20
-2.129033
 30
0.0
 11
64.524155
 21
-1.991093
 31
0.0
  0
LINE
  5
79B
330
1F
100
AcDbEntity
  8
1
  6
CONTINUOUS
370
50
 62
4
100
AcDbLine
 10
82.10503399999999
 20
-2.156161
 30
0.0
 11
81.61353299999999
 21
-1.983365
 31
0.0
  0
LINE
  5
79C
330
1F
100
AcDbEntity
  8
1
  6
CONTINUOUS
370
50
 62
4
100
AcDbLine
 10
67.000412
 20
1.986107
 30
0.0
 11
66.506851
 21
2.159583
 31
0.0
  0
LINE
  5
79D
330
1F
100
AcDbEntity
  8
1
  6
CONTINUOUS
370
50
 62
4
100
AcDbLine
 10
92.934792
 20
-2.154129
 30
0.0
 11
92.4366
 21
-1.979209
 31
0.0
  0
LINE
  5
79E
330
1F
100
AcDbEntity
  8
1
  6
CONTINUOUS
370
50
 62
4
100
AcDbLine
 10
114.625816
 20
-2.156725
 30
0.0
 11
114.132851
 21
-1.983789
 31
0.0
  0
LINE
  5
79F
330
1F
100
AcDbEntity
  8
1
  6
CONTINUOUS
370
50
 62
4
100
AcDbLine
 10
77.84852599999999
 20
1.981581
 30
0.0
 11
77.352158
 21
2.15544
 31
0.0
  0
LINE
  5
7A0
330
1F
100
AcDbEntity
  8
1
  6
CONTINUOUS
370
50
 62
4
100
AcDbLine
 10
99.508545
 20
1.989326
 30
0.0
 11
99.012489
 21
2.16295
 31
0.0
  0
LINE
  5
7A1
330
1F
100
AcDbEntity
  8
1
  6
CONTINUOUS
370
50
 62
4
100
AcDbLine
 10
94.92012799999999
 20
1.99465
 30
0.0
 11
94.433167
 21
2.16492
 31
0.0
  0
LINE
  5
7A2
330
1F
100
AcDbEntity
  8
1
  6
CONTINUOUS
370
50
 62
4
100
AcDbLine
 10
110.339233
 20
1.990709
 30
0.0
 11
109.847488
 21
2.162417
 31
0.0
  0
LINE
  5
7A3
330
1F
100
AcDbEntity
  8
1
  6
CONTINUOUS
370
50
 62
4
100
AcDbLine
 10
97.55272699999999
 20
-2.169191
 30
0.0
 11
97.065872
 21
-1.999566
 31
0.0
  0
LINE
  5
7A4
330
1F
100
AcDbEntity
  8
1
  6
CONTINUOUS
370
50
 62
4
100
AcDbLine
 10
86.706352
 20
-2.16504
 30
0.0
 11
86.216644
 21
-1.994466
 31
0.0
  0
LINE
  5
7A5
330
1F
100
AcDbEntity
  8
1
  6
CONTINUOUS
370
50
 62
4
100
AcDbLine
 10
116.599327
 20
1.995905
 30
0.0
 11
116.162918
 21
2.147667
 31
0.0
  0
LINE
  5
7A6
330
1F
100
AcDbEntity
  8
1
  6
CONTINUOUS
370
50
 62
4
100
AcDbLine
 10
126.796799
 20
-0.718065
 30
0.0
 11
126.735947
 21
-0.6969449999999999
 31
0.0
  0
LINE
  5
7A7
330
1F
100
AcDbEntity
  8
1
  6
CONTINUOUS
370
50
 62
4
100
AcDbLine
 10
84.08056599999999
 20
1.996813
 30
0.0
 11
83.594658
 21
2.165191
 31
0.0
  0
LINE
  5
7A8
330
1F
100
AcDbEntity
  8
1
  6
CONTINUOUS
370
50
 62
4
100
AcDbLine
 10
119.23175
 20
-2.167225
 30
0.0
 11
118.739769
 21
-1.996746
 31
0.0
  0
LINE
  5
7A9
330
1F
100
AcDbEntity
  8
1
  6
CONTINUOUS
370
50
 62
4
100
AcDbLine
 10
121.215126
 20
1.979589
 30
0.0
 11
120.717072
 21
2.15203
 31
0.0
  0
LINE
  5
7AA
330
1F
100
AcDbEntity
  8
1
  6
CONTINUOUS
370
50
 62
4
100
AcDbLine
 10
103.795479
 20
-2.158988
 30
0.0
 11
103.297142
 21
-1.98649
 31
0.0
  0
LINE
  5
7AB
330
1F
100
AcDbEntity
  8
1
  6
CONTINUOUS
370
50
 62
4
100
AcDbLine
 10
88.689995
 20
1.983239
 30
0.0
 11
88.19107799999999
 21
2.155932
 31
0.0
  0
LINE
  5
7AC
330
1F
100
AcDbEntity
  8
1
  6
CONTINUOUS
370
50
 62
4
100
AcDbLine
 10
62.32217799999999
 20
2.024355
 30
0.0
 11
61.88164099999999
 21
2.176398
 31
0.0
  0
LINE
  5
7AD
330
1F
100
AcDbEntity
  8
1
  6
CONTINUOUS
370
50
 62
4
100
AcDbLine
 10
105.732071
 20
2.004248
 30
0.0
 11
105.244514
 21
2.172197
 31
0.0
  0
LINE
  5
7AE
330
1F
100
AcDbEntity
  8
1
  6
CONTINUOUS
370
50
 62
4
100
AcDbLine
 10
108.382973
 20
-2.165196
 30
0.0
 11
107.891441
 21
-1.995914
 31
0.0
  0
LINE
  5
7AF
330
1F
100
AcDbEntity
  8
1
  6
CONTINUOUS
370
50
 62
4
100
AcDbLine
 10
73.216774
 20
2.004459
 30
0.0
 11
72.727829
 21
2.172442
 31
0.0
  0
LINE
  5
7B0
330
1F
100
AcDbEntity
  8
1
  6
CONTINUOUS
370
50
 62
4
100
AcDbLine
 10
75.87265
 20
-2.166982
 30
0.0
 11
75.379982
 21
-1.998064
 31
0.0
  0
LINE
  5
7B1
330
1F
100
AcDbEntity
  8
1
  6
CONTINUOUS
370
50
 62
4
100
AcDbLine
 10
60.523193
 20
-2.187705
 30
0.0
 11
60.045815
 21
-2.025538
 31
0.0
  0
LINE
  5
7B2
330
1F
100
AcDbEntity
  8
1
  6
CONTINUOUS
370
50
 62
4
100
AcDbLine
 10
125.701881
 20
-2.234058
 30
0.0
 11
125.268845
 21
-2.09181
 31
0.0
  0
LINE
  5
7B3
330
1F
100
AcDbEntity
  8
1
  6
CONTINUOUS
370
50
 62
4
100
AcDbLine
 10
52.353432
 20
1.749881
 30
0.0
 11
52.228539
 21
1.790573
 31
0.0
  0
LINE
  5
7B4
330
1F
100
AcDbEntity
  8
1
  6
CONTINUOUS
370
50
 62
4
100
AcDbLine
 10
55.83604
 20
2.103007
 30
0.0
 11
55.45935799999999
 21
2.225528
 31
0.0
  0
LINE
  5
7B5
330
1F
100
AcDbEntity
  8
1
  6
CONTINUOUS
370
50
 62
4
100
AcDbLine
 10
71.523346
 20
-2.237512
 30
0.0
 11
71.119629
 21
-2.106488
 31
0.0
  0
LINE
  5
7B6
330
1F
100
AcDbEntity
  8
1
  6
CONTINUOUS
370
50
 62
4
100
AcDbLine
 10
65.30729699999999
 20
-2.255266
 30
0.0
 11
64.913612
 21
-2.129033
 31
0.0
  0
LINE
  5
7B7
330
1F
100
AcDbEntity
  8
1
  6
CONTINUOUS
370
50
 62
4
100
AcDbLine
 10
126.999084
 20
2.147874
 30
0.0
 11
126.682716
 21
2.24878
 31
0.0
  0
LINE
  5
7B8
330
1F
100
AcDbEntity
  8
1
  6
CONTINUOUS
370
50
 62
4
100
AcDbLine
 10
54.528378
 20
-2.271825
 30
0.0
 11
54.087528
 21
-2.132193
 31
0.0
  0
LINE
  5
7B9
330
1F
100
AcDbEntity
  8
1
  6
CONTINUOUS
370
50
 62
4
100
AcDbLine
 10
77.352158
 20
2.15544
 30
0.0
 11
76.8592
 21
2.309292
 31
0.0
  0
LINE
  5
7BA
330
1F
100
AcDbEntity
  8
1
  6
CONTINUOUS
370
50
 62
4
100
AcDbLine
 10
82.59704599999999
 20
-2.309429
 30
0.0
 11
82.10503399999999
 21
-2.156161
 31
0.0
  0
LINE
  5
7BB
330
1F
100
AcDbEntity
  8
1
  6
CONTINUOUS
370
50
 62
4
100
AcDbLine
 10
116.162918
 20
2.147667
 30
0.0
 11
115.724228
 21
2.284293
 31
0.0
  0
LINE
  5
7BC
330
1F
100
AcDbEntity
  8
1
  6
CONTINUOUS
370
50
 62
4
100
AcDbLine
 10
115.119408
 20
-2.310425
 30
0.0
 11
114.625816
 21
-2.156725
 31
0.0
  0
LINE
  5
7BD
330
1F
100
AcDbEntity
  8
1
  6
CONTINUOUS
370
50
 62
4
100
AcDbLine
 10
109.847488
 20
2.162417
 30
0.0
 11
109.356667
 21
2.314717
 31
0.0
  0
LINE
  5
7BE
330
1F
100
AcDbEntity
  8
1
  6
CONTINUOUS
370
50
 62
4
100
AcDbLine
 10
87.195107
 20
-2.316478
 30
0.0
 11
86.706352
 21
-2.16504
 31
0.0
  0
LINE
  5
7BF
330
1F
100
AcDbEntity
  8
1
  6
CONTINUOUS
370
50
 62
4
100
AcDbLine
 10
120.717072
 20
2.15203
 30
0.0
 11
120.220322
 21
2.305882
 31
0.0
  0
LINE
  5
7C0
330
1F
100
AcDbEntity
  8
1
  6
CONTINUOUS
370
50
 62
4
100
AcDbLine
 10
104.288391
 20
-2.311395
 30
0.0
 11
103.795479
 21
-2.158988
 31
0.0
  0
LINE
  5
7C1
330
1F
100
AcDbEntity
  8
1
  6
CONTINUOUS
370
50
 62
4
100
AcDbLine
 10
66.506851
 20
2.159583
 30
0.0
 11
66.011093
 21
2.312814
 31
0.0
  0
LINE
  5
7C2
330
1F
100
AcDbEntity
  8
1
  6
CONTINUOUS
370
50
 62
4
100
AcDbLine
 10
119.722069
 20
-2.318731
 30
0.0
 11
119.23175
 21
-2.167225
 31
0.0
  0
LINE
  5
7C3
330
1F
100
AcDbEntity
  8
1
  6
CONTINUOUS
370
50
 62
4
100
AcDbLine
 10
94.433167
 20
2.16492
 30
0.0
 11
93.94319899999999
 21
2.316107
 31
0.0
  0
LINE
  5
7C4
330
1F
100
AcDbEntity
  8
1
  6
CONTINUOUS
370
50
 62
4
100
AcDbLine
 10
61.88164099999999
 20
2.176398
 30
0.0
 11
61.441936
 21
2.311984
 31
0.0
  0
LINE
  5
7C5
330
1F
100
AcDbEntity
  8
1
  6
CONTINUOUS
370
50
 62
4
100
AcDbLine
 10
88.19107799999999
 20
2.155932
 30
0.0
 11
87.692764
 21
2.309336
 31
0.0
  0
LINE
  5
7C6
330
1F
100
AcDbEntity
  8
1
  6
CONTINUOUS
370
50
 62
4
100
AcDbLine
 10
105.244514
 20
2.172197
 30
0.0
 11
104.760246
 21
2.321152
 31
0.0
  0
LINE
  5
7C7
330
1F
100
AcDbEntity
  8
1
  6
CONTINUOUS
370
50
 62
4
100
AcDbLine
 10
93.435814
 20
-2.308132
 30
0.0
 11
92.934792
 21
-2.154129
 31
0.0
  0
LINE
  5
7C8
330
1F
100
AcDbEntity
  8
1
  6
CONTINUOUS
370
50
 62
4
100
AcDbLine
 10
72.727829
 20
2.172442
 30
0.0
 11
72.243034
 21
2.321409
 31
0.0
  0
LINE
  5
7C9
330
1F
100
AcDbEntity
  8
1
  6
CONTINUOUS
370
50
 62
4
100
AcDbLine
 10
99.012489
 20
2.16295
 30
0.0
 11
98.513092
 21
2.31589
 31
0.0
  0
LINE
  5
7CA
330
1F
100
AcDbEntity
  8
1
  6
CONTINUOUS
370
50
 62
4
100
AcDbLine
 10
98.043594
 20
-2.319458
 30
0.0
 11
97.55272699999999
 21
-2.169191
 31
0.0
  0
LINE
  5
7CB
330
1F
100
AcDbEntity
  8
1
  6
CONTINUOUS
370
50
 62
4
100
AcDbLine
 10
76.363495
 20
-2.317173
 30
0.0
 11
75.87265
 21
-2.166982
 31
0.0
  0
LINE
  5
7CC
330
1F
100
AcDbEntity
  8
1
  6
CONTINUOUS
370
50
 62
4
100
AcDbLine
 10
108.875961
 20
-2.315576
 30
0.0
 11
108.382973
 21
-2.165196
 31
0.0
  0
LINE
  5
7CD
330
1F
100
AcDbEntity
  8
1
  6
CONTINUOUS
370
50
 62
4
100
AcDbLine
 10
83.594658
 20
2.165191
 30
0.0
 11
83.10337799999999
 21
2.314912
 31
0.0
  0
LINE
  5
7CE
330
1F
100
AcDbEntity
  8
1
  6
CONTINUOUS
370
50
 62
4
100
AcDbLine
 10
126.855293
 20
-0.7356699999999999
 30
0.0
 11
126.796799
 21
-0.718065
 31
0.0
  0
LINE
  5
7CF
330
1F
100
AcDbEntity
  8
1
  6
CONTINUOUS
370
50
 62
4
100
AcDbLine
 10
60.999134
 20
-2.330409
 30
0.0
 11
60.523193
 21
-2.187705
 31
0.0
  0
LINE
  5
7D0
330
1F
100
AcDbEntity
  8
1
  6
CONTINUOUS
370
50
 62
4
100
AcDbLine
 10
55.45935799999999
 20
2.225528
 30
0.0
 11
55.084812
 21
2.336132
 31
0.0
  0
LINE
  5
7D1
330
1F
100
AcDbEntity
  8
1
  6
CONTINUOUS
370
50
 62
4
100
AcDbLine
 10
71.924187
 20
-2.355192
 30
0.0
 11
71.523346
 21
-2.237512
 31
0.0
  0
LINE
  5
7D2
330
1F
100
AcDbEntity
  8
1
  6
CONTINUOUS
370
50
 62
4
100
AcDbLine
 10
126.682716
 20
2.24878
 30
0.0
 11
126.366333
 21
2.341154
 31
0.0
  0
LINE
  5
7D3
330
1F
100
AcDbEntity
  8
1
  6
CONTINUOUS
370
50
 62
4
100
AcDbLine
 10
52.228539
 20
1.790573
 30
0.0
 11
52.102802
 21
1.827122
 31
0.0
  0
LINE
  5
7D4
330
1F
100
AcDbEntity
  8
1
  6
CONTINUOUS
370
50
 62
4
100
AcDbLine
 10
126.136086
 20
-2.359869
 30
0.0
 11
125.701881
 21
-2.234058
 31
0.0
  0
LINE
  5
7D5
330
1F
100
AcDbEntity
  8
1
  6
CONTINUOUS
370
50
 62
4
100
AcDbLine
 10
65.70433
 20
-2.36835
 30
0.0
 11
65.30729699999999
 21
-2.255266
 31
0.0
  0
LINE
  5
7D6
330
1F
100
AcDbEntity
  8
1
  6
CONTINUOUS
370
50
 62
4
100
AcDbLine
 10
54.968273
 20
-2.394769
 30
0.0
 11
54.528378
 21
-2.271825
 31
0.0
  0
LINE
  5
7D7
330
1F
100
AcDbEntity
  8
1
  6
CONTINUOUS
370
50
 62
4
100
AcDbLine
 10
115.724228
 20
2.284293
 30
0.0
 11
115.286499
 21
2.405152
 31
0.0
  0
LINE
  5
7D8
330
1F
100
AcDbEntity
  8
1
  6
CONTINUOUS
370
50
 62
4
100
AcDbLine
 10
61.263474
 20
-2.402295
 30
0.0
 11
61.0
 21
-2.33121
 31
0.0
  0
LINE
  5
7D9
330
1F
100
AcDbEntity
  8
1
  6
CONTINUOUS
370
50
 62
4
100
AcDbLine
 10
120.220322
 20
2.305882
 30
0.0
 11
119.724785
 21
2.439301
 31
0.0
  0
LINE
  5
7DA
330
1F
100
AcDbEntity
  8
1
  6
CONTINUOUS
370
50
 62
4
100
AcDbLine
 10
76.8592
 20
2.309292
 30
0.0
 11
76.364578
 21
2.442096
 31
0.0
  0
LINE
  5
7DB
330
1F
100
AcDbEntity
  8
1
  6
CONTINUOUS
370
50
 62
4
100
AcDbLine
 10
61.441936
 20
2.311984
 30
0.0
 11
61.0
 21
2.430554
 31
0.0
  0
LINE
  5
7DC
330
1F
100
AcDbEntity
  8
1
  6
CONTINUOUS
370
50
 62
4
100
AcDbLine
 10
87.692764
 20
2.309336
 30
0.0
 11
87.199516
 21
2.441645
 31
0.0
  0
LINE
  5
7DD
330
1F
100
AcDbEntity
  8
1
  6
CONTINUOUS
370
50
 62
4
100
AcDbLine
 10
104.778343
 20
-2.442739
 30
0.0
 11
104.288391
 21
-2.311395
 31
0.0
  0
LINE
  5
7DE
330
1F
100
AcDbEntity
  8
1
  6
CONTINUOUS
370
50
 62
4
100
AcDbLine
 10
115.614166
 20
-2.442441
 30
0.0
 11
115.119408
 21
-2.310425
 31
0.0
  0
LINE
  5
7DF
330
1F
100
AcDbEntity
  8
1
  6
CONTINUOUS
370
50
 62
4
100
AcDbLine
 10
49.92497299999999
 20
-2.749957
 30
0.0
 11
49.924763
 21
-2.749901
 31
0.0
  0
LINE
  5
7E0
330
1F
100
AcDbEntity
  8
1
  6
CONTINUOUS
370
50
 62
4
100
AcDbLine
 10
83.093445
 20
-2.441777
 30
0.0
 11
82.59704599999999
 21
-2.309429
 31
0.0
  0
LINE
  5
7E1
330
1F
100
AcDbEntity
  8
1
  6
CONTINUOUS
370
50
 62
4
100
AcDbLine
 10
76.85176799999999
 20
-2.447246
 30
0.0
 11
76.363495
 21
-2.317173
 31
0.0
  0
LINE
  5
7E2
330
1F
100
AcDbEntity
  8
1
  6
CONTINUOUS
370
50
 62
4
100
AcDbLine
 10
87.682457
 20
-2.446211
 30
0.0
 11
87.195107
 21
-2.316478
 31
0.0
  0
LINE
  5
7E3
330
1F
100
AcDbEntity
  8
1
  6
CONTINUOUS
370
50
 62
4
100
AcDbLine
 10
109.365372
 20
-2.44579
 30
0.0
 11
108.875961
 21
-2.315576
 31
0.0
  0
LINE
  5
7E4
330
1F
100
AcDbEntity
  8
1
  6
CONTINUOUS
370
50
 62
4
100
AcDbLine
 10
109.356667
 20
2.314717
 30
0.0
 11
108.862083
 21
2.446307
 31
0.0
  0
LINE
  5
7E5
330
1F
100
AcDbEntity
  8
1
  6
CONTINUOUS
370
50
 62
4
100
AcDbLine
 10
93.932869
 20
-2.4403
 30
0.0
 11
93.435814
 21
-2.308132
 31
0.0
  0
LINE
  5
7E6
330
1F
100
AcDbEntity
  8
1
  6
CONTINUOUS
370
50
 62
4
100
AcDbLine
 10
120.211166
 20
-2.448613
 30
0.0
 11
119.722069
 21
-2.318731
 31
0.0
  0
LINE
  5
7E7
330
1F
100
AcDbEntity
  8
1
  6
CONTINUOUS
370
50
 62
4
100
AcDbLine
 10
72.243034
 20
2.321409
 30
0.0
 11
71.758186
 21
2.450143
 31
0.0
  0
LINE
  5
7E8
330
1F
100
AcDbEntity
  8
1
  6
CONTINUOUS
370
50
 62
4
100
AcDbLine
 10
104.760246
 20
2.321152
 30
0.0
 11
104.274773
 21
2.449933
 31
0.0
  0
LINE
  5
7E9
330
1F
100
AcDbEntity
  8
1
  6
CONTINUOUS
370
50
 62
4
100
AcDbLine
 10
83.10337799999999
 20
2.314912
 30
0.0
 11
82.61097699999999
 21
2.445365
 31
0.0
  0
LINE
  5
7EA
330
1F
100
AcDbEntity
  8
1
  6
CONTINUOUS
370
50
 62
4
100
AcDbLine
 10
93.94319899999999
 20
2.316107
 30
0.0
 11
93.44944
 21
2.446165
 31
0.0
  0
LINE
  5
7EB
330
1F
100
AcDbEntity
  8
1
  6
CONTINUOUS
370
50
 62
4
100
AcDbLine
 10
126.366333
 20
2.341154
 30
0.0
 11
126.048706
 21
2.424805
 31
0.0
  0
LINE
  5
7EC
330
1F
100
AcDbEntity
  8
1
  6
CONTINUOUS
370
50
 62
4
100
AcDbLine
 10
55.084812
 20
2.336132
 30
0.0
 11
54.710186
 21
2.434725
 31
0.0
  0
LINE
  5
7ED
330
1F
100
AcDbEntity
  8
1
  6
CONTINUOUS
370
50
 62
4
100
AcDbLine
 10
66.011093
 20
2.312814
 30
0.0
 11
65.512711
 21
2.443963
 31
0.0
  0
LINE
  5
7EE
330
1F
100
AcDbEntity
  8
1
  6
CONTINUOUS
370
50
 62
4
100
AcDbLine
 10
98.513092
 20
2.31589
 30
0.0
 11
98.015732
 21
2.446625
 31
0.0
  0
LINE
  5
7EF
330
1F
100
AcDbEntity
  8
1
  6
CONTINUOUS
370
50
 62
4
100
AcDbLine
 10
98.537582
 20
-2.448419
 30
0.0
 11
98.043594
 21
-2.319458
 31
0.0
  0
LINE
  5
7F0
330
1F
100
AcDbEntity
  8
1
  6
CONTINUOUS
370
50
 62
4
100
AcDbLine
 10
72.322769
 20
-2.458259
 30
0.0
 11
71.924187
 21
-2.355192
 31
0.0
  0
LINE
  5
7F1
330
1F
100
AcDbEntity
  8
1
  6
CONTINUOUS
370
50
 62
4
100
AcDbLine
 10
52.102802
 20
1.827122
 30
0.0
 11
51.976112
 21
1.859588
 31
0.0
  0
LINE
  5
7F2
330
1F
100
AcDbEntity
  8
1
  6
CONTINUOUS
370
50
 62
4
100
AcDbLine
 10
126.568008
 20
-2.468991
 30
0.0
 11
126.136086
 21
-2.359869
 31
0.0
  0
LINE
  5
7F3
330
1F
100
AcDbEntity
  8
1
  6
CONTINUOUS
370
50
 62
4
100
AcDbLine
 10
66.101372
 20
-2.467822
 30
0.0
 11
65.70433
 21
-2.36835
 31
0.0
  0
LINE
  5
7F4
330
1F
100
AcDbEntity
  8
1
  6
CONTINUOUS
370
50
 62
4
100
AcDbLine
 10
61.525719
 20
-2.46722
 30
0.0
 11
61.263474
 21
-2.402295
 31
0.0
  0
LINE
  5
7F5
330
1F
100
AcDbEntity
  8
1
  6
CONTINUOUS
370
50
 62
4
100
AcDbLine
 10
55.407085
 20
-2.500371
 30
0.0
 11
54.968273
 21
-2.394769
 31
0.0
  0
LINE
  5
7F6
330
1F
100
AcDbEntity
  8
1
  6
CONTINUOUS
370
50
 62
4
100
AcDbLine
 10
126.912666
 20
-0.749424
 30
0.0
 11
126.855293
 21
-0.7356699999999999
 31
0.0
  0
LINE
  5
7F7
330
1F
100
AcDbEntity
  8
1
  6
CONTINUOUS
370
50
 62
4
100
AcDbLine
 10
115.286499
 20
2.405152
 30
0.0
 11
114.851913
 21
2.509092
 31
0.0
  0
LINE
  5
7F8
330
1F
100
AcDbEntity
  8
1
  6
CONTINUOUS
370
50
 62
4
100
AcDbLine
 10
126.048706
 20
2.424805
 30
0.0
 11
125.73008
 21
2.499607
 31
0.0
  0
LINE
  5
7F9
330
1F
100
AcDbEntity
  8
1
  6
CONTINUOUS
370
50
 62
4
100
AcDbLine
 10
54.710186
 20
2.434725
 30
0.0
 11
54.33402599999999
 21
2.520757
 31
0.0
  0
LINE
  5
7FA
330
1F
100
AcDbEntity
  8
1
  6
CONTINUOUS
370
50
 62
4
100
AcDbLine
 10
60.999134
 20
2.42963
 30
0.0
 11
60.585354
 21
2.524041
 31
0.0
  0
LINE
  5
7FB
330
1F
100
AcDbEntity
  8
1
  6
CONTINUOUS
370
50
 62
4
100
AcDbLine
 10
126.974251
 20
2.749867
 30
0.0
 11
126.973854
 21
2.749956
 31
0.0
  0
LINE
  5
7FC
330
1F
100
AcDbEntity
  8
1
  6
CONTINUOUS
370
50
 62
4
100
AcDbLine
 10
61.787384
 20
-2.525848
 30
0.0
 11
61.525719
 21
-2.46722
 31
0.0
  0
LINE
  5
7FD
330
1F
100
AcDbEntity
  8
1
  6
CONTINUOUS
370
50
 62
4
100
AcDbLine
 10
119.724785
 20
2.439301
 30
0.0
 11
119.228447
 21
2.550464
 31
0.0
  0
LINE
  5
7FE
330
1F
100
AcDbEntity
  8
1
  6
CONTINUOUS
370
50
 62
4
100
AcDbLine
 10
87.199516
 20
2.441645
 30
0.0
 11
86.707115
 21
2.551688
 31
0.0
  0
LINE
  5
7FF
330
1F
100
AcDbEntity
  8
1
  6
CONTINUOUS
370
50
 62
4
100
AcDbLine
 10
94.426178
 20
-2.550351
 30
0.0
 11
93.932869
 21
-2.4403
 31
0.0
  0
LINE
  5
800
330
1F
100
AcDbEntity
  8
1
  6
CONTINUOUS
370
50
 62
4
100
AcDbLine
 10
51.976112
 20
1.859588
 30
0.0
 11
51.850288
 21
1.887652
 31
0.0
  0
LINE
  5
801
330
1F
100
AcDbEntity
  8
1
  6
CONTINUOUS
370
50
 62
4
100
AcDbLine
 10
105.269882
 20
-2.552117
 30
0.0
 11
104.778343
 21
-2.442739
 31
0.0
  0
LINE
  5
802
330
1F
100
AcDbEntity
  8
1
  6
CONTINUOUS
370
50
 62
4
100
AcDbLine
 10
109.851158
 20
-2.553658
 30
0.0
 11
109.365372
 21
-2.44579
 31
0.0
  0
LINE
  5
803
330
1F
100
AcDbEntity
  8
1
  6
CONTINUOUS
370
50
 62
4
100
AcDbLine
 10
82.61097699999999
 20
2.445365
 30
0.0
 11
82.122124
 21
2.553874
 31
0.0
  0
LINE
  5
804
330
1F
100
AcDbEntity
  8
1
  6
CONTINUOUS
370
50
 62
4
100
AcDbLine
 10
77.341301
 20
-2.555654
 30
0.0
 11
76.85176799999999
 21
-2.447246
 31
0.0
  0
LINE
  5
805
330
1F
100
AcDbEntity
  8
1
  6
CONTINUOUS
370
50
 62
4
100
AcDbLine
 10
72.72159599999999
 20
-2.546348
 30
0.0
 11
72.322769
 21
-2.458259
 31
0.0
  0
LINE
  5
806
330
1F
100
AcDbEntity
  8
1
  6
CONTINUOUS
370
50
 62
4
100
AcDbLine
 10
76.364578
 20
2.442096
 30
0.0
 11
75.864716
 21
2.552381
 31
0.0
  0
LINE
  5
807
330
1F
100
AcDbEntity
  8
1
  6
CONTINUOUS
370
50
 62
4
100
AcDbLine
 10
65.512711
 20
2.443963
 30
0.0
 11
65.019943
 21
2.552643
 31
0.0
  0
LINE
  5
808
330
1F
100
AcDbEntity
  8
1
  6
CONTINUOUS
370
50
 62
4
100
AcDbLine
 10
98.015732
 20
2.446625
 30
0.0
 11
97.524757
 21
2.554647
 31
0.0
  0
LINE
  5
809
330
1F
100
AcDbEntity
  8
1
  6
CONTINUOUS
370
50
 62
4
100
AcDbLine
 10
83.592415
 20
-2.551545
 30
0.0
 11
83.093445
 21
-2.441777
 31
0.0
  0
LINE
  5
80A
330
1F
100
AcDbEntity
  8
1
  6
CONTINUOUS
370
50
 62
4
100
AcDbLine
 10
116.112167
 20
-2.55188
 30
0.0
 11
115.614166
 21
-2.442441
 31
0.0
  0
LINE
  5
80B
330
1F
100
AcDbEntity
  8
1
  6
CONTINUOUS
370
50
 62
4
100
AcDbLine
 10
88.172325
 20
-2.553651
 30
0.0
 11
87.682457
 21
-2.446211
 31
0.0
  0
LINE
  5
80C
330
1F
100
AcDbEntity
  8
1
  6
CONTINUOUS
370
50
 62
4
100
AcDbLine
 10
71.758186
 20
2.450143
 30
0.0
 11
71.269234
 21
2.557366
 31
0.0
  0
LINE
  5
80D
330
1F
100
AcDbEntity
  8
1
  6
CONTINUOUS
370
50
 62
4
100
AcDbLine
 10
99.02744299999999
 20
-2.555704
 30
0.0
 11
98.537582
 21
-2.448419
 31
0.0
  0
LINE
  5
80E
330
1F
100
AcDbEntity
  8
1
  6
CONTINUOUS
370
50
 62
4
100
AcDbLine
 10
120.70118
 20
-2.555786
 30
0.0
 11
120.211166
 21
-2.448613
 31
0.0
  0
LINE
  5
80F
330
1F
100
AcDbEntity
  8
1
  6
CONTINUOUS
370
50
 62
4
100
AcDbLine
 10
93.44944
 20
2.446165
 30
0.0
 11
92.95560499999999
 21
2.554167
 31
0.0
  0
LINE
  5
810
330
1F
100
AcDbEntity
  8
1
  6
CONTINUOUS
370
50
 62
4
100
AcDbLine
 10
104.274773
 20
2.449933
 30
0.0
 11
103.784775
 21
2.557052
 31
0.0
  0
LINE
  5
811
330
1F
100
AcDbEntity
  8
1
  6
CONTINUOUS
370
50
 62
4
100
AcDbLine
 10
108.862083
 20
2.446307
 30
0.0
 11
108.363983
 21
2.555005
 31
0.0
  0
LINE
  5
812
330
1F
100
AcDbEntity
  8
1
  6
CONTINUOUS
370
50
 62
4
100
AcDbLine
 10
66.49616999999999
 20
-2.553424
 30
0.0
 11
66.101372
 21
-2.467822
 31
0.0
  0
LINE
  5
813
330
1F
100
AcDbEntity
  8
1
  6
CONTINUOUS
370
50
 62
4
100
AcDbLine
 10
126.999084
 20
-2.561167
 30
0.0
 11
126.568008
 21
-2.468991
 31
0.0
  0
LINE
  5
814
330
1F
100
AcDbEntity
  8
1
  6
CONTINUOUS
370
50
 62
4
100
AcDbLine
 10
125.73008
 20
2.499607
 30
0.0
 11
125.412437
 21
2.565293
 31
0.0
  0
LINE
  5
815
330
1F
100
AcDbEntity
  8
1
  6
CONTINUOUS
370
50
 62
4
100
AcDbLine
 10
62.049118
 20
-2.578045
 30
0.0
 11
61.787384
 21
-2.525848
 31
0.0
  0
LINE
  5
816
330
1F
100
AcDbEntity
  8
1
  6
CONTINUOUS
370
50
 62
4
100
AcDbLine
 10
55.84843799999999
 20
-2.588295
 30
0.0
 11
55.407085
 21
-2.500371
 31
0.0
  0
LINE
  5
817
330
1F
100
AcDbEntity
  8
1
  6
CONTINUOUS
370
50
 62
4
100
AcDbLine
 10
114.851913
 20
2.509092
 30
0.0
 11
114.418411
 21
2.595045
 31
0.0
  0
LINE
  5
818
330
1F
100
AcDbEntity
  8
1
  6
CONTINUOUS
370
50
 62
4
100
AcDbLine
 10
54.33402599999999
 20
2.520757
 30
0.0
 11
53.958447
 21
2.593822
 31
0.0
  0
LINE
  5
819
330
1F
100
AcDbEntity
  8
1
  6
CONTINUOUS
370
50
 62
4
100
AcDbLine
 10
51.850288
 20
1.887652
 30
0.0
 11
51.726982
 21
1.911157
 31
0.0
  0
LINE
  5
81A
330
1F
100
AcDbEntity
  8
1
  6
CONTINUOUS
370
50
 62
4
100
AcDbLine
 10
60.585354
 20
2.524041
 30
0.0
 11
60.169891
 21
2.603068
 31
0.0
  0
LINE
  5
81B
330
1F
100
AcDbEntity
  8
1
  6
CONTINUOUS
370
50
 62
4
100
AcDbLine
 10
73.123184
 20
-2.619117
 30
0.0
 11
72.72159599999999
 21
-2.546348
 31
0.0
  0
LINE
  5
81C
330
1F
100
AcDbEntity
  8
1
  6
CONTINUOUS
370
50
 62
4
100
AcDbLine
 10
66.89038099999999
 20
-2.624369
 30
0.0
 11
66.49616999999999
 21
-2.553424
 31
0.0
  0
LINE
  5
81D
330
1F
100
AcDbEntity
  8
1
  6
CONTINUOUS
370
50
 62
4
100
AcDbLine
 10
125.412437
 20
2.565293
 30
0.0
 11
125.096626
 21
2.621278
 31
0.0
  0
LINE
  5
81E
330
1F
100
AcDbEntity
  8
1
  6
CONTINUOUS
370
50
 62
4
100
AcDbLine
 10
94.920036
 20
-2.637395
 30
0.0
 11
94.426178
 21
-2.550351
 31
0.0
  0
LINE
  5
81F
330
1F
100
AcDbEntity
  8
1
  6
CONTINUOUS
370
50
 62
4
100
AcDbLine
 10
65.019943
 20
2.552643
 30
0.0
 11
64.528999
 21
2.638705
 31
0.0
  0
LINE
  5
820
330
1F
100
AcDbEntity
  8
1
  6
CONTINUOUS
370
50
 62
4
100
AcDbLine
 10
119.228447
 20
2.550464
 30
0.0
 11
118.732597
 21
2.637265
 31
0.0
  0
LINE
  5
821
330
1F
100
AcDbEntity
  8
1
  6
CONTINUOUS
370
50
 62
4
100
AcDbLine
 10
86.707115
 20
2.551688
 30
0.0
 11
86.21073899999999
 21
2.63852
 31
0.0
  0
LINE
  5
822
330
1F
100
AcDbEntity
  8
1
  6
CONTINUOUS
370
50
 62
4
100
AcDbLine
 10
82.122124
 20
2.553874
 30
0.0
 11
81.63266
 21
2.639419
 31
0.0
  0
LINE
  5
823
330
1F
100
AcDbEntity
  8
1
  6
CONTINUOUS
370
50
 62
4
100
AcDbLine
 10
97.524757
 20
2.554647
 30
0.0
 11
97.037407
 21
2.639678
 31
0.0
  0
LINE
  5
824
330
1F
100
AcDbEntity
  8
1
  6
CONTINUOUS
370
50
 62
4
100
AcDbLine
 10
110.337891
 20
-2.638545
 30
0.0
 11
109.851158
 21
-2.553658
 31
0.0
  0
LINE
  5
825
330
1F
100
AcDbEntity
  8
1
  6
CONTINUOUS
370
50
 62
4
100
AcDbLine
 10
84.08994299999999
 20
-2.638138
 30
0.0
 11
83.592415
 21
-2.551545
 31
0.0
  0
LINE
  5
826
330
1F
100
AcDbEntity
  8
1
  6
CONTINUOUS
370
50
 62
4
100
AcDbLine
 10
99.512672
 20
-2.640123
 30
0.0
 11
99.02744299999999
 21
-2.555704
 31
0.0
  0
LINE
  5
827
330
1F
100
AcDbEntity
  8
1
  6
CONTINUOUS
370
50
 62
4
100
AcDbLine
 10
92.95560499999999
 20
2.554167
 30
0.0
 11
92.46522499999999
 21
2.639449
 31
0.0
  0
LINE
  5
828
330
1F
100
AcDbEntity
  8
1
  6
CONTINUOUS
370
50
 62
4
100
AcDbLine
 10
62.311562
 20
-2.623674
 30
0.0
 11
62.049118
 21
-2.578045
 31
0.0
  0
LINE
  5
829
330
1F
100
AcDbEntity
  8
1
  6
CONTINUOUS
370
50
 62
4
100
AcDbLine
 10
105.765923
 20
-2.638291
 30
0.0
 11
105.269882
 21
-2.552117
 31
0.0
  0
LINE
  5
82A
330
1F
100
AcDbEntity
  8
1
  6
CONTINUOUS
370
50
 62
4
100
AcDbLine
 10
116.610008
 20
-2.63812
 30
0.0
 11
116.112167
 21
-2.55188
 31
0.0
  0
LINE
  5
82B
330
1F
100
AcDbEntity
  8
1
  6
CONTINUOUS
370
50
 62
4
100
AcDbLine
 10
77.83036
 20
-2.640359
 30
0.0
 11
77.341301
 21
-2.555654
 31
0.0
  0
LINE
  5
82C
330
1F
100
AcDbEntity
  8
1
  6
CONTINUOUS
370
50
 62
4
100
AcDbLine
 10
75.864716
 20
2.552381
 30
0.0
 11
75.364136
 21
2.638765
 31
0.0
  0
LINE
  5
82D
330
1F
100
AcDbEntity
  8
1
  6
CONTINUOUS
370
50
 62
4
100
AcDbLine
 10
88.66695399999999
 20
-2.638757
 30
0.0
 11
88.172325
 21
-2.553651
 31
0.0
  0
LINE
  5
82E
330
1F
100
AcDbEntity
  8
1
  6
CONTINUOUS
370
50
 62
4
100
AcDbLine
 10
108.363983
 20
2.555005
 30
0.0
 11
107.867577
 21
2.640224
 31
0.0
  0
LINE
  5
82F
330
1F
100
AcDbEntity
  8
1
  6
CONTINUOUS
370
50
 62
4
100
AcDbLine
 10
71.269234
 20
2.557366
 30
0.0
 11
70.777267
 21
2.641493
 31
0.0
  0
LINE
  5
830
330
1F
100
AcDbEntity
  8
1
  6
CONTINUOUS
370
50
 62
4
100
AcDbLine
 10
103.784775
 20
2.557052
 30
0.0
 11
103.292732
 21
2.641083
 31
0.0
  0
LINE
  5
831
330
1F
100
AcDbEntity
  8
1
  6
CONTINUOUS
370
50
 62
4
100
AcDbLine
 10
121.194641
 20
-2.640014
 30
0.0
 11
120.70118
 21
-2.555786
 31
0.0
  0
LINE
  5
832
330
1F
100
AcDbEntity
  8
1
  6
CONTINUOUS
370
50
 62
4
100
AcDbLine
 10
53.958447
 20
2.593822
 30
0.0
 11
53.58468999999999
 21
2.653455
 31
0.0
  0
LINE
  5
833
330
1F
100
AcDbEntity
  8
1
  6
CONTINUOUS
370
50
 62
4
100
AcDbLine
 10
51.726982
 20
1.911157
 30
0.0
 11
51.606308
 21
1.930307
 31
0.0
  0
LINE
  5
834
330
1F
100
AcDbEntity
  8
1
  6
CONTINUOUS
370
50
 62
4
100
AcDbLine
 10
56.289642
 20
-2.658047
 30
0.0
 11
55.84843799999999
 21
-2.588295
 31
0.0
  0
LINE
  5
835
330
1F
100
AcDbEntity
  8
1
  6
CONTINUOUS
370
50
 62
4
100
AcDbLine
 10
114.418411
 20
2.595045
 30
0.0
 11
113.982796
 21
2.662581
 31
0.0
  0
LINE
  5
836
330
1F
100
AcDbEntity
  8
1
  6
CONTINUOUS
370
50
 62
4
100
AcDbLine
 10
126.966774
 20
-0.7577109999999999
 30
0.0
 11
126.912666
 21
-0.749424
 31
0.0
  0
LINE
  5
837
330
1F
100
AcDbEntity
  8
1
  6
CONTINUOUS
370
50
 62
4
100
AcDbLine
 10
60.169891
 20
2.603068
 30
0.0
 11
59.756294
 21
2.665778
 31
0.0
  0
LINE
  5
838
330
1F
100
AcDbEntity
  8
1
  6
CONTINUOUS
370
50
 62
4
100
AcDbLine
 10
62.575199
 20
-2.662503
 30
0.0
 11
62.311562
 21
-2.623674
 31
0.0
  0
LINE
  5
839
330
1F
100
AcDbEntity
  8
1
  6
CONTINUOUS
370
50
 62
4
100
AcDbLine
 10
125.096626
 20
2.621278
 30
0.0
 11
124.781532
 21
2.667368
 31
0.0
  0
LINE
  5
83A
330
1F
100
AcDbEntity
  8
1
  6
CONTINUOUS
370
50
 62
4
100
AcDbLine
 10
73.527611
 20
-2.676263
 30
0.0
 11
73.123184
 21
-2.619117
 31
0.0
  0
LINE
  5
83B
330
1F
100
AcDbEntity
  8
1
  6
CONTINUOUS
370
50
 62
4
100
AcDbLine
 10
67.28334
 20
-2.679711
 30
0.0
 11
66.89038099999999
 21
-2.624369
 31
0.0
  0
LINE
  5
83C
330
1F
100
AcDbEntity
  8
1
  6
CONTINUOUS
370
50
 62
4
100
AcDbLine
 10
53.211395
 20
2.706234
 30
0.0
 11
53.116463
 21
2.718926
 31
0.0
  0
LINE
  5
83D
330
1F
100
AcDbEntity
  8
1
  6
CONTINUOUS
370
50
 62
4
100
AcDbLine
 10
51.606308
 20
1.930307
 30
0.0
 11
51.488377
 21
1.945303
 31
0.0
  0
LINE
  5
83E
330
1F
100
AcDbEntity
  8
1
  6
CONTINUOUS
370
50
 62
4
100
AcDbLine
 10
64.528999
 20
2.638705
 30
0.0
 11
64.036469
 21
2.701065
 31
0.0
  0
LINE
  5
83F
330
1F
100
AcDbEntity
  8
1
  6
CONTINUOUS
370
50
 62
4
100
AcDbLine
 10
84.583046
 20
-2.700536
 30
0.0
 11
84.08994299999999
 21
-2.638138
 31
0.0
  0
LINE
  5
840
330
1F
100
AcDbEntity
  8
1
  6
CONTINUOUS
370
50
 62
4
100
AcDbLine
 10
95.417343
 20
-2.700156
 30
0.0
 11
94.920036
 21
-2.637395
 31
0.0
  0
LINE
  5
841
330
1F
100
AcDbEntity
  8
1
  6
CONTINUOUS
370
50
 62
4
100
AcDbLine
 10
117.103783
 20
-2.700349
 30
0.0
 11
116.610008
 21
-2.63812
 31
0.0
  0
LINE
  5
842
330
1F
100
AcDbEntity
  8
1
  6
CONTINUOUS
370
50
 62
4
100
AcDbLine
 10
92.46522499999999
 20
2.639449
 30
0.0
 11
91.977074
 21
2.700949
 31
0.0
  0
LINE
  5
843
330
1F
100
AcDbEntity
  8
1
  6
CONTINUOUS
370
50
 62
4
100
AcDbLine
 10
89.157883
 20
-2.700523
 30
0.0
 11
88.66695399999999
 21
-2.638757
 31
0.0
  0
LINE
  5
844
330
1F
100
AcDbEntity
  8
1
  6
CONTINUOUS
370
50
 62
4
100
AcDbLine
 10
97.037407
 20
2.639678
 30
0.0
 11
96.54884299999999
 21
2.701099
 31
0.0
  0
LINE
  5
845
330
1F
100
AcDbEntity
  8
1
  6
CONTINUOUS
370
50
 62
4
100
AcDbLine
 10
75.364136
 20
2.638765
 30
0.0
 11
74.86923999999999
 21
2.700951
 31
0.0
  0
LINE
  5
846
330
1F
100
AcDbEntity
  8
1
  6
CONTINUOUS
370
50
 62
4
100
AcDbLine
 10
99.998177
 20
-2.701093
 30
0.0
 11
99.512672
 21
-2.640123
 31
0.0
  0
LINE
  5
847
330
1F
100
AcDbEntity
  8
1
  6
CONTINUOUS
370
50
 62
4
100
AcDbLine
 10
81.63266
 20
2.639419
 30
0.0
 11
81.138947
 21
2.70113
 31
0.0
  0
LINE
  5
848
330
1F
100
AcDbEntity
  8
1
  6
CONTINUOUS
370
50
 62
4
100
AcDbLine
 10
107.867577
 20
2.640224
 30
0.0
 11
107.377792
 21
2.701377
 31
0.0
  0
LINE
  5
849
330
1F
100
AcDbEntity
  8
1
  6
CONTINUOUS
370
50
 62
4
100
AcDbLine
 10
110.830132
 20
-2.700004
 30
0.0
 11
110.337891
 21
-2.638545
 31
0.0
  0
LINE
  5
84A
330
1F
100
AcDbEntity
  8
1
  6
CONTINUOUS
370
50
 62
4
100
AcDbLine
 10
118.732597
 20
2.637265
 30
0.0
 11
118.233452
 21
2.699539
 31
0.0
  0
LINE
  5
84B
330
1F
100
AcDbEntity
  8
1
  6
CONTINUOUS
370
50
 62
4
100
AcDbLine
 10
106.263512
 20
-2.700271
 30
0.0
 11
105.765923
 21
-2.638291
 31
0.0
  0
LINE
  5
84C
330
1F
100
AcDbEntity
  8
1
  6
CONTINUOUS
370
50
 62
4
100
AcDbLine
 10
121.683662
 20
-2.700897
 30
0.0
 11
121.194641
 21
-2.640014
 31
0.0
  0
LINE
  5
84D
330
1F
100
AcDbEntity
  8
1
  6
CONTINUOUS
370
50
 62
4
100
AcDbLine
 10
86.21073899999999
 20
2.63852
 30
0.0
 11
85.710793
 21
2.700755
 31
0.0
  0
LINE
  5
84E
330
1F
100
AcDbEntity
  8
1
  6
CONTINUOUS
370
50
 62
4
100
AcDbLine
 10
78.322052
 20
-2.701141
 30
0.0
 11
77.83036
 21
-2.640359
 31
0.0
  0
LINE
  5
84F
330
1F
100
AcDbEntity
  8
1
  6
CONTINUOUS
370
50
 62
4
100
AcDbLine
 10
103.292732
 20
2.641083
 30
0.0
 11
102.802498
 21
2.701664
 31
0.0
  0
LINE
  5
850
330
1F
100
AcDbEntity
  8
1
  6
CONTINUOUS
370
50
 62
4
100
AcDbLine
 10
70.777267
 20
2.641493
 30
0.0
 11
70.28614
 21
2.702082
 31
0.0
  0
LINE
  5
851
330
1F
100
AcDbEntity
  8
1
  6
CONTINUOUS
370
50
 62
4
100
AcDbLine
 10
53.58468999999999
 20
2.653455
 30
0.0
 11
53.211395
 21
2.6992
 31
0.0
  0
LINE
  5
852
330
1F
100
AcDbEntity
  8
1
  6
CONTINUOUS
370
50
 62
4
100
AcDbLine
 10
62.839752
 20
-2.694308
 30
0.0
 11
62.575199
 21
-2.662503
 31
0.0
  0
LINE
  5
853
330
1F
100
AcDbEntity
  8
1
  6
CONTINUOUS
370
50
 62
4
100
AcDbLine
 10
56.72799699999999
 20
-2.708507
 30
0.0
 11
56.289642
 21
-2.658047
 31
0.0
  0
LINE
  5
854
330
1F
100
AcDbEntity
  8
1
  6
CONTINUOUS
370
50
 62
4
100
AcDbLine
 10
124.781532
 20
2.667368
 30
0.0
 11
124.465912
 21
2.703429
 31
0.0
  0
LINE
  5
855
330
1F
100
AcDbEntity
  8
1
  6
CONTINUOUS
370
50
 62
4
100
AcDbLine
 10
53.116463
 20
2.718926
 30
0.0
 11
53.021404
 21
2.729686
 31
0.0
  0
LINE
  5
856
330
1F
100
AcDbEntity
  8
1
  6
CONTINUOUS
370
50
 62
4
100
AcDbLine
 10
113.982796
 20
2.662581
 30
0.0
 11
113.543892
 21
2.711131
 31
0.0
  0
LINE
  5
857
330
1F
100
AcDbEntity
  8
1
  6
CONTINUOUS
370
50
 62
4
100
AcDbLine
 10
59.756294
 20
2.665778
 30
0.0
 11
59.34424199999999
 21
2.711312
 31
0.0
  0
LINE
  5
858
330
1F
100
AcDbEntity
  8
1
  6
CONTINUOUS
370
50
 62
4
100
AcDbLine
 10
73.93177
 20
-2.717617
 30
0.0
 11
73.527611
 21
-2.676263
 31
0.0
  0
LINE
  5
859
330
1F
100
AcDbEntity
  8
1
  6
CONTINUOUS
370
50
 62
4
100
AcDbLine
 10
67.67617
 20
-2.719229
 30
0.0
 11
67.28334
 21
-2.679711
 31
0.0
  0
LINE
  5
85A
330
1F
100
AcDbEntity
  8
1
  6
CONTINUOUS
370
50
 62
4
100
AcDbLine
 10
51.488377
 20
1.945303
 30
0.0
 11
51.373306
 21
1.95635
 31
0.0
  0
LINE
  5
85B
330
1F
100
AcDbEntity
  8
1
  6
CONTINUOUS
370
50
 62
4
100
AcDbLine
 10
63.104744
 20
-2.71907
 30
0.0
 11
62.839752
 21
-2.694308
 31
0.0
  0
LINE
  5
85C
330
1F
100
AcDbEntity
  8
1
  6
CONTINUOUS
370
50
 62
4
100
AcDbLine
 10
53.021404
 20
2.729686
 30
0.0
 11
52.925968
 21
2.738343
 31
0.0
  0
LINE
  5
85D
330
1F
100
AcDbEntity
  8
1
  6
CONTINUOUS
370
50
 62
4
100
AcDbLine
 10
49.925297
 20
-2.749986
 30
0.0
 11
49.92497299999999
 21
-2.749957
 31
0.0
  0
LINE
  5
85E
330
1F
100
AcDbEntity
  8
1
  6
CONTINUOUS
370
50
 62
4
100
AcDbLine
 10
124.465912
 20
2.703429
 30
0.0
 11
124.148529
 21
2.729324
 31
0.0
  0
LINE
  5
85F
330
1F
100
AcDbEntity
  8
1
  6
CONTINUOUS
370
50
 62
4
100
AcDbLine
 10
89.64726999999999
 20
-2.737967
 30
0.0
 11
89.157883
 21
-2.700523
 31
0.0
  0
LINE
  5
860
330
1F
100
AcDbEntity
  8
1
  6
CONTINUOUS
370
50
 62
4
100
AcDbLine
 10
85.074615
 20
-2.738087
 30
0.0
 11
84.583046
 21
-2.700536
 31
0.0
  0
LINE
  5
861
330
1F
100
AcDbEntity
  8
1
  6
CONTINUOUS
370
50
 62
4
100
AcDbLine
 10
74.86923999999999
 20
2.700951
 30
0.0
 11
74.379288
 21
2.738332
 31
0.0
  0
LINE
  5
862
330
1F
100
AcDbEntity
  8
1
  6
CONTINUOUS
370
50
 62
4
100
AcDbLine
 10
117.594086
 20
-2.737692
 30
0.0
 11
117.103783
 21
-2.700349
 31
0.0
  0
LINE
  5
863
330
1F
100
AcDbEntity
  8
1
  6
CONTINUOUS
370
50
 62
4
100
AcDbLine
 10
118.233452
 20
2.699539
 30
0.0
 11
117.736153
 21
2.737396
 31
0.0
  0
LINE
  5
864
330
1F
100
AcDbEntity
  8
1
  6
CONTINUOUS
370
50
 62
4
100
AcDbLine
 10
64.036469
 20
2.701065
 30
0.0
 11
63.542576
 21
2.73853
 31
0.0
  0
LINE
  5
865
330
1F
100
AcDbEntity
  8
1
  6
CONTINUOUS
370
50
 62
4
100
AcDbLine
 10
91.977074
 20
2.700949
 30
0.0
 11
91.486595
 21
2.738133
 31
0.0
  0
LINE
  5
866
330
1F
100
AcDbEntity
  8
1
  6
CONTINUOUS
370
50
 62
4
100
AcDbLine
 10
122.169502
 20
-2.737715
 30
0.0
 11
121.683662
 21
-2.700897
 31
0.0
  0
LINE
  5
867
330
1F
100
AcDbEntity
  8
1
  6
CONTINUOUS
370
50
 62
4
100
AcDbLine
 10
106.758659
 20
-2.737771
 30
0.0
 11
106.263512
 21
-2.700271
 31
0.0
  0
LINE
  5
868
330
1F
100
AcDbEntity
  8
1
  6
CONTINUOUS
370
50
 62
4
100
AcDbLine
 10
107.377792
 20
2.701377
 30
0.0
 11
106.892372
 21
2.73808
 31
0.0
  0
LINE
  5
869
330
1F
100
AcDbEntity
  8
1
  6
CONTINUOUS
370
50
 62
4
100
AcDbLine
 10
95.916382
 20
-2.737881
 30
0.0
 11
95.417343
 21
-2.700156
 31
0.0
  0
LINE
  5
86A
330
1F
100
AcDbEntity
  8
1
  6
CONTINUOUS
370
50
 62
4
100
AcDbLine
 10
111.327515
 20
-2.737538
 30
0.0
 11
110.830132
 21
-2.700004
 31
0.0
  0
LINE
  5
86B
330
1F
100
AcDbEntity
  8
1
  6
CONTINUOUS
370
50
 62
4
100
AcDbLine
 10
100.488838
 20
-2.738048
 30
0.0
 11
99.998177
 21
-2.701093
 31
0.0
  0
LINE
  5
86C
330
1F
100
AcDbEntity
  8
1
  6
CONTINUOUS
370
50
 62
4
100
AcDbLine
 10
102.802498
 20
2.701664
 30
0.0
 11
102.316887
 21
2.738199
 31
0.0
  0
LINE
  5
86D
330
1F
100
AcDbEntity
  8
1
  6
CONTINUOUS
370
50
 62
4
100
AcDbLine
 10
78.814537
 20
-2.73819
 30
0.0
 11
78.322052
 21
-2.701141
 31
0.0
  0
LINE
  5
86E
330
1F
100
AcDbEntity
  8
1
  6
CONTINUOUS
370
50
 62
4
100
AcDbLine
 10
85.710793
 20
2.700755
 30
0.0
 11
85.213295
 21
2.738176
 31
0.0
  0
LINE
  5
86F
330
1F
100
AcDbEntity
  8
1
  6
CONTINUOUS
370
50
 62
4
100
AcDbLine
 10
70.28614
 20
2.702082
 30
0.0
 11
69.799339
 21
2.738677
 31
0.0
  0
LINE
  5
870
330
1F
100
AcDbEntity
  8
1
  6
CONTINUOUS
370
50
 62
4
100
AcDbLine
 10
96.54884299999999
 20
2.701099
 30
0.0
 11
96.05542
 21
2.738179
 31
0.0
  0
LINE
  5
871
330
1F
100
AcDbEntity
  8
1
  6
CONTINUOUS
370
50
 62
4
100
AcDbLine
 10
81.138947
 20
2.70113
 30
0.0
 11
80.643196
 21
2.738278
 31
0.0
  0
LINE
  5
872
330
1F
100
AcDbEntity
  8
1
  6
CONTINUOUS
370
50
 62
4
100
AcDbLine
 10
52.23744199999999
 20
-2.703629
 30
0.0
 11
52.048244
 21
-2.689491
 31
0.0
  0
LINE
  5
873
330
1F
100
AcDbEntity
  8
1
  6
CONTINUOUS
370
50
 62
4
100
AcDbLine
 10
52.424747
 20
-2.717563
 30
0.0
 11
52.23744199999999
 21
-2.703629
 31
0.0
  0
LINE
  5
874
330
1F
100
AcDbEntity
  8
1
  6
CONTINUOUS
370
50
 62
4
100
AcDbLine
 10
57.166431
 20
-2.739239
 30
0.0
 11
56.72799699999999
 21
-2.708507
 31
0.0
  0
LINE
  5
875
330
1F
100
AcDbEntity
  8
1
  6
CONTINUOUS
370
50
 62
4
100
AcDbLine
 10
52.048244
 20
-2.689491
 30
0.0
 11
51.858486
 21
-2.676354
 31
0.0
  0
LINE
  5
876
330
1F
100
AcDbEntity
  8
1
  6
CONTINUOUS
370
50
 62
4
100
AcDbLine
 10
52.610546
 20
-2.730231
 30
0.0
 11
52.424747
 21
-2.717563
 31
0.0
  0
LINE
  5
877
330
1F
100
AcDbEntity
  8
1
  6
CONTINUOUS
370
50
 62
4
100
AcDbLine
 10
59.34424199999999
 20
2.711312
 30
0.0
 11
58.930946
 21
2.739428
 31
0.0
  0
LINE
  5
878
330
1F
100
AcDbEntity
  8
1
  6
CONTINUOUS
370
50
 62
4
100
AcDbLine
 10
63.369701
 20
-2.736775
 30
0.0
 11
63.104744
 21
-2.71907
 31
0.0
  0
LINE
  5
879
330
1F
100
AcDbEntity
  8
1
  6
CONTINUOUS
370
50
 62
4
100
AcDbLine
 10
113.543892
 20
2.711131
 30
0.0
 11
113.104233
 21
2.7404
 31
0.0
  0
LINE
  5
87A
330
1F
100
AcDbEntity
  8
1
  6
CONTINUOUS
370
50
 62
4
100
AcDbLine
 10
52.925968
 20
2.738343
 30
0.0
 11
52.829899
 21
2.744728
 31
0.0
  0
LINE
  5
87B
330
1F
100
AcDbEntity
  8
1
  6
CONTINUOUS
370
50
 62
4
100
AcDbLine
 10
51.373306
 20
1.95635
 30
0.0
 11
51.261208
 21
1.963652
 31
0.0
  0
LINE
  5
87C
330
1F
100
AcDbEntity
  8
1
  6
CONTINUOUS
370
50
 62
4
100
AcDbLine
 10
74.332573
 20
-2.742505
 30
0.0
 11
73.93177
 21
-2.717617
 31
0.0
  0
LINE
  5
87D
330
1F
100
AcDbEntity
  8
1
  6
CONTINUOUS
370
50
 62
4
100
AcDbLine
 10
68.07119
 20
-2.742952
 30
0.0
 11
67.67617
 21
-2.719229
 31
0.0
  0
LINE
  5
87E
330
1F
100
AcDbEntity
  8
1
  6
CONTINUOUS
370
50
 62
4
100
AcDbLine
 10
51.858486
 20
-2.676354
 30
0.0
 11
51.67392299999999
 21
-2.665379
 31
0.0
  0
LINE
  5
87F
330
1F
100
AcDbEntity
  8
1
  6
CONTINUOUS
370
50
 62
4
100
AcDbLine
 10
52.795212
 20
-2.740569
 30
0.0
 11
52.610546
 21
-2.730231
 31
0.0
  0
LINE
  5
880
330
1F
100
AcDbEntity
  8
1
  6
CONTINUOUS
370
50
 62
4
100
AcDbLine
 10
124.148529
 20
2.729324
 30
0.0
 11
123.829193
 21
2.744892
 31
0.0
  0
LINE
  5
881
330
1F
100
AcDbEntity
  8
1
  6
CONTINUOUS
370
50
 62
4
100
AcDbLine
 10
51.67392299999999
 20
-2.665379
 30
0.0
 11
51.495419
 21
-2.656834
 31
0.0
  0
LINE
  5
882
330
1F
100
AcDbEntity
  8
1
  6
CONTINUOUS
370
50
 62
4
100
AcDbLine
 10
52.829899
 20
2.744728
 30
0.0
 11
52.732941
 21
2.748672
 31
0.0
  0
LINE
  5
883
330
1F
100
AcDbEntity
  8
1
  6
CONTINUOUS
370
50
 62
4
100
AcDbLine
 10
63.634159
 20
-2.747409
 30
0.0
 11
63.369701
 21
-2.736775
 31
0.0
  0
LINE
  5
884
330
1F
100
AcDbEntity
  8
1
  6
CONTINUOUS
370
50
 62
4
100
AcDbLine
 10
52.979122
 20
-2.747514
 30
0.0
 11
52.795212
 21
-2.740569
 31
0.0
  0
LINE
  5
885
330
1F
100
AcDbEntity
  8
1
  6
CONTINUOUS
370
50
 62
4
100
AcDbLine
 10
51.261208
 20
1.963652
 30
0.0
 11
51.152195
 21
1.96741
 31
0.0
  0
LINE
  5
886
330
1F
100
AcDbEntity
  8
1
  6
CONTINUOUS
370
50
 62
4
100
AcDbLine
 10
51.495419
 20
-2.656834
 30
0.0
 11
51.323353
 21
-2.650926
 31
0.0
  0
LINE
  5
887
330
1F
100
AcDbEntity
  8
1
  6
CONTINUOUS
370
50
 62
4
100
AcDbLine
 10
117.736153
 20
2.737396
 30
0.0
 11
117.240227
 21
2.750148
 31
0.0
  0
LINE
  5
888
330
1F
100
AcDbEntity
  8
1
  6
CONTINUOUS
370
50
 62
4
100
AcDbLine
 10
111.823952
 20
-2.75023
 30
0.0
 11
111.327515
 21
-2.737538
 31
0.0
  0
LINE
  5
889
330
1F
100
AcDbEntity
  8
1
  6
CONTINUOUS
370
50
 62
4
100
AcDbLine
 10
90.14008299999999
 20
-2.750558
 30
0.0
 11
89.64726999999999
 21
-2.737967
 31
0.0
  0
LINE
  5
88A
330
1F
100
AcDbEntity
  8
1
  6
CONTINUOUS
370
50
 62
4
100
AcDbLine
 10
107.24987
 20
-2.750299
 30
0.0
 11
106.758659
 21
-2.737771
 31
0.0
  0
LINE
  5
88B
330
1F
100
AcDbEntity
  8
1
  6
CONTINUOUS
370
50
 62
4
100
AcDbLine
 10
79.306198
 20
-2.750723
 30
0.0
 11
78.814537
 21
-2.73819
 31
0.0
  0
LINE
  5
88C
330
1F
100
AcDbEntity
  8
1
  6
CONTINUOUS
370
50
 62
4
100
AcDbLine
 10
74.379288
 20
2.738332
 30
0.0
 11
73.889198
 21
2.750805
 31
0.0
  0
LINE
  5
88D
330
1F
100
AcDbEntity
  8
1
  6
CONTINUOUS
370
50
 62
4
100
AcDbLine
 10
85.213295
 20
2.738176
 30
0.0
 11
84.72249599999999
 21
2.750641
 31
0.0
  0
LINE
  5
88E
330
1F
100
AcDbEntity
  8
1
  6
CONTINUOUS
370
50
 62
4
100
AcDbLine
 10
85.569206
 20
-2.750628
 30
0.0
 11
85.074615
 21
-2.738087
 31
0.0
  0
LINE
  5
88F
330
1F
100
AcDbEntity
  8
1
  6
CONTINUOUS
370
50
 62
4
100
AcDbLine
 10
122.657234
 20
-2.750066
 30
0.0
 11
122.169502
 21
-2.737715
 31
0.0
  0
LINE
  5
890
330
1F
100
AcDbEntity
  8
1
  6
CONTINUOUS
370
50
 62
4
100
AcDbLine
 10
118.085579
 20
-2.750135
 30
0.0
 11
117.594086
 21
-2.737692
 31
0.0
  0
LINE
  5
891
330
1F
100
AcDbEntity
  8
1
  6
CONTINUOUS
370
50
 62
4
100
AcDbLine
 10
58.930946
 20
2.739428
 30
0.0
 11
58.514889
 21
2.74994
 31
0.0
  0
LINE
  5
892
330
1F
100
AcDbEntity
  8
1
  6
CONTINUOUS
370
50
 62
4
100
AcDbLine
 10
96.414558
 20
-2.750463
 30
0.0
 11
95.916382
 21
-2.737881
 31
0.0
  0
LINE
  5
893
330
1F
100
AcDbEntity
  8
1
  6
CONTINUOUS
370
50
 62
4
100
AcDbLine
 10
69.799339
 20
2.738677
 30
0.0
 11
69.31541399999999
 21
2.750874
 31
0.0
  0
LINE
  5
894
330
1F
100
AcDbEntity
  8
1
  6
CONTINUOUS
370
50
 62
4
100
AcDbLine
 10
102.316887
 20
2.738199
 30
0.0
 11
101.833054
 21
2.750381
 31
0.0
  0
LINE
  5
895
330
1F
100
AcDbEntity
  8
1
  6
CONTINUOUS
370
50
 62
4
100
AcDbLine
 10
80.643196
 20
2.738278
 30
0.0
 11
80.149292
 21
2.75071
 31
0.0
  0
LINE
  5
896
330
1F
100
AcDbEntity
  8
1
  6
CONTINUOUS
370
50
 62
4
100
AcDbLine
 10
106.892372
 20
2.73808
 30
0.0
 11
106.406303
 21
2.750312
 31
0.0
  0
LINE
  5
897
330
1F
100
AcDbEntity
  8
1
  6
CONTINUOUS
370
50
 62
4
100
AcDbLine
 10
91.486595
 20
2.738133
 30
0.0
 11
90.993027
 21
2.750546
 31
0.0
  0
LINE
  5
898
330
1F
100
AcDbEntity
  8
1
  6
CONTINUOUS
370
50
 62
4
100
AcDbLine
 10
63.542576
 20
2.73853
 30
0.0
 11
63.045033
 21
2.750969
 31
0.0
  0
LINE
  5
899
330
1F
100
AcDbEntity
  8
1
  6
CONTINUOUS
370
50
 62
4
100
AcDbLine
 10
100.985023
 20
-2.750394
 30
0.0
 11
100.488838
 21
-2.738048
 31
0.0
  0
LINE
  5
89A
330
1F
100
AcDbEntity
  8
1
  6
CONTINUOUS
370
50
 62
4
100
AcDbLine
 10
96.05542
 20
2.738179
 30
0.0
 11
95.560661
 21
2.750476
 31
0.0
  0
LINE
  5
89B
330
1F
100
AcDbEntity
  8
1
  6
CONTINUOUS
370
50
 62
4
100
AcDbLine
 10
57.608135
 20
-2.75
 30
0.0
 11
57.166431
 21
-2.739239
 31
0.0
  0
LINE
  5
89C
330
1F
100
AcDbEntity
  8
1
  6
CONTINUOUS
370
50
 62
4
100
AcDbLine
 10
127.015289
 20
-0.758826
 30
0.0
 11
126.966774
 21
-0.7577109999999999
 31
0.0
  0
LINE
  5
89D
330
1F
100
AcDbEntity
  8
1
  6
CONTINUOUS
370
50
 62
4
100
AcDbLine
 10
113.104233
 20
2.7404
 30
0.0
 11
112.666725
 21
2.750217
 31
0.0
  0
LINE
  5
89E
330
1F
100
AcDbEntity
  8
1
  6
CONTINUOUS
370
50
 62
4
100
AcDbLine
 10
74.73204799999999
 20
-2.750792
 30
0.0
 11
74.332573
 21
-2.742505
 31
0.0
  0
LINE
  5
89F
330
1F
100
AcDbEntity
  8
1
  6
CONTINUOUS
370
50
 62
4
100
AcDbLine
 10
68.469276
 20
-2.750887
 30
0.0
 11
68.07119
 21
-2.742952
 31
0.0
  0
LINE
  5
8A0
330
1F
100
AcDbEntity
  8
1
  6
CONTINUOUS
370
50
 62
4
100
AcDbLine
 10
51.323353
 20
-2.650926
 30
0.0
 11
51.158115
 21
-2.647866
 31
0.0
  0
LINE
  5
8A1
330
1F
100
AcDbEntity
  8
1
  6
CONTINUOUS
370
50
 62
4
100
AcDbLine
 10
123.829193
 20
2.744892
 30
0.0
 11
123.509033
 21
2.750053
 31
0.0
  0
LINE
  5
8A2
330
1F
100
AcDbEntity
  8
1
  6
CONTINUOUS
370
50
 62
4
100
AcDbLine
 10
52.732941
 20
2.748672
 30
0.0
 11
52.63485
 21
2.750004
 31
0.0
  0
LINE
  5
8A3
330
1F
100
AcDbEntity
  8
1
  6
CONTINUOUS
370
50
 62
4
100
AcDbLine
 10
53.162655
 20
-2.750006
 30
0.0
 11
52.979122
 21
-2.747514
 31
0.0
  0
LINE
  5
8A4
330
1F
100
AcDbEntity
  8
1
  6
CONTINUOUS
370
50
 62
4
100
AcDbLine
 10
63.897614
 20
-2.750956
 30
0.0
 11
63.634159
 21
-2.747409
 31
0.0
  0
LINE
  5
8A5
330
1F
100
AcDbEntity
  8
1
  6
CONTINUOUS
370
50
 62
4
100
AcDbLine
 10
49.925743
 20
-2.74999
 30
0.0
 11
49.925297
 21
-2.749986
 31
0.0
  0
LINE
  5
8A6
330
1F
100
AcDbEntity
  8
1
  6
CONTINUOUS
370
50
 62
4
100
AcDbLine
 10
51.152195
 20
1.96741
 30
0.0
 11
51.046383
 21
1.967828
 31
0.0
  0
LINE
  5
8A7
330
1F
100
AcDbEntity
  8
1
  6
CONTINUOUS
370
50
 62
4
100
AcDbLine
 10
51.158115
 20
-2.647866
 30
0.0
 11
51.000103
 21
-2.647858
 31
0.0
  0
LINE
  5
8A8
330
1F
100
AcDbEntity
  8
1
  6
CONTINUOUS
370
50
 62
4
100
AcDbLine
 10
63.045033
 20
2.750969
 30
0.0
 11
61.0
 21
2.751
 31
0.0
  0
LINE
  5
8A9
330
1F
100
AcDbEntity
  8
1
  6
CONTINUOUS
370
50
 62
4
100
AcDbLine
 10
95.560661
 20
2.750476
 30
0.0
 11
90.993027
 21
2.750546
 31
0.0
  0
LINE
  5
8AA
330
1F
100
AcDbEntity
  8
1
  6
CONTINUOUS
370
50
 62
4
100
AcDbLine
 10
126.973854
 20
2.75
 30
0.0
 11
123.509033
 21
2.750053
 31
0.0
  0
LINE
  5
8AB
330
1F
100
AcDbEntity
  8
1
  6
CONTINUOUS
370
50
 62
4
100
AcDbLine
 10
84.72249599999999
 20
2.750641
 30
0.0
 11
80.149292
 21
2.75071
 31
0.0
  0
LINE
  5
8AC
330
1F
100
AcDbEntity
  8
1
  6
CONTINUOUS
370
50
 62
4
100
AcDbLine
 10
117.240227
 20
2.750148
 30
0.0
 11
112.666725
 21
2.750217
 31
0.0
  0
LINE
  5
8AD
330
1F
100
AcDbEntity
  8
1
  6
CONTINUOUS
370
50
 62
4
100
AcDbLine
 10
73.889198
 20
2.750805
 30
0.0
 11
69.31541399999999
 21
2.750874
 31
0.0
  0
LINE
  5
8AE
330
1F
100
AcDbEntity
  8
1
  6
CONTINUOUS
370
50
 62
4
100
AcDbLine
 10
106.406303
 20
2.750312
 30
0.0
 11
101.833054
 21
2.750381
 31
0.0
  0
LINE
  5
8AF
330
1F
100
AcDbEntity
  8
1
  6
CONTINUOUS
370
50
 62
4
100
AcDbLine
 10
53.160805
 20
-2.75
 30
0.0
 11
57.623165
 21
-2.75
 31
0.0
  0
LINE
  5
8B0
330
1F
100
AcDbEntity
  8
1
  6
CONTINUOUS
370
50
 62
4
100
AcDbLine
 10
48.0
 20
-2.75
 30
0.0
 11
49.925541
 21
-2.75
 31
0.0
  0
LINE
  5
8B1
330
1F
100
AcDbEntity
  8
1
  6
CONTINUOUS
370
50
 62
4
100
AcDbLine
 10
58.476055
 20
2.75
 30
0.0
 11
60.999134
 21
2.75
 31
0.0
  0
LINE
  5
8B2
330
1F
100
AcDbEntity
  8
1
  6
CONTINUOUS
370
50
 62
4
100
AcDbLine
 10
48.0
 20
2.75
 30
0.0
 11
52.636574
 21
2.75
 31
0.0
  0
LINE
  5
8B3
330
1F
100
AcDbEntity
  8
1
  6
CONTINUOUS
370
50
 62
4
100
AcDbLine
 10
74.73204799999999
 20
-2.750792
 30
0.0
 11
79.306198
 21
-2.750723
 31
0.0
  0
LINE
  5
8B4
330
1F
100
AcDbEntity
  8
1
  6
CONTINUOUS
370
50
 62
4
100
AcDbLine
 10
107.24987
 20
-2.750299
 30
0.0
 11
111.823952
 21
-2.75023
 31
0.0
  0
LINE
  5
8B5
330
1F
100
AcDbEntity
  8
1
  6
CONTINUOUS
370
50
 62
4
100
AcDbLine
 10
63.897614
 20
-2.750956
 30
0.0
 11
68.469276
 21
-2.750887
 31
0.0
  0
LINE
  5
8B6
330
1F
100
AcDbEntity
  8
1
  6
CONTINUOUS
370
50
 62
4
100
AcDbLine
 10
96.414558
 20
-2.750463
 30
0.0
 11
100.985023
 21
-2.750394
 31
0.0
  0
LINE
  5
8B7
330
1F
100
AcDbEntity
  8
1
  6
CONTINUOUS
370
50
 62
4
100
AcDbLine
 10
85.569206
 20
-2.750628
 30
0.0
 11
90.14008299999999
 21
-2.750558
 31
0.0
  0
LINE
  5
8B8
330
1F
100
AcDbEntity
  8
1
  6
CONTINUOUS
370
50
 62
4
100
AcDbLine
 10
118.085579
 20
-2.750135
 30
0.0
 11
122.657234
 21
-2.750066
 31
0.0
  0
LINE
  5
8B9
330
1F
100
AcDbEntity
  8
1
  6
CONTINUOUS
370
50
 62
4
100
AcDbLine
 10
58.05809799999999
 20
2.741274
 30
0.0
 11
58.514889
 21
2.74994
 31
0.0
  0
LINE
  5
8BA
330
1F
100
AcDbEntity
  8
1
  6
CONTINUOUS
370
50
 62
4
100
AcDbLine
 10
50.85025
 20
-2.650756
 30
0.0
 11
51.000103
 21
-2.647858
 31
0.0
  0
LINE
  5
8BB
330
1F
100
AcDbEntity
  8
1
  6
CONTINUOUS
370
50
 62
4
100
AcDbLine
 10
122.657234
 20
-2.750066
 30
0.0
 11
123.048134
 21
-2.742239
 31
0.0
  0
LINE
  5
8BC
330
1F
100
AcDbEntity
  8
1
  6
CONTINUOUS
370
50
 62
4
100
AcDbLine
 10
57.608135
 20
-2.75
 30
0.0
 11
58.06337
 21
-2.740284
 31
0.0
  0
LINE
  5
8BD
330
1F
100
AcDbEntity
  8
1
  6
CONTINUOUS
370
50
 62
4
100
AcDbLine
 10
90.46625499999999
 20
2.736581
 30
0.0
 11
90.993027
 21
2.750546
 31
0.0
  0
LINE
  5
8BE
330
1F
100
AcDbEntity
  8
1
  6
CONTINUOUS
370
50
 62
4
100
AcDbLine
 10
122.982239
 20
2.736046
 30
0.0
 11
123.509033
 21
2.750053
 31
0.0
  0
LINE
  5
8BF
330
1F
100
AcDbEntity
  8
1
  6
CONTINUOUS
370
50
 62
4
100
AcDbLine
 10
68.469276
 20
-2.750887
 30
0.0
 11
68.98877
 21
-2.737044
 31
0.0
  0
LINE
  5
8C0
330
1F
100
AcDbEntity
  8
1
  6
CONTINUOUS
370
50
 62
4
100
AcDbLine
 10
90.14008299999999
 20
-2.750558
 30
0.0
 11
90.665039
 21
-2.736569
 31
0.0
  0
LINE
  5
8C1
330
1F
100
AcDbEntity
  8
1
  6
CONTINUOUS
370
50
 62
4
100
AcDbLine
 10
100.985023
 20
-2.750394
 30
0.0
 11
101.510536
 21
-2.736304
 31
0.0
  0
LINE
  5
8C2
330
1F
100
AcDbEntity
  8
1
  6
CONTINUOUS
370
50
 62
4
100
AcDbLine
 10
68.79525
 20
2.73691
 30
0.0
 11
69.31541399999999
 21
2.750874
 31
0.0
  0
LINE
  5
8C3
330
1F
100
AcDbEntity
  8
1
  6
CONTINUOUS
370
50
 62
4
100
AcDbLine
 10
101.310272
 20
2.73633
 30
0.0
 11
101.833054
 21
2.750381
 31
0.0
  0
LINE
  5
8C4
330
1F
100
AcDbEntity
  8
1
  6
CONTINUOUS
370
50
 62
4
100
AcDbLine
 10
79.62913499999999
 20
2.736685
 30
0.0
 11
80.149292
 21
2.75071
 31
0.0
  0
LINE
  5
8C5
330
1F
100
AcDbEntity
  8
1
  6
CONTINUOUS
370
50
 62
4
100
AcDbLine
 10
112.147636
 20
2.736219
 30
0.0
 11
112.666725
 21
2.750217
 31
0.0
  0
LINE
  5
8C6
330
1F
100
AcDbEntity
  8
1
  6
CONTINUOUS
370
50
 62
4
100
AcDbLine
 10
50.944008
 20
1.965065
 30
0.0
 11
51.046383
 21
1.967828
 31
0.0
  0
LINE
  5
8C7
330
1F
100
AcDbEntity
  8
1
  6
CONTINUOUS
370
50
 62
4
100
AcDbLine
 10
111.823952
 20
-2.75023
 30
0.0
 11
112.344505
 21
-2.736106
 31
0.0
  0
LINE
  5
8C8
330
1F
100
AcDbEntity
  8
1
  6
CONTINUOUS
370
50
 62
4
100
AcDbLine
 10
79.306198
 20
-2.750723
 30
0.0
 11
79.828064
 21
-2.736545
 31
0.0
  0
LINE
  5
8C9
330
1F
100
AcDbEntity
  8
1
  6
CONTINUOUS
370
50
 62
4
100
AcDbLine
 10
50.709404
 20
-2.656133
 30
0.0
 11
50.85025
 21
-2.650756
 31
0.0
  0
LINE
  5
8CA
330
1F
100
AcDbEntity
  8
1
  6
CONTINUOUS
370
50
 62
4
100
AcDbLine
 10
127.681831
 20
0.446592
 30
0.0
 11
127.69783
 21
0.447315
 31
0.0
  0
LINE
  5
8CB
330
1F
100
AcDbEntity
  8
1
  6
CONTINUOUS
370
50
 62
4
100
AcDbLine
 10
50.578186
 20
-2.663606
 30
0.0
 11
50.709404
 21
-2.656133
 31
0.0
  0
LINE
  5
8CC
330
1F
100
AcDbEntity
  8
1
  6
CONTINUOUS
370
50
 62
4
100
AcDbLine
 10
123.048134
 20
-2.742239
 30
0.0
 11
123.44236
 21
-2.718856
 31
0.0
  0
LINE
  5
8CD
330
1F
100
AcDbEntity
  8
1
  6
CONTINUOUS
370
50
 62
4
100
AcDbLine
 10
50.84544
 20
1.959166
 30
0.0
 11
50.944008
 21
1.965065
 31
0.0
  0
LINE
  5
8CE
330
1F
100
AcDbEntity
  8
1
  6
CONTINUOUS
370
50
 62
4
100
AcDbLine
 10
57.603447
 20
2.7116
 30
0.0
 11
58.05809799999999
 21
2.741274
 31
0.0
  0
LINE
  5
8CF
330
1F
100
AcDbEntity
  8
1
  6
CONTINUOUS
370
50
 62
4
100
AcDbLine
 10
58.06337
 20
-2.740284
 30
0.0
 11
58.517937
 21
-2.709759
 31
0.0
  0
LINE
  5
8D0
330
1F
100
AcDbEntity
  8
1
  6
CONTINUOUS
370
50
 62
4
100
AcDbLine
 10
50.457207
 20
-2.672795
 30
0.0
 11
50.578186
 21
-2.663606
 31
0.0
  0
LINE
  5
8D1
330
1F
100
AcDbEntity
  8
1
  6
CONTINUOUS
370
50
 62
4
100
AcDbLine
 10
68.270134
 20
2.6952
 30
0.0
 11
68.79525
 21
2.73691
 31
0.0
  0
LINE
  5
8D2
330
1F
100
AcDbEntity
  8
1
  6
CONTINUOUS
370
50
 62
4
100
AcDbLine
 10
100.783401
 20
2.694468
 30
0.0
 11
101.310272
 21
2.73633
 31
0.0
  0
LINE
  5
8D3
330
1F
100
AcDbEntity
  8
1
  6
CONTINUOUS
370
50
 62
4
100
AcDbLine
 10
90.665039
 20
-2.736569
 30
0.0
 11
91.19131499999999
 21
-2.694683
 31
0.0
  0
LINE
  5
8D4
330
1F
100
AcDbEntity
  8
1
  6
CONTINUOUS
370
50
 62
4
100
AcDbLine
 10
68.98877
 20
-2.737044
 30
0.0
 11
69.504372
 21
-2.695647
 31
0.0
  0
LINE
  5
8D5
330
1F
100
AcDbEntity
  8
1
  6
CONTINUOUS
370
50
 62
4
100
AcDbLine
 10
89.94341299999999
 20
2.694566
 30
0.0
 11
90.46625499999999
 21
2.736581
 31
0.0
  0
LINE
  5
8D6
330
1F
100
AcDbEntity
  8
1
  6
CONTINUOUS
370
50
 62
4
100
AcDbLine
 10
122.460091
 20
2.694003
 30
0.0
 11
122.982239
 21
2.736046
 31
0.0
  0
LINE
  5
8D7
330
1F
100
AcDbEntity
  8
1
  6
CONTINUOUS
370
50
 62
4
100
AcDbLine
 10
111.627632
 20
2.694326
 30
0.0
 11
112.147636
 21
2.736219
 31
0.0
  0
LINE
  5
8D8
330
1F
100
AcDbEntity
  8
1
  6
CONTINUOUS
370
50
 62
4
100
AcDbLine
 10
79.110214
 20
2.694811
 30
0.0
 11
79.62913499999999
 21
2.736685
 31
0.0
  0
LINE
  5
8D9
330
1F
100
AcDbEntity
  8
1
  6
CONTINUOUS
370
50
 62
4
100
AcDbLine
 10
79.828064
 20
-2.736545
 30
0.0
 11
80.350662
 21
-2.694373
 31
0.0
  0
LINE
  5
8DA
330
1F
100
AcDbEntity
  8
1
  6
CONTINUOUS
370
50
 62
4
100
AcDbLine
 10
112.344505
 20
-2.736106
 30
0.0
 11
112.866478
 21
-2.693962
 31
0.0
  0
LINE
  5
8DB
330
1F
100
AcDbEntity
  8
1
  6
CONTINUOUS
370
50
 62
4
100
AcDbLine
 10
101.510536
 20
-2.736304
 30
0.0
 11
102.030518
 21
-2.694268
 31
0.0
  0
LINE
  5
8DC
330
1F
100
AcDbEntity
  8
1
  6
CONTINUOUS
370
50
 62
4
100
AcDbLine
 10
50.75087
 20
1.950209
 30
0.0
 11
50.84544
 21
1.959166
 31
0.0
  0
LINE
  5
8DD
330
1F
100
AcDbEntity
  8
1
  6
CONTINUOUS
370
50
 62
4
100
AcDbLine
 10
50.342869
 20
-2.683722
 30
0.0
 11
50.457207
 21
-2.672795
 31
0.0
  0
LINE
  5
8DE
330
1F
100
AcDbEntity
  8
1
  6
CONTINUOUS
370
50
 62
4
100
AcDbLine
 10
123.44236
 20
-2.718856
 30
0.0
 11
123.836693
 21
-2.679924
 31
0.0
  0
LINE
  5
8DF
330
1F
100
AcDbEntity
  8
1
  6
CONTINUOUS
370
50
 62
4
100
AcDbLine
 10
57.151203
 20
2.660945
 30
0.0
 11
57.603447
 21
2.7116
 31
0.0
  0
LINE
  5
8E0
330
1F
100
AcDbEntity
  8
1
  6
CONTINUOUS
370
50
 62
4
100
AcDbLine
 10
58.517937
 20
-2.709759
 30
0.0
 11
58.968384
 21
-2.65871
 31
0.0
  0
LINE
  5
8E1
330
1F
100
AcDbEntity
  8
1
  6
CONTINUOUS
370
50
 62
4
100
AcDbLine
 10
50.234482
 20
-2.696206
 30
0.0
 11
50.342869
 21
-2.683722
 31
0.0
  0
LINE
  5
8E2
330
1F
100
AcDbEntity
  8
1
  6
CONTINUOUS
370
50
 62
4
100
AcDbLine
 10
49.925743
 20
-2.74999
 30
0.0
 11
49.932327
 21
-2.749223
 31
0.0
  0
LINE
  5
8E3
330
1F
100
AcDbEntity
  8
1
  6
CONTINUOUS
370
50
 62
4
100
AcDbLine
 10
125.760262
 20
1.091419
 30
0.0
 11
125.835564
 21
1.100607
 31
0.0
  0
LINE
  5
8E4
330
1F
100
AcDbEntity
  8
1
  6
CONTINUOUS
370
50
 62
4
100
AcDbLine
 10
67.74629999999999
 20
2.626267
 30
0.0
 11
68.270134
 21
2.6952
 31
0.0
  0
LINE
  5
8E5
330
1F
100
AcDbEntity
  8
1
  6
CONTINUOUS
370
50
 62
4
100
AcDbLine
 10
80.350662
 20
-2.694373
 30
0.0
 11
80.876823
 21
-2.6251
 31
0.0
  0
LINE
  5
8E6
330
1F
100
AcDbEntity
  8
1
  6
CONTINUOUS
370
50
 62
4
100
AcDbLine
 10
112.866478
 20
-2.693962
 30
0.0
 11
113.392616
 21
-2.624605
 31
0.0
  0
LINE
  5
8E7
330
1F
100
AcDbEntity
  8
1
  6
CONTINUOUS
370
50
 62
4
100
AcDbLine
 10
111.103088
 20
2.625076
 30
0.0
 11
111.627632
 21
2.694326
 31
0.0
  0
LINE
  5
8E8
330
1F
100
AcDbEntity
  8
1
  6
CONTINUOUS
370
50
 62
4
100
AcDbLine
 10
50.660484
 20
1.938273
 30
0.0
 11
50.75087
 21
1.950209
 31
0.0
  0
LINE
  5
8E9
330
1F
100
AcDbEntity
  8
1
  6
CONTINUOUS
370
50
 62
4
100
AcDbLine
 10
100.259926
 20
2.625268
 30
0.0
 11
100.783401
 21
2.694468
 31
0.0
  0
LINE
  5
8EA
330
1F
100
AcDbEntity
  8
1
  6
CONTINUOUS
370
50
 62
4
100
AcDbLine
 10
78.587227
 20
2.625459
 30
0.0
 11
79.110214
 21
2.694811
 31
0.0
  0
LINE
  5
8EB
330
1F
100
AcDbEntity
  8
1
  6
CONTINUOUS
370
50
 62
4
100
AcDbLine
 10
91.19131499999999
 20
-2.694683
 30
0.0
 11
91.715462
 21
-2.625067
 31
0.0
  0
LINE
  5
8EC
330
1F
100
AcDbEntity
  8
1
  6
CONTINUOUS
370
50
 62
4
100
AcDbLine
 10
69.504372
 20
-2.695647
 30
0.0
 11
70.022072
 21
-2.626878
 31
0.0
  0
LINE
  5
8ED
330
1F
100
AcDbEntity
  8
1
  6
CONTINUOUS
370
50
 62
4
100
AcDbLine
 10
121.940804
 20
2.624551
 30
0.0
 11
122.460091
 21
2.694003
 31
0.0
  0
LINE
  5
8EE
330
1F
100
AcDbEntity
  8
1
  6
CONTINUOUS
370
50
 62
4
100
AcDbLine
 10
102.030518
 20
-2.694268
 30
0.0
 11
102.549347
 21
-2.624828
 31
0.0
  0
LINE
  5
8EF
330
1F
100
AcDbEntity
  8
1
  6
CONTINUOUS
370
50
 62
4
100
AcDbLine
 10
89.421539
 20
2.624718
 30
0.0
 11
89.94341299999999
 21
2.694566
 31
0.0
  0
LINE
  5
8F0
330
1F
100
AcDbEntity
  8
1
  6
CONTINUOUS
370
50
 62
4
100
AcDbLine
 10
125.835564
 20
1.100607
 30
0.0
 11
125.910378
 21
1.110739
 31
0.0
  0
LINE
  5
8F1
330
1F
100
AcDbEntity
  8
1
  6
CONTINUOUS
370
50
 62
4
100
AcDbLine
 10
50.135693
 20
-2.70967
 30
0.0
 11
50.234482
 21
-2.696206
 31
0.0
  0
LINE
  5
8F2
330
1F
100
AcDbEntity
  8
1
  6
CONTINUOUS
370
50
 62
4
100
AcDbLine
 10
123.836693
 20
-2.679924
 30
0.0
 11
124.228241
 21
-2.625511
 31
0.0
  0
LINE
  5
8F3
330
1F
100
AcDbEntity
  8
1
  6
CONTINUOUS
370
50
 62
4
100
AcDbLine
 10
125.910378
 20
1.110739
 30
0.0
 11
125.984535
 21
1.121796
 31
0.0
  0
LINE
  5
8F4
330
1F
100
AcDbEntity
  8
1
  6
CONTINUOUS
370
50
 62
4
100
AcDbLine
 10
56.699661
 20
2.589682
 30
0.0
 11
57.151203
 21
2.660945
 31
0.0
  0
LINE
  5
8F5
330
1F
100
AcDbEntity
  8
1
  6
CONTINUOUS
370
50
 62
4
100
AcDbLine
 10
58.968384
 20
-2.65871
 30
0.0
 11
59.41434899999999
 21
-2.587823
 31
0.0
  0
LINE
  5
8F6
330
1F
100
AcDbEntity
  8
1
  6
CONTINUOUS
370
50
 62
4
100
AcDbLine
 10
50.050396
 20
-2.723253
 30
0.0
 11
50.135693
 21
-2.70967
 31
0.0
  0
LINE
  5
8F7
330
1F
100
AcDbEntity
  8
1
  6
CONTINUOUS
370
50
 62
4
100
AcDbLine
 10
125.984535
 20
1.121796
 30
0.0
 11
126.057869
 21
1.133836
 31
0.0
  0
LINE
  5
8F8
330
1F
100
AcDbEntity
  8
1
  6
CONTINUOUS
370
50
 62
4
100
AcDbLine
 10
50.574459
 20
1.923435
 30
0.0
 11
50.660484
 21
1.938273
 31
0.0
  0
LINE
  5
8F9
330
1F
100
AcDbEntity
  8
1
  6
CONTINUOUS
370
50
 62
4
100
AcDbLine
 10
49.932327
 20
-2.749223
 30
0.0
 11
49.944443
 21
-2.74707
 31
0.0
  0
LINE
  5
8FA
330
1F
100
AcDbEntity
  8
1
  6
CONTINUOUS
370
50
 62
4
100
AcDbLine
 10
124.228241
 20
-2.625511
 30
0.0
 11
124.617142
 21
-2.55606
 31
0.0
  0
LINE
  5
8FB
330
1F
100
AcDbEntity
  8
1
  6
CONTINUOUS
370
50
 62
4
100
AcDbLine
 10
126.057869
 20
1.133836
 30
0.0
 11
126.130188
 21
1.146917
 31
0.0
  0
LINE
  5
8FC
330
1F
100
AcDbEntity
  8
1
  6
CONTINUOUS
370
50
 62
4
100
AcDbLine
 10
78.060959
 20
2.529678
 30
0.0
 11
78.587227
 21
2.625459
 31
0.0
  0
LINE
  5
8FD
330
1F
100
AcDbEntity
  8
1
  6
CONTINUOUS
370
50
 62
4
100
AcDbLine
 10
110.577301
 20
2.529195
 30
0.0
 11
111.103088
 21
2.625076
 31
0.0
  0
LINE
  5
8FE
330
1F
100
AcDbEntity
  8
1
  6
CONTINUOUS
370
50
 62
4
100
AcDbLine
 10
70.022072
 20
-2.626878
 30
0.0
 11
70.54702
 21
-2.531073
 31
0.0
  0
LINE
  5
8FF
330
1F
100
AcDbEntity
  8
1
  6
CONTINUOUS
370
50
 62
4
100
AcDbLine
 10
113.392616
 20
-2.624605
 30
0.0
 11
113.917671
 21
-2.528567
 31
0.0
  0
LINE
  5
900
330
1F
100
AcDbEntity
  8
1
  6
CONTINUOUS
370
50
 62
4
100
AcDbLine
 10
80.876823
 20
-2.6251
 30
0.0
 11
81.398575
 21
-2.529469
 31
0.0
  0
LINE
  5
901
330
1F
100
AcDbEntity
  8
1
  6
CONTINUOUS
370
50
 62
4
100
AcDbLine
 10
102.549347
 20
-2.624828
 30
0.0
 11
103.072823
 21
-2.528538
 31
0.0
  0
LINE
  5
902
330
1F
100
AcDbEntity
  8
1
  6
CONTINUOUS
370
50
 62
4
100
AcDbLine
 10
67.22599799999999
 20
2.530367
 30
0.0
 11
67.74629999999999
 21
2.626267
 31
0.0
  0
LINE
  5
903
330
1F
100
AcDbEntity
  8
1
  6
CONTINUOUS
370
50
 62
4
100
AcDbLine
 10
121.418938
 20
2.528287
 30
0.0
 11
121.940804
 21
2.624551
 31
0.0
  0
LINE
  5
904
330
1F
100
AcDbEntity
  8
1
  6
CONTINUOUS
370
50
 62
4
100
AcDbLine
 10
49.983639
 20
-2.735585
 30
0.0
 11
50.050396
 21
-2.723253
 31
0.0
  0
LINE
  5
905
330
1F
100
AcDbEntity
  8
1
  6
CONTINUOUS
370
50
 62
4
100
AcDbLine
 10
99.741653
 20
2.529527
 30
0.0
 11
100.259926
 21
2.625268
 31
0.0
  0
LINE
  5
906
330
1F
100
AcDbEntity
  8
1
  6
CONTINUOUS
370
50
 62
4
100
AcDbLine
 10
88.900742
 20
2.528433
 30
0.0
 11
89.421539
 21
2.624718
 31
0.0
  0
LINE
  5
907
330
1F
100
AcDbEntity
  8
1
  6
CONTINUOUS
370
50
 62
4
100
AcDbLine
 10
91.715462
 20
-2.625067
 30
0.0
 11
92.235146
 21
-2.528682
 31
0.0
  0
LINE
  5
908
330
1F
100
AcDbEntity
  8
1
  6
CONTINUOUS
370
50
 62
4
100
AcDbLine
 10
127.015289
 20
-0.758826
 30
0.0
 11
127.056152
 21
-0.750929
 31
0.0
  0
LINE
  5
909
330
1F
100
AcDbEntity
  8
1
  6
CONTINUOUS
370
50
 62
4
100
AcDbLine
 10
126.130188
 20
1.146917
 30
0.0
 11
126.201324
 21
1.161098
 31
0.0
  0
LINE
  5
90A
330
1F
100
AcDbEntity
  8
1
  6
CONTINUOUS
370
50
 62
4
100
AcDbLine
 10
56.249119
 20
2.498907
 30
0.0
 11
56.699661
 21
2.589682
 31
0.0
  0
LINE
  5
90B
330
1F
100
AcDbEntity
  8
1
  6
CONTINUOUS
370
50
 62
4
100
AcDbLine
 10
59.41434899999999
 20
-2.587823
 30
0.0
 11
59.85938299999999
 21
-2.497653
 31
0.0
  0
LINE
  5
90C
330
1F
100
AcDbEntity
  8
1
  6
CONTINUOUS
370
50
 62
4
100
AcDbLine
 10
49.944443
 20
-2.74707
 30
0.0
 11
49.961445
 21
-2.743578
 31
0.0
  0
LINE
  5
90D
330
1F
100
AcDbEntity
  8
1
  6
CONTINUOUS
370
50
 62
4
100
AcDbLine
 10
124.617142
 20
-2.55606
 30
0.0
 11
125.005852
 21
-2.471874
 31
0.0
  0
LINE
  5
90E
330
1F
100
AcDbEntity
  8
1
  6
CONTINUOUS
370
50
 62
4
100
AcDbLine
 10
50.492985
 20
1.905775
 30
0.0
 11
50.574459
 21
1.923435
 31
0.0
  0
LINE
  5
90F
330
1F
100
AcDbEntity
  8
1
  6
CONTINUOUS
370
50
 62
4
100
AcDbLine
 10
49.941086
 20
-2.744848
 30
0.0
 11
49.983639
 21
-2.735585
 31
0.0
  0
LINE
  5
910
330
1F
100
AcDbEntity
  8
1
  6
CONTINUOUS
370
50
 62
4
100
AcDbLine
 10
126.201324
 20
1.161098
 30
0.0
 11
126.271103
 21
1.176437
 31
0.0
  0
LINE
  5
911
330
1F
100
AcDbEntity
  8
1
  6
CONTINUOUS
370
50
 62
4
100
AcDbLine
 10
49.961445
 20
-2.743578
 30
0.0
 11
49.982731
 21
-2.73885
 31
0.0
  0
LINE
  5
912
330
1F
100
AcDbEntity
  8
1
  6
CONTINUOUS
370
50
 62
4
100
AcDbLine
 10
70.54702
 20
-2.531073
 30
0.0
 11
71.07607999999999
 21
-2.409167
 31
0.0
  0
LINE
  5
913
330
1F
100
AcDbEntity
  8
1
  6
CONTINUOUS
370
50
 62
4
100
AcDbLine
 10
103.072823
 20
-2.528538
 30
0.0
 11
103.599007
 21
-2.407148
 31
0.0
  0
LINE
  5
914
330
1F
100
AcDbEntity
  8
1
  6
CONTINUOUS
370
50
 62
4
100
AcDbLine
 10
120.893608
 20
2.406812
 30
0.0
 11
121.418938
 21
2.528287
 31
0.0
  0
LINE
  5
915
330
1F
100
AcDbEntity
  8
1
  6
CONTINUOUS
370
50
 62
4
100
AcDbLine
 10
88.377258
 20
2.406965
 30
0.0
 11
88.900742
 21
2.528433
 31
0.0
  0
LINE
  5
916
330
1F
100
AcDbEntity
  8
1
  6
CONTINUOUS
370
50
 62
4
100
AcDbLine
 10
77.538528
 20
2.407984
 30
0.0
 11
78.060959
 21
2.529678
 31
0.0
  0
LINE
  5
917
330
1F
100
AcDbEntity
  8
1
  6
CONTINUOUS
370
50
 62
4
100
AcDbLine
 10
110.055008
 20
2.407288
 30
0.0
 11
110.577301
 21
2.529195
 31
0.0
  0
LINE
  5
918
330
1F
100
AcDbEntity
  8
1
  6
CONTINUOUS
370
50
 62
4
100
AcDbLine
 10
113.917671
 20
-2.528567
 30
0.0
 11
114.436722
 21
-2.406936
 31
0.0
  0
LINE
  5
919
330
1F
100
AcDbEntity
  8
1
  6
CONTINUOUS
370
50
 62
4
100
AcDbLine
 10
92.235146
 20
-2.528682
 30
0.0
 11
92.754089
 21
-2.407074
 31
0.0
  0
LINE
  5
91A
330
1F
100
AcDbEntity
  8
1
  6
CONTINUOUS
370
50
 62
4
100
AcDbLine
 10
99.223289
 20
2.407977
 30
0.0
 11
99.741653
 21
2.529527
 31
0.0
  0
LINE
  5
91B
330
1F
100
AcDbEntity
  8
1
  6
CONTINUOUS
370
50
 62
4
100
AcDbLine
 10
66.70474999999999
 20
2.408113
 30
0.0
 11
67.22599799999999
 21
2.530367
 31
0.0
  0
LINE
  5
91C
330
1F
100
AcDbEntity
  8
1
  6
CONTINUOUS
370
50
 62
4
100
AcDbLine
 10
81.398575
 20
-2.529469
 30
0.0
 11
81.916237
 21
-2.408041
 31
0.0
  0
LINE
  5
91D
330
1F
100
AcDbEntity
  8
1
  6
CONTINUOUS
370
50
 62
4
100
AcDbLine
 10
49.982731
 20
-2.73885
 30
0.0
 11
50.007698
 21
-2.732987
 31
0.0
  0
LINE
  5
91E
330
1F
100
AcDbEntity
  8
1
  6
CONTINUOUS
370
50
 62
4
100
AcDbLine
 10
60.99927899999999
 20
2.429666
 30
0.0
 11
60.999424
 21
2.429701
 31
0.0
  0
LINE
  5
91F
330
1F
100
AcDbEntity
  8
1
  6
CONTINUOUS
370
50
 62
4
100
AcDbLine
 10
60.999565
 20
2.429737
 30
0.0
 11
60.99971
 21
2.429772
 31
0.0
  0
LINE
  5
920
330
1F
100
AcDbEntity
  8
1
  6
CONTINUOUS
370
50
 62
4
100
AcDbLine
 10
55.796646
 20
2.389344
 30
0.0
 11
56.249119
 21
2.498907
 31
0.0
  0
LINE
  5
921
330
1F
100
AcDbEntity
  8
1
  6
CONTINUOUS
370
50
 62
4
100
AcDbLine
 10
126.271103
 20
1.176437
 30
0.0
 11
126.33934
 21
1.192993
 31
0.0
  0
LINE
  5
922
330
1F
100
AcDbEntity
  8
1
  6
CONTINUOUS
370
50
 62
4
100
AcDbLine
 10
59.85938299999999
 20
-2.497653
 30
0.0
 11
60.307209
 21
-2.388733
 31
0.0
  0
LINE
  5
923
330
1F
100
AcDbEntity
  8
1
  6
CONTINUOUS
370
50
 62
4
100
AcDbLine
 10
50.007698
 20
-2.732987
 30
0.0
 11
50.035751
 21
-2.72609
 31
0.0
  0
LINE
  5
924
330
1F
100
AcDbEntity
  8
1
  6
CONTINUOUS
370
50
 62
4
100
AcDbLine
 10
60.999134
 20
2.42963
 30
0.0
 11
60.99927899999999
 21
2.429666
 31
0.0
  0
LINE
  5
925
330
1F
100
AcDbEntity
  8
1
  6
CONTINUOUS
370
50
 62
4
100
AcDbLine
 10
60.99971
 20
2.429772
 30
0.0
 11
61.0
 21
2.429844
 31
0.0
  0
LINE
  5
926
330
1F
100
AcDbEntity
  8
1
  6
CONTINUOUS
370
50
 62
4
100
AcDbLine
 10
125.005852
 20
-2.471874
 30
0.0
 11
125.396896
 21
-2.373247
 31
0.0
  0
LINE
  5
927
330
1F
100
AcDbEntity
  8
1
  6
CONTINUOUS
370
50
 62
4
100
AcDbLine
 10
60.999424
 20
2.429701
 30
0.0
 11
60.999565
 21
2.429737
 31
0.0
  0
LINE
  5
928
330
1F
100
AcDbEntity
  8
1
  6
CONTINUOUS
370
50
 62
4
100
AcDbLine
 10
50.41553099999999
 20
1.88516
 30
0.0
 11
50.492985
 21
1.905775
 31
0.0
  0
LINE
  5
929
330
1F
100
AcDbEntity
  8
1
  6
CONTINUOUS
370
50
 62
4
100
AcDbLine
 10
126.33934
 20
1.192993
 30
0.0
 11
126.405861
 21
1.210822
 31
0.0
  0
LINE
  5
92A
330
1F
100
AcDbEntity
  8
1
  6
CONTINUOUS
370
50
 62
4
100
AcDbLine
 10
87.854439
 20
2.261597
 30
0.0
 11
88.377258
 21
2.406965
 31
0.0
  0
LINE
  5
92B
330
1F
100
AcDbEntity
  8
1
  6
CONTINUOUS
370
50
 62
4
100
AcDbLine
 10
92.754089
 20
-2.407074
 30
0.0
 11
93.276924
 21
-2.261651
 31
0.0
  0
LINE
  5
92C
330
1F
100
AcDbEntity
  8
1
  6
CONTINUOUS
370
50
 62
4
100
AcDbLine
 10
120.37133
 20
2.261126
 30
0.0
 11
120.893608
 21
2.406812
 31
0.0
  0
LINE
  5
92D
330
1F
100
AcDbEntity
  8
1
  6
CONTINUOUS
370
50
 62
4
100
AcDbLine
 10
103.599007
 20
-2.407148
 30
0.0
 11
104.119713
 21
-2.261419
 31
0.0
  0
LINE
  5
92E
330
1F
100
AcDbEntity
  8
1
  6
CONTINUOUS
370
50
 62
4
100
AcDbLine
 10
98.699478
 20
2.261375
 30
0.0
 11
99.223289
 21
2.407977
 31
0.0
  0
LINE
  5
92F
330
1F
100
AcDbEntity
  8
1
  6
CONTINUOUS
370
50
 62
4
100
AcDbLine
 10
71.07607999999999
 20
-2.409167
 30
0.0
 11
71.602341
 21
-2.261757
 31
0.0
  0
LINE
  5
930
330
1F
100
AcDbEntity
  8
1
  6
CONTINUOUS
370
50
 62
4
100
AcDbLine
 10
60.307209
 20
-2.388733
 30
0.0
 11
60.761444
 21
-2.261466
 31
0.0
  0
LINE
  5
931
330
1F
100
AcDbEntity
  8
1
  6
CONTINUOUS
370
50
 62
4
100
AcDbLine
 10
66.183716
 20
2.262
 30
0.0
 11
66.70474999999999
 21
2.408113
 31
0.0
  0
LINE
  5
932
330
1F
100
AcDbEntity
  8
1
  6
CONTINUOUS
370
50
 62
4
100
AcDbLine
 10
55.341454
 20
2.261576
 30
0.0
 11
55.796646
 21
2.389344
 31
0.0
  0
LINE
  5
933
330
1F
100
AcDbEntity
  8
1
  6
CONTINUOUS
370
50
 62
4
100
AcDbLine
 10
77.019196
 20
2.26161
 30
0.0
 11
77.538528
 21
2.407984
 31
0.0
  0
LINE
  5
934
330
1F
100
AcDbEntity
  8
1
  6
CONTINUOUS
370
50
 62
4
100
AcDbLine
 10
109.536819
 20
2.261217
 30
0.0
 11
110.055008
 21
2.407288
 31
0.0
  0
LINE
  5
935
330
1F
100
AcDbEntity
  8
1
  6
CONTINUOUS
370
50
 62
4
100
AcDbLine
 10
81.916237
 20
-2.408041
 30
0.0
 11
82.435791
 21
-2.261522
 31
0.0
  0
LINE
  5
936
330
1F
100
AcDbEntity
  8
1
  6
CONTINUOUS
370
50
 62
4
100
AcDbLine
 10
114.436722
 20
-2.406936
 30
0.0
 11
114.953468
 21
-2.261098
 31
0.0
  0
LINE
  5
937
330
1F
100
AcDbEntity
  8
1
  6
CONTINUOUS
370
50
 62
4
100
AcDbLine
 10
125.396896
 20
-2.373247
 30
0.0
 11
125.790718
 21
-2.261154
 31
0.0
  0
LINE
  5
938
330
1F
100
AcDbEntity
  8
1
  6
CONTINUOUS
370
50
 62
4
100
AcDbLine
 10
49.92486599999999
 20
-2.749576
 30
0.0
 11
49.941086
 21
-2.744848
 31
0.0
  0
LINE
  5
939
330
1F
100
AcDbEntity
  8
1
  6
CONTINUOUS
370
50
 62
4
100
AcDbLine
 10
126.405861
 20
1.210822
 30
0.0
 11
126.47049
 21
1.229985
 31
0.0
  0
LINE
  5
93A
330
1F
100
AcDbEntity
  8
1
  6
CONTINUOUS
370
50
 62
4
100
AcDbLine
 10
50.339958
 20
1.860669
 30
0.0
 11
50.41553099999999
 21
1.88516
 31
0.0
  0
LINE
  5
93B
330
1F
100
AcDbEntity
  8
1
  6
CONTINUOUS
370
50
 62
4
100
AcDbLine
 10
126.47049
 20
1.229985
 30
0.0
 11
126.533043
 21
1.250538
 31
0.0
  0
LINE
  5
93C
330
1F
100
AcDbEntity
  8
1
  6
CONTINUOUS
370
50
 62
4
100
AcDbLine
 10
126.533043
 20
1.250538
 30
0.0
 11
126.594353
 21
1.272946
 31
0.0
  0
LINE
  5
93D
330
1F
100
AcDbEntity
  8
1
  6
CONTINUOUS
370
50
 62
4
100
AcDbLine
 10
50.267067
 20
1.831867
 30
0.0
 11
50.339958
 21
1.860669
 31
0.0
  0
LINE
  5
93E
330
1F
100
AcDbEntity
  8
1
  6
CONTINUOUS
370
50
 62
4
100
AcDbLine
 10
126.594353
 20
1.272946
 30
0.0
 11
126.654953
 21
1.29776
 31
0.0
  0
LINE
  5
93F
330
1F
100
AcDbEntity
  8
1
  6
CONTINUOUS
370
50
 62
4
100
AcDbLine
 10
126.654953
 20
1.29776
 30
0.0
 11
126.714188
 21
1.325138
 31
0.0
  0
LINE
  5
940
330
1F
100
AcDbEntity
  8
1
  6
CONTINUOUS
370
50
 62
4
100
AcDbLine
 10
50.197926
 20
1.798386
 30
0.0
 11
50.267067
 21
1.831867
 31
0.0
  0
LINE
  5
941
330
1F
100
AcDbEntity
  8
1
  6
CONTINUOUS
370
50
 62
4
100
AcDbLine
 10
126.714188
 20
1.325138
 30
0.0
 11
126.7714
 21
1.355239
 31
0.0
  0
LINE
  5
942
330
1F
100
AcDbEntity
  8
1
  6
CONTINUOUS
370
50
 62
4
100
AcDbLine
 10
60.999134
 20
2.75
 30
0.0
 11
61.0
 21
2.7505
 31
0.0
  0
LINE
  5
943
330
1F
100
AcDbEntity
  8
1
  6
CONTINUOUS
370
50
 62
4
100
AcDbLine
 10
50.13361
 20
1.759839
 30
0.0
 11
50.197926
 21
1.798386
 31
0.0
  0
LINE
  5
944
330
1F
100
AcDbEntity
  8
1
  6
CONTINUOUS
370
50
 62
4
100
AcDbLine
 10
126.7714
 20
1.355239
 30
0.0
 11
126.825928
 21
1.388219
 31
0.0
  0
LINE
  5
945
330
1F
100
AcDbEntity
  8
1
  6
CONTINUOUS
370
50
 62
4
100
AcDbLine
 10
127.056152
 20
-0.750929
 30
0.0
 11
127.086403
 21
-0.7323069999999999
 31
0.0
  0
LINE
  5
946
330
1F
100
AcDbEntity
  8
1
  6
CONTINUOUS
370
50
 62
4
100
AcDbLine
 10
126.825928
 20
1.388219
 30
0.0
 11
126.877098
 21
1.424236
 31
0.0
  0
LINE
  5
947
330
1F
100
AcDbEntity
  8
1
  6
CONTINUOUS
370
50
 62
4
100
AcDbLine
 10
50.075283
 20
1.715736
 30
0.0
 11
50.13361
 21
1.759839
 31
0.0
  0
LINE
  5
948
330
1F
100
AcDbEntity
  8
1
  6
CONTINUOUS
370
50
 62
4
100
AcDbLine
 10
126.877098
 20
1.424236
 30
0.0
 11
126.924194
 21
1.463363
 31
0.0
  0
LINE
  5
949
330
1F
100
AcDbEntity
  8
1
  6
CONTINUOUS
370
50
 62
4
100
AcDbLine
 10
49.924709
 20
-2.749711
 30
0.0
 11
49.92486599999999
 21
-2.749576
 31
0.0
  0
LINE
  5
94A
330
1F
100
AcDbEntity
  8
1
  6
CONTINUOUS
370
50
 62
4
100
AcDbLine
 10
126.965103
 20
-0.8968659999999999
 30
0.0
 11
127.860252
 21
-0.12111
 31
0.0
  0
LINE
  5
94B
330
1F
100
AcDbEntity
  8
1
  6
CONTINUOUS
370
50
 62
4
100
AcDbLine
 10
50.024364
 20
1.665662
 30
0.0
 11
50.075283
 21
1.715736
 31
0.0
  0
LINE
  5
94C
330
1F
100
AcDbEntity
  8
1
  6
CONTINUOUS
370
50
 62
4
100
AcDbLine
 10
126.924194
 20
1.463363
 30
0.0
 11
126.966621
 21
1.505723
 31
0.0
  0
LINE
  5
94D
330
1F
100
AcDbEntity
  8
1
  6
CONTINUOUS
370
50
 62
4
100
AcDbLine
 10
126.966621
 20
1.505723
 30
0.0
 11
127.003868
 21
1.551491
 31
0.0
  0
LINE
  5
94E
330
1F
100
AcDbEntity
  8
1
  6
CONTINUOUS
370
50
 62
4
100
AcDbLine
 10
49.982601
 20
1.609665
 30
0.0
 11
50.024364
 21
1.665662
 31
0.0
  0
LINE
  5
94F
330
1F
100
AcDbEntity
  8
1
  6
CONTINUOUS
370
50
 62
4
100
AcDbLine
 10
127.003868
 20
1.551491
 30
0.0
 11
127.035408
 21
1.600805
 31
0.0
  0
LINE
  5
950
330
1F
100
AcDbEntity
  8
1
  6
CONTINUOUS
370
50
 62
4
100
AcDbLine
 10
127.086403
 20
-0.7323069999999999
 30
0.0
 11
127.103363
 21
-0.703071
 31
0.0
  0
LINE
  5
951
330
1F
100
AcDbEntity
  8
1
  6
CONTINUOUS
370
50
 62
4
100
AcDbLine
 10
49.951752
 20
1.548751
 30
0.0
 11
49.982601
 21
1.609665
 31
0.0
  0
LINE
  5
952
330
1F
100
AcDbEntity
  8
1
  6
CONTINUOUS
370
50
 62
4
100
AcDbLine
 10
127.035408
 20
1.600805
 30
0.0
 11
127.060211
 21
1.652522
 31
0.0
  0
LINE
  5
953
330
1F
100
AcDbEntity
  8
1
  6
CONTINUOUS
370
50
 62
4
100
AcDbLine
 10
126.999084
 20
-2.321387
 30
0.0
 11
128.0
 21
0.0
 31
0.0
  0
LINE
  5
954
330
1F
100
AcDbEntity
  8
1
  6
CONTINUOUS
370
50
 62
4
100
AcDbLine
 10
127.06208
 20
-2.410686
 30
0.0
 11
127.07457
 21
-2.381286
 31
0.0
  0
LINE
  5
955
330
1F
100
AcDbEntity
  8
1
  6
CONTINUOUS
370
50
 62
4
100
AcDbLine
 10
127.07457
 20
-2.381286
 30
0.0
 11
127.086945
 21
-2.352108
 31
0.0
  0
LINE
  5
956
330
1F
100
AcDbEntity
  8
1
  6
CONTINUOUS
370
50
 62
4
100
AcDbLine
 10
127.049561
 20
-2.440325
 30
0.0
 11
127.06208
 21
-2.410686
 31
0.0
  0
LINE
  5
957
330
1F
100
AcDbEntity
  8
1
  6
CONTINUOUS
370
50
 62
4
100
AcDbLine
 10
127.036995
 20
-2.470199
 30
0.0
 11
127.049561
 21
-2.440325
 31
0.0
  0
LINE
  5
958
330
1F
100
AcDbEntity
  8
1
  6
CONTINUOUS
370
50
 62
4
100
AcDbLine
 10
127.024399
 20
-2.500304
 30
0.0
 11
127.036995
 21
-2.470199
 31
0.0
  0
LINE
  5
959
330
1F
100
AcDbEntity
  8
1
  6
CONTINUOUS
370
50
 62
4
100
AcDbLine
 10
127.011772
 20
-2.530634
 30
0.0
 11
127.024399
 21
-2.500304
 31
0.0
  0
LINE
  5
95A
330
1F
100
AcDbEntity
  8
1
  6
CONTINUOUS
370
50
 62
4
100
AcDbLine
 10
126.999084
 20
-2.561167
 30
0.0
 11
127.011772
 21
-2.530634
 31
0.0
  0
LINE
  5
95B
330
1F
100
AcDbEntity
  8
1
  6
CONTINUOUS
370
50
 62
4
100
AcDbLine
 10
127.086945
 20
-2.352108
 30
0.0
 11
127.280891
 21
-1.878436
 31
0.0
  0
LINE
  5
95C
330
1F
100
AcDbEntity
  8
1
  6
CONTINUOUS
370
50
 62
4
100
AcDbLine
 10
127.280891
 20
-1.878436
 30
0.0
 11
127.409698
 21
-1.561401
 31
0.0
  0
LINE
  5
95D
330
1F
100
AcDbEntity
  8
1
  6
CONTINUOUS
370
50
 62
4
100
AcDbLine
 10
127.409698
 20
-1.561401
 30
0.0
 11
127.501266
 21
-1.333828
 31
0.0
  0
LINE
  5
95E
330
1F
100
AcDbEntity
  8
1
  6
CONTINUOUS
370
50
 62
4
100
AcDbLine
 10
127.501266
 20
-1.333828
 30
0.0
 11
127.569527
 21
-1.162115
 31
0.0
  0
LINE
  5
95F
330
1F
100
AcDbEntity
  8
1
  6
CONTINUOUS
370
50
 62
4
100
AcDbLine
 10
127.569527
 20
-1.162115
 30
0.0
 11
127.622223
 21
-1.027592
 31
0.0
  0
LINE
  5
960
330
1F
100
AcDbEntity
  8
1
  6
CONTINUOUS
370
50
 62
4
100
AcDbLine
 10
127.622223
 20
-1.027592
 30
0.0
 11
127.664009
 21
-0.919049
 31
0.0
  0
LINE
  5
961
330
1F
100
AcDbEntity
  8
1
  6
CONTINUOUS
370
50
 62
4
100
AcDbLine
 10
127.664009
 20
-0.919049
 30
0.0
 11
127.69783
 21
-0.829349
 31
0.0
  0
LINE
  5
962
330
1F
100
AcDbEntity
  8
1
  6
CONTINUOUS
370
50
 62
4
100
AcDbLine
 10
127.69783
 20
-0.829349
 30
0.0
 11
128.0
 21
0.0
 31
0.0
  0
LINE
  5
963
330
1F
100
AcDbEntity
  8
1
  6
CONTINUOUS
370
50
 62
4
100
AcDbLine
 10
127.060211
 20
1.652522
 30
0.0
 11
127.078133
 21
1.705964
 31
0.0
  0
LINE
  5
964
330
1F
100
AcDbEntity
  8
1
  6
CONTINUOUS
370
50
 62
4
100
AcDbLine
 10
49.924675
 20
-2.749819
 30
0.0
 11
49.924709
 21
-2.749711
 31
0.0
  0
LINE
  5
965
330
1F
100
AcDbEntity
  8
1
  6
CONTINUOUS
370
50
 62
4
100
AcDbLine
 10
49.932343
 20
1.482996
 30
0.0
 11
49.951752
 21
1.548751
 31
0.0
  0
LINE
  5
966
330
1F
100
AcDbEntity
  8
1
  6
CONTINUOUS
370
50
 62
4
100
AcDbLine
 10
127.078133
 20
1.705964
 30
0.0
 11
127.089439
 21
1.761034
 31
0.0
  0
LINE
  5
967
330
1F
100
AcDbEntity
  8
1
  6
CONTINUOUS
370
50
 62
4
100
AcDbLine
 10
49.92482
 20
1.414558
 30
0.0
 11
49.932343
 21
1.482996
 31
0.0
  0
LINE
  5
968
330
1F
100
AcDbEntity
  8
1
  6
CONTINUOUS
370
50
 62
4
100
AcDbLine
 10
127.103363
 20
-0.703071
 30
0.0
 11
127.107101
 21
-0.664551
 31
0.0
  0
LINE
  5
969
330
1F
100
AcDbEntity
  8
1
  6
CONTINUOUS
370
50
 62
4
100
AcDbLine
 10
127.089439
 20
1.761034
 30
0.0
 11
127.094398
 21
1.817527
 31
0.0
  0
LINE
  5
96A
330
1F
100
AcDbEntity
  8
1
  6
CONTINUOUS
370
50
 62
4
100
AcDbLine
 10
48.0
 20
-2.75
 30
0.0
 11
48.0
 21
2.75
 31
0.0
  0
LINE
  5
96B
330
1F
100
AcDbEntity
  8
1
  6
CONTINUOUS
370
50
 62
4
100
AcDbLine
 10
53.211395
 20
-1.805246
 30
0.0
 11
53.211395
 21
-0.38786
 31
0.0
  0
LINE
  5
96C
330
1F
100
AcDbEntity
  8
1
  6
CONTINUOUS
370
50
 62
4
100
AcDbLine
 10
53.211395
 20
2.6992
 30
0.0
 11
53.211395
 21
2.706234
 31
0.0
  0
LINE
  5
96D
330
1F
100
AcDbEntity
  8
1
  6
CONTINUOUS
370
50
 62
4
100
AcDbLine
 10
53.213398
 20
-0.390286
 30
0.0
 11
53.213398
 21
1.343814
 31
0.0
  0
LINE
  5
96E
330
1F
100
AcDbEntity
  8
1
  6
CONTINUOUS
370
50
 62
4
100
AcDbLine
 10
60.999134
 20
2.42963
 30
0.0
 11
60.999134
 21
2.75
 31
0.0
  0
LINE
  5
96F
330
1F
100
AcDbEntity
  8
1
  6
CONTINUOUS
370
50
 62
4
100
AcDbLine
 10
60.999134
 20
-2.330409
 30
0.0
 11
60.999134
 21
-0.34874
 31
0.0
  0
LINE
  5
970
330
1F
100
AcDbEntity
  8
1
  6
CONTINUOUS
370
50
 62
4
100
AcDbLine
 10
61.0
 20
-2.33121
 30
0.0
 11
61.0
 21
2.751
 31
0.0
  0
LINE
  5
971
330
1F
100
AcDbEntity
  8
1
  6
CONTINUOUS
370
50
 62
4
100
AcDbLine
 10
126.999084
 20
-2.561167
 30
0.0
 11
126.999084
 21
-2.321387
 31
0.0
  0
LINE
  5
972
330
1F
100
AcDbEntity
  8
1
  6
CONTINUOUS
370
50
 62
4
100
AcDbLine
 10
126.999084
 20
2.147874
 30
0.0
 11
126.999084
 21
2.437505
 31
0.0
  0
ELLIPSE
  5
973
330
1F
100
AcDbEntity
  8
1
  6
CONTINUOUS
370
50
 62
4
100
AcDbEllipse
 10
127.999904
 20
0.000053
 30
0.0
 11
-4.127533196386628
 21
2.512368677359353
 31
0.0
210
0.0
220
0.0
230
0.9999999999999999
 40
0.2709177198594724
 41
1.37832607040559
 42
1.48426809730943
  0
LINE
  5
974
330
1F
100
AcDbEntity
  8
CUT
  6
CONTINUOUS
370
25
 62
1
100
AcDbLine
 10
61.0
 20
0.0
 30
0.0
 11
128.0
 21
0.0
 31
0.0
  0
LINE
  5
975
330
1F
100
AcDbEntity
  8
CUT
  6
CONTINUOUS
370
25
 62
1
100
AcDbLine
 10
128.0
 20
0.0
 30
0.0
 11
126.99908186
 21
2.75
 31
0.0
  0
LINE
  5
976
330
1F
100
AcDbEntity
  8
CUT
  6
CONTINUOUS
370
25
 62
1
100
AcDbLine
 10
126.99908186
 20
2.75
 30
0.0
 11
61.0
 21
2.75
 31
0.0
  0
LINE
  5
977
330
1F
100
AcDbEntity
  8
CUT
  6
CONTINUOUS
370
25
 62
1
100
AcDbLine
 10
61.0
 20
2.75
 30
0.0
 11
61.0
 21
0.0
 31
0.0
  0
LINE
  5
978
330
1F
100
AcDbEntity
  8
NOCUT
  6
CONTINUOUS
370
25
 62
7
100
AcDbLine
 10
48.0
 20
0.0
 30
0.0
 11
61.0
 21
0.0
 31
0.0
  0
LINE
  5
979
330
1F
100
AcDbEntity
  8
NOCUT
  6
CONTINUOUS
370
25
 62
7
100
AcDbLine
 10
61.0
 20
0.0
 30
0.0
 11
61.0
 21
2.7505
 31
0.0
  0
LINE
  5
97A
330
1F
100
AcDbEntity
  8
NOCUT
  6
CONTINUOUS
370
25
 62
7
100
AcDbLine
 10
61.0
 20
2.7505
 30
0.0
 11
60.99913397459622
 21
2.75
 31
0.0
  0
LINE
  5
97B
330
1F
100
AcDbEntity
  8
NOCUT
  6
CONTINUOUS
370
25
 62
7
100
AcDbLine
 10
60.99913397459622
 20
2.75
 30
0.0
 11
48.0
 21
2.75
 31
0.0
  0
LINE
  5
97C
330
1F
100
AcDbEntity
  8
NOCUT
  6
CONTINUOUS
370
25
 62
7
100
AcDbLine
 10
48.0
 20
2.75
 30
0.0
 11
48.0
 21
0.0
 31
0.0
  0
LINE
  5
97D
330
1F
100
AcDbEntity
  8
NOCUT
  6
CONTINUOUS
370
25
 62
7
100
AcDbLine
 10
61.0
 20
2.75
 30
0.0
 11
61.0
 21
0.0
 31
0.0
  0
LINE
  5
97E
330
1F
100
AcDbEntity
  8
NOCUT
  6
CONTINUOUS
370
25
 62
7
100
AcDbLine
 10
61.0
 20
2.75
 30
0.0
 11
61.0
 21
0.0
 31
0.0
  0
LINE
  5
97F
330
1F
100
AcDbEntity
  8
SK1
  6
CONTINUOUS
370
50
 62
4
100
AcDbLine
 10
48.0
 20
3.0
 30
0.0
 11
0.3999999999999986
 21
3.0
 31
0.0
  0
LINE
  5
980
330
1F
100
AcDbEntity
  8
SK1
  6
CONTINUOUS
370
50
 62
4
100
AcDbLine
 10
0.3999999999999986
 20
3.0
 30
0.0
 11
0.0
 21
2.6
 31
0.0
  0
LINE
  5
981
330
1F
100
AcDbEntity
  8
SK1
  6
CONTINUOUS
370
50
 62
4
100
AcDbLine
 10
0.0
 20
2.6
 30
0.0
 11
0.0
 21
-2.6
 31
0.0
  0
LINE
  5
982
330
1F
100
AcDbEntity
  8
SK1
  6
CONTINUOUS
370
50
 62
4
100
AcDbLine
 10
0.0
 20
-2.6
 30
0.0
 11
0.3999999999999986
 21
-3.0
 31
0.0
  0
LINE
  5
983
330
1F
100
AcDbEntity
  8
SK1
  6
CONTINUOUS
370
50
 62
4
100
AcDbLine
 10
0.3999999999999986
 20
-3.0
 30
0.0
 11
48.0
 21
-3.0
 31
0.0
  0
LINE
  5
984
330
1F
100
AcDbEntity
  8
SK1
  6
CONTINUOUS
370
50
 62
4
100
AcDbLine
 10
0.3999999999999986
 20
3.0
 30
0.0
 11
0.3999999999999986
 21
-3.0
 31
0.0
  0
LINE
  5
985
330
1F
100
AcDbEntity
  8
SK2
  6
CONTINUOUS
370
25
 62
7
100
AcDbLine
 10
-12.0000002
 20
-3.000001
 30
0.0
 11
-13.00000000000008
 21
-3.000001
 31
0.0
  0
LINE
  5
986
330
1F
100
AcDbEntity
  8
SK2
  6
CONTINUOUS
370
25
 62
7
100
AcDbLine
 10
0.0
 20
-3.000001
 30
0.0
 11
-11.9999998
 21
-3.000001
 31
0.0
  0
LINE
  5
987
330
1F
100
AcDbEntity
  8
SK2
  6
CONTINUOUS
370
25
 62
7
100
AcDbLine
 10
-13.0
 20
3.0
 30
0.0
 11
0.0
 21
3.0
 31
0.0
  0
LINE
  5
988
330
1F
100
AcDbEntity
  8
SK2
  6
CONTINUOUS
370
25
 62
7
100
AcDbLine
 10
-12.0
 20
-10.0
 30
0.0
 11
-12.0
 21
16.475
 31
0.0
  0
LINE
  5
989
330
1F
100
AcDbEntity
  8
SK2
  6
CONTINUOUS
370
25
 62
7
100
AcDbLine
 10
-12.0
 20
-3.0
 30
0.0
 11
-11.0
 21
-8.0
 31
0.0
  0
LINE
  5
98A
330
1F
100
AcDbEntity
  8
SK2
  6
CONTINUOUS
370
25
 62
7
100
AcDbLine
 10
-11.0
 20
-8.0
 30
0.0
 11
-13.0
 21
-8.0
 31
0.0
  0
LINE
  5
98B
330
1F
100
AcDbEntity
  8
SK2
  6
CONTINUOUS
370
25
 62
7
100
AcDbLine
 10
-13.0
 20
-8.0
 30
0.0
 11
-12.0
 21
-3.0
 31
0.0
  0
LINE
  5
98C
330
1F
100
AcDbEntity
  8
SK2
  6
CONTINUOUS
370
25
 62
7
100
AcDbLine
 10
-11.33595231414331
 20
-8.0
 30
0.0
 11
-11.05599205235723
 21
-7.720039738213913
 31
0.0
  0
LINE
  5
98D
330
1F
100
AcDbEntity
  8
SK2
  6
CONTINUOUS
370
25
 62
7
100
AcDbLine
 10
-11.76021638285524
 20
-8.0
 30
0.0
 11
-11.12670273047588
 21
-7.366486347620636
 31
0.0
  0
LINE
  5
98E
330
1F
100
AcDbEntity
  8
SK2
  6
CONTINUOUS
370
25
 62
7
100
AcDbLine
 10
-12.18448045156717
 20
-8.0
 30
0.0
 11
-11.19741340859454
 21
-7.012932957027367
 31
0.0
  0
LINE
  5
98F
330
1F
100
AcDbEntity
  8
SK2
  6
CONTINUOUS
370
25
 62
7
100
AcDbLine
 10
-12.6087445202791
 20
-8.0
 30
0.0
 11
-11.26812408671319
 21
-6.659379566434083
 31
0.0
  0
LINE
  5
990
330
1F
100
AcDbEntity
  8
SK2
  6
CONTINUOUS
370
25
 62
7
100
AcDbLine
 10
-12.99174785275224
 20
-7.958739263761203
 30
0.0
 11
-11.33883476483184
 21
-6.305826175840799
 31
0.0
  0
LINE
  5
991
330
1F
100
AcDbEntity
  8
SK2
  6
CONTINUOUS
370
25
 62
7
100
AcDbLine
 10
-12.88568183557426
 20
-7.428409177871302
 30
0.0
 11
-11.4095454429505
 21
-5.95227278524753
 31
0.0
  0
LINE
  5
992
330
1F
100
AcDbEntity
  8
SK2
  6
CONTINUOUS
370
25
 62
7
100
AcDbLine
 10
-12.77961581839628
 20
-6.898079091981394
 30
0.0
 11
-11.48025612106915
 21
-5.59871939465426
 31
0.0
  0
LINE
  5
993
330
1F
100
AcDbEntity
  8
SK2
  6
CONTINUOUS
370
25
 62
7
100
AcDbLine
 10
-12.67354980121829
 20
-6.367749006091479
 30
0.0
 11
-11.5509667991878
 21
-5.245166004060984
 31
0.0
  0
LINE
  5
994
330
1F
100
AcDbEntity
  8
SK2
  6
CONTINUOUS
370
25
 62
7
100
AcDbLine
 10
-12.56748378404032
 20
-5.837418920201571
 30
0.0
 11
-11.62167747730646
 21
-4.891612613467707
 31
0.0
  0
LINE
  5
995
330
1F
100
AcDbEntity
  8
SK2
  6
CONTINUOUS
370
25
 62
7
100
AcDbLine
 10
-12.46141776686233
 20
-5.307088834311664
 30
0.0
 11
-11.69238815542511
 21
-4.538059222874431
 31
0.0
  0
LINE
  5
996
330
1F
100
AcDbEntity
  8
SK2
  6
CONTINUOUS
370
25
 62
7
100
AcDbLine
 10
-12.35535174968435
 20
-4.776758748421756
 30
0.0
 11
-11.76309883354376
 21
-4.184505832281168
 31
0.0
  0
LINE
  5
997
330
1F
100
AcDbEntity
  8
SK2
  6
CONTINUOUS
370
25
 62
7
100
AcDbLine
 10
-12.24928573250637
 20
-4.246428662531827
 30
0.0
 11
-11.83380951166243
 21
-3.830952441687884
 31
0.0
  0
LINE
  5
998
330
1F
100
AcDbEntity
  8
SK2
  6
CONTINUOUS
370
25
 62
7
100
AcDbLine
 10
-12.14321971532839
 20
-3.716098576641912
 30
0.0
 11
-11.90452018978107
 21
-3.477399051094601
 31
0.0
  0
LINE
  5
999
330
1F
100
AcDbEntity
  8
SK2
  6
CONTINUOUS
370
25
 62
7
100
AcDbLine
 10
-12.03715369815041
 20
-3.185768490752011
 30
0.0
 11
-11.97523086789973
 21
-3.123845660501331
 31
0.0
  0
LINE
  5
99A
330
1F
100
AcDbEntity
  8
SK2
  6
CONTINUOUS
370
25
 62
7
100
AcDbLine
 10
-12.99158650908476
 20
-7.957932545423787
 30
0.0
 11
-12.94951905450855
 21
-8.0
 31
0.0
  0
LINE
  5
99B
330
1F
100
AcDbEntity
  8
SK2
  6
CONTINUOUS
370
25
 62
7
100
AcDbLine
 10
-12.9208758309661
 20
-7.604379154830511
 30
0.0
 11
-12.5252549857966
 21
-8.0
 31
0.0
  0
LINE
  5
99C
330
1F
100
AcDbEntity
  8
SK2
  6
CONTINUOUS
370
25
 62
7
100
AcDbLine
 10
-12.85016515284745
 20
-7.250825764237227
 30
0.0
 11
-12.10099091708467
 21
-8.0
 31
0.0
  0
LINE
  5
99D
330
1F
100
AcDbEntity
  8
SK2
  6
CONTINUOUS
370
25
 62
7
100
AcDbLine
 10
-12.77945447472879
 20
-6.897272373643965
 30
0.0
 11
-11.67672684837275
 21
-8.0
 31
0.0
  0
LINE
  5
99E
330
1F
100
AcDbEntity
  8
SK2
  6
CONTINUOUS
370
25
 62
7
100
AcDbLine
 10
-12.70874379661014
 20
-6.543718983050674
 30
0.0
 11
-11.2524627796608
 21
-8.0
 31
0.0
  0
LINE
  5
99F
330
1F
100
AcDbEntity
  8
SK2
  6
CONTINUOUS
370
25
 62
7
100
AcDbLine
 10
-12.63803311849149
 20
-6.190165592457411
 30
0.0
 11
-11.04295032226278
 21
-7.785248388686114
 31
0.0
  0
LINE
  5
9A0
330
1F
100
AcDbEntity
  8
SK2
  6
CONTINUOUS
370
25
 62
7
100
AcDbLine
 10
-12.56732244037283
 20
-5.836612201864142
 30
0.0
 11
-11.14901633944076
 21
-7.254918302796199
 31
0.0
  0
LINE
  5
9A1
330
1F
100
AcDbEntity
  8
SK2
  6
CONTINUOUS
370
25
 62
7
100
AcDbLine
 10
-12.49661176225418
 20
-5.483058811270872
 30
0.0
 11
-11.25508235661874
 21
-6.724588216906305
 31
0.0
  0
LINE
  5
9A2
330
1F
100
AcDbEntity
  8
SK2
  6
CONTINUOUS
370
25
 62
7
100
AcDbLine
 10
-12.42590108413552
 20
-5.129505420677596
 30
0.0
 11
-11.36114837379672
 21
-6.19425813101639
 31
0.0
  0
LINE
  5
9A3
330
1F
100
AcDbEntity
  8
SK2
  6
CONTINUOUS
370
25
 62
7
100
AcDbLine
 10
-12.35519040601686
 20
-4.775952030084333
 30
0.0
 11
-11.4672143909747
 21
-5.663928045126482
 31
0.0
  0
LINE
  5
9A4
330
1F
100
AcDbEntity
  8
SK2
  6
CONTINUOUS
370
25
 62
7
100
AcDbLine
 10
-12.28447972789822
 20
-4.422398639491057
 30
0.0
 11
-11.57328040815268
 21
-5.133597959236582
 31
0.0
  0
LINE
  5
9A5
330
1F
100
AcDbEntity
  8
SK2
  6
CONTINUOUS
370
25
 62
7
100
AcDbLine
 10
-12.21376904977955
 20
-4.068845248897773
 30
0.0
 11
-11.67934642533067
 21
-4.603267873346653
 31
0.0
  0
LINE
  5
9A6
330
1F
100
AcDbEntity
  8
SK2
  6
CONTINUOUS
370
25
 62
7
100
AcDbLine
 10
-12.14305837166091
 20
-3.715291858304496
 30
0.0
 11
-11.78541244250865
 21
-4.072937787456752
 31
0.0
  0
LINE
  5
9A7
330
1F
100
AcDbEntity
  8
SK2
  6
CONTINUOUS
370
25
 62
7
100
AcDbLine
 10
-12.07234769354226
 20
-3.361738467711227
 30
0.0
 11
-11.89147845968663
 21
-3.542607701566851
 31
0.0
  0
LINE
  5
9A8
330
1F
100
AcDbEntity
  8
SK2
  6
CONTINUOUS
370
25
 62
7
100
AcDbLine
 10
-12.00163701542359
 20
-3.008185077117957
 30
0.0
 11
-11.99754447686461
 21
-3.012277615676936
 31
0.0
  0
LINE
  5
9A9
330
1F
100
AcDbEntity
  8
SK2
  6
CONTINUOUS
370
25
 62
7
100
AcDbLine
 10
-12.0
 20
3.0
 30
0.0
 11
-13.0
 21
8.0
 31
0.0
  0
LINE
  5
9AA
330
1F
100
AcDbEntity
  8
SK2
  6
CONTINUOUS
370
25
 62
7
100
AcDbLine
 10
-13.0
 20
8.0
 30
0.0
 11
-11.0
 21
8.0
 31
0.0
  0
LINE
  5
9AB
330
1F
100
AcDbEntity
  8
SK2
  6
CONTINUOUS
370
25
 62
7
100
AcDbLine
 10
-11.0
 20
8.0
 30
0.0
 11
-12.0
 21
3.0
 31
0.0
  0
LINE
  5
9AC
330
1F
100
AcDbEntity
  8
SK2
  6
CONTINUOUS
370
25
 62
7
100
AcDbLine
 10
-12.03589103967955
 20
3.179455198397768
 30
0.0
 11
-11.94616344048067
 21
3.269182797596642
 31
0.0
  0
LINE
  5
9AD
330
1F
100
AcDbEntity
  8
SK2
  6
CONTINUOUS
370
25
 62
7
100
AcDbLine
 10
-12.10660171779821
 20
3.533008588991038
 30
0.0
 11
-11.84009742330269
 21
3.79951288348655
 31
0.0
  0
LINE
  5
9AE
330
1F
100
AcDbEntity
  8
SK2
  6
CONTINUOUS
370
25
 62
7
100
AcDbLine
 10
-12.17731239591686
 20
3.886561979584314
 30
0.0
 11
-11.73403140612471
 21
4.329842969376458
 31
0.0
  0
LINE
  5
9AF
330
1F
100
AcDbEntity
  8
SK2
  6
CONTINUOUS
370
25
 62
7
100
AcDbLine
 10
-12.24802307403552
 20
4.240115370177584
 30
0.0
 11
-11.62796538894673
 21
4.86017305526638
 31
0.0
  0
LINE
  5
9B0
330
1F
100
AcDbEntity
  8
SK2
  6
CONTINUOUS
370
25
 62
7
100
AcDbLine
 10
-12.31873375215417
 20
4.593668760770861
 30
0.0
 11
-11.52189937176874
 21
5.390503141156294
 31
0.0
  0
LINE
  5
9B1
330
1F
100
AcDbEntity
  8
SK2
  6
CONTINUOUS
370
25
 62
7
100
AcDbLine
 10
-12.38944443027282
 20
4.94722215136413
 30
0.0
 11
-11.41583335459076
 21
5.920833227046195
 31
0.0
  0
LINE
  5
9B2
330
1F
100
AcDbEntity
  8
SK2
  6
CONTINUOUS
370
25
 62
7
100
AcDbLine
 10
-12.46015510839148
 20
5.300775541957393
 30
0.0
 11
-11.30976733741278
 21
6.451163312936103
 31
0.0
  0
LINE
  5
9B3
330
1F
100
AcDbEntity
  8
SK2
  6
CONTINUOUS
370
25
 62
7
100
AcDbLine
 10
-12.53086578651013
 20
5.654328932550683
 30
0.0
 11
-11.20370132023479
 21
6.981493398826025
 31
0.0
  0
LINE
  5
9B4
330
1F
100
AcDbEntity
  8
SK2
  6
CONTINUOUS
370
25
 62
7
100
AcDbLine
 10
-12.60157646462879
 20
6.007882323143946
 30
0.0
 11
-11.09763530305681
 21
7.511823484715933
 31
0.0
  0
LINE
  5
9B5
330
1F
100
AcDbEntity
  8
SK2
  6
CONTINUOUS
370
25
 62
7
100
AcDbLine
 10
-12.67228714274744
 20
6.361435713737222
 30
0.0
 11
-11.03372285648467
 21
8.0
 31
0.0
  0
LINE
  5
9B6
330
1F
100
AcDbEntity
  8
SK2
  6
CONTINUOUS
370
25
 62
7
100
AcDbLine
 10
-12.74299782086611
 20
6.714989104330506
 30
0.0
 11
-11.45798692519662
 21
8.0
 31
0.0
  0
LINE
  5
9B7
330
1F
100
AcDbEntity
  8
SK2
  6
CONTINUOUS
370
25
 62
7
100
AcDbLine
 10
-12.81370849898475
 20
7.068542494923783
 30
0.0
 11
-11.88225099390854
 21
8.0
 31
0.0
  0
LINE
  5
9B8
330
1F
100
AcDbEntity
  8
SK2
  6
CONTINUOUS
370
25
 62
7
100
AcDbLine
 10
-12.8844191771034
 20
7.422095885517052
 30
0.0
 11
-12.30651506262046
 21
8.0
 31
0.0
  0
LINE
  5
9B9
330
1F
100
AcDbEntity
  8
SK2
  6
CONTINUOUS
370
25
 62
7
100
AcDbLine
 10
-12.95512985522206
 20
7.775649276110315
 30
0.0
 11
-12.73077913133238
 21
8.0
 31
0.0
  0
LINE
  5
9BA
330
1F
100
AcDbEntity
  8
SK2
  6
CONTINUOUS
370
25
 62
7
100
AcDbLine
 10
-12.07310184127928
 20
3.365509206396403
 30
0.0
 11
-11.95126543914715
 21
3.243672804264271
 31
0.0
  0
LINE
  5
9BB
330
1F
100
AcDbEntity
  8
SK2
  6
CONTINUOUS
370
25
 62
7
100
AcDbLine
 10
-12.17916785845726
 20
3.895839292286318
 30
0.0
 11
-11.88055476102848
 21
3.597226194857541
 31
0.0
  0
LINE
  5
9BC
330
1F
100
AcDbEntity
  8
SK2
  6
CONTINUOUS
370
25
 62
7
100
AcDbLine
 10
-12.28523387563524
 20
4.426169378176226
 30
0.0
 11
-11.80984408290983
 21
3.950779585450817
 31
0.0
  0
LINE
  5
9BD
330
1F
100
AcDbEntity
  8
SK2
  6
CONTINUOUS
370
25
 62
7
100
AcDbLine
 10
-12.39129989281322
 20
4.956499464066127
 30
0.0
 11
-11.73913340479119
 21
4.304332976044101
 31
0.0
  0
LINE
  5
9BE
330
1F
100
AcDbEntity
  8
SK2
  6
CONTINUOUS
370
25
 62
7
100
AcDbLine
 10
-12.4973659099912
 20
5.486829549956035
 30
0.0
 11
-11.66842272667253
 21
4.657886366637371
 31
0.0
  0
LINE
  5
9BF
330
1F
100
AcDbEntity
  8
SK2
  6
CONTINUOUS
370
25
 62
7
100
AcDbLine
 10
-12.60343192716919
 20
6.017159635845942
 30
0.0
 11
-11.59771204855387
 21
5.01143975723064
 31
0.0
  0
LINE
  5
9C0
330
1F
100
AcDbEntity
  8
SK2
  6
CONTINUOUS
370
25
 62
7
100
AcDbLine
 10
-12.70949794434716
 20
6.547489721735829
 30
0.0
 11
-11.52700137043523
 21
5.36499314782391
 31
0.0
  0
LINE
  5
9C1
330
1F
100
AcDbEntity
  8
SK2
  6
CONTINUOUS
370
25
 62
7
100
AcDbLine
 10
-12.81556396152516
 20
7.077819807625765
 30
0.0
 11
-11.45629069231656
 21
5.718546538417186
 31
0.0
  0
LINE
  5
9C2
330
1F
100
AcDbEntity
  8
SK2
  6
CONTINUOUS
370
25
 62
7
100
AcDbLine
 10
-12.92162997870313
 20
7.608149893515652
 30
0.0
 11
-11.38558001419791
 21
6.072099929010449
 31
0.0
  0
LINE
  5
9C3
330
1F
100
AcDbEntity
  8
SK2
  6
CONTINUOUS
370
25
 62
7
100
AcDbLine
 10
-12.88921601647554
 20
8.0
 30
0.0
 11
-11.31486933607925
 21
6.425653319603732
 31
0.0
  0
LINE
  5
9C4
330
1F
100
AcDbEntity
  8
SK2
  6
CONTINUOUS
370
25
 62
7
100
AcDbLine
 10
-12.46495194776362
 20
8.0
 30
0.0
 11
-11.2441586579606
 21
6.779206710197002
 31
0.0
  0
LINE
  5
9C5
330
1F
100
AcDbEntity
  8
SK2
  6
CONTINUOUS
370
25
 62
7
100
AcDbLine
 10
-12.04068787905167
 20
8.0
 30
0.0
 11
-11.17344797984195
 21
7.132760100790279
 31
0.0
  0
LINE
  5
9C6
330
1F
100
AcDbEntity
  8
SK2
  6
CONTINUOUS
370
25
 62
7
100
AcDbLine
 10
-11.61642381033975
 20
8.0
 30
0.0
 11
-11.10273730172329
 21
7.486313491383555
 31
0.0
  0
LINE
  5
9C7
330
1F
100
AcDbEntity
  8
SK2
  6
CONTINUOUS
370
25
 62
7
100
AcDbLine
 10
-11.19215974162781
 20
8.0
 30
0.0
 11
-11.03202662360464
 21
7.839866881976832
 31
0.0
  0
TEXT
  5
9C8
330
1F
100
AcDbEntity
  8
SK2
  6
CONTINUOUS
370
25
 62
7
100
AcDbText
 10
-13.5
 20
13.34583333333333
 30
0.0
 40
3.5
  1
6
 50
90.00000000000001
 72
     1
 11
-13.5
 21
14.5125
 31
0.0
100
AcDbText
  0
CIRCLE
  5
9C9
330
1F
100
AcDbEntity
  8
SK2
  6
CONTINUOUS
370
25
 62
7
100
AcDbCircle
 10
-15.25
 20
11.1875
 30
0.0
 40
1.4
  0
LINE
  5
9CA
330
1F
100
AcDbEntity
  8
SK2
  6
CONTINUOUS
370
25
 62
7
100
AcDbLine
 10
-13.85
 20
9.787500000000001
 30
0.0
 11
-16.65000000000001
 21
12.5875
 31
0.0
  0
LINE
  5
9CB
330
1F
100
AcDbEntity
  8
SK2
  6
CONTINUOUS
370
25
 62
7
100
AcDbLine
 10
0.0
 20
3.0
 30
0.0
 11
0.0
 21
16.00001
 31
0.0
  0
LINE
  5
9CC
330
1F
100
AcDbEntity
  8
SK2
  6
CONTINUOUS
370
25
 62
7
100
AcDbLine
 10
48.0
 20
16.00001
 30
0.0
 11
48.0
 21
3.0
 31
0.0
  0
LINE
  5
9CD
330
1F
100
AcDbEntity
  8
SK2
  6
CONTINUOUS
370
25
 62
7
100
AcDbLine
 10
0.0
 20
15.00001
 30
0.0
 11
48.0
 21
15.00001
 31
0.0
  0
LINE
  5
9CE
330
1F
100
AcDbEntity
  8
SK2
  6
CONTINUOUS
370
25
 62
7
100
AcDbLine
 10
0.0
 20
15.00001
 30
0.0
 11
5.0
 21
16.00001
 31
0.0
  0
LINE
  5
9CF
330
1F
100
AcDbEntity
  8
SK2
  6
CONTINUOUS
370
25
 62
7
100
AcDbLine
 10
5.0
 20
16.00001
 30
0.0
 11
5.0
 21
14.00001
 31
0.0
  0
LINE
  5
9D0
330
1F
100
AcDbEntity
  8
SK2
  6
CONTINUOUS
370
25
 62
7
100
AcDbLine
 10
5.0
 20
14.00001
 30
0.0
 11
0.0
 21
15.00001
 31
0.0
  0
LINE
  5
9D1
330
1F
100
AcDbEntity
  8
SK2
  6
CONTINUOUS
370
25
 62
7
100
AcDbLine
 10
4.770300603241402
 20
14.04594987935172
 30
0.0
 11
5.0
 21
14.27564927611032
 31
0.0
  0
LINE
  5
9D2
330
1F
100
AcDbEntity
  8
SK2
  6
CONTINUOUS
370
25
 62
7
100
AcDbLine
 10
4.416747212648126
 20
14.11666055747038
 30
0.0
 11
5.0
 21
14.69991334482225
 31
0.0
  0
LINE
  5
9D3
330
1F
100
AcDbEntity
  8
SK2
  6
CONTINUOUS
370
25
 62
7
100
AcDbLine
 10
4.063193822054849
 20
14.18737123558903
 30
0.0
 11
5.0
 21
15.12417741353418
 31
0.0
  0
LINE
  5
9D4
330
1F
100
AcDbEntity
  8
SK2
  6
CONTINUOUS
370
25
 62
7
100
AcDbLine
 10
3.709640431461573
 20
14.25808191370768
 30
0.0
 11
5.0
 21
15.54844148224611
 31
0.0
  0
LINE
  5
9D5
330
1F
100
AcDbEntity
  8
SK2
  6
CONTINUOUS
370
25
 62
7
100
AcDbLine
 10
3.356087040868296
 20
14.32879259182634
 30
0.0
 11
5.0
 21
15.97270555095805
 31
0.0
  0
LINE
  5
9D6
330
1F
100
AcDbEntity
  8
SK2
  6
CONTINUOUS
370
25
 62
7
100
AcDbLine
 10
3.002533650275019
 20
14.399503269945
 30
0.0
 11
4.503800475412532
 21
15.90077009508251
 31
0.0
  0
LINE
  5
9D7
330
1F
100
AcDbEntity
  8
SK2
  6
CONTINUOUS
370
25
 62
7
100
AcDbLine
 10
2.648980259681743
 20
14.47021394806366
 30
0.0
 11
3.97347038952261
 21
15.79470407790452
 31
0.0
  0
LINE
  5
9D8
330
1F
100
AcDbEntity
  8
SK2
  6
CONTINUOUS
370
25
 62
7
100
AcDbLine
 10
2.295426869088473
 20
14.54092462618232
 30
0.0
 11
3.443140303632696
 21
15.68863806072653
 31
0.0
  0
LINE
  5
9D9
330
1F
100
AcDbEntity
  8
SK2
  6
CONTINUOUS
370
25
 62
7
100
AcDbLine
 10
1.941873478495189
 20
14.61163530430097
 30
0.0
 11
2.912810217742773
 21
15.58257204354855
 31
0.0
  0
LINE
  5
9DA
330
1F
100
AcDbEntity
  8
SK2
  6
CONTINUOUS
370
25
 62
7
100
AcDbLine
 10
1.58832008790192
 20
14.68234598241963
 30
0.0
 11
2.382480131852873
 21
15.47650602637058
 31
0.0
  0
LINE
  5
9DB
330
1F
100
AcDbEntity
  8
SK2
  6
CONTINUOUS
370
25
 62
7
100
AcDbLine
 10
1.234766697308636
 20
14.75305666053828
 30
0.0
 11
1.852150045962951
 21
15.37044000919259
 31
0.0
  0
LINE
  5
9DC
330
1F
100
AcDbEntity
  8
SK2
  6
CONTINUOUS
370
25
 62
7
100
AcDbLine
 10
0.8812133067153667
 20
14.82376733865694
 30
0.0
 11
1.321819960073036
 21
15.2643739920146
 31
0.0
  0
LINE
  5
9DD
330
1F
100
AcDbEntity
  8
SK2
  6
CONTINUOUS
370
25
 62
7
100
AcDbLine
 10
0.527659916122083
 20
14.89447801677559
 30
0.0
 11
0.7914898741831138
 21
15.15830797483662
 31
0.0
  0
LINE
  5
9DE
330
1F
100
AcDbEntity
  8
SK2
  6
CONTINUOUS
370
25
 62
7
100
AcDbLine
 10
0.1741065255288135
 20
14.96518869489424
 30
0.0
 11
0.2611597882932131
 21
15.05224195765864
 31
0.0
  0
LINE
  5
9DF
330
1F
100
AcDbEntity
  8
SK2
  6
CONTINUOUS
370
25
 62
7
100
AcDbLine
 10
0.091137873781058
 20
15.01823757475621
 30
0.0
 11
0.1367068106715834
 21
14.97266863786569
 31
0.0
  0
LINE
  5
9E0
330
1F
100
AcDbEntity
  8
SK2
  6
CONTINUOUS
370
25
 62
7
100
AcDbLine
 10
0.4446912643743275
 20
15.08894825287487
 30
0.0
 11
0.6670368965614983
 21
14.8666026206877
 31
0.0
  0
LINE
  5
9E1
330
1F
100
AcDbEntity
  8
SK2
  6
CONTINUOUS
370
25
 62
7
100
AcDbLine
 10
0.7982446549676041
 20
15.15965893099352
 30
0.0
 11
1.197366982451406
 21
14.76053660350972
 31
0.0
  0
LINE
  5
9E2
330
1F
100
AcDbEntity
  8
SK2
  6
CONTINUOUS
370
25
 62
7
100
AcDbLine
 10
1.151798045560881
 20
15.23036960911218
 30
0.0
 11
1.727697068341328
 21
14.65447058633173
 31
0.0
  0
LINE
  5
9E3
330
1F
100
AcDbEntity
  8
SK2
  6
CONTINUOUS
370
25
 62
7
100
AcDbLine
 10
1.505351436154157
 20
15.30108028723084
 30
0.0
 11
2.258027154231243
 21
14.54840456915375
 31
0.0
  0
LINE
  5
9E4
330
1F
100
AcDbEntity
  8
SK2
  6
CONTINUOUS
370
25
 62
7
100
AcDbLine
 10
1.858904826747427
 20
15.3717909653495
 30
0.0
 11
2.788357240121158
 21
14.44233855197577
 31
0.0
  0
LINE
  5
9E5
330
1F
100
AcDbEntity
  8
SK2
  6
CONTINUOUS
370
25
 62
7
100
AcDbLine
 10
2.212458217340711
 20
15.44250164346814
 30
0.0
 11
3.318687326011073
 21
14.33627253479778
 31
0.0
  0
LINE
  5
9E6
330
1F
100
AcDbEntity
  8
SK2
  6
CONTINUOUS
370
25
 62
7
100
AcDbLine
 10
2.566011607933987
 20
15.5132123215868
 30
0.0
 11
3.849017411900981
 21
14.23020651761981
 31
0.0
  0
LINE
  5
9E7
330
1F
100
AcDbEntity
  8
SK2
  6
CONTINUOUS
370
25
 62
7
100
AcDbLine
 10
2.919564998527264
 20
15.58392299970545
 30
0.0
 11
4.379347497790903
 21
14.12414050044181
 31
0.0
  0
LINE
  5
9E8
330
1F
100
AcDbEntity
  8
SK2
  6
CONTINUOUS
370
25
 62
7
100
AcDbLine
 10
3.273118389120533
 20
15.65463367782412
 30
0.0
 11
4.909677583680811
 21
14.01807448326384
 31
0.0
  0
LINE
  5
9E9
330
1F
100
AcDbEntity
  8
SK2
  6
CONTINUOUS
370
25
 62
7
100
AcDbLine
 10
3.626671779713817
 20
15.72534435594276
 30
0.0
 11
5.0
 21
14.35201613565658
 31
0.0
  0
LINE
  5
9EA
330
1F
100
AcDbEntity
  8
SK2
  6
CONTINUOUS
370
25
 62
7
100
AcDbLine
 10
3.980225170307094
 20
15.79605503406142
 30
0.0
 11
5.0
 21
14.77628020436851
 31
0.0
  0
LINE
  5
9EB
330
1F
100
AcDbEntity
  8
SK2
  6
CONTINUOUS
370
25
 62
7
100
AcDbLine
 10
4.33377856090037
 20
15.86676571218007
 30
0.0
 11
5.0
 21
15.20054427308044
 31
0.0
  0
LINE
  5
9EC
330
1F
100
AcDbEntity
  8
SK2
  6
CONTINUOUS
370
25
 62
7
100
AcDbLine
 10
4.68733195149364
 20
15.93747639029873
 30
0.0
 11
5.0
 21
15.62480834179237
 31
0.0
  0
LINE
  5
9ED
330
1F
100
AcDbEntity
  8
SK2
  6
CONTINUOUS
370
25
 62
7
100
AcDbLine
 10
48.0
 20
15.00001
 30
0.0
 11
43.0
 21
14.00001
 31
0.0
  0
LINE
  5
9EE
330
1F
100
AcDbEntity
  8
SK2
  6
CONTINUOUS
370
25
 62
7
100
AcDbLine
 10
43.0
 20
14.00001
 30
0.0
 11
43.0
 21
16.00001
 31
0.0
  0
LINE
  5
9EF
330
1F
100
AcDbEntity
  8
SK2
  6
CONTINUOUS
370
25
 62
7
100
AcDbLine
 10
43.0
 20
16.00001
 30
0.0
 11
48.0
 21
15.00001
 31
0.0
  0
LINE
  5
9F0
330
1F
100
AcDbEntity
  8
SK2
  6
CONTINUOUS
370
25
 62
7
100
AcDbLine
 10
47.65812940796322
 20
14.93163588159264
 30
0.0
 11
47.77208627197548
 21
15.0455927456049
 31
0.0
  0
LINE
  5
9F1
330
1F
100
AcDbEntity
  8
SK2
  6
CONTINUOUS
370
25
 62
7
100
AcDbLine
 10
47.12779932207331
 20
14.82556986441466
 30
0.0
 11
47.41853288138221
 21
15.11630342372356
 31
0.0
  0
LINE
  5
9F2
330
1F
100
AcDbEntity
  8
SK2
  6
CONTINUOUS
370
25
 62
7
100
AcDbLine
 10
46.5974692361834
 20
14.71950384723668
 30
0.0
 11
47.06497949078894
 21
15.18701410184221
 31
0.0
  0
LINE
  5
9F3
330
1F
100
AcDbEntity
  8
SK2
  6
CONTINUOUS
370
25
 62
7
100
AcDbLine
 10
46.06713915029349
 20
14.6134378300587
 30
0.0
 11
46.71142610019566
 21
15.25772477996087
 31
0.0
  0
LINE
  5
9F4
330
1F
100
AcDbEntity
  8
SK2
  6
CONTINUOUS
370
25
 62
7
100
AcDbLine
 10
45.53680906440358
 20
14.50737181288072
 30
0.0
 11
46.35787270960239
 21
15.32843545807952
 31
0.0
  0
LINE
  5
9F5
330
1F
100
AcDbEntity
  8
SK2
  6
CONTINUOUS
370
25
 62
7
100
AcDbLine
 10
45.00647897851367
 20
14.40130579570273
 30
0.0
 11
46.00431931900911
 21
15.39914613619818
 31
0.0
  0
LINE
  5
9F6
330
1F
100
AcDbEntity
  8
SK2
  6
CONTINUOUS
370
25
 62
7
100
AcDbLine
 10
44.47614889262376
 20
14.29523977852475
 30
0.0
 11
45.65076592841584
 21
15.46985681431683
 31
0.0
  0
LINE
  5
9F7
330
1F
100
AcDbEntity
  8
SK2
  6
CONTINUOUS
370
25
 62
7
100
AcDbLine
 10
43.94581880673385
 20
14.18917376134677
 30
0.0
 11
45.29721253782257
 21
15.54056749243549
 31
0.0
  0
LINE
  5
9F8
330
1F
100
AcDbEntity
  8
SK2
  6
CONTINUOUS
370
25
 62
7
100
AcDbLine
 10
43.41548872084394
 20
14.08310774416879
 30
0.0
 11
44.94365914722929
 21
15.61127817055414
 31
0.0
  0
LINE
  5
9F9
330
1F
100
AcDbEntity
  8
SK2
  6
CONTINUOUS
370
25
 62
7
100
AcDbLine
 10
43.0
 20
14.09188309203677
 30
0.0
 11
44.59010575663602
 21
15.68198884867279
 31
0.0
  0
LINE
  5
9FA
330
1F
100
AcDbEntity
  8
SK2
  6
CONTINUOUS
370
25
 62
7
100
AcDbLine
 10
43.0
 20
14.5161471607487
 30
0.0
 11
44.23655236604274
 21
15.75269952679145
 31
0.0
  0
LINE
  5
9FB
330
1F
100
AcDbEntity
  8
SK2
  6
CONTINUOUS
370
25
 62
7
100
AcDbLine
 10
43.0
 20
14.94041122946063
 30
0.0
 11
43.88299897544947
 21
15.8234102049101
 31
0.0
  0
LINE
  5
9FC
330
1F
100
AcDbEntity
  8
SK2
  6
CONTINUOUS
370
25
 62
7
100
AcDbLine
 10
43.0
 20
15.36467529817256
 30
0.0
 11
43.52944558485621
 21
15.89412088302876
 31
0.0
  0
LINE
  5
9FD
330
1F
100
AcDbEntity
  8
SK2
  6
CONTINUOUS
370
25
 62
7
100
AcDbLine
 10
43.0
 20
15.78893936688448
 30
0.0
 11
43.17589219426293
 21
15.96483156114741
 31
0.0
  0
LINE
  5
9FE
330
1F
100
AcDbEntity
  8
SK2
  6
CONTINUOUS
370
25
 62
7
100
AcDbLine
 10
43.0
 20
14.3338095116624
 30
0.0
 11
43.27816625971867
 21
14.05564325194373
 31
0.0
  0
LINE
  5
9FF
330
1F
100
AcDbEntity
  8
SK2
  6
CONTINUOUS
370
25
 62
7
100
AcDbLine
 10
43.0
 20
14.75807358037433
 30
0.0
 11
43.63171965031194
 21
14.12635393006239
 31
0.0
  0
LINE
  5
A00
330
1F
100
AcDbEntity
  8
SK2
  6
CONTINUOUS
370
25
 62
7
100
AcDbLine
 10
43.0
 20
15.18233764908626
 30
0.0
 11
43.98527304090521
 21
14.19706460818104
 31
0.0
  0
LINE
  5
A01
330
1F
100
AcDbEntity
  8
SK2
  6
CONTINUOUS
370
25
 62
7
100
AcDbLine
 10
43.0
 20
15.60660171779818
 30
0.0
 11
44.33882643149849
 21
14.2677752862997
 31
0.0
  0
LINE
  5
A02
330
1F
100
AcDbEntity
  8
SK2
  6
CONTINUOUS
370
25
 62
7
100
AcDbLine
 10
43.03856973313764
 20
15.99229605337247
 30
0.0
 11
44.69237982209176
 21
14.33848596441835
 31
0.0
  0
LINE
  5
A03
330
1F
100
AcDbEntity
  8
SK2
  6
CONTINUOUS
370
25
 62
7
100
AcDbLine
 10
43.56889981902755
 20
15.88623003619449
 30
0.0
 11
45.04593321268504
 21
14.40919664253701
 31
0.0
  0
LINE
  5
A04
330
1F
100
AcDbEntity
  8
SK2
  6
CONTINUOUS
370
25
 62
7
100
AcDbLine
 10
44.09922990491746
 20
15.78016401901651
 30
0.0
 11
45.39948660327831
 21
14.47990732065566
 31
0.0
  0
LINE
  5
A05
330
1F
100
AcDbEntity
  8
SK2
  6
CONTINUOUS
370
25
 62
7
100
AcDbLine
 10
44.62955999080737
 20
15.67409800183852
 30
0.0
 11
45.75303999387158
 21
14.55061799877432
 31
0.0
  0
LINE
  5
A06
330
1F
100
AcDbEntity
  8
SK2
  6
CONTINUOUS
370
25
 62
7
100
AcDbLine
 10
45.15989007669728
 20
15.56803198466054
 30
0.0
 11
46.10659338446486
 21
14.62132867689297
 31
0.0
  0
LINE
  5
A07
330
1F
100
AcDbEntity
  8
SK2
  6
CONTINUOUS
370
25
 62
7
100
AcDbLine
 10
45.69022016258719
 20
15.46196596748256
 30
0.0
 11
46.46014677505813
 21
14.69203935501162
 31
0.0
  0
LINE
  5
A08
330
1F
100
AcDbEntity
  8
SK2
  6
CONTINUOUS
370
25
 62
7
100
AcDbLine
 10
46.2205502484771
 20
15.35589995030458
 30
0.0
 11
46.8137001656514
 21
14.76275003313028
 31
0.0
  0
LINE
  5
A09
330
1F
100
AcDbEntity
  8
SK2
  6
CONTINUOUS
370
25
 62
7
100
AcDbLine
 10
46.75088033436701
 20
15.2498339331266
 30
0.0
 11
47.16725355624467
 21
14.83346071124894
 31
0.0
  0
LINE
  5
A0A
330
1F
100
AcDbEntity
  8
SK2
  6
CONTINUOUS
370
25
 62
7
100
AcDbLine
 10
47.28121042025693
 20
15.14376791594862
 30
0.0
 11
47.52080694683795
 21
14.90417138936759
 31
0.0
  0
LINE
  5
A0B
330
1F
100
AcDbEntity
  8
SK2
  6
CONTINUOUS
370
25
 62
7
100
AcDbLine
 10
47.81154050614683
 20
15.03770189877063
 30
0.0
 11
47.87436033743123
 21
14.97488206748625
 31
0.0
  0
TEXT
  5
A0C
330
1F
100
AcDbEntity
  8
SK2
  6
CONTINUOUS
370
25
 62
7
100
AcDbText
 10
21.08333333333333
 20
16.50001
 30
0.0
 40
3.5
  1
48
 72
     1
 11
24.0
 21
16.50001
 31
0.0
100
AcDbText
  0
LINE
  5
A0D
330
1F
100
AcDbEntity
  8
2
  6
CONTINUOUS
370
25
 62
7
100
AcDbLine
 10
126.99908186
 20
-2.75
 30
0.0
 11
161.0
 21
-2.750000000000004
 31
0.0
  0
LINE
  5
A0E
330
1F
100
AcDbEntity
  8
2
  6
CONTINUOUS
370
25
 62
7
100
AcDbLine
 10
161.0
 20
2.749999999999996
 30
0.0
 11
126.99908186
 21
2.75
 31
0.0
  0
LINE
  5
A0F
330
1F
100
AcDbEntity
  8
2
  6
CONTINUOUS
370
25
 62
7
100
AcDbLine
 10
160.0
 20
-9.750000000000004
 30
0.0
 11
160.0
 21
22.17499999999999
 31
0.0
  0
LINE
  5
A10
330
1F
100
AcDbEntity
  8
2
  6
CONTINUOUS
370
25
 62
7
100
AcDbLine
 10
160.0
 20
-2.750000000000004
 30
0.0
 11
161.0
 21
-7.750000000000004
 31
0.0
  0
LINE
  5
A11
330
1F
100
AcDbEntity
  8
2
  6
CONTINUOUS
370
25
 62
7
100
AcDbLine
 10
161.0
 20
-7.750000000000004
 30
0.0
 11
159.0
 21
-7.750000000000004
 31
0.0
  0
LINE
  5
A12
330
1F
100
AcDbEntity
  8
2
  6
CONTINUOUS
370
25
 62
7
100
AcDbLine
 10
159.0
 20
-7.750000000000004
 30
0.0
 11
160.0
 21
-2.750000000000004
 31
0.0
  0
LINE
  5
A13
330
1F
100
AcDbEntity
  8
2
  6
CONTINUOUS
370
25
 62
7
100
AcDbLine
 10
160.9393026716527
 20
-7.75
 30
0.0
 11
160.9898837786088
 21
-7.699418893043955
 31
0.0
  0
LINE
  5
A14
330
1F
100
AcDbEntity
  8
2
  6
CONTINUOUS
370
25
 62
7
100
AcDbLine
 10
160.5150386029408
 20
-7.75
 30
0.0
 11
160.9191731004901
 21
-7.345865502450664
 31
0.0
  0
LINE
  5
A15
330
1F
100
AcDbEntity
  8
2
  6
CONTINUOUS
370
25
 62
7
100
AcDbLine
 10
160.0907745342289
 20
-7.75
 30
0.0
 11
160.8484624223715
 21
-6.992312111857402
 31
0.0
  0
LINE
  5
A16
330
1F
100
AcDbEntity
  8
2
  6
CONTINUOUS
370
25
 62
7
100
AcDbLine
 10
159.666510465517
 20
-7.75
 30
0.0
 11
160.7777517442528
 21
-6.638758721264111
 31
0.0
  0
LINE
  5
A17
330
1F
100
AcDbEntity
  8
2
  6
CONTINUOUS
370
25
 62
7
100
AcDbLine
 10
159.2422463968051
 20
-7.75
 30
0.0
 11
160.7070410661342
 21
-6.285205330670848
 31
0.0
  0
LINE
  5
A18
330
1F
100
AcDbEntity
  8
2
  6
CONTINUOUS
370
25
 62
7
100
AcDbLine
 10
159.0455044179767
 20
-7.522477910116407
 30
0.0
 11
160.6363303880156
 21
-5.931651940077572
 31
0.0
  0
LINE
  5
A19
330
1F
100
AcDbEntity
  8
2
  6
CONTINUOUS
370
25
 62
7
100
AcDbLine
 10
159.1515704351547
 20
-6.992147824226493
 30
0.0
 11
160.5656197098969
 21
-5.578098549484338
 31
0.0
  0
LINE
  5
A1A
330
1F
100
AcDbEntity
  8
2
  6
CONTINUOUS
370
25
 62
7
100
AcDbLine
 10
159.2576364523327
 20
-6.461817738336592
 30
0.0
 11
160.4949090317782
 21
-5.224545158891075
 31
0.0
  0
LINE
  5
A1B
330
1F
100
AcDbEntity
  8
2
  6
CONTINUOUS
370
25
 62
7
100
AcDbLine
 10
159.3637024695107
 20
-5.931487652446677
 30
0.0
 11
160.4241983536596
 21
-4.870991768297799
 31
0.0
  0
LINE
  5
A1C
330
1F
100
AcDbEntity
  8
2
  6
CONTINUOUS
370
25
 62
7
100
AcDbLine
 10
159.4697684866887
 20
-5.401157566556776
 30
0.0
 11
160.3534876755409
 21
-4.517438377704522
 31
0.0
  0
LINE
  5
A1D
330
1F
100
AcDbEntity
  8
2
  6
CONTINUOUS
370
25
 62
7
100
AcDbLine
 10
159.5758345038666
 20
-4.870827480666875
 30
0.0
 11
160.2827769974222
 21
-4.163884987111274
 31
0.0
  0
LINE
  5
A1E
330
1F
100
AcDbEntity
  8
2
  6
CONTINUOUS
370
25
 62
7
100
AcDbLine
 10
159.6819005210446
 20
-4.340497394776961
 30
0.0
 11
160.2120663193036
 21
-3.810331596517983
 31
0.0
  0
LINE
  5
A1F
330
1F
100
AcDbEntity
  8
2
  6
CONTINUOUS
370
25
 62
7
100
AcDbLine
 10
159.7879665382226
 20
-3.810167308887046
 30
0.0
 11
160.1413556411849
 21
-3.456778205924721
 31
0.0
  0
LINE
  5
A20
330
1F
100
AcDbEntity
  8
2
  6
CONTINUOUS
370
25
 62
7
100
AcDbLine
 10
159.8940325554006
 20
-3.279837222997159
 30
0.0
 11
160.0706449630663
 21
-3.103224815331444
 31
0.0
  0
LINE
  5
A21
330
1F
100
AcDbEntity
  8
2
  6
CONTINUOUS
370
25
 62
7
100
AcDbLine
 10
159.0450721276185
 20
-7.524639361907489
 30
0.0
 11
159.270432765711
 21
-7.75
 31
0.0
  0
LINE
  5
A22
330
1F
100
AcDbEntity
  8
2
  6
CONTINUOUS
370
25
 62
7
100
AcDbLine
 10
159.1157828057371
 20
-7.171085971314241
 30
0.0
 11
159.6946968344229
 21
-7.75
 31
0.0
  0
LINE
  5
A23
330
1F
100
AcDbEntity
  8
2
  6
CONTINUOUS
370
25
 62
7
100
AcDbLine
 10
159.1864934838558
 20
-6.817532580720979
 30
0.0
 11
160.1189609031348
 21
-7.75
 31
0.0
  0
LINE
  5
A24
330
1F
100
AcDbEntity
  8
2
  6
CONTINUOUS
370
25
 62
7
100
AcDbLine
 10
159.2572041619745
 20
-6.463979190127702
 30
0.0
 11
160.5432249718468
 21
-7.75
 31
0.0
  0
LINE
  5
A25
330
1F
100
AcDbEntity
  8
2
  6
CONTINUOUS
370
25
 62
7
100
AcDbLine
 10
159.3279148400931
 20
-6.11042579953444
 30
0.0
 11
160.9674890405587
 21
-7.75
 31
0.0
  0
LINE
  5
A26
330
1F
100
AcDbEntity
  8
2
  6
CONTINUOUS
370
25
 62
7
100
AcDbLine
 10
159.3986255182118
 20
-5.756872408941163
 30
0.0
 11
160.9020617226823
 21
-7.260308613411752
 31
0.0
  0
LINE
  5
A27
330
1F
100
AcDbEntity
  8
2
  6
CONTINUOUS
370
25
 62
7
100
AcDbLine
 10
159.4693361963304
 20
-5.403319018347887
 30
0.0
 11
160.7959957055044
 21
-6.729978527521837
 31
0.0
  0
LINE
  5
A28
330
1F
100
AcDbEntity
  8
2
  6
CONTINUOUS
370
25
 62
7
100
AcDbLine
 10
159.540046874449
 20
-5.04976562775461
 30
0.0
 11
160.6899296883264
 21
-6.199648441631936
 31
0.0
  0
LINE
  5
A29
330
1F
100
AcDbEntity
  8
2
  6
CONTINUOUS
370
25
 62
7
100
AcDbLine
 10
159.6107575525677
 20
-4.696212237161362
 30
0.0
 11
160.5838636711484
 21
-5.669318355742035
 31
0.0
  0
LINE
  5
A2A
330
1F
100
AcDbEntity
  8
2
  6
CONTINUOUS
370
25
 62
7
100
AcDbLine
 10
159.6814682306864
 20
-4.342658846568085
 30
0.0
 11
160.4777976539704
 21
-5.138988269852106
 31
0.0
  0
LINE
  5
A2B
330
1F
100
AcDbEntity
  8
2
  6
CONTINUOUS
370
25
 62
7
100
AcDbLine
 10
159.752178908805
 20
-3.989105455974808
 30
0.0
 11
160.3717316367924
 21
-4.608658183962206
 31
0.0
  0
LINE
  5
A2C
330
1F
100
AcDbEntity
  8
2
  6
CONTINUOUS
370
25
 62
7
100
AcDbLine
 10
159.8228895869237
 20
-3.635552065381546
 30
0.0
 11
160.2656656196145
 21
-4.078328098072333
 31
0.0
  0
LINE
  5
A2D
330
1F
100
AcDbEntity
  8
2
  6
CONTINUOUS
370
25
 62
7
100
AcDbLine
 10
159.8936002650424
 20
-3.281998674788298
 30
0.0
 11
160.1595996024365
 21
-3.547998012182433
 31
0.0
  0
LINE
  5
A2E
330
1F
100
AcDbEntity
  8
2
  6
CONTINUOUS
370
25
 62
7
100
AcDbLine
 10
159.964310943161
 20
-2.928445284195007
 30
0.0
 11
160.0535335852585
 21
-3.017667926292518
 31
0.0
  0
LINE
  5
A2F
330
1F
100
AcDbEntity
  8
2
  6
CONTINUOUS
370
25
 62
7
100
AcDbLine
 10
160.0
 20
2.749999999999996
 30
0.0
 11
159.0
 21
7.749999999999996
 31
0.0
  0
LINE
  5
A30
330
1F
100
AcDbEntity
  8
2
  6
CONTINUOUS
370
25
 62
7
100
AcDbLine
 10
159.0
 20
7.749999999999996
 30
0.0
 11
161.0
 21
7.749999999999996
 31
0.0
  0
LINE
  5
A31
330
1F
100
AcDbEntity
  8
2
  6
CONTINUOUS
370
25
 62
7
100
AcDbLine
 10
161.0
 20
7.749999999999996
 30
0.0
 11
160.0
 21
2.749999999999996
 31
0.0
  0
LINE
  5
A32
330
1F
100
AcDbEntity
  8
2
  6
CONTINUOUS
370
25
 62
7
100
AcDbLine
 10
159.9621853638859
 20
2.939073180570674
 30
0.0
 11
160.0567219541712
 21
3.033609770856032
 31
0.0
  0
LINE
  5
A33
330
1F
100
AcDbEntity
  8
2
  6
CONTINUOUS
370
25
 62
7
100
AcDbLine
 10
159.8914746857672
 20
3.29262657116395
 30
0.0
 11
160.1627879713492
 21
3.563939856745932
 31
0.0
  0
LINE
  5
A34
330
1F
100
AcDbEntity
  8
2
  6
CONTINUOUS
370
25
 62
7
100
AcDbLine
 10
159.8207640076486
 20
3.646179961757213
 30
0.0
 11
160.2688539885272
 21
4.094269942635847
 31
0.0
  0
LINE
  5
A35
330
1F
100
AcDbEntity
  8
2
  6
CONTINUOUS
370
25
 62
7
100
AcDbLine
 10
159.7500533295299
 20
3.999733352350503
 30
0.0
 11
160.3749200057052
 21
4.624600028525762
 31
0.0
  0
LINE
  5
A36
330
1F
100
AcDbEntity
  8
2
  6
CONTINUOUS
370
25
 62
7
100
AcDbLine
 10
159.6793426514112
 20
4.353286742943752
 30
0.0
 11
160.4809860228831
 21
5.154930114415663
 31
0.0
  0
LINE
  5
A37
330
1F
100
AcDbEntity
  8
2
  6
CONTINUOUS
370
25
 62
7
100
AcDbLine
 10
159.6086319732926
 20
4.706840133537028
 30
0.0
 11
160.5870520400611
 21
5.685260200305564
 31
0.0
  0
LINE
  5
A38
330
1F
100
AcDbEntity
  8
2
  6
CONTINUOUS
370
25
 62
7
100
AcDbLine
 10
159.5379212951739
 20
5.060393524130319
 30
0.0
 11
160.6931180572391
 21
6.21559028619545
 31
0.0
  0
LINE
  5
A39
330
1F
100
AcDbEntity
  8
2
  6
CONTINUOUS
370
25
 62
7
100
AcDbLine
 10
159.4672106170553
 20
5.413946914723581
 30
0.0
 11
160.799184074417
 21
6.745920372085351
 31
0.0
  0
LINE
  5
A3A
330
1F
100
AcDbEntity
  8
2
  6
CONTINUOUS
370
25
 62
7
100
AcDbLine
 10
159.3964999389366
 20
5.767500305316858
 30
0.0
 11
160.905250091595
 21
7.276250457975252
 31
0.0
  0
LINE
  5
A3B
330
1F
100
AcDbEntity
  8
2
  6
CONTINUOUS
370
25
 62
7
100
AcDbLine
 10
159.325789260818
 20
6.121053695910106
 30
0.0
 11
160.9547355649079
 21
7.75
 31
0.0
  0
LINE
  5
A3C
330
1F
100
AcDbEntity
  8
2
  6
CONTINUOUS
370
25
 62
7
100
AcDbLine
 10
159.2550785826993
 20
6.474607086503383
 30
0.0
 11
160.5304714961959
 21
7.75
 31
0.0
  0
LINE
  5
A3D
330
1F
100
AcDbEntity
  8
2
  6
CONTINUOUS
370
25
 62
7
100
AcDbLine
 10
159.1843679045807
 20
6.82816047709666
 30
0.0
 11
160.106207427484
 21
7.75
 31
0.0
  0
LINE
  5
A3E
330
1F
100
AcDbEntity
  8
2
  6
CONTINUOUS
370
25
 62
7
100
AcDbLine
 10
159.113657226462
 20
7.181713867689936
 30
0.0
 11
159.6819433587721
 21
7.75
 31
0.0
  0
LINE
  5
A3F
330
1F
100
AcDbEntity
  8
2
  6
CONTINUOUS
370
25
 62
7
100
AcDbLine
 10
159.0429465483434
 20
7.535267258283213
 30
0.0
 11
159.2576792900601
 21
7.75
 31
0.0
  0
LINE
  5
A40
330
1F
100
AcDbEntity
  8
2
  6
CONTINUOUS
370
25
 62
7
100
AcDbLine
 10
159.9436093447667
 20
3.031953276166348
 30
0.0
 11
160.0375937701555
 21
2.93796885077758
 31
0.0
  0
LINE
  5
A41
330
1F
100
AcDbEntity
  8
2
  6
CONTINUOUS
370
25
 62
7
100
AcDbLine
 10
159.8375433275888
 20
3.562283362056249
 30
0.0
 11
160.1083044482742
 21
3.291522241370842
 31
0.0
  0
LINE
  5
A42
330
1F
100
AcDbEntity
  8
2
  6
CONTINUOUS
370
25
 62
7
100
AcDbLine
 10
159.7314773104108
 20
4.092613447946164
 30
0.0
 11
160.1790151263928
 21
3.64507563196409
 31
0.0
  0
LINE
  5
A43
330
1F
100
AcDbEntity
  8
2
  6
CONTINUOUS
370
25
 62
7
100
AcDbLine
 10
159.6254112932328
 20
4.622943533836079
 30
0.0
 11
160.2497258045115
 21
3.998629022557353
 31
0.0
  0
LINE
  5
A44
330
1F
100
AcDbEntity
  8
2
  6
CONTINUOUS
370
25
 62
7
100
AcDbLine
 10
159.5193452760548
 20
5.153273619725979
 30
0.0
 11
160.3204364826302
 21
4.352182413150629
 31
0.0
  0
LINE
  5
A45
330
1F
100
AcDbEntity
  8
2
  6
CONTINUOUS
370
25
 62
7
100
AcDbLine
 10
159.4132792588768
 20
5.683603705615866
 30
0.0
 11
160.3911471607488
 21
4.705735803743906
 31
0.0
  0
LINE
  5
A46
330
1F
100
AcDbEntity
  8
2
  6
CONTINUOUS
370
25
 62
7
100
AcDbLine
 10
159.3072132416988
 20
6.213933791505781
 30
0.0
 11
160.4618578388674
 21
5.059289194337168
 31
0.0
  0
LINE
  5
A47
330
1F
100
AcDbEntity
  8
2
  6
CONTINUOUS
370
25
 62
7
100
AcDbLine
 10
159.2011472245209
 20
6.744263877395696
 30
0.0
 11
160.5325685169861
 21
5.412842584930459
 31
0.0
  0
LINE
  5
A48
330
1F
100
AcDbEntity
  8
2
  6
CONTINUOUS
370
25
 62
7
100
AcDbLine
 10
159.0950812073429
 20
7.274593963285582
 30
0.0
 11
160.6032791951047
 21
5.766395975523722
 31
0.0
  0
LINE
  5
A49
330
1F
100
AcDbEntity
  8
2
  6
CONTINUOUS
370
25
 62
7
100
AcDbLine
 10
159.0439392393404
 20
7.75
 30
0.0
 11
160.6739898732234
 21
6.119949366116998
 31
0.0
  0
LINE
  5
A4A
330
1F
100
AcDbEntity
  8
2
  6
CONTINUOUS
370
25
 62
7
100
AcDbLine
 10
159.4682033080523
 20
7.75
 30
0.0
 11
160.7447005513421
 21
6.473502756710246
 31
0.0
  0
LINE
  5
A4B
330
1F
100
AcDbEntity
  8
2
  6
CONTINUOUS
370
25
 62
7
100
AcDbLine
 10
159.8924673767642
 20
7.75
 30
0.0
 11
160.8154112294607
 21
6.827056147303537
 31
0.0
  0
LINE
  5
A4C
330
1F
100
AcDbEntity
  8
2
  6
CONTINUOUS
370
25
 62
7
100
AcDbLine
 10
160.3167314454762
 20
7.75
 30
0.0
 11
160.8861219075794
 21
7.180609537896814
 31
0.0
  0
LINE
  5
A4D
330
1F
100
AcDbEntity
  8
2
  6
CONTINUOUS
370
25
 62
7
100
AcDbLine
 10
160.7409955141881
 20
7.75
 30
0.0
 11
160.956832585698
 21
7.534162928490076
 31
0.0
  0
TEXT
  5
A4E
330
1F
100
AcDbEntity
  8
2
  6
CONTINUOUS
370
25
 62
7
100
AcDbText
 10
158.5
 20
13.73749999999999
 30
0.0
 40
3.5
  1
5.5
 50
89.99999999999997
 72
     1
 11
158.5
 21
17.23749999999999
 31
0.0
100
AcDbText
  0
CIRCLE
  5
A4F
330
1F
100
AcDbEntity
  8
2
  6
CONTINUOUS
370
25
 62
7
100
AcDbCircle
 10
156.75
 20
10.76249999999999
 30
0.0
 40
1.4
  0
LINE
  5
A50
330
1F
100
AcDbEntity
  8
2
  6
CONTINUOUS
370
25
 62
7
100
AcDbLine
 10
158.15
 20
9.362499999999994
 30
0.0
 11
155.35
 21
12.16249999999999
 31
0.0
  0
LINE
  5
A51
330
1F
100
AcDbEntity
  8
2
  6
CONTINUOUS
370
25
 62
7
100
AcDbLine
 10
48.0
 20
2.75
 30
0.0
 11
48.0
 21
26.0
 31
0.0
  0
LINE
  5
A52
330
1F
100
AcDbEntity
  8
2
  6
CONTINUOUS
370
25
 62
7
100
AcDbLine
 10
128.0
 20
26.0
 30
0.0
 11
128.0
 21
0.0
 31
0.0
  0
LINE
  5
A53
330
1F
100
AcDbEntity
  8
2
  6
CONTINUOUS
370
25
 62
7
100
AcDbLine
 10
48.0
 20
25.0
 30
0.0
 11
128.0
 21
25.0
 31
0.0
  0
LINE
  5
A54
330
1F
100
AcDbEntity
  8
2
  6
CONTINUOUS
370
25
 62
7
100
AcDbLine
 10
48.0
 20
25.0
 30
0.0
 11
53.0
 21
26.0
 31
0.0
  0
LINE
  5
A55
330
1F
100
AcDbEntity
  8
2
  6
CONTINUOUS
370
25
 62
7
100
AcDbLine
 10
53.0
 20
26.0
 30
0.0
 11
53.0
 21
24.0
 31
0.0
  0
LINE
  5
A56
330
1F
100
AcDbEntity
  8
2
  6
CONTINUOUS
370
25
 62
7
100
AcDbLine
 10
53.0
 20
24.0
 30
0.0
 11
48.0
 21
25.0
 31
0.0
  0
LINE
  5
A57
330
1F
100
AcDbEntity
  8
2
  6
CONTINUOUS
370
25
 62
7
100
AcDbLine
 10
52.92343075663604
 20
24.01531384867279
 30
0.0
 11
53.0
 21
24.09188309203675
 31
0.0
  0
LINE
  5
A58
330
1F
100
AcDbEntity
  8
2
  6
CONTINUOUS
370
25
 62
7
100
AcDbLine
 10
52.56987736604277
 20
24.08602452679144
 30
0.0
 11
53.0
 21
24.51614716074867
 31
0.0
  0
LINE
  5
A59
330
1F
100
AcDbEntity
  8
2
  6
CONTINUOUS
370
25
 62
7
100
AcDbLine
 10
52.2163239754495
 20
24.1567352049101
 30
0.0
 11
53.0
 21
24.9404112294606
 31
0.0
  0
LINE
  5
A5A
330
1F
100
AcDbEntity
  8
2
  6
CONTINUOUS
370
25
 62
7
100
AcDbLine
 10
51.86277058485623
 20
24.22744588302875
 30
0.0
 11
53.0
 21
25.36467529817253
 31
0.0
  0
LINE
  5
A5B
330
1F
100
AcDbEntity
  8
2
  6
CONTINUOUS
370
25
 62
7
100
AcDbLine
 10
51.50921719426295
 20
24.29815656114741
 30
0.0
 11
53.0
 21
25.78893936688446
 31
0.0
  0
LINE
  5
A5C
330
1F
100
AcDbEntity
  8
2
  6
CONTINUOUS
370
25
 62
7
100
AcDbLine
 10
51.15566380366968
 20
24.36886723926606
 30
0.0
 11
52.73349570550452
 21
25.9466991411009
 31
0.0
  0
LINE
  5
A5D
330
1F
100
AcDbEntity
  8
2
  6
CONTINUOUS
370
25
 62
7
100
AcDbLine
 10
50.80211041307641
 20
24.43957791738472
 30
0.0
 11
52.20316561961462
 21
25.84063312392292
 31
0.0
  0
LINE
  5
A5E
330
1F
100
AcDbEntity
  8
2
  6
CONTINUOUS
370
25
 62
7
100
AcDbLine
 10
50.44855702248314
 20
24.51028859550337
 30
0.0
 11
51.6728355337247
 21
25.73456710674494
 31
0.0
  0
LINE
  5
A5F
330
1F
100
AcDbEntity
  8
2
  6
CONTINUOUS
370
25
 62
7
100
AcDbLine
 10
50.09500363188986
 20
24.58099927362203
 30
0.0
 11
51.14250544783479
 21
25.62850108956696
 31
0.0
  0
LINE
  5
A60
330
1F
100
AcDbEntity
  8
2
  6
CONTINUOUS
370
25
 62
7
100
AcDbLine
 10
49.74145024129659
 20
24.65170995174068
 30
0.0
 11
50.61217536194489
 21
25.52243507238898
 31
0.0
  0
LINE
  5
A61
330
1F
100
AcDbEntity
  8
2
  6
CONTINUOUS
370
25
 62
7
100
AcDbLine
 10
49.38789685070331
 20
24.72242062985934
 30
0.0
 11
50.08184527605498
 21
25.416369055211
 31
0.0
  0
LINE
  5
A62
330
1F
100
AcDbEntity
  8
2
  6
CONTINUOUS
370
25
 62
7
100
AcDbLine
 10
49.03434346011004
 20
24.79313130797799
 30
0.0
 11
49.55151519016506
 21
25.31030303803301
 31
0.0
  0
LINE
  5
A63
330
1F
100
AcDbEntity
  8
2
  6
CONTINUOUS
370
25
 62
7
100
AcDbLine
 10
48.68079006951677
 20
24.86384198609665
 30
0.0
 11
49.02118510427515
 21
25.20423702085503
 31
0.0
  0
LINE
  5
A64
330
1F
100
AcDbEntity
  8
2
  6
CONTINUOUS
370
25
 62
7
100
AcDbLine
 10
48.3272366789235
 20
24.9345526642153
 30
0.0
 11
48.49085501838525
 21
25.09817100367705
 31
0.0
  0
LINE
  5
A65
330
1F
100
AcDbEntity
  8
2
  6
CONTINUOUS
370
25
 62
7
100
AcDbLine
 10
48.02631671166979
 20
25.00526334233396
 30
0.0
 11
48.03947506750468
 21
24.99210498649906
 31
0.0
  0
LINE
  5
A66
330
1F
100
AcDbEntity
  8
2
  6
CONTINUOUS
370
25
 62
7
100
AcDbLine
 10
48.37987010226306
 20
25.07597402045261
 30
0.0
 11
48.56980515339459
 21
24.88603896932108
 31
0.0
  0
LINE
  5
A67
330
1F
100
AcDbEntity
  8
2
  6
CONTINUOUS
370
25
 62
7
100
AcDbLine
 10
48.73342349285633
 20
25.14668469857127
 30
0.0
 11
49.1001352392845
 21
24.7799729521431
 31
0.0
  0
LINE
  5
A68
330
1F
100
AcDbEntity
  8
2
  6
CONTINUOUS
370
25
 62
7
100
AcDbLine
 10
49.08697688344961
 20
25.21739537668992
 30
0.0
 11
49.63046532517441
 21
24.67390693496512
 31
0.0
  0
LINE
  5
A69
330
1F
100
AcDbEntity
  8
2
  6
CONTINUOUS
370
25
 62
7
100
AcDbLine
 10
49.44053027404288
 20
25.28810605480858
 30
0.0
 11
50.16079541106432
 21
24.56784091778714
 31
0.0
  0
LINE
  5
A6A
330
1F
100
AcDbEntity
  8
2
  6
CONTINUOUS
370
25
 62
7
100
AcDbLine
 10
49.79408366463615
 20
25.35881673292723
 30
0.0
 11
50.69112549695423
 21
24.46177490060915
 31
0.0
  0
LINE
  5
A6B
330
1F
100
AcDbEntity
  8
2
  6
CONTINUOUS
370
25
 62
7
100
AcDbLine
 10
50.14763705522942
 20
25.42952741104589
 30
0.0
 11
51.22145558284414
 21
24.35570888343117
 31
0.0
  0
LINE
  5
A6C
330
1F
100
AcDbEntity
  8
2
  6
CONTINUOUS
370
25
 62
7
100
AcDbLine
 10
50.5011904458227
 20
25.50023808916454
 30
0.0
 11
51.75178566873405
 21
24.24964286625319
 31
0.0
  0
LINE
  5
A6D
330
1F
100
AcDbEntity
  8
2
  6
CONTINUOUS
370
25
 62
7
100
AcDbLine
 10
50.85474383641597
 20
25.57094876728319
 30
0.0
 11
52.28211575462396
 21
24.14357684907521
 31
0.0
  0
LINE
  5
A6E
330
1F
100
AcDbEntity
  8
2
  6
CONTINUOUS
370
25
 62
7
100
AcDbLine
 10
51.20829722700925
 20
25.64165944540185
 30
0.0
 11
52.81244584051387
 21
24.03751083189723
 31
0.0
  0
LINE
  5
A6F
330
1F
100
AcDbEntity
  8
2
  6
CONTINUOUS
370
25
 62
7
100
AcDbLine
 10
51.56185061760252
 20
25.7123701235205
 30
0.0
 11
53.0
 21
24.27422074112302
 31
0.0
  0
LINE
  5
A70
330
1F
100
AcDbEntity
  8
2
  6
CONTINUOUS
370
25
 62
7
100
AcDbLine
 10
51.91540400819579
 20
25.78308080163916
 30
0.0
 11
53.0
 21
24.69848480983495
 31
0.0
  0
LINE
  5
A71
330
1F
100
AcDbEntity
  8
2
  6
CONTINUOUS
370
25
 62
7
100
AcDbLine
 10
52.26895739878907
 20
25.85379147975781
 30
0.0
 11
53.0
 21
25.12274887854688
 31
0.0
  0
LINE
  5
A72
330
1F
100
AcDbEntity
  8
2
  6
CONTINUOUS
370
25
 62
7
100
AcDbLine
 10
52.62251078938234
 20
25.92450215787647
 30
0.0
 11
53.0
 21
25.54701294725881
 31
0.0
  0
LINE
  5
A73
330
1F
100
AcDbEntity
  8
2
  6
CONTINUOUS
370
25
 62
7
100
AcDbLine
 10
52.97606417997561
 20
25.99521283599512
 30
0.0
 11
53.0
 21
25.97127701597073
 31
0.0
  0
LINE
  5
A74
330
1F
100
AcDbEntity
  8
2
  6
CONTINUOUS
370
25
 62
7
100
AcDbLine
 10
128.0
 20
25.0
 30
0.0
 11
123.0
 21
24.0
 31
0.0
  0
LINE
  5
A75
330
1F
100
AcDbEntity
  8
2
  6
CONTINUOUS
370
25
 62
7
100
AcDbLine
 10
123.0
 20
24.0
 30
0.0
 11
123.0
 21
26.0
 31
0.0
  0
LINE
  5
A76
330
1F
100
AcDbEntity
  8
2
  6
CONTINUOUS
370
25
 62
7
100
AcDbLine
 10
123.0
 20
26.0
 30
0.0
 11
128.0
 21
25.0
 31
0.0
  0
LINE
  5
A77
330
1F
100
AcDbEntity
  8
2
  6
CONTINUOUS
370
25
 62
7
100
AcDbLine
 10
127.7861412230524
 20
24.95722824461049
 30
0.0
 11
127.857427482035
 21
25.028514503593
 31
0.0
  0
LINE
  5
A78
330
1F
100
AcDbEntity
  8
2
  6
CONTINUOUS
370
25
 62
7
100
AcDbLine
 10
127.2558111371625
 20
24.85116222743251
 30
0.0
 11
127.5038740914417
 21
25.09922518171166
 31
0.0
  0
LINE
  5
A79
330
1F
100
AcDbEntity
  8
2
  6
CONTINUOUS
370
25
 62
7
100
AcDbLine
 10
126.7254810512726
 20
24.74509621025452
 30
0.0
 11
127.1503207008484
 21
25.16993585983031
 31
0.0
  0
LINE
  5
A7A
330
1F
100
AcDbEntity
  8
2
  6
CONTINUOUS
370
25
 62
7
100
AcDbLine
 10
126.1951509653827
 20
24.63903019307655
 30
0.0
 11
126.7967673102551
 21
25.24064653794896
 31
0.0
  0
LINE
  5
A7B
330
1F
100
AcDbEntity
  8
2
  6
CONTINUOUS
370
25
 62
7
100
AcDbLine
 10
125.6648208794928
 20
24.53296417589857
 30
0.0
 11
126.4432139196619
 21
25.31135721606762
 31
0.0
  0
LINE
  5
A7C
330
1F
100
AcDbEntity
  8
2
  6
CONTINUOUS
370
25
 62
7
100
AcDbLine
 10
125.1344907936029
 20
24.42689815872059
 30
0.0
 11
126.0896605290686
 21
25.38206789418628
 31
0.0
  0
LINE
  5
A7D
330
1F
100
AcDbEntity
  8
2
  6
CONTINUOUS
370
25
 62
7
100
AcDbLine
 10
124.604160707713
 20
24.3208321415426
 30
0.0
 11
125.7361071384753
 21
25.45277857230493
 31
0.0
  0
LINE
  5
A7E
330
1F
100
AcDbEntity
  8
2
  6
CONTINUOUS
370
25
 62
7
100
AcDbLine
 10
124.0738306218231
 20
24.21476612436462
 30
0.0
 11
125.3825537478821
 21
25.52348925042358
 31
0.0
  0
LINE
  5
A7F
330
1F
100
AcDbEntity
  8
2
  6
CONTINUOUS
370
25
 62
7
100
AcDbLine
 10
123.5435005359332
 20
24.10870010718664
 30
0.0
 11
125.0290003572888
 21
25.59419992854224
 31
0.0
  0
LINE
  5
A80
330
1F
100
AcDbEntity
  8
2
  6
CONTINUOUS
370
25
 62
7
100
AcDbLine
 10
123.0131704500433
 20
24.00263409000866
 30
0.0
 11
124.6754469666955
 21
25.66491060666088
 31
0.0
  0
LINE
  5
A81
330
1F
100
AcDbEntity
  8
2
  6
CONTINUOUS
370
25
 62
7
100
AcDbLine
 10
123.0
 20
24.41372770867729
 30
0.0
 11
124.3218935761022
 21
25.73562128477953
 31
0.0
  0
LINE
  5
A82
330
1F
100
AcDbEntity
  8
2
  6
CONTINUOUS
370
25
 62
7
100
AcDbLine
 10
123.0
 20
24.83799177738922
 30
0.0
 11
123.968340185509
 21
25.8063319628982
 31
0.0
  0
LINE
  5
A83
330
1F
100
AcDbEntity
  8
2
  6
CONTINUOUS
370
25
 62
7
100
AcDbLine
 10
123.0
 20
25.26225584610114
 30
0.0
 11
123.6147867949157
 21
25.87704264101686
 31
0.0
  0
LINE
  5
A84
330
1F
100
AcDbEntity
  8
2
  6
CONTINUOUS
370
25
 62
7
100
AcDbLine
 10
123.0
 20
25.68651991481306
 30
0.0
 11
123.2612334043224
 21
25.9477533191355
 31
0.0
  0
LINE
  5
A85
330
1F
100
AcDbEntity
  8
2
  6
CONTINUOUS
370
25
 62
7
100
AcDbLine
 10
123.0
 20
24.27779207859152
 30
0.0
 11
123.2314933988263
 21
24.04629867976526
 31
0.0
  0
LINE
  5
A86
330
1F
100
AcDbEntity
  8
2
  6
CONTINUOUS
370
25
 62
7
100
AcDbLine
 10
123.0
 20
24.70205614730344
 30
0.0
 11
123.5850467894195
 21
24.11700935788392
 31
0.0
  0
LINE
  5
A87
330
1F
100
AcDbEntity
  8
2
  6
CONTINUOUS
370
25
 62
7
100
AcDbLine
 10
123.0
 20
25.12632021601536
 30
0.0
 11
123.9386001800128
 21
24.18772003600256
 31
0.0
  0
LINE
  5
A88
330
1F
100
AcDbEntity
  8
2
  6
CONTINUOUS
370
25
 62
7
100
AcDbLine
 10
123.0
 20
25.55058428472728
 30
0.0
 11
124.2921535706061
 21
24.25843071412122
 31
0.0
  0
LINE
  5
A89
330
1F
100
AcDbEntity
  8
2
  6
CONTINUOUS
370
25
 62
7
100
AcDbLine
 10
123.0
 20
25.97484835343921
 30
0.0
 11
124.6457069611993
 21
24.32914139223988
 31
0.0
  0
LINE
  5
A8A
330
1F
100
AcDbEntity
  8
2
  6
CONTINUOUS
370
25
 62
7
100
AcDbLine
 10
123.4988905276889
 20
25.90022189446221
 30
0.0
 11
124.9992603517926
 21
24.39985207035852
 31
0.0
  0
LINE
  5
A8B
330
1F
100
AcDbEntity
  8
2
  6
CONTINUOUS
370
25
 62
7
100
AcDbLine
 10
124.0292206135788
 20
25.79415587728423
 30
0.0
 11
125.3528137423859
 21
24.47056274847718
 31
0.0
  0
LINE
  5
A8C
330
1F
100
AcDbEntity
  8
2
  6
CONTINUOUS
370
25
 62
7
100
AcDbLine
 10
124.5595506994687
 20
25.68808986010625
 30
0.0
 11
125.7063671329792
 21
24.54127342659584
 31
0.0
  0
LINE
  5
A8D
330
1F
100
AcDbEntity
  8
2
  6
CONTINUOUS
370
25
 62
7
100
AcDbLine
 10
125.0898807853586
 20
25.58202384292827
 30
0.0
 11
126.0599205235724
 21
24.61198410471448
 31
0.0
  0
LINE
  5
A8E
330
1F
100
AcDbEntity
  8
2
  6
CONTINUOUS
370
25
 62
7
100
AcDbLine
 10
125.6202108712485
 20
25.47595782575029
 30
0.0
 11
126.4134739141657
 21
24.68269478283314
 31
0.0
  0
LINE
  5
A8F
330
1F
100
AcDbEntity
  8
2
  6
CONTINUOUS
370
25
 62
7
100
AcDbLine
 10
126.1505409571384
 20
25.36989180857231
 30
0.0
 11
126.767027304759
 21
24.7534054609518
 31
0.0
  0
LINE
  5
A90
330
1F
100
AcDbEntity
  8
2
  6
CONTINUOUS
370
25
 62
7
100
AcDbLine
 10
126.6808710430283
 20
25.26382579139432
 30
0.0
 11
127.1205806953522
 21
24.82411613907044
 31
0.0
  0
LINE
  5
A91
330
1F
100
AcDbEntity
  8
2
  6
CONTINUOUS
370
25
 62
7
100
AcDbLine
 10
127.2112011289183
 20
25.15775977421633
 30
0.0
 11
127.4741340859455
 21
24.8948268171891
 31
0.0
  0
LINE
  5
A92
330
1F
100
AcDbEntity
  8
2
  6
CONTINUOUS
370
25
 62
7
100
AcDbLine
 10
127.7415312148082
 20
25.05169375703835
 30
0.0
 11
127.8276874765388
 21
24.96553749530776
 31
0.0
  0
TEXT
  5
A93
330
1F
100
AcDbEntity
  8
2
  6
CONTINUOUS
370
25
 62
7
100
AcDbText
 10
85.375
 20
26.5
 30
0.0
 40
3.5
  1
80
 72
     1
 11
88.0
 21
26.5
 31
0.0
100
AcDbText
  0
LINE
  5
A94
330
1F
100
AcDbEntity
  8
2
  6
CONTINUOUS
370
25
 62
7
100
AcDbLine
 10
61.0
 20
-2.75
 30
0.0
 11
61.0
 21
-36.0
 31
0.0
  0
LINE
  5
A95
330
1F
100
AcDbEntity
  8
2
  6
CONTINUOUS
370
25
 62
7
100
AcDbLine
 10
128.0
 20
-36.0
 30
0.0
 11
128.0
 21
0.0
 31
0.0
  0
LINE
  5
A96
330
1F
100
AcDbEntity
  8
2
  6
CONTINUOUS
370
25
 62
7
100
AcDbLine
 10
61.0
 20
-35.0
 30
0.0
 11
128.0
 21
-35.0
 31
0.0
  0
LINE
  5
A97
330
1F
100
AcDbEntity
  8
2
  6
CONTINUOUS
370
25
 62
7
100
AcDbLine
 10
61.0
 20
-35.0
 30
0.0
 11
66.0
 21
-34.0
 31
0.0
  0
LINE
  5
A98
330
1F
100
AcDbEntity
  8
2
  6
CONTINUOUS
370
25
 62
7
100
AcDbLine
 10
66.0
 20
-34.0
 30
0.0
 11
66.0
 21
-36.0
 31
0.0
  0
LINE
  5
A99
330
1F
100
AcDbEntity
  8
2
  6
CONTINUOUS
370
25
 62
7
100
AcDbLine
 10
66.0
 20
-36.0
 30
0.0
 11
61.0
 21
-35.0
 31
0.0
  0
LINE
  5
A9A
330
1F
100
AcDbEntity
  8
2
  6
CONTINUOUS
370
25
 62
7
100
AcDbLine
 10
65.83230121618831
 20
-35.96646024323766
 30
0.0
 11
66.0
 21
-35.79876145942596
 31
0.0
  0
LINE
  5
A9B
330
1F
100
AcDbEntity
  8
2
  6
CONTINUOUS
370
25
 62
7
100
AcDbLine
 10
65.47874782559504
 20
-35.895749565119
 30
0.0
 11
66.0
 21
-35.37449739071403
 31
0.0
  0
LINE
  5
A9C
330
1F
100
AcDbEntity
  8
2
  6
CONTINUOUS
370
25
 62
7
100
AcDbLine
 10
65.12519443500176
 20
-35.82503888700035
 30
0.0
 11
66.0
 21
-34.95023332200211
 31
0.0
  0
LINE
  5
A9D
330
1F
100
AcDbEntity
  8
2
  6
CONTINUOUS
370
25
 62
7
100
AcDbLine
 10
64.77164104440848
 20
-35.75432820888169
 30
0.0
 11
66.0
 21
-34.52596925329018
 31
0.0
  0
LINE
  5
A9E
330
1F
100
AcDbEntity
  8
2
  6
CONTINUOUS
370
25
 62
7
100
AcDbLine
 10
64.4180876538152
 20
-35.68361753076304
 30
0.0
 11
66.0
 21
-34.10170518457825
 31
0.0
  0
LINE
  5
A9F
330
1F
100
AcDbEntity
  8
2
  6
CONTINUOUS
370
25
 62
7
100
AcDbLine
 10
64.06453426322193
 20
-35.61290685264439
 30
0.0
 11
65.5968013948329
 21
-34.08063972103342
 31
0.0
  0
LINE
  5
AA0
330
1F
100
AcDbEntity
  8
2
  6
CONTINUOUS
370
25
 62
7
100
AcDbLine
 10
63.71098087262866
 20
-35.54219617452573
 30
0.0
 11
65.066471308943
 21
-34.1867057382114
 31
0.0
  0
LINE
  5
AA1
330
1F
100
AcDbEntity
  8
2
  6
CONTINUOUS
370
25
 62
7
100
AcDbLine
 10
63.35742748203538
 20
-35.47148549640707
 30
0.0
 11
64.53614122305308
 21
-34.29277175538939
 31
0.0
  0
LINE
  5
AA2
330
1F
100
AcDbEntity
  8
2
  6
CONTINUOUS
370
25
 62
7
100
AcDbLine
 10
63.00387409144211
 20
-35.40077481828842
 30
0.0
 11
64.00581113716316
 21
-34.39883777256738
 31
0.0
  0
LINE
  5
AA3
330
1F
100
AcDbEntity
  8
2
  6
CONTINUOUS
370
25
 62
7
100
AcDbLine
 10
62.65032070084883
 20
-35.33006414016977
 30
0.0
 11
63.47548105127325
 21
-34.50490378974536
 31
0.0
  0
LINE
  5
AA4
330
1F
100
AcDbEntity
  8
2
  6
CONTINUOUS
370
25
 62
7
100
AcDbLine
 10
62.29676731025556
 20
-35.25935346205111
 30
0.0
 11
62.94515096538333
 21
-34.61096980692334
 31
0.0
  0
LINE
  5
AA5
330
1F
100
AcDbEntity
  8
2
  6
CONTINUOUS
370
25
 62
7
100
AcDbLine
 10
61.94321391966228
 20
-35.18864278393245
 30
0.0
 11
62.41482087949342
 21
-34.71703582410132
 31
0.0
  0
LINE
  5
AA6
330
1F
100
AcDbEntity
  8
2
  6
CONTINUOUS
370
25
 62
7
100
AcDbLine
 10
61.58966052906901
 20
-35.1179321058138
 30
0.0
 11
61.8844907936035
 21
-34.8231018412793
 31
0.0
  0
LINE
  5
AA7
330
1F
100
AcDbEntity
  8
2
  6
CONTINUOUS
370
25
 62
7
100
AcDbLine
 10
61.23610713847573
 20
-35.04722142769514
 30
0.0
 11
61.35416070771359
 21
-34.92916785845728
 31
0.0
  0
LINE
  5
AA8
330
1F
100
AcDbEntity
  8
2
  6
CONTINUOUS
370
25
 62
7
100
AcDbLine
 10
61.06540805168922
 20
-34.98691838966216
 30
0.0
 11
61.09811207753381
 21
-35.01962241550676
 31
0.0
  0
LINE
  5
AA9
330
1F
100
AcDbEntity
  8
2
  6
CONTINUOUS
370
25
 62
7
100
AcDbLine
 10
61.41896144228249
 20
-34.91620771154351
 30
0.0
 11
61.62844216342373
 21
-35.12568843268474
 31
0.0
  0
LINE
  5
AAA
330
1F
100
AcDbEntity
  8
2
  6
CONTINUOUS
370
25
 62
7
100
AcDbLine
 10
61.77251483287576
 20
-34.84549703342485
 30
0.0
 11
62.15877224931364
 21
-35.23175444986273
 31
0.0
  0
LINE
  5
AAB
330
1F
100
AcDbEntity
  8
2
  6
CONTINUOUS
370
25
 62
7
100
AcDbLine
 10
62.12606822346903
 20
-34.77478635530619
 30
0.0
 11
62.68910233520355
 21
-35.33782046704071
 31
0.0
  0
LINE
  5
AAC
330
1F
100
AcDbEntity
  8
2
  6
CONTINUOUS
370
25
 62
7
100
AcDbLine
 10
62.47962161406231
 20
-34.70407567718754
 30
0.0
 11
63.21943242109347
 21
-35.44388648421869
 31
0.0
  0
LINE
  5
AAD
330
1F
100
AcDbEntity
  8
2
  6
CONTINUOUS
370
25
 62
7
100
AcDbLine
 10
62.83317500465559
 20
-34.63336499906889
 30
0.0
 11
63.74976250698337
 21
-35.54995250139667
 31
0.0
  0
LINE
  5
AAE
330
1F
100
AcDbEntity
  8
2
  6
CONTINUOUS
370
25
 62
7
100
AcDbLine
 10
63.18672839524886
 20
-34.56265432095023
 30
0.0
 11
64.28009259287329
 21
-35.65601851857465
 31
0.0
  0
LINE
  5
AAF
330
1F
100
AcDbEntity
  8
2
  6
CONTINUOUS
370
25
 62
7
100
AcDbLine
 10
63.54028178584214
 20
-34.49194364283157
 30
0.0
 11
64.8104226787632
 21
-35.76208453575263
 31
0.0
  0
LINE
  5
AB0
330
1F
100
AcDbEntity
  8
2
  6
CONTINUOUS
370
25
 62
7
100
AcDbLine
 10
63.89383517643541
 20
-34.42123296471292
 30
0.0
 11
65.34075276465312
 21
-35.86815055293062
 31
0.0
  0
LINE
  5
AB1
330
1F
100
AcDbEntity
  8
2
  6
CONTINUOUS
370
25
 62
7
100
AcDbLine
 10
64.24738856702868
 20
-34.35052228659427
 30
0.0
 11
65.87108285054303
 21
-35.97421657010861
 31
0.0
  0
LINE
  5
AB2
330
1F
100
AcDbEntity
  8
2
  6
CONTINUOUS
370
25
 62
7
100
AcDbLine
 10
64.60094195762196
 20
-34.27981160847561
 30
0.0
 11
66.0
 21
-35.67886965085364
 31
0.0
  0
LINE
  5
AB3
330
1F
100
AcDbEntity
  8
2
  6
CONTINUOUS
370
25
 62
7
100
AcDbLine
 10
64.95449534821523
 20
-34.20910093035695
 30
0.0
 11
66.0
 21
-35.25460558214171
 31
0.0
  0
LINE
  5
AB4
330
1F
100
AcDbEntity
  8
2
  6
CONTINUOUS
370
25
 62
7
100
AcDbLine
 10
65.30804873880851
 20
-34.1383902522383
 30
0.0
 11
66.0
 21
-34.83034151342979
 31
0.0
  0
LINE
  5
AB5
330
1F
100
AcDbEntity
  8
2
  6
CONTINUOUS
370
25
 62
7
100
AcDbLine
 10
65.66160212940179
 20
-34.06767957411964
 30
0.0
 11
66.0
 21
-34.40607744471785
 31
0.0
  0
LINE
  5
AB6
330
1F
100
AcDbEntity
  8
2
  6
CONTINUOUS
370
25
 62
7
100
AcDbLine
 10
128.0
 20
-35.0
 30
0.0
 11
123.0
 21
-36.0
 31
0.0
  0
LINE
  5
AB7
330
1F
100
AcDbEntity
  8
2
  6
CONTINUOUS
370
25
 62
7
100
AcDbLine
 10
123.0
 20
-36.0
 30
0.0
 11
123.0
 21
-34.0
 31
0.0
  0
LINE
  5
AB8
330
1F
100
AcDbEntity
  8
2
  6
CONTINUOUS
370
25
 62
7
100
AcDbLine
 10
123.0
 20
-34.0
 30
0.0
 11
128.0
 21
-35.0
 31
0.0
  0
LINE
  5
AB9
330
1F
100
AcDbEntity
  8
2
  6
CONTINUOUS
370
25
 62
7
100
AcDbLine
 10
127.4792690266855
 20
-35.1041461946629
 30
0.0
 11
127.6528460177903
 21
-34.93056920355808
 31
0.0
  0
LINE
  5
ABA
330
1F
100
AcDbEntity
  8
2
  6
CONTINUOUS
370
25
 62
7
100
AcDbLine
 10
126.9489389407956
 20
-35.21021221184087
 30
0.0
 11
127.2992926271971
 21
-34.85985852543942
 31
0.0
  0
LINE
  5
ABB
330
1F
100
AcDbEntity
  8
2
  6
CONTINUOUS
370
25
 62
7
100
AcDbLine
 10
126.4186088549057
 20
-35.31627822901886
 30
0.0
 11
126.9457392366038
 21
-34.78914784732076
 31
0.0
  0
LINE
  5
ABC
330
1F
100
AcDbEntity
  8
2
  6
CONTINUOUS
370
25
 62
7
100
AcDbLine
 10
125.8882787690158
 20
-35.42234424619684
 30
0.0
 11
126.5921858460105
 21
-34.7184371692021
 31
0.0
  0
LINE
  5
ABD
330
1F
100
AcDbEntity
  8
2
  6
CONTINUOUS
370
25
 62
7
100
AcDbLine
 10
125.3579486831259
 20
-35.52841026337482
 30
0.0
 11
126.2386324554172
 21
-34.64772649108346
 31
0.0
  0
LINE
  5
ABE
330
1F
100
AcDbEntity
  8
2
  6
CONTINUOUS
370
25
 62
7
100
AcDbLine
 10
124.827618597236
 20
-35.6344762805528
 30
0.0
 11
125.885079064824
 21
-34.5770158129648
 31
0.0
  0
LINE
  5
ABF
330
1F
100
AcDbEntity
  8
2
  6
CONTINUOUS
370
25
 62
7
100
AcDbLine
 10
124.2972885113461
 20
-35.7405422977308
 30
0.0
 11
125.5315256742307
 21
-34.50630513484614
 31
0.0
  0
LINE
  5
AC0
330
1F
100
AcDbEntity
  8
2
  6
CONTINUOUS
370
25
 62
7
100
AcDbLine
 10
123.7669584254562
 20
-35.84660831490878
 30
0.0
 11
125.1779722836374
 21
-34.43559445672749
 31
0.0
  0
LINE
  5
AC1
330
1F
100
AcDbEntity
  8
2
  6
CONTINUOUS
370
25
 62
7
100
AcDbLine
 10
123.2366283395663
 20
-35.95267433208673
 30
0.0
 11
124.8244188930442
 21
-34.36488377860884
 31
0.0
  0
LINE
  5
AC2
330
1F
100
AcDbEntity
  8
2
  6
CONTINUOUS
370
25
 62
7
100
AcDbLine
 10
123.0
 20
-35.76503860294106
 30
0.0
 11
124.4708655024509
 21
-34.29417310049018
 31
0.0
  0
LINE
  5
AC3
330
1F
100
AcDbEntity
  8
2
  6
CONTINUOUS
370
25
 62
7
100
AcDbLine
 10
123.0
 20
-35.34077453422914
 30
0.0
 11
124.1173121118576
 21
-34.22346242237153
 31
0.0
  0
LINE
  5
AC4
330
1F
100
AcDbEntity
  8
2
  6
CONTINUOUS
370
25
 62
7
100
AcDbLine
 10
123.0
 20
-34.91651046551721
 30
0.0
 11
123.7637587212643
 21
-34.15275174425288
 31
0.0
  0
LINE
  5
AC5
330
1F
100
AcDbEntity
  8
2
  6
CONTINUOUS
370
25
 62
7
100
AcDbLine
 10
123.0
 20
-34.4922463968053
 30
0.0
 11
123.4102053306711
 21
-34.08204106613422
 31
0.0
  0
LINE
  5
AC6
330
1F
100
AcDbEntity
  8
2
  6
CONTINUOUS
370
25
 62
7
100
AcDbLine
 10
123.0
 20
-34.06798232809336
 30
0.0
 11
123.0566519400778
 21
-34.01133038801555
 31
0.0
  0
LINE
  5
AC7
330
1F
100
AcDbEntity
  8
2
  6
CONTINUOUS
370
25
 62
7
100
AcDbLine
 10
123.0
 20
-35.96770567850202
 30
0.0
 11
123.0269119345816
 21
-35.99461761308367
 31
0.0
  0
LINE
  5
AC8
330
1F
100
AcDbEntity
  8
2
  6
CONTINUOUS
370
25
 62
7
100
AcDbLine
 10
123.0
 20
-35.54344160979008
 30
0.0
 11
123.3804653251749
 21
-35.923906934965
 31
0.0
  0
LINE
  5
AC9
330
1F
100
AcDbEntity
  8
2
  6
CONTINUOUS
370
25
 62
7
100
AcDbLine
 10
123.0
 20
-35.11917754107817
 30
0.0
 11
123.7340187157682
 21
-35.85319625684636
 31
0.0
  0
LINE
  5
ACA
330
1F
100
AcDbEntity
  8
2
  6
CONTINUOUS
370
25
 62
7
100
AcDbLine
 10
123.0
 20
-34.69491347236624
 30
0.0
 11
124.0875721063615
 21
-35.78248557872772
 31
0.0
  0
LINE
  5
ACB
330
1F
100
AcDbEntity
  8
2
  6
CONTINUOUS
370
25
 62
7
100
AcDbLine
 10
123.0
 20
-34.27064940365432
 30
0.0
 11
124.4411254969547
 21
-35.71177490060905
 31
0.0
  0
LINE
  5
ACC
330
1F
100
AcDbEntity
  8
2
  6
CONTINUOUS
370
25
 62
7
100
AcDbLine
 10
123.192018331322
 20
-34.03840366626441
 30
0.0
 11
124.794678887548
 21
-35.64106422249039
 31
0.0
  0
LINE
  5
ACD
330
1F
100
AcDbEntity
  8
2
  6
CONTINUOUS
370
25
 62
7
100
AcDbLine
 10
123.7223484172119
 20
-34.14446968344238
 30
0.0
 11
125.1482322781413
 21
-35.57035354437174
 31
0.0
  0
LINE
  5
ACE
330
1F
100
AcDbEntity
  8
2
  6
CONTINUOUS
370
25
 62
7
100
AcDbLine
 10
124.2526785031018
 20
-34.25053570062035
 30
0.0
 11
125.5017856687346
 21
-35.4996428662531
 31
0.0
  0
LINE
  5
ACF
330
1F
100
AcDbEntity
  8
2
  6
CONTINUOUS
370
25
 62
7
100
AcDbLine
 10
124.7830085889917
 20
-34.35660171779835
 30
0.0
 11
125.8553390593278
 21
-35.42893218813442
 31
0.0
  0
LINE
  5
AD0
330
1F
100
AcDbEntity
  8
2
  6
CONTINUOUS
370
25
 62
7
100
AcDbLine
 10
125.3133386748816
 20
-34.46266773497634
 30
0.0
 11
126.2088924499211
 21
-35.35822151001578
 31
0.0
  0
LINE
  5
AD1
330
1F
100
AcDbEntity
  8
2
  6
CONTINUOUS
370
25
 62
7
100
AcDbLine
 10
125.8436687607716
 20
-34.56873375215432
 30
0.0
 11
126.5624458405144
 21
-35.28751083189712
 31
0.0
  0
LINE
  5
AD2
330
1F
100
AcDbEntity
  8
2
  6
CONTINUOUS
370
25
 62
7
100
AcDbLine
 10
126.3739988466615
 20
-34.67479976933228
 30
0.0
 11
126.9159992311076
 21
-35.21680015377848
 31
0.0
  0
LINE
  5
AD3
330
1F
100
AcDbEntity
  8
2
  6
CONTINUOUS
370
25
 62
7
100
AcDbLine
 10
126.9043289325514
 20
-34.78086578651028
 30
0.0
 11
127.2695526217009
 21
-35.14608947565981
 31
0.0
  0
LINE
  5
AD4
330
1F
100
AcDbEntity
  8
2
  6
CONTINUOUS
370
25
 62
7
100
AcDbLine
 10
127.4346590184413
 20
-34.88693180368826
 30
0.0
 11
127.6231060122942
 21
-35.07537879754115
 31
0.0
  0
LINE
  5
AD5
330
1F
100
AcDbEntity
  8
2
  6
CONTINUOUS
370
25
 62
7
100
AcDbLine
 10
127.9649891043312
 20
-34.99299782086624
 30
0.0
 11
127.9766594028875
 21
-35.0046681194225
 31
0.0
  0
TEXT
  5
AD6
330
1F
100
AcDbEntity
  8
2
  6
CONTINUOUS
370
25
 62
7
100
AcDbText
 10
91.58333333333333
 20
-33.5
 30
0.0
 40
3.5
  1
67
 72
     1
 11
94.5
 21
-33.5
 31
0.0
100
AcDbText
  0
LINE
  5
AD7
330
1F
100
AcDbEntity
  8
SK2
  6
CONTINUOUS
370
25
 62
7
100
AcDbLine
 10
0.0
 20
6.0
 30
0.0
 11
0.0
 21
36.0
 31
0.0
  0
LINE
  5
AD8
330
1F
100
AcDbEntity
  8
SK2
  6
CONTINUOUS
370
25
 62
7
100
AcDbLine
 10
128.0
 20
36.0
 30
0.0
 11
128.0
 21
0.0
 31
0.0
  0
LINE
  5
AD9
330
1F
100
AcDbEntity
  8
SK2
  6
CONTINUOUS
370
25
 62
7
100
AcDbLine
 10
0.0
 20
35.0
 30
0.0
 11
128.0
 21
35.0
 31
0.0
  0
LINE
  5
ADA
330
1F
100
AcDbEntity
  8
SK2
  6
CONTINUOUS
370
25
 62
7
100
AcDbLine
 10
0.0
 20
35.0
 30
0.0
 11
5.0
 21
36.0
 31
0.0
  0
LINE
  5
ADB
330
1F
100
AcDbEntity
  8
SK2
  6
CONTINUOUS
370
25
 62
7
100
AcDbLine
 10
5.0
 20
36.0
 30
0.0
 11
5.0
 21
34.0
 31
0.0
  0
LINE
  5
ADC
330
1F
100
AcDbEntity
  8
SK2
  6
CONTINUOUS
370
25
 62
7
100
AcDbLine
 10
5.0
 20
34.0
 30
0.0
 11
0.0
 21
35.0
 31
0.0
  0
LINE
  5
ADD
330
1F
100
AcDbEntity
  8
SK2
  6
CONTINUOUS
370
25
 62
7
100
AcDbLine
 10
4.819949578690832
 20
34.03601008426183
 30
0.0
 11
5.0
 21
34.216060505571
 31
0.0
  0
LINE
  5
ADE
330
1F
100
AcDbEntity
  8
SK2
  6
CONTINUOUS
370
25
 62
7
100
AcDbLine
 10
4.466396188097555
 20
34.10672076238048
 30
0.0
 11
5.0
 21
34.64032457428294
 31
0.0
  0
LINE
  5
ADF
330
1F
100
AcDbEntity
  8
SK2
  6
CONTINUOUS
370
25
 62
7
100
AcDbLine
 10
4.112842797504271
 20
34.17743144049915
 30
0.0
 11
5.0
 21
35.06458864299488
 31
0.0
  0
LINE
  5
AE0
330
1F
100
AcDbEntity
  8
SK2
  6
CONTINUOUS
370
25
 62
7
100
AcDbLine
 10
3.759289406910995
 20
34.24814211861779
 30
0.0
 11
5.0
 21
35.48885271170681
 31
0.0
  0
LINE
  5
AE1
330
1F
100
AcDbEntity
  8
SK2
  6
CONTINUOUS
370
25
 62
7
100
AcDbLine
 10
3.405736016317725
 20
34.31885279673645
 30
0.0
 11
5.0
 21
35.91311678041873
 31
0.0
  0
LINE
  5
AE2
330
1F
100
AcDbEntity
  8
SK2
  6
CONTINUOUS
370
25
 62
7
100
AcDbLine
 10
3.052182625724441
 20
34.38956347485511
 30
0.0
 11
4.578273938586662
 21
35.91565478771734
 31
0.0
  0
LINE
  5
AE3
330
1F
100
AcDbEntity
  8
SK2
  6
CONTINUOUS
370
25
 62
7
100
AcDbLine
 10
2.698629235131165
 20
34.46027415297376
 30
0.0
 11
4.047943852696754
 21
35.80958877053936
 31
0.0
  0
LINE
  5
AE4
330
1F
100
AcDbEntity
  8
SK2
  6
CONTINUOUS
370
25
 62
7
100
AcDbLine
 10
2.345075844537881
 20
34.53098483109242
 30
0.0
 11
3.517613766806832
 21
35.70352275336137
 31
0.0
  0
LINE
  5
AE5
330
1F
100
AcDbEntity
  8
SK2
  6
CONTINUOUS
370
25
 62
7
100
AcDbLine
 10
1.991522453944611
 20
34.60169550921108
 30
0.0
 11
2.987283680916924
 21
35.59745673618339
 31
0.0
  0
LINE
  5
AE6
330
1F
100
AcDbEntity
  8
SK2
  6
CONTINUOUS
370
25
 62
7
100
AcDbLine
 10
1.637969063351328
 20
34.67240618732973
 30
0.0
 11
2.456953595026995
 21
35.4913907190054
 31
0.0
  0
LINE
  5
AE7
330
1F
100
AcDbEntity
  8
SK2
  6
CONTINUOUS
370
25
 62
7
100
AcDbLine
 10
1.284415672758058
 20
34.74311686544839
 30
0.0
 11
1.926623509137087
 21
35.38532470182742
 31
0.0
  0
LINE
  5
AE8
330
1F
100
AcDbEntity
  8
SK2
  6
CONTINUOUS
370
25
 62
7
100
AcDbLine
 10
0.9308622821647745
 20
34.81382754356704
 30
0.0
 11
1.396293423247165
 21
35.27925868464943
 31
0.0
  0
LINE
  5
AE9
330
1F
100
AcDbEntity
  8
SK2
  6
CONTINUOUS
370
25
 62
7
100
AcDbLine
 10
0.577308891571505
 20
34.88453822168569
 30
0.0
 11
0.8659633373572575
 21
35.17319266747145
 31
0.0
  0
LINE
  5
AEA
330
1F
100
AcDbEntity
  8
SK2
  6
CONTINUOUS
370
25
 62
7
100
AcDbLine
 10
0.2237555009782284
 20
34.95524889980435
 30
0.0
 11
0.3356332514673568
 21
35.06712665029347
 31
0.0
  0
LINE
  5
AEB
330
1F
100
AcDbEntity
  8
SK2
  6
CONTINUOUS
370
25
 62
7
100
AcDbLine
 10
0.1407868492305155
 20
35.02815736984611
 30
0.0
 11
0.211180273845784
 21
34.95776394523084
 31
0.0
  0
LINE
  5
AEC
330
1F
100
AcDbEntity
  8
SK2
  6
CONTINUOUS
370
25
 62
7
100
AcDbLine
 10
0.4943402398237993
 20
35.09886804796476
 30
0.0
 11
0.741510359735706
 21
34.85169792805285
 31
0.0
  0
LINE
  5
AED
330
1F
100
AcDbEntity
  8
SK2
  6
CONTINUOUS
370
25
 62
7
100
AcDbLine
 10
0.8478936304170759
 20
35.16957872608342
 30
0.0
 11
1.271840445625621
 21
34.74563191087487
 31
0.0
  0
LINE
  5
AEE
330
1F
100
AcDbEntity
  8
SK2
  6
CONTINUOUS
370
25
 62
7
100
AcDbLine
 10
1.201447021010353
 20
35.24028940420207
 30
0.0
 11
1.802170531515536
 21
34.63956589369689
 31
0.0
  0
LINE
  5
AEF
330
1F
100
AcDbEntity
  8
SK2
  6
CONTINUOUS
370
25
 62
7
100
AcDbLine
 10
1.555000411603629
 20
35.31100008232073
 30
0.0
 11
2.332500617405451
 21
34.5334998765189
 31
0.0
  0
LINE
  5
AF0
330
1F
100
AcDbEntity
  8
SK2
  6
CONTINUOUS
370
25
 62
7
100
AcDbLine
 10
1.908553802196906
 20
35.38171076043938
 30
0.0
 11
2.862830703295366
 21
34.42743385934092
 31
0.0
  0
LINE
  5
AF1
330
1F
100
AcDbEntity
  8
SK2
  6
CONTINUOUS
370
25
 62
7
100
AcDbLine
 10
2.262107192790182
 20
35.45242143855804
 30
0.0
 11
3.393160789185281
 21
34.32136784216294
 31
0.0
  0
LINE
  5
AF2
330
1F
100
AcDbEntity
  8
SK2
  6
CONTINUOUS
370
25
 62
7
100
AcDbLine
 10
2.615660583383459
 20
35.5231321166767
 30
0.0
 11
3.923490875075196
 21
34.21530182498496
 31
0.0
  0
LINE
  5
AF3
330
1F
100
AcDbEntity
  8
SK2
  6
CONTINUOUS
370
25
 62
7
100
AcDbLine
 10
2.969213973976743
 20
35.59384279479535
 30
0.0
 11
4.45382096096511
 21
34.10923580780698
 31
0.0
  0
LINE
  5
AF4
330
1F
100
AcDbEntity
  8
SK2
  6
CONTINUOUS
370
25
 62
7
100
AcDbLine
 10
3.322767364570019
 20
35.66455347291401
 30
0.0
 11
4.984151046855025
 21
34.00316979062899
 31
0.0
  0
LINE
  5
AF5
330
1F
100
AcDbEntity
  8
SK2
  6
CONTINUOUS
370
25
 62
7
100
AcDbLine
 10
3.676320755163296
 20
35.73526415103266
 30
0.0
 11
5.0
 21
34.41158490619595
 31
0.0
  0
LINE
  5
AF6
330
1F
100
AcDbEntity
  8
SK2
  6
CONTINUOUS
370
25
 62
7
100
AcDbLine
 10
4.029874145756573
 20
35.80597482915132
 30
0.0
 11
5.0
 21
34.83584897490788
 31
0.0
  0
LINE
  5
AF7
330
1F
100
AcDbEntity
  8
SK2
  6
CONTINUOUS
370
25
 62
7
100
AcDbLine
 10
4.383427536349842
 20
35.87668550726998
 30
0.0
 11
5.0
 21
35.26011304361981
 31
0.0
  0
LINE
  5
AF8
330
1F
100
AcDbEntity
  8
SK2
  6
CONTINUOUS
370
25
 62
7
100
AcDbLine
 10
4.736980926943126
 20
35.94739618538863
 30
0.0
 11
5.0
 21
35.68437711233175
 31
0.0
  0
LINE
  5
AF9
330
1F
100
AcDbEntity
  8
SK2
  6
CONTINUOUS
370
25
 62
7
100
AcDbLine
 10
128.0
 20
35.0
 30
0.0
 11
123.0
 21
34.0
 31
0.0
  0
LINE
  5
AFA
330
1F
100
AcDbEntity
  8
SK2
  6
CONTINUOUS
370
25
 62
7
100
AcDbLine
 10
123.0
 20
34.0
 30
0.0
 11
123.0
 21
36.0
 31
0.0
  0
LINE
  5
AFB
330
1F
100
AcDbEntity
  8
SK2
  6
CONTINUOUS
370
25
 62
7
100
AcDbLine
 10
123.0
 20
36.0
 30
0.0
 11
128.0
 21
35.0
 31
0.0
  0
LINE
  5
AFC
330
1F
100
AcDbEntity
  8
SK2
  6
CONTINUOUS
370
25
 62
7
100
AcDbLine
 10
127.4837331985203
 20
34.89674663970405
 30
0.0
 11
127.6558221323469
 21
35.06883557353062
 31
0.0
  0
LINE
  5
AFD
330
1F
100
AcDbEntity
  8
SK2
  6
CONTINUOUS
370
25
 62
7
100
AcDbLine
 10
126.9534031126304
 20
34.79068062252608
 30
0.0
 11
127.3022687417536
 21
35.13954625164928
 31
0.0
  0
LINE
  5
AFE
330
1F
100
AcDbEntity
  8
SK2
  6
CONTINUOUS
370
25
 62
7
100
AcDbLine
 10
126.4230730267405
 20
34.6846146053481
 30
0.0
 11
126.9487153511603
 21
35.21025692976794
 31
0.0
  0
LINE
  5
AFF
330
1F
100
AcDbEntity
  8
SK2
  6
CONTINUOUS
370
25
 62
7
100
AcDbLine
 10
125.8927429408506
 20
34.57854858817011
 30
0.0
 11
126.5951619605671
 21
35.28096760788659
 31
0.0
  0
LINE
  5
B00
330
1F
100
AcDbEntity
  8
SK2
  6
CONTINUOUS
370
25
 62
7
100
AcDbLine
 10
125.3624128549607
 20
34.47248257099213
 30
0.0
 11
126.2416085699738
 21
35.35167828600525
 31
0.0
  0
LINE
  5
B01
330
1F
100
AcDbEntity
  8
SK2
  6
CONTINUOUS
370
25
 62
7
100
AcDbLine
 10
124.8320827690708
 20
34.36641655381415
 30
0.0
 11
125.8880551793805
 21
35.4223889641239
 31
0.0
  0
LINE
  5
B02
330
1F
100
AcDbEntity
  8
SK2
  6
CONTINUOUS
370
25
 62
7
100
AcDbLine
 10
124.3017526831809
 20
34.26035053663618
 30
0.0
 11
125.5345017887873
 21
35.49309964224256
 31
0.0
  0
LINE
  5
B03
330
1F
100
AcDbEntity
  8
SK2
  6
CONTINUOUS
370
25
 62
7
100
AcDbLine
 10
123.771422597291
 20
34.15428451945819
 30
0.0
 11
125.180948398194
 21
35.56381032036121
 31
0.0
  0
LINE
  5
B04
330
1F
100
AcDbEntity
  8
SK2
  6
CONTINUOUS
370
25
 62
7
100
AcDbLine
 10
123.2410925114011
 20
34.04821850228021
 30
0.0
 11
124.8273950076007
 21
35.63452099847987
 31
0.0
  0
LINE
  5
B05
330
1F
100
AcDbEntity
  8
SK2
  6
CONTINUOUS
370
25
 62
7
100
AcDbLine
 10
123.0
 20
34.23139005959106
 30
0.0
 11
124.4738416170074
 21
35.70523167659852
 31
0.0
  0
LINE
  5
B06
330
1F
100
AcDbEntity
  8
SK2
  6
CONTINUOUS
370
25
 62
7
100
AcDbLine
 10
123.0
 20
34.65565412830298
 30
0.0
 11
124.1202882264142
 21
35.77594235471717
 31
0.0
  0
LINE
  5
B07
330
1F
100
AcDbEntity
  8
SK2
  6
CONTINUOUS
370
25
 62
7
100
AcDbLine
 10
123.0
 20
35.07991819701493
 30
0.0
 11
123.7667348358209
 21
35.84665303283582
 31
0.0
  0
LINE
  5
B08
330
1F
100
AcDbEntity
  8
SK2
  6
CONTINUOUS
370
25
 62
7
100
AcDbLine
 10
123.0
 20
35.50418226572685
 30
0.0
 11
123.4131814452276
 21
35.91736371095448
 31
0.0
  0
LINE
  5
B09
330
1F
100
AcDbEntity
  8
SK2
  6
CONTINUOUS
370
25
 62
7
100
AcDbLine
 10
123.0
 20
35.92844633443877
 30
0.0
 11
123.0596280546344
 21
35.98807438907313
 31
0.0
  0
LINE
  5
B0A
330
1F
100
AcDbEntity
  8
SK2
  6
CONTINUOUS
370
25
 62
7
100
AcDbLine
 10
123.0
 20
34.03586565896583
 30
0.0
 11
123.0298880491382
 21
34.00597760982764
 31
0.0
  0
LINE
  5
B0B
330
1F
100
AcDbEntity
  8
SK2
  6
CONTINUOUS
370
25
 62
7
100
AcDbLine
 10
123.0
 20
34.46012972767777
 30
0.0
 11
123.3834414397315
 21
34.0766882879463
 31
0.0
  0
LINE
  5
B0C
330
1F
100
AcDbEntity
  8
SK2
  6
CONTINUOUS
370
25
 62
7
100
AcDbLine
 10
123.0
 20
34.8843937963897
 30
0.0
 11
123.7369948303247
 21
34.14739896606496
 31
0.0
  0
LINE
  5
B0D
330
1F
100
AcDbEntity
  8
SK2
  6
CONTINUOUS
370
25
 62
7
100
AcDbLine
 10
123.0
 20
35.30865786510161
 30
0.0
 11
124.090548220918
 21
34.2181096441836
 31
0.0
  0
LINE
  5
B0E
330
1F
100
AcDbEntity
  8
SK2
  6
CONTINUOUS
370
25
 62
7
100
AcDbLine
 10
123.0
 20
35.73292193381354
 30
0.0
 11
124.4441016115113
 21
34.28882032230226
 31
0.0
  0
LINE
  5
B0F
330
1F
100
AcDbEntity
  8
SK2
  6
CONTINUOUS
370
25
 62
7
100
AcDbLine
 10
123.1964825031568
 20
35.96070349936863
 30
0.0
 11
124.7976550021046
 21
34.35953100042092
 31
0.0
  0
LINE
  5
B10
330
1F
100
AcDbEntity
  8
SK2
  6
CONTINUOUS
370
25
 62
7
100
AcDbLine
 10
123.7268125890467
 20
35.85463748219065
 30
0.0
 11
125.1512083926978
 21
34.43024167853956
 31
0.0
  0
LINE
  5
B11
330
1F
100
AcDbEntity
  8
SK2
  6
CONTINUOUS
370
25
 62
7
100
AcDbLine
 10
124.2571426749366
 20
35.74857146501267
 30
0.0
 11
125.5047617832911
 21
34.50095235665822
 31
0.0
  0
LINE
  5
B12
330
1F
100
AcDbEntity
  8
SK2
  6
CONTINUOUS
370
25
 62
7
100
AcDbLine
 10
124.7874727608266
 20
35.64250544783469
 30
0.0
 11
125.8583151738844
 21
34.57166303477686
 31
0.0
  0
LINE
  5
B13
330
1F
100
AcDbEntity
  8
SK2
  6
CONTINUOUS
370
25
 62
7
100
AcDbLine
 10
125.3178028467165
 20
35.53643943065671
 30
0.0
 11
126.2118685644776
 21
34.64237371289553
 31
0.0
  0
LINE
  5
B14
330
1F
100
AcDbEntity
  8
SK2
  6
CONTINUOUS
370
25
 62
7
100
AcDbLine
 10
125.8481329326064
 20
35.43037341347873
 30
0.0
 11
126.5654219550709
 21
34.71308439101418
 31
0.0
  0
LINE
  5
B15
330
1F
100
AcDbEntity
  8
SK2
  6
CONTINUOUS
370
25
 62
7
100
AcDbLine
 10
126.3784630184963
 20
35.32430739630074
 30
0.0
 11
126.9189753456642
 21
34.78379506913284
 31
0.0
  0
LINE
  5
B16
330
1F
100
AcDbEntity
  8
SK2
  6
CONTINUOUS
370
25
 62
7
100
AcDbLine
 10
126.9087931043862
 20
35.21824137912277
 30
0.0
 11
127.2725287362575
 21
34.85450574725148
 31
0.0
  0
LINE
  5
B17
330
1F
100
AcDbEntity
  8
SK2
  6
CONTINUOUS
370
25
 62
7
100
AcDbLine
 10
127.4391231902761
 20
35.11217536194479
 30
0.0
 11
127.6260821268507
 21
34.92521642537014
 31
0.0
  0
LINE
  5
B18
330
1F
100
AcDbEntity
  8
SK2
  6
CONTINUOUS
370
25
 62
7
100
AcDbLine
 10
127.969453276166
 20
35.0061093447668
 30
0.0
 11
127.979635517444
 21
34.9959271034888
 31
0.0
  0
TEXT
  5
B19
330
1F
100
AcDbEntity
  8
SK2
  6
CONTINUOUS
370
25
 62
7
100
AcDbText
 10
59.91666666666666
 20
36.5
 30
0.0
 40
3.5
  1
128
 72
     1
 11
64.0
 21
36.5
 31
0.0
100
AcDbText
  0
LINE
  5
B1A
330
1F
100
AcDbEntity
  8
4
  6
LONGDASH_DASH
370
25
 62
2
100
AcDbLine
 10
48.0
 20
0.0
 30
0.0
 11
128.0
 21
0.0
 31
0.0
  0
LINE
  5
B1B
330
1F
100
AcDbEntity
  8
SK4
  6
LONGDASH_DASH
370
25
 62
2
100
AcDbLine
 10
-6.0
 20
0.0
 30
0.0
 11
134.0
 21
0.0
 31
0.0
  0
LINE
  5
B1C
330
1F
100
AcDbEntity
  8
2
  6
CONTINUOUS
370
25
 62
7
100
AcDbLine
 10
128.0
 20
0.0
 30
0.0
 11
135.1824230098391
 21
19.73354503650408
 31
0.0
  0
LINE
  5
B1D
330
1F
100
AcDbEntity
  8
2
  6
CONTINUOUS
370
25
 62
7
100
AcDbLine
 10
128.0
 20
0.0
 30
0.0
 11
135.1824230098391
 21
-19.73354503650408
 31
0.0
  0
ARC
  5
B1E
330
1F
100
AcDbEntity
  8
2
  6
CONTINUOUS
370
25
 62
7
100
AcDbCircle
 10
128.0
 20
0.0000000000000005
 30
0.0
 40
20.0
100
AcDbArc
 50
290.0
 51
69.99999999999997
  0
LINE
  5
B1F
330
1F
100
AcDbEntity
  8
2
  6
CONTINUOUS
370
25
 62
7
100
AcDbLine
 10
134.8404028665134
 20
18.79385241571817
 30
0.0
 11
139.7450512894673
 21
17.39942642370005
 31
0.0
  0
LINE
  5
B20
330
1F
100
AcDbEntity
  8
2
  6
CONTINUOUS
370
25
 62
7
100
AcDbLine
 10
139.7450512894673
 20
17.39942642370005
 30
0.0
 11
138.83145295231
 21
15.62028672194994
 31
0.0
  0
LINE
  5
B21
330
1F
100
AcDbEntity
  8
2
  6
CONTINUOUS
370
25
 62
7
100
AcDbLine
 10
138.83145295231
 20
15.62028672194994
 30
0.0
 11
134.8404028665134
 21
18.79385241571817
 31
0.0
  0
LINE
  5
B22
330
1F
100
AcDbEntity
  8
2
  6
CONTINUOUS
370
25
 62
7
100
AcDbLine
 10
138.8221696251755
 20
15.6276685507631
 30
0.0
 11
138.8490433984574
 21
15.65454232404502
 31
0.0
  0
LINE
  5
B23
330
1F
100
AcDbEntity
  8
2
  6
CONTINUOUS
370
25
 62
7
100
AcDbLine
 10
138.5858332744304
 20
15.81559626872993
 30
0.0
 11
139.2968636454691
 21
16.52662663976864
 31
0.0
  0
LINE
  5
B24
330
1F
100
AcDbEntity
  8
2
  6
CONTINUOUS
370
25
 62
7
100
AcDbLine
 10
138.3494969236853
 20
16.00352398669675
 30
0.0
 11
139.7446838924808
 21
17.39871095549225
 31
0.0
  0
LINE
  5
B25
330
1F
100
AcDbEntity
  8
2
  6
CONTINUOUS
370
25
 62
7
100
AcDbLine
 10
138.1131605729402
 20
16.19145170466356
 30
0.0
 11
139.414977568856
 21
17.49326870057936
 31
0.0
  0
LINE
  5
B26
330
1F
100
AcDbEntity
  8
2
  6
CONTINUOUS
370
25
 62
7
100
AcDbLine
 10
137.8768242221951
 20
16.37937942263038
 30
0.0
 11
139.0846328295435
 21
17.58718802997879
 31
0.0
  0
LINE
  5
B27
330
1F
100
AcDbEntity
  8
2
  6
CONTINUOUS
370
25
 62
7
100
AcDbLine
 10
137.64048787145
 20
16.56730714059719
 30
0.0
 11
138.754288090231
 21
17.68110735937822
 31
0.0
  0
LINE
  5
B28
330
1F
100
AcDbEntity
  8
2
  6
CONTINUOUS
370
25
 62
7
100
AcDbLine
 10
137.4041515207049
 20
16.75523485856401
 30
0.0
 11
138.4239433509185
 21
17.77502668877764
 31
0.0
  0
LINE
  5
B29
330
1F
100
AcDbEntity
  8
2
  6
CONTINUOUS
370
25
 62
7
100
AcDbLine
 10
137.1678151699598
 20
16.94316257653084
 30
0.0
 11
138.093598611606
 21
17.86894601817707
 31
0.0
  0
LINE
  5
B2A
330
1F
100
AcDbEntity
  8
2
  6
CONTINUOUS
370
25
 62
7
100
AcDbLine
 10
136.9314788192146
 20
17.13109029449765
 30
0.0
 11
137.7632538722935
 21
17.9628653475765
 31
0.0
  0
LINE
  5
B2B
330
1F
100
AcDbEntity
  8
2
  6
CONTINUOUS
370
25
 62
7
100
AcDbLine
 10
136.6951424684696
 20
17.31901801246447
 30
0.0
 11
137.432909132981
 21
18.05678467697592
 31
0.0
  0
LINE
  5
B2C
330
1F
100
AcDbEntity
  8
2
  6
CONTINUOUS
370
25
 62
7
100
AcDbLine
 10
136.4588061177245
 20
17.50694573043128
 30
0.0
 11
137.1025643936685
 21
18.15070400637535
 31
0.0
  0
LINE
  5
B2D
330
1F
100
AcDbEntity
  8
2
  6
CONTINUOUS
370
25
 62
7
100
AcDbLine
 10
136.2224697669793
 20
17.6948734483981
 30
0.0
 11
136.772219654356
 21
18.24462333577478
 31
0.0
  0
LINE
  5
B2E
330
1F
100
AcDbEntity
  8
2
  6
CONTINUOUS
370
25
 62
7
100
AcDbLine
 10
135.9861334162342
 20
17.88280116636491
 30
0.0
 11
136.4418749150435
 21
18.3385426651742
 31
0.0
  0
LINE
  5
B2F
330
1F
100
AcDbEntity
  8
2
  6
CONTINUOUS
370
25
 62
7
100
AcDbLine
 10
135.7497970654891
 20
18.07072888433174
 30
0.0
 11
136.111530175731
 21
18.43246199457363
 31
0.0
  0
LINE
  5
B30
330
1F
100
AcDbEntity
  8
2
  6
CONTINUOUS
370
25
 62
7
100
AcDbLine
 10
135.513460714744
 20
18.25865660229856
 30
0.0
 11
135.7811854364185
 21
18.52638132397306
 31
0.0
  0
LINE
  5
B31
330
1F
100
AcDbEntity
  8
2
  6
CONTINUOUS
370
25
 62
7
100
AcDbLine
 10
135.277124363999
 20
18.44658432026537
 30
0.0
 11
135.4508406971061
 21
18.62030065337248
 31
0.0
  0
LINE
  5
B32
330
1F
100
AcDbEntity
  8
2
  6
CONTINUOUS
370
25
 62
7
100
AcDbLine
 10
135.0407880132538
 20
18.63451203823219
 30
0.0
 11
135.1204959577936
 21
18.71421998277192
 31
0.0
  0
LINE
  5
B33
330
1F
100
AcDbEntity
  8
2
  6
CONTINUOUS
370
25
 62
7
100
AcDbLine
 10
134.850879184264
 20
18.79087392500644
 30
0.0
 11
134.8770080953577
 21
18.76474501391276
 31
0.0
  0
LINE
  5
B34
330
1F
100
AcDbEntity
  8
2
  6
CONTINUOUS
370
25
 62
7
100
AcDbLine
 10
135.4436809614919
 20
18.62233621649048
 30
0.0
 11
136.948312654007
 21
17.11770452397535
 31
0.0
  0
LINE
  5
B35
330
1F
100
AcDbEntity
  8
2
  6
CONTINUOUS
370
25
 62
7
100
AcDbLine
 10
136.0364827387198
 20
18.45379850797451
 30
0.0
 11
138.8445294253938
 21
15.64575182130051
 31
0.0
  0
LINE
  5
B36
330
1F
100
AcDbEntity
  8
2
  6
CONTINUOUS
370
25
 62
7
100
AcDbLine
 10
136.6292845159476
 20
18.28526079945854
 30
0.0
 11
138.9884747116007
 21
15.92607060380548
 31
0.0
  0
LINE
  5
B37
330
1F
100
AcDbEntity
  8
2
  6
CONTINUOUS
370
25
 62
7
100
AcDbLine
 10
137.2220862931756
 20
18.11672309094257
 30
0.0
 11
139.1324199978076
 21
16.20638938631049
 31
0.0
  0
LINE
  5
B38
330
1F
100
AcDbEntity
  8
2
  6
CONTINUOUS
370
25
 62
7
100
AcDbLine
 10
137.8148880704034
 20
17.9481853824266
 30
0.0
 11
139.2763652840146
 21
16.48670816881547
 31
0.0
  0
LINE
  5
B39
330
1F
100
AcDbEntity
  8
2
  6
CONTINUOUS
370
25
 62
7
100
AcDbLine
 10
138.4076898476313
 20
17.77964767391063
 30
0.0
 11
139.4203105702215
 21
16.76702695132049
 31
0.0
  0
LINE
  5
B3A
330
1F
100
AcDbEntity
  8
2
  6
CONTINUOUS
370
25
 62
7
100
AcDbLine
 10
139.0004916248592
 20
17.61110996539466
 30
0.0
 11
139.5642558564284
 21
17.04734573382548
 31
0.0
  0
LINE
  5
B3B
330
1F
100
AcDbEntity
  8
2
  6
CONTINUOUS
370
25
 62
7
100
AcDbLine
 10
139.5932934020871
 20
17.44257225687869
 30
0.0
 11
139.7082011426353
 21
17.32766451633049
 31
0.0
  0
LINE
  5
B3C
330
1F
100
AcDbEntity
  8
2
  6
CONTINUOUS
370
25
 62
7
100
AcDbLine
 10
134.8404028665134
 20
-18.79385241571817
 30
0.0
 11
138.83145295231
 21
-15.62028672194994
 31
0.0
  0
LINE
  5
B3D
330
1F
100
AcDbEntity
  8
2
  6
CONTINUOUS
370
25
 62
7
100
AcDbLine
 10
138.83145295231
 20
-15.62028672194994
 30
0.0
 11
139.7450512894673
 21
-17.39942642370005
 31
0.0
  0
LINE
  5
B3E
330
1F
100
AcDbEntity
  8
2
  6
CONTINUOUS
370
25
 62
7
100
AcDbLine
 10
139.7450512894673
 20
-17.39942642370005
 30
0.0
 11
134.8404028665134
 21
-18.79385241571817
 31
0.0
  0
LINE
  5
B3F
330
1F
100
AcDbEntity
  8
2
  6
CONTINUOUS
370
25
 62
7
100
AcDbLine
 10
139.2761126840921
 20
-17.53274896256657
 30
0.0
 11
139.6311827007464
 21
-17.17767894591232
 31
0.0
  0
LINE
  5
B40
330
1F
100
AcDbEntity
  8
2
  6
CONTINUOUS
370
25
 62
7
100
AcDbLine
 10
138.6833109068643
 20
-17.70128667108253
 30
0.0
 11
139.4872374145394
 21
-16.89736016340734
 31
0.0
  0
LINE
  5
B41
330
1F
100
AcDbEntity
  8
2
  6
CONTINUOUS
370
25
 62
7
100
AcDbLine
 10
138.0905091296364
 20
-17.8698243795985
 30
0.0
 11
139.3432921283325
 21
-16.61704138090234
 31
0.0
  0
LINE
  5
B42
330
1F
100
AcDbEntity
  8
2
  6
CONTINUOUS
370
25
 62
7
100
AcDbLine
 10
137.4977073524085
 20
-18.03836208811447
 30
0.0
 11
139.1993468421256
 21
-16.33672259839734
 31
0.0
  0
LINE
  5
B43
330
1F
100
AcDbEntity
  8
2
  6
CONTINUOUS
370
25
 62
7
100
AcDbLine
 10
136.9049055751806
 20
-18.20689979663044
 30
0.0
 11
139.0554015559187
 21
-16.05640381589234
 31
0.0
  0
LINE
  5
B44
330
1F
100
AcDbEntity
  8
2
  6
CONTINUOUS
370
25
 62
7
100
AcDbLine
 10
136.3121037979527
 20
-18.37543750514639
 30
0.0
 11
138.9114562697117
 21
-15.77608503338735
 31
0.0
  0
LINE
  5
B45
330
1F
100
AcDbEntity
  8
2
  6
CONTINUOUS
370
25
 62
7
100
AcDbLine
 10
135.7193020207248
 20
-18.54397521366236
 30
0.0
 11
137.9113582763034
 21
-16.35191895808376
 31
0.0
  0
LINE
  5
B46
330
1F
100
AcDbEntity
  8
2
  6
CONTINUOUS
370
25
 62
7
100
AcDbLine
 10
135.1265002434969
 20
-18.71251292217833
 30
0.0
 11
135.8400537176541
 21
-17.99895944802117
 31
0.0
  0
LINE
  5
B47
330
1F
100
AcDbEntity
  8
2
  6
CONTINUOUS
370
25
 62
7
100
AcDbLine
 10
134.9852161849457
 20
-18.67870112232471
 30
0.0
 11
135.0428191168096
 21
-18.73630405418854
 31
0.0
  0
LINE
  5
B48
330
1F
100
AcDbEntity
  8
2
  6
CONTINUOUS
370
25
 62
7
100
AcDbLine
 10
135.2215525356908
 20
-18.49077340435788
 30
0.0
 11
135.3731638561221
 21
-18.64238472478911
 31
0.0
  0
LINE
  5
B49
330
1F
100
AcDbEntity
  8
2
  6
CONTINUOUS
370
25
 62
7
100
AcDbLine
 10
135.4578888864359
 20
-18.30284568639107
 30
0.0
 11
135.7035085954346
 21
-18.54846539538968
 31
0.0
  0
LINE
  5
B4A
330
1F
100
AcDbEntity
  8
2
  6
CONTINUOUS
370
25
 62
7
100
AcDbLine
 10
135.6942252371811
 20
-18.11491796842425
 30
0.0
 11
136.0338533347471
 21
-18.45454606599026
 31
0.0
  0
LINE
  5
B4B
330
1F
100
AcDbEntity
  8
2
  6
CONTINUOUS
370
25
 62
7
100
AcDbLine
 10
135.9305615879261
 20
-17.92699025045744
 30
0.0
 11
136.3641980740595
 21
-18.36062673659083
 31
0.0
  0
LINE
  5
B4C
330
1F
100
AcDbEntity
  8
2
  6
CONTINUOUS
370
25
 62
7
100
AcDbLine
 10
136.1668979386712
 20
-17.73906253249061
 30
0.0
 11
136.694542813372
 21
-18.2667074071914
 31
0.0
  0
LINE
  5
B4D
330
1F
100
AcDbEntity
  8
2
  6
CONTINUOUS
370
25
 62
7
100
AcDbLine
 10
136.4032342894164
 20
-17.55113481452379
 30
0.0
 11
137.0248875526846
 21
-18.17278807779198
 31
0.0
  0
LINE
  5
B4E
330
1F
100
AcDbEntity
  8
2
  6
CONTINUOUS
370
25
 62
7
100
AcDbLine
 10
136.6395706401615
 20
-17.36320709655696
 30
0.0
 11
137.355232291997
 21
-18.07886874839255
 31
0.0
  0
LINE
  5
B4F
330
1F
100
AcDbEntity
  8
2
  6
CONTINUOUS
370
25
 62
7
100
AcDbLine
 10
136.8759069909066
 20
-17.17527937859013
 30
0.0
 11
137.6855770313095
 21
-17.98494941899312
 31
0.0
  0
LINE
  5
B50
330
1F
100
AcDbEntity
  8
2
  6
CONTINUOUS
370
25
 62
7
100
AcDbLine
 10
137.1122433416517
 20
-16.98735166062332
 30
0.0
 11
138.015921770622
 21
-17.8910300895937
 31
0.0
  0
LINE
  5
B51
330
1F
100
AcDbEntity
  8
2
  6
CONTINUOUS
370
25
 62
7
100
AcDbLine
 10
137.3485796923968
 20
-16.7994239426565
 30
0.0
 11
138.3462665099345
 21
-17.79711076019427
 31
0.0
  0
LINE
  5
B52
330
1F
100
AcDbEntity
  8
2
  6
CONTINUOUS
370
25
 62
7
100
AcDbLine
 10
137.5849160431419
 20
-16.61149622468969
 30
0.0
 11
138.676611249247
 21
-17.70319143079485
 31
0.0
  0
LINE
  5
B53
330
1F
100
AcDbEntity
  8
2
  6
CONTINUOUS
370
25
 62
7
100
AcDbLine
 10
137.821252393887
 20
-16.42356850672287
 30
0.0
 11
139.0069559885595
 21
-17.60927210139542
 31
0.0
  0
LINE
  5
B54
330
1F
100
AcDbEntity
  8
2
  6
CONTINUOUS
370
25
 62
7
100
AcDbLine
 10
138.0575887446321
 20
-16.23564078875606
 30
0.0
 11
139.337300727872
 21
-17.51535277199598
 31
0.0
  0
LINE
  5
B55
330
1F
100
AcDbEntity
  8
2
  6
CONTINUOUS
370
25
 62
7
100
AcDbLine
 10
138.2939250953772
 20
-16.04771307078923
 30
0.0
 11
139.6676454671845
 21
-17.42143344259655
 31
0.0
  0
LINE
  5
B56
330
1F
100
AcDbEntity
  8
2
  6
CONTINUOUS
370
25
 62
7
100
AcDbLine
 10
138.5302614461223
 20
-15.85978535282241
 30
0.0
 11
139.4021635276133
 21
-16.73168743431341
 31
0.0
  0
LINE
  5
B57
330
1F
100
AcDbEntity
  8
2
  6
CONTINUOUS
370
25
 62
7
100
AcDbLine
 10
138.7665977968674
 20
-15.6718576348556
 30
0.0
 11
138.9543432806016
 21
-15.85960311858977
 31
0.0
  0
TEXT
  5
B58
330
1F
100
AcDbEntity
  8
2
  6
CONTINUOUS
370
25
 62
7
100
AcDbText
 10
145.5
 20
-4.958333333333333
 30
0.0
 40
3.5
  1
140°
 50
90.0
 72
     1
 11
145.5
 21
0.0
 31
0.0
100
AcDbText
  0
LINE
  5
B59
330
1F
100
AcDbEntity
  8
SK1
  6
CONTINUOUS
370
50
 62
4
100
AcDbLine
 10
48.0
 20
0.0
 30
0.0
 11
50.625
 21
0.0
 31
0.0
  0
LINE
  5
B5A
330
1F
100
AcDbEntity
  8
SK1
  6
CONTINUOUS
370
50
 62
4
100
AcDbLine
 10
48.0
 20
0.0
 30
0.0
 11
48.0
 21
2.625
 31
0.0
  0
ARC
  5
B5B
330
1F
100
AcDbEntity
  8
SK1
  6
CONTINUOUS
370
50
 62
4
100
AcDbCircle
 10
48.0
 20
0.0
 30
0.0
 40
2.625
100
AcDbArc
 50
0.0
 51
90.0
  0
LINE
  5
B5C
330
1F
100
AcDbEntity
  8
SK1
  6
CONTINUOUS
370
50
 62
4
100
AcDbLine
 10
48.0
 20
0.0
 30
0.0
 11
45.375
 21
0.0
 31
0.0
  0
ARC
  5
B5D
330
1F
100
AcDbEntity
  8
SK1
  6
CONTINUOUS
370
50
 62
4
100
AcDbCircle
 10
48.0
 20
0.0
 30
0.0
 40
2.625
100
AcDbArc
 50
180.0
 51
270.0
  0
LINE
  5
B5E
330
1F
100
AcDbEntity
  8
SK1
  6
CONTINUOUS
370
50
 62
4
100
AcDbLine
 10
48.0
 20
-2.625
 30
0.0
 11
48.0
 21
0.0
 31
0.0
  0
ARC
  5
B5F
330
1F
100
AcDbEntity
  8
SK1
  6
CONTINUOUS
370
50
 62
4
100
AcDbCircle
 10
48.0
 20
0.0
 30
0.0
 40
2.625
100
AcDbArc
 50
270.0
 51
0.0
  0
ARC
  5
B60
330
1F
100
AcDbEntity
  8
SK1
  6
CONTINUOUS
370
50
 62
4
100
AcDbCircle
 10
48.0
 20
0.0
 30
0.0
 40
2.625
100
AcDbArc
 50
90.0
 51
180.0
  0
LINE
  5
B61
330
1F
100
AcDbEntity
  8
SK1
  6
CONTINUOUS
370
50
 62
4
100
AcDbLine
 10
47.66575722192682
 20
-2.60347067499975
 30
0.0
 11
48.0
 21
-2.269227896926564
 31
0.0
  0
LINE
  5
B62
330
1F
100
AcDbEntity
  8
SK1
  6
CONTINUOUS
370
50
 62
4
100
AcDbLine
 10
50.26922789692657
 20
0.0
 30
0.0
 11
50.60347067499975
 21
0.3342427780731851
 31
0.0
  0
LINE
  5
B63
330
1F
100
AcDbEntity
  8
SK1
  6
CONTINUOUS
370
50
 62
4
100
AcDbLine
 10
47.35395391214686
 20
-2.544042924656761
 30
0.0
 11
48.0
 21
-1.897996836803626
 31
0.0
  0
LINE
  5
B64
330
1F
100
AcDbEntity
  8
SK1
  6
CONTINUOUS
370
50
 62
4
100
AcDbLine
 10
49.89799683680363
 20
0.0
 30
0.0
 11
50.54404292465676
 21
0.6460460878531347
 31
0.0
  0
LINE
  5
B65
330
1F
100
AcDbEntity
  8
SK1
  6
CONTINUOUS
370
50
 62
4
100
AcDbLine
 10
47.07222348891575
 20
-2.454542287764935
 30
0.0
 11
48.0
 21
-1.526765776680689
 31
0.0
  0
LINE
  5
B66
330
1F
100
AcDbEntity
  8
SK1
  6
CONTINUOUS
370
50
 62
4
100
AcDbLine
 10
49.52676577668069
 20
0.0
 30
0.0
 11
50.45454228776494
 21
0.9277765110842457
 31
0.0
  0
LINE
  5
B67
330
1F
100
AcDbEntity
  8
SK1
  6
CONTINUOUS
370
50
 62
4
100
AcDbLine
 10
46.81478120678253
 20
-2.340753509775221
 30
0.0
 11
48.0
 21
-1.155534716557751
 31
0.0
  0
LINE
  5
B68
330
1F
100
AcDbEntity
  8
SK1
  6
CONTINUOUS
370
50
 62
4
100
AcDbLine
 10
49.15553471655775
 20
0.0
 30
0.0
 11
50.34075350977522
 21
1.185218793217471
 31
0.0
  0
LINE
  5
B69
330
1F
100
AcDbEntity
  8
SK1
  6
CONTINUOUS
370
50
 62
4
100
AcDbLine
 10
46.57826543845547
 20
-2.206038217979337
 30
0.0
 11
48.0
 21
-0.7843036564348136
 31
0.0
  0
LINE
  5
B6A
330
1F
100
AcDbEntity
  8
SK1
  6
CONTINUOUS
370
50
 62
4
100
AcDbLine
 10
48.78430365643482
 20
0.0
 30
0.0
 11
50.20603821797934
 21
1.421734561544524
 31
0.0
  0
LINE
  5
B6B
330
1F
100
AcDbEntity
  8
SK1
  6
CONTINUOUS
370
50
 62
4
100
AcDbLine
 10
46.3626431117109
 20
-2.050429484600978
 30
0.0
 11
48.0
 21
-0.413072596311876
 31
0.0
  0
LINE
  5
B6C
330
1F
100
AcDbEntity
  8
SK1
  6
CONTINUOUS
370
50
 62
4
100
AcDbLine
 10
48.41307259631188
 20
0.0
 30
0.0
 11
50.05042948460098
 21
1.637356888289101
 31
0.0
  0
LINE
  5
B6D
330
1F
100
AcDbEntity
  8
SK1
  6
CONTINUOUS
370
50
 62
4
100
AcDbLine
 10
46.16568136807246
 20
-1.876160168116476
 30
0.0
 11
48.0
 21
-0.0418415361889384
 31
0.0
  0
LINE
  5
B6E
330
1F
100
AcDbEntity
  8
SK1
  6
CONTINUOUS
370
50
 62
4
100
AcDbLine
 10
48.04184153618894
 20
0.0
 30
0.0
 11
49.87616016811648
 21
1.834318631927537
 31
0.0
  0
LINE
  5
B6F
330
1F
100
AcDbEntity
  8
SK1
  6
CONTINUOUS
370
50
 62
4
100
AcDbLine
 10
45.98675942477632
 20
-1.683851051289679
 30
0.0
 11
47.670610476066
 21
0.0
 31
0.0
  0
LINE
  5
B70
330
1F
100
AcDbEntity
  8
SK1
  6
CONTINUOUS
370
50
 62
4
100
AcDbLine
 10
48.0
 20
0.3293895239339992
 30
0.0
 11
49.68385105128968
 21
2.013240575223679
 31
0.0
  0
LINE
  5
B71
330
1F
100
AcDbEntity
  8
SK1
  6
CONTINUOUS
370
50
 62
4
100
AcDbLine
 10
45.82782161830507
 20
-1.471557797638
 30
0.0
 11
47.29937941594306
 21
0.0
 31
0.0
  0
LINE
  5
B72
330
1F
100
AcDbEntity
  8
SK1
  6
CONTINUOUS
370
50
 62
4
100
AcDbLine
 10
48.0
 20
0.7006205840569368
 30
0.0
 11
49.471557797638
 21
2.172178381694937
 31
0.0
  0
LINE
  5
B73
330
1F
100
AcDbEntity
  8
SK1
  6
CONTINUOUS
370
50
 62
4
100
AcDbLine
 10
45.68749288718529
 20
-1.240655468634837
 30
0.0
 11
46.92814835582013
 21
0.0
 31
0.0
  0
LINE
  5
B74
330
1F
100
AcDbEntity
  8
SK1
  6
CONTINUOUS
370
50
 62
4
100
AcDbLine
 10
48.0
 20
1.071851644179874
 30
0.0
 11
49.24065546863483
 21
2.312507112814711
 31
0.0
  0
LINE
  5
B75
330
1F
100
AcDbEntity
  8
SK1
  6
CONTINUOUS
370
50
 62
4
100
AcDbLine
 10
45.56877644288387
 20
-0.9881408528133115
 30
0.0
 11
46.55691729569719
 21
0.0
 31
0.0
  0
LINE
  5
B76
330
1F
100
AcDbEntity
  8
SK1
  6
CONTINUOUS
370
50
 62
4
100
AcDbLine
 10
48.0
 20
1.443082704302812
 30
0.0
 11
48.98814085281331
 21
2.431223557116124
 31
0.0
  0
LINE
  5
B77
330
1F
100
AcDbEntity
  8
SK1
  6
CONTINUOUS
370
50
 62
4
100
AcDbLine
 10
45.47444482033456
 20
-0.7112414152396886
 30
0.0
 11
46.18568623557425
 21
0.0
 31
0.0
  0
LINE
  5
B78
330
1F
100
AcDbEntity
  8
SK1
  6
CONTINUOUS
370
50
 62
4
100
AcDbLine
 10
48.0
 20
1.81431376442575
 30
0.0
 11
48.71124141523969
 21
2.525555179665439
 31
0.0
  0
LINE
  5
B79
330
1F
100
AcDbEntity
  8
SK1
  6
CONTINUOUS
370
50
 62
4
100
AcDbLine
 10
45.40797120571085
 20
-0.4064839697404632
 30
0.0
 11
45.81445517545131
 21
0.0
 31
0.0
  0
LINE
  5
B7A
330
1F
100
AcDbEntity
  8
SK1
  6
CONTINUOUS
370
50
 62
4
100
AcDbLine
 10
48.0
 20
2.185544824548687
 30
0.0
 11
48.40648396974046
 21
2.59202879428915
 31
0.0
  0
LINE
  5
B7B
330
1F
100
AcDbEntity
  8
SK1
  6
CONTINUOUS
370
50
 62
4
100
AcDbLine
 10
45.37707870331546
 20
-0.0661454120129097
 30
0.0
 11
45.44322411532838
 21
0.0
 31
0.0
  0
LINE
  5
B7C
330
1F
100
AcDbEntity
  8
SK1
  6
CONTINUOUS
370
50
 62
4
100
AcDbLine
 10
48.0
 20
2.556775884671625
 30
0.0
 11
48.06614541201291
 21
2.622921296684535
 31
0.0
  0
LINE
  5
B7D
330
1F
100
AcDbEntity
  8
SK1
  6
CONTINUOUS
370
50
 62
4
100
AcDbLine
 10
45.54579652643623
 20
-0.9287176037316112
 30
0.0
 11
47.07128239626839
 21
-2.454203473563768
 31
0.0
  0
LINE
  5
B7E
330
1F
100
AcDbEntity
  8
SK1
  6
CONTINUOUS
370
50
 62
4
100
AcDbLine
 10
45.41045104563307
 20
-0.4221410628055069
 30
0.0
 11
47.5778589371945
 21
-2.589548954366935
 31
0.0
  0
LINE
  5
B7F
330
1F
100
AcDbEntity
  8
SK1
  6
CONTINUOUS
370
50
 62
4
100
AcDbLine
 10
45.37550158008622
 20
-0.0159605371357268
 30
0.0
 11
47.98403946286427
 21
-2.624498419913778
 31
0.0
  0
LINE
  5
B80
330
1F
100
AcDbEntity
  8
SK1
  6
CONTINUOUS
370
50
 62
4
100
AcDbLine
 10
45.73077210307343
 20
0.0
 30
0.0
 11
48.0
 21
-2.269227896926564
 31
0.0
  0
LINE
  5
B81
330
1F
100
AcDbEntity
  8
SK1
  6
CONTINUOUS
370
50
 62
4
100
AcDbLine
 10
46.10200316319637
 20
0.0
 30
0.0
 11
48.0
 21
-1.897996836803626
 31
0.0
  0
LINE
  5
B82
330
1F
100
AcDbEntity
  8
SK1
  6
CONTINUOUS
370
50
 62
4
100
AcDbLine
 10
46.47323422331931
 20
0.0
 30
0.0
 11
48.0
 21
-1.526765776680689
 31
0.0
  0
LINE
  5
B83
330
1F
100
AcDbEntity
  8
SK1
  6
CONTINUOUS
370
50
 62
4
100
AcDbLine
 10
46.84446528344225
 20
0.0
 30
0.0
 11
48.0
 21
-1.155534716557752
 31
0.0
  0
LINE
  5
B84
330
1F
100
AcDbEntity
  8
SK1
  6
CONTINUOUS
370
50
 62
4
100
AcDbLine
 10
47.21569634356518
 20
0.0
 30
0.0
 11
48.0
 21
-0.7843036564348145
 31
0.0
  0
LINE
  5
B85
330
1F
100
AcDbEntity
  8
SK1
  6
CONTINUOUS
370
50
 62
4
100
AcDbLine
 10
47.58692740368812
 20
0.0
 30
0.0
 11
48.0
 21
-0.4130725963118769
 31
0.0
  0
LINE
  5
B86
330
1F
100
AcDbEntity
  8
SK1
  6
CONTINUOUS
370
50
 62
4
100
AcDbLine
 10
47.95815846381106
 20
0.0
 30
0.0
 11
48.0
 21
-0.0418415361889393
 31
0.0
  0
LINE
  5
B87
330
1F
100
AcDbEntity
  8
SK1
  6
CONTINUOUS
370
50
 62
4
100
AcDbLine
 10
48.0
 20
0.3293895239339975
 30
0.0
 11
48.329389523934
 21
0.0
 31
0.0
  0
LINE
  5
B88
330
1F
100
AcDbEntity
  8
SK1
  6
CONTINUOUS
370
50
 62
4
100
AcDbLine
 10
48.0
 20
0.7006205840569351
 30
0.0
 11
48.70062058405694
 21
0.0
 31
0.0
  0
LINE
  5
B89
330
1F
100
AcDbEntity
  8
SK1
  6
CONTINUOUS
370
50
 62
4
100
AcDbLine
 10
48.0
 20
1.071851644179873
 30
0.0
 11
49.07185164417987
 21
0.0
 31
0.0
  0
LINE
  5
B8A
330
1F
100
AcDbEntity
  8
SK1
  6
CONTINUOUS
370
50
 62
4
100
AcDbLine
 10
48.0
 20
1.44308270430281
 30
0.0
 11
49.44308270430281
 21
0.0
 31
0.0
  0
LINE
  5
B8B
330
1F
100
AcDbEntity
  8
SK1
  6
CONTINUOUS
370
50
 62
4
100
AcDbLine
 10
48.0
 20
1.814313764425748
 30
0.0
 11
49.81431376442575
 21
0.0
 31
0.0
  0
LINE
  5
B8C
330
1F
100
AcDbEntity
  8
SK1
  6
CONTINUOUS
370
50
 62
4
100
AcDbLine
 10
48.0
 20
2.185544824548685
 30
0.0
 11
50.18554482454869
 21
0.0
 31
0.0
  0
LINE
  5
B8D
330
1F
100
AcDbEntity
  8
SK1
  6
CONTINUOUS
370
50
 62
4
100
AcDbLine
 10
48.0
 20
2.556775884671622
 30
0.0
 11
50.55677588467162
 21
0.0
 31
0.0
  0
LINE
  5
B8E
330
1F
100
AcDbEntity
  8
SK1
  6
CONTINUOUS
370
50
 62
4
100
AcDbLine
 10
48.3231531925751
 20
2.604853752219459
 30
0.0
 11
50.60485375221946
 21
0.3231531925751043
 31
0.0
  0
LINE
  5
B8F
330
1F
100
AcDbEntity
  8
SK1
  6
CONTINUOUS
370
50
 62
4
100
AcDbLine
 10
48.79925237182748
 20
2.499985633090018
 30
0.0
 11
50.49998563309002
 21
0.7992523718274818
 31
0.0
  0
LINE
  5
B90
330
1F
100
AcDbEntity
  8
SK1
  6
CONTINUOUS
370
50
 62
4
100
AcDbLine
 10
49.56015793098176
 20
2.11031113405868
 30
0.0
 11
50.11031113405868
 21
1.560157930981759
 31
0.0
  0
ARC
  5
B91
330
1F
100
AcDbEntity
  8
SK6
  6
CONTINUOUS
370
25
 62
5
100
AcDbCircle
 10
160.2613820083765
 20
-27.84524575338786
 30
0.0
 40
2.76048912849221
100
AcDbArc
 50
338.9379403434233
 51
90.44457437511392
  0
LINE
  5
B92
330
1F
100
AcDbEntity
  8
SK6
  6
CONTINUOUS
370
25
 62
5
100
AcDbLine
 10
160.2399627969598
 20
-25.08483972421281
 30
0.0
 11
160.2399627969598
 21
-26.18789835613464
 31
0.0
  0
ARC
  5
B93
330
1F
100
AcDbEntity
  8
SK6
  6
CONTINUOUS
370
25
 62
5
100
AcDbCircle
 10
160.2505090293692
 20
-27.86523924566821
 30
0.0
 40
1.677374043771792
100
AcDbArc
 50
243.421470601786
 51
90.3602408122618
  0
ARC
  5
B94
330
1F
100
AcDbEntity
  8
SK6
  6
CONTINUOUS
370
25
 62
5
100
AcDbCircle
 10
162.7727598968496
 20
-27.43383199215561
 30
0.0
 40
3.80021703002276
100
AcDbArc
 50
210.5483731288539
 51
236.9780169366802
  0
LINE
  5
B95
330
1F
100
AcDbEntity
  8
SK6
  6
CONTINUOUS
370
25
 62
5
100
AcDbLine
 10
160.7017906851249
 20
-30.62016781867535
 30
0.0
 11
164.8437309674267
 21
-30.62016781867535
 31
0.0
  0
ARC
  5
B96
330
1F
100
AcDbEntity
  8
SK6
  6
CONTINUOUS
370
25
 62
5
100
AcDbCircle
 10
162.7727618387726
 20
-27.4338320937346
 30
0.0
 40
3.80021689958248
100
AcDbArc
 50
303.021982847796
 51
326.3732153033476
  0
LINE
  5
B97
330
1F
100
AcDbEntity
  8
SK6
  6
CONTINUOUS
370
25
 62
5
100
AcDbLine
 10
165.9370597513572
 20
-29.5383194907709
 30
0.0
 11
162.5797617057546
 21
-29.5383194907709
 31
0.0
  0
LINE
  5
B98
330
1F
100
AcDbEntity
  8
SK6
  6
CONTINUOUS
370
25
 62
5
100
AcDbLine
 10
162.5797617057546
 20
-29.5383194907709
 30
0.0
 11
166.4996210977199
 21
-28.17691829641694
 31
0.0
  0
ARC
  5
B99
330
1F
100
AcDbEntity
  8
SK6
  6
CONTINUOUS
370
25
 62
5
100
AcDbCircle
 10
162.7727625615721
 20
-27.4338326048594
 30
0.0
 40
3.800217216614737
100
AcDbArc
 50
348.7238644184696
 51
53.4691051260886
  0
LINE
  5
B9A
330
1F
100
AcDbEntity
  8
SK6
  6
CONTINUOUS
370
25
 62
5
100
AcDbLine
 10
165.0348652453854
 20
-24.38022124429967
 30
0.0
 11
162.8374504788273
 21
-28.83730973507058
 31
0.0
  0
ENDSEC
  0
SECTION
  2
OBJECTS
  0
DICTIONARY
  5
C
330
0
100
AcDbDictionary
281
     1
  3
ACAD_GROUP
350
D
  3
ACAD_LAYOUT
350
1A
  3
ACAD_MATERIAL
350
3B
  3
ACAD_MLEADERSTYLE
350
B9D
  3
ACAD_MLINESTYLE
350
17
  3
ACAD_PLOTSETTINGS
350
19
  3
ACAD_PLOTSTYLENAME
350
E
  3
ACAD_SCALELIST
350
40E
  3
ACAD_VISUALSTYLE
350
2A
  3
AcDbVariableDictionary
350
B9B
  0
DICTIONARY
  5
D
102
{ACAD_REACTORS
330
C
102
}
330
C
100
AcDbDictionary
281
     1
  0
DICTIONARY
  5
1A
102
{ACAD_REACTORS
330
C
102
}
330
C
100
AcDbDictionary
281
     1
  3
Layout1
350
1E
  3
Layout2
350
26
  3
Model
350
22
  0
DICTIONARY
  5
3B
102
{ACAD_REACTORS
330
C
102
}
330
C
100
AcDbDictionary
281
     1
  3
ByBlock
350
3D
  3
ByLayer
350
3C
  3
Global
350
3E
  0
DICTIONARY
  5
B9D
102
{ACAD_REACTORS
330
C
102
}
330
C
100
AcDbDictionary
281
     1
  0
DICTIONARY
  5
17
102
{ACAD_REACTORS
330
C
102
}
330
C
100
AcDbDictionary
281
     1
  3
Standard
350
18
  0
DICTIONARY
  5
19
102
{ACAD_REACTORS
330
C
102
}
330
C
100
AcDbDictionary
281
     1
  0
ACDBDICTIONARYWDFLT
  5
E
102
{ACAD_REACTORS
330
C
102
}
330
C
100
AcDbDictionary
281
     1
  3
Normal
350
F
100
AcDbDictionaryWithDefault
340
F
  0
DICTIONARY
  5
40E
102
{ACAD_REACTORS
330
C
102
}
330
C
100
AcDbDictionary
281
     1
  3
A0
350
40F
  3
A1
350
410
  3
A2
350
411
  3
A3
350
412
  3
A4
350
413
  3
A5
350
414
  3
A6
350
415
  3
A7
350
416
  3
A8
350
417
  3
A9
350
418
  3
B0
350
419
  3
B1
350
41A
  3
B2
350
41B
  3
B3
350
41C
  3
B4
350
41D
  3
B5
350
41E
  3
B6
350
41F
  3
B7
350
420
  3
B8
350
421
  3
B9
350
422
  3
C0
350
423
  3
C1
350
424
  3
C2
350
425
  3
C3
350
426
  3
C4
350
427
  3
C5
350
428
  3
C6
350
429
  3
C7
350
42A
  3
C8
350
42B
  3
C9
350
42C
  3
D0
350
42D
  3
D1
350
42E
  3
D2
350
42F
  0
DICTIONARY
  5
2A
102
{ACAD_REACTORS
330
C
102
}
330
C
100
AcDbDictionary
281
     1
  3
2dWireframe
350
2F
  3
3D Hidden
350
31
  3
3dWireframe
350
30
  3
Basic
350
32
  3
Brighten
350
36
  3
ColorChange
350
3A
  3
Conceptual
350
34
  3
Dim
350
35
  3
Facepattern
350
39
  3
Flat
350
2B
  3
FlatWithEdges
350
2C
  3
Gouraud
350
2D
  3
GouraudWithEdges
350
2E
  3
Linepattern
350
38
  3
Realistic
350
33
  3
Thicken
350
37
  0
DICTIONARY
  5
B9B
102
{ACAD_REACTORS
330
C
102
}
330
C
100
AcDbDictionary
281
     1
  3
CANNOSCALE
350
BA0
  3
DIMASSOC
350
BA1
  3
HIDETEXT
350
BA2
  3
PSOLHEIGHT
350
B9F
  3
PSOLWIDTH
350
B9E
  0
LAYOUT
  5
1E
102
{ACAD_REACTORS
330
1A
102
}
330
1A
100
AcDbPlotSettings
  1

  2
none_device
  4

  6

 40
0.0
 41
0.0
 42
0.0
 43
0.0
 44
0.0
 45
0.0
 46
0.0
 47
0.0
 48
0.0
 49
0.0
140
0.0
141
0.0
142
1.0
143
1.0
 70
   688
 72
     0
 73
     0
 74
     5
  7

 75
    16
147
1.0
148
0.0
149
0.0
100
AcDbLayout
  1
Layout1
 70
     1
 71
     1
 10
0.0
 20
0.0
 11
420.0
 21
297.0
 12
0.0
 22
0.0
 32
0.0
 14
1.000000000000000E+20
 24
1.000000000000000E+20
 34
1.000000000000000E+20
 15
-1.000000000000000E+20
 25
-1.000000000000000E+20
 35
-1.000000000000000E+20
146
0.0
 13
0.0
 23
0.0
 33
0.0
 16
1.0
 26
0.0
 36
0.0
 17
0.0
 27
1.0
 37
0.0
 76
     0
330
1B
  0
LAYOUT
  5
26
102
{ACAD_REACTORS
330
1A
102
}
330
1A
100
AcDbPlotSettings
  1

  2
none_device
  4

  6

 40
0.0
 41
0.0
 42
0.0
 43
0.0
 44
0.0
 45
0.0
 46
0.0
 47
0.0
 48
0.0
 49
0.0
140
0.0
141
0.0
142
1.0
143
1.0
 70
   688
 72
     0
 73
     0
 74
     5
  7

 75
    16
147
1.0
148
0.0
149
0.0
100
AcDbLayout
  1
Layout2
 70
     1
 71
     2
 10
0.0
 20
0.0
 11
0.0
 21
0.0
 12
0.0
 22
0.0
 32
0.0
 14
0.0
 24
0.0
 34
0.0
 15
0.0
 25
0.0
 35
0.0
146
0.0
 13
0.0
 23
0.0
 33
0.0
 16
1.0
 26
0.0
 36
0.0
 17
0.0
 27
1.0
 37
0.0
 76
     0
330
23
  0
LAYOUT
  5
22
102
{ACAD_REACTORS
330
1A
102
}
330
1A
100
AcDbPlotSettings
  1

  2
none_device
  4

  6

 40
0.0
 41
0.0
 42
0.0
 43
0.0
 44
0.0
 45
0.0
 46
0.0
 47
0.0
 48
0.0
 49
0.0
140
0.0
141
0.0
142
1.0
143
1.0
 70
  1712
 72
     0
 73
     0
 74
     0
  7

 75
     0
147
1.0
148
0.0
149
0.0
100
AcDbLayout
  1
Model
 70
     1
 71
     0
 10
0.0
 20
0.0
 11
420.0
 21
297.0
 12
0.0
 22
0.0
 32
0.0
 14
0.0
 24
0.0
 34
0.0
 15
25.0
 25
35.0
 35
0.0
146
0.0
 13
0.0
 23
0.0
 33
0.0
 16
1.0
 26
0.0
 36
0.0
 17
0.0
 27
1.0
 37
0.0
 76
     0
330
1F
331
29
  0
MATERIAL
  5
3D
102
{ACAD_REACTORS
330
3B
102
}
102
{ACAD_XDICTIONARY
360
BC5
102
}
330
3B
100
AcDbMaterial
  1
ByBlock
  0
MATERIAL
  5
3C
102
{ACAD_REACTORS
330
3B
102
}
102
{ACAD_XDICTIONARY
360
BC3
102
}
330
3B
100
AcDbMaterial
  1
ByLayer
  0
MATERIAL
  5
3E
102
{ACAD_REACTORS
330
3B
102
}
102
{ACAD_XDICTIONARY
360
BC7
102
}
330
3B
100
AcDbMaterial
  1
Global
  0
MLINESTYLE
  5
18
102
{ACAD_REACTORS
330
17
102
}
330
17
100
AcDbMlineStyle
  2
Standard
 70
     0
  3

 62
   256
 51
90.0
 52
90.0
 71
     2
 49
0.5
 62
   256
  6
BYLAYER
 49
-0.5
 62
   256
  6
BYLAYER
  0
ACDBPLACEHOLDER
  5
F
102
{ACAD_REACTORS
330
E
102
}
330
E
  0
SCALE
  5
40F
102
{ACAD_REACTORS
330
40E
102
}
330
40E
100
AcDbScale
 70
     0
300
1:1
140
1.0
141
1.0
290
     1
  0
SCALE
  5
410
102
{ACAD_REACTORS
330
40E
102
}
330
40E
100
AcDbScale
 70
     0
300
1:2
140
1.0
141
2.0
290
     0
  0
SCALE
  5
411
102
{ACAD_REACTORS
330
40E
102
}
330
40E
100
AcDbScale
 70
     0
300
1:4
140
1.0
141
4.0
290
     0
  0
SCALE
  5
412
102
{ACAD_REACTORS
330
40E
102
}
330
40E
100
AcDbScale
 70
     0
300
1:5
140
1.0
141
5.0
290
     0
  0
SCALE
  5
413
102
{ACAD_REACTORS
330
40E
102
}
330
40E
100
AcDbScale
 70
     0
300
1:8
140
1.0
141
8.0
290
     0
  0
SCALE
  5
414
102
{ACAD_REACTORS
330
40E
102
}
330
40E
100
AcDbScale
 70
     0
300
1:10
140
1.0
141
10.0
290
     0
  0
SCALE
  5
415
102
{ACAD_REACTORS
330
40E
102
}
330
40E
100
AcDbScale
 70
     0
300
1:16
140
1.0
141
16.0
290
     0
  0
SCALE
  5
416
102
{ACAD_REACTORS
330
40E
102
}
330
40E
100
AcDbScale
 70
     0
300
1:20
140
1.0
141
20.0
290
     0
  0
SCALE
  5
417
102
{ACAD_REACTORS
330
40E
102
}
330
40E
100
AcDbScale
 70
     0
300
1:30
140
1.0
141
30.0
290
     0
  0
SCALE
  5
418
102
{ACAD_REACTORS
330
40E
102
}
330
40E
100
AcDbScale
 70
     0
300
1:40
140
1.0
141
40.0
290
     0
  0
SCALE
  5
419
102
{ACAD_REACTORS
330
40E
102
}
330
40E
100
AcDbScale
 70
     0
300
1:50
140
1.0
141
50.0
290
     0
  0
SCALE
  5
41A
102
{ACAD_REACTORS
330
40E
102
}
330
40E
100
AcDbScale
 70
     0
300
1:100
140
1.0
141
100.0
290
     0
  0
SCALE
  5
41B
102
{ACAD_REACTORS
330
40E
102
}
330
40E
100
AcDbScale
 70
     0
300
2:1
140
2.0
141
1.0
290
     0
  0
SCALE
  5
41C
102
{ACAD_REACTORS
330
40E
102
}
330
40E
100
AcDbScale
 70
     0
300
4:1
140
4.0
141
1.0
290
     0
  0
SCALE
  5
41D
102
{ACAD_REACTORS
330
40E
102
}
330
40E
100
AcDbScale
 70
     0
300
8:1
140
8.0
141
1.0
290
     0
  0
SCALE
  5
41E
102
{ACAD_REACTORS
330
40E
102
}
330
40E
100
AcDbScale
 70
     0
300
10:1
140
10.0
141
1.0
290
     0
  0
SCALE
  5
41F
102
{ACAD_REACTORS
330
40E
102
}
330
40E
100
AcDbScale
 70
     0
300
100:1
140
100.0
141
1.0
290
     0
  0
SCALE
  5
420
102
{ACAD_REACTORS
330
40E
102
}
330
40E
100
AcDbScale
 70
     0
300
1/128" = 1'-0"
140
0.0078125
141
12.0
290
     0
  0
SCALE
  5
421
102
{ACAD_REACTORS
330
40E
102
}
330
40E
100
AcDbScale
 70
     0
300
1/64" = 1'-0"
140
0.015625
141
12.0
290
     0
  0
SCALE
  5
422
102
{ACAD_REACTORS
330
40E
102
}
330
40E
100
AcDbScale
 70
     0
300
1/32" = 1'-0"
140
0.03125
141
12.0
290
     0
  0
SCALE
  5
423
102
{ACAD_REACTORS
330
40E
102
}
330
40E
100
AcDbScale
 70
     0
300
1/16" = 1'-0"
140
0.0625
141
12.0
290
     0
  0
SCALE
  5
424
102
{ACAD_REACTORS
330
40E
102
}
330
40E
100
AcDbScale
 70
     0
300
3/32" = 1'-0"
140
0.09375
141
12.0
290
     0
  0
SCALE
  5
425
102
{ACAD_REACTORS
330
40E
102
}
330
40E
100
AcDbScale
 70
     0
300
1/8" = 1'-0"
140
0.125
141
12.0
290
     0
  0
SCALE
  5
426
102
{ACAD_REACTORS
330
40E
102
}
330
40E
100
AcDbScale
 70
     0
300
3/16" = 1'-0"
140
0.1875
141
12.0
290
     0
  0
SCALE
  5
427
102
{ACAD_REACTORS
330
40E
102
}
330
40E
100
AcDbScale
 70
     0
300
1/4" = 1'-0"
140
0.25
141
12.0
290
     0
  0
SCALE
  5
428
102
{ACAD_REACTORS
330
40E
102
}
330
40E
100
AcDbScale
 70
     0
300
3/8" = 1'-0"
140
0.375
141
12.0
290
     0
  0
SCALE
  5
429
102
{ACAD_REACTORS
330
40E
102
}
330
40E
100
AcDbScale
 70
     0
300
1/2" = 1'-0"
140
0.5
141
12.0
290
     0
  0
SCALE
  5
42A
102
{ACAD_REACTORS
330
40E
102
}
330
40E
100
AcDbScale
 70
     0
300
3/4" = 1'-0"
140
0.75
141
12.0
290
     0
  0
SCALE
  5
42B
102
{ACAD_REACTORS
330
40E
102
}
330
40E
100
AcDbScale
 70
     0
300
1" = 1'-0"
140
1.0
141
12.0
290
     0
  0
SCALE
  5
42C
102
{ACAD_REACTORS
330
40E
102
}
330
40E
100
AcDbScale
 70
     0
300
1-1/2" = 1'-0"
140
1.5
141
12.0
290
     0
  0
SCALE
  5
42D
102
{ACAD_REACTORS
330
40E
102
}
330
40E
100
AcDbScale
 70
     0
300
3" = 1'-0"
140
3.0
141
12.0
290
     0
  0
SCALE
  5
42E
102
{ACAD_REACTORS
330
40E
102
}
330
40E
100
AcDbScale
 70
     0
300
6" = 1'-0"
140
6.0
141
12.0
290
     0
  0
SCALE
  5
42F
102
{ACAD_REACTORS
330
40E
102
}
330
40E
100
AcDbScale
 70
     0
300
1'-0" = 1'-0"
140
12.0
141
12.0
290
     0
  0
VISUALSTYLE
  5
2F
102
{ACAD_REACTORS
330
2A
102
}
102
{ACAD_XDICTIONARY
360
BAB
102
}
330
2A
100
AcDbVisualStyle
  2
2dWireframe
 70
     4
 71
     0
 72
     2
 73
     0
 90
        0
 40
-0.6
 41
-30.0
 62
     5
 63
     7
 74
     1
 91
        4
 64
     7
 65
   257
 75
     1
175
     1
 42
1.0
 92
        0
 66
   257
 43
1.0
 76
     1
 77
     6
 78
     2
 67
     7
 79
     5
170
     0
171
     0
290
     0
174
     0
 93
        1
 44
0.0
173
     0
291
     0
 45
0.0
1001
ACAD
1000
AcDbSavedByObjectVersion
1070
     0
  0
VISUALSTYLE
  5
31
102
{ACAD_REACTORS
330
2A
102
}
102
{ACAD_XDICTIONARY
360
BAF
102
}
330
2A
100
AcDbVisualStyle
  2
3D Hidden
 70
     6
 71
     1
 72
     2
 73
     2
 90
        0
 40
-0.6
 41
-30.0
 62
     5
 63
     7
 74
     2
 91
        2
 64
     7
 65
   257
 75
     2
175
     1
 42
40.0
 92
        0
 66
   257
 43
1.0
 76
     1
 77
     6
 78
     2
 67
     7
 79
     3
170
     0
171
     0
290
     0
174
     0
 93
        1
 44
0.0
173
     0
291
     0
 45
0.0
1001
ACAD
1000
AcDbSavedByObjectVersion
1070
     0
  0
VISUALSTYLE
  5
30
102
{ACAD_REACTORS
330
2A
102
}
102
{ACAD_XDICTIONARY
360
BAD
102
}
330
2A
100
AcDbVisualStyle
  2
3dWireframe
 70
     5
 71
     0
 72
     2
 73
     0
 90
        0
 40
-0.6
 41
-30.0
 62
     5
 63
     7
 74
     1
 91
        4
 64
     7
 65
   257
 75
     1
175
     1
 42
1.0
 92
        0
 66
   257
 43
1.0
 76
     1
 77
     6
 78
     2
 67
     7
 79
     5
170
     0
171
     0
290
     0
174
     0
 93
        1
 44
0.0
173
     0
291
     0
 45
0.0
1001
ACAD
1000
AcDbSavedByObjectVersion
1070
     0
  0
VISUALSTYLE
  5
32
102
{ACAD_REACTORS
330
2A
102
}
102
{ACAD_XDICTIONARY
360
BB1
102
}
330
2A
100
AcDbVisualStyle
  2
Basic
 70
     7
 71
     1
 72
     0
 73
     1
 90
        0
 40
-0.6
 41
-30.0
 62
     5
 63
     7
 74
     0
 91
        4
 64
     7
 65
   257
 75
     1
175
     1
 42
1.0
 92
        8
 66
     7
 43
1.0
 76
     1
 77
     6
 78
     2
 67
     7
 79
     5
170
     0
171
     0
290
     0
174
     0
 93
        1
 44
0.0
173
     0
291
     1
 45
0.0
1001
ACAD
1000
AcDbSavedByObjectVersion
1070
     0
  0
VISUALSTYLE
  5
36
102
{ACAD_REACTORS
330
2A
102
}
102
{ACAD_XDICTIONARY
360
BB9
102
}
330
2A
100
AcDbVisualStyle
  2
Brighten
 70
    12
 71
     2
 72
     2
 73
     0
 90
        0
 40
-0.6
 41
-30.0
 62
     5
 63
     7
 74
     1
 91
        4
 64
     7
 65
   257
 75
     1
175
     1
 42
1.0
 92
        8
 66
     7
 43
1.0
 76
     1
 77
     6
 78
     2
 67
     7
 79
     5
170
     0
171
     0
290
     0
174
     0
 93
        1
 44
50.0
173
     0
291
     1
 45
0.0
1001
ACAD
1000
AcDbSavedByObjectVersion
1070
     0
  0
VISUALSTYLE
  5
3A
102
{ACAD_REACTORS
330
2A
102
}
102
{ACAD_XDICTIONARY
360
BC1
102
}
330
2A
100
AcDbVisualStyle
  2
ColorChange
 70
    16
 71
     2
 72
     2
 73
     3
 90
        0
 40
-0.6
 41
-30.0
 62
     5
 63
     8
 74
     1
 91
        4
 64
     7
 65
   257
 75
     1
175
     1
 42
1.0
 92
        8
 66
     8
 43
1.0
 76
     1
 77
     6
 78
     2
 67
     7
 79
     5
170
     0
171
     0
290
     0
174
     0
 93
        1
 44
0.0
173
     0
291
     1
 45
0.0
1001
ACAD
1000
AcDbSavedByObjectVersion
1070
     0
  0
VISUALSTYLE
  5
34
102
{ACAD_REACTORS
330
2A
102
}
102
{ACAD_XDICTIONARY
360
BB5
102
}
330
2A
100
AcDbVisualStyle
  2
Conceptual
 70
     9
 71
     3
 72
     2
 73
     0
 90
        0
 40
-0.6
 41
-30.0
 62
     5
 63
     7
 74
     2
 91
        2
 64
     7
 65
   257
 75
     1
175
     1
 42
40.0
 92
        8
 66
     7
 43
1.0
 76
     1
 77
     6
 78
     2
 67
     7
 79
     3
170
     0
171
     0
290
     0
174
     0
 93
        1
 44
0.0
173
     0
291
     0
 45
0.0
1001
ACAD
1000
AcDbSavedByObjectVersion
1070
     0
  0
VISUALSTYLE
  5
35
102
{ACAD_REACTORS
330
2A
102
}
102
{ACAD_XDICTIONARY
360
BB7
102
}
330
2A
100
AcDbVisualStyle
  2
Dim
 70
    11
 71
     2
 72
     2
 73
     0
 90
        0
 40
-0.6
 41
-30.0
 62
     5
 63
     7
 74
     1
 91
        4
 64
     7
 65
   257
 75
     1
175
     1
 42
1.0
 92
        8
 66
     7
 43
1.0
 76
     1
 77
     6
 78
     2
 67
     7
 79
     5
170
     0
171
     0
290
     0
174
     0
 93
        1
 44
-50.0
173
     0
291
     1
 45
0.0
1001
ACAD
1000
AcDbSavedByObjectVersion
1070
     0
  0
VISUALSTYLE
  5
39
102
{ACAD_REACTORS
330
2A
102
}
102
{ACAD_XDICTIONARY
360
BBF
102
}
330
2A
100
AcDbVisualStyle
  2
Facepattern
 70
    15
 71
     2
 72
     2
 73
     0
 90
        0
 40
-0.6
 41
-30.0
 62
     5
 63
     7
 74
     1
 91
        4
 64
     7
 65
   257
 75
     1
175
     1
 42
1.0
 92
        8
 66
     7
 43
1.0
 76
     1
 77
     6
 78
     2
 67
     7
 79
     5
170
     0
171
     0
290
     0
174
     0
 93
        1
 44
0.0
173
     0
291
     1
 45
0.0
1001
ACAD
1000
AcDbSavedByObjectVersion
1070
     0
  0
VISUALSTYLE
  5
2B
102
{ACAD_REACTORS
330
2A
102
}
102
{ACAD_XDICTIONARY
360
BA3
102
}
330
2A
100
AcDbVisualStyle
  2
Flat
 70
     0
 71
     2
 72
     1
 73
     1
 90
        2
 40
-0.6
 41
30.0
 62
     5
 63
     7
 74
     0
 91
        4
 64
     7
 65
   257
 75
     1
175
     1
 42
1.0
 92
        8
 66
     7
 43
1.0
 76
     1
 77
     6
 78
     2
 67
     7
 79
     5
170
     0
171
     0
290
     0
174
     0
 93
       13
 44
0.0
173
     0
291
     1
 45
0.0
1001
ACAD
1000
AcDbSavedByObjectVersion
1070
     0
  0
VISUALSTYLE
  5
2C
102
{ACAD_REACTORS
330
2A
102
}
102
{ACAD_XDICTIONARY
360
BA5
102
}
330
2A
100
AcDbVisualStyle
  2
FlatWithEdges
 70
     1
 71
     2
 72
     1
 73
     1
 90
        2
 40
-0.6
 41
30.0
 62
     5
 63
     7
 74
     1
 91
        4
 64
     7
 65
   257
 75
     1
175
     1
 42
1.0
 92
        0
 66
   257
 43
1.0
 76
     1
 77
     6
 78
     2
 67
     7
 79
     5
170
     0
171
     0
290
     0
174
     0
 93
       13
 44
0.0
173
     0
291
     1
 45
0.0
1001
ACAD
1000
AcDbSavedByObjectVersion
1070
     0
  0
VISUALSTYLE
  5
2D
102
{ACAD_REACTORS
330
2A
102
}
102
{ACAD_XDICTIONARY
360
BA7
102
}
330
2A
100
AcDbVisualStyle
  2
Gouraud
 70
     2
 71
     2
 72
     2
 73
     1
 90
        2
 40
-0.6
 41
30.0
 62
     5
 63
     7
 74
     0
 91
        4
 64
     7
 65
   257
 75
     1
175
     1
 42
1.0
 92
        0
 66
     7
 43
1.0
 76
     1
 77
     6
 78
     2
 67
     7
 79
     5
170
     0
171
     0
290
     0
174
     0
 93
       13
 44
0.0
173
     0
291
     1
 45
0.0
1001
ACAD
1000
AcDbSavedByObjectVersion
1070
     0
  0
VISUALSTYLE
  5
2E
102
{ACAD_REACTORS
330
2A
102
}
102
{ACAD_XDICTIONARY
360
BA9
102
}
330
2A
100
AcDbVisualStyle
  2
GouraudWithEdges
 70
     3
 71
     2
 72
     2
 73
     1
 90
        2
 40
-0.6
 41
30.0
 62
     5
 63
     7
 74
     1
 91
        4
 64
     7
 65
   257
 75
     1
175
     1
 42
1.0
 92
        0
 66
   257
 43
1.0
 76
     1
 77
     6
 78
     2
 67
     7
 79
     5
170
     0
171
     0
290
     0
174
     0
 93
       13
 44
0.0
173
     0
291
     1
 45
0.0
1001
ACAD
1000
AcDbSavedByObjectVersion
1070
     0
  0
VISUALSTYLE
  5
38
102
{ACAD_REACTORS
330
2A
102
}
102
{ACAD_XDICTIONARY
360
BBD
102
}
330
2A
100
AcDbVisualStyle
  2
Linepattern
 70
    14
 71
     2
 72
     2
 73
     0
 90
        0
 40
-0.6
 41
-30.0
 62
     5
 63
     7
 74
     1
 91
        4
 64
     7
 65
   257
 75
     7
175
     7
 42
1.0
 92
        8
 66
     7
 43
1.0
 76
     1
 77
     6
 78
     2
 67
     7
 79
     5
170
     0
171
     0
290
     0
174
     0
 93
        1
 44
0.0
173
     0
291
     1
 45
0.0
1001
ACAD
1000
AcDbSavedByObjectVersion
1070
     0
  0
VISUALSTYLE
  5
33
102
{ACAD_REACTORS
330
2A
102
}
102
{ACAD_XDICTIONARY
360
BB3
102
}
330
2A
100
AcDbVisualStyle
  2
Realistic
 70
     8
 71
     2
 72
     2
 73
     0
 90
        0
 40
-0.6
 41
-30.0
 62
     5
 63
     7
 74
     1
 91
        0
 64
     7
 65
   257
 75
     1
175
     1
 42
1.0
 92
        8
 66
     8
 43
1.0
 76
     1
 77
     6
 78
     2
 67
     7
 79
     5
170
     0
171
     0
290
     0
174
     0
 93
       13
 44
0.0
173
     0
291
     0
 45
0.0
1001
ACAD
1000
AcDbSavedByObjectVersion
1070
     0
  0
VISUALSTYLE
  5
37
102
{ACAD_REACTORS
330
2A
102
}
102
{ACAD_XDICTIONARY
360
BBB
102
}
330
2A
100
AcDbVisualStyle
  2
Thicken
 70
    13
 71
     2
 72
     2
 73
     0
 90
        0
 40
-0.6
 41
-30.0
 62
     5
 63
     7
 74
     1
 91
        4
 64
     7
 65
   257
 75
     1
175
     1
 42
1.0
 92
       12
 66
     7
 43
1.0
 76
     1
 77
     6
 78
     2
 67
     7
 79
     5
170
     0
171
     0
290
     0
174
     0
 93
        1
 44
0.0
173
     0
291
     1
 45
0.0
1001
ACAD
1000
AcDbSavedByObjectVersion
1070
     0
  0
DICTIONARYVAR
  5
BA0
102
{ACAD_REACTORS
330
B9B
102
}
330
B9B
100
DictionaryVariables
280
     0
  1
1:1
  0
DICTIONARYVAR
  5
BA1
102
{ACAD_REACTORS
330
B9B
102
}
330
B9B
100
DictionaryVariables
280
     0
  1
2
  0
DICTIONARYVAR
  5
BA2
102
{ACAD_REACTORS
330
B9B
102
}
330
B9B
100
DictionaryVariables
280
     0
  1
1
  0
DICTIONARYVAR
  5
B9F
102
{ACAD_REACTORS
330
B9B
102
}
330
B9B
100
DictionaryVariables
280
     0
  1
80.000000
  0
DICTIONARYVAR
  5
B9E
102
{ACAD_REACTORS
330
B9B
102
}
330
B9B
100
DictionaryVariables
280
     0
  1
5.000000
  0
DICTIONARY
  5
BC5
330
3D
100
AcDbDictionary
280
     1
281
     1
  3
ACAD_XREC_ROUNDTRIP
360
BC6
  0
DICTIONARY
  5
BC3
330
3C
100
AcDbDictionary
280
     1
281
     1
  3
ACAD_XREC_ROUNDTRIP
360
BC4
  0
DICTIONARY
  5
BC7
330
3E
100
AcDbDictionary
280
     1
281
     1
  3
ACAD_XREC_ROUNDTRIP
360
BC8
  0
DICTIONARY
  5
BAB
330
2F
100
AcDbDictionary
280
     1
281
     1
  3
ACAD_XREC_ROUNDTRIP
360
BAC
  0
DICTIONARY
  5
BAF
330
31
100
AcDbDictionary
280
     1
281
     1
  3
ACAD_XREC_ROUNDTRIP
360
BB0
  0
DICTIONARY
  5
BAD
330
30
100
AcDbDictionary
280
     1
281
     1
  3
ACAD_XREC_ROUNDTRIP
360
BAE
  0
DICTIONARY
  5
BB1
330
32
100
AcDbDictionary
280
     1
281
     1
  3
ACAD_XREC_ROUNDTRIP
360
BB2
  0
DICTIONARY
  5
BB9
330
36
100
AcDbDictionary
280
     1
281
     1
  3
ACAD_XREC_ROUNDTRIP
360
BBA
  0
DICTIONARY
  5
BC1
330
3A
100
AcDbDictionary
280
     1
281
     1
  3
ACAD_XREC_ROUNDTRIP
360
BC2
  0
DICTIONARY
  5
BB5
330
34
100
AcDbDictionary
280
     1
281
     1
  3
ACAD_XREC_ROUNDTRIP
360
BB6
  0
DICTIONARY
  5
BB7
330
35
100
AcDbDictionary
280
     1
281
     1
  3
ACAD_XREC_ROUNDTRIP
360
BB8
  0
DICTIONARY
  5
BBF
330
39
100
AcDbDictionary
280
     1
281
     1
  3
ACAD_XREC_ROUNDTRIP
360
BC0
  0
DICTIONARY
  5
BA3
330
2B
100
AcDbDictionary
280
     1
281
     1
  3
ACAD_XREC_ROUNDTRIP
360
BA4
  0
DICTIONARY
  5
BA5
330
2C
100
AcDbDictionary
280
     1
281
     1
  3
ACAD_XREC_ROUNDTRIP
360
BA6
  0
DICTIONARY
  5
BA7
330
2D
100
AcDbDictionary
280
     1
281
     1
  3
ACAD_XREC_ROUNDTRIP
360
BA8
  0
DICTIONARY
  5
BA9
330
2E
100
AcDbDictionary
280
     1
281
     1
  3
ACAD_XREC_ROUNDTRIP
360
BAA
  0
DICTIONARY
  5
BBD
330
38
100
AcDbDictionary
280
     1
281
     1
  3
ACAD_XREC_ROUNDTRIP
360
BBE
  0
DICTIONARY
  5
BB3
330
33
100
AcDbDictionary
280
     1
281
     1
  3
ACAD_XREC_ROUNDTRIP
360
BB4
  0
DICTIONARY
  5
BBB
330
37
100
AcDbDictionary
280
     1
281
     1
  3
ACAD_XREC_ROUNDTRIP
360
BBC
  0
XRECORD
  5
BC6
102
{ACAD_REACTORS
330
BC5
102
}
330
BC5
100
AcDbXrecord
280
     1
102
MATERIAL
148
0.0
149
0.0
149
0.0
 93
        0
 94
      127
282
     0
 72
     1
 77
     1
171
     1
175
     1
179
     1
273
     0
  0
XRECORD
  5
BC4
102
{ACAD_REACTORS
330
BC3
102
}
330
BC3
100
AcDbXrecord
280
     1
102
MATERIAL
148
0.0
149
0.0
149
0.0
 93
        0
 94
      127
282
     0
 72
     1
 77
     1
171
     1
175
     1
179
     1
273
     0
  0
XRECORD
  5
BC8
102
{ACAD_REACTORS
330
BC7
102
}
330
BC7
100
AcDbXrecord
280
     1
102
MATERIAL
148
0.0
149
0.0
149
0.0
 93
        0
 94
      127
282
     0
 72
     1
 77
     1
171
     1
175
     1
179
     1
273
     0
  0
XRECORD
  5
BAC
102
{ACAD_REACTORS
330
BAB
102
}
330
BAB
100
AcDbXrecord
280
     1
102
RTVSPropertyOp0
 70
     1
102
RTVSPropertyOp1
 70
     1
102
RTVSPropertyOp2
 70
     1
102
RTVSPropertyOp3
 70
     1
102
RTVSPropertyOp4
 70
     1
102
RTVSPropertyOp5
 70
     1
102
RTVSPropertyOp6
 70
     1
102
RTVSPropertyOp7
 70
     1
102
RTVSPropertyOp8
 70
     1
102
RTVSPropertyOp9
 70
     1
102
RTVSPropertyOp10
 70
     1
102
RTVSPropertyOp11
 70
     1
102
RTVSPropertyOp12
 70
     1
102
RTVSPropertyOp13
 70
     1
102
RTVSPropertyOp14
 70
     1
102
RTVSPropertyOp15
 70
     1
102
RTVSPropertyOp16
 70
     1
102
RTVSPropertyOp17
 70
     1
102
RTVSPropertyOp18
 70
     1
102
RTVSPropertyOp19
 70
     1
102
RTVSPropertyOp20
 70
     1
102
RTVSPropertyOp21
 70
     1
102
RTVSPropertyOp22
 70
     1
102
RTVSPropertyOp23
 70
     1
102
RTVSPropertyOp24
 70
     1
102
RTVSPropertyOp25
 70
     1
102
RTVSPropertyOp26
 70
     1
102
RTVSPropertyOp27
 70
     1
  0
XRECORD
  5
BB0
102
{ACAD_REACTORS
330
BAF
102
}
330
BAF
100
AcDbXrecord
280
     1
102
RTVSPropertyOp0
 70
     1
102
RTVSPropertyOp1
 70
     1
102
RTVSPropertyOp2
 70
     1
102
RTVSPropertyOp3
 70
     1
102
RTVSPropertyOp4
 70
     1
102
RTVSPropertyOp5
 70
     1
102
RTVSPropertyOp6
 70
     1
102
RTVSPropertyOp7
 70
     1
102
RTVSPropertyOp8
 70
     1
102
RTVSPropertyOp9
 70
     1
102
RTVSPropertyOp10
 70
     1
102
RTVSPropertyOp11
 70
     1
102
RTVSPropertyOp12
 70
     1
102
RTVSPropertyOp13
 70
     1
102
RTVSPropertyOp14
 70
     1
102
RTVSPropertyOp15
 70
     1
102
RTVSPropertyOp16
 70
     1
102
RTVSPropertyOp17
 70
     1
102
RTVSPropertyOp18
 70
     1
102
RTVSPropertyOp19
 70
     1
102
RTVSPropertyOp20
 70
     1
102
RTVSPropertyOp21
 70
     1
102
RTVSPropertyOp22
 70
     1
102
RTVSPropertyOp23
 70
     1
102
RTVSPropertyOp24
 70
     1
102
RTVSPropertyOp25
 70
     1
102
RTVSPropertyOp26
 70
     1
102
RTVSPropertyOp27
 70
     1
  0
XRECORD
  5
BAE
102
{ACAD_REACTORS
330
BAD
102
}
330
BAD
100
AcDbXrecord
280
     1
102
RTVSPropertyOp0
 70
     1
102
RTVSPropertyOp1
 70
     1
102
RTVSPropertyOp2
 70
     1
102
RTVSPropertyOp3
 70
     1
102
RTVSPropertyOp4
 70
     1
102
RTVSPropertyOp5
 70
     1
102
RTVSPropertyOp6
 70
     1
102
RTVSPropertyOp7
 70
     1
102
RTVSPropertyOp8
 70
     1
102
RTVSPropertyOp9
 70
     1
102
RTVSPropertyOp10
 70
     1
102
RTVSPropertyOp11
 70
     1
102
RTVSPropertyOp12
 70
     1
102
RTVSPropertyOp13
 70
     1
102
RTVSPropertyOp14
 70
     1
102
RTVSPropertyOp15
 70
     1
102
RTVSPropertyOp16
 70
     1
102
RTVSPropertyOp17
 70
     1
102
RTVSPropertyOp18
 70
     1
102
RTVSPropertyOp19
 70
     1
102
RTVSPropertyOp20
 70
     1
102
RTVSPropertyOp21
 70
     1
102
RTVSPropertyOp22
 70
     1
102
RTVSPropertyOp23
 70
     1
102
RTVSPropertyOp24
 70
     1
102
RTVSPropertyOp25
 70
     1
102
RTVSPropertyOp26
 70
     1
102
RTVSPropertyOp27
 70
     1
  0
XRECORD
  5
BB2
102
{ACAD_REACTORS
330
BB1
102
}
330
BB1
100
AcDbXrecord
280
     1
102
RTVSPropertyOp0
 70
     1
102
RTVSPropertyOp1
 70
     1
102
RTVSPropertyOp2
 70
     1
102
RTVSPropertyOp3
 70
     1
102
RTVSPropertyOp4
 70
     1
102
RTVSPropertyOp5
 70
     1
102
RTVSPropertyOp6
 70
     1
102
RTVSPropertyOp7
 70
     1
102
RTVSPropertyOp8
 70
     1
102
RTVSPropertyOp9
 70
     1
102
RTVSPropertyOp10
 70
     1
102
RTVSPropertyOp11
 70
     1
102
RTVSPropertyOp12
 70
     1
102
RTVSPropertyOp13
 70
     1
102
RTVSPropertyOp14
 70
     1
102
RTVSPropertyOp15
 70
     1
102
RTVSPropertyOp16
 70
     1
102
RTVSPropertyOp17
 70
     1
102
RTVSPropertyOp18
 70
     1
102
RTVSPropertyOp19
 70
     1
102
RTVSPropertyOp20
 70
     1
102
RTVSPropertyOp21
 70
     1
102
RTVSPropertyOp22
 70
     1
102
RTVSPropertyOp23
 70
     1
102
RTVSPropertyOp24
 70
     1
102
RTVSPropertyOp25
 70
     1
102
RTVSPropertyOp26
 70
     1
102
RTVSPropertyOp27
 70
     1
  0
XRECORD
  5
BBA
102
{ACAD_REACTORS
330
BB9
102
}
330
BB9
100
AcDbXrecord
280
     1
102
RTVSPropertyOp0
 70
     1
102
RTVSPropertyOp1
 70
     1
102
RTVSPropertyOp2
 70
     1
102
RTVSPropertyOp3
 70
     1
102
RTVSPropertyOp4
 70
     1
102
RTVSPropertyOp5
 70
     1
102
RTVSPropertyOp6
 70
     1
102
RTVSPropertyOp7
 70
     1
102
RTVSPropertyOp8
 70
     1
102
RTVSPropertyOp9
 70
     1
102
RTVSPropertyOp10
 70
     1
102
RTVSPropertyOp11
 70
     1
102
RTVSPropertyOp12
 70
     1
102
RTVSPropertyOp13
 70
     1
102
RTVSPropertyOp14
 70
     1
102
RTVSPropertyOp15
 70
     1
102
RTVSPropertyOp16
 70
     1
102
RTVSPropertyOp17
 70
     1
102
RTVSPropertyOp18
 70
     1
102
RTVSPropertyOp19
 70
     1
102
RTVSPropertyOp20
 70
     1
102
RTVSPropertyOp21
 70
     1
102
RTVSPropertyOp22
 70
     1
102
RTVSPropertyOp23
 70
     1
102
RTVSPropertyOp24
 70
     1
102
RTVSPropertyOp25
 70
     1
102
RTVSPropertyOp26
 70
     1
102
RTVSPropertyOp27
 70
     1
  0
XRECORD
  5
BC2
102
{ACAD_REACTORS
330
BC1
102
}
330
BC1
100
AcDbXrecord
280
     1
102
RTVSPropertyOp0
 70
     1
102
RTVSPropertyOp1
 70
     1
102
RTVSPropertyOp2
 70
     1
102
RTVSPropertyOp3
 70
     1
102
RTVSPropertyOp4
 70
     1
102
RTVSPropertyOp5
 70
     1
102
RTVSPropertyOp6
 70
     1
102
RTVSPropertyOp7
 70
     1
102
RTVSPropertyOp8
 70
     1
102
RTVSPropertyOp9
 70
     1
102
RTVSPropertyOp10
 70
     1
102
RTVSPropertyOp11
 70
     1
102
RTVSPropertyOp12
 70
     1
102
RTVSPropertyOp13
 70
     1
102
RTVSPropertyOp14
 70
     1
102
RTVSPropertyOp15
 70
     1
102
RTVSPropertyOp16
 70
     1
102
RTVSPropertyOp17
 70
     1
102
RTVSPropertyOp18
 70
     1
102
RTVSPropertyOp19
 70
     1
102
RTVSPropertyOp20
 70
     1
102
RTVSPropertyOp21
 70
     1
102
RTVSPropertyOp22
 70
     1
102
RTVSPropertyOp23
 70
     1
102
RTVSPropertyOp24
 70
     1
102
RTVSPropertyOp25
 70
     1
102
RTVSPropertyOp26
 70
     1
102
RTVSPropertyOp27
 70
     1
  0
XRECORD
  5
BB6
102
{ACAD_REACTORS
330
BB5
102
}
330
BB5
100
AcDbXrecord
280
     1
102
RTVSPropertyOp0
 70
     1
102
RTVSPropertyOp1
 70
     1
102
RTVSPropertyOp2
 70
     1
102
RTVSPropertyOp3
 70
     1
102
RTVSPropertyOp4
 70
     1
102
RTVSPropertyOp5
 70
     1
102
RTVSPropertyOp6
 70
     1
102
RTVSPropertyOp7
 70
     1
102
RTVSPropertyOp8
 70
     1
102
RTVSPropertyOp9
 70
     1
102
RTVSPropertyOp10
 70
     1
102
RTVSPropertyOp11
 70
     1
102
RTVSPropertyOp12
 70
     1
102
RTVSPropertyOp13
 70
     1
102
RTVSPropertyOp14
 70
     1
102
RTVSPropertyOp15
 70
     1
102
RTVSPropertyOp16
 70
     1
102
RTVSPropertyOp17
 70
     1
102
RTVSPropertyOp18
 70
     1
102
RTVSPropertyOp19
 70
     1
102
RTVSPropertyOp20
 70
     1
102
RTVSPropertyOp21
 70
     1
102
RTVSPropertyOp22
 70
     1
102
RTVSPropertyOp23
 70
     1
102
RTVSPropertyOp24
 70
     1
102
RTVSPropertyOp25
 70
     1
102
RTVSPropertyOp26
 70
     1
102
RTVSPropertyOp27
 70
     1
  0
XRECORD
  5
BB8
102
{ACAD_REACTORS
330
BB7
102
}
330
BB7
100
AcDbXrecord
280
     1
102
RTVSPropertyOp0
 70
     1
102
RTVSPropertyOp1
 70
     1
102
RTVSPropertyOp2
 70
     1
102
RTVSPropertyOp3
 70
     1
102
RTVSPropertyOp4
 70
     1
102
RTVSPropertyOp5
 70
     1
102
RTVSPropertyOp6
 70
     1
102
RTVSPropertyOp7
 70
     1
102
RTVSPropertyOp8
 70
     1
102
RTVSPropertyOp9
 70
     1
102
RTVSPropertyOp10
 70
     1
102
RTVSPropertyOp11
 70
     1
102
RTVSPropertyOp12
 70
     1
102
RTVSPropertyOp13
 70
     1
102
RTVSPropertyOp14
 70
     1
102
RTVSPropertyOp15
 70
     1
102
RTVSPropertyOp16
 70
     1
102
RTVSPropertyOp17
 70
     1
102
RTVSPropertyOp18
 70
     1
102
RTVSPropertyOp19
 70
     1
102
RTVSPropertyOp20
 70
     1
102
RTVSPropertyOp21
 70
     1
102
RTVSPropertyOp22
 70
     1
102
RTVSPropertyOp23
 70
     1
102
RTVSPropertyOp24
 70
     1
102
RTVSPropertyOp25
 70
     1
102
RTVSPropertyOp26
 70
     1
102
RTVSPropertyOp27
 70
     1
  0
XRECORD
  5
BC0
102
{ACAD_REACTORS
330
BBF
102
}
330
BBF
100
AcDbXrecord
280
     1
102
RTVSPropertyOp0
 70
     1
102
RTVSPropertyOp1
 70
     1
102
RTVSPropertyOp2
 70
     1
102
RTVSPropertyOp3
 70
     1
102
RTVSPropertyOp4
 70
     1
102
RTVSPropertyOp5
 70
     1
102
RTVSPropertyOp6
 70
     1
102
RTVSPropertyOp7
 70
     1
102
RTVSPropertyOp8
 70
     1
102
RTVSPropertyOp9
 70
     1
102
RTVSPropertyOp10
 70
     1
102
RTVSPropertyOp11
 70
     1
102
RTVSPropertyOp12
 70
     1
102
RTVSPropertyOp13
 70
     1
102
RTVSPropertyOp14
 70
     1
102
RTVSPropertyOp15
 70
     1
102
RTVSPropertyOp16
 70
     1
102
RTVSPropertyOp17
 70
     1
102
RTVSPropertyOp18
 70
     1
102
RTVSPropertyOp19
 70
     1
102
RTVSPropertyOp20
 70
     1
102
RTVSPropertyOp21
 70
     1
102
RTVSPropertyOp22
 70
     1
102
RTVSPropertyOp23
 70
     1
102
RTVSPropertyOp24
 70
     1
102
RTVSPropertyOp25
 70
     1
102
RTVSPropertyOp26
 70
     1
102
RTVSPropertyOp27
 70
     1
  0
XRECORD
  5
BA4
102
{ACAD_REACTORS
330
BA3
102
}
330
BA3
100
AcDbXrecord
280
     1
102
RTVSPropertyOp0
 70
     1
102
RTVSPropertyOp1
 70
     1
102
RTVSPropertyOp2
 70
     1
102
RTVSPropertyOp3
 70
     1
102
RTVSPropertyOp4
 70
     1
102
RTVSPropertyOp5
 70
     1
102
RTVSPropertyOp6
 70
     1
102
RTVSPropertyOp7
 70
     1
102
RTVSPropertyOp8
 70
     1
102
RTVSPropertyOp9
 70
     1
102
RTVSPropertyOp10
 70
     1
102
RTVSPropertyOp11
 70
     1
102
RTVSPropertyOp12
 70
     1
102
RTVSPropertyOp13
 70
     1
102
RTVSPropertyOp14
 70
     1
102
RTVSPropertyOp15
 70
     1
102
RTVSPropertyOp16
 70
     1
102
RTVSPropertyOp17
 70
     1
102
RTVSPropertyOp18
 70
     1
102
RTVSPropertyOp19
 70
     1
102
RTVSPropertyOp20
 70
     1
102
RTVSPropertyOp21
 70
     1
102
RTVSPropertyOp22
 70
     1
102
RTVSPropertyOp23
 70
     1
102
RTVSPropertyOp24
 70
     1
102
RTVSPropertyOp25
 70
     1
102
RTVSPropertyOp26
 70
     1
102
RTVSPropertyOp27
 70
     1
  0
XRECORD
  5
BA6
102
{ACAD_REACTORS
330
BA5
102
}
330
BA5
100
AcDbXrecord
280
     1
102
RTVSPropertyOp0
 70
     1
102
RTVSPropertyOp1
 70
     1
102
RTVSPropertyOp2
 70
     1
102
RTVSPropertyOp3
 70
     1
102
RTVSPropertyOp4
 70
     1
102
RTVSPropertyOp5
 70
     1
102
RTVSPropertyOp6
 70
     1
102
RTVSPropertyOp7
 70
     1
102
RTVSPropertyOp8
 70
     1
102
RTVSPropertyOp9
 70
     1
102
RTVSPropertyOp10
 70
     1
102
RTVSPropertyOp11
 70
     1
102
RTVSPropertyOp12
 70
     1
102
RTVSPropertyOp13
 70
     1
102
RTVSPropertyOp14
 70
     1
102
RTVSPropertyOp15
 70
     1
102
RTVSPropertyOp16
 70
     1
102
RTVSPropertyOp17
 70
     1
102
RTVSPropertyOp18
 70
     1
102
RTVSPropertyOp19
 70
     1
102
RTVSPropertyOp20
 70
     1
102
RTVSPropertyOp21
 70
     1
102
RTVSPropertyOp22
 70
     1
102
RTVSPropertyOp23
 70
     1
102
RTVSPropertyOp24
 70
     1
102
RTVSPropertyOp25
 70
     1
102
RTVSPropertyOp26
 70
     1
102
RTVSPropertyOp27
 70
     1
  0
XRECORD
  5
BA8
102
{ACAD_REACTORS
330
BA7
102
}
330
BA7
100
AcDbXrecord
280
     1
102
RTVSPropertyOp0
 70
     1
102
RTVSPropertyOp1
 70
     1
102
RTVSPropertyOp2
 70
     1
102
RTVSPropertyOp3
 70
     1
102
RTVSPropertyOp4
 70
     1
102
RTVSPropertyOp5
 70
     1
102
RTVSPropertyOp6
 70
     1
102
RTVSPropertyOp7
 70
     1
102
RTVSPropertyOp8
 70
     1
102
RTVSPropertyOp9
 70
     1
102
RTVSPropertyOp10
 70
     1
102
RTVSPropertyOp11
 70
     1
102
RTVSPropertyOp12
 70
     1
102
RTVSPropertyOp13
 70
     1
102
RTVSPropertyOp14
 70
     1
102
RTVSPropertyOp15
 70
     1
102
RTVSPropertyOp16
 70
     1
102
RTVSPropertyOp17
 70
     1
102
RTVSPropertyOp18
 70
     1
102
RTVSPropertyOp19
 70
     1
102
RTVSPropertyOp20
 70
     1
102
RTVSPropertyOp21
 70
     1
102
RTVSPropertyOp22
 70
     1
102
RTVSPropertyOp23
 70
     1
102
RTVSPropertyOp24
 70
     1
102
RTVSPropertyOp25
 70
     1
102
RTVSPropertyOp26
 70
     1
102
RTVSPropertyOp27
 70
     1
  0
XRECORD
  5
BAA
102
{ACAD_REACTORS
330
BA9
102
}
330
BA9
100
AcDbXrecord
280
     1
102
RTVSPropertyOp0
 70
     1
102
RTVSPropertyOp1
 70
     1
102
RTVSPropertyOp2
 70
     1
102
RTVSPropertyOp3
 70
     1
102
RTVSPropertyOp4
 70
     1
102
RTVSPropertyOp5
 70
     1
102
RTVSPropertyOp6
 70
     1
102
RTVSPropertyOp7
 70
     1
102
RTVSPropertyOp8
 70
     1
102
RTVSPropertyOp9
 70
     1
102
RTVSPropertyOp10
 70
     1
102
RTVSPropertyOp11
 70
     1
102
RTVSPropertyOp12
 70
     1
102
RTVSPropertyOp13
 70
     1
102
RTVSPropertyOp14
 70
     1
102
RTVSPropertyOp15
 70
     1
102
RTVSPropertyOp16
 70
     1
102
RTVSPropertyOp17
 70
     1
102
RTVSPropertyOp18
 70
     1
102
RTVSPropertyOp19
 70
     1
102
RTVSPropertyOp20
 70
     1
102
RTVSPropertyOp21
 70
     1
102
RTVSPropertyOp22
 70
     1
102
RTVSPropertyOp23
 70
     1
102
RTVSPropertyOp24
 70
     1
102
RTVSPropertyOp25
 70
     1
102
RTVSPropertyOp26
 70
     1
102
RTVSPropertyOp27
 70
     1
  0
XRECORD
  5
BBE
102
{ACAD_REACTORS
330
BBD
102
}
330
BBD
100
AcDbXrecord
280
     1
102
RTVSPropertyOp0
 70
     1
102
RTVSPropertyOp1
 70
     1
102
RTVSPropertyOp2
 70
     1
102
RTVSPropertyOp3
 70
     1
102
RTVSPropertyOp4
 70
     1
102
RTVSPropertyOp5
 70
     1
102
RTVSPropertyOp6
 70
     1
102
RTVSPropertyOp7
 70
     1
102
RTVSPropertyOp8
 70
     1
102
RTVSPropertyOp9
 70
     1
102
RTVSPropertyOp10
 70
     1
102
RTVSPropertyOp11
 70
     1
102
RTVSPropertyOp12
 70
     1
102
RTVSPropertyOp13
 70
     1
102
RTVSPropertyOp14
 70
     1
102
RTVSPropertyOp15
 70
     1
102
RTVSPropertyOp16
 70
     1
102
RTVSPropertyOp17
 70
     1
102
RTVSPropertyOp18
 70
     1
102
RTVSPropertyOp19
 70
     1
102
RTVSPropertyOp20
 70
     1
102
RTVSPropertyOp21
 70
     1
102
RTVSPropertyOp22
 70
     1
102
RTVSPropertyOp23
 70
     1
102
RTVSPropertyOp24
 70
     1
102
RTVSPropertyOp25
 70
     1
102
RTVSPropertyOp26
 70
     1
102
RTVSPropertyOp27
 70
     1
  0
XRECORD
  5
BB4
102
{ACAD_REACTORS
330
BB3
102
}
330
BB3
100
AcDbXrecord
280
     1
102
RTVSPropertyOp0
 70
     1
102
RTVSPropertyOp1
 70
     1
102
RTVSPropertyOp2
 70
     1
102
RTVSPropertyOp3
 70
     1
102
RTVSPropertyOp4
 70
     1
102
RTVSPropertyOp5
 70
     1
102
RTVSPropertyOp6
 70
     1
102
RTVSPropertyOp7
 70
     1
102
RTVSPropertyOp8
 70
     1
102
RTVSPropertyOp9
 70
     1
102
RTVSPropertyOp10
 70
     1
102
RTVSPropertyOp11
 70
     1
102
RTVSPropertyOp12
 70
     1
102
RTVSPropertyOp13
 70
     1
102
RTVSPropertyOp14
 70
     1
102
RTVSPropertyOp15
 70
     1
102
RTVSPropertyOp16
 70
     1
102
RTVSPropertyOp17
 70
     1
102
RTVSPropertyOp18
 70
     1
102
RTVSPropertyOp19
 70
     1
102
RTVSPropertyOp20
 70
     1
102
RTVSPropertyOp21
 70
     1
102
RTVSPropertyOp22
 70
     1
102
RTVSPropertyOp23
 70
     1
102
RTVSPropertyOp24
 70
     1
102
RTVSPropertyOp25
 70
     1
102
RTVSPropertyOp26
 70
     1
102
RTVSPropertyOp27
 70
     1
  0
XRECORD
  5
BBC
102
{ACAD_REACTORS
330
BBB
102
}
330
BBB
100
AcDbXrecord
280
     1
102
RTVSPropertyOp0
 70
     1
102
RTVSPropertyOp1
 70
     1
102
RTVSPropertyOp2
 70
     1
102
RTVSPropertyOp3
 70
     1
102
RTVSPropertyOp4
 70
     1
102
RTVSPropertyOp5
 70
     1
102
RTVSPropertyOp6
 70
     1
102
RTVSPropertyOp7
 70
     1
102
RTVSPropertyOp8
 70
     1
102
RTVSPropertyOp9
 70
     1
102
RTVSPropertyOp10
 70
     1
102
RTVSPropertyOp11
 70
     1
102
RTVSPropertyOp12
 70
     1
102
RTVSPropertyOp13
 70
     1
102
RTVSPropertyOp14
 70
     1
102
RTVSPropertyOp15
 70
     1
102
RTVSPropertyOp16
 70
     1
102
RTVSPropertyOp17
 70
     1
102
RTVSPropertyOp18
 70
     1
102
RTVSPropertyOp19
 70
     1
102
RTVSPropertyOp20
 70
     1
102
RTVSPropertyOp21
 70
     1
102
RTVSPropertyOp22
 70
     1
102
RTVSPropertyOp23
 70
     1
102
RTVSPropertyOp24
 70
     1
102
RTVSPropertyOp25
 70
     1
102
RTVSPropertyOp26
 70
     1
102
RTVSPropertyOp27
 70
     1
  0
ENDSEC
  0
EOF
