  0
SECTION
  2
HEADER
  9
$ACADVER
  1
AC1015
  9
$ACADMAINTVER
 70
     6
  9
$DWGCODEPAGE
  3
ANSI_1252
  9
$INSBASE
 10
0.0
 20
0.0
 30
0.0
  9
$EXTMIN
 10
0.0
 20
0.0
 30
0.0
  9
$EXTMAX
 10
25.0
 20
35.0
 30
0.0
  9
$LIMMIN
 10
0.0
 20
0.0
  9
$LIMMAX
 10
420.0
 20
297.0
  9
$ORTHOMODE
 70
     0
  9
$REGENMODE
 70
     1
  9
$FILLMODE
 70
     1
  9
$QTEXTMODE
 70
     0
  9
$MIRRTEXT
 70
     1
  9
$LTSCALE
 40
4.25
  9
$ATTMODE
 70
     1
  9
$TEXTSIZE
 40
2.5
  9
$TRACEWID
 40
1.0
  9
$TEXTSTYLE
  7
Standard
  9
$CLAYER
  8
0
  9
$CELTYPE
  6
ByLayer
  9
$CECOLOR
 62
   256
  9
$CELTSCALE
 40
1.0
  9
$DISPSILH
 70
     0
  9
$DIMSCALE
 40
1.0
  9
$DIMASZ
 40
2.5
  9
$DIMEXO
 40
0.625
  9
$DIMDLI
 40
3.75
  9
$DIMRND
 40
0.0
  9
$DIMDLE
 40
0.0
  9
$DIMEXE
 40
1.25
  9
$DIMTP
 40
0.0
  9
$DIMTM
 40
0.0
  9
$DIMTXT
 40
2.5
  9
$DIMCEN
 40
2.5
  9
$DIMTSZ
 40
0.0
  9
$DIMTOL
 70
     0
  9
$DIMLIM
 70
     0
  9
$DIMTIH
 70
     0
  9
$DIMTOH
 70
     0
  9
$DIMSE1
 70
     0
  9
$DIMSE2
 70
     0
  9
$DIMTAD
 70
     1
  9
$DIMZIN
 70
     8
  9
$DIMBLK
  1

  9
$DIMASO
 70
     1
  9
$DIMSHO
 70
     1
  9
$DIMPOST
  1

  9
$DIMAPOST
  1

  9
$DIMALT
 70
     0
  9
$DIMALTD
 70
     3
  9
$DIMALTF
 40
0.03937007874016
  9
$DIMLFAC
 40
1.0
  9
$DIMTOFL
 70
     1
  9
$DIMTVP
 40
0.0
  9
$DIMTIX
 70
     0
  9
$DIMSOXD
 70
     0
  9
$DIMSAH
 70
     0
  9
$DIMBLK1
  1

  9
$DIMBLK2
  1

  9
$DIMSTYLE
  2
ISO-25
  9
$DIMCLRD
 70
     0
  9
$DIMCLRE
 70
     0
  9
$DIMCLRT
 70
     0
  9
$DIMTFAC
 40
1.0
  9
$DIMGAP
 40
0.625
  9
$DIMJUST
 70
     0
  9
$DIMSD1
 70
     0
  9
$DIMSD2
 70
     0
  9
$DIMTOLJ
 70
     0
  9
$DIMTZIN
 70
     8
  9
$DIMALTZ
 70
     0
  9
$DIMALTTZ
 70
     0
  9
$DIMUPT
 70
     0
  9
$DIMDEC
 70
     2
  9
$DIMTDEC
 70
     2
  9
$DIMALTU
 70
     2
  9
$DIMALTTD
 70
     3
  9
$DIMTXSTY
  7
Standard
  9
$DIMAUNIT
 70
     0
  9
$DIMADEC
 70
     0
  9
$DIMALTRND
 40
0.0
  9
$DIMAZIN
 70
     0
  9
$DIMDSEP
 70
    44
  9
$DIMATFIT
 70
     3
  9
$DIMFRAC
 70
     0
  9
$DIMLDRBLK
  1

  9
$DIMLUNIT
 70
     2
  9
$DIMLWD
 70
    -2
  9
$DIMLWE
 70
    -2
  9
$DIMTMOVE
 70
     0
  9
$LUNITS
 70
     2
  9
$LUPREC
 70
     4
  9
$SKETCHINC
 40
1.0
  9
$FILLETRAD
 40
10.0
  9
$AUNITS
 70
     0
  9
$AUPREC
 70
     0
  9
$MENU
  1
.
  9
$ELEVATION
 40
0.0
  9
$PELEVATION
 40
0.0
  9
$THICKNESS
 40
0.0
  9
$LIMCHECK
 70
     0
  9
$CHAMFERA
 40
10.0
  9
$CHAMFERB
 40
10.0
  9
$CHAMFERC
 40
20.0
  9
$CHAMFERD
 40
0.0
  9
$SKPOLY
 70
     0
  9
$TDCREATE
 40
2458579.641666667
  9
$TDUCREATE
 40
2458579.558333333
  9
$TDUPDATE
 40
2458579.645138889
  9
$TDUUPDATE
 40
2458579.561805556
  9
$TDINDWG
 40
0.0000000116
  9
$TDUSRTIMER
 40
0.0000000116
  9
$USRTIMER
 70
     1
  9
$ANGBASE
 50
0.0
  9
$ANGDIR
 70
     0
  9
$PDMODE
 70
     0
  9
$PDSIZE
 40
0.0
  9
$PLINEWID
 40
0.0
  9
$SPLFRAME
 70
     0
  9
$SPLINETYPE
 70
     6
  9
$SPLINESEGS
 70
     8
  9
$HANDSEED
  5
D5F
  9
$SURFTAB1
 70
     6
  9
$SURFTAB2
 70
     6
  9
$SURFTYPE
 70
     6
  9
$SURFU
 70
     6
  9
$SURFV
 70
     6
  9
$UCSBASE
  2

  9
$UCSNAME
  2

  9
$UCSORG
 10
0.0
 20
0.0
 30
0.0
  9
$UCSXDIR
 10
1.0
 20
0.0
 30
0.0
  9
$UCSYDIR
 10
0.0
 20
1.0
 30
0.0
  9
$UCSORTHOREF
  2

  9
$UCSORTHOVIEW
 70
     0
  9
$UCSORGTOP
 10
0.0
 20
0.0
 30
0.0
  9
$UCSORGBOTTOM
 10
0.0
 20
0.0
 30
0.0
  9
$UCSORGLEFT
 10
0.0
 20
0.0
 30
0.0
  9
$UCSORGRIGHT
 10
0.0
 20
0.0
 30
0.0
  9
$UCSORGFRONT
 10
0.0
 20
0.0
 30
0.0
  9
$UCSORGBACK
 10
0.0
 20
0.0
 30
0.0
  9
$PUCSBASE
  2

  9
$PUCSNAME
  2

  9
$PUCSORG
 10
0.0
 20
0.0
 30
0.0
  9
$PUCSXDIR
 10
1.0
 20
0.0
 30
0.0
  9
$PUCSYDIR
 10
0.0
 20
1.0
 30
0.0
  9
$PUCSORTHOREF
  2

  9
$PUCSORTHOVIEW
 70
     0
  9
$PUCSORGTOP
 10
0.0
 20
0.0
 30
0.0
  9
$PUCSORGBOTTOM
 10
0.0
 20
0.0
 30
0.0
  9
$PUCSORGLEFT
 10
0.0
 20
0.0
 30
0.0
  9
$PUCSORGRIGHT
 10
0.0
 20
0.0
 30
0.0
  9
$PUCSORGFRONT
 10
0.0
 20
0.0
 30
0.0
  9
$PUCSORGBACK
 10
0.0
 20
0.0
 30
0.0
  9
$USERI1
 70
     0
  9
$USERI2
 70
     0
  9
$USERI3
 70
     0
  9
$USERI4
 70
     0
  9
$USERI5
 70
     0
  9
$USERR1
 40
0.0
  9
$USERR2
 40
0.0
  9
$USERR3
 40
0.0
  9
$USERR4
 40
0.0
  9
$USERR5
 40
0.0
  9
$WORLDVIEW
 70
     1
  9
$SHADEDGE
 70
     3
  9
$SHADEDIF
 70
    70
  9
$TILEMODE
 70
     1
  9
$MAXACTVP
 70
    64
  9
$PINSBASE
 10
0.0
 20
0.0
 30
0.0
  9
$PLIMCHECK
 70
     0
  9
$PEXTMIN
 10
1.000000000000000E+20
 20
1.000000000000000E+20
 30
1.000000000000000E+20
  9
$PEXTMAX
 10
-1.000000000000000E+20
 20
-1.000000000000000E+20
 30
-1.000000000000000E+20
  9
$PLIMMIN
 10
0.0
 20
0.0
  9
$PLIMMAX
 10
420.0
 20
297.0
  9
$UNITMODE
 70
     0
  9
$VISRETAIN
 70
     1
  9
$PLINEGEN
 70
     0
  9
$PSLTSCALE
 70
     1
  9
$TREEDEPTH
 70
  3020
  9
$CMLSTYLE
  2
Standard
  9
$CMLJUST
 70
     0
  9
$CMLSCALE
 40
20.0
  9
$PROXYGRAPHICS
 70
     1
  9
$MEASUREMENT
 70
     1
  9
$CELWEIGHT
370
    -1
  9
$ENDCAPS
280
     0
  9
$JOINSTYLE
280
     0
  9
$LWDISPLAY
290
     0
  9
$INSUNITS
 70
     4
  9
$HYPERLINKBASE
  1

  9
$STYLESHEET
  1

  9
$XEDIT
290
     1
  9
$CEPSNTYPE
380
     0
  9
$PSTYLEMODE
290
     1
  9
$FINGERPRINTGUID
  2
{F72D6C08-51BA-462F-8580-B6379957D15D}
  9
$VERSIONGUID
  2
{FAEB1C32-E019-11D5-929B-00C0DF256EC4}
  9
$EXTNAMES
290
     1
  9
$PSVPSCALE
 40
0.0
  9
$OLESTARTUP
290
     0
  0
ENDSEC
  0
SECTION
  2
CLASSES
  0
CLASS
  1
ACDBDICTIONARYWDFLT
  2
AcDbDictionaryWithDefault
  3
ObjectDBX Classes
 90
        0
280
     0
281
     0
  0
CLASS
  1
VISUALSTYLE
  2
AcDbVisualStyle
  3
ObjectDBX Classes
 90
     4095
280
     0
281
     0
  0
CLASS
  1
MATERIAL
  2
AcDbMaterial
  3
ObjectDBX Classes
 90
     1153
280
     0
281
     0
  0
CLASS
  1
SCALE
  2
AcDbScale
  3
ObjectDBX Classes
 90
     1153
280
     0
281
     0
  0
CLASS
  1
DICTIONARYVAR
  2
AcDbDictionaryVar
  3
ObjectDBX Classes
 90
        0
280
     0
281
     0
  0
CLASS
  1
ACDBPLACEHOLDER
  2
AcDbPlaceHolder
  3
ObjectDBX Classes
 90
        0
280
     0
281
     0
  0
CLASS
  1
LAYOUT
  2
AcDbLayout
  3
ObjectDBX Classes
 90
        0
280
     0
281
     0
  0
ENDSEC
  0
SECTION
  2
TABLES
  0
TABLE
  2
VPORT
  5
8
330
0
100
AcDbSymbolTable
 70
     1
  0
VPORT
  5
29
330
8
100
AcDbSymbolTableRecord
100
AcDbViewportTableRecord
  2
*Active
 70
     0
 10
0.0
 20
0.0
 11
1.0
 21
1.0
 12
11.26
 22
4.5
 13
0.0
 23
0.0
 14
10.0
 24
10.0
 15
10.0
 25
10.0
 16
0.0
 26
0.0
 36
1.0
 17
0.0
 27
0.0
 37
0.0
 40
9.0
 41
2.503333333333333
 42
50.0
 43
0.0
 44
0.0
 50
0.0
 51
0.0
 71
     0
 72
   100
 73
     1
 74
     3
 75
     0
 76
     0
 77
     0
 78
     0
281
     0
 65
     1
110
0.0
120
0.0
130
0.0
111
1.0
121
0.0
131
0.0
112
0.0
122
1.0
132
0.0
 79
     0
146
0.0
  0
ENDTAB
  0
TABLE
  2
LTYPE
  5
5
330
0
100
AcDbSymbolTable
 70
    10
  0
LTYPE
  5
14
330
5
100
AcDbSymbolTableRecord
100
AcDbLinetypeTableRecord
  2
ByBlock
 70
     0
  3

 72
    65
 73
     0
 40
0.0
  0
LTYPE
  5
15
330
5
100
AcDbSymbolTableRecord
100
AcDbLinetypeTableRecord
  2
ByLayer
 70
     0
  3

 72
    65
 73
     0
 40
0.0
  0
LTYPE
  5
16
330
5
100
AcDbSymbolTableRecord
100
AcDbLinetypeTableRecord
  2
Continuous
 70
     0
  3
Solid line
 72
    65
 73
     0
 40
0.0
  0
LTYPE
  5
45
330
5
100
AcDbSymbolTableRecord
100
AcDbLinetypeTableRecord
  2
phl_thick
 70
     0
  3
THICK
 72
    65
 73
     0
 40
0.0
  0
LTYPE
  5
481
330
5
100
AcDbSymbolTableRecord
100
AcDbLinetypeTableRecord
  2
ls_CUT
 70
     0
  3
THICK
 72
    65
 73
     0
 40
0.0
  0
LTYPE
  5
487
330
5
100
AcDbSymbolTableRecord
100
AcDbLinetypeTableRecord
  2
ls1
 70
     0
  3
THICK
 72
    65
 73
     0
 40
0.0
  0
LTYPE
  5
48D
330
5
100
AcDbSymbolTableRecord
100
AcDbLinetypeTableRecord
  2
NOCUT
 70
     0
  3
THICK
 72
    65
 73
     0
 40
0.0
  0
LTYPE
  5
491
330
5
100
AcDbSymbolTableRecord
100
AcDbLinetypeTableRecord
  2
SK1
 70
     0
  3
THICK
 72
    65
 73
     0
 40
0.0
  0
LTYPE
  5
499
330
5
100
AcDbSymbolTableRecord
100
AcDbLinetypeTableRecord
  2
ls_SK2
 70
     0
  3
THIN
 72
    65
 73
     0
 40
0.0
  0
LTYPE
  5
544
330
5
100
AcDbSymbolTableRecord
100
AcDbLinetypeTableRecord
  2
ls_2
 70
     0
  3
THIN
 72
    65
 73
     0
 40
0.0
  0
LTYPE
  5
655
330
5
100
AcDbSymbolTableRecord
100
AcDbLinetypeTableRecord
  2
LONGDASH_DASH
 70
     0
  3
THIN_DASHDOT
 72
    65
 73
     4
 40
0.85
 49
0.4
 74
     0
 49
-0.2
 74
     0
 49
0.05
 74
     0
 49
-0.2
 74
     0
  0
LTYPE
  5
691
330
5
100
AcDbSymbolTableRecord
100
AcDbLinetypeTableRecord
  2
ls_SK1
 70
     0
  3
THICK
 72
    65
 73
     0
 40
0.0
  0
ENDTAB
  0
TABLE
  2
LAYER
  5
2
330
0
100
AcDbSymbolTable
 70
    10
  0
LAYER
  5
10
330
2
100
AcDbSymbolTableRecord
100
AcDbLayerTableRecord
  2
0
 70
     0
 62
     7
  6
Continuous
370
    -3
390
F
  0
LAYER
  5
44
330
2
100
AcDbSymbolTableRecord
100
AcDbLayerTableRecord
  2
1
 70
     0
 62
4
  6
CONTINUOUS
370
50
370
    -3
390
F
  0
LAYER
  5
480
330
2
100
AcDbSymbolTableRecord
100
AcDbLayerTableRecord
  2
CUT
 70
     0
 62
1
  6
CONTINUOUS
370
25
370
    -3
390
F
  0
LAYER
  5
486
330
2
100
AcDbSymbolTableRecord
100
AcDbLayerTableRecord
  2
NOCUT
 70
     0
 62
7
  6
CONTINUOUS
370
25
370
    -3
390
F
  0
LAYER
  5
490
330
2
100
AcDbSymbolTableRecord
100
AcDbLayerTableRecord
  2
SK1
 70
     0
 62
4
  6
CONTINUOUS
370
50
370
    -3
390
F
  0
LAYER
  5
498
330
2
100
AcDbSymbolTableRecord
100
AcDbLayerTableRecord
  2
SK2
 70
     0
 62
7
  6
CONTINUOUS
370
25
370
    -3
390
F
  0
LAYER
  5
543
330
2
100
AcDbSymbolTableRecord
100
AcDbLayerTableRecord
  2
2
 70
     0
 62
7
  6
CONTINUOUS
370
25
370
    -3
390
F
  0
LAYER
  5
654
330
2
100
AcDbSymbolTableRecord
100
AcDbLayerTableRecord
  2
4
 70
     0
 62
2
  6
LONGDASH_DASH
370
25
370
    -3
390
F
  0
LAYER
  5
657
330
2
100
AcDbSymbolTableRecord
100
AcDbLayerTableRecord
  2
SK4
 70
     0
 62
2
  6
LONGDASH_DASH
370
25
370
    -3
390
F
  0
LAYER
  5
6CA
330
2
100
AcDbSymbolTableRecord
100
AcDbLayerTableRecord
  2
SK6
 70
     0
 62
5
  6
CONTINUOUS
370
25
370
    -3
390
F
  0
ENDTAB
  0
TABLE
  2
STYLE
  5
3
330
0
100
AcDbSymbolTable
 70
     1
  0
STYLE
  5
11
330
3
100
AcDbSymbolTableRecord
100
AcDbTextStyleTableRecord
  2
Standard
 70
     0
 40
0.0
 41
1.0
 50
0.0
 71
     0
 42
2.5
  3
Monospac821 BT
  4

  0
ENDTAB
  0
TABLE
  2
VIEW
  5
6
330
0
100
AcDbSymbolTable
 70
     0
  0
ENDTAB
  0
TABLE
  2
UCS
  5
7
330
0
100
AcDbSymbolTable
 70
     0
  0
ENDTAB
  0
TABLE
  2
APPID
  5
9
330
0
100
AcDbSymbolTable
 70
     2
  0
APPID
  5
12
330
9
100
AcDbSymbolTableRecord
100
AcDbRegAppTableRecord
  2
ACAD
 70
     0
  0
APPID
  5
3F
330
9
100
AcDbSymbolTableRecord
100
AcDbRegAppTableRecord
  2
ccLab
 70
     0
  0
ENDTAB
  0
TABLE
  2
DIMSTYLE
  5
A
330
0
100
AcDbSymbolTable
 70
     1
100
AcDbDimStyleTable
  0
DIMSTYLE
105
27
330
A
100
AcDbSymbolTableRecord
100
AcDbDimStyleTableRecord
  2
ISO-25
 70
     0
 41
2.5
 42
0.625
 43
3.75
 44
1.25
 73
     0
 74
     0
 77
     1
 78
     8
140
2.5
141
2.5
143
0.03937007874016
147
0.625
171
     3
172
     1
271
     2
272
     2
274
     3
278
    44
283
     0
284
     8
340
11
  0
ENDTAB
  0
TABLE
  2
BLOCK_RECORD
  5
1
330
0
100
AcDbSymbolTable
 70
     2
  0
BLOCK_RECORD
  5
1F
330
1
100
AcDbSymbolTableRecord
100
AcDbBlockTableRecord
  2
*Model_Space
340
22
  0
BLOCK_RECORD
  5
1B
330
1
100
AcDbSymbolTableRecord
100
AcDbBlockTableRecord
  2
*Paper_Space
340
1E
  0
BLOCK_RECORD
  5
23
330
1
100
AcDbSymbolTableRecord
100
AcDbBlockTableRecord
  2
*Paper_Space0
340
26
  0
ENDTAB
  0
ENDSEC
  0
SECTION
  2
BLOCKS
  0
BLOCK
  5
20
330
1F
100
AcDbEntity
  8
0
100
AcDbBlockBegin
  2
*Model_Space
 70
     0
 10
0.0
 20
0.0
 30
0.0
  3
*Model_Space
  1

  0
ENDBLK
  5
21
330
1F
100
AcDbEntity
  8
0
100
AcDbBlockEnd
  0
BLOCK
  5
1C
330
1B
100
AcDbEntity
 67
     1
  8
0
100
AcDbBlockBegin
  2
*Paper_Space
 70
     0
 10
0.0
 20
0.0
 30
0.0
  3
*Paper_Space
  1

  0
ENDBLK
  5
1D
330
1B
100
AcDbEntity
 67
     1
  8
0
100
AcDbBlockEnd
  0
BLOCK
  5
24
330
23
100
AcDbEntity
  8
0
100
AcDbBlockBegin
  2
*Paper_Space0
 70
     0
 10
0.0
 20
0.0
 30
0.0
  3
*Paper_Space0
  1

  0
ENDBLK
  5
25
330
23
100
AcDbEntity
  8
0
100
AcDbBlockEnd
  0
ENDSEC
  0
SECTION
  2
ENTITIES
  0
LINE
  5
6D4
330
1F
100
AcDbEntity
  8
1
  6
CONTINUOUS
370
50
 62
4
100
AcDbLine
 10
69.519318
 20
-0.332779
 30
0.0
 11
69.51930999999999
 21
-0.300481
 31
0.0
  0
LINE
  5
6D5
330
1F
100
AcDbEntity
  8
1
  6
CONTINUOUS
370
50
 62
4
100
AcDbLine
 10
69.519363
 20
-0.364781
 30
0.0
 11
69.519318
 21
-0.332779
 31
0.0
  0
LINE
  5
6D6
330
1F
100
AcDbEntity
  8
1
  6
CONTINUOUS
370
50
 62
4
100
AcDbLine
 10
69.519447
 20
-0.396421
 30
0.0
 11
69.519363
 21
-0.364781
 31
0.0
  0
LINE
  5
6D7
330
1F
100
AcDbEntity
  8
1
  6
CONTINUOUS
370
50
 62
4
100
AcDbLine
 10
69.519562
 20
-0.427564
 30
0.0
 11
69.519447
 21
-0.396421
 31
0.0
  0
LINE
  5
6D8
330
1F
100
AcDbEntity
  8
1
  6
CONTINUOUS
370
50
 62
4
100
AcDbLine
 10
69.519722
 20
-0.458077
 30
0.0
 11
69.519562
 21
-0.427564
 31
0.0
  0
LINE
  5
6D9
330
1F
100
AcDbEntity
  8
1
  6
CONTINUOUS
370
50
 62
4
100
AcDbLine
 10
69.51992
 20
-0.487828
 30
0.0
 11
69.519722
 21
-0.458077
 31
0.0
  0
LINE
  5
6DA
330
1F
100
AcDbEntity
  8
1
  6
CONTINUOUS
370
50
 62
4
100
AcDbLine
 10
69.520157
 20
-0.5166839999999999
 30
0.0
 11
69.51992
 21
-0.487828
 31
0.0
  0
LINE
  5
6DB
330
1F
100
AcDbEntity
  8
1
  6
CONTINUOUS
370
50
 62
4
100
AcDbLine
 10
69.520439
 20
-0.5445099999999999
 30
0.0
 11
69.520157
 21
-0.5166839999999999
 31
0.0
  0
LINE
  5
6DC
330
1F
100
AcDbEntity
  8
1
  6
CONTINUOUS
370
50
 62
4
100
AcDbLine
 10
69.520752
 20
-0.571174
 30
0.0
 11
69.520439
 21
-0.5445099999999999
 31
0.0
  0
LINE
  5
6DD
330
1F
100
AcDbEntity
  8
1
  6
CONTINUOUS
370
50
 62
4
100
AcDbLine
 10
69.521103
 20
-0.596556
 30
0.0
 11
69.520752
 21
-0.571174
 31
0.0
  0
LINE
  5
6DE
330
1F
100
AcDbEntity
  8
1
  6
CONTINUOUS
370
50
 62
4
100
AcDbLine
 10
69.5215
 20
-0.620591
 30
0.0
 11
69.521103
 21
-0.596556
 31
0.0
  0
LINE
  5
6DF
330
1F
100
AcDbEntity
  8
1
  6
CONTINUOUS
370
50
 62
4
100
AcDbLine
 10
69.52192699999999
 20
-0.643232
 30
0.0
 11
69.5215
 21
-0.620591
 31
0.0
  0
LINE
  5
6E0
330
1F
100
AcDbEntity
  8
1
  6
CONTINUOUS
370
50
 62
4
100
AcDbLine
 10
69.522385
 20
-0.664434
 30
0.0
 11
69.52192699999999
 21
-0.643232
 31
0.0
  0
LINE
  5
6E1
330
1F
100
AcDbEntity
  8
1
  6
CONTINUOUS
370
50
 62
4
100
AcDbLine
 10
69.52287299999999
 20
-0.684147
 30
0.0
 11
69.522385
 21
-0.664434
 31
0.0
  0
LINE
  5
6E2
330
1F
100
AcDbEntity
  8
1
  6
CONTINUOUS
370
50
 62
4
100
AcDbLine
 10
69.523384
 20
-0.7023269999999999
 30
0.0
 11
69.52287299999999
 21
-0.684147
 31
0.0
  0
LINE
  5
6E3
330
1F
100
AcDbEntity
  8
1
  6
CONTINUOUS
370
50
 62
4
100
AcDbLine
 10
69.523926
 20
-0.7189249999999999
 30
0.0
 11
69.523384
 21
-0.7023269999999999
 31
0.0
  0
LINE
  5
6E4
330
1F
100
AcDbEntity
  8
1
  6
CONTINUOUS
370
50
 62
4
100
AcDbLine
 10
69.524483
 20
-0.7338939999999999
 30
0.0
 11
69.523926
 21
-0.7189249999999999
 31
0.0
  0
LINE
  5
6E5
330
1F
100
AcDbEntity
  8
1
  6
CONTINUOUS
370
50
 62
4
100
AcDbLine
 10
69.525063
 20
-0.747203
 30
0.0
 11
69.524483
 21
-0.7338939999999999
 31
0.0
  0
LINE
  5
6E6
330
1F
100
AcDbEntity
  8
1
  6
CONTINUOUS
370
50
 62
4
100
AcDbLine
 10
69.525673
 20
-0.759073
 30
0.0
 11
69.525063
 21
-0.747203
 31
0.0
  0
LINE
  5
6E7
330
1F
100
AcDbEntity
  8
1
  6
CONTINUOUS
370
50
 62
4
100
AcDbLine
 10
69.526321
 20
-0.769554
 30
0.0
 11
69.525673
 21
-0.759073
 31
0.0
  0
LINE
  5
6E8
330
1F
100
AcDbEntity
  8
1
  6
CONTINUOUS
370
50
 62
4
100
AcDbLine
 10
69.537094
 20
0.7512409999999999
 30
0.0
 11
69.53615599999999
 21
0.763975
 31
0.0
  0
LINE
  5
6E9
330
1F
100
AcDbEntity
  8
1
  6
CONTINUOUS
370
50
 62
4
100
AcDbLine
 10
69.52699299999999
 20
-0.778588
 30
0.0
 11
69.526321
 21
-0.769554
 31
0.0
  0
LINE
  5
6EA
330
1F
100
AcDbEntity
  8
1
  6
CONTINUOUS
370
50
 62
4
100
AcDbLine
 10
69.53615599999999
 20
0.763975
 30
0.0
 11
69.535217
 21
0.774972
 31
0.0
  0
LINE
  5
6EB
330
1F
100
AcDbEntity
  8
1
  6
CONTINUOUS
370
50
 62
4
100
AcDbLine
 10
69.527695
 20
-0.786115
 30
0.0
 11
69.52699299999999
 21
-0.778588
 31
0.0
  0
LINE
  5
6EC
330
1F
100
AcDbEntity
  8
1
  6
CONTINUOUS
370
50
 62
4
100
AcDbLine
 10
69.535217
 20
0.774972
 30
0.0
 11
69.534271
 21
0.784087
 31
0.0
  0
LINE
  5
6ED
330
1F
100
AcDbEntity
  8
1
  6
CONTINUOUS
370
50
 62
4
100
AcDbLine
 10
69.528427
 20
-0.792078
 30
0.0
 11
69.527695
 21
-0.786115
 31
0.0
  0
LINE
  5
6EE
330
1F
100
AcDbEntity
  8
1
  6
CONTINUOUS
370
50
 62
4
100
AcDbLine
 10
69.534271
 20
0.784087
 30
0.0
 11
69.533333
 21
0.79123
 31
0.0
  0
LINE
  5
6EF
330
1F
100
AcDbEntity
  8
1
  6
CONTINUOUS
370
50
 62
4
100
AcDbLine
 10
69.529175
 20
-0.796418
 30
0.0
 11
69.528427
 21
-0.792078
 31
0.0
  0
LINE
  5
6F0
330
1F
100
AcDbEntity
  8
1
  6
CONTINUOUS
370
50
 62
4
100
AcDbLine
 10
69.533333
 20
0.79123
 30
0.0
 11
69.53240199999999
 21
0.796314
 31
0.0
  0
LINE
  5
6F1
330
1F
100
AcDbEntity
  8
1
  6
CONTINUOUS
370
50
 62
4
100
AcDbLine
 10
69.93480699999999
 20
0.008485
 30
0.0
 11
69.934235
 21
0.010752
 31
0.0
  0
LINE
  5
6F2
330
1F
100
AcDbEntity
  8
1
  6
CONTINUOUS
370
50
 62
4
100
AcDbLine
 10
69.934235
 20
0.010752
 30
0.0
 11
69.933624
 21
0.01305
 31
0.0
  0
LINE
  5
6F3
330
1F
100
AcDbEntity
  8
1
  6
CONTINUOUS
370
50
 62
4
100
AcDbLine
 10
69.933624
 20
0.01305
 30
0.0
 11
69.932976
 21
0.015382
 31
0.0
  0
LINE
  5
6F4
330
1F
100
AcDbEntity
  8
1
  6
CONTINUOUS
370
50
 62
4
100
AcDbLine
 10
69.932976
 20
0.015382
 30
0.0
 11
69.932304
 21
0.017749
 31
0.0
  0
LINE
  5
6F5
330
1F
100
AcDbEntity
  8
1
  6
CONTINUOUS
370
50
 62
4
100
AcDbLine
 10
69.52995299999999
 20
-0.799076
 30
0.0
 11
69.529175
 21
-0.796418
 31
0.0
  0
LINE
  5
6F6
330
1F
100
AcDbEntity
  8
1
  6
CONTINUOUS
370
50
 62
4
100
AcDbLine
 10
69.932304
 20
0.017749
 30
0.0
 11
69.931595
 21
0.020153
 31
0.0
  0
LINE
  5
6F7
330
1F
100
AcDbEntity
  8
1
  6
CONTINUOUS
370
50
 62
4
100
AcDbLine
 10
69.931595
 20
0.020153
 30
0.0
 11
69.930855
 21
0.022595
 31
0.0
  0
LINE
  5
6F8
330
1F
100
AcDbEntity
  8
1
  6
CONTINUOUS
370
50
 62
4
100
AcDbLine
 10
69.53240199999999
 20
0.796314
 30
0.0
 11
69.531487
 21
0.79925
 31
0.0
  0
LINE
  5
6F9
330
1F
100
AcDbEntity
  8
1
  6
CONTINUOUS
370
50
 62
4
100
AcDbLine
 10
69.930855
 20
0.022595
 30
0.0
 11
69.930077
 21
0.025079
 31
0.0
  0
LINE
  5
6FA
330
1F
100
AcDbEntity
  8
1
  6
CONTINUOUS
370
50
 62
4
100
AcDbLine
 10
69.93210599999999
 20
0.025138
 30
0.0
 11
69.923889
 21
0.048151
 31
0.0
  0
LINE
  5
6FB
330
1F
100
AcDbEntity
  8
1
  6
CONTINUOUS
370
50
 62
4
100
AcDbLine
 10
69.923889
 20
0.048151
 30
0.0
 11
69.91207899999999
 21
0.076059
 31
0.0
  0
LINE
  5
6FC
330
1F
100
AcDbEntity
  8
1
  6
CONTINUOUS
370
50
 62
4
100
AcDbLine
 10
69.91207899999999
 20
0.076059
 30
0.0
 11
69.895073
 21
0.111718
 31
0.0
  0
LINE
  5
6FD
330
1F
100
AcDbEntity
  8
1
  6
CONTINUOUS
370
50
 62
4
100
AcDbLine
 10
69.615646
 20
0.5986389999999999
 30
0.0
 11
69.611252
 21
0.6077319999999999
 31
0.0
  0
LINE
  5
6FE
330
1F
100
AcDbEntity
  8
1
  6
CONTINUOUS
370
50
 62
4
100
AcDbLine
 10
69.611252
 20
0.6077319999999999
 30
0.0
 11
69.606796
 21
0.616757
 31
0.0
  0
LINE
  5
6FF
330
1F
100
AcDbEntity
  8
1
  6
CONTINUOUS
370
50
 62
4
100
AcDbLine
 10
69.606796
 20
0.616757
 30
0.0
 11
69.602341
 21
0.625732
 31
0.0
  0
LINE
  5
700
330
1F
100
AcDbEntity
  8
1
  6
CONTINUOUS
370
50
 62
4
100
AcDbLine
 10
69.602341
 20
0.625732
 30
0.0
 11
69.597893
 21
0.634653
 31
0.0
  0
LINE
  5
701
330
1F
100
AcDbEntity
  8
1
  6
CONTINUOUS
370
50
 62
4
100
AcDbLine
 10
69.597893
 20
0.634653
 30
0.0
 11
69.593452
 21
0.6435139999999999
 31
0.0
  0
LINE
  5
702
330
1F
100
AcDbEntity
  8
1
  6
CONTINUOUS
370
50
 62
4
100
AcDbLine
 10
69.593452
 20
0.6435139999999999
 30
0.0
 11
69.58901999999999
 21
0.652311
 31
0.0
  0
LINE
  5
703
330
1F
100
AcDbEntity
  8
1
  6
CONTINUOUS
370
50
 62
4
100
AcDbLine
 10
69.58901999999999
 20
0.652311
 30
0.0
 11
69.584557
 21
0.661018
 31
0.0
  0
LINE
  5
704
330
1F
100
AcDbEntity
  8
1
  6
CONTINUOUS
370
50
 62
4
100
AcDbLine
 10
69.584557
 20
0.661018
 30
0.0
 11
69.577698
 21
0.674248
 31
0.0
  0
LINE
  5
705
330
1F
100
AcDbEntity
  8
1
  6
CONTINUOUS
370
50
 62
4
100
AcDbLine
 10
69.895073
 20
0.111718
 30
0.0
 11
69.86985
 21
0.160253
 31
0.0
  0
LINE
  5
706
330
1F
100
AcDbEntity
  8
1
  6
CONTINUOUS
370
50
 62
4
100
AcDbLine
 10
69.577698
 20
0.674248
 30
0.0
 11
69.570854
 21
0.687396
 31
0.0
  0
LINE
  5
707
330
1F
100
AcDbEntity
  8
1
  6
CONTINUOUS
370
50
 62
4
100
AcDbLine
 10
69.570854
 20
0.687396
 30
0.0
 11
69.564026
 21
0.700437
 31
0.0
  0
LINE
  5
708
330
1F
100
AcDbEntity
  8
1
  6
CONTINUOUS
370
50
 62
4
100
AcDbLine
 10
69.564026
 20
0.700437
 30
0.0
 11
69.557228
 21
0.713356
 31
0.0
  0
LINE
  5
709
330
1F
100
AcDbEntity
  8
1
  6
CONTINUOUS
370
50
 62
4
100
AcDbLine
 10
69.557228
 20
0.713356
 30
0.0
 11
69.550461
 21
0.726139
 31
0.0
  0
LINE
  5
70A
330
1F
100
AcDbEntity
  8
1
  6
CONTINUOUS
370
50
 62
4
100
AcDbLine
 10
69.550461
 20
0.726139
 30
0.0
 11
69.543747
 21
0.738772
 31
0.0
  0
LINE
  5
70B
330
1F
100
AcDbEntity
  8
1
  6
CONTINUOUS
370
50
 62
4
100
AcDbLine
 10
69.531487
 20
0.79925
 30
0.0
 11
69.531364
 21
0.799481
 31
0.0
  0
LINE
  5
70C
330
1F
100
AcDbEntity
  8
1
  6
CONTINUOUS
370
50
 62
4
100
AcDbLine
 10
69.543747
 20
0.738772
 30
0.0
 11
69.537094
 21
0.7512409999999999
 31
0.0
  0
LINE
  5
70D
330
1F
100
AcDbEntity
  8
1
  6
CONTINUOUS
370
50
 62
4
100
AcDbLine
 10
69.86985
 20
0.160253
 30
0.0
 11
69.830231
 21
0.23204
 31
0.0
  0
LINE
  5
70E
330
1F
100
AcDbEntity
  8
1
  6
CONTINUOUS
370
50
 62
4
100
AcDbLine
 10
69.830231
 20
0.23204
 30
0.0
 11
69.761276
 21
0.351953
 31
0.0
  0
LINE
  5
70F
330
1F
100
AcDbEntity
  8
1
  6
CONTINUOUS
370
50
 62
4
100
AcDbLine
 10
70.0
 20
0.0
 30
0.0
 11
69.53138
 21
0.7994509999999999
 31
0.0
  0
LINE
  5
710
330
1F
100
AcDbEntity
  8
1
  6
CONTINUOUS
370
50
 62
4
100
AcDbLine
 10
69.761276
 20
0.351953
 30
0.0
 11
69.615646
 21
0.5986389999999999
 31
0.0
  0
LINE
  5
711
330
1F
100
AcDbEntity
  8
1
  6
CONTINUOUS
370
50
 62
4
100
AcDbLine
 10
69.73597
 20
0.034366
 30
0.0
 11
69.703377
 21
0.08906
 31
0.0
  0
LINE
  5
712
330
1F
100
AcDbEntity
  8
1
  6
CONTINUOUS
370
50
 62
4
100
AcDbLine
 10
69.703377
 20
0.08906
 30
0.0
 11
69.671211
 21
0.142731
 31
0.0
  0
LINE
  5
713
330
1F
100
AcDbEntity
  8
1
  6
CONTINUOUS
370
50
 62
4
100
AcDbLine
 10
69.671211
 20
0.142731
 30
0.0
 11
69.641678
 21
0.191803
 31
0.0
  0
LINE
  5
714
330
1F
100
AcDbEntity
  8
1
  6
CONTINUOUS
370
50
 62
4
100
AcDbLine
 10
69.641678
 20
0.191803
 30
0.0
 11
69.607666
 21
0.248109
 31
0.0
  0
LINE
  5
715
330
1F
100
AcDbEntity
  8
1
  6
CONTINUOUS
370
50
 62
4
100
AcDbLine
 10
69.607666
 20
0.248109
 30
0.0
 11
69.568298
 21
0.313089
 31
0.0
  0
LINE
  5
716
330
1F
100
AcDbEntity
  8
1
  6
CONTINUOUS
370
50
 62
4
100
AcDbLine
 10
69.568298
 20
0.313089
 30
0.0
 11
69.525452
 21
0.383593
 31
0.0
  0
LINE
  5
717
330
1F
100
AcDbEntity
  8
1
  6
CONTINUOUS
370
50
 62
4
100
AcDbLine
 10
69.525452
 20
0.383593
 30
0.0
 11
69.481026
 21
0.456465
 31
0.0
  0
LINE
  5
718
330
1F
100
AcDbEntity
  8
1
  6
CONTINUOUS
370
50
 62
4
100
AcDbLine
 10
70.0
 20
0.0
 30
0.0
 11
69.584557
 21
0.661018
 31
0.0
  0
LINE
  5
719
330
1F
100
AcDbEntity
  8
1
  6
CONTINUOUS
370
50
 62
4
100
AcDbLine
 10
40.025623
 20
-0.640995
 30
0.0
 11
40.0
 21
-0.601578
 31
0.0
  0
LINE
  5
71A
330
1F
100
AcDbEntity
  8
1
  6
CONTINUOUS
370
50
 62
4
100
AcDbLine
 10
69.531364
 20
0.799481
 30
0.0
 11
69.531235
 21
0.79967
 31
0.0
  0
LINE
  5
71B
330
1F
100
AcDbEntity
  8
1
  6
CONTINUOUS
370
50
 62
4
100
AcDbLine
 10
69.531235
 20
0.79967
 30
0.0
 11
69.53111299999999
 21
0.7998149999999999
 31
0.0
  0
LINE
  5
71C
330
1F
100
AcDbEntity
  8
1
  6
CONTINUOUS
370
50
 62
4
100
AcDbLine
 10
69.530739
 20
-0.7999999999999999
 30
0.0
 11
69.52995299999999
 21
-0.799076
 31
0.0
  0
LINE
  5
71D
330
1F
100
AcDbEntity
  8
1
  6
CONTINUOUS
370
50
 62
4
100
AcDbLine
 10
40.056583
 20
-0.675186
 30
0.0
 11
40.025623
 21
-0.640995
 31
0.0
  0
LINE
  5
71E
330
1F
100
AcDbEntity
  8
1
  6
CONTINUOUS
370
50
 62
4
100
AcDbLine
 10
69.524323
 20
0.018113
 30
0.0
 11
69.52100399999999
 21
0.02154
 31
0.0
  0
LINE
  5
71F
330
1F
100
AcDbEntity
  8
1
  6
CONTINUOUS
370
50
 62
4
100
AcDbLine
 10
69.52765699999999
 20
0.014775
 30
0.0
 11
69.524323
 21
0.018113
 31
0.0
  0
LINE
  5
720
330
1F
100
AcDbEntity
  8
1
  6
CONTINUOUS
370
50
 62
4
100
AcDbLine
 10
69.93480699999999
 20
0.008485
 30
0.0
 11
69.481026
 21
0.456465
 31
0.0
  0
LINE
  5
721
330
1F
100
AcDbEntity
  8
1
  6
CONTINUOUS
370
50
 62
4
100
AcDbLine
 10
69.531013
 20
0.011524
 30
0.0
 11
69.52765699999999
 21
0.014775
 31
0.0
  0
LINE
  5
722
330
1F
100
AcDbEntity
  8
1
  6
CONTINUOUS
370
50
 62
4
100
AcDbLine
 10
69.534378
 20
0.008362
 30
0.0
 11
69.531013
 21
0.011524
 31
0.0
  0
LINE
  5
723
330
1F
100
AcDbEntity
  8
1
  6
CONTINUOUS
370
50
 62
4
100
AcDbLine
 10
50.02957199999999
 20
-0.048716
 30
0.0
 11
49.944588
 21
0.028479
 31
0.0
  0
LINE
  5
724
330
1F
100
AcDbEntity
  8
1
  6
CONTINUOUS
370
50
 62
4
100
AcDbLine
 10
61.2117
 20
-0.048162
 30
0.0
 11
61.125969
 21
0.029707
 31
0.0
  0
LINE
  5
725
330
1F
100
AcDbEntity
  8
1
  6
CONTINUOUS
370
50
 62
4
100
AcDbLine
 10
51.084511
 20
-0.028898
 30
0.0
 11
50.999035
 21
0.048701
 31
0.0
  0
LINE
  5
726
330
1F
100
AcDbEntity
  8
1
  6
CONTINUOUS
370
50
 62
4
100
AcDbLine
 10
69.53776599999999
 20
0.005289
 30
0.0
 11
69.534378
 21
0.008362
 31
0.0
  0
LINE
  5
727
330
1F
100
AcDbEntity
  8
1
  6
CONTINUOUS
370
50
 62
4
100
AcDbLine
 10
62.267948
 20
-0.029363
 30
0.0
 11
62.182365
 21
0.04818
 31
0.0
  0
LINE
  5
728
330
1F
100
AcDbEntity
  8
1
  6
CONTINUOUS
370
50
 62
4
100
AcDbLine
 10
47.147827
 20
0.02836
 30
0.0
 11
47.063129
 21
0.105088
 31
0.0
  0
LINE
  5
729
330
1F
100
AcDbEntity
  8
1
  6
CONTINUOUS
370
50
 62
4
100
AcDbLine
 10
65.065353
 20
-0.029982
 30
0.0
 11
64.979576
 21
0.047707
 31
0.0
  0
LINE
  5
72A
330
1F
100
AcDbEntity
  8
1
  6
CONTINUOUS
370
50
 62
4
100
AcDbLine
 10
47.233112
 20
-0.048878
 30
0.0
 11
47.147827
 21
0.02836
 31
0.0
  0
LINE
  5
72B
330
1F
100
AcDbEntity
  8
1
  6
CONTINUOUS
370
50
 62
4
100
AcDbLine
 10
58.329845
 20
0.029015
 30
0.0
 11
58.244934
 21
0.105846
 31
0.0
  0
LINE
  5
72C
330
1F
100
AcDbEntity
  8
1
  6
CONTINUOUS
370
50
 62
4
100
AcDbLine
 10
53.967426
 20
-0.106774
 30
0.0
 11
53.882042
 21
-0.029538
 31
0.0
  0
LINE
  5
72D
330
1F
100
AcDbEntity
  8
1
  6
CONTINUOUS
370
50
 62
4
100
AcDbLine
 10
65.15072599999999
 20
-0.107127
 30
0.0
 11
65.065353
 21
-0.029982
 31
0.0
  0
LINE
  5
72E
330
1F
100
AcDbEntity
  8
1
  6
CONTINUOUS
370
50
 62
4
100
AcDbLine
 10
53.882042
 20
-0.029538
 30
0.0
 11
53.796001
 21
0.048196
 31
0.0
  0
LINE
  5
72F
330
1F
100
AcDbEntity
  8
1
  6
CONTINUOUS
370
50
 62
4
100
AcDbLine
 10
42.762508
 20
-0.087311
 30
0.0
 11
42.714279
 21
-0.043744
 31
0.0
  0
LINE
  5
730
330
1F
100
AcDbEntity
  8
1
  6
CONTINUOUS
370
50
 62
4
100
AcDbLine
 10
42.714279
 20
-0.043744
 30
0.0
 11
42.665836
 21
0.0
 31
0.0
  0
LINE
  5
731
330
1F
100
AcDbEntity
  8
1
  6
CONTINUOUS
370
50
 62
4
100
AcDbLine
 10
64.091133
 20
-0.122677
 30
0.0
 11
64.00812499999999
 21
-0.047731
 31
0.0
  0
LINE
  5
732
330
1F
100
AcDbEntity
  8
1
  6
CONTINUOUS
370
50
 62
4
100
AcDbLine
 10
69.52100399999999
 20
0.02154
 30
0.0
 11
69.448677
 21
0.086828
 31
0.0
  0
LINE
  5
733
330
1F
100
AcDbEntity
  8
1
  6
CONTINUOUS
370
50
 62
4
100
AcDbLine
 10
50.113117
 20
-0.124088
 30
0.0
 11
50.02957199999999
 21
-0.048716
 31
0.0
  0
LINE
  5
734
330
1F
100
AcDbEntity
  8
1
  6
CONTINUOUS
370
50
 62
4
100
AcDbLine
 10
64.00812499999999
 20
-0.047731
 30
0.0
 11
63.921642
 21
0.030285
 31
0.0
  0
LINE
  5
735
330
1F
100
AcDbEntity
  8
1
  6
CONTINUOUS
370
50
 62
4
100
AcDbLine
 10
48.20214499999999
 20
0.04881
 30
0.0
 11
48.119488
 21
0.123368
 31
0.0
  0
LINE
  5
736
330
1F
100
AcDbEntity
  8
1
  6
CONTINUOUS
370
50
 62
4
100
AcDbLine
 10
62.182365
 20
0.04818
 30
0.0
 11
62.099594
 21
0.122831
 31
0.0
  0
LINE
  5
737
330
1F
100
AcDbEntity
  8
1
  6
CONTINUOUS
370
50
 62
4
100
AcDbLine
 10
52.908848
 20
-0.123107
 30
0.0
 11
52.82578299999999
 21
-0.0482
 31
0.0
  0
LINE
  5
738
330
1F
100
AcDbEntity
  8
1
  6
CONTINUOUS
370
50
 62
4
100
AcDbLine
 10
58.41538199999999
 20
-0.048112
 30
0.0
 11
58.329845
 21
0.029015
 31
0.0
  0
LINE
  5
739
330
1F
100
AcDbEntity
  8
1
  6
CONTINUOUS
370
50
 62
4
100
AcDbLine
 10
61.125969
 20
0.029707
 30
0.0
 11
61.040264
 21
0.106975
 31
0.0
  0
LINE
  5
73A
330
1F
100
AcDbEntity
  8
1
  6
CONTINUOUS
370
50
 62
4
100
AcDbLine
 10
67.94768499999999
 20
-0.107247
 30
0.0
 11
67.861969
 21
-0.030047
 31
0.0
  0
LINE
  5
73B
330
1F
100
AcDbEntity
  8
1
  6
CONTINUOUS
370
50
 62
4
100
AcDbLine
 10
50.999035
 20
0.048701
 30
0.0
 11
50.916073
 21
0.123402
 31
0.0
  0
LINE
  5
73C
330
1F
100
AcDbEntity
  8
1
  6
CONTINUOUS
370
50
 62
4
100
AcDbLine
 10
44.359428
 20
0.021198
 30
0.0
 11
44.281597
 21
0.091264
 31
0.0
  0
LINE
  5
73D
330
1F
100
AcDbEntity
  8
1
  6
CONTINUOUS
370
50
 62
4
100
AcDbLine
 10
48.28843699999999
 20
-0.028849
 30
0.0
 11
48.20214499999999
 21
0.04881
 31
0.0
  0
LINE
  5
73E
330
1F
100
AcDbEntity
  8
1
  6
CONTINUOUS
370
50
 62
4
100
AcDbLine
 10
42.665836
 20
0.0
 30
0.0
 11
42.657421
 21
0.007572
 31
0.0
  0
LINE
  5
73F
330
1F
100
AcDbEntity
  8
1
  6
CONTINUOUS
370
50
 62
4
100
AcDbLine
 10
42.657421
 20
0.007572
 30
0.0
 11
42.648998
 21
0.01515
 31
0.0
  0
LINE
  5
740
330
1F
100
AcDbEntity
  8
1
  6
CONTINUOUS
370
50
 62
4
100
AcDbLine
 10
51.170334
 20
-0.106102
 30
0.0
 11
51.084511
 21
-0.028898
 31
0.0
  0
LINE
  5
741
330
1F
100
AcDbEntity
  8
1
  6
CONTINUOUS
370
50
 62
4
100
AcDbLine
 10
59.385937
 20
0.048077
 30
0.0
 11
59.303051
 21
0.122614
 31
0.0
  0
LINE
  5
742
330
1F
100
AcDbEntity
  8
1
  6
CONTINUOUS
370
50
 62
4
100
AcDbLine
 10
61.295471
 20
-0.12347
 30
0.0
 11
61.2117
 21
-0.048162
 31
0.0
  0
LINE
  5
743
330
1F
100
AcDbEntity
  8
1
  6
CONTINUOUS
370
50
 62
4
100
AcDbLine
 10
42.810673
 20
-0.130609
 30
0.0
 11
42.762508
 21
-0.087311
 31
0.0
  0
LINE
  5
744
330
1F
100
AcDbEntity
  8
1
  6
CONTINUOUS
370
50
 62
4
100
AcDbLine
 10
42.648998
 20
0.01515
 30
0.0
 11
42.640564
 21
0.022729
 31
0.0
  0
LINE
  5
745
330
1F
100
AcDbEntity
  8
1
  6
CONTINUOUS
370
50
 62
4
100
AcDbLine
 10
49.944588
 20
0.028479
 30
0.0
 11
49.859119
 21
0.105244
 31
0.0
  0
LINE
  5
746
330
1F
100
AcDbEntity
  8
1
  6
CONTINUOUS
370
50
 62
4
100
AcDbLine
 10
69.448677
 20
0.086828
 30
0.0
 11
69.37642699999999
 21
0.151697
 31
0.0
  0
LINE
  5
747
330
1F
100
AcDbEntity
  8
1
  6
CONTINUOUS
370
50
 62
4
100
AcDbLine
 10
56.763988
 20
-0.106547
 30
0.0
 11
56.677944
 21
-0.029299
 31
0.0
  0
LINE
  5
748
330
1F
100
AcDbEntity
  8
1
  6
CONTINUOUS
370
50
 62
4
100
AcDbLine
 10
44.281597
 20
0.091264
 30
0.0
 11
44.204395
 21
0.160531
 31
0.0
  0
LINE
  5
749
330
1F
100
AcDbEntity
  8
1
  6
CONTINUOUS
370
50
 62
4
100
AcDbLine
 10
42.640564
 20
0.022729
 30
0.0
 11
42.632114
 21
0.030309
 31
0.0
  0
LINE
  5
74A
330
1F
100
AcDbEntity
  8
1
  6
CONTINUOUS
370
50
 62
4
100
AcDbLine
 10
52.82578299999999
 20
-0.0482
 30
0.0
 11
52.739128
 21
0.029532
 31
0.0
  0
LINE
  5
74B
330
1F
100
AcDbEntity
  8
1
  6
CONTINUOUS
370
50
 62
4
100
AcDbLine
 10
41.727833
 20
-0.124015
 30
0.0
 11
41.639908
 21
-0.045199
 31
0.0
  0
LINE
  5
74C
330
1F
100
AcDbEntity
  8
1
  6
CONTINUOUS
370
50
 62
4
100
AcDbLine
 10
55.53447
 20
0.028544
 30
0.0
 11
55.448959
 21
0.105137
 31
0.0
  0
LINE
  5
74D
330
1F
100
AcDbEntity
  8
1
  6
CONTINUOUS
370
50
 62
4
100
AcDbLine
 10
67.861969
 20
-0.030047
 30
0.0
 11
67.775719
 21
0.047174
 31
0.0
  0
LINE
  5
74E
330
1F
100
AcDbEntity
  8
1
  6
CONTINUOUS
370
50
 62
4
100
AcDbLine
 10
42.632114
 20
0.030309
 30
0.0
 11
42.62365
 21
0.037886
 31
0.0
  0
LINE
  5
74F
330
1F
100
AcDbEntity
  8
1
  6
CONTINUOUS
370
50
 62
4
100
AcDbLine
 10
41.639908
 20
-0.045199
 30
0.0
 11
41.631504
 21
-0.037679
 31
0.0
  0
LINE
  5
750
330
1F
100
AcDbEntity
  8
1
  6
CONTINUOUS
370
50
 62
4
100
AcDbLine
 10
62.354263
 20
-0.106552
 30
0.0
 11
62.267948
 21
-0.029363
 31
0.0
  0
LINE
  5
751
330
1F
100
AcDbEntity
  8
1
  6
CONTINUOUS
370
50
 62
4
100
AcDbLine
 10
45.580029
 20
-0.105725
 30
0.0
 11
45.493816
 21
-0.028637
 31
0.0
  0
LINE
  5
752
330
1F
100
AcDbEntity
  8
1
  6
CONTINUOUS
370
50
 62
4
100
AcDbLine
 10
41.631504
 20
-0.037679
 30
0.0
 11
41.623085
 21
-0.030153
 31
0.0
  0
LINE
  5
753
330
1F
100
AcDbEntity
  8
1
  6
CONTINUOUS
370
50
 62
4
100
AcDbLine
 10
64.979576
 20
0.047707
 30
0.0
 11
64.896164
 21
0.122236
 31
0.0
  0
LINE
  5
754
330
1F
100
AcDbEntity
  8
1
  6
CONTINUOUS
370
50
 62
4
100
AcDbLine
 10
66.886421
 20
-0.121285
 30
0.0
 11
66.803482
 21
-0.04719
 31
0.0
  0
LINE
  5
755
330
1F
100
AcDbEntity
  8
1
  6
CONTINUOUS
370
50
 62
4
100
AcDbLine
 10
59.472683
 20
-0.029419
 30
0.0
 11
59.385937
 21
0.048077
 31
0.0
  0
LINE
  5
756
330
1F
100
AcDbEntity
  8
1
  6
CONTINUOUS
370
50
 62
4
100
AcDbLine
 10
42.62365
 20
0.037886
 30
0.0
 11
42.615177
 21
0.045455
 31
0.0
  0
LINE
  5
757
330
1F
100
AcDbEntity
  8
1
  6
CONTINUOUS
370
50
 62
4
100
AcDbLine
 10
41.623085
 20
-0.030153
 30
0.0
 11
41.614647
 21
-0.022622
 31
0.0
  0
LINE
  5
758
330
1F
100
AcDbEntity
  8
1
  6
CONTINUOUS
370
50
 62
4
100
AcDbLine
 10
58.244934
 20
0.105846
 30
0.0
 11
58.160217
 21
0.181432
 31
0.0
  0
LINE
  5
759
330
1F
100
AcDbEntity
  8
1
  6
CONTINUOUS
370
50
 62
4
100
AcDbLine
 10
55.448959
 20
0.105137
 30
0.0
 11
55.363934
 21
0.180997
 31
0.0
  0
LINE
  5
75A
330
1F
100
AcDbEntity
  8
1
  6
CONTINUOUS
370
50
 62
4
100
AcDbLine
 10
56.849358
 20
-0.182714
 30
0.0
 11
56.763988
 21
-0.106547
 31
0.0
  0
LINE
  5
75B
330
1F
100
AcDbEntity
  8
1
  6
CONTINUOUS
370
50
 62
4
100
AcDbLine
 10
68.032814
 20
-0.183197
 30
0.0
 11
67.94768499999999
 21
-0.107247
 31
0.0
  0
LINE
  5
75C
330
1F
100
AcDbEntity
  8
1
  6
CONTINUOUS
370
50
 62
4
100
AcDbLine
 10
41.614647
 20
-0.022622
 30
0.0
 11
41.606194
 21
-0.015084
 31
0.0
  0
LINE
  5
75D
330
1F
100
AcDbEntity
  8
1
  6
CONTINUOUS
370
50
 62
4
100
AcDbLine
 10
44.437756
 20
-0.048648
 30
0.0
 11
44.359428
 21
0.021198
 31
0.0
  0
LINE
  5
75E
330
1F
100
AcDbEntity
  8
1
  6
CONTINUOUS
370
50
 62
4
100
AcDbLine
 10
47.316509
 20
-0.123195
 30
0.0
 11
47.233112
 21
-0.048878
 31
0.0
  0
LINE
  5
75F
330
1F
100
AcDbEntity
  8
1
  6
CONTINUOUS
370
50
 62
4
100
AcDbLine
 10
45.40685999999999
 20
0.048548
 30
0.0
 11
45.323284
 21
0.123011
 31
0.0
  0
LINE
  5
760
330
1F
100
AcDbEntity
  8
1
  6
CONTINUOUS
370
50
 62
4
100
AcDbLine
 10
45.665722
 20
-0.182062
 30
0.0
 11
45.580029
 21
-0.105725
 31
0.0
  0
LINE
  5
761
330
1F
100
AcDbEntity
  8
1
  6
CONTINUOUS
370
50
 62
4
100
AcDbLine
 10
56.677944
 20
-0.029299
 30
0.0
 11
56.59137
 21
0.047822
 31
0.0
  0
LINE
  5
762
330
1F
100
AcDbEntity
  8
1
  6
CONTINUOUS
370
50
 62
4
100
AcDbLine
 10
41.606194
 20
-0.015084
 30
0.0
 11
41.597725
 21
-0.007542
 31
0.0
  0
LINE
  5
763
330
1F
100
AcDbEntity
  8
1
  6
CONTINUOUS
370
50
 62
4
100
AcDbLine
 10
47.063129
 20
0.105088
 30
0.0
 11
46.978226
 21
0.18065
 31
0.0
  0
LINE
  5
764
330
1F
100
AcDbEntity
  8
1
  6
CONTINUOUS
370
50
 62
4
100
AcDbLine
 10
52.992088
 20
-0.197187
 30
0.0
 11
52.908848
 21
-0.123107
 31
0.0
  0
LINE
  5
765
330
1F
100
AcDbEntity
  8
1
  6
CONTINUOUS
370
50
 62
4
100
AcDbLine
 10
54.052902
 20
-0.182844
 30
0.0
 11
53.967426
 21
-0.106774
 31
0.0
  0
LINE
  5
766
330
1F
100
AcDbEntity
  8
1
  6
CONTINUOUS
370
50
 62
4
100
AcDbLine
 10
42.858932
 20
-0.173545
 30
0.0
 11
42.810673
 21
-0.130609
 31
0.0
  0
LINE
  5
767
330
1F
100
AcDbEntity
  8
1
  6
CONTINUOUS
370
50
 62
4
100
AcDbLine
 10
66.71726199999999
 20
0.029177
 30
0.0
 11
66.631416
 21
0.105549
 31
0.0
  0
LINE
  5
768
330
1F
100
AcDbEntity
  8
1
  6
CONTINUOUS
370
50
 62
4
100
AcDbLine
 10
59.303051
 20
0.122614
 30
0.0
 11
59.220291
 21
0.196227
 31
0.0
  0
LINE
  5
769
330
1F
100
AcDbEntity
  8
1
  6
CONTINUOUS
370
50
 62
4
100
AcDbLine
 10
53.796001
 20
0.048196
 30
0.0
 11
53.71248199999999
 21
0.122483
 31
0.0
  0
LINE
  5
76A
330
1F
100
AcDbEntity
  8
1
  6
CONTINUOUS
370
50
 62
4
100
AcDbLine
 10
66.968994
 20
-0.194691
 30
0.0
 11
66.886421
 21
-0.121285
 31
0.0
  0
LINE
  5
76B
330
1F
100
AcDbEntity
  8
1
  6
CONTINUOUS
370
50
 62
4
100
AcDbLine
 10
48.119488
 20
0.123368
 30
0.0
 11
48.036587
 21
0.197063
 31
0.0
  0
LINE
  5
76C
330
1F
100
AcDbEntity
  8
1
  6
CONTINUOUS
370
50
 62
4
100
AcDbLine
 10
66.631416
 20
0.105549
 30
0.0
 11
66.546112
 21
0.181379
 31
0.0
  0
LINE
  5
76D
330
1F
100
AcDbEntity
  8
1
  6
CONTINUOUS
370
50
 62
4
100
AcDbLine
 10
41.500885
 20
0.078155
 30
0.0
 11
41.414154
 21
0.1552
 31
0.0
  0
LINE
  5
76E
330
1F
100
AcDbEntity
  8
1
  6
CONTINUOUS
370
50
 62
4
100
AcDbLine
 10
41.81509399999999
 20
-0.201522
 30
0.0
 11
41.727833
 21
-0.124015
 31
0.0
  0
LINE
  5
76F
330
1F
100
AcDbEntity
  8
1
  6
CONTINUOUS
370
50
 62
4
100
AcDbLine
 10
64.174171
 20
-0.196411
 30
0.0
 11
64.091133
 21
-0.122677
 31
0.0
  0
LINE
  5
770
330
1F
100
AcDbEntity
  8
1
  6
CONTINUOUS
370
50
 62
4
100
AcDbLine
 10
41.597725
 20
-0.007542
 30
0.0
 11
41.58923
 21
0.0
 31
0.0
  0
LINE
  5
771
330
1F
100
AcDbEntity
  8
1
  6
CONTINUOUS
370
50
 62
4
100
AcDbLine
 10
45.493816
 20
-0.028637
 30
0.0
 11
45.40685999999999
 21
0.048548
 31
0.0
  0
LINE
  5
772
330
1F
100
AcDbEntity
  8
1
  6
CONTINUOUS
370
50
 62
4
100
AcDbLine
 10
45.323284
 20
0.123011
 30
0.0
 11
45.240284
 21
0.19668
 31
0.0
  0
LINE
  5
773
330
1F
100
AcDbEntity
  8
1
  6
CONTINUOUS
370
50
 62
4
100
AcDbLine
 10
55.704254
 20
-0.122056
 30
0.0
 11
55.62056699999999
 21
-0.047814
 31
0.0
  0
LINE
  5
774
330
1F
100
AcDbEntity
  8
1
  6
CONTINUOUS
370
50
 62
4
100
AcDbLine
 10
55.62056699999999
 20
-0.047814
 30
0.0
 11
55.53447
 21
0.028544
 31
0.0
  0
LINE
  5
775
330
1F
100
AcDbEntity
  8
1
  6
CONTINUOUS
370
50
 62
4
100
AcDbLine
 10
55.787167
 20
-0.195549
 30
0.0
 11
55.704254
 21
-0.122056
 31
0.0
  0
LINE
  5
776
330
1F
100
AcDbEntity
  8
1
  6
CONTINUOUS
370
50
 62
4
100
AcDbLine
 10
65.236572
 20
-0.183167
 30
0.0
 11
65.15072599999999
 21
-0.107127
 31
0.0
  0
LINE
  5
777
330
1F
100
AcDbEntity
  8
1
  6
CONTINUOUS
370
50
 62
4
100
AcDbLine
 10
66.803482
 20
-0.04719
 30
0.0
 11
66.71726199999999
 21
0.029177
 31
0.0
  0
LINE
  5
778
330
1F
100
AcDbEntity
  8
1
  6
CONTINUOUS
370
50
 62
4
100
AcDbLine
 10
63.921642
 20
0.030285
 30
0.0
 11
63.83445
 21
0.107447
 31
0.0
  0
LINE
  5
779
330
1F
100
AcDbEntity
  8
1
  6
CONTINUOUS
370
50
 62
4
100
AcDbLine
 10
58.499741
 20
-0.122762
 30
0.0
 11
58.41538199999999
 21
-0.048112
 31
0.0
  0
LINE
  5
77A
330
1F
100
AcDbEntity
  8
1
  6
CONTINUOUS
370
50
 62
4
100
AcDbLine
 10
59.559406
 20
-0.106148
 30
0.0
 11
59.472683
 21
-0.029419
 31
0.0
  0
LINE
  5
77B
330
1F
100
AcDbEntity
  8
1
  6
CONTINUOUS
370
50
 62
4
100
AcDbLine
 10
41.58923
 20
0.0
 30
0.0
 11
41.500885
 21
0.078155
 31
0.0
  0
LINE
  5
77C
330
1F
100
AcDbEntity
  8
1
  6
CONTINUOUS
370
50
 62
4
100
AcDbLine
 10
48.37542699999999
 20
-0.105796
 30
0.0
 11
48.28843699999999
 21
-0.028849
 31
0.0
  0
LINE
  5
77D
330
1F
100
AcDbEntity
  8
1
  6
CONTINUOUS
370
50
 62
4
100
AcDbLine
 10
56.59137
 20
0.047822
 30
0.0
 11
56.507275
 21
0.122186
 31
0.0
  0
LINE
  5
77E
330
1F
100
AcDbEntity
  8
1
  6
CONTINUOUS
370
50
 62
4
100
AcDbLine
 10
56.507275
 20
0.122186
 30
0.0
 11
56.424034
 21
0.195753
 31
0.0
  0
LINE
  5
77F
330
1F
100
AcDbEntity
  8
1
  6
CONTINUOUS
370
50
 62
4
100
AcDbLine
 10
59.64545099999999
 20
-0.182165
 30
0.0
 11
59.559406
 21
-0.106148
 31
0.0
  0
LINE
  5
780
330
1F
100
AcDbEntity
  8
1
  6
CONTINUOUS
370
50
 62
4
100
AcDbLine
 10
62.099594
 20
0.122831
 30
0.0
 11
62.016209
 21
0.196487
 31
0.0
  0
LINE
  5
781
330
1F
100
AcDbEntity
  8
1
  6
CONTINUOUS
370
50
 62
4
100
AcDbLine
 10
44.596439
 20
-0.188676
 30
0.0
 11
44.517483
 21
-0.118968
 31
0.0
  0
LINE
  5
782
330
1F
100
AcDbEntity
  8
1
  6
CONTINUOUS
370
50
 62
4
100
AcDbLine
 10
52.739128
 20
0.029532
 30
0.0
 11
52.652069
 21
0.106374
 31
0.0
  0
LINE
  5
783
330
1F
100
AcDbEntity
  8
1
  6
CONTINUOUS
370
50
 62
4
100
AcDbLine
 10
69.37642699999999
 20
0.151697
 30
0.0
 11
69.304153
 21
0.215448
 31
0.0
  0
LINE
  5
784
330
1F
100
AcDbEntity
  8
1
  6
CONTINUOUS
370
50
 62
4
100
AcDbLine
 10
44.517483
 20
-0.118968
 30
0.0
 11
44.437756
 21
-0.048648
 31
0.0
  0
LINE
  5
785
330
1F
100
AcDbEntity
  8
1
  6
CONTINUOUS
370
50
 62
4
100
AcDbLine
 10
42.615177
 20
0.045455
 30
0.0
 11
42.502312
 21
0.144982
 31
0.0
  0
LINE
  5
786
330
1F
100
AcDbEntity
  8
1
  6
CONTINUOUS
370
50
 62
4
100
AcDbLine
 10
67.775719
 20
0.047174
 30
0.0
 11
67.691902
 21
0.121069
 31
0.0
  0
LINE
  5
787
330
1F
100
AcDbEntity
  8
1
  6
CONTINUOUS
370
50
 62
4
100
AcDbLine
 10
50.197235
 20
-0.198226
 30
0.0
 11
50.113117
 21
-0.124088
 31
0.0
  0
LINE
  5
788
330
1F
100
AcDbEntity
  8
1
  6
CONTINUOUS
370
50
 62
4
100
AcDbLine
 10
44.204395
 20
0.160531
 30
0.0
 11
44.12746
 21
0.228334
 31
0.0
  0
LINE
  5
789
330
1F
100
AcDbEntity
  8
1
  6
CONTINUOUS
370
50
 62
4
100
AcDbLine
 10
52.652069
 20
0.106374
 30
0.0
 11
52.565987
 21
0.182223
 31
0.0
  0
LINE
  5
78A
330
1F
100
AcDbEntity
  8
1
  6
CONTINUOUS
370
50
 62
4
100
AcDbLine
 10
50.916073
 20
0.123402
 30
0.0
 11
50.832619
 21
0.196823
 31
0.0
  0
LINE
  5
78B
330
1F
100
AcDbEntity
  8
1
  6
CONTINUOUS
370
50
 62
4
100
AcDbLine
 10
41.414154
 20
0.1552
 30
0.0
 11
41.328594
 21
0.230457
 31
0.0
  0
LINE
  5
78C
330
1F
100
AcDbEntity
  8
1
  6
CONTINUOUS
370
50
 62
4
100
AcDbLine
 10
48.461685
 20
-0.181658
 30
0.0
 11
48.37542699999999
 21
-0.105796
 31
0.0
  0
LINE
  5
78D
330
1F
100
AcDbEntity
  8
1
  6
CONTINUOUS
370
50
 62
4
100
AcDbLine
 10
67.691902
 20
0.121069
 30
0.0
 11
67.6082
 21
0.194593
 31
0.0
  0
LINE
  5
78E
330
1F
100
AcDbEntity
  8
1
  6
CONTINUOUS
370
50
 62
4
100
AcDbLine
 10
61.040264
 20
0.106975
 30
0.0
 11
60.953743
 21
0.182911
 31
0.0
  0
LINE
  5
78F
330
1F
100
AcDbEntity
  8
1
  6
CONTINUOUS
370
50
 62
4
100
AcDbLine
 10
69.541168
 20
0.002307
 30
0.0
 11
69.53776599999999
 21
0.005289
 31
0.0
  0
LINE
  5
790
330
1F
100
AcDbEntity
  8
1
  6
CONTINUOUS
370
50
 62
4
100
AcDbLine
 10
61.379757
 20
-0.197328
 30
0.0
 11
61.295471
 21
-0.12347
 31
0.0
  0
LINE
  5
791
330
1F
100
AcDbEntity
  8
1
  6
CONTINUOUS
370
50
 62
4
100
AcDbLine
 10
42.907436
 20
-0.216026
 30
0.0
 11
42.858932
 21
-0.173545
 31
0.0
  0
LINE
  5
792
330
1F
100
AcDbEntity
  8
1
  6
CONTINUOUS
370
50
 62
4
100
AcDbLine
 10
51.257099
 20
-0.18209
 30
0.0
 11
51.170334
 21
-0.106102
 31
0.0
  0
LINE
  5
793
330
1F
100
AcDbEntity
  8
1
  6
CONTINUOUS
370
50
 62
4
100
AcDbLine
 10
63.83445
 20
0.107447
 30
0.0
 11
63.747532
 21
0.183483
 31
0.0
  0
LINE
  5
794
330
1F
100
AcDbEntity
  8
1
  6
CONTINUOUS
370
50
 62
4
100
AcDbLine
 10
55.363934
 20
0.180997
 30
0.0
 11
55.278896
 21
0.255303
 31
0.0
  0
LINE
  5
795
330
1F
100
AcDbEntity
  8
1
  6
CONTINUOUS
370
50
 62
4
100
AcDbLine
 10
66.546112
 20
0.181379
 30
0.0
 11
66.461418
 21
0.255368
 31
0.0
  0
LINE
  5
796
330
1F
100
AcDbEntity
  8
1
  6
CONTINUOUS
370
50
 62
4
100
AcDbLine
 10
45.750877
 20
-0.256435
 30
0.0
 11
45.665722
 21
-0.182062
 31
0.0
  0
LINE
  5
797
330
1F
100
AcDbEntity
  8
1
  6
CONTINUOUS
370
50
 62
4
100
AcDbLine
 10
49.859119
 20
0.105244
 30
0.0
 11
49.772591
 21
0.180814
 31
0.0
  0
LINE
  5
798
330
1F
100
AcDbEntity
  8
1
  6
CONTINUOUS
370
50
 62
4
100
AcDbLine
 10
62.441067
 20
-0.182256
 30
0.0
 11
62.354263
 21
-0.106552
 31
0.0
  0
LINE
  5
799
330
1F
100
AcDbEntity
  8
1
  6
CONTINUOUS
370
50
 62
4
100
AcDbLine
 10
44.674801
 20
-0.256993
 30
0.0
 11
44.596439
 21
-0.188676
 31
0.0
  0
LINE
  5
79A
330
1F
100
AcDbEntity
  8
1
  6
CONTINUOUS
370
50
 62
4
100
AcDbLine
 10
56.934559
 20
-0.256965
 30
0.0
 11
56.849358
 21
-0.182714
 31
0.0
  0
LINE
  5
79B
330
1F
100
AcDbEntity
  8
1
  6
CONTINUOUS
370
50
 62
4
100
AcDbLine
 10
59.730934
 20
-0.256622
 30
0.0
 11
59.64545099999999
 21
-0.182165
 31
0.0
  0
LINE
  5
79C
330
1F
100
AcDbEntity
  8
1
  6
CONTINUOUS
370
50
 62
4
100
AcDbLine
 10
64.896164
 20
0.122236
 30
0.0
 11
64.812134
 21
0.195395
 31
0.0
  0
LINE
  5
79D
330
1F
100
AcDbEntity
  8
1
  6
CONTINUOUS
370
50
 62
4
100
AcDbLine
 10
52.565987
 20
0.182223
 30
0.0
 11
52.480324
 21
0.256783
 31
0.0
  0
LINE
  5
79E
330
1F
100
AcDbEntity
  8
1
  6
CONTINUOUS
370
50
 62
4
100
AcDbLine
 10
58.584183
 20
-0.196236
 30
0.0
 11
58.499741
 21
-0.122762
 31
0.0
  0
LINE
  5
79F
330
1F
100
AcDbEntity
  8
1
  6
CONTINUOUS
370
50
 62
4
100
AcDbLine
 10
55.869896
 20
-0.267507
 30
0.0
 11
55.787167
 21
-0.195549
 31
0.0
  0
LINE
  5
7A0
330
1F
100
AcDbEntity
  8
1
  6
CONTINUOUS
370
50
 62
4
100
AcDbLine
 10
42.502312
 20
0.144982
 30
0.0
 11
42.390121
 21
0.242544
 31
0.0
  0
LINE
  5
7A1
330
1F
100
AcDbEntity
  8
1
  6
CONTINUOUS
370
50
 62
4
100
AcDbLine
 10
53.71248199999999
 20
0.122483
 30
0.0
 11
53.628242
 21
0.195717
 31
0.0
  0
LINE
  5
7A2
330
1F
100
AcDbEntity
  8
1
  6
CONTINUOUS
370
50
 62
4
100
AcDbLine
 10
67.051552
 20
-0.266429
 30
0.0
 11
66.968994
 21
-0.194691
 31
0.0
  0
LINE
  5
7A3
330
1F
100
AcDbEntity
  8
1
  6
CONTINUOUS
370
50
 62
4
100
AcDbLine
 10
48.547474
 20
-0.256199
 30
0.0
 11
48.461685
 21
-0.181658
 31
0.0
  0
LINE
  5
7A4
330
1F
100
AcDbEntity
  8
1
  6
CONTINUOUS
370
50
 62
4
100
AcDbLine
 10
45.240284
 20
0.19668
 30
0.0
 11
45.157566
 21
0.268548
 31
0.0
  0
LINE
  5
7A5
330
1F
100
AcDbEntity
  8
1
  6
CONTINUOUS
370
50
 62
4
100
AcDbLine
 10
56.424034
 20
0.195753
 30
0.0
 11
56.341202
 21
0.2677
 31
0.0
  0
LINE
  5
7A6
330
1F
100
AcDbEntity
  8
1
  6
CONTINUOUS
370
50
 62
4
100
AcDbLine
 10
47.400444
 20
-0.196072
 30
0.0
 11
47.316509
 21
-0.123195
 31
0.0
  0
LINE
  5
7A7
330
1F
100
AcDbEntity
  8
1
  6
CONTINUOUS
370
50
 62
4
100
AcDbLine
 10
68.118202
 20
-0.257334
 30
0.0
 11
68.032814
 21
-0.183197
 31
0.0
  0
LINE
  5
7A8
330
1F
100
AcDbEntity
  8
1
  6
CONTINUOUS
370
50
 62
4
100
AcDbLine
 10
67.6082
 20
0.194593
 30
0.0
 11
67.525047
 21
0.266665
 31
0.0
  0
LINE
  5
7A9
330
1F
100
AcDbEntity
  8
1
  6
CONTINUOUS
370
50
 62
4
100
AcDbLine
 10
63.747532
 20
0.183483
 30
0.0
 11
63.66125899999999
 21
0.258224
 31
0.0
  0
LINE
  5
7AA
330
1F
100
AcDbEntity
  8
1
  6
CONTINUOUS
370
50
 62
4
100
AcDbLine
 10
59.220291
 20
0.196227
 30
0.0
 11
59.136951
 21
0.268322
 31
0.0
  0
LINE
  5
7AB
330
1F
100
AcDbEntity
  8
1
  6
CONTINUOUS
370
50
 62
4
100
AcDbLine
 10
41.902657
 20
-0.277166
 30
0.0
 11
41.81509399999999
 21
-0.201522
 31
0.0
  0
LINE
  5
7AC
330
1F
100
AcDbEntity
  8
1
  6
CONTINUOUS
370
50
 62
4
100
AcDbLine
 10
58.160217
 20
0.181432
 30
0.0
 11
58.074772
 21
0.255235
 31
0.0
  0
LINE
  5
7AD
330
1F
100
AcDbEntity
  8
1
  6
CONTINUOUS
370
50
 62
4
100
AcDbLine
 10
53.075592
 20
-0.269306
 30
0.0
 11
52.992088
 21
-0.197187
 31
0.0
  0
LINE
  5
7AE
330
1F
100
AcDbEntity
  8
1
  6
CONTINUOUS
370
50
 62
4
100
AcDbLine
 10
58.667629
 20
-0.268196
 30
0.0
 11
58.584183
 21
-0.196236
 31
0.0
  0
LINE
  5
7AF
330
1F
100
AcDbEntity
  8
1
  6
CONTINUOUS
370
50
 62
4
100
AcDbLine
 10
48.036587
 20
0.197063
 30
0.0
 11
47.95311
 21
0.269019
 31
0.0
  0
LINE
  5
7B0
330
1F
100
AcDbEntity
  8
1
  6
CONTINUOUS
370
50
 62
4
100
AcDbLine
 10
62.527119
 20
-0.256322
 30
0.0
 11
62.441067
 21
-0.182256
 31
0.0
  0
LINE
  5
7B1
330
1F
100
AcDbEntity
  8
1
  6
CONTINUOUS
370
50
 62
4
100
AcDbLine
 10
53.628242
 20
0.195717
 30
0.0
 11
53.544537
 21
0.267688
 31
0.0
  0
LINE
  5
7B2
330
1F
100
AcDbEntity
  8
1
  6
CONTINUOUS
370
50
 62
4
100
AcDbLine
 10
54.139278
 20
-0.257099
 30
0.0
 11
54.052902
 21
-0.182844
 31
0.0
  0
LINE
  5
7B3
330
1F
100
AcDbEntity
  8
1
  6
CONTINUOUS
370
50
 62
4
100
AcDbLine
 10
64.257454
 20
-0.268
 30
0.0
 11
64.174171
 21
-0.196411
 31
0.0
  0
LINE
  5
7B4
330
1F
100
AcDbEntity
  8
1
  6
CONTINUOUS
370
50
 62
4
100
AcDbLine
 10
46.978226
 20
0.18065
 30
0.0
 11
46.892311
 21
0.254398
 31
0.0
  0
LINE
  5
7B5
330
1F
100
AcDbEntity
  8
1
  6
CONTINUOUS
370
50
 62
4
100
AcDbLine
 10
49.772591
 20
0.180814
 30
0.0
 11
49.686291
 21
0.254844
 31
0.0
  0
LINE
  5
7B6
330
1F
100
AcDbEntity
  8
1
  6
CONTINUOUS
370
50
 62
4
100
AcDbLine
 10
47.483791
 20
-0.267538
 30
0.0
 11
47.400444
 21
-0.196072
 31
0.0
  0
LINE
  5
7B7
330
1F
100
AcDbEntity
  8
1
  6
CONTINUOUS
370
50
 62
4
100
AcDbLine
 10
51.343487
 20
-0.256081
 30
0.0
 11
51.257099
 21
-0.18209
 31
0.0
  0
LINE
  5
7B8
330
1F
100
AcDbEntity
  8
1
  6
CONTINUOUS
370
50
 62
4
100
AcDbLine
 10
42.956299
 20
-0.257839
 30
0.0
 11
42.907436
 21
-0.216026
 31
0.0
  0
LINE
  5
7B9
330
1F
100
AcDbEntity
  8
1
  6
CONTINUOUS
370
50
 62
4
100
AcDbLine
 10
41.328594
 20
0.230457
 30
0.0
 11
41.243252
 21
0.303433
 31
0.0
  0
LINE
  5
7BA
330
1F
100
AcDbEntity
  8
1
  6
CONTINUOUS
370
50
 62
4
100
AcDbLine
 10
69.304153
 20
0.215448
 30
0.0
 11
69.231606
 21
0.277449
 31
0.0
  0
LINE
  5
7BB
330
1F
100
AcDbEntity
  8
1
  6
CONTINUOUS
370
50
 62
4
100
AcDbLine
 10
40.091324
 20
-0.704869
 30
0.0
 11
40.056583
 21
-0.675186
 31
0.0
  0
LINE
  5
7BC
330
1F
100
AcDbEntity
  8
1
  6
CONTINUOUS
370
50
 62
4
100
AcDbLine
 10
65.32326499999999
 20
-0.257175
 30
0.0
 11
65.236572
 21
-0.183167
 31
0.0
  0
LINE
  5
7BD
330
1F
100
AcDbEntity
  8
1
  6
CONTINUOUS
370
50
 62
4
100
AcDbLine
 10
64.812134
 20
0.195395
 30
0.0
 11
64.727959
 21
0.267232
 31
0.0
  0
LINE
  5
7BE
330
1F
100
AcDbEntity
  8
1
  6
CONTINUOUS
370
50
 62
4
100
AcDbLine
 10
62.016209
 20
0.196487
 30
0.0
 11
61.93236899999999
 21
0.268036
 31
0.0
  0
LINE
  5
7BF
330
1F
100
AcDbEntity
  8
1
  6
CONTINUOUS
370
50
 62
4
100
AcDbLine
 10
60.953743
 20
0.182911
 30
0.0
 11
60.86731
 21
0.256606
 31
0.0
  0
LINE
  5
7C0
330
1F
100
AcDbEntity
  8
1
  6
CONTINUOUS
370
50
 62
4
100
AcDbLine
 10
44.12746
 20
0.228334
 30
0.0
 11
44.050095
 21
0.294284
 31
0.0
  0
LINE
  5
7C1
330
1F
100
AcDbEntity
  8
1
  6
CONTINUOUS
370
50
 62
4
100
AcDbLine
 10
50.832619
 20
0.196823
 30
0.0
 11
50.748501
 21
0.268298
 31
0.0
  0
LINE
  5
7C2
330
1F
100
AcDbEntity
  8
1
  6
CONTINUOUS
370
50
 62
4
100
AcDbLine
 10
50.281963
 20
-0.270148
 30
0.0
 11
50.197235
 21
-0.198226
 31
0.0
  0
LINE
  5
7C3
330
1F
100
AcDbEntity
  8
1
  6
CONTINUOUS
370
50
 62
4
100
AcDbLine
 10
44.753304
 20
-0.323485
 30
0.0
 11
44.674801
 21
-0.256993
 31
0.0
  0
LINE
  5
7C4
330
1F
100
AcDbEntity
  8
1
  6
CONTINUOUS
370
50
 62
4
100
AcDbLine
 10
61.464592
 20
-0.269156
 30
0.0
 11
61.379757
 21
-0.197328
 31
0.0
  0
LINE
  5
7C5
330
1F
100
AcDbEntity
  8
1
  6
CONTINUOUS
370
50
 62
4
100
AcDbLine
 10
52.480324
 20
0.256783
 30
0.0
 11
52.394718
 21
0.329166
 31
0.0
  0
LINE
  5
7C6
330
1F
100
AcDbEntity
  8
1
  6
CONTINUOUS
370
50
 62
4
100
AcDbLine
 10
48.63259499999999
 20
-0.32815
 30
0.0
 11
48.547474
 21
-0.256199
 31
0.0
  0
LINE
  5
7C7
330
1F
100
AcDbEntity
  8
1
  6
CONTINUOUS
370
50
 62
4
100
AcDbLine
 10
42.390121
 20
0.242544
 30
0.0
 11
42.278667
 21
0.336671
 31
0.0
  0
LINE
  5
7C8
330
1F
100
AcDbEntity
  8
1
  6
CONTINUOUS
370
50
 62
4
100
AcDbLine
 10
59.815983
 20
-0.328438
 30
0.0
 11
59.730934
 21
-0.256622
 31
0.0
  0
LINE
  5
7C9
330
1F
100
AcDbEntity
  8
1
  6
CONTINUOUS
370
50
 62
4
100
AcDbLine
 10
69.53111299999999
 20
0.7998149999999999
 30
0.0
 11
69.530991
 21
0.799918
 31
0.0
  0
LINE
  5
7CA
330
1F
100
AcDbEntity
  8
1
  6
CONTINUOUS
370
50
 62
4
100
AcDbLine
 10
63.66125899999999
 20
0.258224
 30
0.0
 11
63.57576
 21
0.330392
 31
0.0
  0
LINE
  5
7CB
330
1F
100
AcDbEntity
  8
1
  6
CONTINUOUS
370
50
 62
4
100
AcDbLine
 10
66.461418
 20
0.255368
 30
0.0
 11
66.376694
 21
0.326788
 31
0.0
  0
LINE
  5
7CC
330
1F
100
AcDbEntity
  8
1
  6
CONTINUOUS
370
50
 62
4
100
AcDbLine
 10
62.612705
 20
-0.32832
 30
0.0
 11
62.527119
 21
-0.256322
 31
0.0
  0
LINE
  5
7CD
330
1F
100
AcDbEntity
  8
1
  6
CONTINUOUS
370
50
 62
4
100
AcDbLine
 10
49.686291
 20
0.254844
 30
0.0
 11
49.60067
 21
0.326853
 31
0.0
  0
LINE
  5
7CE
330
1F
100
AcDbEntity
  8
1
  6
CONTINUOUS
370
50
 62
4
100
AcDbLine
 10
45.83634199999999
 20
-0.3283
 30
0.0
 11
45.750877
 21
-0.256435
 31
0.0
  0
LINE
  5
7CF
330
1F
100
AcDbEntity
  8
1
  6
CONTINUOUS
370
50
 62
4
100
AcDbLine
 10
58.750614
 20
-0.337923
 30
0.0
 11
58.667629
 21
-0.268196
 31
0.0
  0
LINE
  5
7D0
330
1F
100
AcDbEntity
  8
1
  6
CONTINUOUS
370
50
 62
4
100
AcDbLine
 10
67.525047
 20
0.266665
 30
0.0
 11
67.442154
 21
0.336293
 31
0.0
  0
LINE
  5
7D1
330
1F
100
AcDbEntity
  8
1
  6
CONTINUOUS
370
50
 62
4
100
AcDbLine
 10
55.278896
 20
0.255303
 30
0.0
 11
55.193676
 21
0.326879
 31
0.0
  0
LINE
  5
7D2
330
1F
100
AcDbEntity
  8
1
  6
CONTINUOUS
370
50
 62
4
100
AcDbLine
 10
47.566578
 20
-0.337011
 30
0.0
 11
47.483791
 21
-0.267538
 31
0.0
  0
LINE
  5
7D3
330
1F
100
AcDbEntity
  8
1
  6
CONTINUOUS
370
50
 62
4
100
AcDbLine
 10
53.544537
 20
0.267688
 30
0.0
 11
53.461506
 21
0.337362
 31
0.0
  0
LINE
  5
7D4
330
1F
100
AcDbEntity
  8
1
  6
CONTINUOUS
370
50
 62
4
100
AcDbLine
 10
56.341202
 20
0.2677
 30
0.0
 11
56.257969
 21
0.337515
 31
0.0
  0
LINE
  5
7D5
330
1F
100
AcDbEntity
  8
1
  6
CONTINUOUS
370
50
 62
4
100
AcDbLine
 10
51.429329
 20
-0.328067
 30
0.0
 11
51.343487
 21
-0.256081
 31
0.0
  0
LINE
  5
7D6
330
1F
100
AcDbEntity
  8
1
  6
CONTINUOUS
370
50
 62
4
100
AcDbLine
 10
55.953255
 20
-0.337386
 30
0.0
 11
55.869896
 21
-0.267507
 31
0.0
  0
LINE
  5
7D7
330
1F
100
AcDbEntity
  8
1
  6
CONTINUOUS
370
50
 62
4
100
AcDbLine
 10
45.157566
 20
0.268548
 30
0.0
 11
45.074394
 21
0.338118
 31
0.0
  0
LINE
  5
7D8
330
1F
100
AcDbEntity
  8
1
  6
CONTINUOUS
370
50
 62
4
100
AcDbLine
 10
64.727959
 20
0.267232
 30
0.0
 11
64.644684
 21
0.336866
 31
0.0
  0
LINE
  5
7D9
330
1F
100
AcDbEntity
  8
1
  6
CONTINUOUS
370
50
 62
4
100
AcDbLine
 10
60.86731
 20
0.256606
 30
0.0
 11
60.781631
 21
0.328237
 31
0.0
  0
LINE
  5
7DA
330
1F
100
AcDbEntity
  8
1
  6
CONTINUOUS
370
50
 62
4
100
AcDbLine
 10
57.020458
 20
-0.328763
 30
0.0
 11
56.934559
 21
-0.256965
 31
0.0
  0
LINE
  5
7DB
330
1F
100
AcDbEntity
  8
1
  6
CONTINUOUS
370
50
 62
4
100
AcDbLine
 10
67.13441499999999
 20
-0.33564
 30
0.0
 11
67.051552
 21
-0.266429
 31
0.0
  0
LINE
  5
7DC
330
1F
100
AcDbEntity
  8
1
  6
CONTINUOUS
370
50
 62
4
100
AcDbLine
 10
43.005314
 20
-0.298673
 30
0.0
 11
42.956299
 21
-0.257839
 31
0.0
  0
LINE
  5
7DD
330
1F
100
AcDbEntity
  8
1
  6
CONTINUOUS
370
50
 62
4
100
AcDbLine
 10
61.548588
 20
-0.338859
 30
0.0
 11
61.464592
 21
-0.269156
 31
0.0
  0
LINE
  5
7DE
330
1F
100
AcDbEntity
  8
1
  6
CONTINUOUS
370
50
 62
4
100
AcDbLine
 10
65.409348
 20
-0.328592
 30
0.0
 11
65.32326499999999
 21
-0.257175
 31
0.0
  0
LINE
  5
7DF
330
1F
100
AcDbEntity
  8
1
  6
CONTINUOUS
370
50
 62
4
100
AcDbLine
 10
68.204529
 20
-0.328924
 30
0.0
 11
68.118202
 21
-0.257334
 31
0.0
  0
LINE
  5
7E0
330
1F
100
AcDbEntity
  8
1
  6
CONTINUOUS
370
50
 62
4
100
AcDbLine
 10
59.136951
 20
0.268322
 30
0.0
 11
59.053196
 21
0.337736
 31
0.0
  0
LINE
  5
7E1
330
1F
100
AcDbEntity
  8
1
  6
CONTINUOUS
370
50
 62
4
100
AcDbLine
 10
46.892311
 20
0.254398
 30
0.0
 11
46.806091
 21
0.32573
 31
0.0
  0
LINE
  5
7E2
330
1F
100
AcDbEntity
  8
1
  6
CONTINUOUS
370
50
 62
4
100
AcDbLine
 10
50.748501
 20
0.268298
 30
0.0
 11
50.66439099999999
 21
0.337879
 31
0.0
  0
LINE
  5
7E3
330
1F
100
AcDbEntity
  8
1
  6
CONTINUOUS
370
50
 62
4
100
AcDbLine
 10
54.225746
 20
-0.328539
 30
0.0
 11
54.139278
 21
-0.257099
 31
0.0
  0
LINE
  5
7E4
330
1F
100
AcDbEntity
  8
1
  6
CONTINUOUS
370
50
 62
4
100
AcDbLine
 10
53.159592
 20
-0.338627
 30
0.0
 11
53.075592
 21
-0.269306
 31
0.0
  0
LINE
  5
7E5
330
1F
100
AcDbEntity
  8
1
  6
CONTINUOUS
370
50
 62
4
100
AcDbLine
 10
58.074772
 20
0.255235
 30
0.0
 11
57.988461
 21
0.326444
 31
0.0
  0
LINE
  5
7E6
330
1F
100
AcDbEntity
  8
1
  6
CONTINUOUS
370
50
 62
4
100
AcDbLine
 10
41.99148599999999
 20
-0.350396
 30
0.0
 11
41.902657
 21
-0.277166
 31
0.0
  0
LINE
  5
7E7
330
1F
100
AcDbEntity
  8
1
  6
CONTINUOUS
370
50
 62
4
100
AcDbLine
 10
47.95311
 20
0.269019
 30
0.0
 11
47.869125
 21
0.338255
 31
0.0
  0
LINE
  5
7E8
330
1F
100
AcDbEntity
  8
1
  6
CONTINUOUS
370
50
 62
4
100
AcDbLine
 10
50.36644
 20
-0.339749
 30
0.0
 11
50.281963
 21
-0.270148
 31
0.0
  0
LINE
  5
7E9
330
1F
100
AcDbEntity
  8
1
  6
CONTINUOUS
370
50
 62
4
100
AcDbLine
 10
61.93236899999999
 20
0.268036
 30
0.0
 11
61.84795399999999
 21
0.337409
 31
0.0
  0
LINE
  5
7EA
330
1F
100
AcDbEntity
  8
1
  6
CONTINUOUS
370
50
 62
4
100
AcDbLine
 10
64.341621
 20
-0.337095
 30
0.0
 11
64.257454
 21
-0.268
 31
0.0
  0
LINE
  5
7EB
330
1F
100
AcDbEntity
  8
1
  6
CONTINUOUS
370
50
 62
4
100
AcDbLine
 10
69.231606
 20
0.277449
 30
0.0
 11
69.15844
 21
0.337298
 31
0.0
  0
LINE
  5
7EC
330
1F
100
AcDbEntity
  8
1
  6
CONTINUOUS
370
50
 62
4
100
AcDbLine
 10
41.243252
 20
0.303433
 30
0.0
 11
41.157173
 21
0.373637
 31
0.0
  0
LINE
  5
7ED
330
1F
100
AcDbEntity
  8
1
  6
CONTINUOUS
370
50
 62
4
100
AcDbLine
 10
43.054146
 20
-0.338424
 30
0.0
 11
43.005314
 21
-0.298673
 31
0.0
  0
LINE
  5
7EE
330
1F
100
AcDbEntity
  8
1
  6
CONTINUOUS
370
50
 62
4
100
AcDbLine
 10
44.050095
 20
0.294284
 30
0.0
 11
43.97187
 21
0.357783
 31
0.0
  0
LINE
  5
7EF
330
1F
100
AcDbEntity
  8
1
  6
CONTINUOUS
370
50
 62
4
100
AcDbLine
 10
49.60067
 20
0.326853
 30
0.0
 11
49.515202
 21
0.396118
 31
0.0
  0
LINE
  5
7F0
330
1F
100
AcDbEntity
  8
1
  6
CONTINUOUS
370
50
 62
4
100
AcDbLine
 10
44.832325
 20
-0.387457
 30
0.0
 11
44.753304
 21
-0.323485
 31
0.0
  0
LINE
  5
7F1
330
1F
100
AcDbEntity
  8
1
  6
CONTINUOUS
370
50
 62
4
100
AcDbLine
 10
62.697674
 20
-0.397037
 30
0.0
 11
62.612705
 21
-0.32832
 31
0.0
  0
LINE
  5
7F2
330
1F
100
AcDbEntity
  8
1
  6
CONTINUOUS
370
50
 62
4
100
AcDbLine
 10
51.514553
 20
-0.396984
 30
0.0
 11
51.429329
 21
-0.328067
 31
0.0
  0
LINE
  5
7F3
330
1F
100
AcDbEntity
  8
1
  6
CONTINUOUS
370
50
 62
4
100
AcDbLine
 10
60.781631
 20
0.328237
 30
0.0
 11
60.696327
 21
0.397147
 31
0.0
  0
LINE
  5
7F4
330
1F
100
AcDbEntity
  8
1
  6
CONTINUOUS
370
50
 62
4
100
AcDbLine
 10
48.717762
 20
-0.396891
 30
0.0
 11
48.63259499999999
 21
-0.32815
 31
0.0
  0
LINE
  5
7F5
330
1F
100
AcDbEntity
  8
1
  6
CONTINUOUS
370
50
 62
4
100
AcDbLine
 10
63.57576
 20
0.330392
 30
0.0
 11
63.49045599999999
 21
0.399217
 31
0.0
  0
LINE
  5
7F6
330
1F
100
AcDbEntity
  8
1
  6
CONTINUOUS
370
50
 62
4
100
AcDbLine
 10
52.394718
 20
0.329166
 30
0.0
 11
52.30894499999999
 21
0.39826
 31
0.0
  0
LINE
  5
7F7
330
1F
100
AcDbEntity
  8
1
  6
CONTINUOUS
370
50
 62
4
100
AcDbLine
 10
47.649361
 20
-0.403695
 30
0.0
 11
47.566578
 21
-0.337011
 31
0.0
  0
LINE
  5
7F8
330
1F
100
AcDbEntity
  8
1
  6
CONTINUOUS
370
50
 62
4
100
AcDbLine
 10
64.644684
 20
0.336866
 30
0.0
 11
64.561661
 21
0.403639
 31
0.0
  0
LINE
  5
7F9
330
1F
100
AcDbEntity
  8
1
  6
CONTINUOUS
370
50
 62
4
100
AcDbLine
 10
53.461506
 20
0.337362
 30
0.0
 11
53.378342
 21
0.404232
 31
0.0
  0
LINE
  5
7FA
330
1F
100
AcDbEntity
  8
1
  6
CONTINUOUS
370
50
 62
4
100
AcDbLine
 10
46.806091
 20
0.32573
 30
0.0
 11
46.720509
 21
0.394504
 31
0.0
  0
LINE
  5
7FB
330
1F
100
AcDbEntity
  8
1
  6
CONTINUOUS
370
50
 62
4
100
AcDbLine
 10
59.901466
 20
-0.397108
 30
0.0
 11
59.815983
 21
-0.328438
 31
0.0
  0
LINE
  5
7FC
330
1F
100
AcDbEntity
  8
1
  6
CONTINUOUS
370
50
 62
4
100
AcDbLine
 10
58.833996
 20
-0.404905
 30
0.0
 11
58.750614
 21
-0.337923
 31
0.0
  0
LINE
  5
7FD
330
1F
100
AcDbEntity
  8
1
  6
CONTINUOUS
370
50
 62
4
100
AcDbLine
 10
65.494942
 20
-0.397338
 30
0.0
 11
65.409348
 21
-0.328592
 31
0.0
  0
LINE
  5
7FE
330
1F
100
AcDbEntity
  8
1
  6
CONTINUOUS
370
50
 62
4
100
AcDbLine
 10
61.631847
 20
-0.405657
 30
0.0
 11
61.548588
 21
-0.338859
 31
0.0
  0
LINE
  5
7FF
330
1F
100
AcDbEntity
  8
1
  6
CONTINUOUS
370
50
 62
4
100
AcDbLine
 10
50.66439099999999
 20
0.337879
 30
0.0
 11
50.581142
 21
0.404593
 31
0.0
  0
LINE
  5
800
330
1F
100
AcDbEntity
  8
1
  6
CONTINUOUS
370
50
 62
4
100
AcDbLine
 10
54.311527
 20
-0.397182
 30
0.0
 11
54.225746
 21
-0.328539
 31
0.0
  0
LINE
  5
801
330
1F
100
AcDbEntity
  8
1
  6
CONTINUOUS
370
50
 62
4
100
AcDbLine
 10
67.442154
 20
0.336293
 30
0.0
 11
67.35878799999999
 21
0.402997
 31
0.0
  0
LINE
  5
802
330
1F
100
AcDbEntity
  8
1
  6
CONTINUOUS
370
50
 62
4
100
AcDbLine
 10
50.449913
 20
-0.406485
 30
0.0
 11
50.36644
 21
-0.339749
 31
0.0
  0
LINE
  5
803
330
1F
100
AcDbEntity
  8
1
  6
CONTINUOUS
370
50
 62
4
100
AcDbLine
 10
69.554626
 20
-0.008444
 30
0.0
 11
69.541168
 21
0.002307
 31
0.0
  0
LINE
  5
804
330
1F
100
AcDbEntity
  8
1
  6
CONTINUOUS
370
50
 62
4
100
AcDbLine
 10
57.988461
 20
0.326444
 30
0.0
 11
57.902603
 21
0.394972
 31
0.0
  0
LINE
  5
805
330
1F
100
AcDbEntity
  8
1
  6
CONTINUOUS
370
50
 62
4
100
AcDbLine
 10
43.102627
 20
-0.377112
 30
0.0
 11
43.054146
 21
-0.338424
 31
0.0
  0
LINE
  5
806
330
1F
100
AcDbEntity
  8
1
  6
CONTINUOUS
370
50
 62
4
100
AcDbLine
 10
61.84795399999999
 20
0.337409
 30
0.0
 11
61.76434699999999
 21
0.404101
 31
0.0
  0
LINE
  5
807
330
1F
100
AcDbEntity
  8
1
  6
CONTINUOUS
370
50
 62
4
100
AcDbLine
 10
66.376694
 20
0.326788
 30
0.0
 11
66.291054
 21
0.39509
 31
0.0
  0
LINE
  5
808
330
1F
100
AcDbEntity
  8
1
  6
CONTINUOUS
370
50
 62
4
100
AcDbLine
 10
56.257969
 20
0.337515
 30
0.0
 11
56.174225
 21
0.404212
 31
0.0
  0
LINE
  5
809
330
1F
100
AcDbEntity
  8
1
  6
CONTINUOUS
370
50
 62
4
100
AcDbLine
 10
45.922756
 20
-0.39694
 30
0.0
 11
45.83634199999999
 21
-0.3283
 31
0.0
  0
LINE
  5
80A
330
1F
100
AcDbEntity
  8
1
  6
CONTINUOUS
370
50
 62
4
100
AcDbLine
 10
56.037178
 20
-0.404038
 30
0.0
 11
55.953255
 21
-0.337386
 31
0.0
  0
LINE
  5
80B
330
1F
100
AcDbEntity
  8
1
  6
CONTINUOUS
370
50
 62
4
100
AcDbLine
 10
42.278667
 20
0.336671
 30
0.0
 11
42.167313
 21
0.425094
 31
0.0
  0
LINE
  5
80C
330
1F
100
AcDbEntity
  8
1
  6
CONTINUOUS
370
50
 62
4
100
AcDbLine
 10
45.074394
 20
0.338118
 30
0.0
 11
44.990753
 21
0.404429
 31
0.0
  0
LINE
  5
80D
330
1F
100
AcDbEntity
  8
1
  6
CONTINUOUS
370
50
 62
4
100
AcDbLine
 10
55.193676
 20
0.326879
 30
0.0
 11
55.107613
 21
0.395098
 31
0.0
  0
LINE
  5
80E
330
1F
100
AcDbEntity
  8
1
  6
CONTINUOUS
370
50
 62
4
100
AcDbLine
 10
68.290581
 20
-0.397039
 30
0.0
 11
68.204529
 21
-0.328924
 31
0.0
  0
LINE
  5
80F
330
1F
100
AcDbEntity
  8
1
  6
CONTINUOUS
370
50
 62
4
100
AcDbLine
 10
69.15844
 20
0.337298
 30
0.0
 11
69.085426
 21
0.39501
 31
0.0
  0
LINE
  5
810
330
1F
100
AcDbEntity
  8
1
  6
CONTINUOUS
370
50
 62
4
100
AcDbLine
 10
67.217789
 20
-0.401536
 30
0.0
 11
67.13441499999999
 21
-0.33564
 31
0.0
  0
LINE
  5
811
330
1F
100
AcDbEntity
  8
1
  6
CONTINUOUS
370
50
 62
4
100
AcDbLine
 10
57.106953
 20
-0.397118
 30
0.0
 11
57.020458
 21
-0.328763
 31
0.0
  0
LINE
  5
812
330
1F
100
AcDbEntity
  8
1
  6
CONTINUOUS
370
50
 62
4
100
AcDbLine
 10
64.425934
 20
-0.403694
 30
0.0
 11
64.341621
 21
-0.337095
 31
0.0
  0
LINE
  5
813
330
1F
100
AcDbEntity
  8
1
  6
CONTINUOUS
370
50
 62
4
100
AcDbLine
 10
47.869125
 20
0.338255
 30
0.0
 11
47.784721
 21
0.404765
 31
0.0
  0
LINE
  5
814
330
1F
100
AcDbEntity
  8
1
  6
CONTINUOUS
370
50
 62
4
100
AcDbLine
 10
59.053196
 20
0.337736
 30
0.0
 11
58.968735
 21
0.404089
 31
0.0
  0
LINE
  5
815
330
1F
100
AcDbEntity
  8
1
  6
CONTINUOUS
370
50
 62
4
100
AcDbLine
 10
53.244324
 20
-0.405132
 30
0.0
 11
53.159592
 21
-0.338627
 31
0.0
  0
LINE
  5
816
330
1F
100
AcDbEntity
  8
1
  6
CONTINUOUS
370
50
 62
4
100
AcDbLine
 10
43.150921
 20
-0.414796
 30
0.0
 11
43.102627
 21
-0.377112
 31
0.0
  0
LINE
  5
817
330
1F
100
AcDbEntity
  8
1
  6
CONTINUOUS
370
50
 62
4
100
AcDbLine
 10
43.97187
 20
0.357783
 30
0.0
 11
43.894051
 21
0.418306
 31
0.0
  0
LINE
  5
818
330
1F
100
AcDbEntity
  8
1
  6
CONTINUOUS
370
50
 62
4
100
AcDbLine
 10
42.081375
 20
-0.420094
 30
0.0
 11
41.99148599999999
 21
-0.350396
 31
0.0
  0
LINE
  5
819
330
1F
100
AcDbEntity
  8
1
  6
CONTINUOUS
370
50
 62
4
100
AcDbLine
 10
46.720509
 20
0.394504
 30
0.0
 11
46.635468
 21
0.459769
 31
0.0
  0
LINE
  5
81A
330
1F
100
AcDbEntity
  8
1
  6
CONTINUOUS
370
50
 62
4
100
AcDbLine
 10
60.696327
 20
0.397147
 30
0.0
 11
60.611267
 21
0.462281
 31
0.0
  0
LINE
  5
81B
330
1F
100
AcDbEntity
  8
1
  6
CONTINUOUS
370
50
 62
4
100
AcDbLine
 10
49.515202
 20
0.396118
 30
0.0
 11
49.429897
 21
0.461429
 31
0.0
  0
LINE
  5
81C
330
1F
100
AcDbEntity
  8
1
  6
CONTINUOUS
370
50
 62
4
100
AcDbLine
 10
51.599552
 20
-0.462011
 30
0.0
 11
51.514553
 21
-0.396984
 31
0.0
  0
LINE
  5
81D
330
1F
100
AcDbEntity
  8
1
  6
CONTINUOUS
370
50
 62
4
100
AcDbLine
 10
65.579865
 20
-0.462278
 30
0.0
 11
65.494942
 21
-0.397338
 31
0.0
  0
LINE
  5
81E
330
1F
100
AcDbEntity
  8
1
  6
CONTINUOUS
370
50
 62
4
100
AcDbLine
 10
57.902603
 20
0.394972
 30
0.0
 11
57.81728
 21
0.460188
 31
0.0
  0
LINE
  5
81F
330
1F
100
AcDbEntity
  8
1
  6
CONTINUOUS
370
50
 62
4
100
AcDbLine
 10
54.396809
 20
-0.462322
 30
0.0
 11
54.311527
 21
-0.397182
 31
0.0
  0
LINE
  5
820
330
1F
100
AcDbEntity
  8
1
  6
CONTINUOUS
370
50
 62
4
100
AcDbLine
 10
69.085426
 20
0.39501
 30
0.0
 11
69.012985
 21
0.450332
 31
0.0
  0
LINE
  5
821
330
1F
100
AcDbEntity
  8
1
  6
CONTINUOUS
370
50
 62
4
100
AcDbLine
 10
41.157173
 20
0.373637
 30
0.0
 11
41.069466
 21
0.440536
 31
0.0
  0
LINE
  5
822
330
1F
100
AcDbEntity
  8
1
  6
CONTINUOUS
370
50
 62
4
100
AcDbLine
 10
62.78281399999999
 20
-0.461942
 30
0.0
 11
62.697674
 21
-0.397037
 31
0.0
  0
LINE
  5
823
330
1F
100
AcDbEntity
  8
1
  6
CONTINUOUS
370
50
 62
4
100
AcDbLine
 10
44.91181599999999
 20
-0.44802
 30
0.0
 11
44.832325
 21
-0.387457
 31
0.0
  0
LINE
  5
824
330
1F
100
AcDbEntity
  8
1
  6
CONTINUOUS
370
50
 62
4
100
AcDbLine
 10
50.581142
 20
0.404593
 30
0.0
 11
50.498028
 21
0.467856
 31
0.0
  0
LINE
  5
825
330
1F
100
AcDbEntity
  8
1
  6
CONTINUOUS
370
50
 62
4
100
AcDbLine
 10
61.76434699999999
 20
0.404101
 30
0.0
 11
61.681255
 21
0.467288
 31
0.0
  0
LINE
  5
826
330
1F
100
AcDbEntity
  8
1
  6
CONTINUOUS
370
50
 62
4
100
AcDbLine
 10
50.533131
 20
-0.469762
 30
0.0
 11
50.449913
 21
-0.406485
 31
0.0
  0
LINE
  5
827
330
1F
100
AcDbEntity
  8
1
  6
CONTINUOUS
370
50
 62
4
100
AcDbLine
 10
61.715256
 20
-0.469061
 30
0.0
 11
61.631847
 21
-0.405657
 31
0.0
  0
LINE
  5
828
330
1F
100
AcDbEntity
  8
1
  6
CONTINUOUS
370
50
 62
4
100
AcDbLine
 10
43.199135
 20
-0.451388
 30
0.0
 11
43.150921
 21
-0.414796
 31
0.0
  0
LINE
  5
829
330
1F
100
AcDbEntity
  8
1
  6
CONTINUOUS
370
50
 62
4
100
AcDbLine
 10
47.7323
 20
-0.466632
 30
0.0
 11
47.649361
 21
-0.403695
 31
0.0
  0
LINE
  5
82A
330
1F
100
AcDbEntity
  8
1
  6
CONTINUOUS
370
50
 62
4
100
AcDbLine
 10
64.561661
 20
0.403639
 30
0.0
 11
64.478104
 21
0.467042
 31
0.0
  0
LINE
  5
82B
330
1F
100
AcDbEntity
  8
1
  6
CONTINUOUS
370
50
 62
4
100
AcDbLine
 10
64.50945999999999
 20
-0.467025
 30
0.0
 11
64.425934
 21
-0.403694
 31
0.0
  0
LINE
  5
82C
330
1F
100
AcDbEntity
  8
1
  6
CONTINUOUS
370
50
 62
4
100
AcDbLine
 10
68.37603
 20
-0.461801
 30
0.0
 11
68.290581
 21
-0.397039
 31
0.0
  0
LINE
  5
82D
330
1F
100
AcDbEntity
  8
1
  6
CONTINUOUS
370
50
 62
4
100
AcDbLine
 10
53.378342
 20
0.404232
 30
0.0
 11
53.294563
 21
0.467585
 31
0.0
  0
LINE
  5
82E
330
1F
100
AcDbEntity
  8
1
  6
CONTINUOUS
370
50
 62
4
100
AcDbLine
 10
47.784721
 20
0.404765
 30
0.0
 11
47.701206
 21
0.467915
 31
0.0
  0
LINE
  5
82F
330
1F
100
AcDbEntity
  8
1
  6
CONTINUOUS
370
50
 62
4
100
AcDbLine
 10
63.49045599999999
 20
0.399217
 30
0.0
 11
63.4044
 21
0.464221
 31
0.0
  0
LINE
  5
830
330
1F
100
AcDbEntity
  8
1
  6
CONTINUOUS
370
50
 62
4
100
AcDbLine
 10
48.803795
 20
-0.461875
 30
0.0
 11
48.717762
 21
-0.396891
 31
0.0
  0
LINE
  5
831
330
1F
100
AcDbEntity
  8
1
  6
CONTINUOUS
370
50
 62
4
100
AcDbLine
 10
57.192726
 20
-0.461854
 30
0.0
 11
57.106953
 21
-0.397118
 31
0.0
  0
LINE
  5
832
330
1F
100
AcDbEntity
  8
1
  6
CONTINUOUS
370
50
 62
4
100
AcDbLine
 10
53.328373
 20
-0.468515
 30
0.0
 11
53.244324
 21
-0.405132
 31
0.0
  0
LINE
  5
833
330
1F
100
AcDbEntity
  8
1
  6
CONTINUOUS
370
50
 62
4
100
AcDbLine
 10
58.917877
 20
-0.468128
 30
0.0
 11
58.833996
 21
-0.404905
 31
0.0
  0
LINE
  5
834
330
1F
100
AcDbEntity
  8
1
  6
CONTINUOUS
370
50
 62
4
100
AcDbLine
 10
55.107613
 20
0.395098
 30
0.0
 11
55.021637
 21
0.459784
 31
0.0
  0
LINE
  5
835
330
1F
100
AcDbEntity
  8
1
  6
CONTINUOUS
370
50
 62
4
100
AcDbLine
 10
58.968735
 20
0.404089
 30
0.0
 11
58.884682
 21
0.467275
 31
0.0
  0
LINE
  5
836
330
1F
100
AcDbEntity
  8
1
  6
CONTINUOUS
370
50
 62
4
100
AcDbLine
 10
46.008877
 20
-0.461635
 30
0.0
 11
45.922756
 21
-0.39694
 31
0.0
  0
LINE
  5
837
330
1F
100
AcDbEntity
  8
1
  6
CONTINUOUS
370
50
 62
4
100
AcDbLine
 10
52.30894499999999
 20
0.39826
 30
0.0
 11
52.222534
 21
0.463171
 31
0.0
  0
LINE
  5
838
330
1F
100
AcDbEntity
  8
1
  6
CONTINUOUS
370
50
 62
4
100
AcDbLine
 10
67.35878799999999
 20
0.402997
 30
0.0
 11
67.27494
 21
0.465863
 31
0.0
  0
LINE
  5
839
330
1F
100
AcDbEntity
  8
1
  6
CONTINUOUS
370
50
 62
4
100
AcDbLine
 10
59.98784999999999
 20
-0.461867
 30
0.0
 11
59.901466
 21
-0.397108
 31
0.0
  0
LINE
  5
83A
330
1F
100
AcDbEntity
  8
1
  6
CONTINUOUS
370
50
 62
4
100
AcDbLine
 10
66.291054
 20
0.39509
 30
0.0
 11
66.204842
 21
0.459605
 31
0.0
  0
LINE
  5
83B
330
1F
100
AcDbEntity
  8
1
  6
CONTINUOUS
370
50
 62
4
100
AcDbLine
 10
43.894051
 20
0.418306
 30
0.0
 11
43.816681
 21
0.476069
 31
0.0
  0
LINE
  5
83C
330
1F
100
AcDbEntity
  8
1
  6
CONTINUOUS
370
50
 62
4
100
AcDbLine
 10
56.174225
 20
0.404212
 30
0.0
 11
56.08987399999999
 21
0.467082
 31
0.0
  0
LINE
  5
83D
330
1F
100
AcDbEntity
  8
1
  6
CONTINUOUS
370
50
 62
4
100
AcDbLine
 10
67.302116
 20
-0.464368
 30
0.0
 11
67.217789
 21
-0.401536
 31
0.0
  0
LINE
  5
83E
330
1F
100
AcDbEntity
  8
1
  6
CONTINUOUS
370
50
 62
4
100
AcDbLine
 10
44.990753
 20
0.404429
 30
0.0
 11
44.906307
 21
0.467283
 31
0.0
  0
LINE
  5
83F
330
1F
100
AcDbEntity
  8
1
  6
CONTINUOUS
370
50
 62
4
100
AcDbLine
 10
56.121803
 20
-0.466905
 30
0.0
 11
56.037178
 21
-0.404038
 31
0.0
  0
LINE
  5
840
330
1F
100
AcDbEntity
  8
1
  6
CONTINUOUS
370
50
 62
4
100
AcDbLine
 10
42.169407
 20
-0.485104
 30
0.0
 11
42.081375
 21
-0.420094
 31
0.0
  0
LINE
  5
841
330
1F
100
AcDbEntity
  8
1
  6
CONTINUOUS
370
50
 62
4
100
AcDbLine
 10
69.012985
 20
0.450332
 30
0.0
 11
68.940704
 21
0.502917
 31
0.0
  0
LINE
  5
842
330
1F
100
AcDbEntity
  8
1
  6
CONTINUOUS
370
50
 62
4
100
AcDbLine
 10
43.278728
 20
-0.509285
 30
0.0
 11
43.200001
 21
-0.452152
 31
0.0
  0
LINE
  5
843
330
1F
100
AcDbEntity
  8
1
  6
CONTINUOUS
370
50
 62
4
100
AcDbLine
 10
42.167313
 20
0.425094
 30
0.0
 11
42.054718
 21
0.5067119999999999
 31
0.0
  0
LINE
  5
844
330
1F
100
AcDbEntity
  8
1
  6
CONTINUOUS
370
50
 62
4
100
AcDbLine
 10
40.637493
 20
-0.573282
 30
0.0
 11
40.616665
 21
-0.558267
 31
0.0
  0
LINE
  5
845
330
1F
100
AcDbEntity
  8
1
  6
CONTINUOUS
370
50
 62
4
100
AcDbLine
 10
46.635468
 20
0.459769
 30
0.0
 11
46.550823
 21
0.520543
 31
0.0
  0
LINE
  5
846
330
1F
100
AcDbEntity
  8
1
  6
CONTINUOUS
370
50
 62
4
100
AcDbLine
 10
57.81728
 20
0.460188
 30
0.0
 11
57.732628
 21
0.52093
 31
0.0
  0
LINE
  5
847
330
1F
100
AcDbEntity
  8
1
  6
CONTINUOUS
370
50
 62
4
100
AcDbLine
 10
54.481621
 20
-0.522957
 30
0.0
 11
54.396809
 21
-0.462322
 31
0.0
  0
LINE
  5
848
330
1F
100
AcDbEntity
  8
1
  6
CONTINUOUS
370
50
 62
4
100
AcDbLine
 10
41.069466
 20
0.440536
 30
0.0
 11
40.981098
 21
0.50366
 31
0.0
  0
LINE
  5
849
330
1F
100
AcDbEntity
  8
1
  6
CONTINUOUS
370
50
 62
4
100
AcDbLine
 10
68.460938
 20
-0.522399
 30
0.0
 11
68.37603
 21
-0.461801
 31
0.0
  0
LINE
  5
84A
330
1F
100
AcDbEntity
  8
1
  6
CONTINUOUS
370
50
 62
4
100
AcDbLine
 10
40.616665
 20
-0.558267
 30
0.0
 11
40.595821
 21
-0.5433979999999999
 31
0.0
  0
LINE
  5
84B
330
1F
100
AcDbEntity
  8
1
  6
CONTINUOUS
370
50
 62
4
100
AcDbLine
 10
65.664703
 20
-0.522784
 30
0.0
 11
65.579865
 21
-0.462278
 31
0.0
  0
LINE
  5
84C
330
1F
100
AcDbEntity
  8
1
  6
CONTINUOUS
370
50
 62
4
100
AcDbLine
 10
55.021637
 20
0.459784
 30
0.0
 11
54.93626
 21
0.520633
 31
0.0
  0
LINE
  5
84D
330
1F
100
AcDbEntity
  8
1
  6
CONTINUOUS
370
50
 62
4
100
AcDbLine
 10
57.27806099999999
 20
-0.522624
 30
0.0
 11
57.192726
 21
-0.461854
 31
0.0
  0
LINE
  5
84E
330
1F
100
AcDbEntity
  8
1
  6
CONTINUOUS
370
50
 62
4
100
AcDbLine
 10
44.991642
 20
-0.504865
 30
0.0
 11
44.91181599999999
 21
-0.44802
 31
0.0
  0
LINE
  5
84F
330
1F
100
AcDbEntity
  8
1
  6
CONTINUOUS
370
50
 62
4
100
AcDbLine
 10
64.592972
 20
-0.526443
 30
0.0
 11
64.50945999999999
 21
-0.467025
 31
0.0
  0
LINE
  5
850
330
1F
100
AcDbEntity
  8
1
  6
CONTINUOUS
370
50
 62
4
100
AcDbLine
 10
47.701206
 20
0.467915
 30
0.0
 11
47.618103
 21
0.527
 31
0.0
  0
LINE
  5
851
330
1F
100
AcDbEntity
  8
1
  6
CONTINUOUS
370
50
 62
4
100
AcDbLine
 10
60.611267
 20
0.462281
 30
0.0
 11
60.525963
 21
0.522872
 31
0.0
  0
LINE
  5
852
330
1F
100
AcDbEntity
  8
1
  6
CONTINUOUS
370
50
 62
4
100
AcDbLine
 10
53.411987
 20
-0.527899
 30
0.0
 11
53.328373
 21
-0.468515
 31
0.0
  0
LINE
  5
853
330
1F
100
AcDbEntity
  8
1
  6
CONTINUOUS
370
50
 62
4
100
AcDbLine
 10
46.094429
 20
-0.522386
 30
0.0
 11
46.008877
 21
-0.461635
 31
0.0
  0
LINE
  5
854
330
1F
100
AcDbEntity
  8
1
  6
CONTINUOUS
370
50
 62
4
100
AcDbLine
 10
61.681255
 20
0.467288
 30
0.0
 11
61.597858
 21
0.526507
 31
0.0
  0
LINE
  5
855
330
1F
100
AcDbEntity
  8
1
  6
CONTINUOUS
370
50
 62
4
100
AcDbLine
 10
58.884682
 20
0.467275
 30
0.0
 11
58.801399
 21
0.5263709999999999
 31
0.0
  0
LINE
  5
856
330
1F
100
AcDbEntity
  8
1
  6
CONTINUOUS
370
50
 62
4
100
AcDbLine
 10
66.204842
 20
0.459605
 30
0.0
 11
66.119255
 21
0.520272
 31
0.0
  0
LINE
  5
857
330
1F
100
AcDbEntity
  8
1
  6
CONTINUOUS
370
50
 62
4
100
AcDbLine
 10
51.685192
 20
-0.5226959999999999
 30
0.0
 11
51.599552
 21
-0.462011
 31
0.0
  0
LINE
  5
858
330
1F
100
AcDbEntity
  8
1
  6
CONTINUOUS
370
50
 62
4
100
AcDbLine
 10
50.498028
 20
0.467856
 30
0.0
 11
50.41433
 21
0.527131
 31
0.0
  0
LINE
  5
859
330
1F
100
AcDbEntity
  8
1
  6
CONTINUOUS
370
50
 62
4
100
AcDbLine
 10
50.616898
 20
-0.529053
 30
0.0
 11
50.533131
 21
-0.469762
 31
0.0
  0
LINE
  5
85A
330
1F
100
AcDbEntity
  8
1
  6
CONTINUOUS
370
50
 62
4
100
AcDbLine
 10
67.386162
 20
-0.523829
 30
0.0
 11
67.302116
 21
-0.464368
 31
0.0
  0
LINE
  5
85B
330
1F
100
AcDbEntity
  8
1
  6
CONTINUOUS
370
50
 62
4
100
AcDbLine
 10
49.429897
 20
0.461429
 30
0.0
 11
49.34391
 21
0.522227
 31
0.0
  0
LINE
  5
85C
330
1F
100
AcDbEntity
  8
1
  6
CONTINUOUS
370
50
 62
4
100
AcDbLine
 10
43.816681
 20
0.476069
 30
0.0
 11
43.739708
 21
0.530373
 31
0.0
  0
LINE
  5
85D
330
1F
100
AcDbEntity
  8
1
  6
CONTINUOUS
370
50
 62
4
100
AcDbLine
 10
61.799335
 20
-0.5283599999999999
 30
0.0
 11
61.715256
 21
-0.469061
 31
0.0
  0
LINE
  5
85E
330
1F
100
AcDbEntity
  8
1
  6
CONTINUOUS
370
50
 62
4
100
AcDbLine
 10
44.906307
 20
0.467283
 30
0.0
 11
44.822193
 21
0.526521
 31
0.0
  0
LINE
  5
85F
330
1F
100
AcDbEntity
  8
1
  6
CONTINUOUS
370
50
 62
4
100
AcDbLine
 10
62.868877
 20
-0.522467
 30
0.0
 11
62.78281399999999
 21
-0.461942
 31
0.0
  0
LINE
  5
860
330
1F
100
AcDbEntity
  8
1
  6
CONTINUOUS
370
50
 62
4
100
AcDbLine
 10
40.595821
 20
-0.5433979999999999
 30
0.0
 11
40.574944
 21
-0.528727
 31
0.0
  0
LINE
  5
861
330
1F
100
AcDbEntity
  8
1
  6
CONTINUOUS
370
50
 62
4
100
AcDbLine
 10
64.478104
 20
0.467042
 30
0.0
 11
64.394066
 21
0.526087
 31
0.0
  0
LINE
  5
862
330
1F
100
AcDbEntity
  8
1
  6
CONTINUOUS
370
50
 62
4
100
AcDbLine
 10
60.073727
 20
-0.522189
 30
0.0
 11
59.98784999999999
 21
-0.461867
 31
0.0
  0
LINE
  5
863
330
1F
100
AcDbEntity
  8
1
  6
CONTINUOUS
370
50
 62
4
100
AcDbLine
 10
47.815765
 20
-0.525207
 30
0.0
 11
47.7323
 21
-0.466632
 31
0.0
  0
LINE
  5
864
330
1F
100
AcDbEntity
  8
1
  6
CONTINUOUS
370
50
 62
4
100
AcDbLine
 10
56.206032
 20
-0.5260119999999999
 30
0.0
 11
56.121803
 21
-0.466905
 31
0.0
  0
LINE
  5
865
330
1F
100
AcDbEntity
  8
1
  6
CONTINUOUS
370
50
 62
4
100
AcDbLine
 10
48.890045
 20
-0.522238
 30
0.0
 11
48.803795
 21
-0.461875
 31
0.0
  0
LINE
  5
866
330
1F
100
AcDbEntity
  8
1
  6
CONTINUOUS
370
50
 62
4
100
AcDbLine
 10
53.294563
 20
0.467585
 30
0.0
 11
53.210327
 21
0.5264719999999999
 31
0.0
  0
LINE
  5
867
330
1F
100
AcDbEntity
  8
1
  6
CONTINUOUS
370
50
 62
4
100
AcDbLine
 10
56.08987399999999
 20
0.467082
 30
0.0
 11
56.005375
 21
0.526152
 31
0.0
  0
LINE
  5
868
330
1F
100
AcDbEntity
  8
1
  6
CONTINUOUS
370
50
 62
4
100
AcDbLine
 10
52.222534
 20
0.463171
 30
0.0
 11
52.136089
 21
0.523571
 31
0.0
  0
LINE
  5
869
330
1F
100
AcDbEntity
  8
1
  6
CONTINUOUS
370
50
 62
4
100
AcDbLine
 10
67.27494
 20
0.465863
 30
0.0
 11
67.190247
 21
0.5248079999999999
 31
0.0
  0
LINE
  5
86A
330
1F
100
AcDbEntity
  8
1
  6
CONTINUOUS
370
50
 62
4
100
AcDbLine
 10
63.4044
 20
0.464221
 30
0.0
 11
63.318619
 21
0.523907
 31
0.0
  0
LINE
  5
86B
330
1F
100
AcDbEntity
  8
1
  6
CONTINUOUS
370
50
 62
4
100
AcDbLine
 10
59.002396
 20
-0.526852
 30
0.0
 11
58.917877
 21
-0.468128
 31
0.0
  0
LINE
  5
86C
330
1F
100
AcDbEntity
  8
1
  6
CONTINUOUS
370
50
 62
4
100
AcDbLine
 10
42.256317
 20
-0.545272
 30
0.0
 11
42.169407
 21
-0.485104
 31
0.0
  0
LINE
  5
86D
330
1F
100
AcDbEntity
  8
1
  6
CONTINUOUS
370
50
 62
4
100
AcDbLine
 10
40.574944
 20
-0.528727
 30
0.0
 11
40.554005
 21
-0.5143059999999999
 31
0.0
  0
LINE
  5
86E
330
1F
100
AcDbEntity
  8
1
  6
CONTINUOUS
370
50
 62
4
100
AcDbLine
 10
68.940704
 20
0.502917
 30
0.0
 11
68.868607
 21
0.552117
 31
0.0
  0
LINE
  5
86F
330
1F
100
AcDbEntity
  8
1
  6
CONTINUOUS
370
50
 62
4
100
AcDbLine
 10
40.12862
 20
-0.7302489999999999
 30
0.0
 11
40.091324
 21
-0.704869
 31
0.0
  0
LINE
  5
870
330
1F
100
AcDbEntity
  8
1
  6
CONTINUOUS
370
50
 62
4
100
AcDbLine
 10
69.568016
 20
-0.017485
 30
0.0
 11
69.554626
 21
-0.008444
 31
0.0
  0
LINE
  5
871
330
1F
100
AcDbEntity
  8
1
  6
CONTINUOUS
370
50
 62
4
100
AcDbLine
 10
43.35725
 20
-0.5622119999999999
 30
0.0
 11
43.278728
 21
-0.509285
 31
0.0
  0
LINE
  5
872
330
1F
100
AcDbEntity
  8
1
  6
CONTINUOUS
370
50
 62
4
100
AcDbLine
 10
40.554005
 20
-0.5143059999999999
 30
0.0
 11
40.532986
 21
-0.500188
 31
0.0
  0
LINE
  5
873
330
1F
100
AcDbEntity
  8
1
  6
CONTINUOUS
370
50
 62
4
100
AcDbLine
 10
45.07071699999999
 20
-0.557952
 30
0.0
 11
44.991642
 21
-0.504865
 31
0.0
  0
LINE
  5
874
330
1F
100
AcDbEntity
  8
1
  6
CONTINUOUS
370
50
 62
4
100
AcDbLine
 10
40.981098
 20
0.50366
 30
0.0
 11
40.89423
 21
0.5619419999999999
 31
0.0
  0
LINE
  5
875
330
1F
100
AcDbEntity
  8
1
  6
CONTINUOUS
370
50
 62
4
100
AcDbLine
 10
54.93626
 20
0.520633
 30
0.0
 11
54.85148599999999
 21
0.57665
 31
0.0
  0
LINE
  5
876
330
1F
100
AcDbEntity
  8
1
  6
CONTINUOUS
370
50
 62
4
100
AcDbLine
 10
66.119255
 20
0.520272
 30
0.0
 11
66.034172
 21
0.576346
 31
0.0
  0
LINE
  5
877
330
1F
100
AcDbEntity
  8
1
  6
CONTINUOUS
370
50
 62
4
100
AcDbLine
 10
46.179401
 20
-0.5783269999999999
 30
0.0
 11
46.094429
 21
-0.522386
 31
0.0
  0
LINE
  5
878
330
1F
100
AcDbEntity
  8
1
  6
CONTINUOUS
370
50
 62
4
100
AcDbLine
 10
57.362785
 20
-0.578394
 30
0.0
 11
57.27806099999999
 21
-0.522624
 31
0.0
  0
LINE
  5
879
330
1F
100
AcDbEntity
  8
1
  6
CONTINUOUS
370
50
 62
4
100
AcDbLine
 10
57.732628
 20
0.52093
 30
0.0
 11
57.647873
 21
0.5767019999999999
 31
0.0
  0
LINE
  5
87A
330
1F
100
AcDbEntity
  8
1
  6
CONTINUOUS
370
50
 62
4
100
AcDbLine
 10
68.54570799999999
 20
-0.578128
 30
0.0
 11
68.460938
 21
-0.522399
 31
0.0
  0
LINE
  5
87B
330
1F
100
AcDbEntity
  8
1
  6
CONTINUOUS
370
50
 62
4
100
AcDbLine
 10
67.469681
 20
-0.578705
 30
0.0
 11
67.386162
 21
-0.523829
 31
0.0
  0
LINE
  5
87C
330
1F
100
AcDbEntity
  8
1
  6
CONTINUOUS
370
50
 62
4
100
AcDbLine
 10
46.550823
 20
0.520543
 30
0.0
 11
46.465652
 21
0.576425
 31
0.0
  0
LINE
  5
87D
330
1F
100
AcDbEntity
  8
1
  6
CONTINUOUS
370
50
 62
4
100
AcDbLine
 10
58.801399
 20
0.5263709999999999
 30
0.0
 11
58.718086
 21
0.580921
 31
0.0
  0
LINE
  5
87E
330
1F
100
AcDbEntity
  8
1
  6
CONTINUOUS
370
50
 62
4
100
AcDbLine
 10
44.822193
 20
0.526521
 30
0.0
 11
44.738739
 21
0.581141
 31
0.0
  0
LINE
  5
87F
330
1F
100
AcDbEntity
  8
1
  6
CONTINUOUS
370
50
 62
4
100
AcDbLine
 10
43.739708
 20
0.530373
 30
0.0
 11
43.662727
 21
0.580742
 31
0.0
  0
LINE
  5
880
330
1F
100
AcDbEntity
  8
1
  6
CONTINUOUS
370
50
 62
4
100
AcDbLine
 10
54.566818
 20
-0.578676
 30
0.0
 11
54.481621
 21
-0.522957
 31
0.0
  0
LINE
  5
881
330
1F
100
AcDbEntity
  8
1
  6
CONTINUOUS
370
50
 62
4
100
AcDbLine
 10
56.289776
 20
-0.580778
 30
0.0
 11
56.206032
 21
-0.5260119999999999
 31
0.0
  0
LINE
  5
882
330
1F
100
AcDbEntity
  8
1
  6
CONTINUOUS
370
50
 62
4
100
AcDbLine
 10
60.15910299999999
 20
-0.578017
 30
0.0
 11
60.073727
 21
-0.522189
 31
0.0
  0
LINE
  5
883
330
1F
100
AcDbEntity
  8
1
  6
CONTINUOUS
370
50
 62
4
100
AcDbLine
 10
47.618103
 20
0.527
 30
0.0
 11
47.534603
 21
0.581581
 31
0.0
  0
LINE
  5
884
330
1F
100
AcDbEntity
  8
1
  6
CONTINUOUS
370
50
 62
4
100
AcDbLine
 10
53.495831
 20
-0.582658
 30
0.0
 11
53.411987
 21
-0.527899
 31
0.0
  0
LINE
  5
885
330
1F
100
AcDbEntity
  8
1
  6
CONTINUOUS
370
50
 62
4
100
AcDbLine
 10
64.676712
 20
-0.581089
 30
0.0
 11
64.592972
 21
-0.526443
 31
0.0
  0
LINE
  5
886
330
1F
100
AcDbEntity
  8
1
  6
CONTINUOUS
370
50
 62
4
100
AcDbLine
 10
56.005375
 20
0.526152
 30
0.0
 11
55.92178699999999
 21
0.58067
 31
0.0
  0
LINE
  5
887
330
1F
100
AcDbEntity
  8
1
  6
CONTINUOUS
370
50
 62
4
100
AcDbLine
 10
42.054718
 20
0.5067119999999999
 30
0.0
 11
41.941437
 21
0.580595
 31
0.0
  0
LINE
  5
888
330
1F
100
AcDbEntity
  8
1
  6
CONTINUOUS
370
50
 62
4
100
AcDbLine
 10
40.532986
 20
-0.500188
 30
0.0
 11
40.511868
 21
-0.486425
 31
0.0
  0
LINE
  5
889
330
1F
100
AcDbEntity
  8
1
  6
CONTINUOUS
370
50
 62
4
100
AcDbLine
 10
52.136089
 20
0.523571
 30
0.0
 11
52.050346
 21
0.579444
 31
0.0
  0
LINE
  5
88A
330
1F
100
AcDbEntity
  8
1
  6
CONTINUOUS
370
50
 62
4
100
AcDbLine
 10
48.97559
 20
-0.577979
 30
0.0
 11
48.890045
 21
-0.522238
 31
0.0
  0
LINE
  5
88B
330
1F
100
AcDbEntity
  8
1
  6
CONTINUOUS
370
50
 62
4
100
AcDbLine
 10
65.750298
 20
-0.5784199999999999
 30
0.0
 11
65.664703
 21
-0.522784
 31
0.0
  0
LINE
  5
88C
330
1F
100
AcDbEntity
  8
1
  6
CONTINUOUS
370
50
 62
4
100
AcDbLine
 10
67.190247
 20
0.5248079999999999
 30
0.0
 11
67.105949
 21
0.579569
 31
0.0
  0
LINE
  5
88D
330
1F
100
AcDbEntity
  8
1
  6
CONTINUOUS
370
50
 62
4
100
AcDbLine
 10
61.597858
 20
0.526507
 30
0.0
 11
61.513863
 21
0.581017
 31
0.0
  0
LINE
  5
88E
330
1F
100
AcDbEntity
  8
1
  6
CONTINUOUS
370
50
 62
4
100
AcDbLine
 10
63.318619
 20
0.523907
 30
0.0
 11
63.23364299999999
 21
0.578928
 31
0.0
  0
LINE
  5
88F
330
1F
100
AcDbEntity
  8
1
  6
CONTINUOUS
370
50
 62
4
100
AcDbLine
 10
50.41433
 20
0.527131
 30
0.0
 11
50.330212
 21
0.581463
 31
0.0
  0
LINE
  5
890
330
1F
100
AcDbEntity
  8
1
  6
CONTINUOUS
370
50
 62
4
100
AcDbLine
 10
50.701153
 20
-0.5833809999999999
 30
0.0
 11
50.616898
 21
-0.529053
 31
0.0
  0
LINE
  5
891
330
1F
100
AcDbEntity
  8
1
  6
CONTINUOUS
370
50
 62
4
100
AcDbLine
 10
62.954884
 20
-0.577874
 30
0.0
 11
62.868877
 21
-0.522467
 31
0.0
  0
LINE
  5
892
330
1F
100
AcDbEntity
  8
1
  6
CONTINUOUS
370
50
 62
4
100
AcDbLine
 10
51.771461
 20
-0.578225
 30
0.0
 11
51.685192
 21
-0.5226959999999999
 31
0.0
  0
LINE
  5
893
330
1F
100
AcDbEntity
  8
1
  6
CONTINUOUS
370
50
 62
4
100
AcDbLine
 10
60.525963
 20
0.522872
 30
0.0
 11
60.439857
 21
0.578294
 31
0.0
  0
LINE
  5
894
330
1F
100
AcDbEntity
  8
1
  6
CONTINUOUS
370
50
 62
4
100
AcDbLine
 10
49.34391
 20
0.522227
 30
0.0
 11
49.25761
 21
0.5777519999999999
 31
0.0
  0
LINE
  5
895
330
1F
100
AcDbEntity
  8
1
  6
CONTINUOUS
370
50
 62
4
100
AcDbLine
 10
59.086712
 20
-0.580998
 30
0.0
 11
59.002396
 21
-0.526852
 31
0.0
  0
LINE
  5
896
330
1F
100
AcDbEntity
  8
1
  6
CONTINUOUS
370
50
 62
4
100
AcDbLine
 10
53.210327
 20
0.5264719999999999
 30
0.0
 11
53.125515
 21
0.580838
 31
0.0
  0
LINE
  5
897
330
1F
100
AcDbEntity
  8
1
  6
CONTINUOUS
370
50
 62
4
100
AcDbLine
 10
47.90004
 20
-0.5792149999999999
 30
0.0
 11
47.815765
 21
-0.525207
 31
0.0
  0
LINE
  5
898
330
1F
100
AcDbEntity
  8
1
  6
CONTINUOUS
370
50
 62
4
100
AcDbLine
 10
61.883968
 20
-0.582596
 30
0.0
 11
61.799335
 21
-0.5283599999999999
 31
0.0
  0
LINE
  5
899
330
1F
100
AcDbEntity
  8
1
  6
CONTINUOUS
370
50
 62
4
100
AcDbLine
 10
64.394066
 20
0.526087
 30
0.0
 11
64.30933399999999
 21
0.5803389999999999
 31
0.0
  0
LINE
  5
89A
330
1F
100
AcDbEntity
  8
1
  6
CONTINUOUS
370
50
 62
4
100
AcDbLine
 10
42.34307099999999
 20
-0.600182
 30
0.0
 11
42.256317
 21
-0.545272
 31
0.0
  0
LINE
  5
89B
330
1F
100
AcDbEntity
  8
1
  6
CONTINUOUS
370
50
 62
4
100
AcDbLine
 10
40.511868
 20
-0.486425
 30
0.0
 11
40.490623
 21
-0.473071
 31
0.0
  0
LINE
  5
89C
330
1F
100
AcDbEntity
  8
1
  6
CONTINUOUS
370
50
 62
4
100
AcDbLine
 10
68.868607
 20
0.552117
 30
0.0
 11
68.796455
 21
0.597469
 31
0.0
  0
LINE
  5
89D
330
1F
100
AcDbEntity
  8
1
  6
CONTINUOUS
370
50
 62
4
100
AcDbLine
 10
45.149117
 20
-0.606717
 30
0.0
 11
45.07071699999999
 21
-0.557952
 31
0.0
  0
LINE
  5
89E
330
1F
100
AcDbEntity
  8
1
  6
CONTINUOUS
370
50
 62
4
100
AcDbLine
 10
40.89423
 20
0.5619419999999999
 30
0.0
 11
40.808254
 21
0.614826
 31
0.0
  0
LINE
  5
89F
330
1F
100
AcDbEntity
  8
1
  6
CONTINUOUS
370
50
 62
4
100
AcDbLine
 10
43.436256
 20
-0.610632
 30
0.0
 11
43.35725
 21
-0.5622119999999999
 31
0.0
  0
LINE
  5
8A0
330
1F
100
AcDbEntity
  8
1
  6
CONTINUOUS
370
50
 62
4
100
AcDbLine
 10
40.490623
 20
-0.473071
 30
0.0
 11
40.469234
 21
-0.460177
 31
0.0
  0
LINE
  5
8A1
330
1F
100
AcDbEntity
  8
1
  6
CONTINUOUS
370
50
 62
4
100
AcDbLine
 10
66.034172
 20
0.576346
 30
0.0
 11
65.949615
 21
0.626895
 31
0.0
  0
LINE
  5
8A2
330
1F
100
AcDbEntity
  8
1
  6
CONTINUOUS
370
50
 62
4
100
AcDbLine
 10
54.85148599999999
 20
0.57665
 30
0.0
 11
54.766895
 21
0.6271669999999999
 31
0.0
  0
LINE
  5
8A3
330
1F
100
AcDbEntity
  8
1
  6
CONTINUOUS
370
50
 62
4
100
AcDbLine
 10
46.264091
 20
-0.6287619999999999
 30
0.0
 11
46.179401
 21
-0.5783269999999999
 31
0.0
  0
LINE
  5
8A4
330
1F
100
AcDbEntity
  8
1
  6
CONTINUOUS
370
50
 62
4
100
AcDbLine
 10
60.243851
 20
-0.628459
 30
0.0
 11
60.15910299999999
 21
-0.578017
 31
0.0
  0
LINE
  5
8A5
330
1F
100
AcDbEntity
  8
1
  6
CONTINUOUS
370
50
 62
4
100
AcDbLine
 10
49.060669
 20
-0.6285689999999999
 30
0.0
 11
48.97559
 21
-0.577979
 31
0.0
  0
LINE
  5
8A6
330
1F
100
AcDbEntity
  8
1
  6
CONTINUOUS
370
50
 62
4
100
AcDbLine
 10
67.553574
 20
-0.62857
 30
0.0
 11
67.469681
 21
-0.578705
 31
0.0
  0
LINE
  5
8A7
330
1F
100
AcDbEntity
  8
1
  6
CONTINUOUS
370
50
 62
4
100
AcDbLine
 10
52.050346
 20
0.579444
 30
0.0
 11
51.96531299999999
 21
0.629948
 31
0.0
  0
LINE
  5
8A8
330
1F
100
AcDbEntity
  8
1
  6
CONTINUOUS
370
50
 62
4
100
AcDbLine
 10
43.662727
 20
0.580742
 30
0.0
 11
43.585682
 21
0.626491
 31
0.0
  0
LINE
  5
8A9
330
1F
100
AcDbEntity
  8
1
  6
CONTINUOUS
370
50
 62
4
100
AcDbLine
 10
57.44762
 20
-0.6287229999999999
 30
0.0
 11
57.362785
 21
-0.578394
 31
0.0
  0
LINE
  5
8AA
330
1F
100
AcDbEntity
  8
1
  6
CONTINUOUS
370
50
 62
4
100
AcDbLine
 10
56.373428
 20
-0.630398
 30
0.0
 11
56.289776
 21
-0.580778
 31
0.0
  0
LINE
  5
8AB
330
1F
100
AcDbEntity
  8
1
  6
CONTINUOUS
370
50
 62
4
100
AcDbLine
 10
55.92178699999999
 20
0.58067
 30
0.0
 11
55.838448
 21
0.630103
 31
0.0
  0
LINE
  5
8AC
330
1F
100
AcDbEntity
  8
1
  6
CONTINUOUS
370
50
 62
4
100
AcDbLine
 10
67.105949
 20
0.579569
 30
0.0
 11
67.02226999999999
 21
0.629193
 31
0.0
  0
LINE
  5
8AD
330
1F
100
AcDbEntity
  8
1
  6
CONTINUOUS
370
50
 62
4
100
AcDbLine
 10
44.738739
 20
0.581141
 30
0.0
 11
44.655125
 21
0.63071
 31
0.0
  0
LINE
  5
8AE
330
1F
100
AcDbEntity
  8
1
  6
CONTINUOUS
370
50
 62
4
100
AcDbLine
 10
63.23364299999999
 20
0.578928
 30
0.0
 11
63.149216
 21
0.628941
 31
0.0
  0
LINE
  5
8AF
330
1F
100
AcDbEntity
  8
1
  6
CONTINUOUS
370
50
 62
4
100
AcDbLine
 10
68.631027
 20
-0.628505
 30
0.0
 11
68.54570799999999
 21
-0.578128
 31
0.0
  0
LINE
  5
8B0
330
1F
100
AcDbEntity
  8
1
  6
CONTINUOUS
370
50
 62
4
100
AcDbLine
 10
59.17025
 20
-0.6302679999999999
 30
0.0
 11
59.086712
 21
-0.580998
 31
0.0
  0
LINE
  5
8B1
330
1F
100
AcDbEntity
  8
1
  6
CONTINUOUS
370
50
 62
4
100
AcDbLine
 10
63.040237
 20
-0.628203
 30
0.0
 11
62.954884
 21
-0.577874
 31
0.0
  0
LINE
  5
8B2
330
1F
100
AcDbEntity
  8
1
  6
CONTINUOUS
370
50
 62
4
100
AcDbLine
 10
58.718086
 20
0.580921
 30
0.0
 11
58.634125
 21
0.630396
 31
0.0
  0
LINE
  5
8B3
330
1F
100
AcDbEntity
  8
1
  6
CONTINUOUS
370
50
 62
4
100
AcDbLine
 10
49.25761
 20
0.5777519999999999
 30
0.0
 11
49.172142
 21
0.6280859999999999
 31
0.0
  0
LINE
  5
8B4
330
1F
100
AcDbEntity
  8
1
  6
CONTINUOUS
370
50
 62
4
100
AcDbLine
 10
47.984516
 20
-0.628958
 30
0.0
 11
47.90004
 21
-0.5792149999999999
 31
0.0
  0
LINE
  5
8B5
330
1F
100
AcDbEntity
  8
1
  6
CONTINUOUS
370
50
 62
4
100
AcDbLine
 10
53.125515
 20
0.580838
 30
0.0
 11
53.041523
 21
0.630259
 31
0.0
  0
LINE
  5
8B6
330
1F
100
AcDbEntity
  8
1
  6
CONTINUOUS
370
50
 62
4
100
AcDbLine
 10
57.647873
 20
0.5767019999999999
 30
0.0
 11
57.562153
 21
0.627099
 31
0.0
  0
LINE
  5
8B7
330
1F
100
AcDbEntity
  8
1
  6
CONTINUOUS
370
50
 62
4
100
AcDbLine
 10
51.856995
 20
-0.628439
 30
0.0
 11
51.771461
 21
-0.578225
 31
0.0
  0
LINE
  5
8B8
330
1F
100
AcDbEntity
  8
1
  6
CONTINUOUS
370
50
 62
4
100
AcDbLine
 10
47.534603
 20
0.581581
 30
0.0
 11
47.450535
 21
0.6309049999999999
 31
0.0
  0
LINE
  5
8B9
330
1F
100
AcDbEntity
  8
1
  6
CONTINUOUS
370
50
 62
4
100
AcDbLine
 10
53.579861
 20
-0.631907
 30
0.0
 11
53.495831
 21
-0.582658
 31
0.0
  0
LINE
  5
8BA
330
1F
100
AcDbEntity
  8
1
  6
CONTINUOUS
370
50
 62
4
100
AcDbLine
 10
46.465652
 20
0.576425
 30
0.0
 11
46.379467
 21
0.626869
 31
0.0
  0
LINE
  5
8BB
330
1F
100
AcDbEntity
  8
1
  6
CONTINUOUS
370
50
 62
4
100
AcDbLine
 10
64.30933399999999
 20
0.5803389999999999
 30
0.0
 11
64.224762
 21
0.629779
 31
0.0
  0
LINE
  5
8BC
330
1F
100
AcDbEntity
  8
1
  6
CONTINUOUS
370
50
 62
4
100
AcDbLine
 10
64.760857
 20
-0.630273
 30
0.0
 11
64.676712
 21
-0.581089
 31
0.0
  0
LINE
  5
8BD
330
1F
100
AcDbEntity
  8
1
  6
CONTINUOUS
370
50
 62
4
100
AcDbLine
 10
60.439857
 20
0.578294
 30
0.0
 11
60.35438199999999
 21
0.628232
 31
0.0
  0
LINE
  5
8BE
330
1F
100
AcDbEntity
  8
1
  6
CONTINUOUS
370
50
 62
4
100
AcDbLine
 10
54.652908
 20
-0.628888
 30
0.0
 11
54.566818
 21
-0.578676
 31
0.0
  0
LINE
  5
8BF
330
1F
100
AcDbEntity
  8
1
  6
CONTINUOUS
370
50
 62
4
100
AcDbLine
 10
65.836349
 20
-0.62844
 30
0.0
 11
65.750298
 21
-0.5784199999999999
 31
0.0
  0
LINE
  5
8C0
330
1F
100
AcDbEntity
  8
1
  6
CONTINUOUS
370
50
 62
4
100
AcDbLine
 10
61.513863
 20
0.581017
 30
0.0
 11
61.42930999999999
 21
0.630122
 31
0.0
  0
LINE
  5
8C1
330
1F
100
AcDbEntity
  8
1
  6
CONTINUOUS
370
50
 62
4
100
AcDbLine
 10
50.330212
 20
0.581463
 30
0.0
 11
50.24538399999999
 21
0.630579
 31
0.0
  0
LINE
  5
8C2
330
1F
100
AcDbEntity
  8
1
  6
CONTINUOUS
370
50
 62
4
100
AcDbLine
 10
41.941437
 20
0.580595
 30
0.0
 11
41.829273
 21
0.645538
 31
0.0
  0
LINE
  5
8C3
330
1F
100
AcDbEntity
  8
1
  6
CONTINUOUS
370
50
 62
4
100
AcDbLine
 10
61.968811
 20
-0.631548
 30
0.0
 11
61.883968
 21
-0.582596
 31
0.0
  0
LINE
  5
8C4
330
1F
100
AcDbEntity
  8
1
  6
CONTINUOUS
370
50
 62
4
100
AcDbLine
 10
50.785992
 20
-0.632245
 30
0.0
 11
50.701153
 21
-0.5833809999999999
 31
0.0
  0
LINE
  5
8C5
330
1F
100
AcDbEntity
  8
1
  6
CONTINUOUS
370
50
 62
4
100
AcDbLine
 10
40.469234
 20
-0.460177
 30
0.0
 11
40.447735
 21
-0.447829
 31
0.0
  0
LINE
  5
8C6
330
1F
100
AcDbEntity
  8
1
  6
CONTINUOUS
370
50
 62
4
100
AcDbLine
 10
68.796455
 20
0.597469
 30
0.0
 11
68.72370099999999
 21
0.638725
 31
0.0
  0
LINE
  5
8C7
330
1F
100
AcDbEntity
  8
1
  6
CONTINUOUS
370
50
 62
4
100
AcDbLine
 10
42.430637
 20
-0.649419
 30
0.0
 11
42.34307099999999
 21
-0.600182
 31
0.0
  0
LINE
  5
8C8
330
1F
100
AcDbEntity
  8
1
  6
CONTINUOUS
370
50
 62
4
100
AcDbLine
 10
45.22757
 20
-0.650825
 30
0.0
 11
45.149117
 21
-0.606717
 31
0.0
  0
LINE
  5
8C9
330
1F
100
AcDbEntity
  8
1
  6
CONTINUOUS
370
50
 62
4
100
AcDbLine
 10
69.581322
 20
-0.024827
 30
0.0
 11
69.568016
 21
-0.017485
 31
0.0
  0
LINE
  5
8CA
330
1F
100
AcDbEntity
  8
1
  6
CONTINUOUS
370
50
 62
4
100
AcDbLine
 10
40.808254
 20
0.614826
 30
0.0
 11
40.72229799999999
 21
0.661937
 31
0.0
  0
LINE
  5
8CB
330
1F
100
AcDbEntity
  8
1
  6
CONTINUOUS
370
50
 62
4
100
AcDbLine
 10
40.167271
 20
-0.751405
 30
0.0
 11
40.12862
 21
-0.7302489999999999
 31
0.0
  0
LINE
  5
8CC
330
1F
100
AcDbEntity
  8
1
  6
CONTINUOUS
370
50
 62
4
100
AcDbLine
 10
40.742512
 20
-0.664481
 30
0.0
 11
40.637493
 21
-0.607007
 31
0.0
  0
LINE
  5
8CD
330
1F
100
AcDbEntity
  8
1
  6
CONTINUOUS
370
50
 62
4
100
AcDbLine
 10
43.515812
 20
-0.6539539999999999
 30
0.0
 11
43.436256
 21
-0.610632
 31
0.0
  0
LINE
  5
8CE
330
1F
100
AcDbEntity
  8
1
  6
CONTINUOUS
370
50
 62
4
100
AcDbLine
 10
40.447735
 20
-0.447829
 30
0.0
 11
40.4263
 21
-0.436182
 31
0.0
  0
LINE
  5
8CF
330
1F
100
AcDbEntity
  8
1
  6
CONTINUOUS
370
50
 62
4
100
AcDbLine
 10
49.145245
 20
-0.673199
 30
0.0
 11
49.060669
 21
-0.6285689999999999
 31
0.0
  0
LINE
  5
8D0
330
1F
100
AcDbEntity
  8
1
  6
CONTINUOUS
370
50
 62
4
100
AcDbLine
 10
48.068268
 20
-0.673113
 30
0.0
 11
47.984516
 21
-0.628958
 31
0.0
  0
LINE
  5
8D1
330
1F
100
AcDbEntity
  8
1
  6
CONTINUOUS
370
50
 62
4
100
AcDbLine
 10
49.172142
 20
0.6280859999999999
 30
0.0
 11
49.08709
 21
0.6729029999999999
 31
0.0
  0
LINE
  5
8D2
330
1F
100
AcDbEntity
  8
1
  6
CONTINUOUS
370
50
 62
4
100
AcDbLine
 10
63.149216
 20
0.628941
 30
0.0
 11
63.064907
 21
0.673354
 31
0.0
  0
LINE
  5
8D3
330
1F
100
AcDbEntity
  8
1
  6
CONTINUOUS
370
50
 62
4
100
AcDbLine
 10
60.328442
 20
-0.6729879999999999
 30
0.0
 11
60.243851
 21
-0.628459
 31
0.0
  0
LINE
  5
8D4
330
1F
100
AcDbEntity
  8
1
  6
CONTINUOUS
370
50
 62
4
100
AcDbLine
 10
65.949615
 20
0.626895
 30
0.0
 11
65.864723
 21
0.6715749999999999
 31
0.0
  0
LINE
  5
8D5
330
1F
100
AcDbEntity
  8
1
  6
CONTINUOUS
370
50
 62
4
100
AcDbLine
 10
63.125065
 20
-0.672847
 30
0.0
 11
63.040237
 21
-0.628203
 31
0.0
  0
LINE
  5
8D6
330
1F
100
AcDbEntity
  8
1
  6
CONTINUOUS
370
50
 62
4
100
AcDbLine
 10
51.96531299999999
 20
0.629948
 30
0.0
 11
51.88068
 21
0.6744359999999999
 31
0.0
  0
LINE
  5
8D7
330
1F
100
AcDbEntity
  8
1
  6
CONTINUOUS
370
50
 62
4
100
AcDbLine
 10
67.02226999999999
 20
0.629193
 30
0.0
 11
66.938362
 21
0.673287
 31
0.0
  0
LINE
  5
8D8
330
1F
100
AcDbEntity
  8
1
  6
CONTINUOUS
370
50
 62
4
100
AcDbLine
 10
43.585682
 20
0.626491
 30
0.0
 11
43.507984
 21
0.6673169999999999
 31
0.0
  0
LINE
  5
8D9
330
1F
100
AcDbEntity
  8
1
  6
CONTINUOUS
370
50
 62
4
100
AcDbLine
 10
59.253712
 20
-0.674115
 30
0.0
 11
59.17025
 21
-0.6302679999999999
 31
0.0
  0
LINE
  5
8DA
330
1F
100
AcDbEntity
  8
1
  6
CONTINUOUS
370
50
 62
4
100
AcDbLine
 10
53.041523
 20
0.630259
 30
0.0
 11
52.958042
 21
0.6740999999999999
 31
0.0
  0
LINE
  5
8DB
330
1F
100
AcDbEntity
  8
1
  6
CONTINUOUS
370
50
 62
4
100
AcDbLine
 10
51.94207
 20
-0.6731159999999999
 30
0.0
 11
51.856995
 21
-0.628439
 31
0.0
  0
LINE
  5
8DC
330
1F
100
AcDbEntity
  8
1
  6
CONTINUOUS
370
50
 62
4
100
AcDbLine
 10
60.35438199999999
 20
0.628232
 30
0.0
 11
60.269634
 21
0.6726559999999999
 31
0.0
  0
LINE
  5
8DD
330
1F
100
AcDbEntity
  8
1
  6
CONTINUOUS
370
50
 62
4
100
AcDbLine
 10
64.224762
 20
0.629779
 30
0.0
 11
64.141029
 21
0.6736449999999999
 31
0.0
  0
LINE
  5
8DE
330
1F
100
AcDbEntity
  8
1
  6
CONTINUOUS
370
50
 62
4
100
AcDbLine
 10
55.838448
 20
0.630103
 30
0.0
 11
55.754559
 21
0.6740459999999999
 31
0.0
  0
LINE
  5
8DF
330
1F
100
AcDbEntity
  8
1
  6
CONTINUOUS
370
50
 62
4
100
AcDbLine
 10
54.766895
 20
0.6271669999999999
 30
0.0
 11
54.68156099999999
 21
0.671858
 31
0.0
  0
LINE
  5
8E0
330
1F
100
AcDbEntity
  8
1
  6
CONTINUOUS
370
50
 62
4
100
AcDbLine
 10
46.349369
 20
-0.673364
 30
0.0
 11
46.264091
 21
-0.6287619999999999
 31
0.0
  0
LINE
  5
8E1
330
1F
100
AcDbEntity
  8
1
  6
CONTINUOUS
370
50
 62
4
100
AcDbLine
 10
56.45715
 20
-0.674157
 30
0.0
 11
56.373428
 21
-0.630398
 31
0.0
  0
LINE
  5
8E2
330
1F
100
AcDbEntity
  8
1
  6
CONTINUOUS
370
50
 62
4
100
AcDbLine
 10
67.638168
 20
-0.672754
 30
0.0
 11
67.553574
 21
-0.62857
 31
0.0
  0
LINE
  5
8E3
330
1F
100
AcDbEntity
  8
1
  6
CONTINUOUS
370
50
 62
4
100
AcDbLine
 10
44.655125
 20
0.63071
 30
0.0
 11
44.57103
 21
0.6745939999999999
 31
0.0
  0
LINE
  5
8E4
330
1F
100
AcDbEntity
  8
1
  6
CONTINUOUS
370
50
 62
4
100
AcDbLine
 10
46.379467
 20
0.626869
 30
0.0
 11
46.293449
 21
0.671663
 31
0.0
  0
LINE
  5
8E5
330
1F
100
AcDbEntity
  8
1
  6
CONTINUOUS
370
50
 62
4
100
AcDbLine
 10
65.921677
 20
-0.672802
 30
0.0
 11
65.836349
 21
-0.62844
 31
0.0
  0
LINE
  5
8E6
330
1F
100
AcDbEntity
  8
1
  6
CONTINUOUS
370
50
 62
4
100
AcDbLine
 10
50.24538399999999
 20
0.630579
 30
0.0
 11
50.160988
 21
0.6743709999999999
 31
0.0
  0
LINE
  5
8E7
330
1F
100
AcDbEntity
  8
1
  6
CONTINUOUS
370
50
 62
4
100
AcDbLine
 10
57.533344
 20
-0.6732
 30
0.0
 11
57.44762
 21
-0.6287229999999999
 31
0.0
  0
LINE
  5
8E8
330
1F
100
AcDbEntity
  8
1
  6
CONTINUOUS
370
50
 62
4
100
AcDbLine
 10
62.052673
 20
-0.675047
 30
0.0
 11
61.968811
 21
-0.631548
 31
0.0
  0
LINE
  5
8E9
330
1F
100
AcDbEntity
  8
1
  6
CONTINUOUS
370
50
 62
4
100
AcDbLine
 10
54.73851
 20
-0.673168
 30
0.0
 11
54.652908
 21
-0.628888
 31
0.0
  0
LINE
  5
8EA
330
1F
100
AcDbEntity
  8
1
  6
CONTINUOUS
370
50
 62
4
100
AcDbLine
 10
57.562153
 20
0.627099
 30
0.0
 11
57.475979
 21
0.671663
 31
0.0
  0
LINE
  5
8EB
330
1F
100
AcDbEntity
  8
1
  6
CONTINUOUS
370
50
 62
4
100
AcDbLine
 10
58.634125
 20
0.630396
 30
0.0
 11
58.54971699999999
 21
0.6740109999999999
 31
0.0
  0
LINE
  5
8EC
330
1F
100
AcDbEntity
  8
1
  6
CONTINUOUS
370
50
 62
4
100
AcDbLine
 10
68.71691899999999
 20
-0.6727719999999999
 30
0.0
 11
68.631027
 21
-0.628505
 31
0.0
  0
LINE
  5
8ED
330
1F
100
AcDbEntity
  8
1
  6
CONTINUOUS
370
50
 62
4
100
AcDbLine
 10
61.42930999999999
 20
0.630122
 30
0.0
 11
61.344406
 21
0.6738649999999999
 31
0.0
  0
LINE
  5
8EE
330
1F
100
AcDbEntity
  8
1
  6
CONTINUOUS
370
50
 62
4
100
AcDbLine
 10
50.870251
 20
-0.675642
 30
0.0
 11
50.785992
 21
-0.632245
 31
0.0
  0
LINE
  5
8EF
330
1F
100
AcDbEntity
  8
1
  6
CONTINUOUS
370
50
 62
4
100
AcDbLine
 10
47.450535
 20
0.6309049999999999
 30
0.0
 11
47.365849
 21
0.674442
 31
0.0
  0
LINE
  5
8F0
330
1F
100
AcDbEntity
  8
1
  6
CONTINUOUS
370
50
 62
4
100
AcDbLine
 10
53.66461899999999
 20
-0.675322
 30
0.0
 11
53.579861
 21
-0.631907
 31
0.0
  0
LINE
  5
8F1
330
1F
100
AcDbEntity
  8
1
  6
CONTINUOUS
370
50
 62
4
100
AcDbLine
 10
64.84580199999999
 20
-0.673781
 30
0.0
 11
64.760857
 21
-0.630273
 31
0.0
  0
LINE
  5
8F2
330
1F
100
AcDbEntity
  8
1
  6
CONTINUOUS
370
50
 62
4
100
AcDbLine
 10
40.4263
 20
-0.436182
 30
0.0
 11
40.40494899999999
 21
-0.425279
 31
0.0
  0
LINE
  5
8F3
330
1F
100
AcDbEntity
  8
1
  6
CONTINUOUS
370
50
 62
4
100
AcDbLine
 10
68.72370099999999
 20
0.638725
 30
0.0
 11
68.650734
 21
0.6754939999999999
 31
0.0
  0
LINE
  5
8F4
330
1F
100
AcDbEntity
  8
1
  6
CONTINUOUS
370
50
 62
4
100
AcDbLine
 10
45.306557
 20
-0.689835
 30
0.0
 11
45.22757
 21
-0.650825
 31
0.0
  0
LINE
  5
8F5
330
1F
100
AcDbEntity
  8
1
  6
CONTINUOUS
370
50
 62
4
100
AcDbLine
 10
40.63549
 20
0.7246309999999999
 30
0.0
 11
40.598633
 21
0.742807
 31
0.0
  0
LINE
  5
8F6
330
1F
100
AcDbEntity
  8
1
  6
CONTINUOUS
370
50
 62
4
100
AcDbLine
 10
41.829273
 20
0.645538
 30
0.0
 11
41.71743
 21
0.70007
 31
0.0
  0
LINE
  5
8F7
330
1F
100
AcDbEntity
  8
1
  6
CONTINUOUS
370
50
 62
4
100
AcDbLine
 10
42.519951
 20
-0.6925509999999999
 30
0.0
 11
42.430637
 21
-0.649419
 31
0.0
  0
LINE
  5
8F8
330
1F
100
AcDbEntity
  8
1
  6
CONTINUOUS
370
50
 62
4
100
AcDbLine
 10
43.594627
 20
-0.6919919999999999
 30
0.0
 11
43.515812
 21
-0.6539539999999999
 31
0.0
  0
LINE
  5
8F9
330
1F
100
AcDbEntity
  8
1
  6
CONTINUOUS
370
50
 62
4
100
AcDbLine
 10
40.40494899999999
 20
-0.425279
 30
0.0
 11
40.383675
 21
-0.415152
 31
0.0
  0
LINE
  5
8FA
330
1F
100
AcDbEntity
  8
1
  6
CONTINUOUS
370
50
 62
4
100
AcDbLine
 10
40.72229799999999
 20
0.661937
 30
0.0
 11
40.63549
 21
0.7029019999999999
 31
0.0
  0
LINE
  5
8FB
330
1F
100
AcDbEntity
  8
1
  6
CONTINUOUS
370
50
 62
4
100
AcDbLine
 10
40.846142
 20
-0.7123419999999999
 30
0.0
 11
40.742512
 21
-0.664481
 31
0.0
  0
LINE
  5
8FC
330
1F
100
AcDbEntity
  8
1
  6
CONTINUOUS
370
50
 62
4
100
AcDbLine
 10
69.530991
 20
0.799918
 30
0.0
 11
69.530861
 21
0.799978
 31
0.0
  0
LINE
  5
8FD
330
1F
100
AcDbEntity
  8
1
  6
CONTINUOUS
370
50
 62
4
100
AcDbLine
 10
43.507984
 20
0.6673169999999999
 30
0.0
 11
43.430111
 21
0.7029989999999999
 31
0.0
  0
LINE
  5
8FE
330
1F
100
AcDbEntity
  8
1
  6
CONTINUOUS
370
50
 62
4
100
AcDbLine
 10
49.08709
 20
0.6729029999999999
 30
0.0
 11
49.002281
 21
0.711527
 31
0.0
  0
LINE
  5
8FF
330
1F
100
AcDbEntity
  8
1
  6
CONTINUOUS
370
50
 62
4
100
AcDbLine
 10
48.152199
 20
-0.7113269999999999
 30
0.0
 11
48.068268
 21
-0.673113
 31
0.0
  0
LINE
  5
900
330
1F
100
AcDbEntity
  8
1
  6
CONTINUOUS
370
50
 62
4
100
AcDbLine
 10
46.293449
 20
0.671663
 30
0.0
 11
46.208019
 21
0.710522
 31
0.0
  0
LINE
  5
901
330
1F
100
AcDbEntity
  8
1
  6
CONTINUOUS
370
50
 62
4
100
AcDbLine
 10
60.269634
 20
0.6726559999999999
 30
0.0
 11
60.185005
 21
0.711141
 31
0.0
  0
LINE
  5
902
330
1F
100
AcDbEntity
  8
1
  6
CONTINUOUS
370
50
 62
4
100
AcDbLine
 10
52.026501
 20
-0.71149
 30
0.0
 11
51.94207
 21
-0.6731159999999999
 31
0.0
  0
LINE
  5
903
330
1F
100
AcDbEntity
  8
1
  6
CONTINUOUS
370
50
 62
4
100
AcDbLine
 10
63.209476
 20
-0.7111689999999999
 30
0.0
 11
63.125065
 21
-0.672847
 31
0.0
  0
LINE
  5
904
330
1F
100
AcDbEntity
  8
1
  6
CONTINUOUS
370
50
 62
4
100
AcDbLine
 10
64.141029
 20
0.6736449999999999
 30
0.0
 11
64.057343
 21
0.711553
 31
0.0
  0
LINE
  5
905
330
1F
100
AcDbEntity
  8
1
  6
CONTINUOUS
370
50
 62
4
100
AcDbLine
 10
52.958042
 20
0.6740999999999999
 30
0.0
 11
52.874252
 21
0.712016
 31
0.0
  0
LINE
  5
906
330
1F
100
AcDbEntity
  8
1
  6
CONTINUOUS
370
50
 62
4
100
AcDbLine
 10
66.006554
 20
-0.711185
 30
0.0
 11
65.921677
 21
-0.672802
 31
0.0
  0
LINE
  5
907
330
1F
100
AcDbEntity
  8
1
  6
CONTINUOUS
370
50
 62
4
100
AcDbLine
 10
63.064907
 20
0.673354
 30
0.0
 11
62.980579
 21
0.7114849999999999
 31
0.0
  0
LINE
  5
908
330
1F
100
AcDbEntity
  8
1
  6
CONTINUOUS
370
50
 62
4
100
AcDbLine
 10
49.230133
 20
-0.711579
 30
0.0
 11
49.145245
 21
-0.673199
 31
0.0
  0
LINE
  5
909
330
1F
100
AcDbEntity
  8
1
  6
CONTINUOUS
370
50
 62
4
100
AcDbLine
 10
57.475979
 20
0.671663
 30
0.0
 11
57.390556
 21
0.710279
 31
0.0
  0
LINE
  5
90A
330
1F
100
AcDbEntity
  8
1
  6
CONTINUOUS
370
50
 62
4
100
AcDbLine
 10
50.160988
 20
0.6743709999999999
 30
0.0
 11
50.077358
 21
0.712167
 31
0.0
  0
LINE
  5
90B
330
1F
100
AcDbEntity
  8
1
  6
CONTINUOUS
370
50
 62
4
100
AcDbLine
 10
59.337193
 20
-0.7118289999999999
 30
0.0
 11
59.253712
 21
-0.674115
 31
0.0
  0
LINE
  5
90C
330
1F
100
AcDbEntity
  8
1
  6
CONTINUOUS
370
50
 62
4
100
AcDbLine
 10
54.823593
 20
-0.7115199999999999
 30
0.0
 11
54.73851
 21
-0.673168
 31
0.0
  0
LINE
  5
90D
330
1F
100
AcDbEntity
  8
1
  6
CONTINUOUS
370
50
 62
4
100
AcDbLine
 10
62.135994
 20
-0.712603
 30
0.0
 11
62.052673
 21
-0.675047
 31
0.0
  0
LINE
  5
90E
330
1F
100
AcDbEntity
  8
1
  6
CONTINUOUS
370
50
 62
4
100
AcDbLine
 10
61.344406
 20
0.6738649999999999
 30
0.0
 11
61.260399
 21
0.7116979999999999
 31
0.0
  0
LINE
  5
90F
330
1F
100
AcDbEntity
  8
1
  6
CONTINUOUS
370
50
 62
4
100
AcDbLine
 10
66.938362
 20
0.673287
 30
0.0
 11
66.854004
 21
0.7112499999999999
 31
0.0
  0
LINE
  5
910
330
1F
100
AcDbEntity
  8
1
  6
CONTINUOUS
370
50
 62
4
100
AcDbLine
 10
50.953613
 20
-0.713109
 30
0.0
 11
50.870251
 21
-0.675642
 31
0.0
  0
LINE
  5
911
330
1F
100
AcDbEntity
  8
1
  6
CONTINUOUS
370
50
 62
4
100
AcDbLine
 10
60.413731
 20
-0.7113079999999999
 30
0.0
 11
60.328442
 21
-0.6729879999999999
 31
0.0
  0
LINE
  5
912
330
1F
100
AcDbEntity
  8
1
  6
CONTINUOUS
370
50
 62
4
100
AcDbLine
 10
51.88068
 20
0.6744359999999999
 30
0.0
 11
51.795525
 21
0.7126439999999999
 31
0.0
  0
LINE
  5
913
330
1F
100
AcDbEntity
  8
1
  6
CONTINUOUS
370
50
 62
4
100
AcDbLine
 10
68.650734
 20
0.6754939999999999
 30
0.0
 11
68.578514
 21
0.707836
 31
0.0
  0
LINE
  5
914
330
1F
100
AcDbEntity
  8
1
  6
CONTINUOUS
370
50
 62
4
100
AcDbLine
 10
55.754559
 20
0.6740459999999999
 30
0.0
 11
55.67019699999999
 21
0.7118089999999999
 31
0.0
  0
LINE
  5
915
330
1F
100
AcDbEntity
  8
1
  6
CONTINUOUS
370
50
 62
4
100
AcDbLine
 10
65.864723
 20
0.6715749999999999
 30
0.0
 11
65.778793
 21
0.710013
 31
0.0
  0
LINE
  5
916
330
1F
100
AcDbEntity
  8
1
  6
CONTINUOUS
370
50
 62
4
100
AcDbLine
 10
64.930527
 20
-0.7116089999999999
 30
0.0
 11
64.84580199999999
 21
-0.673781
 31
0.0
  0
LINE
  5
917
330
1F
100
AcDbEntity
  8
1
  6
CONTINUOUS
370
50
 62
4
100
AcDbLine
 10
68.80229899999999
 20
-0.710873
 30
0.0
 11
68.71691899999999
 21
-0.6727719999999999
 31
0.0
  0
LINE
  5
918
330
1F
100
AcDbEntity
  8
1
  6
CONTINUOUS
370
50
 62
4
100
AcDbLine
 10
56.541397
 20
-0.711724
 30
0.0
 11
56.45715
 21
-0.674157
 31
0.0
  0
LINE
  5
919
330
1F
100
AcDbEntity
  8
1
  6
CONTINUOUS
370
50
 62
4
100
AcDbLine
 10
54.68156099999999
 20
0.671858
 30
0.0
 11
54.595383
 21
0.710271
 31
0.0
  0
LINE
  5
91A
330
1F
100
AcDbEntity
  8
1
  6
CONTINUOUS
370
50
 62
4
100
AcDbLine
 10
47.365849
 20
0.674442
 30
0.0
 11
47.280975
 21
0.712229
 31
0.0
  0
LINE
  5
91B
330
1F
100
AcDbEntity
  8
1
  6
CONTINUOUS
370
50
 62
4
100
AcDbLine
 10
44.57103
 20
0.6745939999999999
 30
0.0
 11
44.48645399999999
 21
0.712247
 31
0.0
  0
LINE
  5
91C
330
1F
100
AcDbEntity
  8
1
  6
CONTINUOUS
370
50
 62
4
100
AcDbLine
 10
67.723434
 20
-0.710665
 30
0.0
 11
67.638168
 21
-0.672754
 31
0.0
  0
LINE
  5
91D
330
1F
100
AcDbEntity
  8
1
  6
CONTINUOUS
370
50
 62
4
100
AcDbLine
 10
46.435345
 20
-0.711581
 30
0.0
 11
46.349369
 21
-0.673364
 31
0.0
  0
LINE
  5
91E
330
1F
100
AcDbEntity
  8
1
  6
CONTINUOUS
370
50
 62
4
100
AcDbLine
 10
57.61906099999999
 20
-0.711282
 30
0.0
 11
57.533344
 21
-0.6732
 31
0.0
  0
LINE
  5
91F
330
1F
100
AcDbEntity
  8
1
  6
CONTINUOUS
370
50
 62
4
100
AcDbLine
 10
40.598633
 20
0.742807
 30
0.0
 11
40.561787
 21
0.759138
 31
0.0
  0
LINE
  5
920
330
1F
100
AcDbEntity
  8
1
  6
CONTINUOUS
370
50
 62
4
100
AcDbLine
 10
58.54971699999999
 20
0.6740109999999999
 30
0.0
 11
58.464611
 21
0.7116979999999999
 31
0.0
  0
LINE
  5
921
330
1F
100
AcDbEntity
  8
1
  6
CONTINUOUS
370
50
 62
4
100
AcDbLine
 10
53.749325
 20
-0.71275
 30
0.0
 11
53.66461899999999
 21
-0.675322
 31
0.0
  0
LINE
  5
922
330
1F
100
AcDbEntity
  8
1
  6
CONTINUOUS
370
50
 62
4
100
AcDbLine
 10
40.383675
 20
-0.415152
 30
0.0
 11
40.362476
 21
-0.405835
 31
0.0
  0
LINE
  5
923
330
1F
100
AcDbEntity
  8
1
  6
CONTINUOUS
370
50
 62
4
100
AcDbLine
 10
40.206951
 20
-0.7686769999999999
 30
0.0
 11
40.167271
 21
-0.751405
 31
0.0
  0
LINE
  5
924
330
1F
100
AcDbEntity
  8
1
  6
CONTINUOUS
370
50
 62
4
100
AcDbLine
 10
69.594521
 20
-0.030483
 30
0.0
 11
69.581322
 21
-0.024827
 31
0.0
  0
LINE
  5
925
330
1F
100
AcDbEntity
  8
1
  6
CONTINUOUS
370
50
 62
4
100
AcDbLine
 10
45.38597499999999
 20
-0.7231949999999999
 30
0.0
 11
45.306557
 21
-0.689835
 31
0.0
  0
LINE
  5
926
330
1F
100
AcDbEntity
  8
1
  6
CONTINUOUS
370
50
 62
4
100
AcDbLine
 10
43.673027
 20
-0.7248509999999999
 30
0.0
 11
43.594627
 21
-0.6919919999999999
 31
0.0
  0
LINE
  5
927
330
1F
100
AcDbEntity
  8
1
  6
CONTINUOUS
370
50
 62
4
100
AcDbLine
 10
42.608921
 20
-0.728702
 30
0.0
 11
42.519951
 21
-0.6925509999999999
 31
0.0
  0
LINE
  5
928
330
1F
100
AcDbEntity
  8
1
  6
CONTINUOUS
370
50
 62
4
100
AcDbLine
 10
40.362476
 20
-0.405835
 30
0.0
 11
40.341354
 21
-0.397362
 31
0.0
  0
LINE
  5
929
330
1F
100
AcDbEntity
  8
1
  6
CONTINUOUS
370
50
 62
4
100
AcDbLine
 10
43.430111
 20
0.7029989999999999
 30
0.0
 11
43.353069
 21
0.7335039999999999
 31
0.0
  0
LINE
  5
92A
330
1F
100
AcDbEntity
  8
1
  6
CONTINUOUS
370
50
 62
4
100
AcDbLine
 10
68.578514
 20
0.707836
 30
0.0
 11
68.506714
 21
0.735682
 31
0.0
  0
LINE
  5
92B
330
1F
100
AcDbEntity
  8
1
  6
CONTINUOUS
370
50
 62
4
100
AcDbLine
 10
41.71743
 20
0.70007
 30
0.0
 11
41.60434
 21
0.74334
 31
0.0
  0
LINE
  5
92C
330
1F
100
AcDbEntity
  8
1
  6
CONTINUOUS
370
50
 62
4
100
AcDbLine
 10
46.208019
 20
0.710522
 30
0.0
 11
46.123173
 21
0.7427699999999999
 31
0.0
  0
LINE
  5
92D
330
1F
100
AcDbEntity
  8
1
  6
CONTINUOUS
370
50
 62
4
100
AcDbLine
 10
40.561787
 20
0.759138
 30
0.0
 11
40.52461599999999
 21
0.77325
 31
0.0
  0
LINE
  5
92E
330
1F
100
AcDbEntity
  8
1
  6
CONTINUOUS
370
50
 62
4
100
AcDbLine
 10
57.390556
 20
0.710279
 30
0.0
 11
57.305428
 21
0.742522
 31
0.0
  0
LINE
  5
92F
330
1F
100
AcDbEntity
  8
1
  6
CONTINUOUS
370
50
 62
4
100
AcDbLine
 10
60.185005
 20
0.711141
 30
0.0
 11
60.100338
 21
0.743065
 31
0.0
  0
LINE
  5
930
330
1F
100
AcDbEntity
  8
1
  6
CONTINUOUS
370
50
 62
4
100
AcDbLine
 10
66.090851
 20
-0.7429399999999999
 30
0.0
 11
66.006554
 21
-0.711185
 31
0.0
  0
LINE
  5
931
330
1F
100
AcDbEntity
  8
1
  6
CONTINUOUS
370
50
 62
4
100
AcDbLine
 10
54.90802
 20
-0.743323
 30
0.0
 11
54.823593
 21
-0.7115199999999999
 31
0.0
  0
LINE
  5
932
330
1F
100
AcDbEntity
  8
1
  6
CONTINUOUS
370
50
 62
4
100
AcDbLine
 10
61.260399
 20
0.7116979999999999
 30
0.0
 11
61.17671199999999
 21
0.743193
 31
0.0
  0
LINE
  5
933
330
1F
100
AcDbEntity
  8
1
  6
CONTINUOUS
370
50
 62
4
100
AcDbLine
 10
50.077358
 20
0.712167
 30
0.0
 11
49.993679
 21
0.743655
 31
0.0
  0
LINE
  5
934
330
1F
100
AcDbEntity
  8
1
  6
CONTINUOUS
370
50
 62
4
100
AcDbLine
 10
52.110996
 20
-0.743281
 30
0.0
 11
52.026501
 21
-0.71149
 31
0.0
  0
LINE
  5
935
330
1F
100
AcDbEntity
  8
1
  6
CONTINUOUS
370
50
 62
4
100
AcDbLine
 10
49.002281
 20
0.711527
 30
0.0
 11
48.917442
 21
0.743432
 31
0.0
  0
LINE
  5
936
330
1F
100
AcDbEntity
  8
1
  6
CONTINUOUS
370
50
 62
4
100
AcDbLine
 10
48.236885
 20
-0.74315
 30
0.0
 11
48.152199
 21
-0.7113269999999999
 31
0.0
  0
LINE
  5
937
330
1F
100
AcDbEntity
  8
1
  6
CONTINUOUS
370
50
 62
4
100
AcDbLine
 10
65.01454199999999
 20
-0.743149
 30
0.0
 11
64.930527
 21
-0.7116089999999999
 31
0.0
  0
LINE
  5
938
330
1F
100
AcDbEntity
  8
1
  6
CONTINUOUS
370
50
 62
4
100
AcDbLine
 10
47.280975
 20
0.712229
 30
0.0
 11
47.196999
 21
0.7437079999999999
 31
0.0
  0
LINE
  5
939
330
1F
100
AcDbEntity
  8
1
  6
CONTINUOUS
370
50
 62
4
100
AcDbLine
 10
68.887199
 20
-0.742688
 30
0.0
 11
68.80229899999999
 21
-0.710873
 31
0.0
  0
LINE
  5
93A
330
1F
100
AcDbEntity
  8
1
  6
CONTINUOUS
370
50
 62
4
100
AcDbLine
 10
51.036926
 20
-0.7443179999999999
 30
0.0
 11
50.953613
 21
-0.713109
 31
0.0
  0
LINE
  5
93B
330
1F
100
AcDbEntity
  8
1
  6
CONTINUOUS
370
50
 62
4
100
AcDbLine
 10
64.057343
 20
0.711553
 30
0.0
 11
63.973045
 21
0.743127
 31
0.0
  0
LINE
  5
93C
330
1F
100
AcDbEntity
  8
1
  6
CONTINUOUS
370
50
 62
4
100
AcDbLine
 10
63.294327
 20
-0.742941
 30
0.0
 11
63.209476
 21
-0.7111689999999999
 31
0.0
  0
LINE
  5
93D
330
1F
100
AcDbEntity
  8
1
  6
CONTINUOUS
370
50
 62
4
100
AcDbLine
 10
54.595383
 20
0.710271
 30
0.0
 11
54.50967
 21
0.742351
 31
0.0
  0
LINE
  5
93E
330
1F
100
AcDbEntity
  8
1
  6
CONTINUOUS
370
50
 62
4
100
AcDbLine
 10
62.219654
 20
-0.743903
 30
0.0
 11
62.135994
 21
-0.712603
 31
0.0
  0
LINE
  5
93F
330
1F
100
AcDbEntity
  8
1
  6
CONTINUOUS
370
50
 62
4
100
AcDbLine
 10
57.704105
 20
-0.743031
 30
0.0
 11
57.61906099999999
 21
-0.711282
 31
0.0
  0
LINE
  5
940
330
1F
100
AcDbEntity
  8
1
  6
CONTINUOUS
370
50
 62
4
100
AcDbLine
 10
58.464611
 20
0.7116979999999999
 30
0.0
 11
58.380188
 21
0.7432059999999999
 31
0.0
  0
LINE
  5
941
330
1F
100
AcDbEntity
  8
1
  6
CONTINUOUS
370
50
 62
4
100
AcDbLine
 10
52.874252
 20
0.712016
 30
0.0
 11
52.789848
 21
0.74351
 31
0.0
  0
LINE
  5
942
330
1F
100
AcDbEntity
  8
1
  6
CONTINUOUS
370
50
 62
4
100
AcDbLine
 10
53.83299299999999
 20
-0.743934
 30
0.0
 11
53.749325
 21
-0.71275
 31
0.0
  0
LINE
  5
943
330
1F
100
AcDbEntity
  8
1
  6
CONTINUOUS
370
50
 62
4
100
AcDbLine
 10
59.42118499999999
 20
-0.743091
 30
0.0
 11
59.337193
 21
-0.7118289999999999
 31
0.0
  0
LINE
  5
944
330
1F
100
AcDbEntity
  8
1
  6
CONTINUOUS
370
50
 62
4
100
AcDbLine
 10
46.520607
 20
-0.743288
 30
0.0
 11
46.435345
 21
-0.711581
 31
0.0
  0
LINE
  5
945
330
1F
100
AcDbEntity
  8
1
  6
CONTINUOUS
370
50
 62
4
100
AcDbLine
 10
65.778793
 20
0.710013
 30
0.0
 11
65.69278
 21
0.741968
 31
0.0
  0
LINE
  5
946
330
1F
100
AcDbEntity
  8
1
  6
CONTINUOUS
370
50
 62
4
100
AcDbLine
 10
62.980579
 20
0.7114849999999999
 30
0.0
 11
62.895584
 21
0.743008
 31
0.0
  0
LINE
  5
947
330
1F
100
AcDbEntity
  8
1
  6
CONTINUOUS
370
50
 62
4
100
AcDbLine
 10
67.808762
 20
-0.742296
 30
0.0
 11
67.723434
 21
-0.710665
 31
0.0
  0
LINE
  5
948
330
1F
100
AcDbEntity
  8
1
  6
CONTINUOUS
370
50
 62
4
100
AcDbLine
 10
49.315926
 20
-0.743347
 30
0.0
 11
49.230133
 21
-0.711579
 31
0.0
  0
LINE
  5
949
330
1F
100
AcDbEntity
  8
1
  6
CONTINUOUS
370
50
 62
4
100
AcDbLine
 10
70.0
 20
0.0
 30
0.0
 11
69.93210599999999
 21
0.025138
 31
0.0
  0
LINE
  5
94A
330
1F
100
AcDbEntity
  8
1
  6
CONTINUOUS
370
50
 62
4
100
AcDbLine
 10
66.854004
 20
0.7112499999999999
 30
0.0
 11
66.76911199999999
 21
0.742663
 31
0.0
  0
LINE
  5
94B
330
1F
100
AcDbEntity
  8
1
  6
CONTINUOUS
370
50
 62
4
100
AcDbLine
 10
44.48645399999999
 20
0.712247
 30
0.0
 11
44.401398
 21
0.743621
 31
0.0
  0
LINE
  5
94C
330
1F
100
AcDbEntity
  8
1
  6
CONTINUOUS
370
50
 62
4
100
AcDbLine
 10
60.499542
 20
-0.7429319999999999
 30
0.0
 11
60.413731
 21
-0.7113079999999999
 31
0.0
  0
LINE
  5
94D
330
1F
100
AcDbEntity
  8
1
  6
CONTINUOUS
370
50
 62
4
100
AcDbLine
 10
55.67019699999999
 20
0.7118089999999999
 30
0.0
 11
55.585121
 21
0.74315
 31
0.0
  0
LINE
  5
94E
330
1F
100
AcDbEntity
  8
1
  6
CONTINUOUS
370
50
 62
4
100
AcDbLine
 10
56.626526
 20
-0.743039
 30
0.0
 11
56.541397
 21
-0.711724
 31
0.0
  0
LINE
  5
94F
330
1F
100
AcDbEntity
  8
1
  6
CONTINUOUS
370
50
 62
4
100
AcDbLine
 10
51.795525
 20
0.7126439999999999
 30
0.0
 11
51.710075
 21
0.7439669999999999
 31
0.0
  0
LINE
  5
950
330
1F
100
AcDbEntity
  8
1
  6
CONTINUOUS
370
50
 62
4
100
AcDbLine
 10
40.949978
 20
-0.750209
 30
0.0
 11
40.846142
 21
-0.7123419999999999
 31
0.0
  0
LINE
  5
951
330
1F
100
AcDbEntity
  8
1
  6
CONTINUOUS
370
50
 62
4
100
AcDbLine
 10
43.199421
 20
-0.77745
 30
0.0
 11
43.19927999999999
 21
-0.777399
 31
0.0
  0
LINE
  5
952
330
1F
100
AcDbEntity
  8
1
  6
CONTINUOUS
370
50
 62
4
100
AcDbLine
 10
40.341354
 20
-0.397362
 30
0.0
 11
40.320305
 21
-0.389765
 31
0.0
  0
LINE
  5
953
330
1F
100
AcDbEntity
  8
1
  6
CONTINUOUS
370
50
 62
4
100
AcDbLine
 10
70.0
 20
0.0
 30
0.0
 11
69.930077
 21
0.025079
 31
0.0
  0
LINE
  5
954
330
1F
100
AcDbEntity
  8
1
  6
CONTINUOUS
370
50
 62
4
100
AcDbLine
 10
43.199856
 20
-0.777604
 30
0.0
 11
43.199711
 21
-0.7775519999999999
 31
0.0
  0
LINE
  5
955
330
1F
100
AcDbEntity
  8
1
  6
CONTINUOUS
370
50
 62
4
100
AcDbLine
 10
43.200001
 20
-0.777655
 30
0.0
 11
43.199856
 21
-0.777604
 31
0.0
  0
LINE
  5
956
330
1F
100
AcDbEntity
  8
1
  6
CONTINUOUS
370
50
 62
4
100
AcDbLine
 10
43.199711
 20
-0.7775519999999999
 30
0.0
 11
43.199421
 21
-0.77745
 31
0.0
  0
LINE
  5
957
330
1F
100
AcDbEntity
  8
1
  6
CONTINUOUS
370
50
 62
4
100
AcDbLine
 10
43.19927999999999
 20
-0.777399
 30
0.0
 11
43.199135
 21
-0.7773479999999999
 31
0.0
  0
LINE
  5
958
330
1F
100
AcDbEntity
  8
1
  6
CONTINUOUS
370
50
 62
4
100
AcDbLine
 10
43.750904
 20
-0.7520629999999999
 30
0.0
 11
43.673027
 21
-0.7248509999999999
 31
0.0
  0
LINE
  5
959
330
1F
100
AcDbEntity
  8
1
  6
CONTINUOUS
370
50
 62
4
100
AcDbLine
 10
45.465836
 20
-0.750748
 30
0.0
 11
45.38597499999999
 21
-0.7231949999999999
 31
0.0
  0
LINE
  5
95A
330
1F
100
AcDbEntity
  8
1
  6
CONTINUOUS
370
50
 62
4
100
AcDbLine
 10
40.247166
 20
-0.782133
 30
0.0
 11
40.206951
 21
-0.7686769999999999
 31
0.0
  0
LINE
  5
95B
330
1F
100
AcDbEntity
  8
1
  6
CONTINUOUS
370
50
 62
4
100
AcDbLine
 10
42.696594
 20
-0.757748
 30
0.0
 11
42.608921
 21
-0.728702
 31
0.0
  0
LINE
  5
95C
330
1F
100
AcDbEntity
  8
1
  6
CONTINUOUS
370
50
 62
4
100
AcDbLine
 10
43.353069
 20
0.7335039999999999
 30
0.0
 11
43.276562
 21
0.7585799999999999
 31
0.0
  0
LINE
  5
95D
330
1F
100
AcDbEntity
  8
1
  6
CONTINUOUS
370
50
 62
4
100
AcDbLine
 10
68.506714
 20
0.735682
 30
0.0
 11
68.43502
 21
0.7587929999999999
 31
0.0
  0
LINE
  5
95E
330
1F
100
AcDbEntity
  8
1
  6
CONTINUOUS
370
50
 62
4
100
AcDbLine
 10
40.320305
 20
-0.389765
 30
0.0
 11
40.299339
 21
-0.383083
 31
0.0
  0
LINE
  5
95F
330
1F
100
AcDbEntity
  8
1
  6
CONTINUOUS
370
50
 62
4
100
AcDbLine
 10
40.52461599999999
 20
0.77325
 30
0.0
 11
40.486778
 21
0.7847679999999999
 31
0.0
  0
LINE
  5
960
330
1F
100
AcDbEntity
  8
1
  6
CONTINUOUS
370
50
 62
4
100
AcDbLine
 10
69.607613
 20
-0.034467
 30
0.0
 11
69.594521
 21
-0.030483
 31
0.0
  0
LINE
  5
961
330
1F
100
AcDbEntity
  8
1
  6
CONTINUOUS
370
50
 62
4
100
AcDbLine
 10
46.123173
 20
0.7427699999999999
 30
0.0
 11
46.038448
 21
0.7680619999999999
 31
0.0
  0
LINE
  5
962
330
1F
100
AcDbEntity
  8
1
  6
CONTINUOUS
370
50
 62
4
100
AcDbLine
 10
57.305428
 20
0.742522
 30
0.0
 11
57.22053099999999
 21
0.767851
 31
0.0
  0
LINE
  5
963
330
1F
100
AcDbEntity
  8
1
  6
CONTINUOUS
370
50
 62
4
100
AcDbLine
 10
54.50967
 20
0.742351
 30
0.0
 11
54.424477
 21
0.767736
 31
0.0
  0
LINE
  5
964
330
1F
100
AcDbEntity
  8
1
  6
CONTINUOUS
370
50
 62
4
100
AcDbLine
 10
65.69278
 20
0.741968
 30
0.0
 11
65.607376
 21
0.7673
 31
0.0
  0
LINE
  5
965
330
1F
100
AcDbEntity
  8
1
  6
CONTINUOUS
370
50
 62
4
100
AcDbLine
 10
47.196999
 20
0.7437079999999999
 30
0.0
 11
47.113232
 21
0.768546
 31
0.0
  0
LINE
  5
966
330
1F
100
AcDbEntity
  8
1
  6
CONTINUOUS
370
50
 62
4
100
AcDbLine
 10
67.893433
 20
-0.7673979999999999
 30
0.0
 11
67.808762
 21
-0.742296
 31
0.0
  0
LINE
  5
967
330
1F
100
AcDbEntity
  8
1
  6
CONTINUOUS
370
50
 62
4
100
AcDbLine
 10
68.971603
 20
-0.7677069999999999
 30
0.0
 11
68.887199
 21
-0.742688
 31
0.0
  0
LINE
  5
968
330
1F
100
AcDbEntity
  8
1
  6
CONTINUOUS
370
50
 62
4
100
AcDbLine
 10
58.380188
 20
0.7432059999999999
 30
0.0
 11
58.29636
 21
0.768049
 31
0.0
  0
LINE
  5
969
330
1F
100
AcDbEntity
  8
1
  6
CONTINUOUS
370
50
 62
4
100
AcDbLine
 10
57.788612
 20
-0.7680629999999999
 30
0.0
 11
57.704105
 21
-0.743031
 31
0.0
  0
LINE
  5
96A
330
1F
100
AcDbEntity
  8
1
  6
CONTINUOUS
370
50
 62
4
100
AcDbLine
 10
54.992245
 20
-0.7682629999999999
 30
0.0
 11
54.90802
 21
-0.743323
 31
0.0
  0
LINE
  5
96B
330
1F
100
AcDbEntity
  8
1
  6
CONTINUOUS
370
50
 62
4
100
AcDbLine
 10
65.09867899999999
 20
-0.7680509999999999
 30
0.0
 11
65.01454199999999
 21
-0.743149
 31
0.0
  0
LINE
  5
96C
330
1F
100
AcDbEntity
  8
1
  6
CONTINUOUS
370
50
 62
4
100
AcDbLine
 10
46.605415
 20
-0.768373
 30
0.0
 11
46.520607
 21
-0.743288
 31
0.0
  0
LINE
  5
96D
330
1F
100
AcDbEntity
  8
1
  6
CONTINUOUS
370
50
 62
4
100
AcDbLine
 10
61.17671199999999
 20
0.743193
 30
0.0
 11
61.092533
 21
0.768069
 31
0.0
  0
LINE
  5
96E
330
1F
100
AcDbEntity
  8
1
  6
CONTINUOUS
370
50
 62
4
100
AcDbLine
 10
53.916317
 20
-0.76855
 30
0.0
 11
53.83299299999999
 21
-0.743934
 31
0.0
  0
LINE
  5
96F
330
1F
100
AcDbEntity
  8
1
  6
CONTINUOUS
370
50
 62
4
100
AcDbLine
 10
66.175316
 20
-0.7678659999999999
 30
0.0
 11
66.090851
 21
-0.7429399999999999
 31
0.0
  0
LINE
  5
970
330
1F
100
AcDbEntity
  8
1
  6
CONTINUOUS
370
50
 62
4
100
AcDbLine
 10
44.401398
 20
0.743621
 30
0.0
 11
44.316902
 21
0.768531
 31
0.0
  0
LINE
  5
971
330
1F
100
AcDbEntity
  8
1
  6
CONTINUOUS
370
50
 62
4
100
AcDbLine
 10
49.993679
 20
0.743655
 30
0.0
 11
49.909344
 21
0.768497
 31
0.0
  0
LINE
  5
972
330
1F
100
AcDbEntity
  8
1
  6
CONTINUOUS
370
50
 62
4
100
AcDbLine
 10
56.71108599999999
 20
-0.7679239999999999
 30
0.0
 11
56.626526
 21
-0.743039
 31
0.0
  0
LINE
  5
973
330
1F
100
AcDbEntity
  8
1
  6
CONTINUOUS
370
50
 62
4
100
AcDbLine
 10
60.100338
 20
0.743065
 30
0.0
 11
60.015297
 21
0.76803
 31
0.0
  0
LINE
  5
974
330
1F
100
AcDbEntity
  8
1
  6
CONTINUOUS
370
50
 62
4
100
AcDbLine
 10
51.120846
 20
-0.768921
 30
0.0
 11
51.036926
 21
-0.7443179999999999
 31
0.0
  0
LINE
  5
975
330
1F
100
AcDbEntity
  8
1
  6
CONTINUOUS
370
50
 62
4
100
AcDbLine
 10
55.585121
 20
0.74315
 30
0.0
 11
55.50024
 21
0.768025
 31
0.0
  0
LINE
  5
976
330
1F
100
AcDbEntity
  8
1
  6
CONTINUOUS
370
50
 62
4
100
AcDbLine
 10
60.58461399999999
 20
-0.767845
 30
0.0
 11
60.499542
 21
-0.7429319999999999
 31
0.0
  0
LINE
  5
977
330
1F
100
AcDbEntity
  8
1
  6
CONTINUOUS
370
50
 62
4
100
AcDbLine
 10
52.19635
 20
-0.768262
 30
0.0
 11
52.110996
 21
-0.743281
 31
0.0
  0
LINE
  5
978
330
1F
100
AcDbEntity
  8
1
  6
CONTINUOUS
370
50
 62
4
100
AcDbLine
 10
48.322178
 20
-0.768088
 30
0.0
 11
48.236885
 21
-0.74315
 31
0.0
  0
LINE
  5
979
330
1F
100
AcDbEntity
  8
1
  6
CONTINUOUS
370
50
 62
4
100
AcDbLine
 10
63.973045
 20
0.743127
 30
0.0
 11
63.888321
 21
0.767868
 31
0.0
  0
LINE
  5
97A
330
1F
100
AcDbEntity
  8
1
  6
CONTINUOUS
370
50
 62
4
100
AcDbLine
 10
62.303867
 20
-0.768481
 30
0.0
 11
62.219654
 21
-0.743903
 31
0.0
  0
LINE
  5
97B
330
1F
100
AcDbEntity
  8
1
  6
CONTINUOUS
370
50
 62
4
100
AcDbLine
 10
48.917442
 20
0.743432
 30
0.0
 11
48.831795
 21
0.768404
 31
0.0
  0
LINE
  5
97C
330
1F
100
AcDbEntity
  8
1
  6
CONTINUOUS
370
50
 62
4
100
AcDbLine
 10
49.401325
 20
-0.7682319999999999
 30
0.0
 11
49.315926
 21
-0.743347
 31
0.0
  0
LINE
  5
97D
330
1F
100
AcDbEntity
  8
1
  6
CONTINUOUS
370
50
 62
4
100
AcDbLine
 10
66.76911199999999
 20
0.742663
 30
0.0
 11
66.683838
 21
0.767504
 31
0.0
  0
LINE
  5
97E
330
1F
100
AcDbEntity
  8
1
  6
CONTINUOUS
370
50
 62
4
100
AcDbLine
 10
52.789848
 20
0.74351
 30
0.0
 11
52.704884
 21
0.768212
 31
0.0
  0
LINE
  5
97F
330
1F
100
AcDbEntity
  8
1
  6
CONTINUOUS
370
50
 62
4
100
AcDbLine
 10
63.380039
 20
-0.7678429999999999
 30
0.0
 11
63.294327
 21
-0.742941
 31
0.0
  0
LINE
  5
980
330
1F
100
AcDbEntity
  8
1
  6
CONTINUOUS
370
50
 62
4
100
AcDbLine
 10
51.710075
 20
0.7439669999999999
 30
0.0
 11
51.625591
 21
0.768494
 31
0.0
  0
LINE
  5
981
330
1F
100
AcDbEntity
  8
1
  6
CONTINUOUS
370
50
 62
4
100
AcDbLine
 10
59.50578299999999
 20
-0.7676449999999999
 30
0.0
 11
59.42118499999999
 21
-0.743091
 31
0.0
  0
LINE
  5
982
330
1F
100
AcDbEntity
  8
1
  6
CONTINUOUS
370
50
 62
4
100
AcDbLine
 10
62.895584
 20
0.743008
 30
0.0
 11
62.810123
 21
0.767771
 31
0.0
  0
LINE
  5
983
330
1F
100
AcDbEntity
  8
1
  6
CONTINUOUS
370
50
 62
4
100
AcDbLine
 10
69.537094
 20
0.7512409999999999
 30
0.0
 11
69.492706
 21
0.764099
 31
0.0
  0
LINE
  5
984
330
1F
100
AcDbEntity
  8
1
  6
CONTINUOUS
370
50
 62
4
100
AcDbLine
 10
41.60434
 20
0.74334
 30
0.0
 11
41.491001
 21
0.774643
 31
0.0
  0
LINE
  5
985
330
1F
100
AcDbEntity
  8
1
  6
CONTINUOUS
370
50
 62
4
100
AcDbLine
 10
40.299339
 20
-0.383083
 30
0.0
 11
40.27873599999999
 21
-0.377418
 31
0.0
  0
LINE
  5
986
330
1F
100
AcDbEntity
  8
1
  6
CONTINUOUS
370
50
 62
4
100
AcDbLine
 10
45.545052
 20
-0.7725019999999999
 30
0.0
 11
45.465836
 21
-0.750748
 31
0.0
  0
LINE
  5
987
330
1F
100
AcDbEntity
  8
1
  6
CONTINUOUS
370
50
 62
4
100
AcDbLine
 10
43.828751
 20
-0.773427
 30
0.0
 11
43.750904
 21
-0.7520629999999999
 31
0.0
  0
LINE
  5
988
330
1F
100
AcDbEntity
  8
1
  6
CONTINUOUS
370
50
 62
4
100
AcDbLine
 10
41.05557599999999
 20
-0.7776989999999999
 30
0.0
 11
40.949978
 21
-0.750209
 31
0.0
  0
LINE
  5
989
330
1F
100
AcDbEntity
  8
1
  6
CONTINUOUS
370
50
 62
4
100
AcDbLine
 10
43.276562
 20
0.7585799999999999
 30
0.0
 11
43.200001
 21
0.778044
 31
0.0
  0
LINE
  5
98A
330
1F
100
AcDbEntity
  8
1
  6
CONTINUOUS
370
50
 62
4
100
AcDbLine
 10
68.43502
 20
0.7587929999999999
 30
0.0
 11
68.363571
 21
0.776841
 31
0.0
  0
LINE
  5
98B
330
1F
100
AcDbEntity
  8
1
  6
CONTINUOUS
370
50
 62
4
100
AcDbLine
 10
42.783955
 20
-0.779431
 30
0.0
 11
42.696594
 21
-0.757748
 31
0.0
  0
LINE
  5
98C
330
1F
100
AcDbEntity
  8
1
  6
CONTINUOUS
370
50
 62
4
100
AcDbLine
 10
69.492706
 20
0.764099
 30
0.0
 11
69.448463
 21
0.7750239999999999
 31
0.0
  0
LINE
  5
98D
330
1F
100
AcDbEntity
  8
1
  6
CONTINUOUS
370
50
 62
4
100
AcDbLine
 10
40.287666
 20
-0.791839
 30
0.0
 11
40.247166
 21
-0.782133
 31
0.0
  0
LINE
  5
98E
330
1F
100
AcDbEntity
  8
1
  6
CONTINUOUS
370
50
 62
4
100
AcDbLine
 10
40.27873599999999
 20
-0.377418
 30
0.0
 11
40.258617
 21
-0.372788
 31
0.0
  0
LINE
  5
98F
330
1F
100
AcDbEntity
  8
1
  6
CONTINUOUS
370
50
 62
4
100
AcDbLine
 10
40.486778
 20
0.7847679999999999
 30
0.0
 11
40.44792899999999
 21
0.793318
 31
0.0
  0
LINE
  5
990
330
1F
100
AcDbEntity
  8
1
  6
CONTINUOUS
370
50
 62
4
100
AcDbLine
 10
54.424477
 20
0.767736
 30
0.0
 11
54.33990499999999
 21
0.7859609999999999
 31
0.0
  0
LINE
  5
991
330
1F
100
AcDbEntity
  8
1
  6
CONTINUOUS
370
50
 62
4
100
AcDbLine
 10
65.607376
 20
0.7673
 30
0.0
 11
65.522621
 21
0.785542
 31
0.0
  0
LINE
  5
992
330
1F
100
AcDbEntity
  8
1
  6
CONTINUOUS
370
50
 62
4
100
AcDbLine
 10
67.97790499999999
 20
-0.7855369999999999
 30
0.0
 11
67.893433
 21
-0.7673979999999999
 31
0.0
  0
LINE
  5
993
330
1F
100
AcDbEntity
  8
1
  6
CONTINUOUS
370
50
 62
4
100
AcDbLine
 10
56.795147
 20
-0.785944
 30
0.0
 11
56.71108599999999
 21
-0.7679239999999999
 31
0.0
  0
LINE
  5
994
330
1F
100
AcDbEntity
  8
1
  6
CONTINUOUS
370
50
 62
4
100
AcDbLine
 10
46.689568
 20
-0.7863939999999999
 30
0.0
 11
46.605415
 21
-0.768373
 31
0.0
  0
LINE
  5
995
330
1F
100
AcDbEntity
  8
1
  6
CONTINUOUS
370
50
 62
4
100
AcDbLine
 10
44.316902
 20
0.768531
 30
0.0
 11
44.232956
 21
0.7864939999999999
 31
0.0
  0
LINE
  5
996
330
1F
100
AcDbEntity
  8
1
  6
CONTINUOUS
370
50
 62
4
100
AcDbLine
 10
55.50024
 20
0.768025
 30
0.0
 11
55.416183
 21
0.785998
 31
0.0
  0
LINE
  5
997
330
1F
100
AcDbEntity
  8
1
  6
CONTINUOUS
370
50
 62
4
100
AcDbLine
 10
57.872662
 20
-0.786024
 30
0.0
 11
57.788612
 21
-0.7680629999999999
 31
0.0
  0
LINE
  5
998
330
1F
100
AcDbEntity
  8
1
  6
CONTINUOUS
370
50
 62
4
100
AcDbLine
 10
58.29636
 20
0.768049
 30
0.0
 11
58.21228799999999
 21
0.78601
 31
0.0
  0
LINE
  5
999
330
1F
100
AcDbEntity
  8
1
  6
CONTINUOUS
370
50
 62
4
100
AcDbLine
 10
66.683838
 20
0.767504
 30
0.0
 11
66.599144
 21
0.785562
 31
0.0
  0
LINE
  5
99A
330
1F
100
AcDbEntity
  8
1
  6
CONTINUOUS
370
50
 62
4
100
AcDbLine
 10
60.669231
 20
-0.785878
 30
0.0
 11
60.58461399999999
 21
-0.767845
 31
0.0
  0
LINE
  5
99B
330
1F
100
AcDbEntity
  8
1
  6
CONTINUOUS
370
50
 62
4
100
AcDbLine
 10
57.22053099999999
 20
0.767851
 30
0.0
 11
57.135361
 21
0.786001
 31
0.0
  0
LINE
  5
99C
330
1F
100
AcDbEntity
  8
1
  6
CONTINUOUS
370
50
 62
4
100
AcDbLine
 10
69.055885
 20
-0.785659
 30
0.0
 11
68.971603
 21
-0.7677069999999999
 31
0.0
  0
LINE
  5
99D
330
1F
100
AcDbEntity
  8
1
  6
CONTINUOUS
370
50
 62
4
100
AcDbLine
 10
47.113232
 20
0.768546
 30
0.0
 11
47.028912
 21
0.786493
 31
0.0
  0
LINE
  5
99E
330
1F
100
AcDbEntity
  8
1
  6
CONTINUOUS
370
50
 62
4
100
AcDbLine
 10
46.038448
 20
0.7680619999999999
 30
0.0
 11
45.952923
 21
0.7862589999999999
 31
0.0
  0
LINE
  5
99F
330
1F
100
AcDbEntity
  8
1
  6
CONTINUOUS
370
50
 62
4
100
AcDbLine
 10
49.486168
 20
-0.786264
 30
0.0
 11
49.401325
 21
-0.7682319999999999
 31
0.0
  0
LINE
  5
9A0
330
1F
100
AcDbEntity
  8
1
  6
CONTINUOUS
370
50
 62
4
100
AcDbLine
 10
54.000168
 20
-0.7863519999999999
 30
0.0
 11
53.916317
 21
-0.76855
 31
0.0
  0
LINE
  5
9A1
330
1F
100
AcDbEntity
  8
1
  6
CONTINUOUS
370
50
 62
4
100
AcDbLine
 10
51.625591
 20
0.768494
 30
0.0
 11
51.54163399999999
 21
0.786303
 31
0.0
  0
LINE
  5
9A2
330
1F
100
AcDbEntity
  8
1
  6
CONTINUOUS
370
50
 62
4
100
AcDbLine
 10
62.810123
 20
0.767771
 30
0.0
 11
62.725292
 21
0.7857489999999999
 31
0.0
  0
LINE
  5
9A3
330
1F
100
AcDbEntity
  8
1
  6
CONTINUOUS
370
50
 62
4
100
AcDbLine
 10
59.591171
 20
-0.785729
 30
0.0
 11
59.50578299999999
 21
-0.7676449999999999
 31
0.0
  0
LINE
  5
9A4
330
1F
100
AcDbEntity
  8
1
  6
CONTINUOUS
370
50
 62
4
100
AcDbLine
 10
65.182953
 20
-0.7858959999999999
 30
0.0
 11
65.09867899999999
 21
-0.7680509999999999
 31
0.0
  0
LINE
  5
9A5
330
1F
100
AcDbEntity
  8
1
  6
CONTINUOUS
370
50
 62
4
100
AcDbLine
 10
55.077118
 20
-0.786199
 30
0.0
 11
54.992245
 21
-0.7682629999999999
 31
0.0
  0
LINE
  5
9A6
330
1F
100
AcDbEntity
  8
1
  6
CONTINUOUS
370
50
 62
4
100
AcDbLine
 10
61.092533
 20
0.768069
 30
0.0
 11
61.007881
 21
0.785937
 31
0.0
  0
LINE
  5
9A7
330
1F
100
AcDbEntity
  8
1
  6
CONTINUOUS
370
50
 62
4
100
AcDbLine
 10
48.407829
 20
-0.7861119999999999
 30
0.0
 11
48.322178
 21
-0.768088
 31
0.0
  0
LINE
  5
9A8
330
1F
100
AcDbEntity
  8
1
  6
CONTINUOUS
370
50
 62
4
100
AcDbLine
 10
52.704884
 20
0.768212
 30
0.0
 11
52.619591
 21
0.7861389999999999
 31
0.0
  0
LINE
  5
9A9
330
1F
100
AcDbEntity
  8
1
  6
CONTINUOUS
370
50
 62
4
100
AcDbLine
 10
49.909344
 20
0.768497
 30
0.0
 11
49.824554
 21
0.7863169999999999
 31
0.0
  0
LINE
  5
9AA
330
1F
100
AcDbEntity
  8
1
  6
CONTINUOUS
370
50
 62
4
100
AcDbLine
 10
63.46520599999999
 20
-0.785736
 30
0.0
 11
63.380039
 21
-0.7678429999999999
 31
0.0
  0
LINE
  5
9AB
330
1F
100
AcDbEntity
  8
1
  6
CONTINUOUS
370
50
 62
4
100
AcDbLine
 10
66.26068099999999
 20
-0.785774
 30
0.0
 11
66.175316
 21
-0.7678659999999999
 31
0.0
  0
LINE
  5
9AC
330
1F
100
AcDbEntity
  8
1
  6
CONTINUOUS
370
50
 62
4
100
AcDbLine
 10
48.831795
 20
0.768404
 30
0.0
 11
48.746361
 21
0.786289
 31
0.0
  0
LINE
  5
9AD
330
1F
100
AcDbEntity
  8
1
  6
CONTINUOUS
370
50
 62
4
100
AcDbLine
 10
52.28189099999999
 20
-0.7861589999999999
 30
0.0
 11
52.19635
 21
-0.768262
 31
0.0
  0
LINE
  5
9AE
330
1F
100
AcDbEntity
  8
1
  6
CONTINUOUS
370
50
 62
4
100
AcDbLine
 10
63.888321
 20
0.767868
 30
0.0
 11
63.80288299999999
 21
0.785727
 31
0.0
  0
LINE
  5
9AF
330
1F
100
AcDbEntity
  8
1
  6
CONTINUOUS
370
50
 62
4
100
AcDbLine
 10
60.015297
 20
0.76803
 30
0.0
 11
59.929665
 21
0.7858999999999999
 31
0.0
  0
LINE
  5
9B0
330
1F
100
AcDbEntity
  8
1
  6
CONTINUOUS
370
50
 62
4
100
AcDbLine
 10
51.205273
 20
-0.786539
 30
0.0
 11
51.120846
 21
-0.768921
 31
0.0
  0
LINE
  5
9B1
330
1F
100
AcDbEntity
  8
1
  6
CONTINUOUS
370
50
 62
4
100
AcDbLine
 10
62.388699
 20
-0.786079
 30
0.0
 11
62.303867
 21
-0.768481
 31
0.0
  0
LINE
  5
9B2
330
1F
100
AcDbEntity
  8
1
  6
CONTINUOUS
370
50
 62
4
100
AcDbLine
 10
69.448463
 20
0.7750239999999999
 30
0.0
 11
69.404228
 21
0.783998
 31
0.0
  0
LINE
  5
9B3
330
1F
100
AcDbEntity
  8
1
  6
CONTINUOUS
370
50
 62
4
100
AcDbLine
 10
45.623512
 20
-0.7882049999999999
 30
0.0
 11
45.545052
 21
-0.7725019999999999
 31
0.0
  0
LINE
  5
9B4
330
1F
100
AcDbEntity
  8
1
  6
CONTINUOUS
370
50
 62
4
100
AcDbLine
 10
43.90707
 20
-0.7887719999999999
 30
0.0
 11
43.828751
 21
-0.773427
 31
0.0
  0
LINE
  5
9B5
330
1F
100
AcDbEntity
  8
1
  6
CONTINUOUS
370
50
 62
4
100
AcDbLine
 10
43.199135
 20
0.7773479999999999
 30
0.0
 11
43.159771
 21
0.785007
 31
0.0
  0
LINE
  5
9B6
330
1F
100
AcDbEntity
  8
1
  6
CONTINUOUS
370
50
 62
4
100
AcDbLine
 10
40.258617
 20
-0.372788
 30
0.0
 11
40.239002
 21
-0.369171
 31
0.0
  0
LINE
  5
9B7
330
1F
100
AcDbEntity
  8
1
  6
CONTINUOUS
370
50
 62
4
100
AcDbLine
 10
69.530861
 20
0.799978
 30
0.0
 11
69.530739
 21
0.7999999999999999
 31
0.0
  0
LINE
  5
9B8
330
1F
100
AcDbEntity
  8
1
  6
CONTINUOUS
370
50
 62
4
100
AcDbLine
 10
68.363571
 20
0.776841
 30
0.0
 11
68.291885
 21
0.789759
 31
0.0
  0
LINE
  5
9B9
330
1F
100
AcDbEntity
  8
1
  6
CONTINUOUS
370
50
 62
4
100
AcDbLine
 10
69.620575
 20
-0.036794
 30
0.0
 11
69.607613
 21
-0.034467
 31
0.0
  0
LINE
  5
9BA
330
1F
100
AcDbEntity
  8
1
  6
CONTINUOUS
370
50
 62
4
100
AcDbLine
 10
41.491001
 20
0.774643
 30
0.0
 11
41.378857
 21
0.7936679999999999
 31
0.0
  0
LINE
  5
9BB
330
1F
100
AcDbEntity
  8
1
  6
CONTINUOUS
370
50
 62
4
100
AcDbLine
 10
42.87200199999999
 20
-0.793499
 30
0.0
 11
42.783955
 21
-0.779431
 31
0.0
  0
LINE
  5
9BC
330
1F
100
AcDbEntity
  8
1
  6
CONTINUOUS
370
50
 62
4
100
AcDbLine
 10
69.404228
 20
0.783998
 30
0.0
 11
69.359894
 21
0.791003
 31
0.0
  0
LINE
  5
9BD
330
1F
100
AcDbEntity
  8
1
  6
CONTINUOUS
370
50
 62
4
100
AcDbLine
 10
41.161949
 20
-0.794354
 30
0.0
 11
41.05557599999999
 21
-0.7776989999999999
 31
0.0
  0
LINE
  5
9BE
330
1F
100
AcDbEntity
  8
1
  6
CONTINUOUS
370
50
 62
4
100
AcDbLine
 10
43.159771
 20
0.785007
 30
0.0
 11
43.120388
 21
0.791088
 31
0.0
  0
LINE
  5
9BF
330
1F
100
AcDbEntity
  8
1
  6
CONTINUOUS
370
50
 62
4
100
AcDbLine
 10
40.328236
 20
-0.7977949999999999
 30
0.0
 11
40.287666
 21
-0.791839
 31
0.0
  0
LINE
  5
9C0
330
1F
100
AcDbEntity
  8
1
  6
CONTINUOUS
370
50
 62
4
100
AcDbLine
 10
40.239002
 20
-0.369171
 30
0.0
 11
40.219906
 21
-0.366549
 31
0.0
  0
LINE
  5
9C1
330
1F
100
AcDbEntity
  8
1
  6
CONTINUOUS
370
50
 62
4
100
AcDbLine
 10
40.44792899999999
 20
0.793318
 30
0.0
 11
40.408363
 21
0.798469
 31
0.0
  0
LINE
  5
9C2
330
1F
100
AcDbEntity
  8
1
  6
CONTINUOUS
370
50
 62
4
100
AcDbLine
 10
69.93480699999999
 20
0.008485
 30
0.0
 11
69.73597
 21
0.034366
 31
0.0
  0
LINE
  5
9C3
330
1F
100
AcDbEntity
  8
1
  6
CONTINUOUS
370
50
 62
4
100
AcDbLine
 10
65.522621
 20
0.785542
 30
0.0
 11
65.438171
 21
0.7965
 31
0.0
  0
LINE
  5
9C4
330
1F
100
AcDbEntity
  8
1
  6
CONTINUOUS
370
50
 62
4
100
AcDbLine
 10
59.67572
 20
-0.7966909999999999
 30
0.0
 11
59.591171
 21
-0.785729
 31
0.0
  0
LINE
  5
9C5
330
1F
100
AcDbEntity
  8
1
  6
CONTINUOUS
370
50
 62
4
100
AcDbLine
 10
55.416183
 20
0.785998
 30
0.0
 11
55.332157
 21
0.7968879999999999
 31
0.0
  0
LINE
  5
9C6
330
1F
100
AcDbEntity
  8
1
  6
CONTINUOUS
370
50
 62
4
100
AcDbLine
 10
66.599144
 20
0.785562
 30
0.0
 11
66.514969
 21
0.796466
 31
0.0
  0
LINE
  5
9C7
330
1F
100
AcDbEntity
  8
1
  6
CONTINUOUS
370
50
 62
4
100
AcDbLine
 10
54.33990499999999
 20
0.7859609999999999
 30
0.0
 11
54.255215
 21
0.796924
 31
0.0
  0
LINE
  5
9C8
330
1F
100
AcDbEntity
  8
1
  6
CONTINUOUS
370
50
 62
4
100
AcDbLine
 10
56.879414
 20
-0.79685
 30
0.0
 11
56.795147
 21
-0.785944
 31
0.0
  0
LINE
  5
9C9
330
1F
100
AcDbEntity
  8
1
  6
CONTINUOUS
370
50
 62
4
100
AcDbLine
 10
48.492786
 20
-0.797102
 30
0.0
 11
48.407829
 21
-0.7861119999999999
 31
0.0
  0
LINE
  5
9CA
330
1F
100
AcDbEntity
  8
1
  6
CONTINUOUS
370
50
 62
4
100
AcDbLine
 10
62.725292
 20
0.7857489999999999
 30
0.0
 11
62.64094499999999
 21
0.796639
 31
0.0
  0
LINE
  5
9CB
330
1F
100
AcDbEntity
  8
1
  6
CONTINUOUS
370
50
 62
4
100
AcDbLine
 10
49.570381
 20
-0.7971349999999999
 30
0.0
 11
49.486168
 21
-0.786264
 31
0.0
  0
LINE
  5
9CC
330
1F
100
AcDbEntity
  8
1
  6
CONTINUOUS
370
50
 62
4
100
AcDbLine
 10
60.753223
 20
-0.796717
 30
0.0
 11
60.669231
 21
-0.785878
 31
0.0
  0
LINE
  5
9CD
330
1F
100
AcDbEntity
  8
1
  6
CONTINUOUS
370
50
 62
4
100
AcDbLine
 10
44.232956
 20
0.7864939999999999
 30
0.0
 11
44.148872
 21
0.7973439999999999
 31
0.0
  0
LINE
  5
9CE
330
1F
100
AcDbEntity
  8
1
  6
CONTINUOUS
370
50
 62
4
100
AcDbLine
 10
68.062439
 20
-0.796439
 30
0.0
 11
67.97790499999999
 21
-0.7855369999999999
 31
0.0
  0
LINE
  5
9CF
330
1F
100
AcDbEntity
  8
1
  6
CONTINUOUS
370
50
 62
4
100
AcDbLine
 10
51.54163399999999
 20
0.786303
 30
0.0
 11
51.45796199999999
 21
0.797087
 31
0.0
  0
LINE
  5
9D0
330
1F
100
AcDbEntity
  8
1
  6
CONTINUOUS
370
50
 62
4
100
AcDbLine
 10
46.773727
 20
-0.79724
 30
0.0
 11
46.689568
 21
-0.7863939999999999
 31
0.0
  0
LINE
  5
9D1
330
1F
100
AcDbEntity
  8
1
  6
CONTINUOUS
370
50
 62
4
100
AcDbLine
 10
52.619591
 20
0.7861389999999999
 30
0.0
 11
52.535202
 21
0.797003
 31
0.0
  0
LINE
  5
9D2
330
1F
100
AcDbEntity
  8
1
  6
CONTINUOUS
370
50
 62
4
100
AcDbLine
 10
48.746361
 20
0.786289
 30
0.0
 11
48.66181599999999
 21
0.7971389999999999
 31
0.0
  0
LINE
  5
9D3
330
1F
100
AcDbEntity
  8
1
  6
CONTINUOUS
370
50
 62
4
100
AcDbLine
 10
63.549881
 20
-0.7966
 30
0.0
 11
63.46520599999999
 21
-0.785736
 31
0.0
  0
LINE
  5
9D4
330
1F
100
AcDbEntity
  8
1
  6
CONTINUOUS
370
50
 62
4
100
AcDbLine
 10
57.957085
 20
-0.7968379999999999
 30
0.0
 11
57.872662
 21
-0.786024
 31
0.0
  0
LINE
  5
9D5
330
1F
100
AcDbEntity
  8
1
  6
CONTINUOUS
370
50
 62
4
100
AcDbLine
 10
63.80288299999999
 20
0.785727
 30
0.0
 11
63.718056
 21
0.796585
 31
0.0
  0
LINE
  5
9D6
330
1F
100
AcDbEntity
  8
1
  6
CONTINUOUS
370
50
 62
4
100
AcDbLine
 10
58.21228799999999
 20
0.78601
 30
0.0
 11
58.127617
 21
0.796839
 31
0.0
  0
LINE
  5
9D7
330
1F
100
AcDbEntity
  8
1
  6
CONTINUOUS
370
50
 62
4
100
AcDbLine
 10
52.366734
 20
-0.7970079999999999
 30
0.0
 11
52.28189099999999
 21
-0.7861589999999999
 31
0.0
  0
LINE
  5
9D8
330
1F
100
AcDbEntity
  8
1
  6
CONTINUOUS
370
50
 62
4
100
AcDbLine
 10
59.929665
 20
0.7858999999999999
 30
0.0
 11
59.84464999999999
 21
0.796727
 31
0.0
  0
LINE
  5
9D9
330
1F
100
AcDbEntity
  8
1
  6
CONTINUOUS
370
50
 62
4
100
AcDbLine
 10
47.028912
 20
0.786493
 30
0.0
 11
46.944157
 21
0.797267
 31
0.0
  0
LINE
  5
9DA
330
1F
100
AcDbEntity
  8
1
  6
CONTINUOUS
370
50
 62
4
100
AcDbLine
 10
45.952923
 20
0.7862589999999999
 30
0.0
 11
45.86663799999999
 21
0.797215
 31
0.0
  0
LINE
  5
9DB
330
1F
100
AcDbEntity
  8
1
  6
CONTINUOUS
370
50
 62
4
100
AcDbLine
 10
69.140877
 20
-0.79645
 30
0.0
 11
69.055885
 21
-0.785659
 31
0.0
  0
LINE
  5
9DC
330
1F
100
AcDbEntity
  8
1
  6
CONTINUOUS
370
50
 62
4
100
AcDbLine
 10
54.084557
 20
-0.797041
 30
0.0
 11
54.000168
 21
-0.7863519999999999
 31
0.0
  0
LINE
  5
9DD
330
1F
100
AcDbEntity
  8
1
  6
CONTINUOUS
370
50
 62
4
100
AcDbLine
 10
57.135361
 20
0.786001
 30
0.0
 11
57.049377
 21
0.796866
 31
0.0
  0
LINE
  5
9DE
330
1F
100
AcDbEntity
  8
1
  6
CONTINUOUS
370
50
 62
4
100
AcDbLine
 10
49.824554
 20
0.7863169999999999
 30
0.0
 11
49.739079
 21
0.7971159999999999
 31
0.0
  0
LINE
  5
9DF
330
1F
100
AcDbEntity
  8
1
  6
CONTINUOUS
370
50
 62
4
100
AcDbLine
 10
61.007881
 20
0.785937
 30
0.0
 11
60.922546
 21
0.7967019999999999
 31
0.0
  0
LINE
  5
9E0
330
1F
100
AcDbEntity
  8
1
  6
CONTINUOUS
370
50
 62
4
100
AcDbLine
 10
65.26783
 20
-0.796599
 30
0.0
 11
65.182953
 21
-0.7858959999999999
 31
0.0
  0
LINE
  5
9E1
330
1F
100
AcDbEntity
  8
1
  6
CONTINUOUS
370
50
 62
4
100
AcDbLine
 10
66.345955
 20
-0.796512
 30
0.0
 11
66.26068099999999
 21
-0.785774
 31
0.0
  0
LINE
  5
9E2
330
1F
100
AcDbEntity
  8
1
  6
CONTINUOUS
370
50
 62
4
100
AcDbLine
 10
55.162659
 20
-0.796952
 30
0.0
 11
55.077118
 21
-0.786199
 31
0.0
  0
LINE
  5
9E3
330
1F
100
AcDbEntity
  8
1
  6
CONTINUOUS
370
50
 62
4
100
AcDbLine
 10
62.473408
 20
-0.7967019999999999
 30
0.0
 11
62.388699
 21
-0.786079
 31
0.0
  0
LINE
  5
9E4
330
1F
100
AcDbEntity
  8
1
  6
CONTINUOUS
370
50
 62
4
100
AcDbLine
 10
51.29013399999999
 20
-0.797129
 30
0.0
 11
51.205273
 21
-0.786539
 31
0.0
  0
LINE
  5
9E5
330
1F
100
AcDbEntity
  8
1
  6
CONTINUOUS
370
50
 62
4
100
AcDbLine
 10
45.70193099999999
 20
-0.797715
 30
0.0
 11
45.623512
 21
-0.7882049999999999
 31
0.0
  0
LINE
  5
9E6
330
1F
100
AcDbEntity
  8
1
  6
CONTINUOUS
370
50
 62
4
100
AcDbLine
 10
43.985874
 20
-0.797932
 30
0.0
 11
43.90707
 21
-0.7887719999999999
 31
0.0
  0
LINE
  5
9E7
330
1F
100
AcDbEntity
  8
1
  6
CONTINUOUS
370
50
 62
4
100
AcDbLine
 10
43.120388
 20
0.791088
 30
0.0
 11
43.080879
 21
0.795593
 31
0.0
  0
LINE
  5
9E8
330
1F
100
AcDbEntity
  8
1
  6
CONTINUOUS
370
50
 62
4
100
AcDbLine
 10
69.359894
 20
0.791003
 30
0.0
 11
69.315384
 21
0.7960149999999999
 31
0.0
  0
LINE
  5
9E9
330
1F
100
AcDbEntity
  8
1
  6
CONTINUOUS
370
50
 62
4
100
AcDbLine
 10
68.291885
 20
0.789759
 30
0.0
 11
68.219521
 21
0.797493
 31
0.0
  0
LINE
  5
9EA
330
1F
100
AcDbEntity
  8
1
  6
CONTINUOUS
370
50
 62
4
100
AcDbLine
 10
40.219906
 20
-0.366549
 30
0.0
 11
40.201347
 21
-0.364898
 31
0.0
  0
LINE
  5
9EB
330
1F
100
AcDbEntity
  8
1
  6
CONTINUOUS
370
50
 62
4
100
AcDbLine
 10
43.080879
 20
0.795593
 30
0.0
 11
43.041157
 21
0.7985289999999999
 31
0.0
  0
LINE
  5
9EC
330
1F
100
AcDbEntity
  8
1
  6
CONTINUOUS
370
50
 62
4
100
AcDbLine
 10
42.961296
 20
-0.7996989999999999
 30
0.0
 11
42.87200199999999
 21
-0.793499
 31
0.0
  0
LINE
  5
9ED
330
1F
100
AcDbEntity
  8
1
  6
CONTINUOUS
370
50
 62
4
100
AcDbLine
 10
69.315384
 20
0.7960149999999999
 30
0.0
 11
69.270798
 21
0.799014
 31
0.0
  0
LINE
  5
9EE
330
1F
100
AcDbEntity
  8
1
  6
CONTINUOUS
370
50
 62
4
100
AcDbLine
 10
41.378857
 20
0.7936679999999999
 30
0.0
 11
41.267075
 21
0.8000029999999999
 31
0.0
  0
LINE
  5
9EF
330
1F
100
AcDbEntity
  8
1
  6
CONTINUOUS
370
50
 62
4
100
AcDbLine
 10
40.368759
 20
-0.7999879999999999
 30
0.0
 11
40.328236
 21
-0.7977949999999999
 31
0.0
  0
LINE
  5
9F0
330
1F
100
AcDbEntity
  8
1
  6
CONTINUOUS
370
50
 62
4
100
AcDbLine
 10
69.63327799999999
 20
-0.037481
 30
0.0
 11
69.620575
 21
-0.036794
 31
0.0
  0
LINE
  5
9F1
330
1F
100
AcDbEntity
  8
1
  6
CONTINUOUS
370
50
 62
4
100
AcDbLine
 10
41.267075
 20
-0.8000029999999999
 30
0.0
 11
41.161949
 21
-0.794354
 31
0.0
  0
LINE
  5
9F2
330
1F
100
AcDbEntity
  8
1
  6
CONTINUOUS
370
50
 62
4
100
AcDbLine
 10
48.577484
 20
-0.800796
 30
0.0
 11
48.492786
 21
-0.797102
 31
0.0
  0
LINE
  5
9F3
330
1F
100
AcDbEntity
  8
1
  6
CONTINUOUS
370
50
 62
4
100
AcDbLine
 10
59.760201
 20
-0.8003709999999999
 30
0.0
 11
59.67572
 21
-0.7966909999999999
 31
0.0
  0
LINE
  5
9F4
330
1F
100
AcDbEntity
  8
1
  6
CONTINUOUS
370
50
 62
4
100
AcDbLine
 10
48.66181599999999
 20
0.7971389999999999
 30
0.0
 11
48.577484
 21
0.800796
 31
0.0
  0
LINE
  5
9F5
330
1F
100
AcDbEntity
  8
1
  6
CONTINUOUS
370
50
 62
4
100
AcDbLine
 10
52.535202
 20
0.797003
 30
0.0
 11
52.451118
 21
0.8006489999999999
 31
0.0
  0
LINE
  5
9F6
330
1F
100
AcDbEntity
  8
1
  6
CONTINUOUS
370
50
 62
4
100
AcDbLine
 10
66.514969
 20
0.796466
 30
0.0
 11
66.43057999999999
 21
0.800118
 31
0.0
  0
LINE
  5
9F7
330
1F
100
AcDbEntity
  8
1
  6
CONTINUOUS
370
50
 62
4
100
AcDbLine
 10
63.718056
 20
0.796585
 30
0.0
 11
63.63391499999999
 21
0.8002239999999999
 31
0.0
  0
LINE
  5
9F8
330
1F
100
AcDbEntity
  8
1
  6
CONTINUOUS
370
50
 62
4
100
AcDbLine
 10
62.64094499999999
 20
0.796639
 30
0.0
 11
62.557098
 21
0.800265
 31
0.0
  0
LINE
  5
9F9
330
1F
100
AcDbEntity
  8
1
  6
CONTINUOUS
370
50
 62
4
100
AcDbLine
 10
55.332157
 20
0.7968879999999999
 30
0.0
 11
55.247509
 21
0.800543
 31
0.0
  0
LINE
  5
9FA
330
1F
100
AcDbEntity
  8
1
  6
CONTINUOUS
370
50
 62
4
100
AcDbLine
 10
59.84464999999999
 20
0.796727
 30
0.0
 11
59.760201
 21
0.8003709999999999
 31
0.0
  0
LINE
  5
9FB
330
1F
100
AcDbEntity
  8
1
  6
CONTINUOUS
370
50
 62
4
100
AcDbLine
 10
52.451118
 20
-0.8006489999999999
 30
0.0
 11
52.366734
 21
-0.7970079999999999
 31
0.0
  0
LINE
  5
9FC
330
1F
100
AcDbEntity
  8
1
  6
CONTINUOUS
370
50
 62
4
100
AcDbLine
 10
63.63391499999999
 20
-0.8002239999999999
 30
0.0
 11
63.549881
 21
-0.7966
 31
0.0
  0
LINE
  5
9FD
330
1F
100
AcDbEntity
  8
1
  6
CONTINUOUS
370
50
 62
4
100
AcDbLine
 10
49.654339
 20
-0.800755
 30
0.0
 11
49.570381
 21
-0.7971349999999999
 31
0.0
  0
LINE
  5
9FE
330
1F
100
AcDbEntity
  8
1
  6
CONTINUOUS
370
50
 62
4
100
AcDbLine
 10
51.45796199999999
 20
0.797087
 30
0.0
 11
51.374268
 21
0.80069
 31
0.0
  0
LINE
  5
9FF
330
1F
100
AcDbEntity
  8
1
  6
CONTINUOUS
370
50
 62
4
100
AcDbLine
 10
65.438171
 20
0.7965
 30
0.0
 11
65.353111
 21
0.800159
 31
0.0
  0
LINE
  5
A00
330
1F
100
AcDbEntity
  8
1
  6
CONTINUOUS
370
50
 62
4
100
AcDbLine
 10
45.86663799999999
 20
0.797215
 30
0.0
 11
45.780872
 21
0.800902
 31
0.0
  0
LINE
  5
A01
330
1F
100
AcDbEntity
  8
1
  6
CONTINUOUS
370
50
 62
4
100
AcDbLine
 10
60.837326
 20
-0.80033
 30
0.0
 11
60.753223
 21
-0.796717
 31
0.0
  0
LINE
  5
A02
330
1F
100
AcDbEntity
  8
1
  6
CONTINUOUS
370
50
 62
4
100
AcDbLine
 10
49.739079
 20
0.7971159999999999
 30
0.0
 11
49.654339
 21
0.800755
 31
0.0
  0
LINE
  5
A03
330
1F
100
AcDbEntity
  8
1
  6
CONTINUOUS
370
50
 62
4
100
AcDbLine
 10
56.96398199999999
 20
-0.800477
 30
0.0
 11
56.879414
 21
-0.79685
 31
0.0
  0
LINE
  5
A04
330
1F
100
AcDbEntity
  8
1
  6
CONTINUOUS
370
50
 62
4
100
AcDbLine
 10
44.148872
 20
0.7973439999999999
 30
0.0
 11
44.064262
 21
0.800967
 31
0.0
  0
LINE
  5
A05
330
1F
100
AcDbEntity
  8
1
  6
CONTINUOUS
370
50
 62
4
100
AcDbLine
 10
54.255215
 20
0.796924
 30
0.0
 11
54.169563
 21
0.8005829999999999
 31
0.0
  0
LINE
  5
A06
330
1F
100
AcDbEntity
  8
1
  6
CONTINUOUS
370
50
 62
4
100
AcDbLine
 10
46.858685
 20
-0.8008609999999999
 30
0.0
 11
46.773727
 21
-0.79724
 31
0.0
  0
LINE
  5
A07
330
1F
100
AcDbEntity
  8
1
  6
CONTINUOUS
370
50
 62
4
100
AcDbLine
 10
66.43057999999999
 20
-0.800118
 30
0.0
 11
66.345955
 21
-0.796512
 31
0.0
  0
LINE
  5
A08
330
1F
100
AcDbEntity
  8
1
  6
CONTINUOUS
370
50
 62
4
100
AcDbLine
 10
68.147301
 20
-0.800053
 30
0.0
 11
68.062439
 21
-0.796439
 31
0.0
  0
LINE
  5
A09
330
1F
100
AcDbEntity
  8
1
  6
CONTINUOUS
370
50
 62
4
100
AcDbLine
 10
62.557098
 20
-0.800265
 30
0.0
 11
62.473408
 21
-0.7967019999999999
 31
0.0
  0
LINE
  5
A0A
330
1F
100
AcDbEntity
  8
1
  6
CONTINUOUS
370
50
 62
4
100
AcDbLine
 10
60.922546
 20
0.7967019999999999
 30
0.0
 11
60.837326
 21
0.80033
 31
0.0
  0
LINE
  5
A0B
330
1F
100
AcDbEntity
  8
1
  6
CONTINUOUS
370
50
 62
4
100
AcDbLine
 10
51.374268
 20
-0.80069
 30
0.0
 11
51.29013399999999
 21
-0.797129
 31
0.0
  0
LINE
  5
A0C
330
1F
100
AcDbEntity
  8
1
  6
CONTINUOUS
370
50
 62
4
100
AcDbLine
 10
55.247509
 20
-0.800543
 30
0.0
 11
55.162659
 21
-0.796952
 31
0.0
  0
LINE
  5
A0D
330
1F
100
AcDbEntity
  8
1
  6
CONTINUOUS
370
50
 62
4
100
AcDbLine
 10
57.049377
 20
0.796866
 30
0.0
 11
56.96398199999999
 21
0.800477
 31
0.0
  0
LINE
  5
A0E
330
1F
100
AcDbEntity
  8
1
  6
CONTINUOUS
370
50
 62
4
100
AcDbLine
 10
58.127617
 20
0.796839
 30
0.0
 11
58.042419
 21
0.8004359999999999
 31
0.0
  0
LINE
  5
A0F
330
1F
100
AcDbEntity
  8
1
  6
CONTINUOUS
370
50
 62
4
100
AcDbLine
 10
58.042419
 20
-0.8004359999999999
 30
0.0
 11
57.957085
 21
-0.7968379999999999
 31
0.0
  0
LINE
  5
A10
330
1F
100
AcDbEntity
  8
1
  6
CONTINUOUS
370
50
 62
4
100
AcDbLine
 10
46.944157
 20
0.797267
 30
0.0
 11
46.858685
 21
0.8008609999999999
 31
0.0
  0
LINE
  5
A11
330
1F
100
AcDbEntity
  8
1
  6
CONTINUOUS
370
50
 62
4
100
AcDbLine
 10
69.226074
 20
-0.800012
 30
0.0
 11
69.140877
 21
-0.79645
 31
0.0
  0
LINE
  5
A12
330
1F
100
AcDbEntity
  8
1
  6
CONTINUOUS
370
50
 62
4
100
AcDbLine
 10
65.353111
 20
-0.800159
 30
0.0
 11
65.26783
 21
-0.796599
 31
0.0
  0
LINE
  5
A13
330
1F
100
AcDbEntity
  8
1
  6
CONTINUOUS
370
50
 62
4
100
AcDbLine
 10
54.169563
 20
-0.8005829999999999
 30
0.0
 11
54.084557
 21
-0.797041
 31
0.0
  0
LINE
  5
A14
330
1F
100
AcDbEntity
  8
1
  6
CONTINUOUS
370
50
 62
4
100
AcDbLine
 10
45.780872
 20
-0.800902
 30
0.0
 11
45.70193099999999
 21
-0.797715
 31
0.0
  0
LINE
  5
A15
330
1F
100
AcDbEntity
  8
1
  6
CONTINUOUS
370
50
 62
4
100
AcDbLine
 10
40.201347
 20
-0.364898
 30
0.0
 11
40.183342
 21
-0.364198
 31
0.0
  0
LINE
  5
A16
330
1F
100
AcDbEntity
  8
1
  6
CONTINUOUS
370
50
 62
4
100
AcDbLine
 10
44.064262
 20
-0.800967
 30
0.0
 11
43.985874
 21
-0.797932
 31
0.0
  0
LINE
  5
A17
330
1F
100
AcDbEntity
  8
1
  6
CONTINUOUS
370
50
 62
4
100
AcDbLine
 10
40.408363
 20
0.798469
 30
0.0
 11
40.368755
 21
0.7999879999999999
 31
0.0
  0
LINE
  5
A18
330
1F
100
AcDbEntity
  8
1
  6
CONTINUOUS
370
50
 62
4
100
AcDbLine
 10
68.219521
 20
0.797493
 30
0.0
 11
68.147301
 21
0.800053
 31
0.0
  0
LINE
  5
A19
330
1F
100
AcDbEntity
  8
1
  6
CONTINUOUS
370
50
 62
4
100
AcDbLine
 10
43.041157
 20
0.7985289999999999
 30
0.0
 11
43.001251
 21
0.7998999999999999
 31
0.0
  0
LINE
  5
A1A
330
1F
100
AcDbEntity
  8
1
  6
CONTINUOUS
370
50
 62
4
100
AcDbLine
 10
69.270798
 20
0.799014
 30
0.0
 11
69.226074
 21
0.800012
 31
0.0
  0
LINE
  5
A1B
330
1F
100
AcDbEntity
  8
1
  6
CONTINUOUS
370
50
 62
4
100
AcDbLine
 10
43.001278
 20
-0.7998999999999999
 30
0.0
 11
42.961296
 21
-0.7996989999999999
 31
0.0
  0
LINE
  5
A1C
330
1F
100
AcDbEntity
  8
1
  6
CONTINUOUS
370
50
 62
4
100
AcDbLine
 10
69.530739
 20
0.7999999999999999
 30
0.0
 11
69.226074
 21
0.800012
 31
0.0
  0
LINE
  5
A1D
330
1F
100
AcDbEntity
  8
1
  6
CONTINUOUS
370
50
 62
4
100
AcDbLine
 10
48.577484
 20
0.800796
 30
0.0
 11
46.858685
 21
0.8008609999999999
 31
0.0
  0
LINE
  5
A1E
330
1F
100
AcDbEntity
  8
1
  6
CONTINUOUS
370
50
 62
4
100
AcDbLine
 10
54.169563
 20
0.8005829999999999
 30
0.0
 11
52.451118
 21
0.8006489999999999
 31
0.0
  0
LINE
  5
A1F
330
1F
100
AcDbEntity
  8
1
  6
CONTINUOUS
370
50
 62
4
100
AcDbLine
 10
59.760201
 20
0.8003709999999999
 30
0.0
 11
58.042419
 21
0.8004359999999999
 31
0.0
  0
LINE
  5
A20
330
1F
100
AcDbEntity
  8
1
  6
CONTINUOUS
370
50
 62
4
100
AcDbLine
 10
65.353111
 20
0.800159
 30
0.0
 11
63.63391499999999
 21
0.8002239999999999
 31
0.0
  0
LINE
  5
A21
330
1F
100
AcDbEntity
  8
1
  6
CONTINUOUS
370
50
 62
4
100
AcDbLine
 10
45.780872
 20
0.800902
 30
0.0
 11
44.064262
 21
0.800967
 31
0.0
  0
LINE
  5
A22
330
1F
100
AcDbEntity
  8
1
  6
CONTINUOUS
370
50
 62
4
100
AcDbLine
 10
51.374268
 20
0.80069
 30
0.0
 11
49.654339
 21
0.800755
 31
0.0
  0
LINE
  5
A23
330
1F
100
AcDbEntity
  8
1
  6
CONTINUOUS
370
50
 62
4
100
AcDbLine
 10
56.96398199999999
 20
0.800477
 30
0.0
 11
55.247509
 21
0.800543
 31
0.0
  0
LINE
  5
A24
330
1F
100
AcDbEntity
  8
1
  6
CONTINUOUS
370
50
 62
4
100
AcDbLine
 10
62.557098
 20
0.800265
 30
0.0
 11
60.837326
 21
0.80033
 31
0.0
  0
LINE
  5
A25
330
1F
100
AcDbEntity
  8
1
  6
CONTINUOUS
370
50
 62
4
100
AcDbLine
 10
68.147301
 20
0.800053
 30
0.0
 11
66.43057999999999
 21
0.800118
 31
0.0
  0
LINE
  5
A26
330
1F
100
AcDbEntity
  8
1
  6
CONTINUOUS
370
50
 62
4
100
AcDbLine
 10
40.0
 20
-0.7999999999999999
 30
0.0
 11
40.371986
 21
-0.7999999999999999
 31
0.0
  0
LINE
  5
A27
330
1F
100
AcDbEntity
  8
1
  6
CONTINUOUS
370
50
 62
4
100
AcDbLine
 10
41.267708
 20
-0.7999999999999999
 30
0.0
 11
42.985924
 21
-0.7999999999999999
 31
0.0
  0
LINE
  5
A28
330
1F
100
AcDbEntity
  8
1
  6
CONTINUOUS
370
50
 62
4
100
AcDbLine
 10
41.267708
 20
0.7999999999999999
 30
0.0
 11
42.985924
 21
0.7999999999999999
 31
0.0
  0
LINE
  5
A29
330
1F
100
AcDbEntity
  8
1
  6
CONTINUOUS
370
50
 62
4
100
AcDbLine
 10
40.0
 20
0.7999999999999999
 30
0.0
 11
40.371986
 21
0.7999999999999999
 31
0.0
  0
LINE
  5
A2A
330
1F
100
AcDbEntity
  8
1
  6
CONTINUOUS
370
50
 62
4
100
AcDbLine
 10
44.064262
 20
-0.800967
 30
0.0
 11
45.780872
 21
-0.800902
 31
0.0
  0
LINE
  5
A2B
330
1F
100
AcDbEntity
  8
1
  6
CONTINUOUS
370
50
 62
4
100
AcDbLine
 10
49.654339
 20
-0.800755
 30
0.0
 11
51.374268
 21
-0.80069
 31
0.0
  0
LINE
  5
A2C
330
1F
100
AcDbEntity
  8
1
  6
CONTINUOUS
370
50
 62
4
100
AcDbLine
 10
55.247509
 20
-0.800543
 30
0.0
 11
56.96398199999999
 21
-0.800477
 31
0.0
  0
LINE
  5
A2D
330
1F
100
AcDbEntity
  8
1
  6
CONTINUOUS
370
50
 62
4
100
AcDbLine
 10
60.837326
 20
-0.80033
 30
0.0
 11
62.557098
 21
-0.800265
 31
0.0
  0
LINE
  5
A2E
330
1F
100
AcDbEntity
  8
1
  6
CONTINUOUS
370
50
 62
4
100
AcDbLine
 10
66.43057999999999
 20
-0.800118
 30
0.0
 11
68.147301
 21
-0.800053
 31
0.0
  0
LINE
  5
A2F
330
1F
100
AcDbEntity
  8
1
  6
CONTINUOUS
370
50
 62
4
100
AcDbLine
 10
46.858685
 20
-0.8008609999999999
 30
0.0
 11
48.577484
 21
-0.800796
 31
0.0
  0
LINE
  5
A30
330
1F
100
AcDbEntity
  8
1
  6
CONTINUOUS
370
50
 62
4
100
AcDbLine
 10
52.451118
 20
-0.8006489999999999
 30
0.0
 11
54.169563
 21
-0.8005829999999999
 31
0.0
  0
LINE
  5
A31
330
1F
100
AcDbEntity
  8
1
  6
CONTINUOUS
370
50
 62
4
100
AcDbLine
 10
58.042419
 20
-0.8004359999999999
 30
0.0
 11
59.760201
 21
-0.8003709999999999
 31
0.0
  0
LINE
  5
A32
330
1F
100
AcDbEntity
  8
1
  6
CONTINUOUS
370
50
 62
4
100
AcDbLine
 10
63.63391499999999
 20
-0.8002239999999999
 30
0.0
 11
65.353111
 21
-0.800159
 31
0.0
  0
LINE
  5
A33
330
1F
100
AcDbEntity
  8
1
  6
CONTINUOUS
370
50
 62
4
100
AcDbLine
 10
69.226074
 20
-0.800012
 30
0.0
 11
69.530739
 21
-0.7999999999999999
 31
0.0
  0
LINE
  5
A34
330
1F
100
AcDbEntity
  8
1
  6
CONTINUOUS
370
50
 62
4
100
AcDbLine
 10
42.96126599999999
 20
0.7996979999999999
 30
0.0
 11
43.001251
 21
0.7998999999999999
 31
0.0
  0
LINE
  5
A35
330
1F
100
AcDbEntity
  8
1
  6
CONTINUOUS
370
50
 62
4
100
AcDbLine
 10
40.165722
 20
-0.364436
 30
0.0
 11
40.183342
 21
-0.364198
 31
0.0
  0
LINE
  5
A36
330
1F
100
AcDbEntity
  8
1
  6
CONTINUOUS
370
50
 62
4
100
AcDbLine
 10
69.930077
 20
0.025079
 30
0.0
 11
69.93210599999999
 21
0.025138
 31
0.0
  0
LINE
  5
A37
330
1F
100
AcDbEntity
  8
1
  6
CONTINUOUS
370
50
 62
4
100
AcDbLine
 10
43.001278
 20
-0.7998999999999999
 30
0.0
 11
43.041176
 21
-0.798528
 31
0.0
  0
LINE
  5
A38
330
1F
100
AcDbEntity
  8
1
  6
CONTINUOUS
370
50
 62
4
100
AcDbLine
 10
40.368759
 20
-0.7999879999999999
 30
0.0
 11
40.408363
 21
-0.798469
 31
0.0
  0
LINE
  5
A39
330
1F
100
AcDbEntity
  8
1
  6
CONTINUOUS
370
50
 62
4
100
AcDbLine
 10
68.147301
 20
-0.800053
 30
0.0
 11
68.237572
 21
-0.796056
 31
0.0
  0
LINE
  5
A3A
330
1F
100
AcDbEntity
  8
1
  6
CONTINUOUS
370
50
 62
4
100
AcDbLine
 10
69.135689
 20
0.796003
 30
0.0
 11
69.226074
 21
0.800012
 31
0.0
  0
LINE
  5
A3B
330
1F
100
AcDbEntity
  8
1
  6
CONTINUOUS
370
50
 62
4
100
AcDbLine
 10
43.974293
 20
0.796974
 30
0.0
 11
44.064262
 21
0.800967
 31
0.0
  0
LINE
  5
A3C
330
1F
100
AcDbEntity
  8
1
  6
CONTINUOUS
370
50
 62
4
100
AcDbLine
 10
56.96398199999999
 20
-0.800477
 30
0.0
 11
57.053886
 21
-0.796477
 31
0.0
  0
LINE
  5
A3D
330
1F
100
AcDbEntity
  8
1
  6
CONTINUOUS
370
50
 62
4
100
AcDbLine
 10
57.95210299999999
 20
0.7964019999999999
 30
0.0
 11
58.042419
 21
0.8004359999999999
 31
0.0
  0
LINE
  5
A3E
330
1F
100
AcDbEntity
  8
1
  6
CONTINUOUS
370
50
 62
4
100
AcDbLine
 10
55.1577
 20
0.796523
 30
0.0
 11
55.247509
 21
0.800543
 31
0.0
  0
LINE
  5
A3F
330
1F
100
AcDbEntity
  8
1
  6
CONTINUOUS
370
50
 62
4
100
AcDbLine
 10
54.169563
 20
-0.8005829999999999
 30
0.0
 11
54.259701
 21
-0.796528
 31
0.0
  0
LINE
  5
A40
330
1F
100
AcDbEntity
  8
1
  6
CONTINUOUS
370
50
 62
4
100
AcDbLine
 10
66.341042
 20
0.796084
 30
0.0
 11
66.43057999999999
 21
0.800118
 31
0.0
  0
LINE
  5
A41
330
1F
100
AcDbEntity
  8
1
  6
CONTINUOUS
370
50
 62
4
100
AcDbLine
 10
46.768852
 20
0.79681
 30
0.0
 11
46.858685
 21
0.8008609999999999
 31
0.0
  0
LINE
  5
A42
330
1F
100
AcDbEntity
  8
1
  6
CONTINUOUS
370
50
 62
4
100
AcDbLine
 10
45.780872
 20
-0.800902
 30
0.0
 11
45.871033
 21
-0.796832
 31
0.0
  0
LINE
  5
A43
330
1F
100
AcDbEntity
  8
1
  6
CONTINUOUS
370
50
 62
4
100
AcDbLine
 10
65.353111
 20
-0.800159
 30
0.0
 11
65.44268
 21
-0.796101
 31
0.0
  0
LINE
  5
A44
330
1F
100
AcDbEntity
  8
1
  6
CONTINUOUS
370
50
 62
4
100
AcDbLine
 10
60.748314
 20
0.796281
 30
0.0
 11
60.837326
 21
0.80033
 31
0.0
  0
LINE
  5
A45
330
1F
100
AcDbEntity
  8
1
  6
CONTINUOUS
370
50
 62
4
100
AcDbLine
 10
59.760201
 20
-0.8003709999999999
 30
0.0
 11
59.84949899999999
 21
-0.796299
 31
0.0
  0
LINE
  5
A46
330
1F
100
AcDbEntity
  8
1
  6
CONTINUOUS
370
50
 62
4
100
AcDbLine
 10
52.361843
 20
0.7965749999999999
 30
0.0
 11
52.451118
 21
0.8006489999999999
 31
0.0
  0
LINE
  5
A47
330
1F
100
AcDbEntity
  8
1
  6
CONTINUOUS
370
50
 62
4
100
AcDbLine
 10
63.54496
 20
0.796164
 30
0.0
 11
63.63391499999999
 21
0.8002239999999999
 31
0.0
  0
LINE
  5
A48
330
1F
100
AcDbEntity
  8
1
  6
CONTINUOUS
370
50
 62
4
100
AcDbLine
 10
49.56545999999999
 20
0.796698
 30
0.0
 11
49.654339
 21
0.800755
 31
0.0
  0
LINE
  5
A49
330
1F
100
AcDbEntity
  8
1
  6
CONTINUOUS
370
50
 62
4
100
AcDbLine
 10
51.374268
 20
-0.80069
 30
0.0
 11
51.463242
 21
-0.7966169999999999
 31
0.0
  0
LINE
  5
A4A
330
1F
100
AcDbEntity
  8
1
  6
CONTINUOUS
370
50
 62
4
100
AcDbLine
 10
48.577484
 20
-0.800796
 30
0.0
 11
48.666576
 21
-0.796716
 31
0.0
  0
LINE
  5
A4B
330
1F
100
AcDbEntity
  8
1
  6
CONTINUOUS
370
50
 62
4
100
AcDbLine
 10
62.557098
 20
-0.800265
 30
0.0
 11
62.646019
 21
-0.796188
 31
0.0
  0
LINE
  5
A4C
330
1F
100
AcDbEntity
  8
1
  6
CONTINUOUS
370
50
 62
4
100
AcDbLine
 10
41.17740999999999
 20
0.7958759999999999
 30
0.0
 11
41.267075
 21
0.8000029999999999
 31
0.0
  0
LINE
  5
A4D
330
1F
100
AcDbEntity
  8
1
  6
CONTINUOUS
370
50
 62
4
100
AcDbLine
 10
40.148186
 20
-0.365646
 30
0.0
 11
40.165722
 21
-0.364436
 31
0.0
  0
LINE
  5
A4E
330
1F
100
AcDbEntity
  8
1
  6
CONTINUOUS
370
50
 62
4
100
AcDbLine
 10
69.63327799999999
 20
-0.037481
 30
0.0
 11
69.645538
 21
-0.036593
 31
0.0
  0
LINE
  5
A4F
330
1F
100
AcDbEntity
  8
1
  6
CONTINUOUS
370
50
 62
4
100
AcDbLine
 10
43.041176
 20
-0.798528
 30
0.0
 11
43.080894
 21
-0.795592
 31
0.0
  0
LINE
  5
A50
330
1F
100
AcDbEntity
  8
1
  6
CONTINUOUS
370
50
 62
4
100
AcDbLine
 10
43.080894
 20
-0.795592
 30
0.0
 11
43.120396
 21
-0.791087
 31
0.0
  0
LINE
  5
A51
330
1F
100
AcDbEntity
  8
1
  6
CONTINUOUS
370
50
 62
4
100
AcDbLine
 10
40.408363
 20
-0.798469
 30
0.0
 11
40.44792899999999
 21
-0.793318
 31
0.0
  0
LINE
  5
A52
330
1F
100
AcDbEntity
  8
1
  6
CONTINUOUS
370
50
 62
4
100
AcDbLine
 10
66.25076299999999
 20
0.784069
 30
0.0
 11
66.341042
 21
0.796084
 31
0.0
  0
LINE
  5
A53
330
1F
100
AcDbEntity
  8
1
  6
CONTINUOUS
370
50
 62
4
100
AcDbLine
 10
55.067184
 20
0.784476
 30
0.0
 11
55.1577
 21
0.796523
 31
0.0
  0
LINE
  5
A54
330
1F
100
AcDbEntity
  8
1
  6
CONTINUOUS
370
50
 62
4
100
AcDbLine
 10
57.053886
 20
-0.796477
 30
0.0
 11
57.144333
 21
-0.7844359999999999
 31
0.0
  0
LINE
  5
A55
330
1F
100
AcDbEntity
  8
1
  6
CONTINUOUS
370
50
 62
4
100
AcDbLine
 10
45.871033
 20
-0.796832
 30
0.0
 11
45.961697
 21
-0.7847339999999999
 31
0.0
  0
LINE
  5
A56
330
1F
100
AcDbEntity
  8
1
  6
CONTINUOUS
370
50
 62
4
100
AcDbLine
 10
43.884026
 20
0.784905
 30
0.0
 11
43.974293
 21
0.796974
 31
0.0
  0
LINE
  5
A57
330
1F
100
AcDbEntity
  8
1
  6
CONTINUOUS
370
50
 62
4
100
AcDbLine
 10
40.128174
 20
-0.368325
 30
0.0
 11
40.148186
 21
-0.365646
 31
0.0
  0
LINE
  5
A58
330
1F
100
AcDbEntity
  8
1
  6
CONTINUOUS
370
50
 62
4
100
AcDbLine
 10
68.237572
 20
-0.796056
 30
0.0
 11
68.327637
 21
-0.783972
 31
0.0
  0
LINE
  5
A59
330
1F
100
AcDbEntity
  8
1
  6
CONTINUOUS
370
50
 62
4
100
AcDbLine
 10
59.84949899999999
 20
-0.796299
 30
0.0
 11
59.939453
 21
-0.7842119999999999
 31
0.0
  0
LINE
  5
A5A
330
1F
100
AcDbEntity
  8
1
  6
CONTINUOUS
370
50
 62
4
100
AcDbLine
 10
41.086838
 20
0.783701
 30
0.0
 11
41.17740999999999
 21
0.7958759999999999
 31
0.0
  0
LINE
  5
A5B
330
1F
100
AcDbEntity
  8
1
  6
CONTINUOUS
370
50
 62
4
100
AcDbLine
 10
69.045868
 20
0.7839039999999999
 30
0.0
 11
69.135689
 21
0.796003
 31
0.0
  0
LINE
  5
A5C
330
1F
100
AcDbEntity
  8
1
  6
CONTINUOUS
370
50
 62
4
100
AcDbLine
 10
52.27206
 20
0.784451
 30
0.0
 11
52.361843
 21
0.7965749999999999
 31
0.0
  0
LINE
  5
A5D
330
1F
100
AcDbEntity
  8
1
  6
CONTINUOUS
370
50
 62
4
100
AcDbLine
 10
48.666576
 20
-0.796716
 30
0.0
 11
48.755951
 21
-0.78462
 31
0.0
  0
LINE
  5
A5E
330
1F
100
AcDbEntity
  8
1
  6
CONTINUOUS
370
50
 62
4
100
AcDbLine
 10
63.45531099999999
 20
0.7840079999999999
 30
0.0
 11
63.54496
 21
0.796164
 31
0.0
  0
LINE
  5
A5F
330
1F
100
AcDbEntity
  8
1
  6
CONTINUOUS
370
50
 62
4
100
AcDbLine
 10
57.862789
 20
0.784284
 30
0.0
 11
57.95210299999999
 21
0.7964019999999999
 31
0.0
  0
LINE
  5
A60
330
1F
100
AcDbEntity
  8
1
  6
CONTINUOUS
370
50
 62
4
100
AcDbLine
 10
54.259701
 20
-0.796528
 30
0.0
 11
54.348816
 21
-0.78438
 31
0.0
  0
LINE
  5
A61
330
1F
100
AcDbEntity
  8
1
  6
CONTINUOUS
370
50
 62
4
100
AcDbLine
 10
46.679871
 20
0.784679
 30
0.0
 11
46.768852
 21
0.79681
 31
0.0
  0
LINE
  5
A62
330
1F
100
AcDbEntity
  8
1
  6
CONTINUOUS
370
50
 62
4
100
AcDbLine
 10
60.659367
 20
0.784137
 30
0.0
 11
60.748314
 21
0.796281
 31
0.0
  0
LINE
  5
A63
330
1F
100
AcDbEntity
  8
1
  6
CONTINUOUS
370
50
 62
4
100
AcDbLine
 10
49.476223
 20
0.7845099999999999
 30
0.0
 11
49.56545999999999
 21
0.796698
 31
0.0
  0
LINE
  5
A64
330
1F
100
AcDbEntity
  8
1
  6
CONTINUOUS
370
50
 62
4
100
AcDbLine
 10
65.44268
 20
-0.796101
 30
0.0
 11
65.531616
 21
-0.7839459999999999
 31
0.0
  0
LINE
  5
A65
330
1F
100
AcDbEntity
  8
1
  6
CONTINUOUS
370
50
 62
4
100
AcDbLine
 10
62.646019
 20
-0.796188
 30
0.0
 11
62.735519
 21
-0.783947
 31
0.0
  0
LINE
  5
A66
330
1F
100
AcDbEntity
  8
1
  6
CONTINUOUS
370
50
 62
4
100
AcDbLine
 10
51.463242
 20
-0.7966169999999999
 30
0.0
 11
51.552189
 21
-0.7844409999999999
 31
0.0
  0
LINE
  5
A67
330
1F
100
AcDbEntity
  8
1
  6
CONTINUOUS
370
50
 62
4
100
AcDbLine
 10
43.120396
 20
-0.791087
 30
0.0
 11
43.159779
 21
-0.785007
 31
0.0
  0
LINE
  5
A68
330
1F
100
AcDbEntity
  8
1
  6
CONTINUOUS
370
50
 62
4
100
AcDbLine
 10
69.530739
 20
-0.7999999999999999
 30
0.0
 11
69.530846
 21
-0.799982
 31
0.0
  0
LINE
  5
A69
330
1F
100
AcDbEntity
  8
1
  6
CONTINUOUS
370
50
 62
4
100
AcDbLine
 10
43.159779
 20
-0.785007
 30
0.0
 11
43.199135
 21
-0.7773479999999999
 31
0.0
  0
LINE
  5
A6A
330
1F
100
AcDbEntity
  8
1
  6
CONTINUOUS
370
50
 62
4
100
AcDbLine
 10
69.645538
 20
-0.036593
 30
0.0
 11
69.657364
 21
-0.034211
 31
0.0
  0
LINE
  5
A6B
330
1F
100
AcDbEntity
  8
1
  6
CONTINUOUS
370
50
 62
4
100
AcDbLine
 10
40.108524
 20
-0.372464
 30
0.0
 11
40.128174
 21
-0.368325
 31
0.0
  0
LINE
  5
A6C
330
1F
100
AcDbEntity
  8
1
  6
CONTINUOUS
370
50
 62
4
100
AcDbLine
 10
40.44792899999999
 20
-0.793318
 30
0.0
 11
40.486778
 21
-0.7847679999999999
 31
0.0
  0
LINE
  5
A6D
330
1F
100
AcDbEntity
  8
1
  6
CONTINUOUS
370
50
 62
4
100
AcDbLine
 10
59.939453
 20
-0.7842119999999999
 30
0.0
 11
60.029964
 21
-0.764245
 31
0.0
  0
LINE
  5
A6E
330
1F
100
AcDbEntity
  8
1
  6
CONTINUOUS
370
50
 62
4
100
AcDbLine
 10
48.755951
 20
-0.78462
 30
0.0
 11
48.84634399999999
 21
-0.7646759999999999
 31
0.0
  0
LINE
  5
A6F
330
1F
100
AcDbEntity
  8
1
  6
CONTINUOUS
370
50
 62
4
100
AcDbLine
 10
52.181499
 20
0.764442
 30
0.0
 11
52.27206
 21
0.784451
 31
0.0
  0
LINE
  5
A70
330
1F
100
AcDbEntity
  8
1
  6
CONTINUOUS
370
50
 62
4
100
AcDbLine
 10
40.996078
 20
0.7635919999999999
 30
0.0
 11
41.086838
 21
0.783701
 31
0.0
  0
LINE
  5
A71
330
1F
100
AcDbEntity
  8
1
  6
CONTINUOUS
370
50
 62
4
100
AcDbLine
 10
63.365044
 20
0.763999
 30
0.0
 11
63.45531099999999
 21
0.7840079999999999
 31
0.0
  0
LINE
  5
A72
330
1F
100
AcDbEntity
  8
1
  6
CONTINUOUS
370
50
 62
4
100
AcDbLine
 10
66.16053
 20
0.764015
 30
0.0
 11
66.25076299999999
 21
0.784069
 31
0.0
  0
LINE
  5
A73
330
1F
100
AcDbEntity
  8
1
  6
CONTINUOUS
370
50
 62
4
100
AcDbLine
 10
54.97752
 20
0.7644099999999999
 30
0.0
 11
55.067184
 21
0.784476
 31
0.0
  0
LINE
  5
A74
330
1F
100
AcDbEntity
  8
1
  6
CONTINUOUS
370
50
 62
4
100
AcDbLine
 10
45.961697
 20
-0.7847339999999999
 30
0.0
 11
46.05143
 21
-0.764651
 31
0.0
  0
LINE
  5
A75
330
1F
100
AcDbEntity
  8
1
  6
CONTINUOUS
370
50
 62
4
100
AcDbLine
 10
62.735519
 20
-0.783947
 30
0.0
 11
62.825581
 21
-0.76378
 31
0.0
  0
LINE
  5
A76
330
1F
100
AcDbEntity
  8
1
  6
CONTINUOUS
370
50
 62
4
100
AcDbLine
 10
49.386391
 20
0.764354
 30
0.0
 11
49.476223
 21
0.7845099999999999
 31
0.0
  0
LINE
  5
A77
330
1F
100
AcDbEntity
  8
1
  6
CONTINUOUS
370
50
 62
4
100
AcDbLine
 10
57.144333
 20
-0.7844359999999999
 30
0.0
 11
57.23387899999999
 21
-0.76434
 31
0.0
  0
LINE
  5
A78
330
1F
100
AcDbEntity
  8
1
  6
CONTINUOUS
370
50
 62
4
100
AcDbLine
 10
51.552189
 20
-0.7844409999999999
 30
0.0
 11
51.641533
 21
-0.764358
 31
0.0
  0
LINE
  5
A79
330
1F
100
AcDbEntity
  8
1
  6
CONTINUOUS
370
50
 62
4
100
AcDbLine
 10
43.794415
 20
0.764744
 30
0.0
 11
43.884026
 21
0.784905
 31
0.0
  0
LINE
  5
A7A
330
1F
100
AcDbEntity
  8
1
  6
CONTINUOUS
370
50
 62
4
100
AcDbLine
 10
60.56971
 20
0.763957
 30
0.0
 11
60.659367
 21
0.784137
 31
0.0
  0
LINE
  5
A7B
330
1F
100
AcDbEntity
  8
1
  6
CONTINUOUS
370
50
 62
4
100
AcDbLine
 10
68.327637
 20
-0.783972
 30
0.0
 11
68.416916
 21
-0.7638469999999999
 31
0.0
  0
LINE
  5
A7C
330
1F
100
AcDbEntity
  8
1
  6
CONTINUOUS
370
50
 62
4
100
AcDbLine
 10
68.956772
 20
0.763813
 30
0.0
 11
69.045868
 21
0.7839039999999999
 31
0.0
  0
LINE
  5
A7D
330
1F
100
AcDbEntity
  8
1
  6
CONTINUOUS
370
50
 62
4
100
AcDbLine
 10
57.773788
 20
0.764165
 30
0.0
 11
57.862789
 21
0.784284
 31
0.0
  0
LINE
  5
A7E
330
1F
100
AcDbEntity
  8
1
  6
CONTINUOUS
370
50
 62
4
100
AcDbLine
 10
46.590778
 20
0.764527
 30
0.0
 11
46.679871
 21
0.784679
 31
0.0
  0
LINE
  5
A7F
330
1F
100
AcDbEntity
  8
1
  6
CONTINUOUS
370
50
 62
4
100
AcDbLine
 10
65.531616
 20
-0.7839459999999999
 30
0.0
 11
65.620995
 21
-0.763713
 31
0.0
  0
LINE
  5
A80
330
1F
100
AcDbEntity
  8
1
  6
CONTINUOUS
370
50
 62
4
100
AcDbLine
 10
54.348816
 20
-0.78438
 30
0.0
 11
54.437912
 21
-0.764188
 31
0.0
  0
LINE
  5
A81
330
1F
100
AcDbEntity
  8
1
  6
CONTINUOUS
370
50
 62
4
100
AcDbLine
 10
43.200001
 20
-0.778044
 30
0.0
 11
43.253895
 21
-0.764944
 31
0.0
  0
LINE
  5
A82
330
1F
100
AcDbEntity
  8
1
  6
CONTINUOUS
370
50
 62
4
100
AcDbLine
 10
43.253895
 20
-0.764944
 30
0.0
 11
43.307674
 21
-0.749041
 31
0.0
  0
LINE
  5
A83
330
1F
100
AcDbEntity
  8
1
  6
CONTINUOUS
370
50
 62
4
100
AcDbLine
 10
40.08939
 20
-0.378151
 30
0.0
 11
40.108524
 21
-0.372464
 31
0.0
  0
LINE
  5
A84
330
1F
100
AcDbEntity
  8
1
  6
CONTINUOUS
370
50
 62
4
100
AcDbLine
 10
40.486778
 20
-0.7847679999999999
 30
0.0
 11
40.52461599999999
 21
-0.77325
 31
0.0
  0
LINE
  5
A85
330
1F
100
AcDbEntity
  8
1
  6
CONTINUOUS
370
50
 62
4
100
AcDbLine
 10
62.825581
 20
-0.76378
 30
0.0
 11
62.916218
 21
-0.7360099999999999
 31
0.0
  0
LINE
  5
A86
330
1F
100
AcDbEntity
  8
1
  6
CONTINUOUS
370
50
 62
4
100
AcDbLine
 10
51.641533
 20
-0.764358
 30
0.0
 11
51.731491
 21
-0.7367619999999999
 31
0.0
  0
LINE
  5
A87
330
1F
100
AcDbEntity
  8
1
  6
CONTINUOUS
370
50
 62
4
100
AcDbLine
 10
49.295849
 20
0.736549
 30
0.0
 11
49.386391
 21
0.764354
 31
0.0
  0
LINE
  5
A88
330
1F
100
AcDbEntity
  8
1
  6
CONTINUOUS
370
50
 62
4
100
AcDbLine
 10
63.27445599999999
 20
0.7361289999999999
 30
0.0
 11
63.365044
 21
0.763999
 31
0.0
  0
LINE
  5
A89
330
1F
100
AcDbEntity
  8
1
  6
CONTINUOUS
370
50
 62
4
100
AcDbLine
 10
48.84634399999999
 20
-0.7646759999999999
 30
0.0
 11
48.936653
 21
-0.736823
 31
0.0
  0
LINE
  5
A8A
330
1F
100
AcDbEntity
  8
1
  6
CONTINUOUS
370
50
 62
4
100
AcDbLine
 10
60.479515
 20
0.736136
 30
0.0
 11
60.56971
 21
0.763957
 31
0.0
  0
LINE
  5
A8B
330
1F
100
AcDbEntity
  8
1
  6
CONTINUOUS
370
50
 62
4
100
AcDbLine
 10
52.091438
 20
0.736537
 30
0.0
 11
52.181499
 21
0.764442
 31
0.0
  0
LINE
  5
A8C
330
1F
100
AcDbEntity
  8
1
  6
CONTINUOUS
370
50
 62
4
100
AcDbLine
 10
60.029964
 20
-0.764245
 30
0.0
 11
60.11974
 21
-0.73636
 31
0.0
  0
LINE
  5
A8D
330
1F
100
AcDbEntity
  8
1
  6
CONTINUOUS
370
50
 62
4
100
AcDbLine
 10
65.620995
 20
-0.763713
 30
0.0
 11
65.711029
 21
-0.735702
 31
0.0
  0
LINE
  5
A8E
330
1F
100
AcDbEntity
  8
1
  6
CONTINUOUS
370
50
 62
4
100
AcDbLine
 10
46.50095
 20
0.736534
 30
0.0
 11
46.590778
 21
0.764527
 31
0.0
  0
LINE
  5
A8F
330
1F
100
AcDbEntity
  8
1
  6
CONTINUOUS
370
50
 62
4
100
AcDbLine
 10
40.906853
 20
0.735765
 30
0.0
 11
40.996078
 21
0.7635919999999999
 31
0.0
  0
LINE
  5
A90
330
1F
100
AcDbEntity
  8
1
  6
CONTINUOUS
370
50
 62
4
100
AcDbLine
 10
66.07122799999999
 20
0.7361489999999999
 30
0.0
 11
66.16053
 21
0.764015
 31
0.0
  0
LINE
  5
A91
330
1F
100
AcDbEntity
  8
1
  6
CONTINUOUS
370
50
 62
4
100
AcDbLine
 10
57.684162
 20
0.7361559999999999
 30
0.0
 11
57.773788
 21
0.764165
 31
0.0
  0
LINE
  5
A92
330
1F
100
AcDbEntity
  8
1
  6
CONTINUOUS
370
50
 62
4
100
AcDbLine
 10
54.437912
 20
-0.764188
 30
0.0
 11
54.527702
 21
-0.736123
 31
0.0
  0
LINE
  5
A93
330
1F
100
AcDbEntity
  8
1
  6
CONTINUOUS
370
50
 62
4
100
AcDbLine
 10
54.888416
 20
0.736528
 30
0.0
 11
54.97752
 21
0.7644099999999999
 31
0.0
  0
LINE
  5
A94
330
1F
100
AcDbEntity
  8
1
  6
CONTINUOUS
370
50
 62
4
100
AcDbLine
 10
68.867401
 20
0.735845
 30
0.0
 11
68.956772
 21
0.763813
 31
0.0
  0
LINE
  5
A95
330
1F
100
AcDbEntity
  8
1
  6
CONTINUOUS
370
50
 62
4
100
AcDbLine
 10
46.05143
 20
-0.764651
 30
0.0
 11
46.14042999999999
 21
-0.736757
 31
0.0
  0
LINE
  5
A96
330
1F
100
AcDbEntity
  8
1
  6
CONTINUOUS
370
50
 62
4
100
AcDbLine
 10
43.7052
 20
0.736777
 30
0.0
 11
43.794415
 21
0.764744
 31
0.0
  0
LINE
  5
A97
330
1F
100
AcDbEntity
  8
1
  6
CONTINUOUS
370
50
 62
4
100
AcDbLine
 10
68.416916
 20
-0.7638469999999999
 30
0.0
 11
68.506393
 21
-0.735794
 31
0.0
  0
LINE
  5
A98
330
1F
100
AcDbEntity
  8
1
  6
CONTINUOUS
370
50
 62
4
100
AcDbLine
 10
57.23387899999999
 20
-0.76434
 30
0.0
 11
57.323288
 21
-0.736306
 31
0.0
  0
LINE
  5
A99
330
1F
100
AcDbEntity
  8
1
  6
CONTINUOUS
370
50
 62
4
100
AcDbLine
 10
69.657364
 20
-0.034211
 30
0.0
 11
69.668739
 21
-0.030415
 31
0.0
  0
LINE
  5
A9A
330
1F
100
AcDbEntity
  8
1
  6
CONTINUOUS
370
50
 62
4
100
AcDbLine
 10
43.307674
 20
-0.749041
 30
0.0
 11
43.361546
 21
-0.7303959999999999
 31
0.0
  0
LINE
  5
A9B
330
1F
100
AcDbEntity
  8
1
  6
CONTINUOUS
370
50
 62
4
100
AcDbLine
 10
43.199135
 20
0.7773479999999999
 30
0.0
 11
43.19927999999999
 21
0.777399
 31
0.0
  0
LINE
  5
A9C
330
1F
100
AcDbEntity
  8
1
  6
CONTINUOUS
370
50
 62
4
100
AcDbLine
 10
43.199421
 20
0.77745
 30
0.0
 11
43.199711
 21
0.7775519999999999
 31
0.0
  0
LINE
  5
A9D
330
1F
100
AcDbEntity
  8
1
  6
CONTINUOUS
370
50
 62
4
100
AcDbLine
 10
43.199856
 20
0.777604
 30
0.0
 11
43.200001
 21
0.777655
 31
0.0
  0
LINE
  5
A9E
330
1F
100
AcDbEntity
  8
1
  6
CONTINUOUS
370
50
 62
4
100
AcDbLine
 10
43.199711
 20
0.7775519999999999
 30
0.0
 11
43.199856
 21
0.777604
 31
0.0
  0
LINE
  5
A9F
330
1F
100
AcDbEntity
  8
1
  6
CONTINUOUS
370
50
 62
4
100
AcDbLine
 10
43.19927999999999
 20
0.777399
 30
0.0
 11
43.199421
 21
0.77745
 31
0.0
  0
LINE
  5
AA0
330
1F
100
AcDbEntity
  8
1
  6
CONTINUOUS
370
50
 62
4
100
AcDbLine
 10
40.52461599999999
 20
-0.77325
 30
0.0
 11
40.561787
 21
-0.759138
 31
0.0
  0
LINE
  5
AA1
330
1F
100
AcDbEntity
  8
1
  6
CONTINUOUS
370
50
 62
4
100
AcDbLine
 10
65.711029
 20
-0.735702
 30
0.0
 11
65.801743
 21
-0.7004199999999999
 31
0.0
  0
LINE
  5
AA2
330
1F
100
AcDbEntity
  8
1
  6
CONTINUOUS
370
50
 62
4
100
AcDbLine
 10
60.38864899999999
 20
0.7007559999999999
 30
0.0
 11
60.479515
 21
0.736136
 31
0.0
  0
LINE
  5
AA3
330
1F
100
AcDbEntity
  8
1
  6
CONTINUOUS
370
50
 62
4
100
AcDbLine
 10
51.731491
 20
-0.7367619999999999
 30
0.0
 11
51.822483
 21
-0.7012929999999999
 31
0.0
  0
LINE
  5
AA4
330
1F
100
AcDbEntity
  8
1
  6
CONTINUOUS
370
50
 62
4
100
AcDbLine
 10
46.41053
 20
0.701214
 30
0.0
 11
46.50095
 21
0.736534
 31
0.0
  0
LINE
  5
AA5
330
1F
100
AcDbEntity
  8
1
  6
CONTINUOUS
370
50
 62
4
100
AcDbLine
 10
54.527702
 20
-0.736123
 30
0.0
 11
54.618118
 21
-0.700754
 31
0.0
  0
LINE
  5
AA6
330
1F
100
AcDbEntity
  8
1
  6
CONTINUOUS
370
50
 62
4
100
AcDbLine
 10
49.205372
 20
0.701082
 30
0.0
 11
49.295849
 21
0.736549
 31
0.0
  0
LINE
  5
AA7
330
1F
100
AcDbEntity
  8
1
  6
CONTINUOUS
370
50
 62
4
100
AcDbLine
 10
57.594002
 20
0.700758
 30
0.0
 11
57.684162
 21
0.7361559999999999
 31
0.0
  0
LINE
  5
AA8
330
1F
100
AcDbEntity
  8
1
  6
CONTINUOUS
370
50
 62
4
100
AcDbLine
 10
62.916218
 20
-0.7360099999999999
 30
0.0
 11
63.00608399999999
 21
-0.700654
 31
0.0
  0
LINE
  5
AA9
330
1F
100
AcDbEntity
  8
1
  6
CONTINUOUS
370
50
 62
4
100
AcDbLine
 10
43.361546
 20
-0.7303959999999999
 30
0.0
 11
43.415714
 21
-0.709075
 31
0.0
  0
LINE
  5
AAA
330
1F
100
AcDbEntity
  8
1
  6
CONTINUOUS
370
50
 62
4
100
AcDbLine
 10
68.777382
 20
0.700356
 30
0.0
 11
68.867401
 21
0.735845
 31
0.0
  0
LINE
  5
AAB
330
1F
100
AcDbEntity
  8
1
  6
CONTINUOUS
370
50
 62
4
100
AcDbLine
 10
69.530846
 20
-0.799982
 30
0.0
 11
69.53096
 21
-0.799937
 31
0.0
  0
LINE
  5
AAC
330
1F
100
AcDbEntity
  8
1
  6
CONTINUOUS
370
50
 62
4
100
AcDbLine
 10
68.506393
 20
-0.735794
 30
0.0
 11
68.596115
 21
-0.700336
 31
0.0
  0
LINE
  5
AAD
330
1F
100
AcDbEntity
  8
1
  6
CONTINUOUS
370
50
 62
4
100
AcDbLine
 10
63.18486
 20
0.700664
 30
0.0
 11
63.27445599999999
 21
0.7361289999999999
 31
0.0
  0
LINE
  5
AAE
330
1F
100
AcDbEntity
  8
1
  6
CONTINUOUS
370
50
 62
4
100
AcDbLine
 10
43.615494
 20
0.701243
 30
0.0
 11
43.7052
 21
0.736777
 31
0.0
  0
LINE
  5
AAF
330
1F
100
AcDbEntity
  8
1
  6
CONTINUOUS
370
50
 62
4
100
AcDbLine
 10
40.07106
 20
-0.385415
 30
0.0
 11
40.08939
 21
-0.378151
 31
0.0
  0
LINE
  5
AB0
330
1F
100
AcDbEntity
  8
1
  6
CONTINUOUS
370
50
 62
4
100
AcDbLine
 10
57.323288
 20
-0.736306
 30
0.0
 11
57.412899
 21
-0.7007559999999999
 31
0.0
  0
LINE
  5
AB1
330
1F
100
AcDbEntity
  8
1
  6
CONTINUOUS
370
50
 62
4
100
AcDbLine
 10
54.79887
 20
0.7009989999999999
 30
0.0
 11
54.888416
 21
0.736528
 31
0.0
  0
LINE
  5
AB2
330
1F
100
AcDbEntity
  8
1
  6
CONTINUOUS
370
50
 62
4
100
AcDbLine
 10
48.936653
 20
-0.736823
 30
0.0
 11
49.026188
 21
-0.701295
 31
0.0
  0
LINE
  5
AB3
330
1F
100
AcDbEntity
  8
1
  6
CONTINUOUS
370
50
 62
4
100
AcDbLine
 10
65.981956
 20
0.7006939999999999
 30
0.0
 11
66.07122799999999
 21
0.7361489999999999
 31
0.0
  0
LINE
  5
AB4
330
1F
100
AcDbEntity
  8
1
  6
CONTINUOUS
370
50
 62
4
100
AcDbLine
 10
52.002171
 20
0.701083
 30
0.0
 11
52.091438
 21
0.736537
 31
0.0
  0
LINE
  5
AB5
330
1F
100
AcDbEntity
  8
1
  6
CONTINUOUS
370
50
 62
4
100
AcDbLine
 10
60.11974
 20
-0.73636
 30
0.0
 11
60.209213
 21
-0.700777
 31
0.0
  0
LINE
  5
AB6
330
1F
100
AcDbEntity
  8
1
  6
CONTINUOUS
370
50
 62
4
100
AcDbLine
 10
46.14042999999999
 20
-0.736757
 30
0.0
 11
46.229763
 21
-0.701212
 31
0.0
  0
LINE
  5
AB7
330
1F
100
AcDbEntity
  8
1
  6
CONTINUOUS
370
50
 62
4
100
AcDbLine
 10
40.818455
 20
0.700496
 30
0.0
 11
40.906853
 21
0.735765
 31
0.0
  0
LINE
  5
AB8
330
1F
100
AcDbEntity
  8
1
  6
CONTINUOUS
370
50
 62
4
100
AcDbLine
 10
43.415714
 20
-0.709075
 30
0.0
 11
43.470348
 21
-0.6851659999999999
 31
0.0
  0
LINE
  5
AB9
330
1F
100
AcDbEntity
  8
1
  6
CONTINUOUS
370
50
 62
4
100
AcDbLine
 10
40.63549
 20
-0.7029019999999999
 30
0.0
 11
40.651337
 21
-0.6959449999999999
 31
0.0
  0
LINE
  5
ABA
330
1F
100
AcDbEntity
  8
1
  6
CONTINUOUS
370
50
 62
4
100
AcDbLine
 10
40.561787
 20
-0.759138
 30
0.0
 11
40.598633
 21
-0.742807
 31
0.0
  0
LINE
  5
ABB
330
1F
100
AcDbEntity
  8
1
  6
CONTINUOUS
370
50
 62
4
100
AcDbLine
 10
40.651337
 20
-0.6959449999999999
 30
0.0
 11
40.667133
 21
-0.688777
 31
0.0
  0
LINE
  5
ABC
330
1F
100
AcDbEntity
  8
1
  6
CONTINUOUS
370
50
 62
4
100
AcDbLine
 10
69.481026
 20
0.456465
 30
0.0
 11
69.491142
 21
0.461087
 31
0.0
  0
LINE
  5
ABD
330
1F
100
AcDbEntity
  8
1
  6
CONTINUOUS
370
50
 62
4
100
AcDbLine
 10
57.50303599999999
 20
0.658252
 30
0.0
 11
57.594002
 21
0.700758
 31
0.0
  0
LINE
  5
ABE
330
1F
100
AcDbEntity
  8
1
  6
CONTINUOUS
370
50
 62
4
100
AcDbLine
 10
54.618118
 20
-0.700754
 30
0.0
 11
54.708706
 21
-0.658364
 31
0.0
  0
LINE
  5
ABF
330
1F
100
AcDbEntity
  8
1
  6
CONTINUOUS
370
50
 62
4
100
AcDbLine
 10
68.686684
 20
0.657911
 30
0.0
 11
68.777382
 21
0.700356
 31
0.0
  0
LINE
  5
AC0
330
1F
100
AcDbEntity
  8
1
  6
CONTINUOUS
370
50
 62
4
100
AcDbLine
 10
68.596115
 20
-0.700336
 30
0.0
 11
68.68667599999999
 21
-0.657913
 31
0.0
  0
LINE
  5
AC1
330
1F
100
AcDbEntity
  8
1
  6
CONTINUOUS
370
50
 62
4
100
AcDbLine
 10
40.667133
 20
-0.688777
 30
0.0
 11
40.68288
 21
-0.681398
 31
0.0
  0
LINE
  5
AC2
330
1F
100
AcDbEntity
  8
1
  6
CONTINUOUS
370
50
 62
4
100
AcDbLine
 10
69.668739
 20
-0.030415
 30
0.0
 11
69.679665
 21
-0.025289
 31
0.0
  0
LINE
  5
AC3
330
1F
100
AcDbEntity
  8
1
  6
CONTINUOUS
370
50
 62
4
100
AcDbLine
 10
46.31965599999999
 20
0.6585679999999999
 30
0.0
 11
46.41053
 21
0.701214
 31
0.0
  0
LINE
  5
AC4
330
1F
100
AcDbEntity
  8
1
  6
CONTINUOUS
370
50
 62
4
100
AcDbLine
 10
65.801743
 20
-0.7004199999999999
 30
0.0
 11
65.891937
 21
-0.657957
 31
0.0
  0
LINE
  5
AC5
330
1F
100
AcDbEntity
  8
1
  6
CONTINUOUS
370
50
 62
4
100
AcDbLine
 10
43.525219
 20
0.658741
 30
0.0
 11
43.615494
 21
0.701243
 31
0.0
  0
LINE
  5
AC6
330
1F
100
AcDbEntity
  8
1
  6
CONTINUOUS
370
50
 62
4
100
AcDbLine
 10
57.412899
 20
-0.7007559999999999
 30
0.0
 11
57.50303299999999
 21
-0.658252
 31
0.0
  0
LINE
  5
AC7
330
1F
100
AcDbEntity
  8
1
  6
CONTINUOUS
370
50
 62
4
100
AcDbLine
 10
54.70871
 20
0.658364
 30
0.0
 11
54.79887
 21
0.7009989999999999
 31
0.0
  0
LINE
  5
AC8
330
1F
100
AcDbEntity
  8
1
  6
CONTINUOUS
370
50
 62
4
100
AcDbLine
 10
46.229763
 20
-0.701212
 30
0.0
 11
46.319664
 21
-0.658569
 31
0.0
  0
LINE
  5
AC9
330
1F
100
AcDbEntity
  8
1
  6
CONTINUOUS
370
50
 62
4
100
AcDbLine
 10
65.89193
 20
0.657957
 30
0.0
 11
65.981956
 21
0.7006939999999999
 31
0.0
  0
LINE
  5
ACA
330
1F
100
AcDbEntity
  8
1
  6
CONTINUOUS
370
50
 62
4
100
AcDbLine
 10
60.29869799999999
 20
0.658042
 30
0.0
 11
60.38864899999999
 21
0.7007559999999999
 31
0.0
  0
LINE
  5
ACB
330
1F
100
AcDbEntity
  8
1
  6
CONTINUOUS
370
50
 62
4
100
AcDbLine
 10
51.822483
 20
-0.7012929999999999
 30
0.0
 11
51.912704
 21
-0.658331
 31
0.0
  0
LINE
  5
ACC
330
1F
100
AcDbEntity
  8
1
  6
CONTINUOUS
370
50
 62
4
100
AcDbLine
 10
49.115856
 20
0.6583829999999999
 30
0.0
 11
49.205372
 21
0.701082
 31
0.0
  0
LINE
  5
ACD
330
1F
100
AcDbEntity
  8
1
  6
CONTINUOUS
370
50
 62
4
100
AcDbLine
 10
60.209213
 20
-0.700777
 30
0.0
 11
60.298706
 21
-0.658042
 31
0.0
  0
LINE
  5
ACE
330
1F
100
AcDbEntity
  8
1
  6
CONTINUOUS
370
50
 62
4
100
AcDbLine
 10
51.91269699999999
 20
0.6583319999999999
 30
0.0
 11
52.002171
 21
0.701083
 31
0.0
  0
LINE
  5
ACF
330
1F
100
AcDbEntity
  8
1
  6
CONTINUOUS
370
50
 62
4
100
AcDbLine
 10
63.00608399999999
 20
-0.700654
 30
0.0
 11
63.09548599999999
 21
-0.6579349999999999
 31
0.0
  0
LINE
  5
AD0
330
1F
100
AcDbEntity
  8
1
  6
CONTINUOUS
370
50
 62
4
100
AcDbLine
 10
63.095478
 20
0.657936
 30
0.0
 11
63.18486
 21
0.700664
 31
0.0
  0
LINE
  5
AD1
330
1F
100
AcDbEntity
  8
1
  6
CONTINUOUS
370
50
 62
4
100
AcDbLine
 10
49.026188
 20
-0.701295
 30
0.0
 11
49.115868
 21
-0.6583829999999999
 31
0.0
  0
LINE
  5
AD2
330
1F
100
AcDbEntity
  8
1
  6
CONTINUOUS
370
50
 62
4
100
AcDbLine
 10
40.729893
 20
0.658022
 30
0.0
 11
40.818455
 21
0.700496
 31
0.0
  0
LINE
  5
AD3
330
1F
100
AcDbEntity
  8
1
  6
CONTINUOUS
370
50
 62
4
100
AcDbLine
 10
43.470348
 20
-0.6851659999999999
 30
0.0
 11
43.525219
 21
-0.65874
 31
0.0
  0
LINE
  5
AD4
330
1F
100
AcDbEntity
  8
1
  6
CONTINUOUS
370
50
 62
4
100
AcDbLine
 10
40.68288
 20
-0.681398
 30
0.0
 11
40.698586
 21
-0.673812
 31
0.0
  0
LINE
  5
AD5
330
1F
100
AcDbEntity
  8
1
  6
CONTINUOUS
370
50
 62
4
100
AcDbLine
 10
40.598633
 20
-0.742807
 30
0.0
 11
40.63549
 21
-0.7246309999999999
 31
0.0
  0
LINE
  5
AD6
330
1F
100
AcDbEntity
  8
1
  6
CONTINUOUS
370
50
 62
4
100
AcDbLine
 10
69.491142
 20
0.461087
 30
0.0
 11
69.501083
 21
0.465996
 31
0.0
  0
LINE
  5
AD7
330
1F
100
AcDbEntity
  8
1
  6
CONTINUOUS
370
50
 62
4
100
AcDbLine
 10
40.698586
 20
-0.673812
 30
0.0
 11
40.71426
 21
-0.6660189999999999
 31
0.0
  0
LINE
  5
AD8
330
1F
100
AcDbEntity
  8
1
  6
CONTINUOUS
370
50
 62
4
100
AcDbLine
 10
40.71426
 20
-0.6660189999999999
 30
0.0
 11
40.7299
 21
-0.6580239999999999
 31
0.0
  0
LINE
  5
AD9
330
1F
100
AcDbEntity
  8
1
  6
CONTINUOUS
370
50
 62
4
100
AcDbLine
 10
40.053768
 20
-0.394264
 30
0.0
 11
40.07106
 21
-0.385415
 31
0.0
  0
LINE
  5
ADA
330
1F
100
AcDbEntity
  8
1
  6
CONTINUOUS
370
50
 62
4
100
AcDbLine
 10
69.501083
 20
0.465996
 30
0.0
 11
69.510811
 21
0.471207
 31
0.0
  0
LINE
  5
ADB
330
1F
100
AcDbEntity
  8
1
  6
CONTINUOUS
370
50
 62
4
100
AcDbLine
 10
69.510811
 20
0.471207
 30
0.0
 11
69.520309
 21
0.476729
 31
0.0
  0
LINE
  5
ADC
330
1F
100
AcDbEntity
  8
1
  6
CONTINUOUS
370
50
 62
4
100
AcDbLine
 10
69.679665
 20
-0.025289
 30
0.0
 11
69.690163
 21
-0.018891
 31
0.0
  0
LINE
  5
ADD
330
1F
100
AcDbEntity
  8
1
  6
CONTINUOUS
370
50
 62
4
100
AcDbLine
 10
69.520309
 20
0.476729
 30
0.0
 11
69.529541
 21
0.482576
 31
0.0
  0
LINE
  5
ADE
330
1F
100
AcDbEntity
  8
1
  6
CONTINUOUS
370
50
 62
4
100
AcDbLine
 10
40.037693
 20
-0.404716
 30
0.0
 11
40.053768
 21
-0.394264
 31
0.0
  0
LINE
  5
ADF
330
1F
100
AcDbEntity
  8
1
  6
CONTINUOUS
370
50
 62
4
100
AcDbLine
 10
69.529541
 20
0.482576
 30
0.0
 11
69.538483
 21
0.488757
 31
0.0
  0
LINE
  5
AE0
330
1F
100
AcDbEntity
  8
1
  6
CONTINUOUS
370
50
 62
4
100
AcDbLine
 10
69.53096
 20
-0.799937
 30
0.0
 11
69.531067
 21
-0.799858
 31
0.0
  0
LINE
  5
AE1
330
1F
100
AcDbEntity
  8
1
  6
CONTINUOUS
370
50
 62
4
100
AcDbLine
 10
69.538483
 20
0.488757
 30
0.0
 11
69.547089
 21
0.495275
 31
0.0
  0
LINE
  5
AE2
330
1F
100
AcDbEntity
  8
1
  6
CONTINUOUS
370
50
 62
4
100
AcDbLine
 10
69.690163
 20
-0.018891
 30
0.0
 11
69.70032499999999
 21
-0.011122
 31
0.0
  0
LINE
  5
AE3
330
1F
100
AcDbEntity
  8
1
  6
CONTINUOUS
370
50
 62
4
100
AcDbLine
 10
40.023228
 20
-0.416606
 30
0.0
 11
40.037693
 21
-0.404716
 31
0.0
  0
LINE
  5
AE4
330
1F
100
AcDbEntity
  8
1
  6
CONTINUOUS
370
50
 62
4
100
AcDbLine
 10
69.547089
 20
0.495275
 30
0.0
 11
69.55530499999999
 21
0.502109
 31
0.0
  0
LINE
  5
AE5
330
1F
100
AcDbEntity
  8
1
  6
CONTINUOUS
370
50
 62
4
100
AcDbLine
 10
69.55530499999999
 20
0.502109
 30
0.0
 11
69.563118
 21
0.509266
 31
0.0
  0
LINE
  5
AE6
330
1F
100
AcDbEntity
  8
1
  6
CONTINUOUS
370
50
 62
4
100
AcDbLine
 10
69.70032499999999
 20
-0.011122
 30
0.0
 11
69.71009099999999
 21
-0.00193
 31
0.0
  0
LINE
  5
AE7
330
1F
100
AcDbEntity
  8
1
  6
CONTINUOUS
370
50
 62
4
100
AcDbLine
 10
69.563118
 20
0.509266
 30
0.0
 11
69.57051799999999
 21
0.516757
 31
0.0
  0
LINE
  5
AE8
330
1F
100
AcDbEntity
  8
1
  6
CONTINUOUS
370
50
 62
4
100
AcDbLine
 10
69.531067
 20
-0.799858
 30
0.0
 11
69.531174
 21
-0.799747
 31
0.0
  0
LINE
  5
AE9
330
1F
100
AcDbEntity
  8
1
  6
CONTINUOUS
370
50
 62
4
100
AcDbLine
 10
40.010639
 20
-0.429717
 30
0.0
 11
40.023228
 21
-0.416606
 31
0.0
  0
LINE
  5
AEA
330
1F
100
AcDbEntity
  8
1
  6
CONTINUOUS
370
50
 62
4
100
AcDbLine
 10
69.57051799999999
 20
0.516757
 30
0.0
 11
69.577484
 21
0.524591
 31
0.0
  0
LINE
  5
AEB
330
1F
100
AcDbEntity
  8
1
  6
CONTINUOUS
370
50
 62
4
100
AcDbLine
 10
69.71009099999999
 20
-0.00193
 30
0.0
 11
69.719368
 21
0.008714
 31
0.0
  0
LINE
  5
AEC
330
1F
100
AcDbEntity
  8
1
  6
CONTINUOUS
370
50
 62
4
100
AcDbLine
 10
69.577484
 20
0.524591
 30
0.0
 11
69.584
 21
0.532777
 31
0.0
  0
LINE
  5
AED
330
1F
100
AcDbEntity
  8
1
  6
CONTINUOUS
370
50
 62
4
100
AcDbLine
 10
40.0
 20
-0.443942
 30
0.0
 11
40.010639
 21
-0.429717
 31
0.0
  0
LINE
  5
AEE
330
1F
100
AcDbEntity
  8
1
  6
CONTINUOUS
370
50
 62
4
100
AcDbLine
 10
69.531174
 20
-0.799747
 30
0.0
 11
69.53128099999999
 21
-0.799603
 31
0.0
  0
LINE
  5
AEF
330
1F
100
AcDbEntity
  8
1
  6
CONTINUOUS
370
50
 62
4
100
AcDbLine
 10
69.719368
 20
0.008714
 30
0.0
 11
69.72805
 21
0.020842
 31
0.0
  0
LINE
  5
AF0
330
1F
100
AcDbEntity
  8
1
  6
CONTINUOUS
370
50
 62
4
100
AcDbLine
 10
69.584
 20
0.532777
 30
0.0
 11
69.590065
 21
0.541326
 31
0.0
  0
LINE
  5
AF1
330
1F
100
AcDbEntity
  8
1
  6
CONTINUOUS
370
50
 62
4
100
AcDbLine
 10
69.53128099999999
 20
-0.799603
 30
0.0
 11
69.531395
 21
-0.7994249999999999
 31
0.0
  0
LINE
  5
AF2
330
1F
100
AcDbEntity
  8
1
  6
CONTINUOUS
370
50
 62
4
100
AcDbLine
 10
69.590065
 20
0.541326
 30
0.0
 11
69.595665
 21
0.5502469999999999
 31
0.0
  0
LINE
  5
AF3
330
1F
100
AcDbEntity
  8
1
  6
CONTINUOUS
370
50
 62
4
100
AcDbLine
 10
69.531387
 20
-0.799446
 30
0.0
 11
70.0
 21
0.0
 31
0.0
  0
LINE
  5
AF4
330
1F
100
AcDbEntity
  8
1
  6
CONTINUOUS
370
50
 62
4
100
AcDbLine
 10
69.72805
 20
0.020842
 30
0.0
 11
69.73597
 21
0.034366
 31
0.0
  0
LINE
  5
AF5
330
1F
100
AcDbEntity
  8
1
  6
CONTINUOUS
370
50
 62
4
100
AcDbLine
 10
69.595665
 20
0.5502469999999999
 30
0.0
 11
69.600769
 21
0.559527
 31
0.0
  0
LINE
  5
AF6
330
1F
100
AcDbEntity
  8
1
  6
CONTINUOUS
370
50
 62
4
100
AcDbLine
 10
69.600769
 20
0.559527
 30
0.0
 11
69.60530899999999
 21
0.569029
 31
0.0
  0
LINE
  5
AF7
330
1F
100
AcDbEntity
  8
1
  6
CONTINUOUS
370
50
 62
4
100
AcDbLine
 10
69.60530899999999
 20
0.569029
 30
0.0
 11
69.60928299999999
 21
0.578722
 31
0.0
  0
LINE
  5
AF8
330
1F
100
AcDbEntity
  8
1
  6
CONTINUOUS
370
50
 62
4
100
AcDbLine
 10
69.60928299999999
 20
0.578722
 30
0.0
 11
69.612724
 21
0.588596
 31
0.0
  0
LINE
  5
AF9
330
1F
100
AcDbEntity
  8
1
  6
CONTINUOUS
370
50
 62
4
100
AcDbLine
 10
69.612724
 20
0.588596
 30
0.0
 11
69.615646
 21
0.5986389999999999
 31
0.0
  0
LINE
  5
AFA
330
1F
100
AcDbEntity
  8
1
  6
CONTINUOUS
370
50
 62
4
100
AcDbLine
 10
69.52065999999999
 20
-0.015639
 30
0.0
 11
69.521011
 21
0.021539
 31
0.0
  0
LINE
  5
AFB
330
1F
100
AcDbEntity
  8
1
  6
CONTINUOUS
370
50
 62
4
100
AcDbLine
 10
69.520355
 20
-0.052768
 30
0.0
 11
69.52065999999999
 21
-0.015639
 31
0.0
  0
LINE
  5
AFC
330
1F
100
AcDbEntity
  8
1
  6
CONTINUOUS
370
50
 62
4
100
AcDbLine
 10
69.520096
 20
-0.089719
 30
0.0
 11
69.520355
 21
-0.052768
 31
0.0
  0
LINE
  5
AFD
330
1F
100
AcDbEntity
  8
1
  6
CONTINUOUS
370
50
 62
4
100
AcDbLine
 10
69.51986699999999
 20
-0.126363
 30
0.0
 11
69.520096
 21
-0.089719
 31
0.0
  0
LINE
  5
AFE
330
1F
100
AcDbEntity
  8
1
  6
CONTINUOUS
370
50
 62
4
100
AcDbLine
 10
69.51967599999999
 20
-0.162572
 30
0.0
 11
69.51986699999999
 21
-0.126363
 31
0.0
  0
LINE
  5
AFF
330
1F
100
AcDbEntity
  8
1
  6
CONTINUOUS
370
50
 62
4
100
AcDbLine
 10
69.519531
 20
-0.198217
 30
0.0
 11
69.51967599999999
 21
-0.162572
 31
0.0
  0
LINE
  5
B00
330
1F
100
AcDbEntity
  8
1
  6
CONTINUOUS
370
50
 62
4
100
AcDbLine
 10
69.51941699999999
 20
-0.233169
 30
0.0
 11
69.519531
 21
-0.198217
 31
0.0
  0
LINE
  5
B01
330
1F
100
AcDbEntity
  8
1
  6
CONTINUOUS
370
50
 62
4
100
AcDbLine
 10
69.519348
 20
-0.2673
 30
0.0
 11
69.51941699999999
 21
-0.233169
 31
0.0
  0
LINE
  5
B02
330
1F
100
AcDbEntity
  8
1
  6
CONTINUOUS
370
50
 62
4
100
AcDbLine
 10
69.51930999999999
 20
-0.300481
 30
0.0
 11
69.519348
 21
-0.2673
 31
0.0
  0
LINE
  5
B03
330
1F
100
AcDbEntity
  8
1
  6
CONTINUOUS
370
50
 62
4
100
AcDbLine
 10
40.0
 20
-0.7999999999999999
 30
0.0
 11
40.0
 21
0.7999999999999999
 31
0.0
  0
LINE
  5
B04
330
1F
100
AcDbEntity
  8
1
  6
CONTINUOUS
370
50
 62
4
100
AcDbLine
 10
40.63549
 20
0.7029019999999999
 30
0.0
 11
40.63549
 21
0.7246309999999999
 31
0.0
  0
LINE
  5
B05
330
1F
100
AcDbEntity
  8
1
  6
CONTINUOUS
370
50
 62
4
100
AcDbLine
 10
40.63549
 20
-0.7246309999999999
 30
0.0
 11
40.63549
 21
-0.69717
 31
0.0
  0
LINE
  5
B06
330
1F
100
AcDbEntity
  8
1
  6
CONTINUOUS
370
50
 62
4
100
AcDbLine
 10
40.63549
 20
-0.69717
 30
0.0
 11
40.63549
 21
-0.6704
 31
0.0
  0
LINE
  5
B07
330
1F
100
AcDbEntity
  8
1
  6
CONTINUOUS
370
50
 62
4
100
AcDbLine
 10
40.63549
 20
-0.6704
 30
0.0
 11
40.63549
 21
-0.644385
 31
0.0
  0
LINE
  5
B08
330
1F
100
AcDbEntity
  8
1
  6
CONTINUOUS
370
50
 62
4
100
AcDbLine
 10
40.63549
 20
-0.644385
 30
0.0
 11
40.63549
 21
-0.619194
 31
0.0
  0
LINE
  5
B09
330
1F
100
AcDbEntity
  8
1
  6
CONTINUOUS
370
50
 62
4
100
AcDbLine
 10
40.63549
 20
-0.619194
 30
0.0
 11
40.63549
 21
-0.59498
 31
0.0
  0
LINE
  5
B0A
330
1F
100
AcDbEntity
  8
1
  6
CONTINUOUS
370
50
 62
4
100
AcDbLine
 10
40.63549
 20
-0.59498
 30
0.0
 11
40.63549
 21
-0.571835
 31
0.0
  0
LINE
  5
B0B
330
1F
100
AcDbEntity
  8
1
  6
CONTINUOUS
370
50
 62
4
100
AcDbLine
 10
40.637493
 20
-0.607007
 30
0.0
 11
40.637493
 21
-0.573282
 31
0.0
  0
LINE
  5
B0C
330
1F
100
AcDbEntity
  8
1
  6
CONTINUOUS
370
50
 62
4
100
AcDbLine
 10
43.199135
 20
-0.451388
 30
0.0
 11
43.199135
 21
0.7773479999999999
 31
0.0
  0
LINE
  5
B0D
330
1F
100
AcDbEntity
  8
1
  6
CONTINUOUS
370
50
 62
4
100
AcDbLine
 10
43.200001
 20
-0.778044
 30
0.0
 11
43.200001
 21
0.778044
 31
0.0
  0
LINE
  5
B0E
330
1F
100
AcDbEntity
  8
CUT
  6
CONTINUOUS
370
25
 62
1
100
AcDbLine
 10
43.2
 20
0.0
 30
0.0
 11
70.0
 21
0.0
 31
0.0
  0
LINE
  5
B0F
330
1F
100
AcDbEntity
  8
CUT
  6
CONTINUOUS
370
25
 62
1
100
AcDbLine
 10
70.0
 20
0.0
 30
0.0
 11
69.53811978
 21
0.8
 31
0.0
  0
LINE
  5
B10
330
1F
100
AcDbEntity
  8
CUT
  6
CONTINUOUS
370
25
 62
1
100
AcDbLine
 10
69.53811978
 20
0.8
 30
0.0
 11
43.2
 21
0.8
 31
0.0
  0
LINE
  5
B11
330
1F
100
AcDbEntity
  8
CUT
  6
CONTINUOUS
370
25
 62
1
100
AcDbLine
 10
43.2
 20
0.8
 30
0.0
 11
43.2
 21
0.0
 31
0.0
  0
LINE
  5
B12
330
1F
100
AcDbEntity
  8
NOCUT
  6
CONTINUOUS
370
25
 62
7
100
AcDbLine
 10
40.0
 20
0.0
 30
0.0
 11
43.2
 21
0.0
 31
0.0
  0
LINE
  5
B13
330
1F
100
AcDbEntity
  8
NOCUT
  6
CONTINUOUS
370
25
 62
7
100
AcDbLine
 10
43.2
 20
0.0
 30
0.0
 11
43.2
 21
0.8005
 31
0.0
  0
LINE
  5
B14
330
1F
100
AcDbEntity
  8
NOCUT
  6
CONTINUOUS
370
25
 62
7
100
AcDbLine
 10
43.2
 20
0.8005
 30
0.0
 11
43.19913397459622
 21
0.8
 31
0.0
  0
LINE
  5
B15
330
1F
100
AcDbEntity
  8
NOCUT
  6
CONTINUOUS
370
25
 62
7
100
AcDbLine
 10
43.19913397459622
 20
0.8
 30
0.0
 11
40.0
 21
0.8
 31
0.0
  0
LINE
  5
B16
330
1F
100
AcDbEntity
  8
NOCUT
  6
CONTINUOUS
370
25
 62
7
100
AcDbLine
 10
40.0
 20
0.8
 30
0.0
 11
40.0
 21
0.0
 31
0.0
  0
LINE
  5
B17
330
1F
100
AcDbEntity
  8
NOCUT
  6
CONTINUOUS
370
25
 62
7
100
AcDbLine
 10
43.2
 20
0.8
 30
0.0
 11
43.2
 21
0.0
 31
0.0
  0
LINE
  5
B18
330
1F
100
AcDbEntity
  8
NOCUT
  6
CONTINUOUS
370
25
 62
7
100
AcDbLine
 10
43.2
 20
0.8
 30
0.0
 11
43.2
 21
0.0
 31
0.0
  0
LINE
  5
B19
330
1F
100
AcDbEntity
  8
SK1
  6
CONTINUOUS
370
50
 62
4
100
AcDbLine
 10
40.0
 20
0.8
 30
0.0
 11
0.0799999999999983
 21
0.8
 31
0.0
  0
LINE
  5
B1A
330
1F
100
AcDbEntity
  8
SK1
  6
CONTINUOUS
370
50
 62
4
100
AcDbLine
 10
0.0799999999999983
 20
0.8
 30
0.0
 11
0.0
 21
0.7200000000000001
 31
0.0
  0
LINE
  5
B1B
330
1F
100
AcDbEntity
  8
SK1
  6
CONTINUOUS
370
50
 62
4
100
AcDbLine
 10
0.0
 20
0.7200000000000001
 30
0.0
 11
0.0
 21
-0.7200000000000001
 31
0.0
  0
LINE
  5
B1C
330
1F
100
AcDbEntity
  8
SK1
  6
CONTINUOUS
370
50
 62
4
100
AcDbLine
 10
0.0
 20
-0.7200000000000001
 30
0.0
 11
0.0799999999999983
 21
-0.8
 31
0.0
  0
LINE
  5
B1D
330
1F
100
AcDbEntity
  8
SK1
  6
CONTINUOUS
370
50
 62
4
100
AcDbLine
 10
0.0799999999999983
 20
-0.8
 30
0.0
 11
40.0
 21
-0.8
 31
0.0
  0
LINE
  5
B1E
330
1F
100
AcDbEntity
  8
SK1
  6
CONTINUOUS
370
50
 62
4
100
AcDbLine
 10
0.0799999999999983
 20
0.8
 30
0.0
 11
0.0799999999999983
 21
-0.8
 31
0.0
  0
LINE
  5
B1F
330
1F
100
AcDbEntity
  8
SK2
  6
CONTINUOUS
370
25
 62
7
100
AcDbLine
 10
-12.0000002
 20
-0.8000010000000001
 30
0.0
 11
-13.00000000000008
 21
-0.8000010000000001
 31
0.0
  0
LINE
  5
B20
330
1F
100
AcDbEntity
  8
SK2
  6
CONTINUOUS
370
25
 62
7
100
AcDbLine
 10
0.0
 20
-0.8000010000000001
 30
0.0
 11
-11.9999998
 21
-0.8000010000000001
 31
0.0
  0
LINE
  5
B21
330
1F
100
AcDbEntity
  8
SK2
  6
CONTINUOUS
370
25
 62
7
100
AcDbLine
 10
-13.0
 20
0.8
 30
0.0
 11
0.0
 21
0.8
 31
0.0
  0
LINE
  5
B22
330
1F
100
AcDbEntity
  8
SK2
  6
CONTINUOUS
370
25
 62
7
100
AcDbLine
 10
-12.0
 20
-7.8
 30
0.0
 11
-12.0
 21
20.225
 31
0.0
  0
LINE
  5
B23
330
1F
100
AcDbEntity
  8
SK2
  6
CONTINUOUS
370
25
 62
7
100
AcDbLine
 10
-12.0
 20
-0.8000000000000002
 30
0.0
 11
-11.0
 21
-5.8
 31
0.0
  0
LINE
  5
B24
330
1F
100
AcDbEntity
  8
SK2
  6
CONTINUOUS
370
25
 62
7
100
AcDbLine
 10
-11.0
 20
-5.8
 30
0.0
 11
-13.0
 21
-5.8
 31
0.0
  0
LINE
  5
B25
330
1F
100
AcDbEntity
  8
SK2
  6
CONTINUOUS
370
25
 62
7
100
AcDbLine
 10
-13.0
 20
-5.8
 30
0.0
 11
-12.0
 21
-0.8000000000000002
 31
0.0
  0
LINE
  5
B26
330
1F
100
AcDbEntity
  8
SK2
  6
CONTINUOUS
370
25
 62
7
100
AcDbLine
 10
-11.19625535217629
 20
-5.799999999999997
 30
0.0
 11
-11.03270922536272
 21
-5.636453873186419
 31
0.0
  0
LINE
  5
B27
330
1F
100
AcDbEntity
  8
SK2
  6
CONTINUOUS
370
25
 62
7
100
AcDbLine
 10
-11.62051942088822
 20
-5.799999999999997
 30
0.0
 11
-11.10341990348138
 21
-5.282900482593156
 31
0.0
  0
LINE
  5
B28
330
1F
100
AcDbEntity
  8
SK2
  6
CONTINUOUS
370
25
 62
7
100
AcDbLine
 10
-12.04478348960016
 20
-5.799999999999997
 30
0.0
 11
-11.17413058160003
 21
-4.929347091999873
 31
0.0
  0
LINE
  5
B29
330
1F
100
AcDbEntity
  8
SK2
  6
CONTINUOUS
370
25
 62
7
100
AcDbLine
 10
-12.46904755831208
 20
-5.799999999999997
 30
0.0
 11
-11.24484125971869
 21
-4.575793701406603
 31
0.0
  0
LINE
  5
B2A
330
1F
100
AcDbEntity
  8
SK2
  6
CONTINUOUS
370
25
 62
7
100
AcDbLine
 10
-12.89331162702402
 20
-5.799999999999997
 30
0.0
 11
-11.31555193783734
 21
-4.222240310813319
 31
0.0
  0
LINE
  5
B2B
330
1F
100
AcDbEntity
  8
SK2
  6
CONTINUOUS
370
25
 62
7
100
AcDbLine
 10
-12.92060607606602
 20
-5.403030380330065
 30
0.0
 11
-11.38626261595599
 21
-3.868686920220036
 31
0.0
  0
LINE
  5
B2C
330
1F
100
AcDbEntity
  8
SK2
  6
CONTINUOUS
370
25
 62
7
100
AcDbLine
 10
-12.81454005888803
 20
-4.872700294440143
 30
0.0
 11
-11.45697329407465
 21
-3.515133529626766
 31
0.0
  0
LINE
  5
B2D
330
1F
100
AcDbEntity
  8
SK2
  6
CONTINUOUS
370
25
 62
7
100
AcDbLine
 10
-12.70847404171005
 20
-4.342370208550236
 30
0.0
 11
-11.5276839721933
 21
-3.161580139033489
 31
0.0
  0
LINE
  5
B2E
330
1F
100
AcDbEntity
  8
SK2
  6
CONTINUOUS
370
25
 62
7
100
AcDbLine
 10
-12.60240802453207
 20
-3.812040122660321
 30
0.0
 11
-11.59839465031196
 21
-2.808026748440213
 31
0.0
  0
LINE
  5
B2F
330
1F
100
AcDbEntity
  8
SK2
  6
CONTINUOUS
370
25
 62
7
100
AcDbLine
 10
-12.49634200735409
 20
-3.281710036770413
 30
0.0
 11
-11.66910532843061
 21
-2.454473357846936
 31
0.0
  0
LINE
  5
B30
330
1F
100
AcDbEntity
  8
SK2
  6
CONTINUOUS
370
25
 62
7
100
AcDbLine
 10
-12.3902759901761
 20
-2.751379950880491
 30
0.0
 11
-11.73981600654926
 21
-2.100919967253652
 31
0.0
  0
LINE
  5
B31
330
1F
100
AcDbEntity
  8
SK2
  6
CONTINUOUS
370
25
 62
7
100
AcDbLine
 10
-12.28420997299812
 20
-2.221049864990583
 30
0.0
 11
-11.81052668466793
 21
-1.74736657666039
 31
0.0
  0
LINE
  5
B32
330
1F
100
AcDbEntity
  8
SK2
  6
CONTINUOUS
370
25
 62
7
100
AcDbLine
 10
-12.17814395582013
 20
-1.690719779100661
 30
0.0
 11
-11.88123736278658
 21
-1.393813186067106
 31
0.0
  0
LINE
  5
B33
330
1F
100
AcDbEntity
  8
SK2
  6
CONTINUOUS
370
25
 62
7
100
AcDbLine
 10
-12.07207793864215
 20
-1.160389693210753
 30
0.0
 11
-11.95194804090524
 21
-1.040259795473837
 31
0.0
  0
LINE
  5
B34
330
1F
100
AcDbEntity
  8
SK2
  6
CONTINUOUS
370
25
 62
7
100
AcDbLine
 10
-12.98864278393246
 20
-5.743213919662317
 30
0.0
 11
-12.93185670359478
 21
-5.799999999999997
 31
0.0
  0
LINE
  5
B35
330
1F
100
AcDbEntity
  8
SK2
  6
CONTINUOUS
370
25
 62
7
100
AcDbLine
 10
-12.9179321058138
 20
-5.38966052906904
 30
0.0
 11
-12.50759263488285
 21
-5.799999999999997
 31
0.0
  0
LINE
  5
B36
330
1F
100
AcDbEntity
  8
SK2
  6
CONTINUOUS
370
25
 62
7
100
AcDbLine
 10
-12.84722142769516
 20
-5.036107138475764
 30
0.0
 11
-12.08332856617092
 21
-5.799999999999997
 31
0.0
  0
LINE
  5
B37
330
1F
100
AcDbEntity
  8
SK2
  6
CONTINUOUS
370
25
 62
7
100
AcDbLine
 10
-12.7765107495765
 20
-4.682553747882494
 30
0.0
 11
-11.65906449745898
 21
-5.799999999999997
 31
0.0
  0
LINE
  5
B38
330
1F
100
AcDbEntity
  8
SK2
  6
CONTINUOUS
370
25
 62
7
100
AcDbLine
 10
-12.70580007145784
 20
-4.329000357289218
 30
0.0
 11
-11.23480042874706
 21
-5.799999999999997
 31
0.0
  0
LINE
  5
B39
330
1F
100
AcDbEntity
  8
SK2
  6
CONTINUOUS
370
25
 62
7
100
AcDbLine
 10
-12.63508939333919
 20
-3.975446966695941
 30
0.0
 11
-11.04736590999122
 21
-5.563170450043899
 31
0.0
  0
LINE
  5
B3A
330
1F
100
AcDbEntity
  8
SK2
  6
CONTINUOUS
370
25
 62
7
100
AcDbLine
 10
-12.56437871522053
 20
-3.621893576102664
 30
0.0
 11
-11.1534319271692
 21
-5.032840364153998
 31
0.0
  0
LINE
  5
B3B
330
1F
100
AcDbEntity
  8
SK2
  6
CONTINUOUS
370
25
 62
7
100
AcDbLine
 10
-12.49366803710188
 20
-3.268340185509381
 30
0.0
 11
-11.25949794434718
 21
-4.502510278264083
 31
0.0
  0
LINE
  5
B3C
330
1F
100
AcDbEntity
  8
SK2
  6
CONTINUOUS
370
25
 62
7
100
AcDbLine
 10
-12.42295735898323
 20
-2.914786794916104
 30
0.0
 11
-11.36556396152517
 21
-3.972180192374161
 31
0.0
  0
LINE
  5
B3D
330
1F
100
AcDbEntity
  8
SK2
  6
CONTINUOUS
370
25
 62
7
100
AcDbLine
 10
-12.35224668086457
 20
-2.561233404322834
 30
0.0
 11
-11.47162997870315
 21
-3.441850106484253
 31
0.0
  0
LINE
  5
B3E
330
1F
100
AcDbEntity
  8
SK2
  6
CONTINUOUS
370
25
 62
7
100
AcDbLine
 10
-12.28153600274591
 20
-2.207680013729558
 30
0.0
 11
-11.57769599588114
 21
-2.911520020594331
 31
0.0
  0
LINE
  5
B3F
330
1F
100
AcDbEntity
  8
SK2
  6
CONTINUOUS
370
25
 62
7
100
AcDbLine
 10
-12.21082532462726
 20
-1.854126623136281
 30
0.0
 11
-11.68376201305912
 21
-2.381189934704423
 31
0.0
  0
LINE
  5
B40
330
1F
100
AcDbEntity
  8
SK2
  6
CONTINUOUS
370
25
 62
7
100
AcDbLine
 10
-12.14011464650861
 20
-1.500573232542997
 30
0.0
 11
-11.7898280302371
 21
-1.850859848814508
 31
0.0
  0
LINE
  5
B41
330
1F
100
AcDbEntity
  8
SK2
  6
CONTINUOUS
370
25
 62
7
100
AcDbLine
 10
-12.06940396838995
 20
-1.147019841949728
 30
0.0
 11
-11.89589404741508
 21
-1.320529762924593
 31
0.0
  0
LINE
  5
B42
330
1F
100
AcDbEntity
  8
SK2
  6
CONTINUOUS
370
25
 62
7
100
AcDbLine
 10
-12.0
 20
0.7999999999999999
 30
0.0
 11
-13.0
 21
5.8
 31
0.0
  0
LINE
  5
B43
330
1F
100
AcDbEntity
  8
SK2
  6
CONTINUOUS
370
25
 62
7
100
AcDbLine
 10
-13.0
 20
5.8
 30
0.0
 11
-11.0
 21
5.8
 31
0.0
  0
LINE
  5
B44
330
1F
100
AcDbEntity
  8
SK2
  6
CONTINUOUS
370
25
 62
7
100
AcDbLine
 10
-11.0
 20
5.8
 30
0.0
 11
-12.0
 21
0.7999999999999999
 31
0.0
  0
LINE
  5
B45
330
1F
100
AcDbEntity
  8
SK2
  6
CONTINUOUS
370
25
 62
7
100
AcDbLine
 10
-12.03883476483184
 20
0.9941738241591977
 30
0.0
 11
-11.94174785275224
 21
1.091260736238794
 31
0.0
  0
LINE
  5
B46
330
1F
100
AcDbEntity
  8
SK2
  6
CONTINUOUS
370
25
 62
7
100
AcDbLine
 10
-12.10954544295049
 20
1.347727214752481
 30
0.0
 11
-11.83568183557426
 21
1.621590822128709
 31
0.0
  0
LINE
  5
B47
330
1F
100
AcDbEntity
  8
SK2
  6
CONTINUOUS
370
25
 62
7
100
AcDbLine
 10
-12.18025612106914
 20
1.701280605345751
 30
0.0
 11
-11.72961581839628
 21
2.15192090801861
 31
0.0
  0
LINE
  5
B48
330
1F
100
AcDbEntity
  8
SK2
  6
CONTINUOUS
370
25
 62
7
100
AcDbLine
 10
-12.2509667991878
 20
2.054833995939028
 30
0.0
 11
-11.6235498012183
 21
2.682250993908525
 31
0.0
  0
LINE
  5
B49
330
1F
100
AcDbEntity
  8
SK2
  6
CONTINUOUS
370
25
 62
7
100
AcDbLine
 10
-12.32167747730645
 20
2.408387386532304
 30
0.0
 11
-11.51748378404032
 21
3.21258107979844
 31
0.0
  0
LINE
  5
B4A
330
1F
100
AcDbEntity
  8
SK2
  6
CONTINUOUS
370
25
 62
7
100
AcDbLine
 10
-12.39238815542512
 20
2.761940777125574
 30
0.0
 11
-11.41141776686234
 21
3.742911165688355
 31
0.0
  0
LINE
  5
B4B
330
1F
100
AcDbEntity
  8
SK2
  6
CONTINUOUS
370
25
 62
7
100
AcDbLine
 10
-12.46309883354377
 20
3.11549416771885
 30
0.0
 11
-11.30535174968435
 21
4.27324125157827
 31
0.0
  0
LINE
  5
B4C
330
1F
100
AcDbEntity
  8
SK2
  6
CONTINUOUS
370
25
 62
7
100
AcDbLine
 10
-12.53380951166243
 20
3.469047558312134
 30
0.0
 11
-11.19928573250635
 21
4.803571337468206
 31
0.0
  0
LINE
  5
B4D
330
1F
100
AcDbEntity
  8
SK2
  6
CONTINUOUS
370
25
 62
7
100
AcDbLine
 10
-12.60452018978108
 20
3.822600948905404
 30
0.0
 11
-11.09321971532837
 21
5.333901423358114
 31
0.0
  0
LINE
  5
B4E
330
1F
100
AcDbEntity
  8
SK2
  6
CONTINUOUS
370
25
 62
7
100
AcDbLine
 10
-12.67523086789974
 20
4.176154339498687
 30
0.0
 11
-11.05138520739843
 21
5.799999999999997
 31
0.0
  0
LINE
  5
B4F
330
1F
100
AcDbEntity
  8
SK2
  6
CONTINUOUS
370
25
 62
7
100
AcDbLine
 10
-12.74594154601839
 20
4.529707730091971
 30
0.0
 11
-11.47564927611036
 21
5.799999999999997
 31
0.0
  0
LINE
  5
B50
330
1F
100
AcDbEntity
  8
SK2
  6
CONTINUOUS
370
25
 62
7
100
AcDbLine
 10
-12.81665222413704
 20
4.883261120685241
 30
0.0
 11
-11.89991334482229
 21
5.799999999999997
 31
0.0
  0
LINE
  5
B51
330
1F
100
AcDbEntity
  8
SK2
  6
CONTINUOUS
370
25
 62
7
100
AcDbLine
 10
-12.8873629022557
 20
5.236814511278517
 30
0.0
 11
-12.32417741353422
 21
5.799999999999997
 31
0.0
  0
LINE
  5
B52
330
1F
100
AcDbEntity
  8
SK2
  6
CONTINUOUS
370
25
 62
7
100
AcDbLine
 10
-12.95807358037436
 20
5.590367901871787
 30
0.0
 11
-12.74844148224615
 21
5.799999999999997
 31
0.0
  0
LINE
  5
B53
330
1F
100
AcDbEntity
  8
SK2
  6
CONTINUOUS
370
25
 62
7
100
AcDbLine
 10
-12.03817760078753
 20
0.990888003937684
 30
0.0
 11
-11.97454826614164
 21
0.9272586692917884
 31
0.0
  0
LINE
  5
B54
330
1F
100
AcDbEntity
  8
SK2
  6
CONTINUOUS
370
25
 62
7
100
AcDbLine
 10
-12.14424361796551
 20
1.521218089827599
 30
0.0
 11
-11.90383758802299
 21
1.280812059885072
 31
0.0
  0
LINE
  5
B55
330
1F
100
AcDbEntity
  8
SK2
  6
CONTINUOUS
370
25
 62
7
100
AcDbLine
 10
-12.25030963514349
 20
2.051548175717507
 30
0.0
 11
-11.83312690990434
 21
1.634365450478349
 31
0.0
  0
LINE
  5
B56
330
1F
100
AcDbEntity
  8
SK2
  6
CONTINUOUS
370
25
 62
7
100
AcDbLine
 10
-12.35637565232148
 20
2.581878261607429
 30
0.0
 11
-11.76241623178568
 21
1.987918841071625
 31
0.0
  0
LINE
  5
B57
330
1F
100
AcDbEntity
  8
SK2
  6
CONTINUOUS
370
25
 62
7
100
AcDbLine
 10
-12.46244166949946
 20
3.112208347497337
 30
0.0
 11
-11.69170555366703
 21
2.341472231664902
 31
0.0
  0
LINE
  5
B58
330
1F
100
AcDbEntity
  8
SK2
  6
CONTINUOUS
370
25
 62
7
100
AcDbLine
 10
-12.56850768667744
 20
3.642538433387251
 30
0.0
 11
-11.62099487554836
 21
2.695025622258171
 31
0.0
  0
LINE
  5
B59
330
1F
100
AcDbEntity
  8
SK2
  6
CONTINUOUS
370
25
 62
7
100
AcDbLine
 10
-12.67457370385543
 20
4.172868519277174
 30
0.0
 11
-11.55028419742971
 21
3.048579012851455
 31
0.0
  0
LINE
  5
B5A
330
1F
100
AcDbEntity
  8
SK2
  6
CONTINUOUS
370
25
 62
7
100
AcDbLine
 10
-12.78063972103341
 20
4.703198605167081
 30
0.0
 11
-11.47957351931106
 21
3.402132403444732
 31
0.0
  0
LINE
  5
B5B
330
1F
100
AcDbEntity
  8
SK2
  6
CONTINUOUS
370
25
 62
7
100
AcDbLine
 10
-12.8867057382114
 20
5.233528691057003
 30
0.0
 11
-11.4088628411924
 21
3.755685794038008
 31
0.0
  0
LINE
  5
B5C
330
1F
100
AcDbEntity
  8
SK2
  6
CONTINUOUS
370
25
 62
7
100
AcDbLine
 10
-12.99277175538938
 20
5.763858776946911
 30
0.0
 11
-11.33815216307375
 21
4.109239184631285
 31
0.0
  0
LINE
  5
B5D
330
1F
100
AcDbEntity
  8
SK2
  6
CONTINUOUS
370
25
 62
7
100
AcDbLine
 10
-12.60464890973053
 20
5.799999999999997
 30
0.0
 11
-11.26744148495509
 21
4.462792575224555
 31
0.0
  0
LINE
  5
B5E
330
1F
100
AcDbEntity
  8
SK2
  6
CONTINUOUS
370
25
 62
7
100
AcDbLine
 10
-12.1803848410186
 20
5.799999999999997
 30
0.0
 11
-11.19673080683643
 21
4.816345965817831
 31
0.0
  0
LINE
  5
B5F
330
1F
100
AcDbEntity
  8
SK2
  6
CONTINUOUS
370
25
 62
7
100
AcDbLine
 10
-11.75612077230666
 20
5.799999999999997
 30
0.0
 11
-11.12602012871778
 21
5.169899356411122
 31
0.0
  0
LINE
  5
B60
330
1F
100
AcDbEntity
  8
SK2
  6
CONTINUOUS
370
25
 62
7
100
AcDbLine
 10
-11.33185670359473
 20
5.799999999999997
 30
0.0
 11
-11.05530945059912
 21
5.523452747004384
 31
0.0
  0
TEXT
  5
B61
330
1F
100
AcDbEntity
  8
SK2
  6
CONTINUOUS
370
25
 62
7
100
AcDbText
 10
-13.5
 20
12.37083333333333
 30
0.0
 40
3.5
  1
1.6
 50
90.00000000000001
 72
     1
 11
-13.5
 21
15.2875
 31
0.0
100
AcDbText
  0
CIRCLE
  5
B62
330
1F
100
AcDbEntity
  8
SK2
  6
CONTINUOUS
370
25
 62
7
100
AcDbCircle
 10
-15.25
 20
8.812499999999996
 30
0.0
 40
1.4
  0
LINE
  5
B63
330
1F
100
AcDbEntity
  8
SK2
  6
CONTINUOUS
370
25
 62
7
100
AcDbLine
 10
-13.85
 20
7.412499999999997
 30
0.0
 11
-16.65
 21
10.2125
 31
0.0
  0
LINE
  5
B64
330
1F
100
AcDbEntity
  8
SK2
  6
CONTINUOUS
370
25
 62
7
100
AcDbLine
 10
0.0
 20
0.7999999999999999
 30
0.0
 11
0.0
 21
13.80073957
 31
0.0
  0
LINE
  5
B65
330
1F
100
AcDbEntity
  8
SK2
  6
CONTINUOUS
370
25
 62
7
100
AcDbLine
 10
40.0
 20
13.80073957
 30
0.0
 11
40.0
 21
0.8000000000000007
 31
0.0
  0
LINE
  5
B66
330
1F
100
AcDbEntity
  8
SK2
  6
CONTINUOUS
370
25
 62
7
100
AcDbLine
 10
0.0
 20
12.80073957
 30
0.0
 11
40.0
 21
12.80073957
 31
0.0
  0
LINE
  5
B67
330
1F
100
AcDbEntity
  8
SK2
  6
CONTINUOUS
370
25
 62
7
100
AcDbLine
 10
0.0
 20
12.80073957
 30
0.0
 11
5.0
 21
13.80073957
 31
0.0
  0
LINE
  5
B68
330
1F
100
AcDbEntity
  8
SK2
  6
CONTINUOUS
370
25
 62
7
100
AcDbLine
 10
5.0
 20
13.80073957
 30
0.0
 11
5.0
 21
11.80073957
 31
0.0
  0
LINE
  5
B69
330
1F
100
AcDbEntity
  8
SK2
  6
CONTINUOUS
370
25
 62
7
100
AcDbLine
 10
5.0
 20
11.80073957
 30
0.0
 11
0.0
 21
12.80073957
 31
0.0
  0
LINE
  5
B6A
330
1F
100
AcDbEntity
  8
SK2
  6
CONTINUOUS
370
25
 62
7
100
AcDbLine
 10
4.756189952479978
 20
11.84950157950401
 30
0.0
 11
5.0
 21
12.09331162702403
 31
0.0
  0
LINE
  5
B6B
330
1F
100
AcDbEntity
  8
SK2
  6
CONTINUOUS
370
25
 62
7
100
AcDbLine
 10
4.402636561886702
 20
11.92021225762267
 30
0.0
 11
5.0
 21
12.51757569573596
 31
0.0
  0
LINE
  5
B6C
330
1F
100
AcDbEntity
  8
SK2
  6
CONTINUOUS
370
25
 62
7
100
AcDbLine
 10
4.049083171293418
 20
11.99092293574132
 30
0.0
 11
5.0
 21
12.9418397644479
 31
0.0
  0
LINE
  5
B6D
330
1F
100
AcDbEntity
  8
SK2
  6
CONTINUOUS
370
25
 62
7
100
AcDbLine
 10
3.695529780700149
 20
12.06163361385997
 30
0.0
 11
5.0
 21
13.36610383315982
 31
0.0
  0
LINE
  5
B6E
330
1F
100
AcDbEntity
  8
SK2
  6
CONTINUOUS
370
25
 62
7
100
AcDbLine
 10
3.341976390106872
 20
12.13234429197863
 30
0.0
 11
5.0
 21
13.79036790187175
 31
0.0
  0
LINE
  5
B6F
330
1F
100
AcDbEntity
  8
SK2
  6
CONTINUOUS
370
25
 62
7
100
AcDbLine
 10
2.988422999513595
 20
12.20305497009728
 30
0.0
 11
4.482634499270397
 21
13.69726646985408
 31
0.0
  0
LINE
  5
B70
330
1F
100
AcDbEntity
  8
SK2
  6
CONTINUOUS
370
25
 62
7
100
AcDbLine
 10
2.634869608920326
 20
12.27376564821594
 30
0.0
 11
3.952304413380482
 21
13.59120045267609
 31
0.0
  0
LINE
  5
B71
330
1F
100
AcDbEntity
  8
SK2
  6
CONTINUOUS
370
25
 62
7
100
AcDbLine
 10
2.281316218327042
 20
12.34447632633459
 30
0.0
 11
3.42197432749056
 21
13.48513443549811
 31
0.0
  0
LINE
  5
B72
330
1F
100
AcDbEntity
  8
SK2
  6
CONTINUOUS
370
25
 62
7
100
AcDbLine
 10
1.927762827733766
 20
12.41518700445325
 30
0.0
 11
2.891644241600638
 21
13.37906841832012
 31
0.0
  0
LINE
  5
B73
330
1F
100
AcDbEntity
  8
SK2
  6
CONTINUOUS
370
25
 62
7
100
AcDbLine
 10
1.574209437140496
 20
12.48589768257191
 30
0.0
 11
2.361314155710737
 21
13.27300240114214
 31
0.0
  0
LINE
  5
B74
330
1F
100
AcDbEntity
  8
SK2
  6
CONTINUOUS
370
25
 62
7
100
AcDbLine
 10
1.220656046547219
 20
12.55660836069057
 30
0.0
 11
1.830984069820815
 21
13.16693638396416
 31
0.0
  0
LINE
  5
B75
330
1F
100
AcDbEntity
  8
SK2
  6
CONTINUOUS
370
25
 62
7
100
AcDbLine
 10
0.8671026559539357
 20
12.62731903880921
 30
0.0
 11
1.300653983930907
 21
13.06087036678618
 31
0.0
  0
LINE
  5
B76
330
1F
100
AcDbEntity
  8
SK2
  6
CONTINUOUS
370
25
 62
7
100
AcDbLine
 10
0.5135492653606661
 20
12.69802971692787
 30
0.0
 11
0.7703238980409921
 21
12.9548043496082
 31
0.0
  0
LINE
  5
B77
330
1F
100
AcDbEntity
  8
SK2
  6
CONTINUOUS
370
25
 62
7
100
AcDbLine
 10
0.1599958747673895
 20
12.76874039504653
 30
0.0
 11
0.2399938121510701
 21
12.84873833243021
 31
0.0
  0
LINE
  5
B78
330
1F
100
AcDbEntity
  8
SK2
  6
CONTINUOUS
370
25
 62
7
100
AcDbLine
 10
0.3288851044018273
 20
12.86651659088036
 30
0.0
 11
0.4933276566027374
 21
12.70207403867945
 31
0.0
  0
LINE
  5
B79
330
1F
100
AcDbEntity
  8
SK2
  6
CONTINUOUS
370
25
 62
7
100
AcDbLine
 10
0.6824384949951039
 20
12.93722726899902
 30
0.0
 11
1.023657742492659
 21
12.59600802150146
 31
0.0
  0
LINE
  5
B7A
330
1F
100
AcDbEntity
  8
SK2
  6
CONTINUOUS
370
25
 62
7
100
AcDbLine
 10
1.035991885588373
 20
13.00793794711768
 30
0.0
 11
1.55398782838256
 21
12.4899420043235
 31
0.0
  0
LINE
  5
B7B
330
1F
100
AcDbEntity
  8
SK2
  6
CONTINUOUS
370
25
 62
7
100
AcDbLine
 10
1.389545276181657
 20
13.07864862523633
 30
0.0
 11
2.084317914272475
 21
12.38387598714551
 31
0.0
  0
LINE
  5
B7C
330
1F
100
AcDbEntity
  8
SK2
  6
CONTINUOUS
370
25
 62
7
100
AcDbLine
 10
1.743098666774934
 20
13.14935930335498
 30
0.0
 11
2.614648000162397
 21
12.27780996996752
 31
0.0
  0
LINE
  5
B7D
330
1F
100
AcDbEntity
  8
SK2
  6
CONTINUOUS
370
25
 62
7
100
AcDbLine
 10
2.09665205736821
 20
13.22006998147364
 30
0.0
 11
3.144978086052305
 21
12.17174395278954
 31
0.0
  0
LINE
  5
B7E
330
1F
100
AcDbEntity
  8
SK2
  6
CONTINUOUS
370
25
 62
7
100
AcDbLine
 10
2.450205447961487
 20
13.29078065959229
 30
0.0
 11
3.67530817194222
 21
12.06567793561156
 31
0.0
  0
LINE
  5
B7F
330
1F
100
AcDbEntity
  8
SK2
  6
CONTINUOUS
370
25
 62
7
100
AcDbLine
 10
2.803758838554764
 20
13.36149133771095
 30
0.0
 11
4.205638257832142
 21
11.95961191843357
 31
0.0
  0
LINE
  5
B80
330
1F
100
AcDbEntity
  8
SK2
  6
CONTINUOUS
370
25
 62
7
100
AcDbLine
 10
3.157312229148033
 20
13.43220201582961
 30
0.0
 11
4.735968343722057
 21
11.85354590125559
 31
0.0
  0
LINE
  5
B81
330
1F
100
AcDbEntity
  8
SK2
  6
CONTINUOUS
370
25
 62
7
100
AcDbLine
 10
3.510865619741317
 20
13.50291269394826
 30
0.0
 11
5.0
 21
12.01377831368958
 31
0.0
  0
LINE
  5
B82
330
1F
100
AcDbEntity
  8
SK2
  6
CONTINUOUS
370
25
 62
7
100
AcDbLine
 10
3.864419010334586
 20
13.57362337206692
 30
0.0
 11
5.0
 21
12.43804238240151
 31
0.0
  0
LINE
  5
B83
330
1F
100
AcDbEntity
  8
SK2
  6
CONTINUOUS
370
25
 62
7
100
AcDbLine
 10
4.217972400927863
 20
13.64433405018557
 30
0.0
 11
5.0
 21
12.86230645111344
 31
0.0
  0
LINE
  5
B84
330
1F
100
AcDbEntity
  8
SK2
  6
CONTINUOUS
370
25
 62
7
100
AcDbLine
 10
4.57152579152114
 20
13.71504472830423
 30
0.0
 11
5.0
 21
13.28657051982537
 31
0.0
  0
LINE
  5
B85
330
1F
100
AcDbEntity
  8
SK2
  6
CONTINUOUS
370
25
 62
7
100
AcDbLine
 10
4.925079182114409
 20
13.78575540642288
 30
0.0
 11
5.0
 21
13.71083458853729
 31
0.0
  0
LINE
  5
B86
330
1F
100
AcDbEntity
  8
SK2
  6
CONTINUOUS
370
25
 62
7
100
AcDbLine
 10
40.0
 20
12.80073957
 30
0.0
 11
35.0
 21
11.80073957
 31
0.0
  0
LINE
  5
B87
330
1F
100
AcDbEntity
  8
SK2
  6
CONTINUOUS
370
25
 62
7
100
AcDbLine
 10
35.0
 20
11.80073957
 30
0.0
 11
35.0
 21
13.80073957
 31
0.0
  0
LINE
  5
B88
330
1F
100
AcDbEntity
  8
SK2
  6
CONTINUOUS
370
25
 62
7
100
AcDbLine
 10
35.0
 20
13.80073957
 30
0.0
 11
40.0
 21
12.80073957
 31
0.0
  0
LINE
  5
B89
330
1F
100
AcDbEntity
  8
SK2
  6
CONTINUOUS
370
25
 62
7
100
AcDbLine
 10
39.56069179991277
 20
12.71287792998256
 30
0.0
 11
39.70712786660852
 21
12.8593139966783
 31
0.0
  0
LINE
  5
B8A
330
1F
100
AcDbEntity
  8
SK2
  6
CONTINUOUS
370
25
 62
7
100
AcDbLine
 10
39.03036171402287
 20
12.60681191280457
 30
0.0
 11
39.35357447601525
 21
12.93002467479695
 31
0.0
  0
LINE
  5
B8B
330
1F
100
AcDbEntity
  8
SK2
  6
CONTINUOUS
370
25
 62
7
100
AcDbLine
 10
38.50003162813296
 20
12.50074589562659
 30
0.0
 11
39.00002108542197
 21
13.00073535291561
 31
0.0
  0
LINE
  5
B8C
330
1F
100
AcDbEntity
  8
SK2
  6
CONTINUOUS
370
25
 62
7
100
AcDbLine
 10
37.96970154224304
 20
12.39467987844861
 30
0.0
 11
38.64646769482869
 21
13.07144603103426
 31
0.0
  0
LINE
  5
B8D
330
1F
100
AcDbEntity
  8
SK2
  6
CONTINUOUS
370
25
 62
7
100
AcDbLine
 10
37.43937145635314
 20
12.28861386127063
 30
0.0
 11
38.29291430423542
 21
13.14215670915292
 31
0.0
  0
LINE
  5
B8E
330
1F
100
AcDbEntity
  8
SK2
  6
CONTINUOUS
370
25
 62
7
100
AcDbLine
 10
36.90904137046323
 20
12.18254784409265
 30
0.0
 11
37.93936091364215
 21
13.21286738727157
 31
0.0
  0
LINE
  5
B8F
330
1F
100
AcDbEntity
  8
SK2
  6
CONTINUOUS
370
25
 62
7
100
AcDbLine
 10
36.37871128457331
 20
12.07648182691466
 30
0.0
 11
37.58580752304888
 21
13.28357806539023
 31
0.0
  0
LINE
  5
B90
330
1F
100
AcDbEntity
  8
SK2
  6
CONTINUOUS
370
25
 62
7
100
AcDbLine
 10
35.84838119868341
 20
11.97041580973668
 30
0.0
 11
37.2322541324556
 21
13.35428874350888
 31
0.0
  0
LINE
  5
B91
330
1F
100
AcDbEntity
  8
SK2
  6
CONTINUOUS
370
25
 62
7
100
AcDbLine
 10
35.3180511127935
 20
11.8643497925587
 30
0.0
 11
36.87870074186233
 21
13.42499942162754
 31
0.0
  0
LINE
  5
B92
330
1F
100
AcDbEntity
  8
SK2
  6
CONTINUOUS
370
25
 62
7
100
AcDbLine
 10
35.0
 20
11.97056274847713
 30
0.0
 11
36.52514735126906
 21
13.49571009974619
 31
0.0
  0
LINE
  5
B93
330
1F
100
AcDbEntity
  8
SK2
  6
CONTINUOUS
370
25
 62
7
100
AcDbLine
 10
35.0
 20
12.39482681718906
 30
0.0
 11
36.17159396067579
 21
13.56642077786485
 31
0.0
  0
LINE
  5
B94
330
1F
100
AcDbEntity
  8
SK2
  6
CONTINUOUS
370
25
 62
7
100
AcDbLine
 10
35.0
 20
12.81909088590099
 30
0.0
 11
35.81804057008251
 21
13.6371314559835
 31
0.0
  0
LINE
  5
B95
330
1F
100
AcDbEntity
  8
SK2
  6
CONTINUOUS
370
25
 62
7
100
AcDbLine
 10
35.0
 20
13.24335495461292
 30
0.0
 11
35.46448717948924
 21
13.70784213410215
 31
0.0
  0
LINE
  5
B96
330
1F
100
AcDbEntity
  8
SK2
  6
CONTINUOUS
370
25
 62
7
100
AcDbLine
 10
35.0
 20
13.66761902332484
 30
0.0
 11
35.11093378889596
 21
13.77855281222081
 31
0.0
  0
LINE
  5
B97
330
1F
100
AcDbEntity
  8
SK2
  6
CONTINUOUS
370
25
 62
7
100
AcDbLine
 10
35.0
 20
12.21248916810278
 30
0.0
 11
35.34312466508565
 21
11.86936450301713
 31
0.0
  0
LINE
  5
B98
330
1F
100
AcDbEntity
  8
SK2
  6
CONTINUOUS
370
25
 62
7
100
AcDbLine
 10
35.0
 20
12.63675323681471
 30
0.0
 11
35.69667805567892
 21
11.94007518113579
 31
0.0
  0
LINE
  5
B99
330
1F
100
AcDbEntity
  8
SK2
  6
CONTINUOUS
370
25
 62
7
100
AcDbLine
 10
35.0
 20
13.06101730552664
 30
0.0
 11
36.0502314462722
 21
12.01078585925444
 31
0.0
  0
LINE
  5
B9A
330
1F
100
AcDbEntity
  8
SK2
  6
CONTINUOUS
370
25
 62
7
100
AcDbLine
 10
35.0
 20
13.48528137423857
 30
0.0
 11
36.40378483686548
 21
12.08149653737309
 31
0.0
  0
LINE
  5
B9B
330
1F
100
AcDbEntity
  8
SK2
  6
CONTINUOUS
370
25
 62
7
100
AcDbLine
 10
35.13600734118812
 20
13.77353810176238
 30
0.0
 11
36.75733822745875
 21
12.15220721549175
 31
0.0
  0
LINE
  5
B9C
330
1F
100
AcDbEntity
  8
SK2
  6
CONTINUOUS
370
25
 62
7
100
AcDbLine
 10
35.66633742707803
 20
13.6674720845844
 30
0.0
 11
37.11089161805202
 21
12.22291789361041
 31
0.0
  0
LINE
  5
B9D
330
1F
100
AcDbEntity
  8
SK2
  6
CONTINUOUS
370
25
 62
7
100
AcDbLine
 10
36.19666751296793
 20
13.56140606740641
 30
0.0
 11
37.46444500864529
 21
12.29362857172906
 31
0.0
  0
LINE
  5
B9E
330
1F
100
AcDbEntity
  8
SK2
  6
CONTINUOUS
370
25
 62
7
100
AcDbLine
 10
36.72699759885785
 20
13.45534005022843
 30
0.0
 11
37.81799839923857
 21
12.36433924984772
 31
0.0
  0
LINE
  5
B9F
330
1F
100
AcDbEntity
  8
SK2
  6
CONTINUOUS
370
25
 62
7
100
AcDbLine
 10
37.25732768474776
 20
13.34927403305045
 30
0.0
 11
38.17155178983185
 21
12.43504992796637
 31
0.0
  0
LINE
  5
BA0
330
1F
100
AcDbEntity
  8
SK2
  6
CONTINUOUS
370
25
 62
7
100
AcDbLine
 10
37.78765777063767
 20
13.24320801587247
 30
0.0
 11
38.52510518042511
 21
12.50576060608502
 31
0.0
  0
LINE
  5
BA1
330
1F
100
AcDbEntity
  8
SK2
  6
CONTINUOUS
370
25
 62
7
100
AcDbLine
 10
38.31798785652758
 20
13.13714199869449
 30
0.0
 11
38.87865857101839
 21
12.57647128420368
 31
0.0
  0
LINE
  5
BA2
330
1F
100
AcDbEntity
  8
SK2
  6
CONTINUOUS
370
25
 62
7
100
AcDbLine
 10
38.84831794241749
 20
13.0310759815165
 30
0.0
 11
39.23221196161166
 21
12.64718196232233
 31
0.0
  0
LINE
  5
BA3
330
1F
100
AcDbEntity
  8
SK2
  6
CONTINUOUS
370
25
 62
7
100
AcDbLine
 10
39.3786480283074
 20
12.92500996433852
 30
0.0
 11
39.58576535220494
 21
12.71789264044099
 31
0.0
  0
LINE
  5
BA4
330
1F
100
AcDbEntity
  8
SK2
  6
CONTINUOUS
370
25
 62
7
100
AcDbLine
 10
39.90897811419732
 20
12.81894394716054
 30
0.0
 11
39.93931874279821
 21
12.78860331855964
 31
0.0
  0
TEXT
  5
BA5
330
1F
100
AcDbEntity
  8
SK2
  6
CONTINUOUS
370
25
 62
7
100
AcDbText
 10
17.375
 20
14.30073957
 30
0.0
 40
3.5
  1
40
 72
     1
 11
20.0
 21
14.30073957
 31
0.0
100
AcDbText
  0
LINE
  5
BA6
330
1F
100
AcDbEntity
  8
2
  6
CONTINUOUS
370
25
 62
7
100
AcDbLine
 10
69.53811978
 20
-0.7999999999999999
 30
0.0
 11
103.0
 21
-0.800000000000004
 31
0.0
  0
LINE
  5
BA7
330
1F
100
AcDbEntity
  8
2
  6
CONTINUOUS
370
25
 62
7
100
AcDbLine
 10
103.0
 20
0.799999999999996
 30
0.0
 11
69.53811978
 21
0.8000000000000002
 31
0.0
  0
LINE
  5
BA8
330
1F
100
AcDbEntity
  8
2
  6
CONTINUOUS
370
25
 62
7
100
AcDbLine
 10
102.0
 20
-7.800000000000004
 30
0.0
 11
102.0
 21
20.22499999999999
 31
0.0
  0
LINE
  5
BA9
330
1F
100
AcDbEntity
  8
2
  6
CONTINUOUS
370
25
 62
7
100
AcDbLine
 10
102.0
 20
-0.8000000000000039
 30
0.0
 11
103.0
 21
-5.800000000000004
 31
0.0
  0
LINE
  5
BAA
330
1F
100
AcDbEntity
  8
2
  6
CONTINUOUS
370
25
 62
7
100
AcDbLine
 10
103.0
 20
-5.800000000000004
 30
0.0
 11
101.0
 21
-5.800000000000004
 31
0.0
  0
LINE
  5
BAB
330
1F
100
AcDbEntity
  8
2
  6
CONTINUOUS
370
25
 62
7
100
AcDbLine
 10
101.0
 20
-5.800000000000004
 30
0.0
 11
102.0
 21
-0.8000000000000039
 31
0.0
  0
LINE
  5
BAC
330
1F
100
AcDbEntity
  8
2
  6
CONTINUOUS
370
25
 62
7
100
AcDbLine
 10
102.7495190545082
 20
-5.800000000000004
 30
0.0
 11
102.9582531757514
 21
-5.591265878756843
 31
0.0
  0
LINE
  5
BAD
330
1F
100
AcDbEntity
  8
2
  6
CONTINUOUS
370
25
 62
7
100
AcDbLine
 10
102.3252549857963
 20
-5.800000000000004
 30
0.0
 11
102.8875424976327
 21
-5.237712488163559
 31
0.0
  0
LINE
  5
BAE
330
1F
100
AcDbEntity
  8
2
  6
CONTINUOUS
370
25
 62
7
100
AcDbLine
 10
101.9009909170843
 20
-5.800000000000004
 30
0.0
 11
102.8168318195141
 21
-4.88415909757029
 31
0.0
  0
LINE
  5
BAF
330
1F
100
AcDbEntity
  8
2
  6
CONTINUOUS
370
25
 62
7
100
AcDbLine
 10
101.4767268483724
 20
-5.800000000000004
 30
0.0
 11
102.7461211413954
 21
-4.530605706977013
 31
0.0
  0
LINE
  5
BB0
330
1F
100
AcDbEntity
  8
2
  6
CONTINUOUS
370
25
 62
7
100
AcDbLine
 10
101.0524627796605
 20
-5.800000000000004
 30
0.0
 11
102.6754104632767
 21
-4.177052316383751
 31
0.0
  0
LINE
  5
BB1
330
1F
100
AcDbEntity
  8
2
  6
CONTINUOUS
370
25
 62
7
100
AcDbLine
 10
101.0929503222629
 20
-5.335248388685677
 30
0.0
 11
102.6046997851581
 21
-3.823498925790474
 31
0.0
  0
LINE
  5
BB2
330
1F
100
AcDbEntity
  8
2
  6
CONTINUOUS
370
25
 62
7
100
AcDbLine
 10
101.1990163394408
 20
-4.804918302795791
 30
0.0
 11
102.5339891070394
 21
-3.469945535197219
 31
0.0
  0
LINE
  5
BB3
330
1F
100
AcDbEntity
  8
2
  6
CONTINUOUS
370
25
 62
7
100
AcDbLine
 10
101.3050823566188
 20
-4.274588216905883
 30
0.0
 11
102.4632784289208
 21
-3.116392144603935
 31
0.0
  0
LINE
  5
BB4
330
1F
100
AcDbEntity
  8
2
  6
CONTINUOUS
370
25
 62
7
100
AcDbLine
 10
101.4111483737968
 20
-3.744258131015975
 30
0.0
 11
102.3925677508021
 21
-2.762838754010659
 31
0.0
  0
LINE
  5
BB5
330
1F
100
AcDbEntity
  8
2
  6
CONTINUOUS
370
25
 62
7
100
AcDbLine
 10
101.5172143909748
 20
-3.21392804512606
 30
0.0
 11
102.3218570726835
 21
-2.409285363417389
 31
0.0
  0
LINE
  5
BB6
330
1F
100
AcDbEntity
  8
2
  6
CONTINUOUS
370
25
 62
7
100
AcDbLine
 10
101.6232804081528
 20
-2.683597959236167
 30
0.0
 11
102.2511463945648
 21
-2.055731972824127
 31
0.0
  0
LINE
  5
BB7
330
1F
100
AcDbEntity
  8
2
  6
CONTINUOUS
370
25
 62
7
100
AcDbLine
 10
101.7293464253308
 20
-2.153267873346259
 30
0.0
 11
102.1804357164462
 21
-1.702178582230843
 31
0.0
  0
LINE
  5
BB8
330
1F
100
AcDbEntity
  8
2
  6
CONTINUOUS
370
25
 62
7
100
AcDbLine
 10
101.8354124425087
 20
-1.622937787456344
 30
0.0
 11
102.1097250383275
 21
-1.348625191637574
 31
0.0
  0
LINE
  5
BB9
330
1F
100
AcDbEntity
  8
2
  6
CONTINUOUS
370
25
 62
7
100
AcDbLine
 10
101.9414784596867
 20
-1.092607701566436
 30
0.0
 11
102.0390143602089
 21
-0.9950718010442969
 31
0.0
  0
LINE
  5
BBA
330
1F
100
AcDbEntity
  8
2
  6
CONTINUOUS
370
25
 62
7
100
AcDbLine
 10
101.0630988335438
 20
-5.484505832281179
 30
0.0
 11
101.3785930012626
 21
-5.800000000000004
 31
0.0
  0
LINE
  5
BBB
330
1F
100
AcDbEntity
  8
2
  6
CONTINUOUS
370
25
 62
7
100
AcDbLine
 10
101.1338095116624
 20
-5.130952441687917
 30
0.0
 11
101.8028570699745
 21
-5.800000000000004
 31
0.0
  0
LINE
  5
BBC
330
1F
100
AcDbEntity
  8
2
  6
CONTINUOUS
370
25
 62
7
100
AcDbLine
 10
101.2045201897811
 20
-4.777399051094633
 30
0.0
 11
102.2271211386864
 21
-5.800000000000004
 31
0.0
  0
LINE
  5
BBD
330
1F
100
AcDbEntity
  8
2
  6
CONTINUOUS
370
25
 62
7
100
AcDbLine
 10
101.2752308678997
 20
-4.423845660501371
 30
0.0
 11
102.6513852073984
 21
-5.800000000000004
 31
0.0
  0
LINE
  5
BBE
330
1F
100
AcDbEntity
  8
2
  6
CONTINUOUS
370
25
 62
7
100
AcDbLine
 10
101.3459415460184
 20
-4.070292269908094
 30
0.0
 11
102.9810876809724
 21
-5.705438404862136
 31
0.0
  0
LINE
  5
BBF
330
1F
100
AcDbEntity
  8
2
  6
CONTINUOUS
370
25
 62
7
100
AcDbLine
 10
101.416652224137
 20
-3.716738879314818
 30
0.0
 11
102.8750216637944
 21
-5.175108318972228
 31
0.0
  0
LINE
  5
BC0
330
1F
100
AcDbEntity
  8
2
  6
CONTINUOUS
370
25
 62
7
100
AcDbLine
 10
101.4873629022557
 20
-3.363185488721548
 30
0.0
 11
102.7689556466165
 21
-4.64477823308232
 31
0.0
  0
LINE
  5
BC1
330
1F
100
AcDbEntity
  8
2
  6
CONTINUOUS
370
25
 62
7
100
AcDbLine
 10
101.5580735803744
 20
-3.009632098128272
 30
0.0
 11
102.6628896294385
 21
-4.114448147192412
 31
0.0
  0
LINE
  5
BC2
330
1F
100
AcDbEntity
  8
2
  6
CONTINUOUS
370
25
 62
7
100
AcDbLine
 10
101.628784258493
 20
-2.656078707534988
 30
0.0
 11
102.5568236122605
 21
-3.584118061302497
 31
0.0
  0
LINE
  5
BC3
330
1F
100
AcDbEntity
  8
2
  6
CONTINUOUS
370
25
 62
7
100
AcDbLine
 10
101.6994949366117
 20
-2.302525316941711
 30
0.0
 11
102.4507575950825
 21
-3.053787975412575
 31
0.0
  0
LINE
  5
BC4
330
1F
100
AcDbEntity
  8
2
  6
CONTINUOUS
370
25
 62
7
100
AcDbLine
 10
101.7702056147303
 20
-1.948971926348442
 30
0.0
 11
102.3446915779045
 21
-2.52345788952266
 31
0.0
  0
LINE
  5
BC5
330
1F
100
AcDbEntity
  8
2
  6
CONTINUOUS
370
25
 62
7
100
AcDbLine
 10
101.840916292849
 20
-1.595418535755172
 30
0.0
 11
102.2386255607265
 21
-1.993127803632746
 31
0.0
  0
LINE
  5
BC6
330
1F
100
AcDbEntity
  8
2
  6
CONTINUOUS
370
25
 62
7
100
AcDbLine
 10
101.9116269709676
 20
-1.241865145161896
 30
0.0
 11
102.1325595435486
 21
-1.462797717742831
 31
0.0
  0
LINE
  5
BC7
330
1F
100
AcDbEntity
  8
2
  6
CONTINUOUS
370
25
 62
7
100
AcDbLine
 10
101.9823376490863
 20
-0.8883117545686261
 30
0.0
 11
102.0264935263706
 21
-0.9324676318529299
 31
0.0
  0
LINE
  5
BC8
330
1F
100
AcDbEntity
  8
2
  6
CONTINUOUS
370
25
 62
7
100
AcDbLine
 10
102.0
 20
0.7999999999999962
 30
0.0
 11
101.0
 21
5.799999999999996
 31
0.0
  0
LINE
  5
BC9
330
1F
100
AcDbEntity
  8
2
  6
CONTINUOUS
370
25
 62
7
100
AcDbLine
 10
101.0
 20
5.799999999999996
 30
0.0
 11
103.0
 21
5.799999999999996
 31
0.0
  0
LINE
  5
BCA
330
1F
100
AcDbEntity
  8
2
  6
CONTINUOUS
370
25
 62
7
100
AcDbLine
 10
103.0
 20
5.799999999999996
 30
0.0
 11
102.0
 21
0.7999999999999962
 31
0.0
  0
LINE
  5
BCB
330
1F
100
AcDbEntity
  8
2
  6
CONTINUOUS
370
25
 62
7
100
AcDbLine
 10
101.9441586579605
 20
1.079206710197269
 30
0.0
 11
102.0837620130592
 21
1.218810065295912
 31
0.0
  0
LINE
  5
BCC
330
1F
100
AcDbEntity
  8
2
  6
CONTINUOUS
370
25
 62
7
100
AcDbLine
 10
101.8734479798419
 20
1.432760100790546
 30
0.0
 11
102.1898280302372
 21
1.74914015118582
 31
0.0
  0
LINE
  5
BCD
330
1F
100
AcDbEntity
  8
2
  6
CONTINUOUS
370
25
 62
7
100
AcDbLine
 10
101.8027373017232
 20
1.786313491383822
 30
0.0
 11
102.2958940474151
 21
2.279470237075735
 31
0.0
  0
LINE
  5
BCE
330
1F
100
AcDbEntity
  8
2
  6
CONTINUOUS
370
25
 62
7
100
AcDbLine
 10
101.7320266236046
 20
2.139866881977092
 30
0.0
 11
102.4019600645931
 21
2.809800322965636
 31
0.0
  0
LINE
  5
BCF
330
1F
100
AcDbEntity
  8
2
  6
CONTINUOUS
370
25
 62
7
100
AcDbLine
 10
101.6613159454859
 20
2.493420272570368
 30
0.0
 11
102.5080260817711
 21
3.340130408855543
 31
0.0
  0
LINE
  5
BD0
330
1F
100
AcDbEntity
  8
2
  6
CONTINUOUS
370
25
 62
7
100
AcDbLine
 10
101.5906052673673
 20
2.846973663163645
 30
0.0
 11
102.6140920989491
 21
3.870460494745451
 31
0.0
  0
LINE
  5
BD1
330
1F
100
AcDbEntity
  8
2
  6
CONTINUOUS
370
25
 62
7
100
AcDbLine
 10
101.5198945892486
 20
3.200527053756907
 30
0.0
 11
102.7201581161271
 21
4.400790580635352
 31
0.0
  0
LINE
  5
BD2
330
1F
100
AcDbEntity
  8
2
  6
CONTINUOUS
370
25
 62
7
100
AcDbLine
 10
101.44918391113
 20
3.554080444350191
 30
0.0
 11
102.826224133305
 21
4.93112066652526
 31
0.0
  0
LINE
  5
BD3
330
1F
100
AcDbEntity
  8
2
  6
CONTINUOUS
370
25
 62
7
100
AcDbLine
 10
101.3784732330113
 20
3.907633834943454
 30
0.0
 11
102.932290150483
 21
5.461450752415146
 31
0.0
  0
LINE
  5
BD4
330
1F
100
AcDbEntity
  8
2
  6
CONTINUOUS
370
25
 62
7
100
AcDbLine
 10
101.3077625548927
 20
4.26118722553673
 30
0.0
 11
102.8465753293559
 21
5.799999999999997
 31
0.0
  0
LINE
  5
BD5
330
1F
100
AcDbEntity
  8
2
  6
CONTINUOUS
370
25
 62
7
100
AcDbLine
 10
101.237051876774
 20
4.61474061613
 30
0.0
 11
102.422311260644
 21
5.799999999999997
 31
0.0
  0
LINE
  5
BD6
330
1F
100
AcDbEntity
  8
2
  6
CONTINUOUS
370
25
 62
7
100
AcDbLine
 10
101.1663411986553
 20
4.968294006723276
 30
0.0
 11
101.9980471919321
 21
5.799999999999997
 31
0.0
  0
LINE
  5
BD7
330
1F
100
AcDbEntity
  8
2
  6
CONTINUOUS
370
25
 62
7
100
AcDbLine
 10
101.0956305205367
 20
5.321847397316539
 30
0.0
 11
101.5737831232202
 21
5.799999999999997
 31
0.0
  0
LINE
  5
BD8
330
1F
100
AcDbEntity
  8
2
  6
CONTINUOUS
370
25
 62
7
100
AcDbLine
 10
101.024919842418
 20
5.675400787909815
 30
0.0
 11
101.1495190545082
 21
5.799999999999997
 31
0.0
  0
LINE
  5
BD9
330
1F
100
AcDbEntity
  8
2
  6
CONTINUOUS
370
25
 62
7
100
AcDbLine
 10
101.8961634404807
 20
1.319182797596618
 30
0.0
 11
102.0692243730129
 21
1.146121865064408
 31
0.0
  0
LINE
  5
BDA
330
1F
100
AcDbEntity
  8
2
  6
CONTINUOUS
370
25
 62
7
100
AcDbLine
 10
101.7900974233027
 20
1.849512883486526
 30
0.0
 11
102.1399350511315
 21
1.499675255657678
 31
0.0
  0
LINE
  5
BDB
330
1F
100
AcDbEntity
  8
2
  6
CONTINUOUS
370
25
 62
7
100
AcDbLine
 10
101.6840314061247
 20
2.379842969376448
 30
0.0
 11
102.2106457292502
 21
1.853228646250969
 31
0.0
  0
LINE
  5
BDC
330
1F
100
AcDbEntity
  8
2
  6
CONTINUOUS
370
25
 62
7
100
AcDbLine
 10
101.5779653889467
 20
2.910173055266348
 30
0.0
 11
102.2813564073688
 21
2.206782036844231
 31
0.0
  0
LINE
  5
BDD
330
1F
100
AcDbEntity
  8
2
  6
CONTINUOUS
370
25
 62
7
100
AcDbLine
 10
101.4718993717688
 20
3.44050314115627
 30
0.0
 11
102.3520670854875
 21
2.560335427437515
 31
0.0
  0
LINE
  5
BDE
330
1F
100
AcDbEntity
  8
2
  6
CONTINUOUS
370
25
 62
7
100
AcDbLine
 10
101.3658333545908
 20
3.970833227046171
 30
0.0
 11
102.4227777636061
 21
2.913888818030784
 31
0.0
  0
LINE
  5
BDF
330
1F
100
AcDbEntity
  8
2
  6
CONTINUOUS
370
25
 62
7
100
AcDbLine
 10
101.2597673374128
 20
4.5011633129361
 30
0.0
 11
102.4934884417248
 21
3.267442208624054
 31
0.0
  0
LINE
  5
BE0
330
1F
100
AcDbEntity
  8
2
  6
CONTINUOUS
370
25
 62
7
100
AcDbLine
 10
101.1537013202348
 20
5.031493398826022
 30
0.0
 11
102.5641991198435
 21
3.620995599217338
 31
0.0
  0
LINE
  5
BE1
330
1F
100
AcDbEntity
  8
2
  6
CONTINUOUS
370
25
 62
7
100
AcDbLine
 10
101.0476353030568
 20
5.56182348471593
 30
0.0
 11
102.6349097979621
 21
3.9745489898106
 31
0.0
  0
LINE
  5
BE2
330
1F
100
AcDbEntity
  8
2
  6
CONTINUOUS
370
25
 62
7
100
AcDbLine
 10
101.2337228564847
 20
5.799999999999997
 30
0.0
 11
102.7056204760808
 21
4.328102380403884
 31
0.0
  0
LINE
  5
BE3
330
1F
100
AcDbEntity
  8
2
  6
CONTINUOUS
370
25
 62
7
100
AcDbLine
 10
101.6579869251966
 20
5.799999999999997
 30
0.0
 11
102.7763311541994
 21
4.681655770997153
 31
0.0
  0
LINE
  5
BE4
330
1F
100
AcDbEntity
  8
2
  6
CONTINUOUS
370
25
 62
7
100
AcDbLine
 10
102.0822509939085
 20
5.799999999999997
 30
0.0
 11
102.8470418323181
 21
5.035209161590423
 31
0.0
  0
LINE
  5
BE5
330
1F
100
AcDbEntity
  8
2
  6
CONTINUOUS
370
25
 62
7
100
AcDbLine
 10
102.5065150626205
 20
5.799999999999997
 30
0.0
 11
102.9177525104367
 21
5.388762552183714
 31
0.0
  0
LINE
  5
BE6
330
1F
100
AcDbEntity
  8
2
  6
CONTINUOUS
370
25
 62
7
100
AcDbLine
 10
102.9307791313324
 20
5.799999999999997
 30
0.0
 11
102.9884631885554
 21
5.742315942776983
 31
0.0
  0
TEXT
  5
BE7
330
1F
100
AcDbEntity
  8
2
  6
CONTINUOUS
370
25
 62
7
100
AcDbText
 10
100.5
 20
12.37083333333333
 30
0.0
 40
3.5
  1
1.6
 50
90.00000000000001
 72
     1
 11
100.5
 21
15.28749999999999
 31
0.0
100
AcDbText
  0
CIRCLE
  5
BE8
330
1F
100
AcDbEntity
  8
2
  6
CONTINUOUS
370
25
 62
7
100
AcDbCircle
 10
98.75
 20
8.812499999999993
 30
0.0
 40
1.4
  0
LINE
  5
BE9
330
1F
100
AcDbEntity
  8
2
  6
CONTINUOUS
370
25
 62
7
100
AcDbLine
 10
100.15
 20
7.412499999999993
 30
0.0
 11
97.35
 21
10.21249999999999
 31
0.0
  0
LINE
  5
BEA
330
1F
100
AcDbEntity
  8
2
  6
CONTINUOUS
370
25
 62
7
100
AcDbLine
 10
40.0
 20
0.8
 30
0.0
 11
40.0
 21
23.8
 31
0.0
  0
LINE
  5
BEB
330
1F
100
AcDbEntity
  8
2
  6
CONTINUOUS
370
25
 62
7
100
AcDbLine
 10
70.0
 20
23.8
 30
0.0
 11
70.0
 21
0.0
 31
0.0
  0
LINE
  5
BEC
330
1F
100
AcDbEntity
  8
2
  6
CONTINUOUS
370
25
 62
7
100
AcDbLine
 10
40.0
 20
22.8
 30
0.0
 11
70.0
 21
22.8
 31
0.0
  0
LINE
  5
BED
330
1F
100
AcDbEntity
  8
2
  6
CONTINUOUS
370
25
 62
7
100
AcDbLine
 10
40.0
 20
22.8
 30
0.0
 11
45.0
 21
23.8
 31
0.0
  0
LINE
  5
BEE
330
1F
100
AcDbEntity
  8
2
  6
CONTINUOUS
370
25
 62
7
100
AcDbLine
 10
45.0
 20
23.8
 30
0.0
 11
45.0
 21
21.8
 31
0.0
  0
LINE
  5
BEF
330
1F
100
AcDbEntity
  8
2
  6
CONTINUOUS
370
25
 62
7
100
AcDbLine
 10
45.0
 20
21.8
 30
0.0
 11
40.0
 21
22.8
 31
0.0
  0
LINE
  5
BF0
330
1F
100
AcDbEntity
  8
2
  6
CONTINUOUS
370
25
 62
7
100
AcDbLine
 10
44.85786437626908
 20
21.82842712474618
 30
0.0
 11
45.0
 21
21.97056274847711
 31
0.0
  0
LINE
  5
BF1
330
1F
100
AcDbEntity
  8
2
  6
CONTINUOUS
370
25
 62
7
100
AcDbLine
 10
44.50431098567581
 20
21.89913780286484
 30
0.0
 11
45.0
 21
22.39482681718903
 31
0.0
  0
LINE
  5
BF2
330
1F
100
AcDbEntity
  8
2
  6
CONTINUOUS
370
25
 62
7
100
AcDbLine
 10
44.15075759508253
 20
21.96984848098349
 30
0.0
 11
45.0
 21
22.81909088590096
 31
0.0
  0
LINE
  5
BF3
330
1F
100
AcDbEntity
  8
2
  6
CONTINUOUS
370
25
 62
7
100
AcDbLine
 10
43.79720420448926
 20
22.04055915910215
 30
0.0
 11
45.0
 21
23.24335495461289
 31
0.0
  0
LINE
  5
BF4
330
1F
100
AcDbEntity
  8
2
  6
CONTINUOUS
370
25
 62
7
100
AcDbLine
 10
43.44365081389599
 20
22.1112698372208
 30
0.0
 11
45.0
 21
23.66761902332481
 31
0.0
  0
LINE
  5
BF5
330
1F
100
AcDbEntity
  8
2
  6
CONTINUOUS
370
25
 62
7
100
AcDbLine
 10
43.09009742330272
 20
22.18198051533946
 30
0.0
 11
44.63514613495407
 21
23.72702922699082
 31
0.0
  0
LINE
  5
BF6
330
1F
100
AcDbEntity
  8
2
  6
CONTINUOUS
370
25
 62
7
100
AcDbLine
 10
42.73654403270944
 20
22.25269119345811
 30
0.0
 11
44.10481604906416
 21
23.62096320981284
 31
0.0
  0
LINE
  5
BF7
330
1F
100
AcDbEntity
  8
2
  6
CONTINUOUS
370
25
 62
7
100
AcDbLine
 10
42.38299064211617
 20
22.32340187157677
 30
0.0
 11
43.57448596317425
 21
23.51489719263485
 31
0.0
  0
LINE
  5
BF8
330
1F
100
AcDbEntity
  8
2
  6
CONTINUOUS
370
25
 62
7
100
AcDbLine
 10
42.02943725152289
 20
22.39411254969542
 30
0.0
 11
43.04415587728435
 21
23.40883117545687
 31
0.0
  0
LINE
  5
BF9
330
1F
100
AcDbEntity
  8
2
  6
CONTINUOUS
370
25
 62
7
100
AcDbLine
 10
41.67588386092962
 20
22.46482322781408
 30
0.0
 11
42.51382579139443
 21
23.30276515827889
 31
0.0
  0
LINE
  5
BFA
330
1F
100
AcDbEntity
  8
2
  6
CONTINUOUS
370
25
 62
7
100
AcDbLine
 10
41.32233047033635
 20
22.53553390593273
 30
0.0
 11
41.98349570550452
 21
23.1966991411009
 31
0.0
  0
LINE
  5
BFB
330
1F
100
AcDbEntity
  8
2
  6
CONTINUOUS
370
25
 62
7
100
AcDbLine
 10
40.96877707974307
 20
22.60624458405139
 30
0.0
 11
41.45316561961461
 21
23.09063312392292
 31
0.0
  0
LINE
  5
BFC
330
1F
100
AcDbEntity
  8
2
  6
CONTINUOUS
370
25
 62
7
100
AcDbLine
 10
40.6152236891498
 20
22.67695526217004
 30
0.0
 11
40.9228355337247
 21
22.98456710674494
 31
0.0
  0
LINE
  5
BFD
330
1F
100
AcDbEntity
  8
2
  6
CONTINUOUS
370
25
 62
7
100
AcDbLine
 10
40.26167029855652
 20
22.74766594028869
 30
0.0
 11
40.39250544783479
 21
22.87850108956696
 31
0.0
  0
LINE
  5
BFE
330
1F
100
AcDbEntity
  8
2
  6
CONTINUOUS
370
25
 62
7
100
AcDbLine
 10
40.09188309203675
 20
22.81837661840735
 30
0.0
 11
40.13782463805513
 21
22.77243507238898
 31
0.0
  0
LINE
  5
BFF
330
1F
100
AcDbEntity
  8
2
  6
CONTINUOUS
370
25
 62
7
100
AcDbLine
 10
40.44543648263002
 20
22.88908729652601
 30
0.0
 11
40.66815472394504
 21
22.66636905521099
 31
0.0
  0
LINE
  5
C00
330
1F
100
AcDbEntity
  8
2
  6
CONTINUOUS
370
25
 62
7
100
AcDbLine
 10
40.7989898732233
 20
22.95979797464466
 30
0.0
 11
41.19848480983494
 21
22.56030303803301
 31
0.0
  0
LINE
  5
C01
330
1F
100
AcDbEntity
  8
2
  6
CONTINUOUS
370
25
 62
7
100
AcDbLine
 10
41.15254326381657
 20
23.03050865276332
 30
0.0
 11
41.72881489572486
 21
22.45423702085503
 31
0.0
  0
LINE
  5
C02
330
1F
100
AcDbEntity
  8
2
  6
CONTINUOUS
370
25
 62
7
100
AcDbLine
 10
41.50609665440984
 20
23.10121933088197
 30
0.0
 11
42.25914498161477
 21
22.34817100367705
 31
0.0
  0
LINE
  5
C03
330
1F
100
AcDbEntity
  8
2
  6
CONTINUOUS
370
25
 62
7
100
AcDbLine
 10
41.85965004500311
 20
23.17193000900063
 30
0.0
 11
42.78947506750468
 21
22.24210498649906
 31
0.0
  0
LINE
  5
C04
330
1F
100
AcDbEntity
  8
2
  6
CONTINUOUS
370
25
 62
7
100
AcDbLine
 10
42.21320343559639
 20
23.24264068711928
 30
0.0
 11
43.31980515339459
 21
22.13603896932108
 31
0.0
  0
LINE
  5
C05
330
1F
100
AcDbEntity
  8
2
  6
CONTINUOUS
370
25
 62
7
100
AcDbLine
 10
42.56675682618966
 20
23.31335136523793
 30
0.0
 11
43.8501352392845
 21
22.0299729521431
 31
0.0
  0
LINE
  5
C06
330
1F
100
AcDbEntity
  8
2
  6
CONTINUOUS
370
25
 62
7
100
AcDbLine
 10
42.92031021678294
 20
23.38406204335659
 30
0.0
 11
44.38046532517441
 21
21.92390693496512
 31
0.0
  0
LINE
  5
C07
330
1F
100
AcDbEntity
  8
2
  6
CONTINUOUS
370
25
 62
7
100
AcDbLine
 10
43.27386360737621
 20
23.45477272147524
 30
0.0
 11
44.91079541106432
 21
21.81784091778714
 31
0.0
  0
LINE
  5
C08
330
1F
100
AcDbEntity
  8
2
  6
CONTINUOUS
370
25
 62
7
100
AcDbLine
 10
43.62741699796948
 20
23.5254833995939
 30
0.0
 11
45.0
 21
22.15290039756339
 31
0.0
  0
LINE
  5
C09
330
1F
100
AcDbEntity
  8
2
  6
CONTINUOUS
370
25
 62
7
100
AcDbLine
 10
43.98097038856276
 20
23.59619407771255
 30
0.0
 11
45.0
 21
22.57716446627531
 31
0.0
  0
LINE
  5
C0A
330
1F
100
AcDbEntity
  8
2
  6
CONTINUOUS
370
25
 62
7
100
AcDbLine
 10
44.33452377915603
 20
23.66690475583121
 30
0.0
 11
45.0
 21
23.00142853498724
 31
0.0
  0
LINE
  5
C0B
330
1F
100
AcDbEntity
  8
2
  6
CONTINUOUS
370
25
 62
7
100
AcDbLine
 10
44.68807716974931
 20
23.73761543394986
 30
0.0
 11
45.0
 21
23.42569260369917
 31
0.0
  0
LINE
  5
C0C
330
1F
100
AcDbEntity
  8
2
  6
CONTINUOUS
370
25
 62
7
100
AcDbLine
 10
70.0
 20
22.8
 30
0.0
 11
65.0
 21
21.8
 31
0.0
  0
LINE
  5
C0D
330
1F
100
AcDbEntity
  8
2
  6
CONTINUOUS
370
25
 62
7
100
AcDbLine
 10
65.0
 20
21.8
 30
0.0
 11
65.0
 21
23.8
 31
0.0
  0
LINE
  5
C0E
330
1F
100
AcDbEntity
  8
2
  6
CONTINUOUS
370
25
 62
7
100
AcDbLine
 10
65.0
 20
23.8
 30
0.0
 11
70.0
 21
22.8
 31
0.0
  0
LINE
  5
C0F
330
1F
100
AcDbEntity
  8
2
  6
CONTINUOUS
370
25
 62
7
100
AcDbLine
 10
69.963440928613
 20
22.7926881857226
 30
0.0
 11
69.975627285742
 21
22.8048745428516
 31
0.0
  0
LINE
  5
C10
330
1F
100
AcDbEntity
  8
2
  6
CONTINUOUS
370
25
 62
7
100
AcDbLine
 10
69.43311084272308
 20
22.68662216854462
 30
0.0
 11
69.62207389514873
 21
22.87558522097026
 31
0.0
  0
LINE
  5
C11
330
1F
100
AcDbEntity
  8
2
  6
CONTINUOUS
370
25
 62
7
100
AcDbLine
 10
68.90278075683317
 20
22.58055615136663
 30
0.0
 11
69.26852050455545
 21
22.94629589908891
 31
0.0
  0
LINE
  5
C12
330
1F
100
AcDbEntity
  8
2
  6
CONTINUOUS
370
25
 62
7
100
AcDbLine
 10
68.37245067094325
 20
22.47449013418865
 30
0.0
 11
68.91496711396218
 21
23.01700657720757
 31
0.0
  0
LINE
  5
C13
330
1F
100
AcDbEntity
  8
2
  6
CONTINUOUS
370
25
 62
7
100
AcDbLine
 10
67.84212058505335
 20
22.36842411701067
 30
0.0
 11
68.5614137233689
 21
23.08771725532622
 31
0.0
  0
LINE
  5
C14
330
1F
100
AcDbEntity
  8
2
  6
CONTINUOUS
370
25
 62
7
100
AcDbLine
 10
67.31179049916344
 20
22.26235809983269
 30
0.0
 11
68.20786033277562
 21
23.15842793344488
 31
0.0
  0
LINE
  5
C15
330
1F
100
AcDbEntity
  8
2
  6
CONTINUOUS
370
25
 62
7
100
AcDbLine
 10
66.78146041327352
 20
22.1562920826547
 30
0.0
 11
67.85430694218235
 21
23.22913861156353
 31
0.0
  0
LINE
  5
C16
330
1F
100
AcDbEntity
  8
2
  6
CONTINUOUS
370
25
 62
7
100
AcDbLine
 10
66.25113032738362
 20
22.05022606547672
 30
0.0
 11
67.50075355158909
 21
23.29984928968219
 31
0.0
  0
LINE
  5
C17
330
1F
100
AcDbEntity
  8
2
  6
CONTINUOUS
370
25
 62
7
100
AcDbLine
 10
65.7208002414937
 20
21.94416004829874
 30
0.0
 11
67.14720016099581
 21
23.37055996780084
 31
0.0
  0
LINE
  5
C18
330
1F
100
AcDbEntity
  8
2
  6
CONTINUOUS
370
25
 62
7
100
AcDbLine
 10
65.1904701556038
 20
21.83809403112076
 30
0.0
 11
66.79364677040253
 21
23.4412706459195
 31
0.0
  0
LINE
  5
C19
330
1F
100
AcDbEntity
  8
2
  6
CONTINUOUS
370
25
 62
7
100
AcDbLine
 10
65.0
 20
22.07188794422888
 30
0.0
 11
66.44009337980926
 21
23.51198132403815
 31
0.0
  0
LINE
  5
C1A
330
1F
100
AcDbEntity
  8
2
  6
CONTINUOUS
370
25
 62
7
100
AcDbLine
 10
65.0
 20
22.49615201294081
 30
0.0
 11
66.08653998921599
 21
23.5826920021568
 31
0.0
  0
LINE
  5
C1B
330
1F
100
AcDbEntity
  8
2
  6
CONTINUOUS
370
25
 62
7
100
AcDbLine
 10
65.0
 20
22.92041608165274
 30
0.0
 11
65.73298659862272
 21
23.65340268027546
 31
0.0
  0
LINE
  5
C1C
330
1F
100
AcDbEntity
  8
2
  6
CONTINUOUS
370
25
 62
7
100
AcDbLine
 10
65.0
 20
23.34468015036467
 30
0.0
 11
65.37943320802944
 21
23.72411335839411
 31
0.0
  0
LINE
  5
C1D
330
1F
100
AcDbEntity
  8
2
  6
CONTINUOUS
370
25
 62
7
100
AcDbLine
 10
65.0
 20
23.7689442190766
 30
0.0
 11
65.02587981743616
 21
23.79482403651277
 31
0.0
  0
LINE
  5
C1E
330
1F
100
AcDbEntity
  8
2
  6
CONTINUOUS
370
25
 62
7
100
AcDbLine
 10
65.0
 20
22.09331162702406
 30
0.0
 11
65.24442635585339
 21
21.84888527117068
 31
0.0
  0
LINE
  5
C1F
330
1F
100
AcDbEntity
  8
2
  6
CONTINUOUS
370
25
 62
7
100
AcDbLine
 10
65.0
 20
22.51757569573599
 30
0.0
 11
65.59797974644667
 21
21.91959594928933
 31
0.0
  0
LINE
  5
C20
330
1F
100
AcDbEntity
  8
2
  6
CONTINUOUS
370
25
 62
7
100
AcDbLine
 10
65.0
 20
22.94183976444792
 30
0.0
 11
65.95153313703993
 21
21.99030662740799
 31
0.0
  0
LINE
  5
C21
330
1F
100
AcDbEntity
  8
2
  6
CONTINUOUS
370
25
 62
7
100
AcDbLine
 10
65.0
 20
23.36610383315985
 30
0.0
 11
66.30508652763321
 21
22.06101730552664
 31
0.0
  0
LINE
  5
C22
330
1F
100
AcDbEntity
  8
2
  6
CONTINUOUS
370
25
 62
7
100
AcDbLine
 10
65.0
 20
23.79036790187178
 30
0.0
 11
66.65863991822648
 21
22.13172798364529
 31
0.0
  0
LINE
  5
C23
330
1F
100
AcDbEntity
  8
2
  6
CONTINUOUS
370
25
 62
7
100
AcDbLine
 10
65.51828996322962
 20
23.69634200735408
 30
0.0
 11
67.01219330881975
 21
22.20243866176395
 31
0.0
  0
LINE
  5
C24
330
1F
100
AcDbEntity
  8
2
  6
CONTINUOUS
370
25
 62
7
100
AcDbLine
 10
66.04862004911953
 20
23.59027599017609
 30
0.0
 11
67.36574669941302
 21
22.2731493398826
 31
0.0
  0
LINE
  5
C25
330
1F
100
AcDbEntity
  8
2
  6
CONTINUOUS
370
25
 62
7
100
AcDbLine
 10
66.57895013500945
 20
23.48420997299811
 30
0.0
 11
67.7193000900063
 21
22.34386001800126
 31
0.0
  0
LINE
  5
C26
330
1F
100
AcDbEntity
  8
2
  6
CONTINUOUS
370
25
 62
7
100
AcDbLine
 10
67.10928022089936
 20
23.37814395582013
 30
0.0
 11
68.07285348059958
 21
22.41457069611991
 31
0.0
  0
LINE
  5
C27
330
1F
100
AcDbEntity
  8
2
  6
CONTINUOUS
370
25
 62
7
100
AcDbLine
 10
67.63961030678928
 20
23.27207793864215
 30
0.0
 11
68.42640687119285
 21
22.48528137423856
 31
0.0
  0
LINE
  5
C28
330
1F
100
AcDbEntity
  8
2
  6
CONTINUOUS
370
25
 62
7
100
AcDbLine
 10
68.1699403926792
 20
23.16601192146416
 30
0.0
 11
68.77996026178613
 21
22.55599205235722
 31
0.0
  0
LINE
  5
C29
330
1F
100
AcDbEntity
  8
2
  6
CONTINUOUS
370
25
 62
7
100
AcDbLine
 10
68.7002704785691
 20
23.05994590428618
 30
0.0
 11
69.13351365237939
 21
22.62670273047588
 31
0.0
  0
LINE
  5
C2A
330
1F
100
AcDbEntity
  8
2
  6
CONTINUOUS
370
25
 62
7
100
AcDbLine
 10
69.230600564459
 20
22.9538798871082
 30
0.0
 11
69.48706704297267
 21
22.69741340859453
 31
0.0
  0
LINE
  5
C2B
330
1F
100
AcDbEntity
  8
2
  6
CONTINUOUS
370
25
 62
7
100
AcDbLine
 10
69.76093065034893
 20
22.84781386993022
 30
0.0
 11
69.84062043356596
 21
22.76812408671319
 31
0.0
  0
TEXT
  5
C2C
330
1F
100
AcDbEntity
  8
2
  6
CONTINUOUS
370
25
 62
7
100
AcDbText
 10
52.375
 20
24.3
 30
0.0
 40
3.5
  1
30
 72
     1
 11
55.0
 21
24.3
 31
0.0
100
AcDbText
  0
LINE
  5
C2D
330
1F
100
AcDbEntity
  8
2
  6
CONTINUOUS
370
25
 62
7
100
AcDbLine
 10
43.2
 20
-0.8
 30
0.0
 11
43.2
 21
-33.8
 31
0.0
  0
LINE
  5
C2E
330
1F
100
AcDbEntity
  8
2
  6
CONTINUOUS
370
25
 62
7
100
AcDbLine
 10
70.0
 20
-33.8
 30
0.0
 11
70.0
 21
0.0
 31
0.0
  0
LINE
  5
C2F
330
1F
100
AcDbEntity
  8
2
  6
CONTINUOUS
370
25
 62
7
100
AcDbLine
 10
43.2
 20
-32.8
 30
0.0
 11
70.0
 21
-32.8
 31
0.0
  0
LINE
  5
C30
330
1F
100
AcDbEntity
  8
2
  6
CONTINUOUS
370
25
 62
7
100
AcDbLine
 10
43.2
 20
-32.8
 30
0.0
 11
48.2
 21
-31.8
 31
0.0
  0
LINE
  5
C31
330
1F
100
AcDbEntity
  8
2
  6
CONTINUOUS
370
25
 62
7
100
AcDbLine
 10
48.2
 20
-31.8
 30
0.0
 11
48.2
 21
-33.8
 31
0.0
  0
LINE
  5
C32
330
1F
100
AcDbEntity
  8
2
  6
CONTINUOUS
370
25
 62
7
100
AcDbLine
 10
48.2
 20
-33.8
 30
0.0
 11
43.2
 21
-32.8
 31
0.0
  0
LINE
  5
C33
330
1F
100
AcDbEntity
  8
2
  6
CONTINUOUS
370
25
 62
7
100
AcDbLine
 10
47.9317961528
 20
-33.74635923056
 30
0.0
 11
48.2
 21
-33.47815538336
 31
0.0
  0
LINE
  5
C34
330
1F
100
AcDbEntity
  8
2
  6
CONTINUOUS
370
25
 62
7
100
AcDbLine
 10
47.57824276220672
 20
-33.67564855244134
 30
0.0
 11
48.2
 21
-33.05389131464807
 31
0.0
  0
LINE
  5
C35
330
1F
100
AcDbEntity
  8
2
  6
CONTINUOUS
370
25
 62
7
100
AcDbLine
 10
47.22468937161344
 20
-33.60493787432269
 30
0.0
 11
48.2
 21
-32.62962724593613
 31
0.0
  0
LINE
  5
C36
330
1F
100
AcDbEntity
  8
2
  6
CONTINUOUS
370
25
 62
7
100
AcDbLine
 10
46.87113598102017
 20
-33.53422719620403
 30
0.0
 11
48.2
 21
-32.20536317722421
 31
0.0
  0
LINE
  5
C37
330
1F
100
AcDbEntity
  8
2
  6
CONTINUOUS
370
25
 62
7
100
AcDbLine
 10
46.5175825904269
 20
-33.46351651808538
 30
0.0
 11
48.17637388564035
 21
-31.80472522287193
 31
0.0
  0
LINE
  5
C38
330
1F
100
AcDbEntity
  8
2
  6
CONTINUOUS
370
25
 62
7
100
AcDbLine
 10
46.16402919983362
 20
-33.39280583996672
 30
0.0
 11
47.64604379975044
 21
-31.91079124004991
 31
0.0
  0
LINE
  5
C39
330
1F
100
AcDbEntity
  8
2
  6
CONTINUOUS
370
25
 62
7
100
AcDbLine
 10
45.81047580924034
 20
-33.32209516184807
 30
0.0
 11
47.11571371386052
 21
-32.01685725722789
 31
0.0
  0
LINE
  5
C3A
330
1F
100
AcDbEntity
  8
2
  6
CONTINUOUS
370
25
 62
7
100
AcDbLine
 10
45.45692241864707
 20
-33.25138448372941
 30
0.0
 11
46.58538362797061
 21
-32.12292327440588
 31
0.0
  0
LINE
  5
C3B
330
1F
100
AcDbEntity
  8
2
  6
CONTINUOUS
370
25
 62
7
100
AcDbLine
 10
45.10336902805379
 20
-33.18067380561075
 30
0.0
 11
46.0550535420807
 21
-32.22898929158386
 31
0.0
  0
LINE
  5
C3C
330
1F
100
AcDbEntity
  8
2
  6
CONTINUOUS
370
25
 62
7
100
AcDbLine
 10
44.74981563746052
 20
-33.1099631274921
 30
0.0
 11
45.52472345619078
 21
-32.33505530876184
 31
0.0
  0
LINE
  5
C3D
330
1F
100
AcDbEntity
  8
2
  6
CONTINUOUS
370
25
 62
7
100
AcDbLine
 10
44.39626224686724
 20
-33.03925244937344
 30
0.0
 11
44.99439337030087
 21
-32.44112132593983
 31
0.0
  0
LINE
  5
C3E
330
1F
100
AcDbEntity
  8
2
  6
CONTINUOUS
370
25
 62
7
100
AcDbLine
 10
44.04270885627397
 20
-32.96854177125479
 30
0.0
 11
44.46406328441095
 21
-32.54718734311781
 31
0.0
  0
LINE
  5
C3F
330
1F
100
AcDbEntity
  8
2
  6
CONTINUOUS
370
25
 62
7
100
AcDbLine
 10
43.68915546568069
 20
-32.89783109313613
 30
0.0
 11
43.93373319852104
 21
-32.65325336029579
 31
0.0
  0
LINE
  5
C40
330
1F
100
AcDbEntity
  8
2
  6
CONTINUOUS
370
25
 62
7
100
AcDbLine
 10
43.33560207508742
 20
-32.82712041501748
 30
0.0
 11
43.40340311263112
 21
-32.75931937747377
 31
0.0
  0
LINE
  5
C41
330
1F
100
AcDbEntity
  8
2
  6
CONTINUOUS
370
25
 62
7
100
AcDbLine
 10
43.29603574903481
 20
-32.78079285019304
 30
0.0
 11
43.34405362355221
 21
-32.82881072471044
 31
0.0
  0
LINE
  5
C42
330
1F
100
AcDbEntity
  8
2
  6
CONTINUOUS
370
25
 62
7
100
AcDbLine
 10
43.64958913962808
 20
-32.71008217207438
 30
0.0
 11
43.87438370944212
 21
-32.93487674188842
 31
0.0
  0
LINE
  5
C43
330
1F
100
AcDbEntity
  8
2
  6
CONTINUOUS
370
25
 62
7
100
AcDbLine
 10
44.00314253022135
 20
-32.63937149395573
 30
0.0
 11
44.40471379533204
 21
-33.0409427590664
 31
0.0
  0
LINE
  5
C44
330
1F
100
AcDbEntity
  8
2
  6
CONTINUOUS
370
25
 62
7
100
AcDbLine
 10
44.35669592081463
 20
-32.56866081583707
 30
0.0
 11
44.93504388122194
 21
-33.14700877624438
 31
0.0
  0
LINE
  5
C45
330
1F
100
AcDbEntity
  8
2
  6
CONTINUOUS
370
25
 62
7
100
AcDbLine
 10
44.71024931140791
 20
-32.49795013771842
 30
0.0
 11
45.46537396711186
 21
-33.25307479342237
 31
0.0
  0
LINE
  5
C46
330
1F
100
AcDbEntity
  8
2
  6
CONTINUOUS
370
25
 62
7
100
AcDbLine
 10
45.06380270200118
 20
-32.42723945959976
 30
0.0
 11
45.99570405300177
 21
-33.35914081060035
 31
0.0
  0
LINE
  5
C47
330
1F
100
AcDbEntity
  8
2
  6
CONTINUOUS
370
25
 62
7
100
AcDbLine
 10
45.41735609259445
 20
-32.3565287814811
 30
0.0
 11
46.52603413889169
 21
-33.46520682777833
 31
0.0
  0
LINE
  5
C48
330
1F
100
AcDbEntity
  8
2
  6
CONTINUOUS
370
25
 62
7
100
AcDbLine
 10
45.77090948318773
 20
-32.28581810336245
 30
0.0
 11
47.0563642247816
 21
-33.57127284495632
 31
0.0
  0
LINE
  5
C49
330
1F
100
AcDbEntity
  8
2
  6
CONTINUOUS
370
25
 62
7
100
AcDbLine
 10
46.12446287378101
 20
-32.2151074252438
 30
0.0
 11
47.58669431067152
 21
-33.6773388621343
 31
0.0
  0
LINE
  5
C4A
330
1F
100
AcDbEntity
  8
2
  6
CONTINUOUS
370
25
 62
7
100
AcDbLine
 10
46.47801626437428
 20
-32.14439674712514
 30
0.0
 11
48.11702439656143
 21
-33.78340487931229
 31
0.0
  0
LINE
  5
C4B
330
1F
100
AcDbEntity
  8
2
  6
CONTINUOUS
370
25
 62
7
100
AcDbLine
 10
46.83156965496755
 20
-32.07368606900648
 30
0.0
 11
48.2
 21
-33.44211641403892
 31
0.0
  0
LINE
  5
C4C
330
1F
100
AcDbEntity
  8
2
  6
CONTINUOUS
370
25
 62
7
100
AcDbLine
 10
47.18512304556083
 20
-32.00297539088783
 30
0.0
 11
48.2
 21
-33.01785234532699
 31
0.0
  0
LINE
  5
C4D
330
1F
100
AcDbEntity
  8
2
  6
CONTINUOUS
370
25
 62
7
100
AcDbLine
 10
47.53867643615411
 20
-31.93226471276918
 30
0.0
 11
48.2
 21
-32.59358827661506
 31
0.0
  0
LINE
  5
C4E
330
1F
100
AcDbEntity
  8
2
  6
CONTINUOUS
370
25
 62
7
100
AcDbLine
 10
47.89222982674738
 20
-31.86155403465052
 30
0.0
 11
48.2
 21
-32.16932420790313
 31
0.0
  0
LINE
  5
C4F
330
1F
100
AcDbEntity
  8
2
  6
CONTINUOUS
370
25
 62
7
100
AcDbLine
 10
70.0
 20
-32.8
 30
0.0
 11
65.0
 21
-33.8
 31
0.0
  0
LINE
  5
C50
330
1F
100
AcDbEntity
  8
2
  6
CONTINUOUS
370
25
 62
7
100
AcDbLine
 10
65.0
 20
-33.8
 30
0.0
 11
65.0
 21
-31.8
 31
0.0
  0
LINE
  5
C51
330
1F
100
AcDbEntity
  8
2
  6
CONTINUOUS
370
25
 62
7
100
AcDbLine
 10
65.0
 20
-31.8
 30
0.0
 11
70.0
 21
-32.8
 31
0.0
  0
LINE
  5
C52
330
1F
100
AcDbEntity
  8
2
  6
CONTINUOUS
370
25
 62
7
100
AcDbLine
 10
69.99019967703468
 20
-32.80196006459306
 30
0.0
 11
69.99346645135645
 21
-32.79869329027129
 31
0.0
  0
LINE
  5
C53
330
1F
100
AcDbEntity
  8
2
  6
CONTINUOUS
370
25
 62
7
100
AcDbLine
 10
69.45986959114475
 20
-32.90802608177104
 30
0.0
 11
69.63991306076318
 21
-32.72798261215263
 31
0.0
  0
LINE
  5
C54
330
1F
100
AcDbEntity
  8
2
  6
CONTINUOUS
370
25
 62
7
100
AcDbLine
 10
68.92953950525484
 20
-33.01409209894903
 30
0.0
 11
69.28635967016989
 21
-32.65727193403398
 31
0.0
  0
LINE
  5
C55
330
1F
100
AcDbEntity
  8
2
  6
CONTINUOUS
370
25
 62
7
100
AcDbLine
 10
68.39920941936492
 20
-33.12015811612702
 30
0.0
 11
68.93280627957662
 21
-32.58656125591533
 31
0.0
  0
LINE
  5
C56
330
1F
100
AcDbEntity
  8
2
  6
CONTINUOUS
370
25
 62
7
100
AcDbLine
 10
67.86887933347502
 20
-33.226224133305
 30
0.0
 11
68.57925288898335
 21
-32.51585057779667
 31
0.0
  0
LINE
  5
C57
330
1F
100
AcDbEntity
  8
2
  6
CONTINUOUS
370
25
 62
7
100
AcDbLine
 10
67.3385492475851
 20
-33.33229015048298
 30
0.0
 11
68.22569949839007
 21
-32.44513989967801
 31
0.0
  0
LINE
  5
C58
330
1F
100
AcDbEntity
  8
2
  6
CONTINUOUS
370
25
 62
7
100
AcDbLine
 10
66.80821916169518
 20
-33.43835616766096
 30
0.0
 11
67.8721461077968
 21
-32.37442922155935
 31
0.0
  0
LINE
  5
C59
330
1F
100
AcDbEntity
  8
2
  6
CONTINUOUS
370
25
 62
7
100
AcDbLine
 10
66.27788907580528
 20
-33.54442218483894
 30
0.0
 11
67.51859271720352
 21
-32.3037185434407
 31
0.0
  0
LINE
  5
C5A
330
1F
100
AcDbEntity
  8
2
  6
CONTINUOUS
370
25
 62
7
100
AcDbLine
 10
65.74755898991536
 20
-33.65048820201693
 30
0.0
 11
67.16503932661024
 21
-32.23300786532204
 31
0.0
  0
LINE
  5
C5B
330
1F
100
AcDbEntity
  8
2
  6
CONTINUOUS
370
25
 62
7
100
AcDbLine
 10
65.21722890402545
 20
-33.75655421919491
 30
0.0
 11
66.81148593601696
 21
-32.16229718720339
 31
0.0
  0
LINE
  5
C5C
330
1F
100
AcDbEntity
  8
2
  6
CONTINUOUS
370
25
 62
7
100
AcDbLine
 10
65.0
 20
-33.54951905450842
 30
0.0
 11
66.45793254542369
 21
-32.09158650908473
 31
0.0
  0
LINE
  5
C5D
330
1F
100
AcDbEntity
  8
2
  6
CONTINUOUS
370
25
 62
7
100
AcDbLine
 10
65.0
 20
-33.1252549857965
 30
0.0
 11
66.10437915483041
 21
-32.02087583096608
 31
0.0
  0
LINE
  5
C5E
330
1F
100
AcDbEntity
  8
2
  6
CONTINUOUS
370
25
 62
7
100
AcDbLine
 10
65.0
 20
-32.70099091708457
 30
0.0
 11
65.75082576423713
 21
-31.95016515284742
 31
0.0
  0
LINE
  5
C5F
330
1F
100
AcDbEntity
  8
2
  6
CONTINUOUS
370
25
 62
7
100
AcDbLine
 10
65.0
 20
-32.27672684837264
 30
0.0
 11
65.39727237364387
 21
-31.87945447472877
 31
0.0
  0
LINE
  5
C60
330
1F
100
AcDbEntity
  8
2
  6
CONTINUOUS
370
25
 62
7
100
AcDbLine
 10
65.0
 20
-31.8524627796607
 30
0.0
 11
65.04371898305058
 21
-31.80874379661012
 31
0.0
  0
LINE
  5
C61
330
1F
100
AcDbEntity
  8
2
  6
CONTINUOUS
370
25
 62
7
100
AcDbLine
 10
65.0
 20
-33.79501681160247
 30
0.0
 11
65.00415265699795
 21
-33.79916946860041
 31
0.0
  0
LINE
  5
C62
330
1F
100
AcDbEntity
  8
2
  6
CONTINUOUS
370
25
 62
7
100
AcDbLine
 10
65.0
 20
-33.37075274289054
 30
0.0
 11
65.35770604759122
 21
-33.72845879048175
 31
0.0
  0
LINE
  5
C63
330
1F
100
AcDbEntity
  8
2
  6
CONTINUOUS
370
25
 62
7
100
AcDbLine
 10
65.0
 20
-32.94648867417861
 30
0.0
 11
65.7112594381845
 21
-33.65774811236309
 31
0.0
  0
LINE
  5
C64
330
1F
100
AcDbEntity
  8
2
  6
CONTINUOUS
370
25
 62
7
100
AcDbLine
 10
65.0
 20
-32.52222460546668
 30
0.0
 11
66.06481282877776
 21
-33.58703743424444
 31
0.0
  0
LINE
  5
C65
330
1F
100
AcDbEntity
  8
2
  6
CONTINUOUS
370
25
 62
7
100
AcDbLine
 10
65.0
 20
-32.09796053675475
 30
0.0
 11
66.41836621937105
 21
-33.51632675612579
 31
0.0
  0
LINE
  5
C66
330
1F
100
AcDbEntity
  8
2
  6
CONTINUOUS
370
25
 62
7
100
AcDbLine
 10
65.15787941494646
 20
-31.83157588298929
 30
0.0
 11
66.77191960996431
 21
-33.44561607800713
 31
0.0
  0
LINE
  5
C67
330
1F
100
AcDbEntity
  8
2
  6
CONTINUOUS
370
25
 62
7
100
AcDbLine
 10
65.68820950083638
 20
-31.93764190016728
 30
0.0
 11
67.12547300055759
 21
-33.37490539988848
 31
0.0
  0
LINE
  5
C68
330
1F
100
AcDbEntity
  8
2
  6
CONTINUOUS
370
25
 62
7
100
AcDbLine
 10
66.2185395867263
 20
-32.04370791734526
 30
0.0
 11
67.47902639115087
 21
-33.30419472176982
 31
0.0
  0
LINE
  5
C69
330
1F
100
AcDbEntity
  8
2
  6
CONTINUOUS
370
25
 62
7
100
AcDbLine
 10
66.74886967261621
 20
-32.14977393452324
 30
0.0
 11
67.83257978174414
 21
-33.23348404365117
 31
0.0
  0
LINE
  5
C6A
330
1F
100
AcDbEntity
  8
2
  6
CONTINUOUS
370
25
 62
7
100
AcDbLine
 10
67.27919975850612
 20
-32.25583995170123
 30
0.0
 11
68.18613317233742
 21
-33.16277336553251
 31
0.0
  0
LINE
  5
C6B
330
1F
100
AcDbEntity
  8
2
  6
CONTINUOUS
370
25
 62
7
100
AcDbLine
 10
67.80952984439604
 20
-32.36190596887921
 30
0.0
 11
68.5396865629307
 21
-33.09206268741386
 31
0.0
  0
LINE
  5
C6C
330
1F
100
AcDbEntity
  8
2
  6
CONTINUOUS
370
25
 62
7
100
AcDbLine
 10
68.33985993028595
 20
-32.46797198605719
 30
0.0
 11
68.89323995352396
 21
-33.0213520092952
 31
0.0
  0
LINE
  5
C6D
330
1F
100
AcDbEntity
  8
2
  6
CONTINUOUS
370
25
 62
7
100
AcDbLine
 10
68.87019001617587
 20
-32.57403800323517
 30
0.0
 11
69.24679334411725
 21
-32.95064133117655
 31
0.0
  0
LINE
  5
C6E
330
1F
100
AcDbEntity
  8
2
  6
CONTINUOUS
370
25
 62
7
100
AcDbLine
 10
69.4005201020658
 20
-32.68010402041315
 30
0.0
 11
69.60034673471053
 21
-32.87993065305789
 31
0.0
  0
LINE
  5
C6F
330
1F
100
AcDbEntity
  8
2
  6
CONTINUOUS
370
25
 62
7
100
AcDbLine
 10
69.93085018795571
 20
-32.78617003759113
 30
0.0
 11
69.9539001253038
 21
-32.80921997493924
 31
0.0
  0
TEXT
  5
C70
330
1F
100
AcDbEntity
  8
2
  6
CONTINUOUS
370
25
 62
7
100
AcDbText
 10
51.34999999999999
 20
-31.3
 30
0.0
 40
3.5
  1
26.8
 72
     1
 11
56.59999999999999
 21
-31.3
 31
0.0
100
AcDbText
  0
LINE
  5
C71
330
1F
100
AcDbEntity
  8
SK2
  6
CONTINUOUS
370
25
 62
7
100
AcDbLine
 10
0.0
 20
1.6
 30
0.0
 11
0.0
 21
33.8
 31
0.0
  0
LINE
  5
C72
330
1F
100
AcDbEntity
  8
SK2
  6
CONTINUOUS
370
25
 62
7
100
AcDbLine
 10
70.0
 20
33.8
 30
0.0
 11
70.0
 21
0.0000000000000071
 31
0.0
  0
LINE
  5
C73
330
1F
100
AcDbEntity
  8
SK2
  6
CONTINUOUS
370
25
 62
7
100
AcDbLine
 10
0.0
 20
32.8
 30
0.0
 11
70.0
 21
32.8
 31
0.0
  0
LINE
  5
C74
330
1F
100
AcDbEntity
  8
SK2
  6
CONTINUOUS
370
25
 62
7
100
AcDbLine
 10
0.0
 20
32.8
 30
0.0
 11
5.0
 21
33.8
 31
0.0
  0
LINE
  5
C75
330
1F
100
AcDbEntity
  8
SK2
  6
CONTINUOUS
370
25
 62
7
100
AcDbLine
 10
5.0
 20
33.8
 30
0.0
 11
5.0
 21
31.8
 31
0.0
  0
LINE
  5
C76
330
1F
100
AcDbEntity
  8
SK2
  6
CONTINUOUS
370
25
 62
7
100
AcDbLine
 10
5.0
 20
31.8
 30
0.0
 11
0.0
 21
32.8
 31
0.0
  0
LINE
  5
C77
330
1F
100
AcDbEntity
  8
SK2
  6
CONTINUOUS
370
25
 62
7
100
AcDbLine
 10
4.805230952929399
 20
31.83895380941413
 30
0.0
 11
5.0
 21
32.03372285648473
 31
0.0
  0
LINE
  5
C78
330
1F
100
AcDbEntity
  8
SK2
  6
CONTINUOUS
370
25
 62
7
100
AcDbLine
 10
4.45167756233613
 20
31.90966448753278
 30
0.0
 11
5.0
 21
32.45798692519665
 31
0.0
  0
LINE
  5
C79
330
1F
100
AcDbEntity
  8
SK2
  6
CONTINUOUS
370
25
 62
7
100
AcDbLine
 10
4.098124171742853
 20
31.98037516565144
 30
0.0
 11
5.0
 21
32.88225099390858
 31
0.0
  0
LINE
  5
C7A
330
1F
100
AcDbEntity
  8
SK2
  6
CONTINUOUS
370
25
 62
7
100
AcDbLine
 10
3.744570781149569
 20
32.05108584377009
 30
0.0
 11
5.0
 21
33.30651506262052
 31
0.0
  0
LINE
  5
C7B
330
1F
100
AcDbEntity
  8
SK2
  6
CONTINUOUS
370
25
 62
7
100
AcDbLine
 10
3.391017390556307
 20
32.12179652188875
 30
0.0
 11
5.0
 21
33.73077913133244
 31
0.0
  0
LINE
  5
C7C
330
1F
100
AcDbEntity
  8
SK2
  6
CONTINUOUS
370
25
 62
7
100
AcDbLine
 10
3.03746399996303
 20
32.19250720000741
 30
0.0
 11
4.556195999944535
 21
33.71123919998891
 31
0.0
  0
LINE
  5
C7D
330
1F
100
AcDbEntity
  8
SK2
  6
CONTINUOUS
370
25
 62
7
100
AcDbLine
 10
2.683910609369747
 20
32.26321787812606
 30
0.0
 11
4.02586591405462
 21
33.60517318281093
 31
0.0
  0
LINE
  5
C7E
330
1F
100
AcDbEntity
  8
SK2
  6
CONTINUOUS
370
25
 62
7
100
AcDbLine
 10
2.33035721877647
 20
32.33392855624471
 30
0.0
 11
3.495535828164705
 21
33.49910716563295
 31
0.0
  0
LINE
  5
C7F
330
1F
100
AcDbEntity
  8
SK2
  6
CONTINUOUS
370
25
 62
7
100
AcDbLine
 10
1.976803828183186
 20
32.40463923436337
 30
0.0
 11
2.965205742274776
 21
33.39304114845496
 31
0.0
  0
LINE
  5
C80
330
1F
100
AcDbEntity
  8
SK2
  6
CONTINUOUS
370
25
 62
7
100
AcDbLine
 10
1.62325043758991
 20
32.47534991248202
 30
0.0
 11
2.434875656384861
 21
33.28697513127698
 31
0.0
  0
LINE
  5
C81
330
1F
100
AcDbEntity
  8
SK2
  6
CONTINUOUS
370
25
 62
7
100
AcDbLine
 10
1.269697046996633
 20
32.54606059060068
 30
0.0
 11
1.904545570494946
 21
33.18090911409899
 31
0.0
  0
LINE
  5
C82
330
1F
100
AcDbEntity
  8
SK2
  6
CONTINUOUS
370
25
 62
7
100
AcDbLine
 10
0.9161436564033565
 20
32.61677126871933
 30
0.0
 11
1.374215484605038
 21
33.07484309692101
 31
0.0
  0
LINE
  5
C83
330
1F
100
AcDbEntity
  8
SK2
  6
CONTINUOUS
370
25
 62
7
100
AcDbLine
 10
0.562590265810087
 20
32.68748194683799
 30
0.0
 11
0.8438853987151305
 21
32.96877707974303
 31
0.0
  0
LINE
  5
C84
330
1F
100
AcDbEntity
  8
SK2
  6
CONTINUOUS
370
25
 62
7
100
AcDbLine
 10
0.2090368752168104
 20
32.75819262495664
 30
0.0
 11
0.3135553128252155
 21
32.86271106256505
 31
0.0
  0
LINE
  5
C85
330
1F
100
AcDbEntity
  8
SK2
  6
CONTINUOUS
370
25
 62
7
100
AcDbLine
 10
0.0243727142580283
 20
32.80487454285161
 30
0.0
 11
0.0365590713870461
 21
32.79268818572259
 31
0.0
  0
LINE
  5
C86
330
1F
100
AcDbEntity
  8
SK2
  6
CONTINUOUS
370
25
 62
7
100
AcDbLine
 10
0.377926104851305
 20
32.87558522097027
 30
0.0
 11
0.5668891572769681
 21
32.68662216854461
 31
0.0
  0
LINE
  5
C87
330
1F
100
AcDbEntity
  8
SK2
  6
CONTINUOUS
370
25
 62
7
100
AcDbLine
 10
0.7314794954445816
 20
32.94629589908892
 30
0.0
 11
1.097219243166876
 21
32.58055615136663
 31
0.0
  0
LINE
  5
C88
330
1F
100
AcDbEntity
  8
SK2
  6
CONTINUOUS
370
25
 62
7
100
AcDbLine
 10
1.085032886037865
 20
33.01700657720757
 30
0.0
 11
1.627549329056798
 21
32.47449013418864
 31
0.0
  0
LINE
  5
C89
330
1F
100
AcDbEntity
  8
SK2
  6
CONTINUOUS
370
25
 62
7
100
AcDbLine
 10
1.438586276631135
 20
33.08771725532623
 30
0.0
 11
2.157879414946706
 21
32.36842411701066
 31
0.0
  0
LINE
  5
C8A
330
1F
100
AcDbEntity
  8
SK2
  6
CONTINUOUS
370
25
 62
7
100
AcDbLine
 10
1.792139667224411
 20
33.15842793344489
 30
0.0
 11
2.688209500836621
 21
32.26235809983267
 31
0.0
  0
LINE
  5
C8B
330
1F
100
AcDbEntity
  8
SK2
  6
CONTINUOUS
370
25
 62
7
100
AcDbLine
 10
2.145693057817695
 20
33.22913861156354
 30
0.0
 11
3.218539586726536
 21
32.15629208265469
 31
0.0
  0
LINE
  5
C8C
330
1F
100
AcDbEntity
  8
SK2
  6
CONTINUOUS
370
25
 62
7
100
AcDbLine
 10
2.499246448410972
 20
33.2998492896822
 30
0.0
 11
3.748869672616458
 21
32.05022606547671
 31
0.0
  0
LINE
  5
C8D
330
1F
100
AcDbEntity
  8
SK2
  6
CONTINUOUS
370
25
 62
7
100
AcDbLine
 10
2.852799839004248
 20
33.37055996780085
 30
0.0
 11
4.279199758506365
 21
31.94416004829873
 31
0.0
  0
LINE
  5
C8E
330
1F
100
AcDbEntity
  8
SK2
  6
CONTINUOUS
370
25
 62
7
100
AcDbLine
 10
3.206353229597525
 20
33.44127064591951
 30
0.0
 11
4.80952984439628
 21
31.83809403112075
 31
0.0
  0
LINE
  5
C8F
330
1F
100
AcDbEntity
  8
SK2
  6
CONTINUOUS
370
25
 62
7
100
AcDbLine
 10
3.559906620190795
 20
33.51198132403817
 30
0.0
 11
5.0
 21
32.07188794422895
 31
0.0
  0
LINE
  5
C90
330
1F
100
AcDbEntity
  8
SK2
  6
CONTINUOUS
370
25
 62
7
100
AcDbLine
 10
3.913460010784078
 20
33.58269200215682
 30
0.0
 11
5.0
 21
32.49615201294089
 31
0.0
  0
LINE
  5
C91
330
1F
100
AcDbEntity
  8
SK2
  6
CONTINUOUS
370
25
 62
7
100
AcDbLine
 10
4.267013401377348
 20
33.65340268027548
 30
0.0
 11
5.0
 21
32.92041608165282
 31
0.0
  0
LINE
  5
C92
330
1F
100
AcDbEntity
  8
SK2
  6
CONTINUOUS
370
25
 62
7
100
AcDbLine
 10
4.620566791970624
 20
33.72411335839413
 30
0.0
 11
5.0
 21
33.34468015036475
 31
0.0
  0
LINE
  5
C93
330
1F
100
AcDbEntity
  8
SK2
  6
CONTINUOUS
370
25
 62
7
100
AcDbLine
 10
4.974120182563901
 20
33.79482403651279
 30
0.0
 11
5.0
 21
33.76894421907669
 31
0.0
  0
LINE
  5
C94
330
1F
100
AcDbEntity
  8
SK2
  6
CONTINUOUS
370
25
 62
7
100
AcDbLine
 10
70.0
 20
32.8
 30
0.0
 11
65.0
 21
31.8
 31
0.0
  0
LINE
  5
C95
330
1F
100
AcDbEntity
  8
SK2
  6
CONTINUOUS
370
25
 62
7
100
AcDbLine
 10
65.0
 20
31.8
 30
0.0
 11
65.0
 21
33.8
 31
0.0
  0
LINE
  5
C96
330
1F
100
AcDbEntity
  8
SK2
  6
CONTINUOUS
370
25
 62
7
100
AcDbLine
 10
65.0
 20
33.8
 30
0.0
 11
70.0
 21
32.8
 31
0.0
  0
LINE
  5
C97
330
1F
100
AcDbEntity
  8
SK2
  6
CONTINUOUS
370
25
 62
7
100
AcDbLine
 10
69.7876893987706
 20
32.75753787975412
 30
0.0
 11
69.8584595991804
 21
32.82830808016392
 31
0.0
  0
LINE
  5
C98
330
1F
100
AcDbEntity
  8
SK2
  6
CONTINUOUS
370
25
 62
7
100
AcDbLine
 10
69.25735931288068
 20
32.65147186257614
 30
0.0
 11
69.50490620858713
 21
32.89901875828258
 31
0.0
  0
LINE
  5
C99
330
1F
100
AcDbEntity
  8
SK2
  6
CONTINUOUS
370
25
 62
7
100
AcDbLine
 10
68.72702922699077
 20
32.54540584539816
 30
0.0
 11
69.15135281799385
 21
32.96972943640123
 31
0.0
  0
LINE
  5
C9A
330
1F
100
AcDbEntity
  8
SK2
  6
CONTINUOUS
370
25
 62
7
100
AcDbLine
 10
68.19669914110086
 20
32.43933982822017
 30
0.0
 11
68.79779942740058
 21
33.0404401145199
 31
0.0
  0
LINE
  5
C9B
330
1F
100
AcDbEntity
  8
SK2
  6
CONTINUOUS
370
25
 62
7
100
AcDbLine
 10
67.66636905521095
 20
32.33327381104219
 30
0.0
 11
68.4442460368073
 21
33.11115079263855
 31
0.0
  0
LINE
  5
C9C
330
1F
100
AcDbEntity
  8
SK2
  6
CONTINUOUS
370
25
 62
7
100
AcDbLine
 10
67.13603896932105
 20
32.22720779386421
 30
0.0
 11
68.09069264621402
 21
33.1818614707572
 31
0.0
  0
LINE
  5
C9D
330
1F
100
AcDbEntity
  8
SK2
  6
CONTINUOUS
370
25
 62
7
100
AcDbLine
 10
66.60570888343113
 20
32.12114177668623
 30
0.0
 11
67.73713925562075
 21
33.25257214887586
 31
0.0
  0
LINE
  5
C9E
330
1F
100
AcDbEntity
  8
SK2
  6
CONTINUOUS
370
25
 62
7
100
AcDbLine
 10
66.07537879754122
 20
32.01507575950825
 30
0.0
 11
67.38358586502747
 21
33.32328282699451
 31
0.0
  0
LINE
  5
C9F
330
1F
100
AcDbEntity
  8
SK2
  6
CONTINUOUS
370
25
 62
7
100
AcDbLine
 10
65.54504871165132
 20
31.90900974233027
 30
0.0
 11
67.03003247443421
 21
33.39399350511317
 31
0.0
  0
LINE
  5
CA0
330
1F
100
AcDbEntity
  8
SK2
  6
CONTINUOUS
370
25
 62
7
100
AcDbLine
 10
65.0147186257614
 20
31.80294372515228
 30
0.0
 11
66.67647908384093
 21
33.46470418323182
 31
0.0
  0
LINE
  5
CA1
330
1F
100
AcDbEntity
  8
SK2
  6
CONTINUOUS
370
25
 62
7
100
AcDbLine
 10
65.0
 20
32.21248916810281
 30
0.0
 11
66.32292569324765
 21
33.53541486135047
 31
0.0
  0
LINE
  5
CA2
330
1F
100
AcDbEntity
  8
SK2
  6
CONTINUOUS
370
25
 62
7
100
AcDbLine
 10
65.0
 20
32.63675323681474
 30
0.0
 11
65.96937230265438
 21
33.60612553946913
 31
0.0
  0
LINE
  5
CA3
330
1F
100
AcDbEntity
  8
SK2
  6
CONTINUOUS
370
25
 62
7
100
AcDbLine
 10
65.0
 20
33.06101730552667
 30
0.0
 11
65.61581891206112
 21
33.67683621758778
 31
0.0
  0
LINE
  5
CA4
330
1F
100
AcDbEntity
  8
SK2
  6
CONTINUOUS
370
25
 62
7
100
AcDbLine
 10
65.0
 20
33.4852813742386
 30
0.0
 11
65.26226552146784
 21
33.74754689570644
 31
0.0
  0
LINE
  5
CA5
330
1F
100
AcDbEntity
  8
SK2
  6
CONTINUOUS
370
25
 62
7
100
AcDbLine
 10
65.0
 20
31.85138520739841
 30
0.0
 11
65.04282100616534
 21
31.80856420123307
 31
0.0
  0
LINE
  5
CA6
330
1F
100
AcDbEntity
  8
SK2
  6
CONTINUOUS
370
25
 62
7
100
AcDbLine
 10
65.0
 20
32.27564927611034
 30
0.0
 11
65.39637439675862
 21
31.87927487935173
 31
0.0
  0
LINE
  5
CA7
330
1F
100
AcDbEntity
  8
SK2
  6
CONTINUOUS
370
25
 62
7
100
AcDbLine
 10
65.0
 20
32.69991334482228
 30
0.0
 11
65.7499277873519
 21
31.94998555747038
 31
0.0
  0
LINE
  5
CA8
330
1F
100
AcDbEntity
  8
SK2
  6
CONTINUOUS
370
25
 62
7
100
AcDbLine
 10
65.0
 20
33.1241774135342
 30
0.0
 11
66.10348117794516
 21
32.02069623558904
 31
0.0
  0
LINE
  5
CA9
330
1F
100
AcDbEntity
  8
SK2
  6
CONTINUOUS
370
25
 62
7
100
AcDbLine
 10
65.0
 20
33.54844148224613
 30
0.0
 11
66.45703456853845
 21
32.09140691370769
 31
0.0
  0
LINE
  5
CAA
330
1F
100
AcDbEntity
  8
SK2
  6
CONTINUOUS
370
25
 62
7
100
AcDbLine
 10
65.21588193869756
 20
33.75682361226049
 30
0.0
 11
66.81058795913171
 21
32.16211759182634
 31
0.0
  0
LINE
  5
CAB
330
1F
100
AcDbEntity
  8
SK2
  6
CONTINUOUS
370
25
 62
7
100
AcDbLine
 10
65.74621202458748
 20
33.65075759508251
 30
0.0
 11
67.16414134972499
 21
32.232828269945
 31
0.0
  0
LINE
  5
CAC
330
1F
100
AcDbEntity
  8
SK2
  6
CONTINUOUS
370
25
 62
7
100
AcDbLine
 10
66.2765421104774
 20
33.54469157790453
 30
0.0
 11
67.51769474031826
 21
32.30353894806365
 31
0.0
  0
LINE
  5
CAD
330
1F
100
AcDbEntity
  8
SK2
  6
CONTINUOUS
370
25
 62
7
100
AcDbLine
 10
66.80687219636731
 20
33.43862556072655
 30
0.0
 11
67.87124813091154
 21
32.3742496261823
 31
0.0
  0
LINE
  5
CAE
330
1F
100
AcDbEntity
  8
SK2
  6
CONTINUOUS
370
25
 62
7
100
AcDbLine
 10
67.33720228225721
 20
33.33255954354856
 30
0.0
 11
68.22480152150482
 21
32.44496030430096
 31
0.0
  0
LINE
  5
CAF
330
1F
100
AcDbEntity
  8
SK2
  6
CONTINUOUS
370
25
 62
7
100
AcDbLine
 10
67.86753236814712
 20
33.22649352637058
 30
0.0
 11
68.57835491209809
 21
32.51567098241962
 31
0.0
  0
LINE
  5
CB0
330
1F
100
AcDbEntity
  8
SK2
  6
CONTINUOUS
370
25
 62
7
100
AcDbLine
 10
68.39786245403704
 20
33.1204275091926
 30
0.0
 11
68.93190830269137
 21
32.58638166053828
 31
0.0
  0
LINE
  5
CB1
330
1F
100
AcDbEntity
  8
SK2
  6
CONTINUOUS
370
25
 62
7
100
AcDbLine
 10
68.92819253992697
 20
33.01436149201461
 30
0.0
 11
69.28546169328465
 21
32.65709233865693
 31
0.0
  0
LINE
  5
CB2
330
1F
100
AcDbEntity
  8
SK2
  6
CONTINUOUS
370
25
 62
7
100
AcDbLine
 10
69.45852262581687
 20
32.90829547483663
 30
0.0
 11
69.63901508387792
 21
32.72780301677559
 31
0.0
  0
LINE
  5
CB3
330
1F
100
AcDbEntity
  8
SK2
  6
CONTINUOUS
370
25
 62
7
100
AcDbLine
 10
69.98885271170678
 20
32.80222945765865
 30
0.0
 11
69.99256847447118
 21
32.79851369489424
 31
0.0
  0
TEXT
  5
CB4
330
1F
100
AcDbEntity
  8
SK2
  6
CONTINUOUS
370
25
 62
7
100
AcDbText
 10
32.375
 20
34.3
 30
0.0
 40
3.5
  1
70
 72
     1
 11
35.0
 21
34.3
 31
0.0
100
AcDbText
  0
LINE
  5
CB5
330
1F
100
AcDbEntity
  8
4
  6
LONGDASH_DASH
370
25
 62
2
100
AcDbLine
 10
40.0
 20
0.0
 30
0.0
 11
70.0
 21
0.0
 31
0.0
  0
LINE
  5
CB6
330
1F
100
AcDbEntity
  8
SK4
  6
LONGDASH_DASH
370
25
 62
2
100
AcDbLine
 10
-6.0
 20
0.0
 30
0.0
 11
76.0
 21
0.0
 31
0.0
  0
LINE
  5
CB7
330
1F
100
AcDbEntity
  8
2
  6
CONTINUOUS
370
25
 62
7
100
AcDbLine
 10
70.0
 20
0.0
 30
0.0
 11
80.5
 21
18.18653347947321
 31
0.0
  0
LINE
  5
CB8
330
1F
100
AcDbEntity
  8
2
  6
CONTINUOUS
370
25
 62
7
100
AcDbLine
 10
70.0
 20
0.0
 30
0.0
 11
80.5
 21
-18.18653347947321
 31
0.0
  0
ARC
  5
CB9
330
1F
100
AcDbEntity
  8
2
  6
CONTINUOUS
370
25
 62
7
100
AcDbCircle
 10
69.99999999999999
 20
0.0000000000000022
 30
0.0
 40
20.00000000000001
100
AcDbArc
 50
300.0
 51
59.99999999999991
  0
LINE
  5
CBA
330
1F
100
AcDbEntity
  8
2
  6
CONTINUOUS
370
25
 62
7
100
AcDbLine
 10
80.0
 20
17.32050807568877
 30
0.0
 11
84.58799626031877
 21
15.09558328700466
 31
0.0
  0
LINE
  5
CBB
330
1F
100
AcDbEntity
  8
2
  6
CONTINUOUS
370
25
 62
7
100
AcDbLine
 10
84.58799626031877
 20
15.09558328700466
 30
0.0
 11
83.37933316772344
 21
13.50211740139622
 31
0.0
  0
LINE
  5
CBC
330
1F
100
AcDbEntity
  8
2
  6
CONTINUOUS
370
25
 62
7
100
AcDbLine
 10
83.37933316772344
 20
13.50211740139622
 30
0.0
 11
80.0
 21
17.32050807568877
 31
0.0
  0
LINE
  5
CBD
330
1F
100
AcDbEntity
  8
2
  6
CONTINUOUS
370
25
 62
7
100
AcDbLine
 10
83.21829192682245
 20
13.68408181328261
 30
0.0
 11
84.45671171227463
 21
14.9225015987348
 31
0.0
  0
LINE
  5
CBE
330
1F
100
AcDbEntity
  8
2
  6
CONTINUOUS
370
25
 62
7
100
AcDbLine
 10
83.01909983905404
 20
13.90915379422614
 30
0.0
 11
84.330433193762
 21
15.22048714893411
 31
0.0
  0
LINE
  5
CBF
330
1F
100
AcDbEntity
  8
2
  6
CONTINUOUS
370
25
 62
7
100
AcDbLine
 10
82.81990775128564
 20
14.13422577516967
 30
0.0
 11
84.04472285796956
 21
15.3590408818536
 31
0.0
  0
LINE
  5
CC0
330
1F
100
AcDbEntity
  8
2
  6
CONTINUOUS
370
25
 62
7
100
AcDbLine
 10
82.62071566351725
 20
14.35929775611321
 30
0.0
 11
83.75901252217713
 21
15.4975946147731
 31
0.0
  0
LINE
  5
CC1
330
1F
100
AcDbEntity
  8
2
  6
CONTINUOUS
370
25
 62
7
100
AcDbLine
 10
82.42152357574885
 20
14.58436973705675
 30
0.0
 11
83.4733021863847
 21
15.63614834769259
 31
0.0
  0
LINE
  5
CC2
330
1F
100
AcDbEntity
  8
2
  6
CONTINUOUS
370
25
 62
7
100
AcDbLine
 10
82.22233148798045
 20
14.80944171800028
 30
0.0
 11
83.18759185059227
 21
15.77470208061209
 31
0.0
  0
LINE
  5
CC3
330
1F
100
AcDbEntity
  8
2
  6
CONTINUOUS
370
25
 62
7
100
AcDbLine
 10
82.02313940021206
 20
15.03451369894382
 30
0.0
 11
82.90188151479983
 21
15.91325581353158
 31
0.0
  0
LINE
  5
CC4
330
1F
100
AcDbEntity
  8
2
  6
CONTINUOUS
370
25
 62
7
100
AcDbLine
 10
81.82394731244366
 20
15.25958567988735
 30
0.0
 11
82.61617117900738
 21
16.05180954645108
 31
0.0
  0
LINE
  5
CC5
330
1F
100
AcDbEntity
  8
2
  6
CONTINUOUS
370
25
 62
7
100
AcDbLine
 10
81.62475522467527
 20
15.48465766083089
 30
0.0
 11
82.33046084321495
 21
16.19036327937057
 31
0.0
  0
LINE
  5
CC6
330
1F
100
AcDbEntity
  8
2
  6
CONTINUOUS
370
25
 62
7
100
AcDbLine
 10
81.42556313690687
 20
15.70972964177442
 30
0.0
 11
82.04475050742252
 21
16.32891701229007
 31
0.0
  0
LINE
  5
CC7
330
1F
100
AcDbEntity
  8
2
  6
CONTINUOUS
370
25
 62
7
100
AcDbLine
 10
81.22637104913846
 20
15.93480162271796
 30
0.0
 11
81.75904017163009
 21
16.46747074520957
 31
0.0
  0
LINE
  5
CC8
330
1F
100
AcDbEntity
  8
2
  6
CONTINUOUS
370
25
 62
7
100
AcDbLine
 10
81.02717896137008
 20
16.15987360366149
 30
0.0
 11
81.47332983583765
 21
16.60602447812906
 31
0.0
  0
LINE
  5
CC9
330
1F
100
AcDbEntity
  8
2
  6
CONTINUOUS
370
25
 62
7
100
AcDbLine
 10
80.82798687360167
 20
16.38494558460503
 30
0.0
 11
81.1876195000452
 21
16.74457821104856
 31
0.0
  0
LINE
  5
CCA
330
1F
100
AcDbEntity
  8
2
  6
CONTINUOUS
370
25
 62
7
100
AcDbLine
 10
80.62879478583329
 20
16.61001756554856
 30
0.0
 11
80.90190916425277
 21
16.88313194396806
 31
0.0
  0
LINE
  5
CCB
330
1F
100
AcDbEntity
  8
2
  6
CONTINUOUS
370
25
 62
7
100
AcDbLine
 10
80.42960269806488
 20
16.8350895464921
 30
0.0
 11
80.61619882846034
 21
17.02168567688755
 31
0.0
  0
LINE
  5
CCC
330
1F
100
AcDbEntity
  8
2
  6
CONTINUOUS
370
25
 62
7
100
AcDbLine
 10
80.2304106102965
 20
17.06016152743564
 30
0.0
 11
80.3304884926679
 21
17.16023940980704
 31
0.0
  0
LINE
  5
CCD
330
1F
100
AcDbEntity
  8
2
  6
CONTINUOUS
370
25
 62
7
100
AcDbLine
 10
80.03121852252809
 20
17.28523350837917
 30
0.0
 11
80.04477815687547
 21
17.29879314272654
 31
0.0
  0
LINE
  5
CCE
330
1F
100
AcDbEntity
  8
2
  6
CONTINUOUS
370
25
 62
7
100
AcDbLine
 10
80.3452687336202
 20
16.93038054249018
 30
0.0
 11
83.54936582217817
 21
13.72628345393221
 31
0.0
  0
LINE
  5
CCF
330
1F
100
AcDbEntity
  8
2
  6
CONTINUOUS
370
25
 62
7
100
AcDbLine
 10
80.7366302614308
 20
16.9632830833915
 30
0.0
 11
83.73236679228168
 21
13.96754655254064
 31
0.0
  0
LINE
  5
CD0
330
1F
100
AcDbEntity
  8
2
  6
CONTINUOUS
370
25
 62
7
100
AcDbLine
 10
81.56035564765091
 20
16.56382176588333
 30
0.0
 11
83.91536776238519
 21
14.20880965114906
 31
0.0
  0
LINE
  5
CD1
330
1F
100
AcDbEntity
  8
2
  6
CONTINUOUS
370
25
 62
7
100
AcDbLine
 10
82.384081033871
 20
16.16436044837517
 30
0.0
 11
84.0983687324887
 21
14.45007274975748
 31
0.0
  0
LINE
  5
CD2
330
1F
100
AcDbEntity
  8
2
  6
CONTINUOUS
370
25
 62
7
100
AcDbLine
 10
83.20780642009112
 20
15.76489913086699
 30
0.0
 11
84.2813697025922
 21
14.69133584836591
 31
0.0
  0
LINE
  5
CD3
330
1F
100
AcDbEntity
  8
2
  6
CONTINUOUS
370
25
 62
7
100
AcDbLine
 10
84.03153180631122
 20
15.36543781335882
 30
0.0
 11
84.46437067269571
 21
14.93259894697433
 31
0.0
  0
LINE
  5
CD4
330
1F
100
AcDbEntity
  8
2
  6
CONTINUOUS
370
25
 62
7
100
AcDbLine
 10
80.0
 20
-17.32050807568877
 30
0.0
 11
83.37933316772344
 21
-13.50211740139622
 31
0.0
  0
LINE
  5
CD5
330
1F
100
AcDbEntity
  8
2
  6
CONTINUOUS
370
25
 62
7
100
AcDbLine
 10
83.37933316772344
 20
-13.50211740139622
 30
0.0
 11
84.58799626031876
 21
-15.09558328700466
 31
0.0
  0
LINE
  5
CD6
330
1F
100
AcDbEntity
  8
2
  6
CONTINUOUS
370
25
 62
7
100
AcDbLine
 10
84.58799626031876
 20
-15.09558328700466
 30
0.0
 11
80.0
 21
-17.32050807568877
 31
0.0
  0
LINE
  5
CD7
330
1F
100
AcDbEntity
  8
2
  6
CONTINUOUS
370
25
 62
7
100
AcDbLine
 10
83.95908577889219
 20
-15.4005701354229
 30
0.0
 11
84.44827587518233
 21
-14.91138003913275
 31
0.0
  0
LINE
  5
CD8
330
1F
100
AcDbEntity
  8
2
  6
CONTINUOUS
370
25
 62
7
100
AcDbLine
 10
83.13536039267208
 20
-15.80003145293107
 30
0.0
 11
84.26527490507883
 21
-14.67011694052432
 31
0.0
  0
LINE
  5
CD9
330
1F
100
AcDbEntity
  8
2
  6
CONTINUOUS
370
25
 62
7
100
AcDbLine
 10
82.31163500645198
 20
-16.19949277043924
 30
0.0
 11
84.08227393497532
 21
-14.4288538419159
 31
0.0
  0
LINE
  5
CDA
330
1F
100
AcDbEntity
  8
2
  6
CONTINUOUS
370
25
 62
7
100
AcDbLine
 10
81.48790962023187
 20
-16.59895408794741
 30
0.0
 11
83.89927296487181
 21
-14.18759074330748
 31
0.0
  0
LINE
  5
CDB
330
1F
100
AcDbEntity
  8
2
  6
CONTINUOUS
370
25
 62
7
100
AcDbLine
 10
80.66418423401177
 20
-16.99841540545558
 30
0.0
 11
83.7162719947683
 21
-13.94632764469906
 31
0.0
  0
LINE
  5
CDC
330
1F
100
AcDbEntity
  8
2
  6
CONTINUOUS
370
25
 62
7
100
AcDbLine
 10
80.63246446591035
 20
-16.60587110484508
 30
0.0
 11
83.5332710246648
 21
-13.70506454609063
 31
0.0
  0
LINE
  5
CDD
330
1F
100
AcDbEntity
  8
2
  6
CONTINUOUS
370
25
 62
7
100
AcDbLine
 10
80.10834553406576
 20
-17.19808582362161
 30
0.0
 11
80.15540496244776
 21
-17.24514525200362
 31
0.0
  0
LINE
  5
CDE
330
1F
100
AcDbEntity
  8
2
  6
CONTINUOUS
370
25
 62
7
100
AcDbLine
 10
80.30753762183416
 20
-16.97301384267808
 30
0.0
 11
80.44111529824019
 21
-17.10659151908412
 31
0.0
  0
LINE
  5
CDF
330
1F
100
AcDbEntity
  8
2
  6
CONTINUOUS
370
25
 62
7
100
AcDbLine
 10
80.50672970960255
 20
-16.74794186173454
 30
0.0
 11
80.72682563403265
 21
-16.96803778616463
 31
0.0
  0
LINE
  5
CE0
330
1F
100
AcDbEntity
  8
2
  6
CONTINUOUS
370
25
 62
7
100
AcDbLine
 10
80.70592179737095
 20
-16.52286988079101
 30
0.0
 11
81.01253596982508
 21
-16.82948405324513
 31
0.0
  0
LINE
  5
CE1
330
1F
100
AcDbEntity
  8
2
  6
CONTINUOUS
370
25
 62
7
100
AcDbLine
 10
80.90511388513934
 20
-16.29779789984747
 30
0.0
 11
81.29824630561751
 21
-16.69093032032563
 31
0.0
  0
LINE
  5
CE2
330
1F
100
AcDbEntity
  8
2
  6
CONTINUOUS
370
25
 62
7
100
AcDbLine
 10
81.10430597290774
 20
-16.07272591890393
 30
0.0
 11
81.58395664140994
 21
-16.55237658740614
 31
0.0
  0
LINE
  5
CE3
330
1F
100
AcDbEntity
  8
2
  6
CONTINUOUS
370
25
 62
7
100
AcDbLine
 10
81.30349806067613
 20
-15.8476539379604
 30
0.0
 11
81.86966697720239
 21
-16.41382285448665
 31
0.0
  0
LINE
  5
CE4
330
1F
100
AcDbEntity
  8
2
  6
CONTINUOUS
370
25
 62
7
100
AcDbLine
 10
81.50269014844453
 20
-15.62258195701686
 30
0.0
 11
82.15537731299482
 21
-16.27526912156715
 31
0.0
  0
LINE
  5
CE5
330
1F
100
AcDbEntity
  8
2
  6
CONTINUOUS
370
25
 62
7
100
AcDbLine
 10
81.70188223621292
 20
-15.39750997607333
 30
0.0
 11
82.44108764878726
 21
-16.13671538864765
 31
0.0
  0
LINE
  5
CE6
330
1F
100
AcDbEntity
  8
2
  6
CONTINUOUS
370
25
 62
7
100
AcDbLine
 10
81.90107432398133
 20
-15.1724379951298
 30
0.0
 11
82.72679798457969
 21
-15.99816165572816
 31
0.0
  0
LINE
  5
CE7
330
1F
100
AcDbEntity
  8
2
  6
CONTINUOUS
370
25
 62
7
100
AcDbLine
 10
82.10026641174971
 20
-14.94736601418626
 30
0.0
 11
83.01250832037212
 21
-15.85960792280866
 31
0.0
  0
LINE
  5
CE8
330
1F
100
AcDbEntity
  8
2
  6
CONTINUOUS
370
25
 62
7
100
AcDbLine
 10
82.29945849951812
 20
-14.72229403324273
 30
0.0
 11
83.29821865616456
 21
-15.72105418988917
 31
0.0
  0
LINE
  5
CE9
330
1F
100
AcDbEntity
  8
2
  6
CONTINUOUS
370
25
 62
7
100
AcDbLine
 10
82.4986505872865
 20
-14.49722205229919
 30
0.0
 11
83.583928991957
 21
-15.58250045696967
 31
0.0
  0
LINE
  5
CEA
330
1F
100
AcDbEntity
  8
2
  6
CONTINUOUS
370
25
 62
7
100
AcDbLine
 10
82.6978426750549
 20
-14.27215007135565
 30
0.0
 11
83.86963932774943
 21
-15.44394672405017
 31
0.0
  0
LINE
  5
CEB
330
1F
100
AcDbEntity
  8
2
  6
CONTINUOUS
370
25
 62
7
100
AcDbLine
 10
82.89703476282331
 20
-14.04707809041213
 30
0.0
 11
84.15534966354187
 21
-15.30539299113068
 31
0.0
  0
LINE
  5
CEC
330
1F
100
AcDbEntity
  8
2
  6
CONTINUOUS
370
25
 62
7
100
AcDbLine
 10
83.0962268505917
 20
-13.82200610946859
 30
0.0
 11
84.4410599993343
 21
-15.16683925821118
 31
0.0
  0
LINE
  5
CED
330
1F
100
AcDbEntity
  8
2
  6
CONTINUOUS
370
25
 62
7
100
AcDbLine
 10
83.29541893836009
 20
-13.59693412852505
 30
0.0
 11
83.94072595004916
 21
-14.24224114021411
 31
0.0
  0
TEXT
  5
CEE
330
1F
100
AcDbEntity
  8
2
  6
CONTINUOUS
370
25
 62
7
100
AcDbText
 10
87.5
 20
-4.958333333333333
 30
0.0
 40
3.5
  1
120°
 50
90.0
 72
     1
 11
87.5
 21
0.0
 31
0.0
100
AcDbText
  0
LINE
  5
CEF
330
1F
100
AcDbEntity
  8
SK1
  6
CONTINUOUS
370
50
 62
4
100
AcDbLine
 10
40.0
 20
0.0
 30
0.0
 11
42.625
 21
0.0
 31
0.0
  0
LINE
  5
CF0
330
1F
100
AcDbEntity
  8
SK1
  6
CONTINUOUS
370
50
 62
4
100
AcDbLine
 10
40.0
 20
0.0
 30
0.0
 11
40.0
 21
2.625
 31
0.0
  0
ARC
  5
CF1
330
1F
100
AcDbEntity
  8
SK1
  6
CONTINUOUS
370
50
 62
4
100
AcDbCircle
 10
40.0
 20
0.0
 30
0.0
 40
2.625
100
AcDbArc
 50
0.0
 51
90.0
  0
LINE
  5
CF2
330
1F
100
AcDbEntity
  8
SK1
  6
CONTINUOUS
370
50
 62
4
100
AcDbLine
 10
40.0
 20
0.0
 30
0.0
 11
37.375
 21
0.0
 31
0.0
  0
ARC
  5
CF3
330
1F
100
AcDbEntity
  8
SK1
  6
CONTINUOUS
370
50
 62
4
100
AcDbCircle
 10
40.0
 20
0.0
 30
0.0
 40
2.625
100
AcDbArc
 50
180.0
 51
270.0
  0
LINE
  5
CF4
330
1F
100
AcDbEntity
  8
SK1
  6
CONTINUOUS
370
50
 62
4
100
AcDbLine
 10
40.0
 20
-2.625
 30
0.0
 11
40.0
 21
0.0
 31
0.0
  0
ARC
  5
CF5
330
1F
100
AcDbEntity
  8
SK1
  6
CONTINUOUS
370
50
 62
4
100
AcDbCircle
 10
40.0
 20
0.0
 30
0.0
 40
2.625
100
AcDbArc
 50
270.0
 51
0.0
  0
ARC
  5
CF6
330
1F
100
AcDbEntity
  8
SK1
  6
CONTINUOUS
370
50
 62
4
100
AcDbCircle
 10
40.0
 20
0.0
 30
0.0
 40
2.625
100
AcDbArc
 50
90.0
 51
180.0
  0
LINE
  5
CF7
330
1F
100
AcDbEntity
  8
SK1
  6
CONTINUOUS
370
50
 62
4
100
AcDbLine
 10
39.66575722192682
 20
-2.60347067499975
 30
0.0
 11
40.0
 21
-2.269227896926564
 31
0.0
  0
LINE
  5
CF8
330
1F
100
AcDbEntity
  8
SK1
  6
CONTINUOUS
370
50
 62
4
100
AcDbLine
 10
42.26922789692657
 20
0.0
 30
0.0
 11
42.60347067499975
 21
0.3342427780731851
 31
0.0
  0
LINE
  5
CF9
330
1F
100
AcDbEntity
  8
SK1
  6
CONTINUOUS
370
50
 62
4
100
AcDbLine
 10
39.35395391214686
 20
-2.544042924656761
 30
0.0
 11
40.0
 21
-1.897996836803626
 31
0.0
  0
LINE
  5
CFA
330
1F
100
AcDbEntity
  8
SK1
  6
CONTINUOUS
370
50
 62
4
100
AcDbLine
 10
41.89799683680363
 20
0.0
 30
0.0
 11
42.54404292465676
 21
0.6460460878531347
 31
0.0
  0
LINE
  5
CFB
330
1F
100
AcDbEntity
  8
SK1
  6
CONTINUOUS
370
50
 62
4
100
AcDbLine
 10
39.07222348891575
 20
-2.454542287764935
 30
0.0
 11
40.0
 21
-1.526765776680689
 31
0.0
  0
LINE
  5
CFC
330
1F
100
AcDbEntity
  8
SK1
  6
CONTINUOUS
370
50
 62
4
100
AcDbLine
 10
41.52676577668069
 20
0.0
 30
0.0
 11
42.45454228776494
 21
0.9277765110842457
 31
0.0
  0
LINE
  5
CFD
330
1F
100
AcDbEntity
  8
SK1
  6
CONTINUOUS
370
50
 62
4
100
AcDbLine
 10
38.81478120678253
 20
-2.340753509775221
 30
0.0
 11
40.0
 21
-1.155534716557751
 31
0.0
  0
LINE
  5
CFE
330
1F
100
AcDbEntity
  8
SK1
  6
CONTINUOUS
370
50
 62
4
100
AcDbLine
 10
41.15553471655775
 20
0.0
 30
0.0
 11
42.34075350977522
 21
1.185218793217471
 31
0.0
  0
LINE
  5
CFF
330
1F
100
AcDbEntity
  8
SK1
  6
CONTINUOUS
370
50
 62
4
100
AcDbLine
 10
38.57826543845547
 20
-2.206038217979337
 30
0.0
 11
40.0
 21
-0.7843036564348136
 31
0.0
  0
LINE
  5
D00
330
1F
100
AcDbEntity
  8
SK1
  6
CONTINUOUS
370
50
 62
4
100
AcDbLine
 10
40.78430365643482
 20
0.0
 30
0.0
 11
42.20603821797934
 21
1.421734561544524
 31
0.0
  0
LINE
  5
D01
330
1F
100
AcDbEntity
  8
SK1
  6
CONTINUOUS
370
50
 62
4
100
AcDbLine
 10
38.3626431117109
 20
-2.050429484600978
 30
0.0
 11
40.0
 21
-0.413072596311876
 31
0.0
  0
LINE
  5
D02
330
1F
100
AcDbEntity
  8
SK1
  6
CONTINUOUS
370
50
 62
4
100
AcDbLine
 10
40.41307259631188
 20
0.0
 30
0.0
 11
42.05042948460098
 21
1.637356888289101
 31
0.0
  0
LINE
  5
D03
330
1F
100
AcDbEntity
  8
SK1
  6
CONTINUOUS
370
50
 62
4
100
AcDbLine
 10
38.16568136807246
 20
-1.876160168116476
 30
0.0
 11
40.0
 21
-0.0418415361889384
 31
0.0
  0
LINE
  5
D04
330
1F
100
AcDbEntity
  8
SK1
  6
CONTINUOUS
370
50
 62
4
100
AcDbLine
 10
40.04184153618894
 20
0.0
 30
0.0
 11
41.87616016811648
 21
1.834318631927537
 31
0.0
  0
LINE
  5
D05
330
1F
100
AcDbEntity
  8
SK1
  6
CONTINUOUS
370
50
 62
4
100
AcDbLine
 10
37.98675942477632
 20
-1.683851051289679
 30
0.0
 11
39.670610476066
 21
0.0
 31
0.0
  0
LINE
  5
D06
330
1F
100
AcDbEntity
  8
SK1
  6
CONTINUOUS
370
50
 62
4
100
AcDbLine
 10
40.0
 20
0.3293895239339992
 30
0.0
 11
41.68385105128968
 21
2.013240575223679
 31
0.0
  0
LINE
  5
D07
330
1F
100
AcDbEntity
  8
SK1
  6
CONTINUOUS
370
50
 62
4
100
AcDbLine
 10
37.82782161830507
 20
-1.471557797638
 30
0.0
 11
39.29937941594306
 21
0.0
 31
0.0
  0
LINE
  5
D08
330
1F
100
AcDbEntity
  8
SK1
  6
CONTINUOUS
370
50
 62
4
100
AcDbLine
 10
40.0
 20
0.7006205840569368
 30
0.0
 11
41.471557797638
 21
2.172178381694937
 31
0.0
  0
LINE
  5
D09
330
1F
100
AcDbEntity
  8
SK1
  6
CONTINUOUS
370
50
 62
4
100
AcDbLine
 10
37.68749288718529
 20
-1.240655468634837
 30
0.0
 11
38.92814835582013
 21
0.0
 31
0.0
  0
LINE
  5
D0A
330
1F
100
AcDbEntity
  8
SK1
  6
CONTINUOUS
370
50
 62
4
100
AcDbLine
 10
40.0
 20
1.071851644179874
 30
0.0
 11
41.24065546863483
 21
2.312507112814711
 31
0.0
  0
LINE
  5
D0B
330
1F
100
AcDbEntity
  8
SK1
  6
CONTINUOUS
370
50
 62
4
100
AcDbLine
 10
37.56877644288387
 20
-0.9881408528133115
 30
0.0
 11
38.55691729569719
 21
0.0
 31
0.0
  0
LINE
  5
D0C
330
1F
100
AcDbEntity
  8
SK1
  6
CONTINUOUS
370
50
 62
4
100
AcDbLine
 10
40.0
 20
1.443082704302812
 30
0.0
 11
40.98814085281331
 21
2.431223557116124
 31
0.0
  0
LINE
  5
D0D
330
1F
100
AcDbEntity
  8
SK1
  6
CONTINUOUS
370
50
 62
4
100
AcDbLine
 10
37.47444482033456
 20
-0.7112414152396886
 30
0.0
 11
38.18568623557425
 21
0.0
 31
0.0
  0
LINE
  5
D0E
330
1F
100
AcDbEntity
  8
SK1
  6
CONTINUOUS
370
50
 62
4
100
AcDbLine
 10
40.0
 20
1.81431376442575
 30
0.0
 11
40.71124141523969
 21
2.525555179665439
 31
0.0
  0
LINE
  5
D0F
330
1F
100
AcDbEntity
  8
SK1
  6
CONTINUOUS
370
50
 62
4
100
AcDbLine
 10
37.40797120571085
 20
-0.4064839697404632
 30
0.0
 11
37.81445517545131
 21
0.0
 31
0.0
  0
LINE
  5
D10
330
1F
100
AcDbEntity
  8
SK1
  6
CONTINUOUS
370
50
 62
4
100
AcDbLine
 10
40.0
 20
2.185544824548687
 30
0.0
 11
40.40648396974046
 21
2.59202879428915
 31
0.0
  0
LINE
  5
D11
330
1F
100
AcDbEntity
  8
SK1
  6
CONTINUOUS
370
50
 62
4
100
AcDbLine
 10
37.37707870331546
 20
-0.0661454120129097
 30
0.0
 11
37.44322411532838
 21
0.0
 31
0.0
  0
LINE
  5
D12
330
1F
100
AcDbEntity
  8
SK1
  6
CONTINUOUS
370
50
 62
4
100
AcDbLine
 10
40.0
 20
2.556775884671625
 30
0.0
 11
40.06614541201291
 21
2.622921296684535
 31
0.0
  0
LINE
  5
D13
330
1F
100
AcDbEntity
  8
SK1
  6
CONTINUOUS
370
50
 62
4
100
AcDbLine
 10
37.54579652643623
 20
-0.9287176037316112
 30
0.0
 11
39.07128239626839
 21
-2.454203473563768
 31
0.0
  0
LINE
  5
D14
330
1F
100
AcDbEntity
  8
SK1
  6
CONTINUOUS
370
50
 62
4
100
AcDbLine
 10
37.41045104563307
 20
-0.4221410628055069
 30
0.0
 11
39.5778589371945
 21
-2.589548954366935
 31
0.0
  0
LINE
  5
D15
330
1F
100
AcDbEntity
  8
SK1
  6
CONTINUOUS
370
50
 62
4
100
AcDbLine
 10
37.37550158008622
 20
-0.0159605371357268
 30
0.0
 11
39.98403946286427
 21
-2.624498419913778
 31
0.0
  0
LINE
  5
D16
330
1F
100
AcDbEntity
  8
SK1
  6
CONTINUOUS
370
50
 62
4
100
AcDbLine
 10
37.73077210307343
 20
0.0
 30
0.0
 11
40.0
 21
-2.269227896926564
 31
0.0
  0
LINE
  5
D17
330
1F
100
AcDbEntity
  8
SK1
  6
CONTINUOUS
370
50
 62
4
100
AcDbLine
 10
38.10200316319637
 20
0.0
 30
0.0
 11
40.0
 21
-1.897996836803626
 31
0.0
  0
LINE
  5
D18
330
1F
100
AcDbEntity
  8
SK1
  6
CONTINUOUS
370
50
 62
4
100
AcDbLine
 10
38.47323422331931
 20
0.0
 30
0.0
 11
40.0
 21
-1.526765776680689
 31
0.0
  0
LINE
  5
D19
330
1F
100
AcDbEntity
  8
SK1
  6
CONTINUOUS
370
50
 62
4
100
AcDbLine
 10
38.84446528344225
 20
0.0
 30
0.0
 11
40.0
 21
-1.155534716557752
 31
0.0
  0
LINE
  5
D1A
330
1F
100
AcDbEntity
  8
SK1
  6
CONTINUOUS
370
50
 62
4
100
AcDbLine
 10
39.21569634356518
 20
0.0
 30
0.0
 11
40.0
 21
-0.7843036564348145
 31
0.0
  0
LINE
  5
D1B
330
1F
100
AcDbEntity
  8
SK1
  6
CONTINUOUS
370
50
 62
4
100
AcDbLine
 10
39.58692740368812
 20
0.0
 30
0.0
 11
40.0
 21
-0.4130725963118769
 31
0.0
  0
LINE
  5
D1C
330
1F
100
AcDbEntity
  8
SK1
  6
CONTINUOUS
370
50
 62
4
100
AcDbLine
 10
39.95815846381106
 20
0.0
 30
0.0
 11
40.0
 21
-0.0418415361889393
 31
0.0
  0
LINE
  5
D1D
330
1F
100
AcDbEntity
  8
SK1
  6
CONTINUOUS
370
50
 62
4
100
AcDbLine
 10
40.0
 20
0.3293895239339975
 30
0.0
 11
40.329389523934
 21
0.0
 31
0.0
  0
LINE
  5
D1E
330
1F
100
AcDbEntity
  8
SK1
  6
CONTINUOUS
370
50
 62
4
100
AcDbLine
 10
40.0
 20
0.7006205840569351
 30
0.0
 11
40.70062058405694
 21
0.0
 31
0.0
  0
LINE
  5
D1F
330
1F
100
AcDbEntity
  8
SK1
  6
CONTINUOUS
370
50
 62
4
100
AcDbLine
 10
40.0
 20
1.071851644179873
 30
0.0
 11
41.07185164417987
 21
0.0
 31
0.0
  0
LINE
  5
D20
330
1F
100
AcDbEntity
  8
SK1
  6
CONTINUOUS
370
50
 62
4
100
AcDbLine
 10
40.0
 20
1.44308270430281
 30
0.0
 11
41.44308270430281
 21
0.0
 31
0.0
  0
LINE
  5
D21
330
1F
100
AcDbEntity
  8
SK1
  6
CONTINUOUS
370
50
 62
4
100
AcDbLine
 10
40.0
 20
1.814313764425748
 30
0.0
 11
41.81431376442575
 21
0.0
 31
0.0
  0
LINE
  5
D22
330
1F
100
AcDbEntity
  8
SK1
  6
CONTINUOUS
370
50
 62
4
100
AcDbLine
 10
40.0
 20
2.185544824548685
 30
0.0
 11
42.18554482454869
 21
0.0
 31
0.0
  0
LINE
  5
D23
330
1F
100
AcDbEntity
  8
SK1
  6
CONTINUOUS
370
50
 62
4
100
AcDbLine
 10
40.0
 20
2.556775884671622
 30
0.0
 11
42.55677588467162
 21
0.0
 31
0.0
  0
LINE
  5
D24
330
1F
100
AcDbEntity
  8
SK1
  6
CONTINUOUS
370
50
 62
4
100
AcDbLine
 10
40.3231531925751
 20
2.604853752219459
 30
0.0
 11
42.60485375221946
 21
0.3231531925751043
 31
0.0
  0
LINE
  5
D25
330
1F
100
AcDbEntity
  8
SK1
  6
CONTINUOUS
370
50
 62
4
100
AcDbLine
 10
40.79925237182748
 20
2.499985633090018
 30
0.0
 11
42.49998563309002
 21
0.7992523718274818
 31
0.0
  0
LINE
  5
D26
330
1F
100
AcDbEntity
  8
SK1
  6
CONTINUOUS
370
50
 62
4
100
AcDbLine
 10
41.56015793098176
 20
2.11031113405868
 30
0.0
 11
42.11031113405868
 21
1.560157930981759
 31
0.0
  0
ARC
  5
D27
330
1F
100
AcDbEntity
  8
SK6
  6
CONTINUOUS
370
25
 62
5
100
AcDbCircle
 10
96.4613820083765
 20
-25.42598025338786
 30
0.0
 40
2.76048912849221
100
AcDbArc
 50
338.9379403434233
 51
90.44457437511365
  0
LINE
  5
D28
330
1F
100
AcDbEntity
  8
SK6
  6
CONTINUOUS
370
25
 62
5
100
AcDbLine
 10
96.43996279695983
 20
-22.66557422421281
 30
0.0
 11
96.43996279695983
 21
-23.76863285613463
 31
0.0
  0
ARC
  5
D29
330
1F
100
AcDbEntity
  8
SK6
  6
CONTINUOUS
370
25
 62
5
100
AcDbCircle
 10
96.45050902936916
 20
-25.4459737456682
 30
0.0
 40
1.677374043771779
100
AcDbArc
 50
243.4214706017868
 51
90.36024081226083
  0
ARC
  5
D2A
330
1F
100
AcDbEntity
  8
SK6
  6
CONTINUOUS
370
25
 62
5
100
AcDbCircle
 10
98.97275989684958
 20
-25.01456649215561
 30
0.0
 40
3.80021703002276
100
AcDbArc
 50
210.5483731288539
 51
236.97801693668
  0
LINE
  5
D2B
330
1F
100
AcDbEntity
  8
SK6
  6
CONTINUOUS
370
25
 62
5
100
AcDbLine
 10
96.90179068512487
 20
-28.20090231867535
 30
0.0
 11
101.0437309674267
 21
-28.20090231867535
 31
0.0
  0
ARC
  5
D2C
330
1F
100
AcDbEntity
  8
SK6
  6
CONTINUOUS
370
25
 62
5
100
AcDbCircle
 10
98.97276183877257
 20
-25.0145665937346
 30
0.0
 40
3.800216899582472
100
AcDbArc
 50
303.0219828477959
 51
326.3732153033476
  0
LINE
  5
D2D
330
1F
100
AcDbEntity
  8
SK6
  6
CONTINUOUS
370
25
 62
5
100
AcDbLine
 10
102.1370597513572
 20
-27.1190539907709
 30
0.0
 11
98.77976170575462
 21
-27.1190539907709
 31
0.0
  0
LINE
  5
D2E
330
1F
100
AcDbEntity
  8
SK6
  6
CONTINUOUS
370
25
 62
5
100
AcDbLine
 10
98.77976170575462
 20
-27.1190539907709
 30
0.0
 11
102.6996210977199
 21
-25.75765279641694
 31
0.0
  0
ARC
  5
D2F
330
1F
100
AcDbEntity
  8
SK6
  6
CONTINUOUS
370
25
 62
5
100
AcDbCircle
 10
98.97276256157211
 20
-25.0145671048594
 30
0.0
 40
3.800217216614723
100
AcDbArc
 50
348.7238644184696
 51
53.4691051260885
  0
LINE
  5
D30
330
1F
100
AcDbEntity
  8
SK6
  6
CONTINUOUS
370
25
 62
5
100
AcDbLine
 10
101.2348652453854
 20
-21.96095574429967
 30
0.0
 11
99.03745047882737
 21
-26.41804423507057
 31
0.0
  0
ENDSEC
  0
SECTION
  2
OBJECTS
  0
DICTIONARY
  5
C
330
0
100
AcDbDictionary
281
     1
  3
ACAD_GROUP
350
D
  3
ACAD_LAYOUT
350
1A
  3
ACAD_MATERIAL
350
3B
  3
ACAD_MLEADERSTYLE
350
D33
  3
ACAD_MLINESTYLE
350
17
  3
ACAD_PLOTSETTINGS
350
19
  3
ACAD_PLOTSTYLENAME
350
E
  3
ACAD_SCALELIST
350
4DC
  3
ACAD_VISUALSTYLE
350
2A
  3
AcDbVariableDictionary
350
D31
  0
DICTIONARY
  5
D
102
{ACAD_REACTORS
330
C
102
}
330
C
100
AcDbDictionary
281
     1
  0
DICTIONARY
  5
1A
102
{ACAD_REACTORS
330
C
102
}
330
C
100
AcDbDictionary
281
     1
  3
Layout1
350
1E
  3
Layout2
350
26
  3
Model
350
22
  0
DICTIONARY
  5
3B
102
{ACAD_REACTORS
330
C
102
}
330
C
100
AcDbDictionary
281
     1
  3
ByBlock
350
3D
  3
ByLayer
350
3C
  3
Global
350
3E
  0
DICTIONARY
  5
D33
102
{ACAD_REACTORS
330
C
102
}
330
C
100
AcDbDictionary
281
     1
  0
DICTIONARY
  5
17
102
{ACAD_REACTORS
330
C
102
}
330
C
100
AcDbDictionary
281
     1
  3
Standard
350
18
  0
DICTIONARY
  5
19
102
{ACAD_REACTORS
330
C
102
}
330
C
100
AcDbDictionary
281
     1
  0
ACDBDICTIONARYWDFLT
  5
E
102
{ACAD_REACTORS
330
C
102
}
330
C
100
AcDbDictionary
281
     1
  3
Normal
350
F
100
AcDbDictionaryWithDefault
340
F
  0
DICTIONARY
  5
4DC
102
{ACAD_REACTORS
330
C
102
}
330
C
100
AcDbDictionary
281
     1
  3
A0
350
4DD
  3
A1
350
4DE
  3
A2
350
4DF
  3
A3
350
4E0
  3
A4
350
4E1
  3
A5
350
4E2
  3
A6
350
4E3
  3
A7
350
4E4
  3
A8
350
4E5
  3
A9
350
4E6
  3
B0
350
4E7
  3
B1
350
4E8
  3
B2
350
4E9
  3
B3
350
4EA
  3
B4
350
4EB
  3
B5
350
4EC
  3
B6
350
4ED
  3
B7
350
4EE
  3
B8
350
4EF
  3
B9
350
4F0
  3
C0
350
4F1
  3
C1
350
4F2
  3
C2
350
4F3
  3
C3
350
4F4
  3
C4
350
4F5
  3
C5
350
4F6
  3
C6
350
4F7
  3
C7
350
4F8
  3
C8
350
4F9
  3
C9
350
4FA
  3
D0
350
4FB
  3
D1
350
4FC
  3
D2
350
4FD
  0
DICTIONARY
  5
2A
102
{ACAD_REACTORS
330
C
102
}
330
C
100
AcDbDictionary
281
     1
  3
2dWireframe
350
2F
  3
3D Hidden
350
31
  3
3dWireframe
350
30
  3
Basic
350
32
  3
Brighten
350
36
  3
ColorChange
350
3A
  3
Conceptual
350
34
  3
Dim
350
35
  3
Facepattern
350
39
  3
Flat
350
2B
  3
FlatWithEdges
350
2C
  3
Gouraud
350
2D
  3
GouraudWithEdges
350
2E
  3
Linepattern
350
38
  3
Realistic
350
33
  3
Thicken
350
37
  0
DICTIONARY
  5
D31
102
{ACAD_REACTORS
330
C
102
}
330
C
100
AcDbDictionary
281
     1
  3
CANNOSCALE
350
D36
  3
DIMASSOC
350
D37
  3
HIDETEXT
350
D38
  3
PSOLHEIGHT
350
D35
  3
PSOLWIDTH
350
D34
  0
LAYOUT
  5
1E
102
{ACAD_REACTORS
330
1A
102
}
330
1A
100
AcDbPlotSettings
  1

  2
none_device
  4

  6

 40
0.0
 41
0.0
 42
0.0
 43
0.0
 44
0.0
 45
0.0
 46
0.0
 47
0.0
 48
0.0
 49
0.0
140
0.0
141
0.0
142
1.0
143
1.0
 70
   688
 72
     0
 73
     0
 74
     5
  7

 75
    16
147
1.0
148
0.0
149
0.0
100
AcDbLayout
  1
Layout1
 70
     1
 71
     1
 10
0.0
 20
0.0
 11
420.0
 21
297.0
 12
0.0
 22
0.0
 32
0.0
 14
1.000000000000000E+20
 24
1.000000000000000E+20
 34
1.000000000000000E+20
 15
-1.000000000000000E+20
 25
-1.000000000000000E+20
 35
-1.000000000000000E+20
146
0.0
 13
0.0
 23
0.0
 33
0.0
 16
1.0
 26
0.0
 36
0.0
 17
0.0
 27
1.0
 37
0.0
 76
     0
330
1B
  0
LAYOUT
  5
26
102
{ACAD_REACTORS
330
1A
102
}
330
1A
100
AcDbPlotSettings
  1

  2
none_device
  4

  6

 40
0.0
 41
0.0
 42
0.0
 43
0.0
 44
0.0
 45
0.0
 46
0.0
 47
0.0
 48
0.0
 49
0.0
140
0.0
141
0.0
142
1.0
143
1.0
 70
   688
 72
     0
 73
     0
 74
     5
  7

 75
    16
147
1.0
148
0.0
149
0.0
100
AcDbLayout
  1
Layout2
 70
     1
 71
     2
 10
0.0
 20
0.0
 11
0.0
 21
0.0
 12
0.0
 22
0.0
 32
0.0
 14
0.0
 24
0.0
 34
0.0
 15
0.0
 25
0.0
 35
0.0
146
0.0
 13
0.0
 23
0.0
 33
0.0
 16
1.0
 26
0.0
 36
0.0
 17
0.0
 27
1.0
 37
0.0
 76
     0
330
23
  0
LAYOUT
  5
22
102
{ACAD_REACTORS
330
1A
102
}
330
1A
100
AcDbPlotSettings
  1

  2
none_device
  4

  6

 40
0.0
 41
0.0
 42
0.0
 43
0.0
 44
0.0
 45
0.0
 46
0.0
 47
0.0
 48
0.0
 49
0.0
140
0.0
141
0.0
142
1.0
143
1.0
 70
  1712
 72
     0
 73
     0
 74
     0
  7

 75
     0
147
1.0
148
0.0
149
0.0
100
AcDbLayout
  1
Model
 70
     1
 71
     0
 10
0.0
 20
0.0
 11
420.0
 21
297.0
 12
0.0
 22
0.0
 32
0.0
 14
0.0
 24
0.0
 34
0.0
 15
25.0
 25
35.0
 35
0.0
146
0.0
 13
0.0
 23
0.0
 33
0.0
 16
1.0
 26
0.0
 36
0.0
 17
0.0
 27
1.0
 37
0.0
 76
     0
330
1F
331
29
  0
MATERIAL
  5
3D
102
{ACAD_REACTORS
330
3B
102
}
102
{ACAD_XDICTIONARY
360
D5B
102
}
330
3B
100
AcDbMaterial
  1
ByBlock
  0
MATERIAL
  5
3C
102
{ACAD_REACTORS
330
3B
102
}
102
{ACAD_XDICTIONARY
360
D59
102
}
330
3B
100
AcDbMaterial
  1
ByLayer
  0
MATERIAL
  5
3E
102
{ACAD_REACTORS
330
3B
102
}
102
{ACAD_XDICTIONARY
360
D5D
102
}
330
3B
100
AcDbMaterial
  1
Global
  0
MLINESTYLE
  5
18
102
{ACAD_REACTORS
330
17
102
}
330
17
100
AcDbMlineStyle
  2
Standard
 70
     0
  3

 62
   256
 51
90.0
 52
90.0
 71
     2
 49
0.5
 62
   256
  6
BYLAYER
 49
-0.5
 62
   256
  6
BYLAYER
  0
ACDBPLACEHOLDER
  5
F
102
{ACAD_REACTORS
330
E
102
}
330
E
  0
SCALE
  5
4DD
102
{ACAD_REACTORS
330
4DC
102
}
330
4DC
100
AcDbScale
 70
     0
300
1:1
140
1.0
141
1.0
290
     1
  0
SCALE
  5
4DE
102
{ACAD_REACTORS
330
4DC
102
}
330
4DC
100
AcDbScale
 70
     0
300
1:2
140
1.0
141
2.0
290
     0
  0
SCALE
  5
4DF
102
{ACAD_REACTORS
330
4DC
102
}
330
4DC
100
AcDbScale
 70
     0
300
1:4
140
1.0
141
4.0
290
     0
  0
SCALE
  5
4E0
102
{ACAD_REACTORS
330
4DC
102
}
330
4DC
100
AcDbScale
 70
     0
300
1:5
140
1.0
141
5.0
290
     0
  0
SCALE
  5
4E1
102
{ACAD_REACTORS
330
4DC
102
}
330
4DC
100
AcDbScale
 70
     0
300
1:8
140
1.0
141
8.0
290
     0
  0
SCALE
  5
4E2
102
{ACAD_REACTORS
330
4DC
102
}
330
4DC
100
AcDbScale
 70
     0
300
1:10
140
1.0
141
10.0
290
     0
  0
SCALE
  5
4E3
102
{ACAD_REACTORS
330
4DC
102
}
330
4DC
100
AcDbScale
 70
     0
300
1:16
140
1.0
141
16.0
290
     0
  0
SCALE
  5
4E4
102
{ACAD_REACTORS
330
4DC
102
}
330
4DC
100
AcDbScale
 70
     0
300
1:20
140
1.0
141
20.0
290
     0
  0
SCALE
  5
4E5
102
{ACAD_REACTORS
330
4DC
102
}
330
4DC
100
AcDbScale
 70
     0
300
1:30
140
1.0
141
30.0
290
     0
  0
SCALE
  5
4E6
102
{ACAD_REACTORS
330
4DC
102
}
330
4DC
100
AcDbScale
 70
     0
300
1:40
140
1.0
141
40.0
290
     0
  0
SCALE
  5
4E7
102
{ACAD_REACTORS
330
4DC
102
}
330
4DC
100
AcDbScale
 70
     0
300
1:50
140
1.0
141
50.0
290
     0
  0
SCALE
  5
4E8
102
{ACAD_REACTORS
330
4DC
102
}
330
4DC
100
AcDbScale
 70
     0
300
1:100
140
1.0
141
100.0
290
     0
  0
SCALE
  5
4E9
102
{ACAD_REACTORS
330
4DC
102
}
330
4DC
100
AcDbScale
 70
     0
300
2:1
140
2.0
141
1.0
290
     0
  0
SCALE
  5
4EA
102
{ACAD_REACTORS
330
4DC
102
}
330
4DC
100
AcDbScale
 70
     0
300
4:1
140
4.0
141
1.0
290
     0
  0
SCALE
  5
4EB
102
{ACAD_REACTORS
330
4DC
102
}
330
4DC
100
AcDbScale
 70
     0
300
8:1
140
8.0
141
1.0
290
     0
  0
SCALE
  5
4EC
102
{ACAD_REACTORS
330
4DC
102
}
330
4DC
100
AcDbScale
 70
     0
300
10:1
140
10.0
141
1.0
290
     0
  0
SCALE
  5
4ED
102
{ACAD_REACTORS
330
4DC
102
}
330
4DC
100
AcDbScale
 70
     0
300
100:1
140
100.0
141
1.0
290
     0
  0
SCALE
  5
4EE
102
{ACAD_REACTORS
330
4DC
102
}
330
4DC
100
AcDbScale
 70
     0
300
1/128" = 1'-0"
140
0.0078125
141
12.0
290
     0
  0
SCALE
  5
4EF
102
{ACAD_REACTORS
330
4DC
102
}
330
4DC
100
AcDbScale
 70
     0
300
1/64" = 1'-0"
140
0.015625
141
12.0
290
     0
  0
SCALE
  5
4F0
102
{ACAD_REACTORS
330
4DC
102
}
330
4DC
100
AcDbScale
 70
     0
300
1/32" = 1'-0"
140
0.03125
141
12.0
290
     0
  0
SCALE
  5
4F1
102
{ACAD_REACTORS
330
4DC
102
}
330
4DC
100
AcDbScale
 70
     0
300
1/16" = 1'-0"
140
0.0625
141
12.0
290
     0
  0
SCALE
  5
4F2
102
{ACAD_REACTORS
330
4DC
102
}
330
4DC
100
AcDbScale
 70
     0
300
3/32" = 1'-0"
140
0.09375
141
12.0
290
     0
  0
SCALE
  5
4F3
102
{ACAD_REACTORS
330
4DC
102
}
330
4DC
100
AcDbScale
 70
     0
300
1/8" = 1'-0"
140
0.125
141
12.0
290
     0
  0
SCALE
  5
4F4
102
{ACAD_REACTORS
330
4DC
102
}
330
4DC
100
AcDbScale
 70
     0
300
3/16" = 1'-0"
140
0.1875
141
12.0
290
     0
  0
SCALE
  5
4F5
102
{ACAD_REACTORS
330
4DC
102
}
330
4DC
100
AcDbScale
 70
     0
300
1/4" = 1'-0"
140
0.25
141
12.0
290
     0
  0
SCALE
  5
4F6
102
{ACAD_REACTORS
330
4DC
102
}
330
4DC
100
AcDbScale
 70
     0
300
3/8" = 1'-0"
140
0.375
141
12.0
290
     0
  0
SCALE
  5
4F7
102
{ACAD_REACTORS
330
4DC
102
}
330
4DC
100
AcDbScale
 70
     0
300
1/2" = 1'-0"
140
0.5
141
12.0
290
     0
  0
SCALE
  5
4F8
102
{ACAD_REACTORS
330
4DC
102
}
330
4DC
100
AcDbScale
 70
     0
300
3/4" = 1'-0"
140
0.75
141
12.0
290
     0
  0
SCALE
  5
4F9
102
{ACAD_REACTORS
330
4DC
102
}
330
4DC
100
AcDbScale
 70
     0
300
1" = 1'-0"
140
1.0
141
12.0
290
     0
  0
SCALE
  5
4FA
102
{ACAD_REACTORS
330
4DC
102
}
330
4DC
100
AcDbScale
 70
     0
300
1-1/2" = 1'-0"
140
1.5
141
12.0
290
     0
  0
SCALE
  5
4FB
102
{ACAD_REACTORS
330
4DC
102
}
330
4DC
100
AcDbScale
 70
     0
300
3" = 1'-0"
140
3.0
141
12.0
290
     0
  0
SCALE
  5
4FC
102
{ACAD_REACTORS
330
4DC
102
}
330
4DC
100
AcDbScale
 70
     0
300
6" = 1'-0"
140
6.0
141
12.0
290
     0
  0
SCALE
  5
4FD
102
{ACAD_REACTORS
330
4DC
102
}
330
4DC
100
AcDbScale
 70
     0
300
1'-0" = 1'-0"
140
12.0
141
12.0
290
     0
  0
VISUALSTYLE
  5
2F
102
{ACAD_REACTORS
330
2A
102
}
102
{ACAD_XDICTIONARY
360
D41
102
}
330
2A
100
AcDbVisualStyle
  2
2dWireframe
 70
     4
 71
     0
 72
     2
 73
     0
 90
        0
 40
-0.6
 41
-30.0
 62
     5
 63
     7
 74
     1
 91
        4
 64
     7
 65
   257
 75
     1
175
     1
 42
1.0
 92
        0
 66
   257
 43
1.0
 76
     1
 77
     6
 78
     2
 67
     7
 79
     5
170
     0
171
     0
290
     0
174
     0
 93
        1
 44
0.0
173
     0
291
     0
 45
0.0
1001
ACAD
1000
AcDbSavedByObjectVersion
1070
     0
  0
VISUALSTYLE
  5
31
102
{ACAD_REACTORS
330
2A
102
}
102
{ACAD_XDICTIONARY
360
D45
102
}
330
2A
100
AcDbVisualStyle
  2
3D Hidden
 70
     6
 71
     1
 72
     2
 73
     2
 90
        0
 40
-0.6
 41
-30.0
 62
     5
 63
     7
 74
     2
 91
        2
 64
     7
 65
   257
 75
     2
175
     1
 42
40.0
 92
        0
 66
   257
 43
1.0
 76
     1
 77
     6
 78
     2
 67
     7
 79
     3
170
     0
171
     0
290
     0
174
     0
 93
        1
 44
0.0
173
     0
291
     0
 45
0.0
1001
ACAD
1000
AcDbSavedByObjectVersion
1070
     0
  0
VISUALSTYLE
  5
30
102
{ACAD_REACTORS
330
2A
102
}
102
{ACAD_XDICTIONARY
360
D43
102
}
330
2A
100
AcDbVisualStyle
  2
3dWireframe
 70
     5
 71
     0
 72
     2
 73
     0
 90
        0
 40
-0.6
 41
-30.0
 62
     5
 63
     7
 74
     1
 91
        4
 64
     7
 65
   257
 75
     1
175
     1
 42
1.0
 92
        0
 66
   257
 43
1.0
 76
     1
 77
     6
 78
     2
 67
     7
 79
     5
170
     0
171
     0
290
     0
174
     0
 93
        1
 44
0.0
173
     0
291
     0
 45
0.0
1001
ACAD
1000
AcDbSavedByObjectVersion
1070
     0
  0
VISUALSTYLE
  5
32
102
{ACAD_REACTORS
330
2A
102
}
102
{ACAD_XDICTIONARY
360
D47
102
}
330
2A
100
AcDbVisualStyle
  2
Basic
 70
     7
 71
     1
 72
     0
 73
     1
 90
        0
 40
-0.6
 41
-30.0
 62
     5
 63
     7
 74
     0
 91
        4
 64
     7
 65
   257
 75
     1
175
     1
 42
1.0
 92
        8
 66
     7
 43
1.0
 76
     1
 77
     6
 78
     2
 67
     7
 79
     5
170
     0
171
     0
290
     0
174
     0
 93
        1
 44
0.0
173
     0
291
     1
 45
0.0
1001
ACAD
1000
AcDbSavedByObjectVersion
1070
     0
  0
VISUALSTYLE
  5
36
102
{ACAD_REACTORS
330
2A
102
}
102
{ACAD_XDICTIONARY
360
D4F
102
}
330
2A
100
AcDbVisualStyle
  2
Brighten
 70
    12
 71
     2
 72
     2
 73
     0
 90
        0
 40
-0.6
 41
-30.0
 62
     5
 63
     7
 74
     1
 91
        4
 64
     7
 65
   257
 75
     1
175
     1
 42
1.0
 92
        8
 66
     7
 43
1.0
 76
     1
 77
     6
 78
     2
 67
     7
 79
     5
170
     0
171
     0
290
     0
174
     0
 93
        1
 44
50.0
173
     0
291
     1
 45
0.0
1001
ACAD
1000
AcDbSavedByObjectVersion
1070
     0
  0
VISUALSTYLE
  5
3A
102
{ACAD_REACTORS
330
2A
102
}
102
{ACAD_XDICTIONARY
360
D57
102
}
330
2A
100
AcDbVisualStyle
  2
ColorChange
 70
    16
 71
     2
 72
     2
 73
     3
 90
        0
 40
-0.6
 41
-30.0
 62
     5
 63
     8
 74
     1
 91
        4
 64
     7
 65
   257
 75
     1
175
     1
 42
1.0
 92
        8
 66
     8
 43
1.0
 76
     1
 77
     6
 78
     2
 67
     7
 79
     5
170
     0
171
     0
290
     0
174
     0
 93
        1
 44
0.0
173
     0
291
     1
 45
0.0
1001
ACAD
1000
AcDbSavedByObjectVersion
1070
     0
  0
VISUALSTYLE
  5
34
102
{ACAD_REACTORS
330
2A
102
}
102
{ACAD_XDICTIONARY
360
D4B
102
}
330
2A
100
AcDbVisualStyle
  2
Conceptual
 70
     9
 71
     3
 72
     2
 73
     0
 90
        0
 40
-0.6
 41
-30.0
 62
     5
 63
     7
 74
     2
 91
        2
 64
     7
 65
   257
 75
     1
175
     1
 42
40.0
 92
        8
 66
     7
 43
1.0
 76
     1
 77
     6
 78
     2
 67
     7
 79
     3
170
     0
171
     0
290
     0
174
     0
 93
        1
 44
0.0
173
     0
291
     0
 45
0.0
1001
ACAD
1000
AcDbSavedByObjectVersion
1070
     0
  0
VISUALSTYLE
  5
35
102
{ACAD_REACTORS
330
2A
102
}
102
{ACAD_XDICTIONARY
360
D4D
102
}
330
2A
100
AcDbVisualStyle
  2
Dim
 70
    11
 71
     2
 72
     2
 73
     0
 90
        0
 40
-0.6
 41
-30.0
 62
     5
 63
     7
 74
     1
 91
        4
 64
     7
 65
   257
 75
     1
175
     1
 42
1.0
 92
        8
 66
     7
 43
1.0
 76
     1
 77
     6
 78
     2
 67
     7
 79
     5
170
     0
171
     0
290
     0
174
     0
 93
        1
 44
-50.0
173
     0
291
     1
 45
0.0
1001
ACAD
1000
AcDbSavedByObjectVersion
1070
     0
  0
VISUALSTYLE
  5
39
102
{ACAD_REACTORS
330
2A
102
}
102
{ACAD_XDICTIONARY
360
D55
102
}
330
2A
100
AcDbVisualStyle
  2
Facepattern
 70
    15
 71
     2
 72
     2
 73
     0
 90
        0
 40
-0.6
 41
-30.0
 62
     5
 63
     7
 74
     1
 91
        4
 64
     7
 65
   257
 75
     1
175
     1
 42
1.0
 92
        8
 66
     7
 43
1.0
 76
     1
 77
     6
 78
     2
 67
     7
 79
     5
170
     0
171
     0
290
     0
174
     0
 93
        1
 44
0.0
173
     0
291
     1
 45
0.0
1001
ACAD
1000
AcDbSavedByObjectVersion
1070
     0
  0
VISUALSTYLE
  5
2B
102
{ACAD_REACTORS
330
2A
102
}
102
{ACAD_XDICTIONARY
360
D39
102
}
330
2A
100
AcDbVisualStyle
  2
Flat
 70
     0
 71
     2
 72
     1
 73
     1
 90
        2
 40
-0.6
 41
30.0
 62
     5
 63
     7
 74
     0
 91
        4
 64
     7
 65
   257
 75
     1
175
     1
 42
1.0
 92
        8
 66
     7
 43
1.0
 76
     1
 77
     6
 78
     2
 67
     7
 79
     5
170
     0
171
     0
290
     0
174
     0
 93
       13
 44
0.0
173
     0
291
     1
 45
0.0
1001
ACAD
1000
AcDbSavedByObjectVersion
1070
     0
  0
VISUALSTYLE
  5
2C
102
{ACAD_REACTORS
330
2A
102
}
102
{ACAD_XDICTIONARY
360
D3B
102
}
330
2A
100
AcDbVisualStyle
  2
FlatWithEdges
 70
     1
 71
     2
 72
     1
 73
     1
 90
        2
 40
-0.6
 41
30.0
 62
     5
 63
     7
 74
     1
 91
        4
 64
     7
 65
   257
 75
     1
175
     1
 42
1.0
 92
        0
 66
   257
 43
1.0
 76
     1
 77
     6
 78
     2
 67
     7
 79
     5
170
     0
171
     0
290
     0
174
     0
 93
       13
 44
0.0
173
     0
291
     1
 45
0.0
1001
ACAD
1000
AcDbSavedByObjectVersion
1070
     0
  0
VISUALSTYLE
  5
2D
102
{ACAD_REACTORS
330
2A
102
}
102
{ACAD_XDICTIONARY
360
D3D
102
}
330
2A
100
AcDbVisualStyle
  2
Gouraud
 70
     2
 71
     2
 72
     2
 73
     1
 90
        2
 40
-0.6
 41
30.0
 62
     5
 63
     7
 74
     0
 91
        4
 64
     7
 65
   257
 75
     1
175
     1
 42
1.0
 92
        0
 66
     7
 43
1.0
 76
     1
 77
     6
 78
     2
 67
     7
 79
     5
170
     0
171
     0
290
     0
174
     0
 93
       13
 44
0.0
173
     0
291
     1
 45
0.0
1001
ACAD
1000
AcDbSavedByObjectVersion
1070
     0
  0
VISUALSTYLE
  5
2E
102
{ACAD_REACTORS
330
2A
102
}
102
{ACAD_XDICTIONARY
360
D3F
102
}
330
2A
100
AcDbVisualStyle
  2
GouraudWithEdges
 70
     3
 71
     2
 72
     2
 73
     1
 90
        2
 40
-0.6
 41
30.0
 62
     5
 63
     7
 74
     1
 91
        4
 64
     7
 65
   257
 75
     1
175
     1
 42
1.0
 92
        0
 66
   257
 43
1.0
 76
     1
 77
     6
 78
     2
 67
     7
 79
     5
170
     0
171
     0
290
     0
174
     0
 93
       13
 44
0.0
173
     0
291
     1
 45
0.0
1001
ACAD
1000
AcDbSavedByObjectVersion
1070
     0
  0
VISUALSTYLE
  5
38
102
{ACAD_REACTORS
330
2A
102
}
102
{ACAD_XDICTIONARY
360
D53
102
}
330
2A
100
AcDbVisualStyle
  2
Linepattern
 70
    14
 71
     2
 72
     2
 73
     0
 90
        0
 40
-0.6
 41
-30.0
 62
     5
 63
     7
 74
     1
 91
        4
 64
     7
 65
   257
 75
     7
175
     7
 42
1.0
 92
        8
 66
     7
 43
1.0
 76
     1
 77
     6
 78
     2
 67
     7
 79
     5
170
     0
171
     0
290
     0
174
     0
 93
        1
 44
0.0
173
     0
291
     1
 45
0.0
1001
ACAD
1000
AcDbSavedByObjectVersion
1070
     0
  0
VISUALSTYLE
  5
33
102
{ACAD_REACTORS
330
2A
102
}
102
{ACAD_XDICTIONARY
360
D49
102
}
330
2A
100
AcDbVisualStyle
  2
Realistic
 70
     8
 71
     2
 72
     2
 73
     0
 90
        0
 40
-0.6
 41
-30.0
 62
     5
 63
     7
 74
     1
 91
        0
 64
     7
 65
   257
 75
     1
175
     1
 42
1.0
 92
        8
 66
     8
 43
1.0
 76
     1
 77
     6
 78
     2
 67
     7
 79
     5
170
     0
171
     0
290
     0
174
     0
 93
       13
 44
0.0
173
     0
291
     0
 45
0.0
1001
ACAD
1000
AcDbSavedByObjectVersion
1070
     0
  0
VISUALSTYLE
  5
37
102
{ACAD_REACTORS
330
2A
102
}
102
{ACAD_XDICTIONARY
360
D51
102
}
330
2A
100
AcDbVisualStyle
  2
Thicken
 70
    13
 71
     2
 72
     2
 73
     0
 90
        0
 40
-0.6
 41
-30.0
 62
     5
 63
     7
 74
     1
 91
        4
 64
     7
 65
   257
 75
     1
175
     1
 42
1.0
 92
       12
 66
     7
 43
1.0
 76
     1
 77
     6
 78
     2
 67
     7
 79
     5
170
     0
171
     0
290
     0
174
     0
 93
        1
 44
0.0
173
     0
291
     1
 45
0.0
1001
ACAD
1000
AcDbSavedByObjectVersion
1070
     0
  0
DICTIONARYVAR
  5
D36
102
{ACAD_REACTORS
330
D31
102
}
330
D31
100
DictionaryVariables
280
     0
  1
1:1
  0
DICTIONARYVAR
  5
D37
102
{ACAD_REACTORS
330
D31
102
}
330
D31
100
DictionaryVariables
280
     0
  1
2
  0
DICTIONARYVAR
  5
D38
102
{ACAD_REACTORS
330
D31
102
}
330
D31
100
DictionaryVariables
280
     0
  1
1
  0
DICTIONARYVAR
  5
D35
102
{ACAD_REACTORS
330
D31
102
}
330
D31
100
DictionaryVariables
280
     0
  1
80.000000
  0
DICTIONARYVAR
  5
D34
102
{ACAD_REACTORS
330
D31
102
}
330
D31
100
DictionaryVariables
280
     0
  1
5.000000
  0
DICTIONARY
  5
D5B
330
3D
100
AcDbDictionary
280
     1
281
     1
  3
ACAD_XREC_ROUNDTRIP
360
D5C
  0
DICTIONARY
  5
D59
330
3C
100
AcDbDictionary
280
     1
281
     1
  3
ACAD_XREC_ROUNDTRIP
360
D5A
  0
DICTIONARY
  5
D5D
330
3E
100
AcDbDictionary
280
     1
281
     1
  3
ACAD_XREC_ROUNDTRIP
360
D5E
  0
DICTIONARY
  5
D41
330
2F
100
AcDbDictionary
280
     1
281
     1
  3
ACAD_XREC_ROUNDTRIP
360
D42
  0
DICTIONARY
  5
D45
330
31
100
AcDbDictionary
280
     1
281
     1
  3
ACAD_XREC_ROUNDTRIP
360
D46
  0
DICTIONARY
  5
D43
330
30
100
AcDbDictionary
280
     1
281
     1
  3
ACAD_XREC_ROUNDTRIP
360
D44
  0
DICTIONARY
  5
D47
330
32
100
AcDbDictionary
280
     1
281
     1
  3
ACAD_XREC_ROUNDTRIP
360
D48
  0
DICTIONARY
  5
D4F
330
36
100
AcDbDictionary
280
     1
281
     1
  3
ACAD_XREC_ROUNDTRIP
360
D50
  0
DICTIONARY
  5
D57
330
3A
100
AcDbDictionary
280
     1
281
     1
  3
ACAD_XREC_ROUNDTRIP
360
D58
  0
DICTIONARY
  5
D4B
330
34
100
AcDbDictionary
280
     1
281
     1
  3
ACAD_XREC_ROUNDTRIP
360
D4C
  0
DICTIONARY
  5
D4D
330
35
100
AcDbDictionary
280
     1
281
     1
  3
ACAD_XREC_ROUNDTRIP
360
D4E
  0
DICTIONARY
  5
D55
330
39
100
AcDbDictionary
280
     1
281
     1
  3
ACAD_XREC_ROUNDTRIP
360
D56
  0
DICTIONARY
  5
D39
330
2B
100
AcDbDictionary
280
     1
281
     1
  3
ACAD_XREC_ROUNDTRIP
360
D3A
  0
DICTIONARY
  5
D3B
330
2C
100
AcDbDictionary
280
     1
281
     1
  3
ACAD_XREC_ROUNDTRIP
360
D3C
  0
DICTIONARY
  5
D3D
330
2D
100
AcDbDictionary
280
     1
281
     1
  3
ACAD_XREC_ROUNDTRIP
360
D3E
  0
DICTIONARY
  5
D3F
330
2E
100
AcDbDictionary
280
     1
281
     1
  3
ACAD_XREC_ROUNDTRIP
360
D40
  0
DICTIONARY
  5
D53
330
38
100
AcDbDictionary
280
     1
281
     1
  3
ACAD_XREC_ROUNDTRIP
360
D54
  0
DICTIONARY
  5
D49
330
33
100
AcDbDictionary
280
     1
281
     1
  3
ACAD_XREC_ROUNDTRIP
360
D4A
  0
DICTIONARY
  5
D51
330
37
100
AcDbDictionary
280
     1
281
     1
  3
ACAD_XREC_ROUNDTRIP
360
D52
  0
XRECORD
  5
D5C
102
{ACAD_REACTORS
330
D5B
102
}
330
D5B
100
AcDbXrecord
280
     1
102
MATERIAL
148
0.0
149
0.0
149
0.0
 93
        0
 94
      127
282
     0
 72
     1
 77
     1
171
     1
175
     1
179
     1
273
     0
  0
XRECORD
  5
D5A
102
{ACAD_REACTORS
330
D59
102
}
330
D59
100
AcDbXrecord
280
     1
102
MATERIAL
148
0.0
149
0.0
149
0.0
 93
        0
 94
      127
282
     0
 72
     1
 77
     1
171
     1
175
     1
179
     1
273
     0
  0
XRECORD
  5
D5E
102
{ACAD_REACTORS
330
D5D
102
}
330
D5D
100
AcDbXrecord
280
     1
102
MATERIAL
148
0.0
149
0.0
149
0.0
 93
        0
 94
      127
282
     0
 72
     1
 77
     1
171
     1
175
     1
179
     1
273
     0
  0
XRECORD
  5
D42
102
{ACAD_REACTORS
330
D41
102
}
330
D41
100
AcDbXrecord
280
     1
102
RTVSPropertyOp0
 70
     1
102
RTVSPropertyOp1
 70
     1
102
RTVSPropertyOp2
 70
     1
102
RTVSPropertyOp3
 70
     1
102
RTVSPropertyOp4
 70
     1
102
RTVSPropertyOp5
 70
     1
102
RTVSPropertyOp6
 70
     1
102
RTVSPropertyOp7
 70
     1
102
RTVSPropertyOp8
 70
     1
102
RTVSPropertyOp9
 70
     1
102
RTVSPropertyOp10
 70
     1
102
RTVSPropertyOp11
 70
     1
102
RTVSPropertyOp12
 70
     1
102
RTVSPropertyOp13
 70
     1
102
RTVSPropertyOp14
 70
     1
102
RTVSPropertyOp15
 70
     1
102
RTVSPropertyOp16
 70
     1
102
RTVSPropertyOp17
 70
     1
102
RTVSPropertyOp18
 70
     1
102
RTVSPropertyOp19
 70
     1
102
RTVSPropertyOp20
 70
     1
102
RTVSPropertyOp21
 70
     1
102
RTVSPropertyOp22
 70
     1
102
RTVSPropertyOp23
 70
     1
102
RTVSPropertyOp24
 70
     1
102
RTVSPropertyOp25
 70
     1
102
RTVSPropertyOp26
 70
     1
102
RTVSPropertyOp27
 70
     1
  0
XRECORD
  5
D46
102
{ACAD_REACTORS
330
D45
102
}
330
D45
100
AcDbXrecord
280
     1
102
RTVSPropertyOp0
 70
     1
102
RTVSPropertyOp1
 70
     1
102
RTVSPropertyOp2
 70
     1
102
RTVSPropertyOp3
 70
     1
102
RTVSPropertyOp4
 70
     1
102
RTVSPropertyOp5
 70
     1
102
RTVSPropertyOp6
 70
     1
102
RTVSPropertyOp7
 70
     1
102
RTVSPropertyOp8
 70
     1
102
RTVSPropertyOp9
 70
     1
102
RTVSPropertyOp10
 70
     1
102
RTVSPropertyOp11
 70
     1
102
RTVSPropertyOp12
 70
     1
102
RTVSPropertyOp13
 70
     1
102
RTVSPropertyOp14
 70
     1
102
RTVSPropertyOp15
 70
     1
102
RTVSPropertyOp16
 70
     1
102
RTVSPropertyOp17
 70
     1
102
RTVSPropertyOp18
 70
     1
102
RTVSPropertyOp19
 70
     1
102
RTVSPropertyOp20
 70
     1
102
RTVSPropertyOp21
 70
     1
102
RTVSPropertyOp22
 70
     1
102
RTVSPropertyOp23
 70
     1
102
RTVSPropertyOp24
 70
     1
102
RTVSPropertyOp25
 70
     1
102
RTVSPropertyOp26
 70
     1
102
RTVSPropertyOp27
 70
     1
  0
XRECORD
  5
D44
102
{ACAD_REACTORS
330
D43
102
}
330
D43
100
AcDbXrecord
280
     1
102
RTVSPropertyOp0
 70
     1
102
RTVSPropertyOp1
 70
     1
102
RTVSPropertyOp2
 70
     1
102
RTVSPropertyOp3
 70
     1
102
RTVSPropertyOp4
 70
     1
102
RTVSPropertyOp5
 70
     1
102
RTVSPropertyOp6
 70
     1
102
RTVSPropertyOp7
 70
     1
102
RTVSPropertyOp8
 70
     1
102
RTVSPropertyOp9
 70
     1
102
RTVSPropertyOp10
 70
     1
102
RTVSPropertyOp11
 70
     1
102
RTVSPropertyOp12
 70
     1
102
RTVSPropertyOp13
 70
     1
102
RTVSPropertyOp14
 70
     1
102
RTVSPropertyOp15
 70
     1
102
RTVSPropertyOp16
 70
     1
102
RTVSPropertyOp17
 70
     1
102
RTVSPropertyOp18
 70
     1
102
RTVSPropertyOp19
 70
     1
102
RTVSPropertyOp20
 70
     1
102
RTVSPropertyOp21
 70
     1
102
RTVSPropertyOp22
 70
     1
102
RTVSPropertyOp23
 70
     1
102
RTVSPropertyOp24
 70
     1
102
RTVSPropertyOp25
 70
     1
102
RTVSPropertyOp26
 70
     1
102
RTVSPropertyOp27
 70
     1
  0
XRECORD
  5
D48
102
{ACAD_REACTORS
330
D47
102
}
330
D47
100
AcDbXrecord
280
     1
102
RTVSPropertyOp0
 70
     1
102
RTVSPropertyOp1
 70
     1
102
RTVSPropertyOp2
 70
     1
102
RTVSPropertyOp3
 70
     1
102
RTVSPropertyOp4
 70
     1
102
RTVSPropertyOp5
 70
     1
102
RTVSPropertyOp6
 70
     1
102
RTVSPropertyOp7
 70
     1
102
RTVSPropertyOp8
 70
     1
102
RTVSPropertyOp9
 70
     1
102
RTVSPropertyOp10
 70
     1
102
RTVSPropertyOp11
 70
     1
102
RTVSPropertyOp12
 70
     1
102
RTVSPropertyOp13
 70
     1
102
RTVSPropertyOp14
 70
     1
102
RTVSPropertyOp15
 70
     1
102
RTVSPropertyOp16
 70
     1
102
RTVSPropertyOp17
 70
     1
102
RTVSPropertyOp18
 70
     1
102
RTVSPropertyOp19
 70
     1
102
RTVSPropertyOp20
 70
     1
102
RTVSPropertyOp21
 70
     1
102
RTVSPropertyOp22
 70
     1
102
RTVSPropertyOp23
 70
     1
102
RTVSPropertyOp24
 70
     1
102
RTVSPropertyOp25
 70
     1
102
RTVSPropertyOp26
 70
     1
102
RTVSPropertyOp27
 70
     1
  0
XRECORD
  5
D50
102
{ACAD_REACTORS
330
D4F
102
}
330
D4F
100
AcDbXrecord
280
     1
102
RTVSPropertyOp0
 70
     1
102
RTVSPropertyOp1
 70
     1
102
RTVSPropertyOp2
 70
     1
102
RTVSPropertyOp3
 70
     1
102
RTVSPropertyOp4
 70
     1
102
RTVSPropertyOp5
 70
     1
102
RTVSPropertyOp6
 70
     1
102
RTVSPropertyOp7
 70
     1
102
RTVSPropertyOp8
 70
     1
102
RTVSPropertyOp9
 70
     1
102
RTVSPropertyOp10
 70
     1
102
RTVSPropertyOp11
 70
     1
102
RTVSPropertyOp12
 70
     1
102
RTVSPropertyOp13
 70
     1
102
RTVSPropertyOp14
 70
     1
102
RTVSPropertyOp15
 70
     1
102
RTVSPropertyOp16
 70
     1
102
RTVSPropertyOp17
 70
     1
102
RTVSPropertyOp18
 70
     1
102
RTVSPropertyOp19
 70
     1
102
RTVSPropertyOp20
 70
     1
102
RTVSPropertyOp21
 70
     1
102
RTVSPropertyOp22
 70
     1
102
RTVSPropertyOp23
 70
     1
102
RTVSPropertyOp24
 70
     1
102
RTVSPropertyOp25
 70
     1
102
RTVSPropertyOp26
 70
     1
102
RTVSPropertyOp27
 70
     1
  0
XRECORD
  5
D58
102
{ACAD_REACTORS
330
D57
102
}
330
D57
100
AcDbXrecord
280
     1
102
RTVSPropertyOp0
 70
     1
102
RTVSPropertyOp1
 70
     1
102
RTVSPropertyOp2
 70
     1
102
RTVSPropertyOp3
 70
     1
102
RTVSPropertyOp4
 70
     1
102
RTVSPropertyOp5
 70
     1
102
RTVSPropertyOp6
 70
     1
102
RTVSPropertyOp7
 70
     1
102
RTVSPropertyOp8
 70
     1
102
RTVSPropertyOp9
 70
     1
102
RTVSPropertyOp10
 70
     1
102
RTVSPropertyOp11
 70
     1
102
RTVSPropertyOp12
 70
     1
102
RTVSPropertyOp13
 70
     1
102
RTVSPropertyOp14
 70
     1
102
RTVSPropertyOp15
 70
     1
102
RTVSPropertyOp16
 70
     1
102
RTVSPropertyOp17
 70
     1
102
RTVSPropertyOp18
 70
     1
102
RTVSPropertyOp19
 70
     1
102
RTVSPropertyOp20
 70
     1
102
RTVSPropertyOp21
 70
     1
102
RTVSPropertyOp22
 70
     1
102
RTVSPropertyOp23
 70
     1
102
RTVSPropertyOp24
 70
     1
102
RTVSPropertyOp25
 70
     1
102
RTVSPropertyOp26
 70
     1
102
RTVSPropertyOp27
 70
     1
  0
XRECORD
  5
D4C
102
{ACAD_REACTORS
330
D4B
102
}
330
D4B
100
AcDbXrecord
280
     1
102
RTVSPropertyOp0
 70
     1
102
RTVSPropertyOp1
 70
     1
102
RTVSPropertyOp2
 70
     1
102
RTVSPropertyOp3
 70
     1
102
RTVSPropertyOp4
 70
     1
102
RTVSPropertyOp5
 70
     1
102
RTVSPropertyOp6
 70
     1
102
RTVSPropertyOp7
 70
     1
102
RTVSPropertyOp8
 70
     1
102
RTVSPropertyOp9
 70
     1
102
RTVSPropertyOp10
 70
     1
102
RTVSPropertyOp11
 70
     1
102
RTVSPropertyOp12
 70
     1
102
RTVSPropertyOp13
 70
     1
102
RTVSPropertyOp14
 70
     1
102
RTVSPropertyOp15
 70
     1
102
RTVSPropertyOp16
 70
     1
102
RTVSPropertyOp17
 70
     1
102
RTVSPropertyOp18
 70
     1
102
RTVSPropertyOp19
 70
     1
102
RTVSPropertyOp20
 70
     1
102
RTVSPropertyOp21
 70
     1
102
RTVSPropertyOp22
 70
     1
102
RTVSPropertyOp23
 70
     1
102
RTVSPropertyOp24
 70
     1
102
RTVSPropertyOp25
 70
     1
102
RTVSPropertyOp26
 70
     1
102
RTVSPropertyOp27
 70
     1
  0
XRECORD
  5
D4E
102
{ACAD_REACTORS
330
D4D
102
}
330
D4D
100
AcDbXrecord
280
     1
102
RTVSPropertyOp0
 70
     1
102
RTVSPropertyOp1
 70
     1
102
RTVSPropertyOp2
 70
     1
102
RTVSPropertyOp3
 70
     1
102
RTVSPropertyOp4
 70
     1
102
RTVSPropertyOp5
 70
     1
102
RTVSPropertyOp6
 70
     1
102
RTVSPropertyOp7
 70
     1
102
RTVSPropertyOp8
 70
     1
102
RTVSPropertyOp9
 70
     1
102
RTVSPropertyOp10
 70
     1
102
RTVSPropertyOp11
 70
     1
102
RTVSPropertyOp12
 70
     1
102
RTVSPropertyOp13
 70
     1
102
RTVSPropertyOp14
 70
     1
102
RTVSPropertyOp15
 70
     1
102
RTVSPropertyOp16
 70
     1
102
RTVSPropertyOp17
 70
     1
102
RTVSPropertyOp18
 70
     1
102
RTVSPropertyOp19
 70
     1
102
RTVSPropertyOp20
 70
     1
102
RTVSPropertyOp21
 70
     1
102
RTVSPropertyOp22
 70
     1
102
RTVSPropertyOp23
 70
     1
102
RTVSPropertyOp24
 70
     1
102
RTVSPropertyOp25
 70
     1
102
RTVSPropertyOp26
 70
     1
102
RTVSPropertyOp27
 70
     1
  0
XRECORD
  5
D56
102
{ACAD_REACTORS
330
D55
102
}
330
D55
100
AcDbXrecord
280
     1
102
RTVSPropertyOp0
 70
     1
102
RTVSPropertyOp1
 70
     1
102
RTVSPropertyOp2
 70
     1
102
RTVSPropertyOp3
 70
     1
102
RTVSPropertyOp4
 70
     1
102
RTVSPropertyOp5
 70
     1
102
RTVSPropertyOp6
 70
     1
102
RTVSPropertyOp7
 70
     1
102
RTVSPropertyOp8
 70
     1
102
RTVSPropertyOp9
 70
     1
102
RTVSPropertyOp10
 70
     1
102
RTVSPropertyOp11
 70
     1
102
RTVSPropertyOp12
 70
     1
102
RTVSPropertyOp13
 70
     1
102
RTVSPropertyOp14
 70
     1
102
RTVSPropertyOp15
 70
     1
102
RTVSPropertyOp16
 70
     1
102
RTVSPropertyOp17
 70
     1
102
RTVSPropertyOp18
 70
     1
102
RTVSPropertyOp19
 70
     1
102
RTVSPropertyOp20
 70
     1
102
RTVSPropertyOp21
 70
     1
102
RTVSPropertyOp22
 70
     1
102
RTVSPropertyOp23
 70
     1
102
RTVSPropertyOp24
 70
     1
102
RTVSPropertyOp25
 70
     1
102
RTVSPropertyOp26
 70
     1
102
RTVSPropertyOp27
 70
     1
  0
XRECORD
  5
D3A
102
{ACAD_REACTORS
330
D39
102
}
330
D39
100
AcDbXrecord
280
     1
102
RTVSPropertyOp0
 70
     1
102
RTVSPropertyOp1
 70
     1
102
RTVSPropertyOp2
 70
     1
102
RTVSPropertyOp3
 70
     1
102
RTVSPropertyOp4
 70
     1
102
RTVSPropertyOp5
 70
     1
102
RTVSPropertyOp6
 70
     1
102
RTVSPropertyOp7
 70
     1
102
RTVSPropertyOp8
 70
     1
102
RTVSPropertyOp9
 70
     1
102
RTVSPropertyOp10
 70
     1
102
RTVSPropertyOp11
 70
     1
102
RTVSPropertyOp12
 70
     1
102
RTVSPropertyOp13
 70
     1
102
RTVSPropertyOp14
 70
     1
102
RTVSPropertyOp15
 70
     1
102
RTVSPropertyOp16
 70
     1
102
RTVSPropertyOp17
 70
     1
102
RTVSPropertyOp18
 70
     1
102
RTVSPropertyOp19
 70
     1
102
RTVSPropertyOp20
 70
     1
102
RTVSPropertyOp21
 70
     1
102
RTVSPropertyOp22
 70
     1
102
RTVSPropertyOp23
 70
     1
102
RTVSPropertyOp24
 70
     1
102
RTVSPropertyOp25
 70
     1
102
RTVSPropertyOp26
 70
     1
102
RTVSPropertyOp27
 70
     1
  0
XRECORD
  5
D3C
102
{ACAD_REACTORS
330
D3B
102
}
330
D3B
100
AcDbXrecord
280
     1
102
RTVSPropertyOp0
 70
     1
102
RTVSPropertyOp1
 70
     1
102
RTVSPropertyOp2
 70
     1
102
RTVSPropertyOp3
 70
     1
102
RTVSPropertyOp4
 70
     1
102
RTVSPropertyOp5
 70
     1
102
RTVSPropertyOp6
 70
     1
102
RTVSPropertyOp7
 70
     1
102
RTVSPropertyOp8
 70
     1
102
RTVSPropertyOp9
 70
     1
102
RTVSPropertyOp10
 70
     1
102
RTVSPropertyOp11
 70
     1
102
RTVSPropertyOp12
 70
     1
102
RTVSPropertyOp13
 70
     1
102
RTVSPropertyOp14
 70
     1
102
RTVSPropertyOp15
 70
     1
102
RTVSPropertyOp16
 70
     1
102
RTVSPropertyOp17
 70
     1
102
RTVSPropertyOp18
 70
     1
102
RTVSPropertyOp19
 70
     1
102
RTVSPropertyOp20
 70
     1
102
RTVSPropertyOp21
 70
     1
102
RTVSPropertyOp22
 70
     1
102
RTVSPropertyOp23
 70
     1
102
RTVSPropertyOp24
 70
     1
102
RTVSPropertyOp25
 70
     1
102
RTVSPropertyOp26
 70
     1
102
RTVSPropertyOp27
 70
     1
  0
XRECORD
  5
D3E
102
{ACAD_REACTORS
330
D3D
102
}
330
D3D
100
AcDbXrecord
280
     1
102
RTVSPropertyOp0
 70
     1
102
RTVSPropertyOp1
 70
     1
102
RTVSPropertyOp2
 70
     1
102
RTVSPropertyOp3
 70
     1
102
RTVSPropertyOp4
 70
     1
102
RTVSPropertyOp5
 70
     1
102
RTVSPropertyOp6
 70
     1
102
RTVSPropertyOp7
 70
     1
102
RTVSPropertyOp8
 70
     1
102
RTVSPropertyOp9
 70
     1
102
RTVSPropertyOp10
 70
     1
102
RTVSPropertyOp11
 70
     1
102
RTVSPropertyOp12
 70
     1
102
RTVSPropertyOp13
 70
     1
102
RTVSPropertyOp14
 70
     1
102
RTVSPropertyOp15
 70
     1
102
RTVSPropertyOp16
 70
     1
102
RTVSPropertyOp17
 70
     1
102
RTVSPropertyOp18
 70
     1
102
RTVSPropertyOp19
 70
     1
102
RTVSPropertyOp20
 70
     1
102
RTVSPropertyOp21
 70
     1
102
RTVSPropertyOp22
 70
     1
102
RTVSPropertyOp23
 70
     1
102
RTVSPropertyOp24
 70
     1
102
RTVSPropertyOp25
 70
     1
102
RTVSPropertyOp26
 70
     1
102
RTVSPropertyOp27
 70
     1
  0
XRECORD
  5
D40
102
{ACAD_REACTORS
330
D3F
102
}
330
D3F
100
AcDbXrecord
280
     1
102
RTVSPropertyOp0
 70
     1
102
RTVSPropertyOp1
 70
     1
102
RTVSPropertyOp2
 70
     1
102
RTVSPropertyOp3
 70
     1
102
RTVSPropertyOp4
 70
     1
102
RTVSPropertyOp5
 70
     1
102
RTVSPropertyOp6
 70
     1
102
RTVSPropertyOp7
 70
     1
102
RTVSPropertyOp8
 70
     1
102
RTVSPropertyOp9
 70
     1
102
RTVSPropertyOp10
 70
     1
102
RTVSPropertyOp11
 70
     1
102
RTVSPropertyOp12
 70
     1
102
RTVSPropertyOp13
 70
     1
102
RTVSPropertyOp14
 70
     1
102
RTVSPropertyOp15
 70
     1
102
RTVSPropertyOp16
 70
     1
102
RTVSPropertyOp17
 70
     1
102
RTVSPropertyOp18
 70
     1
102
RTVSPropertyOp19
 70
     1
102
RTVSPropertyOp20
 70
     1
102
RTVSPropertyOp21
 70
     1
102
RTVSPropertyOp22
 70
     1
102
RTVSPropertyOp23
 70
     1
102
RTVSPropertyOp24
 70
     1
102
RTVSPropertyOp25
 70
     1
102
RTVSPropertyOp26
 70
     1
102
RTVSPropertyOp27
 70
     1
  0
XRECORD
  5
D54
102
{ACAD_REACTORS
330
D53
102
}
330
D53
100
AcDbXrecord
280
     1
102
RTVSPropertyOp0
 70
     1
102
RTVSPropertyOp1
 70
     1
102
RTVSPropertyOp2
 70
     1
102
RTVSPropertyOp3
 70
     1
102
RTVSPropertyOp4
 70
     1
102
RTVSPropertyOp5
 70
     1
102
RTVSPropertyOp6
 70
     1
102
RTVSPropertyOp7
 70
     1
102
RTVSPropertyOp8
 70
     1
102
RTVSPropertyOp9
 70
     1
102
RTVSPropertyOp10
 70
     1
102
RTVSPropertyOp11
 70
     1
102
RTVSPropertyOp12
 70
     1
102
RTVSPropertyOp13
 70
     1
102
RTVSPropertyOp14
 70
     1
102
RTVSPropertyOp15
 70
     1
102
RTVSPropertyOp16
 70
     1
102
RTVSPropertyOp17
 70
     1
102
RTVSPropertyOp18
 70
     1
102
RTVSPropertyOp19
 70
     1
102
RTVSPropertyOp20
 70
     1
102
RTVSPropertyOp21
 70
     1
102
RTVSPropertyOp22
 70
     1
102
RTVSPropertyOp23
 70
     1
102
RTVSPropertyOp24
 70
     1
102
RTVSPropertyOp25
 70
     1
102
RTVSPropertyOp26
 70
     1
102
RTVSPropertyOp27
 70
     1
  0
XRECORD
  5
D4A
102
{ACAD_REACTORS
330
D49
102
}
330
D49
100
AcDbXrecord
280
     1
102
RTVSPropertyOp0
 70
     1
102
RTVSPropertyOp1
 70
     1
102
RTVSPropertyOp2
 70
     1
102
RTVSPropertyOp3
 70
     1
102
RTVSPropertyOp4
 70
     1
102
RTVSPropertyOp5
 70
     1
102
RTVSPropertyOp6
 70
     1
102
RTVSPropertyOp7
 70
     1
102
RTVSPropertyOp8
 70
     1
102
RTVSPropertyOp9
 70
     1
102
RTVSPropertyOp10
 70
     1
102
RTVSPropertyOp11
 70
     1
102
RTVSPropertyOp12
 70
     1
102
RTVSPropertyOp13
 70
     1
102
RTVSPropertyOp14
 70
     1
102
RTVSPropertyOp15
 70
     1
102
RTVSPropertyOp16
 70
     1
102
RTVSPropertyOp17
 70
     1
102
RTVSPropertyOp18
 70
     1
102
RTVSPropertyOp19
 70
     1
102
RTVSPropertyOp20
 70
     1
102
RTVSPropertyOp21
 70
     1
102
RTVSPropertyOp22
 70
     1
102
RTVSPropertyOp23
 70
     1
102
RTVSPropertyOp24
 70
     1
102
RTVSPropertyOp25
 70
     1
102
RTVSPropertyOp26
 70
     1
102
RTVSPropertyOp27
 70
     1
  0
XRECORD
  5
D52
102
{ACAD_REACTORS
330
D51
102
}
330
D51
100
AcDbXrecord
280
     1
102
RTVSPropertyOp0
 70
     1
102
RTVSPropertyOp1
 70
     1
102
RTVSPropertyOp2
 70
     1
102
RTVSPropertyOp3
 70
     1
102
RTVSPropertyOp4
 70
     1
102
RTVSPropertyOp5
 70
     1
102
RTVSPropertyOp6
 70
     1
102
RTVSPropertyOp7
 70
     1
102
RTVSPropertyOp8
 70
     1
102
RTVSPropertyOp9
 70
     1
102
RTVSPropertyOp10
 70
     1
102
RTVSPropertyOp11
 70
     1
102
RTVSPropertyOp12
 70
     1
102
RTVSPropertyOp13
 70
     1
102
RTVSPropertyOp14
 70
     1
102
RTVSPropertyOp15
 70
     1
102
RTVSPropertyOp16
 70
     1
102
RTVSPropertyOp17
 70
     1
102
RTVSPropertyOp18
 70
     1
102
RTVSPropertyOp19
 70
     1
102
RTVSPropertyOp20
 70
     1
102
RTVSPropertyOp21
 70
     1
102
RTVSPropertyOp22
 70
     1
102
RTVSPropertyOp23
 70
     1
102
RTVSPropertyOp24
 70
     1
102
RTVSPropertyOp25
 70
     1
102
RTVSPropertyOp26
 70
     1
102
RTVSPropertyOp27
 70
     1
  0
ENDSEC
  0
EOF
