  0
SECTION
  2
HEADER
  9
$ACADVER
  1
AC1015
  9
$ACADMAINTVER
 70
     6
  9
$DWGCODEPAGE
  3
ANSI_1252
  9
$INSBASE
 10
0.0
 20
0.0
 30
0.0
  9
$EXTMIN
 10
0.0
 20
0.0
 30
0.0
  9
$EXTMAX
 10
25.0
 20
35.0
 30
0.0
  9
$LIMMIN
 10
0.0
 20
0.0
  9
$LIMMAX
 10
420.0
 20
297.0
  9
$ORTHOMODE
 70
     0
  9
$REGENMODE
 70
     1
  9
$FILLMODE
 70
     1
  9
$QTEXTMODE
 70
     0
  9
$MIRRTEXT
 70
     1
  9
$LTSCALE
 40
4.9
  9
$ATTMODE
 70
     1
  9
$TEXTSIZE
 40
2.5
  9
$TRACEWID
 40
1.0
  9
$TEXTSTYLE
  7
Standard
  9
$CLAYER
  8
0
  9
$CELTYPE
  6
ByLayer
  9
$CECOLOR
 62
   256
  9
$CELTSCALE
 40
1.0
  9
$DISPSILH
 70
     0
  9
$DIMSCALE
 40
1.0
  9
$DIMASZ
 40
2.5
  9
$DIMEXO
 40
0.625
  9
$DIMDLI
 40
3.75
  9
$DIMRND
 40
0.0
  9
$DIMDLE
 40
0.0
  9
$DIMEXE
 40
1.25
  9
$DIMTP
 40
0.0
  9
$DIMTM
 40
0.0
  9
$DIMTXT
 40
2.5
  9
$DIMCEN
 40
2.5
  9
$DIMTSZ
 40
0.0
  9
$DIMTOL
 70
     0
  9
$DIMLIM
 70
     0
  9
$DIMTIH
 70
     0
  9
$DIMTOH
 70
     0
  9
$DIMSE1
 70
     0
  9
$DIMSE2
 70
     0
  9
$DIMTAD
 70
     1
  9
$DIMZIN
 70
     8
  9
$DIMBLK
  1

  9
$DIMASO
 70
     1
  9
$DIMSHO
 70
     1
  9
$DIMPOST
  1

  9
$DIMAPOST
  1

  9
$DIMALT
 70
     0
  9
$DIMALTD
 70
     3
  9
$DIMALTF
 40
0.03937007874016
  9
$DIMLFAC
 40
1.0
  9
$DIMTOFL
 70
     1
  9
$DIMTVP
 40
0.0
  9
$DIMTIX
 70
     0
  9
$DIMSOXD
 70
     0
  9
$DIMSAH
 70
     0
  9
$DIMBLK1
  1

  9
$DIMBLK2
  1

  9
$DIMSTYLE
  2
ISO-25
  9
$DIMCLRD
 70
     0
  9
$DIMCLRE
 70
     0
  9
$DIMCLRT
 70
     0
  9
$DIMTFAC
 40
1.0
  9
$DIMGAP
 40
0.625
  9
$DIMJUST
 70
     0
  9
$DIMSD1
 70
     0
  9
$DIMSD2
 70
     0
  9
$DIMTOLJ
 70
     0
  9
$DIMTZIN
 70
     8
  9
$DIMALTZ
 70
     0
  9
$DIMALTTZ
 70
     0
  9
$DIMUPT
 70
     0
  9
$DIMDEC
 70
     2
  9
$DIMTDEC
 70
     2
  9
$DIMALTU
 70
     2
  9
$DIMALTTD
 70
     3
  9
$DIMTXSTY
  7
Standard
  9
$DIMAUNIT
 70
     0
  9
$DIMADEC
 70
     0
  9
$DIMALTRND
 40
0.0
  9
$DIMAZIN
 70
     0
  9
$DIMDSEP
 70
    44
  9
$DIMATFIT
 70
     3
  9
$DIMFRAC
 70
     0
  9
$DIMLDRBLK
  1

  9
$DIMLUNIT
 70
     2
  9
$DIMLWD
 70
    -2
  9
$DIMLWE
 70
    -2
  9
$DIMTMOVE
 70
     0
  9
$LUNITS
 70
     2
  9
$LUPREC
 70
     4
  9
$SKETCHINC
 40
1.0
  9
$FILLETRAD
 40
10.0
  9
$AUNITS
 70
     0
  9
$AUPREC
 70
     0
  9
$MENU
  1
.
  9
$ELEVATION
 40
0.0
  9
$PELEVATION
 40
0.0
  9
$THICKNESS
 40
0.0
  9
$LIMCHECK
 70
     0
  9
$CHAMFERA
 40
10.0
  9
$CHAMFERB
 40
10.0
  9
$CHAMFERC
 40
20.0
  9
$CHAMFERD
 40
0.0
  9
$SKPOLY
 70
     0
  9
$TDCREATE
 40
2458577.309722222
  9
$TDUCREATE
 40
2458577.226388889
  9
$TDUPDATE
 40
2458577.313194444
  9
$TDUUPDATE
 40
2458577.229861111
  9
$TDINDWG
 40
0.0000000116
  9
$TDUSRTIMER
 40
0.0000000116
  9
$USRTIMER
 70
     1
  9
$ANGBASE
 50
0.0
  9
$ANGDIR
 70
     0
  9
$PDMODE
 70
     0
  9
$PDSIZE
 40
0.0
  9
$PLINEWID
 40
0.0
  9
$SPLFRAME
 70
     0
  9
$SPLINETYPE
 70
     6
  9
$SPLINESEGS
 70
     8
  9
$HANDSEED
  5
AD9
  9
$SURFTAB1
 70
     6
  9
$SURFTAB2
 70
     6
  9
$SURFTYPE
 70
     6
  9
$SURFU
 70
     6
  9
$SURFV
 70
     6
  9
$UCSBASE
  2

  9
$UCSNAME
  2

  9
$UCSORG
 10
0.0
 20
0.0
 30
0.0
  9
$UCSXDIR
 10
1.0
 20
0.0
 30
0.0
  9
$UCSYDIR
 10
0.0
 20
1.0
 30
0.0
  9
$UCSORTHOREF
  2

  9
$UCSORTHOVIEW
 70
     0
  9
$UCSORGTOP
 10
0.0
 20
0.0
 30
0.0
  9
$UCSORGBOTTOM
 10
0.0
 20
0.0
 30
0.0
  9
$UCSORGLEFT
 10
0.0
 20
0.0
 30
0.0
  9
$UCSORGRIGHT
 10
0.0
 20
0.0
 30
0.0
  9
$UCSORGFRONT
 10
0.0
 20
0.0
 30
0.0
  9
$UCSORGBACK
 10
0.0
 20
0.0
 30
0.0
  9
$PUCSBASE
  2

  9
$PUCSNAME
  2

  9
$PUCSORG
 10
0.0
 20
0.0
 30
0.0
  9
$PUCSXDIR
 10
1.0
 20
0.0
 30
0.0
  9
$PUCSYDIR
 10
0.0
 20
1.0
 30
0.0
  9
$PUCSORTHOREF
  2

  9
$PUCSORTHOVIEW
 70
     0
  9
$PUCSORGTOP
 10
0.0
 20
0.0
 30
0.0
  9
$PUCSORGBOTTOM
 10
0.0
 20
0.0
 30
0.0
  9
$PUCSORGLEFT
 10
0.0
 20
0.0
 30
0.0
  9
$PUCSORGRIGHT
 10
0.0
 20
0.0
 30
0.0
  9
$PUCSORGFRONT
 10
0.0
 20
0.0
 30
0.0
  9
$PUCSORGBACK
 10
0.0
 20
0.0
 30
0.0
  9
$USERI1
 70
     0
  9
$USERI2
 70
     0
  9
$USERI3
 70
     0
  9
$USERI4
 70
     0
  9
$USERI5
 70
     0
  9
$USERR1
 40
0.0
  9
$USERR2
 40
0.0
  9
$USERR3
 40
0.0
  9
$USERR4
 40
0.0
  9
$USERR5
 40
0.0
  9
$WORLDVIEW
 70
     1
  9
$SHADEDGE
 70
     3
  9
$SHADEDIF
 70
    70
  9
$TILEMODE
 70
     1
  9
$MAXACTVP
 70
    64
  9
$PINSBASE
 10
0.0
 20
0.0
 30
0.0
  9
$PLIMCHECK
 70
     0
  9
$PEXTMIN
 10
1.000000000000000E+20
 20
1.000000000000000E+20
 30
1.000000000000000E+20
  9
$PEXTMAX
 10
-1.000000000000000E+20
 20
-1.000000000000000E+20
 30
-1.000000000000000E+20
  9
$PLIMMIN
 10
0.0
 20
0.0
  9
$PLIMMAX
 10
420.0
 20
297.0
  9
$UNITMODE
 70
     0
  9
$VISRETAIN
 70
     1
  9
$PLINEGEN
 70
     0
  9
$PSLTSCALE
 70
     1
  9
$TREEDEPTH
 70
  3020
  9
$CMLSTYLE
  2
Standard
  9
$CMLJUST
 70
     0
  9
$CMLSCALE
 40
20.0
  9
$PROXYGRAPHICS
 70
     1
  9
$MEASUREMENT
 70
     1
  9
$CELWEIGHT
370
    -1
  9
$ENDCAPS
280
     0
  9
$JOINSTYLE
280
     0
  9
$LWDISPLAY
290
     0
  9
$INSUNITS
 70
     4
  9
$HYPERLINKBASE
  1

  9
$STYLESHEET
  1

  9
$XEDIT
290
     1
  9
$CEPSNTYPE
380
     0
  9
$PSTYLEMODE
290
     1
  9
$FINGERPRINTGUID
  2
{57EEFF48-A5B6-45D8-9F0A-D80C18998FDD}
  9
$VERSIONGUID
  2
{FAEB1C32-E019-11D5-929B-00C0DF256EC4}
  9
$EXTNAMES
290
     1
  9
$PSVPSCALE
 40
0.0
  9
$OLESTARTUP
290
     0
  0
ENDSEC
  0
SECTION
  2
CLASSES
  0
CLASS
  1
ACDBDICTIONARYWDFLT
  2
AcDbDictionaryWithDefault
  3
ObjectDBX Classes
 90
        0
280
     0
281
     0
  0
CLASS
  1
VISUALSTYLE
  2
AcDbVisualStyle
  3
ObjectDBX Classes
 90
     4095
280
     0
281
     0
  0
CLASS
  1
MATERIAL
  2
AcDbMaterial
  3
ObjectDBX Classes
 90
     1153
280
     0
281
     0
  0
CLASS
  1
SCALE
  2
AcDbScale
  3
ObjectDBX Classes
 90
     1153
280
     0
281
     0
  0
CLASS
  1
DICTIONARYVAR
  2
AcDbDictionaryVar
  3
ObjectDBX Classes
 90
        0
280
     0
281
     0
  0
CLASS
  1
ACDBPLACEHOLDER
  2
AcDbPlaceHolder
  3
ObjectDBX Classes
 90
        0
280
     0
281
     0
  0
CLASS
  1
LAYOUT
  2
AcDbLayout
  3
ObjectDBX Classes
 90
        0
280
     0
281
     0
  0
ENDSEC
  0
SECTION
  2
TABLES
  0
TABLE
  2
VPORT
  5
8
330
0
100
AcDbSymbolTable
 70
     1
  0
VPORT
  5
29
330
8
100
AcDbSymbolTableRecord
100
AcDbViewportTableRecord
  2
*Active
 70
     0
 10
0.0
 20
0.0
 11
1.0
 21
1.0
 12
11.26
 22
4.5
 13
0.0
 23
0.0
 14
10.0
 24
10.0
 15
10.0
 25
10.0
 16
0.0
 26
0.0
 36
1.0
 17
0.0
 27
0.0
 37
0.0
 40
9.0
 41
2.503333333333333
 42
50.0
 43
0.0
 44
0.0
 50
0.0
 51
0.0
 71
     0
 72
   100
 73
     1
 74
     3
 75
     0
 76
     0
 77
     0
 78
     0
281
     0
 65
     1
110
0.0
120
0.0
130
0.0
111
1.0
121
0.0
131
0.0
112
0.0
122
1.0
132
0.0
 79
     0
146
0.0
  0
ENDTAB
  0
TABLE
  2
LTYPE
  5
5
330
0
100
AcDbSymbolTable
 70
    10
  0
LTYPE
  5
14
330
5
100
AcDbSymbolTableRecord
100
AcDbLinetypeTableRecord
  2
ByBlock
 70
     0
  3

 72
    65
 73
     0
 40
0.0
  0
LTYPE
  5
15
330
5
100
AcDbSymbolTableRecord
100
AcDbLinetypeTableRecord
  2
ByLayer
 70
     0
  3

 72
    65
 73
     0
 40
0.0
  0
LTYPE
  5
16
330
5
100
AcDbSymbolTableRecord
100
AcDbLinetypeTableRecord
  2
Continuous
 70
     0
  3
Solid line
 72
    65
 73
     0
 40
0.0
  0
LTYPE
  5
45
330
5
100
AcDbSymbolTableRecord
100
AcDbLinetypeTableRecord
  2
phl_thick
 70
     0
  3
THICK
 72
    65
 73
     0
 40
0.0
  0
LTYPE
  5
2FD
330
5
100
AcDbSymbolTableRecord
100
AcDbLinetypeTableRecord
  2
ls_CUT
 70
     0
  3
THICK
 72
    65
 73
     0
 40
0.0
  0
LTYPE
  5
303
330
5
100
AcDbSymbolTableRecord
100
AcDbLinetypeTableRecord
  2
ls1
 70
     0
  3
THICK
 72
    65
 73
     0
 40
0.0
  0
LTYPE
  5
30A
330
5
100
AcDbSymbolTableRecord
100
AcDbLinetypeTableRecord
  2
NOCUT
 70
     0
  3
THICK
 72
    65
 73
     0
 40
0.0
  0
LTYPE
  5
30E
330
5
100
AcDbSymbolTableRecord
100
AcDbLinetypeTableRecord
  2
SK1
 70
     0
  3
THICK
 72
    65
 73
     0
 40
0.0
  0
LTYPE
  5
316
330
5
100
AcDbSymbolTableRecord
100
AcDbLinetypeTableRecord
  2
ls_SK2
 70
     0
  3
THIN
 72
    65
 73
     0
 40
0.0
  0
LTYPE
  5
3C1
330
5
100
AcDbSymbolTableRecord
100
AcDbLinetypeTableRecord
  2
ls_2
 70
     0
  3
THIN
 72
    65
 73
     0
 40
0.0
  0
LTYPE
  5
510
330
5
100
AcDbSymbolTableRecord
100
AcDbLinetypeTableRecord
  2
LONGDASH_DASH
 70
     0
  3
THIN_DASHDOT
 72
    65
 73
     4
 40
0.85
 49
0.4
 74
     0
 49
-0.2
 74
     0
 49
0.05
 74
     0
 49
-0.2
 74
     0
  0
LTYPE
  5
54E
330
5
100
AcDbSymbolTableRecord
100
AcDbLinetypeTableRecord
  2
ls_SK1
 70
     0
  3
THICK
 72
    65
 73
     0
 40
0.0
  0
ENDTAB
  0
TABLE
  2
LAYER
  5
2
330
0
100
AcDbSymbolTable
 70
    10
  0
LAYER
  5
10
330
2
100
AcDbSymbolTableRecord
100
AcDbLayerTableRecord
  2
0
 70
     0
 62
     7
  6
Continuous
370
    -3
390
F
  0
LAYER
  5
44
330
2
100
AcDbSymbolTableRecord
100
AcDbLayerTableRecord
  2
1
 70
     0
 62
4
  6
CONTINUOUS
370
50
370
    -3
390
F
  0
LAYER
  5
2FC
330
2
100
AcDbSymbolTableRecord
100
AcDbLayerTableRecord
  2
CUT
 70
     0
 62
1
  6
CONTINUOUS
370
25
370
    -3
390
F
  0
LAYER
  5
302
330
2
100
AcDbSymbolTableRecord
100
AcDbLayerTableRecord
  2
NOCUT
 70
     0
 62
7
  6
CONTINUOUS
370
25
370
    -3
390
F
  0
LAYER
  5
30D
330
2
100
AcDbSymbolTableRecord
100
AcDbLayerTableRecord
  2
SK1
 70
     0
 62
4
  6
CONTINUOUS
370
50
370
    -3
390
F
  0
LAYER
  5
315
330
2
100
AcDbSymbolTableRecord
100
AcDbLayerTableRecord
  2
SK2
 70
     0
 62
7
  6
CONTINUOUS
370
25
370
    -3
390
F
  0
LAYER
  5
3C0
330
2
100
AcDbSymbolTableRecord
100
AcDbLayerTableRecord
  2
2
 70
     0
 62
7
  6
CONTINUOUS
370
25
370
    -3
390
F
  0
LAYER
  5
50F
330
2
100
AcDbSymbolTableRecord
100
AcDbLayerTableRecord
  2
4
 70
     0
 62
2
  6
LONGDASH_DASH
370
25
370
    -3
390
F
  0
LAYER
  5
512
330
2
100
AcDbSymbolTableRecord
100
AcDbLayerTableRecord
  2
SK4
 70
     0
 62
2
  6
LONGDASH_DASH
370
25
370
    -3
390
F
  0
LAYER
  5
587
330
2
100
AcDbSymbolTableRecord
100
AcDbLayerTableRecord
  2
SK6
 70
     0
 62
5
  6
CONTINUOUS
370
25
370
    -3
390
F
  0
ENDTAB
  0
TABLE
  2
STYLE
  5
3
330
0
100
AcDbSymbolTable
 70
     1
  0
STYLE
  5
11
330
3
100
AcDbSymbolTableRecord
100
AcDbTextStyleTableRecord
  2
Standard
 70
     0
 40
0.0
 41
1.0
 50
0.0
 71
     0
 42
2.5
  3
Monospac821 BT
  4

  0
ENDTAB
  0
TABLE
  2
VIEW
  5
6
330
0
100
AcDbSymbolTable
 70
     0
  0
ENDTAB
  0
TABLE
  2
UCS
  5
7
330
0
100
AcDbSymbolTable
 70
     0
  0
ENDTAB
  0
TABLE
  2
APPID
  5
9
330
0
100
AcDbSymbolTable
 70
     2
  0
APPID
  5
12
330
9
100
AcDbSymbolTableRecord
100
AcDbRegAppTableRecord
  2
ACAD
 70
     0
  0
APPID
  5
3F
330
9
100
AcDbSymbolTableRecord
100
AcDbRegAppTableRecord
  2
ccLab
 70
     0
  0
ENDTAB
  0
TABLE
  2
DIMSTYLE
  5
A
330
0
100
AcDbSymbolTable
 70
     1
100
AcDbDimStyleTable
  0
DIMSTYLE
105
27
330
A
100
AcDbSymbolTableRecord
100
AcDbDimStyleTableRecord
  2
ISO-25
 70
     0
 41
2.5
 42
0.625
 43
3.75
 44
1.25
 73
     0
 74
     0
 77
     1
 78
     8
140
2.5
141
2.5
143
0.03937007874016
147
0.625
171
     3
172
     1
271
     2
272
     2
274
     3
278
    44
283
     0
284
     8
340
11
  0
ENDTAB
  0
TABLE
  2
BLOCK_RECORD
  5
1
330
0
100
AcDbSymbolTable
 70
     2
  0
BLOCK_RECORD
  5
1F
330
1
100
AcDbSymbolTableRecord
100
AcDbBlockTableRecord
  2
*Model_Space
340
22
  0
BLOCK_RECORD
  5
1B
330
1
100
AcDbSymbolTableRecord
100
AcDbBlockTableRecord
  2
*Paper_Space
340
1E
  0
BLOCK_RECORD
  5
23
330
1
100
AcDbSymbolTableRecord
100
AcDbBlockTableRecord
  2
*Paper_Space0
340
26
  0
ENDTAB
  0
ENDSEC
  0
SECTION
  2
BLOCKS
  0
BLOCK
  5
20
330
1F
100
AcDbEntity
  8
0
100
AcDbBlockBegin
  2
*Model_Space
 70
     0
 10
0.0
 20
0.0
 30
0.0
  3
*Model_Space
  1

  0
ENDBLK
  5
21
330
1F
100
AcDbEntity
  8
0
100
AcDbBlockEnd
  0
BLOCK
  5
1C
330
1B
100
AcDbEntity
 67
     1
  8
0
100
AcDbBlockBegin
  2
*Paper_Space
 70
     0
 10
0.0
 20
0.0
 30
0.0
  3
*Paper_Space
  1

  0
ENDBLK
  5
1D
330
1B
100
AcDbEntity
 67
     1
  8
0
100
AcDbBlockEnd
  0
BLOCK
  5
24
330
23
100
AcDbEntity
  8
0
100
AcDbBlockBegin
  2
*Paper_Space0
 70
     0
 10
0.0
 20
0.0
 30
0.0
  3
*Paper_Space0
  1

  0
ENDBLK
  5
25
330
23
100
AcDbEntity
  8
0
100
AcDbBlockEnd
  0
ENDSEC
  0
SECTION
  2
ENTITIES
  0
LINE
  5
591
330
1F
100
AcDbEntity
  8
1
  6
CONTINUOUS
370
50
 62
4
100
AcDbLine
 10
55.50991399999999
 20
-0.505199
 30
0.0
 11
55.50983
 21
-0.440913
 31
0.0
  0
LINE
  5
592
330
1F
100
AcDbEntity
  8
1
  6
CONTINUOUS
370
50
 62
4
100
AcDbLine
 10
55.510113
 20
-0.5679219999999999
 30
0.0
 11
55.50991399999999
 21
-0.505199
 31
0.0
  0
LINE
  5
593
330
1F
100
AcDbEntity
  8
1
  6
CONTINUOUS
370
50
 62
4
100
AcDbLine
 10
55.51042899999999
 20
-0.6283639999999999
 30
0.0
 11
55.510113
 21
-0.5679219999999999
 31
0.0
  0
LINE
  5
594
330
1F
100
AcDbEntity
  8
1
  6
CONTINUOUS
370
50
 62
4
100
AcDbLine
 10
55.51086799999999
 20
-0.685809
 30
0.0
 11
55.51042899999999
 21
-0.6283639999999999
 31
0.0
  0
LINE
  5
595
330
1F
100
AcDbEntity
  8
1
  6
CONTINUOUS
370
50
 62
4
100
AcDbLine
 10
55.511421
 20
-0.7395379999999999
 30
0.0
 11
55.51086799999999
 21
-0.685809
 31
0.0
  0
LINE
  5
596
330
1F
100
AcDbEntity
  8
1
  6
CONTINUOUS
370
50
 62
4
100
AcDbLine
 10
55.512096
 20
-0.788893
 30
0.0
 11
55.511421
 21
-0.7395379999999999
 31
0.0
  0
LINE
  5
597
330
1F
100
AcDbEntity
  8
1
  6
CONTINUOUS
370
50
 62
4
100
AcDbLine
 10
55.512878
 20
-0.8335319999999999
 30
0.0
 11
55.512096
 21
-0.788893
 31
0.0
  0
LINE
  5
598
330
1F
100
AcDbEntity
  8
1
  6
CONTINUOUS
370
50
 62
4
100
AcDbLine
 10
55.51376
 20
-0.873227
 30
0.0
 11
55.512878
 21
-0.8335319999999999
 31
0.0
  0
LINE
  5
599
330
1F
100
AcDbEntity
  8
1
  6
CONTINUOUS
370
50
 62
4
100
AcDbLine
 10
55.571934
 20
0.758676
 30
0.0
 11
55.571499
 21
0.777206
 31
0.0
  0
LINE
  5
59A
330
1F
100
AcDbEntity
  8
1
  6
CONTINUOUS
370
50
 62
4
100
AcDbLine
 10
55.514725
 20
-0.9077489999999999
 30
0.0
 11
55.51376
 21
-0.873227
 31
0.0
  0
LINE
  5
59B
330
1F
100
AcDbEntity
  8
1
  6
CONTINUOUS
370
50
 62
4
100
AcDbLine
 10
55.515759
 20
-0.9368679999999999
 30
0.0
 11
55.514725
 21
-0.9077489999999999
 31
0.0
  0
LINE
  5
59C
330
1F
100
AcDbEntity
  8
1
  6
CONTINUOUS
370
50
 62
4
100
AcDbLine
 10
55.516865
 20
-0.9605539999999999
 30
0.0
 11
55.515759
 21
-0.9368679999999999
 31
0.0
  0
LINE
  5
59D
330
1F
100
AcDbEntity
  8
1
  6
CONTINUOUS
370
50
 62
4
100
AcDbLine
 10
55.531361
 20
0.90767
 30
0.0
 11
55.530441
 21
0.925388
 31
0.0
  0
LINE
  5
59E
330
1F
100
AcDbEntity
  8
1
  6
CONTINUOUS
370
50
 62
4
100
AcDbLine
 10
55.530441
 20
0.925388
 30
0.0
 11
55.529507
 21
0.9415399999999999
 31
0.0
  0
LINE
  5
59F
330
1F
100
AcDbEntity
  8
1
  6
CONTINUOUS
370
50
 62
4
100
AcDbLine
 10
55.518066
 20
-0.9794309999999999
 30
0.0
 11
55.516865
 21
-0.9605539999999999
 31
0.0
  0
LINE
  5
5A0
330
1F
100
AcDbEntity
  8
1
  6
CONTINUOUS
370
50
 62
4
100
AcDbLine
 10
55.529507
 20
0.9415399999999999
 30
0.0
 11
55.528568
 21
0.956047
 31
0.0
  0
LINE
  5
5A1
330
1F
100
AcDbEntity
  8
1
  6
CONTINUOUS
370
50
 62
4
100
AcDbLine
 10
55.528568
 20
0.956047
 30
0.0
 11
55.527626
 21
0.96883
 31
0.0
  0
LINE
  5
5A2
330
1F
100
AcDbEntity
  8
1
  6
CONTINUOUS
370
50
 62
4
100
AcDbLine
 10
55.527626
 20
0.96883
 30
0.0
 11
55.526684
 21
0.97981
 31
0.0
  0
LINE
  5
5A3
330
1F
100
AcDbEntity
  8
1
  6
CONTINUOUS
370
50
 62
4
100
AcDbLine
 10
55.51935599999999
 20
-0.993317
 30
0.0
 11
55.518066
 21
-0.9794309999999999
 31
0.0
  0
LINE
  5
5A4
330
1F
100
AcDbEntity
  8
1
  6
CONTINUOUS
370
50
 62
4
100
AcDbLine
 10
55.526684
 20
0.97981
 30
0.0
 11
55.525745
 21
0.988907
 31
0.0
  0
LINE
  5
5A5
330
1F
100
AcDbEntity
  8
1
  6
CONTINUOUS
370
50
 62
4
100
AcDbLine
 10
55.525745
 20
0.988907
 30
0.0
 11
55.524815
 21
0.996042
 31
0.0
  0
LINE
  5
5A6
330
1F
100
AcDbEntity
  8
1
  6
CONTINUOUS
370
50
 62
4
100
AcDbLine
 10
55.520729
 20
-1.001918
 30
0.0
 11
55.51935599999999
 21
-0.993317
 31
0.0
  0
LINE
  5
5A7
330
1F
100
AcDbEntity
  8
1
  6
CONTINUOUS
370
50
 62
4
100
AcDbLine
 10
55.93447099999999
 20
-0.019333
 30
0.0
 11
55.933445
 21
-0.013241
 31
0.0
  0
LINE
  5
5A8
330
1F
100
AcDbEntity
  8
1
  6
CONTINUOUS
370
50
 62
4
100
AcDbLine
 10
55.524815
 20
0.996042
 30
0.0
 11
55.523895
 21
1.001136
 31
0.0
  0
LINE
  5
5A9
330
1F
100
AcDbEntity
  8
1
  6
CONTINUOUS
370
50
 62
4
100
AcDbLine
 10
55.933445
 20
-0.013241
 30
0.0
 11
55.93226199999999
 21
-0.006989
 31
0.0
  0
LINE
  5
5AA
330
1F
100
AcDbEntity
  8
1
  6
CONTINUOUS
370
50
 62
4
100
AcDbLine
 10
55.93226199999999
 20
-0.006989
 30
0.0
 11
55.930908
 21
-0.000551
 31
0.0
  0
LINE
  5
5AB
330
1F
100
AcDbEntity
  8
1
  6
CONTINUOUS
370
50
 62
4
100
AcDbLine
 10
55.930908
 20
-0.000551
 30
0.0
 11
55.929371
 21
0.006101
 31
0.0
  0
LINE
  5
5AC
330
1F
100
AcDbEntity
  8
1
  6
CONTINUOUS
370
50
 62
4
100
AcDbLine
 10
55.929371
 20
0.006101
 30
0.0
 11
55.927647
 21
0.012997
 31
0.0
  0
LINE
  5
5AD
330
1F
100
AcDbEntity
  8
1
  6
CONTINUOUS
370
50
 62
4
100
AcDbLine
 10
55.927647
 20
0.012997
 30
0.0
 11
55.92571299999999
 21
0.02017
 31
0.0
  0
LINE
  5
5AE
330
1F
100
AcDbEntity
  8
1
  6
CONTINUOUS
370
50
 62
4
100
AcDbLine
 10
55.92571299999999
 20
0.02017
 30
0.0
 11
55.923561
 21
0.02766
 31
0.0
  0
LINE
  5
5AF
330
1F
100
AcDbEntity
  8
1
  6
CONTINUOUS
370
50
 62
4
100
AcDbLine
 10
55.523895
 20
1.001136
 30
0.0
 11
55.522991
 21
1.00411
 31
0.0
  0
LINE
  5
5B0
330
1F
100
AcDbEntity
  8
1
  6
CONTINUOUS
370
50
 62
4
100
AcDbLine
 10
55.92617
 20
0.027691
 30
0.0
 11
55.91695799999999
 21
0.056021
 31
0.0
  0
LINE
  5
5B1
330
1F
100
AcDbEntity
  8
1
  6
CONTINUOUS
370
50
 62
4
100
AcDbLine
 10
55.91695799999999
 20
0.056021
 30
0.0
 11
55.903942
 21
0.090732
 31
0.0
  0
LINE
  5
5B2
330
1F
100
AcDbEntity
  8
1
  6
CONTINUOUS
370
50
 62
4
100
AcDbLine
 10
55.903942
 20
0.090732
 30
0.0
 11
55.885319
 21
0.135512
 31
0.0
  0
LINE
  5
5B3
330
1F
100
AcDbEntity
  8
1
  6
CONTINUOUS
370
50
 62
4
100
AcDbLine
 10
55.571499
 20
0.777206
 30
0.0
 11
55.565895
 21
0.7898799999999999
 31
0.0
  0
LINE
  5
5B4
330
1F
100
AcDbEntity
  8
1
  6
CONTINUOUS
370
50
 62
4
100
AcDbLine
 10
55.885319
 20
0.135512
 30
0.0
 11
55.85774199999999
 21
0.19707
 31
0.0
  0
LINE
  5
5B5
330
1F
100
AcDbEntity
  8
1
  6
CONTINUOUS
370
50
 62
4
100
AcDbLine
 10
55.565895
 20
0.7898799999999999
 30
0.0
 11
55.560207
 21
0.8025209999999999
 31
0.0
  0
LINE
  5
5B6
330
1F
100
AcDbEntity
  8
1
  6
CONTINUOUS
370
50
 62
4
100
AcDbLine
 10
55.560207
 20
0.8025209999999999
 30
0.0
 11
55.554489
 21
0.815147
 31
0.0
  0
LINE
  5
5B7
330
1F
100
AcDbEntity
  8
1
  6
CONTINUOUS
370
50
 62
4
100
AcDbLine
 10
55.554489
 20
0.815147
 30
0.0
 11
55.548744
 21
0.8277549999999999
 31
0.0
  0
LINE
  5
5B8
330
1F
100
AcDbEntity
  8
1
  6
CONTINUOUS
370
50
 62
4
100
AcDbLine
 10
55.548744
 20
0.8277549999999999
 30
0.0
 11
55.542973
 21
0.84034
 31
0.0
  0
LINE
  5
5B9
330
1F
100
AcDbEntity
  8
1
  6
CONTINUOUS
370
50
 62
4
100
AcDbLine
 10
55.542973
 20
0.84034
 30
0.0
 11
55.53718199999999
 21
0.8528979999999999
 31
0.0
  0
LINE
  5
5BA
330
1F
100
AcDbEntity
  8
1
  6
CONTINUOUS
370
50
 62
4
100
AcDbLine
 10
55.53718199999999
 20
0.8528979999999999
 30
0.0
 11
55.531361
 21
0.8654189999999999
 31
0.0
  0
LINE
  5
5BB
330
1F
100
AcDbEntity
  8
1
  6
CONTINUOUS
370
50
 62
4
100
AcDbLine
 10
55.522167
 20
-1.005
 30
0.0
 11
55.520729
 21
-1.001918
 31
0.0
  0
LINE
  5
5BC
330
1F
100
AcDbEntity
  8
1
  6
CONTINUOUS
370
50
 62
4
100
AcDbLine
 10
55.85774199999999
 20
0.19707
 30
0.0
 11
55.81423599999999
 21
0.289192
 31
0.0
  0
LINE
  5
5BD
330
1F
100
AcDbEntity
  8
1
  6
CONTINUOUS
370
50
 62
4
100
AcDbLine
 10
56.0
 20
0.0
 30
0.0
 11
55.522976
 21
1.00414
 31
0.0
  0
LINE
  5
5BE
330
1F
100
AcDbEntity
  8
1
  6
CONTINUOUS
370
50
 62
4
100
AcDbLine
 10
55.81423599999999
 20
0.289192
 30
0.0
 11
55.73764
 21
0.445632
 31
0.0
  0
LINE
  5
5BF
330
1F
100
AcDbEntity
  8
1
  6
CONTINUOUS
370
50
 62
4
100
AcDbLine
 10
55.73764
 20
0.445632
 30
0.0
 11
55.571499
 21
0.777206
 31
0.0
  0
LINE
  5
5C0
330
1F
100
AcDbEntity
  8
1
  6
CONTINUOUS
370
50
 62
4
100
AcDbLine
 10
31.996567
 20
-0.996956
 30
0.0
 11
31.993629
 21
-0.991255
 31
0.0
  0
LINE
  5
5C1
330
1F
100
AcDbEntity
  8
1
  6
CONTINUOUS
370
50
 62
4
100
AcDbLine
 10
56.0
 20
0.0
 30
0.0
 11
55.531361
 21
0.90767
 31
0.0
  0
LINE
  5
5C2
330
1F
100
AcDbEntity
  8
1
  6
CONTINUOUS
370
50
 62
4
100
AcDbLine
 10
55.522991
 20
1.00411
 30
0.0
 11
55.52285
 21
1.004376
 31
0.0
  0
LINE
  5
5C3
330
1F
100
AcDbEntity
  8
1
  6
CONTINUOUS
370
50
 62
4
100
AcDbLine
 10
55.52285
 20
1.004376
 30
0.0
 11
55.522713
 21
1.004591
 31
0.0
  0
LINE
  5
5C4
330
1F
100
AcDbEntity
  8
1
  6
CONTINUOUS
370
50
 62
4
100
AcDbLine
 10
55.691742
 20
-0.090942
 30
0.0
 11
55.652306
 21
-0.029531
 31
0.0
  0
LINE
  5
5C5
330
1F
100
AcDbEntity
  8
1
  6
CONTINUOUS
370
50
 62
4
100
AcDbLine
 10
55.652306
 20
-0.029531
 30
0.0
 11
55.60642199999999
 21
0.039264
 31
0.0
  0
LINE
  5
5C6
330
1F
100
AcDbEntity
  8
1
  6
CONTINUOUS
370
50
 62
4
100
AcDbLine
 10
55.60642199999999
 20
0.039264
 30
0.0
 11
55.55452
 21
0.115111
 31
0.0
  0
LINE
  5
5C7
330
1F
100
AcDbEntity
  8
1
  6
CONTINUOUS
370
50
 62
4
100
AcDbLine
 10
55.55452
 20
0.115111
 30
0.0
 11
55.497021
 21
0.197683
 31
0.0
  0
LINE
  5
5C8
330
1F
100
AcDbEntity
  8
1
  6
CONTINUOUS
370
50
 62
4
100
AcDbLine
 10
55.497021
 20
0.197683
 30
0.0
 11
55.433468
 21
0.287941
 31
0.0
  0
LINE
  5
5C9
330
1F
100
AcDbEntity
  8
1
  6
CONTINUOUS
370
50
 62
4
100
AcDbLine
 10
55.433468
 20
0.287941
 30
0.0
 11
55.362041
 21
0.388671
 31
0.0
  0
LINE
  5
5CA
330
1F
100
AcDbEntity
  8
1
  6
CONTINUOUS
370
50
 62
4
100
AcDbLine
 10
55.362041
 20
0.388671
 30
0.0
 11
55.28352
 21
0.497892
 31
0.0
  0
LINE
  5
5CB
330
1F
100
AcDbEntity
  8
1
  6
CONTINUOUS
370
50
 62
4
100
AcDbLine
 10
55.522713
 20
1.004591
 30
0.0
 11
55.522575
 21
1.004754
 31
0.0
  0
LINE
  5
5CC
330
1F
100
AcDbEntity
  8
1
  6
CONTINUOUS
370
50
 62
4
100
AcDbLine
 10
35.999565
 20
-0.549666
 30
0.0
 11
35.999424
 21
-0.54953
 31
0.0
  0
LINE
  5
5CD
330
1F
100
AcDbEntity
  8
1
  6
CONTINUOUS
370
50
 62
4
100
AcDbLine
 10
32.884106
 20
0.503118
 30
0.0
 11
32.851322
 21
0.534158
 31
0.0
  0
LINE
  5
5CE
330
1F
100
AcDbEntity
  8
1
  6
CONTINUOUS
370
50
 62
4
100
AcDbLine
 10
32.916801
 20
0.472204
 30
0.0
 11
32.884106
 21
0.503118
 31
0.0
  0
LINE
  5
5CF
330
1F
100
AcDbEntity
  8
1
  6
CONTINUOUS
370
50
 62
4
100
AcDbLine
 10
32.851322
 20
0.534158
 30
0.0
 11
32.818336
 21
0.565225
 31
0.0
  0
LINE
  5
5D0
330
1F
100
AcDbEntity
  8
1
  6
CONTINUOUS
370
50
 62
4
100
AcDbLine
 10
36.0
 20
-0.550074
 30
0.0
 11
35.999565
 21
-0.549666
 31
0.0
  0
LINE
  5
5D1
330
1F
100
AcDbEntity
  8
1
  6
CONTINUOUS
370
50
 62
4
100
AcDbLine
 10
35.999424
 20
-0.54953
 30
0.0
 11
35.999134
 21
-0.549258
 31
0.0
  0
LINE
  5
5D2
330
1F
100
AcDbEntity
  8
1
  6
CONTINUOUS
370
50
 62
4
100
AcDbLine
 10
32.94952
 20
0.441519
 30
0.0
 11
32.916801
 21
0.472204
 31
0.0
  0
LINE
  5
5D3
330
1F
100
AcDbEntity
  8
1
  6
CONTINUOUS
370
50
 62
4
100
AcDbLine
 10
32.818336
 20
0.565225
 30
0.0
 11
32.785027
 21
0.596216
 31
0.0
  0
LINE
  5
5D4
330
1F
100
AcDbEntity
  8
1
  6
CONTINUOUS
370
50
 62
4
100
AcDbLine
 10
32.785027
 20
0.596216
 30
0.0
 11
32.751286
 21
0.627031
 31
0.0
  0
LINE
  5
5D5
330
1F
100
AcDbEntity
  8
1
  6
CONTINUOUS
370
50
 62
4
100
AcDbLine
 10
32.751286
 20
0.627031
 30
0.0
 11
32.716991
 21
0.657569
 31
0.0
  0
LINE
  5
5D6
330
1F
100
AcDbEntity
  8
1
  6
CONTINUOUS
370
50
 62
4
100
AcDbLine
 10
32.716991
 20
0.657569
 30
0.0
 11
32.68203
 21
0.687727
 31
0.0
  0
LINE
  5
5D7
330
1F
100
AcDbEntity
  8
1
  6
CONTINUOUS
370
50
 62
4
100
AcDbLine
 10
55.522575
 20
1.004754
 30
0.0
 11
55.52243799999999
 21
1.004868
 31
0.0
  0
LINE
  5
5D8
330
1F
100
AcDbEntity
  8
1
  6
CONTINUOUS
370
50
 62
4
100
AcDbLine
 10
32.68203
 20
0.687727
 30
0.0
 11
32.646648
 21
0.717112
 31
0.0
  0
LINE
  5
5D9
330
1F
100
AcDbEntity
  8
1
  6
CONTINUOUS
370
50
 62
4
100
AcDbLine
 10
32.646648
 20
0.717112
 30
0.0
 11
32.611263
 21
0.745267
 31
0.0
  0
LINE
  5
5DA
330
1F
100
AcDbEntity
  8
1
  6
CONTINUOUS
370
50
 62
4
100
AcDbLine
 10
55.93447099999999
 20
-0.019333
 30
0.0
 11
55.28352
 21
0.497892
 31
0.0
  0
LINE
  5
5DB
330
1F
100
AcDbEntity
  8
1
  6
CONTINUOUS
370
50
 62
4
100
AcDbLine
 10
32.611263
 20
0.745267
 30
0.0
 11
32.575836
 21
0.772161
 31
0.0
  0
LINE
  5
5DC
330
1F
100
AcDbEntity
  8
1
  6
CONTINUOUS
370
50
 62
4
100
AcDbLine
 10
55.374527
 20
-0.060304
 30
0.0
 11
55.242653
 21
0.03646
 31
0.0
  0
LINE
  5
5DD
330
1F
100
AcDbEntity
  8
1
  6
CONTINUOUS
370
50
 62
4
100
AcDbLine
 10
46.667084
 20
-0.060648
 30
0.0
 11
46.534836
 21
0.036355
 31
0.0
  0
LINE
  5
5DE
330
1F
100
AcDbEntity
  8
1
  6
CONTINUOUS
370
50
 62
4
100
AcDbLine
 10
37.96011
 20
-0.061244
 30
0.0
 11
37.837757
 21
0.028418
 31
0.0
  0
LINE
  5
5DF
330
1F
100
AcDbEntity
  8
1
  6
CONTINUOUS
370
50
 62
4
100
AcDbLine
 10
48.31337
 20
-0.037515
 30
0.0
 11
48.179485
 21
0.060556
 31
0.0
  0
LINE
  5
5E0
330
1F
100
AcDbEntity
  8
1
  6
CONTINUOUS
370
50
 62
4
100
AcDbLine
 10
39.604633
 20
-0.036911
 30
0.0
 11
39.470871
 21
0.060983
 31
0.0
  0
LINE
  5
5E1
330
1F
100
AcDbEntity
  8
1
  6
CONTINUOUS
370
50
 62
4
100
AcDbLine
 10
55.242653
 20
0.03646
 30
0.0
 11
55.110161
 21
0.133258
 31
0.0
  0
LINE
  5
5E2
330
1F
100
AcDbEntity
  8
1
  6
CONTINUOUS
370
50
 62
4
100
AcDbLine
 10
55.397133
 20
-0.076816
 30
0.0
 11
55.374527
 21
-0.060304
 31
0.0
  0
LINE
  5
5E3
330
1F
100
AcDbEntity
  8
1
  6
CONTINUOUS
370
50
 62
4
100
AcDbLine
 10
39.738277
 20
-0.134415
 30
0.0
 11
39.604633
 21
-0.036911
 31
0.0
  0
LINE
  5
5E4
330
1F
100
AcDbEntity
  8
1
  6
CONTINUOUS
370
50
 62
4
100
AcDbLine
 10
38.0816
 20
-0.149849
 30
0.0
 11
37.96011
 21
-0.061244
 31
0.0
  0
LINE
  5
5E5
330
1F
100
AcDbEntity
  8
1
  6
CONTINUOUS
370
50
 62
4
100
AcDbLine
 10
55.419762
 20
-0.093304
 30
0.0
 11
55.397133
 21
-0.076816
 31
0.0
  0
LINE
  5
5E6
330
1F
100
AcDbEntity
  8
1
  6
CONTINUOUS
370
50
 62
4
100
AcDbLine
 10
46.534836
 20
0.036355
 30
0.0
 11
46.402241
 21
0.132807
 31
0.0
  0
LINE
  5
5E7
330
1F
100
AcDbEntity
  8
1
  6
CONTINUOUS
370
50
 62
4
100
AcDbLine
 10
46.79681799999999
 20
-0.154897
 30
0.0
 11
46.667084
 21
-0.060648
 31
0.0
  0
LINE
  5
5E8
330
1F
100
AcDbEntity
  8
1
  6
CONTINUOUS
370
50
 62
4
100
AcDbLine
 10
48.447498
 20
-0.134942
 30
0.0
 11
48.31337
 21
-0.037515
 31
0.0
  0
LINE
  5
5E9
330
1F
100
AcDbEntity
  8
1
  6
CONTINUOUS
370
50
 62
4
100
AcDbLine
 10
55.442425
 20
-0.109765
 30
0.0
 11
55.419762
 21
-0.093304
 31
0.0
  0
LINE
  5
5EA
330
1F
100
AcDbEntity
  8
1
  6
CONTINUOUS
370
50
 62
4
100
AcDbLine
 10
48.179485
 20
0.060556
 30
0.0
 11
48.050301
 21
0.154333
 31
0.0
  0
LINE
  5
5EB
330
1F
100
AcDbEntity
  8
1
  6
CONTINUOUS
370
50
 62
4
100
AcDbLine
 10
37.837757
 20
0.028418
 30
0.0
 11
37.71453899999999
 21
0.117674
 31
0.0
  0
LINE
  5
5EC
330
1F
100
AcDbEntity
  8
1
  6
CONTINUOUS
370
50
 62
4
100
AcDbLine
 10
35.118591
 20
0.056875
 30
0.0
 11
34.99527399999999
 21
0.146158
 31
0.0
  0
LINE
  5
5ED
330
1F
100
AcDbEntity
  8
1
  6
CONTINUOUS
370
50
 62
4
100
AcDbLine
 10
55.465126
 20
-0.126195
 30
0.0
 11
55.442425
 21
-0.109765
 31
0.0
  0
LINE
  5
5EE
330
1F
100
AcDbEntity
  8
1
  6
CONTINUOUS
370
50
 62
4
100
AcDbLine
 10
33.521816
 20
0.0
 30
0.0
 11
33.44017
 21
0.059069
 31
0.0
  0
LINE
  5
5EF
330
1F
100
AcDbEntity
  8
1
  6
CONTINUOUS
370
50
 62
4
100
AcDbLine
 10
52.803036
 20
-0.133757
 30
0.0
 11
52.669704
 21
-0.037311
 31
0.0
  0
LINE
  5
5F0
330
1F
100
AcDbEntity
  8
1
  6
CONTINUOUS
370
50
 62
4
100
AcDbLine
 10
35.131691
 20
0.047409
 30
0.0
 11
35.118591
 21
0.056875
 31
0.0
  0
LINE
  5
5F1
330
1F
100
AcDbEntity
  8
1
  6
CONTINUOUS
370
50
 62
4
100
AcDbLine
 10
33.548157
 20
-0.019013
 30
0.0
 11
33.534988
 21
-0.0095
 31
0.0
  0
LINE
  5
5F2
330
1F
100
AcDbEntity
  8
1
  6
CONTINUOUS
370
50
 62
4
100
AcDbLine
 10
39.470871
 20
0.060983
 30
0.0
 11
39.33575099999999
 21
0.158581
 31
0.0
  0
LINE
  5
5F3
330
1F
100
AcDbEntity
  8
1
  6
CONTINUOUS
370
50
 62
4
100
AcDbLine
 10
42.178467
 20
0.036275
 30
0.0
 11
42.044357
 21
0.133109
 31
0.0
  0
LINE
  5
5F4
330
1F
100
AcDbEntity
  8
1
  6
CONTINUOUS
370
50
 62
4
100
AcDbLine
 10
33.561333
 20
-0.028526
 30
0.0
 11
33.548157
 21
-0.019013
 31
0.0
  0
LINE
  5
5F5
330
1F
100
AcDbEntity
  8
1
  6
CONTINUOUS
370
50
 62
4
100
AcDbLine
 10
35.144814
 20
0.037937
 30
0.0
 11
35.131691
 21
0.047409
 31
0.0
  0
LINE
  5
5F6
330
1F
100
AcDbEntity
  8
1
  6
CONTINUOUS
370
50
 62
4
100
AcDbLine
 10
35.157955
 20
0.028458
 30
0.0
 11
35.144814
 21
0.037937
 31
0.0
  0
LINE
  5
5F7
330
1F
100
AcDbEntity
  8
1
  6
CONTINUOUS
370
50
 62
4
100
AcDbLine
 10
33.57452
 20
-0.038037
 30
0.0
 11
33.561333
 21
-0.028526
 31
0.0
  0
LINE
  5
5F8
330
1F
100
AcDbEntity
  8
1
  6
CONTINUOUS
370
50
 62
4
100
AcDbLine
 10
33.534988
 20
-0.0095
 30
0.0
 11
33.521816
 21
0.0
 31
0.0
  0
LINE
  5
5F9
330
1F
100
AcDbEntity
  8
1
  6
CONTINUOUS
370
50
 62
4
100
AcDbLine
 10
32.575836
 20
0.772161
 30
0.0
 11
32.540314
 21
0.7977639999999999
 31
0.0
  0
LINE
  5
5FA
330
1F
100
AcDbEntity
  8
1
  6
CONTINUOUS
370
50
 62
4
100
AcDbLine
 10
55.487873
 20
-0.14259
 30
0.0
 11
55.465126
 21
-0.126195
 31
0.0
  0
LINE
  5
5FB
330
1F
100
AcDbEntity
  8
1
  6
CONTINUOUS
370
50
 62
4
100
AcDbLine
 10
42.044357
 20
0.133109
 30
0.0
 11
41.911953
 21
0.22852
 31
0.0
  0
LINE
  5
5FC
330
1F
100
AcDbEntity
  8
1
  6
CONTINUOUS
370
50
 62
4
100
AcDbLine
 10
33.587719
 20
-0.047546
 30
0.0
 11
33.57452
 21
-0.038037
 31
0.0
  0
LINE
  5
5FD
330
1F
100
AcDbEntity
  8
1
  6
CONTINUOUS
370
50
 62
4
100
AcDbLine
 10
33.44017
 20
0.059069
 30
0.0
 11
33.358387
 21
0.117972
 31
0.0
  0
LINE
  5
5FE
330
1F
100
AcDbEntity
  8
1
  6
CONTINUOUS
370
50
 62
4
100
AcDbLine
 10
35.171124
 20
0.018975
 30
0.0
 11
35.157955
 21
0.028458
 31
0.0
  0
LINE
  5
5FF
330
1F
100
AcDbEntity
  8
1
  6
CONTINUOUS
370
50
 62
4
100
AcDbLine
 10
51.152031
 20
-0.153165
 30
0.0
 11
51.021748
 21
-0.059386
 31
0.0
  0
LINE
  5
600
330
1F
100
AcDbEntity
  8
1
  6
CONTINUOUS
370
50
 62
4
100
AcDbLine
 10
33.600929
 20
-0.057052
 30
0.0
 11
33.587719
 21
-0.047546
 31
0.0
  0
LINE
  5
601
330
1F
100
AcDbEntity
  8
1
  6
CONTINUOUS
370
50
 62
4
100
AcDbLine
 10
43.82378
 20
0.060277
 30
0.0
 11
43.693108
 21
0.154301
 31
0.0
  0
LINE
  5
602
330
1F
100
AcDbEntity
  8
1
  6
CONTINUOUS
370
50
 62
4
100
AcDbLine
 10
35.184315
 20
0.009487
 30
0.0
 11
35.171124
 21
0.018975
 31
0.0
  0
LINE
  5
603
330
1F
100
AcDbEntity
  8
1
  6
CONTINUOUS
370
50
 62
4
100
AcDbLine
 10
52.93615699999999
 20
-0.229504
 30
0.0
 11
52.803036
 21
-0.133757
 31
0.0
  0
LINE
  5
604
330
1F
100
AcDbEntity
  8
1
  6
CONTINUOUS
370
50
 62
4
100
AcDbLine
 10
34.99527399999999
 20
0.146158
 30
0.0
 11
34.872658
 21
0.234298
 31
0.0
  0
LINE
  5
605
330
1F
100
AcDbEntity
  8
1
  6
CONTINUOUS
370
50
 62
4
100
AcDbLine
 10
44.091988
 20
-0.131914
 30
0.0
 11
43.958126
 21
-0.035821
 31
0.0
  0
LINE
  5
606
330
1F
100
AcDbEntity
  8
1
  6
CONTINUOUS
370
50
 62
4
100
AcDbLine
 10
52.669704
 20
-0.037311
 30
0.0
 11
52.535061
 21
0.05932
 31
0.0
  0
LINE
  5
607
330
1F
100
AcDbEntity
  8
1
  6
CONTINUOUS
370
50
 62
4
100
AcDbLine
 10
35.197536
 20
0.0
 30
0.0
 11
35.184315
 21
0.009487
 31
0.0
  0
LINE
  5
608
330
1F
100
AcDbEntity
  8
1
  6
CONTINUOUS
370
50
 62
4
100
AcDbLine
 10
50.88718799999999
 20
0.036552
 30
0.0
 11
50.753635
 21
0.132384
 31
0.0
  0
LINE
  5
609
330
1F
100
AcDbEntity
  8
1
  6
CONTINUOUS
370
50
 62
4
100
AcDbLine
 10
55.51067399999999
 20
-0.15895
 30
0.0
 11
55.487873
 21
-0.14259
 31
0.0
  0
LINE
  5
60A
330
1F
100
AcDbEntity
  8
1
  6
CONTINUOUS
370
50
 62
4
100
AcDbLine
 10
44.224506
 20
-0.226977
 30
0.0
 11
44.091988
 21
-0.131914
 31
0.0
  0
LINE
  5
60B
330
1F
100
AcDbEntity
  8
1
  6
CONTINUOUS
370
50
 62
4
100
AcDbLine
 10
50.753635
 20
0.132384
 30
0.0
 11
50.620949
 21
0.227529
 31
0.0
  0
LINE
  5
60C
330
1F
100
AcDbEntity
  8
1
  6
CONTINUOUS
370
50
 62
4
100
AcDbLine
 10
51.28107499999999
 20
-0.245693
 30
0.0
 11
51.152031
 21
-0.153165
 31
0.0
  0
LINE
  5
60D
330
1F
100
AcDbEntity
  8
1
  6
CONTINUOUS
370
50
 62
4
100
AcDbLine
 10
42.313602
 20
-0.060544
 30
0.0
 11
42.178467
 21
0.036275
 31
0.0
  0
LINE
  5
60E
330
1F
100
AcDbEntity
  8
1
  6
CONTINUOUS
370
50
 62
4
100
AcDbLine
 10
43.693108
 20
0.154301
 30
0.0
 11
43.563835
 21
0.246899
 31
0.0
  0
LINE
  5
60F
330
1F
100
AcDbEntity
  8
1
  6
CONTINUOUS
370
50
 62
4
100
AcDbLine
 10
43.958126
 20
-0.035821
 30
0.0
 11
43.82378
 21
0.060277
 31
0.0
  0
LINE
  5
610
330
1F
100
AcDbEntity
  8
1
  6
CONTINUOUS
370
50
 62
4
100
AcDbLine
 10
38.203251
 20
-0.236861
 30
0.0
 11
38.0816
 21
-0.149849
 31
0.0
  0
LINE
  5
611
330
1F
100
AcDbEntity
  8
1
  6
CONTINUOUS
370
50
 62
4
100
AcDbLine
 10
35.430256
 20
-0.166213
 30
0.0
 11
35.314754
 21
-0.08361
 31
0.0
  0
LINE
  5
612
330
1F
100
AcDbEntity
  8
1
  6
CONTINUOUS
370
50
 62
4
100
AcDbLine
 10
55.110161
 20
0.133258
 30
0.0
 11
54.976997
 21
0.228385
 31
0.0
  0
LINE
  5
613
330
1F
100
AcDbEntity
  8
1
  6
CONTINUOUS
370
50
 62
4
100
AcDbLine
 10
42.445034
 20
-0.154378
 30
0.0
 11
42.313602
 21
-0.060544
 31
0.0
  0
LINE
  5
614
330
1F
100
AcDbEntity
  8
1
  6
CONTINUOUS
370
50
 62
4
100
AcDbLine
 10
33.74073
 20
-0.156792
 30
0.0
 11
33.600929
 21
-0.057052
 31
0.0
  0
LINE
  5
615
330
1F
100
AcDbEntity
  8
1
  6
CONTINUOUS
370
50
 62
4
100
AcDbLine
 10
35.314754
 20
-0.08361
 30
0.0
 11
35.197536
 21
0.0
 31
0.0
  0
LINE
  5
616
330
1F
100
AcDbEntity
  8
1
  6
CONTINUOUS
370
50
 62
4
100
AcDbLine
 10
42.575275
 20
-0.247258
 30
0.0
 11
42.445034
 21
-0.154378
 31
0.0
  0
LINE
  5
617
330
1F
100
AcDbEntity
  8
1
  6
CONTINUOUS
370
50
 62
4
100
AcDbLine
 10
39.872742
 20
-0.230306
 30
0.0
 11
39.738277
 21
-0.134415
 31
0.0
  0
LINE
  5
618
330
1F
100
AcDbEntity
  8
1
  6
CONTINUOUS
370
50
 62
4
100
AcDbLine
 10
51.021748
 20
-0.059386
 30
0.0
 11
50.88718799999999
 21
0.036552
 31
0.0
  0
LINE
  5
619
330
1F
100
AcDbEntity
  8
1
  6
CONTINUOUS
370
50
 62
4
100
AcDbLine
 10
33.358387
 20
0.117972
 30
0.0
 11
33.276196
 21
0.176555
 31
0.0
  0
LINE
  5
61A
330
1F
100
AcDbEntity
  8
1
  6
CONTINUOUS
370
50
 62
4
100
AcDbLine
 10
52.535061
 20
0.05932
 30
0.0
 11
52.403938
 21
0.152746
 31
0.0
  0
LINE
  5
61B
330
1F
100
AcDbEntity
  8
1
  6
CONTINUOUS
370
50
 62
4
100
AcDbLine
 10
35.544113
 20
-0.24732
 30
0.0
 11
35.430256
 21
-0.166213
 31
0.0
  0
LINE
  5
61C
330
1F
100
AcDbEntity
  8
1
  6
CONTINUOUS
370
50
 62
4
100
AcDbLine
 10
52.403938
 20
0.152746
 30
0.0
 11
52.27375
 21
0.245437
 31
0.0
  0
LINE
  5
61D
330
1F
100
AcDbEntity
  8
1
  6
CONTINUOUS
370
50
 62
4
100
AcDbLine
 10
33.87991
 20
-0.255726
 30
0.0
 11
33.74073
 21
-0.156792
 31
0.0
  0
LINE
  5
61E
330
1F
100
AcDbEntity
  8
1
  6
CONTINUOUS
370
50
 62
4
100
AcDbLine
 10
48.050301
 20
0.154333
 30
0.0
 11
47.920597
 21
0.24631
 31
0.0
  0
LINE
  5
61F
330
1F
100
AcDbEntity
  8
1
  6
CONTINUOUS
370
50
 62
4
100
AcDbLine
 10
33.276196
 20
0.176555
 30
0.0
 11
33.194157
 21
0.234649
 31
0.0
  0
LINE
  5
620
330
1F
100
AcDbEntity
  8
1
  6
CONTINUOUS
370
50
 62
4
100
AcDbLine
 10
46.402241
 20
0.132807
 30
0.0
 11
46.268024
 21
0.227847
 31
0.0
  0
LINE
  5
621
330
1F
100
AcDbEntity
  8
1
  6
CONTINUOUS
370
50
 62
4
100
AcDbLine
 10
37.71453899999999
 20
0.117674
 30
0.0
 11
37.590267
 21
0.205658
 31
0.0
  0
LINE
  5
622
330
1F
100
AcDbEntity
  8
1
  6
CONTINUOUS
370
50
 62
4
100
AcDbLine
 10
48.582714
 20
-0.230447
 30
0.0
 11
48.447498
 21
-0.134942
 31
0.0
  0
LINE
  5
623
330
1F
100
AcDbEntity
  8
1
  6
CONTINUOUS
370
50
 62
4
100
AcDbLine
 10
46.928158
 20
-0.247664
 30
0.0
 11
46.79681799999999
 21
-0.154897
 31
0.0
  0
LINE
  5
624
330
1F
100
AcDbEntity
  8
1
  6
CONTINUOUS
370
50
 62
4
100
AcDbLine
 10
50.620949
 20
0.227529
 30
0.0
 11
50.48827
 21
0.321097
 31
0.0
  0
LINE
  5
625
330
1F
100
AcDbEntity
  8
1
  6
CONTINUOUS
370
50
 62
4
100
AcDbLine
 10
41.911953
 20
0.22852
 30
0.0
 11
41.78013199999999
 21
0.321483
 31
0.0
  0
LINE
  5
626
330
1F
100
AcDbEntity
  8
1
  6
CONTINUOUS
370
50
 62
4
100
AcDbLine
 10
44.356705
 20
-0.320143
 30
0.0
 11
44.224506
 21
-0.226977
 31
0.0
  0
LINE
  5
627
330
1F
100
AcDbEntity
  8
1
  6
CONTINUOUS
370
50
 62
4
100
AcDbLine
 10
53.069199
 20
-0.323123
 30
0.0
 11
52.93615699999999
 21
-0.229504
 31
0.0
  0
LINE
  5
628
330
1F
100
AcDbEntity
  8
1
  6
CONTINUOUS
370
50
 62
4
100
AcDbLine
 10
33.194157
 20
0.234649
 30
0.0
 11
33.112507
 21
0.292066
 31
0.0
  0
LINE
  5
629
330
1F
100
AcDbEntity
  8
1
  6
CONTINUOUS
370
50
 62
4
100
AcDbLine
 10
34.872658
 20
0.234298
 30
0.0
 11
34.749641
 21
0.320776
 31
0.0
  0
LINE
  5
62A
330
1F
100
AcDbEntity
  8
1
  6
CONTINUOUS
370
50
 62
4
100
AcDbLine
 10
39.33575099999999
 20
0.158581
 30
0.0
 11
39.199741
 21
0.254185
 31
0.0
  0
LINE
  5
62B
330
1F
100
AcDbEntity
  8
1
  6
CONTINUOUS
370
50
 62
4
100
AcDbLine
 10
51.410213
 20
-0.336316
 30
0.0
 11
51.28107499999999
 21
-0.245693
 31
0.0
  0
LINE
  5
62C
330
1F
100
AcDbEntity
  8
1
  6
CONTINUOUS
370
50
 62
4
100
AcDbLine
 10
42.70488
 20
-0.338177
 30
0.0
 11
42.575275
 21
-0.247258
 31
0.0
  0
LINE
  5
62D
330
1F
100
AcDbEntity
  8
1
  6
CONTINUOUS
370
50
 62
4
100
AcDbLine
 10
35.657127
 20
-0.326554
 30
0.0
 11
35.544113
 21
-0.24732
 31
0.0
  0
LINE
  5
62E
330
1F
100
AcDbEntity
  8
1
  6
CONTINUOUS
370
50
 62
4
100
AcDbLine
 10
43.563835
 20
0.246899
 30
0.0
 11
43.434734
 21
0.337408
 31
0.0
  0
LINE
  5
62F
330
1F
100
AcDbEntity
  8
1
  6
CONTINUOUS
370
50
 62
4
100
AcDbLine
 10
52.27375
 20
0.245437
 30
0.0
 11
52.144718
 21
0.335836
 31
0.0
  0
LINE
  5
630
330
1F
100
AcDbEntity
  8
1
  6
CONTINUOUS
370
50
 62
4
100
AcDbLine
 10
34.018826
 20
-0.352775
 30
0.0
 11
33.87991
 21
-0.255726
 31
0.0
  0
LINE
  5
631
330
1F
100
AcDbEntity
  8
1
  6
CONTINUOUS
370
50
 62
4
100
AcDbLine
 10
33.112507
 20
0.292066
 30
0.0
 11
33.031033
 21
0.348659
 31
0.0
  0
LINE
  5
632
330
1F
100
AcDbEntity
  8
1
  6
CONTINUOUS
370
50
 62
4
100
AcDbLine
 10
37.590267
 20
0.205658
 30
0.0
 11
37.4659
 21
0.292012
 31
0.0
  0
LINE
  5
633
330
1F
100
AcDbEntity
  8
1
  6
CONTINUOUS
370
50
 62
4
100
AcDbLine
 10
38.325485
 20
-0.321503
 30
0.0
 11
38.203251
 21
-0.236861
 31
0.0
  0
LINE
  5
634
330
1F
100
AcDbEntity
  8
1
  6
CONTINUOUS
370
50
 62
4
100
AcDbLine
 10
48.7174
 20
-0.323214
 30
0.0
 11
48.582714
 21
-0.230447
 31
0.0
  0
LINE
  5
635
330
1F
100
AcDbEntity
  8
1
  6
CONTINUOUS
370
50
 62
4
100
AcDbLine
 10
40.007877
 20
-0.323342
 30
0.0
 11
39.872742
 21
-0.230306
 31
0.0
  0
LINE
  5
636
330
1F
100
AcDbEntity
  8
1
  6
CONTINUOUS
370
50
 62
4
100
AcDbLine
 10
54.976997
 20
0.228385
 30
0.0
 11
54.84254499999999
 21
0.320907
 31
0.0
  0
LINE
  5
637
330
1F
100
AcDbEntity
  8
1
  6
CONTINUOUS
370
50
 62
4
100
AcDbLine
 10
46.268024
 20
0.227847
 30
0.0
 11
46.133549
 21
0.320196
 31
0.0
  0
LINE
  5
638
330
1F
100
AcDbEntity
  8
1
  6
CONTINUOUS
370
50
 62
4
100
AcDbLine
 10
47.920597
 20
0.24631
 30
0.0
 11
47.789463
 21
0.336199
 31
0.0
  0
LINE
  5
639
330
1F
100
AcDbEntity
  8
1
  6
CONTINUOUS
370
50
 62
4
100
AcDbLine
 10
47.060112
 20
-0.338006
 30
0.0
 11
46.928158
 21
-0.247664
 31
0.0
  0
LINE
  5
63A
330
1F
100
AcDbEntity
  8
1
  6
CONTINUOUS
370
50
 62
4
100
AcDbLine
 10
39.199741
 20
0.254185
 30
0.0
 11
39.068092
 21
0.344244
 31
0.0
  0
LINE
  5
63B
330
1F
100
AcDbEntity
  8
1
  6
CONTINUOUS
370
50
 62
4
100
AcDbLine
 10
37.4659
 20
0.292012
 30
0.0
 11
37.342453
 21
0.3764
 31
0.0
  0
LINE
  5
63C
330
1F
100
AcDbEntity
  8
1
  6
CONTINUOUS
370
50
 62
4
100
AcDbLine
 10
33.031033
 20
0.348659
 30
0.0
 11
32.94952
 21
0.40428
 31
0.0
  0
LINE
  5
63D
330
1F
100
AcDbEntity
  8
1
  6
CONTINUOUS
370
50
 62
4
100
AcDbLine
 10
35.7701
 20
-0.403538
 30
0.0
 11
35.657127
 21
-0.326554
 31
0.0
  0
LINE
  5
63E
330
1F
100
AcDbEntity
  8
1
  6
CONTINUOUS
370
50
 62
4
100
AcDbLine
 10
32.540314
 20
0.7977639999999999
 30
0.0
 11
32.504707
 21
0.822023
 31
0.0
  0
LINE
  5
63F
330
1F
100
AcDbEntity
  8
1
  6
CONTINUOUS
370
50
 62
4
100
AcDbLine
 10
50.48827
 20
0.321097
 30
0.0
 11
50.355579
 21
0.411456
 31
0.0
  0
LINE
  5
640
330
1F
100
AcDbEntity
  8
1
  6
CONTINUOUS
370
50
 62
4
100
AcDbLine
 10
44.48978
 20
-0.410568
 30
0.0
 11
44.356705
 21
-0.320143
 31
0.0
  0
LINE
  5
641
330
1F
100
AcDbEntity
  8
1
  6
CONTINUOUS
370
50
 62
4
100
AcDbLine
 10
41.78013199999999
 20
0.321483
 30
0.0
 11
41.647465
 21
0.411343
 31
0.0
  0
LINE
  5
642
330
1F
100
AcDbEntity
  8
1
  6
CONTINUOUS
370
50
 62
4
100
AcDbLine
 10
52.144718
 20
0.335836
 30
0.0
 11
52.015656
 21
0.423243
 31
0.0
  0
LINE
  5
643
330
1F
100
AcDbEntity
  8
1
  6
CONTINUOUS
370
50
 62
4
100
AcDbLine
 10
42.834663
 20
-0.426042
 30
0.0
 11
42.70488
 21
-0.338177
 31
0.0
  0
LINE
  5
644
330
1F
100
AcDbEntity
  8
1
  6
CONTINUOUS
370
50
 62
4
100
AcDbLine
 10
34.749641
 20
0.320776
 30
0.0
 11
34.625107
 21
0.405071
 31
0.0
  0
LINE
  5
645
330
1F
100
AcDbEntity
  8
1
  6
CONTINUOUS
370
50
 62
4
100
AcDbLine
 10
53.202953
 20
-0.413381
 30
0.0
 11
53.069199
 21
-0.323123
 31
0.0
  0
LINE
  5
646
330
1F
100
AcDbEntity
  8
1
  6
CONTINUOUS
370
50
 62
4
100
AcDbLine
 10
43.434734
 20
0.337408
 30
0.0
 11
43.304531
 21
0.425225
 31
0.0
  0
LINE
  5
647
330
1F
100
AcDbEntity
  8
1
  6
CONTINUOUS
370
50
 62
4
100
AcDbLine
 10
46.133549
 20
0.320196
 30
0.0
 11
46.000443
 21
0.40995
 31
0.0
  0
LINE
  5
648
330
1F
100
AcDbEntity
  8
1
  6
CONTINUOUS
370
50
 62
4
100
AcDbLine
 10
51.540737
 20
-0.4243
 30
0.0
 11
51.410213
 21
-0.336316
 31
0.0
  0
LINE
  5
649
330
1F
100
AcDbEntity
  8
1
  6
CONTINUOUS
370
50
 62
4
100
AcDbLine
 10
48.85062
 20
-0.413011
 30
0.0
 11
48.7174
 21
-0.323214
 31
0.0
  0
LINE
  5
64A
330
1F
100
AcDbEntity
  8
1
  6
CONTINUOUS
370
50
 62
4
100
AcDbLine
 10
34.157326
 20
-0.445921
 30
0.0
 11
34.018826
 21
-0.352775
 31
0.0
  0
LINE
  5
64B
330
1F
100
AcDbEntity
  8
1
  6
CONTINUOUS
370
50
 62
4
100
AcDbLine
 10
39.068092
 20
0.344244
 30
0.0
 11
38.937805
 21
0.431678
 31
0.0
  0
LINE
  5
64C
330
1F
100
AcDbEntity
  8
1
  6
CONTINUOUS
370
50
 62
4
100
AcDbLine
 10
40.141819
 20
-0.413033
 30
0.0
 11
40.007877
 21
-0.323342
 31
0.0
  0
LINE
  5
64D
330
1F
100
AcDbEntity
  8
1
  6
CONTINUOUS
370
50
 62
4
100
AcDbLine
 10
37.342453
 20
0.3764
 30
0.0
 11
37.22049
 21
0.457682
 31
0.0
  0
LINE
  5
64E
330
1F
100
AcDbEntity
  8
1
  6
CONTINUOUS
370
50
 62
4
100
AcDbLine
 10
47.191536
 20
-0.425544
 30
0.0
 11
47.060112
 21
-0.338006
 31
0.0
  0
LINE
  5
64F
330
1F
100
AcDbEntity
  8
1
  6
CONTINUOUS
370
50
 62
4
100
AcDbLine
 10
54.84254499999999
 20
0.320907
 30
0.0
 11
54.707867
 21
0.4106
 31
0.0
  0
LINE
  5
650
330
1F
100
AcDbEntity
  8
1
  6
CONTINUOUS
370
50
 62
4
100
AcDbLine
 10
38.449326
 20
-0.403904
 30
0.0
 11
38.325485
 21
-0.321503
 31
0.0
  0
LINE
  5
651
330
1F
100
AcDbEntity
  8
1
  6
CONTINUOUS
370
50
 62
4
100
AcDbLine
 10
47.789463
 20
0.336199
 30
0.0
 11
47.657944
 21
0.423707
 31
0.0
  0
LINE
  5
652
330
1F
100
AcDbEntity
  8
1
  6
CONTINUOUS
370
50
 62
4
100
AcDbLine
 10
35.883835
 20
-0.477898
 30
0.0
 11
35.7701
 21
-0.403538
 31
0.0
  0
LINE
  5
653
330
1F
100
AcDbEntity
  8
1
  6
CONTINUOUS
370
50
 62
4
100
AcDbLine
 10
46.000443
 20
0.40995
 30
0.0
 11
45.867756
 21
0.496511
 31
0.0
  0
LINE
  5
654
330
1F
100
AcDbEntity
  8
1
  6
CONTINUOUS
370
50
 62
4
100
AcDbLine
 10
48.983425
 20
-0.499444
 30
0.0
 11
48.85062
 21
-0.413011
 31
0.0
  0
LINE
  5
655
330
1F
100
AcDbEntity
  8
1
  6
CONTINUOUS
370
50
 62
4
100
AcDbLine
 10
40.274632
 20
-0.499158
 30
0.0
 11
40.141819
 21
-0.413033
 31
0.0
  0
LINE
  5
656
330
1F
100
AcDbEntity
  8
1
  6
CONTINUOUS
370
50
 62
4
100
AcDbLine
 10
38.573219
 20
-0.484162
 30
0.0
 11
38.449326
 21
-0.403904
 31
0.0
  0
LINE
  5
657
330
1F
100
AcDbEntity
  8
1
  6
CONTINUOUS
370
50
 62
4
100
AcDbLine
 10
54.707867
 20
0.4106
 30
0.0
 11
54.574543
 21
0.496954
 31
0.0
  0
LINE
  5
658
330
1F
100
AcDbEntity
  8
1
  6
CONTINUOUS
370
50
 62
4
100
AcDbLine
 10
47.32170499999999
 20
-0.509664
 30
0.0
 11
47.191536
 21
-0.425544
 31
0.0
  0
LINE
  5
659
330
1F
100
AcDbEntity
  8
1
  6
CONTINUOUS
370
50
 62
4
100
AcDbLine
 10
47.657944
 20
0.423707
 30
0.0
 11
47.527439
 21
0.50803
 31
0.0
  0
LINE
  5
65A
330
1F
100
AcDbEntity
  8
1
  6
CONTINUOUS
370
50
 62
4
100
AcDbLine
 10
38.937805
 20
0.431678
 30
0.0
 11
38.807858
 21
0.515618
 31
0.0
  0
LINE
  5
65B
330
1F
100
AcDbEntity
  8
1
  6
CONTINUOUS
370
50
 62
4
100
AcDbLine
 10
50.355579
 20
0.411456
 30
0.0
 11
50.221687
 21
0.497664
 31
0.0
  0
LINE
  5
65C
330
1F
100
AcDbEntity
  8
1
  6
CONTINUOUS
370
50
 62
4
100
AcDbLine
 10
52.015656
 20
0.423243
 30
0.0
 11
51.885357
 21
0.507058
 31
0.0
  0
LINE
  5
65D
330
1F
100
AcDbEntity
  8
1
  6
CONTINUOUS
370
50
 62
4
100
AcDbLine
 10
44.62391299999999
 20
-0.496798
 30
0.0
 11
44.48978
 21
-0.410568
 31
0.0
  0
LINE
  5
65E
330
1F
100
AcDbEntity
  8
1
  6
CONTINUOUS
370
50
 62
4
100
AcDbLine
 10
42.964649
 20
-0.5095339999999999
 30
0.0
 11
42.834663
 21
-0.426042
 31
0.0
  0
LINE
  5
65F
330
1F
100
AcDbEntity
  8
1
  6
CONTINUOUS
370
50
 62
4
100
AcDbLine
 10
32.504707
 20
0.822023
 30
0.0
 11
32.469074
 21
0.8448979999999999
 31
0.0
  0
LINE
  5
660
330
1F
100
AcDbEntity
  8
1
  6
CONTINUOUS
370
50
 62
4
100
AcDbLine
 10
34.625107
 20
0.405071
 30
0.0
 11
34.4986
 21
0.486264
 31
0.0
  0
LINE
  5
661
330
1F
100
AcDbEntity
  8
1
  6
CONTINUOUS
370
50
 62
4
100
AcDbLine
 10
43.304531
 20
0.425225
 30
0.0
 11
43.172859
 21
0.509303
 31
0.0
  0
LINE
  5
662
330
1F
100
AcDbEntity
  8
1
  6
CONTINUOUS
370
50
 62
4
100
AcDbLine
 10
41.647465
 20
0.411343
 30
0.0
 11
41.513195
 21
0.497057
 31
0.0
  0
LINE
  5
663
330
1F
100
AcDbEntity
  8
1
  6
CONTINUOUS
370
50
 62
4
100
AcDbLine
 10
37.22049
 20
0.457682
 30
0.0
 11
37.099129
 21
0.535114
 31
0.0
  0
LINE
  5
664
330
1F
100
AcDbEntity
  8
1
  6
CONTINUOUS
370
50
 62
4
100
AcDbLine
 10
53.337418
 20
-0.499137
 30
0.0
 11
53.202953
 21
-0.413381
 31
0.0
  0
LINE
  5
665
330
1F
100
AcDbEntity
  8
1
  6
CONTINUOUS
370
50
 62
4
100
AcDbLine
 10
51.67268
 20
-0.508251
 30
0.0
 11
51.540737
 21
-0.4243
 31
0.0
  0
LINE
  5
666
330
1F
100
AcDbEntity
  8
1
  6
CONTINUOUS
370
50
 62
4
100
AcDbLine
 10
34.29649
 20
-0.534249
 30
0.0
 11
34.157326
 21
-0.445921
 31
0.0
  0
LINE
  5
667
330
1F
100
AcDbEntity
  8
1
  6
CONTINUOUS
370
50
 62
4
100
AcDbLine
 10
38.696507
 20
-0.561149
 30
0.0
 11
38.573219
 21
-0.484162
 31
0.0
  0
LINE
  5
668
330
1F
100
AcDbEntity
  8
1
  6
CONTINUOUS
370
50
 62
4
100
AcDbLine
 10
45.867756
 20
0.496511
 30
0.0
 11
45.73519899999999
 21
0.578637
 31
0.0
  0
LINE
  5
669
330
1F
100
AcDbEntity
  8
1
  6
CONTINUOUS
370
50
 62
4
100
AcDbLine
 10
35.999134
 20
-0.549258
 30
0.0
 11
35.883835
 21
-0.477898
 31
0.0
  0
LINE
  5
66A
330
1F
100
AcDbEntity
  8
1
  6
CONTINUOUS
370
50
 62
4
100
AcDbLine
 10
54.574543
 20
0.496954
 30
0.0
 11
54.44289
 21
0.578394
 31
0.0
  0
LINE
  5
66B
330
1F
100
AcDbEntity
  8
1
  6
CONTINUOUS
370
50
 62
4
100
AcDbLine
 10
40.407372
 20
-0.581118
 30
0.0
 11
40.274632
 21
-0.499158
 31
0.0
  0
LINE
  5
66C
330
1F
100
AcDbEntity
  8
1
  6
CONTINUOUS
370
50
 62
4
100
AcDbLine
 10
49.11619899999999
 20
-0.5814079999999999
 30
0.0
 11
48.983425
 21
-0.499444
 31
0.0
  0
LINE
  5
66D
330
1F
100
AcDbEntity
  8
1
  6
CONTINUOUS
370
50
 62
4
100
AcDbLine
 10
47.527439
 20
0.50803
 30
0.0
 11
47.39716
 21
0.588011
 31
0.0
  0
LINE
  5
66E
330
1F
100
AcDbEntity
  8
1
  6
CONTINUOUS
370
50
 62
4
100
AcDbLine
 10
47.451645
 20
-0.58943
 30
0.0
 11
47.32170499999999
 21
-0.509664
 31
0.0
  0
LINE
  5
66F
330
1F
100
AcDbEntity
  8
1
  6
CONTINUOUS
370
50
 62
4
100
AcDbLine
 10
38.807858
 20
0.515618
 30
0.0
 11
38.678242
 21
0.594691
 31
0.0
  0
LINE
  5
670
330
1F
100
AcDbEntity
  8
1
  6
CONTINUOUS
370
50
 62
4
100
AcDbLine
 10
34.4986
 20
0.486264
 30
0.0
 11
34.372101
 21
0.563364
 31
0.0
  0
LINE
  5
671
330
1F
100
AcDbEntity
  8
1
  6
CONTINUOUS
370
50
 62
4
100
AcDbLine
 10
44.758244
 20
-0.578251
 30
0.0
 11
44.62391299999999
 21
-0.496798
 31
0.0
  0
LINE
  5
672
330
1F
100
AcDbEntity
  8
1
  6
CONTINUOUS
370
50
 62
4
100
AcDbLine
 10
53.47073
 20
-0.579929
 30
0.0
 11
53.337418
 21
-0.499137
 31
0.0
  0
LINE
  5
673
330
1F
100
AcDbEntity
  8
1
  6
CONTINUOUS
370
50
 62
4
100
AcDbLine
 10
41.513195
 20
0.497057
 30
0.0
 11
41.379574
 21
0.5779949999999999
 31
0.0
  0
LINE
  5
674
330
1F
100
AcDbEntity
  8
1
  6
CONTINUOUS
370
50
 62
4
100
AcDbLine
 10
50.221687
 20
0.497664
 30
0.0
 11
50.087029
 21
0.579024
 31
0.0
  0
LINE
  5
675
330
1F
100
AcDbEntity
  8
1
  6
CONTINUOUS
370
50
 62
4
100
AcDbLine
 10
32.469074
 20
0.8448979999999999
 30
0.0
 11
32.433441
 21
0.866363
 31
0.0
  0
LINE
  5
676
330
1F
100
AcDbEntity
  8
1
  6
CONTINUOUS
370
50
 62
4
100
AcDbLine
 10
51.885357
 20
0.507058
 30
0.0
 11
51.753708
 21
0.58629
 31
0.0
  0
LINE
  5
677
330
1F
100
AcDbEntity
  8
1
  6
CONTINUOUS
370
50
 62
4
100
AcDbLine
 10
43.172859
 20
0.509303
 30
0.0
 11
43.040627
 21
0.588799
 31
0.0
  0
LINE
  5
678
330
1F
100
AcDbEntity
  8
1
  6
CONTINUOUS
370
50
 62
4
100
AcDbLine
 10
37.099129
 20
0.535114
 30
0.0
 11
36.977264
 21
0.6082489999999999
 31
0.0
  0
LINE
  5
679
330
1F
100
AcDbEntity
  8
1
  6
CONTINUOUS
370
50
 62
4
100
AcDbLine
 10
51.804924
 20
-0.5875779999999999
 30
0.0
 11
51.67268
 21
-0.508251
 31
0.0
  0
LINE
  5
67A
330
1F
100
AcDbEntity
  8
1
  6
CONTINUOUS
370
50
 62
4
100
AcDbLine
 10
43.095856
 20
-0.588193
 30
0.0
 11
42.964649
 21
-0.5095339999999999
 31
0.0
  0
LINE
  5
67B
330
1F
100
AcDbEntity
  8
1
  6
CONTINUOUS
370
50
 62
4
100
AcDbLine
 10
38.81937
 20
-0.6336339999999999
 30
0.0
 11
38.696507
 21
-0.561149
 31
0.0
  0
LINE
  5
67C
330
1F
100
AcDbEntity
  8
1
  6
CONTINUOUS
370
50
 62
4
100
AcDbLine
 10
34.437244
 20
-0.6171519999999999
 30
0.0
 11
34.29649
 21
-0.534249
 31
0.0
  0
LINE
  5
67D
330
1F
100
AcDbEntity
  8
1
  6
CONTINUOUS
370
50
 62
4
100
AcDbLine
 10
34.372101
 20
0.563364
 30
0.0
 11
34.247391
 21
0.635864
 31
0.0
  0
LINE
  5
67E
330
1F
100
AcDbEntity
  8
1
  6
CONTINUOUS
370
50
 62
4
100
AcDbLine
 10
36.125988
 20
-0.622968
 30
0.0
 11
36.0
 21
-0.54987
 31
0.0
  0
LINE
  5
67F
330
1F
100
AcDbEntity
  8
1
  6
CONTINUOUS
370
50
 62
4
100
AcDbLine
 10
54.44289
 20
0.578394
 30
0.0
 11
54.311512
 21
0.654324
 31
0.0
  0
LINE
  5
680
330
1F
100
AcDbEntity
  8
1
  6
CONTINUOUS
370
50
 62
4
100
AcDbLine
 10
40.54008899999999
 20
-0.657584
 30
0.0
 11
40.407372
 21
-0.581118
 31
0.0
  0
LINE
  5
681
330
1F
100
AcDbEntity
  8
1
  6
CONTINUOUS
370
50
 62
4
100
AcDbLine
 10
45.73519899999999
 20
0.578637
 30
0.0
 11
45.602211
 21
0.65516
 31
0.0
  0
LINE
  5
682
330
1F
100
AcDbEntity
  8
1
  6
CONTINUOUS
370
50
 62
4
100
AcDbLine
 10
41.379574
 20
0.5779949999999999
 30
0.0
 11
41.247116
 21
0.6540579999999999
 31
0.0
  0
LINE
  5
683
330
1F
100
AcDbEntity
  8
1
  6
CONTINUOUS
370
50
 62
4
100
AcDbLine
 10
53.60289
 20
-0.6556339999999999
 30
0.0
 11
53.47073
 21
-0.579929
 31
0.0
  0
LINE
  5
684
330
1F
100
AcDbEntity
  8
1
  6
CONTINUOUS
370
50
 62
4
100
AcDbLine
 10
49.249393
 20
-0.657697
 30
0.0
 11
49.11619899999999
 21
-0.5814079999999999
 31
0.0
  0
LINE
  5
685
330
1F
100
AcDbEntity
  8
1
  6
CONTINUOUS
370
50
 62
4
100
AcDbLine
 10
47.39716
 20
0.588011
 30
0.0
 11
47.267044
 21
0.662373
 31
0.0
  0
LINE
  5
686
330
1F
100
AcDbEntity
  8
1
  6
CONTINUOUS
370
50
 62
4
100
AcDbLine
 10
47.581661
 20
-0.663648
 30
0.0
 11
47.451645
 21
-0.58943
 31
0.0
  0
LINE
  5
687
330
1F
100
AcDbEntity
  8
1
  6
CONTINUOUS
370
50
 62
4
100
AcDbLine
 10
44.891895
 20
-0.654446
 30
0.0
 11
44.758244
 21
-0.578251
 31
0.0
  0
LINE
  5
688
330
1F
100
AcDbEntity
  8
1
  6
CONTINUOUS
370
50
 62
4
100
AcDbLine
 10
50.087029
 20
0.579024
 30
0.0
 11
49.952827
 21
0.655183
 31
0.0
  0
LINE
  5
689
330
1F
100
AcDbEntity
  8
1
  6
CONTINUOUS
370
50
 62
4
100
AcDbLine
 10
51.936325
 20
-0.6619309999999999
 30
0.0
 11
51.804924
 21
-0.5875779999999999
 31
0.0
  0
LINE
  5
68A
330
1F
100
AcDbEntity
  8
1
  6
CONTINUOUS
370
50
 62
4
100
AcDbLine
 10
38.678242
 20
0.594691
 30
0.0
 11
38.547783
 21
0.668418
 31
0.0
  0
LINE
  5
68B
330
1F
100
AcDbEntity
  8
1
  6
CONTINUOUS
370
50
 62
4
100
AcDbLine
 10
43.040627
 20
0.588799
 30
0.0
 11
42.90868
 21
0.663227
 31
0.0
  0
LINE
  5
68C
330
1F
100
AcDbEntity
  8
1
  6
CONTINUOUS
370
50
 62
4
100
AcDbLine
 10
32.433441
 20
0.866363
 30
0.0
 11
32.397827
 21
0.886413
 31
0.0
  0
LINE
  5
68D
330
1F
100
AcDbEntity
  8
1
  6
CONTINUOUS
370
50
 62
4
100
AcDbLine
 10
51.753708
 20
0.58629
 30
0.0
 11
51.621887
 21
0.660408
 31
0.0
  0
LINE
  5
68E
330
1F
100
AcDbEntity
  8
1
  6
CONTINUOUS
370
50
 62
4
100
AcDbLine
 10
43.227463
 20
-0.66201
 30
0.0
 11
43.095856
 21
-0.588193
 31
0.0
  0
LINE
  5
68F
330
1F
100
AcDbEntity
  8
1
  6
CONTINUOUS
370
50
 62
4
100
AcDbLine
 10
36.977264
 20
0.6082489999999999
 30
0.0
 11
36.853966
 21
0.676501
 31
0.0
  0
LINE
  5
690
330
1F
100
AcDbEntity
  8
1
  6
CONTINUOUS
370
50
 62
4
100
AcDbLine
 10
38.942486
 20
-0.700935
 30
0.0
 11
38.81937
 21
-0.6336339999999999
 31
0.0
  0
LINE
  5
691
330
1F
100
AcDbEntity
  8
1
  6
CONTINUOUS
370
50
 62
4
100
AcDbLine
 10
36.251019
 20
-0.691291
 30
0.0
 11
36.125988
 21
-0.622968
 31
0.0
  0
LINE
  5
692
330
1F
100
AcDbEntity
  8
1
  6
CONTINUOUS
370
50
 62
4
100
AcDbLine
 10
34.247391
 20
0.635864
 30
0.0
 11
34.124134
 21
0.703019
 31
0.0
  0
LINE
  5
693
330
1F
100
AcDbEntity
  8
1
  6
CONTINUOUS
370
50
 62
4
100
AcDbLine
 10
34.578766
 20
-0.693973
 30
0.0
 11
34.437244
 21
-0.6171519999999999
 31
0.0
  0
LINE
  5
694
330
1F
100
AcDbEntity
  8
1
  6
CONTINUOUS
370
50
 62
4
100
AcDbLine
 10
41.247116
 20
0.6540579999999999
 30
0.0
 11
41.114788
 21
0.724588
 31
0.0
  0
LINE
  5
695
330
1F
100
AcDbEntity
  8
1
  6
CONTINUOUS
370
50
 62
4
100
AcDbLine
 10
32.004837
 20
-1.001352
 30
0.0
 11
31.996567
 21
-0.996956
 31
0.0
  0
LINE
  5
696
330
1F
100
AcDbEntity
  8
1
  6
CONTINUOUS
370
50
 62
4
100
AcDbLine
 10
53.73493999999999
 20
-0.7257359999999999
 30
0.0
 11
53.60289
 21
-0.6556339999999999
 31
0.0
  0
LINE
  5
697
330
1F
100
AcDbEntity
  8
1
  6
CONTINUOUS
370
50
 62
4
100
AcDbLine
 10
45.023952
 20
-0.7245229999999999
 30
0.0
 11
44.891895
 21
-0.654446
 31
0.0
  0
LINE
  5
698
330
1F
100
AcDbEntity
  8
1
  6
CONTINUOUS
370
50
 62
4
100
AcDbLine
 10
49.952827
 20
0.655183
 30
0.0
 11
49.820213
 21
0.725456
 31
0.0
  0
LINE
  5
699
330
1F
100
AcDbEntity
  8
1
  6
CONTINUOUS
370
50
 62
4
100
AcDbLine
 10
54.311512
 20
0.654324
 30
0.0
 11
54.178928
 21
0.724252
 31
0.0
  0
LINE
  5
69A
330
1F
100
AcDbEntity
  8
1
  6
CONTINUOUS
370
50
 62
4
100
AcDbLine
 10
52.066608
 20
-0.730607
 30
0.0
 11
51.936325
 21
-0.6619309999999999
 31
0.0
  0
LINE
  5
69B
330
1F
100
AcDbEntity
  8
1
  6
CONTINUOUS
370
50
 62
4
100
AcDbLine
 10
42.90868
 20
0.663227
 30
0.0
 11
42.777802
 21
0.7319899999999999
 31
0.0
  0
LINE
  5
69C
330
1F
100
AcDbEntity
  8
1
  6
CONTINUOUS
370
50
 62
4
100
AcDbLine
 10
43.357475
 20
-0.730239
 30
0.0
 11
43.227463
 21
-0.66201
 31
0.0
  0
LINE
  5
69D
330
1F
100
AcDbEntity
  8
1
  6
CONTINUOUS
370
50
 62
4
100
AcDbLine
 10
51.621887
 20
0.660408
 30
0.0
 11
51.491062
 21
0.7290019999999999
 31
0.0
  0
LINE
  5
69E
330
1F
100
AcDbEntity
  8
1
  6
CONTINUOUS
370
50
 62
4
100
AcDbLine
 10
32.397827
 20
0.886413
 30
0.0
 11
32.362316
 21
0.905022
 31
0.0
  0
LINE
  5
69F
330
1F
100
AcDbEntity
  8
1
  6
CONTINUOUS
370
50
 62
4
100
AcDbLine
 10
40.673714
 20
-0.727607
 30
0.0
 11
40.54008899999999
 21
-0.657584
 31
0.0
  0
LINE
  5
6A0
330
1F
100
AcDbEntity
  8
1
  6
CONTINUOUS
370
50
 62
4
100
AcDbLine
 10
45.602211
 20
0.65516
 30
0.0
 11
45.46793
 21
0.725304
 31
0.0
  0
LINE
  5
6A1
330
1F
100
AcDbEntity
  8
1
  6
CONTINUOUS
370
50
 62
4
100
AcDbLine
 10
47.267044
 20
0.662373
 30
0.0
 11
47.13623
 21
0.7305849999999999
 31
0.0
  0
LINE
  5
6A2
330
1F
100
AcDbEntity
  8
1
  6
CONTINUOUS
370
50
 62
4
100
AcDbLine
 10
47.712181
 20
-0.731529
 30
0.0
 11
47.581661
 21
-0.663648
 31
0.0
  0
LINE
  5
6A3
330
1F
100
AcDbEntity
  8
1
  6
CONTINUOUS
370
50
 62
4
100
AcDbLine
 10
49.38356
 20
-0.727383
 30
0.0
 11
49.249393
 21
-0.657697
 31
0.0
  0
LINE
  5
6A4
330
1F
100
AcDbEntity
  8
1
  6
CONTINUOUS
370
50
 62
4
100
AcDbLine
 10
38.547783
 20
0.668418
 30
0.0
 11
38.416176
 21
0.73592
 31
0.0
  0
LINE
  5
6A5
330
1F
100
AcDbEntity
  8
1
  6
CONTINUOUS
370
50
 62
4
100
AcDbLine
 10
36.853966
 20
0.676501
 30
0.0
 11
36.730587
 21
0.7390249999999999
 31
0.0
  0
LINE
  5
6A6
330
1F
100
AcDbEntity
  8
1
  6
CONTINUOUS
370
50
 62
4
100
AcDbLine
 10
36.375496
 20
-0.7543679999999999
 30
0.0
 11
36.251019
 21
-0.691291
 31
0.0
  0
LINE
  5
6A7
330
1F
100
AcDbEntity
  8
1
  6
CONTINUOUS
370
50
 62
4
100
AcDbLine
 10
34.124134
 20
0.703019
 30
0.0
 11
34.001339
 21
0.7644679999999999
 31
0.0
  0
LINE
  5
6A8
330
1F
100
AcDbEntity
  8
1
  6
CONTINUOUS
370
50
 62
4
100
AcDbLine
 10
34.719921
 20
-0.7640279999999999
 30
0.0
 11
34.578766
 21
-0.693973
 31
0.0
  0
LINE
  5
6A9
330
1F
100
AcDbEntity
  8
1
  6
CONTINUOUS
370
50
 62
4
100
AcDbLine
 10
39.066807
 20
-0.7624409999999999
 30
0.0
 11
38.942486
 21
-0.700935
 31
0.0
  0
LINE
  5
6AA
330
1F
100
AcDbEntity
  8
1
  6
CONTINUOUS
370
50
 62
4
100
AcDbLine
 10
32.362316
 20
0.905022
 30
0.0
 11
32.327
 21
0.922165
 31
0.0
  0
LINE
  5
6AB
330
1F
100
AcDbEntity
  8
1
  6
CONTINUOUS
370
50
 62
4
100
AcDbLine
 10
41.114788
 20
0.724588
 30
0.0
 11
40.982624
 21
0.7883359999999999
 31
0.0
  0
LINE
  5
6AC
330
1F
100
AcDbEntity
  8
1
  6
CONTINUOUS
370
50
 62
4
100
AcDbLine
 10
45.15506
 20
-0.787754
 30
0.0
 11
45.023952
 21
-0.7245229999999999
 31
0.0
  0
LINE
  5
6AD
330
1F
100
AcDbEntity
  8
1
  6
CONTINUOUS
370
50
 62
4
100
AcDbLine
 10
49.820213
 20
0.725456
 30
0.0
 11
49.68882
 21
0.788762
 31
0.0
  0
LINE
  5
6AE
330
1F
100
AcDbEntity
  8
1
  6
CONTINUOUS
370
50
 62
4
100
AcDbLine
 10
53.86689399999999
 20
-0.7890929999999999
 30
0.0
 11
53.73493999999999
 21
-0.7257359999999999
 31
0.0
  0
LINE
  5
6AF
330
1F
100
AcDbEntity
  8
1
  6
CONTINUOUS
370
50
 62
4
100
AcDbLine
 10
43.486755
 20
-0.792095
 30
0.0
 11
43.357475
 21
-0.730239
 31
0.0
  0
LINE
  5
6B0
330
1F
100
AcDbEntity
  8
1
  6
CONTINUOUS
370
50
 62
4
100
AcDbLine
 10
51.491062
 20
0.7290019999999999
 30
0.0
 11
51.36097299999999
 21
0.791237
 31
0.0
  0
LINE
  5
6B1
330
1F
100
AcDbEntity
  8
1
  6
CONTINUOUS
370
50
 62
4
100
AcDbLine
 10
52.196934
 20
-0.792836
 30
0.0
 11
52.066608
 21
-0.730607
 31
0.0
  0
LINE
  5
6B2
330
1F
100
AcDbEntity
  8
1
  6
CONTINUOUS
370
50
 62
4
100
AcDbLine
 10
42.777802
 20
0.7319899999999999
 30
0.0
 11
42.647709
 21
0.7939769999999999
 31
0.0
  0
LINE
  5
6B3
330
1F
100
AcDbEntity
  8
1
  6
CONTINUOUS
370
50
 62
4
100
AcDbLine
 10
45.46793
 20
0.725304
 30
0.0
 11
45.333309
 21
0.788659
 31
0.0
  0
LINE
  5
6B4
330
1F
100
AcDbEntity
  8
1
  6
CONTINUOUS
370
50
 62
4
100
AcDbLine
 10
54.178928
 20
0.724252
 30
0.0
 11
54.044804
 21
0.7872899999999999
 31
0.0
  0
LINE
  5
6B5
330
1F
100
AcDbEntity
  8
1
  6
CONTINUOUS
370
50
 62
4
100
AcDbLine
 10
49.516949
 20
-0.790044
 30
0.0
 11
49.38356
 21
-0.727383
 31
0.0
  0
LINE
  5
6B6
330
1F
100
AcDbEntity
  8
1
  6
CONTINUOUS
370
50
 62
4
100
AcDbLine
 10
40.807556
 20
-0.790391
 30
0.0
 11
40.673714
 21
-0.727607
 31
0.0
  0
LINE
  5
6B7
330
1F
100
AcDbEntity
  8
1
  6
CONTINUOUS
370
50
 62
4
100
AcDbLine
 10
47.13623
 20
0.7305849999999999
 30
0.0
 11
47.003986
 21
0.792337
 31
0.0
  0
LINE
  5
6B8
330
1F
100
AcDbEntity
  8
1
  6
CONTINUOUS
370
50
 62
4
100
AcDbLine
 10
36.730587
 20
0.7390249999999999
 30
0.0
 11
36.608494
 21
0.7960079999999999
 31
0.0
  0
LINE
  5
6B9
330
1F
100
AcDbEntity
  8
1
  6
CONTINUOUS
370
50
 62
4
100
AcDbLine
 10
55.52243799999999
 20
1.004868
 30
0.0
 11
55.522305
 21
1.00493
 31
0.0
  0
LINE
  5
6BA
330
1F
100
AcDbEntity
  8
1
  6
CONTINUOUS
370
50
 62
4
100
AcDbLine
 10
47.84402499999999
 20
-0.7927759999999999
 30
0.0
 11
47.712181
 21
-0.731529
 31
0.0
  0
LINE
  5
6BB
330
1F
100
AcDbEntity
  8
1
  6
CONTINUOUS
370
50
 62
4
100
AcDbLine
 10
38.416176
 20
0.73592
 30
0.0
 11
38.284855
 21
0.796856
 31
0.0
  0
LINE
  5
6BC
330
1F
100
AcDbEntity
  8
1
  6
CONTINUOUS
370
50
 62
4
100
AcDbLine
 10
36.498684
 20
-0.811012
 30
0.0
 11
36.375496
 21
-0.7543679999999999
 31
0.0
  0
LINE
  5
6BD
330
1F
100
AcDbEntity
  8
1
  6
CONTINUOUS
370
50
 62
4
100
AcDbLine
 10
55.522385
 20
-0.164297
 30
0.0
 11
55.51067399999999
 21
-0.15895
 31
0.0
  0
LINE
  5
6BE
330
1F
100
AcDbEntity
  8
1
  6
CONTINUOUS
370
50
 62
4
100
AcDbLine
 10
34.001339
 20
0.7644679999999999
 30
0.0
 11
33.877991
 21
0.819851
 31
0.0
  0
LINE
  5
6BF
330
1F
100
AcDbEntity
  8
1
  6
CONTINUOUS
370
50
 62
4
100
AcDbLine
 10
32.327
 20
0.922165
 30
0.0
 11
32.291874
 21
0.937863
 31
0.0
  0
LINE
  5
6C0
330
1F
100
AcDbEntity
  8
1
  6
CONTINUOUS
370
50
 62
4
100
AcDbLine
 10
34.859699
 20
-0.826433
 30
0.0
 11
34.719921
 21
-0.7640279999999999
 31
0.0
  0
LINE
  5
6C1
330
1F
100
AcDbEntity
  8
1
  6
CONTINUOUS
370
50
 62
4
100
AcDbLine
 10
39.191631
 20
-0.817619
 30
0.0
 11
39.066807
 21
-0.7624409999999999
 31
0.0
  0
LINE
  5
6C2
330
1F
100
AcDbEntity
  8
1
  6
CONTINUOUS
370
50
 62
4
100
AcDbLine
 10
35.999565
 20
-0.9816119999999999
 30
0.0
 11
35.999424
 21
-0.981551
 31
0.0
  0
LINE
  5
6C3
330
1F
100
AcDbEntity
  8
1
  6
CONTINUOUS
370
50
 62
4
100
AcDbLine
 10
45.286568
 20
-0.843757
 30
0.0
 11
45.15506
 21
-0.787754
 31
0.0
  0
LINE
  5
6C4
330
1F
100
AcDbEntity
  8
1
  6
CONTINUOUS
370
50
 62
4
100
AcDbLine
 10
49.68882
 20
0.788762
 30
0.0
 11
49.557243
 21
0.844699
 31
0.0
  0
LINE
  5
6C5
330
1F
100
AcDbEntity
  8
1
  6
CONTINUOUS
370
50
 62
4
100
AcDbLine
 10
43.616653
 20
-0.847094
 30
0.0
 11
43.486755
 21
-0.792095
 31
0.0
  0
LINE
  5
6C6
330
1F
100
AcDbEntity
  8
1
  6
CONTINUOUS
370
50
 62
4
100
AcDbLine
 10
51.36097299999999
 20
0.791237
 30
0.0
 11
51.23068199999999
 21
0.846391
 31
0.0
  0
LINE
  5
6C7
330
1F
100
AcDbEntity
  8
1
  6
CONTINUOUS
370
50
 62
4
100
AcDbLine
 10
40.982624
 20
0.7883359999999999
 30
0.0
 11
40.849567
 21
0.844626
 31
0.0
  0
LINE
  5
6C8
330
1F
100
AcDbEntity
  8
1
  6
CONTINUOUS
370
50
 62
4
100
AcDbLine
 10
53.999695
 20
-0.845003
 30
0.0
 11
53.86689399999999
 21
-0.7890929999999999
 31
0.0
  0
LINE
  5
6C9
330
1F
100
AcDbEntity
  8
1
  6
CONTINUOUS
370
50
 62
4
100
AcDbLine
 10
49.648975
 20
-0.8456049999999999
 30
0.0
 11
49.516949
 21
-0.790044
 31
0.0
  0
LINE
  5
6CA
330
1F
100
AcDbEntity
  8
1
  6
CONTINUOUS
370
50
 62
4
100
AcDbLine
 10
45.333309
 20
0.788659
 30
0.0
 11
45.199562
 21
0.8449359999999999
 31
0.0
  0
LINE
  5
6CB
330
1F
100
AcDbEntity
  8
1
  6
CONTINUOUS
370
50
 62
4
100
AcDbLine
 10
36.608494
 20
0.7960079999999999
 30
0.0
 11
36.486897
 21
0.84715
 31
0.0
  0
LINE
  5
6CC
330
1F
100
AcDbEntity
  8
1
  6
CONTINUOUS
370
50
 62
4
100
AcDbLine
 10
52.327301
 20
-0.847609
 30
0.0
 11
52.196934
 21
-0.792836
 31
0.0
  0
LINE
  5
6CD
330
1F
100
AcDbEntity
  8
1
  6
CONTINUOUS
370
50
 62
4
100
AcDbLine
 10
42.647709
 20
0.7939769999999999
 30
0.0
 11
42.517239
 21
0.848731
 31
0.0
  0
LINE
  5
6CE
330
1F
100
AcDbEntity
  8
1
  6
CONTINUOUS
370
50
 62
4
100
AcDbLine
 10
54.044804
 20
0.7872899999999999
 30
0.0
 11
53.91155999999999
 21
0.84317
 31
0.0
  0
LINE
  5
6CF
330
1F
100
AcDbEntity
  8
1
  6
CONTINUOUS
370
50
 62
4
100
AcDbLine
 10
40.939911
 20
-0.845752
 30
0.0
 11
40.807556
 21
-0.790391
 31
0.0
  0
LINE
  5
6D0
330
1F
100
AcDbEntity
  8
1
  6
CONTINUOUS
370
50
 62
4
100
AcDbLine
 10
38.284855
 20
0.796856
 30
0.0
 11
38.154514
 21
0.851119
 31
0.0
  0
LINE
  5
6D1
330
1F
100
AcDbEntity
  8
1
  6
CONTINUOUS
370
50
 62
4
100
AcDbLine
 10
47.975464
 20
-0.8474119999999999
 30
0.0
 11
47.84402499999999
 21
-0.7927759999999999
 31
0.0
  0
LINE
  5
6D2
330
1F
100
AcDbEntity
  8
1
  6
CONTINUOUS
370
50
 62
4
100
AcDbLine
 10
47.003986
 20
0.792337
 30
0.0
 11
46.871624
 21
0.847314
 31
0.0
  0
LINE
  5
6D3
330
1F
100
AcDbEntity
  8
1
  6
CONTINUOUS
370
50
 62
4
100
AcDbLine
 10
36.0
 20
-0.981792
 30
0.0
 11
35.999565
 21
-0.9816119999999999
 31
0.0
  0
LINE
  5
6D4
330
1F
100
AcDbEntity
  8
1
  6
CONTINUOUS
370
50
 62
4
100
AcDbLine
 10
35.999424
 20
-0.981551
 30
0.0
 11
35.999134
 21
-0.9814309999999999
 31
0.0
  0
LINE
  5
6D5
330
1F
100
AcDbEntity
  8
1
  6
CONTINUOUS
370
50
 62
4
100
AcDbLine
 10
32.291874
 20
0.937863
 30
0.0
 11
32.257133
 21
0.952067
 31
0.0
  0
LINE
  5
6D6
330
1F
100
AcDbEntity
  8
1
  6
CONTINUOUS
370
50
 62
4
100
AcDbLine
 10
36.621521
 20
-0.8608969999999999
 30
0.0
 11
36.498684
 21
-0.811012
 31
0.0
  0
LINE
  5
6D7
330
1F
100
AcDbEntity
  8
1
  6
CONTINUOUS
370
50
 62
4
100
AcDbLine
 10
39.315571
 20
-0.866281
 30
0.0
 11
39.191631
 21
-0.817619
 31
0.0
  0
LINE
  5
6D8
330
1F
100
AcDbEntity
  8
1
  6
CONTINUOUS
370
50
 62
4
100
AcDbLine
 10
33.877991
 20
0.819851
 30
0.0
 11
33.753098
 21
0.8688039999999999
 31
0.0
  0
LINE
  5
6D9
330
1F
100
AcDbEntity
  8
1
  6
CONTINUOUS
370
50
 62
4
100
AcDbLine
 10
34.99854699999999
 20
-0.879921
 30
0.0
 11
34.859699
 21
-0.826433
 31
0.0
  0
LINE
  5
6DA
330
1F
100
AcDbEntity
  8
1
  6
CONTINUOUS
370
50
 62
4
100
AcDbLine
 10
56.0
 20
0.0
 30
0.0
 11
55.92617
 21
0.027691
 31
0.0
  0
LINE
  5
6DB
330
1F
100
AcDbEntity
  8
1
  6
CONTINUOUS
370
50
 62
4
100
AcDbLine
 10
32.257133
 20
0.952067
 30
0.0
 11
32.222996
 21
0.964714
 31
0.0
  0
LINE
  5
6DC
330
1F
100
AcDbEntity
  8
1
  6
CONTINUOUS
370
50
 62
4
100
AcDbLine
 10
36.486897
 20
0.84715
 30
0.0
 11
36.36536
 21
0.891876
 31
0.0
  0
LINE
  5
6DD
330
1F
100
AcDbEntity
  8
1
  6
CONTINUOUS
370
50
 62
4
100
AcDbLine
 10
45.199562
 20
0.8449359999999999
 30
0.0
 11
45.067528
 21
0.8933679999999999
 31
0.0
  0
LINE
  5
6DE
330
1F
100
AcDbEntity
  8
1
  6
CONTINUOUS
370
50
 62
4
100
AcDbLine
 10
53.91155999999999
 20
0.84317
 30
0.0
 11
53.77931599999999
 21
0.8916339999999999
 31
0.0
  0
LINE
  5
6DF
330
1F
100
AcDbEntity
  8
1
  6
CONTINUOUS
370
50
 62
4
100
AcDbLine
 10
49.780712
 20
-0.893739
 30
0.0
 11
49.648975
 21
-0.8456049999999999
 31
0.0
  0
LINE
  5
6E0
330
1F
100
AcDbEntity
  8
1
  6
CONTINUOUS
370
50
 62
4
100
AcDbLine
 10
41.071465
 20
-0.893702
 30
0.0
 11
40.939911
 21
-0.845752
 31
0.0
  0
LINE
  5
6E1
330
1F
100
AcDbEntity
  8
1
  6
CONTINUOUS
370
50
 62
4
100
AcDbLine
 10
48.10534999999999
 20
-0.894608
 30
0.0
 11
47.975464
 21
-0.8474119999999999
 31
0.0
  0
LINE
  5
6E2
330
1F
100
AcDbEntity
  8
1
  6
CONTINUOUS
370
50
 62
4
100
AcDbLine
 10
45.419666
 20
-0.892088
 30
0.0
 11
45.286568
 21
-0.843757
 31
0.0
  0
LINE
  5
6E3
330
1F
100
AcDbEntity
  8
1
  6
CONTINUOUS
370
50
 62
4
100
AcDbLine
 10
46.871624
 20
0.847314
 30
0.0
 11
46.740646
 21
0.8948649999999999
 31
0.0
  0
LINE
  5
6E4
330
1F
100
AcDbEntity
  8
1
  6
CONTINUOUS
370
50
 62
4
100
AcDbLine
 10
51.23068199999999
 20
0.846391
 30
0.0
 11
51.100224
 21
0.8936759999999999
 31
0.0
  0
LINE
  5
6E5
330
1F
100
AcDbEntity
  8
1
  6
CONTINUOUS
370
50
 62
4
100
AcDbLine
 10
56.0
 20
0.0
 30
0.0
 11
55.923561
 21
0.02766
 31
0.0
  0
LINE
  5
6E6
330
1F
100
AcDbEntity
  8
1
  6
CONTINUOUS
370
50
 62
4
100
AcDbLine
 10
49.557243
 20
0.844699
 30
0.0
 11
49.424156
 21
0.892852
 31
0.0
  0
LINE
  5
6E7
330
1F
100
AcDbEntity
  8
1
  6
CONTINUOUS
370
50
 62
4
100
AcDbLine
 10
43.748203
 20
-0.894597
 30
0.0
 11
43.616653
 21
-0.847094
 31
0.0
  0
LINE
  5
6E8
330
1F
100
AcDbEntity
  8
1
  6
CONTINUOUS
370
50
 62
4
100
AcDbLine
 10
38.154514
 20
0.851119
 30
0.0
 11
38.024902
 21
0.897879
 31
0.0
  0
LINE
  5
6E9
330
1F
100
AcDbEntity
  8
1
  6
CONTINUOUS
370
50
 62
4
100
AcDbLine
 10
40.849567
 20
0.844626
 30
0.0
 11
40.715416
 21
0.892944
 31
0.0
  0
LINE
  5
6EA
330
1F
100
AcDbEntity
  8
1
  6
CONTINUOUS
370
50
 62
4
100
AcDbLine
 10
54.133396
 20
-0.8929699999999999
 30
0.0
 11
53.999695
 21
-0.845003
 31
0.0
  0
LINE
  5
6EB
330
1F
100
AcDbEntity
  8
1
  6
CONTINUOUS
370
50
 62
4
100
AcDbLine
 10
52.458496
 20
-0.894569
 30
0.0
 11
52.327301
 21
-0.847609
 31
0.0
  0
LINE
  5
6EC
330
1F
100
AcDbEntity
  8
1
  6
CONTINUOUS
370
50
 62
4
100
AcDbLine
 10
42.517239
 20
0.848731
 30
0.0
 11
42.385448
 21
0.895818
 31
0.0
  0
LINE
  5
6ED
330
1F
100
AcDbEntity
  8
1
  6
CONTINUOUS
370
50
 62
4
100
AcDbLine
 10
36.745125
 20
-0.903794
 30
0.0
 11
36.621521
 21
-0.8608969999999999
 31
0.0
  0
LINE
  5
6EE
330
1F
100
AcDbEntity
  8
1
  6
CONTINUOUS
370
50
 62
4
100
AcDbLine
 10
55.531361
 20
0.8654189999999999
 30
0.0
 11
55.42618599999999
 21
0.9018809999999999
 31
0.0
  0
LINE
  5
6EF
330
1F
100
AcDbEntity
  8
1
  6
CONTINUOUS
370
50
 62
4
100
AcDbLine
 10
55.534233
 20
-0.168393
 30
0.0
 11
55.522385
 21
-0.164297
 31
0.0
  0
LINE
  5
6F0
330
1F
100
AcDbEntity
  8
1
  6
CONTINUOUS
370
50
 62
4
100
AcDbLine
 10
39.437931
 20
-0.908138
 30
0.0
 11
39.315571
 21
-0.866281
 31
0.0
  0
LINE
  5
6F1
330
1F
100
AcDbEntity
  8
1
  6
CONTINUOUS
370
50
 62
4
100
AcDbLine
 10
33.753098
 20
0.8688039999999999
 30
0.0
 11
33.627842
 21
0.910404
 31
0.0
  0
LINE
  5
6F2
330
1F
100
AcDbEntity
  8
1
  6
CONTINUOUS
370
50
 62
4
100
AcDbLine
 10
32.222996
 20
0.964714
 30
0.0
 11
32.19001
 21
0.9756499999999999
 31
0.0
  0
LINE
  5
6F3
330
1F
100
AcDbEntity
  8
1
  6
CONTINUOUS
370
50
 62
4
100
AcDbLine
 10
35.137886
 20
-0.924207
 30
0.0
 11
34.99854699999999
 21
-0.879921
 31
0.0
  0
LINE
  5
6F4
330
1F
100
AcDbEntity
  8
1
  6
CONTINUOUS
370
50
 62
4
100
AcDbLine
 10
36.36536
 20
0.891876
 30
0.0
 11
36.243832
 21
0.9295169999999999
 31
0.0
  0
LINE
  5
6F5
330
1F
100
AcDbEntity
  8
1
  6
CONTINUOUS
370
50
 62
4
100
AcDbLine
 10
53.77931599999999
 20
0.8916339999999999
 30
0.0
 11
53.647118
 21
0.932152
 31
0.0
  0
LINE
  5
6F6
330
1F
100
AcDbEntity
  8
1
  6
CONTINUOUS
370
50
 62
4
100
AcDbLine
 10
45.067528
 20
0.8933679999999999
 30
0.0
 11
44.936253
 21
0.933414
 31
0.0
  0
LINE
  5
6F7
330
1F
100
AcDbEntity
  8
1
  6
CONTINUOUS
370
50
 62
4
100
AcDbLine
 10
41.202923
 20
-0.933719
 30
0.0
 11
41.071465
 21
-0.893702
 31
0.0
  0
LINE
  5
6F8
330
1F
100
AcDbEntity
  8
1
  6
CONTINUOUS
370
50
 62
4
100
AcDbLine
 10
49.912354
 20
-0.933711
 30
0.0
 11
49.780712
 21
-0.893739
 31
0.0
  0
LINE
  5
6F9
330
1F
100
AcDbEntity
  8
1
  6
CONTINUOUS
370
50
 62
4
100
AcDbLine
 10
48.234928
 20
-0.933927
 30
0.0
 11
48.10534999999999
 21
-0.894608
 31
0.0
  0
LINE
  5
6FA
330
1F
100
AcDbEntity
  8
1
  6
CONTINUOUS
370
50
 62
4
100
AcDbLine
 10
46.740646
 20
0.8948649999999999
 30
0.0
 11
46.61047
 21
0.9342779999999999
 31
0.0
  0
LINE
  5
6FB
330
1F
100
AcDbEntity
  8
1
  6
CONTINUOUS
370
50
 62
4
100
AcDbLine
 10
45.553692
 20
-0.932201
 30
0.0
 11
45.419666
 21
-0.892088
 31
0.0
  0
LINE
  5
6FC
330
1F
100
AcDbEntity
  8
1
  6
CONTINUOUS
370
50
 62
4
100
AcDbLine
 10
40.715416
 20
0.892944
 30
0.0
 11
40.581322
 21
0.933075
 31
0.0
  0
LINE
  5
6FD
330
1F
100
AcDbEntity
  8
1
  6
CONTINUOUS
370
50
 62
4
100
AcDbLine
 10
54.266697
 20
-0.932811
 30
0.0
 11
54.133396
 21
-0.8929699999999999
 31
0.0
  0
LINE
  5
6FE
330
1F
100
AcDbEntity
  8
1
  6
CONTINUOUS
370
50
 62
4
100
AcDbLine
 10
38.024902
 20
0.897879
 30
0.0
 11
37.895123
 21
0.936662
 31
0.0
  0
LINE
  5
6FF
330
1F
100
AcDbEntity
  8
1
  6
CONTINUOUS
370
50
 62
4
100
AcDbLine
 10
51.100224
 20
0.8936759999999999
 30
0.0
 11
50.968616
 21
0.9329459999999999
 31
0.0
  0
LINE
  5
700
330
1F
100
AcDbEntity
  8
1
  6
CONTINUOUS
370
50
 62
4
100
AcDbLine
 10
55.42618599999999
 20
0.9018809999999999
 30
0.0
 11
55.321819
 21
0.9329949999999999
 31
0.0
  0
LINE
  5
701
330
1F
100
AcDbEntity
  8
1
  6
CONTINUOUS
370
50
 62
4
100
AcDbLine
 10
49.424156
 20
0.892852
 30
0.0
 11
49.290489
 21
0.932599
 31
0.0
  0
LINE
  5
702
330
1F
100
AcDbEntity
  8
1
  6
CONTINUOUS
370
50
 62
4
100
AcDbLine
 10
43.880741
 20
-0.933936
 30
0.0
 11
43.748203
 21
-0.894597
 31
0.0
  0
LINE
  5
703
330
1F
100
AcDbEntity
  8
1
  6
CONTINUOUS
370
50
 62
4
100
AcDbLine
 10
52.590885
 20
-0.933611
 30
0.0
 11
52.458496
 21
-0.894569
 31
0.0
  0
LINE
  5
704
330
1F
100
AcDbEntity
  8
1
  6
CONTINUOUS
370
50
 62
4
100
AcDbLine
 10
42.385448
 20
0.895818
 30
0.0
 11
42.25322
 21
0.9348019999999999
 31
0.0
  0
LINE
  5
705
330
1F
100
AcDbEntity
  8
1
  6
CONTINUOUS
370
50
 62
4
100
AcDbLine
 10
32.19001
 20
0.9756499999999999
 30
0.0
 11
32.158913
 21
0.984736
 31
0.0
  0
LINE
  5
706
330
1F
100
AcDbEntity
  8
1
  6
CONTINUOUS
370
50
 62
4
100
AcDbLine
 10
32.949852
 20
0.420129
 30
0.0
 11
32.94952
 21
0.420224
 31
0.0
  0
LINE
  5
707
330
1F
100
AcDbEntity
  8
1
  6
CONTINUOUS
370
50
 62
4
100
AcDbLine
 10
39.55962
 20
-0.942889
 30
0.0
 11
39.437931
 21
-0.908138
 31
0.0
  0
LINE
  5
708
330
1F
100
AcDbEntity
  8
1
  6
CONTINUOUS
370
50
 62
4
100
AcDbLine
 10
36.87096
 20
-0.939637
 30
0.0
 11
36.745125
 21
-0.903794
 31
0.0
  0
LINE
  5
709
330
1F
100
AcDbEntity
  8
1
  6
CONTINUOUS
370
50
 62
4
100
AcDbLine
 10
32.950184
 20
0.420035
 30
0.0
 11
32.949852
 21
0.420129
 31
0.0
  0
LINE
  5
70A
330
1F
100
AcDbEntity
  8
1
  6
CONTINUOUS
370
50
 62
4
100
AcDbLine
 10
32.950851
 20
0.419848
 30
0.0
 11
32.95052
 21
0.419941
 31
0.0
  0
LINE
  5
70B
330
1F
100
AcDbEntity
  8
1
  6
CONTINUOUS
370
50
 62
4
100
AcDbLine
 10
32.95052
 20
0.419941
 30
0.0
 11
32.950184
 21
0.420035
 31
0.0
  0
LINE
  5
70C
330
1F
100
AcDbEntity
  8
1
  6
CONTINUOUS
370
50
 62
4
100
AcDbLine
 10
33.627842
 20
0.910404
 30
0.0
 11
33.504173
 21
0.944418
 31
0.0
  0
LINE
  5
70D
330
1F
100
AcDbEntity
  8
1
  6
CONTINUOUS
370
50
 62
4
100
AcDbLine
 10
30.5
 20
1.005
 30
0.0
 11
28.700001
 21
1.5
 31
0.0
  0
LINE
  5
70E
330
1F
100
AcDbEntity
  8
1
  6
CONTINUOUS
370
50
 62
4
100
AcDbLine
 10
32.951187
 20
0.419756
 30
0.0
 11
32.950851
 21
0.419848
 31
0.0
  0
LINE
  5
70F
330
1F
100
AcDbEntity
  8
1
  6
CONTINUOUS
370
50
 62
4
100
AcDbLine
 10
32.951523
 20
0.419665
 30
0.0
 11
32.951187
 21
0.419756
 31
0.0
  0
LINE
  5
710
330
1F
100
AcDbEntity
  8
1
  6
CONTINUOUS
370
50
 62
4
100
AcDbLine
 10
32.158913
 20
0.984736
 30
0.0
 11
32.129887
 21
0.992046
 31
0.0
  0
LINE
  5
711
330
1F
100
AcDbEntity
  8
1
  6
CONTINUOUS
370
50
 62
4
100
AcDbLine
 10
36.243832
 20
0.9295169999999999
 30
0.0
 11
36.121677
 21
0.95976
 31
0.0
  0
LINE
  5
712
330
1F
100
AcDbEntity
  8
1
  6
CONTINUOUS
370
50
 62
4
100
AcDbLine
 10
35.278004
 20
-0.958876
 30
0.0
 11
35.137886
 21
-0.924207
 31
0.0
  0
LINE
  5
713
330
1F
100
AcDbEntity
  8
1
  6
CONTINUOUS
370
50
 62
4
100
AcDbLine
 10
55.321819
 20
0.9329949999999999
 30
0.0
 11
55.217648
 21
0.958669
 31
0.0
  0
LINE
  5
714
330
1F
100
AcDbEntity
  8
1
  6
CONTINUOUS
370
50
 62
4
100
AcDbLine
 10
53.647118
 20
0.932152
 30
0.0
 11
53.515007
 21
0.9639669999999999
 31
0.0
  0
LINE
  5
715
330
1F
100
AcDbEntity
  8
1
  6
CONTINUOUS
370
50
 62
4
100
AcDbLine
 10
41.334332
 20
-0.9651259999999999
 30
0.0
 11
41.202923
 21
-0.933719
 31
0.0
  0
LINE
  5
716
330
1F
100
AcDbEntity
  8
1
  6
CONTINUOUS
370
50
 62
4
100
AcDbLine
 10
40.581322
 20
0.933075
 30
0.0
 11
40.44849
 21
0.9647749999999999
 31
0.0
  0
LINE
  5
717
330
1F
100
AcDbEntity
  8
1
  6
CONTINUOUS
370
50
 62
4
100
AcDbLine
 10
44.936253
 20
0.933414
 30
0.0
 11
44.804329
 21
0.9648599999999999
 31
0.0
  0
LINE
  5
718
330
1F
100
AcDbEntity
  8
1
  6
CONTINUOUS
370
50
 62
4
100
AcDbLine
 10
54.398457
 20
-0.964217
 30
0.0
 11
54.266697
 21
-0.932811
 31
0.0
  0
LINE
  5
719
330
1F
100
AcDbEntity
  8
1
  6
CONTINUOUS
370
50
 62
4
100
AcDbLine
 10
45.686935
 20
-0.9639559999999999
 30
0.0
 11
45.553692
 21
-0.932201
 31
0.0
  0
LINE
  5
71A
330
1F
100
AcDbEntity
  8
1
  6
CONTINUOUS
370
50
 62
4
100
AcDbLine
 10
48.365543
 20
-0.9650099999999999
 30
0.0
 11
48.234928
 21
-0.933927
 31
0.0
  0
LINE
  5
71B
330
1F
100
AcDbEntity
  8
1
  6
CONTINUOUS
370
50
 62
4
100
AcDbLine
 10
49.290489
 20
0.932599
 30
0.0
 11
49.158195
 21
0.9640369999999999
 31
0.0
  0
LINE
  5
71C
330
1F
100
AcDbEntity
  8
1
  6
CONTINUOUS
370
50
 62
4
100
AcDbLine
 10
46.61047
 20
0.9342779999999999
 30
0.0
 11
46.479813
 21
0.9653039999999999
 31
0.0
  0
LINE
  5
71D
330
1F
100
AcDbEntity
  8
1
  6
CONTINUOUS
370
50
 62
4
100
AcDbLine
 10
50.044518
 20
-0.9650099999999999
 30
0.0
 11
49.912354
 21
-0.933711
 31
0.0
  0
LINE
  5
71E
330
1F
100
AcDbEntity
  8
1
  6
CONTINUOUS
370
50
 62
4
100
AcDbLine
 10
52.722187
 20
-0.964603
 30
0.0
 11
52.590885
 21
-0.933611
 31
0.0
  0
LINE
  5
71F
330
1F
100
AcDbEntity
  8
1
  6
CONTINUOUS
370
50
 62
4
100
AcDbLine
 10
50.968616
 20
0.9329459999999999
 30
0.0
 11
50.835869
 21
0.9641559999999999
 31
0.0
  0
LINE
  5
720
330
1F
100
AcDbEntity
  8
1
  6
CONTINUOUS
370
50
 62
4
100
AcDbLine
 10
42.25322
 20
0.9348019999999999
 30
0.0
 11
42.122192
 21
0.9655859999999999
 31
0.0
  0
LINE
  5
721
330
1F
100
AcDbEntity
  8
1
  6
CONTINUOUS
370
50
 62
4
100
AcDbLine
 10
55.546219
 20
-0.171202
 30
0.0
 11
55.534233
 21
-0.168393
 31
0.0
  0
LINE
  5
722
330
1F
100
AcDbEntity
  8
1
  6
CONTINUOUS
370
50
 62
4
100
AcDbLine
 10
44.0131
 20
-0.964938
 30
0.0
 11
43.880741
 21
-0.933936
 31
0.0
  0
LINE
  5
723
330
1F
100
AcDbEntity
  8
1
  6
CONTINUOUS
370
50
 62
4
100
AcDbLine
 10
37.895123
 20
0.936662
 30
0.0
 11
37.764751
 21
0.967013
 31
0.0
  0
LINE
  5
724
330
1F
100
AcDbEntity
  8
1
  6
CONTINUOUS
370
50
 62
4
100
AcDbLine
 10
36.997505
 20
-0.9682729999999999
 30
0.0
 11
36.87096
 21
-0.939637
 31
0.0
  0
LINE
  5
725
330
1F
100
AcDbEntity
  8
1
  6
CONTINUOUS
370
50
 62
4
100
AcDbLine
 10
39.681751
 20
-0.9702799999999999
 30
0.0
 11
39.55962
 21
-0.942889
 31
0.0
  0
LINE
  5
726
330
1F
100
AcDbEntity
  8
1
  6
CONTINUOUS
370
50
 62
4
100
AcDbLine
 10
33.504173
 20
0.944418
 30
0.0
 11
33.380905
 21
0.971096
 31
0.0
  0
LINE
  5
727
330
1F
100
AcDbEntity
  8
1
  6
CONTINUOUS
370
50
 62
4
100
AcDbLine
 10
32.129887
 20
0.992046
 30
0.0
 11
32.103111
 21
0.997652
 31
0.0
  0
LINE
  5
728
330
1F
100
AcDbEntity
  8
1
  6
CONTINUOUS
370
50
 62
4
100
AcDbLine
 10
32.018562
 20
-1.004138
 30
0.0
 11
32.004837
 21
-1.001352
 31
0.0
  0
LINE
  5
729
330
1F
100
AcDbEntity
  8
1
  6
CONTINUOUS
370
50
 62
4
100
AcDbLine
 10
55.217648
 20
0.958669
 30
0.0
 11
55.113045
 21
0.9788079999999999
 31
0.0
  0
LINE
  5
72A
330
1F
100
AcDbEntity
  8
1
  6
CONTINUOUS
370
50
 62
4
100
AcDbLine
 10
36.121677
 20
0.95976
 30
0.0
 11
36.0
 21
0.982193
 31
0.0
  0
LINE
  5
72B
330
1F
100
AcDbEntity
  8
1
  6
CONTINUOUS
370
50
 62
4
100
AcDbLine
 10
35.412823
 20
-0.983408
 30
0.0
 11
35.278004
 21
-0.958876
 31
0.0
  0
LINE
  5
72C
330
1F
100
AcDbEntity
  8
1
  6
CONTINUOUS
370
50
 62
4
100
AcDbLine
 10
45.818947
 20
-0.98691
 30
0.0
 11
45.686935
 21
-0.9639559999999999
 31
0.0
  0
LINE
  5
72D
330
1F
100
AcDbEntity
  8
1
  6
CONTINUOUS
370
50
 62
4
100
AcDbLine
 10
49.158195
 20
0.9640369999999999
 30
0.0
 11
49.02647
 21
0.986879
 31
0.0
  0
LINE
  5
72E
330
1F
100
AcDbEntity
  8
1
  6
CONTINUOUS
370
50
 62
4
100
AcDbLine
 10
40.44849
 20
0.9647749999999999
 30
0.0
 11
40.317226
 21
0.9875299999999999
 31
0.0
  0
LINE
  5
72F
330
1F
100
AcDbEntity
  8
1
  6
CONTINUOUS
370
50
 62
4
100
AcDbLine
 10
54.52920899999999
 20
-0.9868169999999999
 30
0.0
 11
54.398457
 21
-0.964217
 31
0.0
  0
LINE
  5
730
330
1F
100
AcDbEntity
  8
1
  6
CONTINUOUS
370
50
 62
4
100
AcDbLine
 10
52.852219
 20
-0.9869899999999999
 30
0.0
 11
52.722187
 21
-0.964603
 31
0.0
  0
LINE
  5
731
330
1F
100
AcDbEntity
  8
1
  6
CONTINUOUS
370
50
 62
4
100
AcDbLine
 10
50.835869
 20
0.9641559999999999
 30
0.0
 11
50.703831
 21
0.9868819999999999
 31
0.0
  0
LINE
  5
732
330
1F
100
AcDbEntity
  8
1
  6
CONTINUOUS
370
50
 62
4
100
AcDbLine
 10
53.515007
 20
0.9639669999999999
 30
0.0
 11
53.38184
 21
0.9868119999999999
 31
0.0
  0
LINE
  5
733
330
1F
100
AcDbEntity
  8
1
  6
CONTINUOUS
370
50
 62
4
100
AcDbLine
 10
44.14426
 20
-0.9874139999999999
 30
0.0
 11
44.0131
 21
-0.964938
 31
0.0
  0
LINE
  5
734
330
1F
100
AcDbEntity
  8
1
  6
CONTINUOUS
370
50
 62
4
100
AcDbLine
 10
42.122192
 20
0.9655859999999999
 30
0.0
 11
41.992565
 21
0.9877729999999999
 31
0.0
  0
LINE
  5
735
330
1F
100
AcDbEntity
  8
1
  6
CONTINUOUS
370
50
 62
4
100
AcDbLine
 10
41.46682699999999
 20
-0.987663
 30
0.0
 11
41.334332
 21
-0.9651259999999999
 31
0.0
  0
LINE
  5
736
330
1F
100
AcDbEntity
  8
1
  6
CONTINUOUS
370
50
 62
4
100
AcDbLine
 10
48.497787
 20
-0.987393
 30
0.0
 11
48.365543
 21
-0.9650099999999999
 31
0.0
  0
LINE
  5
737
330
1F
100
AcDbEntity
  8
1
  6
CONTINUOUS
370
50
 62
4
100
AcDbLine
 10
46.479813
 20
0.9653039999999999
 30
0.0
 11
46.34773999999999
 21
0.9876379999999999
 31
0.0
  0
LINE
  5
738
330
1F
100
AcDbEntity
  8
1
  6
CONTINUOUS
370
50
 62
4
100
AcDbLine
 10
44.804329
 20
0.9648599999999999
 30
0.0
 11
44.67075699999999
 21
0.987436
 31
0.0
  0
LINE
  5
739
330
1F
100
AcDbEntity
  8
1
  6
CONTINUOUS
370
50
 62
4
100
AcDbLine
 10
50.17762399999999
 20
-0.9873639999999999
 30
0.0
 11
50.044518
 21
-0.9650099999999999
 31
0.0
  0
LINE
  5
73A
330
1F
100
AcDbEntity
  8
1
  6
CONTINUOUS
370
50
 62
4
100
AcDbLine
 10
32.735134
 20
-0.971127
 30
0.0
 11
32.679901
 21
-0.961953
 31
0.0
  0
LINE
  5
73B
330
1F
100
AcDbEntity
  8
1
  6
CONTINUOUS
370
50
 62
4
100
AcDbLine
 10
37.764751
 20
0.967013
 30
0.0
 11
37.633835
 21
0.988659
 31
0.0
  0
LINE
  5
73C
330
1F
100
AcDbEntity
  8
1
  6
CONTINUOUS
370
50
 62
4
100
AcDbLine
 10
37.123505
 20
-0.989066
 30
0.0
 11
36.997505
 21
-0.9682729999999999
 31
0.0
  0
LINE
  5
73D
330
1F
100
AcDbEntity
  8
1
  6
CONTINUOUS
370
50
 62
4
100
AcDbLine
 10
32.103111
 20
0.997652
 30
0.0
 11
32.078754
 21
1.001631
 31
0.0
  0
LINE
  5
73E
330
1F
100
AcDbEntity
  8
1
  6
CONTINUOUS
370
50
 62
4
100
AcDbLine
 10
32.679901
 20
-0.961953
 30
0.0
 11
32.624577
 21
-0.9529829999999999
 31
0.0
  0
LINE
  5
73F
330
1F
100
AcDbEntity
  8
1
  6
CONTINUOUS
370
50
 62
4
100
AcDbLine
 10
32.789753
 20
-0.9799749999999999
 30
0.0
 11
32.735134
 21
-0.971127
 31
0.0
  0
LINE
  5
740
330
1F
100
AcDbEntity
  8
1
  6
CONTINUOUS
370
50
 62
4
100
AcDbLine
 10
39.80521
 20
-0.990018
 30
0.0
 11
39.681751
 21
-0.9702799999999999
 31
0.0
  0
LINE
  5
741
330
1F
100
AcDbEntity
  8
1
  6
CONTINUOUS
370
50
 62
4
100
AcDbLine
 10
33.380905
 20
0.971096
 30
0.0
 11
33.257813
 21
0.990223
 31
0.0
  0
LINE
  5
742
330
1F
100
AcDbEntity
  8
1
  6
CONTINUOUS
370
50
 62
4
100
AcDbLine
 10
32.624577
 20
-0.9529829999999999
 30
0.0
 11
32.569862
 21
-0.9446709999999999
 31
0.0
  0
LINE
  5
743
330
1F
100
AcDbEntity
  8
1
  6
CONTINUOUS
370
50
 62
4
100
AcDbLine
 10
32.843914
 20
-0.9880909999999999
 30
0.0
 11
32.789753
 21
-0.9799749999999999
 31
0.0
  0
LINE
  5
744
330
1F
100
AcDbEntity
  8
1
  6
CONTINUOUS
370
50
 62
4
100
AcDbLine
 10
35.999134
 20
0.9814309999999999
 30
0.0
 11
35.944511
 21
0.9891059999999999
 31
0.0
  0
LINE
  5
745
330
1F
100
AcDbEntity
  8
1
  6
CONTINUOUS
370
50
 62
4
100
AcDbLine
 10
55.113045
 20
0.9788079999999999
 30
0.0
 11
55.007393
 21
0.99332
 31
0.0
  0
LINE
  5
746
330
1F
100
AcDbEntity
  8
1
  6
CONTINUOUS
370
50
 62
4
100
AcDbLine
 10
32.569862
 20
-0.9446709999999999
 30
0.0
 11
32.515778
 21
-0.937295
 31
0.0
  0
LINE
  5
747
330
1F
100
AcDbEntity
  8
1
  6
CONTINUOUS
370
50
 62
4
100
AcDbLine
 10
32.897785
 20
-0.9950669999999999
 30
0.0
 11
32.843914
 21
-0.9880909999999999
 31
0.0
  0
LINE
  5
748
330
1F
100
AcDbEntity
  8
1
  6
CONTINUOUS
370
50
 62
4
100
AcDbLine
 10
55.558331
 20
-0.172685
 30
0.0
 11
55.546219
 21
-0.171202
 31
0.0
  0
LINE
  5
749
330
1F
100
AcDbEntity
  8
1
  6
CONTINUOUS
370
50
 62
4
100
AcDbLine
 10
35.545452
 20
-0.99878
 30
0.0
 11
35.412823
 21
-0.983408
 31
0.0
  0
LINE
  5
74A
330
1F
100
AcDbEntity
  8
1
  6
CONTINUOUS
370
50
 62
4
100
AcDbLine
 10
32.515778
 20
-0.937295
 30
0.0
 11
32.462337
 21
-0.93113
 31
0.0
  0
LINE
  5
74B
330
1F
100
AcDbEntity
  8
1
  6
CONTINUOUS
370
50
 62
4
100
AcDbLine
 10
35.944511
 20
0.9891059999999999
 30
0.0
 11
35.89045
 21
0.99527
 31
0.0
  0
LINE
  5
74C
330
1F
100
AcDbEntity
  8
1
  6
CONTINUOUS
370
50
 62
4
100
AcDbLine
 10
32.078754
 20
1.001631
 30
0.0
 11
32.056797
 21
1.004067
 31
0.0
  0
LINE
  5
74D
330
1F
100
AcDbEntity
  8
1
  6
CONTINUOUS
370
50
 62
4
100
AcDbLine
 10
45.950871
 20
-1.000818
 30
0.0
 11
45.818947
 21
-0.98691
 31
0.0
  0
LINE
  5
74E
330
1F
100
AcDbEntity
  8
1
  6
CONTINUOUS
370
50
 62
4
100
AcDbLine
 10
49.02647
 20
0.986879
 30
0.0
 11
48.894825
 21
1.000727
 31
0.0
  0
LINE
  5
74F
330
1F
100
AcDbEntity
  8
1
  6
CONTINUOUS
370
50
 62
4
100
AcDbLine
 10
50.703831
 20
0.9868819999999999
 30
0.0
 11
50.572384
 21
1.000657
 31
0.0
  0
LINE
  5
750
330
1F
100
AcDbEntity
  8
1
  6
CONTINUOUS
370
50
 62
4
100
AcDbLine
 10
40.317226
 20
0.9875299999999999
 30
0.0
 11
40.186264
 21
1.001216
 31
0.0
  0
LINE
  5
751
330
1F
100
AcDbEntity
  8
1
  6
CONTINUOUS
370
50
 62
4
100
AcDbLine
 10
52.982338
 20
-1.000564
 30
0.0
 11
52.852219
 21
-0.9869899999999999
 31
0.0
  0
LINE
  5
752
330
1F
100
AcDbEntity
  8
1
  6
CONTINUOUS
370
50
 62
4
100
AcDbLine
 10
44.274773
 20
-1.001026
 30
0.0
 11
44.14426
 21
-0.9874139999999999
 31
0.0
  0
LINE
  5
753
330
1F
100
AcDbEntity
  8
1
  6
CONTINUOUS
370
50
 62
4
100
AcDbLine
 10
54.660255
 20
-1.000471
 30
0.0
 11
54.52920899999999
 21
-0.9868169999999999
 31
0.0
  0
LINE
  5
754
330
1F
100
AcDbEntity
  8
1
  6
CONTINUOUS
370
50
 62
4
100
AcDbLine
 10
41.992565
 20
0.9877729999999999
 30
0.0
 11
41.863091
 21
1.001195
 31
0.0
  0
LINE
  5
755
330
1F
100
AcDbEntity
  8
1
  6
CONTINUOUS
370
50
 62
4
100
AcDbLine
 10
53.38184
 20
0.9868119999999999
 30
0.0
 11
53.247726
 21
1.00055
 31
0.0
  0
LINE
  5
756
330
1F
100
AcDbEntity
  8
1
  6
CONTINUOUS
370
50
 62
4
100
AcDbLine
 10
44.67075699999999
 20
0.987436
 30
0.0
 11
44.537472
 21
1.001002
 31
0.0
  0
LINE
  5
757
330
1F
100
AcDbEntity
  8
1
  6
CONTINUOUS
370
50
 62
4
100
AcDbLine
 10
41.599968
 20
-1.001196
 30
0.0
 11
41.46682699999999
 21
-0.987663
 31
0.0
  0
LINE
  5
758
330
1F
100
AcDbEntity
  8
1
  6
CONTINUOUS
370
50
 62
4
100
AcDbLine
 10
48.630646
 20
-1.000858
 30
0.0
 11
48.497787
 21
-0.987393
 31
0.0
  0
LINE
  5
759
330
1F
100
AcDbEntity
  8
1
  6
CONTINUOUS
370
50
 62
4
100
AcDbLine
 10
50.30994
 20
-1.000774
 30
0.0
 11
50.17762399999999
 21
-0.9873639999999999
 31
0.0
  0
LINE
  5
75A
330
1F
100
AcDbEntity
  8
1
  6
CONTINUOUS
370
50
 62
4
100
AcDbLine
 10
32.951523
 20
-1.000496
 30
0.0
 11
32.897785
 21
-0.9950669999999999
 31
0.0
  0
LINE
  5
75B
330
1F
100
AcDbEntity
  8
1
  6
CONTINUOUS
370
50
 62
4
100
AcDbLine
 10
46.34773999999999
 20
0.9876379999999999
 30
0.0
 11
46.215267
 21
1.00101
 31
0.0
  0
LINE
  5
75C
330
1F
100
AcDbEntity
  8
1
  6
CONTINUOUS
370
50
 62
4
100
AcDbLine
 10
37.249504
 20
-1.00171
 30
0.0
 11
37.123505
 21
-0.989066
 31
0.0
  0
LINE
  5
75D
330
1F
100
AcDbEntity
  8
1
  6
CONTINUOUS
370
50
 62
4
100
AcDbLine
 10
37.633835
 20
0.988659
 30
0.0
 11
37.503746
 21
1.001589
 31
0.0
  0
LINE
  5
75E
330
1F
100
AcDbEntity
  8
1
  6
CONTINUOUS
370
50
 62
4
100
AcDbLine
 10
39.929573
 20
-1.001877
 30
0.0
 11
39.80521
 21
-0.990018
 31
0.0
  0
LINE
  5
75F
330
1F
100
AcDbEntity
  8
1
  6
CONTINUOUS
370
50
 62
4
100
AcDbLine
 10
33.257813
 20
0.990223
 30
0.0
 11
33.13468599999999
 21
1.001584
 31
0.0
  0
LINE
  5
760
330
1F
100
AcDbEntity
  8
1
  6
CONTINUOUS
370
50
 62
4
100
AcDbLine
 10
32.462337
 20
-0.93113
 30
0.0
 11
32.409756
 21
-0.9264629999999999
 31
0.0
  0
LINE
  5
761
330
1F
100
AcDbEntity
  8
1
  6
CONTINUOUS
370
50
 62
4
100
AcDbLine
 10
55.522305
 20
1.00493
 30
0.0
 11
55.522167
 21
1.004942
 31
0.0
  0
LINE
  5
762
330
1F
100
AcDbEntity
  8
1
  6
CONTINUOUS
370
50
 62
4
100
AcDbLine
 10
35.89045
 20
0.99527
 30
0.0
 11
35.836861
 21
0.9999279999999999
 31
0.0
  0
LINE
  5
763
330
1F
100
AcDbEntity
  8
1
  6
CONTINUOUS
370
50
 62
4
100
AcDbLine
 10
55.007393
 20
0.99332
 30
0.0
 11
54.900356
 21
1.0021
 31
0.0
  0
LINE
  5
764
330
1F
100
AcDbEntity
  8
1
  6
CONTINUOUS
370
50
 62
4
100
AcDbLine
 10
35.836861
 20
0.9999279999999999
 30
0.0
 11
35.783646
 21
1.003085
 31
0.0
  0
LINE
  5
765
330
1F
100
AcDbEntity
  8
1
  6
CONTINUOUS
370
50
 62
4
100
AcDbLine
 10
32.409756
 20
-0.9264629999999999
 30
0.0
 11
32.359398
 21
-0.923516
 31
0.0
  0
LINE
  5
766
330
1F
100
AcDbEntity
  8
1
  6
CONTINUOUS
370
50
 62
4
100
AcDbLine
 10
35.677315
 20
-1.00491
 30
0.0
 11
35.545452
 21
-0.99878
 31
0.0
  0
LINE
  5
767
330
1F
100
AcDbEntity
  8
1
  6
CONTINUOUS
370
50
 62
4
100
AcDbLine
 10
32.03688
 20
-1.004989
 30
0.0
 11
32.018562
 21
-1.004138
 31
0.0
  0
LINE
  5
768
330
1F
100
AcDbEntity
  8
1
  6
CONTINUOUS
370
50
 62
4
100
AcDbLine
 10
32.056797
 20
1.004067
 30
0.0
 11
32.03688
 21
1.004989
 31
0.0
  0
LINE
  5
769
330
1F
100
AcDbEntity
  8
1
  6
CONTINUOUS
370
50
 62
4
100
AcDbLine
 10
46.083706
 20
-1.005484
 30
0.0
 11
45.950871
 21
-1.000818
 31
0.0
  0
LINE
  5
76A
330
1F
100
AcDbEntity
  8
1
  6
CONTINUOUS
370
50
 62
4
100
AcDbLine
 10
48.894825
 20
1.000727
 30
0.0
 11
48.76297
 21
1.005347
 31
0.0
  0
LINE
  5
76B
330
1F
100
AcDbEntity
  8
1
  6
CONTINUOUS
370
50
 62
4
100
AcDbLine
 10
50.572384
 20
1.000657
 30
0.0
 11
50.440929
 21
1.005261
 31
0.0
  0
LINE
  5
76C
330
1F
100
AcDbEntity
  8
1
  6
CONTINUOUS
370
50
 62
4
100
AcDbLine
 10
32.961494
 20
-1.004019
 30
0.0
 11
32.951523
 21
-1.00367
 31
0.0
  0
LINE
  5
76D
330
1F
100
AcDbEntity
  8
1
  6
CONTINUOUS
370
50
 62
4
100
AcDbLine
 10
44.405453
 20
-1.00557
 30
0.0
 11
44.274773
 21
-1.001026
 31
0.0
  0
LINE
  5
76E
330
1F
100
AcDbEntity
  8
1
  6
CONTINUOUS
370
50
 62
4
100
AcDbLine
 10
53.113827
 20
-1.005124
 30
0.0
 11
52.982338
 21
-1.000564
 31
0.0
  0
LINE
  5
76F
330
1F
100
AcDbEntity
  8
1
  6
CONTINUOUS
370
50
 62
4
100
AcDbLine
 10
40.186264
 20
1.001216
 30
0.0
 11
40.054203
 21
1.005792
 31
0.0
  0
LINE
  5
770
330
1F
100
AcDbEntity
  8
1
  6
CONTINUOUS
370
50
 62
4
100
AcDbLine
 10
44.537472
 20
1.001002
 30
0.0
 11
44.405453
 21
1.00557
 31
0.0
  0
LINE
  5
771
330
1F
100
AcDbEntity
  8
1
  6
CONTINUOUS
370
50
 62
4
100
AcDbLine
 10
41.863091
 20
1.001195
 30
0.0
 11
41.73248299999999
 21
1.005707
 31
0.0
  0
LINE
  5
772
330
1F
100
AcDbEntity
  8
1
  6
CONTINUOUS
370
50
 62
4
100
AcDbLine
 10
54.792629
 20
-1.005038
 30
0.0
 11
54.660255
 21
-1.000471
 31
0.0
  0
LINE
  5
773
330
1F
100
AcDbEntity
  8
1
  6
CONTINUOUS
370
50
 62
4
100
AcDbLine
 10
50.440929
 20
-1.005261
 30
0.0
 11
50.30994
 21
-1.000774
 31
0.0
  0
LINE
  5
774
330
1F
100
AcDbEntity
  8
1
  6
CONTINUOUS
370
50
 62
4
100
AcDbLine
 10
53.247726
 20
1.00055
 30
0.0
 11
53.113827
 21
1.005124
 31
0.0
  0
LINE
  5
775
330
1F
100
AcDbEntity
  8
1
  6
CONTINUOUS
370
50
 62
4
100
AcDbLine
 10
41.73248299999999
 20
-1.005707
 30
0.0
 11
41.599968
 21
-1.001196
 31
0.0
  0
LINE
  5
776
330
1F
100
AcDbEntity
  8
1
  6
CONTINUOUS
370
50
 62
4
100
AcDbLine
 10
46.215267
 20
1.00101
 30
0.0
 11
46.083706
 21
1.005484
 31
0.0
  0
LINE
  5
777
330
1F
100
AcDbEntity
  8
1
  6
CONTINUOUS
370
50
 62
4
100
AcDbLine
 10
48.76297
 20
-1.005347
 30
0.0
 11
48.630646
 21
-1.000858
 31
0.0
  0
LINE
  5
778
330
1F
100
AcDbEntity
  8
1
  6
CONTINUOUS
370
50
 62
4
100
AcDbLine
 10
37.503746
 20
1.001589
 30
0.0
 11
37.375381
 21
1.00593
 31
0.0
  0
LINE
  5
779
330
1F
100
AcDbEntity
  8
1
  6
CONTINUOUS
370
50
 62
4
100
AcDbLine
 10
37.375381
 20
-1.00593
 30
0.0
 11
37.249504
 21
-1.00171
 31
0.0
  0
LINE
  5
77A
330
1F
100
AcDbEntity
  8
1
  6
CONTINUOUS
370
50
 62
4
100
AcDbLine
 10
40.054203
 20
-1.005792
 30
0.0
 11
39.929573
 21
-1.001877
 31
0.0
  0
LINE
  5
77B
330
1F
100
AcDbEntity
  8
1
  6
CONTINUOUS
370
50
 62
4
100
AcDbLine
 10
35.783646
 20
1.003085
 30
0.0
 11
35.730721
 21
1.004746
 31
0.0
  0
LINE
  5
77C
330
1F
100
AcDbEntity
  8
1
  6
CONTINUOUS
370
50
 62
4
100
AcDbLine
 10
32.971462
 20
-1.004315
 30
0.0
 11
32.961494
 21
-1.004019
 31
0.0
  0
LINE
  5
77D
330
1F
100
AcDbEntity
  8
1
  6
CONTINUOUS
370
50
 62
4
100
AcDbLine
 10
33.13468599999999
 20
1.001584
 30
0.0
 11
33.011307
 21
1.004962
 31
0.0
  0
LINE
  5
77E
330
1F
100
AcDbEntity
  8
1
  6
CONTINUOUS
370
50
 62
4
100
AcDbLine
 10
54.900356
 20
1.0021
 30
0.0
 11
54.792629
 21
1.005038
 31
0.0
  0
LINE
  5
77F
330
1F
100
AcDbEntity
  8
1
  6
CONTINUOUS
370
50
 62
4
100
AcDbLine
 10
32.359398
 20
-0.923516
 30
0.0
 11
32.31168
 21
-0.922244
 31
0.0
  0
LINE
  5
780
330
1F
100
AcDbEntity
  8
1
  6
CONTINUOUS
370
50
 62
4
100
AcDbLine
 10
32.98143
 20
-1.004557
 30
0.0
 11
32.971462
 21
-1.004315
 31
0.0
  0
LINE
  5
781
330
1F
100
AcDbEntity
  8
1
  6
CONTINUOUS
370
50
 62
4
100
AcDbLine
 10
32.99139
 20
-1.004745
 30
0.0
 11
32.98143
 21
-1.004557
 31
0.0
  0
LINE
  5
782
330
1F
100
AcDbEntity
  8
1
  6
CONTINUOUS
370
50
 62
4
100
AcDbLine
 10
33.00135
 20
-1.00488
 30
0.0
 11
32.99139
 21
-1.004745
 31
0.0
  0
LINE
  5
783
330
1F
100
AcDbEntity
  8
1
  6
CONTINUOUS
370
50
 62
4
100
AcDbLine
 10
55.570564
 20
-0.172802
 30
0.0
 11
55.558331
 21
-0.172685
 31
0.0
  0
LINE
  5
784
330
1F
100
AcDbEntity
  8
1
  6
CONTINUOUS
370
50
 62
4
100
AcDbLine
 10
33.011307
 20
-1.004962
 30
0.0
 11
33.00135
 21
-1.00488
 31
0.0
  0
LINE
  5
785
330
1F
100
AcDbEntity
  8
1
  6
CONTINUOUS
370
50
 62
4
100
AcDbLine
 10
35.730721
 20
1.004746
 30
0.0
 11
35.677994
 21
1.004917
 31
0.0
  0
LINE
  5
786
330
1F
100
AcDbEntity
  8
1
  6
CONTINUOUS
370
50
 62
4
100
AcDbLine
 10
53.113827
 20
1.005124
 30
0.0
 11
50.440929
 21
1.005261
 31
0.0
  0
LINE
  5
787
330
1F
100
AcDbEntity
  8
1
  6
CONTINUOUS
370
50
 62
4
100
AcDbLine
 10
44.405453
 20
1.00557
 30
0.0
 11
41.73248299999999
 21
1.005707
 31
0.0
  0
LINE
  5
788
330
1F
100
AcDbEntity
  8
1
  6
CONTINUOUS
370
50
 62
4
100
AcDbLine
 10
40.054203
 20
1.005792
 30
0.0
 11
37.375381
 21
1.00593
 31
0.0
  0
LINE
  5
789
330
1F
100
AcDbEntity
  8
1
  6
CONTINUOUS
370
50
 62
4
100
AcDbLine
 10
48.76297
 20
1.005347
 30
0.0
 11
46.083706
 21
1.005484
 31
0.0
  0
LINE
  5
78A
330
1F
100
AcDbEntity
  8
1
  6
CONTINUOUS
370
50
 62
4
100
AcDbLine
 10
55.522167
 20
1.005
 30
0.0
 11
54.792629
 21
1.005038
 31
0.0
  0
LINE
  5
78B
330
1F
100
AcDbEntity
  8
1
  6
CONTINUOUS
370
50
 62
4
100
AcDbLine
 10
33.022064
 20
-1.005
 30
0.0
 11
35.698139
 21
-1.005
 31
0.0
  0
LINE
  5
78C
330
1F
100
AcDbEntity
  8
1
  6
CONTINUOUS
370
50
 62
4
100
AcDbLine
 10
30.5
 20
-1.005
 30
0.0
 11
32.035564
 21
-1.005
 31
0.0
  0
LINE
  5
78D
330
1F
100
AcDbEntity
  8
1
  6
CONTINUOUS
370
50
 62
4
100
AcDbLine
 10
33.022064
 20
1.005
 30
0.0
 11
35.698135
 21
1.005
 31
0.0
  0
LINE
  5
78E
330
1F
100
AcDbEntity
  8
1
  6
CONTINUOUS
370
50
 62
4
100
AcDbLine
 10
30.5
 20
1.005
 30
0.0
 11
32.035564
 21
1.005
 31
0.0
  0
LINE
  5
78F
330
1F
100
AcDbEntity
  8
1
  6
CONTINUOUS
370
50
 62
4
100
AcDbLine
 10
54.792629
 20
-1.005038
 30
0.0
 11
55.522167
 21
-1.005
 31
0.0
  0
LINE
  5
790
330
1F
100
AcDbEntity
  8
1
  6
CONTINUOUS
370
50
 62
4
100
AcDbLine
 10
37.375381
 20
-1.00593
 30
0.0
 11
40.054203
 21
-1.005792
 31
0.0
  0
LINE
  5
791
330
1F
100
AcDbEntity
  8
1
  6
CONTINUOUS
370
50
 62
4
100
AcDbLine
 10
46.083706
 20
-1.005484
 30
0.0
 11
48.76297
 21
-1.005347
 31
0.0
  0
LINE
  5
792
330
1F
100
AcDbEntity
  8
1
  6
CONTINUOUS
370
50
 62
4
100
AcDbLine
 10
41.73248299999999
 20
-1.005707
 30
0.0
 11
44.405453
 21
-1.00557
 31
0.0
  0
LINE
  5
793
330
1F
100
AcDbEntity
  8
1
  6
CONTINUOUS
370
50
 62
4
100
AcDbLine
 10
50.440929
 20
-1.005261
 30
0.0
 11
53.113827
 21
-1.005124
 31
0.0
  0
LINE
  5
794
330
1F
100
AcDbEntity
  8
1
  6
CONTINUOUS
370
50
 62
4
100
AcDbLine
 10
35.677315
 20
-1.00491
 30
0.0
 11
35.730156
 21
-1.004756
 31
0.0
  0
LINE
  5
795
330
1F
100
AcDbEntity
  8
1
  6
CONTINUOUS
370
50
 62
4
100
AcDbLine
 10
32.266777
 20
-0.922573
 30
0.0
 11
32.31168
 21
-0.922244
 31
0.0
  0
LINE
  5
796
330
1F
100
AcDbEntity
  8
1
  6
CONTINUOUS
370
50
 62
4
100
AcDbLine
 10
33.00135
 20
1.00488
 30
0.0
 11
33.011307
 21
1.004962
 31
0.0
  0
LINE
  5
797
330
1F
100
AcDbEntity
  8
1
  6
CONTINUOUS
370
50
 62
4
100
AcDbLine
 10
55.923561
 20
0.02766
 30
0.0
 11
55.92617
 21
0.027691
 31
0.0
  0
LINE
  5
798
330
1F
100
AcDbEntity
  8
1
  6
CONTINUOUS
370
50
 62
4
100
AcDbLine
 10
32.99139
 20
1.004745
 30
0.0
 11
33.00135
 21
1.00488
 31
0.0
  0
LINE
  5
799
330
1F
100
AcDbEntity
  8
1
  6
CONTINUOUS
370
50
 62
4
100
AcDbLine
 10
32.98143
 20
1.004557
 30
0.0
 11
32.99139
 21
1.004745
 31
0.0
  0
LINE
  5
79A
330
1F
100
AcDbEntity
  8
1
  6
CONTINUOUS
370
50
 62
4
100
AcDbLine
 10
32.971462
 20
1.004315
 30
0.0
 11
32.98143
 21
1.004557
 31
0.0
  0
LINE
  5
79B
330
1F
100
AcDbEntity
  8
1
  6
CONTINUOUS
370
50
 62
4
100
AcDbLine
 10
32.961494
 20
1.004019
 30
0.0
 11
32.971462
 21
1.004315
 31
0.0
  0
LINE
  5
79C
330
1F
100
AcDbEntity
  8
1
  6
CONTINUOUS
370
50
 62
4
100
AcDbLine
 10
35.730156
 20
-1.004756
 30
0.0
 11
35.783195
 21
-1.003105
 31
0.0
  0
LINE
  5
79D
330
1F
100
AcDbEntity
  8
1
  6
CONTINUOUS
370
50
 62
4
100
AcDbLine
 10
32.951523
 20
1.00367
 30
0.0
 11
32.961494
 21
1.004019
 31
0.0
  0
LINE
  5
79E
330
1F
100
AcDbEntity
  8
1
  6
CONTINUOUS
370
50
 62
4
100
AcDbLine
 10
53.113827
 20
-1.005124
 30
0.0
 11
53.254749
 21
-1.000058
 31
0.0
  0
LINE
  5
79F
330
1F
100
AcDbEntity
  8
1
  6
CONTINUOUS
370
50
 62
4
100
AcDbLine
 10
41.592102
 20
1.000631
 30
0.0
 11
41.73248299999999
 21
1.005707
 31
0.0
  0
LINE
  5
7A0
330
1F
100
AcDbEntity
  8
1
  6
CONTINUOUS
370
50
 62
4
100
AcDbLine
 10
50.302147
 20
1.000228
 30
0.0
 11
50.440929
 21
1.005261
 31
0.0
  0
LINE
  5
7A1
330
1F
100
AcDbEntity
  8
1
  6
CONTINUOUS
370
50
 62
4
100
AcDbLine
 10
54.652611
 20
0.999925
 30
0.0
 11
54.792629
 21
1.005038
 31
0.0
  0
LINE
  5
7A2
330
1F
100
AcDbEntity
  8
1
  6
CONTINUOUS
370
50
 62
4
100
AcDbLine
 10
44.405453
 20
-1.00557
 30
0.0
 11
44.544937
 21
-1.000475
 31
0.0
  0
LINE
  5
7A3
330
1F
100
AcDbEntity
  8
1
  6
CONTINUOUS
370
50
 62
4
100
AcDbLine
 10
40.054203
 20
-1.005792
 30
0.0
 11
40.194054
 21
-1.000658
 31
0.0
  0
LINE
  5
7A4
330
1F
100
AcDbEntity
  8
1
  6
CONTINUOUS
370
50
 62
4
100
AcDbLine
 10
45.94466
 20
1.000369
 30
0.0
 11
46.083706
 21
1.005484
 31
0.0
  0
LINE
  5
7A5
330
1F
100
AcDbEntity
  8
1
  6
CONTINUOUS
370
50
 62
4
100
AcDbLine
 10
37.23642
 20
1.000786
 30
0.0
 11
37.375362
 21
1.005925
 31
0.0
  0
LINE
  5
7A6
330
1F
100
AcDbEntity
  8
1
  6
CONTINUOUS
370
50
 62
4
100
AcDbLine
 10
48.76297
 20
-1.005347
 30
0.0
 11
48.90226
 21
-1.00019
 31
0.0
  0
LINE
  5
7A7
330
1F
100
AcDbEntity
  8
1
  6
CONTINUOUS
370
50
 62
4
100
AcDbLine
 10
32.326542
 20
0.9224709999999999
 30
0.0
 11
32.37822
 21
0.924434
 31
0.0
  0
LINE
  5
7A8
330
1F
100
AcDbEntity
  8
1
  6
CONTINUOUS
370
50
 62
4
100
AcDbLine
 10
32.224815
 20
-0.9244239999999999
 30
0.0
 11
32.266777
 21
-0.922573
 31
0.0
  0
LINE
  5
7A9
330
1F
100
AcDbEntity
  8
1
  6
CONTINUOUS
370
50
 62
4
100
AcDbLine
 10
32.03688
 20
-1.004989
 30
0.0
 11
32.059101
 21
-1.003873
 31
0.0
  0
LINE
  5
7AA
330
1F
100
AcDbEntity
  8
1
  6
CONTINUOUS
370
50
 62
4
100
AcDbLine
 10
35.783195
 20
-1.003105
 30
0.0
 11
35.836521
 21
-0.999953
 31
0.0
  0
LINE
  5
7AB
330
1F
100
AcDbEntity
  8
1
  6
CONTINUOUS
370
50
 62
4
100
AcDbLine
 10
32.37822
 20
0.924434
 30
0.0
 11
32.432793
 21
0.928318
 31
0.0
  0
LINE
  5
7AC
330
1F
100
AcDbEntity
  8
1
  6
CONTINUOUS
370
50
 62
4
100
AcDbLine
 10
32.185757
 20
-0.927651
 30
0.0
 11
32.224815
 21
-0.9244239999999999
 31
0.0
  0
LINE
  5
7AD
330
1F
100
AcDbEntity
  8
1
  6
CONTINUOUS
370
50
 62
4
100
AcDbLine
 10
35.836521
 20
-0.999953
 30
0.0
 11
35.890224
 21
-0.995293
 31
0.0
  0
LINE
  5
7AE
330
1F
100
AcDbEntity
  8
1
  6
CONTINUOUS
370
50
 62
4
100
AcDbLine
 10
32.432793
 20
0.928318
 30
0.0
 11
32.489178
 21
0.934067
 31
0.0
  0
LINE
  5
7AF
330
1F
100
AcDbEntity
  8
1
  6
CONTINUOUS
370
50
 62
4
100
AcDbLine
 10
32.894447
 20
0.994676
 30
0.0
 11
32.951523
 21
1.000496
 31
0.0
  0
LINE
  5
7B0
330
1F
100
AcDbEntity
  8
1
  6
CONTINUOUS
370
50
 62
4
100
AcDbLine
 10
55.570564
 20
-0.172802
 30
0.0
 11
55.58288599999999
 21
-0.17151
 31
0.0
  0
LINE
  5
7B1
330
1F
100
AcDbEntity
  8
1
  6
CONTINUOUS
370
50
 62
4
100
AcDbLine
 10
50.161865
 20
0.9851829999999999
 30
0.0
 11
50.302147
 21
1.000228
 31
0.0
  0
LINE
  5
7B2
330
1F
100
AcDbEntity
  8
1
  6
CONTINUOUS
370
50
 62
4
100
AcDbLine
 10
44.544937
 20
-1.000475
 30
0.0
 11
44.685841
 21
-0.9853489999999999
 31
0.0
  0
LINE
  5
7B3
330
1F
100
AcDbEntity
  8
1
  6
CONTINUOUS
370
50
 62
4
100
AcDbLine
 10
53.254749
 20
-1.000058
 30
0.0
 11
53.395844
 21
-0.9848469999999999
 31
0.0
  0
LINE
  5
7B4
330
1F
100
AcDbEntity
  8
1
  6
CONTINUOUS
370
50
 62
4
100
AcDbLine
 10
41.451172
 20
0.9854189999999999
 30
0.0
 11
41.592102
 21
1.000631
 31
0.0
  0
LINE
  5
7B5
330
1F
100
AcDbEntity
  8
1
  6
CONTINUOUS
370
50
 62
4
100
AcDbLine
 10
54.514027
 20
0.984648
 30
0.0
 11
54.652611
 21
0.999925
 31
0.0
  0
LINE
  5
7B6
330
1F
100
AcDbEntity
  8
1
  6
CONTINUOUS
370
50
 62
4
100
AcDbLine
 10
45.805847
 20
0.985022
 30
0.0
 11
45.94466
 21
1.000369
 31
0.0
  0
LINE
  5
7B7
330
1F
100
AcDbEntity
  8
1
  6
CONTINUOUS
370
50
 62
4
100
AcDbLine
 10
40.194054
 20
-1.000658
 30
0.0
 11
40.332787
 21
-0.985298
 31
0.0
  0
LINE
  5
7B8
330
1F
100
AcDbEntity
  8
1
  6
CONTINUOUS
370
50
 62
4
100
AcDbLine
 10
37.096561
 20
0.9852869999999999
 30
0.0
 11
37.23642
 21
1.000786
 31
0.0
  0
LINE
  5
7B9
330
1F
100
AcDbEntity
  8
1
  6
CONTINUOUS
370
50
 62
4
100
AcDbLine
 10
48.90226
 20
-1.00019
 30
0.0
 11
49.04137799999999
 21
-0.984737
 31
0.0
  0
LINE
  5
7BA
330
1F
100
AcDbEntity
  8
1
  6
CONTINUOUS
370
50
 62
4
100
AcDbLine
 10
35.890224
 20
-0.995293
 30
0.0
 11
35.944397
 21
-0.9891209999999999
 31
0.0
  0
LINE
  5
7BB
330
1F
100
AcDbEntity
  8
1
  6
CONTINUOUS
370
50
 62
4
100
AcDbLine
 10
32.059101
 20
-1.003873
 30
0.0
 11
32.083851
 21
-1.000898
 31
0.0
  0
LINE
  5
7BC
330
1F
100
AcDbEntity
  8
1
  6
CONTINUOUS
370
50
 62
4
100
AcDbLine
 10
32.149746
 20
-0.932087
 30
0.0
 11
32.185757
 21
-0.927651
 31
0.0
  0
LINE
  5
7BD
330
1F
100
AcDbEntity
  8
1
  6
CONTINUOUS
370
50
 62
4
100
AcDbLine
 10
32.489178
 20
0.934067
 30
0.0
 11
32.546299
 21
0.941337
 31
0.0
  0
LINE
  5
7BE
330
1F
100
AcDbEntity
  8
1
  6
CONTINUOUS
370
50
 62
4
100
AcDbLine
 10
32.837215
 20
0.987138
 30
0.0
 11
32.894447
 21
0.994676
 31
0.0
  0
LINE
  5
7BF
330
1F
100
AcDbEntity
  8
1
  6
CONTINUOUS
370
50
 62
4
100
AcDbLine
 10
35.944397
 20
-0.9891209999999999
 30
0.0
 11
35.999134
 21
-0.9814309999999999
 31
0.0
  0
LINE
  5
7C0
330
1F
100
AcDbEntity
  8
1
  6
CONTINUOUS
370
50
 62
4
100
AcDbLine
 10
32.546299
 20
0.941337
 30
0.0
 11
32.604141
 21
0.9497979999999999
 31
0.0
  0
LINE
  5
7C1
330
1F
100
AcDbEntity
  8
1
  6
CONTINUOUS
370
50
 62
4
100
AcDbLine
 10
32.779629
 20
0.9783719999999999
 30
0.0
 11
32.837215
 21
0.987138
 31
0.0
  0
LINE
  5
7C2
330
1F
100
AcDbEntity
  8
1
  6
CONTINUOUS
370
50
 62
4
100
AcDbLine
 10
32.604141
 20
0.9497979999999999
 30
0.0
 11
32.662678
 21
0.959117
 31
0.0
  0
LINE
  5
7C3
330
1F
100
AcDbEntity
  8
1
  6
CONTINUOUS
370
50
 62
4
100
AcDbLine
 10
32.721493
 20
0.968865
 30
0.0
 11
32.779629
 21
0.9783719999999999
 31
0.0
  0
LINE
  5
7C4
330
1F
100
AcDbEntity
  8
1
  6
CONTINUOUS
370
50
 62
4
100
AcDbLine
 10
32.662678
 20
0.959117
 30
0.0
 11
32.721493
 21
0.968865
 31
0.0
  0
LINE
  5
7C5
330
1F
100
AcDbEntity
  8
1
  6
CONTINUOUS
370
50
 62
4
100
AcDbLine
 10
32.116898
 20
-0.93758
 30
0.0
 11
32.149746
 21
-0.932087
 31
0.0
  0
LINE
  5
7C6
330
1F
100
AcDbEntity
  8
1
  6
CONTINUOUS
370
50
 62
4
100
AcDbLine
 10
36.0
 20
-0.982193
 30
0.0
 11
36.089218
 21
-0.9664849999999999
 31
0.0
  0
LINE
  5
7C7
330
1F
100
AcDbEntity
  8
1
  6
CONTINUOUS
370
50
 62
4
100
AcDbLine
 10
32.083851
 20
-1.000898
 30
0.0
 11
32.111614
 21
-0.9960009999999999
 31
0.0
  0
LINE
  5
7C8
330
1F
100
AcDbEntity
  8
1
  6
CONTINUOUS
370
50
 62
4
100
AcDbLine
 10
50.020912
 20
0.960093
 30
0.0
 11
50.161865
 21
0.9851829999999999
 31
0.0
  0
LINE
  5
7C9
330
1F
100
AcDbEntity
  8
1
  6
CONTINUOUS
370
50
 62
4
100
AcDbLine
 10
44.685841
 20
-0.9853489999999999
 30
0.0
 11
44.826725
 21
-0.9601599999999999
 31
0.0
  0
LINE
  5
7CA
330
1F
100
AcDbEntity
  8
1
  6
CONTINUOUS
370
50
 62
4
100
AcDbLine
 10
41.310707
 20
0.9601219999999999
 30
0.0
 11
41.451172
 21
0.9854189999999999
 31
0.0
  0
LINE
  5
7CB
330
1F
100
AcDbEntity
  8
1
  6
CONTINUOUS
370
50
 62
4
100
AcDbLine
 10
53.395844
 20
-0.9848469999999999
 30
0.0
 11
53.535782
 21
-0.959561
 31
0.0
  0
LINE
  5
7CC
330
1F
100
AcDbEntity
  8
1
  6
CONTINUOUS
370
50
 62
4
100
AcDbLine
 10
45.666859
 20
0.9597049999999999
 30
0.0
 11
45.805847
 21
0.985022
 31
0.0
  0
LINE
  5
7CD
330
1F
100
AcDbEntity
  8
1
  6
CONTINUOUS
370
50
 62
4
100
AcDbLine
 10
36.955479
 20
0.959588
 30
0.0
 11
37.096561
 21
0.9852869999999999
 31
0.0
  0
LINE
  5
7CE
330
1F
100
AcDbEntity
  8
1
  6
CONTINUOUS
370
50
 62
4
100
AcDbLine
 10
54.375603
 20
0.9593729999999999
 30
0.0
 11
54.514027
 21
0.984648
 31
0.0
  0
LINE
  5
7CF
330
1F
100
AcDbEntity
  8
1
  6
CONTINUOUS
370
50
 62
4
100
AcDbLine
 10
49.04137799999999
 20
-0.984737
 30
0.0
 11
49.18056499999999
 21
-0.959301
 31
0.0
  0
LINE
  5
7D0
330
1F
100
AcDbEntity
  8
1
  6
CONTINUOUS
370
50
 62
4
100
AcDbLine
 10
40.332787
 20
-0.985298
 30
0.0
 11
40.471733
 21
-0.95985
 31
0.0
  0
LINE
  5
7D1
330
1F
100
AcDbEntity
  8
1
  6
CONTINUOUS
370
50
 62
4
100
AcDbLine
 10
32.086601
 20
-0.944151
 30
0.0
 11
32.116898
 21
-0.93758
 31
0.0
  0
LINE
  5
7D2
330
1F
100
AcDbEntity
  8
1
  6
CONTINUOUS
370
50
 62
4
100
AcDbLine
 10
55.58288599999999
 20
-0.17151
 30
0.0
 11
55.595261
 21
-0.168772
 31
0.0
  0
LINE
  5
7D3
330
1F
100
AcDbEntity
  8
1
  6
CONTINUOUS
370
50
 62
4
100
AcDbLine
 10
36.089218
 20
-0.9664849999999999
 30
0.0
 11
36.179066
 21
-0.946518
 31
0.0
  0
LINE
  5
7D4
330
1F
100
AcDbEntity
  8
1
  6
CONTINUOUS
370
50
 62
4
100
AcDbLine
 10
32.111614
 20
-0.9960009999999999
 30
0.0
 11
32.142284
 21
-0.98907
 31
0.0
  0
LINE
  5
7D5
330
1F
100
AcDbEntity
  8
1
  6
CONTINUOUS
370
50
 62
4
100
AcDbLine
 10
55.28352
 20
0.497892
 30
0.0
 11
55.304562
 21
0.502969
 31
0.0
  0
LINE
  5
7D6
330
1F
100
AcDbEntity
  8
1
  6
CONTINUOUS
370
50
 62
4
100
AcDbLine
 10
36.813938
 20
0.9243509999999999
 30
0.0
 11
36.955479
 21
0.959588
 31
0.0
  0
LINE
  5
7D7
330
1F
100
AcDbEntity
  8
1
  6
CONTINUOUS
370
50
 62
4
100
AcDbLine
 10
45.52719099999999
 20
0.9248649999999999
 30
0.0
 11
45.666859
 21
0.9597049999999999
 31
0.0
  0
LINE
  5
7D8
330
1F
100
AcDbEntity
  8
1
  6
CONTINUOUS
370
50
 62
4
100
AcDbLine
 10
49.18056499999999
 20
-0.959301
 30
0.0
 11
49.320618
 21
-0.9243319999999999
 31
0.0
  0
LINE
  5
7D9
330
1F
100
AcDbEntity
  8
1
  6
CONTINUOUS
370
50
 62
4
100
AcDbLine
 10
40.471733
 20
-0.95985
 30
0.0
 11
40.61189299999999
 21
-0.924742
 31
0.0
  0
LINE
  5
7DA
330
1F
100
AcDbEntity
  8
1
  6
CONTINUOUS
370
50
 62
4
100
AcDbLine
 10
49.881187
 20
0.925022
 30
0.0
 11
50.020912
 21
0.960093
 31
0.0
  0
LINE
  5
7DB
330
1F
100
AcDbEntity
  8
1
  6
CONTINUOUS
370
50
 62
4
100
AcDbLine
 10
54.235825
 20
0.9242849999999999
 30
0.0
 11
54.375603
 21
0.9593729999999999
 31
0.0
  0
LINE
  5
7DC
330
1F
100
AcDbEntity
  8
1
  6
CONTINUOUS
370
50
 62
4
100
AcDbLine
 10
44.826725
 20
-0.9601599999999999
 30
0.0
 11
44.96582799999999
 21
-0.925137
 31
0.0
  0
LINE
  5
7DD
330
1F
100
AcDbEntity
  8
1
  6
CONTINUOUS
370
50
 62
4
100
AcDbLine
 10
41.171528
 20
0.924928
 30
0.0
 11
41.310707
 21
0.9601219999999999
 31
0.0
  0
LINE
  5
7DE
330
1F
100
AcDbEntity
  8
1
  6
CONTINUOUS
370
50
 62
4
100
AcDbLine
 10
53.535782
 20
-0.959561
 30
0.0
 11
53.674763
 21
-0.924376
 31
0.0
  0
LINE
  5
7DF
330
1F
100
AcDbEntity
  8
1
  6
CONTINUOUS
370
50
 62
4
100
AcDbLine
 10
55.304562
 20
0.502969
 30
0.0
 11
55.325089
 21
0.508466
 31
0.0
  0
LINE
  5
7E0
330
1F
100
AcDbEntity
  8
1
  6
CONTINUOUS
370
50
 62
4
100
AcDbLine
 10
36.179066
 20
-0.946518
 30
0.0
 11
36.268635
 21
-0.9224359999999999
 31
0.0
  0
LINE
  5
7E1
330
1F
100
AcDbEntity
  8
1
  6
CONTINUOUS
370
50
 62
4
100
AcDbLine
 10
32.142284
 20
-0.98907
 30
0.0
 11
32.175625
 21
-0.9800059999999999
 31
0.0
  0
LINE
  5
7E2
330
1F
100
AcDbEntity
  8
1
  6
CONTINUOUS
370
50
 62
4
100
AcDbLine
 10
28.700001
 20
-1.5
 30
0.0
 11
30.5
 21
-1.005
 31
0.0
  0
LINE
  5
7E3
330
1F
100
AcDbEntity
  8
1
  6
CONTINUOUS
370
50
 62
4
100
AcDbLine
 10
32.059254
 20
-0.951684
 30
0.0
 11
32.086601
 21
-0.944151
 31
0.0
  0
LINE
  5
7E4
330
1F
100
AcDbEntity
  8
1
  6
CONTINUOUS
370
50
 62
4
100
AcDbLine
 10
55.691742
 20
-0.090942
 30
0.0
 11
55.93447099999999
 21
-0.019333
 31
0.0
  0
LINE
  5
7E5
330
1F
100
AcDbEntity
  8
1
  6
CONTINUOUS
370
50
 62
4
100
AcDbLine
 10
55.325089
 20
0.508466
 30
0.0
 11
55.34507
 21
0.514388
 31
0.0
  0
LINE
  5
7E6
330
1F
100
AcDbEntity
  8
1
  6
CONTINUOUS
370
50
 62
4
100
AcDbLine
 10
49.320618
 20
-0.9243319999999999
 30
0.0
 11
49.461956
 21
-0.8800779999999999
 31
0.0
  0
LINE
  5
7E7
330
1F
100
AcDbEntity
  8
1
  6
CONTINUOUS
370
50
 62
4
100
AcDbLine
 10
45.385841
 20
0.880528
 30
0.0
 11
45.52719099999999
 21
0.9248649999999999
 31
0.0
  0
LINE
  5
7E8
330
1F
100
AcDbEntity
  8
1
  6
CONTINUOUS
370
50
 62
4
100
AcDbLine
 10
36.268635
 20
-0.9224359999999999
 30
0.0
 11
36.357853
 21
-0.894412
 31
0.0
  0
LINE
  5
7E9
330
1F
100
AcDbEntity
  8
1
  6
CONTINUOUS
370
50
 62
4
100
AcDbLine
 10
54.094532
 20
0.879865
 30
0.0
 11
54.235825
 21
0.9242849999999999
 31
0.0
  0
LINE
  5
7EA
330
1F
100
AcDbEntity
  8
1
  6
CONTINUOUS
370
50
 62
4
100
AcDbLine
 10
40.61189299999999
 20
-0.924742
 30
0.0
 11
40.75266999999999
 21
-0.880354
 31
0.0
  0
LINE
  5
7EB
330
1F
100
AcDbEntity
  8
1
  6
CONTINUOUS
370
50
 62
4
100
AcDbLine
 10
32.175625
 20
-0.9800059999999999
 30
0.0
 11
32.211399
 21
-0.9687049999999999
 31
0.0
  0
LINE
  5
7EC
330
1F
100
AcDbEntity
  8
1
  6
CONTINUOUS
370
50
 62
4
100
AcDbLine
 10
36.674362
 20
0.8801599999999999
 30
0.0
 11
36.813938
 21
0.9243509999999999
 31
0.0
  0
LINE
  5
7ED
330
1F
100
AcDbEntity
  8
1
  6
CONTINUOUS
370
50
 62
4
100
AcDbLine
 10
49.741951
 20
0.880385
 30
0.0
 11
49.881187
 21
0.925022
 31
0.0
  0
LINE
  5
7EE
330
1F
100
AcDbEntity
  8
1
  6
CONTINUOUS
370
50
 62
4
100
AcDbLine
 10
41.032883
 20
0.8804299999999999
 30
0.0
 11
41.171528
 21
0.924928
 31
0.0
  0
LINE
  5
7EF
330
1F
100
AcDbEntity
  8
1
  6
CONTINUOUS
370
50
 62
4
100
AcDbLine
 10
53.674763
 20
-0.924376
 30
0.0
 11
53.813885
 21
-0.879698
 31
0.0
  0
LINE
  5
7F0
330
1F
100
AcDbEntity
  8
1
  6
CONTINUOUS
370
50
 62
4
100
AcDbLine
 10
44.96582799999999
 20
-0.925137
 30
0.0
 11
45.104565
 21
-0.880571
 31
0.0
  0
LINE
  5
7F1
330
1F
100
AcDbEntity
  8
1
  6
CONTINUOUS
370
50
 62
4
100
AcDbLine
 10
55.34507
 20
0.514388
 30
0.0
 11
55.364464
 21
0.520751
 31
0.0
  0
LINE
  5
7F2
330
1F
100
AcDbEntity
  8
1
  6
CONTINUOUS
370
50
 62
4
100
AcDbLine
 10
55.595261
 20
-0.168772
 30
0.0
 11
55.607658
 21
-0.164551
 31
0.0
  0
LINE
  5
7F3
330
1F
100
AcDbEntity
  8
1
  6
CONTINUOUS
370
50
 62
4
100
AcDbLine
 10
32.035824
 20
-0.959897
 30
0.0
 11
32.059254
 21
-0.951684
 31
0.0
  0
LINE
  5
7F4
330
1F
100
AcDbEntity
  8
1
  6
CONTINUOUS
370
50
 62
4
100
AcDbLine
 10
36.357853
 20
-0.894412
 30
0.0
 11
36.447075
 21
-0.8625459999999999
 31
0.0
  0
LINE
  5
7F5
330
1F
100
AcDbEntity
  8
1
  6
CONTINUOUS
370
50
 62
4
100
AcDbLine
 10
32.211399
 20
-0.9687049999999999
 30
0.0
 11
32.248997
 21
-0.955201
 31
0.0
  0
LINE
  5
7F6
330
1F
100
AcDbEntity
  8
1
  6
CONTINUOUS
370
50
 62
4
100
AcDbLine
 10
55.364464
 20
0.520751
 30
0.0
 11
55.383236
 21
0.527575
 31
0.0
  0
LINE
  5
7F7
330
1F
100
AcDbEntity
  8
1
  6
CONTINUOUS
370
50
 62
4
100
AcDbLine
 10
53.953236
 20
0.8263999999999999
 30
0.0
 11
54.094532
 21
0.879865
 31
0.0
  0
LINE
  5
7F8
330
1F
100
AcDbEntity
  8
1
  6
CONTINUOUS
370
50
 62
4
100
AcDbLine
 10
40.75266999999999
 20
-0.880354
 30
0.0
 11
40.893242
 21
-0.826997
 31
0.0
  0
LINE
  5
7F9
330
1F
100
AcDbEntity
  8
1
  6
CONTINUOUS
370
50
 62
4
100
AcDbLine
 10
45.244591
 20
0.8267279999999999
 30
0.0
 11
45.385841
 21
0.880528
 31
0.0
  0
LINE
  5
7FA
330
1F
100
AcDbEntity
  8
1
  6
CONTINUOUS
370
50
 62
4
100
AcDbLine
 10
49.461956
 20
-0.8800779999999999
 30
0.0
 11
49.60193599999999
 21
-0.8265939999999999
 31
0.0
  0
LINE
  5
7FB
330
1F
100
AcDbEntity
  8
1
  6
CONTINUOUS
370
50
 62
4
100
AcDbLine
 10
53.813885
 20
-0.879698
 30
0.0
 11
53.953232
 21
-0.8263999999999999
 31
0.0
  0
LINE
  5
7FC
330
1F
100
AcDbEntity
  8
1
  6
CONTINUOUS
370
50
 62
4
100
AcDbLine
 10
40.893341
 20
0.8270419999999999
 30
0.0
 11
41.032883
 21
0.8804299999999999
 31
0.0
  0
LINE
  5
7FD
330
1F
100
AcDbEntity
  8
1
  6
CONTINUOUS
370
50
 62
4
100
AcDbLine
 10
49.60181
 20
0.826645
 30
0.0
 11
49.741951
 21
0.880385
 31
0.0
  0
LINE
  5
7FE
330
1F
100
AcDbEntity
  8
1
  6
CONTINUOUS
370
50
 62
4
100
AcDbLine
 10
45.104565
 20
-0.880571
 30
0.0
 11
45.244576
 21
-0.826735
 31
0.0
  0
LINE
  5
7FF
330
1F
100
AcDbEntity
  8
1
  6
CONTINUOUS
370
50
 62
4
100
AcDbLine
 10
36.536396
 20
0.827062
 30
0.0
 11
36.674362
 21
0.8801599999999999
 31
0.0
  0
LINE
  5
800
330
1F
100
AcDbEntity
  8
1
  6
CONTINUOUS
370
50
 62
4
100
AcDbLine
 10
36.447075
 20
-0.8625459999999999
 30
0.0
 11
36.536396
 21
-0.827062
 31
0.0
  0
LINE
  5
801
330
1F
100
AcDbEntity
  8
1
  6
CONTINUOUS
370
50
 62
4
100
AcDbLine
 10
32.248997
 20
-0.955201
 30
0.0
 11
32.287422
 21
-0.939757
 31
0.0
  0
LINE
  5
802
330
1F
100
AcDbEntity
  8
1
  6
CONTINUOUS
370
50
 62
4
100
AcDbLine
 10
55.383236
 20
0.527575
 30
0.0
 11
55.401619
 21
0.534995
 31
0.0
  0
LINE
  5
803
330
1F
100
AcDbEntity
  8
1
  6
CONTINUOUS
370
50
 62
4
100
AcDbLine
 10
35.999134
 20
0.9814309999999999
 30
0.0
 11
35.999424
 21
0.981551
 31
0.0
  0
LINE
  5
804
330
1F
100
AcDbEntity
  8
1
  6
CONTINUOUS
370
50
 62
4
100
AcDbLine
 10
35.999565
 20
0.9816119999999999
 30
0.0
 11
36.0
 21
0.981792
 31
0.0
  0
LINE
  5
805
330
1F
100
AcDbEntity
  8
1
  6
CONTINUOUS
370
50
 62
4
100
AcDbLine
 10
35.999424
 20
0.981551
 30
0.0
 11
35.999565
 21
0.9816119999999999
 31
0.0
  0
LINE
  5
806
330
1F
100
AcDbEntity
  8
1
  6
CONTINUOUS
370
50
 62
4
100
AcDbLine
 10
32.287422
 20
-0.939757
 30
0.0
 11
32.326351
 21
-0.922466
 31
0.0
  0
LINE
  5
807
330
1F
100
AcDbEntity
  8
1
  6
CONTINUOUS
370
50
 62
4
100
AcDbLine
 10
55.401619
 20
0.534995
 30
0.0
 11
55.419678
 21
0.543121
 31
0.0
  0
LINE
  5
808
330
1F
100
AcDbEntity
  8
1
  6
CONTINUOUS
370
50
 62
4
100
AcDbLine
 10
32.01722
 20
-0.968343
 30
0.0
 11
32.035824
 21
-0.959897
 31
0.0
  0
LINE
  5
809
330
1F
100
AcDbEntity
  8
1
  6
CONTINUOUS
370
50
 62
4
100
AcDbLine
 10
55.607658
 20
-0.164551
 30
0.0
 11
55.62005199999999
 21
-0.158811
 31
0.0
  0
LINE
  5
80A
330
1F
100
AcDbEntity
  8
1
  6
CONTINUOUS
370
50
 62
4
100
AcDbLine
 10
55.522167
 20
-1.005
 30
0.0
 11
55.522324
 21
-1.004924
 31
0.0
  0
LINE
  5
80B
330
1F
100
AcDbEntity
  8
1
  6
CONTINUOUS
370
50
 62
4
100
AcDbLine
 10
55.419678
 20
0.543121
 30
0.0
 11
55.43729
 21
0.551997
 31
0.0
  0
LINE
  5
80C
330
1F
100
AcDbEntity
  8
1
  6
CONTINUOUS
370
50
 62
4
100
AcDbLine
 10
55.522324
 20
-1.004924
 30
0.0
 11
55.522484
 21
-1.004837
 31
0.0
  0
LINE
  5
80D
330
1F
100
AcDbEntity
  8
1
  6
CONTINUOUS
370
50
 62
4
100
AcDbLine
 10
55.43729
 20
0.551997
 30
0.0
 11
55.45433
 21
0.561667
 31
0.0
  0
LINE
  5
80E
330
1F
100
AcDbEntity
  8
1
  6
CONTINUOUS
370
50
 62
4
100
AcDbLine
 10
55.62005199999999
 20
-0.158811
 30
0.0
 11
55.632408
 21
-0.151517
 31
0.0
  0
LINE
  5
80F
330
1F
100
AcDbEntity
  8
1
  6
CONTINUOUS
370
50
 62
4
100
AcDbLine
 10
32.003895
 20
-0.9766159999999999
 30
0.0
 11
32.01722
 21
-0.968343
 31
0.0
  0
LINE
  5
810
330
1F
100
AcDbEntity
  8
1
  6
CONTINUOUS
370
50
 62
4
100
AcDbLine
 10
55.45433
 20
0.561667
 30
0.0
 11
55.470669
 21
0.5721729999999999
 31
0.0
  0
LINE
  5
811
330
1F
100
AcDbEntity
  8
1
  6
CONTINUOUS
370
50
 62
4
100
AcDbLine
 10
55.632408
 20
-0.151517
 30
0.0
 11
55.644695
 21
-0.142633
 31
0.0
  0
LINE
  5
812
330
1F
100
AcDbEntity
  8
1
  6
CONTINUOUS
370
50
 62
4
100
AcDbLine
 10
55.470669
 20
0.5721729999999999
 30
0.0
 11
55.486191
 21
0.58356
 31
0.0
  0
LINE
  5
813
330
1F
100
AcDbEntity
  8
1
  6
CONTINUOUS
370
50
 62
4
100
AcDbLine
 10
55.486191
 20
0.58356
 30
0.0
 11
55.500744
 21
0.595849
 31
0.0
  0
LINE
  5
814
330
1F
100
AcDbEntity
  8
1
  6
CONTINUOUS
370
50
 62
4
100
AcDbLine
 10
55.644695
 20
-0.142633
 30
0.0
 11
55.656868
 21
-0.132132
 31
0.0
  0
LINE
  5
815
330
1F
100
AcDbEntity
  8
1
  6
CONTINUOUS
370
50
 62
4
100
AcDbLine
 10
55.500744
 20
0.595849
 30
0.0
 11
55.51409899999999
 21
0.608951
 31
0.0
  0
LINE
  5
816
330
1F
100
AcDbEntity
  8
1
  6
CONTINUOUS
370
50
 62
4
100
AcDbLine
 10
55.522484
 20
-1.004837
 30
0.0
 11
55.52264
 21
-1.004683
 31
0.0
  0
LINE
  5
817
330
1F
100
AcDbEntity
  8
1
  6
CONTINUOUS
370
50
 62
4
100
AcDbLine
 10
31.995955
 20
-0.984462
 30
0.0
 11
32.003895
 21
-0.9766159999999999
 31
0.0
  0
LINE
  5
818
330
1F
100
AcDbEntity
  8
1
  6
CONTINUOUS
370
50
 62
4
100
AcDbLine
 10
55.656868
 20
-0.132132
 30
0.0
 11
55.668831
 21
-0.120018
 31
0.0
  0
LINE
  5
819
330
1F
100
AcDbEntity
  8
1
  6
CONTINUOUS
370
50
 62
4
100
AcDbLine
 10
55.51409899999999
 20
0.608951
 30
0.0
 11
55.52619199999999
 21
0.62288
 31
0.0
  0
LINE
  5
81A
330
1F
100
AcDbEntity
  8
1
  6
CONTINUOUS
370
50
 62
4
100
AcDbLine
 10
55.668831
 20
-0.120018
 30
0.0
 11
55.680496
 21
-0.106289
 31
0.0
  0
LINE
  5
81B
330
1F
100
AcDbEntity
  8
1
  6
CONTINUOUS
370
50
 62
4
100
AcDbLine
 10
55.680496
 20
-0.106289
 30
0.0
 11
55.691742
 21
-0.090942
 31
0.0
  0
LINE
  5
81C
330
1F
100
AcDbEntity
  8
1
  6
CONTINUOUS
370
50
 62
4
100
AcDbLine
 10
55.52619199999999
 20
0.62288
 30
0.0
 11
55.536972
 21
0.637667
 31
0.0
  0
LINE
  5
81D
330
1F
100
AcDbEntity
  8
1
  6
CONTINUOUS
370
50
 62
4
100
AcDbLine
 10
55.52264
 20
-1.004683
 30
0.0
 11
55.5228
 21
-1.004461
 31
0.0
  0
LINE
  5
81E
330
1F
100
AcDbEntity
  8
1
  6
CONTINUOUS
370
50
 62
4
100
AcDbLine
 10
55.536972
 20
0.637667
 30
0.0
 11
55.546394
 21
0.653341
 31
0.0
  0
LINE
  5
81F
330
1F
100
AcDbEntity
  8
1
  6
CONTINUOUS
370
50
 62
4
100
AcDbLine
 10
55.5228
 20
-1.004461
 30
0.0
 11
55.522961
 21
-1.004171
 31
0.0
  0
LINE
  5
820
330
1F
100
AcDbEntity
  8
1
  6
CONTINUOUS
370
50
 62
4
100
AcDbLine
 10
55.546394
 20
0.653341
 30
0.0
 11
55.554398
 21
0.669893
 31
0.0
  0
LINE
  5
821
330
1F
100
AcDbEntity
  8
1
  6
CONTINUOUS
370
50
 62
4
100
AcDbLine
 10
55.522976
 20
-1.004146
 30
0.0
 11
56.0
 21
0.0
 31
0.0
  0
LINE
  5
822
330
1F
100
AcDbEntity
  8
1
  6
CONTINUOUS
370
50
 62
4
100
AcDbLine
 10
55.522961
 20
-1.004171
 30
0.0
 11
55.523121
 21
-1.003811
 31
0.0
  0
LINE
  5
823
330
1F
100
AcDbEntity
  8
1
  6
CONTINUOUS
370
50
 62
4
100
AcDbLine
 10
55.554398
 20
0.669893
 30
0.0
 11
55.560814
 21
0.6869609999999999
 31
0.0
  0
LINE
  5
824
330
1F
100
AcDbEntity
  8
1
  6
CONTINUOUS
370
50
 62
4
100
AcDbLine
 10
31.993629
 20
-0.991255
 30
0.0
 11
31.995955
 21
-0.984462
 31
0.0
  0
LINE
  5
825
330
1F
100
AcDbEntity
  8
1
  6
CONTINUOUS
370
50
 62
4
100
AcDbLine
 10
55.560814
 20
0.6869609999999999
 30
0.0
 11
55.565693
 21
0.7044199999999999
 31
0.0
  0
LINE
  5
826
330
1F
100
AcDbEntity
  8
1
  6
CONTINUOUS
370
50
 62
4
100
AcDbLine
 10
55.565693
 20
0.7044199999999999
 30
0.0
 11
55.569115
 21
0.7222219999999999
 31
0.0
  0
LINE
  5
827
330
1F
100
AcDbEntity
  8
1
  6
CONTINUOUS
370
50
 62
4
100
AcDbLine
 10
55.569115
 20
0.7222219999999999
 30
0.0
 11
55.571167
 21
0.740323
 31
0.0
  0
LINE
  5
828
330
1F
100
AcDbEntity
  8
1
  6
CONTINUOUS
370
50
 62
4
100
AcDbLine
 10
55.571167
 20
0.740323
 30
0.0
 11
55.571934
 21
0.758676
 31
0.0
  0
LINE
  5
829
330
1F
100
AcDbEntity
  8
1
  6
CONTINUOUS
370
50
 62
4
100
AcDbLine
 10
55.510288
 20
-0.233098
 30
0.0
 11
55.51067399999999
 21
-0.15895
 31
0.0
  0
LINE
  5
82A
330
1F
100
AcDbEntity
  8
1
  6
CONTINUOUS
370
50
 62
4
100
AcDbLine
 10
55.510017
 20
-0.305271
 30
0.0
 11
55.510288
 21
-0.233098
 31
0.0
  0
LINE
  5
82B
330
1F
100
AcDbEntity
  8
1
  6
CONTINUOUS
370
50
 62
4
100
AcDbLine
 10
55.509865
 20
-0.374751
 30
0.0
 11
55.510017
 21
-0.305271
 31
0.0
  0
LINE
  5
82C
330
1F
100
AcDbEntity
  8
1
  6
CONTINUOUS
370
50
 62
4
100
AcDbLine
 10
55.50983
 20
-0.440913
 30
0.0
 11
55.509865
 21
-0.374751
 31
0.0
  0
LINE
  5
82D
330
1F
100
AcDbEntity
  8
1
  6
CONTINUOUS
370
50
 62
4
100
AcDbLine
 10
28.700001
 20
-1.5
 30
0.0
 11
28.700001
 21
1.5
 31
0.0
  0
LINE
  5
82E
330
1F
100
AcDbEntity
  8
1
  6
CONTINUOUS
370
50
 62
4
100
AcDbLine
 10
30.5
 20
-1.005
 30
0.0
 11
30.5
 21
1.005
 31
0.0
  0
LINE
  5
82F
330
1F
100
AcDbEntity
  8
1
  6
CONTINUOUS
370
50
 62
4
100
AcDbLine
 10
32.94952
 20
0.40428
 30
0.0
 11
32.94952
 21
0.441519
 31
0.0
  0
LINE
  5
830
330
1F
100
AcDbEntity
  8
1
  6
CONTINUOUS
370
50
 62
4
100
AcDbLine
 10
32.951523
 20
-1.00367
 30
0.0
 11
32.951523
 21
-1.000496
 31
0.0
  0
LINE
  5
831
330
1F
100
AcDbEntity
  8
1
  6
CONTINUOUS
370
50
 62
4
100
AcDbLine
 10
32.951523
 20
0.419665
 30
0.0
 11
32.951523
 21
0.439059
 31
0.0
  0
LINE
  5
832
330
1F
100
AcDbEntity
  8
1
  6
CONTINUOUS
370
50
 62
4
100
AcDbLine
 10
32.951523
 20
0.439059
 30
0.0
 11
32.951523
 21
0.460209
 31
0.0
  0
LINE
  5
833
330
1F
100
AcDbEntity
  8
1
  6
CONTINUOUS
370
50
 62
4
100
AcDbLine
 10
32.951523
 20
0.460209
 30
0.0
 11
32.951523
 21
0.483064
 31
0.0
  0
LINE
  5
834
330
1F
100
AcDbEntity
  8
1
  6
CONTINUOUS
370
50
 62
4
100
AcDbLine
 10
32.951523
 20
0.483064
 30
0.0
 11
32.951523
 21
0.507481
 31
0.0
  0
LINE
  5
835
330
1F
100
AcDbEntity
  8
1
  6
CONTINUOUS
370
50
 62
4
100
AcDbLine
 10
32.951523
 20
0.507481
 30
0.0
 11
32.951523
 21
0.533374
 31
0.0
  0
LINE
  5
836
330
1F
100
AcDbEntity
  8
1
  6
CONTINUOUS
370
50
 62
4
100
AcDbLine
 10
32.951523
 20
0.533374
 30
0.0
 11
32.951523
 21
0.560677
 31
0.0
  0
LINE
  5
837
330
1F
100
AcDbEntity
  8
1
  6
CONTINUOUS
370
50
 62
4
100
AcDbLine
 10
32.951523
 20
0.560677
 30
0.0
 11
32.951523
 21
0.589325
 31
0.0
  0
LINE
  5
838
330
1F
100
AcDbEntity
  8
1
  6
CONTINUOUS
370
50
 62
4
100
AcDbLine
 10
32.951523
 20
0.589325
 30
0.0
 11
32.951523
 21
0.6192529999999999
 31
0.0
  0
LINE
  5
839
330
1F
100
AcDbEntity
  8
1
  6
CONTINUOUS
370
50
 62
4
100
AcDbLine
 10
32.951523
 20
0.6192529999999999
 30
0.0
 11
32.951523
 21
0.650396
 31
0.0
  0
LINE
  5
83A
330
1F
100
AcDbEntity
  8
1
  6
CONTINUOUS
370
50
 62
4
100
AcDbLine
 10
32.951523
 20
0.650396
 30
0.0
 11
32.951523
 21
0.6826749999999999
 31
0.0
  0
LINE
  5
83B
330
1F
100
AcDbEntity
  8
1
  6
CONTINUOUS
370
50
 62
4
100
AcDbLine
 10
32.951523
 20
0.6826749999999999
 30
0.0
 11
32.951523
 21
0.715888
 31
0.0
  0
LINE
  5
83C
330
1F
100
AcDbEntity
  8
1
  6
CONTINUOUS
370
50
 62
4
100
AcDbLine
 10
32.951523
 20
0.715888
 30
0.0
 11
32.951523
 21
0.7499199999999999
 31
0.0
  0
LINE
  5
83D
330
1F
100
AcDbEntity
  8
1
  6
CONTINUOUS
370
50
 62
4
100
AcDbLine
 10
32.951523
 20
0.7499199999999999
 30
0.0
 11
32.951523
 21
0.78469
 31
0.0
  0
LINE
  5
83E
330
1F
100
AcDbEntity
  8
1
  6
CONTINUOUS
370
50
 62
4
100
AcDbLine
 10
32.951523
 20
0.78469
 30
0.0
 11
32.951523
 21
0.820116
 31
0.0
  0
LINE
  5
83F
330
1F
100
AcDbEntity
  8
1
  6
CONTINUOUS
370
50
 62
4
100
AcDbLine
 10
32.951523
 20
0.820116
 30
0.0
 11
32.951523
 21
0.8561179999999999
 31
0.0
  0
LINE
  5
840
330
1F
100
AcDbEntity
  8
1
  6
CONTINUOUS
370
50
 62
4
100
AcDbLine
 10
32.951523
 20
0.8561179999999999
 30
0.0
 11
32.951523
 21
0.892612
 31
0.0
  0
LINE
  5
841
330
1F
100
AcDbEntity
  8
1
  6
CONTINUOUS
370
50
 62
4
100
AcDbLine
 10
32.951523
 20
0.892612
 30
0.0
 11
32.951523
 21
0.9295049999999999
 31
0.0
  0
LINE
  5
842
330
1F
100
AcDbEntity
  8
1
  6
CONTINUOUS
370
50
 62
4
100
AcDbLine
 10
32.951523
 20
0.9295049999999999
 30
0.0
 11
32.951523
 21
0.966567
 31
0.0
  0
LINE
  5
843
330
1F
100
AcDbEntity
  8
1
  6
CONTINUOUS
370
50
 62
4
100
AcDbLine
 10
32.951523
 20
0.966567
 30
0.0
 11
32.951523
 21
1.00367
 31
0.0
  0
LINE
  5
844
330
1F
100
AcDbEntity
  8
1
  6
CONTINUOUS
370
50
 62
4
100
AcDbLine
 10
35.999134
 20
-0.549258
 30
0.0
 11
35.999134
 21
0.9814309999999999
 31
0.0
  0
LINE
  5
845
330
1F
100
AcDbEntity
  8
1
  6
CONTINUOUS
370
50
 62
4
100
AcDbLine
 10
36.0
 20
-0.982193
 30
0.0
 11
36.0
 21
0.982193
 31
0.0
  0
LINE
  5
846
330
1F
100
AcDbEntity
  8
1
  6
CONTINUOUS
370
50
 62
4
100
AcDbLine
 10
55.531361
 20
0.8654189999999999
 30
0.0
 11
55.531361
 21
0.90767
 31
0.0
  0
LINE
  5
847
330
1F
100
AcDbEntity
  8
CUT
  6
CONTINUOUS
370
25
 62
1
100
AcDbLine
 10
36.0
 20
0.0
 30
0.0
 11
56.0
 21
0.0
 31
0.0
  0
LINE
  5
848
330
1F
100
AcDbEntity
  8
CUT
  6
CONTINUOUS
370
25
 62
1
100
AcDbLine
 10
56.0
 20
0.0
 30
0.0
 11
55.5313608
 21
1.005
 31
0.0
  0
LINE
  5
849
330
1F
100
AcDbEntity
  8
CUT
  6
CONTINUOUS
370
25
 62
1
100
AcDbLine
 10
55.5313608
 20
1.005
 30
0.0
 11
36.0
 21
1.005
 31
0.0
  0
LINE
  5
84A
330
1F
100
AcDbEntity
  8
CUT
  6
CONTINUOUS
370
25
 62
1
100
AcDbLine
 10
36.0
 20
1.005
 30
0.0
 11
36.0
 21
0.0
 31
0.0
  0
LINE
  5
84B
330
1F
100
AcDbEntity
  8
NOCUT
  6
CONTINUOUS
370
25
 62
7
100
AcDbLine
 10
28.7
 20
0.0
 30
0.0
 11
36.0
 21
0.0
 31
0.0
  0
LINE
  5
84C
330
1F
100
AcDbEntity
  8
NOCUT
  6
CONTINUOUS
370
25
 62
7
100
AcDbLine
 10
36.0
 20
0.0
 30
0.0
 11
36.0
 21
1.0055
 31
0.0
  0
LINE
  5
84D
330
1F
100
AcDbEntity
  8
NOCUT
  6
CONTINUOUS
370
25
 62
7
100
AcDbLine
 10
36.0
 20
1.0055
 30
0.0
 11
35.99913397459621
 21
1.005
 31
0.0
  0
LINE
  5
84E
330
1F
100
AcDbEntity
  8
NOCUT
  6
CONTINUOUS
370
25
 62
7
100
AcDbLine
 10
35.99913397459621
 20
1.005
 30
0.0
 11
30.5
 21
1.005
 31
0.0
  0
LINE
  5
84F
330
1F
100
AcDbEntity
  8
NOCUT
  6
CONTINUOUS
370
25
 62
7
100
AcDbLine
 10
30.5
 20
1.005
 30
0.0
 11
28.7
 21
1.5
 31
0.0
  0
LINE
  5
850
330
1F
100
AcDbEntity
  8
NOCUT
  6
CONTINUOUS
370
25
 62
7
100
AcDbLine
 10
28.7
 20
1.5
 30
0.0
 11
28.7
 21
0.0
 31
0.0
  0
LINE
  5
851
330
1F
100
AcDbEntity
  8
NOCUT
  6
CONTINUOUS
370
25
 62
7
100
AcDbLine
 10
36.0
 20
1.005
 30
0.0
 11
36.0
 21
0.0
 31
0.0
  0
LINE
  5
852
330
1F
100
AcDbEntity
  8
NOCUT
  6
CONTINUOUS
370
25
 62
7
100
AcDbLine
 10
36.0
 20
1.005
 30
0.0
 11
36.0
 21
0.0
 31
0.0
  0
LINE
  5
853
330
1F
100
AcDbEntity
  8
SK1
  6
CONTINUOUS
370
50
 62
4
100
AcDbLine
 10
28.7
 20
1.5
 30
0.0
 11
0.3000000000000007
 21
1.5
 31
0.0
  0
LINE
  5
854
330
1F
100
AcDbEntity
  8
SK1
  6
CONTINUOUS
370
50
 62
4
100
AcDbLine
 10
0.3000000000000007
 20
1.5
 30
0.0
 11
0.0
 21
1.2
 31
0.0
  0
LINE
  5
855
330
1F
100
AcDbEntity
  8
SK1
  6
CONTINUOUS
370
50
 62
4
100
AcDbLine
 10
0.0
 20
1.2
 30
0.0
 11
0.0
 21
-1.2
 31
0.0
  0
LINE
  5
856
330
1F
100
AcDbEntity
  8
SK1
  6
CONTINUOUS
370
50
 62
4
100
AcDbLine
 10
0.0
 20
-1.2
 30
0.0
 11
0.3000000000000007
 21
-1.5
 31
0.0
  0
LINE
  5
857
330
1F
100
AcDbEntity
  8
SK1
  6
CONTINUOUS
370
50
 62
4
100
AcDbLine
 10
0.3000000000000007
 20
-1.5
 30
0.0
 11
28.7
 21
-1.5
 31
0.0
  0
LINE
  5
858
330
1F
100
AcDbEntity
  8
SK1
  6
CONTINUOUS
370
50
 62
4
100
AcDbLine
 10
0.3000000000000007
 20
1.5
 30
0.0
 11
0.3000000000000007
 21
-1.5
 31
0.0
  0
LINE
  5
859
330
1F
100
AcDbEntity
  8
SK2
  6
CONTINUOUS
370
25
 62
7
100
AcDbLine
 10
-12.0000002
 20
-1.500001
 30
0.0
 11
-13.00000000000008
 21
-1.500001
 31
0.0
  0
LINE
  5
85A
330
1F
100
AcDbEntity
  8
SK2
  6
CONTINUOUS
370
25
 62
7
100
AcDbLine
 10
0.0
 20
-1.500001
 30
0.0
 11
-11.9999998
 21
-1.500001
 31
0.0
  0
LINE
  5
85B
330
1F
100
AcDbEntity
  8
SK2
  6
CONTINUOUS
370
25
 62
7
100
AcDbLine
 10
-13.0
 20
1.5
 30
0.0
 11
-0.0000000000000036
 21
1.5
 31
0.0
  0
LINE
  5
85C
330
1F
100
AcDbEntity
  8
SK2
  6
CONTINUOUS
370
25
 62
7
100
AcDbLine
 10
-12.0
 20
-8.5
 30
0.0
 11
-12.0
 21
14.975
 31
0.0
  0
LINE
  5
85D
330
1F
100
AcDbEntity
  8
SK2
  6
CONTINUOUS
370
25
 62
7
100
AcDbLine
 10
-12.0
 20
-1.5
 30
0.0
 11
-11.0
 21
-6.5
 31
0.0
  0
LINE
  5
85E
330
1F
100
AcDbEntity
  8
SK2
  6
CONTINUOUS
370
25
 62
7
100
AcDbLine
 10
-11.0
 20
-6.5
 30
0.0
 11
-13.0
 21
-6.5
 31
0.0
  0
LINE
  5
85F
330
1F
100
AcDbEntity
  8
SK2
  6
CONTINUOUS
370
25
 62
7
100
AcDbLine
 10
-13.0
 20
-6.5
 30
0.0
 11
-12.0
 21
-1.5
 31
0.0
  0
LINE
  5
860
330
1F
100
AcDbEntity
  8
SK2
  6
CONTINUOUS
370
25
 62
7
100
AcDbLine
 10
-11.31686142824234
 20
-6.5
 30
0.0
 11
-11.05281023804039
 21
-6.235948809798046
 31
0.0
  0
LINE
  5
861
330
1F
100
AcDbEntity
  8
SK2
  6
CONTINUOUS
370
25
 62
7
100
AcDbLine
 10
-11.74112549695426
 20
-6.5
 30
0.0
 11
-11.12352091615905
 21
-5.882395419204776
 31
0.0
  0
LINE
  5
862
330
1F
100
AcDbEntity
  8
SK2
  6
CONTINUOUS
370
25
 62
7
100
AcDbLine
 10
-12.1653895656662
 20
-6.5
 30
0.0
 11
-11.19423159427771
 21
-5.5288420286115
 31
0.0
  0
LINE
  5
863
330
1F
100
AcDbEntity
  8
SK2
  6
CONTINUOUS
370
25
 62
7
100
AcDbLine
 10
-12.58965363437813
 20
-6.5
 30
0.0
 11
-11.26494227239636
 21
-5.175288638018223
 31
0.0
  0
LINE
  5
864
330
1F
100
AcDbEntity
  8
SK2
  6
CONTINUOUS
370
25
 62
7
100
AcDbLine
 10
-12.99652057422749
 20
-6.482602871137424
 30
0.0
 11
-11.33565295051502
 21
-4.821735247424954
 31
0.0
  0
LINE
  5
865
330
1F
100
AcDbEntity
  8
SK2
  6
CONTINUOUS
370
25
 62
7
100
AcDbLine
 10
-12.89045455704951
 20
-5.952272785247516
 30
0.0
 11
-11.40636362863366
 21
-4.46818185683167
 31
0.0
  0
LINE
  5
866
330
1F
100
AcDbEntity
  8
SK2
  6
CONTINUOUS
370
25
 62
7
100
AcDbLine
 10
-12.78438853987152
 20
-5.421942699357594
 30
0.0
 11
-11.47707430675232
 21
-4.114628466238393
 31
0.0
  0
LINE
  5
867
330
1F
100
AcDbEntity
  8
SK2
  6
CONTINUOUS
370
25
 62
7
100
AcDbLine
 10
-12.67832252269354
 20
-4.891612613467686
 30
0.0
 11
-11.54778498487098
 21
-3.761075075645124
 31
0.0
  0
LINE
  5
868
330
1F
100
AcDbEntity
  8
SK2
  6
CONTINUOUS
370
25
 62
7
100
AcDbLine
 10
-12.57225650551555
 20
-4.361282527577764
 30
0.0
 11
-11.61849566298963
 21
-3.407521685051847
 31
0.0
  0
LINE
  5
869
330
1F
100
AcDbEntity
  8
SK2
  6
CONTINUOUS
370
25
 62
7
100
AcDbLine
 10
-12.46619048833757
 20
-3.830952441687856
 30
0.0
 11
-11.68920634110829
 21
-3.053968294458571
 31
0.0
  0
LINE
  5
86A
330
1F
100
AcDbEntity
  8
SK2
  6
CONTINUOUS
370
25
 62
7
100
AcDbLine
 10
-12.36012447115959
 20
-3.300622355797941
 30
0.0
 11
-11.75991701922694
 21
-2.700414903865287
 31
0.0
  0
LINE
  5
86B
330
1F
100
AcDbEntity
  8
SK2
  6
CONTINUOUS
370
25
 62
7
100
AcDbLine
 10
-12.25405845398161
 20
-2.770292269908033
 30
0.0
 11
-11.83062769734559
 21
-2.346861513272017
 31
0.0
  0
LINE
  5
86C
330
1F
100
AcDbEntity
  8
SK2
  6
CONTINUOUS
370
25
 62
7
100
AcDbLine
 10
-12.14799243680362
 20
-2.239962184018111
 30
0.0
 11
-11.90133837546425
 21
-1.993308122678741
 31
0.0
  0
LINE
  5
86D
330
1F
100
AcDbEntity
  8
SK2
  6
CONTINUOUS
370
25
 62
7
100
AcDbLine
 10
-12.04192641962564
 20
-1.709632098128189
 30
0.0
 11
-11.97204905358291
 21
-1.639754732085464
 31
0.0
  0
LINE
  5
86E
330
1F
100
AcDbEntity
  8
SK2
  6
CONTINUOUS
370
25
 62
7
100
AcDbLine
 10
-12.98974307023217
 20
-6.448715351160821
 30
0.0
 11
-12.93845842139299
 21
-6.5
 31
0.0
  0
LINE
  5
86F
330
1F
100
AcDbEntity
  8
SK2
  6
CONTINUOUS
370
25
 62
7
100
AcDbLine
 10
-12.91903239211351
 20
-6.095161960567545
 30
0.0
 11
-12.51419435268106
 21
-6.5
 31
0.0
  0
LINE
  5
870
330
1F
100
AcDbEntity
  8
SK2
  6
CONTINUOUS
370
25
 62
7
100
AcDbLine
 10
-12.84832171399485
 20
-5.741608569974268
 30
0.0
 11
-12.08993028396912
 21
-6.5
 31
0.0
  0
LINE
  5
871
330
1F
100
AcDbEntity
  8
SK2
  6
CONTINUOUS
370
25
 62
7
100
AcDbLine
 10
-12.7776110358762
 20
-5.388055179380999
 30
0.0
 11
-11.66566621525719
 21
-6.5
 31
0.0
  0
LINE
  5
872
330
1F
100
AcDbEntity
  8
SK2
  6
CONTINUOUS
370
25
 62
7
100
AcDbLine
 10
-12.70690035775754
 20
-5.034501788787722
 30
0.0
 11
-11.24140214654526
 21
-6.5
 31
0.0
  0
LINE
  5
873
330
1F
100
AcDbEntity
  8
SK2
  6
CONTINUOUS
370
25
 62
7
100
AcDbLine
 10
-12.63618967963889
 20
-4.680948398194445
 30
0.0
 11
-11.04571548054167
 21
-6.271422597291661
 31
0.0
  0
LINE
  5
874
330
1F
100
AcDbEntity
  8
SK2
  6
CONTINUOUS
370
25
 62
7
100
AcDbLine
 10
-12.56547900152023
 20
-4.327395007601162
 30
0.0
 11
-11.15178149771965
 21
-5.741092511401746
 31
0.0
  0
LINE
  5
875
330
1F
100
AcDbEntity
  8
SK2
  6
CONTINUOUS
370
25
 62
7
100
AcDbLine
 10
-12.49476832340158
 20
-3.973841617007885
 30
0.0
 11
-11.25784751489763
 21
-5.210762425511838
 31
0.0
  0
LINE
  5
876
330
1F
100
AcDbEntity
  8
SK2
  6
CONTINUOUS
370
25
 62
7
100
AcDbLine
 10
-12.42405764528293
 20
-3.620288226414608
 30
0.0
 11
-11.36391353207562
 21
-4.680432339621916
 31
0.0
  0
LINE
  5
877
330
1F
100
AcDbEntity
  8
SK2
  6
CONTINUOUS
370
25
 62
7
100
AcDbLine
 10
-12.35334696716427
 20
-3.266734835821339
 30
0.0
 11
-11.4699795492536
 21
-4.150102253732001
 31
0.0
  0
LINE
  5
878
330
1F
100
AcDbEntity
  8
SK2
  6
CONTINUOUS
370
25
 62
7
100
AcDbLine
 10
-12.28263628904561
 20
-2.913181445228069
 30
0.0
 11
-11.57604556643158
 21
-3.619772167842093
 31
0.0
  0
LINE
  5
879
330
1F
100
AcDbEntity
  8
SK2
  6
CONTINUOUS
370
25
 62
7
100
AcDbLine
 10
-12.21192561092695
 20
-2.559628054634793
 30
0.0
 11
-11.68211158360957
 21
-3.089442081952171
 31
0.0
  0
LINE
  5
87A
330
1F
100
AcDbEntity
  8
SK2
  6
CONTINUOUS
370
25
 62
7
100
AcDbLine
 10
-12.14121493280831
 20
-2.206074664041509
 30
0.0
 11
-11.78817760078755
 21
-2.559111996062271
 31
0.0
  0
LINE
  5
87B
330
1F
100
AcDbEntity
  8
SK2
  6
CONTINUOUS
370
25
 62
7
100
AcDbLine
 10
-12.07050425468966
 20
-1.852521273448225
 30
0.0
 11
-11.89424361796553
 21
-2.028781910172356
 31
0.0
  0
LINE
  5
87C
330
1F
100
AcDbEntity
  8
SK2
  6
CONTINUOUS
370
25
 62
7
100
AcDbLine
 10
-12.0
 20
1.5
 30
0.0
 11
-13.0
 21
6.5
 31
0.0
  0
LINE
  5
87D
330
1F
100
AcDbEntity
  8
SK2
  6
CONTINUOUS
370
25
 62
7
100
AcDbLine
 10
-13.0
 20
6.5
 30
0.0
 11
-11.0
 21
6.5
 31
0.0
  0
LINE
  5
87E
330
1F
100
AcDbEntity
  8
SK2
  6
CONTINUOUS
370
25
 62
7
100
AcDbLine
 10
-11.0
 20
6.5
 30
0.0
 11
-12.0
 21
1.5
 31
0.0
  0
LINE
  5
87F
330
1F
100
AcDbEntity
  8
SK2
  6
CONTINUOUS
370
25
 62
7
100
AcDbLine
 10
-12.03773447853214
 20
1.688672392660692
 30
0.0
 11
-11.94339828220179
 21
1.783008588991038
 31
0.0
  0
LINE
  5
880
330
1F
100
AcDbEntity
  8
SK2
  6
CONTINUOUS
370
25
 62
7
100
AcDbLine
 10
-12.1084451566508
 20
2.042225783253969
 30
0.0
 11
-11.83733226502381
 21
2.31333867488096
 31
0.0
  0
LINE
  5
881
330
1F
100
AcDbEntity
  8
SK2
  6
CONTINUOUS
370
25
 62
7
100
AcDbLine
 10
-12.17915583476945
 20
2.395779173847245
 30
0.0
 11
-11.73126624784583
 21
2.843668760770868
 31
0.0
  0
LINE
  5
882
330
1F
100
AcDbEntity
  8
SK2
  6
CONTINUOUS
370
25
 62
7
100
AcDbLine
 10
-12.2498665128881
 20
2.749332564440529
 30
0.0
 11
-11.62520023066785
 21
3.373998846660783
 31
0.0
  0
LINE
  5
883
330
1F
100
AcDbEntity
  8
SK2
  6
CONTINUOUS
370
25
 62
7
100
AcDbLine
 10
-12.32057719100676
 20
3.102885955033798
 30
0.0
 11
-11.51913421348987
 21
3.90432893255069
 31
0.0
  0
LINE
  5
884
330
1F
100
AcDbEntity
  8
SK2
  6
CONTINUOUS
370
25
 62
7
100
AcDbLine
 10
-12.39128786912542
 20
3.456439345627075
 30
0.0
 11
-11.41306819631188
 21
4.434659018440612
 31
0.0
  0
LINE
  5
885
330
1F
100
AcDbEntity
  8
SK2
  6
CONTINUOUS
370
25
 62
7
100
AcDbLine
 10
-12.46199854724407
 20
3.809992736220352
 30
0.0
 11
-11.3070021791339
 21
4.96498910433052
 31
0.0
  0
LINE
  5
886
330
1F
100
AcDbEntity
  8
SK2
  6
CONTINUOUS
370
25
 62
7
100
AcDbLine
 10
-12.53270922536273
 20
4.163546126813621
 30
0.0
 11
-11.20093616195591
 21
5.495319190220435
 31
0.0
  0
LINE
  5
887
330
1F
100
AcDbEntity
  8
SK2
  6
CONTINUOUS
370
25
 62
7
100
AcDbLine
 10
-12.60341990348138
 20
4.517099517406891
 30
0.0
 11
-11.09487014477793
 21
6.025649276110343
 31
0.0
  0
LINE
  5
888
330
1F
100
AcDbEntity
  8
SK2
  6
CONTINUOUS
370
25
 62
7
100
AcDbLine
 10
-12.67413058160004
 20
4.870652908000167
 30
0.0
 11
-11.04478348960021
 21
6.5
 31
0.0
  0
LINE
  5
889
330
1F
100
AcDbEntity
  8
SK2
  6
CONTINUOUS
370
25
 62
7
100
AcDbLine
 10
-12.74484125971869
 20
5.224206298593451
 30
0.0
 11
-11.46904755831214
 21
6.5
 31
0.0
  0
LINE
  5
88A
330
1F
100
AcDbEntity
  8
SK2
  6
CONTINUOUS
370
25
 62
7
100
AcDbLine
 10
-12.81555193783734
 20
5.577759689186735
 30
0.0
 11
-11.89331162702407
 21
6.5
 31
0.0
  0
LINE
  5
88B
330
1F
100
AcDbEntity
  8
SK2
  6
CONTINUOUS
370
25
 62
7
100
AcDbLine
 10
-12.886262615956
 20
5.931313079780011
 30
0.0
 11
-12.31757569573601
 21
6.5
 31
0.0
  0
LINE
  5
88C
330
1F
100
AcDbEntity
  8
SK2
  6
CONTINUOUS
370
25
 62
7
100
AcDbLine
 10
-12.95697329407466
 20
6.284866470373281
 30
0.0
 11
-12.74183976444794
 21
6.5
 31
0.0
  0
LINE
  5
88D
330
1F
100
AcDbEntity
  8
SK2
  6
CONTINUOUS
370
25
 62
7
100
AcDbLine
 10
-12.06832911980403
 20
1.841645599020183
 30
0.0
 11
-11.95444725346398
 21
1.727763732680131
 31
0.0
  0
LINE
  5
88E
330
1F
100
AcDbEntity
  8
SK2
  6
CONTINUOUS
370
25
 62
7
100
AcDbLine
 10
-12.17439513698202
 20
2.371975684910105
 30
0.0
 11
-11.88373657534532
 21
2.081317123273408
 31
0.0
  0
LINE
  5
88F
330
1F
100
AcDbEntity
  8
SK2
  6
CONTINUOUS
370
25
 62
7
100
AcDbLine
 10
-12.28046115416
 20
2.902305770800027
 30
0.0
 11
-11.81302589722666
 21
2.434870513866684
 31
0.0
  0
LINE
  5
890
330
1F
100
AcDbEntity
  8
SK2
  6
CONTINUOUS
370
25
 62
7
100
AcDbLine
 10
-12.38652717133798
 20
3.432635856689934
 30
0.0
 11
-11.74231521910801
 21
2.788423904459961
 31
0.0
  0
LINE
  5
891
330
1F
100
AcDbEntity
  8
SK2
  6
CONTINUOUS
370
25
 62
7
100
AcDbLine
 10
-12.49259318851596
 20
3.962965942579849
 30
0.0
 11
-11.67160454098935
 21
3.141977295053238
 31
0.0
  0
LINE
  5
892
330
1F
100
AcDbEntity
  8
SK2
  6
CONTINUOUS
370
25
 62
7
100
AcDbLine
 10
-12.59865920569395
 20
4.493296028469764
 30
0.0
 11
-11.6008938628707
 21
3.495530685646507
 31
0.0
  0
LINE
  5
893
330
1F
100
AcDbEntity
  8
SK2
  6
CONTINUOUS
370
25
 62
7
100
AcDbLine
 10
-12.70472522287193
 20
5.023626114359679
 30
0.0
 11
-11.53018318475204
 21
3.849084076239791
 31
0.0
  0
LINE
  5
894
330
1F
100
AcDbEntity
  8
SK2
  6
CONTINUOUS
370
25
 62
7
100
AcDbLine
 10
-12.81079124004992
 20
5.553956200249594
 30
0.0
 11
-11.45947250663339
 21
4.20263746683306
 31
0.0
  0
LINE
  5
895
330
1F
100
AcDbEntity
  8
SK2
  6
CONTINUOUS
370
25
 62
7
100
AcDbLine
 10
-12.9168572572279
 20
6.084286286139509
 30
0.0
 11
-11.38876182851473
 21
4.556190857426344
 31
0.0
  0
LINE
  5
896
330
1F
100
AcDbEntity
  8
SK2
  6
CONTINUOUS
370
25
 62
7
100
AcDbLine
 10
-12.90830690237646
 20
6.5
 30
0.0
 11
-11.31805115039608
 21
4.909744248019614
 31
0.0
  0
LINE
  5
897
330
1F
100
AcDbEntity
  8
SK2
  6
CONTINUOUS
370
25
 62
7
100
AcDbLine
 10
-12.48404283366453
 20
6.5
 30
0.0
 11
-11.24734047227742
 21
5.26329763861289
 31
0.0
  0
LINE
  5
898
330
1F
100
AcDbEntity
  8
SK2
  6
CONTINUOUS
370
25
 62
7
100
AcDbLine
 10
-12.0597787649526
 20
6.5
 30
0.0
 11
-11.17662979415876
 21
5.61685102920616
 31
0.0
  0
LINE
  5
899
330
1F
100
AcDbEntity
  8
SK2
  6
CONTINUOUS
370
25
 62
7
100
AcDbLine
 10
-11.63551469624067
 20
6.5
 30
0.0
 11
-11.10591911604011
 21
5.970404419799443
 31
0.0
  0
LINE
  5
89A
330
1F
100
AcDbEntity
  8
SK2
  6
CONTINUOUS
370
25
 62
7
100
AcDbLine
 10
-11.21125062752874
 20
6.5
 30
0.0
 11
-11.03520843792146
 21
6.32395781039272
 31
0.0
  0
TEXT
  5
89B
330
1F
100
AcDbEntity
  8
SK2
  6
CONTINUOUS
370
25
 62
7
100
AcDbText
 10
-13.5
 20
11.84583333333333
 30
0.0
 40
3.5
  1
3
 50
90.00000000000001
 72
     1
 11
-13.5
 21
13.0125
 31
0.0
100
AcDbText
  0
CIRCLE
  5
89C
330
1F
100
AcDbEntity
  8
SK2
  6
CONTINUOUS
370
25
 62
7
100
AcDbCircle
 10
-15.25
 20
9.6875
 30
0.0
 40
1.4
  0
LINE
  5
89D
330
1F
100
AcDbEntity
  8
SK2
  6
CONTINUOUS
370
25
 62
7
100
AcDbLine
 10
-13.85
 20
8.287500000000001
 30
0.0
 11
-16.65
 21
11.0875
 31
0.0
  0
LINE
  5
89E
330
1F
100
AcDbEntity
  8
SK2
  6
CONTINUOUS
370
25
 62
7
100
AcDbLine
 10
0.0
 20
1.5
 30
0.0
 11
0.0
 21
14.50001
 31
0.0
  0
LINE
  5
89F
330
1F
100
AcDbEntity
  8
SK2
  6
CONTINUOUS
370
25
 62
7
100
AcDbLine
 10
28.7
 20
14.50001
 30
0.0
 11
28.7
 21
1.5
 31
0.0
  0
LINE
  5
8A0
330
1F
100
AcDbEntity
  8
SK2
  6
CONTINUOUS
370
25
 62
7
100
AcDbLine
 10
0.0
 20
13.50001
 30
0.0
 11
28.7
 21
13.50001
 31
0.0
  0
LINE
  5
8A1
330
1F
100
AcDbEntity
  8
SK2
  6
CONTINUOUS
370
25
 62
7
100
AcDbLine
 10
0.0
 20
13.50001
 30
0.0
 11
5.0
 21
14.50001
 31
0.0
  0
LINE
  5
8A2
330
1F
100
AcDbEntity
  8
SK2
  6
CONTINUOUS
370
25
 62
7
100
AcDbLine
 10
5.0
 20
14.50001
 30
0.0
 11
5.0
 21
12.50001
 31
0.0
  0
LINE
  5
8A3
330
1F
100
AcDbEntity
  8
SK2
  6
CONTINUOUS
370
25
 62
7
100
AcDbLine
 10
5.0
 20
12.50001
 30
0.0
 11
0.0
 21
13.50001
 31
0.0
  0
LINE
  5
8A4
330
1F
100
AcDbEntity
  8
SK2
  6
CONTINUOUS
370
25
 62
7
100
AcDbLine
 10
4.761083408978468
 20
12.54779331820431
 30
0.0
 11
5.0
 21
12.78670990922584
 31
0.0
  0
LINE
  5
8A5
330
1F
100
AcDbEntity
  8
SK2
  6
CONTINUOUS
370
25
 62
7
100
AcDbLine
 10
4.407530018385195
 20
12.61850399632296
 30
0.0
 11
5.0
 21
13.21097397793777
 31
0.0
  0
LINE
  5
8A6
330
1F
100
AcDbEntity
  8
SK2
  6
CONTINUOUS
370
25
 62
7
100
AcDbLine
 10
4.053976627791922
 20
12.68921467444162
 30
0.0
 11
5.0
 21
13.63523804664969
 31
0.0
  0
LINE
  5
8A7
330
1F
100
AcDbEntity
  8
SK2
  6
CONTINUOUS
370
25
 62
7
100
AcDbLine
 10
3.700423237198649
 20
12.75992535256027
 30
0.0
 11
5.0
 21
14.05950211536162
 31
0.0
  0
LINE
  5
8A8
330
1F
100
AcDbEntity
  8
SK2
  6
CONTINUOUS
370
25
 62
7
100
AcDbLine
 10
3.346869846605376
 20
12.83063603067892
 30
0.0
 11
5.0
 21
14.48376618407354
 31
0.0
  0
LINE
  5
8A9
330
1F
100
AcDbEntity
  8
SK2
  6
CONTINUOUS
370
25
 62
7
100
AcDbLine
 10
2.993316456012103
 20
12.90134670879758
 30
0.0
 11
4.489974684018154
 21
14.39800493680363
 31
0.0
  0
LINE
  5
8AA
330
1F
100
AcDbEntity
  8
SK2
  6
CONTINUOUS
370
25
 62
7
100
AcDbLine
 10
2.63976306541883
 20
12.97205738691623
 30
0.0
 11
3.959644598128246
 21
14.29193891962565
 31
0.0
  0
LINE
  5
8AB
330
1F
100
AcDbEntity
  8
SK2
  6
CONTINUOUS
370
25
 62
7
100
AcDbLine
 10
2.286209674825557
 20
13.04276806503489
 30
0.0
 11
3.429314512238335
 21
14.18587290244767
 31
0.0
  0
LINE
  5
8AC
330
1F
100
AcDbEntity
  8
SK2
  6
CONTINUOUS
370
25
 62
7
100
AcDbLine
 10
1.932656284232284
 20
13.11347874315354
 30
0.0
 11
2.898984426348427
 21
14.07980688526969
 31
0.0
  0
LINE
  5
8AD
330
1F
100
AcDbEntity
  8
SK2
  6
CONTINUOUS
370
25
 62
7
100
AcDbLine
 10
1.579102893639011
 20
13.1841894212722
 30
0.0
 11
2.368654340458516
 21
13.9737408680917
 31
0.0
  0
LINE
  5
8AE
330
1F
100
AcDbEntity
  8
SK2
  6
CONTINUOUS
370
25
 62
7
100
AcDbLine
 10
1.225549503045738
 20
13.25490009939085
 30
0.0
 11
1.838324254568608
 21
13.86767485091372
 31
0.0
  0
LINE
  5
8AF
330
1F
100
AcDbEntity
  8
SK2
  6
CONTINUOUS
370
25
 62
7
100
AcDbLine
 10
0.8719961124524644
 20
13.32561077750951
 30
0.0
 11
1.307994168678697
 21
13.76160883373574
 31
0.0
  0
LINE
  5
8B0
330
1F
100
AcDbEntity
  8
SK2
  6
CONTINUOUS
370
25
 62
7
100
AcDbLine
 10
0.5184427218591914
 20
13.39632145562816
 30
0.0
 11
0.7776640827887888
 21
13.65554281655776
 31
0.0
  0
LINE
  5
8B1
330
1F
100
AcDbEntity
  8
SK2
  6
CONTINUOUS
370
25
 62
7
100
AcDbLine
 10
0.1648893312659183
 20
13.46703213374682
 30
0.0
 11
0.2473339968988775
 21
13.54947679937978
 31
0.0
  0
LINE
  5
8B2
330
1F
100
AcDbEntity
  8
SK2
  6
CONTINUOUS
370
25
 62
7
100
AcDbLine
 10
0.0752288021969605
 20
13.51505576043939
 30
0.0
 11
0.1128432032954372
 21
13.47744135934091
 31
0.0
  0
LINE
  5
8B3
330
1F
100
AcDbEntity
  8
SK2
  6
CONTINUOUS
370
25
 62
7
100
AcDbLine
 10
0.42878219279023
 20
13.58576643855805
 30
0.0
 11
0.6431732891853486
 21
13.37137534216293
 31
0.0
  0
LINE
  5
8B4
330
1F
100
AcDbEntity
  8
SK2
  6
CONTINUOUS
370
25
 62
7
100
AcDbLine
 10
0.7823355833835031
 20
13.6564771166767
 30
0.0
 11
1.173503375075256
 21
13.26530932498495
 31
0.0
  0
LINE
  5
8B5
330
1F
100
AcDbEntity
  8
SK2
  6
CONTINUOUS
370
25
 62
7
100
AcDbLine
 10
1.135888973976776
 20
13.72718779479536
 30
0.0
 11
1.703833460965164
 21
13.15924330780697
 31
0.0
  0
LINE
  5
8B6
330
1F
100
AcDbEntity
  8
SK2
  6
CONTINUOUS
370
25
 62
7
100
AcDbLine
 10
1.489442364570049
 20
13.79789847291401
 30
0.0
 11
2.234163546855076
 21
13.05317729062898
 31
0.0
  0
LINE
  5
8B7
330
1F
100
AcDbEntity
  8
SK2
  6
CONTINUOUS
370
25
 62
7
100
AcDbLine
 10
1.842995755163322
 20
13.86860915103266
 30
0.0
 11
2.764493632744983
 21
12.947111273451
 31
0.0
  0
LINE
  5
8B8
330
1F
100
AcDbEntity
  8
SK2
  6
CONTINUOUS
370
25
 62
7
100
AcDbLine
 10
2.196549145756595
 20
13.93931982915132
 30
0.0
 11
3.294823718634891
 21
12.84104525627302
 31
0.0
  0
LINE
  5
8B9
330
1F
100
AcDbEntity
  8
SK2
  6
CONTINUOUS
370
25
 62
7
100
AcDbLine
 10
2.550102536349868
 20
14.01003050726997
 30
0.0
 11
3.825153804524803
 21
12.73497923909504
 31
0.0
  0
LINE
  5
8BA
330
1F
100
AcDbEntity
  8
SK2
  6
CONTINUOUS
370
25
 62
7
100
AcDbLine
 10
2.903655926943141
 20
14.08074118538863
 30
0.0
 11
4.35548389041471
 21
12.62891322191706
 31
0.0
  0
LINE
  5
8BB
330
1F
100
AcDbEntity
  8
SK2
  6
CONTINUOUS
370
25
 62
7
100
AcDbLine
 10
3.257209317536415
 20
14.15145186350728
 30
0.0
 11
4.885813976304618
 21
12.52284720473908
 31
0.0
  0
LINE
  5
8BC
330
1F
100
AcDbEntity
  8
SK2
  6
CONTINUOUS
370
25
 62
7
100
AcDbLine
 10
3.610762708129688
 20
14.22216254162594
 30
0.0
 11
5.0
 21
12.83292524975562
 31
0.0
  0
LINE
  5
8BD
330
1F
100
AcDbEntity
  8
SK2
  6
CONTINUOUS
370
25
 62
7
100
AcDbLine
 10
3.964316098722961
 20
14.29287321974459
 30
0.0
 11
5.0
 21
13.25718931846755
 31
0.0
  0
LINE
  5
8BE
330
1F
100
AcDbEntity
  8
SK2
  6
CONTINUOUS
370
25
 62
7
100
AcDbLine
 10
4.317869489316234
 20
14.36358389786325
 30
0.0
 11
5.0
 21
13.68145338717948
 31
0.0
  0
LINE
  5
8BF
330
1F
100
AcDbEntity
  8
SK2
  6
CONTINUOUS
370
25
 62
7
100
AcDbLine
 10
4.67142287990951
 20
14.4342945759819
 30
0.0
 11
5.0
 21
14.10571745589141
 31
0.0
  0
LINE
  5
8C0
330
1F
100
AcDbEntity
  8
SK2
  6
CONTINUOUS
370
25
 62
7
100
AcDbLine
 10
28.7
 20
13.50001
 30
0.0
 11
23.7
 21
12.50001
 31
0.0
  0
LINE
  5
8C1
330
1F
100
AcDbEntity
  8
SK2
  6
CONTINUOUS
370
25
 62
7
100
AcDbLine
 10
23.7
 20
12.50001
 30
0.0
 11
23.7
 21
14.50001
 31
0.0
  0
LINE
  5
8C2
330
1F
100
AcDbEntity
  8
SK2
  6
CONTINUOUS
370
25
 62
7
100
AcDbLine
 10
23.7
 20
14.50001
 30
0.0
 11
28.7
 21
13.50001
 31
0.0
  0
LINE
  5
8C3
330
1F
100
AcDbEntity
  8
SK2
  6
CONTINUOUS
370
25
 62
7
100
AcDbLine
 10
28.60444975152286
 20
13.48089995030457
 30
0.0
 11
28.63629983434857
 21
13.51275003313028
 31
0.0
  0
LINE
  5
8C4
330
1F
100
AcDbEntity
  8
SK2
  6
CONTINUOUS
370
25
 62
7
100
AcDbLine
 10
28.07411966563295
 20
13.37483393312659
 30
0.0
 11
28.2827464437553
 21
13.58346071124894
 31
0.0
  0
LINE
  5
8C5
330
1F
100
AcDbEntity
  8
SK2
  6
CONTINUOUS
370
25
 62
7
100
AcDbLine
 10
27.54378957974304
 20
13.26876791594861
 30
0.0
 11
27.92919305316203
 21
13.65417138936759
 31
0.0
  0
LINE
  5
8C6
330
1F
100
AcDbEntity
  8
SK2
  6
CONTINUOUS
370
25
 62
7
100
AcDbLine
 10
27.01345949385313
 20
13.16270189877063
 30
0.0
 11
27.57563966256875
 21
13.72488206748625
 31
0.0
  0
LINE
  5
8C7
330
1F
100
AcDbEntity
  8
SK2
  6
CONTINUOUS
370
25
 62
7
100
AcDbLine
 10
26.48312940796322
 20
13.05663588159264
 30
0.0
 11
27.22208627197548
 21
13.7955927456049
 31
0.0
  0
LINE
  5
8C8
330
1F
100
AcDbEntity
  8
SK2
  6
CONTINUOUS
370
25
 62
7
100
AcDbLine
 10
25.95279932207331
 20
12.95056986441466
 30
0.0
 11
26.86853288138221
 21
13.86630342372356
 31
0.0
  0
LINE
  5
8C9
330
1F
100
AcDbEntity
  8
SK2
  6
CONTINUOUS
370
25
 62
7
100
AcDbLine
 10
25.4224692361834
 20
12.84450384723668
 30
0.0
 11
26.51497949078893
 21
13.93701410184221
 31
0.0
  0
LINE
  5
8CA
330
1F
100
AcDbEntity
  8
SK2
  6
CONTINUOUS
370
25
 62
7
100
AcDbLine
 10
24.89213915029349
 20
12.7384378300587
 30
0.0
 11
26.16142610019566
 21
14.00772477996087
 31
0.0
  0
LINE
  5
8CB
330
1F
100
AcDbEntity
  8
SK2
  6
CONTINUOUS
370
25
 62
7
100
AcDbLine
 10
24.36180906440358
 20
12.63237181288072
 30
0.0
 11
25.80787270960239
 21
14.07843545807952
 31
0.0
  0
LINE
  5
8CC
330
1F
100
AcDbEntity
  8
SK2
  6
CONTINUOUS
370
25
 62
7
100
AcDbLine
 10
23.83147897851367
 20
12.52630579570273
 30
0.0
 11
25.45431931900912
 21
14.14914613619818
 31
0.0
  0
LINE
  5
8CD
330
1F
100
AcDbEntity
  8
SK2
  6
CONTINUOUS
370
25
 62
7
100
AcDbLine
 10
23.7
 20
12.81909088590099
 30
0.0
 11
25.10076592841584
 21
14.21985681431683
 31
0.0
  0
LINE
  5
8CE
330
1F
100
AcDbEntity
  8
SK2
  6
CONTINUOUS
370
25
 62
7
100
AcDbLine
 10
23.7
 20
13.24335495461292
 30
0.0
 11
24.74721253782257
 21
14.29056749243549
 31
0.0
  0
LINE
  5
8CF
330
1F
100
AcDbEntity
  8
SK2
  6
CONTINUOUS
370
25
 62
7
100
AcDbLine
 10
23.7
 20
13.66761902332484
 30
0.0
 11
24.39365914722929
 21
14.36127817055414
 31
0.0
  0
LINE
  5
8D0
330
1F
100
AcDbEntity
  8
SK2
  6
CONTINUOUS
370
25
 62
7
100
AcDbLine
 10
23.7
 20
14.09188309203677
 30
0.0
 11
24.04010575663602
 21
14.43198884867279
 31
0.0
  0
LINE
  5
8D1
330
1F
100
AcDbEntity
  8
SK2
  6
CONTINUOUS
370
25
 62
7
100
AcDbLine
 10
23.7
 20
12.63675323681471
 30
0.0
 11
23.81395269734559
 21
12.52280053946912
 31
0.0
  0
LINE
  5
8D2
330
1F
100
AcDbEntity
  8
SK2
  6
CONTINUOUS
370
25
 62
7
100
AcDbLine
 10
23.7
 20
13.06101730552664
 30
0.0
 11
24.16750608793887
 21
12.59351121758777
 31
0.0
  0
LINE
  5
8D3
330
1F
100
AcDbEntity
  8
SK2
  6
CONTINUOUS
370
25
 62
7
100
AcDbLine
 10
23.7
 20
13.48528137423857
 30
0.0
 11
24.52105947853214
 21
12.66422189570643
 31
0.0
  0
LINE
  5
8D4
330
1F
100
AcDbEntity
  8
SK2
  6
CONTINUOUS
370
25
 62
7
100
AcDbLine
 10
23.7
 20
13.9095454429505
 30
0.0
 11
24.87461286912541
 21
12.73493257382508
 31
0.0
  0
LINE
  5
8D5
330
1F
100
AcDbEntity
  8
SK2
  6
CONTINUOUS
370
25
 62
7
100
AcDbLine
 10
23.7
 20
14.33380951166242
 30
0.0
 11
25.22816625971869
 21
12.80564325194374
 31
0.0
  0
LINE
  5
8D6
330
1F
100
AcDbEntity
  8
SK2
  6
CONTINUOUS
370
25
 62
7
100
AcDbLine
 10
24.02257947546794
 20
14.43549410490641
 30
0.0
 11
25.58171965031196
 21
12.87635393006239
 31
0.0
  0
LINE
  5
8D7
330
1F
100
AcDbEntity
  8
SK2
  6
CONTINUOUS
370
25
 62
7
100
AcDbLine
 10
24.55290956135785
 20
14.32942808772843
 30
0.0
 11
25.93527304090523
 21
12.94706460818105
 31
0.0
  0
LINE
  5
8D8
330
1F
100
AcDbEntity
  8
SK2
  6
CONTINUOUS
370
25
 62
7
100
AcDbLine
 10
25.08323964724776
 20
14.22336207055045
 30
0.0
 11
26.28882643149851
 21
13.0177752862997
 31
0.0
  0
LINE
  5
8D9
330
1F
100
AcDbEntity
  8
SK2
  6
CONTINUOUS
370
25
 62
7
100
AcDbLine
 10
25.61356973313767
 20
14.11729605337247
 30
0.0
 11
26.64237982209178
 21
13.08848596441836
 31
0.0
  0
LINE
  5
8DA
330
1F
100
AcDbEntity
  8
SK2
  6
CONTINUOUS
370
25
 62
7
100
AcDbLine
 10
26.14389981902758
 20
14.01123003619448
 30
0.0
 11
26.99593321268506
 21
13.15919664253701
 31
0.0
  0
LINE
  5
8DB
330
1F
100
AcDbEntity
  8
SK2
  6
CONTINUOUS
370
25
 62
7
100
AcDbLine
 10
26.67422990491749
 20
13.9051640190165
 30
0.0
 11
27.34948660327833
 21
13.22990732065567
 31
0.0
  0
LINE
  5
8DC
330
1F
100
AcDbEntity
  8
SK2
  6
CONTINUOUS
370
25
 62
7
100
AcDbLine
 10
27.2045599908074
 20
13.79909800183852
 30
0.0
 11
27.7030399938716
 21
13.30061799877432
 31
0.0
  0
LINE
  5
8DD
330
1F
100
AcDbEntity
  8
SK2
  6
CONTINUOUS
370
25
 62
7
100
AcDbLine
 10
27.73489007669731
 20
13.69303198466054
 30
0.0
 11
28.05659338446488
 21
13.37132867689298
 31
0.0
  0
LINE
  5
8DE
330
1F
100
AcDbEntity
  8
SK2
  6
CONTINUOUS
370
25
 62
7
100
AcDbLine
 10
28.26522016258722
 20
13.58696596748256
 30
0.0
 11
28.41014677505815
 21
13.44203935501163
 31
0.0
  0
TEXT
  5
8DF
330
1F
100
AcDbEntity
  8
SK2
  6
CONTINUOUS
370
25
 62
7
100
AcDbText
 10
9.1
 20
15.00001
 30
0.0
 40
3.5
  1
28.7
 72
     1
 11
14.35
 21
15.00001
 31
0.0
100
AcDbText
  0
LINE
  5
8E0
330
1F
100
AcDbEntity
  8
2
  6
CONTINUOUS
370
25
 62
7
100
AcDbLine
 10
55.5313608
 20
-1.005
 30
0.0
 11
89.0
 21
-1.005000000000004
 31
0.0
  0
LINE
  5
8E1
330
1F
100
AcDbEntity
  8
2
  6
CONTINUOUS
370
25
 62
7
100
AcDbLine
 10
89.0
 20
1.004999999999996
 30
0.0
 11
55.5313608
 21
1.005
 31
0.0
  0
LINE
  5
8E2
330
1F
100
AcDbEntity
  8
2
  6
CONTINUOUS
370
25
 62
7
100
AcDbLine
 10
88.0
 20
-8.005000000000004
 30
0.0
 11
88.0
 21
23.40499999999999
 31
0.0
  0
LINE
  5
8E3
330
1F
100
AcDbEntity
  8
2
  6
CONTINUOUS
370
25
 62
7
100
AcDbLine
 10
88.0
 20
-1.005000000000004
 30
0.0
 11
89.0
 21
-6.005000000000003
 31
0.0
  0
LINE
  5
8E4
330
1F
100
AcDbEntity
  8
2
  6
CONTINUOUS
370
25
 62
7
100
AcDbLine
 10
89.0
 20
-6.005000000000003
 30
0.0
 11
87.0
 21
-6.005000000000003
 31
0.0
  0
LINE
  5
8E5
330
1F
100
AcDbEntity
  8
2
  6
CONTINUOUS
370
25
 62
7
100
AcDbLine
 10
87.0
 20
-6.005000000000003
 30
0.0
 11
88.0
 21
-1.005000000000004
 31
0.0
  0
LINE
  5
8E6
330
1F
100
AcDbEntity
  8
2
  6
CONTINUOUS
370
25
 62
7
100
AcDbLine
 10
88.8001034667801
 20
-6.005000000000003
 30
0.0
 11
88.96668391113002
 21
-5.838419555650091
 31
0.0
  0
LINE
  5
8E7
330
1F
100
AcDbEntity
  8
2
  6
CONTINUOUS
370
25
 62
7
100
AcDbLine
 10
88.37583939806818
 20
-6.005000000000003
 30
0.0
 11
88.89597323301136
 21
-5.484866165056815
 31
0.0
  0
LINE
  5
8E8
330
1F
100
AcDbEntity
  8
2
  6
CONTINUOUS
370
25
 62
7
100
AcDbLine
 10
87.95157532935626
 20
-6.005000000000003
 30
0.0
 11
88.82526255489272
 21
-5.131312774463552
 31
0.0
  0
LINE
  5
8E9
330
1F
100
AcDbEntity
  8
2
  6
CONTINUOUS
370
25
 62
7
100
AcDbLine
 10
87.52731126064432
 20
-6.005000000000003
 30
0.0
 11
88.75455187677406
 21
-4.777759383870276
 31
0.0
  0
LINE
  5
8EA
330
1F
100
AcDbEntity
  8
2
  6
CONTINUOUS
370
25
 62
7
100
AcDbLine
 10
87.10304719193239
 20
-6.005000000000003
 30
0.0
 11
88.68384119865539
 21
-4.424205993277013
 31
0.0
  0
LINE
  5
8EB
330
1F
100
AcDbEntity
  8
2
  6
CONTINUOUS
370
25
 62
7
100
AcDbLine
 10
87.08030421919489
 20
-5.603478904025572
 30
0.0
 11
88.61313052053674
 21
-4.07065260268373
 31
0.0
  0
LINE
  5
8EC
330
1F
100
AcDbEntity
  8
2
  6
CONTINUOUS
370
25
 62
7
100
AcDbLine
 10
87.18637023637287
 20
-5.073148818135671
 30
0.0
 11
88.54241984241808
 21
-3.71709921209046
 31
0.0
  0
LINE
  5
8ED
330
1F
100
AcDbEntity
  8
2
  6
CONTINUOUS
370
25
 62
7
100
AcDbLine
 10
87.29243625355085
 20
-4.54281873224577
 30
0.0
 11
88.47170916429944
 21
-3.363545821497176
 31
0.0
  0
LINE
  5
8EE
330
1F
100
AcDbEntity
  8
2
  6
CONTINUOUS
370
25
 62
7
100
AcDbLine
 10
87.39850227072883
 20
-4.012488646355855
 30
0.0
 11
88.40099848618078
 21
-3.0099924309039
 31
0.0
  0
LINE
  5
8EF
330
1F
100
AcDbEntity
  8
2
  6
CONTINUOUS
370
25
 62
7
100
AcDbLine
 10
87.5045682879068
 20
-3.482158560465955
 30
0.0
 11
88.33028780806212
 21
-2.656439040310637
 31
0.0
  0
LINE
  5
8F0
330
1F
100
AcDbEntity
  8
2
  6
CONTINUOUS
370
25
 62
7
100
AcDbLine
 10
87.61063430508479
 20
-2.951828474576033
 30
0.0
 11
88.25957712994347
 21
-2.302885649717361
 31
0.0
  0
LINE
  5
8F1
330
1F
100
AcDbEntity
  8
2
  6
CONTINUOUS
370
25
 62
7
100
AcDbLine
 10
87.71670032226277
 20
-2.421498388686125
 30
0.0
 11
88.18886645182482
 21
-1.949332259124077
 31
0.0
  0
LINE
  5
8F2
330
1F
100
AcDbEntity
  8
2
  6
CONTINUOUS
370
25
 62
7
100
AcDbLine
 10
87.82276633944075
 20
-1.891168302796217
 30
0.0
 11
88.11815577370616
 21
-1.595778868530807
 31
0.0
  0
LINE
  5
8F3
330
1F
100
AcDbEntity
  8
2
  6
CONTINUOUS
370
25
 62
7
100
AcDbLine
 10
87.92883235661873
 20
-1.360838216906309
 30
0.0
 11
88.0474450955875
 21
-1.242225477937531
 31
0.0
  0
LINE
  5
8F4
330
1F
100
AcDbEntity
  8
2
  6
CONTINUOUS
370
25
 62
7
100
AcDbLine
 10
87.05229075337985
 20
-5.743546233100744
 30
0.0
 11
87.31374452027912
 21
-6.005000000000003
 31
0.0
  0
LINE
  5
8F5
330
1F
100
AcDbEntity
  8
2
  6
CONTINUOUS
370
25
 62
7
100
AcDbLine
 10
87.12300143149851
 20
-5.389992842507468
 30
0.0
 11
87.73800858899104
 21
-6.005000000000003
 31
0.0
  0
LINE
  5
8F6
330
1F
100
AcDbEntity
  8
2
  6
CONTINUOUS
370
25
 62
7
100
AcDbLine
 10
87.19371210961715
 20
-5.036439451914191
 30
0.0
 11
88.16227265770297
 21
-6.005000000000003
 31
0.0
  0
LINE
  5
8F7
330
1F
100
AcDbEntity
  8
2
  6
CONTINUOUS
370
25
 62
7
100
AcDbLine
 10
87.26442278773582
 20
-4.682886061320922
 30
0.0
 11
88.5865367264149
 21
-6.005000000000003
 31
0.0
  0
LINE
  5
8F8
330
1F
100
AcDbEntity
  8
2
  6
CONTINUOUS
370
25
 62
7
100
AcDbLine
 10
87.33513346585447
 20
-4.329332670727638
 30
0.0
 11
88.99729980121829
 21
-5.991499006091445
 31
0.0
  0
LINE
  5
8F9
330
1F
100
AcDbEntity
  8
2
  6
CONTINUOUS
370
25
 62
7
100
AcDbLine
 10
87.40584414397313
 20
-3.975779280134361
 30
0.0
 11
88.89123378404031
 21
-5.461168920201537
 31
0.0
  0
LINE
  5
8FA
330
1F
100
AcDbEntity
  8
2
  6
CONTINUOUS
370
25
 62
7
100
AcDbLine
 10
87.47655482209179
 20
-3.622225889541085
 30
0.0
 11
88.78516776686232
 21
-4.930838834311615
 31
0.0
  0
LINE
  5
8FB
330
1F
100
AcDbEntity
  8
2
  6
CONTINUOUS
370
25
 62
7
100
AcDbLine
 10
87.54726550021044
 20
-3.268672498947815
 30
0.0
 11
88.67910174968434
 21
-4.400508748421707
 31
0.0
  0
LINE
  5
8FC
330
1F
100
AcDbEntity
  8
2
  6
CONTINUOUS
370
25
 62
7
100
AcDbLine
 10
87.6179761783291
 20
-2.915119108354546
 30
0.0
 11
88.57303573250636
 21
-3.870178662531806
 31
0.0
  0
LINE
  5
8FD
330
1F
100
AcDbEntity
  8
2
  6
CONTINUOUS
370
25
 62
7
100
AcDbLine
 10
87.68868685644775
 20
-2.561565717761255
 30
0.0
 11
88.46696971532837
 21
-3.339848576641891
 31
0.0
  0
LINE
  5
8FE
330
1F
100
AcDbEntity
  8
2
  6
CONTINUOUS
370
25
 62
7
100
AcDbLine
 10
87.7593975345664
 20
-2.208012327167985
 30
0.0
 11
88.3609036981504
 21
-2.809518490751984
 31
0.0
  0
LINE
  5
8FF
330
1F
100
AcDbEntity
  8
2
  6
CONTINUOUS
370
25
 62
7
100
AcDbLine
 10
87.83010821268505
 20
-1.854458936574702
 30
0.0
 11
88.25483768097241
 21
-2.279188404862069
 31
0.0
  0
LINE
  5
900
330
1F
100
AcDbEntity
  8
2
  6
CONTINUOUS
370
25
 62
7
100
AcDbLine
 10
87.9008188908037
 20
-1.500905545981432
 30
0.0
 11
88.14877166379443
 21
-1.748858318972161
 31
0.0
  0
LINE
  5
901
330
1F
100
AcDbEntity
  8
2
  6
CONTINUOUS
370
25
 62
7
100
AcDbLine
 10
87.97152956892236
 20
-1.147352155388155
 30
0.0
 11
88.04270564661644
 21
-1.218528233082239
 31
0.0
  0
LINE
  5
902
330
1F
100
AcDbEntity
  8
2
  6
CONTINUOUS
370
25
 62
7
100
AcDbLine
 10
88.0
 20
1.004999999999996
 30
0.0
 11
87.0
 21
6.004999999999996
 31
0.0
  0
LINE
  5
903
330
1F
100
AcDbEntity
  8
2
  6
CONTINUOUS
370
25
 62
7
100
AcDbLine
 10
87.0
 20
6.004999999999996
 30
0.0
 11
89.0
 21
6.004999999999996
 31
0.0
  0
LINE
  5
904
330
1F
100
AcDbEntity
  8
2
  6
CONTINUOUS
370
25
 62
7
100
AcDbLine
 10
89.0
 20
6.004999999999996
 30
0.0
 11
88.0
 21
1.004999999999996
 31
0.0
  0
LINE
  5
905
330
1F
100
AcDbEntity
  8
2
  6
CONTINUOUS
370
25
 62
7
100
AcDbLine
 10
87.95496673812451
 20
1.230166309377402
 30
0.0
 11
88.06754989281323
 21
1.342749464066124
 31
0.0
  0
LINE
  5
906
330
1F
100
AcDbEntity
  8
2
  6
CONTINUOUS
370
25
 62
7
100
AcDbLine
 10
87.88425606000587
 20
1.583719699970686
 30
0.0
 11
88.17361590999121
 21
1.873079549956032
 31
0.0
  0
LINE
  5
907
330
1F
100
AcDbEntity
  8
2
  6
CONTINUOUS
370
25
 62
7
100
AcDbLine
 10
87.8135453818872
 20
1.937273090563956
 30
0.0
 11
88.2796819271692
 21
2.403409635845946
 31
0.0
  0
LINE
  5
908
330
1F
100
AcDbEntity
  8
2
  6
CONTINUOUS
370
25
 62
7
100
AcDbLine
 10
87.74283470376855
 20
2.290826481157225
 30
0.0
 11
88.38574794434717
 21
2.93373972173584
 31
0.0
  0
LINE
  5
909
330
1F
100
AcDbEntity
  8
2
  6
CONTINUOUS
370
25
 62
7
100
AcDbLine
 10
87.6721240256499
 20
2.644379871750502
 30
0.0
 11
88.49181396152515
 21
3.464069807625755
 31
0.0
  0
LINE
  5
90A
330
1F
100
AcDbEntity
  8
2
  6
CONTINUOUS
370
25
 62
7
100
AcDbLine
 10
87.60141334753123
 20
2.997933262343771
 30
0.0
 11
88.59787997870313
 21
3.994399893515656
 31
0.0
  0
LINE
  5
90B
330
1F
100
AcDbEntity
  8
2
  6
CONTINUOUS
370
25
 62
7
100
AcDbLine
 10
87.53070266941259
 20
3.351486652937055
 30
0.0
 11
88.70394599588111
 21
4.524729979405578
 31
0.0
  0
LINE
  5
90C
330
1F
100
AcDbEntity
  8
2
  6
CONTINUOUS
370
25
 62
7
100
AcDbLine
 10
87.45999199129393
 20
3.705040043530332
 30
0.0
 11
88.8100120130591
 21
5.055060065295486
 31
0.0
  0
LINE
  5
90D
330
1F
100
AcDbEntity
  8
2
  6
CONTINUOUS
370
25
 62
7
100
AcDbLine
 10
87.38928131317527
 20
4.058593434123608
 30
0.0
 11
88.91607803023707
 21
5.585390151185393
 31
0.0
  0
LINE
  5
90E
330
1F
100
AcDbEntity
  8
2
  6
CONTINUOUS
370
25
 62
7
100
AcDbLine
 10
87.31857063505662
 20
4.412146824716871
 30
0.0
 11
88.91142381033976
 21
6.004999999999995
 31
0.0
  0
LINE
  5
90F
330
1F
100
AcDbEntity
  8
2
  6
CONTINUOUS
370
25
 62
7
100
AcDbLine
 10
87.24785995693796
 20
4.765700215310147
 30
0.0
 11
88.48715974162782
 21
6.004999999999995
 31
0.0
  0
LINE
  5
910
330
1F
100
AcDbEntity
  8
2
  6
CONTINUOUS
370
25
 62
7
100
AcDbLine
 10
87.17714927881931
 20
5.119253605903431
 30
0.0
 11
88.06289567291589
 21
6.004999999999995
 31
0.0
  0
LINE
  5
911
330
1F
100
AcDbEntity
  8
2
  6
CONTINUOUS
370
25
 62
7
100
AcDbLine
 10
87.10643860070066
 20
5.472806996496701
 30
0.0
 11
87.63863160420395
 21
6.004999999999995
 31
0.0
  0
LINE
  5
912
330
1F
100
AcDbEntity
  8
2
  6
CONTINUOUS
370
25
 62
7
100
AcDbLine
 10
87.03572792258201
 20
5.826360387089991
 30
0.0
 11
87.21436753549202
 21
6.004999999999995
 31
0.0
  0
LINE
  5
913
330
1F
100
AcDbEntity
  8
2
  6
CONTINUOUS
370
25
 62
7
100
AcDbLine
 10
87.90880954354856
 20
1.460952282257203
 30
0.0
 11
88.06079363763429
 21
1.308968188171463
 31
0.0
  0
LINE
  5
914
330
1F
100
AcDbEntity
  8
2
  6
CONTINUOUS
370
25
 62
7
100
AcDbLine
 10
87.80274352637058
 20
1.991282368147118
 30
0.0
 11
88.13150431575295
 21
1.662521578764746
 31
0.0
  0
LINE
  5
915
330
1F
100
AcDbEntity
  8
2
  6
CONTINUOUS
370
25
 62
7
100
AcDbLine
 10
87.69667750919258
 20
2.52161245403704
 30
0.0
 11
88.2022149938716
 21
2.016074969358016
 31
0.0
  0
LINE
  5
916
330
1F
100
AcDbEntity
  8
2
  6
CONTINUOUS
370
25
 62
7
100
AcDbLine
 10
87.5906114920146
 20
3.051942539926948
 30
0.0
 11
88.27292567199027
 21
2.369628359951292
 31
0.0
  0
LINE
  5
917
330
1F
100
AcDbEntity
  8
2
  6
CONTINUOUS
370
25
 62
7
100
AcDbLine
 10
87.48454547483662
 20
3.58227262581687
 30
0.0
 11
88.34363635010892
 21
2.723181750544569
 31
0.0
  0
LINE
  5
918
330
1F
100
AcDbEntity
  8
2
  6
CONTINUOUS
370
25
 62
7
100
AcDbLine
 10
87.37847945765864
 20
4.112602711706778
 30
0.0
 11
88.41434702822757
 21
3.076735141137846
 31
0.0
  0
LINE
  5
919
330
1F
100
AcDbEntity
  8
2
  6
CONTINUOUS
370
25
 62
7
100
AcDbLine
 10
87.27241344048066
 20
4.642932797596693
 30
0.0
 11
88.48505770634623
 21
3.430288531731129
 31
0.0
  0
LINE
  5
91A
330
1F
100
AcDbEntity
  8
2
  6
CONTINUOUS
370
25
 62
7
100
AcDbLine
 10
87.16634742330268
 20
5.173262883486593
 30
0.0
 11
88.55576838446488
 21
3.783841922324399
 31
0.0
  0
LINE
  5
91B
330
1F
100
AcDbEntity
  8
2
  6
CONTINUOUS
370
25
 62
7
100
AcDbLine
 10
87.0602814061247
 20
5.703592969376501
 30
0.0
 11
88.62647906258353
 21
4.137395312917668
 31
0.0
  0
LINE
  5
91C
330
1F
100
AcDbEntity
  8
2
  6
CONTINUOUS
370
25
 62
7
100
AcDbLine
 10
87.18313844421314
 20
6.004999999999995
 30
0.0
 11
88.69718974070219
 21
4.490948703510945
 31
0.0
  0
LINE
  5
91D
330
1F
100
AcDbEntity
  8
2
  6
CONTINUOUS
370
25
 62
7
100
AcDbLine
 10
87.60740251292506
 20
6.004999999999995
 30
0.0
 11
88.76790041882084
 21
4.844502094104222
 31
0.0
  0
LINE
  5
91E
330
1F
100
AcDbEntity
  8
2
  6
CONTINUOUS
370
25
 62
7
100
AcDbLine
 10
88.03166658163698
 20
6.004999999999995
 30
0.0
 11
88.8386110969395
 21
5.198055484697477
 31
0.0
  0
LINE
  5
91F
330
1F
100
AcDbEntity
  8
2
  6
CONTINUOUS
370
25
 62
7
100
AcDbLine
 10
88.45593065034893
 20
6.004999999999995
 30
0.0
 11
88.90932177505816
 21
5.551608875290761
 31
0.0
  0
LINE
  5
920
330
1F
100
AcDbEntity
  8
2
  6
CONTINUOUS
370
25
 62
7
100
AcDbLine
 10
88.88019471906085
 20
6.004999999999995
 30
0.0
 11
88.98003245317682
 21
5.90516226588403
 31
0.0
  0
TEXT
  5
921
330
1F
100
AcDbEntity
  8
2
  6
CONTINUOUS
370
25
 62
7
100
AcDbText
 10
86.5
 20
12.60499999999999
 30
0.0
 40
3.5
  1
2.01
 50
89.99999999999997
 72
     1
 11
86.5
 21
16.97999999999999
 31
0.0
100
AcDbText
  0
CIRCLE
  5
922
330
1F
100
AcDbEntity
  8
2
  6
CONTINUOUS
370
25
 62
7
100
AcDbCircle
 10
84.75
 20
8.929999999999994
 30
0.0
 40
1.4
  0
LINE
  5
923
330
1F
100
AcDbEntity
  8
2
  6
CONTINUOUS
370
25
 62
7
100
AcDbLine
 10
86.14999999999999
 20
7.529999999999996
 30
0.0
 11
83.35
 21
10.33
 31
0.0
  0
LINE
  5
924
330
1F
100
AcDbEntity
  8
2
  6
CONTINUOUS
370
25
 62
7
100
AcDbLine
 10
28.7
 20
1.5
 30
0.0
 11
28.7
 21
24.5
 31
0.0
  0
LINE
  5
925
330
1F
100
AcDbEntity
  8
2
  6
CONTINUOUS
370
25
 62
7
100
AcDbLine
 10
56.0
 20
24.5
 30
0.0
 11
56.0
 21
0.0
 31
0.0
  0
LINE
  5
926
330
1F
100
AcDbEntity
  8
2
  6
CONTINUOUS
370
25
 62
7
100
AcDbLine
 10
28.7
 20
23.5
 30
0.0
 11
56.0
 21
23.5
 31
0.0
  0
LINE
  5
927
330
1F
100
AcDbEntity
  8
2
  6
CONTINUOUS
370
25
 62
7
100
AcDbLine
 10
28.7
 20
23.5
 30
0.0
 11
33.7
 21
24.5
 31
0.0
  0
LINE
  5
928
330
1F
100
AcDbEntity
  8
2
  6
CONTINUOUS
370
25
 62
7
100
AcDbLine
 10
33.7
 20
24.5
 30
0.0
 11
33.7
 21
22.5
 31
0.0
  0
LINE
  5
929
330
1F
100
AcDbEntity
  8
2
  6
CONTINUOUS
370
25
 62
7
100
AcDbLine
 10
33.7
 20
22.5
 30
0.0
 11
28.7
 21
23.5
 31
0.0
  0
LINE
  5
92A
330
1F
100
AcDbEntity
  8
2
  6
CONTINUOUS
370
25
 62
7
100
AcDbLine
 10
33.43409092841587
 20
22.55318181431683
 30
0.0
 11
33.7
 21
22.81909088590096
 31
0.0
  0
LINE
  5
92B
330
1F
100
AcDbEntity
  8
2
  6
CONTINUOUS
370
25
 62
7
100
AcDbLine
 10
33.08053753782259
 20
22.62389249243548
 30
0.0
 11
33.7
 21
23.24335495461289
 31
0.0
  0
LINE
  5
92C
330
1F
100
AcDbEntity
  8
2
  6
CONTINUOUS
370
25
 62
7
100
AcDbLine
 10
32.72698414722932
 20
22.69460317055414
 30
0.0
 11
33.7
 21
23.66761902332482
 31
0.0
  0
LINE
  5
92D
330
1F
100
AcDbEntity
  8
2
  6
CONTINUOUS
370
25
 62
7
100
AcDbLine
 10
32.37343075663605
 20
22.76531384867279
 30
0.0
 11
33.7
 21
24.09188309203675
 31
0.0
  0
LINE
  5
92E
330
1F
100
AcDbEntity
  8
2
  6
CONTINUOUS
370
25
 62
7
100
AcDbLine
 10
32.01987736604277
 20
22.83602452679144
 30
0.0
 11
33.67981604906416
 21
24.49596320981283
 31
0.0
  0
LINE
  5
92F
330
1F
100
AcDbEntity
  8
2
  6
CONTINUOUS
370
25
 62
7
100
AcDbLine
 10
31.6663239754495
 20
22.9067352049101
 30
0.0
 11
33.14948596317425
 21
24.38989719263485
 31
0.0
  0
LINE
  5
930
330
1F
100
AcDbEntity
  8
2
  6
CONTINUOUS
370
25
 62
7
100
AcDbLine
 10
31.31277058485622
 20
22.97744588302875
 30
0.0
 11
32.61915587728434
 21
24.28383117545687
 31
0.0
  0
LINE
  5
931
330
1F
100
AcDbEntity
  8
2
  6
CONTINUOUS
370
25
 62
7
100
AcDbLine
 10
30.95921719426295
 20
23.04815656114741
 30
0.0
 11
32.08882579139443
 21
24.17776515827889
 31
0.0
  0
LINE
  5
932
330
1F
100
AcDbEntity
  8
2
  6
CONTINUOUS
370
25
 62
7
100
AcDbLine
 10
30.60566380366968
 20
23.11886723926606
 30
0.0
 11
31.55849570550452
 21
24.0716991411009
 31
0.0
  0
LINE
  5
933
330
1F
100
AcDbEntity
  8
2
  6
CONTINUOUS
370
25
 62
7
100
AcDbLine
 10
30.25211041307641
 20
23.18957791738472
 30
0.0
 11
31.02816561961461
 21
23.96563312392292
 31
0.0
  0
LINE
  5
934
330
1F
100
AcDbEntity
  8
2
  6
CONTINUOUS
370
25
 62
7
100
AcDbLine
 10
29.89855702248313
 20
23.26028859550337
 30
0.0
 11
30.4978355337247
 21
23.85956710674494
 31
0.0
  0
LINE
  5
935
330
1F
100
AcDbEntity
  8
2
  6
CONTINUOUS
370
25
 62
7
100
AcDbLine
 10
29.54500363188986
 20
23.33099927362203
 30
0.0
 11
29.96750544783479
 21
23.75350108956696
 31
0.0
  0
LINE
  5
936
330
1F
100
AcDbEntity
  8
2
  6
CONTINUOUS
370
25
 62
7
100
AcDbLine
 10
29.19145024129659
 20
23.40170995174068
 30
0.0
 11
29.43717536194488
 21
23.64743507238898
 31
0.0
  0
LINE
  5
937
330
1F
100
AcDbEntity
  8
2
  6
CONTINUOUS
370
25
 62
7
100
AcDbLine
 10
28.83789685070331
 20
23.47242062985934
 30
0.0
 11
28.90684527605497
 21
23.541369055211
 31
0.0
  0
LINE
  5
938
330
1F
100
AcDbEntity
  8
2
  6
CONTINUOUS
370
25
 62
7
100
AcDbLine
 10
28.91565653988997
 20
23.54313130797799
 30
0.0
 11
29.02348480983495
 21
23.43530303803301
 31
0.0
  0
LINE
  5
939
330
1F
100
AcDbEntity
  8
2
  6
CONTINUOUS
370
25
 62
7
100
AcDbLine
 10
29.26920993048324
 20
23.61384198609665
 30
0.0
 11
29.55381489572486
 21
23.32923702085503
 31
0.0
  0
LINE
  5
93A
330
1F
100
AcDbEntity
  8
2
  6
CONTINUOUS
370
25
 62
7
100
AcDbLine
 10
29.62276332107651
 20
23.6845526642153
 30
0.0
 11
30.08414498161477
 21
23.22317100367705
 31
0.0
  0
LINE
  5
93B
330
1F
100
AcDbEntity
  8
2
  6
CONTINUOUS
370
25
 62
7
100
AcDbLine
 10
29.97631671166979
 20
23.75526334233396
 30
0.0
 11
30.61447506750468
 21
23.11710498649906
 31
0.0
  0
LINE
  5
93C
330
1F
100
AcDbEntity
  8
2
  6
CONTINUOUS
370
25
 62
7
100
AcDbLine
 10
30.32987010226306
 20
23.82597402045261
 30
0.0
 11
31.14480515339459
 21
23.01103896932108
 31
0.0
  0
LINE
  5
93D
330
1F
100
AcDbEntity
  8
2
  6
CONTINUOUS
370
25
 62
7
100
AcDbLine
 10
30.68342349285633
 20
23.89668469857127
 30
0.0
 11
31.6751352392845
 21
22.9049729521431
 31
0.0
  0
LINE
  5
93E
330
1F
100
AcDbEntity
  8
2
  6
CONTINUOUS
370
25
 62
7
100
AcDbLine
 10
31.03697688344961
 20
23.96739537668992
 30
0.0
 11
32.20546532517442
 21
22.79890693496512
 31
0.0
  0
LINE
  5
93F
330
1F
100
AcDbEntity
  8
2
  6
CONTINUOUS
370
25
 62
7
100
AcDbLine
 10
31.39053027404288
 20
24.03810605480858
 30
0.0
 11
32.73579541106432
 21
22.69284091778714
 31
0.0
  0
LINE
  5
940
330
1F
100
AcDbEntity
  8
2
  6
CONTINUOUS
370
25
 62
7
100
AcDbLine
 10
31.74408366463615
 20
24.10881673292723
 30
0.0
 11
33.26612549695423
 21
22.58677490060915
 31
0.0
  0
LINE
  5
941
330
1F
100
AcDbEntity
  8
2
  6
CONTINUOUS
370
25
 62
7
100
AcDbLine
 10
32.09763705522943
 20
24.17952741104589
 30
0.0
 11
33.7
 21
22.57716446627531
 31
0.0
  0
LINE
  5
942
330
1F
100
AcDbEntity
  8
2
  6
CONTINUOUS
370
25
 62
7
100
AcDbLine
 10
32.4511904458227
 20
24.25023808916454
 30
0.0
 11
33.7
 21
23.00142853498724
 31
0.0
  0
LINE
  5
943
330
1F
100
AcDbEntity
  8
2
  6
CONTINUOUS
370
25
 62
7
100
AcDbLine
 10
32.80474383641597
 20
24.32094876728319
 30
0.0
 11
33.7
 21
23.42569260369917
 31
0.0
  0
LINE
  5
944
330
1F
100
AcDbEntity
  8
2
  6
CONTINUOUS
370
25
 62
7
100
AcDbLine
 10
33.15829722700925
 20
24.39165944540185
 30
0.0
 11
33.7
 21
23.8499566724111
 31
0.0
  0
LINE
  5
945
330
1F
100
AcDbEntity
  8
2
  6
CONTINUOUS
370
25
 62
7
100
AcDbLine
 10
33.51185061760252
 20
24.4623701235205
 30
0.0
 11
33.7
 21
24.27422074112302
 31
0.0
  0
LINE
  5
946
330
1F
100
AcDbEntity
  8
2
  6
CONTINUOUS
370
25
 62
7
100
AcDbLine
 10
56.0
 20
23.5
 30
0.0
 11
51.0
 21
22.5
 31
0.0
  0
LINE
  5
947
330
1F
100
AcDbEntity
  8
2
  6
CONTINUOUS
370
25
 62
7
100
AcDbLine
 10
51.0
 20
22.5
 30
0.0
 11
51.0
 21
24.5
 31
0.0
  0
LINE
  5
948
330
1F
100
AcDbEntity
  8
2
  6
CONTINUOUS
370
25
 62
7
100
AcDbLine
 10
51.0
 20
24.5
 30
0.0
 11
56.0
 21
23.5
 31
0.0
  0
LINE
  5
949
330
1F
100
AcDbEntity
  8
2
  6
CONTINUOUS
370
25
 62
7
100
AcDbLine
 10
55.9560816157323
 20
23.49121632314646
 30
0.0
 11
55.97072107715488
 21
23.50585578456903
 31
0.0
  0
LINE
  5
94A
330
1F
100
AcDbEntity
  8
2
  6
CONTINUOUS
370
25
 62
7
100
AcDbLine
 10
55.42575152984239
 20
23.38515030596848
 30
0.0
 11
55.61716768656159
 21
23.57656646268768
 31
0.0
  0
LINE
  5
94B
330
1F
100
AcDbEntity
  8
2
  6
CONTINUOUS
370
25
 62
7
100
AcDbLine
 10
54.89542144395248
 20
23.27908428879049
 30
0.0
 11
55.26361429596832
 21
23.64727714080634
 31
0.0
  0
LINE
  5
94C
330
1F
100
AcDbEntity
  8
2
  6
CONTINUOUS
370
25
 62
7
100
AcDbLine
 10
54.36509135806257
 20
23.17301827161251
 30
0.0
 11
54.91006090537505
 21
23.71798781892499
 31
0.0
  0
LINE
  5
94D
330
1F
100
AcDbEntity
  8
2
  6
CONTINUOUS
370
25
 62
7
100
AcDbLine
 10
53.83476127217266
 20
23.06695225443453
 30
0.0
 11
54.55650751478178
 21
23.78869849704365
 31
0.0
  0
LINE
  5
94E
330
1F
100
AcDbEntity
  8
2
  6
CONTINUOUS
370
25
 62
7
100
AcDbLine
 10
53.30443118628276
 20
22.96088623725655
 30
0.0
 11
54.20295412418851
 21
23.8594091751623
 31
0.0
  0
LINE
  5
94F
330
1F
100
AcDbEntity
  8
2
  6
CONTINUOUS
370
25
 62
7
100
AcDbLine
 10
52.77410110039284
 20
22.85482022007857
 30
0.0
 11
53.84940073359523
 21
23.93011985328096
 31
0.0
  0
LINE
  5
950
330
1F
100
AcDbEntity
  8
2
  6
CONTINUOUS
370
25
 62
7
100
AcDbLine
 10
52.24377101450293
 20
22.74875420290059
 30
0.0
 11
53.49584734300196
 21
24.00083053139961
 31
0.0
  0
LINE
  5
951
330
1F
100
AcDbEntity
  8
2
  6
CONTINUOUS
370
25
 62
7
100
AcDbLine
 10
51.71344092861302
 20
22.6426881857226
 30
0.0
 11
53.14229395240869
 21
24.07154120951827
 31
0.0
  0
LINE
  5
952
330
1F
100
AcDbEntity
  8
2
  6
CONTINUOUS
370
25
 62
7
100
AcDbLine
 10
51.18311084272311
 20
22.53662216854462
 30
0.0
 11
52.78874056181542
 21
24.14225188763692
 31
0.0
  0
LINE
  5
953
330
1F
100
AcDbEntity
  8
2
  6
CONTINUOUS
370
25
 62
7
100
AcDbLine
 10
51.0
 20
22.77777539453344
 30
0.0
 11
52.43518717122214
 21
24.21296256575557
 31
0.0
  0
LINE
  5
954
330
1F
100
AcDbEntity
  8
2
  6
CONTINUOUS
370
25
 62
7
100
AcDbLine
 10
51.0
 20
23.20203946324536
 30
0.0
 11
52.08163378062886
 21
24.28367324387423
 31
0.0
  0
LINE
  5
955
330
1F
100
AcDbEntity
  8
2
  6
CONTINUOUS
370
25
 62
7
100
AcDbLine
 10
51.0
 20
23.62630353195729
 30
0.0
 11
51.72808039003559
 21
24.35438392199288
 31
0.0
  0
LINE
  5
956
330
1F
100
AcDbEntity
  8
2
  6
CONTINUOUS
370
25
 62
7
100
AcDbLine
 10
51.0
 20
24.05056760066922
 30
0.0
 11
51.37452699944232
 21
24.42509460011154
 31
0.0
  0
LINE
  5
957
330
1F
100
AcDbEntity
  8
2
  6
CONTINUOUS
370
25
 62
7
100
AcDbLine
 10
51.0
 20
24.47483166938115
 30
0.0
 11
51.02097360884905
 21
24.49580527823019
 31
0.0
  0
LINE
  5
958
330
1F
100
AcDbEntity
  8
2
  6
CONTINUOUS
370
25
 62
7
100
AcDbLine
 10
51.0
 20
22.67199128346442
 30
0.0
 11
51.14332606955368
 21
22.52866521391074
 31
0.0
  0
LINE
  5
959
330
1F
100
AcDbEntity
  8
2
  6
CONTINUOUS
370
25
 62
7
100
AcDbLine
 10
51.0
 20
23.09625535217634
 30
0.0
 11
51.49687946014695
 21
22.59937589202939
 31
0.0
  0
LINE
  5
95A
330
1F
100
AcDbEntity
  8
2
  6
CONTINUOUS
370
25
 62
7
100
AcDbLine
 10
51.0
 20
23.52051942088828
 30
0.0
 11
51.85043285074023
 21
22.67008657014805
 31
0.0
  0
LINE
  5
95B
330
1F
100
AcDbEntity
  8
2
  6
CONTINUOUS
370
25
 62
7
100
AcDbLine
 10
51.0
 20
23.9447834896002
 30
0.0
 11
52.2039862413335
 21
22.7407972482667
 31
0.0
  0
LINE
  5
95C
330
1F
100
AcDbEntity
  8
2
  6
CONTINUOUS
370
25
 62
7
100
AcDbLine
 10
51.0
 20
24.36904755831213
 30
0.0
 11
52.55753963192677
 21
22.81150792638536
 31
0.0
  0
LINE
  5
95D
330
1F
100
AcDbEntity
  8
2
  6
CONTINUOUS
370
25
 62
7
100
AcDbLine
 10
51.36663953378007
 20
24.42667209324399
 30
0.0
 11
52.91109302252005
 21
22.88221860450401
 31
0.0
  0
LINE
  5
95E
330
1F
100
AcDbEntity
  8
2
  6
CONTINUOUS
370
25
 62
7
100
AcDbLine
 10
51.89696961966999
 20
24.320606076066
 30
0.0
 11
53.26464641311333
 21
22.95292928262267
 31
0.0
  0
LINE
  5
95F
330
1F
100
AcDbEntity
  8
2
  6
CONTINUOUS
370
25
 62
7
100
AcDbLine
 10
52.42729970555989
 20
24.21454005888802
 30
0.0
 11
53.61819980370659
 21
23.02363996074132
 31
0.0
  0
LINE
  5
960
330
1F
100
AcDbEntity
  8
2
  6
CONTINUOUS
370
25
 62
7
100
AcDbLine
 10
52.9576297914498
 20
24.10847404171004
 30
0.0
 11
53.97175319429987
 21
23.09435063885998
 31
0.0
  0
LINE
  5
961
330
1F
100
AcDbEntity
  8
2
  6
CONTINUOUS
370
25
 62
7
100
AcDbLine
 10
53.4879598773397
 20
24.00240802453206
 30
0.0
 11
54.32530658489314
 21
23.16506131697863
 31
0.0
  0
LINE
  5
962
330
1F
100
AcDbEntity
  8
2
  6
CONTINUOUS
370
25
 62
7
100
AcDbLine
 10
54.01828996322962
 20
23.89634200735408
 30
0.0
 11
54.67885997548641
 21
23.23577199509728
 31
0.0
  0
LINE
  5
963
330
1F
100
AcDbEntity
  8
2
  6
CONTINUOUS
370
25
 62
7
100
AcDbLine
 10
54.54862004911953
 20
23.7902759901761
 30
0.0
 11
55.03241336607968
 21
23.30648267321594
 31
0.0
  0
LINE
  5
964
330
1F
100
AcDbEntity
  8
2
  6
CONTINUOUS
370
25
 62
7
100
AcDbLine
 10
55.07895013500944
 20
23.68420997299811
 30
0.0
 11
55.38596675667296
 21
23.37719335133459
 31
0.0
  0
LINE
  5
965
330
1F
100
AcDbEntity
  8
2
  6
CONTINUOUS
370
25
 62
7
100
AcDbLine
 10
55.60928022089935
 20
23.57814395582013
 30
0.0
 11
55.73952014726623
 21
23.44790402945325
 31
0.0
  0
TEXT
  5
966
330
1F
100
AcDbEntity
  8
2
  6
CONTINUOUS
370
25
 62
7
100
AcDbText
 10
37.1
 20
25.0
 30
0.0
 40
3.5
  1
27.3
 72
     1
 11
42.35
 21
25.0
 31
0.0
100
AcDbText
  0
LINE
  5
967
330
1F
100
AcDbEntity
  8
2
  6
CONTINUOUS
370
25
 62
7
100
AcDbLine
 10
36.0
 20
-1.005
 30
0.0
 11
36.0
 21
-34.5
 31
0.0
  0
LINE
  5
968
330
1F
100
AcDbEntity
  8
2
  6
CONTINUOUS
370
25
 62
7
100
AcDbLine
 10
56.0
 20
-34.5
 30
0.0
 11
56.0
 21
0.0
 31
0.0
  0
LINE
  5
969
330
1F
100
AcDbEntity
  8
2
  6
CONTINUOUS
370
25
 62
7
100
AcDbLine
 10
36.0
 20
-33.5
 30
0.0
 11
56.0
 21
-33.5
 31
0.0
  0
LINE
  5
96A
330
1F
100
AcDbEntity
  8
2
  6
CONTINUOUS
370
25
 62
7
100
AcDbLine
 10
36.0
 20
-33.5
 30
0.0
 11
41.0
 21
-32.5
 31
0.0
  0
LINE
  5
96B
330
1F
100
AcDbEntity
  8
2
  6
CONTINUOUS
370
25
 62
7
100
AcDbLine
 10
41.0
 20
-32.5
 30
0.0
 11
41.0
 21
-34.5
 31
0.0
  0
LINE
  5
96C
330
1F
100
AcDbEntity
  8
2
  6
CONTINUOUS
370
25
 62
7
100
AcDbLine
 10
41.0
 20
-34.5
 30
0.0
 11
36.0
 21
-33.5
 31
0.0
  0
LINE
  5
96D
330
1F
100
AcDbEntity
  8
2
  6
CONTINUOUS
370
25
 62
7
100
AcDbLine
 10
40.84270885627399
 20
-34.4685417712548
 30
0.0
 11
41.0
 21
-34.31125062752879
 31
0.0
  0
LINE
  5
96E
330
1F
100
AcDbEntity
  8
2
  6
CONTINUOUS
370
25
 62
7
100
AcDbLine
 10
40.48915546568071
 20
-34.39783109313614
 30
0.0
 11
41.0
 21
-33.88698655881685
 31
0.0
  0
LINE
  5
96F
330
1F
100
AcDbEntity
  8
2
  6
CONTINUOUS
370
25
 62
7
100
AcDbLine
 10
40.13560207508743
 20
-34.32712041501749
 30
0.0
 11
41.0
 21
-33.46272249010492
 31
0.0
  0
LINE
  5
970
330
1F
100
AcDbEntity
  8
2
  6
CONTINUOUS
370
25
 62
7
100
AcDbLine
 10
39.78204868449416
 20
-34.25640973689883
 30
0.0
 11
41.0
 21
-33.03845842139299
 31
0.0
  0
LINE
  5
971
330
1F
100
AcDbEntity
  8
2
  6
CONTINUOUS
370
25
 62
7
100
AcDbLine
 10
39.42849529390089
 20
-34.18569905878017
 30
0.0
 11
41.0
 21
-32.61419435268107
 31
0.0
  0
LINE
  5
972
330
1F
100
AcDbEntity
  8
2
  6
CONTINUOUS
370
25
 62
7
100
AcDbLine
 10
39.0749419033076
 20
-34.11498838066152
 30
0.0
 11
40.61241285496142
 21
-32.57751742900771
 31
0.0
  0
LINE
  5
973
330
1F
100
AcDbEntity
  8
2
  6
CONTINUOUS
370
25
 62
7
100
AcDbLine
 10
38.72138851271433
 20
-34.04427770254286
 30
0.0
 11
40.0820827690715
 21
-32.6835834461857
 31
0.0
  0
LINE
  5
974
330
1F
100
AcDbEntity
  8
2
  6
CONTINUOUS
370
25
 62
7
100
AcDbLine
 10
38.36783512212106
 20
-33.97356702442421
 30
0.0
 11
39.5517526831816
 21
-32.78964946336368
 31
0.0
  0
LINE
  5
975
330
1F
100
AcDbEntity
  8
2
  6
CONTINUOUS
370
25
 62
7
100
AcDbLine
 10
38.01428173152779
 20
-33.90285634630555
 30
0.0
 11
39.02142259729168
 21
-32.89571548054167
 31
0.0
  0
LINE
  5
976
330
1F
100
AcDbEntity
  8
2
  6
CONTINUOUS
370
25
 62
7
100
AcDbLine
 10
37.6607283409345
 20
-33.8321456681869
 30
0.0
 11
38.49109251140176
 21
-33.00178149771965
 31
0.0
  0
LINE
  5
977
330
1F
100
AcDbEntity
  8
2
  6
CONTINUOUS
370
25
 62
7
100
AcDbLine
 10
37.30717495034123
 20
-33.76143499006825
 30
0.0
 11
37.96076242551186
 21
-33.10784751489763
 31
0.0
  0
LINE
  5
978
330
1F
100
AcDbEntity
  8
2
  6
CONTINUOUS
370
25
 62
7
100
AcDbLine
 10
36.95362155974796
 20
-33.69072431194959
 30
0.0
 11
37.43043233962194
 21
-33.21391353207561
 31
0.0
  0
LINE
  5
979
330
1F
100
AcDbEntity
  8
2
  6
CONTINUOUS
370
25
 62
7
100
AcDbLine
 10
36.60006816915468
 20
-33.62001363383094
 30
0.0
 11
36.90010225373203
 21
-33.3199795492536
 31
0.0
  0
LINE
  5
97A
330
1F
100
AcDbEntity
  8
2
  6
CONTINUOUS
370
25
 62
7
100
AcDbLine
 10
36.24651477856141
 20
-33.54930295571228
 30
0.0
 11
36.36977216784211
 21
-33.42604556643158
 31
0.0
  0
LINE
  5
97B
330
1F
100
AcDbEntity
  8
2
  6
CONTINUOUS
370
25
 62
7
100
AcDbLine
 10
36.10094195762194
 20
-33.47981160847561
 30
0.0
 11
36.15141293643291
 21
-33.53028258728659
 31
0.0
  0
LINE
  5
97C
330
1F
100
AcDbEntity
  8
2
  6
CONTINUOUS
370
25
 62
7
100
AcDbLine
 10
36.45449534821522
 20
-33.40910093035696
 30
0.0
 11
36.68174302232283
 21
-33.63634860446457
 31
0.0
  0
LINE
  5
97D
330
1F
100
AcDbEntity
  8
2
  6
CONTINUOUS
370
25
 62
7
100
AcDbLine
 10
36.80804873880849
 20
-33.3383902522383
 30
0.0
 11
37.21207310821274
 21
-33.74241462164255
 31
0.0
  0
LINE
  5
97E
330
1F
100
AcDbEntity
  8
2
  6
CONTINUOUS
370
25
 62
7
100
AcDbLine
 10
37.16160212940177
 20
-33.26767957411965
 30
0.0
 11
37.74240319410265
 21
-33.84848063882053
 31
0.0
  0
LINE
  5
97F
330
1F
100
AcDbEntity
  8
2
  6
CONTINUOUS
370
25
 62
7
100
AcDbLine
 10
37.51515551999505
 20
-33.196968896001
 30
0.0
 11
38.27273327999257
 21
-33.95454665599851
 31
0.0
  0
LINE
  5
980
330
1F
100
AcDbEntity
  8
2
  6
CONTINUOUS
370
25
 62
7
100
AcDbLine
 10
37.86870891058832
 20
-33.12625821788234
 30
0.0
 11
38.80306336588248
 21
-34.06061267317649
 31
0.0
  0
LINE
  5
981
330
1F
100
AcDbEntity
  8
2
  6
CONTINUOUS
370
25
 62
7
100
AcDbLine
 10
38.22226230118159
 20
-33.05554753976368
 30
0.0
 11
39.33339345177239
 21
-34.16667869035448
 31
0.0
  0
LINE
  5
982
330
1F
100
AcDbEntity
  8
2
  6
CONTINUOUS
370
25
 62
7
100
AcDbLine
 10
38.57581569177487
 20
-32.98483686164503
 30
0.0
 11
39.86372353766231
 21
-34.27274470753246
 31
0.0
  0
LINE
  5
983
330
1F
100
AcDbEntity
  8
2
  6
CONTINUOUS
370
25
 62
7
100
AcDbLine
 10
38.92936908236814
 20
-32.91412618352637
 30
0.0
 11
40.39405362355222
 21
-34.37881072471045
 31
0.0
  0
LINE
  5
984
330
1F
100
AcDbEntity
  8
2
  6
CONTINUOUS
370
25
 62
7
100
AcDbLine
 10
39.28292247296142
 20
-32.84341550540772
 30
0.0
 11
40.92438370944214
 21
-34.48487674188843
 31
0.0
  0
LINE
  5
985
330
1F
100
AcDbEntity
  8
2
  6
CONTINUOUS
370
25
 62
7
100
AcDbLine
 10
39.63647586355469
 20
-32.77270482728906
 30
0.0
 11
41.0
 21
-34.13622896373435
 31
0.0
  0
LINE
  5
986
330
1F
100
AcDbEntity
  8
2
  6
CONTINUOUS
370
25
 62
7
100
AcDbLine
 10
39.99002925414797
 20
-32.7019941491704
 30
0.0
 11
41.0
 21
-33.71196489502243
 31
0.0
  0
LINE
  5
987
330
1F
100
AcDbEntity
  8
2
  6
CONTINUOUS
370
25
 62
7
100
AcDbLine
 10
40.34358264474125
 20
-32.63128347105175
 30
0.0
 11
41.0
 21
-33.2877008263105
 31
0.0
  0
LINE
  5
988
330
1F
100
AcDbEntity
  8
2
  6
CONTINUOUS
370
25
 62
7
100
AcDbLine
 10
40.69713603533452
 20
-32.56057279293309
 30
0.0
 11
41.0
 21
-32.86343675759857
 31
0.0
  0
LINE
  5
989
330
1F
100
AcDbEntity
  8
2
  6
CONTINUOUS
370
25
 62
7
100
AcDbLine
 10
56.0
 20
-33.5
 30
0.0
 11
51.0
 21
-34.5
 31
0.0
  0
LINE
  5
98A
330
1F
100
AcDbEntity
  8
2
  6
CONTINUOUS
370
25
 62
7
100
AcDbLine
 10
51.0
 20
-34.5
 30
0.0
 11
51.0
 21
-32.5
 31
0.0
  0
LINE
  5
98B
330
1F
100
AcDbEntity
  8
2
  6
CONTINUOUS
370
25
 62
7
100
AcDbLine
 10
51.0
 20
-32.5
 30
0.0
 11
56.0
 21
-33.5
 31
0.0
  0
LINE
  5
98C
330
1F
100
AcDbEntity
  8
2
  6
CONTINUOUS
370
25
 62
7
100
AcDbLine
 10
55.61152002059433
 20
-33.57769599588114
 30
0.0
 11
55.74101334706289
 21
-33.44820266941257
 31
0.0
  0
LINE
  5
98D
330
1F
100
AcDbEntity
  8
2
  6
CONTINUOUS
370
25
 62
7
100
AcDbLine
 10
55.08118993470441
 20
-33.68376201305912
 30
0.0
 11
55.38745995646961
 21
-33.37749199129392
 31
0.0
  0
LINE
  5
98E
330
1F
100
AcDbEntity
  8
2
  6
CONTINUOUS
370
25
 62
7
100
AcDbLine
 10
54.5508598488145
 20
-33.7898280302371
 30
0.0
 11
55.03390656587634
 21
-33.30678131317526
 31
0.0
  0
LINE
  5
98F
330
1F
100
AcDbEntity
  8
2
  6
CONTINUOUS
370
25
 62
7
100
AcDbLine
 10
54.02052976292458
 20
-33.89589404741508
 30
0.0
 11
54.68035317528306
 21
-33.23607063505661
 31
0.0
  0
LINE
  5
990
330
1F
100
AcDbEntity
  8
2
  6
CONTINUOUS
370
25
 62
7
100
AcDbLine
 10
53.49019967703467
 20
-34.00196006459306
 30
0.0
 11
54.32679978468978
 21
-33.16535995693796
 31
0.0
  0
LINE
  5
991
330
1F
100
AcDbEntity
  8
2
  6
CONTINUOUS
370
25
 62
7
100
AcDbLine
 10
52.95986959114475
 20
-34.10802608177105
 30
0.0
 11
53.97324639409651
 21
-33.0946492788193
 31
0.0
  0
LINE
  5
992
330
1F
100
AcDbEntity
  8
2
  6
CONTINUOUS
370
25
 62
7
100
AcDbLine
 10
52.42953950525485
 20
-34.21409209894902
 30
0.0
 11
53.61969300350323
 21
-33.02393860070065
 31
0.0
  0
LINE
  5
993
330
1F
100
AcDbEntity
  8
2
  6
CONTINUOUS
370
25
 62
7
100
AcDbLine
 10
51.89920941936494
 20
-34.32015811612702
 30
0.0
 11
53.26613961290997
 21
-32.95322792258199
 31
0.0
  0
LINE
  5
994
330
1F
100
AcDbEntity
  8
2
  6
CONTINUOUS
370
25
 62
7
100
AcDbLine
 10
51.36887933347501
 20
-34.426224133305
 30
0.0
 11
52.91258622231669
 21
-32.88251724446333
 31
0.0
  0
LINE
  5
995
330
1F
100
AcDbEntity
  8
2
  6
CONTINUOUS
370
25
 62
7
100
AcDbLine
 10
51.0
 20
-34.37083939806809
 30
0.0
 11
52.55903283172341
 21
-32.81180656634469
 31
0.0
  0
LINE
  5
996
330
1F
100
AcDbEntity
  8
2
  6
CONTINUOUS
370
25
 62
7
100
AcDbLine
 10
51.0
 20
-33.94657532935615
 30
0.0
 11
52.20547944113013
 21
-32.74109588822603
 31
0.0
  0
LINE
  5
997
330
1F
100
AcDbEntity
  8
2
  6
CONTINUOUS
370
25
 62
7
100
AcDbLine
 10
51.0
 20
-33.52231126064423
 30
0.0
 11
51.85192605053686
 21
-32.67038521010737
 31
0.0
  0
LINE
  5
998
330
1F
100
AcDbEntity
  8
2
  6
CONTINUOUS
370
25
 62
7
100
AcDbLine
 10
51.0
 20
-33.0980471919323
 30
0.0
 11
51.49837265994358
 21
-32.59967453198871
 31
0.0
  0
LINE
  5
999
330
1F
100
AcDbEntity
  8
2
  6
CONTINUOUS
370
25
 62
7
100
AcDbLine
 10
51.0
 20
-32.67378312322037
 30
0.0
 11
51.14481926935031
 21
-32.52896385387006
 31
0.0
  0
LINE
  5
99A
330
1F
100
AcDbEntity
  8
2
  6
CONTINUOUS
370
25
 62
7
100
AcDbLine
 10
51.0
 20
-34.07664019319511
 30
0.0
 11
51.35279983900407
 21
-34.42944003219918
 31
0.0
  0
LINE
  5
99B
330
1F
100
AcDbEntity
  8
2
  6
CONTINUOUS
370
25
 62
7
100
AcDbLine
 10
51.0
 20
-33.65237612448318
 30
0.0
 11
51.70635322959734
 21
-34.35872935408053
 31
0.0
  0
LINE
  5
99C
330
1F
100
AcDbEntity
  8
2
  6
CONTINUOUS
370
25
 62
7
100
AcDbLine
 10
51.0
 20
-33.22811205577126
 30
0.0
 11
52.05990662019062
 21
-34.28801867596187
 31
0.0
  0
LINE
  5
99D
330
1F
100
AcDbEntity
  8
2
  6
CONTINUOUS
370
25
 62
7
100
AcDbLine
 10
51.0
 20
-32.80384798705933
 30
0.0
 11
52.41346001078389
 21
-34.21730799784322
 31
0.0
  0
LINE
  5
99E
330
1F
100
AcDbEntity
  8
2
  6
CONTINUOUS
370
25
 62
7
100
AcDbLine
 10
51.15052010206574
 20
-32.53010402041315
 30
0.0
 11
52.76701340137717
 21
-34.14659731972456
 31
0.0
  0
LINE
  5
99F
330
1F
100
AcDbEntity
  8
2
  6
CONTINUOUS
370
25
 62
7
100
AcDbLine
 10
51.68085018795566
 20
-32.63617003759113
 30
0.0
 11
53.12056679197045
 21
-34.07588664160591
 31
0.0
  0
LINE
  5
9A0
330
1F
100
AcDbEntity
  8
2
  6
CONTINUOUS
370
25
 62
7
100
AcDbLine
 10
52.21118027384557
 20
-32.74223605476912
 30
0.0
 11
53.47412018256372
 21
-34.00517596348725
 31
0.0
  0
LINE
  5
9A1
330
1F
100
AcDbEntity
  8
2
  6
CONTINUOUS
370
25
 62
7
100
AcDbLine
 10
52.74151035973549
 20
-32.8483020719471
 30
0.0
 11
53.827673573157
 21
-33.9344652853686
 31
0.0
  0
LINE
  5
9A2
330
1F
100
AcDbEntity
  8
2
  6
CONTINUOUS
370
25
 62
7
100
AcDbLine
 10
53.2718404456254
 20
-32.95436808912508
 30
0.0
 11
54.18122696375027
 21
-33.86375460724994
 31
0.0
  0
LINE
  5
9A3
330
1F
100
AcDbEntity
  8
2
  6
CONTINUOUS
370
25
 62
7
100
AcDbLine
 10
53.80217053151532
 20
-33.06043410630306
 30
0.0
 11
54.53478035434355
 21
-33.79304392913129
 31
0.0
  0
LINE
  5
9A4
330
1F
100
AcDbEntity
  8
2
  6
CONTINUOUS
370
25
 62
7
100
AcDbLine
 10
54.33250061740523
 20
-33.16650012348104
 30
0.0
 11
54.88833374493682
 21
-33.72233325101264
 31
0.0
  0
LINE
  5
9A5
330
1F
100
AcDbEntity
  8
2
  6
CONTINUOUS
370
25
 62
7
100
AcDbLine
 10
54.86283070329515
 20
-33.27256614065902
 30
0.0
 11
55.2418871355301
 21
-33.65162257289398
 31
0.0
  0
LINE
  5
9A6
330
1F
100
AcDbEntity
  8
2
  6
CONTINUOUS
370
25
 62
7
100
AcDbLine
 10
55.39316078918506
 20
-33.37863215783701
 30
0.0
 11
55.59544052612337
 21
-33.58091189477533
 31
0.0
  0
LINE
  5
9A7
330
1F
100
AcDbEntity
  8
2
  6
CONTINUOUS
370
25
 62
7
100
AcDbLine
 10
55.92349087507498
 20
-33.484698175015
 30
0.0
 11
55.94899391671665
 21
-33.51020121665667
 31
0.0
  0
TEXT
  5
9A8
330
1F
100
AcDbEntity
  8
2
  6
CONTINUOUS
370
25
 62
7
100
AcDbText
 10
43.375
 20
-32.0
 30
0.0
 40
3.5
  1
20
 72
     1
 11
46.0
 21
-32.0
 31
0.0
100
AcDbText
  0
LINE
  5
9A9
330
1F
100
AcDbEntity
  8
SK2
  6
CONTINUOUS
370
25
 62
7
100
AcDbLine
 10
0.0
 20
3.0
 30
0.0
 11
0.0000000000000036
 21
34.5
 31
0.0
  0
LINE
  5
9AA
330
1F
100
AcDbEntity
  8
SK2
  6
CONTINUOUS
370
25
 62
7
100
AcDbLine
 10
56.0
 20
34.5
 30
0.0
 11
56.0
 21
0.0
 31
0.0
  0
LINE
  5
9AB
330
1F
100
AcDbEntity
  8
SK2
  6
CONTINUOUS
370
25
 62
7
100
AcDbLine
 10
0.0000000000000036
 20
33.5
 30
0.0
 11
56.0
 21
33.5
 31
0.0
  0
LINE
  5
9AC
330
1F
100
AcDbEntity
  8
SK2
  6
CONTINUOUS
370
25
 62
7
100
AcDbLine
 10
0.0000000000000036
 20
33.5
 30
0.0
 11
5.000000000000004
 21
34.5
 31
0.0
  0
LINE
  5
9AD
330
1F
100
AcDbEntity
  8
SK2
  6
CONTINUOUS
370
25
 62
7
100
AcDbLine
 10
5.000000000000004
 20
34.5
 30
0.0
 11
5.000000000000004
 21
32.5
 31
0.0
  0
LINE
  5
9AE
330
1F
100
AcDbEntity
  8
SK2
  6
CONTINUOUS
370
25
 62
7
100
AcDbLine
 10
5.000000000000004
 20
32.5
 30
0.0
 11
0.0000000000000036
 21
33.5
 31
0.0
  0
LINE
  5
9AF
330
1F
100
AcDbEntity
  8
SK2
  6
CONTINUOUS
370
25
 62
7
100
AcDbLine
 10
4.810732384427926
 20
32.53785352311442
 30
0.0
 11
5.000000000000004
 21
32.7271211386865
 31
0.0
  0
LINE
  5
9B0
330
1F
100
AcDbEntity
  8
SK2
  6
CONTINUOUS
370
25
 62
7
100
AcDbLine
 10
4.457178993834656
 20
32.60856420123307
 30
0.0
 11
5.000000000000004
 21
33.15138520739842
 31
0.0
  0
LINE
  5
9B1
330
1F
100
AcDbEntity
  8
SK2
  6
CONTINUOUS
370
25
 62
7
100
AcDbLine
 10
4.103625603241372
 20
32.67927487935172
 30
0.0
 11
5.000000000000004
 21
33.57564927611035
 31
0.0
  0
LINE
  5
9B2
330
1F
100
AcDbEntity
  8
SK2
  6
CONTINUOUS
370
25
 62
7
100
AcDbLine
 10
3.750072212648099
 20
32.74998555747038
 30
0.0
 11
5.000000000000004
 21
33.99991334482229
 31
0.0
  0
LINE
  5
9B3
330
1F
100
AcDbEntity
  8
SK2
  6
CONTINUOUS
370
25
 62
7
100
AcDbLine
 10
3.39651882205483
 20
32.82069623558903
 30
0.0
 11
5.000000000000004
 21
34.42417741353421
 31
0.0
  0
LINE
  5
9B4
330
1F
100
AcDbEntity
  8
SK2
  6
CONTINUOUS
370
25
 62
7
100
AcDbLine
 10
3.042965431461557
 20
32.89140691370769
 30
0.0
 11
4.564448147192333
 21
34.41288962943847
 31
0.0
  0
LINE
  5
9B5
330
1F
100
AcDbEntity
  8
SK2
  6
CONTINUOUS
370
25
 62
7
100
AcDbLine
 10
2.689412040868284
 20
32.96211759182634
 30
0.0
 11
4.034118061302422
 21
34.30682361226049
 31
0.0
  0
LINE
  5
9B6
330
1F
100
AcDbEntity
  8
SK2
  6
CONTINUOUS
370
25
 62
7
100
AcDbLine
 10
2.335858650275011
 20
33.032828269945
 30
0.0
 11
3.503787975412511
 21
34.20075759508251
 31
0.0
  0
LINE
  5
9B7
330
1F
100
AcDbEntity
  8
SK2
  6
CONTINUOUS
370
25
 62
7
100
AcDbLine
 10
1.982305259681731
 20
33.10353894806366
 30
0.0
 11
2.973457889522592
 21
34.09469157790452
 31
0.0
  0
LINE
  5
9B8
330
1F
100
AcDbEntity
  8
SK2
  6
CONTINUOUS
370
25
 62
7
100
AcDbLine
 10
1.628751869088465
 20
33.17424962618231
 30
0.0
 11
2.443127803632692
 21
33.98862556072655
 31
0.0
  0
LINE
  5
9B9
330
1F
100
AcDbEntity
  8
SK2
  6
CONTINUOUS
370
25
 62
7
100
AcDbLine
 10
1.275198478495184
 20
33.24496030430097
 30
0.0
 11
1.912797717742773
 21
33.88255954354855
 31
0.0
  0
LINE
  5
9BA
330
1F
100
AcDbEntity
  8
SK2
  6
CONTINUOUS
370
25
 62
7
100
AcDbLine
 10
0.9216450879019114
 20
33.31567098241962
 30
0.0
 11
1.382467631852865
 21
33.77649352637057
 31
0.0
  0
LINE
  5
9BB
330
1F
100
AcDbEntity
  8
SK2
  6
CONTINUOUS
370
25
 62
7
100
AcDbLine
 10
0.5680916973086347
 20
33.38638166053827
 30
0.0
 11
0.8521375459629574
 21
33.67042750919259
 31
0.0
  0
LINE
  5
9BC
330
1F
100
AcDbEntity
  8
SK2
  6
CONTINUOUS
370
25
 62
7
100
AcDbLine
 10
0.2145383067153688
 20
33.45709233865693
 30
0.0
 11
0.3218074600730496
 21
33.56436149201461
 31
0.0
  0
LINE
  5
9BD
330
1F
100
AcDbEntity
  8
SK2
  6
CONTINUOUS
370
25
 62
7
100
AcDbLine
 10
0.2426406871191738
 20
33.54852813742384
 30
0.0
 11
0.3639610306787624
 21
33.42720779386425
 31
0.0
  0
LINE
  5
9BE
330
1F
100
AcDbEntity
  8
SK2
  6
CONTINUOUS
370
25
 62
7
100
AcDbLine
 10
0.5961940777124468
 20
33.61923881554249
 30
0.0
 11
0.8942911165686702
 21
33.32114177668627
 31
0.0
  0
LINE
  5
9BF
330
1F
100
AcDbEntity
  8
SK2
  6
CONTINUOUS
370
25
 62
7
100
AcDbLine
 10
0.9497474683057234
 20
33.68994949366115
 30
0.0
 11
1.424621202458585
 21
33.21507575950828
 31
0.0
  0
LINE
  5
9C0
330
1F
100
AcDbEntity
  8
SK2
  6
CONTINUOUS
370
25
 62
7
100
AcDbLine
 10
1.303300858899
 20
33.7606601717798
 30
0.0
 11
1.954951288348497
 21
33.1090097423303
 31
0.0
  0
LINE
  5
9C1
330
1F
100
AcDbEntity
  8
SK2
  6
CONTINUOUS
370
25
 62
7
100
AcDbLine
 10
1.65685424949227
 20
33.83137084989846
 30
0.0
 11
2.485281374238404
 21
33.00294372515232
 31
0.0
  0
LINE
  5
9C2
330
1F
100
AcDbEntity
  8
SK2
  6
CONTINUOUS
370
25
 62
7
100
AcDbLine
 10
2.010407640085546
 20
33.90208152801711
 30
0.0
 11
3.015611460128316
 21
32.89687770797434
 31
0.0
  0
LINE
  5
9C3
330
1F
100
AcDbEntity
  8
SK2
  6
CONTINUOUS
370
25
 62
7
100
AcDbLine
 10
2.363961030678819
 20
33.97279220613576
 30
0.0
 11
3.545941546018224
 21
32.79081169079636
 31
0.0
  0
LINE
  5
9C4
330
1F
100
AcDbEntity
  8
SK2
  6
CONTINUOUS
370
25
 62
7
100
AcDbLine
 10
2.717514421272092
 20
34.04350288425442
 30
0.0
 11
4.076271631908135
 21
32.68474567361837
 31
0.0
  0
LINE
  5
9C5
330
1F
100
AcDbEntity
  8
SK2
  6
CONTINUOUS
370
25
 62
7
100
AcDbLine
 10
3.071067811865365
 20
34.11421356237308
 30
0.0
 11
4.606601717798039
 21
32.57867965644039
 31
0.0
  0
LINE
  5
9C6
330
1F
100
AcDbEntity
  8
SK2
  6
CONTINUOUS
370
25
 62
7
100
AcDbLine
 10
3.424621202458642
 20
34.18492424049173
 30
0.0
 11
5.000000000000004
 21
32.60954544295036
 31
0.0
  0
LINE
  5
9C7
330
1F
100
AcDbEntity
  8
SK2
  6
CONTINUOUS
370
25
 62
7
100
AcDbLine
 10
3.778174593051912
 20
34.25563491861038
 30
0.0
 11
5.000000000000004
 21
33.03380951166228
 31
0.0
  0
LINE
  5
9C8
330
1F
100
AcDbEntity
  8
SK2
  6
CONTINUOUS
370
25
 62
7
100
AcDbLine
 10
4.131727983645188
 20
34.32634559672904
 30
0.0
 11
5.000000000000004
 21
33.45807358037422
 31
0.0
  0
LINE
  5
9C9
330
1F
100
AcDbEntity
  8
SK2
  6
CONTINUOUS
370
25
 62
7
100
AcDbLine
 10
4.485281374238461
 20
34.3970562748477
 30
0.0
 11
5.000000000000004
 21
33.88233764908615
 31
0.0
  0
LINE
  5
9CA
330
1F
100
AcDbEntity
  8
SK2
  6
CONTINUOUS
370
25
 62
7
100
AcDbLine
 10
4.838834764831734
 20
34.46776695296635
 30
0.0
 11
5.000000000000004
 21
34.30660171779807
 31
0.0
  0
LINE
  5
9CB
330
1F
100
AcDbEntity
  8
SK2
  6
CONTINUOUS
370
25
 62
7
100
AcDbLine
 10
56.0
 20
33.5
 30
0.0
 11
51.0
 21
32.5
 31
0.0
  0
LINE
  5
9CC
330
1F
100
AcDbEntity
  8
SK2
  6
CONTINUOUS
370
25
 62
7
100
AcDbLine
 10
51.0
 20
32.5
 30
0.0
 11
51.0
 21
34.5
 31
0.0
  0
LINE
  5
9CD
330
1F
100
AcDbEntity
  8
SK2
  6
CONTINUOUS
370
25
 62
7
100
AcDbLine
 10
51.0
 20
34.5
 30
0.0
 11
56.0
 21
33.5
 31
0.0
  0
LINE
  5
9CE
330
1F
100
AcDbEntity
  8
SK2
  6
CONTINUOUS
370
25
 62
7
100
AcDbLine
 10
55.79504871165133
 20
33.45900974233027
 30
0.0
 11
55.86336580776756
 21
33.5273268384465
 31
0.0
  0
LINE
  5
9CF
330
1F
100
AcDbEntity
  8
SK2
  6
CONTINUOUS
370
25
 62
7
100
AcDbLine
 10
55.26471862576142
 20
33.35294372515229
 30
0.0
 11
55.50981241717428
 21
33.59803751656514
 31
0.0
  0
LINE
  5
9D0
330
1F
100
AcDbEntity
  8
SK2
  6
CONTINUOUS
370
25
 62
7
100
AcDbLine
 10
54.7343885398715
 20
33.2468777079743
 30
0.0
 11
55.156259026581
 21
33.6687481946838
 31
0.0
  0
LINE
  5
9D1
330
1F
100
AcDbEntity
  8
SK2
  6
CONTINUOUS
370
25
 62
7
100
AcDbLine
 10
54.2040584539816
 20
33.14081169079632
 30
0.0
 11
54.80270563598773
 21
33.73945887280246
 31
0.0
  0
LINE
  5
9D2
330
1F
100
AcDbEntity
  8
SK2
  6
CONTINUOUS
370
25
 62
7
100
AcDbLine
 10
53.67372836809169
 20
33.03474567361833
 30
0.0
 11
54.44915224539446
 21
33.81016955092111
 31
0.0
  0
LINE
  5
9D3
330
1F
100
AcDbEntity
  8
SK2
  6
CONTINUOUS
370
25
 62
7
100
AcDbLine
 10
53.14339828220177
 20
32.92867965644035
 30
0.0
 11
54.09559885480118
 21
33.88088022903976
 31
0.0
  0
LINE
  5
9D4
330
1F
100
AcDbEntity
  8
SK2
  6
CONTINUOUS
370
25
 62
7
100
AcDbLine
 10
52.61306819631186
 20
32.82261363926237
 30
0.0
 11
53.74204546420791
 21
33.95159090715842
 31
0.0
  0
LINE
  5
9D5
330
1F
100
AcDbEntity
  8
SK2
  6
CONTINUOUS
370
25
 62
7
100
AcDbLine
 10
52.08273811042196
 20
32.71654762208439
 30
0.0
 11
53.38849207361464
 21
34.02230158527708
 31
0.0
  0
LINE
  5
9D6
330
1F
100
AcDbEntity
  8
SK2
  6
CONTINUOUS
370
25
 62
7
100
AcDbLine
 10
51.55240802453204
 20
32.61048160490641
 30
0.0
 11
53.03493868302136
 21
34.09301226339574
 31
0.0
  0
LINE
  5
9D7
330
1F
100
AcDbEntity
  8
SK2
  6
CONTINUOUS
370
25
 62
7
100
AcDbLine
 10
51.02207793864214
 20
32.50441558772842
 30
0.0
 11
52.68138529242809
 21
34.16372294151438
 31
0.0
  0
LINE
  5
9D8
330
1F
100
AcDbEntity
  8
SK2
  6
CONTINUOUS
370
25
 62
7
100
AcDbLine
 10
51.0
 20
32.90660171779822
 30
0.0
 11
52.32783190183481
 21
34.23443361963304
 31
0.0
  0
LINE
  5
9D9
330
1F
100
AcDbEntity
  8
SK2
  6
CONTINUOUS
370
25
 62
7
100
AcDbLine
 10
51.0
 20
33.33086578651015
 30
0.0
 11
51.97427851124154
 21
34.3051442977517
 31
0.0
  0
LINE
  5
9DA
330
1F
100
AcDbEntity
  8
SK2
  6
CONTINUOUS
370
25
 62
7
100
AcDbLine
 10
51.0
 20
33.75512985522208
 30
0.0
 11
51.62072512064826
 21
34.37585497587035
 31
0.0
  0
LINE
  5
9DB
330
1F
100
AcDbEntity
  8
SK2
  6
CONTINUOUS
370
25
 62
7
100
AcDbLine
 10
51.0
 20
34.17939392393401
 30
0.0
 11
51.26717173005499
 21
34.446565653989
 31
0.0
  0
LINE
  5
9DC
330
1F
100
AcDbEntity
  8
SK2
  6
CONTINUOUS
370
25
 62
7
100
AcDbLine
 10
51.0
 20
32.85432893255069
 30
0.0
 11
51.29527411045891
 21
32.55905482209178
 31
0.0
  0
LINE
  5
9DD
330
1F
100
AcDbEntity
  8
SK2
  6
CONTINUOUS
370
25
 62
7
100
AcDbLine
 10
51.0
 20
33.27859300126263
 30
0.0
 11
51.6488275010522
 21
32.62976550021044
 31
0.0
  0
LINE
  5
9DE
330
1F
100
AcDbEntity
  8
SK2
  6
CONTINUOUS
370
25
 62
7
100
AcDbLine
 10
51.0
 20
33.70285706997456
 30
0.0
 11
52.00238089164547
 21
32.70047617832909
 31
0.0
  0
LINE
  5
9DF
330
1F
100
AcDbEntity
  8
SK2
  6
CONTINUOUS
370
25
 62
7
100
AcDbLine
 10
51.0
 20
34.12712113868648
 30
0.0
 11
52.35593428223874
 21
32.77118685644774
 31
0.0
  0
LINE
  5
9E0
330
1F
100
AcDbEntity
  8
SK2
  6
CONTINUOUS
370
25
 62
7
100
AcDbLine
 10
51.06423150924802
 20
34.48715369815039
 30
0.0
 11
52.70948767283201
 21
32.8418975345664
 31
0.0
  0
LINE
  5
9E1
330
1F
100
AcDbEntity
  8
SK2
  6
CONTINUOUS
370
25
 62
7
100
AcDbLine
 10
51.59456159513793
 20
34.38108768097241
 30
0.0
 11
53.06304106342529
 21
32.91260821268506
 31
0.0
  0
LINE
  5
9E2
330
1F
100
AcDbEntity
  8
SK2
  6
CONTINUOUS
370
25
 62
7
100
AcDbLine
 10
52.12489168102783
 20
34.27502166379443
 30
0.0
 11
53.41659445401856
 21
32.98331889080371
 31
0.0
  0
LINE
  5
9E3
330
1F
100
AcDbEntity
  8
SK2
  6
CONTINUOUS
370
25
 62
7
100
AcDbLine
 10
52.65522176691776
 20
34.16895564661645
 30
0.0
 11
53.77014784461184
 21
33.05402956892237
 31
0.0
  0
LINE
  5
9E4
330
1F
100
AcDbEntity
  8
SK2
  6
CONTINUOUS
370
25
 62
7
100
AcDbLine
 10
53.18555185280766
 20
34.06288962943847
 30
0.0
 11
54.1237012352051
 21
33.12474024704102
 31
0.0
  0
LINE
  5
9E5
330
1F
100
AcDbEntity
  8
SK2
  6
CONTINUOUS
370
25
 62
7
100
AcDbLine
 10
53.71588193869757
 20
33.95682361226049
 30
0.0
 11
54.47725462579838
 21
33.19545092515968
 31
0.0
  0
LINE
  5
9E6
330
1F
100
AcDbEntity
  8
SK2
  6
CONTINUOUS
370
25
 62
7
100
AcDbLine
 10
54.24621202458749
 20
33.85075759508251
 30
0.0
 11
54.83080801639166
 21
33.26616160327833
 31
0.0
  0
LINE
  5
9E7
330
1F
100
AcDbEntity
  8
SK2
  6
CONTINUOUS
370
25
 62
7
100
AcDbLine
 10
54.77654211047739
 20
33.74469157790453
 30
0.0
 11
55.18436140698493
 21
33.33687228139698
 31
0.0
  0
LINE
  5
9E8
330
1F
100
AcDbEntity
  8
SK2
  6
CONTINUOUS
370
25
 62
7
100
AcDbLine
 10
55.3068721963673
 20
33.63862556072654
 30
0.0
 11
55.5379147975782
 21
33.40758295951564
 31
0.0
  0
LINE
  5
9E9
330
1F
100
AcDbEntity
  8
SK2
  6
CONTINUOUS
370
25
 62
7
100
AcDbLine
 10
55.83720228225722
 20
33.53255954354856
 30
0.0
 11
55.89146818817148
 21
33.47829363763429
 31
0.0
  0
TEXT
  5
9EA
330
1F
100
AcDbEntity
  8
SK2
  6
CONTINUOUS
370
25
 62
7
100
AcDbText
 10
25.08333333333334
 20
35.0
 30
0.0
 40
3.5
  1
56
 72
     1
 11
28.0
 21
35.0
 31
0.0
100
AcDbText
  0
LINE
  5
9EB
330
1F
100
AcDbEntity
  8
2
  6
CONTINUOUS
370
25
 62
7
100
AcDbLine
 10
30.5
 20
-1.005
 30
0.0
 11
30.5
 21
-44.5
 31
0.0
  0
LINE
  5
9EC
330
1F
100
AcDbEntity
  8
2
  6
CONTINUOUS
370
25
 62
7
100
AcDbLine
 10
56.0
 20
-44.5
 30
0.0
 11
56.0
 21
0.0
 31
0.0
  0
LINE
  5
9ED
330
1F
100
AcDbEntity
  8
2
  6
CONTINUOUS
370
25
 62
7
100
AcDbLine
 10
30.5
 20
-43.5
 30
0.0
 11
56.0
 21
-43.5
 31
0.0
  0
LINE
  5
9EE
330
1F
100
AcDbEntity
  8
2
  6
CONTINUOUS
370
25
 62
7
100
AcDbLine
 10
30.5
 20
-43.5
 30
0.0
 11
35.5
 21
-42.5
 31
0.0
  0
LINE
  5
9EF
330
1F
100
AcDbEntity
  8
2
  6
CONTINUOUS
370
25
 62
7
100
AcDbLine
 10
35.5
 20
-42.5
 30
0.0
 11
35.5
 21
-44.5
 31
0.0
  0
LINE
  5
9F0
330
1F
100
AcDbEntity
  8
2
  6
CONTINUOUS
370
25
 62
7
100
AcDbLine
 10
35.5
 20
-44.5
 30
0.0
 11
30.5
 21
-43.5
 31
0.0
  0
LINE
  5
9F1
330
1F
100
AcDbEntity
  8
2
  6
CONTINUOUS
370
25
 62
7
100
AcDbLine
 10
35.20362155974798
 20
-44.44072431194959
 30
0.0
 11
35.5
 21
-44.14434587169758
 31
0.0
  0
LINE
  5
9F2
330
1F
100
AcDbEntity
  8
2
  6
CONTINUOUS
370
25
 62
7
100
AcDbLine
 10
34.8500681691547
 20
-44.37001363383094
 30
0.0
 11
35.5
 21
-43.72008180298565
 31
0.0
  0
LINE
  5
9F3
330
1F
100
AcDbEntity
  8
2
  6
CONTINUOUS
370
25
 62
7
100
AcDbLine
 10
34.49651477856143
 20
-44.29930295571229
 30
0.0
 11
35.5
 21
-43.29581773427373
 31
0.0
  0
LINE
  5
9F4
330
1F
100
AcDbEntity
  8
2
  6
CONTINUOUS
370
25
 62
7
100
AcDbLine
 10
34.14296138796815
 20
-44.22859227759363
 30
0.0
 11
35.5
 21
-42.87155366556179
 31
0.0
  0
LINE
  5
9F5
330
1F
100
AcDbEntity
  8
2
  6
CONTINUOUS
370
25
 62
7
100
AcDbLine
 10
33.78940799737488
 20
-44.15788159947498
 30
0.0
 11
35.43411199606232
 21
-42.51317760078754
 31
0.0
  0
LINE
  5
9F6
330
1F
100
AcDbEntity
  8
2
  6
CONTINUOUS
370
25
 62
7
100
AcDbLine
 10
33.4358546067816
 20
-44.08717092135632
 30
0.0
 11
34.90378191017241
 21
-42.61924361796552
 31
0.0
  0
LINE
  5
9F7
330
1F
100
AcDbEntity
  8
2
  6
CONTINUOUS
370
25
 62
7
100
AcDbLine
 10
33.08230121618833
 20
-44.01646024323767
 30
0.0
 11
34.3734518242825
 21
-42.7253096351435
 31
0.0
  0
LINE
  5
9F8
330
1F
100
AcDbEntity
  8
2
  6
CONTINUOUS
370
25
 62
7
100
AcDbLine
 10
32.72874782559505
 20
-43.94574956511901
 30
0.0
 11
33.84312173839258
 21
-42.83137565232148
 31
0.0
  0
LINE
  5
9F9
330
1F
100
AcDbEntity
  8
2
  6
CONTINUOUS
370
25
 62
7
100
AcDbLine
 10
32.37519443500177
 20
-43.87503888700036
 30
0.0
 11
33.31279165250265
 21
-42.93744166949947
 31
0.0
  0
LINE
  5
9FA
330
1F
100
AcDbEntity
  8
2
  6
CONTINUOUS
370
25
 62
7
100
AcDbLine
 10
32.0216410444085
 20
-43.8043282088817
 30
0.0
 11
32.78246156661275
 21
-43.04350768667745
 31
0.0
  0
LINE
  5
9FB
330
1F
100
AcDbEntity
  8
2
  6
CONTINUOUS
370
25
 62
7
100
AcDbLine
 10
31.66808765381522
 20
-43.73361753076304
 30
0.0
 11
32.25213148072283
 21
-43.14957370385543
 31
0.0
  0
LINE
  5
9FC
330
1F
100
AcDbEntity
  8
2
  6
CONTINUOUS
370
25
 62
7
100
AcDbLine
 10
31.31453426322194
 20
-43.66290685264439
 30
0.0
 11
31.72180139483292
 21
-43.25563972103342
 31
0.0
  0
LINE
  5
9FD
330
1F
100
AcDbEntity
  8
2
  6
CONTINUOUS
370
25
 62
7
100
AcDbLine
 10
30.96098087262866
 20
-43.59219617452573
 30
0.0
 11
31.191471308943
 21
-43.3617057382114
 31
0.0
  0
LINE
  5
9FE
330
1F
100
AcDbEntity
  8
2
  6
CONTINUOUS
370
25
 62
7
100
AcDbLine
 10
30.60742748203539
 20
-43.52148549640708
 30
0.0
 11
30.66114122305309
 21
-43.46777175538938
 31
0.0
  0
LINE
  5
9FF
330
1F
100
AcDbEntity
  8
2
  6
CONTINUOUS
370
25
 62
7
100
AcDbLine
 10
30.76575074290641
 20
-43.44684985141872
 30
0.0
 11
30.89862611435962
 21
-43.57972522287192
 31
0.0
  0
LINE
  5
A00
330
1F
100
AcDbEntity
  8
2
  6
CONTINUOUS
370
25
 62
7
100
AcDbLine
 10
31.11930413349969
 20
-43.37613917330006
 30
0.0
 11
31.42895620024953
 21
-43.68579124004991
 31
0.0
  0
LINE
  5
A01
330
1F
100
AcDbEntity
  8
2
  6
CONTINUOUS
370
25
 62
7
100
AcDbLine
 10
31.47285752409296
 20
-43.30542849518141
 30
0.0
 11
31.95928628613945
 21
-43.79185725722789
 31
0.0
  0
LINE
  5
A02
330
1F
100
AcDbEntity
  8
2
  6
CONTINUOUS
370
25
 62
7
100
AcDbLine
 10
31.82641091468624
 20
-43.23471781706275
 30
0.0
 11
32.48961637202936
 21
-43.89792327440588
 31
0.0
  0
LINE
  5
A03
330
1F
100
AcDbEntity
  8
2
  6
CONTINUOUS
370
25
 62
7
100
AcDbLine
 10
32.17996430527951
 20
-43.16400713894409
 30
0.0
 11
33.01994645791927
 21
-44.00398929158386
 31
0.0
  0
LINE
  5
A04
330
1F
100
AcDbEntity
  8
2
  6
CONTINUOUS
370
25
 62
7
100
AcDbLine
 10
32.5335176958728
 20
-43.09329646082544
 30
0.0
 11
33.55027654380919
 21
-44.11005530876184
 31
0.0
  0
LINE
  5
A05
330
1F
100
AcDbEntity
  8
2
  6
CONTINUOUS
370
25
 62
7
100
AcDbLine
 10
32.88707108646607
 20
-43.02258578270678
 30
0.0
 11
34.0806066296991
 21
-44.21612132593982
 31
0.0
  0
LINE
  5
A06
330
1F
100
AcDbEntity
  8
2
  6
CONTINUOUS
370
25
 62
7
100
AcDbLine
 10
33.24062447705934
 20
-42.95187510458813
 30
0.0
 11
34.61093671558902
 21
-44.3221873431178
 31
0.0
  0
LINE
  5
A07
330
1F
100
AcDbEntity
  8
2
  6
CONTINUOUS
370
25
 62
7
100
AcDbLine
 10
33.59417786765262
 20
-42.88116442646947
 30
0.0
 11
35.14126680147893
 21
-44.42825336029578
 31
0.0
  0
LINE
  5
A08
330
1F
100
AcDbEntity
  8
2
  6
CONTINUOUS
370
25
 62
7
100
AcDbLine
 10
33.94773125824589
 20
-42.81045374835082
 30
0.0
 11
35.5
 21
-44.36272249010492
 31
0.0
  0
LINE
  5
A09
330
1F
100
AcDbEntity
  8
2
  6
CONTINUOUS
370
25
 62
7
100
AcDbLine
 10
34.30128464883917
 20
-42.73974307023217
 30
0.0
 11
35.5
 21
-43.93845842139299
 31
0.0
  0
LINE
  5
A0A
330
1F
100
AcDbEntity
  8
2
  6
CONTINUOUS
370
25
 62
7
100
AcDbLine
 10
34.65483803943245
 20
-42.66903239211351
 30
0.0
 11
35.5
 21
-43.51419435268106
 31
0.0
  0
LINE
  5
A0B
330
1F
100
AcDbEntity
  8
2
  6
CONTINUOUS
370
25
 62
7
100
AcDbLine
 10
35.00839143002572
 20
-42.59832171399486
 30
0.0
 11
35.5
 21
-43.08993028396913
 31
0.0
  0
LINE
  5
A0C
330
1F
100
AcDbEntity
  8
2
  6
CONTINUOUS
370
25
 62
7
100
AcDbLine
 10
35.361944820619
 20
-42.5276110358762
 30
0.0
 11
35.5
 21
-42.6656662152572
 31
0.0
  0
LINE
  5
A0D
330
1F
100
AcDbEntity
  8
2
  6
CONTINUOUS
370
25
 62
7
100
AcDbLine
 10
56.0
 20
-43.5
 30
0.0
 11
51.0
 21
-44.5
 31
0.0
  0
LINE
  5
A0E
330
1F
100
AcDbEntity
  8
2
  6
CONTINUOUS
370
25
 62
7
100
AcDbLine
 10
51.0
 20
-44.5
 30
0.0
 11
51.0
 21
-42.5
 31
0.0
  0
LINE
  5
A0F
330
1F
100
AcDbEntity
  8
2
  6
CONTINUOUS
370
25
 62
7
100
AcDbLine
 10
51.0
 20
-42.5
 30
0.0
 11
56.0
 21
-43.5
 31
0.0
  0
LINE
  5
A10
330
1F
100
AcDbEntity
  8
2
  6
CONTINUOUS
370
25
 62
7
100
AcDbLine
 10
55.91392804512638
 20
-43.51721439097472
 30
0.0
 11
55.94261869675091
 21
-43.48852373935019
 31
0.0
  0
LINE
  5
A11
330
1F
100
AcDbEntity
  8
2
  6
CONTINUOUS
370
25
 62
7
100
AcDbLine
 10
55.38359795923645
 20
-43.62328040815271
 30
0.0
 11
55.58906530615764
 21
-43.41781306123153
 31
0.0
  0
LINE
  5
A12
330
1F
100
AcDbEntity
  8
2
  6
CONTINUOUS
370
25
 62
7
100
AcDbLine
 10
54.85326787334654
 20
-43.72934642533069
 30
0.0
 11
55.23551191556436
 21
-43.34710238311287
 31
0.0
  0
LINE
  5
A13
330
1F
100
AcDbEntity
  8
2
  6
CONTINUOUS
370
25
 62
7
100
AcDbLine
 10
54.32293778745662
 20
-43.83541244250868
 30
0.0
 11
54.88195852497108
 21
-43.27639170499422
 31
0.0
  0
LINE
  5
A14
330
1F
100
AcDbEntity
  8
2
  6
CONTINUOUS
370
25
 62
7
100
AcDbLine
 10
53.79260770156672
 20
-43.94147845968665
 30
0.0
 11
54.52840513437781
 21
-43.20568102687557
 31
0.0
  0
LINE
  5
A15
330
1F
100
AcDbEntity
  8
2
  6
CONTINUOUS
370
25
 62
7
100
AcDbLine
 10
53.2622776156768
 20
-44.04754447686464
 30
0.0
 11
54.17485174378453
 21
-43.13497034875691
 31
0.0
  0
LINE
  5
A16
330
1F
100
AcDbEntity
  8
2
  6
CONTINUOUS
370
25
 62
7
100
AcDbLine
 10
52.73194752978688
 20
-44.15361049404262
 30
0.0
 11
53.82129835319125
 21
-43.06425967063825
 31
0.0
  0
LINE
  5
A17
330
1F
100
AcDbEntity
  8
2
  6
CONTINUOUS
370
25
 62
7
100
AcDbLine
 10
52.20161744389698
 20
-44.2596765112206
 30
0.0
 11
53.46774496259799
 21
-42.99354899251959
 31
0.0
  0
LINE
  5
A18
330
1F
100
AcDbEntity
  8
2
  6
CONTINUOUS
370
25
 62
7
100
AcDbLine
 10
51.67128735800706
 20
-44.36574252839858
 30
0.0
 11
53.11419157200471
 21
-42.92283831440094
 31
0.0
  0
LINE
  5
A19
330
1F
100
AcDbEntity
  8
2
  6
CONTINUOUS
370
25
 62
7
100
AcDbLine
 10
51.14095727211714
 20
-44.47180854557657
 30
0.0
 11
52.76063818141142
 21
-42.85212763628229
 31
0.0
  0
LINE
  5
A1A
330
1F
100
AcDbEntity
  8
2
  6
CONTINUOUS
370
25
 62
7
100
AcDbLine
 10
51.0
 20
-44.18850174898179
 30
0.0
 11
52.40708479081816
 21
-42.78141695816363
 31
0.0
  0
LINE
  5
A1B
330
1F
100
AcDbEntity
  8
2
  6
CONTINUOUS
370
25
 62
7
100
AcDbLine
 10
51.0
 20
-43.76423768026986
 30
0.0
 11
52.05353140022488
 21
-42.71070628004497
 31
0.0
  0
LINE
  5
A1C
330
1F
100
AcDbEntity
  8
2
  6
CONTINUOUS
370
25
 62
7
100
AcDbLine
 10
51.0
 20
-43.33997361155792
 30
0.0
 11
51.6999780096316
 21
-42.63999560192632
 31
0.0
  0
LINE
  5
A1D
330
1F
100
AcDbEntity
  8
2
  6
CONTINUOUS
370
25
 62
7
100
AcDbLine
 10
51.0
 20
-42.91570954284599
 30
0.0
 11
51.34642461903832
 21
-42.56928492380766
 31
0.0
  0
LINE
  5
A1E
330
1F
100
AcDbEntity
  8
2
  6
CONTINUOUS
370
25
 62
7
100
AcDbLine
 10
51.0
 20
-44.31856661282077
 30
0.0
 11
51.15119448931602
 21
-44.4697611021368
 31
0.0
  0
LINE
  5
A1F
330
1F
100
AcDbEntity
  8
2
  6
CONTINUOUS
370
25
 62
7
100
AcDbLine
 10
51.0
 20
-43.89430254410884
 30
0.0
 11
51.5047478799093
 21
-44.39905042401814
 31
0.0
  0
LINE
  5
A20
330
1F
100
AcDbEntity
  8
2
  6
CONTINUOUS
370
25
 62
7
100
AcDbLine
 10
51.0
 20
-43.47003847539691
 30
0.0
 11
51.85830127050257
 21
-44.32833974589948
 31
0.0
  0
LINE
  5
A21
330
1F
100
AcDbEntity
  8
2
  6
CONTINUOUS
370
25
 62
7
100
AcDbLine
 10
51.0
 20
-43.04577440668498
 30
0.0
 11
52.21185466109585
 21
-44.25762906778083
 31
0.0
  0
LINE
  5
A22
330
1F
100
AcDbEntity
  8
2
  6
CONTINUOUS
370
25
 62
7
100
AcDbLine
 10
51.0
 20
-42.62151033797305
 30
0.0
 11
52.56540805168913
 21
-44.18691838966218
 31
0.0
  0
LINE
  5
A23
330
1F
100
AcDbEntity
  8
2
  6
CONTINUOUS
370
25
 62
7
100
AcDbLine
 10
51.37844216342359
 20
-42.57568843268471
 30
0.0
 11
52.9189614422824
 21
-44.11620771154352
 31
0.0
  0
LINE
  5
A24
330
1F
100
AcDbEntity
  8
2
  6
CONTINUOUS
370
25
 62
7
100
AcDbLine
 10
51.90877224931351
 20
-42.6817544498627
 30
0.0
 11
53.27251483287567
 21
-44.04549703342487
 31
0.0
  0
LINE
  5
A25
330
1F
100
AcDbEntity
  8
2
  6
CONTINUOUS
370
25
 62
7
100
AcDbLine
 10
52.43910233520342
 20
-42.78782046704069
 30
0.0
 11
53.62606822346895
 21
-43.97478635530621
 31
0.0
  0
LINE
  5
A26
330
1F
100
AcDbEntity
  8
2
  6
CONTINUOUS
370
25
 62
7
100
AcDbLine
 10
52.96943242109334
 20
-42.89388648421867
 30
0.0
 11
53.97962161406222
 21
-43.90407567718756
 31
0.0
  0
LINE
  5
A27
330
1F
100
AcDbEntity
  8
2
  6
CONTINUOUS
370
25
 62
7
100
AcDbLine
 10
53.49976250698325
 20
-42.99995250139665
 30
0.0
 11
54.3331750046555
 21
-43.83336499906891
 31
0.0
  0
LINE
  5
A28
330
1F
100
AcDbEntity
  8
2
  6
CONTINUOUS
370
25
 62
7
100
AcDbLine
 10
54.03009259287317
 20
-43.10601851857463
 30
0.0
 11
54.68672839524878
 21
-43.76265432095025
 31
0.0
  0
LINE
  5
A29
330
1F
100
AcDbEntity
  8
2
  6
CONTINUOUS
370
25
 62
7
100
AcDbLine
 10
54.56042267876308
 20
-43.21208453575262
 30
0.0
 11
55.04028178584205
 21
-43.69194364283159
 31
0.0
  0
LINE
  5
A2A
330
1F
100
AcDbEntity
  8
2
  6
CONTINUOUS
370
25
 62
7
100
AcDbLine
 10
55.090752764653
 20
-43.3181505529306
 30
0.0
 11
55.39383517643534
 21
-43.62123296471294
 31
0.0
  0
LINE
  5
A2B
330
1F
100
AcDbEntity
  8
2
  6
CONTINUOUS
370
25
 62
7
100
AcDbLine
 10
55.62108285054291
 20
-43.42421657010858
 30
0.0
 11
55.74738856702861
 21
-43.55052228659428
 31
0.0
  0
TEXT
  5
A2C
330
1F
100
AcDbEntity
  8
2
  6
CONTINUOUS
370
25
 62
7
100
AcDbText
 10
38.0
 20
-42.0
 30
0.0
 40
3.5
  1
25.5
 72
     1
 11
43.25
 21
-42.0
 31
0.0
100
AcDbText
  0
LINE
  5
A2D
330
1F
100
AcDbEntity
  8
4
  6
LONGDASH_DASH
370
25
 62
2
100
AcDbLine
 10
28.7
 20
0.0
 30
0.0
 11
56.0
 21
0.0
 31
0.0
  0
LINE
  5
A2E
330
1F
100
AcDbEntity
  8
SK4
  6
LONGDASH_DASH
370
25
 62
2
100
AcDbLine
 10
-6.000000000000004
 20
0.0
 30
0.0
 11
62.0
 21
0.0
 31
0.0
  0
LINE
  5
A2F
330
1F
100
AcDbEntity
  8
2
  6
CONTINUOUS
370
25
 62
7
100
AcDbLine
 10
56.0
 20
0.0
 30
0.0
 11
64.87498349655469
 21
19.03246352776965
 31
0.0
  0
LINE
  5
A30
330
1F
100
AcDbEntity
  8
2
  6
CONTINUOUS
370
25
 62
7
100
AcDbLine
 10
56.0
 20
0.0
 30
0.0
 11
64.87498349655469
 21
-19.03246352776965
 31
0.0
  0
ARC
  5
A31
330
1F
100
AcDbEntity
  8
2
  6
CONTINUOUS
370
25
 62
7
100
AcDbCircle
 10
55.99999999999994
 20
-0.0000000000000017
 30
0.0
 40
20.00000000000002
100
AcDbArc
 50
295.0000000000001
 51
64.99999999999982
  0
LINE
  5
A32
330
1F
100
AcDbEntity
  8
2
  6
CONTINUOUS
370
25
 62
7
100
AcDbLine
 10
64.452365234814
 20
18.12615574073299
 30
0.0
 11
69.21681775672374
 21
16.30956768438455
 31
0.0
  0
LINE
  5
A33
330
1F
100
AcDbEntity
  8
2
  6
CONTINUOUS
370
25
 62
7
100
AcDbLine
 10
69.21681775672374
 20
16.30956768438455
 30
0.0
 11
68.15163369490436
 21
14.61682348798453
 31
0.0
  0
LINE
  5
A34
330
1F
100
AcDbEntity
  8
2
  6
CONTINUOUS
370
25
 62
7
100
AcDbLine
 10
68.15163369490436
 20
14.61682348798453
 30
0.0
 11
64.452365234814
 21
18.12615574073299
 31
0.0
  0
LINE
  5
A35
330
1F
100
AcDbEntity
  8
2
  6
CONTINUOUS
370
25
 62
7
100
AcDbLine
 10
68.09788221884294
 20
14.66781513420059
 30
0.0
 11
68.32941857684199
 21
14.89935149219963
 31
0.0
  0
LINE
  5
A36
330
1F
100
AcDbEntity
  8
2
  6
CONTINUOUS
370
25
 62
7
100
AcDbLine
 10
67.88016081206001
 20
14.87435779612959
 30
0.0
 11
69.04953972395178
 21
16.04373670802136
 31
0.0
  0
LINE
  5
A37
330
1F
100
AcDbEntity
  8
2
  6
CONTINUOUS
370
25
 62
7
100
AcDbLine
 10
67.6624394052771
 20
15.08090045805861
 30
0.0
 11
68.98101383285459
 21
16.3994748856361
 31
0.0
  0
LINE
  5
A38
330
1F
100
AcDbEntity
  8
2
  6
CONTINUOUS
370
25
 62
7
100
AcDbLine
 10
67.44471799849417
 20
15.28744311998761
 30
0.0
 11
68.67386088521766
 21
16.5165860067111
 31
0.0
  0
LINE
  5
A39
330
1F
100
AcDbEntity
  8
2
  6
CONTINUOUS
370
25
 62
7
100
AcDbLine
 10
67.22699659171124
 20
15.49398578191662
 30
0.0
 11
68.36670793758073
 21
16.6336971277861
 31
0.0
  0
LINE
  5
A3A
330
1F
100
AcDbEntity
  8
2
  6
CONTINUOUS
370
25
 62
7
100
AcDbLine
 10
67.00927518492833
 20
15.70052844384563
 30
0.0
 11
68.0595549899438
 21
16.75080824886111
 31
0.0
  0
LINE
  5
A3B
330
1F
100
AcDbEntity
  8
2
  6
CONTINUOUS
370
25
 62
7
100
AcDbLine
 10
66.7915537781454
 20
15.90707110577464
 30
0.0
 11
67.75240204230687
 21
16.8679193699361
 31
0.0
  0
LINE
  5
A3C
330
1F
100
AcDbEntity
  8
2
  6
CONTINUOUS
370
25
 62
7
100
AcDbLine
 10
66.57383237136247
 20
16.11361376770364
 30
0.0
 11
67.44524909466995
 21
16.98503049101111
 31
0.0
  0
LINE
  5
A3D
330
1F
100
AcDbEntity
  8
2
  6
CONTINUOUS
370
25
 62
7
100
AcDbLine
 10
66.35611096457956
 20
16.32015642963265
 30
0.0
 11
67.13809614703301
 21
17.10214161208611
 31
0.0
  0
LINE
  5
A3E
330
1F
100
AcDbEntity
  8
2
  6
CONTINUOUS
370
25
 62
7
100
AcDbLine
 10
66.13838955779663
 20
16.52669909156165
 30
0.0
 11
66.83094319939607
 21
17.21925273316111
 31
0.0
  0
LINE
  5
A3F
330
1F
100
AcDbEntity
  8
2
  6
CONTINUOUS
370
25
 62
7
100
AcDbLine
 10
65.92066815101371
 20
16.73324175349067
 30
0.0
 11
66.52379025175915
 21
17.33636385423611
 31
0.0
  0
LINE
  5
A40
330
1F
100
AcDbEntity
  8
2
  6
CONTINUOUS
370
25
 62
7
100
AcDbLine
 10
65.70294674423079
 20
16.93978441541967
 30
0.0
 11
66.21663730412222
 21
17.45347497531111
 31
0.0
  0
LINE
  5
A41
330
1F
100
AcDbEntity
  8
2
  6
CONTINUOUS
370
25
 62
7
100
AcDbLine
 10
65.48522533744786
 20
17.14632707734868
 30
0.0
 11
65.9094843564853
 21
17.57058609638611
 31
0.0
  0
LINE
  5
A42
330
1F
100
AcDbEntity
  8
2
  6
CONTINUOUS
370
25
 62
7
100
AcDbLine
 10
65.26750393066493
 20
17.35286973927768
 30
0.0
 11
65.60233140884836
 21
17.68769721746111
 31
0.0
  0
LINE
  5
A43
330
1F
100
AcDbEntity
  8
2
  6
CONTINUOUS
370
25
 62
7
100
AcDbLine
 10
65.04978252388202
 20
17.55941240120669
 30
0.0
 11
65.29517846121144
 21
17.80480833853611
 31
0.0
  0
LINE
  5
A44
330
1F
100
AcDbEntity
  8
2
  6
CONTINUOUS
370
25
 62
7
100
AcDbLine
 10
64.83206111709909
 20
17.76595506313569
 30
0.0
 11
64.9880255135745
 21
17.92191945961111
 31
0.0
  0
LINE
  5
A45
330
1F
100
AcDbEntity
  8
2
  6
CONTINUOUS
370
25
 62
7
100
AcDbLine
 10
64.61433971031617
 20
17.97249772506471
 30
0.0
 11
64.68087256593758
 21
18.03903058068611
 31
0.0
  0
LINE
  5
A46
330
1F
100
AcDbEntity
  8
2
  6
CONTINUOUS
370
25
 62
7
100
AcDbLine
 10
64.45723940796412
 20
18.12429731845081
 30
0.0
 11
64.5111011242234
 21
18.07043560219154
 31
0.0
  0
LINE
  5
A47
330
1F
100
AcDbEntity
  8
2
  6
CONTINUOUS
370
25
 62
7
100
AcDbLine
 10
65.14295139904962
 20
17.86284939607724
 30
0.0
 11
68.2433020086747
 21
14.76249878645217
 31
0.0
  0
LINE
  5
A48
330
1F
100
AcDbEntity
  8
2
  6
CONTINUOUS
370
25
 62
7
100
AcDbLine
 10
65.82866339013512
 20
17.60140147370367
 30
0.0
 11
68.40716389400393
 21
15.02290096983487
 31
0.0
  0
LINE
  5
A49
330
1F
100
AcDbEntity
  8
2
  6
CONTINUOUS
370
25
 62
7
100
AcDbLine
 10
66.51437538122065
 20
17.33995355133009
 30
0.0
 11
68.57102577933317
 21
15.28330315321757
 31
0.0
  0
LINE
  5
A4A
330
1F
100
AcDbEntity
  8
2
  6
CONTINUOUS
370
25
 62
7
100
AcDbLine
 10
67.20008737230616
 20
17.07850562895651
 30
0.0
 11
68.7348876646624
 21
15.54370533660028
 31
0.0
  0
LINE
  5
A4B
330
1F
100
AcDbEntity
  8
2
  6
CONTINUOUS
370
25
 62
7
100
AcDbLine
 10
67.88579936339165
 20
16.81705770658294
 30
0.0
 11
68.89874954999163
 21
15.80410751998297
 31
0.0
  0
LINE
  5
A4C
330
1F
100
AcDbEntity
  8
2
  6
CONTINUOUS
370
25
 62
7
100
AcDbLine
 10
68.57151135447717
 20
16.55560978420937
 30
0.0
 11
69.06261143532086
 21
16.06450970336567
 31
0.0
  0
LINE
  5
A4D
330
1F
100
AcDbEntity
  8
2
  6
CONTINUOUS
370
25
 62
7
100
AcDbLine
 10
64.45236523481398
 20
-18.126155740733
 30
0.0
 11
68.15163369490435
 21
-14.61682348798453
 31
0.0
  0
LINE
  5
A4E
330
1F
100
AcDbEntity
  8
2
  6
CONTINUOUS
370
25
 62
7
100
AcDbLine
 10
68.15163369490435
 20
-14.61682348798453
 30
0.0
 11
69.21681775672373
 21
-16.30956768438455
 31
0.0
  0
LINE
  5
A4F
330
1F
100
AcDbEntity
  8
2
  6
CONTINUOUS
370
25
 62
7
100
AcDbLine
 10
69.21681775672373
 20
-16.30956768438455
 30
0.0
 11
64.45236523481398
 21
-18.126155740733
 31
0.0
  0
LINE
  5
A50
330
1F
100
AcDbEntity
  8
2
  6
CONTINUOUS
370
25
 62
7
100
AcDbLine
 10
69.0111977288529
 20
-16.38796638498205
 30
0.0
 11
69.1676815510479
 21
-16.23148256278705
 31
0.0
  0
LINE
  5
A51
330
1F
100
AcDbEntity
  8
2
  6
CONTINUOUS
370
25
 62
7
100
AcDbLine
 10
68.3254857377674
 20
-16.64941430735563
 30
0.0
 11
69.00381966571867
 21
-15.97108037940435
 31
0.0
  0
LINE
  5
A52
330
1F
100
AcDbEntity
  8
2
  6
CONTINUOUS
370
25
 62
7
100
AcDbLine
 10
67.6397737466819
 20
-16.9108622297292
 30
0.0
 11
68.83995778038944
 21
-15.71067819602165
 31
0.0
  0
LINE
  5
A53
330
1F
100
AcDbEntity
  8
2
  6
CONTINUOUS
370
25
 62
7
100
AcDbLine
 10
66.95406175559638
 20
-17.17231015210277
 30
0.0
 11
68.67609589506021
 21
-15.45027601263895
 31
0.0
  0
LINE
  5
A54
330
1F
100
AcDbEntity
  8
2
  6
CONTINUOUS
370
25
 62
7
100
AcDbLine
 10
66.26834976451087
 20
-17.43375807447635
 30
0.0
 11
68.51223400973097
 21
-15.18987382925625
 31
0.0
  0
LINE
  5
A55
330
1F
100
AcDbEntity
  8
2
  6
CONTINUOUS
370
25
 62
7
100
AcDbLine
 10
65.58263777342536
 20
-17.69520599684993
 30
0.0
 11
68.34837212440175
 21
-14.92947164587355
 31
0.0
  0
LINE
  5
A56
330
1F
100
AcDbEntity
  8
2
  6
CONTINUOUS
370
25
 62
7
100
AcDbLine
 10
64.89692578233986
 20
-17.9566539192235
 30
0.0
 11
68.18451023907252
 21
-14.66906946249085
 31
0.0
  0
LINE
  5
A57
330
1F
100
AcDbEntity
  8
2
  6
CONTINUOUS
370
25
 62
7
100
AcDbLine
 10
64.55134700363735
 20
-18.03225611773635
 30
0.0
 11
64.59200488947928
 21
-18.07291400357829
 31
0.0
  0
LINE
  5
A58
330
1F
100
AcDbEntity
  8
2
  6
CONTINUOUS
370
25
 62
7
100
AcDbLine
 10
64.76906841042027
 20
-17.82571345580734
 30
0.0
 11
64.89915783711622
 21
-17.95580288250329
 31
0.0
  0
LINE
  5
A59
330
1F
100
AcDbEntity
  8
2
  6
CONTINUOUS
370
25
 62
7
100
AcDbLine
 10
64.98678981720319
 20
-17.61917079387833
 30
0.0
 11
65.20631078475314
 21
-17.83869176142829
 31
0.0
  0
LINE
  5
A5A
330
1F
100
AcDbEntity
  8
2
  6
CONTINUOUS
370
25
 62
7
100
AcDbLine
 10
65.20451122398612
 20
-17.41262813194933
 30
0.0
 11
65.51346373239008
 21
-17.72158064035329
 31
0.0
  0
LINE
  5
A5B
330
1F
100
AcDbEntity
  8
2
  6
CONTINUOUS
370
25
 62
7
100
AcDbLine
 10
65.42223263076903
 20
-17.20608547002032
 30
0.0
 11
65.820616680027
 21
-17.60446951927829
 31
0.0
  0
LINE
  5
A5C
330
1F
100
AcDbEntity
  8
2
  6
CONTINUOUS
370
25
 62
7
100
AcDbLine
 10
65.63995403755196
 20
-16.99954280809132
 30
0.0
 11
66.12776962766394
 21
-17.48735839820328
 31
0.0
  0
LINE
  5
A5D
330
1F
100
AcDbEntity
  8
2
  6
CONTINUOUS
370
25
 62
7
100
AcDbLine
 10
65.85767544433489
 20
-16.79300014616231
 30
0.0
 11
66.43492257530086
 21
-17.37024727712828
 31
0.0
  0
LINE
  5
A5E
330
1F
100
AcDbEntity
  8
2
  6
CONTINUOUS
370
25
 62
7
100
AcDbLine
 10
66.0753968511178
 20
-16.58645748423329
 30
0.0
 11
66.7420755229378
 21
-17.25313615605328
 31
0.0
  0
LINE
  5
A5F
330
1F
100
AcDbEntity
  8
2
  6
CONTINUOUS
370
25
 62
7
100
AcDbLine
 10
66.29311825790074
 20
-16.37991482230429
 30
0.0
 11
67.04922847057473
 21
-17.13602503497828
 31
0.0
  0
LINE
  5
A60
330
1F
100
AcDbEntity
  8
2
  6
CONTINUOUS
370
25
 62
7
100
AcDbLine
 10
66.51083966468366
 20
-16.17337216037528
 30
0.0
 11
67.35638141821165
 21
-17.01891391390328
 31
0.0
  0
LINE
  5
A61
330
1F
100
AcDbEntity
  8
2
  6
CONTINUOUS
370
25
 62
7
100
AcDbLine
 10
66.72856107146659
 20
-15.96682949844627
 30
0.0
 11
67.66353436584859
 21
-16.90180279282827
 31
0.0
  0
LINE
  5
A62
330
1F
100
AcDbEntity
  8
2
  6
CONTINUOUS
370
25
 62
7
100
AcDbLine
 10
66.94628247824951
 20
-15.76028683651727
 30
0.0
 11
67.97068731348551
 21
-16.78469167175327
 31
0.0
  0
LINE
  5
A63
330
1F
100
AcDbEntity
  8
2
  6
CONTINUOUS
370
25
 62
7
100
AcDbLine
 10
67.16400388503243
 20
-15.55374417458826
 30
0.0
 11
68.27784026112245
 21
-16.66758055067827
 31
0.0
  0
LINE
  5
A64
330
1F
100
AcDbEntity
  8
2
  6
CONTINUOUS
370
25
 62
7
100
AcDbLine
 10
67.38172529181534
 20
-15.34720151265925
 30
0.0
 11
68.58499320875937
 21
-16.55046942960328
 31
0.0
  0
LINE
  5
A65
330
1F
100
AcDbEntity
  8
2
  6
CONTINUOUS
370
25
 62
7
100
AcDbLine
 10
67.59944669859829
 20
-15.14065885073025
 30
0.0
 11
68.89214615639631
 21
-16.43335830852827
 31
0.0
  0
LINE
  5
A66
330
1F
100
AcDbEntity
  8
2
  6
CONTINUOUS
370
25
 62
7
100
AcDbLine
 10
67.8171681053812
 20
-14.93411618880124
 30
0.0
 11
69.19929910403323
 21
-16.31624718745327
 31
0.0
  0
LINE
  5
A67
330
1F
100
AcDbEntity
  8
2
  6
CONTINUOUS
370
25
 62
7
100
AcDbLine
 10
68.03488951216413
 20
-14.72757352687223
 30
0.0
 11
68.53776915138295
 21
-15.23045316609105
 31
0.0
  0
TEXT
  5
A68
330
1F
100
AcDbEntity
  8
2
  6
CONTINUOUS
370
25
 62
7
100
AcDbText
 10
73.5
 20
-4.958333333333333
 30
0.0
 40
3.5
  1
130°
 50
90.0
 72
     1
 11
73.5
 21
0.0
 31
0.0
100
AcDbText
  0
LINE
  5
A69
330
1F
100
AcDbEntity
  8
SK1
  6
CONTINUOUS
370
50
 62
4
100
AcDbLine
 10
28.7
 20
0.0
 30
0.0
 11
31.325
 21
0.0
 31
0.0
  0
LINE
  5
A6A
330
1F
100
AcDbEntity
  8
SK1
  6
CONTINUOUS
370
50
 62
4
100
AcDbLine
 10
28.7
 20
0.0
 30
0.0
 11
28.7
 21
2.625
 31
0.0
  0
ARC
  5
A6B
330
1F
100
AcDbEntity
  8
SK1
  6
CONTINUOUS
370
50
 62
4
100
AcDbCircle
 10
28.7
 20
0.0
 30
0.0
 40
2.625
100
AcDbArc
 50
0.0
 51
90.0
  0
LINE
  5
A6C
330
1F
100
AcDbEntity
  8
SK1
  6
CONTINUOUS
370
50
 62
4
100
AcDbLine
 10
28.7
 20
0.0
 30
0.0
 11
26.075
 21
0.0
 31
0.0
  0
ARC
  5
A6D
330
1F
100
AcDbEntity
  8
SK1
  6
CONTINUOUS
370
50
 62
4
100
AcDbCircle
 10
28.7
 20
0.0
 30
0.0
 40
2.625
100
AcDbArc
 50
180.0
 51
270.0
  0
LINE
  5
A6E
330
1F
100
AcDbEntity
  8
SK1
  6
CONTINUOUS
370
50
 62
4
100
AcDbLine
 10
28.7
 20
-2.625
 30
0.0
 11
28.7
 21
0.0
 31
0.0
  0
ARC
  5
A6F
330
1F
100
AcDbEntity
  8
SK1
  6
CONTINUOUS
370
50
 62
4
100
AcDbCircle
 10
28.7
 20
0.0
 30
0.0
 40
2.625
100
AcDbArc
 50
270.0
 51
0.0
  0
ARC
  5
A70
330
1F
100
AcDbEntity
  8
SK1
  6
CONTINUOUS
370
50
 62
4
100
AcDbCircle
 10
28.7
 20
0.0
 30
0.0
 40
2.625
100
AcDbArc
 50
90.0
 51
180.0
  0
LINE
  5
A71
330
1F
100
AcDbEntity
  8
SK1
  6
CONTINUOUS
370
50
 62
4
100
AcDbLine
 10
28.36575722192681
 20
-2.60347067499975
 30
0.0
 11
28.7
 21
-2.269227896926564
 31
0.0
  0
LINE
  5
A72
330
1F
100
AcDbEntity
  8
SK1
  6
CONTINUOUS
370
50
 62
4
100
AcDbLine
 10
30.96922789692656
 20
0.0
 30
0.0
 11
31.30347067499975
 21
0.3342427780731851
 31
0.0
  0
LINE
  5
A73
330
1F
100
AcDbEntity
  8
SK1
  6
CONTINUOUS
370
50
 62
4
100
AcDbLine
 10
28.05395391214687
 20
-2.544042924656761
 30
0.0
 11
28.7
 21
-1.897996836803626
 31
0.0
  0
LINE
  5
A74
330
1F
100
AcDbEntity
  8
SK1
  6
CONTINUOUS
370
50
 62
4
100
AcDbLine
 10
30.59799683680362
 20
0.0
 30
0.0
 11
31.24404292465676
 21
0.6460460878531347
 31
0.0
  0
LINE
  5
A75
330
1F
100
AcDbEntity
  8
SK1
  6
CONTINUOUS
370
50
 62
4
100
AcDbLine
 10
27.77222348891575
 20
-2.454542287764935
 30
0.0
 11
28.7
 21
-1.526765776680689
 31
0.0
  0
LINE
  5
A76
330
1F
100
AcDbEntity
  8
SK1
  6
CONTINUOUS
370
50
 62
4
100
AcDbLine
 10
30.22676577668069
 20
0.0
 30
0.0
 11
31.15454228776493
 21
0.9277765110842457
 31
0.0
  0
LINE
  5
A77
330
1F
100
AcDbEntity
  8
SK1
  6
CONTINUOUS
370
50
 62
4
100
AcDbLine
 10
27.51478120678253
 20
-2.340753509775221
 30
0.0
 11
28.7
 21
-1.155534716557751
 31
0.0
  0
LINE
  5
A78
330
1F
100
AcDbEntity
  8
SK1
  6
CONTINUOUS
370
50
 62
4
100
AcDbLine
 10
29.85553471655775
 20
0.0
 30
0.0
 11
31.04075350977522
 21
1.185218793217471
 31
0.0
  0
LINE
  5
A79
330
1F
100
AcDbEntity
  8
SK1
  6
CONTINUOUS
370
50
 62
4
100
AcDbLine
 10
27.27826543845547
 20
-2.206038217979337
 30
0.0
 11
28.7
 21
-0.7843036564348136
 31
0.0
  0
LINE
  5
A7A
330
1F
100
AcDbEntity
  8
SK1
  6
CONTINUOUS
370
50
 62
4
100
AcDbLine
 10
29.48430365643481
 20
0.0
 30
0.0
 11
30.90603821797934
 21
1.421734561544524
 31
0.0
  0
LINE
  5
A7B
330
1F
100
AcDbEntity
  8
SK1
  6
CONTINUOUS
370
50
 62
4
100
AcDbLine
 10
27.0626431117109
 20
-2.050429484600978
 30
0.0
 11
28.7
 21
-0.413072596311876
 31
0.0
  0
LINE
  5
A7C
330
1F
100
AcDbEntity
  8
SK1
  6
CONTINUOUS
370
50
 62
4
100
AcDbLine
 10
29.11307259631187
 20
0.0
 30
0.0
 11
30.75042948460098
 21
1.637356888289101
 31
0.0
  0
LINE
  5
A7D
330
1F
100
AcDbEntity
  8
SK1
  6
CONTINUOUS
370
50
 62
4
100
AcDbLine
 10
26.86568136807246
 20
-1.876160168116476
 30
0.0
 11
28.7
 21
-0.0418415361889384
 31
0.0
  0
LINE
  5
A7E
330
1F
100
AcDbEntity
  8
SK1
  6
CONTINUOUS
370
50
 62
4
100
AcDbLine
 10
28.74184153618894
 20
0.0
 30
0.0
 11
30.57616016811647
 21
1.834318631927537
 31
0.0
  0
LINE
  5
A7F
330
1F
100
AcDbEntity
  8
SK1
  6
CONTINUOUS
370
50
 62
4
100
AcDbLine
 10
26.68675942477632
 20
-1.683851051289679
 30
0.0
 11
28.370610476066
 21
0.0
 31
0.0
  0
LINE
  5
A80
330
1F
100
AcDbEntity
  8
SK1
  6
CONTINUOUS
370
50
 62
4
100
AcDbLine
 10
28.7
 20
0.3293895239339992
 30
0.0
 11
30.38385105128968
 21
2.013240575223679
 31
0.0
  0
LINE
  5
A81
330
1F
100
AcDbEntity
  8
SK1
  6
CONTINUOUS
370
50
 62
4
100
AcDbLine
 10
26.52782161830506
 20
-1.471557797638
 30
0.0
 11
27.99937941594306
 21
0.0
 31
0.0
  0
LINE
  5
A82
330
1F
100
AcDbEntity
  8
SK1
  6
CONTINUOUS
370
50
 62
4
100
AcDbLine
 10
28.7
 20
0.7006205840569368
 30
0.0
 11
30.171557797638
 21
2.172178381694937
 31
0.0
  0
LINE
  5
A83
330
1F
100
AcDbEntity
  8
SK1
  6
CONTINUOUS
370
50
 62
4
100
AcDbLine
 10
26.38749288718529
 20
-1.240655468634837
 30
0.0
 11
27.62814835582012
 21
0.0
 31
0.0
  0
LINE
  5
A84
330
1F
100
AcDbEntity
  8
SK1
  6
CONTINUOUS
370
50
 62
4
100
AcDbLine
 10
28.7
 20
1.071851644179874
 30
0.0
 11
29.94065546863484
 21
2.312507112814711
 31
0.0
  0
LINE
  5
A85
330
1F
100
AcDbEntity
  8
SK1
  6
CONTINUOUS
370
50
 62
4
100
AcDbLine
 10
26.26877644288388
 20
-0.9881408528133115
 30
0.0
 11
27.25691729569719
 21
0.0
 31
0.0
  0
LINE
  5
A86
330
1F
100
AcDbEntity
  8
SK1
  6
CONTINUOUS
370
50
 62
4
100
AcDbLine
 10
28.7
 20
1.443082704302812
 30
0.0
 11
29.68814085281331
 21
2.431223557116124
 31
0.0
  0
LINE
  5
A87
330
1F
100
AcDbEntity
  8
SK1
  6
CONTINUOUS
370
50
 62
4
100
AcDbLine
 10
26.17444482033456
 20
-0.7112414152396886
 30
0.0
 11
26.88568623557425
 21
0.0
 31
0.0
  0
LINE
  5
A88
330
1F
100
AcDbEntity
  8
SK1
  6
CONTINUOUS
370
50
 62
4
100
AcDbLine
 10
28.7
 20
1.81431376442575
 30
0.0
 11
29.41124141523969
 21
2.525555179665439
 31
0.0
  0
LINE
  5
A89
330
1F
100
AcDbEntity
  8
SK1
  6
CONTINUOUS
370
50
 62
4
100
AcDbLine
 10
26.10797120571085
 20
-0.4064839697404632
 30
0.0
 11
26.51445517545131
 21
0.0
 31
0.0
  0
LINE
  5
A8A
330
1F
100
AcDbEntity
  8
SK1
  6
CONTINUOUS
370
50
 62
4
100
AcDbLine
 10
28.7
 20
2.185544824548687
 30
0.0
 11
29.10648396974046
 21
2.59202879428915
 31
0.0
  0
LINE
  5
A8B
330
1F
100
AcDbEntity
  8
SK1
  6
CONTINUOUS
370
50
 62
4
100
AcDbLine
 10
26.07707870331546
 20
-0.0661454120129097
 30
0.0
 11
26.14322411532837
 21
0.0
 31
0.0
  0
LINE
  5
A8C
330
1F
100
AcDbEntity
  8
SK1
  6
CONTINUOUS
370
50
 62
4
100
AcDbLine
 10
28.7
 20
2.556775884671625
 30
0.0
 11
28.76614541201291
 21
2.622921296684535
 31
0.0
  0
LINE
  5
A8D
330
1F
100
AcDbEntity
  8
SK1
  6
CONTINUOUS
370
50
 62
4
100
AcDbLine
 10
26.24579652643623
 20
-0.9287176037316112
 30
0.0
 11
27.77128239626839
 21
-2.454203473563768
 31
0.0
  0
LINE
  5
A8E
330
1F
100
AcDbEntity
  8
SK1
  6
CONTINUOUS
370
50
 62
4
100
AcDbLine
 10
26.11045104563307
 20
-0.4221410628055069
 30
0.0
 11
28.27785893719449
 21
-2.589548954366935
 31
0.0
  0
LINE
  5
A8F
330
1F
100
AcDbEntity
  8
SK1
  6
CONTINUOUS
370
50
 62
4
100
AcDbLine
 10
26.07550158008622
 20
-0.0159605371357268
 30
0.0
 11
28.68403946286428
 21
-2.624498419913778
 31
0.0
  0
LINE
  5
A90
330
1F
100
AcDbEntity
  8
SK1
  6
CONTINUOUS
370
50
 62
4
100
AcDbLine
 10
26.43077210307343
 20
0.0
 30
0.0
 11
28.7
 21
-2.269227896926564
 31
0.0
  0
LINE
  5
A91
330
1F
100
AcDbEntity
  8
SK1
  6
CONTINUOUS
370
50
 62
4
100
AcDbLine
 10
26.80200316319637
 20
0.0
 30
0.0
 11
28.7
 21
-1.897996836803626
 31
0.0
  0
LINE
  5
A92
330
1F
100
AcDbEntity
  8
SK1
  6
CONTINUOUS
370
50
 62
4
100
AcDbLine
 10
27.17323422331931
 20
0.0
 30
0.0
 11
28.7
 21
-1.526765776680689
 31
0.0
  0
LINE
  5
A93
330
1F
100
AcDbEntity
  8
SK1
  6
CONTINUOUS
370
50
 62
4
100
AcDbLine
 10
27.54446528344225
 20
0.0
 30
0.0
 11
28.7
 21
-1.155534716557752
 31
0.0
  0
LINE
  5
A94
330
1F
100
AcDbEntity
  8
SK1
  6
CONTINUOUS
370
50
 62
4
100
AcDbLine
 10
27.91569634356518
 20
0.0
 30
0.0
 11
28.7
 21
-0.7843036564348145
 31
0.0
  0
LINE
  5
A95
330
1F
100
AcDbEntity
  8
SK1
  6
CONTINUOUS
370
50
 62
4
100
AcDbLine
 10
28.28692740368812
 20
0.0
 30
0.0
 11
28.7
 21
-0.4130725963118769
 31
0.0
  0
LINE
  5
A96
330
1F
100
AcDbEntity
  8
SK1
  6
CONTINUOUS
370
50
 62
4
100
AcDbLine
 10
28.65815846381106
 20
0.0
 30
0.0
 11
28.7
 21
-0.0418415361889393
 31
0.0
  0
LINE
  5
A97
330
1F
100
AcDbEntity
  8
SK1
  6
CONTINUOUS
370
50
 62
4
100
AcDbLine
 10
28.7
 20
0.3293895239339975
 30
0.0
 11
29.029389523934
 21
0.0
 31
0.0
  0
LINE
  5
A98
330
1F
100
AcDbEntity
  8
SK1
  6
CONTINUOUS
370
50
 62
4
100
AcDbLine
 10
28.7
 20
0.7006205840569351
 30
0.0
 11
29.40062058405693
 21
0.0
 31
0.0
  0
LINE
  5
A99
330
1F
100
AcDbEntity
  8
SK1
  6
CONTINUOUS
370
50
 62
4
100
AcDbLine
 10
28.7
 20
1.071851644179873
 30
0.0
 11
29.77185164417987
 21
0.0
 31
0.0
  0
LINE
  5
A9A
330
1F
100
AcDbEntity
  8
SK1
  6
CONTINUOUS
370
50
 62
4
100
AcDbLine
 10
28.7
 20
1.44308270430281
 30
0.0
 11
30.14308270430281
 21
0.0
 31
0.0
  0
LINE
  5
A9B
330
1F
100
AcDbEntity
  8
SK1
  6
CONTINUOUS
370
50
 62
4
100
AcDbLine
 10
28.7
 20
1.814313764425748
 30
0.0
 11
30.51431376442575
 21
0.0
 31
0.0
  0
LINE
  5
A9C
330
1F
100
AcDbEntity
  8
SK1
  6
CONTINUOUS
370
50
 62
4
100
AcDbLine
 10
28.7
 20
2.185544824548685
 30
0.0
 11
30.88554482454868
 21
0.0
 31
0.0
  0
LINE
  5
A9D
330
1F
100
AcDbEntity
  8
SK1
  6
CONTINUOUS
370
50
 62
4
100
AcDbLine
 10
28.7
 20
2.556775884671622
 30
0.0
 11
31.25677588467163
 21
0.0
 31
0.0
  0
LINE
  5
A9E
330
1F
100
AcDbEntity
  8
SK1
  6
CONTINUOUS
370
50
 62
4
100
AcDbLine
 10
29.0231531925751
 20
2.604853752219459
 30
0.0
 11
31.30485375221946
 21
0.3231531925751043
 31
0.0
  0
LINE
  5
A9F
330
1F
100
AcDbEntity
  8
SK1
  6
CONTINUOUS
370
50
 62
4
100
AcDbLine
 10
29.49925237182748
 20
2.499985633090018
 30
0.0
 11
31.19998563309002
 21
0.7992523718274818
 31
0.0
  0
LINE
  5
AA0
330
1F
100
AcDbEntity
  8
SK1
  6
CONTINUOUS
370
50
 62
4
100
AcDbLine
 10
30.26015793098176
 20
2.11031113405868
 30
0.0
 11
30.81031113405868
 21
1.560157930981759
 31
0.0
  0
ARC
  5
AA1
330
1F
100
AcDbEntity
  8
SK6
  6
CONTINUOUS
370
25
 62
5
100
AcDbCircle
 10
81.0613820083765
 20
-26.19524575338786
 30
0.0
 40
2.76048912849221
100
AcDbArc
 50
338.9379403434233
 51
90.44457437511365
  0
LINE
  5
AA2
330
1F
100
AcDbEntity
  8
SK6
  6
CONTINUOUS
370
25
 62
5
100
AcDbLine
 10
81.03996279695983
 20
-23.43483972421281
 30
0.0
 11
81.03996279695983
 21
-24.53789835613463
 31
0.0
  0
ARC
  5
AA3
330
1F
100
AcDbEntity
  8
SK6
  6
CONTINUOUS
370
25
 62
5
100
AcDbCircle
 10
81.05050902936915
 20
-26.2152392456682
 30
0.0
 40
1.677374043771779
100
AcDbArc
 50
243.4214706017868
 51
90.36024081226083
  0
ARC
  5
AA4
330
1F
100
AcDbEntity
  8
SK6
  6
CONTINUOUS
370
25
 62
5
100
AcDbCircle
 10
83.57275989684958
 20
-25.7838319921556
 30
0.0
 40
3.80021703002276
100
AcDbArc
 50
210.5483731288539
 51
236.97801693668
  0
LINE
  5
AA5
330
1F
100
AcDbEntity
  8
SK6
  6
CONTINUOUS
370
25
 62
5
100
AcDbLine
 10
81.50179068512486
 20
-28.97016781867535
 30
0.0
 11
85.6437309674267
 21
-28.97016781867535
 31
0.0
  0
ARC
  5
AA6
330
1F
100
AcDbEntity
  8
SK6
  6
CONTINUOUS
370
25
 62
5
100
AcDbCircle
 10
83.57276183877256
 20
-25.7838320937346
 30
0.0
 40
3.800216899582472
100
AcDbArc
 50
303.0219828477959
 51
326.3732153033476
  0
LINE
  5
AA7
330
1F
100
AcDbEntity
  8
SK6
  6
CONTINUOUS
370
25
 62
5
100
AcDbLine
 10
86.73705975135722
 20
-27.8883194907709
 30
0.0
 11
83.37976170575462
 21
-27.8883194907709
 31
0.0
  0
LINE
  5
AA8
330
1F
100
AcDbEntity
  8
SK6
  6
CONTINUOUS
370
25
 62
5
100
AcDbLine
 10
83.37976170575462
 20
-27.8883194907709
 30
0.0
 11
87.29962109771986
 21
-26.52691829641694
 31
0.0
  0
ARC
  5
AA9
330
1F
100
AcDbEntity
  8
SK6
  6
CONTINUOUS
370
25
 62
5
100
AcDbCircle
 10
83.5727625615721
 20
-25.7838326048594
 30
0.0
 40
3.800217216614723
100
AcDbArc
 50
348.7238644184696
 51
53.4691051260885
  0
LINE
  5
AAA
330
1F
100
AcDbEntity
  8
SK6
  6
CONTINUOUS
370
25
 62
5
100
AcDbLine
 10
85.83486524538544
 20
-22.73022124429967
 30
0.0
 11
83.63745047882736
 21
-27.18730973507057
 31
0.0
  0
ENDSEC
  0
SECTION
  2
OBJECTS
  0
DICTIONARY
  5
C
330
0
100
AcDbDictionary
281
     1
  3
ACAD_GROUP
350
D
  3
ACAD_LAYOUT
350
1A
  3
ACAD_MATERIAL
350
3B
  3
ACAD_MLEADERSTYLE
350
AAD
  3
ACAD_MLINESTYLE
350
17
  3
ACAD_PLOTSETTINGS
350
19
  3
ACAD_PLOTSTYLENAME
350
E
  3
ACAD_SCALELIST
350
359
  3
ACAD_VISUALSTYLE
350
2A
  3
AcDbVariableDictionary
350
AAB
  0
DICTIONARY
  5
D
102
{ACAD_REACTORS
330
C
102
}
330
C
100
AcDbDictionary
281
     1
  0
DICTIONARY
  5
1A
102
{ACAD_REACTORS
330
C
102
}
330
C
100
AcDbDictionary
281
     1
  3
Layout1
350
1E
  3
Layout2
350
26
  3
Model
350
22
  0
DICTIONARY
  5
3B
102
{ACAD_REACTORS
330
C
102
}
330
C
100
AcDbDictionary
281
     1
  3
ByBlock
350
3D
  3
ByLayer
350
3C
  3
Global
350
3E
  0
DICTIONARY
  5
AAD
102
{ACAD_REACTORS
330
C
102
}
330
C
100
AcDbDictionary
281
     1
  0
DICTIONARY
  5
17
102
{ACAD_REACTORS
330
C
102
}
330
C
100
AcDbDictionary
281
     1
  3
Standard
350
18
  0
DICTIONARY
  5
19
102
{ACAD_REACTORS
330
C
102
}
330
C
100
AcDbDictionary
281
     1
  0
ACDBDICTIONARYWDFLT
  5
E
102
{ACAD_REACTORS
330
C
102
}
330
C
100
AcDbDictionary
281
     1
  3
Normal
350
F
100
AcDbDictionaryWithDefault
340
F
  0
DICTIONARY
  5
359
102
{ACAD_REACTORS
330
C
102
}
330
C
100
AcDbDictionary
281
     1
  3
A0
350
35A
  3
A1
350
35B
  3
A2
350
35C
  3
A3
350
35D
  3
A4
350
35E
  3
A5
350
35F
  3
A6
350
360
  3
A7
350
361
  3
A8
350
362
  3
A9
350
363
  3
B0
350
364
  3
B1
350
365
  3
B2
350
366
  3
B3
350
367
  3
B4
350
368
  3
B5
350
369
  3
B6
350
36A
  3
B7
350
36B
  3
B8
350
36C
  3
B9
350
36D
  3
C0
350
36E
  3
C1
350
36F
  3
C2
350
370
  3
C3
350
371
  3
C4
350
372
  3
C5
350
373
  3
C6
350
374
  3
C7
350
375
  3
C8
350
376
  3
C9
350
377
  3
D0
350
378
  3
D1
350
379
  3
D2
350
37A
  0
DICTIONARY
  5
2A
102
{ACAD_REACTORS
330
C
102
}
330
C
100
AcDbDictionary
281
     1
  3
2dWireframe
350
2F
  3
3D Hidden
350
31
  3
3dWireframe
350
30
  3
Basic
350
32
  3
Brighten
350
36
  3
ColorChange
350
3A
  3
Conceptual
350
34
  3
Dim
350
35
  3
Facepattern
350
39
  3
Flat
350
2B
  3
FlatWithEdges
350
2C
  3
Gouraud
350
2D
  3
GouraudWithEdges
350
2E
  3
Linepattern
350
38
  3
Realistic
350
33
  3
Thicken
350
37
  0
DICTIONARY
  5
AAB
102
{ACAD_REACTORS
330
C
102
}
330
C
100
AcDbDictionary
281
     1
  3
CANNOSCALE
350
AB0
  3
DIMASSOC
350
AB1
  3
HIDETEXT
350
AB2
  3
PSOLHEIGHT
350
AAF
  3
PSOLWIDTH
350
AAE
  0
LAYOUT
  5
1E
102
{ACAD_REACTORS
330
1A
102
}
330
1A
100
AcDbPlotSettings
  1

  2
none_device
  4

  6

 40
0.0
 41
0.0
 42
0.0
 43
0.0
 44
0.0
 45
0.0
 46
0.0
 47
0.0
 48
0.0
 49
0.0
140
0.0
141
0.0
142
1.0
143
1.0
 70
   688
 72
     0
 73
     0
 74
     5
  7

 75
    16
147
1.0
148
0.0
149
0.0
100
AcDbLayout
  1
Layout1
 70
     1
 71
     1
 10
0.0
 20
0.0
 11
420.0
 21
297.0
 12
0.0
 22
0.0
 32
0.0
 14
1.000000000000000E+20
 24
1.000000000000000E+20
 34
1.000000000000000E+20
 15
-1.000000000000000E+20
 25
-1.000000000000000E+20
 35
-1.000000000000000E+20
146
0.0
 13
0.0
 23
0.0
 33
0.0
 16
1.0
 26
0.0
 36
0.0
 17
0.0
 27
1.0
 37
0.0
 76
     0
330
1B
  0
LAYOUT
  5
26
102
{ACAD_REACTORS
330
1A
102
}
330
1A
100
AcDbPlotSettings
  1

  2
none_device
  4

  6

 40
0.0
 41
0.0
 42
0.0
 43
0.0
 44
0.0
 45
0.0
 46
0.0
 47
0.0
 48
0.0
 49
0.0
140
0.0
141
0.0
142
1.0
143
1.0
 70
   688
 72
     0
 73
     0
 74
     5
  7

 75
    16
147
1.0
148
0.0
149
0.0
100
AcDbLayout
  1
Layout2
 70
     1
 71
     2
 10
0.0
 20
0.0
 11
0.0
 21
0.0
 12
0.0
 22
0.0
 32
0.0
 14
0.0
 24
0.0
 34
0.0
 15
0.0
 25
0.0
 35
0.0
146
0.0
 13
0.0
 23
0.0
 33
0.0
 16
1.0
 26
0.0
 36
0.0
 17
0.0
 27
1.0
 37
0.0
 76
     0
330
23
  0
LAYOUT
  5
22
102
{ACAD_REACTORS
330
1A
102
}
330
1A
100
AcDbPlotSettings
  1

  2
none_device
  4

  6

 40
0.0
 41
0.0
 42
0.0
 43
0.0
 44
0.0
 45
0.0
 46
0.0
 47
0.0
 48
0.0
 49
0.0
140
0.0
141
0.0
142
1.0
143
1.0
 70
  1712
 72
     0
 73
     0
 74
     0
  7

 75
     0
147
1.0
148
0.0
149
0.0
100
AcDbLayout
  1
Model
 70
     1
 71
     0
 10
0.0
 20
0.0
 11
420.0
 21
297.0
 12
0.0
 22
0.0
 32
0.0
 14
0.0
 24
0.0
 34
0.0
 15
25.0
 25
35.0
 35
0.0
146
0.0
 13
0.0
 23
0.0
 33
0.0
 16
1.0
 26
0.0
 36
0.0
 17
0.0
 27
1.0
 37
0.0
 76
     0
330
1F
331
29
  0
MATERIAL
  5
3D
102
{ACAD_REACTORS
330
3B
102
}
102
{ACAD_XDICTIONARY
360
AD5
102
}
330
3B
100
AcDbMaterial
  1
ByBlock
  0
MATERIAL
  5
3C
102
{ACAD_REACTORS
330
3B
102
}
102
{ACAD_XDICTIONARY
360
AD3
102
}
330
3B
100
AcDbMaterial
  1
ByLayer
  0
MATERIAL
  5
3E
102
{ACAD_REACTORS
330
3B
102
}
102
{ACAD_XDICTIONARY
360
AD7
102
}
330
3B
100
AcDbMaterial
  1
Global
  0
MLINESTYLE
  5
18
102
{ACAD_REACTORS
330
17
102
}
330
17
100
AcDbMlineStyle
  2
Standard
 70
     0
  3

 62
   256
 51
90.0
 52
90.0
 71
     2
 49
0.5
 62
   256
  6
BYLAYER
 49
-0.5
 62
   256
  6
BYLAYER
  0
ACDBPLACEHOLDER
  5
F
102
{ACAD_REACTORS
330
E
102
}
330
E
  0
SCALE
  5
35A
102
{ACAD_REACTORS
330
359
102
}
330
359
100
AcDbScale
 70
     0
300
1:1
140
1.0
141
1.0
290
     1
  0
SCALE
  5
35B
102
{ACAD_REACTORS
330
359
102
}
330
359
100
AcDbScale
 70
     0
300
1:2
140
1.0
141
2.0
290
     0
  0
SCALE
  5
35C
102
{ACAD_REACTORS
330
359
102
}
330
359
100
AcDbScale
 70
     0
300
1:4
140
1.0
141
4.0
290
     0
  0
SCALE
  5
35D
102
{ACAD_REACTORS
330
359
102
}
330
359
100
AcDbScale
 70
     0
300
1:5
140
1.0
141
5.0
290
     0
  0
SCALE
  5
35E
102
{ACAD_REACTORS
330
359
102
}
330
359
100
AcDbScale
 70
     0
300
1:8
140
1.0
141
8.0
290
     0
  0
SCALE
  5
35F
102
{ACAD_REACTORS
330
359
102
}
330
359
100
AcDbScale
 70
     0
300
1:10
140
1.0
141
10.0
290
     0
  0
SCALE
  5
360
102
{ACAD_REACTORS
330
359
102
}
330
359
100
AcDbScale
 70
     0
300
1:16
140
1.0
141
16.0
290
     0
  0
SCALE
  5
361
102
{ACAD_REACTORS
330
359
102
}
330
359
100
AcDbScale
 70
     0
300
1:20
140
1.0
141
20.0
290
     0
  0
SCALE
  5
362
102
{ACAD_REACTORS
330
359
102
}
330
359
100
AcDbScale
 70
     0
300
1:30
140
1.0
141
30.0
290
     0
  0
SCALE
  5
363
102
{ACAD_REACTORS
330
359
102
}
330
359
100
AcDbScale
 70
     0
300
1:40
140
1.0
141
40.0
290
     0
  0
SCALE
  5
364
102
{ACAD_REACTORS
330
359
102
}
330
359
100
AcDbScale
 70
     0
300
1:50
140
1.0
141
50.0
290
     0
  0
SCALE
  5
365
102
{ACAD_REACTORS
330
359
102
}
330
359
100
AcDbScale
 70
     0
300
1:100
140
1.0
141
100.0
290
     0
  0
SCALE
  5
366
102
{ACAD_REACTORS
330
359
102
}
330
359
100
AcDbScale
 70
     0
300
2:1
140
2.0
141
1.0
290
     0
  0
SCALE
  5
367
102
{ACAD_REACTORS
330
359
102
}
330
359
100
AcDbScale
 70
     0
300
4:1
140
4.0
141
1.0
290
     0
  0
SCALE
  5
368
102
{ACAD_REACTORS
330
359
102
}
330
359
100
AcDbScale
 70
     0
300
8:1
140
8.0
141
1.0
290
     0
  0
SCALE
  5
369
102
{ACAD_REACTORS
330
359
102
}
330
359
100
AcDbScale
 70
     0
300
10:1
140
10.0
141
1.0
290
     0
  0
SCALE
  5
36A
102
{ACAD_REACTORS
330
359
102
}
330
359
100
AcDbScale
 70
     0
300
100:1
140
100.0
141
1.0
290
     0
  0
SCALE
  5
36B
102
{ACAD_REACTORS
330
359
102
}
330
359
100
AcDbScale
 70
     0
300
1/128" = 1'-0"
140
0.0078125
141
12.0
290
     0
  0
SCALE
  5
36C
102
{ACAD_REACTORS
330
359
102
}
330
359
100
AcDbScale
 70
     0
300
1/64" = 1'-0"
140
0.015625
141
12.0
290
     0
  0
SCALE
  5
36D
102
{ACAD_REACTORS
330
359
102
}
330
359
100
AcDbScale
 70
     0
300
1/32" = 1'-0"
140
0.03125
141
12.0
290
     0
  0
SCALE
  5
36E
102
{ACAD_REACTORS
330
359
102
}
330
359
100
AcDbScale
 70
     0
300
1/16" = 1'-0"
140
0.0625
141
12.0
290
     0
  0
SCALE
  5
36F
102
{ACAD_REACTORS
330
359
102
}
330
359
100
AcDbScale
 70
     0
300
3/32" = 1'-0"
140
0.09375
141
12.0
290
     0
  0
SCALE
  5
370
102
{ACAD_REACTORS
330
359
102
}
330
359
100
AcDbScale
 70
     0
300
1/8" = 1'-0"
140
0.125
141
12.0
290
     0
  0
SCALE
  5
371
102
{ACAD_REACTORS
330
359
102
}
330
359
100
AcDbScale
 70
     0
300
3/16" = 1'-0"
140
0.1875
141
12.0
290
     0
  0
SCALE
  5
372
102
{ACAD_REACTORS
330
359
102
}
330
359
100
AcDbScale
 70
     0
300
1/4" = 1'-0"
140
0.25
141
12.0
290
     0
  0
SCALE
  5
373
102
{ACAD_REACTORS
330
359
102
}
330
359
100
AcDbScale
 70
     0
300
3/8" = 1'-0"
140
0.375
141
12.0
290
     0
  0
SCALE
  5
374
102
{ACAD_REACTORS
330
359
102
}
330
359
100
AcDbScale
 70
     0
300
1/2" = 1'-0"
140
0.5
141
12.0
290
     0
  0
SCALE
  5
375
102
{ACAD_REACTORS
330
359
102
}
330
359
100
AcDbScale
 70
     0
300
3/4" = 1'-0"
140
0.75
141
12.0
290
     0
  0
SCALE
  5
376
102
{ACAD_REACTORS
330
359
102
}
330
359
100
AcDbScale
 70
     0
300
1" = 1'-0"
140
1.0
141
12.0
290
     0
  0
SCALE
  5
377
102
{ACAD_REACTORS
330
359
102
}
330
359
100
AcDbScale
 70
     0
300
1-1/2" = 1'-0"
140
1.5
141
12.0
290
     0
  0
SCALE
  5
378
102
{ACAD_REACTORS
330
359
102
}
330
359
100
AcDbScale
 70
     0
300
3" = 1'-0"
140
3.0
141
12.0
290
     0
  0
SCALE
  5
379
102
{ACAD_REACTORS
330
359
102
}
330
359
100
AcDbScale
 70
     0
300
6" = 1'-0"
140
6.0
141
12.0
290
     0
  0
SCALE
  5
37A
102
{ACAD_REACTORS
330
359
102
}
330
359
100
AcDbScale
 70
     0
300
1'-0" = 1'-0"
140
12.0
141
12.0
290
     0
  0
VISUALSTYLE
  5
2F
102
{ACAD_REACTORS
330
2A
102
}
102
{ACAD_XDICTIONARY
360
ABB
102
}
330
2A
100
AcDbVisualStyle
  2
2dWireframe
 70
     4
 71
     0
 72
     2
 73
     0
 90
        0
 40
-0.6
 41
-30.0
 62
     5
 63
     7
 74
     1
 91
        4
 64
     7
 65
   257
 75
     1
175
     1
 42
1.0
 92
        0
 66
   257
 43
1.0
 76
     1
 77
     6
 78
     2
 67
     7
 79
     5
170
     0
171
     0
290
     0
174
     0
 93
        1
 44
0.0
173
     0
291
     0
 45
0.0
1001
ACAD
1000
AcDbSavedByObjectVersion
1070
     0
  0
VISUALSTYLE
  5
31
102
{ACAD_REACTORS
330
2A
102
}
102
{ACAD_XDICTIONARY
360
ABF
102
}
330
2A
100
AcDbVisualStyle
  2
3D Hidden
 70
     6
 71
     1
 72
     2
 73
     2
 90
        0
 40
-0.6
 41
-30.0
 62
     5
 63
     7
 74
     2
 91
        2
 64
     7
 65
   257
 75
     2
175
     1
 42
40.0
 92
        0
 66
   257
 43
1.0
 76
     1
 77
     6
 78
     2
 67
     7
 79
     3
170
     0
171
     0
290
     0
174
     0
 93
        1
 44
0.0
173
     0
291
     0
 45
0.0
1001
ACAD
1000
AcDbSavedByObjectVersion
1070
     0
  0
VISUALSTYLE
  5
30
102
{ACAD_REACTORS
330
2A
102
}
102
{ACAD_XDICTIONARY
360
ABD
102
}
330
2A
100
AcDbVisualStyle
  2
3dWireframe
 70
     5
 71
     0
 72
     2
 73
     0
 90
        0
 40
-0.6
 41
-30.0
 62
     5
 63
     7
 74
     1
 91
        4
 64
     7
 65
   257
 75
     1
175
     1
 42
1.0
 92
        0
 66
   257
 43
1.0
 76
     1
 77
     6
 78
     2
 67
     7
 79
     5
170
     0
171
     0
290
     0
174
     0
 93
        1
 44
0.0
173
     0
291
     0
 45
0.0
1001
ACAD
1000
AcDbSavedByObjectVersion
1070
     0
  0
VISUALSTYLE
  5
32
102
{ACAD_REACTORS
330
2A
102
}
102
{ACAD_XDICTIONARY
360
AC1
102
}
330
2A
100
AcDbVisualStyle
  2
Basic
 70
     7
 71
     1
 72
     0
 73
     1
 90
        0
 40
-0.6
 41
-30.0
 62
     5
 63
     7
 74
     0
 91
        4
 64
     7
 65
   257
 75
     1
175
     1
 42
1.0
 92
        8
 66
     7
 43
1.0
 76
     1
 77
     6
 78
     2
 67
     7
 79
     5
170
     0
171
     0
290
     0
174
     0
 93
        1
 44
0.0
173
     0
291
     1
 45
0.0
1001
ACAD
1000
AcDbSavedByObjectVersion
1070
     0
  0
VISUALSTYLE
  5
36
102
{ACAD_REACTORS
330
2A
102
}
102
{ACAD_XDICTIONARY
360
AC9
102
}
330
2A
100
AcDbVisualStyle
  2
Brighten
 70
    12
 71
     2
 72
     2
 73
     0
 90
        0
 40
-0.6
 41
-30.0
 62
     5
 63
     7
 74
     1
 91
        4
 64
     7
 65
   257
 75
     1
175
     1
 42
1.0
 92
        8
 66
     7
 43
1.0
 76
     1
 77
     6
 78
     2
 67
     7
 79
     5
170
     0
171
     0
290
     0
174
     0
 93
        1
 44
50.0
173
     0
291
     1
 45
0.0
1001
ACAD
1000
AcDbSavedByObjectVersion
1070
     0
  0
VISUALSTYLE
  5
3A
102
{ACAD_REACTORS
330
2A
102
}
102
{ACAD_XDICTIONARY
360
AD1
102
}
330
2A
100
AcDbVisualStyle
  2
ColorChange
 70
    16
 71
     2
 72
     2
 73
     3
 90
        0
 40
-0.6
 41
-30.0
 62
     5
 63
     8
 74
     1
 91
        4
 64
     7
 65
   257
 75
     1
175
     1
 42
1.0
 92
        8
 66
     8
 43
1.0
 76
     1
 77
     6
 78
     2
 67
     7
 79
     5
170
     0
171
     0
290
     0
174
     0
 93
        1
 44
0.0
173
     0
291
     1
 45
0.0
1001
ACAD
1000
AcDbSavedByObjectVersion
1070
     0
  0
VISUALSTYLE
  5
34
102
{ACAD_REACTORS
330
2A
102
}
102
{ACAD_XDICTIONARY
360
AC5
102
}
330
2A
100
AcDbVisualStyle
  2
Conceptual
 70
     9
 71
     3
 72
     2
 73
     0
 90
        0
 40
-0.6
 41
-30.0
 62
     5
 63
     7
 74
     2
 91
        2
 64
     7
 65
   257
 75
     1
175
     1
 42
40.0
 92
        8
 66
     7
 43
1.0
 76
     1
 77
     6
 78
     2
 67
     7
 79
     3
170
     0
171
     0
290
     0
174
     0
 93
        1
 44
0.0
173
     0
291
     0
 45
0.0
1001
ACAD
1000
AcDbSavedByObjectVersion
1070
     0
  0
VISUALSTYLE
  5
35
102
{ACAD_REACTORS
330
2A
102
}
102
{ACAD_XDICTIONARY
360
AC7
102
}
330
2A
100
AcDbVisualStyle
  2
Dim
 70
    11
 71
     2
 72
     2
 73
     0
 90
        0
 40
-0.6
 41
-30.0
 62
     5
 63
     7
 74
     1
 91
        4
 64
     7
 65
   257
 75
     1
175
     1
 42
1.0
 92
        8
 66
     7
 43
1.0
 76
     1
 77
     6
 78
     2
 67
     7
 79
     5
170
     0
171
     0
290
     0
174
     0
 93
        1
 44
-50.0
173
     0
291
     1
 45
0.0
1001
ACAD
1000
AcDbSavedByObjectVersion
1070
     0
  0
VISUALSTYLE
  5
39
102
{ACAD_REACTORS
330
2A
102
}
102
{ACAD_XDICTIONARY
360
ACF
102
}
330
2A
100
AcDbVisualStyle
  2
Facepattern
 70
    15
 71
     2
 72
     2
 73
     0
 90
        0
 40
-0.6
 41
-30.0
 62
     5
 63
     7
 74
     1
 91
        4
 64
     7
 65
   257
 75
     1
175
     1
 42
1.0
 92
        8
 66
     7
 43
1.0
 76
     1
 77
     6
 78
     2
 67
     7
 79
     5
170
     0
171
     0
290
     0
174
     0
 93
        1
 44
0.0
173
     0
291
     1
 45
0.0
1001
ACAD
1000
AcDbSavedByObjectVersion
1070
     0
  0
VISUALSTYLE
  5
2B
102
{ACAD_REACTORS
330
2A
102
}
102
{ACAD_XDICTIONARY
360
AB3
102
}
330
2A
100
AcDbVisualStyle
  2
Flat
 70
     0
 71
     2
 72
     1
 73
     1
 90
        2
 40
-0.6
 41
30.0
 62
     5
 63
     7
 74
     0
 91
        4
 64
     7
 65
   257
 75
     1
175
     1
 42
1.0
 92
        8
 66
     7
 43
1.0
 76
     1
 77
     6
 78
     2
 67
     7
 79
     5
170
     0
171
     0
290
     0
174
     0
 93
       13
 44
0.0
173
     0
291
     1
 45
0.0
1001
ACAD
1000
AcDbSavedByObjectVersion
1070
     0
  0
VISUALSTYLE
  5
2C
102
{ACAD_REACTORS
330
2A
102
}
102
{ACAD_XDICTIONARY
360
AB5
102
}
330
2A
100
AcDbVisualStyle
  2
FlatWithEdges
 70
     1
 71
     2
 72
     1
 73
     1
 90
        2
 40
-0.6
 41
30.0
 62
     5
 63
     7
 74
     1
 91
        4
 64
     7
 65
   257
 75
     1
175
     1
 42
1.0
 92
        0
 66
   257
 43
1.0
 76
     1
 77
     6
 78
     2
 67
     7
 79
     5
170
     0
171
     0
290
     0
174
     0
 93
       13
 44
0.0
173
     0
291
     1
 45
0.0
1001
ACAD
1000
AcDbSavedByObjectVersion
1070
     0
  0
VISUALSTYLE
  5
2D
102
{ACAD_REACTORS
330
2A
102
}
102
{ACAD_XDICTIONARY
360
AB7
102
}
330
2A
100
AcDbVisualStyle
  2
Gouraud
 70
     2
 71
     2
 72
     2
 73
     1
 90
        2
 40
-0.6
 41
30.0
 62
     5
 63
     7
 74
     0
 91
        4
 64
     7
 65
   257
 75
     1
175
     1
 42
1.0
 92
        0
 66
     7
 43
1.0
 76
     1
 77
     6
 78
     2
 67
     7
 79
     5
170
     0
171
     0
290
     0
174
     0
 93
       13
 44
0.0
173
     0
291
     1
 45
0.0
1001
ACAD
1000
AcDbSavedByObjectVersion
1070
     0
  0
VISUALSTYLE
  5
2E
102
{ACAD_REACTORS
330
2A
102
}
102
{ACAD_XDICTIONARY
360
AB9
102
}
330
2A
100
AcDbVisualStyle
  2
GouraudWithEdges
 70
     3
 71
     2
 72
     2
 73
     1
 90
        2
 40
-0.6
 41
30.0
 62
     5
 63
     7
 74
     1
 91
        4
 64
     7
 65
   257
 75
     1
175
     1
 42
1.0
 92
        0
 66
   257
 43
1.0
 76
     1
 77
     6
 78
     2
 67
     7
 79
     5
170
     0
171
     0
290
     0
174
     0
 93
       13
 44
0.0
173
     0
291
     1
 45
0.0
1001
ACAD
1000
AcDbSavedByObjectVersion
1070
     0
  0
VISUALSTYLE
  5
38
102
{ACAD_REACTORS
330
2A
102
}
102
{ACAD_XDICTIONARY
360
ACD
102
}
330
2A
100
AcDbVisualStyle
  2
Linepattern
 70
    14
 71
     2
 72
     2
 73
     0
 90
        0
 40
-0.6
 41
-30.0
 62
     5
 63
     7
 74
     1
 91
        4
 64
     7
 65
   257
 75
     7
175
     7
 42
1.0
 92
        8
 66
     7
 43
1.0
 76
     1
 77
     6
 78
     2
 67
     7
 79
     5
170
     0
171
     0
290
     0
174
     0
 93
        1
 44
0.0
173
     0
291
     1
 45
0.0
1001
ACAD
1000
AcDbSavedByObjectVersion
1070
     0
  0
VISUALSTYLE
  5
33
102
{ACAD_REACTORS
330
2A
102
}
102
{ACAD_XDICTIONARY
360
AC3
102
}
330
2A
100
AcDbVisualStyle
  2
Realistic
 70
     8
 71
     2
 72
     2
 73
     0
 90
        0
 40
-0.6
 41
-30.0
 62
     5
 63
     7
 74
     1
 91
        0
 64
     7
 65
   257
 75
     1
175
     1
 42
1.0
 92
        8
 66
     8
 43
1.0
 76
     1
 77
     6
 78
     2
 67
     7
 79
     5
170
     0
171
     0
290
     0
174
     0
 93
       13
 44
0.0
173
     0
291
     0
 45
0.0
1001
ACAD
1000
AcDbSavedByObjectVersion
1070
     0
  0
VISUALSTYLE
  5
37
102
{ACAD_REACTORS
330
2A
102
}
102
{ACAD_XDICTIONARY
360
ACB
102
}
330
2A
100
AcDbVisualStyle
  2
Thicken
 70
    13
 71
     2
 72
     2
 73
     0
 90
        0
 40
-0.6
 41
-30.0
 62
     5
 63
     7
 74
     1
 91
        4
 64
     7
 65
   257
 75
     1
175
     1
 42
1.0
 92
       12
 66
     7
 43
1.0
 76
     1
 77
     6
 78
     2
 67
     7
 79
     5
170
     0
171
     0
290
     0
174
     0
 93
        1
 44
0.0
173
     0
291
     1
 45
0.0
1001
ACAD
1000
AcDbSavedByObjectVersion
1070
     0
  0
DICTIONARYVAR
  5
AB0
102
{ACAD_REACTORS
330
AAB
102
}
330
AAB
100
DictionaryVariables
280
     0
  1
1:1
  0
DICTIONARYVAR
  5
AB1
102
{ACAD_REACTORS
330
AAB
102
}
330
AAB
100
DictionaryVariables
280
     0
  1
2
  0
DICTIONARYVAR
  5
AB2
102
{ACAD_REACTORS
330
AAB
102
}
330
AAB
100
DictionaryVariables
280
     0
  1
1
  0
DICTIONARYVAR
  5
AAF
102
{ACAD_REACTORS
330
AAB
102
}
330
AAB
100
DictionaryVariables
280
     0
  1
80.000000
  0
DICTIONARYVAR
  5
AAE
102
{ACAD_REACTORS
330
AAB
102
}
330
AAB
100
DictionaryVariables
280
     0
  1
5.000000
  0
DICTIONARY
  5
AD5
330
3D
100
AcDbDictionary
280
     1
281
     1
  3
ACAD_XREC_ROUNDTRIP
360
AD6
  0
DICTIONARY
  5
AD3
330
3C
100
AcDbDictionary
280
     1
281
     1
  3
ACAD_XREC_ROUNDTRIP
360
AD4
  0
DICTIONARY
  5
AD7
330
3E
100
AcDbDictionary
280
     1
281
     1
  3
ACAD_XREC_ROUNDTRIP
360
AD8
  0
DICTIONARY
  5
ABB
330
2F
100
AcDbDictionary
280
     1
281
     1
  3
ACAD_XREC_ROUNDTRIP
360
ABC
  0
DICTIONARY
  5
ABF
330
31
100
AcDbDictionary
280
     1
281
     1
  3
ACAD_XREC_ROUNDTRIP
360
AC0
  0
DICTIONARY
  5
ABD
330
30
100
AcDbDictionary
280
     1
281
     1
  3
ACAD_XREC_ROUNDTRIP
360
ABE
  0
DICTIONARY
  5
AC1
330
32
100
AcDbDictionary
280
     1
281
     1
  3
ACAD_XREC_ROUNDTRIP
360
AC2
  0
DICTIONARY
  5
AC9
330
36
100
AcDbDictionary
280
     1
281
     1
  3
ACAD_XREC_ROUNDTRIP
360
ACA
  0
DICTIONARY
  5
AD1
330
3A
100
AcDbDictionary
280
     1
281
     1
  3
ACAD_XREC_ROUNDTRIP
360
AD2
  0
DICTIONARY
  5
AC5
330
34
100
AcDbDictionary
280
     1
281
     1
  3
ACAD_XREC_ROUNDTRIP
360
AC6
  0
DICTIONARY
  5
AC7
330
35
100
AcDbDictionary
280
     1
281
     1
  3
ACAD_XREC_ROUNDTRIP
360
AC8
  0
DICTIONARY
  5
ACF
330
39
100
AcDbDictionary
280
     1
281
     1
  3
ACAD_XREC_ROUNDTRIP
360
AD0
  0
DICTIONARY
  5
AB3
330
2B
100
AcDbDictionary
280
     1
281
     1
  3
ACAD_XREC_ROUNDTRIP
360
AB4
  0
DICTIONARY
  5
AB5
330
2C
100
AcDbDictionary
280
     1
281
     1
  3
ACAD_XREC_ROUNDTRIP
360
AB6
  0
DICTIONARY
  5
AB7
330
2D
100
AcDbDictionary
280
     1
281
     1
  3
ACAD_XREC_ROUNDTRIP
360
AB8
  0
DICTIONARY
  5
AB9
330
2E
100
AcDbDictionary
280
     1
281
     1
  3
ACAD_XREC_ROUNDTRIP
360
ABA
  0
DICTIONARY
  5
ACD
330
38
100
AcDbDictionary
280
     1
281
     1
  3
ACAD_XREC_ROUNDTRIP
360
ACE
  0
DICTIONARY
  5
AC3
330
33
100
AcDbDictionary
280
     1
281
     1
  3
ACAD_XREC_ROUNDTRIP
360
AC4
  0
DICTIONARY
  5
ACB
330
37
100
AcDbDictionary
280
     1
281
     1
  3
ACAD_XREC_ROUNDTRIP
360
ACC
  0
XRECORD
  5
AD6
102
{ACAD_REACTORS
330
AD5
102
}
330
AD5
100
AcDbXrecord
280
     1
102
MATERIAL
148
0.0
149
0.0
149
0.0
 93
        0
 94
      127
282
     0
 72
     1
 77
     1
171
     1
175
     1
179
     1
273
     0
  0
XRECORD
  5
AD4
102
{ACAD_REACTORS
330
AD3
102
}
330
AD3
100
AcDbXrecord
280
     1
102
MATERIAL
148
0.0
149
0.0
149
0.0
 93
        0
 94
      127
282
     0
 72
     1
 77
     1
171
     1
175
     1
179
     1
273
     0
  0
XRECORD
  5
AD8
102
{ACAD_REACTORS
330
AD7
102
}
330
AD7
100
AcDbXrecord
280
     1
102
MATERIAL
148
0.0
149
0.0
149
0.0
 93
        0
 94
      127
282
     0
 72
     1
 77
     1
171
     1
175
     1
179
     1
273
     0
  0
XRECORD
  5
ABC
102
{ACAD_REACTORS
330
ABB
102
}
330
ABB
100
AcDbXrecord
280
     1
102
RTVSPropertyOp0
 70
     1
102
RTVSPropertyOp1
 70
     1
102
RTVSPropertyOp2
 70
     1
102
RTVSPropertyOp3
 70
     1
102
RTVSPropertyOp4
 70
     1
102
RTVSPropertyOp5
 70
     1
102
RTVSPropertyOp6
 70
     1
102
RTVSPropertyOp7
 70
     1
102
RTVSPropertyOp8
 70
     1
102
RTVSPropertyOp9
 70
     1
102
RTVSPropertyOp10
 70
     1
102
RTVSPropertyOp11
 70
     1
102
RTVSPropertyOp12
 70
     1
102
RTVSPropertyOp13
 70
     1
102
RTVSPropertyOp14
 70
     1
102
RTVSPropertyOp15
 70
     1
102
RTVSPropertyOp16
 70
     1
102
RTVSPropertyOp17
 70
     1
102
RTVSPropertyOp18
 70
     1
102
RTVSPropertyOp19
 70
     1
102
RTVSPropertyOp20
 70
     1
102
RTVSPropertyOp21
 70
     1
102
RTVSPropertyOp22
 70
     1
102
RTVSPropertyOp23
 70
     1
102
RTVSPropertyOp24
 70
     1
102
RTVSPropertyOp25
 70
     1
102
RTVSPropertyOp26
 70
     1
102
RTVSPropertyOp27
 70
     1
  0
XRECORD
  5
AC0
102
{ACAD_REACTORS
330
ABF
102
}
330
ABF
100
AcDbXrecord
280
     1
102
RTVSPropertyOp0
 70
     1
102
RTVSPropertyOp1
 70
     1
102
RTVSPropertyOp2
 70
     1
102
RTVSPropertyOp3
 70
     1
102
RTVSPropertyOp4
 70
     1
102
RTVSPropertyOp5
 70
     1
102
RTVSPropertyOp6
 70
     1
102
RTVSPropertyOp7
 70
     1
102
RTVSPropertyOp8
 70
     1
102
RTVSPropertyOp9
 70
     1
102
RTVSPropertyOp10
 70
     1
102
RTVSPropertyOp11
 70
     1
102
RTVSPropertyOp12
 70
     1
102
RTVSPropertyOp13
 70
     1
102
RTVSPropertyOp14
 70
     1
102
RTVSPropertyOp15
 70
     1
102
RTVSPropertyOp16
 70
     1
102
RTVSPropertyOp17
 70
     1
102
RTVSPropertyOp18
 70
     1
102
RTVSPropertyOp19
 70
     1
102
RTVSPropertyOp20
 70
     1
102
RTVSPropertyOp21
 70
     1
102
RTVSPropertyOp22
 70
     1
102
RTVSPropertyOp23
 70
     1
102
RTVSPropertyOp24
 70
     1
102
RTVSPropertyOp25
 70
     1
102
RTVSPropertyOp26
 70
     1
102
RTVSPropertyOp27
 70
     1
  0
XRECORD
  5
ABE
102
{ACAD_REACTORS
330
ABD
102
}
330
ABD
100
AcDbXrecord
280
     1
102
RTVSPropertyOp0
 70
     1
102
RTVSPropertyOp1
 70
     1
102
RTVSPropertyOp2
 70
     1
102
RTVSPropertyOp3
 70
     1
102
RTVSPropertyOp4
 70
     1
102
RTVSPropertyOp5
 70
     1
102
RTVSPropertyOp6
 70
     1
102
RTVSPropertyOp7
 70
     1
102
RTVSPropertyOp8
 70
     1
102
RTVSPropertyOp9
 70
     1
102
RTVSPropertyOp10
 70
     1
102
RTVSPropertyOp11
 70
     1
102
RTVSPropertyOp12
 70
     1
102
RTVSPropertyOp13
 70
     1
102
RTVSPropertyOp14
 70
     1
102
RTVSPropertyOp15
 70
     1
102
RTVSPropertyOp16
 70
     1
102
RTVSPropertyOp17
 70
     1
102
RTVSPropertyOp18
 70
     1
102
RTVSPropertyOp19
 70
     1
102
RTVSPropertyOp20
 70
     1
102
RTVSPropertyOp21
 70
     1
102
RTVSPropertyOp22
 70
     1
102
RTVSPropertyOp23
 70
     1
102
RTVSPropertyOp24
 70
     1
102
RTVSPropertyOp25
 70
     1
102
RTVSPropertyOp26
 70
     1
102
RTVSPropertyOp27
 70
     1
  0
XRECORD
  5
AC2
102
{ACAD_REACTORS
330
AC1
102
}
330
AC1
100
AcDbXrecord
280
     1
102
RTVSPropertyOp0
 70
     1
102
RTVSPropertyOp1
 70
     1
102
RTVSPropertyOp2
 70
     1
102
RTVSPropertyOp3
 70
     1
102
RTVSPropertyOp4
 70
     1
102
RTVSPropertyOp5
 70
     1
102
RTVSPropertyOp6
 70
     1
102
RTVSPropertyOp7
 70
     1
102
RTVSPropertyOp8
 70
     1
102
RTVSPropertyOp9
 70
     1
102
RTVSPropertyOp10
 70
     1
102
RTVSPropertyOp11
 70
     1
102
RTVSPropertyOp12
 70
     1
102
RTVSPropertyOp13
 70
     1
102
RTVSPropertyOp14
 70
     1
102
RTVSPropertyOp15
 70
     1
102
RTVSPropertyOp16
 70
     1
102
RTVSPropertyOp17
 70
     1
102
RTVSPropertyOp18
 70
     1
102
RTVSPropertyOp19
 70
     1
102
RTVSPropertyOp20
 70
     1
102
RTVSPropertyOp21
 70
     1
102
RTVSPropertyOp22
 70
     1
102
RTVSPropertyOp23
 70
     1
102
RTVSPropertyOp24
 70
     1
102
RTVSPropertyOp25
 70
     1
102
RTVSPropertyOp26
 70
     1
102
RTVSPropertyOp27
 70
     1
  0
XRECORD
  5
ACA
102
{ACAD_REACTORS
330
AC9
102
}
330
AC9
100
AcDbXrecord
280
     1
102
RTVSPropertyOp0
 70
     1
102
RTVSPropertyOp1
 70
     1
102
RTVSPropertyOp2
 70
     1
102
RTVSPropertyOp3
 70
     1
102
RTVSPropertyOp4
 70
     1
102
RTVSPropertyOp5
 70
     1
102
RTVSPropertyOp6
 70
     1
102
RTVSPropertyOp7
 70
     1
102
RTVSPropertyOp8
 70
     1
102
RTVSPropertyOp9
 70
     1
102
RTVSPropertyOp10
 70
     1
102
RTVSPropertyOp11
 70
     1
102
RTVSPropertyOp12
 70
     1
102
RTVSPropertyOp13
 70
     1
102
RTVSPropertyOp14
 70
     1
102
RTVSPropertyOp15
 70
     1
102
RTVSPropertyOp16
 70
     1
102
RTVSPropertyOp17
 70
     1
102
RTVSPropertyOp18
 70
     1
102
RTVSPropertyOp19
 70
     1
102
RTVSPropertyOp20
 70
     1
102
RTVSPropertyOp21
 70
     1
102
RTVSPropertyOp22
 70
     1
102
RTVSPropertyOp23
 70
     1
102
RTVSPropertyOp24
 70
     1
102
RTVSPropertyOp25
 70
     1
102
RTVSPropertyOp26
 70
     1
102
RTVSPropertyOp27
 70
     1
  0
XRECORD
  5
AD2
102
{ACAD_REACTORS
330
AD1
102
}
330
AD1
100
AcDbXrecord
280
     1
102
RTVSPropertyOp0
 70
     1
102
RTVSPropertyOp1
 70
     1
102
RTVSPropertyOp2
 70
     1
102
RTVSPropertyOp3
 70
     1
102
RTVSPropertyOp4
 70
     1
102
RTVSPropertyOp5
 70
     1
102
RTVSPropertyOp6
 70
     1
102
RTVSPropertyOp7
 70
     1
102
RTVSPropertyOp8
 70
     1
102
RTVSPropertyOp9
 70
     1
102
RTVSPropertyOp10
 70
     1
102
RTVSPropertyOp11
 70
     1
102
RTVSPropertyOp12
 70
     1
102
RTVSPropertyOp13
 70
     1
102
RTVSPropertyOp14
 70
     1
102
RTVSPropertyOp15
 70
     1
102
RTVSPropertyOp16
 70
     1
102
RTVSPropertyOp17
 70
     1
102
RTVSPropertyOp18
 70
     1
102
RTVSPropertyOp19
 70
     1
102
RTVSPropertyOp20
 70
     1
102
RTVSPropertyOp21
 70
     1
102
RTVSPropertyOp22
 70
     1
102
RTVSPropertyOp23
 70
     1
102
RTVSPropertyOp24
 70
     1
102
RTVSPropertyOp25
 70
     1
102
RTVSPropertyOp26
 70
     1
102
RTVSPropertyOp27
 70
     1
  0
XRECORD
  5
AC6
102
{ACAD_REACTORS
330
AC5
102
}
330
AC5
100
AcDbXrecord
280
     1
102
RTVSPropertyOp0
 70
     1
102
RTVSPropertyOp1
 70
     1
102
RTVSPropertyOp2
 70
     1
102
RTVSPropertyOp3
 70
     1
102
RTVSPropertyOp4
 70
     1
102
RTVSPropertyOp5
 70
     1
102
RTVSPropertyOp6
 70
     1
102
RTVSPropertyOp7
 70
     1
102
RTVSPropertyOp8
 70
     1
102
RTVSPropertyOp9
 70
     1
102
RTVSPropertyOp10
 70
     1
102
RTVSPropertyOp11
 70
     1
102
RTVSPropertyOp12
 70
     1
102
RTVSPropertyOp13
 70
     1
102
RTVSPropertyOp14
 70
     1
102
RTVSPropertyOp15
 70
     1
102
RTVSPropertyOp16
 70
     1
102
RTVSPropertyOp17
 70
     1
102
RTVSPropertyOp18
 70
     1
102
RTVSPropertyOp19
 70
     1
102
RTVSPropertyOp20
 70
     1
102
RTVSPropertyOp21
 70
     1
102
RTVSPropertyOp22
 70
     1
102
RTVSPropertyOp23
 70
     1
102
RTVSPropertyOp24
 70
     1
102
RTVSPropertyOp25
 70
     1
102
RTVSPropertyOp26
 70
     1
102
RTVSPropertyOp27
 70
     1
  0
XRECORD
  5
AC8
102
{ACAD_REACTORS
330
AC7
102
}
330
AC7
100
AcDbXrecord
280
     1
102
RTVSPropertyOp0
 70
     1
102
RTVSPropertyOp1
 70
     1
102
RTVSPropertyOp2
 70
     1
102
RTVSPropertyOp3
 70
     1
102
RTVSPropertyOp4
 70
     1
102
RTVSPropertyOp5
 70
     1
102
RTVSPropertyOp6
 70
     1
102
RTVSPropertyOp7
 70
     1
102
RTVSPropertyOp8
 70
     1
102
RTVSPropertyOp9
 70
     1
102
RTVSPropertyOp10
 70
     1
102
RTVSPropertyOp11
 70
     1
102
RTVSPropertyOp12
 70
     1
102
RTVSPropertyOp13
 70
     1
102
RTVSPropertyOp14
 70
     1
102
RTVSPropertyOp15
 70
     1
102
RTVSPropertyOp16
 70
     1
102
RTVSPropertyOp17
 70
     1
102
RTVSPropertyOp18
 70
     1
102
RTVSPropertyOp19
 70
     1
102
RTVSPropertyOp20
 70
     1
102
RTVSPropertyOp21
 70
     1
102
RTVSPropertyOp22
 70
     1
102
RTVSPropertyOp23
 70
     1
102
RTVSPropertyOp24
 70
     1
102
RTVSPropertyOp25
 70
     1
102
RTVSPropertyOp26
 70
     1
102
RTVSPropertyOp27
 70
     1
  0
XRECORD
  5
AD0
102
{ACAD_REACTORS
330
ACF
102
}
330
ACF
100
AcDbXrecord
280
     1
102
RTVSPropertyOp0
 70
     1
102
RTVSPropertyOp1
 70
     1
102
RTVSPropertyOp2
 70
     1
102
RTVSPropertyOp3
 70
     1
102
RTVSPropertyOp4
 70
     1
102
RTVSPropertyOp5
 70
     1
102
RTVSPropertyOp6
 70
     1
102
RTVSPropertyOp7
 70
     1
102
RTVSPropertyOp8
 70
     1
102
RTVSPropertyOp9
 70
     1
102
RTVSPropertyOp10
 70
     1
102
RTVSPropertyOp11
 70
     1
102
RTVSPropertyOp12
 70
     1
102
RTVSPropertyOp13
 70
     1
102
RTVSPropertyOp14
 70
     1
102
RTVSPropertyOp15
 70
     1
102
RTVSPropertyOp16
 70
     1
102
RTVSPropertyOp17
 70
     1
102
RTVSPropertyOp18
 70
     1
102
RTVSPropertyOp19
 70
     1
102
RTVSPropertyOp20
 70
     1
102
RTVSPropertyOp21
 70
     1
102
RTVSPropertyOp22
 70
     1
102
RTVSPropertyOp23
 70
     1
102
RTVSPropertyOp24
 70
     1
102
RTVSPropertyOp25
 70
     1
102
RTVSPropertyOp26
 70
     1
102
RTVSPropertyOp27
 70
     1
  0
XRECORD
  5
AB4
102
{ACAD_REACTORS
330
AB3
102
}
330
AB3
100
AcDbXrecord
280
     1
102
RTVSPropertyOp0
 70
     1
102
RTVSPropertyOp1
 70
     1
102
RTVSPropertyOp2
 70
     1
102
RTVSPropertyOp3
 70
     1
102
RTVSPropertyOp4
 70
     1
102
RTVSPropertyOp5
 70
     1
102
RTVSPropertyOp6
 70
     1
102
RTVSPropertyOp7
 70
     1
102
RTVSPropertyOp8
 70
     1
102
RTVSPropertyOp9
 70
     1
102
RTVSPropertyOp10
 70
     1
102
RTVSPropertyOp11
 70
     1
102
RTVSPropertyOp12
 70
     1
102
RTVSPropertyOp13
 70
     1
102
RTVSPropertyOp14
 70
     1
102
RTVSPropertyOp15
 70
     1
102
RTVSPropertyOp16
 70
     1
102
RTVSPropertyOp17
 70
     1
102
RTVSPropertyOp18
 70
     1
102
RTVSPropertyOp19
 70
     1
102
RTVSPropertyOp20
 70
     1
102
RTVSPropertyOp21
 70
     1
102
RTVSPropertyOp22
 70
     1
102
RTVSPropertyOp23
 70
     1
102
RTVSPropertyOp24
 70
     1
102
RTVSPropertyOp25
 70
     1
102
RTVSPropertyOp26
 70
     1
102
RTVSPropertyOp27
 70
     1
  0
XRECORD
  5
AB6
102
{ACAD_REACTORS
330
AB5
102
}
330
AB5
100
AcDbXrecord
280
     1
102
RTVSPropertyOp0
 70
     1
102
RTVSPropertyOp1
 70
     1
102
RTVSPropertyOp2
 70
     1
102
RTVSPropertyOp3
 70
     1
102
RTVSPropertyOp4
 70
     1
102
RTVSPropertyOp5
 70
     1
102
RTVSPropertyOp6
 70
     1
102
RTVSPropertyOp7
 70
     1
102
RTVSPropertyOp8
 70
     1
102
RTVSPropertyOp9
 70
     1
102
RTVSPropertyOp10
 70
     1
102
RTVSPropertyOp11
 70
     1
102
RTVSPropertyOp12
 70
     1
102
RTVSPropertyOp13
 70
     1
102
RTVSPropertyOp14
 70
     1
102
RTVSPropertyOp15
 70
     1
102
RTVSPropertyOp16
 70
     1
102
RTVSPropertyOp17
 70
     1
102
RTVSPropertyOp18
 70
     1
102
RTVSPropertyOp19
 70
     1
102
RTVSPropertyOp20
 70
     1
102
RTVSPropertyOp21
 70
     1
102
RTVSPropertyOp22
 70
     1
102
RTVSPropertyOp23
 70
     1
102
RTVSPropertyOp24
 70
     1
102
RTVSPropertyOp25
 70
     1
102
RTVSPropertyOp26
 70
     1
102
RTVSPropertyOp27
 70
     1
  0
XRECORD
  5
AB8
102
{ACAD_REACTORS
330
AB7
102
}
330
AB7
100
AcDbXrecord
280
     1
102
RTVSPropertyOp0
 70
     1
102
RTVSPropertyOp1
 70
     1
102
RTVSPropertyOp2
 70
     1
102
RTVSPropertyOp3
 70
     1
102
RTVSPropertyOp4
 70
     1
102
RTVSPropertyOp5
 70
     1
102
RTVSPropertyOp6
 70
     1
102
RTVSPropertyOp7
 70
     1
102
RTVSPropertyOp8
 70
     1
102
RTVSPropertyOp9
 70
     1
102
RTVSPropertyOp10
 70
     1
102
RTVSPropertyOp11
 70
     1
102
RTVSPropertyOp12
 70
     1
102
RTVSPropertyOp13
 70
     1
102
RTVSPropertyOp14
 70
     1
102
RTVSPropertyOp15
 70
     1
102
RTVSPropertyOp16
 70
     1
102
RTVSPropertyOp17
 70
     1
102
RTVSPropertyOp18
 70
     1
102
RTVSPropertyOp19
 70
     1
102
RTVSPropertyOp20
 70
     1
102
RTVSPropertyOp21
 70
     1
102
RTVSPropertyOp22
 70
     1
102
RTVSPropertyOp23
 70
     1
102
RTVSPropertyOp24
 70
     1
102
RTVSPropertyOp25
 70
     1
102
RTVSPropertyOp26
 70
     1
102
RTVSPropertyOp27
 70
     1
  0
XRECORD
  5
ABA
102
{ACAD_REACTORS
330
AB9
102
}
330
AB9
100
AcDbXrecord
280
     1
102
RTVSPropertyOp0
 70
     1
102
RTVSPropertyOp1
 70
     1
102
RTVSPropertyOp2
 70
     1
102
RTVSPropertyOp3
 70
     1
102
RTVSPropertyOp4
 70
     1
102
RTVSPropertyOp5
 70
     1
102
RTVSPropertyOp6
 70
     1
102
RTVSPropertyOp7
 70
     1
102
RTVSPropertyOp8
 70
     1
102
RTVSPropertyOp9
 70
     1
102
RTVSPropertyOp10
 70
     1
102
RTVSPropertyOp11
 70
     1
102
RTVSPropertyOp12
 70
     1
102
RTVSPropertyOp13
 70
     1
102
RTVSPropertyOp14
 70
     1
102
RTVSPropertyOp15
 70
     1
102
RTVSPropertyOp16
 70
     1
102
RTVSPropertyOp17
 70
     1
102
RTVSPropertyOp18
 70
     1
102
RTVSPropertyOp19
 70
     1
102
RTVSPropertyOp20
 70
     1
102
RTVSPropertyOp21
 70
     1
102
RTVSPropertyOp22
 70
     1
102
RTVSPropertyOp23
 70
     1
102
RTVSPropertyOp24
 70
     1
102
RTVSPropertyOp25
 70
     1
102
RTVSPropertyOp26
 70
     1
102
RTVSPropertyOp27
 70
     1
  0
XRECORD
  5
ACE
102
{ACAD_REACTORS
330
ACD
102
}
330
ACD
100
AcDbXrecord
280
     1
102
RTVSPropertyOp0
 70
     1
102
RTVSPropertyOp1
 70
     1
102
RTVSPropertyOp2
 70
     1
102
RTVSPropertyOp3
 70
     1
102
RTVSPropertyOp4
 70
     1
102
RTVSPropertyOp5
 70
     1
102
RTVSPropertyOp6
 70
     1
102
RTVSPropertyOp7
 70
     1
102
RTVSPropertyOp8
 70
     1
102
RTVSPropertyOp9
 70
     1
102
RTVSPropertyOp10
 70
     1
102
RTVSPropertyOp11
 70
     1
102
RTVSPropertyOp12
 70
     1
102
RTVSPropertyOp13
 70
     1
102
RTVSPropertyOp14
 70
     1
102
RTVSPropertyOp15
 70
     1
102
RTVSPropertyOp16
 70
     1
102
RTVSPropertyOp17
 70
     1
102
RTVSPropertyOp18
 70
     1
102
RTVSPropertyOp19
 70
     1
102
RTVSPropertyOp20
 70
     1
102
RTVSPropertyOp21
 70
     1
102
RTVSPropertyOp22
 70
     1
102
RTVSPropertyOp23
 70
     1
102
RTVSPropertyOp24
 70
     1
102
RTVSPropertyOp25
 70
     1
102
RTVSPropertyOp26
 70
     1
102
RTVSPropertyOp27
 70
     1
  0
XRECORD
  5
AC4
102
{ACAD_REACTORS
330
AC3
102
}
330
AC3
100
AcDbXrecord
280
     1
102
RTVSPropertyOp0
 70
     1
102
RTVSPropertyOp1
 70
     1
102
RTVSPropertyOp2
 70
     1
102
RTVSPropertyOp3
 70
     1
102
RTVSPropertyOp4
 70
     1
102
RTVSPropertyOp5
 70
     1
102
RTVSPropertyOp6
 70
     1
102
RTVSPropertyOp7
 70
     1
102
RTVSPropertyOp8
 70
     1
102
RTVSPropertyOp9
 70
     1
102
RTVSPropertyOp10
 70
     1
102
RTVSPropertyOp11
 70
     1
102
RTVSPropertyOp12
 70
     1
102
RTVSPropertyOp13
 70
     1
102
RTVSPropertyOp14
 70
     1
102
RTVSPropertyOp15
 70
     1
102
RTVSPropertyOp16
 70
     1
102
RTVSPropertyOp17
 70
     1
102
RTVSPropertyOp18
 70
     1
102
RTVSPropertyOp19
 70
     1
102
RTVSPropertyOp20
 70
     1
102
RTVSPropertyOp21
 70
     1
102
RTVSPropertyOp22
 70
     1
102
RTVSPropertyOp23
 70
     1
102
RTVSPropertyOp24
 70
     1
102
RTVSPropertyOp25
 70
     1
102
RTVSPropertyOp26
 70
     1
102
RTVSPropertyOp27
 70
     1
  0
XRECORD
  5
ACC
102
{ACAD_REACTORS
330
ACB
102
}
330
ACB
100
AcDbXrecord
280
     1
102
RTVSPropertyOp0
 70
     1
102
RTVSPropertyOp1
 70
     1
102
RTVSPropertyOp2
 70
     1
102
RTVSPropertyOp3
 70
     1
102
RTVSPropertyOp4
 70
     1
102
RTVSPropertyOp5
 70
     1
102
RTVSPropertyOp6
 70
     1
102
RTVSPropertyOp7
 70
     1
102
RTVSPropertyOp8
 70
     1
102
RTVSPropertyOp9
 70
     1
102
RTVSPropertyOp10
 70
     1
102
RTVSPropertyOp11
 70
     1
102
RTVSPropertyOp12
 70
     1
102
RTVSPropertyOp13
 70
     1
102
RTVSPropertyOp14
 70
     1
102
RTVSPropertyOp15
 70
     1
102
RTVSPropertyOp16
 70
     1
102
RTVSPropertyOp17
 70
     1
102
RTVSPropertyOp18
 70
     1
102
RTVSPropertyOp19
 70
     1
102
RTVSPropertyOp20
 70
     1
102
RTVSPropertyOp21
 70
     1
102
RTVSPropertyOp22
 70
     1
102
RTVSPropertyOp23
 70
     1
102
RTVSPropertyOp24
 70
     1
102
RTVSPropertyOp25
 70
     1
102
RTVSPropertyOp26
 70
     1
102
RTVSPropertyOp27
 70
     1
  0
ENDSEC
  0
EOF
