  0
SECTION
  2
HEADER
  9
$ACADVER
  1
AC1015
  9
$ACADMAINTVER
 70
     6
  9
$DWGCODEPAGE
  3
ANSI_1252
  9
$INSBASE
 10
0.0
 20
0.0
 30
0.0
  9
$EXTMIN
 10
0.0
 20
0.0
 30
0.0
  9
$EXTMAX
 10
25.0
 20
35.0
 30
0.0
  9
$LIMMIN
 10
0.0
 20
0.0
  9
$LIMMAX
 10
420.0
 20
297.0
  9
$ORTHOMODE
 70
     0
  9
$REGENMODE
 70
     1
  9
$FILLMODE
 70
     1
  9
$QTEXTMODE
 70
     0
  9
$MIRRTEXT
 70
     1
  9
$LTSCALE
 40
4.25
  9
$ATTMODE
 70
     1
  9
$TEXTSIZE
 40
2.5
  9
$TRACEWID
 40
1.0
  9
$TEXTSTYLE
  7
Standard
  9
$CLAYER
  8
0
  9
$CELTYPE
  6
ByLayer
  9
$CECOLOR
 62
   256
  9
$CELTSCALE
 40
1.0
  9
$DISPSILH
 70
     0
  9
$DIMSCALE
 40
1.0
  9
$DIMASZ
 40
2.5
  9
$DIMEXO
 40
0.625
  9
$DIMDLI
 40
3.75
  9
$DIMRND
 40
0.0
  9
$DIMDLE
 40
0.0
  9
$DIMEXE
 40
1.25
  9
$DIMTP
 40
0.0
  9
$DIMTM
 40
0.0
  9
$DIMTXT
 40
2.5
  9
$DIMCEN
 40
2.5
  9
$DIMTSZ
 40
0.0
  9
$DIMTOL
 70
     0
  9
$DIMLIM
 70
     0
  9
$DIMTIH
 70
     0
  9
$DIMTOH
 70
     0
  9
$DIMSE1
 70
     0
  9
$DIMSE2
 70
     0
  9
$DIMTAD
 70
     1
  9
$DIMZIN
 70
     8
  9
$DIMBLK
  1

  9
$DIMASO
 70
     1
  9
$DIMSHO
 70
     1
  9
$DIMPOST
  1

  9
$DIMAPOST
  1

  9
$DIMALT
 70
     0
  9
$DIMALTD
 70
     3
  9
$DIMALTF
 40
0.03937007874016
  9
$DIMLFAC
 40
1.0
  9
$DIMTOFL
 70
     1
  9
$DIMTVP
 40
0.0
  9
$DIMTIX
 70
     0
  9
$DIMSOXD
 70
     0
  9
$DIMSAH
 70
     0
  9
$DIMBLK1
  1

  9
$DIMBLK2
  1

  9
$DIMSTYLE
  2
ISO-25
  9
$DIMCLRD
 70
     0
  9
$DIMCLRE
 70
     0
  9
$DIMCLRT
 70
     0
  9
$DIMTFAC
 40
1.0
  9
$DIMGAP
 40
0.625
  9
$DIMJUST
 70
     0
  9
$DIMSD1
 70
     0
  9
$DIMSD2
 70
     0
  9
$DIMTOLJ
 70
     0
  9
$DIMTZIN
 70
     8
  9
$DIMALTZ
 70
     0
  9
$DIMALTTZ
 70
     0
  9
$DIMUPT
 70
     0
  9
$DIMDEC
 70
     2
  9
$DIMTDEC
 70
     2
  9
$DIMALTU
 70
     2
  9
$DIMALTTD
 70
     3
  9
$DIMTXSTY
  7
Standard
  9
$DIMAUNIT
 70
     0
  9
$DIMADEC
 70
     0
  9
$DIMALTRND
 40
0.0
  9
$DIMAZIN
 70
     0
  9
$DIMDSEP
 70
    44
  9
$DIMATFIT
 70
     3
  9
$DIMFRAC
 70
     0
  9
$DIMLDRBLK
  1

  9
$DIMLUNIT
 70
     2
  9
$DIMLWD
 70
    -2
  9
$DIMLWE
 70
    -2
  9
$DIMTMOVE
 70
     0
  9
$LUNITS
 70
     2
  9
$LUPREC
 70
     4
  9
$SKETCHINC
 40
1.0
  9
$FILLETRAD
 40
10.0
  9
$AUNITS
 70
     0
  9
$AUPREC
 70
     0
  9
$MENU
  1
.
  9
$ELEVATION
 40
0.0
  9
$PELEVATION
 40
0.0
  9
$THICKNESS
 40
0.0
  9
$LIMCHECK
 70
     0
  9
$CHAMFERA
 40
10.0
  9
$CHAMFERB
 40
10.0
  9
$CHAMFERC
 40
20.0
  9
$CHAMFERD
 40
0.0
  9
$SKPOLY
 70
     0
  9
$TDCREATE
 40
2458578.570833333
  9
$TDUCREATE
 40
2458578.4875
  9
$TDUPDATE
 40
2458578.574305556
  9
$TDUUPDATE
 40
2458578.490972222
  9
$TDINDWG
 40
0.0000000116
  9
$TDUSRTIMER
 40
0.0000000116
  9
$USRTIMER
 70
     1
  9
$ANGBASE
 50
0.0
  9
$ANGDIR
 70
     0
  9
$PDMODE
 70
     0
  9
$PDSIZE
 40
0.0
  9
$PLINEWID
 40
0.0
  9
$SPLFRAME
 70
     0
  9
$SPLINETYPE
 70
     6
  9
$SPLINESEGS
 70
     8
  9
$HANDSEED
  5
877
  9
$SURFTAB1
 70
     6
  9
$SURFTAB2
 70
     6
  9
$SURFTYPE
 70
     6
  9
$SURFU
 70
     6
  9
$SURFV
 70
     6
  9
$UCSBASE
  2

  9
$UCSNAME
  2

  9
$UCSORG
 10
0.0
 20
0.0
 30
0.0
  9
$UCSXDIR
 10
1.0
 20
0.0
 30
0.0
  9
$UCSYDIR
 10
0.0
 20
1.0
 30
0.0
  9
$UCSORTHOREF
  2

  9
$UCSORTHOVIEW
 70
     0
  9
$UCSORGTOP
 10
0.0
 20
0.0
 30
0.0
  9
$UCSORGBOTTOM
 10
0.0
 20
0.0
 30
0.0
  9
$UCSORGLEFT
 10
0.0
 20
0.0
 30
0.0
  9
$UCSORGRIGHT
 10
0.0
 20
0.0
 30
0.0
  9
$UCSORGFRONT
 10
0.0
 20
0.0
 30
0.0
  9
$UCSORGBACK
 10
0.0
 20
0.0
 30
0.0
  9
$PUCSBASE
  2

  9
$PUCSNAME
  2

  9
$PUCSORG
 10
0.0
 20
0.0
 30
0.0
  9
$PUCSXDIR
 10
1.0
 20
0.0
 30
0.0
  9
$PUCSYDIR
 10
0.0
 20
1.0
 30
0.0
  9
$PUCSORTHOREF
  2

  9
$PUCSORTHOVIEW
 70
     0
  9
$PUCSORGTOP
 10
0.0
 20
0.0
 30
0.0
  9
$PUCSORGBOTTOM
 10
0.0
 20
0.0
 30
0.0
  9
$PUCSORGLEFT
 10
0.0
 20
0.0
 30
0.0
  9
$PUCSORGRIGHT
 10
0.0
 20
0.0
 30
0.0
  9
$PUCSORGFRONT
 10
0.0
 20
0.0
 30
0.0
  9
$PUCSORGBACK
 10
0.0
 20
0.0
 30
0.0
  9
$USERI1
 70
     0
  9
$USERI2
 70
     0
  9
$USERI3
 70
     0
  9
$USERI4
 70
     0
  9
$USERI5
 70
     0
  9
$USERR1
 40
0.0
  9
$USERR2
 40
0.0
  9
$USERR3
 40
0.0
  9
$USERR4
 40
0.0
  9
$USERR5
 40
0.0
  9
$WORLDVIEW
 70
     1
  9
$SHADEDGE
 70
     3
  9
$SHADEDIF
 70
    70
  9
$TILEMODE
 70
     1
  9
$MAXACTVP
 70
    64
  9
$PINSBASE
 10
0.0
 20
0.0
 30
0.0
  9
$PLIMCHECK
 70
     0
  9
$PEXTMIN
 10
1.000000000000000E+20
 20
1.000000000000000E+20
 30
1.000000000000000E+20
  9
$PEXTMAX
 10
-1.000000000000000E+20
 20
-1.000000000000000E+20
 30
-1.000000000000000E+20
  9
$PLIMMIN
 10
0.0
 20
0.0
  9
$PLIMMAX
 10
420.0
 20
297.0
  9
$UNITMODE
 70
     0
  9
$VISRETAIN
 70
     1
  9
$PLINEGEN
 70
     0
  9
$PSLTSCALE
 70
     1
  9
$TREEDEPTH
 70
  3020
  9
$CMLSTYLE
  2
Standard
  9
$CMLJUST
 70
     0
  9
$CMLSCALE
 40
20.0
  9
$PROXYGRAPHICS
 70
     1
  9
$MEASUREMENT
 70
     1
  9
$CELWEIGHT
370
    -1
  9
$ENDCAPS
280
     0
  9
$JOINSTYLE
280
     0
  9
$LWDISPLAY
290
     0
  9
$INSUNITS
 70
     4
  9
$HYPERLINKBASE
  1

  9
$STYLESHEET
  1

  9
$XEDIT
290
     1
  9
$CEPSNTYPE
380
     0
  9
$PSTYLEMODE
290
     1
  9
$FINGERPRINTGUID
  2
{E5CE8B4C-6D68-4262-8018-7A83E2F6BF70}
  9
$VERSIONGUID
  2
{FAEB1C32-E019-11D5-929B-00C0DF256EC4}
  9
$EXTNAMES
290
     1
  9
$PSVPSCALE
 40
0.0
  9
$OLESTARTUP
290
     0
  0
ENDSEC
  0
SECTION
  2
CLASSES
  0
CLASS
  1
ACDBDICTIONARYWDFLT
  2
AcDbDictionaryWithDefault
  3
ObjectDBX Classes
 90
        0
280
     0
281
     0
  0
CLASS
  1
VISUALSTYLE
  2
AcDbVisualStyle
  3
ObjectDBX Classes
 90
     4095
280
     0
281
     0
  0
CLASS
  1
MATERIAL
  2
AcDbMaterial
  3
ObjectDBX Classes
 90
     1153
280
     0
281
     0
  0
CLASS
  1
SCALE
  2
AcDbScale
  3
ObjectDBX Classes
 90
     1153
280
     0
281
     0
  0
CLASS
  1
DICTIONARYVAR
  2
AcDbDictionaryVar
  3
ObjectDBX Classes
 90
        0
280
     0
281
     0
  0
CLASS
  1
ACDBPLACEHOLDER
  2
AcDbPlaceHolder
  3
ObjectDBX Classes
 90
        0
280
     0
281
     0
  0
CLASS
  1
LAYOUT
  2
AcDbLayout
  3
ObjectDBX Classes
 90
        0
280
     0
281
     0
  0
ENDSEC
  0
SECTION
  2
TABLES
  0
TABLE
  2
VPORT
  5
8
330
0
100
AcDbSymbolTable
 70
     1
  0
VPORT
  5
29
330
8
100
AcDbSymbolTableRecord
100
AcDbViewportTableRecord
  2
*Active
 70
     0
 10
0.0
 20
0.0
 11
1.0
 21
1.0
 12
11.26
 22
4.5
 13
0.0
 23
0.0
 14
10.0
 24
10.0
 15
10.0
 25
10.0
 16
0.0
 26
0.0
 36
1.0
 17
0.0
 27
0.0
 37
0.0
 40
9.0
 41
2.503333333333333
 42
50.0
 43
0.0
 44
0.0
 50
0.0
 51
0.0
 71
     0
 72
   100
 73
     1
 74
     3
 75
     0
 76
     0
 77
     0
 78
     0
281
     0
 65
     1
110
0.0
120
0.0
130
0.0
111
1.0
121
0.0
131
0.0
112
0.0
122
1.0
132
0.0
 79
     0
146
0.0
  0
ENDTAB
  0
TABLE
  2
LTYPE
  5
5
330
0
100
AcDbSymbolTable
 70
    10
  0
LTYPE
  5
14
330
5
100
AcDbSymbolTableRecord
100
AcDbLinetypeTableRecord
  2
ByBlock
 70
     0
  3

 72
    65
 73
     0
 40
0.0
  0
LTYPE
  5
15
330
5
100
AcDbSymbolTableRecord
100
AcDbLinetypeTableRecord
  2
ByLayer
 70
     0
  3

 72
    65
 73
     0
 40
0.0
  0
LTYPE
  5
16
330
5
100
AcDbSymbolTableRecord
100
AcDbLinetypeTableRecord
  2
Continuous
 70
     0
  3
Solid line
 72
    65
 73
     0
 40
0.0
  0
LTYPE
  5
45
330
5
100
AcDbSymbolTableRecord
100
AcDbLinetypeTableRecord
  2
phl_thick
 70
     0
  3
THICK
 72
    65
 73
     0
 40
0.0
  0
LTYPE
  5
210
330
5
100
AcDbSymbolTableRecord
100
AcDbLinetypeTableRecord
  2
ls_CUT
 70
     0
  3
THICK
 72
    65
 73
     0
 40
0.0
  0
LTYPE
  5
216
330
5
100
AcDbSymbolTableRecord
100
AcDbLinetypeTableRecord
  2
ls1
 70
     0
  3
THICK
 72
    65
 73
     0
 40
0.0
  0
LTYPE
  5
21C
330
5
100
AcDbSymbolTableRecord
100
AcDbLinetypeTableRecord
  2
NOCUT
 70
     0
  3
THICK
 72
    65
 73
     0
 40
0.0
  0
LTYPE
  5
220
330
5
100
AcDbSymbolTableRecord
100
AcDbLinetypeTableRecord
  2
SK1
 70
     0
  3
THICK
 72
    65
 73
     0
 40
0.0
  0
LTYPE
  5
228
330
5
100
AcDbSymbolTableRecord
100
AcDbLinetypeTableRecord
  2
ls_SK2
 70
     0
  3
THIN
 72
    65
 73
     0
 40
0.0
  0
LTYPE
  5
2D4
330
5
100
AcDbSymbolTableRecord
100
AcDbLinetypeTableRecord
  2
ls_2
 70
     0
  3
THIN
 72
    65
 73
     0
 40
0.0
  0
LTYPE
  5
3E0
330
5
100
AcDbSymbolTableRecord
100
AcDbLinetypeTableRecord
  2
LONGDASH_DASH
 70
     0
  3
THIN_DASHDOT
 72
    65
 73
     4
 40
0.85
 49
0.4
 74
     0
 49
-0.2
 74
     0
 49
0.05
 74
     0
 49
-0.2
 74
     0
  0
LTYPE
  5
41D
330
5
100
AcDbSymbolTableRecord
100
AcDbLinetypeTableRecord
  2
ls_SK1
 70
     0
  3
THICK
 72
    65
 73
     0
 40
0.0
  0
ENDTAB
  0
TABLE
  2
LAYER
  5
2
330
0
100
AcDbSymbolTable
 70
    10
  0
LAYER
  5
10
330
2
100
AcDbSymbolTableRecord
100
AcDbLayerTableRecord
  2
0
 70
     0
 62
     7
  6
Continuous
370
    -3
390
F
  0
LAYER
  5
44
330
2
100
AcDbSymbolTableRecord
100
AcDbLayerTableRecord
  2
1
 70
     0
 62
4
  6
CONTINUOUS
370
50
370
    -3
390
F
  0
LAYER
  5
20F
330
2
100
AcDbSymbolTableRecord
100
AcDbLayerTableRecord
  2
CUT
 70
     0
 62
1
  6
CONTINUOUS
370
25
370
    -3
390
F
  0
LAYER
  5
215
330
2
100
AcDbSymbolTableRecord
100
AcDbLayerTableRecord
  2
NOCUT
 70
     0
 62
7
  6
CONTINUOUS
370
25
370
    -3
390
F
  0
LAYER
  5
21F
330
2
100
AcDbSymbolTableRecord
100
AcDbLayerTableRecord
  2
SK1
 70
     0
 62
4
  6
CONTINUOUS
370
50
370
    -3
390
F
  0
LAYER
  5
227
330
2
100
AcDbSymbolTableRecord
100
AcDbLayerTableRecord
  2
SK2
 70
     0
 62
7
  6
CONTINUOUS
370
25
370
    -3
390
F
  0
LAYER
  5
2D3
330
2
100
AcDbSymbolTableRecord
100
AcDbLayerTableRecord
  2
2
 70
     0
 62
7
  6
CONTINUOUS
370
25
370
    -3
390
F
  0
LAYER
  5
3DF
330
2
100
AcDbSymbolTableRecord
100
AcDbLayerTableRecord
  2
4
 70
     0
 62
2
  6
LONGDASH_DASH
370
25
370
    -3
390
F
  0
LAYER
  5
3E2
330
2
100
AcDbSymbolTableRecord
100
AcDbLayerTableRecord
  2
SK4
 70
     0
 62
2
  6
LONGDASH_DASH
370
25
370
    -3
390
F
  0
LAYER
  5
456
330
2
100
AcDbSymbolTableRecord
100
AcDbLayerTableRecord
  2
SK6
 70
     0
 62
5
  6
CONTINUOUS
370
25
370
    -3
390
F
  0
ENDTAB
  0
TABLE
  2
STYLE
  5
3
330
0
100
AcDbSymbolTable
 70
     1
  0
STYLE
  5
11
330
3
100
AcDbSymbolTableRecord
100
AcDbTextStyleTableRecord
  2
Standard
 70
     0
 40
0.0
 41
1.0
 50
0.0
 71
     0
 42
2.5
  3
Monospac821 BT
  4

  0
ENDTAB
  0
TABLE
  2
VIEW
  5
6
330
0
100
AcDbSymbolTable
 70
     0
  0
ENDTAB
  0
TABLE
  2
UCS
  5
7
330
0
100
AcDbSymbolTable
 70
     0
  0
ENDTAB
  0
TABLE
  2
APPID
  5
9
330
0
100
AcDbSymbolTable
 70
     2
  0
APPID
  5
12
330
9
100
AcDbSymbolTableRecord
100
AcDbRegAppTableRecord
  2
ACAD
 70
     0
  0
APPID
  5
3F
330
9
100
AcDbSymbolTableRecord
100
AcDbRegAppTableRecord
  2
ccLab
 70
     0
  0
ENDTAB
  0
TABLE
  2
DIMSTYLE
  5
A
330
0
100
AcDbSymbolTable
 70
     1
100
AcDbDimStyleTable
  0
DIMSTYLE
105
27
330
A
100
AcDbSymbolTableRecord
100
AcDbDimStyleTableRecord
  2
ISO-25
 70
     0
 41
2.5
 42
0.625
 43
3.75
 44
1.25
 73
     0
 74
     0
 77
     1
 78
     8
140
2.5
141
2.5
143
0.03937007874016
147
0.625
171
     3
172
     1
271
     2
272
     2
274
     3
278
    44
283
     0
284
     8
340
11
  0
ENDTAB
  0
TABLE
  2
BLOCK_RECORD
  5
1
330
0
100
AcDbSymbolTable
 70
     2
  0
BLOCK_RECORD
  5
1F
330
1
100
AcDbSymbolTableRecord
100
AcDbBlockTableRecord
  2
*Model_Space
340
22
  0
BLOCK_RECORD
  5
1B
330
1
100
AcDbSymbolTableRecord
100
AcDbBlockTableRecord
  2
*Paper_Space
340
1E
  0
BLOCK_RECORD
  5
23
330
1
100
AcDbSymbolTableRecord
100
AcDbBlockTableRecord
  2
*Paper_Space0
340
26
  0
ENDTAB
  0
ENDSEC
  0
SECTION
  2
BLOCKS
  0
BLOCK
  5
20
330
1F
100
AcDbEntity
  8
0
100
AcDbBlockBegin
  2
*Model_Space
 70
     0
 10
0.0
 20
0.0
 30
0.0
  3
*Model_Space
  1

  0
ENDBLK
  5
21
330
1F
100
AcDbEntity
  8
0
100
AcDbBlockEnd
  0
BLOCK
  5
1C
330
1B
100
AcDbEntity
 67
     1
  8
0
100
AcDbBlockBegin
  2
*Paper_Space
 70
     0
 10
0.0
 20
0.0
 30
0.0
  3
*Paper_Space
  1

  0
ENDBLK
  5
1D
330
1B
100
AcDbEntity
 67
     1
  8
0
100
AcDbBlockEnd
  0
BLOCK
  5
24
330
23
100
AcDbEntity
  8
0
100
AcDbBlockBegin
  2
*Paper_Space0
 70
     0
 10
0.0
 20
0.0
 30
0.0
  3
*Paper_Space0
  1

  0
ENDBLK
  5
25
330
23
100
AcDbEntity
  8
0
100
AcDbBlockEnd
  0
ENDSEC
  0
SECTION
  2
ENTITIES
  0
LINE
  5
460
330
1F
100
AcDbEntity
  8
1
  6
CONTINUOUS
370
50
 62
4
100
AcDbLine
 10
48.39920799999999
 20
-0.459427
 30
0.0
 11
48.399139
 21
-0.395552
 31
0.0
  0
LINE
  5
461
330
1F
100
AcDbEntity
  8
1
  6
CONTINUOUS
370
50
 62
4
100
AcDbLine
 10
48.399403
 20
-0.522112
 30
0.0
 11
48.39920799999999
 21
-0.459427
 31
0.0
  0
LINE
  5
462
330
1F
100
AcDbEntity
  8
1
  6
CONTINUOUS
370
50
 62
4
100
AcDbLine
 10
48.399719
 20
-0.582932
 30
0.0
 11
48.399403
 21
-0.522112
 31
0.0
  0
LINE
  5
463
330
1F
100
AcDbEntity
  8
1
  6
CONTINUOUS
370
50
 62
4
100
AcDbLine
 10
48.400158
 20
-0.6412129999999999
 30
0.0
 11
48.399719
 21
-0.582932
 31
0.0
  0
LINE
  5
464
330
1F
100
AcDbEntity
  8
1
  6
CONTINUOUS
370
50
 62
4
100
AcDbLine
 10
48.400723
 20
-0.69628
 30
0.0
 11
48.400158
 21
-0.6412129999999999
 31
0.0
  0
LINE
  5
465
330
1F
100
AcDbEntity
  8
1
  6
CONTINUOUS
370
50
 62
4
100
AcDbLine
 10
48.401409
 20
-0.747478
 30
0.0
 11
48.400723
 21
-0.69628
 31
0.0
  0
LINE
  5
466
330
1F
100
AcDbEntity
  8
1
  6
CONTINUOUS
370
50
 62
4
100
AcDbLine
 10
48.402214
 20
-0.7943939999999999
 30
0.0
 11
48.401409
 21
-0.747478
 31
0.0
  0
LINE
  5
467
330
1F
100
AcDbEntity
  8
1
  6
CONTINUOUS
370
50
 62
4
100
AcDbLine
 10
48.403126
 20
-0.836785
 30
0.0
 11
48.402214
 21
-0.7943939999999999
 31
0.0
  0
LINE
  5
468
330
1F
100
AcDbEntity
  8
1
  6
CONTINUOUS
370
50
 62
4
100
AcDbLine
 10
48.404125
 20
-0.8744139999999999
 30
0.0
 11
48.403126
 21
-0.836785
 31
0.0
  0
LINE
  5
469
330
1F
100
AcDbEntity
  8
1
  6
CONTINUOUS
370
50
 62
4
100
AcDbLine
 10
48.405205
 20
-0.907044
 30
0.0
 11
48.404125
 21
-0.8744139999999999
 31
0.0
  0
LINE
  5
46A
330
1F
100
AcDbEntity
  8
1
  6
CONTINUOUS
370
50
 62
4
100
AcDbLine
 10
48.406353
 20
-0.934456
 30
0.0
 11
48.405205
 21
-0.907044
 31
0.0
  0
LINE
  5
46B
330
1F
100
AcDbEntity
  8
1
  6
CONTINUOUS
370
50
 62
4
100
AcDbLine
 10
48.407593
 20
-0.957214
 30
0.0
 11
48.406353
 21
-0.934456
 31
0.0
  0
LINE
  5
46C
330
1F
100
AcDbEntity
  8
1
  6
CONTINUOUS
370
50
 62
4
100
AcDbLine
 10
48.422649
 20
0.918634
 30
0.0
 11
48.421726
 21
0.933515
 31
0.0
  0
LINE
  5
46D
330
1F
100
AcDbEntity
  8
1
  6
CONTINUOUS
370
50
 62
4
100
AcDbLine
 10
48.421726
 20
0.933515
 30
0.0
 11
48.420795
 21
0.9470489999999999
 31
0.0
  0
LINE
  5
46E
330
1F
100
AcDbEntity
  8
1
  6
CONTINUOUS
370
50
 62
4
100
AcDbLine
 10
48.408932
 20
-0.975443
 30
0.0
 11
48.407593
 21
-0.957214
 31
0.0
  0
LINE
  5
46F
330
1F
100
AcDbEntity
  8
1
  6
CONTINUOUS
370
50
 62
4
100
AcDbLine
 10
48.420795
 20
0.9470489999999999
 30
0.0
 11
48.419857
 21
0.959177
 31
0.0
  0
LINE
  5
470
330
1F
100
AcDbEntity
  8
1
  6
CONTINUOUS
370
50
 62
4
100
AcDbLine
 10
48.419857
 20
0.959177
 30
0.0
 11
48.418915
 21
0.969845
 31
0.0
  0
LINE
  5
471
330
1F
100
AcDbEntity
  8
1
  6
CONTINUOUS
370
50
 62
4
100
AcDbLine
 10
48.418915
 20
0.969845
 30
0.0
 11
48.417973
 21
0.9789939999999999
 31
0.0
  0
LINE
  5
472
330
1F
100
AcDbEntity
  8
1
  6
CONTINUOUS
370
50
 62
4
100
AcDbLine
 10
48.410358
 20
-0.988846
 30
0.0
 11
48.408932
 21
-0.975443
 31
0.0
  0
LINE
  5
473
330
1F
100
AcDbEntity
  8
1
  6
CONTINUOUS
370
50
 62
4
100
AcDbLine
 10
48.417973
 20
0.9789939999999999
 30
0.0
 11
48.41703
 21
0.986568
 31
0.0
  0
LINE
  5
474
330
1F
100
AcDbEntity
  8
1
  6
CONTINUOUS
370
50
 62
4
100
AcDbLine
 10
48.41703
 20
0.986568
 30
0.0
 11
48.416092
 21
0.99251
 31
0.0
  0
LINE
  5
475
330
1F
100
AcDbEntity
  8
1
  6
CONTINUOUS
370
50
 62
4
100
AcDbLine
 10
48.41186099999999
 20
-0.9971279999999999
 30
0.0
 11
48.410358
 21
-0.988846
 31
0.0
  0
LINE
  5
476
330
1F
100
AcDbEntity
  8
1
  6
CONTINUOUS
370
50
 62
4
100
AcDbLine
 10
48.416092
 20
0.99251
 30
0.0
 11
48.41516499999999
 21
0.9967649999999999
 31
0.0
  0
LINE
  5
477
330
1F
100
AcDbEntity
  8
1
  6
CONTINUOUS
370
50
 62
4
100
AcDbLine
 10
48.91573
 20
-0.014006
 30
0.0
 11
48.914112
 21
-0.007617
 31
0.0
  0
LINE
  5
478
330
1F
100
AcDbEntity
  8
1
  6
CONTINUOUS
370
50
 62
4
100
AcDbLine
 10
48.914112
 20
-0.007617
 30
0.0
 11
48.91227
 21
-0.001024
 31
0.0
  0
LINE
  5
479
330
1F
100
AcDbEntity
  8
1
  6
CONTINUOUS
370
50
 62
4
100
AcDbLine
 10
48.91227
 20
-0.001024
 30
0.0
 11
48.910183
 21
0.005804
 31
0.0
  0
LINE
  5
47A
330
1F
100
AcDbEntity
  8
1
  6
CONTINUOUS
370
50
 62
4
100
AcDbLine
 10
48.910183
 20
0.005804
 30
0.0
 11
48.907837
 21
0.012902
 31
0.0
  0
LINE
  5
47B
330
1F
100
AcDbEntity
  8
1
  6
CONTINUOUS
370
50
 62
4
100
AcDbLine
 10
48.907837
 20
0.012902
 30
0.0
 11
48.905209
 21
0.020307
 31
0.0
  0
LINE
  5
47C
330
1F
100
AcDbEntity
  8
1
  6
CONTINUOUS
370
50
 62
4
100
AcDbLine
 10
48.41516499999999
 20
0.9967649999999999
 30
0.0
 11
48.414246
 21
0.999273
 31
0.0
  0
LINE
  5
47D
330
1F
100
AcDbEntity
  8
1
  6
CONTINUOUS
370
50
 62
4
100
AcDbLine
 10
48.905209
 20
0.020307
 30
0.0
 11
48.902279
 21
0.028063
 31
0.0
  0
LINE
  5
47E
330
1F
100
AcDbEntity
  8
1
  6
CONTINUOUS
370
50
 62
4
100
AcDbLine
 10
48.902279
 20
0.028063
 30
0.0
 11
48.899014
 21
0.036219
 31
0.0
  0
LINE
  5
47F
330
1F
100
AcDbEntity
  8
1
  6
CONTINUOUS
370
50
 62
4
100
AcDbLine
 10
48.90219099999999
 20
0.036213
 30
0.0
 11
48.890156
 21
0.063592
 31
0.0
  0
LINE
  5
480
330
1F
100
AcDbEntity
  8
1
  6
CONTINUOUS
370
50
 62
4
100
AcDbLine
 10
48.890156
 20
0.063592
 30
0.0
 11
48.873631
 21
0.097112
 31
0.0
  0
LINE
  5
481
330
1F
100
AcDbEntity
  8
1
  6
CONTINUOUS
370
50
 62
4
100
AcDbLine
 10
48.873631
 20
0.097112
 30
0.0
 11
48.850552
 21
0.14008
 31
0.0
  0
LINE
  5
482
330
1F
100
AcDbEntity
  8
1
  6
CONTINUOUS
370
50
 62
4
100
AcDbLine
 10
48.507835
 20
0.694933
 30
0.0
 11
48.496223
 21
0.7163959999999999
 31
0.0
  0
LINE
  5
483
330
1F
100
AcDbEntity
  8
1
  6
CONTINUOUS
370
50
 62
4
100
AcDbLine
 10
48.413425
 20
-1.0
 30
0.0
 11
48.41186099999999
 21
-0.9971279999999999
 31
0.0
  0
LINE
  5
484
330
1F
100
AcDbEntity
  8
1
  6
CONTINUOUS
370
50
 62
4
100
AcDbLine
 10
48.496223
 20
0.7163959999999999
 30
0.0
 11
48.48436
 21
0.737891
 31
0.0
  0
LINE
  5
485
330
1F
100
AcDbEntity
  8
1
  6
CONTINUOUS
370
50
 62
4
100
AcDbLine
 10
48.48436
 20
0.737891
 30
0.0
 11
48.472317
 21
0.7594259999999999
 31
0.0
  0
LINE
  5
486
330
1F
100
AcDbEntity
  8
1
  6
CONTINUOUS
370
50
 62
4
100
AcDbLine
 10
48.472317
 20
0.7594259999999999
 30
0.0
 11
48.460114
 21
0.780975
 31
0.0
  0
LINE
  5
487
330
1F
100
AcDbEntity
  8
1
  6
CONTINUOUS
370
50
 62
4
100
AcDbLine
 10
48.850552
 20
0.14008
 30
0.0
 11
48.817196
 21
0.198372
 31
0.0
  0
LINE
  5
488
330
1F
100
AcDbEntity
  8
1
  6
CONTINUOUS
370
50
 62
4
100
AcDbLine
 10
48.460114
 20
0.780975
 30
0.0
 11
48.447762
 21
0.802516
 31
0.0
  0
LINE
  5
489
330
1F
100
AcDbEntity
  8
1
  6
CONTINUOUS
370
50
 62
4
100
AcDbLine
 10
48.447762
 20
0.802516
 30
0.0
 11
48.43527599999999
 21
0.824023
 31
0.0
  0
LINE
  5
48A
330
1F
100
AcDbEntity
  8
1
  6
CONTINUOUS
370
50
 62
4
100
AcDbLine
 10
49.0
 20
0.0
 30
0.0
 11
48.414234
 21
0.999307
 31
0.0
  0
LINE
  5
48B
330
1F
100
AcDbEntity
  8
1
  6
CONTINUOUS
370
50
 62
4
100
AcDbLine
 10
48.43527599999999
 20
0.824023
 30
0.0
 11
48.422649
 21
0.845459
 31
0.0
  0
LINE
  5
48C
330
1F
100
AcDbEntity
  8
1
  6
CONTINUOUS
370
50
 62
4
100
AcDbLine
 10
48.817196
 20
0.198372
 30
0.0
 11
48.766113
 21
0.283621
 31
0.0
  0
LINE
  5
48D
330
1F
100
AcDbEntity
  8
1
  6
CONTINUOUS
370
50
 62
4
100
AcDbLine
 10
48.414246
 20
0.999273
 30
0.0
 11
48.414108
 21
0.999498
 31
0.0
  0
LINE
  5
48E
330
1F
100
AcDbEntity
  8
1
  6
CONTINUOUS
370
50
 62
4
100
AcDbLine
 10
25.014788
 20
0.134446
 30
0.0
 11
25.0
 21
0.158513
 31
0.0
  0
LINE
  5
48F
330
1F
100
AcDbEntity
  8
1
  6
CONTINUOUS
370
50
 62
4
100
AcDbLine
 10
48.766113
 20
0.283621
 30
0.0
 11
48.680031
 21
0.42269
 31
0.0
  0
LINE
  5
490
330
1F
100
AcDbEntity
  8
1
  6
CONTINUOUS
370
50
 62
4
100
AcDbLine
 10
49.0
 20
0.0
 30
0.0
 11
48.422649
 21
0.918635
 31
0.0
  0
LINE
  5
491
330
1F
100
AcDbEntity
  8
1
  6
CONTINUOUS
370
50
 62
4
100
AcDbLine
 10
48.680031
 20
0.42269
 30
0.0
 11
48.507835
 21
0.694933
 31
0.0
  0
LINE
  5
492
330
1F
100
AcDbEntity
  8
1
  6
CONTINUOUS
370
50
 62
4
100
AcDbLine
 10
25.030729
 20
0.110774
 30
0.0
 11
25.014788
 21
0.134446
 31
0.0
  0
LINE
  5
493
330
1F
100
AcDbEntity
  8
1
  6
CONTINUOUS
370
50
 62
4
100
AcDbLine
 10
25.047592
 20
0.08758
 30
0.0
 11
25.030729
 21
0.110774
 31
0.0
  0
LINE
  5
494
330
1F
100
AcDbEntity
  8
1
  6
CONTINUOUS
370
50
 62
4
100
AcDbLine
 10
48.414108
 20
0.999498
 30
0.0
 11
48.413971
 21
0.9996799999999999
 31
0.0
  0
LINE
  5
495
330
1F
100
AcDbEntity
  8
1
  6
CONTINUOUS
370
50
 62
4
100
AcDbLine
 10
25.065145
 20
0.064947
 30
0.0
 11
25.047592
 21
0.08758
 31
0.0
  0
LINE
  5
496
330
1F
100
AcDbEntity
  8
1
  6
CONTINUOUS
370
50
 62
4
100
AcDbLine
 10
25.083164
 20
0.042948
 30
0.0
 11
25.065145
 21
0.064947
 31
0.0
  0
LINE
  5
497
330
1F
100
AcDbEntity
  8
1
  6
CONTINUOUS
370
50
 62
4
100
AcDbLine
 10
25.101719
 20
0.021335
 30
0.0
 11
25.083164
 21
0.042948
 31
0.0
  0
LINE
  5
498
330
1F
100
AcDbEntity
  8
1
  6
CONTINUOUS
370
50
 62
4
100
AcDbLine
 10
25.120811
 20
0.0
 30
0.0
 11
25.101719
 21
0.021335
 31
0.0
  0
LINE
  5
499
330
1F
100
AcDbEntity
  8
1
  6
CONTINUOUS
370
50
 62
4
100
AcDbLine
 10
48.413971
 20
0.9996799999999999
 30
0.0
 11
48.41383399999999
 21
0.999821
 31
0.0
  0
LINE
  5
49A
330
1F
100
AcDbEntity
  8
1
  6
CONTINUOUS
370
50
 62
4
100
AcDbLine
 10
25.209568
 20
-0.090961
 30
0.0
 11
25.120811
 21
0.0
 31
0.0
  0
LINE
  5
49B
330
1F
100
AcDbEntity
  8
1
  6
CONTINUOUS
370
50
 62
4
100
AcDbLine
 10
48.6525
 20
-0.057755
 30
0.0
 11
48.613735
 21
-0.018845
 31
0.0
  0
LINE
  5
49C
330
1F
100
AcDbEntity
  8
1
  6
CONTINUOUS
370
50
 62
4
100
AcDbLine
 10
48.613735
 20
-0.018845
 30
0.0
 11
48.575512
 21
0.019454
 31
0.0
  0
LINE
  5
49D
330
1F
100
AcDbEntity
  8
1
  6
CONTINUOUS
370
50
 62
4
100
AcDbLine
 10
48.575512
 20
0.019454
 30
0.0
 11
48.5387
 21
0.056271
 31
0.0
  0
LINE
  5
49E
330
1F
100
AcDbEntity
  8
1
  6
CONTINUOUS
370
50
 62
4
100
AcDbLine
 10
48.5387
 20
0.056271
 30
0.0
 11
48.504192
 21
0.090739
 31
0.0
  0
LINE
  5
49F
330
1F
100
AcDbEntity
  8
1
  6
CONTINUOUS
370
50
 62
4
100
AcDbLine
 10
48.504192
 20
0.090739
 30
0.0
 11
48.466686
 21
0.128167
 31
0.0
  0
LINE
  5
4A0
330
1F
100
AcDbEntity
  8
1
  6
CONTINUOUS
370
50
 62
4
100
AcDbLine
 10
48.466686
 20
0.128167
 30
0.0
 11
48.334854
 21
0.259641
 31
0.0
  0
LINE
  5
4A1
330
1F
100
AcDbEntity
  8
1
  6
CONTINUOUS
370
50
 62
4
100
AcDbLine
 10
48.334854
 20
0.259641
 30
0.0
 11
48.145454
 21
0.448308
 31
0.0
  0
LINE
  5
4A2
330
1F
100
AcDbEntity
  8
1
  6
CONTINUOUS
370
50
 62
4
100
AcDbLine
 10
25.302994
 20
-0.177688
 30
0.0
 11
25.209568
 21
-0.090961
 31
0.0
  0
LINE
  5
4A3
330
1F
100
AcDbEntity
  8
1
  6
CONTINUOUS
370
50
 62
4
100
AcDbLine
 10
25.398264
 20
-0.260695
 30
0.0
 11
25.302994
 21
-0.177688
 31
0.0
  0
LINE
  5
4A4
330
1F
100
AcDbEntity
  8
1
  6
CONTINUOUS
370
50
 62
4
100
AcDbLine
 10
25.49445
 20
-0.340971
 30
0.0
 11
25.398264
 21
-0.260695
 31
0.0
  0
LINE
  5
4A5
330
1F
100
AcDbEntity
  8
1
  6
CONTINUOUS
370
50
 62
4
100
AcDbLine
 10
25.590712
 20
-0.418669
 30
0.0
 11
25.49445
 21
-0.340971
 31
0.0
  0
LINE
  5
4A6
330
1F
100
AcDbEntity
  8
1
  6
CONTINUOUS
370
50
 62
4
100
AcDbLine
 10
25.686691
 20
-0.493669
 30
0.0
 11
25.590712
 21
-0.418669
 31
0.0
  0
LINE
  5
4A7
330
1F
100
AcDbEntity
  8
1
  6
CONTINUOUS
370
50
 62
4
100
AcDbLine
 10
25.782085
 20
-0.565364
 30
0.0
 11
25.686691
 21
-0.493669
 31
0.0
  0
LINE
  5
4A8
330
1F
100
AcDbEntity
  8
1
  6
CONTINUOUS
370
50
 62
4
100
AcDbLine
 10
28.999855
 20
-0.950336
 30
0.0
 11
28.999712
 21
-0.9502309999999999
 31
0.0
  0
LINE
  5
4A9
330
1F
100
AcDbEntity
  8
1
  6
CONTINUOUS
370
50
 62
4
100
AcDbLine
 10
28.999422
 20
-0.9500219999999999
 30
0.0
 11
28.999279
 21
-0.949917
 31
0.0
  0
LINE
  5
4AA
330
1F
100
AcDbEntity
  8
1
  6
CONTINUOUS
370
50
 62
4
100
AcDbLine
 10
29.0
 20
-0.950441
 30
0.0
 11
28.999855
 21
-0.950336
 31
0.0
  0
LINE
  5
4AB
330
1F
100
AcDbEntity
  8
1
  6
CONTINUOUS
370
50
 62
4
100
AcDbLine
 10
28.999567
 20
-0.9501269999999999
 30
0.0
 11
28.999422
 21
-0.9500219999999999
 31
0.0
  0
LINE
  5
4AC
330
1F
100
AcDbEntity
  8
1
  6
CONTINUOUS
370
50
 62
4
100
AcDbLine
 10
48.41383399999999
 20
0.999821
 30
0.0
 11
48.41369599999999
 21
0.9999199999999999
 31
0.0
  0
LINE
  5
4AD
330
1F
100
AcDbEntity
  8
1
  6
CONTINUOUS
370
50
 62
4
100
AcDbLine
 10
28.999712
 20
-0.9502309999999999
 30
0.0
 11
28.999567
 21
-0.9501269999999999
 31
0.0
  0
LINE
  5
4AE
330
1F
100
AcDbEntity
  8
1
  6
CONTINUOUS
370
50
 62
4
100
AcDbLine
 10
28.999279
 20
-0.949917
 30
0.0
 11
28.999134
 21
-0.9498129999999999
 31
0.0
  0
LINE
  5
4AF
330
1F
100
AcDbEntity
  8
1
  6
CONTINUOUS
370
50
 62
4
100
AcDbLine
 10
25.876514
 20
-0.63267
 30
0.0
 11
25.782085
 21
-0.565364
 31
0.0
  0
LINE
  5
4B0
330
1F
100
AcDbEntity
  8
1
  6
CONTINUOUS
370
50
 62
4
100
AcDbLine
 10
25.967239
 20
-0.692788
 30
0.0
 11
25.876514
 21
-0.63267
 31
0.0
  0
LINE
  5
4B1
330
1F
100
AcDbEntity
  8
1
  6
CONTINUOUS
370
50
 62
4
100
AcDbLine
 10
26.144203
 20
0.292989
 30
0.0
 11
26.104448
 21
0.318636
 31
0.0
  0
LINE
  5
4B2
330
1F
100
AcDbEntity
  8
1
  6
CONTINUOUS
370
50
 62
4
100
AcDbLine
 10
26.104448
 20
0.318636
 30
0.0
 11
26.064651
 21
0.342996
 31
0.0
  0
LINE
  5
4B3
330
1F
100
AcDbEntity
  8
1
  6
CONTINUOUS
370
50
 62
4
100
AcDbLine
 10
26.055317
 20
-0.7457309999999999
 30
0.0
 11
25.967239
 21
-0.692788
 31
0.0
  0
LINE
  5
4B4
330
1F
100
AcDbEntity
  8
1
  6
CONTINUOUS
370
50
 62
4
100
AcDbLine
 10
48.91573
 20
-0.014006
 30
0.0
 11
48.145454
 21
0.448308
 31
0.0
  0
LINE
  5
4B5
330
1F
100
AcDbEntity
  8
1
  6
CONTINUOUS
370
50
 62
4
100
AcDbLine
 10
26.064651
 20
0.342996
 30
0.0
 11
26.024776
 21
0.366063
 31
0.0
  0
LINE
  5
4B6
330
1F
100
AcDbEntity
  8
1
  6
CONTINUOUS
370
50
 62
4
100
AcDbLine
 10
26.024776
 20
0.366063
 30
0.0
 11
25.984787
 21
0.387836
 31
0.0
  0
LINE
  5
4B7
330
1F
100
AcDbEntity
  8
1
  6
CONTINUOUS
370
50
 62
4
100
AcDbLine
 10
26.547514
 20
0.04817
 30
0.0
 11
26.529478
 21
0.057816
 31
0.0
  0
LINE
  5
4B8
330
1F
100
AcDbEntity
  8
1
  6
CONTINUOUS
370
50
 62
4
100
AcDbLine
 10
26.565546
 20
0.038527
 30
0.0
 11
26.547514
 21
0.04817
 31
0.0
  0
LINE
  5
4B9
330
1F
100
AcDbEntity
  8
1
  6
CONTINUOUS
370
50
 62
4
100
AcDbLine
 10
26.583576
 20
0.028888
 30
0.0
 11
26.565546
 21
0.038527
 31
0.0
  0
LINE
  5
4BA
330
1F
100
AcDbEntity
  8
1
  6
CONTINUOUS
370
50
 62
4
100
AcDbLine
 10
26.529478
 20
0.057816
 30
0.0
 11
26.465193
 21
0.092175
 31
0.0
  0
LINE
  5
4BB
330
1F
100
AcDbEntity
  8
1
  6
CONTINUOUS
370
50
 62
4
100
AcDbLine
 10
26.601604
 20
0.019253
 30
0.0
 11
26.583576
 21
0.028888
 31
0.0
  0
LINE
  5
4BC
330
1F
100
AcDbEntity
  8
1
  6
CONTINUOUS
370
50
 62
4
100
AcDbLine
 10
26.619635
 20
0.009624
 30
0.0
 11
26.601604
 21
0.019253
 31
0.0
  0
LINE
  5
4BD
330
1F
100
AcDbEntity
  8
1
  6
CONTINUOUS
370
50
 62
4
100
AcDbLine
 10
26.637669
 20
0.0
 30
0.0
 11
26.619635
 21
0.009624
 31
0.0
  0
LINE
  5
4BE
330
1F
100
AcDbEntity
  8
1
  6
CONTINUOUS
370
50
 62
4
100
AcDbLine
 10
30.392214
 20
-0.060315
 30
0.0
 11
30.165009
 21
0.060846
 31
0.0
  0
LINE
  5
4BF
330
1F
100
AcDbEntity
  8
1
  6
CONTINUOUS
370
50
 62
4
100
AcDbLine
 10
26.465193
 20
0.092175
 30
0.0
 11
26.401035
 21
0.126378
 31
0.0
  0
LINE
  5
4C0
330
1F
100
AcDbEntity
  8
1
  6
CONTINUOUS
370
50
 62
4
100
AcDbLine
 10
42.230518
 20
-0.05937
 30
0.0
 11
41.886997
 21
0.123453
 31
0.0
  0
LINE
  5
4C1
330
1F
100
AcDbEntity
  8
1
  6
CONTINUOUS
370
50
 62
4
100
AcDbLine
 10
48.192612
 20
-0.080881
 30
0.0
 11
48.151157
 21
-0.058829
 31
0.0
  0
LINE
  5
4C2
330
1F
100
AcDbEntity
  8
1
  6
CONTINUOUS
370
50
 62
4
100
AcDbLine
 10
44.631847
 20
-0.122407
 30
0.0
 11
44.290485
 21
0.059085
 31
0.0
  0
LINE
  5
4C3
330
1F
100
AcDbEntity
  8
1
  6
CONTINUOUS
370
50
 62
4
100
AcDbLine
 10
48.23402
 20
-0.10288
 30
0.0
 11
48.192612
 21
-0.080881
 31
0.0
  0
LINE
  5
4C4
330
1F
100
AcDbEntity
  8
1
  6
CONTINUOUS
370
50
 62
4
100
AcDbLine
 10
32.79155
 20
-0.122493
 30
0.0
 11
32.447269
 21
0.060335
 31
0.0
  0
LINE
  5
4C5
330
1F
100
AcDbEntity
  8
1
  6
CONTINUOUS
370
50
 62
4
100
AcDbLine
 10
26.401035
 20
0.126378
 30
0.0
 11
26.336931
 21
0.160397
 31
0.0
  0
LINE
  5
4C6
330
1F
100
AcDbEntity
  8
1
  6
CONTINUOUS
370
50
 62
4
100
AcDbLine
 10
26.142204
 20
-0.791804
 30
0.0
 11
26.055317
 21
-0.7457309999999999
 31
0.0
  0
LINE
  5
4C7
330
1F
100
AcDbEntity
  8
1
  6
CONTINUOUS
370
50
 62
4
100
AcDbLine
 10
48.275406
 20
-0.124819
 30
0.0
 11
48.23402
 21
-0.10288
 31
0.0
  0
LINE
  5
4C8
330
1F
100
AcDbEntity
  8
1
  6
CONTINUOUS
370
50
 62
4
100
AcDbLine
 10
48.151157
 20
-0.058829
 30
0.0
 11
47.967659
 21
0.0384
 31
0.0
  0
LINE
  5
4C9
330
1F
100
AcDbEntity
  8
1
  6
CONTINUOUS
370
50
 62
4
100
AcDbLine
 10
48.316792
 20
-0.146691
 30
0.0
 11
48.275406
 21
-0.124819
 31
0.0
  0
LINE
  5
4CA
330
1F
100
AcDbEntity
  8
1
  6
CONTINUOUS
370
50
 62
4
100
AcDbLine
 10
38.711292
 20
-0.121784
 30
0.0
 11
38.367752
 21
0.059708
 31
0.0
  0
LINE
  5
4CB
330
1F
100
AcDbEntity
  8
1
  6
CONTINUOUS
370
50
 62
4
100
AcDbLine
 10
30.626852
 20
-0.184238
 30
0.0
 11
30.392214
 21
-0.060315
 31
0.0
  0
LINE
  5
4CC
330
1F
100
AcDbEntity
  8
1
  6
CONTINUOUS
370
50
 62
4
100
AcDbLine
 10
26.853851
 20
-0.114162
 30
0.0
 11
26.637669
 21
0.0
 31
0.0
  0
LINE
  5
4CD
330
1F
100
AcDbEntity
  8
1
  6
CONTINUOUS
370
50
 62
4
100
AcDbLine
 10
36.312225
 20
-0.059612
 30
0.0
 11
35.968994
 21
0.121481
 31
0.0
  0
LINE
  5
4CE
330
1F
100
AcDbEntity
  8
1
  6
CONTINUOUS
370
50
 62
4
100
AcDbLine
 10
26.336931
 20
0.160397
 30
0.0
 11
26.272808
 21
0.194204
 31
0.0
  0
LINE
  5
4CF
330
1F
100
AcDbEntity
  8
1
  6
CONTINUOUS
370
50
 62
4
100
AcDbLine
 10
48.3582
 20
-0.168487
 30
0.0
 11
48.316792
 21
-0.146691
 31
0.0
  0
LINE
  5
4D0
330
1F
100
AcDbEntity
  8
1
  6
CONTINUOUS
370
50
 62
4
100
AcDbLine
 10
38.367752
 20
0.059708
 30
0.0
 11
38.01313
 21
0.246193
 31
0.0
  0
LINE
  5
4D1
330
1F
100
AcDbEntity
  8
1
  6
CONTINUOUS
370
50
 62
4
100
AcDbLine
 10
36.667759
 20
-0.246513
 30
0.0
 11
36.312225
 21
-0.059612
 31
0.0
  0
LINE
  5
4D2
330
1F
100
AcDbEntity
  8
1
  6
CONTINUOUS
370
50
 62
4
100
AcDbLine
 10
47.967659
 20
0.0384
 30
0.0
 11
47.78434
 21
0.134761
 31
0.0
  0
LINE
  5
4D3
330
1F
100
AcDbEntity
  8
1
  6
CONTINUOUS
370
50
 62
4
100
AcDbLine
 10
30.165009
 20
0.060846
 30
0.0
 11
29.936291
 21
0.180729
 31
0.0
  0
LINE
  5
4D4
330
1F
100
AcDbEntity
  8
1
  6
CONTINUOUS
370
50
 62
4
100
AcDbLine
 10
48.399654
 20
-0.190199
 30
0.0
 11
48.3582
 21
-0.168487
 31
0.0
  0
LINE
  5
4D5
330
1F
100
AcDbEntity
  8
1
  6
CONTINUOUS
370
50
 62
4
100
AcDbLine
 10
26.272808
 20
0.194204
 30
0.0
 11
26.20859
 21
0.227769
 31
0.0
  0
LINE
  5
4D6
330
1F
100
AcDbEntity
  8
1
  6
CONTINUOUS
370
50
 62
4
100
AcDbLine
 10
32.447269
 20
0.060335
 30
0.0
 11
32.0881
 21
0.248006
 31
0.0
  0
LINE
  5
4D7
330
1F
100
AcDbEntity
  8
1
  6
CONTINUOUS
370
50
 62
4
100
AcDbLine
 10
44.290485
 20
0.059085
 30
0.0
 11
43.933647
 21
0.245437
 31
0.0
  0
LINE
  5
4D8
330
1F
100
AcDbEntity
  8
1
  6
CONTINUOUS
370
50
 62
4
100
AcDbLine
 10
47.78434
 20
0.134761
 30
0.0
 11
47.603016
 21
0.229399
 31
0.0
  0
LINE
  5
4D9
330
1F
100
AcDbEntity
  8
1
  6
CONTINUOUS
370
50
 62
4
100
AcDbLine
 10
42.586937
 20
-0.245218
 30
0.0
 11
42.230518
 21
-0.05937
 31
0.0
  0
LINE
  5
4DA
330
1F
100
AcDbEntity
  8
1
  6
CONTINUOUS
370
50
 62
4
100
AcDbLine
 10
35.968994
 20
0.121481
 30
0.0
 11
35.628376
 21
0.298861
 31
0.0
  0
LINE
  5
4DB
330
1F
100
AcDbEntity
  8
1
  6
CONTINUOUS
370
50
 62
4
100
AcDbLine
 10
39.053776
 20
-0.299647
 30
0.0
 11
38.711292
 21
-0.121784
 31
0.0
  0
LINE
  5
4DC
330
1F
100
AcDbEntity
  8
1
  6
CONTINUOUS
370
50
 62
4
100
AcDbLine
 10
27.069645
 20
-0.226113
 30
0.0
 11
26.853851
 21
-0.114162
 31
0.0
  0
LINE
  5
4DD
330
1F
100
AcDbEntity
  8
1
  6
CONTINUOUS
370
50
 62
4
100
AcDbLine
 10
33.135529
 20
-0.300498
 30
0.0
 11
32.79155
 21
-0.122493
 31
0.0
  0
LINE
  5
4DE
330
1F
100
AcDbEntity
  8
1
  6
CONTINUOUS
370
50
 62
4
100
AcDbLine
 10
26.20859
 20
0.227769
 30
0.0
 11
26.144203
 21
0.261066
 31
0.0
  0
LINE
  5
4DF
330
1F
100
AcDbEntity
  8
1
  6
CONTINUOUS
370
50
 62
4
100
AcDbLine
 10
41.886997
 20
0.123453
 30
0.0
 11
41.541885
 21
0.301425
 31
0.0
  0
LINE
  5
4E0
330
1F
100
AcDbEntity
  8
1
  6
CONTINUOUS
370
50
 62
4
100
AcDbLine
 10
44.97633
 20
-0.300035
 30
0.0
 11
44.631847
 21
-0.122407
 31
0.0
  0
LINE
  5
4E1
330
1F
100
AcDbEntity
  8
1
  6
CONTINUOUS
370
50
 62
4
100
AcDbLine
 10
29.936291
 20
0.180729
 30
0.0
 11
29.702942
 21
0.300826
 31
0.0
  0
LINE
  5
4E2
330
1F
100
AcDbEntity
  8
1
  6
CONTINUOUS
370
50
 62
4
100
AcDbLine
 10
47.603016
 20
0.229399
 30
0.0
 11
47.423161
 21
0.321611
 31
0.0
  0
LINE
  5
4E3
330
1F
100
AcDbEntity
  8
1
  6
CONTINUOUS
370
50
 62
4
100
AcDbLine
 10
30.863527
 20
-0.305216
 30
0.0
 11
30.626852
 21
-0.184238
 31
0.0
  0
LINE
  5
4E4
330
1F
100
AcDbEntity
  8
1
  6
CONTINUOUS
370
50
 62
4
100
AcDbLine
 10
27.283133
 20
-0.335013
 30
0.0
 11
27.069645
 21
-0.226113
 31
0.0
  0
LINE
  5
4E5
330
1F
100
AcDbEntity
  8
1
  6
CONTINUOUS
370
50
 62
4
100
AcDbLine
 10
25.984787
 20
0.387836
 30
0.0
 11
25.944645
 21
0.408311
 31
0.0
  0
LINE
  5
4E6
330
1F
100
AcDbEntity
  8
1
  6
CONTINUOUS
370
50
 62
4
100
AcDbLine
 10
42.94226099999999
 20
-0.423319
 30
0.0
 11
42.586937
 21
-0.245218
 31
0.0
  0
LINE
  5
4E7
330
1F
100
AcDbEntity
  8
1
  6
CONTINUOUS
370
50
 62
4
100
AcDbLine
 10
32.0881
 20
0.248006
 30
0.0
 11
31.732693
 21
0.426044
 31
0.0
  0
LINE
  5
4E8
330
1F
100
AcDbEntity
  8
1
  6
CONTINUOUS
370
50
 62
4
100
AcDbLine
 10
43.933647
 20
0.245437
 30
0.0
 11
43.581184
 21
0.421807
 31
0.0
  0
LINE
  5
4E9
330
1F
100
AcDbEntity
  8
1
  6
CONTINUOUS
370
50
 62
4
100
AcDbLine
 10
29.702942
 20
0.300826
 30
0.0
 11
29.46987
 21
0.416874
 31
0.0
  0
LINE
  5
4EA
330
1F
100
AcDbEntity
  8
1
  6
CONTINUOUS
370
50
 62
4
100
AcDbLine
 10
37.025341
 20
-0.424543
 30
0.0
 11
36.667759
 21
-0.246513
 31
0.0
  0
LINE
  5
4EB
330
1F
100
AcDbEntity
  8
1
  6
CONTINUOUS
370
50
 62
4
100
AcDbLine
 10
38.01313
 20
0.246193
 30
0.0
 11
37.657639
 21
0.423017
 31
0.0
  0
LINE
  5
4EC
330
1F
100
AcDbEntity
  8
1
  6
CONTINUOUS
370
50
 62
4
100
AcDbLine
 10
31.100149
 20
-0.422463
 30
0.0
 11
30.863527
 21
-0.305216
 31
0.0
  0
LINE
  5
4ED
330
1F
100
AcDbEntity
  8
1
  6
CONTINUOUS
370
50
 62
4
100
AcDbLine
 10
47.423161
 20
0.321611
 30
0.0
 11
47.242939
 21
0.410794
 31
0.0
  0
LINE
  5
4EE
330
1F
100
AcDbEntity
  8
1
  6
CONTINUOUS
370
50
 62
4
100
AcDbLine
 10
45.319195
 20
-0.468348
 30
0.0
 11
44.97633
 21
-0.300035
 31
0.0
  0
LINE
  5
4EF
330
1F
100
AcDbEntity
  8
1
  6
CONTINUOUS
370
50
 62
4
100
AcDbLine
 10
41.541885
 20
0.301425
 30
0.0
 11
41.20068699999999
 21
0.468792
 31
0.0
  0
LINE
  5
4F0
330
1F
100
AcDbEntity
  8
1
  6
CONTINUOUS
370
50
 62
4
100
AcDbLine
 10
27.496771
 20
-0.439781
 30
0.0
 11
27.283133
 21
-0.335013
 31
0.0
  0
LINE
  5
4F1
330
1F
100
AcDbEntity
  8
1
  6
CONTINUOUS
370
50
 62
4
100
AcDbLine
 10
33.47905
 20
-0.468575
 30
0.0
 11
33.135529
 21
-0.300498
 31
0.0
  0
LINE
  5
4F2
330
1F
100
AcDbEntity
  8
1
  6
CONTINUOUS
370
50
 62
4
100
AcDbLine
 10
39.396511
 20
-0.466926
 30
0.0
 11
39.053776
 21
-0.299647
 31
0.0
  0
LINE
  5
4F3
330
1F
100
AcDbEntity
  8
1
  6
CONTINUOUS
370
50
 62
4
100
AcDbLine
 10
35.628376
 20
0.298861
 30
0.0
 11
35.286324
 21
0.465578
 31
0.0
  0
LINE
  5
4F4
330
1F
100
AcDbEntity
  8
1
  6
CONTINUOUS
370
50
 62
4
100
AcDbLine
 10
26.142536
 20
-0.199977
 30
0.0
 11
26.142204
 21
-0.199816
 31
0.0
  0
LINE
  5
4F5
330
1F
100
AcDbEntity
  8
1
  6
CONTINUOUS
370
50
 62
4
100
AcDbLine
 10
26.142868
 20
-0.200136
 30
0.0
 11
26.142536
 21
-0.199977
 31
0.0
  0
LINE
  5
4F6
330
1F
100
AcDbEntity
  8
1
  6
CONTINUOUS
370
50
 62
4
100
AcDbLine
 10
26.1432
 20
-0.200294
 30
0.0
 11
26.142868
 21
-0.200136
 31
0.0
  0
LINE
  5
4F7
330
1F
100
AcDbEntity
  8
1
  6
CONTINUOUS
370
50
 62
4
100
AcDbLine
 10
25.944645
 20
0.408311
 30
0.0
 11
25.904316
 21
0.427485
 31
0.0
  0
LINE
  5
4F8
330
1F
100
AcDbEntity
  8
1
  6
CONTINUOUS
370
50
 62
4
100
AcDbLine
 10
26.143534
 20
-0.200451
 30
0.0
 11
26.1432
 21
-0.200294
 31
0.0
  0
LINE
  5
4F9
330
1F
100
AcDbEntity
  8
1
  6
CONTINUOUS
370
50
 62
4
100
AcDbLine
 10
47.242939
 20
0.410794
 30
0.0
 11
47.060997
 21
0.496209
 31
0.0
  0
LINE
  5
4FA
330
1F
100
AcDbEntity
  8
1
  6
CONTINUOUS
370
50
 62
4
100
AcDbLine
 10
31.336058
 20
-0.532905
 30
0.0
 11
31.100149
 21
-0.422463
 31
0.0
  0
LINE
  5
4FB
330
1F
100
AcDbEntity
  8
1
  6
CONTINUOUS
370
50
 62
4
100
AcDbLine
 10
29.46987
 20
0.416874
 30
0.0
 11
29.234913
 21
0.526565
 31
0.0
  0
LINE
  5
4FC
330
1F
100
AcDbEntity
  8
1
  6
CONTINUOUS
370
50
 62
4
100
AcDbLine
 10
26.143869
 20
-0.200607
 30
0.0
 11
26.143534
 21
-0.200451
 31
0.0
  0
LINE
  5
4FD
330
1F
100
AcDbEntity
  8
1
  6
CONTINUOUS
370
50
 62
4
100
AcDbLine
 10
26.144203
 20
-0.200761
 30
0.0
 11
26.143869
 21
-0.200607
 31
0.0
  0
LINE
  5
4FE
330
1F
100
AcDbEntity
  8
1
  6
CONTINUOUS
370
50
 62
4
100
AcDbLine
 10
27.71221
 20
-0.5389889999999999
 30
0.0
 11
27.496771
 21
-0.439781
 31
0.0
  0
LINE
  5
4FF
330
1F
100
AcDbEntity
  8
1
  6
CONTINUOUS
370
50
 62
4
100
AcDbLine
 10
37.657639
 20
0.423017
 30
0.0
 11
37.306061
 21
0.584363
 31
0.0
  0
LINE
  5
500
330
1F
100
AcDbEntity
  8
1
  6
CONTINUOUS
370
50
 62
4
100
AcDbLine
 10
37.381363
 20
-0.587387
 30
0.0
 11
37.025341
 21
-0.424543
 31
0.0
  0
LINE
  5
501
330
1F
100
AcDbEntity
  8
1
  6
CONTINUOUS
370
50
 62
4
100
AcDbLine
 10
43.581184
 20
0.421807
 30
0.0
 11
43.226555
 21
0.5839799999999999
 31
0.0
  0
LINE
  5
502
330
1F
100
AcDbEntity
  8
1
  6
CONTINUOUS
370
50
 62
4
100
AcDbLine
 10
43.298927
 20
-0.585662
 30
0.0
 11
42.94226099999999
 21
-0.423319
 31
0.0
  0
LINE
  5
503
330
1F
100
AcDbEntity
  8
1
  6
CONTINUOUS
370
50
 62
4
100
AcDbLine
 10
31.732693
 20
0.426044
 30
0.0
 11
31.376751
 21
0.587863
 31
0.0
  0
LINE
  5
504
330
1F
100
AcDbEntity
  8
1
  6
CONTINUOUS
370
50
 62
4
100
AcDbLine
 10
35.286324
 20
0.465578
 30
0.0
 11
34.9501
 21
0.615951
 31
0.0
  0
LINE
  5
505
330
1F
100
AcDbEntity
  8
1
  6
CONTINUOUS
370
50
 62
4
100
AcDbLine
 10
47.060997
 20
0.496209
 30
0.0
 11
46.880035
 21
0.577014
 31
0.0
  0
LINE
  5
506
330
1F
100
AcDbEntity
  8
1
  6
CONTINUOUS
370
50
 62
4
100
AcDbLine
 10
39.738594
 20
-0.619162
 30
0.0
 11
39.396511
 21
-0.466926
 31
0.0
  0
LINE
  5
507
330
1F
100
AcDbEntity
  8
1
  6
CONTINUOUS
370
50
 62
4
100
AcDbLine
 10
33.822803
 20
-0.621462
 30
0.0
 11
33.47905
 21
-0.468575
 31
0.0
  0
LINE
  5
508
330
1F
100
AcDbEntity
  8
1
  6
CONTINUOUS
370
50
 62
4
100
AcDbLine
 10
41.20068699999999
 20
0.468792
 30
0.0
 11
40.85844
 21
0.620495
 31
0.0
  0
LINE
  5
509
330
1F
100
AcDbEntity
  8
1
  6
CONTINUOUS
370
50
 62
4
100
AcDbLine
 10
45.662876
 20
-0.6203259999999999
 30
0.0
 11
45.319195
 21
-0.468348
 31
0.0
  0
LINE
  5
50A
330
1F
100
AcDbEntity
  8
1
  6
CONTINUOUS
370
50
 62
4
100
AcDbLine
 10
25.904316
 20
0.427485
 30
0.0
 11
25.86376
 21
0.445355
 31
0.0
  0
LINE
  5
50B
330
1F
100
AcDbEntity
  8
1
  6
CONTINUOUS
370
50
 62
4
100
AcDbLine
 10
48.41369599999999
 20
0.9999199999999999
 30
0.0
 11
48.413563
 21
0.9999779999999999
 31
0.0
  0
LINE
  5
50C
330
1F
100
AcDbEntity
  8
1
  6
CONTINUOUS
370
50
 62
4
100
AcDbLine
 10
29.234913
 20
0.526565
 30
0.0
 11
29.0
 21
0.6279669999999999
 31
0.0
  0
LINE
  5
50D
330
1F
100
AcDbEntity
  8
1
  6
CONTINUOUS
370
50
 62
4
100
AcDbLine
 10
27.927464
 20
-0.6313489999999999
 30
0.0
 11
27.71221
 21
-0.5389889999999999
 31
0.0
  0
LINE
  5
50E
330
1F
100
AcDbEntity
  8
1
  6
CONTINUOUS
370
50
 62
4
100
AcDbLine
 10
31.573404
 20
-0.634616
 30
0.0
 11
31.336058
 21
-0.532905
 31
0.0
  0
LINE
  5
50F
330
1F
100
AcDbEntity
  8
1
  6
CONTINUOUS
370
50
 62
4
100
AcDbLine
 10
46.880035
 20
0.577014
 30
0.0
 11
46.700829
 21
0.652318
 31
0.0
  0
LINE
  5
510
330
1F
100
AcDbEntity
  8
1
  6
CONTINUOUS
370
50
 62
4
100
AcDbLine
 10
25.86376
 20
0.445355
 30
0.0
 11
25.822941
 21
0.461917
 31
0.0
  0
LINE
  5
511
330
1F
100
AcDbEntity
  8
1
  6
CONTINUOUS
370
50
 62
4
100
AcDbLine
 10
31.376751
 20
0.587863
 30
0.0
 11
31.025824
 21
0.7282
 31
0.0
  0
LINE
  5
512
330
1F
100
AcDbEntity
  8
1
  6
CONTINUOUS
370
50
 62
4
100
AcDbLine
 10
43.654049
 20
-0.727575
 30
0.0
 11
43.298927
 21
-0.585662
 31
0.0
  0
LINE
  5
513
330
1F
100
AcDbEntity
  8
1
  6
CONTINUOUS
370
50
 62
4
100
AcDbLine
 10
43.226555
 20
0.5839799999999999
 30
0.0
 11
42.869328
 21
0.726486
 31
0.0
  0
LINE
  5
514
330
1F
100
AcDbEntity
  8
1
  6
CONTINUOUS
370
50
 62
4
100
AcDbLine
 10
37.306061
 20
0.584363
 30
0.0
 11
36.950676
 21
0.7259939999999999
 31
0.0
  0
LINE
  5
515
330
1F
100
AcDbEntity
  8
1
  6
CONTINUOUS
370
50
 62
4
100
AcDbLine
 10
37.736778
 20
-0.7288629999999999
 30
0.0
 11
37.381363
 21
-0.587387
 31
0.0
  0
LINE
  5
516
330
1F
100
AcDbEntity
  8
1
  6
CONTINUOUS
370
50
 62
4
100
AcDbLine
 10
28.141773
 20
-0.715649
 30
0.0
 11
27.927464
 21
-0.6313489999999999
 31
0.0
  0
LINE
  5
517
330
1F
100
AcDbEntity
  8
1
  6
CONTINUOUS
370
50
 62
4
100
AcDbLine
 10
28.999134
 20
0.627991
 30
0.0
 11
28.719883
 21
0.736474
 31
0.0
  0
LINE
  5
518
330
1F
100
AcDbEntity
  8
1
  6
CONTINUOUS
370
50
 62
4
100
AcDbLine
 10
31.811235
 20
-0.726901
 30
0.0
 11
31.573404
 21
-0.634616
 31
0.0
  0
LINE
  5
519
330
1F
100
AcDbEntity
  8
1
  6
CONTINUOUS
370
50
 62
4
100
AcDbLine
 10
46.700829
 20
0.652318
 30
0.0
 11
46.521587
 21
0.72165
 31
0.0
  0
LINE
  5
51A
330
1F
100
AcDbEntity
  8
1
  6
CONTINUOUS
370
50
 62
4
100
AcDbLine
 10
34.9501
 20
0.615951
 30
0.0
 11
34.612068
 21
0.7464999999999999
 31
0.0
  0
LINE
  5
51B
330
1F
100
AcDbEntity
  8
1
  6
CONTINUOUS
370
50
 62
4
100
AcDbLine
 10
46.001171
 20
-0.750749
 30
0.0
 11
45.662876
 21
-0.6203259999999999
 31
0.0
  0
LINE
  5
51C
330
1F
100
AcDbEntity
  8
1
  6
CONTINUOUS
370
50
 62
4
100
AcDbLine
 10
40.081268
 20
-0.751139
 30
0.0
 11
39.738594
 21
-0.619162
 31
0.0
  0
LINE
  5
51D
330
1F
100
AcDbEntity
  8
1
  6
CONTINUOUS
370
50
 62
4
100
AcDbLine
 10
40.85844
 20
0.620495
 30
0.0
 11
40.517578
 21
0.7515539999999999
 31
0.0
  0
LINE
  5
51E
330
1F
100
AcDbEntity
  8
1
  6
CONTINUOUS
370
50
 62
4
100
AcDbLine
 10
34.164722
 20
-0.7524529999999999
 30
0.0
 11
33.822803
 21
-0.621462
 31
0.0
  0
LINE
  5
51F
330
1F
100
AcDbEntity
  8
1
  6
CONTINUOUS
370
50
 62
4
100
AcDbLine
 10
25.822941
 20
0.461917
 30
0.0
 11
25.78182
 21
0.477169
 31
0.0
  0
LINE
  5
520
330
1F
100
AcDbEntity
  8
1
  6
CONTINUOUS
370
50
 62
4
100
AcDbLine
 10
49.0
 20
0.0
 30
0.0
 11
48.90219099999999
 21
0.036213
 31
0.0
  0
LINE
  5
521
330
1F
100
AcDbEntity
  8
1
  6
CONTINUOUS
370
50
 62
4
100
AcDbLine
 10
49.0
 20
0.0
 30
0.0
 11
48.899014
 21
0.036219
 31
0.0
  0
LINE
  5
522
330
1F
100
AcDbEntity
  8
1
  6
CONTINUOUS
370
50
 62
4
100
AcDbLine
 10
28.357044
 20
-0.790536
 30
0.0
 11
28.141773
 21
-0.715649
 31
0.0
  0
LINE
  5
523
330
1F
100
AcDbEntity
  8
1
  6
CONTINUOUS
370
50
 62
4
100
AcDbLine
 10
46.521587
 20
0.72165
 30
0.0
 11
46.340599
 21
0.784505
 31
0.0
  0
LINE
  5
524
330
1F
100
AcDbEntity
  8
1
  6
CONTINUOUS
370
50
 62
4
100
AcDbLine
 10
32.048271
 20
-0.80784
 30
0.0
 11
31.811235
 21
-0.726901
 31
0.0
  0
LINE
  5
525
330
1F
100
AcDbEntity
  8
1
  6
CONTINUOUS
370
50
 62
4
100
AcDbLine
 10
25.78182
 20
0.477169
 30
0.0
 11
25.740273
 21
0.491133
 31
0.0
  0
LINE
  5
526
330
1F
100
AcDbEntity
  8
1
  6
CONTINUOUS
370
50
 62
4
100
AcDbLine
 10
28.719883
 20
0.736474
 30
0.0
 11
28.439753
 21
0.8284659999999999
 31
0.0
  0
LINE
  5
527
330
1F
100
AcDbEntity
  8
1
  6
CONTINUOUS
370
50
 62
4
100
AcDbLine
 10
36.950676
 20
0.7259939999999999
 30
0.0
 11
36.593903
 21
0.8427709999999999
 31
0.0
  0
LINE
  5
528
330
1F
100
AcDbEntity
  8
1
  6
CONTINUOUS
370
50
 62
4
100
AcDbLine
 10
42.869328
 20
0.726486
 30
0.0
 11
42.513561
 21
0.842814
 31
0.0
  0
LINE
  5
529
330
1F
100
AcDbEntity
  8
1
  6
CONTINUOUS
370
50
 62
4
100
AcDbLine
 10
44.009602
 20
-0.843217
 30
0.0
 11
43.654049
 21
-0.727575
 31
0.0
  0
LINE
  5
52A
330
1F
100
AcDbEntity
  8
1
  6
CONTINUOUS
370
50
 62
4
100
AcDbLine
 10
31.025824
 20
0.7282
 30
0.0
 11
30.669979
 21
0.8437969999999999
 31
0.0
  0
LINE
  5
52B
330
1F
100
AcDbEntity
  8
1
  6
CONTINUOUS
370
50
 62
4
100
AcDbLine
 10
38.093975
 20
-0.844785
 30
0.0
 11
37.736778
 21
-0.7288629999999999
 31
0.0
  0
LINE
  5
52C
330
1F
100
AcDbEntity
  8
1
  6
CONTINUOUS
370
50
 62
4
100
AcDbLine
 10
34.612068
 20
0.7464999999999999
 30
0.0
 11
34.272205
 21
0.8540329999999999
 31
0.0
  0
LINE
  5
52D
330
1F
100
AcDbEntity
  8
1
  6
CONTINUOUS
370
50
 62
4
100
AcDbLine
 10
34.502533
 20
-0.8583719999999999
 30
0.0
 11
34.164722
 21
-0.7524529999999999
 31
0.0
  0
LINE
  5
52E
330
1F
100
AcDbEntity
  8
1
  6
CONTINUOUS
370
50
 62
4
100
AcDbLine
 10
40.517578
 20
0.7515539999999999
 30
0.0
 11
40.177994
 21
0.857961
 31
0.0
  0
LINE
  5
52F
330
1F
100
AcDbEntity
  8
1
  6
CONTINUOUS
370
50
 62
4
100
AcDbLine
 10
46.340302
 20
-0.8568
 30
0.0
 11
46.001171
 21
-0.750749
 31
0.0
  0
LINE
  5
530
330
1F
100
AcDbEntity
  8
1
  6
CONTINUOUS
370
50
 62
4
100
AcDbLine
 10
40.421902
 20
-0.8575079999999999
 30
0.0
 11
40.081268
 21
-0.751139
 31
0.0
  0
LINE
  5
531
330
1F
100
AcDbEntity
  8
1
  6
CONTINUOUS
370
50
 62
4
100
AcDbLine
 10
46.340599
 20
0.784505
 30
0.0
 11
46.15979799999999
 21
0.8400369999999999
 31
0.0
  0
LINE
  5
532
330
1F
100
AcDbEntity
  8
1
  6
CONTINUOUS
370
50
 62
4
100
AcDbLine
 10
25.740273
 20
0.491133
 30
0.0
 11
25.69825
 21
0.5037889999999999
 31
0.0
  0
LINE
  5
533
330
1F
100
AcDbEntity
  8
1
  6
CONTINUOUS
370
50
 62
4
100
AcDbLine
 10
28.572306
 20
-0.8549169999999999
 30
0.0
 11
28.357044
 21
-0.790536
 31
0.0
  0
LINE
  5
534
330
1F
100
AcDbEntity
  8
1
  6
CONTINUOUS
370
50
 62
4
100
AcDbLine
 10
26.33783
 20
-0.8672259999999999
 30
0.0
 11
26.142204
 21
-0.8102579999999999
 31
0.0
  0
LINE
  5
535
330
1F
100
AcDbEntity
  8
1
  6
CONTINUOUS
370
50
 62
4
100
AcDbLine
 10
32.285957
 20
-0.875624
 30
0.0
 11
32.048271
 21
-0.80784
 31
0.0
  0
LINE
  5
536
330
1F
100
AcDbEntity
  8
1
  6
CONTINUOUS
370
50
 62
4
100
AcDbLine
 10
46.15979799999999
 20
0.8400369999999999
 30
0.0
 11
45.98106
 21
0.887817
 31
0.0
  0
LINE
  5
537
330
1F
100
AcDbEntity
  8
1
  6
CONTINUOUS
370
50
 62
4
100
AcDbLine
 10
48.422649
 20
0.845459
 30
0.0
 11
48.271545
 21
0.885697
 31
0.0
  0
LINE
  5
538
330
1F
100
AcDbEntity
  8
1
  6
CONTINUOUS
370
50
 62
4
100
AcDbLine
 10
25.69825
 20
0.5037889999999999
 30
0.0
 11
25.655796
 21
0.515083
 31
0.0
  0
LINE
  5
539
330
1F
100
AcDbEntity
  8
1
  6
CONTINUOUS
370
50
 62
4
100
AcDbLine
 10
28.439753
 20
0.8284659999999999
 30
0.0
 11
28.160616
 21
0.901839
 31
0.0
  0
LINE
  5
53A
330
1F
100
AcDbEntity
  8
1
  6
CONTINUOUS
370
50
 62
4
100
AcDbLine
 10
48.413731
 20
-0.193854
 30
0.0
 11
48.399654
 21
-0.190199
 31
0.0
  0
LINE
  5
53B
330
1F
100
AcDbEntity
  8
1
  6
CONTINUOUS
370
50
 62
4
100
AcDbLine
 10
28.785831
 20
-0.908192
 30
0.0
 11
28.572306
 21
-0.8549169999999999
 31
0.0
  0
LINE
  5
53C
330
1F
100
AcDbEntity
  8
1
  6
CONTINUOUS
370
50
 62
4
100
AcDbLine
 10
30.669979
 20
0.8437969999999999
 30
0.0
 11
30.313362
 21
0.930236
 31
0.0
  0
LINE
  5
53D
330
1F
100
AcDbEntity
  8
1
  6
CONTINUOUS
370
50
 62
4
100
AcDbLine
 10
26.53303
 20
-0.914531
 30
0.0
 11
26.33783
 21
-0.8672259999999999
 31
0.0
  0
LINE
  5
53E
330
1F
100
AcDbEntity
  8
1
  6
CONTINUOUS
370
50
 62
4
100
AcDbLine
 10
36.593903
 20
0.8427709999999999
 30
0.0
 11
36.235588
 21
0.929484
 31
0.0
  0
LINE
  5
53F
330
1F
100
AcDbEntity
  8
1
  6
CONTINUOUS
370
50
 62
4
100
AcDbLine
 10
44.365681
 20
-0.929286
 30
0.0
 11
44.009602
 21
-0.843217
 31
0.0
  0
LINE
  5
540
330
1F
100
AcDbEntity
  8
1
  6
CONTINUOUS
370
50
 62
4
100
AcDbLine
 10
42.513561
 20
0.842814
 30
0.0
 11
42.15641
 21
0.929048
 31
0.0
  0
LINE
  5
541
330
1F
100
AcDbEntity
  8
1
  6
CONTINUOUS
370
50
 62
4
100
AcDbLine
 10
38.448868
 20
-0.930388
 30
0.0
 11
38.093975
 21
-0.844785
 31
0.0
  0
LINE
  5
542
330
1F
100
AcDbEntity
  8
1
  6
CONTINUOUS
370
50
 62
4
100
AcDbLine
 10
34.272205
 20
0.8540329999999999
 30
0.0
 11
33.93387999999999
 21
0.933584
 31
0.0
  0
LINE
  5
543
330
1F
100
AcDbEntity
  8
1
  6
CONTINUOUS
370
50
 62
4
100
AcDbLine
 10
40.759029
 20
-0.935711
 30
0.0
 11
40.421902
 21
-0.8575079999999999
 31
0.0
  0
LINE
  5
544
330
1F
100
AcDbEntity
  8
1
  6
CONTINUOUS
370
50
 62
4
100
AcDbLine
 10
46.680149
 20
-0.9353739999999999
 30
0.0
 11
46.340302
 21
-0.8568
 31
0.0
  0
LINE
  5
545
330
1F
100
AcDbEntity
  8
1
  6
CONTINUOUS
370
50
 62
4
100
AcDbLine
 10
25.655796
 20
0.515083
 30
0.0
 11
25.612951
 21
0.524961
 31
0.0
  0
LINE
  5
546
330
1F
100
AcDbEntity
  8
1
  6
CONTINUOUS
370
50
 62
4
100
AcDbLine
 10
40.177994
 20
0.857961
 30
0.0
 11
39.837215
 21
0.9362889999999999
 31
0.0
  0
LINE
  5
547
330
1F
100
AcDbEntity
  8
1
  6
CONTINUOUS
370
50
 62
4
100
AcDbLine
 10
34.842815
 20
-0.936502
 30
0.0
 11
34.502533
 21
-0.8583719999999999
 31
0.0
  0
LINE
  5
548
330
1F
100
AcDbEntity
  8
1
  6
CONTINUOUS
370
50
 62
4
100
AcDbLine
 10
48.271545
 20
0.885697
 30
0.0
 11
48.120583
 21
0.920144
 31
0.0
  0
LINE
  5
549
330
1F
100
AcDbEntity
  8
1
  6
CONTINUOUS
370
50
 62
4
100
AcDbLine
 10
32.524723
 20
-0.9296399999999999
 30
0.0
 11
32.285957
 21
-0.875624
 31
0.0
  0
LINE
  5
54A
330
1F
100
AcDbEntity
  8
1
  6
CONTINUOUS
370
50
 62
4
100
AcDbLine
 10
45.98106
 20
0.887817
 30
0.0
 11
45.80277299999999
 21
0.927537
 31
0.0
  0
LINE
  5
54B
330
1F
100
AcDbEntity
  8
1
  6
CONTINUOUS
370
50
 62
4
100
AcDbLine
 10
28.999134
 20
-0.9498129999999999
 30
0.0
 11
28.785831
 21
-0.908192
 31
0.0
  0
LINE
  5
54C
330
1F
100
AcDbEntity
  8
1
  6
CONTINUOUS
370
50
 62
4
100
AcDbLine
 10
25.612951
 20
0.524961
 30
0.0
 11
25.569754
 21
0.533368
 31
0.0
  0
LINE
  5
54D
330
1F
100
AcDbEntity
  8
1
  6
CONTINUOUS
370
50
 62
4
100
AcDbLine
 10
28.160616
 20
0.901839
 30
0.0
 11
27.882444
 21
0.955784
 31
0.0
  0
LINE
  5
54E
330
1F
100
AcDbEntity
  8
1
  6
CONTINUOUS
370
50
 62
4
100
AcDbLine
 10
26.729975
 20
-0.9518099999999999
 30
0.0
 11
26.53303
 21
-0.914531
 31
0.0
  0
LINE
  5
54F
330
1F
100
AcDbEntity
  8
1
  6
CONTINUOUS
370
50
 62
4
100
AcDbLine
 10
48.120583
 20
0.920144
 30
0.0
 11
47.96883
 21
0.948642
 31
0.0
  0
LINE
  5
550
330
1F
100
AcDbEntity
  8
1
  6
CONTINUOUS
370
50
 62
4
100
AcDbLine
 10
48.427929
 20
-0.196354
 30
0.0
 11
48.413731
 21
-0.193854
 31
0.0
  0
LINE
  5
551
330
1F
100
AcDbEntity
  8
1
  6
CONTINUOUS
370
50
 62
4
100
AcDbLine
 10
45.80277299999999
 20
0.927537
 30
0.0
 11
45.623169
 21
0.958928
 31
0.0
  0
LINE
  5
552
330
1F
100
AcDbEntity
  8
1
  6
CONTINUOUS
370
50
 62
4
100
AcDbLine
 10
32.762623
 20
-0.969059
 30
0.0
 11
32.524723
 21
-0.9296399999999999
 31
0.0
  0
LINE
  5
553
330
1F
100
AcDbEntity
  8
1
  6
CONTINUOUS
370
50
 62
4
100
AcDbLine
 10
25.569754
 20
0.533368
 30
0.0
 11
25.526245
 21
0.540253
 31
0.0
  0
LINE
  5
554
330
1F
100
AcDbEntity
  8
1
  6
CONTINUOUS
370
50
 62
4
100
AcDbLine
 10
29.085859
 20
-0.9640099999999999
 30
0.0
 11
29.0
 21
-0.9507369999999999
 31
0.0
  0
LINE
  5
555
330
1F
100
AcDbEntity
  8
1
  6
CONTINUOUS
370
50
 62
4
100
AcDbLine
 10
42.15641
 20
0.929048
 30
0.0
 11
41.801426
 21
0.9821939999999999
 31
0.0
  0
LINE
  5
556
330
1F
100
AcDbEntity
  8
1
  6
CONTINUOUS
370
50
 62
4
100
AcDbLine
 10
36.235588
 20
0.929484
 30
0.0
 11
35.878231
 21
0.9826849999999999
 31
0.0
  0
LINE
  5
557
330
1F
100
AcDbEntity
  8
1
  6
CONTINUOUS
370
50
 62
4
100
AcDbLine
 10
44.721222
 20
-0.9822
 30
0.0
 11
44.365681
 21
-0.929286
 31
0.0
  0
LINE
  5
558
330
1F
100
AcDbEntity
  8
1
  6
CONTINUOUS
370
50
 62
4
100
AcDbLine
 10
30.313362
 20
0.930236
 30
0.0
 11
29.956284
 21
0.9831249999999999
 31
0.0
  0
LINE
  5
559
330
1F
100
AcDbEntity
  8
1
  6
CONTINUOUS
370
50
 62
4
100
AcDbLine
 10
38.805248
 20
-0.9828279999999999
 30
0.0
 11
38.448868
 21
-0.930388
 31
0.0
  0
LINE
  5
55A
330
1F
100
AcDbEntity
  8
1
  6
CONTINUOUS
370
50
 62
4
100
AcDbLine
 10
47.96883
 20
0.948642
 30
0.0
 11
47.816376
 21
0.971008
 31
0.0
  0
LINE
  5
55B
330
1F
100
AcDbEntity
  8
1
  6
CONTINUOUS
370
50
 62
4
100
AcDbLine
 10
33.93387999999999
 20
0.933584
 30
0.0
 11
33.586704
 21
0.9837279999999999
 31
0.0
  0
LINE
  5
55C
330
1F
100
AcDbEntity
  8
1
  6
CONTINUOUS
370
50
 62
4
100
AcDbLine
 10
47.019337
 20
-0.9836889999999999
 30
0.0
 11
46.680149
 21
-0.9353739999999999
 31
0.0
  0
LINE
  5
55D
330
1F
100
AcDbEntity
  8
1
  6
CONTINUOUS
370
50
 62
4
100
AcDbLine
 10
39.837215
 20
0.9362889999999999
 30
0.0
 11
39.500305
 21
0.984208
 31
0.0
  0
LINE
  5
55E
330
1F
100
AcDbEntity
  8
1
  6
CONTINUOUS
370
50
 62
4
100
AcDbLine
 10
35.180431
 20
-0.984456
 30
0.0
 11
34.842815
 21
-0.936502
 31
0.0
  0
LINE
  5
55F
330
1F
100
AcDbEntity
  8
1
  6
CONTINUOUS
370
50
 62
4
100
AcDbLine
 10
41.100292
 20
-0.983991
 30
0.0
 11
40.759029
 21
-0.935711
 31
0.0
  0
LINE
  5
560
330
1F
100
AcDbEntity
  8
1
  6
CONTINUOUS
370
50
 62
4
100
AcDbLine
 10
26.928518
 20
-0.9786149999999999
 30
0.0
 11
26.729975
 21
-0.9518099999999999
 31
0.0
  0
LINE
  5
561
330
1F
100
AcDbEntity
  8
1
  6
CONTINUOUS
370
50
 62
4
100
AcDbLine
 10
29.171923
 20
-0.9752649999999999
 30
0.0
 11
29.085859
 21
-0.9640099999999999
 31
0.0
  0
LINE
  5
562
330
1F
100
AcDbEntity
  8
1
  6
CONTINUOUS
370
50
 62
4
100
AcDbLine
 10
45.623169
 20
0.958928
 30
0.0
 11
45.441727
 21
0.9816729999999999
 31
0.0
  0
LINE
  5
563
330
1F
100
AcDbEntity
  8
1
  6
CONTINUOUS
370
50
 62
4
100
AcDbLine
 10
25.526245
 20
0.540253
 30
0.0
 11
25.482466
 21
0.545559
 31
0.0
  0
LINE
  5
564
330
1F
100
AcDbEntity
  8
1
  6
CONTINUOUS
370
50
 62
4
100
AcDbLine
 10
27.882444
 20
0.955784
 30
0.0
 11
27.602209
 21
0.988729
 31
0.0
  0
LINE
  5
565
330
1F
100
AcDbEntity
  8
1
  6
CONTINUOUS
370
50
 62
4
100
AcDbLine
 10
48.413563
 20
0.9999779999999999
 30
0.0
 11
48.413425
 21
0.9999929999999999
 31
0.0
  0
LINE
  5
566
330
1F
100
AcDbEntity
  8
1
  6
CONTINUOUS
370
50
 62
4
100
AcDbLine
 10
29.258049
 20
-0.9844959999999999
 30
0.0
 11
29.171923
 21
-0.9752649999999999
 31
0.0
  0
LINE
  5
567
330
1F
100
AcDbEntity
  8
1
  6
CONTINUOUS
370
50
 62
4
100
AcDbLine
 10
47.816376
 20
0.971008
 30
0.0
 11
47.664169
 21
0.9871249999999999
 31
0.0
  0
LINE
  5
568
330
1F
100
AcDbEntity
  8
1
  6
CONTINUOUS
370
50
 62
4
100
AcDbLine
 10
33.000492
 20
-0.992838
 30
0.0
 11
32.762623
 21
-0.969059
 31
0.0
  0
LINE
  5
569
330
1F
100
AcDbEntity
  8
1
  6
CONTINUOUS
370
50
 62
4
100
AcDbLine
 10
48.442245
 20
-0.197672
 30
0.0
 11
48.427929
 21
-0.196354
 31
0.0
  0
LINE
  5
56A
330
1F
100
AcDbEntity
  8
1
  6
CONTINUOUS
370
50
 62
4
100
AcDbLine
 10
29.344095
 20
-0.9916929999999999
 30
0.0
 11
29.258049
 21
-0.9844959999999999
 31
0.0
  0
LINE
  5
56B
330
1F
100
AcDbEntity
  8
1
  6
CONTINUOUS
370
50
 62
4
100
AcDbLine
 10
25.482466
 20
0.545559
 30
0.0
 11
25.43873
 21
0.549215
 31
0.0
  0
LINE
  5
56C
330
1F
100
AcDbEntity
  8
1
  6
CONTINUOUS
370
50
 62
4
100
AcDbLine
 10
27.12673
 20
-0.994744
 30
0.0
 11
26.928518
 21
-0.9786149999999999
 31
0.0
  0
LINE
  5
56D
330
1F
100
AcDbEntity
  8
1
  6
CONTINUOUS
370
50
 62
4
100
AcDbLine
 10
45.441727
 20
0.9816729999999999
 30
0.0
 11
45.260632
 21
0.9955219999999999
 31
0.0
  0
LINE
  5
56E
330
1F
100
AcDbEntity
  8
1
  6
CONTINUOUS
370
50
 62
4
100
AcDbLine
 10
47.664169
 20
0.9871249999999999
 30
0.0
 11
47.512974
 21
0.996826
 31
0.0
  0
LINE
  5
56F
330
1F
100
AcDbEntity
  8
1
  6
CONTINUOUS
370
50
 62
4
100
AcDbLine
 10
29.429922
 20
-0.996848
 30
0.0
 11
29.344095
 21
-0.9916929999999999
 31
0.0
  0
LINE
  5
570
330
1F
100
AcDbEntity
  8
1
  6
CONTINUOUS
370
50
 62
4
100
AcDbLine
 10
35.878231
 20
0.9826849999999999
 30
0.0
 11
35.521351
 21
1.000664
 31
0.0
  0
LINE
  5
571
330
1F
100
AcDbEntity
  8
1
  6
CONTINUOUS
370
50
 62
4
100
AcDbLine
 10
41.801426
 20
0.9821939999999999
 30
0.0
 11
41.440556
 21
1.00036
 31
0.0
  0
LINE
  5
572
330
1F
100
AcDbEntity
  8
1
  6
CONTINUOUS
370
50
 62
4
100
AcDbLine
 10
29.956284
 20
0.9831249999999999
 30
0.0
 11
29.600525
 21
1.000969
 31
0.0
  0
LINE
  5
573
330
1F
100
AcDbEntity
  8
1
  6
CONTINUOUS
370
50
 62
4
100
AcDbLine
 10
45.079975
 20
-1.000172
 30
0.0
 11
44.721222
 21
-0.9822
 31
0.0
  0
LINE
  5
574
330
1F
100
AcDbEntity
  8
1
  6
CONTINUOUS
370
50
 62
4
100
AcDbLine
 10
39.158424
 20
-1.000477
 30
0.0
 11
38.805248
 21
-0.9828279999999999
 31
0.0
  0
LINE
  5
575
330
1F
100
AcDbEntity
  8
1
  6
CONTINUOUS
370
50
 62
4
100
AcDbLine
 10
33.586704
 20
0.9837279999999999
 30
0.0
 11
33.239803
 21
1.000782
 31
0.0
  0
LINE
  5
576
330
1F
100
AcDbEntity
  8
1
  6
CONTINUOUS
370
50
 62
4
100
AcDbLine
 10
41.440556
 20
-1.00036
 30
0.0
 11
41.100292
 21
-0.983991
 31
0.0
  0
LINE
  5
577
330
1F
100
AcDbEntity
  8
1
  6
CONTINUOUS
370
50
 62
4
100
AcDbLine
 10
47.362293
 20
-1.000055
 30
0.0
 11
47.019337
 21
-0.9836889999999999
 31
0.0
  0
LINE
  5
578
330
1F
100
AcDbEntity
  8
1
  6
CONTINUOUS
370
50
 62
4
100
AcDbLine
 10
39.500305
 20
0.984208
 30
0.0
 11
39.158424
 21
1.000477
 31
0.0
  0
LINE
  5
579
330
1F
100
AcDbEntity
  8
1
  6
CONTINUOUS
370
50
 62
4
100
AcDbLine
 10
35.521351
 20
-1.000664
 30
0.0
 11
35.180431
 21
-0.984456
 31
0.0
  0
LINE
  5
57A
330
1F
100
AcDbEntity
  8
1
  6
CONTINUOUS
370
50
 62
4
100
AcDbLine
 10
25.43873
 20
0.549215
 30
0.0
 11
25.396313
 21
0.551133
 31
0.0
  0
LINE
  5
57B
330
1F
100
AcDbEntity
  8
1
  6
CONTINUOUS
370
50
 62
4
100
AcDbLine
 10
27.602209
 20
0.988729
 30
0.0
 11
27.323431
 21
0.9999979999999999
 31
0.0
  0
LINE
  5
57C
330
1F
100
AcDbEntity
  8
1
  6
CONTINUOUS
370
50
 62
4
100
AcDbLine
 10
29.515373
 20
-0.999942
 30
0.0
 11
29.429922
 21
-0.996848
 31
0.0
  0
LINE
  5
57D
330
1F
100
AcDbEntity
  8
1
  6
CONTINUOUS
370
50
 62
4
100
AcDbLine
 10
33.239803
 20
-1.000782
 30
0.0
 11
33.000492
 21
-0.992838
 31
0.0
  0
LINE
  5
57E
330
1F
100
AcDbEntity
  8
1
  6
CONTINUOUS
370
50
 62
4
100
AcDbLine
 10
29.0
 20
0.627969
 30
0.0
 11
28.999855
 21
0.627973
 31
0.0
  0
LINE
  5
57F
330
1F
100
AcDbEntity
  8
1
  6
CONTINUOUS
370
50
 62
4
100
AcDbLine
 10
28.999712
 20
0.627976
 30
0.0
 11
28.999422
 21
0.627984
 31
0.0
  0
LINE
  5
580
330
1F
100
AcDbEntity
  8
1
  6
CONTINUOUS
370
50
 62
4
100
AcDbLine
 10
28.999279
 20
0.627987
 30
0.0
 11
28.999134
 21
0.627991
 31
0.0
  0
LINE
  5
581
330
1F
100
AcDbEntity
  8
1
  6
CONTINUOUS
370
50
 62
4
100
AcDbLine
 10
27.323437
 20
-0.9999979999999999
 30
0.0
 11
27.12673
 21
-0.994744
 31
0.0
  0
LINE
  5
582
330
1F
100
AcDbEntity
  8
1
  6
CONTINUOUS
370
50
 62
4
100
AcDbLine
 10
45.260632
 20
0.9955219999999999
 30
0.0
 11
45.079975
 21
1.000172
 31
0.0
  0
LINE
  5
583
330
1F
100
AcDbEntity
  8
1
  6
CONTINUOUS
370
50
 62
4
100
AcDbLine
 10
47.512974
 20
0.996826
 30
0.0
 11
47.362293
 21
1.000055
 31
0.0
  0
LINE
  5
584
330
1F
100
AcDbEntity
  8
1
  6
CONTINUOUS
370
50
 62
4
100
AcDbLine
 10
28.999855
 20
0.627973
 30
0.0
 11
28.999712
 21
0.627976
 31
0.0
  0
LINE
  5
585
330
1F
100
AcDbEntity
  8
1
  6
CONTINUOUS
370
50
 62
4
100
AcDbLine
 10
28.999422
 20
0.627984
 30
0.0
 11
28.999279
 21
0.627987
 31
0.0
  0
LINE
  5
586
330
1F
100
AcDbEntity
  8
1
  6
CONTINUOUS
370
50
 62
4
100
AcDbLine
 10
29.600525
 20
-1.000969
 30
0.0
 11
29.515373
 21
-0.999942
 31
0.0
  0
LINE
  5
587
330
1F
100
AcDbEntity
  8
1
  6
CONTINUOUS
370
50
 62
4
100
AcDbLine
 10
48.456665
 20
-0.197779
 30
0.0
 11
48.442245
 21
-0.197672
 31
0.0
  0
LINE
  5
588
330
1F
100
AcDbEntity
  8
1
  6
CONTINUOUS
370
50
 62
4
100
AcDbLine
 10
25.396313
 20
0.551133
 30
0.0
 11
25.355421
 21
0.5513739999999999
 31
0.0
  0
LINE
  5
589
330
1F
100
AcDbEntity
  8
1
  6
CONTINUOUS
370
50
 62
4
100
AcDbLine
 10
48.90219099999999
 20
0.036213
 30
0.0
 11
48.899014
 21
0.036219
 31
0.0
  0
LINE
  5
58A
330
1F
100
AcDbEntity
  8
1
  6
CONTINUOUS
370
50
 62
4
100
AcDbLine
 10
45.079975
 20
1.000172
 30
0.0
 11
41.440556
 21
1.00036
 31
0.0
  0
LINE
  5
58B
330
1F
100
AcDbEntity
  8
1
  6
CONTINUOUS
370
50
 62
4
100
AcDbLine
 10
33.239803
 20
1.000782
 30
0.0
 11
29.600525
 21
1.000969
 31
0.0
  0
LINE
  5
58C
330
1F
100
AcDbEntity
  8
1
  6
CONTINUOUS
370
50
 62
4
100
AcDbLine
 10
39.158424
 20
1.000477
 30
0.0
 11
35.521351
 21
1.000664
 31
0.0
  0
LINE
  5
58D
330
1F
100
AcDbEntity
  8
1
  6
CONTINUOUS
370
50
 62
4
100
AcDbLine
 10
48.413425
 20
1.0
 30
0.0
 11
47.362293
 21
1.000055
 31
0.0
  0
LINE
  5
58E
330
1F
100
AcDbEntity
  8
1
  6
CONTINUOUS
370
50
 62
4
100
AcDbLine
 10
25.0
 20
-1.0
 30
0.0
 11
27.319115
 21
-1.0
 31
0.0
  0
LINE
  5
58F
330
1F
100
AcDbEntity
  8
1
  6
CONTINUOUS
370
50
 62
4
100
AcDbLine
 10
25.0
 20
1.0
 30
0.0
 11
27.319115
 21
1.0
 31
0.0
  0
LINE
  5
590
330
1F
100
AcDbEntity
  8
1
  6
CONTINUOUS
370
50
 62
4
100
AcDbLine
 10
47.362293
 20
-1.000055
 30
0.0
 11
48.413425
 21
-1.0
 31
0.0
  0
LINE
  5
591
330
1F
100
AcDbEntity
  8
1
  6
CONTINUOUS
370
50
 62
4
100
AcDbLine
 10
35.521351
 20
-1.000664
 30
0.0
 11
39.158424
 21
-1.000477
 31
0.0
  0
LINE
  5
592
330
1F
100
AcDbEntity
  8
1
  6
CONTINUOUS
370
50
 62
4
100
AcDbLine
 10
29.600525
 20
-1.000969
 30
0.0
 11
33.239803
 21
-1.000782
 31
0.0
  0
LINE
  5
593
330
1F
100
AcDbEntity
  8
1
  6
CONTINUOUS
370
50
 62
4
100
AcDbLine
 10
41.440556
 20
-1.00036
 30
0.0
 11
45.079975
 21
-1.000172
 31
0.0
  0
LINE
  5
594
330
1F
100
AcDbEntity
  8
1
  6
CONTINUOUS
370
50
 62
4
100
AcDbLine
 10
29.515375
 20
0.999942
 30
0.0
 11
29.600525
 21
1.000969
 31
0.0
  0
LINE
  5
595
330
1F
100
AcDbEntity
  8
1
  6
CONTINUOUS
370
50
 62
4
100
AcDbLine
 10
35.330219
 20
0.9955989999999999
 30
0.0
 11
35.521351
 21
1.000664
 31
0.0
  0
LINE
  5
596
330
1F
100
AcDbEntity
  8
1
  6
CONTINUOUS
370
50
 62
4
100
AcDbLine
 10
47.172081
 20
0.994991
 30
0.0
 11
47.362293
 21
1.000055
 31
0.0
  0
LINE
  5
597
330
1F
100
AcDbEntity
  8
1
  6
CONTINUOUS
370
50
 62
4
100
AcDbLine
 10
39.158424
 20
-1.000477
 30
0.0
 11
39.350124
 21
-0.995359
 31
0.0
  0
LINE
  5
598
330
1F
100
AcDbEntity
  8
1
  6
CONTINUOUS
370
50
 62
4
100
AcDbLine
 10
41.250946
 20
0.9952639999999999
 30
0.0
 11
41.440556
 21
1.00036
 31
0.0
  0
LINE
  5
599
330
1F
100
AcDbEntity
  8
1
  6
CONTINUOUS
370
50
 62
4
100
AcDbLine
 10
33.239803
 20
-1.000782
 30
0.0
 11
33.429775
 21
-0.9956579999999999
 31
0.0
  0
LINE
  5
59A
330
1F
100
AcDbEntity
  8
1
  6
CONTINUOUS
370
50
 62
4
100
AcDbLine
 10
45.079975
 20
-1.000172
 30
0.0
 11
45.270527
 21
-0.9950009999999999
 31
0.0
  0
LINE
  5
59B
330
1F
100
AcDbEntity
  8
1
  6
CONTINUOUS
370
50
 62
4
100
AcDbLine
 10
27.323437
 20
-0.9999979999999999
 30
0.0
 11
27.512253
 21
-0.994729
 31
0.0
  0
LINE
  5
59C
330
1F
100
AcDbEntity
  8
1
  6
CONTINUOUS
370
50
 62
4
100
AcDbLine
 10
25.316124
 20
0.550014
 30
0.0
 11
25.355421
 21
0.5513739999999999
 31
0.0
  0
LINE
  5
59D
330
1F
100
AcDbEntity
  8
1
  6
CONTINUOUS
370
50
 62
4
100
AcDbLine
 10
29.429928
 20
0.996849
 30
0.0
 11
29.515375
 21
0.999942
 31
0.0
  0
LINE
  5
59E
330
1F
100
AcDbEntity
  8
1
  6
CONTINUOUS
370
50
 62
4
100
AcDbLine
 10
29.344105
 20
0.9916929999999999
 30
0.0
 11
29.429928
 21
0.996849
 31
0.0
  0
LINE
  5
59F
330
1F
100
AcDbEntity
  8
1
  6
CONTINUOUS
370
50
 62
4
100
AcDbLine
 10
25.278482
 20
0.547129
 30
0.0
 11
25.316124
 21
0.550014
 31
0.0
  0
LINE
  5
5A0
330
1F
100
AcDbEntity
  8
1
  6
CONTINUOUS
370
50
 62
4
100
AcDbLine
 10
48.456665
 20
-0.197779
 30
0.0
 11
48.47118
 21
-0.196648
 31
0.0
  0
LINE
  5
5A1
330
1F
100
AcDbEntity
  8
1
  6
CONTINUOUS
370
50
 62
4
100
AcDbLine
 10
46.98148
 20
0.97988
 30
0.0
 11
47.172081
 21
0.994991
 31
0.0
  0
LINE
  5
5A2
330
1F
100
AcDbEntity
  8
1
  6
CONTINUOUS
370
50
 62
4
100
AcDbLine
 10
39.350124
 20
-0.995359
 30
0.0
 11
39.540192
 21
-0.980177
 31
0.0
  0
LINE
  5
5A3
330
1F
100
AcDbEntity
  8
1
  6
CONTINUOUS
370
50
 62
4
100
AcDbLine
 10
35.140316
 20
0.9803949999999999
 30
0.0
 11
35.330219
 21
0.9955989999999999
 31
0.0
  0
LINE
  5
5A4
330
1F
100
AcDbEntity
  8
1
  6
CONTINUOUS
370
50
 62
4
100
AcDbLine
 10
41.061615
 20
0.9800719999999999
 30
0.0
 11
41.250946
 21
0.9952639999999999
 31
0.0
  0
LINE
  5
5A5
330
1F
100
AcDbEntity
  8
1
  6
CONTINUOUS
370
50
 62
4
100
AcDbLine
 10
27.512253
 20
-0.994729
 30
0.0
 11
27.702312
 21
-0.9794419999999999
 31
0.0
  0
LINE
  5
5A6
330
1F
100
AcDbEntity
  8
1
  6
CONTINUOUS
370
50
 62
4
100
AcDbLine
 10
45.270527
 20
-0.9950009999999999
 30
0.0
 11
45.461948
 21
-0.979576
 31
0.0
  0
LINE
  5
5A7
330
1F
100
AcDbEntity
  8
1
  6
CONTINUOUS
370
50
 62
4
100
AcDbLine
 10
33.429775
 20
-0.9956579999999999
 30
0.0
 11
33.619167
 21
-0.980386
 31
0.0
  0
LINE
  5
5A8
330
1F
100
AcDbEntity
  8
1
  6
CONTINUOUS
370
50
 62
4
100
AcDbLine
 10
29.258057
 20
0.9844959999999999
 30
0.0
 11
29.344105
 21
0.9916929999999999
 31
0.0
  0
LINE
  5
5A9
330
1F
100
AcDbEntity
  8
1
  6
CONTINUOUS
370
50
 62
4
100
AcDbLine
 10
29.171928
 20
0.975266
 30
0.0
 11
29.258057
 21
0.9844959999999999
 31
0.0
  0
LINE
  5
5AA
330
1F
100
AcDbEntity
  8
1
  6
CONTINUOUS
370
50
 62
4
100
AcDbLine
 10
25.242565
 20
0.542794
 30
0.0
 11
25.278482
 21
0.547129
 31
0.0
  0
LINE
  5
5AB
330
1F
100
AcDbEntity
  8
1
  6
CONTINUOUS
370
50
 62
4
100
AcDbLine
 10
29.085861
 20
0.9640099999999999
 30
0.0
 11
29.171928
 21
0.975266
 31
0.0
  0
LINE
  5
5AC
330
1F
100
AcDbEntity
  8
1
  6
CONTINUOUS
370
50
 62
4
100
AcDbLine
 10
40.871281
 20
0.955017
 30
0.0
 11
41.061615
 21
0.9800719999999999
 31
0.0
  0
LINE
  5
5AD
330
1F
100
AcDbEntity
  8
1
  6
CONTINUOUS
370
50
 62
4
100
AcDbLine
 10
45.461948
 20
-0.979576
 30
0.0
 11
45.653347
 21
-0.954274
 31
0.0
  0
LINE
  5
5AE
330
1F
100
AcDbEntity
  8
1
  6
CONTINUOUS
370
50
 62
4
100
AcDbLine
 10
46.792171
 20
0.9548139999999999
 30
0.0
 11
46.98148
 21
0.97988
 31
0.0
  0
LINE
  5
5AF
330
1F
100
AcDbEntity
  8
1
  6
CONTINUOUS
370
50
 62
4
100
AcDbLine
 10
33.619167
 20
-0.980386
 30
0.0
 11
33.809227
 21
-0.9552029999999999
 31
0.0
  0
LINE
  5
5B0
330
1F
100
AcDbEntity
  8
1
  6
CONTINUOUS
370
50
 62
4
100
AcDbLine
 10
27.702312
 20
-0.9794419999999999
 30
0.0
 11
27.892376
 21
-0.954217
 31
0.0
  0
LINE
  5
5B1
330
1F
100
AcDbEntity
  8
1
  6
CONTINUOUS
370
50
 62
4
100
AcDbLine
 10
39.540192
 20
-0.980177
 30
0.0
 11
39.728806
 21
-0.9550879999999999
 31
0.0
  0
LINE
  5
5B2
330
1F
100
AcDbEntity
  8
1
  6
CONTINUOUS
370
50
 62
4
100
AcDbLine
 10
34.950863
 20
0.955189
 30
0.0
 11
35.140316
 21
0.9803949999999999
 31
0.0
  0
LINE
  5
5B3
330
1F
100
AcDbEntity
  8
1
  6
CONTINUOUS
370
50
 62
4
100
AcDbLine
 10
29.0
 20
0.9507369999999999
 30
0.0
 11
29.085861
 21
0.9640099999999999
 31
0.0
  0
LINE
  5
5B4
330
1F
100
AcDbEntity
  8
1
  6
CONTINUOUS
370
50
 62
4
100
AcDbLine
 10
48.47118
 20
-0.196648
 30
0.0
 11
48.485775
 21
-0.194251
 31
0.0
  0
LINE
  5
5B5
330
1F
100
AcDbEntity
  8
1
  6
CONTINUOUS
370
50
 62
4
100
AcDbLine
 10
48.6525
 20
-0.057755
 30
0.0
 11
48.91573
 21
-0.014006
 31
0.0
  0
LINE
  5
5B6
330
1F
100
AcDbEntity
  8
1
  6
CONTINUOUS
370
50
 62
4
100
AcDbLine
 10
25.208429
 20
0.537082
 30
0.0
 11
25.242565
 21
0.542794
 31
0.0
  0
LINE
  5
5B7
330
1F
100
AcDbEntity
  8
1
  6
CONTINUOUS
370
50
 62
4
100
AcDbLine
 10
48.413425
 20
-1.0
 30
0.0
 11
48.413582
 21
-0.999972
 31
0.0
  0
LINE
  5
5B8
330
1F
100
AcDbEntity
  8
1
  6
CONTINUOUS
370
50
 62
4
100
AcDbLine
 10
28.909269
 20
0.933758
 30
0.0
 11
28.999134
 21
0.9498129999999999
 31
0.0
  0
LINE
  5
5B9
330
1F
100
AcDbEntity
  8
1
  6
CONTINUOUS
370
50
 62
4
100
AcDbLine
 10
33.809227
 20
-0.9552029999999999
 30
0.0
 11
33.999893
 21
-0.920435
 31
0.0
  0
LINE
  5
5BA
330
1F
100
AcDbEntity
  8
1
  6
CONTINUOUS
370
50
 62
4
100
AcDbLine
 10
40.68075899999999
 20
0.920195
 30
0.0
 11
40.871281
 21
0.955017
 31
0.0
  0
LINE
  5
5BB
330
1F
100
AcDbEntity
  8
1
  6
CONTINUOUS
370
50
 62
4
100
AcDbLine
 10
34.760265
 20
0.920233
 30
0.0
 11
34.950863
 21
0.955189
 31
0.0
  0
LINE
  5
5BC
330
1F
100
AcDbEntity
  8
1
  6
CONTINUOUS
370
50
 62
4
100
AcDbLine
 10
46.602173
 20
0.919863
 30
0.0
 11
46.792171
 21
0.9548139999999999
 31
0.0
  0
LINE
  5
5BD
330
1F
100
AcDbEntity
  8
1
  6
CONTINUOUS
370
50
 62
4
100
AcDbLine
 10
39.728806
 20
-0.9550879999999999
 30
0.0
 11
39.918098
 21
-0.920246
 31
0.0
  0
LINE
  5
5BE
330
1F
100
AcDbEntity
  8
1
  6
CONTINUOUS
370
50
 62
4
100
AcDbLine
 10
45.653347
 20
-0.954274
 30
0.0
 11
45.84252499999999
 21
-0.919403
 31
0.0
  0
LINE
  5
5BF
330
1F
100
AcDbEntity
  8
1
  6
CONTINUOUS
370
50
 62
4
100
AcDbLine
 10
27.892376
 20
-0.954217
 30
0.0
 11
28.081228
 21
-0.919307
 31
0.0
  0
LINE
  5
5C0
330
1F
100
AcDbEntity
  8
1
  6
CONTINUOUS
370
50
 62
4
100
AcDbLine
 10
48.145454
 20
0.448308
 30
0.0
 11
48.165329
 21
0.452326
 31
0.0
  0
LINE
  5
5C1
330
1F
100
AcDbEntity
  8
1
  6
CONTINUOUS
370
50
 62
4
100
AcDbLine
 10
28.819643
 20
0.9155909999999999
 30
0.0
 11
28.909269
 21
0.933758
 31
0.0
  0
LINE
  5
5C2
330
1F
100
AcDbEntity
  8
1
  6
CONTINUOUS
370
50
 62
4
100
AcDbLine
 10
48.165329
 20
0.452326
 30
0.0
 11
48.184917
 21
0.456585
 31
0.0
  0
LINE
  5
5C3
330
1F
100
AcDbEntity
  8
1
  6
CONTINUOUS
370
50
 62
4
100
AcDbLine
 10
25.176033
 20
0.5300239999999999
 30
0.0
 11
25.208429
 21
0.537082
 31
0.0
  0
LINE
  5
5C4
330
1F
100
AcDbEntity
  8
1
  6
CONTINUOUS
370
50
 62
4
100
AcDbLine
 10
28.730055
 20
0.895349
 30
0.0
 11
28.819643
 21
0.9155909999999999
 31
0.0
  0
LINE
  5
5C5
330
1F
100
AcDbEntity
  8
1
  6
CONTINUOUS
370
50
 62
4
100
AcDbLine
 10
39.918098
 20
-0.920246
 30
0.0
 11
40.109566
 21
-0.875946
 31
0.0
  0
LINE
  5
5C6
330
1F
100
AcDbEntity
  8
1
  6
CONTINUOUS
370
50
 62
4
100
AcDbLine
 10
34.569305
 20
0.876015
 30
0.0
 11
34.760265
 21
0.920233
 31
0.0
  0
LINE
  5
5C7
330
1F
100
AcDbEntity
  8
1
  6
CONTINUOUS
370
50
 62
4
100
AcDbLine
 10
46.411137
 20
0.875551
 30
0.0
 11
46.602173
 21
0.919863
 31
0.0
  0
LINE
  5
5C8
330
1F
100
AcDbEntity
  8
1
  6
CONTINUOUS
370
50
 62
4
100
AcDbLine
 10
33.999893
 20
-0.920435
 30
0.0
 11
34.189873
 21
-0.876092
 31
0.0
  0
LINE
  5
5C9
330
1F
100
AcDbEntity
  8
1
  6
CONTINUOUS
370
50
 62
4
100
AcDbLine
 10
28.081228
 20
-0.919307
 30
0.0
 11
28.269779
 21
-0.8752749999999999
 31
0.0
  0
LINE
  5
5CA
330
1F
100
AcDbEntity
  8
1
  6
CONTINUOUS
370
50
 62
4
100
AcDbLine
 10
40.49073
 20
0.8758079999999999
 30
0.0
 11
40.68075899999999
 21
0.920195
 31
0.0
  0
LINE
  5
5CB
330
1F
100
AcDbEntity
  8
1
  6
CONTINUOUS
370
50
 62
4
100
AcDbLine
 10
48.184917
 20
0.456585
 30
0.0
 11
48.204262
 21
0.461109
 31
0.0
  0
LINE
  5
5CC
330
1F
100
AcDbEntity
  8
1
  6
CONTINUOUS
370
50
 62
4
100
AcDbLine
 10
45.84252499999999
 20
-0.919403
 30
0.0
 11
46.03067799999999
 21
-0.875319
 31
0.0
  0
LINE
  5
5CD
330
1F
100
AcDbEntity
  8
1
  6
CONTINUOUS
370
50
 62
4
100
AcDbLine
 10
28.640301
 20
0.873068
 30
0.0
 11
28.730055
 21
0.895349
 31
0.0
  0
LINE
  5
5CE
330
1F
100
AcDbEntity
  8
1
  6
CONTINUOUS
370
50
 62
4
100
AcDbLine
 10
48.485775
 20
-0.194251
 30
0.0
 11
48.500443
 21
-0.19056
 31
0.0
  0
LINE
  5
5CF
330
1F
100
AcDbEntity
  8
1
  6
CONTINUOUS
370
50
 62
4
100
AcDbLine
 10
48.204262
 20
0.461109
 30
0.0
 11
48.223328
 21
0.46591
 31
0.0
  0
LINE
  5
5D0
330
1F
100
AcDbEntity
  8
1
  6
CONTINUOUS
370
50
 62
4
100
AcDbLine
 10
28.550184
 20
0.848784
 30
0.0
 11
28.640301
 21
0.873068
 31
0.0
  0
LINE
  5
5D1
330
1F
100
AcDbEntity
  8
1
  6
CONTINUOUS
370
50
 62
4
100
AcDbLine
 10
48.223328
 20
0.46591
 30
0.0
 11
48.242081
 21
0.471
 31
0.0
  0
LINE
  5
5D2
330
1F
100
AcDbEntity
  8
1
  6
CONTINUOUS
370
50
 62
4
100
AcDbLine
 10
25.145414
 20
0.521633
 30
0.0
 11
25.176033
 21
0.5300239999999999
 31
0.0
  0
LINE
  5
5D3
330
1F
100
AcDbEntity
  8
1
  6
CONTINUOUS
370
50
 62
4
100
AcDbLine
 10
28.269779
 20
-0.8752749999999999
 30
0.0
 11
28.4597
 21
-0.822546
 31
0.0
  0
LINE
  5
5D4
330
1F
100
AcDbEntity
  8
1
  6
CONTINUOUS
370
50
 62
4
100
AcDbLine
 10
46.219936
 20
0.822326
 30
0.0
 11
46.411137
 21
0.875551
 31
0.0
  0
LINE
  5
5D5
330
1F
100
AcDbEntity
  8
1
  6
CONTINUOUS
370
50
 62
4
100
AcDbLine
 10
40.109566
 20
-0.875946
 30
0.0
 11
40.300987
 21
-0.8226089999999999
 31
0.0
  0
LINE
  5
5D6
330
1F
100
AcDbEntity
  8
1
  6
CONTINUOUS
370
50
 62
4
100
AcDbLine
 10
34.379375
 20
0.822838
 30
0.0
 11
34.569305
 21
0.876015
 31
0.0
  0
LINE
  5
5D7
330
1F
100
AcDbEntity
  8
1
  6
CONTINUOUS
370
50
 62
4
100
AcDbLine
 10
46.03067799999999
 20
-0.875319
 30
0.0
 11
46.21987499999999
 21
-0.822338
 31
0.0
  0
LINE
  5
5D8
330
1F
100
AcDbEntity
  8
1
  6
CONTINUOUS
370
50
 62
4
100
AcDbLine
 10
40.301052
 20
0.82261
 30
0.0
 11
40.49073
 21
0.8758079999999999
 31
0.0
  0
LINE
  5
5D9
330
1F
100
AcDbEntity
  8
1
  6
CONTINUOUS
370
50
 62
4
100
AcDbLine
 10
34.189873
 20
-0.876092
 30
0.0
 11
34.379261
 21
-0.8228409999999999
 31
0.0
  0
LINE
  5
5DA
330
1F
100
AcDbEntity
  8
1
  6
CONTINUOUS
370
50
 62
4
100
AcDbLine
 10
28.459713
 20
0.822548
 30
0.0
 11
28.550184
 21
0.848784
 31
0.0
  0
LINE
  5
5DB
330
1F
100
AcDbEntity
  8
1
  6
CONTINUOUS
370
50
 62
4
100
AcDbLine
 10
48.242081
 20
0.471
 30
0.0
 11
48.26049
 21
0.47639
 31
0.0
  0
LINE
  5
5DC
330
1F
100
AcDbEntity
  8
1
  6
CONTINUOUS
370
50
 62
4
100
AcDbLine
 10
48.26049
 20
0.47639
 30
0.0
 11
48.278515
 21
0.482091
 31
0.0
  0
LINE
  5
5DD
330
1F
100
AcDbEntity
  8
1
  6
CONTINUOUS
370
50
 62
4
100
AcDbLine
 10
25.116657
 20
0.5119319999999999
 30
0.0
 11
25.145414
 21
0.521633
 31
0.0
  0
LINE
  5
5DE
330
1F
100
AcDbEntity
  8
1
  6
CONTINUOUS
370
50
 62
4
100
AcDbLine
 10
48.500443
 20
-0.19056
 30
0.0
 11
48.514996
 21
-0.185609
 31
0.0
  0
LINE
  5
5DF
330
1F
100
AcDbEntity
  8
1
  6
CONTINUOUS
370
50
 62
4
100
AcDbLine
 10
48.278515
 20
0.482091
 30
0.0
 11
48.296127
 21
0.488116
 31
0.0
  0
LINE
  5
5E0
330
1F
100
AcDbEntity
  8
1
  6
CONTINUOUS
370
50
 62
4
100
AcDbLine
 10
48.296127
 20
0.488116
 30
0.0
 11
48.31328999999999
 21
0.494475
 31
0.0
  0
LINE
  5
5E1
330
1F
100
AcDbEntity
  8
1
  6
CONTINUOUS
370
50
 62
4
100
AcDbLine
 10
48.31328999999999
 20
0.494475
 30
0.0
 11
48.329964
 21
0.501181
 31
0.0
  0
LINE
  5
5E2
330
1F
100
AcDbEntity
  8
1
  6
CONTINUOUS
370
50
 62
4
100
AcDbLine
 10
25.089853
 20
0.500944
 30
0.0
 11
25.116657
 21
0.5119319999999999
 31
0.0
  0
LINE
  5
5E3
330
1F
100
AcDbEntity
  8
1
  6
CONTINUOUS
370
50
 62
4
100
AcDbLine
 10
48.514996
 20
-0.185609
 30
0.0
 11
48.529293
 21
-0.179461
 31
0.0
  0
LINE
  5
5E4
330
1F
100
AcDbEntity
  8
1
  6
CONTINUOUS
370
50
 62
4
100
AcDbLine
 10
48.329964
 20
0.501181
 30
0.0
 11
48.346123
 21
0.508244
 31
0.0
  0
LINE
  5
5E5
330
1F
100
AcDbEntity
  8
1
  6
CONTINUOUS
370
50
 62
4
100
AcDbLine
 10
48.346123
 20
0.508244
 30
0.0
 11
48.361725
 21
0.515676
 31
0.0
  0
LINE
  5
5E6
330
1F
100
AcDbEntity
  8
1
  6
CONTINUOUS
370
50
 62
4
100
AcDbLine
 10
48.413582
 20
-0.999972
 30
0.0
 11
48.413738
 21
-0.999896
 31
0.0
  0
LINE
  5
5E7
330
1F
100
AcDbEntity
  8
1
  6
CONTINUOUS
370
50
 62
4
100
AcDbLine
 10
25.065012
 20
0.488653
 30
0.0
 11
25.089853
 21
0.500944
 31
0.0
  0
LINE
  5
5E8
330
1F
100
AcDbEntity
  8
1
  6
CONTINUOUS
370
50
 62
4
100
AcDbLine
 10
48.361725
 20
0.515676
 30
0.0
 11
48.376789
 21
0.523515
 31
0.0
  0
LINE
  5
5E9
330
1F
100
AcDbEntity
  8
1
  6
CONTINUOUS
370
50
 62
4
100
AcDbLine
 10
48.529293
 20
-0.179461
 30
0.0
 11
48.543304
 21
-0.172155
 31
0.0
  0
LINE
  5
5EA
330
1F
100
AcDbEntity
  8
1
  6
CONTINUOUS
370
50
 62
4
100
AcDbLine
 10
48.376789
 20
0.523515
 30
0.0
 11
48.391476
 21
0.531901
 31
0.0
  0
LINE
  5
5EB
330
1F
100
AcDbEntity
  8
1
  6
CONTINUOUS
370
50
 62
4
100
AcDbLine
 10
25.041573
 20
0.47462
 30
0.0
 11
25.065012
 21
0.488653
 31
0.0
  0
LINE
  5
5EC
330
1F
100
AcDbEntity
  8
1
  6
CONTINUOUS
370
50
 62
4
100
AcDbLine
 10
48.543304
 20
-0.172155
 30
0.0
 11
48.556999
 21
-0.163727
 31
0.0
  0
LINE
  5
5ED
330
1F
100
AcDbEntity
  8
1
  6
CONTINUOUS
370
50
 62
4
100
AcDbLine
 10
48.391476
 20
0.531901
 30
0.0
 11
48.405716
 21
0.540874
 31
0.0
  0
LINE
  5
5EE
330
1F
100
AcDbEntity
  8
1
  6
CONTINUOUS
370
50
 62
4
100
AcDbLine
 10
48.405716
 20
0.540874
 30
0.0
 11
48.419422
 21
0.5504589999999999
 31
0.0
  0
LINE
  5
5EF
330
1F
100
AcDbEntity
  8
1
  6
CONTINUOUS
370
50
 62
4
100
AcDbLine
 10
48.556999
 20
-0.163727
 30
0.0
 11
48.570351
 21
-0.154213
 31
0.0
  0
LINE
  5
5F0
330
1F
100
AcDbEntity
  8
1
  6
CONTINUOUS
370
50
 62
4
100
AcDbLine
 10
28.999134
 20
0.9498129999999999
 30
0.0
 11
28.999279
 21
0.949917
 31
0.0
  0
LINE
  5
5F1
330
1F
100
AcDbEntity
  8
1
  6
CONTINUOUS
370
50
 62
4
100
AcDbLine
 10
28.999567
 20
0.9501269999999999
 30
0.0
 11
28.999712
 21
0.9502309999999999
 31
0.0
  0
LINE
  5
5F2
330
1F
100
AcDbEntity
  8
1
  6
CONTINUOUS
370
50
 62
4
100
AcDbLine
 10
28.999422
 20
0.9500219999999999
 30
0.0
 11
28.999567
 21
0.9501269999999999
 31
0.0
  0
LINE
  5
5F3
330
1F
100
AcDbEntity
  8
1
  6
CONTINUOUS
370
50
 62
4
100
AcDbLine
 10
28.999855
 20
0.950336
 30
0.0
 11
29.0
 21
0.950441
 31
0.0
  0
LINE
  5
5F4
330
1F
100
AcDbEntity
  8
1
  6
CONTINUOUS
370
50
 62
4
100
AcDbLine
 10
25.019754
 20
0.458621
 30
0.0
 11
25.041573
 21
0.47462
 31
0.0
  0
LINE
  5
5F5
330
1F
100
AcDbEntity
  8
1
  6
CONTINUOUS
370
50
 62
4
100
AcDbLine
 10
28.999279
 20
0.949917
 30
0.0
 11
28.999422
 21
0.9500219999999999
 31
0.0
  0
LINE
  5
5F6
330
1F
100
AcDbEntity
  8
1
  6
CONTINUOUS
370
50
 62
4
100
AcDbLine
 10
28.999712
 20
0.9502309999999999
 30
0.0
 11
28.999855
 21
0.950336
 31
0.0
  0
LINE
  5
5F7
330
1F
100
AcDbEntity
  8
1
  6
CONTINUOUS
370
50
 62
4
100
AcDbLine
 10
48.419422
 20
0.5504589999999999
 30
0.0
 11
48.432499
 21
0.5606829999999999
 31
0.0
  0
LINE
  5
5F8
330
1F
100
AcDbEntity
  8
1
  6
CONTINUOUS
370
50
 62
4
100
AcDbLine
 10
48.570351
 20
-0.154213
 30
0.0
 11
48.583324
 21
-0.143651
 31
0.0
  0
LINE
  5
5F9
330
1F
100
AcDbEntity
  8
1
  6
CONTINUOUS
370
50
 62
4
100
AcDbLine
 10
48.413738
 20
-0.999896
 30
0.0
 11
48.413895
 21
-0.9997649999999999
 31
0.0
  0
LINE
  5
5FA
330
1F
100
AcDbEntity
  8
1
  6
CONTINUOUS
370
50
 62
4
100
AcDbLine
 10
48.432499
 20
0.5606829999999999
 30
0.0
 11
48.444847
 21
0.5715709999999999
 31
0.0
  0
LINE
  5
5FB
330
1F
100
AcDbEntity
  8
1
  6
CONTINUOUS
370
50
 62
4
100
AcDbLine
 10
25.0
 20
0.440535
 30
0.0
 11
25.019754
 21
0.458621
 31
0.0
  0
LINE
  5
5FC
330
1F
100
AcDbEntity
  8
1
  6
CONTINUOUS
370
50
 62
4
100
AcDbLine
 10
48.583324
 20
-0.143651
 30
0.0
 11
48.595898
 21
-0.132078
 31
0.0
  0
LINE
  5
5FD
330
1F
100
AcDbEntity
  8
1
  6
CONTINUOUS
370
50
 62
4
100
AcDbLine
 10
48.444847
 20
0.5715709999999999
 30
0.0
 11
48.456379
 21
0.583148
 31
0.0
  0
LINE
  5
5FE
330
1F
100
AcDbEntity
  8
1
  6
CONTINUOUS
370
50
 62
4
100
AcDbLine
 10
48.595898
 20
-0.132078
 30
0.0
 11
48.608082
 21
-0.119475
 31
0.0
  0
LINE
  5
5FF
330
1F
100
AcDbEntity
  8
1
  6
CONTINUOUS
370
50
 62
4
100
AcDbLine
 10
48.456379
 20
0.583148
 30
0.0
 11
48.466919
 21
0.5953419999999999
 31
0.0
  0
LINE
  5
600
330
1F
100
AcDbEntity
  8
1
  6
CONTINUOUS
370
50
 62
4
100
AcDbLine
 10
48.608082
 20
-0.119475
 30
0.0
 11
48.619923
 21
-0.105744
 31
0.0
  0
LINE
  5
601
330
1F
100
AcDbEntity
  8
1
  6
CONTINUOUS
370
50
 62
4
100
AcDbLine
 10
48.413895
 20
-0.9997649999999999
 30
0.0
 11
48.414051
 21
-0.9995799999999999
 31
0.0
  0
LINE
  5
602
330
1F
100
AcDbEntity
  8
1
  6
CONTINUOUS
370
50
 62
4
100
AcDbLine
 10
48.619923
 20
-0.105744
 30
0.0
 11
48.631332
 21
-0.090882
 31
0.0
  0
LINE
  5
603
330
1F
100
AcDbEntity
  8
1
  6
CONTINUOUS
370
50
 62
4
100
AcDbLine
 10
48.466919
 20
0.5953419999999999
 30
0.0
 11
48.476349
 21
0.608074
 31
0.0
  0
LINE
  5
604
330
1F
100
AcDbEntity
  8
1
  6
CONTINUOUS
370
50
 62
4
100
AcDbLine
 10
48.631332
 20
-0.090882
 30
0.0
 11
48.642223
 21
-0.074886
 31
0.0
  0
LINE
  5
605
330
1F
100
AcDbEntity
  8
1
  6
CONTINUOUS
370
50
 62
4
100
AcDbLine
 10
48.414051
 20
-0.9995799999999999
 30
0.0
 11
48.414207
 21
-0.99934
 31
0.0
  0
LINE
  5
606
330
1F
100
AcDbEntity
  8
1
  6
CONTINUOUS
370
50
 62
4
100
AcDbLine
 10
48.476349
 20
0.608074
 30
0.0
 11
48.484634
 21
0.621358
 31
0.0
  0
LINE
  5
607
330
1F
100
AcDbEntity
  8
1
  6
CONTINUOUS
370
50
 62
4
100
AcDbLine
 10
48.642223
 20
-0.074886
 30
0.0
 11
48.6525
 21
-0.057755
 31
0.0
  0
LINE
  5
608
330
1F
100
AcDbEntity
  8
1
  6
CONTINUOUS
370
50
 62
4
100
AcDbLine
 10
48.41423
 20
-0.999313
 30
0.0
 11
49.0
 21
0.0
 31
0.0
  0
LINE
  5
609
330
1F
100
AcDbEntity
  8
1
  6
CONTINUOUS
370
50
 62
4
100
AcDbLine
 10
48.414207
 20
-0.99934
 30
0.0
 11
48.414368
 21
-0.999046
 31
0.0
  0
LINE
  5
60A
330
1F
100
AcDbEntity
  8
1
  6
CONTINUOUS
370
50
 62
4
100
AcDbLine
 10
48.484634
 20
0.621358
 30
0.0
 11
48.491756
 21
0.635207
 31
0.0
  0
LINE
  5
60B
330
1F
100
AcDbEntity
  8
1
  6
CONTINUOUS
370
50
 62
4
100
AcDbLine
 10
48.491756
 20
0.635207
 30
0.0
 11
48.497677
 21
0.649635
 31
0.0
  0
LINE
  5
60C
330
1F
100
AcDbEntity
  8
1
  6
CONTINUOUS
370
50
 62
4
100
AcDbLine
 10
48.497677
 20
0.649635
 30
0.0
 11
48.502346
 21
0.664549
 31
0.0
  0
LINE
  5
60D
330
1F
100
AcDbEntity
  8
1
  6
CONTINUOUS
370
50
 62
4
100
AcDbLine
 10
48.502346
 20
0.664549
 30
0.0
 11
48.505711
 21
0.6796639999999999
 31
0.0
  0
LINE
  5
60E
330
1F
100
AcDbEntity
  8
1
  6
CONTINUOUS
370
50
 62
4
100
AcDbLine
 10
48.505711
 20
0.6796639999999999
 30
0.0
 11
48.507835
 21
0.694933
 31
0.0
  0
LINE
  5
60F
330
1F
100
AcDbEntity
  8
1
  6
CONTINUOUS
370
50
 62
4
100
AcDbLine
 10
48.399364
 20
-0.261155
 30
0.0
 11
48.399654
 21
-0.190199
 31
0.0
  0
LINE
  5
610
330
1F
100
AcDbEntity
  8
1
  6
CONTINUOUS
370
50
 62
4
100
AcDbLine
 10
48.399189
 20
-0.329837
 30
0.0
 11
48.399364
 21
-0.261155
 31
0.0
  0
LINE
  5
611
330
1F
100
AcDbEntity
  8
1
  6
CONTINUOUS
370
50
 62
4
100
AcDbLine
 10
48.399139
 20
-0.395552
 30
0.0
 11
48.399189
 21
-0.329837
 31
0.0
  0
LINE
  5
612
330
1F
100
AcDbEntity
  8
1
  6
CONTINUOUS
370
50
 62
4
100
AcDbLine
 10
25.0
 20
-1.0
 30
0.0
 11
25.0
 21
1.0
 31
0.0
  0
LINE
  5
613
330
1F
100
AcDbEntity
  8
1
  6
CONTINUOUS
370
50
 62
4
100
AcDbLine
 10
26.142204
 20
-0.8102579999999999
 30
0.0
 11
26.142204
 21
-0.199816
 31
0.0
  0
LINE
  5
614
330
1F
100
AcDbEntity
  8
1
  6
CONTINUOUS
370
50
 62
4
100
AcDbLine
 10
26.144203
 20
-0.200761
 30
0.0
 11
26.144203
 21
0.292989
 31
0.0
  0
LINE
  5
615
330
1F
100
AcDbEntity
  8
1
  6
CONTINUOUS
370
50
 62
4
100
AcDbLine
 10
28.999134
 20
-0.9498129999999999
 30
0.0
 11
28.999134
 21
0.627991
 31
0.0
  0
LINE
  5
616
330
1F
100
AcDbEntity
  8
1
  6
CONTINUOUS
370
50
 62
4
100
AcDbLine
 10
29.0
 20
-0.9507369999999999
 30
0.0
 11
29.0
 21
0.627969
 31
0.0
  0
LINE
  5
617
330
1F
100
AcDbEntity
  8
1
  6
CONTINUOUS
370
50
 62
4
100
AcDbLine
 10
29.0
 20
0.909762
 30
0.0
 11
29.0
 21
0.950441
 31
0.0
  0
LINE
  5
618
330
1F
100
AcDbEntity
  8
1
  6
CONTINUOUS
370
50
 62
4
100
AcDbLine
 10
29.0
 20
0.86993
 30
0.0
 11
29.0
 21
0.909762
 31
0.0
  0
LINE
  5
619
330
1F
100
AcDbEntity
  8
1
  6
CONTINUOUS
370
50
 62
4
100
AcDbLine
 10
29.0
 20
0.831069
 30
0.0
 11
29.0
 21
0.86993
 31
0.0
  0
LINE
  5
61A
330
1F
100
AcDbEntity
  8
1
  6
CONTINUOUS
370
50
 62
4
100
AcDbLine
 10
29.0
 20
0.793314
 30
0.0
 11
29.0
 21
0.831069
 31
0.0
  0
LINE
  5
61B
330
1F
100
AcDbEntity
  8
1
  6
CONTINUOUS
370
50
 62
4
100
AcDbLine
 10
29.0
 20
0.756946
 30
0.0
 11
29.0
 21
0.793314
 31
0.0
  0
LINE
  5
61C
330
1F
100
AcDbEntity
  8
1
  6
CONTINUOUS
370
50
 62
4
100
AcDbLine
 10
29.0
 20
0.722127
 30
0.0
 11
29.0
 21
0.756946
 31
0.0
  0
LINE
  5
61D
330
1F
100
AcDbEntity
  8
1
  6
CONTINUOUS
370
50
 62
4
100
AcDbLine
 10
29.0
 20
0.688958
 30
0.0
 11
29.0
 21
0.722127
 31
0.0
  0
LINE
  5
61E
330
1F
100
AcDbEntity
  8
1
  6
CONTINUOUS
370
50
 62
4
100
AcDbLine
 10
29.0
 20
0.657539
 30
0.0
 11
29.0
 21
0.688958
 31
0.0
  0
LINE
  5
61F
330
1F
100
AcDbEntity
  8
1
  6
CONTINUOUS
370
50
 62
4
100
AcDbLine
 10
29.0
 20
0.6279699999999999
 30
0.0
 11
29.0
 21
0.657539
 31
0.0
  0
LINE
  5
620
330
1F
100
AcDbEntity
  8
1
  6
CONTINUOUS
370
50
 62
4
100
AcDbLine
 10
29.0
 20
0.646137
 30
0.0
 11
29.0
 21
0.678468
 31
0.0
  0
LINE
  5
621
330
1F
100
AcDbEntity
  8
1
  6
CONTINUOUS
370
50
 62
4
100
AcDbLine
 10
29.0
 20
0.678468
 30
0.0
 11
29.0
 21
0.712722
 31
0.0
  0
LINE
  5
622
330
1F
100
AcDbEntity
  8
1
  6
CONTINUOUS
370
50
 62
4
100
AcDbLine
 10
29.0
 20
0.712722
 30
0.0
 11
29.0
 21
0.7487809999999999
 31
0.0
  0
LINE
  5
623
330
1F
100
AcDbEntity
  8
1
  6
CONTINUOUS
370
50
 62
4
100
AcDbLine
 10
29.0
 20
0.7487809999999999
 30
0.0
 11
29.0
 21
0.7865219999999999
 31
0.0
  0
LINE
  5
624
330
1F
100
AcDbEntity
  8
1
  6
CONTINUOUS
370
50
 62
4
100
AcDbLine
 10
29.0
 20
0.7865219999999999
 30
0.0
 11
29.0
 21
0.825826
 31
0.0
  0
LINE
  5
625
330
1F
100
AcDbEntity
  8
1
  6
CONTINUOUS
370
50
 62
4
100
AcDbLine
 10
29.0
 20
0.825826
 30
0.0
 11
29.0
 21
0.8664499999999999
 31
0.0
  0
LINE
  5
626
330
1F
100
AcDbEntity
  8
1
  6
CONTINUOUS
370
50
 62
4
100
AcDbLine
 10
29.0
 20
0.8664499999999999
 30
0.0
 11
29.0
 21
0.9081349999999999
 31
0.0
  0
LINE
  5
627
330
1F
100
AcDbEntity
  8
1
  6
CONTINUOUS
370
50
 62
4
100
AcDbLine
 10
29.0
 20
0.9081349999999999
 30
0.0
 11
29.0
 21
0.9507369999999999
 31
0.0
  0
LINE
  5
628
330
1F
100
AcDbEntity
  8
1
  6
CONTINUOUS
370
50
 62
4
100
AcDbLine
 10
48.422649
 20
0.845459
 30
0.0
 11
48.422649
 21
0.918635
 31
0.0
  0
LINE
  5
629
330
1F
100
AcDbEntity
  8
CUT
  6
CONTINUOUS
370
25
 62
1
100
AcDbLine
 10
29.0
 20
0.0
 30
0.0
 11
49.0
 21
0.0
 31
0.0
  0
LINE
  5
62A
330
1F
100
AcDbEntity
  8
CUT
  6
CONTINUOUS
370
25
 62
1
100
AcDbLine
 10
49.0
 20
0.0
 30
0.0
 11
48.42264973
 21
1.0
 31
0.0
  0
LINE
  5
62B
330
1F
100
AcDbEntity
  8
CUT
  6
CONTINUOUS
370
25
 62
1
100
AcDbLine
 10
48.42264973
 20
1.0
 30
0.0
 11
29.0
 21
1.0
 31
0.0
  0
LINE
  5
62C
330
1F
100
AcDbEntity
  8
CUT
  6
CONTINUOUS
370
25
 62
1
100
AcDbLine
 10
29.0
 20
1.0
 30
0.0
 11
29.0
 21
0.0
 31
0.0
  0
LINE
  5
62D
330
1F
100
AcDbEntity
  8
NOCUT
  6
CONTINUOUS
370
25
 62
7
100
AcDbLine
 10
25.0
 20
0.0
 30
0.0
 11
29.0
 21
0.0
 31
0.0
  0
LINE
  5
62E
330
1F
100
AcDbEntity
  8
NOCUT
  6
CONTINUOUS
370
25
 62
7
100
AcDbLine
 10
29.0
 20
0.0
 30
0.0
 11
29.0
 21
1.0005
 31
0.0
  0
LINE
  5
62F
330
1F
100
AcDbEntity
  8
NOCUT
  6
CONTINUOUS
370
25
 62
7
100
AcDbLine
 10
29.0
 20
1.0005
 30
0.0
 11
28.99913397459622
 21
1.0
 31
0.0
  0
LINE
  5
630
330
1F
100
AcDbEntity
  8
NOCUT
  6
CONTINUOUS
370
25
 62
7
100
AcDbLine
 10
28.99913397459622
 20
1.0
 30
0.0
 11
25.0
 21
1.0
 31
0.0
  0
LINE
  5
631
330
1F
100
AcDbEntity
  8
NOCUT
  6
CONTINUOUS
370
25
 62
7
100
AcDbLine
 10
25.0
 20
1.0
 30
0.0
 11
25.0
 21
0.0
 31
0.0
  0
LINE
  5
632
330
1F
100
AcDbEntity
  8
NOCUT
  6
CONTINUOUS
370
25
 62
7
100
AcDbLine
 10
29.0
 20
1.0
 30
0.0
 11
29.0
 21
0.0
 31
0.0
  0
LINE
  5
633
330
1F
100
AcDbEntity
  8
NOCUT
  6
CONTINUOUS
370
25
 62
7
100
AcDbLine
 10
29.0
 20
1.0
 30
0.0
 11
29.0
 21
0.0
 31
0.0
  0
LINE
  5
634
330
1F
100
AcDbEntity
  8
SK1
  6
CONTINUOUS
370
50
 62
4
100
AcDbLine
 10
25.0
 20
1.0
 30
0.0
 11
0.1000000000000014
 21
1.0
 31
0.0
  0
LINE
  5
635
330
1F
100
AcDbEntity
  8
SK1
  6
CONTINUOUS
370
50
 62
4
100
AcDbLine
 10
0.1000000000000014
 20
1.0
 30
0.0
 11
0.0
 21
0.9
 31
0.0
  0
LINE
  5
636
330
1F
100
AcDbEntity
  8
SK1
  6
CONTINUOUS
370
50
 62
4
100
AcDbLine
 10
0.0
 20
0.9
 30
0.0
 11
0.0
 21
-0.9
 31
0.0
  0
LINE
  5
637
330
1F
100
AcDbEntity
  8
SK1
  6
CONTINUOUS
370
50
 62
4
100
AcDbLine
 10
0.0
 20
-0.9
 30
0.0
 11
0.1000000000000014
 21
-1.0
 31
0.0
  0
LINE
  5
638
330
1F
100
AcDbEntity
  8
SK1
  6
CONTINUOUS
370
50
 62
4
100
AcDbLine
 10
0.1000000000000014
 20
-1.0
 30
0.0
 11
25.0
 21
-1.0
 31
0.0
  0
LINE
  5
639
330
1F
100
AcDbEntity
  8
SK1
  6
CONTINUOUS
370
50
 62
4
100
AcDbLine
 10
0.1000000000000014
 20
1.0
 30
0.0
 11
0.1000000000000014
 21
-1.0
 31
0.0
  0
LINE
  5
63A
330
1F
100
AcDbEntity
  8
SK2
  6
CONTINUOUS
370
25
 62
7
100
AcDbLine
 10
-12.0000002
 20
-1.000001
 30
0.0
 11
-13.00000000000008
 21
-1.000001
 31
0.0
  0
LINE
  5
63B
330
1F
100
AcDbEntity
  8
SK2
  6
CONTINUOUS
370
25
 62
7
100
AcDbLine
 10
0.0
 20
-1.000001
 30
0.0
 11
-11.9999998
 21
-1.000001
 31
0.0
  0
LINE
  5
63C
330
1F
100
AcDbEntity
  8
SK2
  6
CONTINUOUS
370
25
 62
7
100
AcDbLine
 10
-13.0
 20
0.9999999999999999
 30
0.0
 11
0.0
 21
0.9999999999999999
 31
0.0
  0
LINE
  5
63D
330
1F
100
AcDbEntity
  8
SK2
  6
CONTINUOUS
370
25
 62
7
100
AcDbLine
 10
-12.0
 20
-8.0
 30
0.0
 11
-12.0
 21
14.475
 31
0.0
  0
LINE
  5
63E
330
1F
100
AcDbEntity
  8
SK2
  6
CONTINUOUS
370
25
 62
7
100
AcDbLine
 10
-12.0
 20
-1.0
 30
0.0
 11
-11.0
 21
-6.0
 31
0.0
  0
LINE
  5
63F
330
1F
100
AcDbEntity
  8
SK2
  6
CONTINUOUS
370
25
 62
7
100
AcDbLine
 10
-11.0
 20
-6.0
 30
0.0
 11
-13.0
 21
-6.0
 31
0.0
  0
LINE
  5
640
330
1F
100
AcDbEntity
  8
SK2
  6
CONTINUOUS
370
25
 62
7
100
AcDbLine
 10
-13.0
 20
-6.0
 30
0.0
 11
-12.0
 21
-1.0
 31
0.0
  0
LINE
  5
641
330
1F
100
AcDbEntity
  8
SK2
  6
CONTINUOUS
370
25
 62
7
100
AcDbLine
 10
-11.12274887854689
 20
-6.0
 30
0.0
 11
-11.02045814642448
 21
-5.897709267877588
 31
0.0
  0
LINE
  5
642
330
1F
100
AcDbEntity
  8
SK2
  6
CONTINUOUS
370
25
 62
7
100
AcDbLine
 10
-11.54701294725884
 20
-6.000000000000004
 30
0.0
 11
-11.09116882454314
 21
-5.544155877284307
 31
0.0
  0
LINE
  5
643
330
1F
100
AcDbEntity
  8
SK2
  6
CONTINUOUS
370
25
 62
7
100
AcDbLine
 10
-11.97127701597076
 20
-6.0
 30
0.0
 11
-11.1618795026618
 21
-5.190602486691041
 31
0.0
  0
LINE
  5
644
330
1F
100
AcDbEntity
  8
SK2
  6
CONTINUOUS
370
25
 62
7
100
AcDbLine
 10
-12.39554108468269
 20
-6.000000000000004
 30
0.0
 11
-11.23259018078045
 21
-4.837049096097761
 31
0.0
  0
LINE
  5
645
330
1F
100
AcDbEntity
  8
SK2
  6
CONTINUOUS
370
25
 62
7
100
AcDbLine
 10
-12.81980515339462
 20
-6.0
 30
0.0
 11
-11.30330085889911
 21
-4.483495705504488
 31
0.0
  0
LINE
  5
646
330
1F
100
AcDbEntity
  8
SK2
  6
CONTINUOUS
370
25
 62
7
100
AcDbLine
 10
-12.93898269447336
 20
-5.694913472366814
 30
0.0
 11
-11.37401153701776
 21
-4.129942314911212
 31
0.0
  0
LINE
  5
647
330
1F
100
AcDbEntity
  8
SK2
  6
CONTINUOUS
370
25
 62
7
100
AcDbLine
 10
-12.83291667729538
 20
-5.164583386476906
 30
0.0
 11
-11.44472221513641
 21
-3.776388924317935
 31
0.0
  0
LINE
  5
648
330
1F
100
AcDbEntity
  8
SK2
  6
CONTINUOUS
370
25
 62
7
100
AcDbLine
 10
-12.72685066011739
 20
-4.634253300586984
 30
0.0
 11
-11.51543289325507
 21
-3.422835533724658
 31
0.0
  0
LINE
  5
649
330
1F
100
AcDbEntity
  8
SK2
  6
CONTINUOUS
370
25
 62
7
100
AcDbLine
 10
-12.62078464293941
 20
-4.103923214697076
 30
0.0
 11
-11.58614357137373
 21
-3.069282143131389
 31
0.0
  0
LINE
  5
64A
330
1F
100
AcDbEntity
  8
SK2
  6
CONTINUOUS
370
25
 62
7
100
AcDbLine
 10
-12.51471862576143
 20
-3.573593128807161
 30
0.0
 11
-11.65685424949238
 21
-2.715728752538119
 31
0.0
  0
LINE
  5
64B
330
1F
100
AcDbEntity
  8
SK2
  6
CONTINUOUS
370
25
 62
7
100
AcDbLine
 10
-12.40865260858344
 20
-3.043263042917246
 30
0.0
 11
-11.72756492761103
 21
-2.362175361944836
 31
0.0
  0
LINE
  5
64C
330
1F
100
AcDbEntity
  8
SK2
  6
CONTINUOUS
370
25
 62
7
100
AcDbLine
 10
-12.30258659140546
 20
-2.512932957027338
 30
0.0
 11
-11.79827560572969
 21
-2.008621971351559
 31
0.0
  0
LINE
  5
64D
330
1F
100
AcDbEntity
  8
SK2
  6
CONTINUOUS
370
25
 62
7
100
AcDbLine
 10
-12.19652057422748
 20
-1.982602871137424
 30
0.0
 11
-11.86898628384834
 21
-1.655068580758289
 31
0.0
  0
LINE
  5
64E
330
1F
100
AcDbEntity
  8
SK2
  6
CONTINUOUS
370
25
 62
7
100
AcDbLine
 10
-12.0904545570495
 20
-1.452272785247516
 30
0.0
 11
-11.939696961967
 21
-1.30151519016502
 31
0.0
  0
LINE
  5
64F
330
1F
100
AcDbEntity
  8
SK2
  6
CONTINUOUS
370
25
 62
7
100
AcDbLine
 10
-12.99684985141871
 20
-5.984249257093552
 30
0.0
 11
-12.98109910851226
 21
-6.0
 31
0.0
  0
LINE
  5
650
330
1F
100
AcDbEntity
  8
SK2
  6
CONTINUOUS
370
25
 62
7
100
AcDbLine
 10
-12.92613917330005
 20
-5.630695866500282
 30
0.0
 11
-12.55683503980033
 21
-6.0
 31
0.0
  0
LINE
  5
651
330
1F
100
AcDbEntity
  8
SK2
  6
CONTINUOUS
370
25
 62
7
100
AcDbLine
 10
-12.8554284951814
 20
-5.277142475906999
 30
0.0
 11
-12.1325709710884
 21
-6.0
 31
0.0
  0
LINE
  5
652
330
1F
100
AcDbEntity
  8
SK2
  6
CONTINUOUS
370
25
 62
7
100
AcDbLine
 10
-12.78471781706275
 20
-4.923589085313722
 30
0.0
 11
-11.70830690237647
 21
-6.0
 31
0.0
  0
LINE
  5
653
330
1F
100
AcDbEntity
  8
SK2
  6
CONTINUOUS
370
25
 62
7
100
AcDbLine
 10
-12.71400713894409
 20
-4.570035694720445
 30
0.0
 11
-11.28404283366454
 21
-6.0
 31
0.0
  0
LINE
  5
654
330
1F
100
AcDbEntity
  8
SK2
  6
CONTINUOUS
370
25
 62
7
100
AcDbLine
 10
-12.64329646082543
 20
-4.216482304127169
 30
0.0
 11
-11.03505530876185
 21
-5.824723456190753
 31
0.0
  0
LINE
  5
655
330
1F
100
AcDbEntity
  8
SK2
  6
CONTINUOUS
370
25
 62
7
100
AcDbLine
 10
-12.57258578270678
 20
-3.862928913533899
 30
0.0
 11
-11.14112132593983
 21
-5.294393370300853
 31
0.0
  0
LINE
  5
656
330
1F
100
AcDbEntity
  8
SK2
  6
CONTINUOUS
370
25
 62
7
100
AcDbLine
 10
-12.50187510458813
 20
-3.509375522940616
 30
0.0
 11
-11.24718734311781
 21
-4.764063284410938
 31
0.0
  0
LINE
  5
657
330
1F
100
AcDbEntity
  8
SK2
  6
CONTINUOUS
370
25
 62
7
100
AcDbLine
 10
-12.43116442646947
 20
-3.155822132347346
 30
0.0
 11
-11.3532533602958
 21
-4.233733198521023
 31
0.0
  0
LINE
  5
658
330
1F
100
AcDbEntity
  8
SK2
  6
CONTINUOUS
370
25
 62
7
100
AcDbLine
 10
-12.36045374835081
 20
-2.802268741754069
 30
0.0
 11
-11.45931937747378
 21
-3.703403112631108
 31
0.0
  0
LINE
  5
659
330
1F
100
AcDbEntity
  8
SK2
  6
CONTINUOUS
370
25
 62
7
100
AcDbLine
 10
-12.28974307023216
 20
-2.4487153511608
 30
0.0
 11
-11.56538539465176
 21
-3.173073026741193
 31
0.0
  0
LINE
  5
65A
330
1F
100
AcDbEntity
  8
SK2
  6
CONTINUOUS
370
25
 62
7
100
AcDbLine
 10
-12.2190323921135
 20
-2.095161960567523
 30
0.0
 11
-11.67145141182975
 21
-2.642742940851271
 31
0.0
  0
LINE
  5
65B
330
1F
100
AcDbEntity
  8
SK2
  6
CONTINUOUS
370
25
 62
7
100
AcDbLine
 10
-12.14832171399485
 20
-1.74160856997424
 30
0.0
 11
-11.77751742900773
 21
-2.112412854961356
 31
0.0
  0
LINE
  5
65C
330
1F
100
AcDbEntity
  8
SK2
  6
CONTINUOUS
370
25
 62
7
100
AcDbLine
 10
-12.0776110358762
 20
-1.38805517938097
 30
0.0
 11
-11.88358344618571
 21
-1.582082769071455
 31
0.0
  0
LINE
  5
65D
330
1F
100
AcDbEntity
  8
SK2
  6
CONTINUOUS
370
25
 62
7
100
AcDbLine
 10
-12.00690035775754
 20
-1.034501788787693
 30
0.0
 11
-11.9896494633637
 21
-1.051752683181533
 31
0.0
  0
LINE
  5
65E
330
1F
100
AcDbEntity
  8
SK2
  6
CONTINUOUS
370
25
 62
7
100
AcDbLine
 10
-12.0
 20
0.9999999999999998
 30
0.0
 11
-13.0
 21
6.0
 31
0.0
  0
LINE
  5
65F
330
1F
100
AcDbEntity
  8
SK2
  6
CONTINUOUS
370
25
 62
7
100
AcDbLine
 10
-13.0
 20
6.0
 30
0.0
 11
-11.0
 21
6.0
 31
0.0
  0
LINE
  5
660
330
1F
100
AcDbEntity
  8
SK2
  6
CONTINUOUS
370
25
 62
7
100
AcDbLine
 10
-11.0
 20
6.0
 30
0.0
 11
-12.0
 21
0.9999999999999998
 31
0.0
  0
LINE
  5
661
330
1F
100
AcDbEntity
  8
SK2
  6
CONTINUOUS
370
25
 62
7
100
AcDbLine
 10
-12.03062769734559
 20
1.15313848672794
 30
0.0
 11
-11.95405845398162
 21
1.229707730091917
 31
0.0
  0
LINE
  5
662
330
1F
100
AcDbEntity
  8
SK2
  6
CONTINUOUS
370
25
 62
7
100
AcDbLine
 10
-12.10133837546424
 20
1.506691877321224
 30
0.0
 11
-11.84799243680364
 21
1.760037815981818
 31
0.0
  0
LINE
  5
663
330
1F
100
AcDbEntity
  8
SK2
  6
CONTINUOUS
370
25
 62
7
100
AcDbLine
 10
-12.1720490535829
 20
1.8602452679145
 30
0.0
 11
-11.74192641962565
 21
2.290367901871747
 31
0.0
  0
LINE
  5
664
330
1F
100
AcDbEntity
  8
SK2
  6
CONTINUOUS
370
25
 62
7
100
AcDbLine
 10
-12.24275973170155
 20
2.21379865850777
 30
0.0
 11
-11.63586040244767
 21
2.820697987761655
 31
0.0
  0
LINE
  5
665
330
1F
100
AcDbEntity
  8
SK2
  6
CONTINUOUS
370
25
 62
7
100
AcDbLine
 10
-12.31347040982021
 20
2.567352049101039
 30
0.0
 11
-11.52979438526968
 21
3.35102807365157
 31
0.0
  0
LINE
  5
666
330
1F
100
AcDbEntity
  8
SK2
  6
CONTINUOUS
370
25
 62
7
100
AcDbLine
 10
-12.38418108793886
 20
2.920905439694323
 30
0.0
 11
-11.4237283680917
 21
3.881358159541485
 31
0.0
  0
LINE
  5
667
330
1F
100
AcDbEntity
  8
SK2
  6
CONTINUOUS
370
25
 62
7
100
AcDbLine
 10
-12.45489176605752
 20
3.274458830287593
 30
0.0
 11
-11.31766235091372
 21
4.411688245431392
 31
0.0
  0
LINE
  5
668
330
1F
100
AcDbEntity
  8
SK2
  6
CONTINUOUS
370
25
 62
7
100
AcDbLine
 10
-12.52560244417618
 20
3.628012220880869
 30
0.0
 11
-11.21159633373573
 21
4.942018331321314
 31
0.0
  0
LINE
  5
669
330
1F
100
AcDbEntity
  8
SK2
  6
CONTINUOUS
370
25
 62
7
100
AcDbLine
 10
-12.59631312229483
 20
3.981565611474146
 30
0.0
 11
-11.10553031655775
 21
5.472348417211222
 31
0.0
  0
LINE
  5
66A
330
1F
100
AcDbEntity
  8
SK2
  6
CONTINUOUS
370
25
 62
7
100
AcDbLine
 10
-12.66702380041349
 20
4.33511900206743
 30
0.0
 11
-11.00214280248091
 21
6.0
 31
0.0
  0
LINE
  5
66B
330
1F
100
AcDbEntity
  8
SK2
  6
CONTINUOUS
370
25
 62
7
100
AcDbLine
 10
-12.73773447853214
 20
4.688672392660699
 30
0.0
 11
-11.42640687119283
 21
6.0
 31
0.0
  0
LINE
  5
66C
330
1F
100
AcDbEntity
  8
SK2
  6
CONTINUOUS
370
25
 62
7
100
AcDbLine
 10
-12.8084451566508
 20
5.042225783253976
 30
0.0
 11
-11.85067093990477
 21
6.0
 31
0.0
  0
LINE
  5
66D
330
1F
100
AcDbEntity
  8
SK2
  6
CONTINUOUS
370
25
 62
7
100
AcDbLine
 10
-12.87915583476945
 20
5.395779173847252
 30
0.0
 11
-12.27493500861669
 21
6.0
 31
0.0
  0
LINE
  5
66E
330
1F
100
AcDbEntity
  8
SK2
  6
CONTINUOUS
370
25
 62
7
100
AcDbLine
 10
-12.9498665128881
 20
5.749332564440536
 30
0.0
 11
-12.69919907732864
 21
6.0
 31
0.0
  0
LINE
  5
66F
330
1F
100
AcDbEntity
  8
SK2
  6
CONTINUOUS
370
25
 62
7
100
AcDbLine
 10
-12.01980098238018
 20
1.099004911900927
 30
0.0
 11
-11.98679934507988
 21
1.066003274600625
 31
0.0
  0
LINE
  5
670
330
1F
100
AcDbEntity
  8
SK2
  6
CONTINUOUS
370
25
 62
7
100
AcDbLine
 10
-12.12586699955817
 20
1.629334997790849
 30
0.0
 11
-11.91608866696122
 21
1.419556665193902
 31
0.0
  0
LINE
  5
671
330
1F
100
AcDbEntity
  8
SK2
  6
CONTINUOUS
370
25
 62
7
100
AcDbLine
 10
-12.23193301673616
 20
2.159665083680771
 30
0.0
 11
-11.84537798884256
 21
1.773110055787178
 31
0.0
  0
LINE
  5
672
330
1F
100
AcDbEntity
  8
SK2
  6
CONTINUOUS
370
25
 62
7
100
AcDbLine
 10
-12.33799903391414
 20
2.689995169570679
 30
0.0
 11
-11.77466731072391
 21
2.126663446380448
 31
0.0
  0
LINE
  5
673
330
1F
100
AcDbEntity
  8
SK2
  6
CONTINUOUS
370
25
 62
7
100
AcDbLine
 10
-12.44406505109212
 20
3.220325255460594
 30
0.0
 11
-11.70395663260526
 21
2.480216836973732
 31
0.0
  0
LINE
  5
674
330
1F
100
AcDbEntity
  8
SK2
  6
CONTINUOUS
370
25
 62
7
100
AcDbLine
 10
-12.5501310682701
 20
3.750655341350495
 30
0.0
 11
-11.6332459544866
 21
2.833770227567001
 31
0.0
  0
LINE
  5
675
330
1F
100
AcDbEntity
  8
SK2
  6
CONTINUOUS
370
25
 62
7
100
AcDbLine
 10
-12.65619708544808
 20
4.280985427240424
 30
0.0
 11
-11.56253527636795
 21
3.187323618160285
 31
0.0
  0
LINE
  5
676
330
1F
100
AcDbEntity
  8
SK2
  6
CONTINUOUS
370
25
 62
7
100
AcDbLine
 10
-12.76226310262607
 20
4.811315513130346
 30
0.0
 11
-11.49182459824929
 21
3.540877008753561
 31
0.0
  0
LINE
  5
677
330
1F
100
AcDbEntity
  8
SK2
  6
CONTINUOUS
370
25
 62
7
100
AcDbLine
 10
-12.86832911980405
 20
5.341645599020246
 30
0.0
 11
-11.42111392013063
 21
3.894430399346824
 31
0.0
  0
LINE
  5
678
330
1F
100
AcDbEntity
  8
SK2
  6
CONTINUOUS
370
25
 62
7
100
AcDbLine
 10
-12.97439513698203
 20
5.871975684910161
 30
0.0
 11
-11.35040324201198
 21
4.247983789940108
 31
0.0
  0
LINE
  5
679
330
1F
100
AcDbEntity
  8
SK2
  6
CONTINUOUS
370
25
 62
7
100
AcDbLine
 10
-12.67815538335994
 20
6.0
 30
0.0
 11
-11.27969256389333
 21
4.601537180533384
 31
0.0
  0
LINE
  5
67A
330
1F
100
AcDbEntity
  8
SK2
  6
CONTINUOUS
370
25
 62
7
100
AcDbLine
 10
-12.25389131464802
 20
6.000000000000004
 30
0.0
 11
-11.20898188577467
 21
4.95509057112665
 31
0.0
  0
LINE
  5
67B
330
1F
100
AcDbEntity
  8
SK2
  6
CONTINUOUS
370
25
 62
7
100
AcDbLine
 10
-11.82962724593608
 20
6.0
 30
0.0
 11
-11.13827120765601
 21
5.30864396171993
 31
0.0
  0
LINE
  5
67C
330
1F
100
AcDbEntity
  8
SK2
  6
CONTINUOUS
370
25
 62
7
100
AcDbLine
 10
-11.40536317722415
 20
5.999999999999996
 30
0.0
 11
-11.06756052953736
 21
5.662197352313211
 31
0.0
  0
TEXT
  5
67D
330
1F
100
AcDbEntity
  8
SK2
  6
CONTINUOUS
370
25
 62
7
100
AcDbText
 10
-13.5
 20
11.34583333333333
 30
0.0
 40
3.5
  1
2
 50
90.00000000000001
 72
     1
 11
-13.5
 21
12.5125
 31
0.0
100
AcDbText
  0
CIRCLE
  5
67E
330
1F
100
AcDbEntity
  8
SK2
  6
CONTINUOUS
370
25
 62
7
100
AcDbCircle
 10
-15.25
 20
9.1875
 30
0.0
 40
1.4
  0
LINE
  5
67F
330
1F
100
AcDbEntity
  8
SK2
  6
CONTINUOUS
370
25
 62
7
100
AcDbLine
 10
-13.85
 20
7.787500000000001
 30
0.0
 11
-16.65
 21
10.5875
 31
0.0
  0
LINE
  5
680
330
1F
100
AcDbEntity
  8
SK2
  6
CONTINUOUS
370
25
 62
7
100
AcDbLine
 10
0.0
 20
1.0
 30
0.0
 11
0.0
 21
14.00022747
 31
0.0
  0
LINE
  5
681
330
1F
100
AcDbEntity
  8
SK2
  6
CONTINUOUS
370
25
 62
7
100
AcDbLine
 10
25.0
 20
14.00022747
 30
0.0
 11
25.0
 21
1.0
 31
0.0
  0
LINE
  5
682
330
1F
100
AcDbEntity
  8
SK2
  6
CONTINUOUS
370
25
 62
7
100
AcDbLine
 10
0.0
 20
13.00022747
 30
0.0
 11
25.0
 21
13.00022747
 31
0.0
  0
LINE
  5
683
330
1F
100
AcDbEntity
  8
SK2
  6
CONTINUOUS
370
25
 62
7
100
AcDbLine
 10
0.0
 20
13.00022747
 30
0.0
 11
5.0
 21
14.00022747
 31
0.0
  0
LINE
  5
684
330
1F
100
AcDbEntity
  8
SK2
  6
CONTINUOUS
370
25
 62
7
100
AcDbLine
 10
5.0
 20
14.00022747
 30
0.0
 11
5.0
 21
12.00022747
 31
0.0
  0
LINE
  5
685
330
1F
100
AcDbEntity
  8
SK2
  6
CONTINUOUS
370
25
 62
7
100
AcDbLine
 10
5.0
 20
12.00022747
 30
0.0
 11
0.0
 21
13.00022747
 31
0.0
  0
LINE
  5
686
330
1F
100
AcDbEntity
  8
SK2
  6
CONTINUOUS
370
25
 62
7
100
AcDbLine
 10
4.796798539911205
 20
12.04086776201776
 30
0.0
 11
5.0
 21
12.24406922210655
 31
0.0
  0
LINE
  5
687
330
1F
100
AcDbEntity
  8
SK2
  6
CONTINUOUS
370
25
 62
7
100
AcDbLine
 10
4.443245149317931
 20
12.11157844013641
 30
0.0
 11
5.0
 21
12.66833329081848
 31
0.0
  0
LINE
  5
688
330
1F
100
AcDbEntity
  8
SK2
  6
CONTINUOUS
370
25
 62
7
100
AcDbLine
 10
4.089691758724658
 20
12.18228911825507
 30
0.0
 11
5.0
 21
13.09259735953041
 31
0.0
  0
LINE
  5
689
330
1F
100
AcDbEntity
  8
SK2
  6
CONTINUOUS
370
25
 62
7
100
AcDbLine
 10
3.736138368131385
 20
12.25299979637372
 30
0.0
 11
5.0
 21
13.51686142824234
 31
0.0
  0
LINE
  5
68A
330
1F
100
AcDbEntity
  8
SK2
  6
CONTINUOUS
370
25
 62
7
100
AcDbLine
 10
3.382584977538112
 20
12.32371047449238
 30
0.0
 11
5.0
 21
13.94112549695426
 31
0.0
  0
LINE
  5
68B
330
1F
100
AcDbEntity
  8
SK2
  6
CONTINUOUS
370
25
 62
7
100
AcDbLine
 10
3.029031586944839
 20
12.39442115261103
 30
0.0
 11
4.543547380417259
 21
13.90893694608345
 31
0.0
  0
LINE
  5
68C
330
1F
100
AcDbEntity
  8
SK2
  6
CONTINUOUS
370
25
 62
7
100
AcDbLine
 10
2.675478196351566
 20
12.46513183072969
 30
0.0
 11
4.013217294527351
 21
13.80287092890547
 31
0.0
  0
LINE
  5
68D
330
1F
100
AcDbEntity
  8
SK2
  6
CONTINUOUS
370
25
 62
7
100
AcDbLine
 10
2.321924805758293
 20
12.53584250884834
 30
0.0
 11
3.48288720863744
 21
13.69680491172749
 31
0.0
  0
LINE
  5
68E
330
1F
100
AcDbEntity
  8
SK2
  6
CONTINUOUS
370
25
 62
7
100
AcDbLine
 10
1.96837141516502
 20
12.60655318696699
 30
0.0
 11
2.952557122747532
 21
13.59073889454951
 31
0.0
  0
LINE
  5
68F
330
1F
100
AcDbEntity
  8
SK2
  6
CONTINUOUS
370
25
 62
7
100
AcDbLine
 10
1.614818024571747
 20
12.67726386508565
 30
0.0
 11
2.42222703685762
 21
13.48467287737152
 31
0.0
  0
LINE
  5
690
330
1F
100
AcDbEntity
  8
SK2
  6
CONTINUOUS
370
25
 62
7
100
AcDbLine
 10
1.261264633978474
 20
12.7479745432043
 30
0.0
 11
1.891896950967713
 21
13.37860686019354
 31
0.0
  0
LINE
  5
691
330
1F
100
AcDbEntity
  8
SK2
  6
CONTINUOUS
370
25
 62
7
100
AcDbLine
 10
0.9077112433852008
 20
12.81868522132296
 30
0.0
 11
1.361566865077801
 21
13.27254084301556
 31
0.0
  0
LINE
  5
692
330
1F
100
AcDbEntity
  8
SK2
  6
CONTINUOUS
370
25
 62
7
100
AcDbLine
 10
0.5541578527919278
 20
12.88939589944161
 30
0.0
 11
0.8312367791878934
 21
13.16647482583758
 31
0.0
  0
LINE
  5
693
330
1F
100
AcDbEntity
  8
SK2
  6
CONTINUOUS
370
25
 62
7
100
AcDbLine
 10
0.2006044621986547
 20
12.96010657756027
 30
0.0
 11
0.300906693297982
 21
13.0604088086596
 31
0.0
  0
LINE
  5
694
330
1F
100
AcDbEntity
  8
SK2
  6
CONTINUOUS
370
25
 62
7
100
AcDbLine
 10
0.2672029597106551
 20
13.05366806194213
 30
0.0
 11
0.4008044395659773
 21
12.92006658208681
 31
0.0
  0
LINE
  5
695
330
1F
100
AcDbEntity
  8
SK2
  6
CONTINUOUS
370
25
 62
7
100
AcDbLine
 10
0.6207563503039282
 20
13.12437874006078
 30
0.0
 11
0.9311345254558852
 21
12.81400056490883
 31
0.0
  0
LINE
  5
696
330
1F
100
AcDbEntity
  8
SK2
  6
CONTINUOUS
370
25
 62
7
100
AcDbLine
 10
0.9743097408972048
 20
13.19508941817944
 30
0.0
 11
1.461464611345797
 21
12.70793454773084
 31
0.0
  0
LINE
  5
697
330
1F
100
AcDbEntity
  8
SK2
  6
CONTINUOUS
370
25
 62
7
100
AcDbLine
 10
1.327863131490474
 20
13.26580009629809
 30
0.0
 11
1.991794697235711
 21
12.60186853055286
 31
0.0
  0
LINE
  5
698
330
1F
100
AcDbEntity
  8
SK2
  6
CONTINUOUS
370
25
 62
7
100
AcDbLine
 10
1.681416522083747
 20
13.33651077441675
 30
0.0
 11
2.522124783125623
 21
12.49580251337488
 31
0.0
  0
LINE
  5
699
330
1F
100
AcDbEntity
  8
SK2
  6
CONTINUOUS
370
25
 62
7
100
AcDbLine
 10
2.034969912677024
 20
13.4072214525354
 30
0.0
 11
3.052454869015534
 21
12.38973649619689
 31
0.0
  0
LINE
  5
69A
330
1F
100
AcDbEntity
  8
SK2
  6
CONTINUOUS
370
25
 62
7
100
AcDbLine
 10
2.388523303270297
 20
13.47793213065406
 30
0.0
 11
3.582784954905446
 21
12.28367047901891
 31
0.0
  0
LINE
  5
69B
330
1F
100
AcDbEntity
  8
SK2
  6
CONTINUOUS
370
25
 62
7
100
AcDbLine
 10
2.74207669386357
 20
13.54864280877271
 30
0.0
 11
4.113115040795357
 21
12.17760446184093
 31
0.0
  0
LINE
  5
69C
330
1F
100
AcDbEntity
  8
SK2
  6
CONTINUOUS
370
25
 62
7
100
AcDbLine
 10
3.095630084456843
 20
13.61935348689137
 30
0.0
 11
4.643445126685265
 21
12.07153844466295
 31
0.0
  0
LINE
  5
69D
330
1F
100
AcDbEntity
  8
SK2
  6
CONTINUOUS
370
25
 62
7
100
AcDbLine
 10
3.449183475050116
 20
13.69006416501002
 30
0.0
 11
5.0
 21
12.13924764006014
 31
0.0
  0
LINE
  5
69E
330
1F
100
AcDbEntity
  8
SK2
  6
CONTINUOUS
370
25
 62
7
100
AcDbLine
 10
3.802736865643389
 20
13.76077484312867
 30
0.0
 11
5.0
 21
12.56351170877207
 31
0.0
  0
LINE
  5
69F
330
1F
100
AcDbEntity
  8
SK2
  6
CONTINUOUS
370
25
 62
7
100
AcDbLine
 10
4.156290256236662
 20
13.83148552124733
 30
0.0
 11
5.0
 21
12.98777577748399
 31
0.0
  0
LINE
  5
6A0
330
1F
100
AcDbEntity
  8
SK2
  6
CONTINUOUS
370
25
 62
7
100
AcDbLine
 10
4.509843646829935
 20
13.90219619936599
 30
0.0
 11
5.0
 21
13.41203984619592
 31
0.0
  0
LINE
  5
6A1
330
1F
100
AcDbEntity
  8
SK2
  6
CONTINUOUS
370
25
 62
7
100
AcDbLine
 10
4.863397037423209
 20
13.97290687748464
 30
0.0
 11
5.0
 21
13.83630391490785
 31
0.0
  0
LINE
  5
6A2
330
1F
100
AcDbEntity
  8
SK2
  6
CONTINUOUS
370
25
 62
7
100
AcDbLine
 10
25.0
 20
13.00022747
 30
0.0
 11
20.0
 21
12.00022747
 31
0.0
  0
LINE
  5
6A3
330
1F
100
AcDbEntity
  8
SK2
  6
CONTINUOUS
370
25
 62
7
100
AcDbLine
 10
20.0
 20
12.00022747
 30
0.0
 11
20.0
 21
14.00022747
 31
0.0
  0
LINE
  5
6A4
330
1F
100
AcDbEntity
  8
SK2
  6
CONTINUOUS
370
25
 62
7
100
AcDbLine
 10
20.0
 20
14.00022747
 30
0.0
 11
25.0
 21
13.00022747
 31
0.0
  0
LINE
  5
6A5
330
1F
100
AcDbEntity
  8
SK2
  6
CONTINUOUS
370
25
 62
7
100
AcDbLine
 10
24.81005167491277
 20
12.96223780498256
 30
0.0
 11
24.87336778327518
 21
13.02555391334496
 31
0.0
  0
LINE
  5
6A6
330
1F
100
AcDbEntity
  8
SK2
  6
CONTINUOUS
370
25
 62
7
100
AcDbLine
 10
24.27972158902286
 20
12.85617178780457
 30
0.0
 11
24.51981439268191
 21
13.09626459146362
 31
0.0
  0
LINE
  5
6A7
330
1F
100
AcDbEntity
  8
SK2
  6
CONTINUOUS
370
25
 62
7
100
AcDbLine
 10
23.74939150313295
 20
12.75010577062659
 30
0.0
 11
24.16626100208864
 21
13.16697526958227
 31
0.0
  0
LINE
  5
6A8
330
1F
100
AcDbEntity
  8
SK2
  6
CONTINUOUS
370
25
 62
7
100
AcDbLine
 10
23.21906141724304
 20
12.64403975344861
 30
0.0
 11
23.81270761149536
 21
13.23768594770093
 31
0.0
  0
LINE
  5
6A9
330
1F
100
AcDbEntity
  8
SK2
  6
CONTINUOUS
370
25
 62
7
100
AcDbLine
 10
22.68873133135313
 20
12.53797373627063
 30
0.0
 11
23.45915422090209
 21
13.30839662581958
 31
0.0
  0
LINE
  5
6AA
330
1F
100
AcDbEntity
  8
SK2
  6
CONTINUOUS
370
25
 62
7
100
AcDbLine
 10
22.15840124546322
 20
12.43190771909265
 30
0.0
 11
23.10560083030882
 21
13.37910730393824
 31
0.0
  0
LINE
  5
6AB
330
1F
100
AcDbEntity
  8
SK2
  6
CONTINUOUS
370
25
 62
7
100
AcDbLine
 10
21.62807115957331
 20
12.32584170191466
 30
0.0
 11
22.75204743971554
 21
13.44981798205689
 31
0.0
  0
LINE
  5
6AC
330
1F
100
AcDbEntity
  8
SK2
  6
CONTINUOUS
370
25
 62
7
100
AcDbLine
 10
21.0977410736834
 20
12.21977568473668
 30
0.0
 11
22.39849404912227
 21
13.52052866017555
 31
0.0
  0
LINE
  5
6AD
330
1F
100
AcDbEntity
  8
SK2
  6
CONTINUOUS
370
25
 62
7
100
AcDbLine
 10
20.56741098779349
 20
12.1137096675587
 30
0.0
 11
22.04494065852899
 21
13.5912393382942
 31
0.0
  0
LINE
  5
6AE
330
1F
100
AcDbEntity
  8
SK2
  6
CONTINUOUS
370
25
 62
7
100
AcDbLine
 10
20.03708090190359
 20
12.00764365038072
 30
0.0
 11
21.69138726793572
 21
13.66195001641286
 31
0.0
  0
LINE
  5
6AF
330
1F
100
AcDbEntity
  8
SK2
  6
CONTINUOUS
370
25
 62
7
100
AcDbLine
 10
20.0
 20
12.39482681718906
 30
0.0
 11
21.33783387734245
 21
13.73266069453151
 31
0.0
  0
LINE
  5
6B0
330
1F
100
AcDbEntity
  8
SK2
  6
CONTINUOUS
370
25
 62
7
100
AcDbLine
 10
20.0
 20
12.81909088590099
 30
0.0
 11
20.98428048674918
 21
13.80337137265017
 31
0.0
  0
LINE
  5
6B1
330
1F
100
AcDbEntity
  8
SK2
  6
CONTINUOUS
370
25
 62
7
100
AcDbLine
 10
20.0
 20
13.24335495461292
 30
0.0
 11
20.6307270961559
 21
13.87408205076882
 31
0.0
  0
LINE
  5
6B2
330
1F
100
AcDbEntity
  8
SK2
  6
CONTINUOUS
370
25
 62
7
100
AcDbLine
 10
20.0
 20
13.66761902332484
 30
0.0
 11
20.27717370556263
 21
13.94479272888747
 31
0.0
  0
LINE
  5
6B3
330
1F
100
AcDbEntity
  8
SK2
  6
CONTINUOUS
370
25
 62
7
100
AcDbLine
 10
20.0
 20
12.21248916810276
 30
0.0
 11
20.17688474841897
 21
12.03560441968379
 31
0.0
  0
LINE
  5
6B4
330
1F
100
AcDbEntity
  8
SK2
  6
CONTINUOUS
370
25
 62
7
100
AcDbLine
 10
20.0
 20
12.63675323681469
 30
0.0
 11
20.53043813901224
 21
12.10631509780245
 31
0.0
  0
LINE
  5
6B5
330
1F
100
AcDbEntity
  8
SK2
  6
CONTINUOUS
370
25
 62
7
100
AcDbLine
 10
20.0
 20
13.06101730552662
 30
0.0
 11
20.88399152960552
 21
12.1770257759211
 31
0.0
  0
LINE
  5
6B6
330
1F
100
AcDbEntity
  8
SK2
  6
CONTINUOUS
370
25
 62
7
100
AcDbLine
 10
20.0
 20
13.48528137423855
 30
0.0
 11
21.23754492019879
 21
12.24773645403976
 31
0.0
  0
LINE
  5
6B7
330
1F
100
AcDbEntity
  8
SK2
  6
CONTINUOUS
370
25
 62
7
100
AcDbLine
 10
20.0
 20
13.90954544295047
 30
0.0
 11
21.59109831079206
 21
12.31844713215841
 31
0.0
  0
LINE
  5
6B8
330
1F
100
AcDbEntity
  8
SK2
  6
CONTINUOUS
370
25
 62
7
100
AcDbLine
 10
20.416977552078
 20
13.9168319595844
 30
0.0
 11
21.94465170138534
 21
12.38915781027707
 31
0.0
  0
LINE
  5
6B9
330
1F
100
AcDbEntity
  8
SK2
  6
CONTINUOUS
370
25
 62
7
100
AcDbLine
 10
20.94730763796791
 20
13.81076594240642
 30
0.0
 11
22.29820509197861
 21
12.45986848839572
 31
0.0
  0
LINE
  5
6BA
330
1F
100
AcDbEntity
  8
SK2
  6
CONTINUOUS
370
25
 62
7
100
AcDbLine
 10
21.47763772385782
 20
13.70469992522844
 30
0.0
 11
22.65175848257189
 21
12.53057916651438
 31
0.0
  0
LINE
  5
6BB
330
1F
100
AcDbEntity
  8
SK2
  6
CONTINUOUS
370
25
 62
7
100
AcDbLine
 10
22.00796780974774
 20
13.59863390805045
 30
0.0
 11
23.00531187316516
 21
12.60128984463303
 31
0.0
  0
LINE
  5
6BC
330
1F
100
AcDbEntity
  8
SK2
  6
CONTINUOUS
370
25
 62
7
100
AcDbLine
 10
22.53829789563764
 20
13.49256789087247
 30
0.0
 11
23.35886526375843
 21
12.67200052275169
 31
0.0
  0
LINE
  5
6BD
330
1F
100
AcDbEntity
  8
SK2
  6
CONTINUOUS
370
25
 62
7
100
AcDbLine
 10
23.06862798152755
 20
13.38650187369449
 30
0.0
 11
23.7124186543517
 21
12.74271120087034
 31
0.0
  0
LINE
  5
6BE
330
1F
100
AcDbEntity
  8
SK2
  6
CONTINUOUS
370
25
 62
7
100
AcDbLine
 10
23.59895806741746
 20
13.28043585651651
 30
0.0
 11
24.06597204494498
 21
12.813421878989
 31
0.0
  0
LINE
  5
6BF
330
1F
100
AcDbEntity
  8
SK2
  6
CONTINUOUS
370
25
 62
7
100
AcDbLine
 10
24.12928815330738
 20
13.17436983933852
 30
0.0
 11
24.41952543553825
 21
12.88413255710765
 31
0.0
  0
LINE
  5
6C0
330
1F
100
AcDbEntity
  8
SK2
  6
CONTINUOUS
370
25
 62
7
100
AcDbLine
 10
24.65961823919729
 20
13.06830382216054
 30
0.0
 11
24.77307882613152
 21
12.9548432352263
 31
0.0
  0
TEXT
  5
6C1
330
1F
100
AcDbEntity
  8
SK2
  6
CONTINUOUS
370
25
 62
7
100
AcDbText
 10
9.583333333333334
 20
14.50022747
 30
0.0
 40
3.499999999999999
  1
25
 72
     1
 11
12.5
 21
14.50022747
 31
0.0
100
AcDbText
  0
LINE
  5
6C2
330
1F
100
AcDbEntity
  8
2
  6
CONTINUOUS
370
25
 62
7
100
AcDbLine
 10
48.42264973
 20
-0.9999999999999999
 30
0.0
 11
82.0
 21
-1.000000000000004
 31
0.0
  0
LINE
  5
6C3
330
1F
100
AcDbEntity
  8
2
  6
CONTINUOUS
370
25
 62
7
100
AcDbLine
 10
82.0
 20
0.9999999999999961
 30
0.0
 11
48.42264973
 21
1.0
 31
0.0
  0
LINE
  5
6C4
330
1F
100
AcDbEntity
  8
2
  6
CONTINUOUS
370
25
 62
7
100
AcDbLine
 10
81.0
 20
-8.000000000000004
 30
0.0
 11
81.0
 21
14.475
 31
0.0
  0
LINE
  5
6C5
330
1F
100
AcDbEntity
  8
2
  6
CONTINUOUS
370
25
 62
7
100
AcDbLine
 10
81.0
 20
-1.000000000000004
 30
0.0
 11
82.0
 21
-6.000000000000004
 31
0.0
  0
LINE
  5
6C6
330
1F
100
AcDbEntity
  8
2
  6
CONTINUOUS
370
25
 62
7
100
AcDbLine
 10
82.0
 20
-6.000000000000004
 30
0.0
 11
80.0
 21
-6.000000000000004
 31
0.0
  0
LINE
  5
6C7
330
1F
100
AcDbEntity
  8
2
  6
CONTINUOUS
370
25
 62
7
100
AcDbLine
 10
80.0
 20
-6.000000000000004
 30
0.0
 11
81.0
 21
-1.000000000000004
 31
0.0
  0
LINE
  5
6C8
330
1F
100
AcDbEntity
  8
2
  6
CONTINUOUS
370
25
 62
7
100
AcDbLine
 10
81.88921601647552
 20
-6.0
 30
0.0
 11
81.98153600274591
 21
-5.907680013729596
 31
0.0
  0
LINE
  5
6C9
330
1F
100
AcDbEntity
  8
2
  6
CONTINUOUS
370
25
 62
7
100
AcDbLine
 10
81.46495194776358
 20
-6.0
 30
0.0
 11
81.91082532462727
 21
-5.554126623136312
 31
0.0
  0
LINE
  5
6CA
330
1F
100
AcDbEntity
  8
2
  6
CONTINUOUS
370
25
 62
7
100
AcDbLine
 10
81.04068787905165
 20
-6.000000000000007
 30
0.0
 11
81.84011464650862
 21
-5.200573232543036
 31
0.0
  0
LINE
  5
6CB
330
1F
100
AcDbEntity
  8
2
  6
CONTINUOUS
370
25
 62
7
100
AcDbLine
 10
80.61642381033973
 20
-6.0
 30
0.0
 11
81.76940396838995
 21
-4.847019841949773
 31
0.0
  0
LINE
  5
6CC
330
1F
100
AcDbEntity
  8
2
  6
CONTINUOUS
370
25
 62
7
100
AcDbLine
 10
80.19215974162779
 20
-6.000000000000007
 30
0.0
 11
81.69869329027131
 21
-4.493466451356483
 31
0.0
  0
LINE
  5
6CD
330
1F
100
AcDbEntity
  8
2
  6
CONTINUOUS
370
25
 62
7
100
AcDbLine
 10
80.05802608177103
 20
-5.709869591144823
 30
0.0
 11
81.62798261215264
 21
-4.139913060763213
 31
0.0
  0
LINE
  5
6CE
330
1F
100
AcDbEntity
  8
2
  6
CONTINUOUS
370
25
 62
7
100
AcDbLine
 10
80.16409209894903
 20
-5.179539505254908
 30
0.0
 11
81.55727193403399
 21
-3.786359670169929
 31
0.0
  0
LINE
  5
6CF
330
1F
100
AcDbEntity
  8
2
  6
CONTINUOUS
370
25
 62
7
100
AcDbLine
 10
80.27015811612699
 20
-4.649209419364993
 30
0.0
 11
81.48656125591535
 21
-3.432806279576646
 31
0.0
  0
LINE
  5
6D0
330
1F
100
AcDbEntity
  8
2
  6
CONTINUOUS
370
25
 62
7
100
AcDbLine
 10
80.37622413330499
 20
-4.118879333475078
 30
0.0
 11
81.41585057779668
 21
-3.07925288898339
 31
0.0
  0
LINE
  5
6D1
330
1F
100
AcDbEntity
  8
2
  6
CONTINUOUS
370
25
 62
7
100
AcDbLine
 10
80.48229015048297
 20
-3.588549247585171
 30
0.0
 11
81.34513989967803
 21
-2.725699498390114
 31
0.0
  0
LINE
  5
6D2
330
1F
100
AcDbEntity
  8
2
  6
CONTINUOUS
370
25
 62
7
100
AcDbLine
 10
80.58835616766095
 20
-3.058219161695249
 30
0.0
 11
81.27442922155936
 21
-2.372146107796844
 31
0.0
  0
LINE
  5
6D3
330
1F
100
AcDbEntity
  8
2
  6
CONTINUOUS
370
25
 62
7
100
AcDbLine
 10
80.69442218483894
 20
-2.527889075805327
 30
0.0
 11
81.20371854344071
 21
-2.01859271720356
 31
0.0
  0
LINE
  5
6D4
330
1F
100
AcDbEntity
  8
2
  6
CONTINUOUS
370
25
 62
7
100
AcDbLine
 10
80.80048820201692
 20
-1.997558989915419
 30
0.0
 11
81.13300786532204
 21
-1.665039326610291
 31
0.0
  0
LINE
  5
6D5
330
1F
100
AcDbEntity
  8
2
  6
CONTINUOUS
370
25
 62
7
100
AcDbLine
 10
80.9065542191949
 20
-1.467228904025511
 30
0.0
 11
81.0622971872034
 21
-1.311485936017014
 31
0.0
  0
LINE
  5
6D6
330
1F
100
AcDbEntity
  8
2
  6
CONTINUOUS
370
25
 62
7
100
AcDbLine
 10
80.03577199509728
 20
-5.821140024513596
 30
0.0
 11
80.21463197058368
 21
-6.0
 31
0.0
  0
LINE
  5
6D7
330
1F
100
AcDbEntity
  8
2
  6
CONTINUOUS
370
25
 62
7
100
AcDbLine
 10
80.10648267321594
 20
-5.46758663392032
 30
0.0
 11
80.63889603929562
 21
-6.0
 31
0.0
  0
LINE
  5
6D8
330
1F
100
AcDbEntity
  8
2
  6
CONTINUOUS
370
25
 62
7
100
AcDbLine
 10
80.17719335133458
 20
-5.114033243327043
 30
0.0
 11
81.06316010800755
 21
-6.000000000000007
 31
0.0
  0
LINE
  5
6D9
330
1F
100
AcDbEntity
  8
2
  6
CONTINUOUS
370
25
 62
7
100
AcDbLine
 10
80.24790402945324
 20
-4.760479852733766
 30
0.0
 11
81.48742417671947
 21
-6.0
 31
0.0
  0
LINE
  5
6DA
330
1F
100
AcDbEntity
  8
2
  6
CONTINUOUS
370
25
 62
7
100
AcDbLine
 10
80.3186147075719
 20
-4.406926462140497
 30
0.0
 11
81.9116882454314
 21
-6.0
 31
0.0
  0
LINE
  5
6DB
330
1F
100
AcDbEntity
  8
2
  6
CONTINUOUS
370
25
 62
7
100
AcDbLine
 10
80.38932538569055
 20
-4.05337307154722
 30
0.0
 11
81.91601192146416
 21
-5.580059607320827
 31
0.0
  0
LINE
  5
6DC
330
1F
100
AcDbEntity
  8
2
  6
CONTINUOUS
370
25
 62
7
100
AcDbLine
 10
80.46003606380921
 20
-3.699819680953944
 30
0.0
 11
81.80994590428617
 21
-5.049729521430905
 31
0.0
  0
LINE
  5
6DD
330
1F
100
AcDbEntity
  8
2
  6
CONTINUOUS
370
25
 62
7
100
AcDbLine
 10
80.53074674192787
 20
-3.346266290360674
 30
0.0
 11
81.7038798871082
 21
-4.519399435540997
 31
0.0
  0
LINE
  5
6DE
330
1F
100
AcDbEntity
  8
2
  6
CONTINUOUS
370
25
 62
7
100
AcDbLine
 10
80.60145742004653
 20
-2.992712899767383
 30
0.0
 11
81.59781386993022
 21
-3.989069349651082
 31
0.0
  0
LINE
  5
6DF
330
1F
100
AcDbEntity
  8
2
  6
CONTINUOUS
370
25
 62
7
100
AcDbLine
 10
80.67216809816517
 20
-2.639159509174121
 30
0.0
 11
81.49174785275223
 21
-3.458739263761167
 31
0.0
  0
LINE
  5
6E0
330
1F
100
AcDbEntity
  8
2
  6
CONTINUOUS
370
25
 62
7
100
AcDbLine
 10
80.74287877628383
 20
-2.285606118580837
 30
0.0
 11
81.38568183557425
 21
-2.928409177871252
 31
0.0
  0
LINE
  5
6E1
330
1F
100
AcDbEntity
  8
2
  6
CONTINUOUS
370
25
 62
7
100
AcDbLine
 10
80.81358945440249
 20
-1.932052727987561
 30
0.0
 11
81.27961581839625
 21
-2.39807909198133
 31
0.0
  0
LINE
  5
6E2
330
1F
100
AcDbEntity
  8
2
  6
CONTINUOUS
370
25
 62
7
100
AcDbLine
 10
80.88430013252115
 20
-1.578499337394291
 30
0.0
 11
81.17354980121829
 21
-1.867749006091422
 31
0.0
  0
LINE
  5
6E3
330
1F
100
AcDbEntity
  8
2
  6
CONTINUOUS
370
25
 62
7
100
AcDbLine
 10
80.95501081063979
 20
-1.224945946801
 30
0.0
 11
81.06748378404029
 21
-1.337418920201507
 31
0.0
  0
LINE
  5
6E4
330
1F
100
AcDbEntity
  8
2
  6
CONTINUOUS
370
25
 62
7
100
AcDbLine
 10
81.0
 20
0.9999999999999962
 30
0.0
 11
80.0
 21
5.999999999999996
 31
0.0
  0
LINE
  5
6E5
330
1F
100
AcDbEntity
  8
2
  6
CONTINUOUS
370
25
 62
7
100
AcDbLine
 10
80.0
 20
5.999999999999996
 30
0.0
 11
82.0
 21
5.999999999999996
 31
0.0
  0
LINE
  5
6E6
330
1F
100
AcDbEntity
  8
2
  6
CONTINUOUS
370
25
 62
7
100
AcDbLine
 10
82.0
 20
5.999999999999996
 30
0.0
 11
81.0
 21
0.9999999999999962
 31
0.0
  0
LINE
  5
6E7
330
1F
100
AcDbEntity
  8
2
  6
CONTINUOUS
370
25
 62
7
100
AcDbLine
 10
80.9714854964071
 20
1.142572517964567
 30
0.0
 11
81.04277175538937
 21
1.21385877694685
 31
0.0
  0
LINE
  5
6E8
330
1F
100
AcDbEntity
  8
2
  6
CONTINUOUS
370
25
 62
7
100
AcDbLine
 10
80.90077481828843
 20
1.496125908557829
 30
0.0
 11
81.14883777256736
 21
1.744188862836758
 31
0.0
  0
LINE
  5
6E9
330
1F
100
AcDbEntity
  8
2
  6
CONTINUOUS
370
25
 62
7
100
AcDbLine
 10
80.83006414016978
 20
1.849679299151106
 30
0.0
 11
81.25490378974534
 21
2.274518948726673
 31
0.0
  0
LINE
  5
6EA
330
1F
100
AcDbEntity
  8
2
  6
CONTINUOUS
370
25
 62
7
100
AcDbLine
 10
80.75935346205111
 20
2.203232689744375
 30
0.0
 11
81.36096980692332
 21
2.804849034616581
 31
0.0
  0
LINE
  5
6EB
330
1F
100
AcDbEntity
  8
2
  6
CONTINUOUS
370
25
 62
7
100
AcDbLine
 10
80.68864278393247
 20
2.556786080337659
 30
0.0
 11
81.4670358241013
 21
3.335179120506496
 31
0.0
  0
LINE
  5
6EC
330
1F
100
AcDbEntity
  8
2
  6
CONTINUOUS
370
25
 62
7
100
AcDbLine
 10
80.61793210581382
 20
2.910339470930936
 30
0.0
 11
81.57310184127928
 21
3.865509206396403
 31
0.0
  0
LINE
  5
6ED
330
1F
100
AcDbEntity
  8
2
  6
CONTINUOUS
370
25
 62
7
100
AcDbLine
 10
80.54722142769515
 20
3.263892861524205
 30
0.0
 11
81.67916785845728
 21
4.395839292286325
 31
0.0
  0
LINE
  5
6EE
330
1F
100
AcDbEntity
  8
2
  6
CONTINUOUS
370
25
 62
7
100
AcDbLine
 10
80.4765107495765
 20
3.617446252117489
 30
0.0
 11
81.78523387563526
 21
4.926169378176247
 31
0.0
  0
LINE
  5
6EF
330
1F
100
AcDbEntity
  8
2
  6
CONTINUOUS
370
25
 62
7
100
AcDbLine
 10
80.40580007145783
 20
3.970999642710758
 30
0.0
 11
81.89129989281324
 21
5.456499464066155
 31
0.0
  0
LINE
  5
6F0
330
1F
100
AcDbEntity
  8
2
  6
CONTINUOUS
370
25
 62
7
100
AcDbLine
 10
80.33508939333919
 20
4.324553033304056
 30
0.0
 11
81.9973659099912
 21
5.98682954995607
 31
0.0
  0
LINE
  5
6F1
330
1F
100
AcDbEntity
  8
2
  6
CONTINUOUS
370
25
 62
7
100
AcDbLine
 10
80.26437871522054
 20
4.678106423897333
 30
0.0
 11
81.58627229132321
 21
6.0
 31
0.0
  0
LINE
  5
6F2
330
1F
100
AcDbEntity
  8
2
  6
CONTINUOUS
370
25
 62
7
100
AcDbLine
 10
80.19366803710187
 20
5.031659814490602
 30
0.0
 11
81.16200822261128
 21
6.0
 31
0.0
  0
LINE
  5
6F3
330
1F
100
AcDbEntity
  8
2
  6
CONTINUOUS
370
25
 62
7
100
AcDbLine
 10
80.12295735898323
 20
5.385213205083879
 30
0.0
 11
80.73774415389934
 21
5.999999999999993
 31
0.0
  0
LINE
  5
6F4
330
1F
100
AcDbEntity
  8
2
  6
CONTINUOUS
370
25
 62
7
100
AcDbLine
 10
80.05224668086457
 20
5.738766595677149
 30
0.0
 11
80.31348008518742
 21
6.0
 31
0.0
  0
LINE
  5
6F5
330
1F
100
AcDbEntity
  8
2
  6
CONTINUOUS
370
25
 62
7
100
AcDbLine
 10
80.93108768097241
 20
1.344561595137932
 30
0.0
 11
81.04594154601838
 21
1.229707730091953
 31
0.0
  0
LINE
  5
6F6
330
1F
100
AcDbEntity
  8
2
  6
CONTINUOUS
370
25
 62
7
100
AcDbLine
 10
80.82502166379443
 20
1.874891681027833
 30
0.0
 11
81.11665222413706
 21
1.583261120685215
 31
0.0
  0
LINE
  5
6F7
330
1F
100
AcDbEntity
  8
2
  6
CONTINUOUS
370
25
 62
7
100
AcDbLine
 10
80.71895564661645
 20
2.405221766917748
 30
0.0
 11
81.1873629022557
 21
1.936814511278499
 31
0.0
  0
LINE
  5
6F8
330
1F
100
AcDbEntity
  8
2
  6
CONTINUOUS
370
25
 62
7
100
AcDbLine
 10
80.61288962943846
 20
2.935551852807663
 30
0.0
 11
81.25807358037434
 21
2.290367901871775
 31
0.0
  0
LINE
  5
6F9
330
1F
100
AcDbEntity
  8
2
  6
CONTINUOUS
370
25
 62
7
100
AcDbLine
 10
80.50682361226049
 20
3.465881938697578
 30
0.0
 11
81.32878425849302
 21
2.643921292465045
 31
0.0
  0
LINE
  5
6FA
330
1F
100
AcDbEntity
  8
2
  6
CONTINUOUS
370
25
 62
7
100
AcDbLine
 10
80.4007575950825
 20
3.996212024587493
 30
0.0
 11
81.39949493661166
 21
2.997474683058321
 31
0.0
  0
LINE
  5
6FB
330
1F
100
AcDbEntity
  8
2
  6
CONTINUOUS
370
25
 62
7
100
AcDbLine
 10
80.29469157790452
 20
4.526542110477408
 30
0.0
 11
81.47020561473033
 21
3.351028073651598
 31
0.0
  0
LINE
  5
6FC
330
1F
100
AcDbEntity
  8
2
  6
CONTINUOUS
370
25
 62
7
100
AcDbLine
 10
80.18862556072654
 20
5.056872196367323
 30
0.0
 11
81.54091629284898
 21
3.704581464244882
 31
0.0
  0
LINE
  5
6FD
330
1F
100
AcDbEntity
  8
2
  6
CONTINUOUS
370
25
 62
7
100
AcDbLine
 10
80.08255954354856
 20
5.587202282257238
 30
0.0
 11
81.61162697096762
 21
4.058134854838165
 31
0.0
  0
LINE
  5
6FE
330
1F
100
AcDbEntity
  8
2
  6
CONTINUOUS
370
25
 62
7
100
AcDbLine
 10
80.09402589451773
 20
6.0
 30
0.0
 11
81.68233764908629
 21
4.411688245431435
 31
0.0
  0
LINE
  5
6FF
330
1F
100
AcDbEntity
  8
2
  6
CONTINUOUS
370
25
 62
7
100
AcDbLine
 10
80.51828996322966
 20
5.999999999999993
 30
0.0
 11
81.75304832720494
 21
4.765241636024712
 31
0.0
  0
LINE
  5
700
330
1F
100
AcDbEntity
  8
2
  6
CONTINUOUS
370
25
 62
7
100
AcDbLine
 10
80.9425540319416
 20
6.0
 30
0.0
 11
81.82375900532361
 21
5.118795026617988
 31
0.0
  0
LINE
  5
701
330
1F
100
AcDbEntity
  8
2
  6
CONTINUOUS
370
25
 62
7
100
AcDbLine
 10
81.36681810065352
 20
5.999999999999993
 30
0.0
 11
81.89446968344225
 21
5.472348417211265
 31
0.0
  0
LINE
  5
702
330
1F
100
AcDbEntity
  8
2
  6
CONTINUOUS
370
25
 62
7
100
AcDbLine
 10
81.79108216936544
 20
6.0
 30
0.0
 11
81.9651803615609
 21
5.825901807804541
 31
0.0
  0
TEXT
  5
703
330
1F
100
AcDbEntity
  8
2
  6
CONTINUOUS
370
25
 62
7
100
AcDbText
 10
79.5
 20
11.34583333333333
 30
0.0
 40
3.5
  1
2
 50
90.00000000000001
 72
     1
 11
79.5
 21
12.5125
 31
0.0
100
AcDbText
  0
CIRCLE
  5
704
330
1F
100
AcDbEntity
  8
2
  6
CONTINUOUS
370
25
 62
7
100
AcDbCircle
 10
77.75
 20
9.187499999999996
 30
0.0
 40
1.4
  0
LINE
  5
705
330
1F
100
AcDbEntity
  8
2
  6
CONTINUOUS
370
25
 62
7
100
AcDbLine
 10
79.15
 20
7.787499999999998
 30
0.0
 11
76.35
 21
10.5875
 31
0.0
  0
LINE
  5
706
330
1F
100
AcDbEntity
  8
2
  6
CONTINUOUS
370
25
 62
7
100
AcDbLine
 10
25.0
 20
1.0
 30
0.0
 11
25.0
 21
24.0
 31
0.0
  0
LINE
  5
707
330
1F
100
AcDbEntity
  8
2
  6
CONTINUOUS
370
25
 62
7
100
AcDbLine
 10
49.0
 20
24.0
 30
0.0
 11
49.0
 21
0.0
 31
0.0
  0
LINE
  5
708
330
1F
100
AcDbEntity
  8
2
  6
CONTINUOUS
370
25
 62
7
100
AcDbLine
 10
25.0
 20
23.0
 30
0.0
 11
49.0
 21
23.0
 31
0.0
  0
LINE
  5
709
330
1F
100
AcDbEntity
  8
2
  6
CONTINUOUS
370
25
 62
7
100
AcDbLine
 10
25.0
 20
23.0
 30
0.0
 11
30.0
 21
24.0
 31
0.0
  0
LINE
  5
70A
330
1F
100
AcDbEntity
  8
2
  6
CONTINUOUS
370
25
 62
7
100
AcDbLine
 10
30.0
 20
24.0
 30
0.0
 11
30.0
 21
22.0
 31
0.0
  0
LINE
  5
70B
330
1F
100
AcDbEntity
  8
2
  6
CONTINUOUS
370
25
 62
7
100
AcDbLine
 10
30.0
 20
22.0
 30
0.0
 11
25.0
 21
23.0
 31
0.0
  0
LINE
  5
70C
330
1F
100
AcDbEntity
  8
2
  6
CONTINUOUS
370
25
 62
7
100
AcDbLine
 10
29.67097765234248
 20
22.06580446953151
 30
0.0
 11
30.0
 21
22.39482681718903
 31
0.0
  0
LINE
  5
70D
330
1F
100
AcDbEntity
  8
2
  6
CONTINUOUS
370
25
 62
7
100
AcDbLine
 10
29.3174242617492
 20
22.13651514765016
 30
0.0
 11
30.0
 21
22.81909088590096
 31
0.0
  0
LINE
  5
70E
330
1F
100
AcDbEntity
  8
2
  6
CONTINUOUS
370
25
 62
7
100
AcDbLine
 10
28.96387087115593
 20
22.20722582576882
 30
0.0
 11
30.0
 21
23.24335495461289
 31
0.0
  0
LINE
  5
70F
330
1F
100
AcDbEntity
  8
2
  6
CONTINUOUS
370
25
 62
7
100
AcDbLine
 10
28.61031748056265
 20
22.27793650388747
 30
0.0
 11
30.0
 21
23.66761902332482
 31
0.0
  0
LINE
  5
710
330
1F
100
AcDbEntity
  8
2
  6
CONTINUOUS
370
25
 62
7
100
AcDbLine
 10
28.25676408996938
 20
22.34864718200613
 30
0.0
 11
29.88514613495407
 21
23.97702922699082
 31
0.0
  0
LINE
  5
711
330
1F
100
AcDbEntity
  8
2
  6
CONTINUOUS
370
25
 62
7
100
AcDbLine
 10
27.90321069937611
 20
22.41935786012478
 30
0.0
 11
29.35481604906416
 21
23.87096320981283
 31
0.0
  0
LINE
  5
712
330
1F
100
AcDbEntity
  8
2
  6
CONTINUOUS
370
25
 62
7
100
AcDbLine
 10
27.54965730878283
 20
22.49006853824343
 30
0.0
 11
28.82448596317425
 21
23.76489719263485
 31
0.0
  0
LINE
  5
713
330
1F
100
AcDbEntity
  8
2
  6
CONTINUOUS
370
25
 62
7
100
AcDbLine
 10
27.19610391818956
 20
22.56077921636209
 30
0.0
 11
28.29415587728434
 21
23.65883117545687
 31
0.0
  0
LINE
  5
714
330
1F
100
AcDbEntity
  8
2
  6
CONTINUOUS
370
25
 62
7
100
AcDbLine
 10
26.84255052759629
 20
22.63148989448074
 30
0.0
 11
27.76382579139443
 21
23.55276515827889
 31
0.0
  0
LINE
  5
715
330
1F
100
AcDbEntity
  8
2
  6
CONTINUOUS
370
25
 62
7
100
AcDbLine
 10
26.48899713700301
 20
22.7022005725994
 30
0.0
 11
27.23349570550452
 21
23.4466991411009
 31
0.0
  0
LINE
  5
716
330
1F
100
AcDbEntity
  8
2
  6
CONTINUOUS
370
25
 62
7
100
AcDbLine
 10
26.13544374640974
 20
22.77291125071805
 30
0.0
 11
26.70316561961461
 21
23.34063312392292
 31
0.0
  0
LINE
  5
717
330
1F
100
AcDbEntity
  8
2
  6
CONTINUOUS
370
25
 62
7
100
AcDbLine
 10
25.78189035581647
 20
22.84362192883671
 30
0.0
 11
26.1728355337247
 21
23.23456710674494
 31
0.0
  0
LINE
  5
718
330
1F
100
AcDbEntity
  8
2
  6
CONTINUOUS
370
25
 62
7
100
AcDbLine
 10
25.4283369652232
 20
22.91433260695536
 30
0.0
 11
25.64250544783479
 21
23.12850108956696
 31
0.0
  0
LINE
  5
719
330
1F
100
AcDbEntity
  8
2
  6
CONTINUOUS
370
25
 62
7
100
AcDbLine
 10
25.07478357462992
 20
22.98504328507402
 30
0.0
 11
25.11217536194488
 21
23.02243507238898
 31
0.0
  0
LINE
  5
71A
330
1F
100
AcDbEntity
  8
2
  6
CONTINUOUS
370
25
 62
7
100
AcDbLine
 10
25.27876981596336
 20
23.05575396319267
 30
0.0
 11
25.41815472394504
 21
22.91636905521099
 31
0.0
  0
LINE
  5
71B
330
1F
100
AcDbEntity
  8
2
  6
CONTINUOUS
370
25
 62
7
100
AcDbLine
 10
25.63232320655663
 20
23.12646464131133
 30
0.0
 11
25.94848480983495
 21
22.81030303803301
 31
0.0
  0
LINE
  5
71C
330
1F
100
AcDbEntity
  8
2
  6
CONTINUOUS
370
25
 62
7
100
AcDbLine
 10
25.98587659714991
 20
23.19717531942998
 30
0.0
 11
26.47881489572486
 21
22.70423702085503
 31
0.0
  0
LINE
  5
71D
330
1F
100
AcDbEntity
  8
2
  6
CONTINUOUS
370
25
 62
7
100
AcDbLine
 10
26.33942998774318
 20
23.26788599754864
 30
0.0
 11
27.00914498161477
 21
22.59817100367705
 31
0.0
  0
LINE
  5
71E
330
1F
100
AcDbEntity
  8
2
  6
CONTINUOUS
370
25
 62
7
100
AcDbLine
 10
26.69298337833645
 20
23.33859667566729
 30
0.0
 11
27.53947506750468
 21
22.49210498649906
 31
0.0
  0
LINE
  5
71F
330
1F
100
AcDbEntity
  8
2
  6
CONTINUOUS
370
25
 62
7
100
AcDbLine
 10
27.04653676892973
 20
23.40930735378594
 30
0.0
 11
28.06980515339459
 21
22.38603896932108
 31
0.0
  0
LINE
  5
720
330
1F
100
AcDbEntity
  8
2
  6
CONTINUOUS
370
25
 62
7
100
AcDbLine
 10
27.400090159523
 20
23.4800180319046
 30
0.0
 11
28.6001352392845
 21
22.2799729521431
 31
0.0
  0
LINE
  5
721
330
1F
100
AcDbEntity
  8
2
  6
CONTINUOUS
370
25
 62
7
100
AcDbLine
 10
27.75364355011627
 20
23.55072871002325
 30
0.0
 11
29.13046532517441
 21
22.17390693496512
 31
0.0
  0
LINE
  5
722
330
1F
100
AcDbEntity
  8
2
  6
CONTINUOUS
370
25
 62
7
100
AcDbLine
 10
28.10719694070955
 20
23.62143938814191
 30
0.0
 11
29.66079541106432
 21
22.06784091778713
 31
0.0
  0
LINE
  5
723
330
1F
100
AcDbEntity
  8
2
  6
CONTINUOUS
370
25
 62
7
100
AcDbLine
 10
28.46075033130282
 20
23.69215006626056
 30
0.0
 11
30.0
 21
22.15290039756339
 31
0.0
  0
LINE
  5
724
330
1F
100
AcDbEntity
  8
2
  6
CONTINUOUS
370
25
 62
7
100
AcDbLine
 10
28.8143037218961
 20
23.76286074437922
 30
0.0
 11
30.0
 21
22.57716446627531
 31
0.0
  0
LINE
  5
725
330
1F
100
AcDbEntity
  8
2
  6
CONTINUOUS
370
25
 62
7
100
AcDbLine
 10
29.16785711248937
 20
23.83357142249788
 30
0.0
 11
30.0
 21
23.00142853498724
 31
0.0
  0
LINE
  5
726
330
1F
100
AcDbEntity
  8
2
  6
CONTINUOUS
370
25
 62
7
100
AcDbLine
 10
29.52141050308264
 20
23.90428210061653
 30
0.0
 11
30.0
 21
23.42569260369917
 31
0.0
  0
LINE
  5
727
330
1F
100
AcDbEntity
  8
2
  6
CONTINUOUS
370
25
 62
7
100
AcDbLine
 10
29.87496389367591
 20
23.97499277873518
 30
0.0
 11
30.0
 21
23.8499566724111
 31
0.0
  0
LINE
  5
728
330
1F
100
AcDbEntity
  8
2
  6
CONTINUOUS
370
25
 62
7
100
AcDbLine
 10
49.0
 20
23.0
 30
0.0
 11
44.0
 21
22.0
 31
0.0
  0
LINE
  5
729
330
1F
100
AcDbEntity
  8
2
  6
CONTINUOUS
370
25
 62
7
100
AcDbLine
 10
44.0
 20
22.0
 30
0.0
 11
44.0
 21
24.0
 31
0.0
  0
LINE
  5
72A
330
1F
100
AcDbEntity
  8
2
  6
CONTINUOUS
370
25
 62
7
100
AcDbLine
 10
44.0
 20
24.0
 30
0.0
 11
49.0
 21
23.0
 31
0.0
  0
LINE
  5
72B
330
1F
100
AcDbEntity
  8
2
  6
CONTINUOUS
370
25
 62
7
100
AcDbLine
 10
48.63806213107176
 20
22.92761242621435
 30
0.0
 11
48.75870808738117
 21
23.04825838252377
 31
0.0
  0
LINE
  5
72C
330
1F
100
AcDbEntity
  8
2
  6
CONTINUOUS
370
25
 62
7
100
AcDbLine
 10
48.10773204518185
 20
22.82154640903637
 30
0.0
 11
48.4051546967879
 21
23.11896906064242
 31
0.0
  0
LINE
  5
72D
330
1F
100
AcDbEntity
  8
2
  6
CONTINUOUS
370
25
 62
7
100
AcDbLine
 10
47.57740195929193
 20
22.71548039185839
 30
0.0
 11
48.05160130619463
 21
23.18967973876108
 31
0.0
  0
LINE
  5
72E
330
1F
100
AcDbEntity
  8
2
  6
CONTINUOUS
370
25
 62
7
100
AcDbLine
 10
47.04707187340203
 20
22.60941437468041
 30
0.0
 11
47.69804791560135
 21
23.26039041687973
 31
0.0
  0
LINE
  5
72F
330
1F
100
AcDbEntity
  8
2
  6
CONTINUOUS
370
25
 62
7
100
AcDbLine
 10
46.51674178751212
 20
22.50334835750242
 30
0.0
 11
47.34449452500808
 21
23.33110109499838
 31
0.0
  0
LINE
  5
730
330
1F
100
AcDbEntity
  8
2
  6
CONTINUOUS
370
25
 62
7
100
AcDbLine
 10
45.98641170162221
 20
22.39728234032444
 30
0.0
 11
46.99094113441481
 21
23.40181177311704
 31
0.0
  0
LINE
  5
731
330
1F
100
AcDbEntity
  8
2
  6
CONTINUOUS
370
25
 62
7
100
AcDbLine
 10
45.4560816157323
 20
22.29121632314646
 30
0.0
 11
46.63738774382153
 21
23.47252245123569
 31
0.0
  0
LINE
  5
732
330
1F
100
AcDbEntity
  8
2
  6
CONTINUOUS
370
25
 62
7
100
AcDbLine
 10
44.92575152984239
 20
22.18515030596848
 30
0.0
 11
46.28383435322826
 21
23.54323312935435
 31
0.0
  0
LINE
  5
733
330
1F
100
AcDbEntity
  8
2
  6
CONTINUOUS
370
25
 62
7
100
AcDbLine
 10
44.39542144395248
 20
22.07908428879049
 30
0.0
 11
45.93028096263499
 21
23.613943807473
 31
0.0
  0
LINE
  5
734
330
1F
100
AcDbEntity
  8
2
  6
CONTINUOUS
370
25
 62
7
100
AcDbLine
 10
44.0
 20
22.10792691354994
 30
0.0
 11
45.57672757204172
 21
23.68465448559166
 31
0.0
  0
LINE
  5
735
330
1F
100
AcDbEntity
  8
2
  6
CONTINUOUS
370
25
 62
7
100
AcDbLine
 10
44.0
 20
22.53219098226187
 30
0.0
 11
45.22317418144844
 21
23.75536516371031
 31
0.0
  0
LINE
  5
736
330
1F
100
AcDbEntity
  8
2
  6
CONTINUOUS
370
25
 62
7
100
AcDbLine
 10
44.0
 20
22.9564550509738
 30
0.0
 11
44.86962079085517
 21
23.82607584182897
 31
0.0
  0
LINE
  5
737
330
1F
100
AcDbEntity
  8
2
  6
CONTINUOUS
370
25
 62
7
100
AcDbLine
 10
44.0
 20
23.38071911968573
 30
0.0
 11
44.5160674002619
 21
23.89678651994762
 31
0.0
  0
LINE
  5
738
330
1F
100
AcDbEntity
  8
2
  6
CONTINUOUS
370
25
 62
7
100
AcDbLine
 10
44.0
 20
23.80498318839765
 30
0.0
 11
44.16251400966863
 21
23.96749719806628
 31
0.0
  0
LINE
  5
739
330
1F
100
AcDbEntity
  8
2
  6
CONTINUOUS
370
25
 62
7
100
AcDbLine
 10
44.0
 20
22.15361466505706
 30
0.0
 11
44.12801222088088
 21
22.02560244417618
 31
0.0
  0
LINE
  5
73A
330
1F
100
AcDbEntity
  8
2
  6
CONTINUOUS
370
25
 62
7
100
AcDbLine
 10
44.0
 20
22.57787873376899
 30
0.0
 11
44.48156561147416
 21
22.09631312229483
 31
0.0
  0
LINE
  5
73B
330
1F
100
AcDbEntity
  8
2
  6
CONTINUOUS
370
25
 62
7
100
AcDbLine
 10
44.0
 20
23.00214280248091
 30
0.0
 11
44.83511900206743
 21
22.16702380041348
 31
0.0
  0
LINE
  5
73C
330
1F
100
AcDbEntity
  8
2
  6
CONTINUOUS
370
25
 62
7
100
AcDbLine
 10
44.0
 20
23.42640687119285
 30
0.0
 11
45.18867239266071
 21
22.23773447853214
 31
0.0
  0
LINE
  5
73D
330
1F
100
AcDbEntity
  8
2
  6
CONTINUOUS
370
25
 62
7
100
AcDbLine
 10
44.0
 20
23.85067093990477
 30
0.0
 11
45.54222578325398
 21
22.30844515665079
 31
0.0
  0
LINE
  5
73E
330
1F
100
AcDbEntity
  8
2
  6
CONTINUOUS
370
25
 62
7
100
AcDbLine
 10
44.34366876077087
 20
23.93126624784583
 30
0.0
 11
45.89577917384725
 21
22.37915583476945
 31
0.0
  0
LINE
  5
73F
330
1F
100
AcDbEntity
  8
2
  6
CONTINUOUS
370
25
 62
7
100
AcDbLine
 10
44.87399884666078
 20
23.82520023066785
 30
0.0
 11
46.24933256444052
 21
22.4498665128881
 31
0.0
  0
LINE
  5
740
330
1F
100
AcDbEntity
  8
2
  6
CONTINUOUS
370
25
 62
7
100
AcDbLine
 10
45.4043289325507
 20
23.71913421348986
 30
0.0
 11
46.6028859550338
 21
22.52057719100676
 31
0.0
  0
LINE
  5
741
330
1F
100
AcDbEntity
  8
2
  6
CONTINUOUS
370
25
 62
7
100
AcDbLine
 10
45.9346590184406
 20
23.61306819631188
 30
0.0
 11
46.95643934562707
 21
22.59128786912541
 31
0.0
  0
LINE
  5
742
330
1F
100
AcDbEntity
  8
2
  6
CONTINUOUS
370
25
 62
7
100
AcDbLine
 10
46.46498910433051
 20
23.5070021791339
 30
0.0
 11
47.30999273622035
 21
22.66199854724407
 31
0.0
  0
LINE
  5
743
330
1F
100
AcDbEntity
  8
2
  6
CONTINUOUS
370
25
 62
7
100
AcDbLine
 10
46.99531919022041
 20
23.40093616195592
 30
0.0
 11
47.66354612681361
 21
22.73270922536272
 31
0.0
  0
LINE
  5
744
330
1F
100
AcDbEntity
  8
2
  6
CONTINUOUS
370
25
 62
7
100
AcDbLine
 10
47.52564927611034
 20
23.29487014477793
 30
0.0
 11
48.01709951740689
 21
22.80341990348138
 31
0.0
  0
LINE
  5
745
330
1F
100
AcDbEntity
  8
2
  6
CONTINUOUS
370
25
 62
7
100
AcDbLine
 10
48.05597936200024
 20
23.18880412759995
 30
0.0
 11
48.37065290800016
 21
22.87413058160003
 31
0.0
  0
LINE
  5
746
330
1F
100
AcDbEntity
  8
2
  6
CONTINUOUS
370
25
 62
7
100
AcDbLine
 10
48.58630944789014
 20
23.08273811042197
 30
0.0
 11
48.72420629859344
 21
22.94484125971868
 31
0.0
  0
TEXT
  5
747
330
1F
100
AcDbEntity
  8
2
  6
CONTINUOUS
370
25
 62
7
100
AcDbText
 10
34.08333333333334
 20
24.5
 30
0.0
 40
3.5
  1
24
 72
     1
 11
37.0
 21
24.5
 31
0.0
100
AcDbText
  0
LINE
  5
748
330
1F
100
AcDbEntity
  8
2
  6
CONTINUOUS
370
25
 62
7
100
AcDbLine
 10
29.0
 20
-1.0
 30
0.0
 11
29.0
 21
-34.0
 31
0.0
  0
LINE
  5
749
330
1F
100
AcDbEntity
  8
2
  6
CONTINUOUS
370
25
 62
7
100
AcDbLine
 10
49.0
 20
-34.0
 30
0.0
 11
49.0
 21
0.0
 31
0.0
  0
LINE
  5
74A
330
1F
100
AcDbEntity
  8
2
  6
CONTINUOUS
370
25
 62
7
100
AcDbLine
 10
29.0
 20
-33.0
 30
0.0
 11
49.0
 21
-33.0
 31
0.0
  0
LINE
  5
74B
330
1F
100
AcDbEntity
  8
2
  6
CONTINUOUS
370
25
 62
7
100
AcDbLine
 10
29.0
 20
-33.0
 30
0.0
 11
34.0
 21
-32.0
 31
0.0
  0
LINE
  5
74C
330
1F
100
AcDbEntity
  8
2
  6
CONTINUOUS
370
25
 62
7
100
AcDbLine
 10
34.0
 20
-32.0
 30
0.0
 11
34.0
 21
-34.0
 31
0.0
  0
LINE
  5
74D
330
1F
100
AcDbEntity
  8
2
  6
CONTINUOUS
370
25
 62
7
100
AcDbLine
 10
34.0
 20
-34.0
 30
0.0
 11
29.0
 21
-33.0
 31
0.0
  0
LINE
  5
74E
330
1F
100
AcDbEntity
  8
2
  6
CONTINUOUS
370
25
 62
7
100
AcDbLine
 10
33.85802270494678
 20
-33.97160454098936
 30
0.0
 11
34.0
 21
-33.82962724593614
 31
0.0
  0
LINE
  5
74F
330
1F
100
AcDbEntity
  8
2
  6
CONTINUOUS
370
25
 62
7
100
AcDbLine
 10
33.50446931435351
 20
-33.9008938628707
 30
0.0
 11
34.0
 21
-33.40536317722422
 31
0.0
  0
LINE
  5
750
330
1F
100
AcDbEntity
  8
2
  6
CONTINUOUS
370
25
 62
7
100
AcDbLine
 10
33.15091592376023
 20
-33.83018318475204
 30
0.0
 11
34.0
 21
-32.98109910851228
 31
0.0
  0
LINE
  5
751
330
1F
100
AcDbEntity
  8
2
  6
CONTINUOUS
370
25
 62
7
100
AcDbLine
 10
32.79736253316696
 20
-33.75947250663339
 30
0.0
 11
34.0
 21
-32.55683503980036
 31
0.0
  0
LINE
  5
752
330
1F
100
AcDbEntity
  8
2
  6
CONTINUOUS
370
25
 62
7
100
AcDbLine
 10
32.44380914257368
 20
-33.68876182851474
 30
0.0
 11
34.0
 21
-32.13257097108843
 31
0.0
  0
LINE
  5
753
330
1F
100
AcDbEntity
  8
2
  6
CONTINUOUS
370
25
 62
7
100
AcDbLine
 10
32.0902557519804
 20
-33.61805115039608
 30
0.0
 11
33.63538362797062
 21
-32.07292327440587
 31
0.0
  0
LINE
  5
754
330
1F
100
AcDbEntity
  8
2
  6
CONTINUOUS
370
25
 62
7
100
AcDbLine
 10
31.73670236138713
 20
-33.54734047227743
 30
0.0
 11
33.10505354208071
 21
-32.17898929158385
 31
0.0
  0
LINE
  5
755
330
1F
100
AcDbEntity
  8
2
  6
CONTINUOUS
370
25
 62
7
100
AcDbLine
 10
31.38314897079385
 20
-33.47662979415878
 30
0.0
 11
32.5747234561908
 21
-32.28505530876184
 31
0.0
  0
LINE
  5
756
330
1F
100
AcDbEntity
  8
2
  6
CONTINUOUS
370
25
 62
7
100
AcDbLine
 10
31.02959558020058
 20
-33.40591911604012
 30
0.0
 11
32.04439337030089
 21
-32.39112132593982
 31
0.0
  0
LINE
  5
757
330
1F
100
AcDbEntity
  8
2
  6
CONTINUOUS
370
25
 62
7
100
AcDbLine
 10
30.6760421896073
 20
-33.33520843792147
 30
0.0
 11
31.51406328441097
 21
-32.4971873431178
 31
0.0
  0
LINE
  5
758
330
1F
100
AcDbEntity
  8
2
  6
CONTINUOUS
370
25
 62
7
100
AcDbLine
 10
30.32248879901403
 20
-33.26449775980281
 30
0.0
 11
30.98373319852106
 21
-32.60325336029578
 31
0.0
  0
LINE
  5
759
330
1F
100
AcDbEntity
  8
2
  6
CONTINUOUS
370
25
 62
7
100
AcDbLine
 10
29.96893540842075
 20
-33.19378708168415
 30
0.0
 11
30.45340311263114
 21
-32.70931937747377
 31
0.0
  0
LINE
  5
75A
330
1F
100
AcDbEntity
  8
2
  6
CONTINUOUS
370
25
 62
7
100
AcDbLine
 10
29.61538201782748
 20
-33.1230764035655
 30
0.0
 11
29.92307302674122
 21
-32.81538539465176
 31
0.0
  0
LINE
  5
75B
330
1F
100
AcDbEntity
  8
2
  6
CONTINUOUS
370
25
 62
7
100
AcDbLine
 10
29.2618286272342
 20
-33.05236572544685
 30
0.0
 11
29.39274294085131
 21
-32.92145141182974
 31
0.0
  0
LINE
  5
75C
330
1F
100
AcDbEntity
  8
2
  6
CONTINUOUS
370
25
 62
7
100
AcDbLine
 10
29.24248235844153
 20
-32.95150352831169
 30
0.0
 11
29.3637235376623
 21
-33.07274470753246
 31
0.0
  0
LINE
  5
75D
330
1F
100
AcDbEntity
  8
2
  6
CONTINUOUS
370
25
 62
7
100
AcDbLine
 10
29.5960357490348
 20
-32.88079285019304
 30
0.0
 11
29.89405362355221
 21
-33.17881072471044
 31
0.0
  0
LINE
  5
75E
330
1F
100
AcDbEntity
  8
2
  6
CONTINUOUS
370
25
 62
7
100
AcDbLine
 10
29.94958913962808
 20
-32.81008217207438
 30
0.0
 11
30.42438370944213
 21
-33.28487674188843
 31
0.0
  0
LINE
  5
75F
330
1F
100
AcDbEntity
  8
2
  6
CONTINUOUS
370
25
 62
7
100
AcDbLine
 10
30.30314253022135
 20
-32.73937149395573
 30
0.0
 11
30.95471379533204
 21
-33.39094275906641
 31
0.0
  0
LINE
  5
760
330
1F
100
AcDbEntity
  8
2
  6
CONTINUOUS
370
25
 62
7
100
AcDbLine
 10
30.65669592081463
 20
-32.66866081583707
 30
0.0
 11
31.48504388122196
 21
-33.49700877624439
 31
0.0
  0
LINE
  5
761
330
1F
100
AcDbEntity
  8
2
  6
CONTINUOUS
370
25
 62
7
100
AcDbLine
 10
31.0102493114079
 20
-32.59795013771841
 30
0.0
 11
32.01537396711187
 21
-33.60307479342238
 31
0.0
  0
LINE
  5
762
330
1F
100
AcDbEntity
  8
2
  6
CONTINUOUS
370
25
 62
7
100
AcDbLine
 10
31.36380270200118
 20
-32.52723945959976
 30
0.0
 11
32.54570405300178
 21
-33.70914081060036
 31
0.0
  0
LINE
  5
763
330
1F
100
AcDbEntity
  8
2
  6
CONTINUOUS
370
25
 62
7
100
AcDbLine
 10
31.71735609259445
 20
-32.4565287814811
 30
0.0
 11
33.0760341388917
 21
-33.81520682777834
 31
0.0
  0
LINE
  5
764
330
1F
100
AcDbEntity
  8
2
  6
CONTINUOUS
370
25
 62
7
100
AcDbLine
 10
32.07090948318773
 20
-32.38581810336245
 30
0.0
 11
33.60636422478161
 21
-33.92127284495633
 31
0.0
  0
LINE
  5
765
330
1F
100
AcDbEntity
  8
2
  6
CONTINUOUS
370
25
 62
7
100
AcDbLine
 10
32.424462873781
 20
-32.3151074252438
 30
0.0
 11
34.0
 21
-33.89064455146278
 31
0.0
  0
LINE
  5
766
330
1F
100
AcDbEntity
  8
2
  6
CONTINUOUS
370
25
 62
7
100
AcDbLine
 10
32.77801626437428
 20
-32.24439674712514
 30
0.0
 11
34.0
 21
-33.46638048275085
 31
0.0
  0
LINE
  5
767
330
1F
100
AcDbEntity
  8
2
  6
CONTINUOUS
370
25
 62
7
100
AcDbLine
 10
33.13156965496756
 20
-32.17368606900649
 30
0.0
 11
34.0
 21
-33.04211641403892
 31
0.0
  0
LINE
  5
768
330
1F
100
AcDbEntity
  8
2
  6
CONTINUOUS
370
25
 62
7
100
AcDbLine
 10
33.48512304556083
 20
-32.10297539088783
 30
0.0
 11
34.0
 21
-32.61785234532699
 31
0.0
  0
LINE
  5
769
330
1F
100
AcDbEntity
  8
2
  6
CONTINUOUS
370
25
 62
7
100
AcDbLine
 10
33.83867643615411
 20
-32.03226471276918
 30
0.0
 11
34.0
 21
-32.19358827661506
 31
0.0
  0
LINE
  5
76A
330
1F
100
AcDbEntity
  8
2
  6
CONTINUOUS
370
25
 62
7
100
AcDbLine
 10
49.0
 20
-33.0
 30
0.0
 11
44.0
 21
-34.0
 31
0.0
  0
LINE
  5
76B
330
1F
100
AcDbEntity
  8
2
  6
CONTINUOUS
370
25
 62
7
100
AcDbLine
 10
44.0
 20
-34.0
 30
0.0
 11
44.0
 21
-32.0
 31
0.0
  0
LINE
  5
76C
330
1F
100
AcDbEntity
  8
2
  6
CONTINUOUS
370
25
 62
7
100
AcDbLine
 10
44.0
 20
-32.0
 30
0.0
 11
49.0
 21
-33.0
 31
0.0
  0
LINE
  5
76D
330
1F
100
AcDbEntity
  8
2
  6
CONTINUOUS
370
25
 62
7
100
AcDbLine
 10
48.63449079360353
 20
-33.0731018412793
 30
0.0
 11
48.75632719573569
 21
-32.95126543914714
 31
0.0
  0
LINE
  5
76E
330
1F
100
AcDbEntity
  8
2
  6
CONTINUOUS
370
25
 62
7
100
AcDbLine
 10
48.1041607077136
 20
-33.17916785845728
 30
0.0
 11
48.4027738051424
 21
-32.88055476102848
 31
0.0
  0
LINE
  5
76F
330
1F
100
AcDbEntity
  8
2
  6
CONTINUOUS
370
25
 62
7
100
AcDbLine
 10
47.5738306218237
 20
-33.28523387563526
 30
0.0
 11
48.04922041454913
 21
-32.80984408290983
 31
0.0
  0
LINE
  5
770
330
1F
100
AcDbEntity
  8
2
  6
CONTINUOUS
370
25
 62
7
100
AcDbLine
 10
47.04350053593379
 20
-33.39129989281324
 30
0.0
 11
47.69566702395586
 21
-32.73913340479118
 31
0.0
  0
LINE
  5
771
330
1F
100
AcDbEntity
  8
2
  6
CONTINUOUS
370
25
 62
7
100
AcDbLine
 10
46.51317045004387
 20
-33.49736590999122
 30
0.0
 11
47.34211363336259
 21
-32.66842272667252
 31
0.0
  0
LINE
  5
772
330
1F
100
AcDbEntity
  8
2
  6
CONTINUOUS
370
25
 62
7
100
AcDbLine
 10
45.98284036415396
 20
-33.60343192716921
 30
0.0
 11
46.98856024276931
 21
-32.59771204855386
 31
0.0
  0
LINE
  5
773
330
1F
100
AcDbEntity
  8
2
  6
CONTINUOUS
370
25
 62
7
100
AcDbLine
 10
45.45251027826404
 20
-33.70949794434719
 30
0.0
 11
46.63500685217603
 21
-32.5270013704352
 31
0.0
  0
LINE
  5
774
330
1F
100
AcDbEntity
  8
2
  6
CONTINUOUS
370
25
 62
7
100
AcDbLine
 10
44.92218019237413
 20
-33.81556396152517
 30
0.0
 11
46.28145346158276
 21
-32.45629069231656
 31
0.0
  0
LINE
  5
775
330
1F
100
AcDbEntity
  8
2
  6
CONTINUOUS
370
25
 62
7
100
AcDbLine
 10
44.39185010648421
 20
-33.92162997870315
 30
0.0
 11
45.92790007098948
 21
-32.3855800141979
 31
0.0
  0
LINE
  5
776
330
1F
100
AcDbEntity
  8
2
  6
CONTINUOUS
370
25
 62
7
100
AcDbLine
 10
44.0
 20
-33.88921601647544
 30
0.0
 11
45.5743466803962
 21
-32.31486933607924
 31
0.0
  0
LINE
  5
777
330
1F
100
AcDbEntity
  8
2
  6
CONTINUOUS
370
25
 62
7
100
AcDbLine
 10
44.0
 20
-33.46495194776351
 30
0.0
 11
45.22079328980293
 21
-32.24415865796058
 31
0.0
  0
LINE
  5
778
330
1F
100
AcDbEntity
  8
2
  6
CONTINUOUS
370
25
 62
7
100
AcDbLine
 10
44.0
 20
-33.04068787905158
 30
0.0
 11
44.86723989920965
 21
-32.17344797984192
 31
0.0
  0
LINE
  5
779
330
1F
100
AcDbEntity
  8
2
  6
CONTINUOUS
370
25
 62
7
100
AcDbLine
 10
44.0
 20
-32.61642381033965
 30
0.0
 11
44.51368650861638
 21
-32.10273730172327
 31
0.0
  0
LINE
  5
77A
330
1F
100
AcDbEntity
  8
2
  6
CONTINUOUS
370
25
 62
7
100
AcDbLine
 10
44.0
 20
-32.19215974162773
 30
0.0
 11
44.1601331180231
 21
-32.03202662360462
 31
0.0
  0
LINE
  5
77B
330
1F
100
AcDbEntity
  8
2
  6
CONTINUOUS
370
25
 62
7
100
AcDbLine
 10
44.0
 20
-33.83105578092353
 30
0.0
 11
44.14078684923039
 21
-33.97184263015392
 31
0.0
  0
LINE
  5
77C
330
1F
100
AcDbEntity
  8
2
  6
CONTINUOUS
370
25
 62
7
100
AcDbLine
 10
44.0
 20
-33.4067917122116
 30
0.0
 11
44.49434023982366
 21
-33.90113195203526
 31
0.0
  0
LINE
  5
77D
330
1F
100
AcDbEntity
  8
2
  6
CONTINUOUS
370
25
 62
7
100
AcDbLine
 10
44.0
 20
-32.98252764349967
 30
0.0
 11
44.84789363041693
 21
-33.83042127391661
 31
0.0
  0
LINE
  5
77E
330
1F
100
AcDbEntity
  8
2
  6
CONTINUOUS
370
25
 62
7
100
AcDbLine
 10
44.0
 20
-32.55826357478774
 30
0.0
 11
45.20144702101021
 21
-33.75971059579796
 31
0.0
  0
LINE
  5
77F
330
1F
100
AcDbEntity
  8
2
  6
CONTINUOUS
370
25
 62
7
100
AcDbLine
 10
44.0
 20
-32.13399950607582
 30
0.0
 11
45.55500041160349
 21
-33.6889999176793
 31
0.0
  0
LINE
  5
780
330
1F
100
AcDbEntity
  8
2
  6
CONTINUOUS
370
25
 62
7
100
AcDbLine
 10
44.36283070329513
 20
-32.07256614065903
 30
0.0
 11
45.90855380219676
 21
-33.61828923956065
 31
0.0
  0
LINE
  5
781
330
1F
100
AcDbEntity
  8
2
  6
CONTINUOUS
370
25
 62
7
100
AcDbLine
 10
44.89316078918505
 20
-32.17863215783701
 30
0.0
 11
46.26210719279004
 21
-33.54757856144199
 31
0.0
  0
LINE
  5
782
330
1F
100
AcDbEntity
  8
2
  6
CONTINUOUS
370
25
 62
7
100
AcDbLine
 10
45.42349087507496
 20
-32.284698175015
 30
0.0
 11
46.61566058338332
 21
-33.47686788332334
 31
0.0
  0
LINE
  5
783
330
1F
100
AcDbEntity
  8
2
  6
CONTINUOUS
370
25
 62
7
100
AcDbLine
 10
45.95382096096488
 20
-32.39076419219298
 30
0.0
 11
46.96921397397659
 21
-33.40615720520468
 31
0.0
  0
LINE
  5
784
330
1F
100
AcDbEntity
  8
2
  6
CONTINUOUS
370
25
 62
7
100
AcDbLine
 10
46.48415104685479
 20
-32.49683020937096
 30
0.0
 11
47.32276736456986
 21
-33.33544652708602
 31
0.0
  0
LINE
  5
785
330
1F
100
AcDbEntity
  8
2
  6
CONTINUOUS
370
25
 62
7
100
AcDbLine
 10
47.0144811327447
 20
-32.60289622654894
 30
0.0
 11
47.67632075516313
 21
-33.26473584896737
 31
0.0
  0
LINE
  5
786
330
1F
100
AcDbEntity
  8
2
  6
CONTINUOUS
370
25
 62
7
100
AcDbLine
 10
47.54481121863462
 20
-32.70896224372692
 30
0.0
 11
48.02987414575642
 21
-33.19402517084872
 31
0.0
  0
LINE
  5
787
330
1F
100
AcDbEntity
  8
2
  6
CONTINUOUS
370
25
 62
7
100
AcDbLine
 10
48.07514130452454
 20
-32.81502826090491
 30
0.0
 11
48.38342753634969
 21
-33.12331449273006
 31
0.0
  0
LINE
  5
788
330
1F
100
AcDbEntity
  8
2
  6
CONTINUOUS
370
25
 62
7
100
AcDbLine
 10
48.60547139041445
 20
-32.92109427808289
 30
0.0
 11
48.73698092694296
 21
-33.0526038146114
 31
0.0
  0
TEXT
  5
789
330
1F
100
AcDbEntity
  8
2
  6
CONTINUOUS
370
25
 62
7
100
AcDbText
 10
36.375
 20
-31.5
 30
0.0
 40
3.5
  1
20
 72
     1
 11
39.0
 21
-31.5
 31
0.0
100
AcDbText
  0
LINE
  5
78A
330
1F
100
AcDbEntity
  8
SK2
  6
CONTINUOUS
370
25
 62
7
100
AcDbLine
 10
0.0
 20
2.0
 30
0.0
 11
0.0000000000000036
 21
34.0
 31
0.0
  0
LINE
  5
78B
330
1F
100
AcDbEntity
  8
SK2
  6
CONTINUOUS
370
25
 62
7
100
AcDbLine
 10
49.0
 20
34.0
 30
0.0
 11
49.0
 21
0.0
 31
0.0
  0
LINE
  5
78C
330
1F
100
AcDbEntity
  8
SK2
  6
CONTINUOUS
370
25
 62
7
100
AcDbLine
 10
0.0000000000000036
 20
33.0
 30
0.0
 11
49.0
 21
33.0
 31
0.0
  0
LINE
  5
78D
330
1F
100
AcDbEntity
  8
SK2
  6
CONTINUOUS
370
25
 62
7
100
AcDbLine
 10
0.0000000000000036
 20
33.0
 30
0.0
 11
5.000000000000004
 21
34.0
 31
0.0
  0
LINE
  5
78E
330
1F
100
AcDbEntity
  8
SK2
  6
CONTINUOUS
370
25
 62
7
100
AcDbLine
 10
5.000000000000004
 20
34.0
 30
0.0
 11
5.000000000000004
 21
32.0
 31
0.0
  0
LINE
  5
78F
330
1F
100
AcDbEntity
  8
SK2
  6
CONTINUOUS
370
25
 62
7
100
AcDbLine
 10
5.000000000000004
 20
32.0
 30
0.0
 11
0.0000000000000036
 21
33.0
 31
0.0
  0
LINE
  5
790
330
1F
100
AcDbEntity
  8
SK2
  6
CONTINUOUS
370
25
 62
7
100
AcDbLine
 10
4.84626629036066
 20
32.03074674192787
 30
0.0
 11
5.000000000000004
 21
32.18448045156721
 31
0.0
  0
LINE
  5
791
330
1F
100
AcDbEntity
  8
SK2
  6
CONTINUOUS
370
25
 62
7
100
AcDbLine
 10
4.492712899767383
 20
32.10145742004652
 30
0.0
 11
5.000000000000004
 21
32.60874452027915
 31
0.0
  0
LINE
  5
792
330
1F
100
AcDbEntity
  8
SK2
  6
CONTINUOUS
370
25
 62
7
100
AcDbLine
 10
4.139159509174107
 20
32.17216809816517
 30
0.0
 11
5.000000000000004
 21
33.03300858899108
 31
0.0
  0
LINE
  5
793
330
1F
100
AcDbEntity
  8
SK2
  6
CONTINUOUS
370
25
 62
7
100
AcDbLine
 10
3.78560611858083
 20
32.24287877628383
 30
0.0
 11
5.000000000000004
 21
33.45727265770301
 31
0.0
  0
LINE
  5
794
330
1F
100
AcDbEntity
  8
SK2
  6
CONTINUOUS
370
25
 62
7
100
AcDbLine
 10
3.432052727987561
 20
32.31358945440249
 30
0.0
 11
5.000000000000004
 21
33.88153672641494
 31
0.0
  0
LINE
  5
795
330
1F
100
AcDbEntity
  8
SK2
  6
CONTINUOUS
370
25
 62
7
100
AcDbLine
 10
3.07849933739428
 20
32.38430013252115
 30
0.0
 11
4.617749006091415
 21
33.92354980121829
 31
0.0
  0
LINE
  5
796
330
1F
100
AcDbEntity
  8
SK2
  6
CONTINUOUS
370
25
 62
7
100
AcDbLine
 10
2.724945946801011
 20
32.45501081063979
 30
0.0
 11
4.087418920201515
 21
33.81748378404031
 31
0.0
  0
LINE
  5
797
330
1F
100
AcDbEntity
  8
SK2
  6
CONTINUOUS
370
25
 62
7
100
AcDbLine
 10
2.371392556207734
 20
32.52572148875845
 30
0.0
 11
3.5570888343116
 21
33.71141776686233
 31
0.0
  0
LINE
  5
798
330
1F
100
AcDbEntity
  8
SK2
  6
CONTINUOUS
370
25
 62
7
100
AcDbLine
 10
2.017839165614461
 20
32.59643216687711
 30
0.0
 11
3.026758748421688
 21
33.60535174968434
 31
0.0
  0
LINE
  5
799
330
1F
100
AcDbEntity
  8
SK2
  6
CONTINUOUS
370
25
 62
7
100
AcDbLine
 10
1.664285775021185
 20
32.66714284499576
 30
0.0
 11
2.496428662531777
 21
33.49928573250636
 31
0.0
  0
LINE
  5
79A
330
1F
100
AcDbEntity
  8
SK2
  6
CONTINUOUS
370
25
 62
7
100
AcDbLine
 10
1.310732384427912
 20
32.73785352311441
 30
0.0
 11
1.966098576641869
 21
33.39321971532837
 31
0.0
  0
LINE
  5
79B
330
1F
100
AcDbEntity
  8
SK2
  6
CONTINUOUS
370
25
 62
7
100
AcDbLine
 10
0.9571789938346456
 20
32.80856420123307
 30
0.0
 11
1.435768490751965
 21
33.28715369815039
 31
0.0
  0
LINE
  5
79C
330
1F
100
AcDbEntity
  8
SK2
  6
CONTINUOUS
370
25
 62
7
100
AcDbLine
 10
0.6036256032413654
 20
32.87927487935173
 30
0.0
 11
0.9054384048620463
 21
33.18108768097241
 31
0.0
  0
LINE
  5
79D
330
1F
100
AcDbEntity
  8
SK2
  6
CONTINUOUS
370
25
 62
7
100
AcDbLine
 10
0.2500722126480923
 20
32.94998555747038
 30
0.0
 11
0.3751083189721385
 21
33.07502166379443
 31
0.0
  0
LINE
  5
79E
330
1F
100
AcDbEntity
  8
SK2
  6
CONTINUOUS
370
25
 62
7
100
AcDbLine
 10
0.0508477546054245
 20
33.01016955092109
 30
0.0
 11
0.0762716319081385
 21
32.98474567361838
 31
0.0
  0
LINE
  5
79F
330
1F
100
AcDbEntity
  8
SK2
  6
CONTINUOUS
370
25
 62
7
100
AcDbLine
 10
0.4044011451986975
 20
33.08088022903974
 30
0.0
 11
0.6066017177980498
 21
32.87867965644039
 31
0.0
  0
LINE
  5
7A0
330
1F
100
AcDbEntity
  8
SK2
  6
CONTINUOUS
370
25
 62
7
100
AcDbLine
 10
0.7579545357919741
 20
33.15159090715839
 30
0.0
 11
1.136931803687961
 21
32.7726136392624
 31
0.0
  0
LINE
  5
7A1
330
1F
100
AcDbEntity
  8
SK2
  6
CONTINUOUS
370
25
 62
7
100
AcDbLine
 10
1.111507926385247
 20
33.22230158527705
 30
0.0
 11
1.667261889577873
 21
32.66654762208442
 31
0.0
  0
LINE
  5
7A2
330
1F
100
AcDbEntity
  8
SK2
  6
CONTINUOUS
370
25
 62
7
100
AcDbLine
 10
1.465061316978524
 20
33.29301226339571
 30
0.0
 11
2.197591975467784
 21
32.56048160490644
 31
0.0
  0
LINE
  5
7A3
330
1F
100
AcDbEntity
  8
SK2
  6
CONTINUOUS
370
25
 62
7
100
AcDbLine
 10
1.818614707571797
 20
33.36372294151436
 30
0.0
 11
2.727922061357695
 21
32.45441558772846
 31
0.0
  0
LINE
  5
7A4
330
1F
100
AcDbEntity
  8
SK2
  6
CONTINUOUS
370
25
 62
7
100
AcDbLine
 10
2.17216809816507
 20
33.43443361963301
 30
0.0
 11
3.258252147247603
 21
32.34834957055048
 31
0.0
  0
LINE
  5
7A5
330
1F
100
AcDbEntity
  8
SK2
  6
CONTINUOUS
370
25
 62
7
100
AcDbLine
 10
2.525721488758343
 20
33.50514429775167
 30
0.0
 11
3.788582233137515
 21
32.24228355337249
 31
0.0
  0
LINE
  5
7A6
330
1F
100
AcDbEntity
  8
SK2
  6
CONTINUOUS
370
25
 62
7
100
AcDbLine
 10
2.87927487935162
 20
33.57585497587033
 30
0.0
 11
4.318912319027426
 21
32.13621753619451
 31
0.0
  0
LINE
  5
7A7
330
1F
100
AcDbEntity
  8
SK2
  6
CONTINUOUS
370
25
 62
7
100
AcDbLine
 10
3.232828269944896
 20
33.64656565398898
 30
0.0
 11
4.849242404917337
 21
32.03015151901653
 31
0.0
  0
LINE
  5
7A8
330
1F
100
AcDbEntity
  8
SK2
  6
CONTINUOUS
370
25
 62
7
100
AcDbLine
 10
3.586381660538169
 20
33.71727633210763
 30
0.0
 11
5.000000000000004
 21
32.3036579926458
 31
0.0
  0
LINE
  5
7A9
330
1F
100
AcDbEntity
  8
SK2
  6
CONTINUOUS
370
25
 62
7
100
AcDbLine
 10
3.939935051131442
 20
33.78798701022629
 30
0.0
 11
5.000000000000004
 21
32.72792206135772
 31
0.0
  0
LINE
  5
7AA
330
1F
100
AcDbEntity
  8
SK2
  6
CONTINUOUS
370
25
 62
7
100
AcDbLine
 10
4.293488441724715
 20
33.85869768834495
 30
0.0
 11
5.000000000000004
 21
33.15218613006965
 31
0.0
  0
LINE
  5
7AB
330
1F
100
AcDbEntity
  8
SK2
  6
CONTINUOUS
370
25
 62
7
100
AcDbLine
 10
4.647041832317989
 20
33.9294083664636
 30
0.0
 11
5.000000000000004
 21
33.57645019878158
 31
0.0
  0
LINE
  5
7AC
330
1F
100
AcDbEntity
  8
SK2
  6
CONTINUOUS
370
25
 62
7
100
AcDbLine
 10
49.0
 20
33.0
 30
0.0
 11
44.0
 21
32.0
 31
0.0
  0
LINE
  5
7AD
330
1F
100
AcDbEntity
  8
SK2
  6
CONTINUOUS
370
25
 62
7
100
AcDbLine
 10
44.0
 20
32.0
 30
0.0
 11
44.0
 21
34.0
 31
0.0
  0
LINE
  5
7AE
330
1F
100
AcDbEntity
  8
SK2
  6
CONTINUOUS
370
25
 62
7
100
AcDbLine
 10
44.0
 20
34.0
 30
0.0
 11
49.0
 21
33.0
 31
0.0
  0
LINE
  5
7AF
330
1F
100
AcDbEntity
  8
SK2
  6
CONTINUOUS
370
25
 62
7
100
AcDbLine
 10
48.58273811042195
 20
32.91654762208439
 30
0.0
 11
48.72182540694796
 21
33.05563491861041
 31
0.0
  0
LINE
  5
7B0
330
1F
100
AcDbEntity
  8
SK2
  6
CONTINUOUS
370
25
 62
7
100
AcDbLine
 10
48.05240802453204
 20
32.81048160490641
 30
0.0
 11
48.36827201635469
 21
33.12634559672906
 31
0.0
  0
LINE
  5
7B1
330
1F
100
AcDbEntity
  8
SK2
  6
CONTINUOUS
370
25
 62
7
100
AcDbLine
 10
47.52207793864213
 20
32.70441558772843
 30
0.0
 11
48.01471862576142
 21
33.19705627484771
 31
0.0
  0
LINE
  5
7B2
330
1F
100
AcDbEntity
  8
SK2
  6
CONTINUOUS
370
25
 62
7
100
AcDbLine
 10
46.99174785275221
 20
32.59834957055044
 30
0.0
 11
47.66116523516814
 21
33.26776695296637
 31
0.0
  0
LINE
  5
7B3
330
1F
100
AcDbEntity
  8
SK2
  6
CONTINUOUS
370
25
 62
7
100
AcDbLine
 10
46.46141776686231
 20
32.49228355337246
 30
0.0
 11
47.30761184457486
 21
33.33847763108503
 31
0.0
  0
LINE
  5
7B4
330
1F
100
AcDbEntity
  8
SK2
  6
CONTINUOUS
370
25
 62
7
100
AcDbLine
 10
45.9310876809724
 20
32.38621753619448
 30
0.0
 11
46.9540584539816
 21
33.40918830920369
 31
0.0
  0
LINE
  5
7B5
330
1F
100
AcDbEntity
  8
SK2
  6
CONTINUOUS
370
25
 62
7
100
AcDbLine
 10
45.40075759508249
 20
32.2801515190165
 30
0.0
 11
46.60050506338832
 21
33.47989898732233
 31
0.0
  0
LINE
  5
7B6
330
1F
100
AcDbEntity
  8
SK2
  6
CONTINUOUS
370
25
 62
7
100
AcDbLine
 10
44.87042750919258
 20
32.17408550183852
 30
0.0
 11
46.24695167279505
 21
33.55060966544099
 31
0.0
  0
LINE
  5
7B7
330
1F
100
AcDbEntity
  8
SK2
  6
CONTINUOUS
370
25
 62
7
100
AcDbLine
 10
44.34009742330267
 20
32.06801948466053
 30
0.0
 11
45.89339828220177
 21
33.62132034355965
 31
0.0
  0
LINE
  5
7B8
330
1F
100
AcDbEntity
  8
SK2
  6
CONTINUOUS
370
25
 62
7
100
AcDbLine
 10
44.0
 20
32.15218613006979
 30
0.0
 11
45.5398448916085
 21
33.6920310216783
 31
0.0
  0
LINE
  5
7B9
330
1F
100
AcDbEntity
  8
SK2
  6
CONTINUOUS
370
25
 62
7
100
AcDbLine
 10
44.0
 20
32.57645019878172
 30
0.0
 11
45.18629150101522
 21
33.76274169979695
 31
0.0
  0
LINE
  5
7BA
330
1F
100
AcDbEntity
  8
SK2
  6
CONTINUOUS
370
25
 62
7
100
AcDbLine
 10
44.0
 20
33.00071426749366
 30
0.0
 11
44.83273811042195
 21
33.83345237791561
 31
0.0
  0
LINE
  5
7BB
330
1F
100
AcDbEntity
  8
SK2
  6
CONTINUOUS
370
25
 62
7
100
AcDbLine
 10
44.0
 20
33.42497833620558
 30
0.0
 11
44.47918471982868
 21
33.90416305603426
 31
0.0
  0
LINE
  5
7BC
330
1F
100
AcDbEntity
  8
SK2
  6
CONTINUOUS
370
25
 62
7
100
AcDbLine
 10
44.0
 20
33.84924240491752
 30
0.0
 11
44.1256313292354
 21
33.97487373415292
 31
0.0
  0
LINE
  5
7BD
330
1F
100
AcDbEntity
  8
SK2
  6
CONTINUOUS
370
25
 62
7
100
AcDbLine
 10
44.0
 20
32.33595231414333
 30
0.0
 11
44.27996026178611
 21
32.05599205235722
 31
0.0
  0
LINE
  5
7BE
330
1F
100
AcDbEntity
  8
SK2
  6
CONTINUOUS
370
25
 62
7
100
AcDbLine
 10
44.0
 20
32.76021638285526
 30
0.0
 11
44.63351365237938
 21
32.12670273047588
 31
0.0
  0
LINE
  5
7BF
330
1F
100
AcDbEntity
  8
SK2
  6
CONTINUOUS
370
25
 62
7
100
AcDbLine
 10
44.0
 20
33.18448045156718
 30
0.0
 11
44.98706704297266
 21
32.19741340859453
 31
0.0
  0
LINE
  5
7C0
330
1F
100
AcDbEntity
  8
SK2
  6
CONTINUOUS
370
25
 62
7
100
AcDbLine
 10
44.0
 20
33.60874452027912
 30
0.0
 11
45.34062043356594
 21
32.26812408671319
 31
0.0
  0
LINE
  5
7C1
330
1F
100
AcDbEntity
  8
SK2
  6
CONTINUOUS
370
25
 62
7
100
AcDbLine
 10
44.04126073623881
 20
33.99174785275224
 30
0.0
 11
45.69417382415921
 21
32.33883476483184
 31
0.0
  0
LINE
  5
7C2
330
1F
100
AcDbEntity
  8
SK2
  6
CONTINUOUS
370
25
 62
7
100
AcDbLine
 10
44.57159082212873
 20
33.88568183557425
 30
0.0
 11
46.04772721475248
 21
32.40954544295049
 31
0.0
  0
LINE
  5
7C3
330
1F
100
AcDbEntity
  8
SK2
  6
CONTINUOUS
370
25
 62
7
100
AcDbLine
 10
45.10192090801863
 20
33.77961581839627
 30
0.0
 11
46.40128060534575
 21
32.48025612106915
 31
0.0
  0
LINE
  5
7C4
330
1F
100
AcDbEntity
  8
SK2
  6
CONTINUOUS
370
25
 62
7
100
AcDbLine
 10
45.63225099390856
 20
33.67354980121829
 30
0.0
 11
46.75483399593904
 21
32.5509667991878
 31
0.0
  0
LINE
  5
7C5
330
1F
100
AcDbEntity
  8
SK2
  6
CONTINUOUS
370
25
 62
7
100
AcDbLine
 10
46.16258107979846
 20
33.56748378404031
 30
0.0
 11
47.10838738653231
 21
32.62167747730646
 31
0.0
  0
LINE
  5
7C6
330
1F
100
AcDbEntity
  8
SK2
  6
CONTINUOUS
370
25
 62
7
100
AcDbLine
 10
46.69291116568837
 20
33.46141776686233
 30
0.0
 11
47.46194077712558
 21
32.69238815542511
 31
0.0
  0
LINE
  5
7C7
330
1F
100
AcDbEntity
  8
SK2
  6
CONTINUOUS
370
25
 62
7
100
AcDbLine
 10
47.22324125157829
 20
33.35535174968434
 30
0.0
 11
47.81549416771885
 21
32.76309883354376
 31
0.0
  0
LINE
  5
7C8
330
1F
100
AcDbEntity
  8
SK2
  6
CONTINUOUS
370
25
 62
7
100
AcDbLine
 10
47.7535713374682
 20
33.24928573250636
 30
0.0
 11
48.16904755831213
 21
32.83380951166242
 31
0.0
  0
LINE
  5
7C9
330
1F
100
AcDbEntity
  8
SK2
  6
CONTINUOUS
370
25
 62
7
100
AcDbLine
 10
48.2839014233581
 20
33.14321971532838
 30
0.0
 11
48.5226009489054
 21
32.90452018978108
 31
0.0
  0
LINE
  5
7CA
330
1F
100
AcDbEntity
  8
SK2
  6
CONTINUOUS
370
25
 62
7
100
AcDbLine
 10
48.81423150924801
 20
33.0371536981504
 30
0.0
 11
48.87615433949867
 21
32.97523086789974
 31
0.0
  0
TEXT
  5
7CB
330
1F
100
AcDbEntity
  8
SK2
  6
CONTINUOUS
370
25
 62
7
100
AcDbText
 10
21.58333333333334
 20
34.5
 30
0.0
 40
3.5
  1
49
 72
     1
 11
24.5
 21
34.5
 31
0.0
100
AcDbText
  0
LINE
  5
7CC
330
1F
100
AcDbEntity
  8
4
  6
LONGDASH_DASH
370
25
 62
2
100
AcDbLine
 10
25.0
 20
0.0
 30
0.0
 11
49.0
 21
0.0
 31
0.0
  0
LINE
  5
7CD
330
1F
100
AcDbEntity
  8
SK4
  6
LONGDASH_DASH
370
25
 62
2
100
AcDbLine
 10
-6.0
 20
0.0
 30
0.0
 11
55.0
 21
0.0
 31
0.0
  0
LINE
  5
7CE
330
1F
100
AcDbEntity
  8
2
  6
CONTINUOUS
370
25
 62
7
100
AcDbLine
 10
49.0
 20
0.0
 30
0.0
 11
59.5
 21
18.18653347947321
 31
0.0
  0
LINE
  5
7CF
330
1F
100
AcDbEntity
  8
2
  6
CONTINUOUS
370
25
 62
7
100
AcDbLine
 10
49.0
 20
0.0
 30
0.0
 11
59.5
 21
-18.18653347947321
 31
0.0
  0
ARC
  5
7D0
330
1F
100
AcDbEntity
  8
2
  6
CONTINUOUS
370
25
 62
7
100
AcDbCircle
 10
48.99999999999999
 20
0.0000000000000022
 30
0.0
 40
20.00000000000001
100
AcDbArc
 50
300.0000000000001
 51
59.99999999999991
  0
LINE
  5
7D1
330
1F
100
AcDbEntity
  8
2
  6
CONTINUOUS
370
25
 62
7
100
AcDbLine
 10
59.00000000000001
 20
17.32050807568877
 30
0.0
 11
63.58799626031877
 21
15.09558328700466
 31
0.0
  0
LINE
  5
7D2
330
1F
100
AcDbEntity
  8
2
  6
CONTINUOUS
370
25
 62
7
100
AcDbLine
 10
63.58799626031877
 20
15.09558328700466
 30
0.0
 11
62.37933316772344
 21
13.50211740139622
 31
0.0
  0
LINE
  5
7D3
330
1F
100
AcDbEntity
  8
2
  6
CONTINUOUS
370
25
 62
7
100
AcDbLine
 10
62.37933316772344
 20
13.50211740139622
 30
0.0
 11
59.00000000000001
 21
17.32050807568877
 31
0.0
  0
LINE
  5
7D4
330
1F
100
AcDbEntity
  8
2
  6
CONTINUOUS
370
25
 62
7
100
AcDbLine
 10
62.1899796351852
 20
13.71607255967837
 30
0.0
 11
63.5755339127702
 21
15.10162683726337
 31
0.0
  0
LINE
  5
7D5
330
1F
100
AcDbEntity
  8
2
  6
CONTINUOUS
370
25
 62
7
100
AcDbLine
 10
61.9907875474168
 20
13.94114454062191
 30
0.0
 11
63.28982357697777
 21
15.24018057018287
 31
0.0
  0
LINE
  5
7D6
330
1F
100
AcDbEntity
  8
2
  6
CONTINUOUS
370
25
 62
7
100
AcDbLine
 10
61.79159545964841
 20
14.16621652156545
 30
0.0
 11
63.00411324118533
 21
15.37873430310237
 31
0.0
  0
LINE
  5
7D7
330
1F
100
AcDbEntity
  8
2
  6
CONTINUOUS
370
25
 62
7
100
AcDbLine
 10
61.59240337188
 20
14.39128850250897
 30
0.0
 11
62.71840290539289
 21
15.51728803602186
 31
0.0
  0
LINE
  5
7D8
330
1F
100
AcDbEntity
  8
2
  6
CONTINUOUS
370
25
 62
7
100
AcDbLine
 10
61.39321128411161
 20
14.6163604834525
 30
0.0
 11
62.43269256960046
 21
15.65584176894135
 31
0.0
  0
LINE
  5
7D9
330
1F
100
AcDbEntity
  8
2
  6
CONTINUOUS
370
25
 62
7
100
AcDbLine
 10
61.19401919634322
 20
14.84143246439605
 30
0.0
 11
62.14698223380802
 21
15.79439550186085
 31
0.0
  0
LINE
  5
7DA
330
1F
100
AcDbEntity
  8
2
  6
CONTINUOUS
370
25
 62
7
100
AcDbLine
 10
60.99482710857482
 20
15.06650444533958
 30
0.0
 11
61.86127189801559
 21
15.93294923478035
 31
0.0
  0
LINE
  5
7DB
330
1F
100
AcDbEntity
  8
2
  6
CONTINUOUS
370
25
 62
7
100
AcDbLine
 10
60.79563502080643
 20
15.29157642628311
 30
0.0
 11
61.57556156222316
 21
16.07150296769984
 31
0.0
  0
LINE
  5
7DC
330
1F
100
AcDbEntity
  8
2
  6
CONTINUOUS
370
25
 62
7
100
AcDbLine
 10
60.59644293303803
 20
15.51664840722665
 30
0.0
 11
61.28985122643072
 21
16.21005670061933
 31
0.0
  0
LINE
  5
7DD
330
1F
100
AcDbEntity
  8
2
  6
CONTINUOUS
370
25
 62
7
100
AcDbLine
 10
60.39725084526963
 20
15.74172038817017
 30
0.0
 11
61.00414089063828
 21
16.34861043353882
 31
0.0
  0
LINE
  5
7DE
330
1F
100
AcDbEntity
  8
2
  6
CONTINUOUS
370
25
 62
7
100
AcDbLine
 10
60.19805875750124
 20
15.96679236911371
 30
0.0
 11
60.71843055484585
 21
16.48716416645832
 31
0.0
  0
LINE
  5
7DF
330
1F
100
AcDbEntity
  8
2
  6
CONTINUOUS
370
25
 62
7
100
AcDbLine
 10
59.99886666973285
 20
16.19186435005724
 30
0.0
 11
60.43272021905342
 21
16.62571789937781
 31
0.0
  0
LINE
  5
7E0
330
1F
100
AcDbEntity
  8
2
  6
CONTINUOUS
370
25
 62
7
100
AcDbLine
 10
59.79967458196445
 20
16.41693633100078
 30
0.0
 11
60.14700988326098
 21
16.76427163229731
 31
0.0
  0
LINE
  5
7E1
330
1F
100
AcDbEntity
  8
2
  6
CONTINUOUS
370
25
 62
7
100
AcDbLine
 10
59.60048249419606
 20
16.64200831194432
 30
0.0
 11
59.86129954746855
 21
16.90282536521681
 31
0.0
  0
LINE
  5
7E2
330
1F
100
AcDbEntity
  8
2
  6
CONTINUOUS
370
25
 62
7
100
AcDbLine
 10
59.40129040642766
 20
16.86708029288784
 30
0.0
 11
59.57558921167611
 21
17.0413790981363
 31
0.0
  0
LINE
  5
7E3
330
1F
100
AcDbEntity
  8
2
  6
CONTINUOUS
370
25
 62
7
100
AcDbLine
 10
59.20209831865927
 20
17.09215227383139
 30
0.0
 11
59.28987887588368
 21
17.17993283105579
 31
0.0
  0
LINE
  5
7E4
330
1F
100
AcDbEntity
  8
2
  6
CONTINUOUS
370
25
 62
7
100
AcDbLine
 10
59.00290623089087
 20
17.31722425477492
 30
0.0
 11
59.00416854009124
 21
17.31848656397529
 31
0.0
  0
LINE
  5
7E5
330
1F
100
AcDbEntity
  8
2
  6
CONTINUOUS
370
25
 62
7
100
AcDbLine
 10
62.14660014085011
 20
13.76508810458133
 30
0.0
 11
62.39237580910368
 21
13.51931243632776
 31
0.0
  0
LINE
  5
7E6
330
1F
100
AcDbEntity
  8
2
  6
CONTINUOUS
370
25
 62
7
100
AcDbLine
 10
59.02998559676409
 20
17.30596671737927
 30
0.0
 11
62.57537677920719
 21
13.76057553493619
 31
0.0
  0
LINE
  5
7E7
330
1F
100
AcDbEntity
  8
2
  6
CONTINUOUS
370
25
 62
7
100
AcDbLine
 10
59.85371098298417
 20
16.90650539987112
 30
0.0
 11
62.7583777493107
 21
14.0018386335446
 31
0.0
  0
LINE
  5
7E8
330
1F
100
AcDbEntity
  8
2
  6
CONTINUOUS
370
25
 62
7
100
AcDbLine
 10
60.67743636920429
 20
16.50704408236294
 30
0.0
 11
62.94137871941421
 21
14.24310173215303
 31
0.0
  0
LINE
  5
7E9
330
1F
100
AcDbEntity
  8
2
  6
CONTINUOUS
370
25
 62
7
100
AcDbLine
 10
61.50116175542439
 20
16.10758276485477
 30
0.0
 11
63.12437968951772
 21
14.48436483076145
 31
0.0
  0
LINE
  5
7EA
330
1F
100
AcDbEntity
  8
2
  6
CONTINUOUS
370
25
 62
7
100
AcDbLine
 10
62.32488714164449
 20
15.7081214473466
 30
0.0
 11
63.30738065962122
 21
14.72562792936988
 31
0.0
  0
LINE
  5
7EB
330
1F
100
AcDbEntity
  8
2
  6
CONTINUOUS
370
25
 62
7
100
AcDbLine
 10
63.14861252786461
 20
15.30866012983842
 30
0.0
 11
63.49038162972473
 21
14.9668910279783
 31
0.0
  0
LINE
  5
7EC
330
1F
100
AcDbEntity
  8
2
  6
CONTINUOUS
370
25
 62
7
100
AcDbLine
 10
59.0
 20
-17.32050807568877
 30
0.0
 11
62.37933316772344
 21
-13.50211740139622
 31
0.0
  0
LINE
  5
7ED
330
1F
100
AcDbEntity
  8
2
  6
CONTINUOUS
370
25
 62
7
100
AcDbLine
 10
62.37933316772344
 20
-13.50211740139622
 30
0.0
 11
63.58799626031877
 21
-15.09558328700466
 31
0.0
  0
LINE
  5
7EE
330
1F
100
AcDbEntity
  8
2
  6
CONTINUOUS
370
25
 62
7
100
AcDbLine
 10
63.58799626031877
 20
-15.09558328700466
 30
0.0
 11
59.0
 21
-17.32050807568877
 31
0.0
  0
LINE
  5
7EF
330
1F
100
AcDbEntity
  8
2
  6
CONTINUOUS
370
25
 62
7
100
AcDbLine
 10
62.84200505733878
 20
-15.4573478189433
 30
0.0
 11
63.4222649181533
 21
-14.87708795812878
 31
0.0
  0
LINE
  5
7F0
330
1F
100
AcDbEntity
  8
2
  6
CONTINUOUS
370
25
 62
7
100
AcDbLine
 10
62.01827967111869
 20
-15.85680913645147
 30
0.0
 11
63.2392639480498
 21
-14.63582485952035
 31
0.0
  0
LINE
  5
7F1
330
1F
100
AcDbEntity
  8
2
  6
CONTINUOUS
370
25
 62
7
100
AcDbLine
 10
61.19455428489859
 20
-16.25627045395964
 30
0.0
 11
63.0562629779463
 21
-14.39456176091193
 31
0.0
  0
LINE
  5
7F2
330
1F
100
AcDbEntity
  8
2
  6
CONTINUOUS
370
25
 62
7
100
AcDbLine
 10
60.37082889867848
 20
-16.65573177146781
 30
0.0
 11
62.87326200784278
 21
-14.15329866230351
 31
0.0
  0
LINE
  5
7F3
330
1F
100
AcDbEntity
  8
2
  6
CONTINUOUS
370
25
 62
7
100
AcDbLine
 10
59.54710351245838
 20
-17.05519308897598
 30
0.0
 11
62.69026103773928
 21
-13.91203556369508
 31
0.0
  0
LINE
  5
7F4
330
1F
100
AcDbEntity
  8
2
  6
CONTINUOUS
370
25
 62
7
100
AcDbLine
 10
60.09660425054076
 20
-16.08142828218168
 30
0.0
 11
62.50726006763577
 21
-13.67077246508667
 31
0.0
  0
LINE
  5
7F5
330
1F
100
AcDbEntity
  8
2
  6
CONTINUOUS
370
25
 62
7
100
AcDbLine
 10
59.136657825703
 20
-17.16609507722585
 30
0.0
 11
59.196014579232
 21
-17.22545183075486
 31
0.0
  0
LINE
  5
7F6
330
1F
100
AcDbEntity
  8
2
  6
CONTINUOUS
370
25
 62
7
100
AcDbLine
 10
59.33584991347138
 20
-16.94102309628231
 30
0.0
 11
59.48172491502443
 21
-17.08689809783536
 31
0.0
  0
LINE
  5
7F7
330
1F
100
AcDbEntity
  8
2
  6
CONTINUOUS
370
25
 62
7
100
AcDbLine
 10
59.53504200123978
 20
-16.71595111533878
 30
0.0
 11
59.76743525081687
 21
-16.94834436491586
 31
0.0
  0
LINE
  5
7F8
330
1F
100
AcDbEntity
  8
2
  6
CONTINUOUS
370
25
 62
7
100
AcDbLine
 10
59.73423408900817
 20
-16.49087913439524
 30
0.0
 11
60.0531455866093
 21
-16.80979063199637
 31
0.0
  0
LINE
  5
7F9
330
1F
100
AcDbEntity
  8
2
  6
CONTINUOUS
370
25
 62
7
100
AcDbLine
 10
59.93342617677657
 20
-16.26580715345171
 30
0.0
 11
60.33885592240173
 21
-16.67123689907687
 31
0.0
  0
LINE
  5
7FA
330
1F
100
AcDbEntity
  8
2
  6
CONTINUOUS
370
25
 62
7
100
AcDbLine
 10
60.13261826454497
 20
-16.04073517250818
 30
0.0
 11
60.62456625819417
 21
-16.53268316615738
 31
0.0
  0
LINE
  5
7FB
330
1F
100
AcDbEntity
  8
2
  6
CONTINUOUS
370
25
 62
7
100
AcDbLine
 10
60.33181035231336
 20
-15.81566319156464
 30
0.0
 11
60.91027659398661
 21
-16.39412943323789
 31
0.0
  0
LINE
  5
7FC
330
1F
100
AcDbEntity
  8
2
  6
CONTINUOUS
370
25
 62
7
100
AcDbLine
 10
60.53100244008176
 20
-15.59059121062111
 30
0.0
 11
61.19598692977904
 21
-16.25557570031839
 31
0.0
  0
LINE
  5
7FD
330
1F
100
AcDbEntity
  8
2
  6
CONTINUOUS
370
25
 62
7
100
AcDbLine
 10
60.73019452785015
 20
-15.36551922967757
 30
0.0
 11
61.48169726557147
 21
-16.11702196739889
 31
0.0
  0
LINE
  5
7FE
330
1F
100
AcDbEntity
  8
2
  6
CONTINUOUS
370
25
 62
7
100
AcDbLine
 10
60.92938661561854
 20
-15.14044724873403
 30
0.0
 11
61.76740760136391
 21
-15.9784682344794
 31
0.0
  0
LINE
  5
7FF
330
1F
100
AcDbEntity
  8
2
  6
CONTINUOUS
370
25
 62
7
100
AcDbLine
 10
61.12857870338694
 20
-14.91537526779051
 30
0.0
 11
62.05311793715634
 21
-15.8399145015599
 31
0.0
  0
LINE
  5
800
330
1F
100
AcDbEntity
  8
2
  6
CONTINUOUS
370
25
 62
7
100
AcDbLine
 10
61.32777079115533
 20
-14.69030328684697
 30
0.0
 11
62.33882827294877
 21
-15.70136076864041
 31
0.0
  0
LINE
  5
801
330
1F
100
AcDbEntity
  8
2
  6
CONTINUOUS
370
25
 62
7
100
AcDbLine
 10
61.52696287892373
 20
-14.46523130590344
 30
0.0
 11
62.62453860874121
 21
-15.56280703572092
 31
0.0
  0
LINE
  5
802
330
1F
100
AcDbEntity
  8
2
  6
CONTINUOUS
370
25
 62
7
100
AcDbLine
 10
61.72615496669212
 20
-14.2401593249599
 30
0.0
 11
62.91024894453364
 21
-15.42425330280141
 31
0.0
  0
LINE
  5
803
330
1F
100
AcDbEntity
  8
2
  6
CONTINUOUS
370
25
 62
7
100
AcDbLine
 10
61.92534705446052
 20
-14.01508734401637
 30
0.0
 11
63.19595928032609
 21
-15.28569956988192
 31
0.0
  0
LINE
  5
804
330
1F
100
AcDbEntity
  8
2
  6
CONTINUOUS
370
25
 62
7
100
AcDbLine
 10
62.12453914222891
 20
-13.79001536307283
 30
0.0
 11
63.48166961611852
 21
-15.14714583696242
 31
0.0
  0
LINE
  5
805
330
1F
100
AcDbEntity
  8
2
  6
CONTINUOUS
370
25
 62
7
100
AcDbLine
 10
62.32373122999731
 20
-13.5649433821293
 30
0.0
 11
62.75131449627279
 21
-13.99252664840477
 31
0.0
  0
TEXT
  5
806
330
1F
100
AcDbEntity
  8
2
  6
CONTINUOUS
370
25
 62
7
100
AcDbText
 10
66.5
 20
-4.958333333333333
 30
0.0
 40
3.5
  1
120°
 50
90.0
 72
     1
 11
66.5
 21
0.0
 31
0.0
100
AcDbText
  0
LINE
  5
807
330
1F
100
AcDbEntity
  8
SK1
  6
CONTINUOUS
370
50
 62
4
100
AcDbLine
 10
25.0
 20
0.0
 30
0.0
 11
27.625
 21
0.0
 31
0.0
  0
LINE
  5
808
330
1F
100
AcDbEntity
  8
SK1
  6
CONTINUOUS
370
50
 62
4
100
AcDbLine
 10
25.0
 20
0.0
 30
0.0
 11
25.0
 21
2.625
 31
0.0
  0
ARC
  5
809
330
1F
100
AcDbEntity
  8
SK1
  6
CONTINUOUS
370
50
 62
4
100
AcDbCircle
 10
25.0
 20
0.0
 30
0.0
 40
2.625
100
AcDbArc
 50
0.0
 51
90.0
  0
LINE
  5
80A
330
1F
100
AcDbEntity
  8
SK1
  6
CONTINUOUS
370
50
 62
4
100
AcDbLine
 10
25.0
 20
0.0
 30
0.0
 11
22.375
 21
0.0
 31
0.0
  0
ARC
  5
80B
330
1F
100
AcDbEntity
  8
SK1
  6
CONTINUOUS
370
50
 62
4
100
AcDbCircle
 10
25.0
 20
0.0
 30
0.0
 40
2.625
100
AcDbArc
 50
180.0
 51
270.0
  0
LINE
  5
80C
330
1F
100
AcDbEntity
  8
SK1
  6
CONTINUOUS
370
50
 62
4
100
AcDbLine
 10
25.0
 20
-2.625
 30
0.0
 11
25.0
 21
0.0
 31
0.0
  0
ARC
  5
80D
330
1F
100
AcDbEntity
  8
SK1
  6
CONTINUOUS
370
50
 62
4
100
AcDbCircle
 10
25.0
 20
0.0
 30
0.0
 40
2.625
100
AcDbArc
 50
270.0
 51
0.0
  0
ARC
  5
80E
330
1F
100
AcDbEntity
  8
SK1
  6
CONTINUOUS
370
50
 62
4
100
AcDbCircle
 10
25.0
 20
0.0
 30
0.0
 40
2.625
100
AcDbArc
 50
90.0
 51
180.0
  0
LINE
  5
80F
330
1F
100
AcDbEntity
  8
SK1
  6
CONTINUOUS
370
50
 62
4
100
AcDbLine
 10
24.66575722192681
 20
-2.60347067499975
 30
0.0
 11
25.0
 21
-2.269227896926564
 31
0.0
  0
LINE
  5
810
330
1F
100
AcDbEntity
  8
SK1
  6
CONTINUOUS
370
50
 62
4
100
AcDbLine
 10
27.26922789692657
 20
0.0
 30
0.0
 11
27.60347067499975
 21
0.3342427780731851
 31
0.0
  0
LINE
  5
811
330
1F
100
AcDbEntity
  8
SK1
  6
CONTINUOUS
370
50
 62
4
100
AcDbLine
 10
24.35395391214687
 20
-2.544042924656761
 30
0.0
 11
25.0
 21
-1.897996836803626
 31
0.0
  0
LINE
  5
812
330
1F
100
AcDbEntity
  8
SK1
  6
CONTINUOUS
370
50
 62
4
100
AcDbLine
 10
26.89799683680363
 20
0.0
 30
0.0
 11
27.54404292465676
 21
0.6460460878531347
 31
0.0
  0
LINE
  5
813
330
1F
100
AcDbEntity
  8
SK1
  6
CONTINUOUS
370
50
 62
4
100
AcDbLine
 10
24.07222348891575
 20
-2.454542287764935
 30
0.0
 11
25.0
 21
-1.526765776680689
 31
0.0
  0
LINE
  5
814
330
1F
100
AcDbEntity
  8
SK1
  6
CONTINUOUS
370
50
 62
4
100
AcDbLine
 10
26.52676577668069
 20
0.0
 30
0.0
 11
27.45454228776493
 21
0.9277765110842457
 31
0.0
  0
LINE
  5
815
330
1F
100
AcDbEntity
  8
SK1
  6
CONTINUOUS
370
50
 62
4
100
AcDbLine
 10
23.81478120678253
 20
-2.340753509775221
 30
0.0
 11
25.0
 21
-1.155534716557751
 31
0.0
  0
LINE
  5
816
330
1F
100
AcDbEntity
  8
SK1
  6
CONTINUOUS
370
50
 62
4
100
AcDbLine
 10
26.15553471655775
 20
0.0
 30
0.0
 11
27.34075350977522
 21
1.185218793217471
 31
0.0
  0
LINE
  5
817
330
1F
100
AcDbEntity
  8
SK1
  6
CONTINUOUS
370
50
 62
4
100
AcDbLine
 10
23.57826543845547
 20
-2.206038217979337
 30
0.0
 11
25.0
 21
-0.7843036564348136
 31
0.0
  0
LINE
  5
818
330
1F
100
AcDbEntity
  8
SK1
  6
CONTINUOUS
370
50
 62
4
100
AcDbLine
 10
25.78430365643482
 20
0.0
 30
0.0
 11
27.20603821797934
 21
1.421734561544524
 31
0.0
  0
LINE
  5
819
330
1F
100
AcDbEntity
  8
SK1
  6
CONTINUOUS
370
50
 62
4
100
AcDbLine
 10
23.3626431117109
 20
-2.050429484600978
 30
0.0
 11
25.0
 21
-0.413072596311876
 31
0.0
  0
LINE
  5
81A
330
1F
100
AcDbEntity
  8
SK1
  6
CONTINUOUS
370
50
 62
4
100
AcDbLine
 10
25.41307259631188
 20
0.0
 30
0.0
 11
27.05042948460098
 21
1.637356888289101
 31
0.0
  0
LINE
  5
81B
330
1F
100
AcDbEntity
  8
SK1
  6
CONTINUOUS
370
50
 62
4
100
AcDbLine
 10
23.16568136807246
 20
-1.876160168116476
 30
0.0
 11
25.0
 21
-0.0418415361889384
 31
0.0
  0
LINE
  5
81C
330
1F
100
AcDbEntity
  8
SK1
  6
CONTINUOUS
370
50
 62
4
100
AcDbLine
 10
25.04184153618894
 20
0.0
 30
0.0
 11
26.87616016811647
 21
1.834318631927537
 31
0.0
  0
LINE
  5
81D
330
1F
100
AcDbEntity
  8
SK1
  6
CONTINUOUS
370
50
 62
4
100
AcDbLine
 10
22.98675942477632
 20
-1.683851051289679
 30
0.0
 11
24.670610476066
 21
0.0
 31
0.0
  0
LINE
  5
81E
330
1F
100
AcDbEntity
  8
SK1
  6
CONTINUOUS
370
50
 62
4
100
AcDbLine
 10
25.0
 20
0.3293895239339992
 30
0.0
 11
26.68385105128968
 21
2.013240575223679
 31
0.0
  0
LINE
  5
81F
330
1F
100
AcDbEntity
  8
SK1
  6
CONTINUOUS
370
50
 62
4
100
AcDbLine
 10
22.82782161830506
 20
-1.471557797638
 30
0.0
 11
24.29937941594306
 21
0.0
 31
0.0
  0
LINE
  5
820
330
1F
100
AcDbEntity
  8
SK1
  6
CONTINUOUS
370
50
 62
4
100
AcDbLine
 10
25.0
 20
0.7006205840569368
 30
0.0
 11
26.471557797638
 21
2.172178381694937
 31
0.0
  0
LINE
  5
821
330
1F
100
AcDbEntity
  8
SK1
  6
CONTINUOUS
370
50
 62
4
100
AcDbLine
 10
22.68749288718529
 20
-1.240655468634837
 30
0.0
 11
23.92814835582013
 21
0.0
 31
0.0
  0
LINE
  5
822
330
1F
100
AcDbEntity
  8
SK1
  6
CONTINUOUS
370
50
 62
4
100
AcDbLine
 10
25.0
 20
1.071851644179874
 30
0.0
 11
26.24065546863484
 21
2.312507112814711
 31
0.0
  0
LINE
  5
823
330
1F
100
AcDbEntity
  8
SK1
  6
CONTINUOUS
370
50
 62
4
100
AcDbLine
 10
22.56877644288388
 20
-0.9881408528133115
 30
0.0
 11
23.55691729569719
 21
0.0
 31
0.0
  0
LINE
  5
824
330
1F
100
AcDbEntity
  8
SK1
  6
CONTINUOUS
370
50
 62
4
100
AcDbLine
 10
25.0
 20
1.443082704302812
 30
0.0
 11
25.98814085281331
 21
2.431223557116124
 31
0.0
  0
LINE
  5
825
330
1F
100
AcDbEntity
  8
SK1
  6
CONTINUOUS
370
50
 62
4
100
AcDbLine
 10
22.47444482033456
 20
-0.7112414152396886
 30
0.0
 11
23.18568623557425
 21
0.0
 31
0.0
  0
LINE
  5
826
330
1F
100
AcDbEntity
  8
SK1
  6
CONTINUOUS
370
50
 62
4
100
AcDbLine
 10
25.0
 20
1.81431376442575
 30
0.0
 11
25.71124141523969
 21
2.525555179665439
 31
0.0
  0
LINE
  5
827
330
1F
100
AcDbEntity
  8
SK1
  6
CONTINUOUS
370
50
 62
4
100
AcDbLine
 10
22.40797120571085
 20
-0.4064839697404632
 30
0.0
 11
22.81445517545131
 21
0.0
 31
0.0
  0
LINE
  5
828
330
1F
100
AcDbEntity
  8
SK1
  6
CONTINUOUS
370
50
 62
4
100
AcDbLine
 10
25.0
 20
2.185544824548687
 30
0.0
 11
25.40648396974046
 21
2.59202879428915
 31
0.0
  0
LINE
  5
829
330
1F
100
AcDbEntity
  8
SK1
  6
CONTINUOUS
370
50
 62
4
100
AcDbLine
 10
22.37707870331547
 20
-0.0661454120129097
 30
0.0
 11
22.44322411532838
 21
0.0
 31
0.0
  0
LINE
  5
82A
330
1F
100
AcDbEntity
  8
SK1
  6
CONTINUOUS
370
50
 62
4
100
AcDbLine
 10
25.0
 20
2.556775884671625
 30
0.0
 11
25.06614541201291
 21
2.622921296684535
 31
0.0
  0
LINE
  5
82B
330
1F
100
AcDbEntity
  8
SK1
  6
CONTINUOUS
370
50
 62
4
100
AcDbLine
 10
22.54579652643623
 20
-0.9287176037316112
 30
0.0
 11
24.07128239626839
 21
-2.454203473563768
 31
0.0
  0
LINE
  5
82C
330
1F
100
AcDbEntity
  8
SK1
  6
CONTINUOUS
370
50
 62
4
100
AcDbLine
 10
22.41045104563307
 20
-0.4221410628055069
 30
0.0
 11
24.5778589371945
 21
-2.589548954366935
 31
0.0
  0
LINE
  5
82D
330
1F
100
AcDbEntity
  8
SK1
  6
CONTINUOUS
370
50
 62
4
100
AcDbLine
 10
22.37550158008622
 20
-0.0159605371357268
 30
0.0
 11
24.98403946286428
 21
-2.624498419913778
 31
0.0
  0
LINE
  5
82E
330
1F
100
AcDbEntity
  8
SK1
  6
CONTINUOUS
370
50
 62
4
100
AcDbLine
 10
22.73077210307343
 20
0.0
 30
0.0
 11
25.0
 21
-2.269227896926564
 31
0.0
  0
LINE
  5
82F
330
1F
100
AcDbEntity
  8
SK1
  6
CONTINUOUS
370
50
 62
4
100
AcDbLine
 10
23.10200316319637
 20
0.0
 30
0.0
 11
25.0
 21
-1.897996836803626
 31
0.0
  0
LINE
  5
830
330
1F
100
AcDbEntity
  8
SK1
  6
CONTINUOUS
370
50
 62
4
100
AcDbLine
 10
23.47323422331931
 20
0.0
 30
0.0
 11
25.0
 21
-1.526765776680689
 31
0.0
  0
LINE
  5
831
330
1F
100
AcDbEntity
  8
SK1
  6
CONTINUOUS
370
50
 62
4
100
AcDbLine
 10
23.84446528344225
 20
0.0
 30
0.0
 11
25.0
 21
-1.155534716557752
 31
0.0
  0
LINE
  5
832
330
1F
100
AcDbEntity
  8
SK1
  6
CONTINUOUS
370
50
 62
4
100
AcDbLine
 10
24.21569634356518
 20
0.0
 30
0.0
 11
25.0
 21
-0.7843036564348145
 31
0.0
  0
LINE
  5
833
330
1F
100
AcDbEntity
  8
SK1
  6
CONTINUOUS
370
50
 62
4
100
AcDbLine
 10
24.58692740368812
 20
0.0
 30
0.0
 11
25.0
 21
-0.4130725963118769
 31
0.0
  0
LINE
  5
834
330
1F
100
AcDbEntity
  8
SK1
  6
CONTINUOUS
370
50
 62
4
100
AcDbLine
 10
24.95815846381106
 20
0.0
 30
0.0
 11
25.0
 21
-0.0418415361889393
 31
0.0
  0
LINE
  5
835
330
1F
100
AcDbEntity
  8
SK1
  6
CONTINUOUS
370
50
 62
4
100
AcDbLine
 10
25.0
 20
0.3293895239339975
 30
0.0
 11
25.329389523934
 21
0.0
 31
0.0
  0
LINE
  5
836
330
1F
100
AcDbEntity
  8
SK1
  6
CONTINUOUS
370
50
 62
4
100
AcDbLine
 10
25.0
 20
0.7006205840569351
 30
0.0
 11
25.70062058405694
 21
0.0
 31
0.0
  0
LINE
  5
837
330
1F
100
AcDbEntity
  8
SK1
  6
CONTINUOUS
370
50
 62
4
100
AcDbLine
 10
25.0
 20
1.071851644179873
 30
0.0
 11
26.07185164417987
 21
0.0
 31
0.0
  0
LINE
  5
838
330
1F
100
AcDbEntity
  8
SK1
  6
CONTINUOUS
370
50
 62
4
100
AcDbLine
 10
25.0
 20
1.44308270430281
 30
0.0
 11
26.44308270430281
 21
0.0
 31
0.0
  0
LINE
  5
839
330
1F
100
AcDbEntity
  8
SK1
  6
CONTINUOUS
370
50
 62
4
100
AcDbLine
 10
25.0
 20
1.814313764425748
 30
0.0
 11
26.81431376442575
 21
0.0
 31
0.0
  0
LINE
  5
83A
330
1F
100
AcDbEntity
  8
SK1
  6
CONTINUOUS
370
50
 62
4
100
AcDbLine
 10
25.0
 20
2.185544824548685
 30
0.0
 11
27.18554482454869
 21
0.0
 31
0.0
  0
LINE
  5
83B
330
1F
100
AcDbEntity
  8
SK1
  6
CONTINUOUS
370
50
 62
4
100
AcDbLine
 10
25.0
 20
2.556775884671622
 30
0.0
 11
27.55677588467162
 21
0.0
 31
0.0
  0
LINE
  5
83C
330
1F
100
AcDbEntity
  8
SK1
  6
CONTINUOUS
370
50
 62
4
100
AcDbLine
 10
25.3231531925751
 20
2.604853752219459
 30
0.0
 11
27.60485375221946
 21
0.3231531925751043
 31
0.0
  0
LINE
  5
83D
330
1F
100
AcDbEntity
  8
SK1
  6
CONTINUOUS
370
50
 62
4
100
AcDbLine
 10
25.79925237182748
 20
2.499985633090018
 30
0.0
 11
27.49998563309002
 21
0.7992523718274818
 31
0.0
  0
LINE
  5
83E
330
1F
100
AcDbEntity
  8
SK1
  6
CONTINUOUS
370
50
 62
4
100
AcDbLine
 10
26.56015793098176
 20
2.11031113405868
 30
0.0
 11
27.11031113405868
 21
1.560157930981759
 31
0.0
  0
ARC
  5
83F
330
1F
100
AcDbEntity
  8
SK6
  6
CONTINUOUS
370
25
 62
5
100
AcDbCircle
 10
73.3613820083765
 20
-25.64628346338786
 30
0.0
 40
2.76048912849221
100
AcDbArc
 50
338.9379403434233
 51
90.44457437511365
  0
LINE
  5
840
330
1F
100
AcDbEntity
  8
SK6
  6
CONTINUOUS
370
25
 62
5
100
AcDbLine
 10
73.33996279695982
 20
-22.88587743421281
 30
0.0
 11
73.33996279695982
 21
-23.98893606613463
 31
0.0
  0
ARC
  5
841
330
1F
100
AcDbEntity
  8
SK6
  6
CONTINUOUS
370
25
 62
5
100
AcDbCircle
 10
73.35050902936915
 20
-25.66627695566821
 30
0.0
 40
1.677374043771779
100
AcDbArc
 50
243.4214706017868
 51
90.36024081226083
  0
ARC
  5
842
330
1F
100
AcDbEntity
  8
SK6
  6
CONTINUOUS
370
25
 62
5
100
AcDbCircle
 10
75.87275989684957
 20
-25.23486970215561
 30
0.0
 40
3.80021703002276
100
AcDbArc
 50
210.5483731288539
 51
236.97801693668
  0
LINE
  5
843
330
1F
100
AcDbEntity
  8
SK6
  6
CONTINUOUS
370
25
 62
5
100
AcDbLine
 10
73.80179068512486
 20
-28.42120552867535
 30
0.0
 11
77.9437309674267
 21
-28.42120552867535
 31
0.0
  0
ARC
  5
844
330
1F
100
AcDbEntity
  8
SK6
  6
CONTINUOUS
370
25
 62
5
100
AcDbCircle
 10
75.87276183877256
 20
-25.2348698037346
 30
0.0
 40
3.800216899582472
100
AcDbArc
 50
303.0219828477959
 51
326.3732153033476
  0
LINE
  5
845
330
1F
100
AcDbEntity
  8
SK6
  6
CONTINUOUS
370
25
 62
5
100
AcDbLine
 10
79.03705975135722
 20
-27.3393572007709
 30
0.0
 11
75.67976170575461
 21
-27.3393572007709
 31
0.0
  0
LINE
  5
846
330
1F
100
AcDbEntity
  8
SK6
  6
CONTINUOUS
370
25
 62
5
100
AcDbLine
 10
75.67976170575461
 20
-27.3393572007709
 30
0.0
 11
79.59962109771986
 21
-25.97795600641694
 31
0.0
  0
ARC
  5
847
330
1F
100
AcDbEntity
  8
SK6
  6
CONTINUOUS
370
25
 62
5
100
AcDbCircle
 10
75.8727625615721
 20
-25.2348703148594
 30
0.0
 40
3.800217216614723
100
AcDbArc
 50
348.7238644184696
 51
53.4691051260885
  0
LINE
  5
848
330
1F
100
AcDbEntity
  8
SK6
  6
CONTINUOUS
370
25
 62
5
100
AcDbLine
 10
78.13486524538544
 20
-22.18125895429967
 30
0.0
 11
75.93745047882736
 21
-26.63834744507058
 31
0.0
  0
ENDSEC
  0
SECTION
  2
OBJECTS
  0
DICTIONARY
  5
C
330
0
100
AcDbDictionary
281
     1
  3
ACAD_GROUP
350
D
  3
ACAD_LAYOUT
350
1A
  3
ACAD_MATERIAL
350
3B
  3
ACAD_MLEADERSTYLE
350
84B
  3
ACAD_MLINESTYLE
350
17
  3
ACAD_PLOTSETTINGS
350
19
  3
ACAD_PLOTSTYLENAME
350
E
  3
ACAD_SCALELIST
350
26C
  3
ACAD_VISUALSTYLE
350
2A
  3
AcDbVariableDictionary
350
849
  0
DICTIONARY
  5
D
102
{ACAD_REACTORS
330
C
102
}
330
C
100
AcDbDictionary
281
     1
  0
DICTIONARY
  5
1A
102
{ACAD_REACTORS
330
C
102
}
330
C
100
AcDbDictionary
281
     1
  3
Layout1
350
1E
  3
Layout2
350
26
  3
Model
350
22
  0
DICTIONARY
  5
3B
102
{ACAD_REACTORS
330
C
102
}
330
C
100
AcDbDictionary
281
     1
  3
ByBlock
350
3D
  3
ByLayer
350
3C
  3
Global
350
3E
  0
DICTIONARY
  5
84B
102
{ACAD_REACTORS
330
C
102
}
330
C
100
AcDbDictionary
281
     1
  0
DICTIONARY
  5
17
102
{ACAD_REACTORS
330
C
102
}
330
C
100
AcDbDictionary
281
     1
  3
Standard
350
18
  0
DICTIONARY
  5
19
102
{ACAD_REACTORS
330
C
102
}
330
C
100
AcDbDictionary
281
     1
  0
ACDBDICTIONARYWDFLT
  5
E
102
{ACAD_REACTORS
330
C
102
}
330
C
100
AcDbDictionary
281
     1
  3
Normal
350
F
100
AcDbDictionaryWithDefault
340
F
  0
DICTIONARY
  5
26C
102
{ACAD_REACTORS
330
C
102
}
330
C
100
AcDbDictionary
281
     1
  3
A0
350
26D
  3
A1
350
26E
  3
A2
350
26F
  3
A3
350
270
  3
A4
350
271
  3
A5
350
272
  3
A6
350
273
  3
A7
350
274
  3
A8
350
275
  3
A9
350
276
  3
B0
350
277
  3
B1
350
278
  3
B2
350
279
  3
B3
350
27A
  3
B4
350
27B
  3
B5
350
27C
  3
B6
350
27D
  3
B7
350
27E
  3
B8
350
27F
  3
B9
350
280
  3
C0
350
281
  3
C1
350
282
  3
C2
350
283
  3
C3
350
284
  3
C4
350
285
  3
C5
350
286
  3
C6
350
287
  3
C7
350
288
  3
C8
350
289
  3
C9
350
28A
  3
D0
350
28B
  3
D1
350
28C
  3
D2
350
28D
  0
DICTIONARY
  5
2A
102
{ACAD_REACTORS
330
C
102
}
330
C
100
AcDbDictionary
281
     1
  3
2dWireframe
350
2F
  3
3D Hidden
350
31
  3
3dWireframe
350
30
  3
Basic
350
32
  3
Brighten
350
36
  3
ColorChange
350
3A
  3
Conceptual
350
34
  3
Dim
350
35
  3
Facepattern
350
39
  3
Flat
350
2B
  3
FlatWithEdges
350
2C
  3
Gouraud
350
2D
  3
GouraudWithEdges
350
2E
  3
Linepattern
350
38
  3
Realistic
350
33
  3
Thicken
350
37
  0
DICTIONARY
  5
849
102
{ACAD_REACTORS
330
C
102
}
330
C
100
AcDbDictionary
281
     1
  3
CANNOSCALE
350
84E
  3
DIMASSOC
350
84F
  3
HIDETEXT
350
850
  3
PSOLHEIGHT
350
84D
  3
PSOLWIDTH
350
84C
  0
LAYOUT
  5
1E
102
{ACAD_REACTORS
330
1A
102
}
330
1A
100
AcDbPlotSettings
  1

  2
none_device
  4

  6

 40
0.0
 41
0.0
 42
0.0
 43
0.0
 44
0.0
 45
0.0
 46
0.0
 47
0.0
 48
0.0
 49
0.0
140
0.0
141
0.0
142
1.0
143
1.0
 70
   688
 72
     0
 73
     0
 74
     5
  7

 75
    16
147
1.0
148
0.0
149
0.0
100
AcDbLayout
  1
Layout1
 70
     1
 71
     1
 10
0.0
 20
0.0
 11
420.0
 21
297.0
 12
0.0
 22
0.0
 32
0.0
 14
1.000000000000000E+20
 24
1.000000000000000E+20
 34
1.000000000000000E+20
 15
-1.000000000000000E+20
 25
-1.000000000000000E+20
 35
-1.000000000000000E+20
146
0.0
 13
0.0
 23
0.0
 33
0.0
 16
1.0
 26
0.0
 36
0.0
 17
0.0
 27
1.0
 37
0.0
 76
     0
330
1B
  0
LAYOUT
  5
26
102
{ACAD_REACTORS
330
1A
102
}
330
1A
100
AcDbPlotSettings
  1

  2
none_device
  4

  6

 40
0.0
 41
0.0
 42
0.0
 43
0.0
 44
0.0
 45
0.0
 46
0.0
 47
0.0
 48
0.0
 49
0.0
140
0.0
141
0.0
142
1.0
143
1.0
 70
   688
 72
     0
 73
     0
 74
     5
  7

 75
    16
147
1.0
148
0.0
149
0.0
100
AcDbLayout
  1
Layout2
 70
     1
 71
     2
 10
0.0
 20
0.0
 11
0.0
 21
0.0
 12
0.0
 22
0.0
 32
0.0
 14
0.0
 24
0.0
 34
0.0
 15
0.0
 25
0.0
 35
0.0
146
0.0
 13
0.0
 23
0.0
 33
0.0
 16
1.0
 26
0.0
 36
0.0
 17
0.0
 27
1.0
 37
0.0
 76
     0
330
23
  0
LAYOUT
  5
22
102
{ACAD_REACTORS
330
1A
102
}
330
1A
100
AcDbPlotSettings
  1

  2
none_device
  4

  6

 40
0.0
 41
0.0
 42
0.0
 43
0.0
 44
0.0
 45
0.0
 46
0.0
 47
0.0
 48
0.0
 49
0.0
140
0.0
141
0.0
142
1.0
143
1.0
 70
  1712
 72
     0
 73
     0
 74
     0
  7

 75
     0
147
1.0
148
0.0
149
0.0
100
AcDbLayout
  1
Model
 70
     1
 71
     0
 10
0.0
 20
0.0
 11
420.0
 21
297.0
 12
0.0
 22
0.0
 32
0.0
 14
0.0
 24
0.0
 34
0.0
 15
25.0
 25
35.0
 35
0.0
146
0.0
 13
0.0
 23
0.0
 33
0.0
 16
1.0
 26
0.0
 36
0.0
 17
0.0
 27
1.0
 37
0.0
 76
     0
330
1F
331
29
  0
MATERIAL
  5
3D
102
{ACAD_REACTORS
330
3B
102
}
102
{ACAD_XDICTIONARY
360
873
102
}
330
3B
100
AcDbMaterial
  1
ByBlock
  0
MATERIAL
  5
3C
102
{ACAD_REACTORS
330
3B
102
}
102
{ACAD_XDICTIONARY
360
871
102
}
330
3B
100
AcDbMaterial
  1
ByLayer
  0
MATERIAL
  5
3E
102
{ACAD_REACTORS
330
3B
102
}
102
{ACAD_XDICTIONARY
360
875
102
}
330
3B
100
AcDbMaterial
  1
Global
  0
MLINESTYLE
  5
18
102
{ACAD_REACTORS
330
17
102
}
330
17
100
AcDbMlineStyle
  2
Standard
 70
     0
  3

 62
   256
 51
90.0
 52
90.0
 71
     2
 49
0.5
 62
   256
  6
BYLAYER
 49
-0.5
 62
   256
  6
BYLAYER
  0
ACDBPLACEHOLDER
  5
F
102
{ACAD_REACTORS
330
E
102
}
330
E
  0
SCALE
  5
26D
102
{ACAD_REACTORS
330
26C
102
}
330
26C
100
AcDbScale
 70
     0
300
1:1
140
1.0
141
1.0
290
     1
  0
SCALE
  5
26E
102
{ACAD_REACTORS
330
26C
102
}
330
26C
100
AcDbScale
 70
     0
300
1:2
140
1.0
141
2.0
290
     0
  0
SCALE
  5
26F
102
{ACAD_REACTORS
330
26C
102
}
330
26C
100
AcDbScale
 70
     0
300
1:4
140
1.0
141
4.0
290
     0
  0
SCALE
  5
270
102
{ACAD_REACTORS
330
26C
102
}
330
26C
100
AcDbScale
 70
     0
300
1:5
140
1.0
141
5.0
290
     0
  0
SCALE
  5
271
102
{ACAD_REACTORS
330
26C
102
}
330
26C
100
AcDbScale
 70
     0
300
1:8
140
1.0
141
8.0
290
     0
  0
SCALE
  5
272
102
{ACAD_REACTORS
330
26C
102
}
330
26C
100
AcDbScale
 70
     0
300
1:10
140
1.0
141
10.0
290
     0
  0
SCALE
  5
273
102
{ACAD_REACTORS
330
26C
102
}
330
26C
100
AcDbScale
 70
     0
300
1:16
140
1.0
141
16.0
290
     0
  0
SCALE
  5
274
102
{ACAD_REACTORS
330
26C
102
}
330
26C
100
AcDbScale
 70
     0
300
1:20
140
1.0
141
20.0
290
     0
  0
SCALE
  5
275
102
{ACAD_REACTORS
330
26C
102
}
330
26C
100
AcDbScale
 70
     0
300
1:30
140
1.0
141
30.0
290
     0
  0
SCALE
  5
276
102
{ACAD_REACTORS
330
26C
102
}
330
26C
100
AcDbScale
 70
     0
300
1:40
140
1.0
141
40.0
290
     0
  0
SCALE
  5
277
102
{ACAD_REACTORS
330
26C
102
}
330
26C
100
AcDbScale
 70
     0
300
1:50
140
1.0
141
50.0
290
     0
  0
SCALE
  5
278
102
{ACAD_REACTORS
330
26C
102
}
330
26C
100
AcDbScale
 70
     0
300
1:100
140
1.0
141
100.0
290
     0
  0
SCALE
  5
279
102
{ACAD_REACTORS
330
26C
102
}
330
26C
100
AcDbScale
 70
     0
300
2:1
140
2.0
141
1.0
290
     0
  0
SCALE
  5
27A
102
{ACAD_REACTORS
330
26C
102
}
330
26C
100
AcDbScale
 70
     0
300
4:1
140
4.0
141
1.0
290
     0
  0
SCALE
  5
27B
102
{ACAD_REACTORS
330
26C
102
}
330
26C
100
AcDbScale
 70
     0
300
8:1
140
8.0
141
1.0
290
     0
  0
SCALE
  5
27C
102
{ACAD_REACTORS
330
26C
102
}
330
26C
100
AcDbScale
 70
     0
300
10:1
140
10.0
141
1.0
290
     0
  0
SCALE
  5
27D
102
{ACAD_REACTORS
330
26C
102
}
330
26C
100
AcDbScale
 70
     0
300
100:1
140
100.0
141
1.0
290
     0
  0
SCALE
  5
27E
102
{ACAD_REACTORS
330
26C
102
}
330
26C
100
AcDbScale
 70
     0
300
1/128" = 1'-0"
140
0.0078125
141
12.0
290
     0
  0
SCALE
  5
27F
102
{ACAD_REACTORS
330
26C
102
}
330
26C
100
AcDbScale
 70
     0
300
1/64" = 1'-0"
140
0.015625
141
12.0
290
     0
  0
SCALE
  5
280
102
{ACAD_REACTORS
330
26C
102
}
330
26C
100
AcDbScale
 70
     0
300
1/32" = 1'-0"
140
0.03125
141
12.0
290
     0
  0
SCALE
  5
281
102
{ACAD_REACTORS
330
26C
102
}
330
26C
100
AcDbScale
 70
     0
300
1/16" = 1'-0"
140
0.0625
141
12.0
290
     0
  0
SCALE
  5
282
102
{ACAD_REACTORS
330
26C
102
}
330
26C
100
AcDbScale
 70
     0
300
3/32" = 1'-0"
140
0.09375
141
12.0
290
     0
  0
SCALE
  5
283
102
{ACAD_REACTORS
330
26C
102
}
330
26C
100
AcDbScale
 70
     0
300
1/8" = 1'-0"
140
0.125
141
12.0
290
     0
  0
SCALE
  5
284
102
{ACAD_REACTORS
330
26C
102
}
330
26C
100
AcDbScale
 70
     0
300
3/16" = 1'-0"
140
0.1875
141
12.0
290
     0
  0
SCALE
  5
285
102
{ACAD_REACTORS
330
26C
102
}
330
26C
100
AcDbScale
 70
     0
300
1/4" = 1'-0"
140
0.25
141
12.0
290
     0
  0
SCALE
  5
286
102
{ACAD_REACTORS
330
26C
102
}
330
26C
100
AcDbScale
 70
     0
300
3/8" = 1'-0"
140
0.375
141
12.0
290
     0
  0
SCALE
  5
287
102
{ACAD_REACTORS
330
26C
102
}
330
26C
100
AcDbScale
 70
     0
300
1/2" = 1'-0"
140
0.5
141
12.0
290
     0
  0
SCALE
  5
288
102
{ACAD_REACTORS
330
26C
102
}
330
26C
100
AcDbScale
 70
     0
300
3/4" = 1'-0"
140
0.75
141
12.0
290
     0
  0
SCALE
  5
289
102
{ACAD_REACTORS
330
26C
102
}
330
26C
100
AcDbScale
 70
     0
300
1" = 1'-0"
140
1.0
141
12.0
290
     0
  0
SCALE
  5
28A
102
{ACAD_REACTORS
330
26C
102
}
330
26C
100
AcDbScale
 70
     0
300
1-1/2" = 1'-0"
140
1.5
141
12.0
290
     0
  0
SCALE
  5
28B
102
{ACAD_REACTORS
330
26C
102
}
330
26C
100
AcDbScale
 70
     0
300
3" = 1'-0"
140
3.0
141
12.0
290
     0
  0
SCALE
  5
28C
102
{ACAD_REACTORS
330
26C
102
}
330
26C
100
AcDbScale
 70
     0
300
6" = 1'-0"
140
6.0
141
12.0
290
     0
  0
SCALE
  5
28D
102
{ACAD_REACTORS
330
26C
102
}
330
26C
100
AcDbScale
 70
     0
300
1'-0" = 1'-0"
140
12.0
141
12.0
290
     0
  0
VISUALSTYLE
  5
2F
102
{ACAD_REACTORS
330
2A
102
}
102
{ACAD_XDICTIONARY
360
859
102
}
330
2A
100
AcDbVisualStyle
  2
2dWireframe
 70
     4
 71
     0
 72
     2
 73
     0
 90
        0
 40
-0.6
 41
-30.0
 62
     5
 63
     7
 74
     1
 91
        4
 64
     7
 65
   257
 75
     1
175
     1
 42
1.0
 92
        0
 66
   257
 43
1.0
 76
     1
 77
     6
 78
     2
 67
     7
 79
     5
170
     0
171
     0
290
     0
174
     0
 93
        1
 44
0.0
173
     0
291
     0
 45
0.0
1001
ACAD
1000
AcDbSavedByObjectVersion
1070
     0
  0
VISUALSTYLE
  5
31
102
{ACAD_REACTORS
330
2A
102
}
102
{ACAD_XDICTIONARY
360
85D
102
}
330
2A
100
AcDbVisualStyle
  2
3D Hidden
 70
     6
 71
     1
 72
     2
 73
     2
 90
        0
 40
-0.6
 41
-30.0
 62
     5
 63
     7
 74
     2
 91
        2
 64
     7
 65
   257
 75
     2
175
     1
 42
40.0
 92
        0
 66
   257
 43
1.0
 76
     1
 77
     6
 78
     2
 67
     7
 79
     3
170
     0
171
     0
290
     0
174
     0
 93
        1
 44
0.0
173
     0
291
     0
 45
0.0
1001
ACAD
1000
AcDbSavedByObjectVersion
1070
     0
  0
VISUALSTYLE
  5
30
102
{ACAD_REACTORS
330
2A
102
}
102
{ACAD_XDICTIONARY
360
85B
102
}
330
2A
100
AcDbVisualStyle
  2
3dWireframe
 70
     5
 71
     0
 72
     2
 73
     0
 90
        0
 40
-0.6
 41
-30.0
 62
     5
 63
     7
 74
     1
 91
        4
 64
     7
 65
   257
 75
     1
175
     1
 42
1.0
 92
        0
 66
   257
 43
1.0
 76
     1
 77
     6
 78
     2
 67
     7
 79
     5
170
     0
171
     0
290
     0
174
     0
 93
        1
 44
0.0
173
     0
291
     0
 45
0.0
1001
ACAD
1000
AcDbSavedByObjectVersion
1070
     0
  0
VISUALSTYLE
  5
32
102
{ACAD_REACTORS
330
2A
102
}
102
{ACAD_XDICTIONARY
360
85F
102
}
330
2A
100
AcDbVisualStyle
  2
Basic
 70
     7
 71
     1
 72
     0
 73
     1
 90
        0
 40
-0.6
 41
-30.0
 62
     5
 63
     7
 74
     0
 91
        4
 64
     7
 65
   257
 75
     1
175
     1
 42
1.0
 92
        8
 66
     7
 43
1.0
 76
     1
 77
     6
 78
     2
 67
     7
 79
     5
170
     0
171
     0
290
     0
174
     0
 93
        1
 44
0.0
173
     0
291
     1
 45
0.0
1001
ACAD
1000
AcDbSavedByObjectVersion
1070
     0
  0
VISUALSTYLE
  5
36
102
{ACAD_REACTORS
330
2A
102
}
102
{ACAD_XDICTIONARY
360
867
102
}
330
2A
100
AcDbVisualStyle
  2
Brighten
 70
    12
 71
     2
 72
     2
 73
     0
 90
        0
 40
-0.6
 41
-30.0
 62
     5
 63
     7
 74
     1
 91
        4
 64
     7
 65
   257
 75
     1
175
     1
 42
1.0
 92
        8
 66
     7
 43
1.0
 76
     1
 77
     6
 78
     2
 67
     7
 79
     5
170
     0
171
     0
290
     0
174
     0
 93
        1
 44
50.0
173
     0
291
     1
 45
0.0
1001
ACAD
1000
AcDbSavedByObjectVersion
1070
     0
  0
VISUALSTYLE
  5
3A
102
{ACAD_REACTORS
330
2A
102
}
102
{ACAD_XDICTIONARY
360
86F
102
}
330
2A
100
AcDbVisualStyle
  2
ColorChange
 70
    16
 71
     2
 72
     2
 73
     3
 90
        0
 40
-0.6
 41
-30.0
 62
     5
 63
     8
 74
     1
 91
        4
 64
     7
 65
   257
 75
     1
175
     1
 42
1.0
 92
        8
 66
     8
 43
1.0
 76
     1
 77
     6
 78
     2
 67
     7
 79
     5
170
     0
171
     0
290
     0
174
     0
 93
        1
 44
0.0
173
     0
291
     1
 45
0.0
1001
ACAD
1000
AcDbSavedByObjectVersion
1070
     0
  0
VISUALSTYLE
  5
34
102
{ACAD_REACTORS
330
2A
102
}
102
{ACAD_XDICTIONARY
360
863
102
}
330
2A
100
AcDbVisualStyle
  2
Conceptual
 70
     9
 71
     3
 72
     2
 73
     0
 90
        0
 40
-0.6
 41
-30.0
 62
     5
 63
     7
 74
     2
 91
        2
 64
     7
 65
   257
 75
     1
175
     1
 42
40.0
 92
        8
 66
     7
 43
1.0
 76
     1
 77
     6
 78
     2
 67
     7
 79
     3
170
     0
171
     0
290
     0
174
     0
 93
        1
 44
0.0
173
     0
291
     0
 45
0.0
1001
ACAD
1000
AcDbSavedByObjectVersion
1070
     0
  0
VISUALSTYLE
  5
35
102
{ACAD_REACTORS
330
2A
102
}
102
{ACAD_XDICTIONARY
360
865
102
}
330
2A
100
AcDbVisualStyle
  2
Dim
 70
    11
 71
     2
 72
     2
 73
     0
 90
        0
 40
-0.6
 41
-30.0
 62
     5
 63
     7
 74
     1
 91
        4
 64
     7
 65
   257
 75
     1
175
     1
 42
1.0
 92
        8
 66
     7
 43
1.0
 76
     1
 77
     6
 78
     2
 67
     7
 79
     5
170
     0
171
     0
290
     0
174
     0
 93
        1
 44
-50.0
173
     0
291
     1
 45
0.0
1001
ACAD
1000
AcDbSavedByObjectVersion
1070
     0
  0
VISUALSTYLE
  5
39
102
{ACAD_REACTORS
330
2A
102
}
102
{ACAD_XDICTIONARY
360
86D
102
}
330
2A
100
AcDbVisualStyle
  2
Facepattern
 70
    15
 71
     2
 72
     2
 73
     0
 90
        0
 40
-0.6
 41
-30.0
 62
     5
 63
     7
 74
     1
 91
        4
 64
     7
 65
   257
 75
     1
175
     1
 42
1.0
 92
        8
 66
     7
 43
1.0
 76
     1
 77
     6
 78
     2
 67
     7
 79
     5
170
     0
171
     0
290
     0
174
     0
 93
        1
 44
0.0
173
     0
291
     1
 45
0.0
1001
ACAD
1000
AcDbSavedByObjectVersion
1070
     0
  0
VISUALSTYLE
  5
2B
102
{ACAD_REACTORS
330
2A
102
}
102
{ACAD_XDICTIONARY
360
851
102
}
330
2A
100
AcDbVisualStyle
  2
Flat
 70
     0
 71
     2
 72
     1
 73
     1
 90
        2
 40
-0.6
 41
30.0
 62
     5
 63
     7
 74
     0
 91
        4
 64
     7
 65
   257
 75
     1
175
     1
 42
1.0
 92
        8
 66
     7
 43
1.0
 76
     1
 77
     6
 78
     2
 67
     7
 79
     5
170
     0
171
     0
290
     0
174
     0
 93
       13
 44
0.0
173
     0
291
     1
 45
0.0
1001
ACAD
1000
AcDbSavedByObjectVersion
1070
     0
  0
VISUALSTYLE
  5
2C
102
{ACAD_REACTORS
330
2A
102
}
102
{ACAD_XDICTIONARY
360
853
102
}
330
2A
100
AcDbVisualStyle
  2
FlatWithEdges
 70
     1
 71
     2
 72
     1
 73
     1
 90
        2
 40
-0.6
 41
30.0
 62
     5
 63
     7
 74
     1
 91
        4
 64
     7
 65
   257
 75
     1
175
     1
 42
1.0
 92
        0
 66
   257
 43
1.0
 76
     1
 77
     6
 78
     2
 67
     7
 79
     5
170
     0
171
     0
290
     0
174
     0
 93
       13
 44
0.0
173
     0
291
     1
 45
0.0
1001
ACAD
1000
AcDbSavedByObjectVersion
1070
     0
  0
VISUALSTYLE
  5
2D
102
{ACAD_REACTORS
330
2A
102
}
102
{ACAD_XDICTIONARY
360
855
102
}
330
2A
100
AcDbVisualStyle
  2
Gouraud
 70
     2
 71
     2
 72
     2
 73
     1
 90
        2
 40
-0.6
 41
30.0
 62
     5
 63
     7
 74
     0
 91
        4
 64
     7
 65
   257
 75
     1
175
     1
 42
1.0
 92
        0
 66
     7
 43
1.0
 76
     1
 77
     6
 78
     2
 67
     7
 79
     5
170
     0
171
     0
290
     0
174
     0
 93
       13
 44
0.0
173
     0
291
     1
 45
0.0
1001
ACAD
1000
AcDbSavedByObjectVersion
1070
     0
  0
VISUALSTYLE
  5
2E
102
{ACAD_REACTORS
330
2A
102
}
102
{ACAD_XDICTIONARY
360
857
102
}
330
2A
100
AcDbVisualStyle
  2
GouraudWithEdges
 70
     3
 71
     2
 72
     2
 73
     1
 90
        2
 40
-0.6
 41
30.0
 62
     5
 63
     7
 74
     1
 91
        4
 64
     7
 65
   257
 75
     1
175
     1
 42
1.0
 92
        0
 66
   257
 43
1.0
 76
     1
 77
     6
 78
     2
 67
     7
 79
     5
170
     0
171
     0
290
     0
174
     0
 93
       13
 44
0.0
173
     0
291
     1
 45
0.0
1001
ACAD
1000
AcDbSavedByObjectVersion
1070
     0
  0
VISUALSTYLE
  5
38
102
{ACAD_REACTORS
330
2A
102
}
102
{ACAD_XDICTIONARY
360
86B
102
}
330
2A
100
AcDbVisualStyle
  2
Linepattern
 70
    14
 71
     2
 72
     2
 73
     0
 90
        0
 40
-0.6
 41
-30.0
 62
     5
 63
     7
 74
     1
 91
        4
 64
     7
 65
   257
 75
     7
175
     7
 42
1.0
 92
        8
 66
     7
 43
1.0
 76
     1
 77
     6
 78
     2
 67
     7
 79
     5
170
     0
171
     0
290
     0
174
     0
 93
        1
 44
0.0
173
     0
291
     1
 45
0.0
1001
ACAD
1000
AcDbSavedByObjectVersion
1070
     0
  0
VISUALSTYLE
  5
33
102
{ACAD_REACTORS
330
2A
102
}
102
{ACAD_XDICTIONARY
360
861
102
}
330
2A
100
AcDbVisualStyle
  2
Realistic
 70
     8
 71
     2
 72
     2
 73
     0
 90
        0
 40
-0.6
 41
-30.0
 62
     5
 63
     7
 74
     1
 91
        0
 64
     7
 65
   257
 75
     1
175
     1
 42
1.0
 92
        8
 66
     8
 43
1.0
 76
     1
 77
     6
 78
     2
 67
     7
 79
     5
170
     0
171
     0
290
     0
174
     0
 93
       13
 44
0.0
173
     0
291
     0
 45
0.0
1001
ACAD
1000
AcDbSavedByObjectVersion
1070
     0
  0
VISUALSTYLE
  5
37
102
{ACAD_REACTORS
330
2A
102
}
102
{ACAD_XDICTIONARY
360
869
102
}
330
2A
100
AcDbVisualStyle
  2
Thicken
 70
    13
 71
     2
 72
     2
 73
     0
 90
        0
 40
-0.6
 41
-30.0
 62
     5
 63
     7
 74
     1
 91
        4
 64
     7
 65
   257
 75
     1
175
     1
 42
1.0
 92
       12
 66
     7
 43
1.0
 76
     1
 77
     6
 78
     2
 67
     7
 79
     5
170
     0
171
     0
290
     0
174
     0
 93
        1
 44
0.0
173
     0
291
     1
 45
0.0
1001
ACAD
1000
AcDbSavedByObjectVersion
1070
     0
  0
DICTIONARYVAR
  5
84E
102
{ACAD_REACTORS
330
849
102
}
330
849
100
DictionaryVariables
280
     0
  1
1:1
  0
DICTIONARYVAR
  5
84F
102
{ACAD_REACTORS
330
849
102
}
330
849
100
DictionaryVariables
280
     0
  1
2
  0
DICTIONARYVAR
  5
850
102
{ACAD_REACTORS
330
849
102
}
330
849
100
DictionaryVariables
280
     0
  1
1
  0
DICTIONARYVAR
  5
84D
102
{ACAD_REACTORS
330
849
102
}
330
849
100
DictionaryVariables
280
     0
  1
80.000000
  0
DICTIONARYVAR
  5
84C
102
{ACAD_REACTORS
330
849
102
}
330
849
100
DictionaryVariables
280
     0
  1
5.000000
  0
DICTIONARY
  5
873
330
3D
100
AcDbDictionary
280
     1
281
     1
  3
ACAD_XREC_ROUNDTRIP
360
874
  0
DICTIONARY
  5
871
330
3C
100
AcDbDictionary
280
     1
281
     1
  3
ACAD_XREC_ROUNDTRIP
360
872
  0
DICTIONARY
  5
875
330
3E
100
AcDbDictionary
280
     1
281
     1
  3
ACAD_XREC_ROUNDTRIP
360
876
  0
DICTIONARY
  5
859
330
2F
100
AcDbDictionary
280
     1
281
     1
  3
ACAD_XREC_ROUNDTRIP
360
85A
  0
DICTIONARY
  5
85D
330
31
100
AcDbDictionary
280
     1
281
     1
  3
ACAD_XREC_ROUNDTRIP
360
85E
  0
DICTIONARY
  5
85B
330
30
100
AcDbDictionary
280
     1
281
     1
  3
ACAD_XREC_ROUNDTRIP
360
85C
  0
DICTIONARY
  5
85F
330
32
100
AcDbDictionary
280
     1
281
     1
  3
ACAD_XREC_ROUNDTRIP
360
860
  0
DICTIONARY
  5
867
330
36
100
AcDbDictionary
280
     1
281
     1
  3
ACAD_XREC_ROUNDTRIP
360
868
  0
DICTIONARY
  5
86F
330
3A
100
AcDbDictionary
280
     1
281
     1
  3
ACAD_XREC_ROUNDTRIP
360
870
  0
DICTIONARY
  5
863
330
34
100
AcDbDictionary
280
     1
281
     1
  3
ACAD_XREC_ROUNDTRIP
360
864
  0
DICTIONARY
  5
865
330
35
100
AcDbDictionary
280
     1
281
     1
  3
ACAD_XREC_ROUNDTRIP
360
866
  0
DICTIONARY
  5
86D
330
39
100
AcDbDictionary
280
     1
281
     1
  3
ACAD_XREC_ROUNDTRIP
360
86E
  0
DICTIONARY
  5
851
330
2B
100
AcDbDictionary
280
     1
281
     1
  3
ACAD_XREC_ROUNDTRIP
360
852
  0
DICTIONARY
  5
853
330
2C
100
AcDbDictionary
280
     1
281
     1
  3
ACAD_XREC_ROUNDTRIP
360
854
  0
DICTIONARY
  5
855
330
2D
100
AcDbDictionary
280
     1
281
     1
  3
ACAD_XREC_ROUNDTRIP
360
856
  0
DICTIONARY
  5
857
330
2E
100
AcDbDictionary
280
     1
281
     1
  3
ACAD_XREC_ROUNDTRIP
360
858
  0
DICTIONARY
  5
86B
330
38
100
AcDbDictionary
280
     1
281
     1
  3
ACAD_XREC_ROUNDTRIP
360
86C
  0
DICTIONARY
  5
861
330
33
100
AcDbDictionary
280
     1
281
     1
  3
ACAD_XREC_ROUNDTRIP
360
862
  0
DICTIONARY
  5
869
330
37
100
AcDbDictionary
280
     1
281
     1
  3
ACAD_XREC_ROUNDTRIP
360
86A
  0
XRECORD
  5
874
102
{ACAD_REACTORS
330
873
102
}
330
873
100
AcDbXrecord
280
     1
102
MATERIAL
148
0.0
149
0.0
149
0.0
 93
        0
 94
      127
282
     0
 72
     1
 77
     1
171
     1
175
     1
179
     1
273
     0
  0
XRECORD
  5
872
102
{ACAD_REACTORS
330
871
102
}
330
871
100
AcDbXrecord
280
     1
102
MATERIAL
148
0.0
149
0.0
149
0.0
 93
        0
 94
      127
282
     0
 72
     1
 77
     1
171
     1
175
     1
179
     1
273
     0
  0
XRECORD
  5
876
102
{ACAD_REACTORS
330
875
102
}
330
875
100
AcDbXrecord
280
     1
102
MATERIAL
148
0.0
149
0.0
149
0.0
 93
        0
 94
      127
282
     0
 72
     1
 77
     1
171
     1
175
     1
179
     1
273
     0
  0
XRECORD
  5
85A
102
{ACAD_REACTORS
330
859
102
}
330
859
100
AcDbXrecord
280
     1
102
RTVSPropertyOp0
 70
     1
102
RTVSPropertyOp1
 70
     1
102
RTVSPropertyOp2
 70
     1
102
RTVSPropertyOp3
 70
     1
102
RTVSPropertyOp4
 70
     1
102
RTVSPropertyOp5
 70
     1
102
RTVSPropertyOp6
 70
     1
102
RTVSPropertyOp7
 70
     1
102
RTVSPropertyOp8
 70
     1
102
RTVSPropertyOp9
 70
     1
102
RTVSPropertyOp10
 70
     1
102
RTVSPropertyOp11
 70
     1
102
RTVSPropertyOp12
 70
     1
102
RTVSPropertyOp13
 70
     1
102
RTVSPropertyOp14
 70
     1
102
RTVSPropertyOp15
 70
     1
102
RTVSPropertyOp16
 70
     1
102
RTVSPropertyOp17
 70
     1
102
RTVSPropertyOp18
 70
     1
102
RTVSPropertyOp19
 70
     1
102
RTVSPropertyOp20
 70
     1
102
RTVSPropertyOp21
 70
     1
102
RTVSPropertyOp22
 70
     1
102
RTVSPropertyOp23
 70
     1
102
RTVSPropertyOp24
 70
     1
102
RTVSPropertyOp25
 70
     1
102
RTVSPropertyOp26
 70
     1
102
RTVSPropertyOp27
 70
     1
  0
XRECORD
  5
85E
102
{ACAD_REACTORS
330
85D
102
}
330
85D
100
AcDbXrecord
280
     1
102
RTVSPropertyOp0
 70
     1
102
RTVSPropertyOp1
 70
     1
102
RTVSPropertyOp2
 70
     1
102
RTVSPropertyOp3
 70
     1
102
RTVSPropertyOp4
 70
     1
102
RTVSPropertyOp5
 70
     1
102
RTVSPropertyOp6
 70
     1
102
RTVSPropertyOp7
 70
     1
102
RTVSPropertyOp8
 70
     1
102
RTVSPropertyOp9
 70
     1
102
RTVSPropertyOp10
 70
     1
102
RTVSPropertyOp11
 70
     1
102
RTVSPropertyOp12
 70
     1
102
RTVSPropertyOp13
 70
     1
102
RTVSPropertyOp14
 70
     1
102
RTVSPropertyOp15
 70
     1
102
RTVSPropertyOp16
 70
     1
102
RTVSPropertyOp17
 70
     1
102
RTVSPropertyOp18
 70
     1
102
RTVSPropertyOp19
 70
     1
102
RTVSPropertyOp20
 70
     1
102
RTVSPropertyOp21
 70
     1
102
RTVSPropertyOp22
 70
     1
102
RTVSPropertyOp23
 70
     1
102
RTVSPropertyOp24
 70
     1
102
RTVSPropertyOp25
 70
     1
102
RTVSPropertyOp26
 70
     1
102
RTVSPropertyOp27
 70
     1
  0
XRECORD
  5
85C
102
{ACAD_REACTORS
330
85B
102
}
330
85B
100
AcDbXrecord
280
     1
102
RTVSPropertyOp0
 70
     1
102
RTVSPropertyOp1
 70
     1
102
RTVSPropertyOp2
 70
     1
102
RTVSPropertyOp3
 70
     1
102
RTVSPropertyOp4
 70
     1
102
RTVSPropertyOp5
 70
     1
102
RTVSPropertyOp6
 70
     1
102
RTVSPropertyOp7
 70
     1
102
RTVSPropertyOp8
 70
     1
102
RTVSPropertyOp9
 70
     1
102
RTVSPropertyOp10
 70
     1
102
RTVSPropertyOp11
 70
     1
102
RTVSPropertyOp12
 70
     1
102
RTVSPropertyOp13
 70
     1
102
RTVSPropertyOp14
 70
     1
102
RTVSPropertyOp15
 70
     1
102
RTVSPropertyOp16
 70
     1
102
RTVSPropertyOp17
 70
     1
102
RTVSPropertyOp18
 70
     1
102
RTVSPropertyOp19
 70
     1
102
RTVSPropertyOp20
 70
     1
102
RTVSPropertyOp21
 70
     1
102
RTVSPropertyOp22
 70
     1
102
RTVSPropertyOp23
 70
     1
102
RTVSPropertyOp24
 70
     1
102
RTVSPropertyOp25
 70
     1
102
RTVSPropertyOp26
 70
     1
102
RTVSPropertyOp27
 70
     1
  0
XRECORD
  5
860
102
{ACAD_REACTORS
330
85F
102
}
330
85F
100
AcDbXrecord
280
     1
102
RTVSPropertyOp0
 70
     1
102
RTVSPropertyOp1
 70
     1
102
RTVSPropertyOp2
 70
     1
102
RTVSPropertyOp3
 70
     1
102
RTVSPropertyOp4
 70
     1
102
RTVSPropertyOp5
 70
     1
102
RTVSPropertyOp6
 70
     1
102
RTVSPropertyOp7
 70
     1
102
RTVSPropertyOp8
 70
     1
102
RTVSPropertyOp9
 70
     1
102
RTVSPropertyOp10
 70
     1
102
RTVSPropertyOp11
 70
     1
102
RTVSPropertyOp12
 70
     1
102
RTVSPropertyOp13
 70
     1
102
RTVSPropertyOp14
 70
     1
102
RTVSPropertyOp15
 70
     1
102
RTVSPropertyOp16
 70
     1
102
RTVSPropertyOp17
 70
     1
102
RTVSPropertyOp18
 70
     1
102
RTVSPropertyOp19
 70
     1
102
RTVSPropertyOp20
 70
     1
102
RTVSPropertyOp21
 70
     1
102
RTVSPropertyOp22
 70
     1
102
RTVSPropertyOp23
 70
     1
102
RTVSPropertyOp24
 70
     1
102
RTVSPropertyOp25
 70
     1
102
RTVSPropertyOp26
 70
     1
102
RTVSPropertyOp27
 70
     1
  0
XRECORD
  5
868
102
{ACAD_REACTORS
330
867
102
}
330
867
100
AcDbXrecord
280
     1
102
RTVSPropertyOp0
 70
     1
102
RTVSPropertyOp1
 70
     1
102
RTVSPropertyOp2
 70
     1
102
RTVSPropertyOp3
 70
     1
102
RTVSPropertyOp4
 70
     1
102
RTVSPropertyOp5
 70
     1
102
RTVSPropertyOp6
 70
     1
102
RTVSPropertyOp7
 70
     1
102
RTVSPropertyOp8
 70
     1
102
RTVSPropertyOp9
 70
     1
102
RTVSPropertyOp10
 70
     1
102
RTVSPropertyOp11
 70
     1
102
RTVSPropertyOp12
 70
     1
102
RTVSPropertyOp13
 70
     1
102
RTVSPropertyOp14
 70
     1
102
RTVSPropertyOp15
 70
     1
102
RTVSPropertyOp16
 70
     1
102
RTVSPropertyOp17
 70
     1
102
RTVSPropertyOp18
 70
     1
102
RTVSPropertyOp19
 70
     1
102
RTVSPropertyOp20
 70
     1
102
RTVSPropertyOp21
 70
     1
102
RTVSPropertyOp22
 70
     1
102
RTVSPropertyOp23
 70
     1
102
RTVSPropertyOp24
 70
     1
102
RTVSPropertyOp25
 70
     1
102
RTVSPropertyOp26
 70
     1
102
RTVSPropertyOp27
 70
     1
  0
XRECORD
  5
870
102
{ACAD_REACTORS
330
86F
102
}
330
86F
100
AcDbXrecord
280
     1
102
RTVSPropertyOp0
 70
     1
102
RTVSPropertyOp1
 70
     1
102
RTVSPropertyOp2
 70
     1
102
RTVSPropertyOp3
 70
     1
102
RTVSPropertyOp4
 70
     1
102
RTVSPropertyOp5
 70
     1
102
RTVSPropertyOp6
 70
     1
102
RTVSPropertyOp7
 70
     1
102
RTVSPropertyOp8
 70
     1
102
RTVSPropertyOp9
 70
     1
102
RTVSPropertyOp10
 70
     1
102
RTVSPropertyOp11
 70
     1
102
RTVSPropertyOp12
 70
     1
102
RTVSPropertyOp13
 70
     1
102
RTVSPropertyOp14
 70
     1
102
RTVSPropertyOp15
 70
     1
102
RTVSPropertyOp16
 70
     1
102
RTVSPropertyOp17
 70
     1
102
RTVSPropertyOp18
 70
     1
102
RTVSPropertyOp19
 70
     1
102
RTVSPropertyOp20
 70
     1
102
RTVSPropertyOp21
 70
     1
102
RTVSPropertyOp22
 70
     1
102
RTVSPropertyOp23
 70
     1
102
RTVSPropertyOp24
 70
     1
102
RTVSPropertyOp25
 70
     1
102
RTVSPropertyOp26
 70
     1
102
RTVSPropertyOp27
 70
     1
  0
XRECORD
  5
864
102
{ACAD_REACTORS
330
863
102
}
330
863
100
AcDbXrecord
280
     1
102
RTVSPropertyOp0
 70
     1
102
RTVSPropertyOp1
 70
     1
102
RTVSPropertyOp2
 70
     1
102
RTVSPropertyOp3
 70
     1
102
RTVSPropertyOp4
 70
     1
102
RTVSPropertyOp5
 70
     1
102
RTVSPropertyOp6
 70
     1
102
RTVSPropertyOp7
 70
     1
102
RTVSPropertyOp8
 70
     1
102
RTVSPropertyOp9
 70
     1
102
RTVSPropertyOp10
 70
     1
102
RTVSPropertyOp11
 70
     1
102
RTVSPropertyOp12
 70
     1
102
RTVSPropertyOp13
 70
     1
102
RTVSPropertyOp14
 70
     1
102
RTVSPropertyOp15
 70
     1
102
RTVSPropertyOp16
 70
     1
102
RTVSPropertyOp17
 70
     1
102
RTVSPropertyOp18
 70
     1
102
RTVSPropertyOp19
 70
     1
102
RTVSPropertyOp20
 70
     1
102
RTVSPropertyOp21
 70
     1
102
RTVSPropertyOp22
 70
     1
102
RTVSPropertyOp23
 70
     1
102
RTVSPropertyOp24
 70
     1
102
RTVSPropertyOp25
 70
     1
102
RTVSPropertyOp26
 70
     1
102
RTVSPropertyOp27
 70
     1
  0
XRECORD
  5
866
102
{ACAD_REACTORS
330
865
102
}
330
865
100
AcDbXrecord
280
     1
102
RTVSPropertyOp0
 70
     1
102
RTVSPropertyOp1
 70
     1
102
RTVSPropertyOp2
 70
     1
102
RTVSPropertyOp3
 70
     1
102
RTVSPropertyOp4
 70
     1
102
RTVSPropertyOp5
 70
     1
102
RTVSPropertyOp6
 70
     1
102
RTVSPropertyOp7
 70
     1
102
RTVSPropertyOp8
 70
     1
102
RTVSPropertyOp9
 70
     1
102
RTVSPropertyOp10
 70
     1
102
RTVSPropertyOp11
 70
     1
102
RTVSPropertyOp12
 70
     1
102
RTVSPropertyOp13
 70
     1
102
RTVSPropertyOp14
 70
     1
102
RTVSPropertyOp15
 70
     1
102
RTVSPropertyOp16
 70
     1
102
RTVSPropertyOp17
 70
     1
102
RTVSPropertyOp18
 70
     1
102
RTVSPropertyOp19
 70
     1
102
RTVSPropertyOp20
 70
     1
102
RTVSPropertyOp21
 70
     1
102
RTVSPropertyOp22
 70
     1
102
RTVSPropertyOp23
 70
     1
102
RTVSPropertyOp24
 70
     1
102
RTVSPropertyOp25
 70
     1
102
RTVSPropertyOp26
 70
     1
102
RTVSPropertyOp27
 70
     1
  0
XRECORD
  5
86E
102
{ACAD_REACTORS
330
86D
102
}
330
86D
100
AcDbXrecord
280
     1
102
RTVSPropertyOp0
 70
     1
102
RTVSPropertyOp1
 70
     1
102
RTVSPropertyOp2
 70
     1
102
RTVSPropertyOp3
 70
     1
102
RTVSPropertyOp4
 70
     1
102
RTVSPropertyOp5
 70
     1
102
RTVSPropertyOp6
 70
     1
102
RTVSPropertyOp7
 70
     1
102
RTVSPropertyOp8
 70
     1
102
RTVSPropertyOp9
 70
     1
102
RTVSPropertyOp10
 70
     1
102
RTVSPropertyOp11
 70
     1
102
RTVSPropertyOp12
 70
     1
102
RTVSPropertyOp13
 70
     1
102
RTVSPropertyOp14
 70
     1
102
RTVSPropertyOp15
 70
     1
102
RTVSPropertyOp16
 70
     1
102
RTVSPropertyOp17
 70
     1
102
RTVSPropertyOp18
 70
     1
102
RTVSPropertyOp19
 70
     1
102
RTVSPropertyOp20
 70
     1
102
RTVSPropertyOp21
 70
     1
102
RTVSPropertyOp22
 70
     1
102
RTVSPropertyOp23
 70
     1
102
RTVSPropertyOp24
 70
     1
102
RTVSPropertyOp25
 70
     1
102
RTVSPropertyOp26
 70
     1
102
RTVSPropertyOp27
 70
     1
  0
XRECORD
  5
852
102
{ACAD_REACTORS
330
851
102
}
330
851
100
AcDbXrecord
280
     1
102
RTVSPropertyOp0
 70
     1
102
RTVSPropertyOp1
 70
     1
102
RTVSPropertyOp2
 70
     1
102
RTVSPropertyOp3
 70
     1
102
RTVSPropertyOp4
 70
     1
102
RTVSPropertyOp5
 70
     1
102
RTVSPropertyOp6
 70
     1
102
RTVSPropertyOp7
 70
     1
102
RTVSPropertyOp8
 70
     1
102
RTVSPropertyOp9
 70
     1
102
RTVSPropertyOp10
 70
     1
102
RTVSPropertyOp11
 70
     1
102
RTVSPropertyOp12
 70
     1
102
RTVSPropertyOp13
 70
     1
102
RTVSPropertyOp14
 70
     1
102
RTVSPropertyOp15
 70
     1
102
RTVSPropertyOp16
 70
     1
102
RTVSPropertyOp17
 70
     1
102
RTVSPropertyOp18
 70
     1
102
RTVSPropertyOp19
 70
     1
102
RTVSPropertyOp20
 70
     1
102
RTVSPropertyOp21
 70
     1
102
RTVSPropertyOp22
 70
     1
102
RTVSPropertyOp23
 70
     1
102
RTVSPropertyOp24
 70
     1
102
RTVSPropertyOp25
 70
     1
102
RTVSPropertyOp26
 70
     1
102
RTVSPropertyOp27
 70
     1
  0
XRECORD
  5
854
102
{ACAD_REACTORS
330
853
102
}
330
853
100
AcDbXrecord
280
     1
102
RTVSPropertyOp0
 70
     1
102
RTVSPropertyOp1
 70
     1
102
RTVSPropertyOp2
 70
     1
102
RTVSPropertyOp3
 70
     1
102
RTVSPropertyOp4
 70
     1
102
RTVSPropertyOp5
 70
     1
102
RTVSPropertyOp6
 70
     1
102
RTVSPropertyOp7
 70
     1
102
RTVSPropertyOp8
 70
     1
102
RTVSPropertyOp9
 70
     1
102
RTVSPropertyOp10
 70
     1
102
RTVSPropertyOp11
 70
     1
102
RTVSPropertyOp12
 70
     1
102
RTVSPropertyOp13
 70
     1
102
RTVSPropertyOp14
 70
     1
102
RTVSPropertyOp15
 70
     1
102
RTVSPropertyOp16
 70
     1
102
RTVSPropertyOp17
 70
     1
102
RTVSPropertyOp18
 70
     1
102
RTVSPropertyOp19
 70
     1
102
RTVSPropertyOp20
 70
     1
102
RTVSPropertyOp21
 70
     1
102
RTVSPropertyOp22
 70
     1
102
RTVSPropertyOp23
 70
     1
102
RTVSPropertyOp24
 70
     1
102
RTVSPropertyOp25
 70
     1
102
RTVSPropertyOp26
 70
     1
102
RTVSPropertyOp27
 70
     1
  0
XRECORD
  5
856
102
{ACAD_REACTORS
330
855
102
}
330
855
100
AcDbXrecord
280
     1
102
RTVSPropertyOp0
 70
     1
102
RTVSPropertyOp1
 70
     1
102
RTVSPropertyOp2
 70
     1
102
RTVSPropertyOp3
 70
     1
102
RTVSPropertyOp4
 70
     1
102
RTVSPropertyOp5
 70
     1
102
RTVSPropertyOp6
 70
     1
102
RTVSPropertyOp7
 70
     1
102
RTVSPropertyOp8
 70
     1
102
RTVSPropertyOp9
 70
     1
102
RTVSPropertyOp10
 70
     1
102
RTVSPropertyOp11
 70
     1
102
RTVSPropertyOp12
 70
     1
102
RTVSPropertyOp13
 70
     1
102
RTVSPropertyOp14
 70
     1
102
RTVSPropertyOp15
 70
     1
102
RTVSPropertyOp16
 70
     1
102
RTVSPropertyOp17
 70
     1
102
RTVSPropertyOp18
 70
     1
102
RTVSPropertyOp19
 70
     1
102
RTVSPropertyOp20
 70
     1
102
RTVSPropertyOp21
 70
     1
102
RTVSPropertyOp22
 70
     1
102
RTVSPropertyOp23
 70
     1
102
RTVSPropertyOp24
 70
     1
102
RTVSPropertyOp25
 70
     1
102
RTVSPropertyOp26
 70
     1
102
RTVSPropertyOp27
 70
     1
  0
XRECORD
  5
858
102
{ACAD_REACTORS
330
857
102
}
330
857
100
AcDbXrecord
280
     1
102
RTVSPropertyOp0
 70
     1
102
RTVSPropertyOp1
 70
     1
102
RTVSPropertyOp2
 70
     1
102
RTVSPropertyOp3
 70
     1
102
RTVSPropertyOp4
 70
     1
102
RTVSPropertyOp5
 70
     1
102
RTVSPropertyOp6
 70
     1
102
RTVSPropertyOp7
 70
     1
102
RTVSPropertyOp8
 70
     1
102
RTVSPropertyOp9
 70
     1
102
RTVSPropertyOp10
 70
     1
102
RTVSPropertyOp11
 70
     1
102
RTVSPropertyOp12
 70
     1
102
RTVSPropertyOp13
 70
     1
102
RTVSPropertyOp14
 70
     1
102
RTVSPropertyOp15
 70
     1
102
RTVSPropertyOp16
 70
     1
102
RTVSPropertyOp17
 70
     1
102
RTVSPropertyOp18
 70
     1
102
RTVSPropertyOp19
 70
     1
102
RTVSPropertyOp20
 70
     1
102
RTVSPropertyOp21
 70
     1
102
RTVSPropertyOp22
 70
     1
102
RTVSPropertyOp23
 70
     1
102
RTVSPropertyOp24
 70
     1
102
RTVSPropertyOp25
 70
     1
102
RTVSPropertyOp26
 70
     1
102
RTVSPropertyOp27
 70
     1
  0
XRECORD
  5
86C
102
{ACAD_REACTORS
330
86B
102
}
330
86B
100
AcDbXrecord
280
     1
102
RTVSPropertyOp0
 70
     1
102
RTVSPropertyOp1
 70
     1
102
RTVSPropertyOp2
 70
     1
102
RTVSPropertyOp3
 70
     1
102
RTVSPropertyOp4
 70
     1
102
RTVSPropertyOp5
 70
     1
102
RTVSPropertyOp6
 70
     1
102
RTVSPropertyOp7
 70
     1
102
RTVSPropertyOp8
 70
     1
102
RTVSPropertyOp9
 70
     1
102
RTVSPropertyOp10
 70
     1
102
RTVSPropertyOp11
 70
     1
102
RTVSPropertyOp12
 70
     1
102
RTVSPropertyOp13
 70
     1
102
RTVSPropertyOp14
 70
     1
102
RTVSPropertyOp15
 70
     1
102
RTVSPropertyOp16
 70
     1
102
RTVSPropertyOp17
 70
     1
102
RTVSPropertyOp18
 70
     1
102
RTVSPropertyOp19
 70
     1
102
RTVSPropertyOp20
 70
     1
102
RTVSPropertyOp21
 70
     1
102
RTVSPropertyOp22
 70
     1
102
RTVSPropertyOp23
 70
     1
102
RTVSPropertyOp24
 70
     1
102
RTVSPropertyOp25
 70
     1
102
RTVSPropertyOp26
 70
     1
102
RTVSPropertyOp27
 70
     1
  0
XRECORD
  5
862
102
{ACAD_REACTORS
330
861
102
}
330
861
100
AcDbXrecord
280
     1
102
RTVSPropertyOp0
 70
     1
102
RTVSPropertyOp1
 70
     1
102
RTVSPropertyOp2
 70
     1
102
RTVSPropertyOp3
 70
     1
102
RTVSPropertyOp4
 70
     1
102
RTVSPropertyOp5
 70
     1
102
RTVSPropertyOp6
 70
     1
102
RTVSPropertyOp7
 70
     1
102
RTVSPropertyOp8
 70
     1
102
RTVSPropertyOp9
 70
     1
102
RTVSPropertyOp10
 70
     1
102
RTVSPropertyOp11
 70
     1
102
RTVSPropertyOp12
 70
     1
102
RTVSPropertyOp13
 70
     1
102
RTVSPropertyOp14
 70
     1
102
RTVSPropertyOp15
 70
     1
102
RTVSPropertyOp16
 70
     1
102
RTVSPropertyOp17
 70
     1
102
RTVSPropertyOp18
 70
     1
102
RTVSPropertyOp19
 70
     1
102
RTVSPropertyOp20
 70
     1
102
RTVSPropertyOp21
 70
     1
102
RTVSPropertyOp22
 70
     1
102
RTVSPropertyOp23
 70
     1
102
RTVSPropertyOp24
 70
     1
102
RTVSPropertyOp25
 70
     1
102
RTVSPropertyOp26
 70
     1
102
RTVSPropertyOp27
 70
     1
  0
XRECORD
  5
86A
102
{ACAD_REACTORS
330
869
102
}
330
869
100
AcDbXrecord
280
     1
102
RTVSPropertyOp0
 70
     1
102
RTVSPropertyOp1
 70
     1
102
RTVSPropertyOp2
 70
     1
102
RTVSPropertyOp3
 70
     1
102
RTVSPropertyOp4
 70
     1
102
RTVSPropertyOp5
 70
     1
102
RTVSPropertyOp6
 70
     1
102
RTVSPropertyOp7
 70
     1
102
RTVSPropertyOp8
 70
     1
102
RTVSPropertyOp9
 70
     1
102
RTVSPropertyOp10
 70
     1
102
RTVSPropertyOp11
 70
     1
102
RTVSPropertyOp12
 70
     1
102
RTVSPropertyOp13
 70
     1
102
RTVSPropertyOp14
 70
     1
102
RTVSPropertyOp15
 70
     1
102
RTVSPropertyOp16
 70
     1
102
RTVSPropertyOp17
 70
     1
102
RTVSPropertyOp18
 70
     1
102
RTVSPropertyOp19
 70
     1
102
RTVSPropertyOp20
 70
     1
102
RTVSPropertyOp21
 70
     1
102
RTVSPropertyOp22
 70
     1
102
RTVSPropertyOp23
 70
     1
102
RTVSPropertyOp24
 70
     1
102
RTVSPropertyOp25
 70
     1
102
RTVSPropertyOp26
 70
     1
102
RTVSPropertyOp27
 70
     1
  0
ENDSEC
  0
EOF
